999
DXF file: 3-1031_FRONT.dxf
999
Pro/ENGINEER 2018400 by Parametric Technology Corporation
  0
SECTION
  2
HEADER
  9
$ACADVER
  1
AC1027
  9
$DWGCODEPAGE
  3
ANSI_1252
  9
$EXTMAX
 10
11.0
 20
8.5
 30
0.0
  9
$EXTMIN
 10
0.0
 20
0.0
 30
0.0
  9
$LIMMIN
 10
0.0
 20
0.0
  9
$LIMMAX
 10
11.0
 20
8.5
  9
$VIEWCTR
 10
5.5
 20
4.25
  9
$VIEWSIZE
 40
8.5
  9
$CLAYER
  8
0
  9
$LTSCALE
 40
0.605
  9
$CELTYPE
  6
BYLAYER
  9
$DIMSCALE
 40
1.0
  9
$DIMASZ
 40
0.1
  9
$DIMEXO
 40
0.0625
  9
$DIMDLI
 40
0.418
  9
$DIMEXE
 40
0.125
  9
$DIMCEN
 40
0.099
  9
$DIMLFAC
 40
1.0
  9
$DIMBLK
  1
_FILLED
  9
$DIMALT
 70
1
  9
$DIMALTD
 70
2
  9
$DIMALTTD
 70
2
  9
$DIMALTF
 40
25.4
  9
$DIMTXT
 40
0.08
  9
$DIMTOL
 70
1
  9
$DIMLIM
 70
0
  9
$DIMTFAC
 40
1.0
  9
$DIMTP
 40
0.001
  9
$DIMTM
 40
0.001
  9
$DIMGAP
 40
0.09
  9
$DIMDSEP
 70
46
  9
$AUNITS
 70
0
  9
$PDMODE
 70
3
  9
$PDSIZE
 40
0.3125
  9
$HANDSEED
  5
36A
  9
$TILEMODE
 70
1
  9
$MEASUREMENT
 70
0
  9
$INSUNITS
 70
1
  0
ENDSEC
  0
SECTION
  2
CLASSES
  0
CLASS
  1
ACDBDICTIONARYWDFLT
  2
AcDbDictionaryWithDefault
  3
AutoCAD 2000
 90
0
 91
1
280
0
281
0
  0
CLASS
  1
ACDBPLACEHOLDER
  2
AcDbPlaceHolder
  3
AutoCAD 2000
 90
0
 91
1
280
0
281
0
  0
CLASS
  1
LAYOUT
  2
AcDbLayout
  3
AutoCAD 2000
 90
0
 91
0
280
0
281
0
  0
ENDSEC
  0
SECTION
  2
TABLES
  0
TABLE
  2
VPORT
  5
8
100
AcDbSymbolTable
 70
2
  0
VPORT
  5
1F4
100
AcDbSymbolTableRecord
100
AcDbViewportTableRecord
  2
*ACTIVE
 70
0
 10
0.0
 20
0.0
 11
1.0
 21
1.0
 12
5.5
 22
4.25
 13
0.0
 23
0.0
 14
1.0
 24
1.0
 15
0.0
 25
0.0
 16
0.0
 26
0.0
 36
1.0
 17
0.0
 27
0.0
 37
0.0
 40
8.5
 41
1.2941176471
 42
50.0
 43
0.0
 44
0.0
 50
0.0
 51
0.0
 71
0
 72
100
 73
1
 74
1
 75
0
 76
0
 77
0
 78
0
  0
ENDTAB
  0
TABLE
  2
LTYPE
  5
5
100
AcDbSymbolTable
 70
6
  0
LTYPE
  5
14
100
AcDbSymbolTableRecord
100
AcDbLinetypeTableRecord
  2
BYBLOCK
 70
0
  3

 72
65
 73
0
 40
0.0
  0
LTYPE
  5
15
100
AcDbSymbolTableRecord
100
AcDbLinetypeTableRecord
  2
BYLAYER
 70
0
  3

 72
65
 73
0
 40
0.0
  0
LTYPE
  5
16
100
AcDbSymbolTableRecord
100
AcDbLinetypeTableRecord
  2
CONTINUOUS
 70
64
  3
Solid line
 72
65
 73
0
 40
0.0
  0
LTYPE
  5
1F5
100
AcDbSymbolTableRecord
100
AcDbLinetypeTableRecord
  2
CENTER
 70
64
  3
____ _ ____ _ ____ _ ____ _ ____ _ ____ _ ____
 72
65
 73
4
 40
0.6
 49
0.375
 74
0
 49
-0.075
 74
0
 49
0.075
 74
0
 49
-0.075
 74
0
  0
LTYPE
  5
1F6
100
AcDbSymbolTableRecord
100
AcDbLinetypeTableRecord
  2
HIDDEN
 70
64
  3
- - - - - - - - - - - - - - - - - - - -
 72
65
 73
2
 40
0.2
 49
0.1
 74
0
 49
-0.1
 74
0
  0
LTYPE
  5
1F7
100
AcDbSymbolTableRecord
100
AcDbLinetypeTableRecord
  2
PHANTOM
 70
64
  3
_____ _ _ _____ _ _ _____ _ _ _____
 72
65
 73
6
 40
0.8
 49
0.45
 74
0
 49
-0.05
 74
0
 49
0.1
 74
0
 49
-0.05
 74
0
 49
0.1
 74
0
 49
-0.05
 74
0
  0
LTYPE
  5
1F8
100
AcDbSymbolTableRecord
100
AcDbLinetypeTableRecord
  2
DOT
 70
64
  3
. . . . . . . . . . . . . . . . . . . .
 72
65
 73
2
 40
0.2
 49
0.1
 74
0
 49
-0.1
 74
0
  0
LTYPE
  5
1F9
100
AcDbSymbolTableRecord
100
AcDbLinetypeTableRecord
  2
DASHED
 70
64
  3
- - - - - - - - - - - - - - - - - - - -
 72
65
 73
2
 40
0.2
 49
0.1
 74
0
 49
-0.1
 74
0
  0
ENDTAB
  0
TABLE
  2
LAYER
  5
2
100
AcDbSymbolTable
 70
36
  0
LAYER
  5
10
100
AcDbSymbolTableRecord
100
AcDbLayerTableRecord
  2
0
 70
0
 62
7
  6
CONTINUOUS
370
-3
390
F
  0
LAYER
  5
1FA
100
AcDbSymbolTableRecord
100
AcDbLayerTableRecord
  2
DEFAULT_1
 70
0
 62
7
  6
CENTER
370
-3
390
F
  0
LAYER
  5
1FB
100
AcDbSymbolTableRecord
100
AcDbLayerTableRecord
  2
DEFAULT_2
 70
0
 62
8
  6
HIDDEN
370
-3
390
F
  0
LAYER
  5
1FC
100
AcDbSymbolTableRecord
100
AcDbLayerTableRecord
  2
DEFAULT_3
 70
0
 62
7
  6
PHANTOM
370
-3
390
F
  0
LAYER
  5
1FD
100
AcDbSymbolTableRecord
100
AcDbLayerTableRecord
  2
2-218_ASSY_PLANES
 70
0
 62
7
  6
CONTINUOUS
370
-3
390
F
  0
LAYER
  5
1FE
100
AcDbSymbolTableRecord
100
AcDbLayerTableRecord
  2
2-259_ASSY_PLANES
 70
0
 62
7
  6
CONTINUOUS
370
-3
390
F
  0
LAYER
  5
1FF
100
AcDbSymbolTableRecord
100
AcDbLayerTableRecord
  2
ALL_ASSEMBLY_MEMBERS
 70
0
 62
7
  6
CONTINUOUS
370
-3
390
F
  0
LAYER
  5
200
100
AcDbSymbolTableRecord
100
AcDbLayerTableRecord
  2
ALL_FEATURES
 70
0
 62
7
  6
CONTINUOUS
370
-3
390
F
  0
LAYER
  5
201
100
AcDbSymbolTableRecord
100
AcDbLayerTableRecord
  2
AXES_FEATURES
 70
0
 62
7
  6
CONTINUOUS
370
-3
390
F
  0
LAYER
  5
202
100
AcDbSymbolTableRecord
100
AcDbLayerTableRecord
  2
CHAMFER_FEATURES
 70
0
 62
7
  6
CONTINUOUS
370
-3
390
F
  0
LAYER
  5
203
100
AcDbSymbolTableRecord
100
AcDbLayerTableRecord
  2
CUT_FEATURES
 70
0
 62
7
  6
CONTINUOUS
370
-3
390
F
  0
LAYER
  5
204
100
AcDbSymbolTableRecord
100
AcDbLayerTableRecord
  2
DATUM_CURVES
 70
0
 62
7
  6
CONTINUOUS
370
-3
390
F
  0
LAYER
  5
205
100
AcDbSymbolTableRecord
100
AcDbLayerTableRecord
  2
DATUM_PLANES
 70
0
 62
7
  6
CONTINUOUS
370
-3
390
F
  0
LAYER
  5
206
100
AcDbSymbolTableRecord
100
AcDbLayerTableRecord
  2
DEFAULT_COORDINATE_SYSTEM
 70
0
 62
7
  6
CONTINUOUS
370
-3
390
F
  0
LAYER
  5
207
100
AcDbSymbolTableRecord
100
AcDbLayerTableRecord
  2
DEFAULT_DATUM_AXES
 70
0
 62
7
  6
CONTINUOUS
370
-3
390
F
  0
LAYER
  5
208
100
AcDbSymbolTableRecord
100
AcDbLayerTableRecord
  2
DEFAULT_DATUM_CURVES
 70
0
 62
7
  6
CONTINUOUS
370
-3
390
F
  0
LAYER
  5
209
100
AcDbSymbolTableRecord
100
AcDbLayerTableRecord
  2
DEFAULT_DATUM_PLANES
 70
0
 62
7
  6
CONTINUOUS
370
-3
390
F
  0
LAYER
  5
20A
100
AcDbSymbolTableRecord
100
AcDbLayerTableRecord
  2
DEFAULT_SURFACES
 70
0
 62
7
  6
CONTINUOUS
370
-3
390
F
  0
LAYER
  5
20B
100
AcDbSymbolTableRecord
100
AcDbLayerTableRecord
  2
DIMENSIONS
 70
0
 62
7
  6
CONTINUOUS
370
-3
390
F
  0
LAYER
  5
20C
100
AcDbSymbolTableRecord
100
AcDbLayerTableRecord
  2
LAY0001
 70
0
 62
7
  6
CONTINUOUS
370
-3
390
F
  0
LAYER
  5
20D
100
AcDbSymbolTableRecord
100
AcDbLayerTableRecord
  2
PART_REFERENCE_DIMENSIONS
 70
0
 62
7
  6
CONTINUOUS
370
-3
390
F
  0
LAYER
  5
20E
100
AcDbSymbolTableRecord
100
AcDbLayerTableRecord
  2
PLATED_AREA
 70
0
 62
7
  6
CONTINUOUS
370
-3
390
F
  0
LAYER
  5
20F
100
AcDbSymbolTableRecord
100
AcDbLayerTableRecord
  2
PLATED_SURFACE_AREA
 70
0
 62
7
  6
CONTINUOUS
370
-3
390
F
  0
LAYER
  5
210
100
AcDbSymbolTableRecord
100
AcDbLayerTableRecord
  2
PROTRUSION_FEATURES
 70
0
 62
7
  6
CONTINUOUS
370
-3
390
F
  0
LAYER
  5
211
100
AcDbSymbolTableRecord
100
AcDbLayerTableRecord
  2
QUILT
 70
0
 62
7
  6
CONTINUOUS
370
-3
390
F
  0
LAYER
  5
212
100
AcDbSymbolTableRecord
100
AcDbLayerTableRecord
  2
QUILTS
 70
0
 62
7
  6
CONTINUOUS
370
-3
390
F
  0
LAYER
  5
213
100
AcDbSymbolTableRecord
100
AcDbLayerTableRecord
  2
REFERENCE_DIMENSIONS
 70
0
 62
7
  6
CONTINUOUS
370
-3
390
F
  0
LAYER
  5
214
100
AcDbSymbolTableRecord
100
AcDbLayerTableRecord
  2
ROUND_FEATURES
 70
0
 62
7
  6
CONTINUOUS
370
-3
390
F
  0
LAYER
  5
215
100
AcDbSymbolTableRecord
100
AcDbLayerTableRecord
  2
SHELL_FEATURES
 70
0
 62
7
  6
CONTINUOUS
370
-3
390
F
  0
LAYER
  5
216
100
AcDbSymbolTableRecord
100
AcDbLayerTableRecord
  2
SIZE_REF
 70
0
 62
7
  6
CONTINUOUS
370
-3
390
F
  0
LAYER
  5
217
100
AcDbSymbolTableRecord
100
AcDbLayerTableRecord
  2
WETTED_SURFACE_AREA
 70
0
 62
7
  6
CONTINUOUS
370
-3
390
F
  0
LAYER
  5
218
100
AcDbSymbolTableRecord
100
AcDbLayerTableRecord
  2
XSEC_DATUMS
 70
0
 62
7
  6
CONTINUOUS
370
-3
390
F
  0
ENDTAB
  0
TABLE
  2
STYLE
  5
3
100
AcDbSymbolTable
 70
1
  0
STYLE
  5
11
100
AcDbSymbolTableRecord
100
AcDbTextStyleTableRecord
  2
STANDARD
 70
0
 40
0.0
 41
0.8
 50
0.0
 71
0
 42
0.2
  3
txt
  4

  0
STYLE
  5
219
100
AcDbSymbolTableRecord
100
AcDbTextStyleTableRecord
  2
TEXTSTYLE_1
 70
0
 40
0.0
 41
0.8
 50
0.0
 71
0
 42
0.2
  3
gdt
  4

  0
ENDTAB
  0
TABLE
  2
VIEW
  5
6
100
AcDbSymbolTable
 70
0
  0
ENDTAB
  0
TABLE
  2
UCS
  5
7
100
AcDbSymbolTable
 70
0
  0
ENDTAB
  0
TABLE
  2
APPID
  5
9
100
AcDbSymbolTable
 70
1
  0
APPID
  5
21A
100
AcDbSymbolTableRecord
100
AcDbRegAppTableRecord
  2
ACAD
 70
0
  0
ENDTAB
  0
TABLE
  2
BLOCK_RECORD
  5
1
100
AcDbSymbolTable
 70
0
  0
BLOCK_RECORD
  5
21B
100
AcDbSymbolTableRecord
100
AcDbBlockTableRecord
  2
*Model_Space
  0
BLOCK_RECORD
  5
21C
100
AcDbSymbolTableRecord
100
AcDbBlockTableRecord
  2
*Paper_Space
  0
BLOCK_RECORD
  5
21D
100
AcDbSymbolTableRecord
100
AcDbBlockTableRecord
  2
_FILLED
  0
ENDTAB
  0
TABLE
  2
DIMSTYLE
  5
A
100
AcDbSymbolTable
 70
1
100
AcDbDimStyleTable
 71
0
  0
DIMSTYLE
105
21E
100
AcDbSymbolTableRecord
100
AcDbDimStyleTableRecord
  2
STANDARD
 70
0
  3

  4

 40
1.0
 41
0.1
 42
0.0625
 43
0.38
 44
0.125
 45
0.0
 46
0.0
 47
0.001
 48
0.001
140
0.08
141
0.09
142
0.0
143
25.4
144
1.0
145
0.0
146
1.0
147
0.09
 71
1.0
 72
0.0
 73
1
 74
1
 75
0
 76
0
 77
0
 78
4
 79
1
170
1
171
2
172
0
173
0
174
0
175
0
176
0
177
0
178
0
270
2
179
3
271
3
272
3
273
2
274
2
275
0
280
0
281
0
282
0
283
1
284
4
285
0
286
0
287
3
288
0
340
11
278
46
341
21D
342
21D
343
21D
344
21D
  0
ENDTAB
  0
ENDSEC
  0
SECTION
  2
BLOCKS
  0
BLOCK
  5
20
100
AcDbEntity
  8
0
100
AcDbBlockBegin
  2
*Model_Space
 70
0
 10
0.0
 20
0.0
 30
0.0
  3
*Model_Space
  1

  0
ENDBLK
  5
21
100
AcDbEntity
  8
0
100
AcDbBlockEnd
  0
BLOCK
  5
1C
100
AcDbEntity
  8
0
100
AcDbBlockBegin
  2
*Paper_Space
 70
0
 10
0.0
 20
0.0
 30
0.0
  3
*Paper_Space
  1

  0
ENDBLK
  5
1D
100
AcDbEntity
  8
0
100
AcDbBlockEnd
  0
BLOCK
  5
21F
100
AcDbEntity
  8
0
100
AcDbBlockBegin
  2
_FILLED
 70
64
 10
0.0
 20
0.0
  3
_FILLED
  1

  0
SOLID
  5
220
100
AcDbEntity
  8
0
  6
BYBLOCK
 62
0
100
AcDbTrace
 10
0.0
 20
0.0
 11
-1.0
 21
0.2
 12
-1.0
 22
-0.2
 13
-1.0
 23
-0.2
  0
ENDBLK
  5
221
100
AcDbEntity
  8
0
  6
BYBLOCK
 62
0
100
AcDbBlockEnd
  0
ENDSEC
  0
SECTION
  2
ENTITIES
  0
MTEXT
  5
222
100
AcDbEntity
  8
0
100
AcDbMText
 62
2
  6
CONTINUOUS
  7
STANDARD
 71
3
 72
1
 10
2.444681677
 20
1.3935254957
 30
0.0
 11
1.0
 21
0.0
 31
0.0
 73
2
 44
0.9
  1
SCALE  .500
 40
0.08
 41
0.704
  0
LINE
  5
223
100
AcDbEntity
  8
0
100
AcDbLine
 62
7
  6
CONTINUOUS
 10
0.0
 20
0.0
 11
0.0
 21
8.5
  0
LINE
  5
224
100
AcDbEntity
  8
0
100
AcDbLine
 62
7
  6
CONTINUOUS
 10
0.0
 20
0.0
 11
11.0
 21
0.0
  0
LINE
  5
225
100
AcDbEntity
  8
0
100
AcDbLine
 62
7
  6
CONTINUOUS
 10
0.0
 20
8.5
 11
11.0
 21
8.5
  0
LINE
  5
226
100
AcDbEntity
  8
0
100
AcDbLine
 62
7
  6
CONTINUOUS
 10
11.0
 20
0.0
 11
11.0
 21
8.5
  0
LINE
  5
227
100
AcDbEntity
  8
ALL_ASSEMBLY_MEMBERS
100
AcDbLine
 62
7
  6
CONTINUOUS
 10
1.4666544481
 20
3.5467027652
 11
1.4666544481
 21
3.8082027652
  0
LINE
  5
228
100
AcDbEntity
  8
ALL_ASSEMBLY_MEMBERS
100
AcDbLine
 62
7
  6
CONTINUOUS
 10
1.4766544481
 20
3.8182027652
 11
1.4766544481
 21
3.5367027652
  0
LINE
  5
229
100
AcDbEntity
  8
ALL_ASSEMBLY_MEMBERS
100
AcDbLine
 62
7
  6
CONTINUOUS
 10
1.5166544481
 20
3.8182027652
 11
1.5166544481
 21
3.5367027652
  0
LINE
  5
22A
100
AcDbEntity
  8
ALL_ASSEMBLY_MEMBERS
100
AcDbLine
 62
7
  6
CONTINUOUS
 10
1.4666544481
 20
3.8082027652
 11
1.4766544481
 21
3.8182027652
  0
LINE
  5
22B
100
AcDbEntity
  8
ALL_ASSEMBLY_MEMBERS
100
AcDbLine
 62
7
  6
CONTINUOUS
 10
1.4666544481
 20
3.5467027652
 11
1.4766544481
 21
3.5367027652
  0
LINE
  5
22C
100
AcDbEntity
  8
ALL_ASSEMBLY_MEMBERS
100
AcDbLine
 62
7
  6
CONTINUOUS
 10
2.6611544481
 20
3.8182027652
 11
2.6611544481
 21
3.5367027652
  0
LINE
  5
22D
100
AcDbEntity
  8
ALL_ASSEMBLY_MEMBERS
100
AcDbLine
 62
7
  6
CONTINUOUS
 10
2.7136544481
 20
3.8182027652
 11
2.7136544481
 21
3.5367027652
  0
LINE
  5
22E
100
AcDbEntity
  8
ALL_ASSEMBLY_MEMBERS
100
AcDbLine
 62
7
  6
CONTINUOUS
 10
2.7766544481
 20
3.4879375393
 11
2.7766544481
 21
3.5633202652
  0
LINE
  5
22F
100
AcDbEntity
  8
ALL_ASSEMBLY_MEMBERS
100
AcDbLine
 62
7
  6
CONTINUOUS
 10
2.7766544481
 20
3.7915852652
 11
2.7766544481
 21
3.866967991
  0
LINE
  5
230
100
AcDbEntity
  8
ALL_ASSEMBLY_MEMBERS
100
AcDbLine
 62
7
  6
CONTINUOUS
 10
2.8136544481
 20
3.7759527652
 11
2.8136544481
 21
3.5789527652
  0
LINE
  5
231
100
AcDbEntity
  8
ALL_ASSEMBLY_MEMBERS
100
AcDbLine
 62
7
  6
CONTINUOUS
 10
2.8436544481
 20
3.7759527652
 11
2.8436544481
 21
3.7744382159
  0
LINE
  5
232
100
AcDbEntity
  8
ALL_ASSEMBLY_MEMBERS
100
AcDbLine
 62
7
  6
CONTINUOUS
 10
2.8436544481
 20
3.5804673147
 11
2.8436544481
 21
3.5789527652
  0
LINE
  5
233
100
AcDbEntity
  8
ALL_ASSEMBLY_MEMBERS
100
AcDbLine
 62
7
  6
CONTINUOUS
 10
2.9724044481
 20
3.6349527652
 11
2.9724044481
 21
3.6469527652
  0
LINE
  5
234
100
AcDbEntity
  8
ALL_ASSEMBLY_MEMBERS
100
AcDbLine
 62
7
  6
CONTINUOUS
 10
2.9724044481
 20
3.7104527652
 11
2.9724044481
 21
3.7194527652
  0
LINE
  5
235
100
AcDbEntity
  8
ALL_ASSEMBLY_MEMBERS
100
AcDbLine
 62
7
  6
CONTINUOUS
 10
2.9806544481
 20
3.6583517783
 11
2.9806544481
 21
3.699053752
  0
LINE
  5
236
100
AcDbEntity
  8
ALL_ASSEMBLY_MEMBERS
100
AcDbLine
 62
7
  6
CONTINUOUS
 10
3.0006544481
 20
3.6724527652
 11
3.0006544481
 21
3.6583517783
  0
LINE
  5
237
100
AcDbEntity
  8
ALL_ASSEMBLY_MEMBERS
100
AcDbLine
 62
7
  6
CONTINUOUS
 10
3.0011544481
 20
3.6992305773
 11
3.0011544481
 21
3.6872305773
  0
LINE
  5
238
100
AcDbEntity
  8
ALL_ASSEMBLY_MEMBERS
100
AcDbLine
 62
7
  6
CONTINUOUS
 10
3.0089044481
 20
3.7194527652
 11
3.0089044481
 21
3.7104527652
  0
LINE
  5
239
100
AcDbEntity
  8
ALL_ASSEMBLY_MEMBERS
100
AcDbLine
 62
7
  6
CONTINUOUS
 10
3.0089044481
 20
3.6469527652
 11
3.0089044481
 21
3.6349527652
  0
LINE
  5
23A
100
AcDbEntity
  8
ALL_ASSEMBLY_MEMBERS
100
AcDbLine
 62
7
  6
CONTINUOUS
 10
3.0174044481
 20
3.6349527652
 11
3.0174044481
 21
3.6469527652
  0
LINE
  5
23B
100
AcDbEntity
  8
ALL_ASSEMBLY_MEMBERS
100
AcDbLine
 62
7
  6
CONTINUOUS
 10
3.0174044481
 20
3.7104527652
 11
3.0174044481
 21
3.7194527652
  0
LINE
  5
23C
100
AcDbEntity
  8
ALL_ASSEMBLY_MEMBERS
100
AcDbLine
 62
7
  6
CONTINUOUS
 10
3.0251544481
 20
3.6872305773
 11
3.0251544481
 21
3.6992305773
  0
LINE
  5
23D
100
AcDbEntity
  8
ALL_ASSEMBLY_MEMBERS
100
AcDbLine
 62
7
  6
CONTINUOUS
 10
3.0256544481
 20
3.6583517783
 11
3.0256544481
 21
3.6724527652
  0
LINE
  5
23E
100
AcDbEntity
  8
ALL_ASSEMBLY_MEMBERS
100
AcDbLine
 62
7
  6
CONTINUOUS
 10
3.0456544481
 20
3.699053752
 11
3.0456544481
 21
3.6583517783
  0
LINE
  5
23F
100
AcDbEntity
  8
ALL_ASSEMBLY_MEMBERS
100
AcDbLine
 62
7
  6
CONTINUOUS
 10
3.0539044481
 20
3.7194527652
 11
3.0539044481
 21
3.7104527652
  0
LINE
  5
240
100
AcDbEntity
  8
ALL_ASSEMBLY_MEMBERS
100
AcDbLine
 62
7
  6
CONTINUOUS
 10
3.0539044481
 20
3.6469527652
 11
3.0539044481
 21
3.6349527652
  0
LINE
  5
241
100
AcDbEntity
  8
ALL_ASSEMBLY_MEMBERS
100
AcDbLine
 62
7
  6
CONTINUOUS
 10
3.1739044481
 20
3.6349527652
 11
3.1739044481
 21
3.6469527652
  0
LINE
  5
242
100
AcDbEntity
  8
ALL_ASSEMBLY_MEMBERS
100
AcDbLine
 62
7
  6
CONTINUOUS
 10
3.1831544481
 20
3.6626829114
 11
3.1831544481
 21
3.7090027652
  0
LINE
  5
243
100
AcDbEntity
  8
ALL_ASSEMBLY_MEMBERS
100
AcDbLine
 62
7
  6
CONTINUOUS
 10
3.2011544481
 20
3.7090027652
 11
3.2011544481
 21
3.6626829114
  0
LINE
  5
244
100
AcDbEntity
  8
ALL_ASSEMBLY_MEMBERS
100
AcDbLine
 62
7
  6
CONTINUOUS
 10
3.2104044481
 20
3.6469527652
 11
3.2104044481
 21
3.6349527652
  0
LINE
  5
245
100
AcDbEntity
  8
ALL_ASSEMBLY_MEMBERS
100
AcDbLine
 62
7
  6
CONTINUOUS
 10
3.3661544481
 20
3.5794527652
 11
3.3661544481
 21
3.5804673143
  0
LINE
  5
246
100
AcDbEntity
  8
ALL_ASSEMBLY_MEMBERS
100
AcDbLine
 62
7
  6
CONTINUOUS
 10
3.3661544481
 20
3.7744382156
 11
3.3661544481
 21
3.7754527652
  0
LINE
  5
247
100
AcDbEntity
  8
ALL_ASSEMBLY_MEMBERS
100
AcDbLine
 62
7
  6
CONTINUOUS
 10
3.3732493225
 20
3.6022271919
 11
3.373249321
 21
3.5794527652
  0
LINE
  5
248
100
AcDbEntity
  8
ALL_ASSEMBLY_MEMBERS
100
AcDbLine
 62
7
  6
CONTINUOUS
 10
3.373249321
 20
3.7754527652
 11
3.3732493255
 21
3.7526783307
  0
LINE
  5
249
100
AcDbEntity
  8
ALL_ASSEMBLY_MEMBERS
100
AcDbLine
 62
7
  6
CONTINUOUS
 10
3.1499044481
 20
3.7086954058
 11
3.1544044481
 21
3.7194527652
  0
LINE
  5
24A
100
AcDbEntity
  8
ALL_ASSEMBLY_MEMBERS
100
AcDbLine
 62
7
  6
CONTINUOUS
 10
3.3835620335
 20
3.7715241937
 11
3.3835620352
 21
3.6813349384
  0
LINE
  5
24B
100
AcDbEntity
  8
ALL_ASSEMBLY_MEMBERS
100
AcDbLine
 62
7
  6
CONTINUOUS
 10
3.3835620345
 20
3.6735705242
 11
3.3835620335
 21
3.5833813366
  0
LINE
  5
24C
100
AcDbEntity
  8
ALL_ASSEMBLY_MEMBERS
100
AcDbLine
 62
7
  6
CONTINUOUS
 10
3.4331544481
 20
3.866967991
 11
3.4331544481
 21
3.7488093346
  0
LINE
  5
24D
100
AcDbEntity
  8
ALL_ASSEMBLY_MEMBERS
100
AcDbLine
 62
7
  6
CONTINUOUS
 10
3.4331544481
 20
3.6060961957
 11
3.4331544481
 21
3.4879375393
  0
LINE
  5
24E
100
AcDbEntity
  8
ALL_ASSEMBLY_MEMBERS
100
AcDbLine
 62
7
  6
CONTINUOUS
 10
3.5092243485
 20
3.581630983
 11
3.5092243485
 21
3.7732745473
  0
LINE
  5
24F
100
AcDbEntity
  8
ALL_ASSEMBLY_MEMBERS
100
AcDbLine
 62
7
  6
CONTINUOUS
 10
3.5227113196
 20
3.5874527652
 11
3.5227113196
 21
3.7674527652
  0
LINE
  5
250
100
AcDbEntity
  8
ALL_ASSEMBLY_MEMBERS
100
AcDbLine
 62
7
  6
CONTINUOUS
 10
3.5350522843
 20
3.5920840865
 11
3.5350522843
 21
3.7628214438
  0
LINE
  5
251
100
AcDbEntity
  8
ALL_ASSEMBLY_MEMBERS
100
AcDbLine
 62
7
  6
CONTINUOUS
 10
3.5596353193
 20
3.5749344048
 11
3.5596353193
 21
3.7799711255
  0
LINE
  5
252
100
AcDbEntity
  8
ALL_ASSEMBLY_MEMBERS
100
AcDbLine
 62
7
  6
CONTINUOUS
 10
3.2299044481
 20
3.7194527652
 11
3.2344044481
 21
3.7086954058
  0
LINE
  5
253
100
AcDbEntity
  8
ALL_ASSEMBLY_MEMBERS
100
AcDbLine
 62
7
  6
CONTINUOUS
 10
3.2344044481
 20
3.7086954058
 11
3.2301618074
 21
3.7044527652
  0
LINE
  5
254
100
AcDbEntity
  8
ALL_ASSEMBLY_MEMBERS
100
AcDbLine
 62
7
  6
CONTINUOUS
 10
2.7766544481
 20
3.866967991
 11
3.1049044481
 21
4.0564832169
  0
LINE
  5
255
100
AcDbEntity
  8
ALL_ASSEMBLY_MEMBERS
100
AcDbLine
 62
7
  6
CONTINUOUS
 10
3.1049044481
 20
3.2984223134
 11
2.7766544481
 21
3.4879375393
  0
LINE
  5
256
100
AcDbEntity
  8
ALL_ASSEMBLY_MEMBERS
100
AcDbLine
 62
7
  6
CONTINUOUS
 10
3.1541470888
 20
3.7044527652
 11
3.1499044481
 21
3.7086954058
  0
LINE
  5
257
100
AcDbEntity
  8
ALL_ASSEMBLY_MEMBERS
100
AcDbLine
 62
7
  6
CONTINUOUS
 10
3.5350522843
 20
3.7628214438
 11
3.5596353193
 21
3.7799711255
  0
LINE
  5
258
100
AcDbEntity
  8
ALL_ASSEMBLY_MEMBERS
100
AcDbLine
 62
7
  6
CONTINUOUS
 10
2.8136544481
 20
3.5789527652
 11
2.7136544481
 21
3.5367027652
  0
LINE
  5
259
100
AcDbEntity
  8
ALL_ASSEMBLY_MEMBERS
100
AcDbLine
 62
7
  6
CONTINUOUS
 10
2.8136544481
 20
3.7759527652
 11
2.7136544481
 21
3.8182027652
  0
LINE
  5
25A
100
AcDbEntity
  8
ALL_ASSEMBLY_MEMBERS
100
AcDbLine
 62
7
  6
CONTINUOUS
 10
3.5350522843
 20
3.5920840865
 11
3.5596353193
 21
3.5749344048
  0
LINE
  5
25B
100
AcDbEntity
  8
ALL_ASSEMBLY_MEMBERS
100
AcDbLine
 62
7
  6
CONTINUOUS
 10
3.4331544481
 20
3.4879375393
 11
3.1049044481
 21
3.2984223134
  0
LINE
  5
25C
100
AcDbEntity
  8
ALL_ASSEMBLY_MEMBERS
100
AcDbLine
 62
7
  6
CONTINUOUS
 10
3.1049044481
 20
4.0564832169
 11
3.4331544481
 21
3.866967991
  0
LINE
  5
25D
100
AcDbEntity
  8
ALL_ASSEMBLY_MEMBERS
100
AcDbLine
 62
7
  6
CONTINUOUS
 10
4.8649161361
 20
3.4213199744
 11
4.8994148536
 21
3.0726248945
  0
LINE
  5
25E
100
AcDbEntity
  8
ALL_ASSEMBLY_MEMBERS
100
AcDbLine
 62
7
  6
CONTINUOUS
 10
4.9171583851
 20
4.0204463371
 11
4.9171583851
 21
3.4944483973
  0
LINE
  5
25F
100
AcDbEntity
  8
ALL_ASSEMBLY_MEMBERS
100
AcDbLine
 62
7
  6
CONTINUOUS
 10
2.7136544481
 20
3.5367027652
 11
2.6611544481
 21
3.5367027652
  0
LINE
  5
260
100
AcDbEntity
  8
ALL_ASSEMBLY_MEMBERS
100
AcDbLine
 62
7
  6
CONTINUOUS
 10
1.5166544481
 20
3.5367027652
 11
1.4766544481
 21
3.5367027652
  0
LINE
  5
261
100
AcDbEntity
  8
ALL_ASSEMBLY_MEMBERS
100
AcDbLine
 62
7
  6
CONTINUOUS
 10
7.4331623221
 20
3.5367027652
 11
7.4856623221
 21
3.5367027652
  0
LINE
  5
262
100
AcDbEntity
  8
ALL_ASSEMBLY_MEMBERS
100
AcDbLine
 62
7
  6
CONTINUOUS
 10
8.6301623221
 20
3.5367027652
 11
8.6701623221
 21
3.5367027652
  0
LINE
  5
263
100
AcDbEntity
  8
ALL_ASSEMBLY_MEMBERS
100
AcDbLine
 62
7
  6
CONTINUOUS
 10
2.8436544481
 20
3.5789527652
 11
2.8136544481
 21
3.5789527652
  0
LINE
  5
264
100
AcDbEntity
  8
ALL_ASSEMBLY_MEMBERS
100
AcDbLine
 62
7
  6
CONTINUOUS
 10
7.3031623221
 20
3.5789527652
 11
7.3331623221
 21
3.5789527652
  0
LINE
  5
265
100
AcDbEntity
  8
ALL_ASSEMBLY_MEMBERS
100
AcDbLine
 62
7
  6
CONTINUOUS
 10
6.7806623221
 20
3.5794527652
 11
6.7735674492
 21
3.5794527652
  0
LINE
  5
266
100
AcDbEntity
  8
ALL_ASSEMBLY_MEMBERS
100
AcDbLine
 62
7
  6
CONTINUOUS
 10
3.3661544481
 20
3.5794527652
 11
3.373249321
 21
3.5794527652
  0
LINE
  5
267
100
AcDbEntity
  8
ALL_ASSEMBLY_MEMBERS
100
AcDbLine
 62
7
  6
CONTINUOUS
 10
7.1791623221
 20
3.6349527652
 11
7.1369123221
 21
3.6349527652
  0
LINE
  5
268
100
AcDbEntity
  8
ALL_ASSEMBLY_MEMBERS
100
AcDbLine
 62
7
  6
CONTINUOUS
 10
7.1216514936
 20
3.6349527652
 11
7.0469123221
 21
3.6349527652
  0
LINE
  5
269
100
AcDbEntity
  8
ALL_ASSEMBLY_MEMBERS
100
AcDbLine
 62
7
  6
CONTINUOUS
 10
3.2104044481
 20
3.6349527652
 11
3.1739044481
 21
3.6349527652
  0
LINE
  5
26A
100
AcDbEntity
  8
ALL_ASSEMBLY_MEMBERS
100
AcDbLine
 62
7
  6
CONTINUOUS
 10
3.0539044481
 20
3.6349527652
 11
3.0174044481
 21
3.6349527652
  0
LINE
  5
26B
100
AcDbEntity
  8
ALL_ASSEMBLY_MEMBERS
100
AcDbLine
 62
7
  6
CONTINUOUS
 10
3.0089044481
 20
3.6349527652
 11
2.9724044481
 21
3.6349527652
  0
LINE
  5
26C
100
AcDbEntity
  8
ALL_ASSEMBLY_MEMBERS
100
AcDbLine
 62
7
  6
CONTINUOUS
 10
7.0906623221
 20
3.6463380875
 11
7.1026623221
 21
3.6463380875
  0
LINE
  5
26D
100
AcDbEntity
  8
ALL_ASSEMBLY_MEMBERS
100
AcDbLine
 62
7
  6
CONTINUOUS
 10
7.1630532623
 20
3.6469527652
 11
7.1769847162
 21
3.6469527652
  0
LINE
  5
26E
100
AcDbEntity
  8
ALL_ASSEMBLY_MEMBERS
100
AcDbLine
 62
7
  6
CONTINUOUS
 10
3.0226544481
 20
3.6754527652
 11
3.0036544481
 21
3.6754527652
  0
LINE
  5
26F
100
AcDbEntity
  8
ALL_ASSEMBLY_MEMBERS
100
AcDbLine
 62
7
  6
CONTINUOUS
 10
3.0041544481
 20
3.6842305773
 11
3.0221544481
 21
3.6842305773
  0
LINE
  5
270
100
AcDbEntity
  8
ALL_ASSEMBLY_MEMBERS
100
AcDbLine
 62
7
  6
CONTINUOUS
 10
5.2296583851
 20
4.0204478112
 11
5.2296583851
 21
3.4944479893
  0
LINE
  5
271
100
AcDbEntity
  8
ALL_ASSEMBLY_MEMBERS
100
AcDbLine
 62
7
  6
CONTINUOUS
 10
5.2819006341
 20
3.4213199744
 11
5.2474019166
 21
3.0726248945
  0
LINE
  5
272
100
AcDbEntity
  8
ALL_ASSEMBLY_MEMBERS
100
AcDbLine
 62
7
  6
CONTINUOUS
 10
7.1769847162
 20
3.7104527652
 11
7.1630532623
 21
3.7104527652
  0
LINE
  5
273
100
AcDbEntity
  8
ALL_ASSEMBLY_MEMBERS
100
AcDbLine
 62
7
  6
CONTINUOUS
 10
3.2155558153
 20
3.7105027652
 11
3.2026544481
 21
3.7105027652
  0
LINE
  5
274
100
AcDbEntity
  8
ALL_ASSEMBLY_MEMBERS
100
AcDbLine
 62
7
  6
CONTINUOUS
 10
3.1816544481
 20
3.7105027652
 11
3.1687530808
 21
3.7105027652
  0
LINE
  5
275
100
AcDbEntity
  8
ALL_ASSEMBLY_MEMBERS
100
AcDbLine
 62
7
  6
CONTINUOUS
 10
2.9724044481
 20
3.7194527652
 11
3.0089044481
 21
3.7194527652
  0
LINE
  5
276
100
AcDbEntity
  8
ALL_ASSEMBLY_MEMBERS
100
AcDbLine
 62
7
  6
CONTINUOUS
 10
3.0174044481
 20
3.7194527652
 11
3.0539044481
 21
3.7194527652
  0
LINE
  5
277
100
AcDbEntity
  8
ALL_ASSEMBLY_MEMBERS
100
AcDbLine
 62
7
  6
CONTINUOUS
 10
3.1544044481
 20
3.7194527652
 11
3.2299044481
 21
3.7194527652
  0
LINE
  5
278
100
AcDbEntity
  8
ALL_ASSEMBLY_MEMBERS
100
AcDbLine
 62
7
  6
CONTINUOUS
 10
6.9344123221
 20
3.7194527652
 11
6.9434123221
 21
3.7194527652
  0
LINE
  5
279
100
AcDbEntity
  8
ALL_ASSEMBLY_MEMBERS
100
AcDbLine
 62
7
  6
CONTINUOUS
 10
7.0469123221
 20
3.7194527652
 11
7.0864123221
 21
3.7194527652
  0
LINE
  5
27A
100
AcDbEntity
  8
ALL_ASSEMBLY_MEMBERS
100
AcDbLine
 62
7
  6
CONTINUOUS
 10
7.1369123221
 20
3.7194527652
 11
7.1791623221
 21
3.7194527652
  0
LINE
  5
27B
100
AcDbEntity
  8
ALL_ASSEMBLY_MEMBERS
100
AcDbLine
 62
7
  6
CONTINUOUS
 10
6.7806623221
 20
3.7754527652
 11
6.7735674492
 21
3.7754527652
  0
LINE
  5
27C
100
AcDbEntity
  8
ALL_ASSEMBLY_MEMBERS
100
AcDbLine
 62
7
  6
CONTINUOUS
 10
3.3661544481
 20
3.7754527652
 11
3.373249321
 21
3.7754527652
  0
LINE
  5
27D
100
AcDbEntity
  8
ALL_ASSEMBLY_MEMBERS
100
AcDbLine
 62
7
  6
CONTINUOUS
 10
2.8436544481
 20
3.7759527652
 11
2.8136544481
 21
3.7759527652
  0
LINE
  5
27E
100
AcDbEntity
  8
ALL_ASSEMBLY_MEMBERS
100
AcDbLine
 62
7
  6
CONTINUOUS
 10
7.3031623221
 20
3.7759527652
 11
7.3331623221
 21
3.7759527652
  0
LINE
  5
27F
100
AcDbEntity
  8
ALL_ASSEMBLY_MEMBERS
100
AcDbLine
 62
7
  6
CONTINUOUS
 10
2.7136544481
 20
3.8182027652
 11
2.6611544481
 21
3.8182027652
  0
LINE
  5
280
100
AcDbEntity
  8
ALL_ASSEMBLY_MEMBERS
100
AcDbLine
 62
7
  6
CONTINUOUS
 10
1.5166544481
 20
3.8182027652
 11
1.4766544481
 21
3.8182027652
  0
LINE
  5
281
100
AcDbEntity
  8
ALL_ASSEMBLY_MEMBERS
100
AcDbLine
 62
7
  6
CONTINUOUS
 10
7.4331623221
 20
3.8182027652
 11
7.4856623221
 21
3.8182027652
  0
LINE
  5
282
100
AcDbEntity
  8
ALL_ASSEMBLY_MEMBERS
100
AcDbLine
 62
7
  6
CONTINUOUS
 10
8.6301623221
 20
3.8182027652
 11
8.6701623221
 21
3.8182027652
  0
LINE
  5
283
100
AcDbEntity
  8
ALL_ASSEMBLY_MEMBERS
100
AcDbLine
 62
7
  6
CONTINUOUS
 10
6.9514123221
 20
3.6914228123
 11
6.9427579089
 21
3.6889527652
  0
LINE
  5
284
100
AcDbEntity
  8
ALL_ASSEMBLY_MEMBERS
100
AcDbLine
 62
7
  6
CONTINUOUS
 10
6.7136623221
 20
3.866967991
 11
7.0419123221
 21
4.0564832169
  0
LINE
  5
285
100
AcDbEntity
  8
ALL_ASSEMBLY_MEMBERS
100
AcDbLine
 62
7
  6
CONTINUOUS
 10
7.3331623221
 20
3.7759527652
 11
7.4331623221
 21
3.8182027652
  0
LINE
  5
286
100
AcDbEntity
  8
ALL_ASSEMBLY_MEMBERS
100
AcDbLine
 62
7
  6
CONTINUOUS
 10
6.9431372663
 20
3.6654527652
 11
6.9514123221
 21
3.6619139162
  0
LINE
  5
287
100
AcDbEntity
  8
ALL_ASSEMBLY_MEMBERS
100
AcDbLine
 62
7
  6
CONTINUOUS
 10
7.0419123221
 20
3.2984223134
 11
6.7136623221
 21
3.4879375393
  0
LINE
  5
288
100
AcDbEntity
  8
ALL_ASSEMBLY_MEMBERS
100
AcDbLine
 62
7
  6
CONTINUOUS
 10
6.6117644859
 20
3.5920840865
 11
6.5871814509
 21
3.5749344048
  0
LINE
  5
289
100
AcDbEntity
  8
ALL_ASSEMBLY_MEMBERS
100
AcDbLine
 62
7
  6
CONTINUOUS
 10
7.3331623221
 20
3.5789527652
 11
7.4331623221
 21
3.5367027652
  0
LINE
  5
28A
100
AcDbEntity
  8
ALL_ASSEMBLY_MEMBERS
100
AcDbLine
 62
7
  6
CONTINUOUS
 10
6.6117644859
 20
3.7628214438
 11
6.5871814509
 21
3.7799711255
  0
LINE
  5
28B
100
AcDbEntity
  8
ALL_ASSEMBLY_MEMBERS
100
AcDbLine
 62
7
  6
CONTINUOUS
 10
7.1221347904
 20
3.6645417269
 11
7.1264123221
 21
3.6619527652
  0
LINE
  5
28C
100
AcDbEntity
  8
ALL_ASSEMBLY_MEMBERS
100
AcDbLine
 62
7
  6
CONTINUOUS
 10
6.5871814509
 20
3.7799711255
 11
6.5871814509
 21
3.5749344048
  0
LINE
  5
28D
100
AcDbEntity
  8
ALL_ASSEMBLY_MEMBERS
100
AcDbLine
 62
7
  6
CONTINUOUS
 10
7.3701623221
 20
3.4879375393
 11
7.0419123221
 21
3.2984223134
  0
LINE
  5
28E
100
AcDbEntity
  8
ALL_ASSEMBLY_MEMBERS
100
AcDbLine
 62
7
  6
CONTINUOUS
 10
7.0419123221
 20
4.0564832169
 11
7.3701623221
 21
3.866967991
  0
LINE
  5
28F
100
AcDbEntity
  8
ALL_ASSEMBLY_MEMBERS
100
AcDbLine
 62
7
  6
CONTINUOUS
 10
6.6117644859
 20
3.7628214438
 11
6.6117644859
 21
3.5920840865
  0
LINE
  5
290
100
AcDbEntity
  8
ALL_ASSEMBLY_MEMBERS
100
AcDbLine
 62
7
  6
CONTINUOUS
 10
6.6241054505
 20
3.7674527652
 11
6.6241054505
 21
3.5874527652
  0
LINE
  5
291
100
AcDbEntity
  8
ALL_ASSEMBLY_MEMBERS
100
AcDbLine
 62
7
  6
CONTINUOUS
 10
6.6375924217
 20
3.7732745473
 11
6.6375924217
 21
3.581630983
  0
LINE
  5
292
100
AcDbEntity
  8
ALL_ASSEMBLY_MEMBERS
100
AcDbLine
 62
7
  6
CONTINUOUS
 10
6.7136623221
 20
3.4879375393
 11
6.7136623221
 21
3.6060961957
  0
LINE
  5
293
100
AcDbEntity
  8
ALL_ASSEMBLY_MEMBERS
100
AcDbLine
 62
7
  6
CONTINUOUS
 10
6.7136623221
 20
3.7488093346
 11
6.7136623221
 21
3.866967991
  0
LINE
  5
294
100
AcDbEntity
  8
ALL_ASSEMBLY_MEMBERS
100
AcDbLine
 62
7
  6
CONTINUOUS
 10
6.7632547367
 20
3.5833813366
 11
6.763254735
 21
3.6735705919
  0
LINE
  5
295
100
AcDbEntity
  8
ALL_ASSEMBLY_MEMBERS
100
AcDbLine
 62
7
  6
CONTINUOUS
 10
6.7632547357
 20
3.6813350061
 11
6.7632547367
 21
3.7715241937
  0
LINE
  5
296
100
AcDbEntity
  8
ALL_ASSEMBLY_MEMBERS
100
AcDbLine
 62
7
  6
CONTINUOUS
 10
6.7735674492
 20
3.5794527652
 11
6.7735674447
 21
3.6022271996
  0
LINE
  5
297
100
AcDbEntity
  8
ALL_ASSEMBLY_MEMBERS
100
AcDbLine
 62
7
  6
CONTINUOUS
 10
6.7735674477
 20
3.7526783385
 11
6.7735674492
 21
3.7754527652
  0
LINE
  5
298
100
AcDbEntity
  8
ALL_ASSEMBLY_MEMBERS
100
AcDbLine
 62
7
  6
CONTINUOUS
 10
6.7806623221
 20
3.7754527652
 11
6.7806623221
 21
3.774438216
  0
LINE
  5
299
100
AcDbEntity
  8
ALL_ASSEMBLY_MEMBERS
100
AcDbLine
 62
7
  6
CONTINUOUS
 10
6.7806623221
 20
3.5804673147
 11
6.7806623221
 21
3.5794527652
  0
LINE
  5
29A
100
AcDbEntity
  8
ALL_ASSEMBLY_MEMBERS
100
AcDbLine
 62
7
  6
CONTINUOUS
 10
7.1154949171
 20
3.6535712023
 11
7.1221347904
 21
3.6645417269
  0
LINE
  5
29B
100
AcDbEntity
  8
ALL_ASSEMBLY_MEMBERS
100
AcDbLine
 62
7
  6
CONTINUOUS
 10
7.0469123221
 20
3.6349527652
 11
7.0469123221
 21
3.6469527652
  0
LINE
  5
29C
100
AcDbEntity
  8
ALL_ASSEMBLY_MEMBERS
100
AcDbLine
 62
7
  6
CONTINUOUS
 10
7.0469123221
 20
3.7104527652
 11
7.0469123221
 21
3.7194527652
  0
LINE
  5
29D
100
AcDbEntity
  8
ALL_ASSEMBLY_MEMBERS
100
AcDbLine
 62
7
  6
CONTINUOUS
 10
7.0576623221
 20
3.6613380875
 11
7.0576623221
 21
3.6960674428
  0
LINE
  5
29E
100
AcDbEntity
  8
ALL_ASSEMBLY_MEMBERS
100
AcDbLine
 62
7
  6
CONTINUOUS
 10
7.0756623221
 20
3.6960674428
 11
7.0756623221
 21
3.6613380875
  0
LINE
  5
29F
100
AcDbEntity
  8
ALL_ASSEMBLY_MEMBERS
100
AcDbLine
 62
7
  6
CONTINUOUS
 10
6.9434123221
 20
3.7194527652
 11
6.9514123221
 21
3.6914228123
  0
LINE
  5
2A0
100
AcDbEntity
  8
ALL_ASSEMBLY_MEMBERS
100
AcDbLine
 62
7
  6
CONTINUOUS
 10
7.0864123221
 20
3.7194527652
 11
7.0864123221
 21
3.7104527652
  0
LINE
  5
2A1
100
AcDbEntity
  8
ALL_ASSEMBLY_MEMBERS
100
AcDbLine
 62
7
  6
CONTINUOUS
 10
7.1369123221
 20
3.6349527652
 11
7.1369123221
 21
3.6469527652
  0
LINE
  5
2A2
100
AcDbEntity
  8
ALL_ASSEMBLY_MEMBERS
100
AcDbLine
 62
7
  6
CONTINUOUS
 10
7.1369123221
 20
3.7104527652
 11
7.1369123221
 21
3.7194527652
  0
LINE
  5
2A3
100
AcDbEntity
  8
ALL_ASSEMBLY_MEMBERS
100
AcDbLine
 62
7
  6
CONTINUOUS
 10
7.1419123221
 20
3.6550150229
 11
7.1419123221
 21
3.7023905074
  0
LINE
  5
2A4
100
AcDbEntity
  8
ALL_ASSEMBLY_MEMBERS
100
AcDbLine
 62
7
  6
CONTINUOUS
 10
7.1600532623
 20
3.6499527652
 11
7.1600532623
 21
3.7074527652
  0
LINE
  5
2A5
100
AcDbEntity
  8
ALL_ASSEMBLY_MEMBERS
100
AcDbLine
 62
7
  6
CONTINUOUS
 10
7.3031623221
 20
3.5789527652
 11
7.3031623221
 21
3.5804673144
  0
LINE
  5
2A6
100
AcDbEntity
  8
ALL_ASSEMBLY_MEMBERS
100
AcDbLine
 62
7
  6
CONTINUOUS
 10
7.3031623221
 20
3.7744382156
 11
7.3031623221
 21
3.7759527652
  0
LINE
  5
2A7
100
AcDbEntity
  8
ALL_ASSEMBLY_MEMBERS
100
AcDbLine
 62
7
  6
CONTINUOUS
 10
7.1264123221
 20
3.6619527652
 11
7.1216514936
 21
3.6349527652
  0
LINE
  5
2A8
100
AcDbEntity
  8
ALL_ASSEMBLY_MEMBERS
100
AcDbLine
 62
7
  6
CONTINUOUS
 10
7.3331623221
 20
3.5789527652
 11
7.3331623221
 21
3.7759527652
  0
LINE
  5
2A9
100
AcDbEntity
  8
ALL_ASSEMBLY_MEMBERS
100
AcDbLine
 62
7
  6
CONTINUOUS
 10
7.3701623221
 20
3.866967991
 11
7.3701623221
 21
3.7915852652
  0
LINE
  5
2AA
100
AcDbEntity
  8
ALL_ASSEMBLY_MEMBERS
100
AcDbLine
 62
7
  6
CONTINUOUS
 10
7.3701623221
 20
3.5633202652
 11
7.3701623221
 21
3.4879375393
  0
LINE
  5
2AB
100
AcDbEntity
  8
ALL_ASSEMBLY_MEMBERS
100
AcDbLine
 62
7
  6
CONTINUOUS
 10
7.4331623221
 20
3.5367027652
 11
7.4331623221
 21
3.8182027652
  0
LINE
  5
2AC
100
AcDbEntity
  8
ALL_ASSEMBLY_MEMBERS
100
AcDbLine
 62
7
  6
CONTINUOUS
 10
7.4856623221
 20
3.5367027652
 11
7.4856623221
 21
3.8182027652
  0
LINE
  5
2AD
100
AcDbEntity
  8
ALL_ASSEMBLY_MEMBERS
100
AcDbLine
 62
7
  6
CONTINUOUS
 10
8.6801623221
 20
3.5467027652
 11
8.6701623221
 21
3.5367027652
  0
LINE
  5
2AE
100
AcDbEntity
  8
ALL_ASSEMBLY_MEMBERS
100
AcDbLine
 62
7
  6
CONTINUOUS
 10
8.6801623221
 20
3.8082027652
 11
8.6701623221
 21
3.8182027652
  0
LINE
  5
2AF
100
AcDbEntity
  8
ALL_ASSEMBLY_MEMBERS
100
AcDbLine
 62
7
  6
CONTINUOUS
 10
8.6301623221
 20
3.5367027652
 11
8.6301623221
 21
3.8182027652
  0
LINE
  5
2B0
100
AcDbEntity
  8
ALL_ASSEMBLY_MEMBERS
100
AcDbLine
 62
7
  6
CONTINUOUS
 10
8.6701623221
 20
3.5367027652
 11
8.6701623221
 21
3.8182027652
  0
LINE
  5
2B1
100
AcDbEntity
  8
ALL_ASSEMBLY_MEMBERS
100
AcDbLine
 62
7
  6
CONTINUOUS
 10
8.6801623221
 20
3.8082027652
 11
8.6801623221
 21
3.5467027652
  0
ARC
  5
2B2
100
AcDbEntity
  8
ALL_ASSEMBLY_MEMBERS
100
AcDbCircle
 62
7
  6
CONTINUOUS
 10
5.0734010309
 20
1.2600318304
 40
1.8126179821
100
AcDbArc
 50
89.9997675382
 51
90.4502295648
  0
ARC
  5
2B3
100
AcDbEntity
  8
ALL_ASSEMBLY_MEMBERS
100
AcDbCircle
 62
7
  6
CONTINUOUS
 10
4.9962705928
 20
2.627299064
 40
0.8100827681
100
AcDbArc
 50
94.9261787274
 51
95.3293855716
  0
ARC
  5
2B4
100
AcDbEntity
  8
ALL_ASSEMBLY_MEMBERS
100
AcDbCircle
 62
7
  6
CONTINUOUS
 10
1.6054148648
 20
3.6774527652
 40
0.1867604167
100
AcDbArc
 50
137.9864211385
 51
222.0135788615
  0
ARC
  5
2B5
100
AcDbEntity
  8
ALL_ASSEMBLY_MEMBERS
100
AcDbCircle
 62
7
  6
CONTINUOUS
 10
3.0576544481
 20
3.6583517783
 40
0.012
100
AcDbArc
 50
180.0
 51
251.7900431357
  0
ARC
  5
2B6
100
AcDbEntity
  8
ALL_ASSEMBLY_MEMBERS
100
AcDbCircle
 62
7
  6
CONTINUOUS
 10
3.0136544481
 20
3.6583517783
 40
0.012
100
AcDbArc
 50
288.2099568643
 51
360.0
  0
ARC
  5
2B7
100
AcDbEntity
  8
ALL_ASSEMBLY_MEMBERS
100
AcDbCircle
 62
7
  6
CONTINUOUS
 10
3.0126544481
 20
3.6583517783
 40
0.012
100
AcDbArc
 50
180.0
 51
251.7900431357
  0
ARC
  5
2B8
100
AcDbEntity
  8
ALL_ASSEMBLY_MEMBERS
100
AcDbCircle
 62
7
  6
CONTINUOUS
 10
2.9686544481
 20
3.6583517783
 40
0.012
100
AcDbArc
 50
288.2099568643
 51
360.0
  0
ARC
  5
2B9
100
AcDbEntity
  8
ALL_ASSEMBLY_MEMBERS
100
AcDbCircle
 62
7
  6
CONTINUOUS
 10
3.0226544481
 20
3.6724527652
 40
0.003
100
AcDbArc
 50
0.0
 51
90.0
  0
ARC
  5
2BA
100
AcDbEntity
  8
ALL_ASSEMBLY_MEMBERS
100
AcDbCircle
 62
7
  6
CONTINUOUS
 10
3.0036544481
 20
3.6724527652
 40
0.003
100
AcDbArc
 50
90.0
 51
180.0
  0
ARC
  5
2BB
100
AcDbEntity
  8
ALL_ASSEMBLY_MEMBERS
100
AcDbCircle
 62
7
  6
CONTINUOUS
 10
3.2191544481
 20
3.6626829114
 40
0.018
100
AcDbArc
 50
180.0
 51
240.9147049393
  0
ARC
  5
2BC
100
AcDbEntity
  8
ALL_ASSEMBLY_MEMBERS
100
AcDbCircle
 62
7
  6
CONTINUOUS
 10
3.1651544481
 20
3.6626829114
 40
0.018
100
AcDbArc
 50
299.0852950607
 51
360.0
  0
ARC
  5
2BD
100
AcDbEntity
  8
ALL_ASSEMBLY_MEMBERS
100
AcDbCircle
 62
7
  6
CONTINUOUS
 10
3.1049044481
 20
3.6774527652
 40
0.59
100
AcDbArc
 50
11.0704647282
 51
166.5195456303
  0
ARC
  5
2BE
100
AcDbEntity
  8
ALL_ASSEMBLY_MEMBERS
100
AcDbCircle
 62
7
  6
CONTINUOUS
 10
3.1049044481
 20
3.6774527652
 40
0.59
100
AcDbArc
 50
193.4804543697
 51
348.9295352718
  0
ARC
  5
2BF
100
AcDbEntity
  8
ALL_ASSEMBLY_MEMBERS
100
AcDbCircle
 62
7
  6
CONTINUOUS
 10
3.1049044481
 20
3.6774527652
 40
0.5000013369
100
AcDbArc
 50
13.6794720831
 51
163.8173464522
  0
ARC
  5
2C0
100
AcDbEntity
  8
ALL_ASSEMBLY_MEMBERS
100
AcDbCircle
 62
7
  6
CONTINUOUS
 10
3.1049044481
 20
3.6774527652
 40
0.5000013369
100
AcDbArc
 50
196.1826535478
 51
346.3205279169
  0
ARC
  5
2C1
100
AcDbEntity
  8
ALL_ASSEMBLY_MEMBERS
100
AcDbCircle
 62
7
  6
CONTINUOUS
 10
3.1049044481
 20
3.6774527652
 40
0.4065013369
100
AcDbArc
 50
12.6883967159
 51
160.2854568003
  0
ARC
  5
2C2
100
AcDbEntity
  8
ALL_ASSEMBLY_MEMBERS
100
AcDbCircle
 62
7
  6
CONTINUOUS
 10
3.1049044481
 20
3.6774527652
 40
0.4065013369
100
AcDbArc
 50
199.7145431997
 51
347.3116032841
  0
ARC
  5
2C3
100
AcDbEntity
  8
ALL_ASSEMBLY_MEMBERS
100
AcDbCircle
 62
7
  6
CONTINUOUS
 10
3.1049044481
 20
3.6774527652
 40
0.3705
100
AcDbArc
 50
92.3764232079
 51
147.6237776714
  0
ARC
  5
2C4
100
AcDbEntity
  8
ALL_ASSEMBLY_MEMBERS
100
AcDbCircle
 62
7
  6
CONTINUOUS
 10
3.1049044481
 20
3.6774527652
 40
0.3705
100
AcDbArc
 50
152.3762223286
 51
160.5962417905
  0
ARC
  5
2C5
100
AcDbEntity
  8
ALL_ASSEMBLY_MEMBERS
100
AcDbCircle
 62
7
  6
CONTINUOUS
 10
3.1049044481
 20
3.6774527652
 40
0.3705
100
AcDbArc
 50
199.4037582095
 51
207.6237776714
  0
ARC
  5
2C6
100
AcDbEntity
  8
ALL_ASSEMBLY_MEMBERS
100
AcDbCircle
 62
7
  6
CONTINUOUS
 10
3.1049044481
 20
3.6774527652
 40
0.3705
100
AcDbArc
 50
212.3762223286
 51
267.6235767921
  0
ARC
  5
2C7
100
AcDbEntity
  8
ALL_ASSEMBLY_MEMBERS
100
AcDbCircle
 62
7
  6
CONTINUOUS
 10
3.1049044481
 20
3.6774527652
 40
0.3705
100
AcDbArc
 50
32.3762223286
 51
87.6235767921
  0
ARC
  5
2C8
100
AcDbEntity
  8
ALL_ASSEMBLY_MEMBERS
100
AcDbCircle
 62
7
  6
CONTINUOUS
 10
3.1049044481
 20
3.6774527652
 40
0.3705
100
AcDbArc
 50
11.4145347667
 51
27.6237776714
  0
ARC
  5
2C9
100
AcDbEntity
  8
ALL_ASSEMBLY_MEMBERS
100
AcDbCircle
 62
7
  6
CONTINUOUS
 10
3.1049044481
 20
3.6774527652
 40
0.3705
100
AcDbArc
 50
332.3762223286
 51
348.5854652333
  0
ARC
  5
2CA
100
AcDbEntity
  8
ALL_ASSEMBLY_MEMBERS
100
AcDbCircle
 62
7
  6
CONTINUOUS
 10
3.1049044481
 20
3.6774527652
 40
0.3705
100
AcDbArc
 50
272.3764232079
 51
327.6237776714
  0
ARC
  5
2CB
100
AcDbEntity
  8
ALL_ASSEMBLY_MEMBERS
100
AcDbCircle
 62
7
  6
CONTINUOUS
 10
3.1049044481
 20
3.6774527652
 40
0.32575
100
AcDbArc
 50
13.0411086176
 51
161.0775901738
  0
ARC
  5
2CC
100
AcDbEntity
  8
ALL_ASSEMBLY_MEMBERS
100
AcDbCircle
 62
7
  6
CONTINUOUS
 10
3.1049044481
 20
3.6774527652
 40
0.32575
100
AcDbArc
 50
198.9224098262
 51
346.9588913824
  0
ARC
  5
2CD
100
AcDbEntity
  8
ALL_ASSEMBLY_MEMBERS
100
AcDbCircle
 62
7
  6
CONTINUOUS
 10
3.1049044481
 20
3.6774527652
 40
0.3073169971
100
AcDbArc
 50
15.4441216438
 51
161.3141182502
  0
ARC
  5
2CE
100
AcDbEntity
  8
ALL_ASSEMBLY_MEMBERS
100
AcDbCircle
 62
7
  6
CONTINUOUS
 10
3.1049044481
 20
3.6774527652
 40
0.3073169971
100
AcDbArc
 50
198.6858817498
 51
344.5558783562
  0
CIRCLE
  5
2CF
100
AcDbEntity
  8
ALL_ASSEMBLY_MEMBERS
100
AcDbCircle
 62
7
  6
CONTINUOUS
 10
3.1049044481
 20
3.6774527652
 40
0.27875
  0
CIRCLE
  5
2D0
100
AcDbEntity
  8
ALL_ASSEMBLY_MEMBERS
100
AcDbCircle
 62
7
  6
CONTINUOUS
 10
3.1049044481
 20
3.6774527652
 40
0.2645961576
  0
CIRCLE
  5
2D1
100
AcDbEntity
  8
ALL_ASSEMBLY_MEMBERS
100
AcDbCircle
 62
7
  6
CONTINUOUS
 10
3.1049044481
 20
3.6774527652
 40
0.26375
  0
CIRCLE
  5
2D2
100
AcDbEntity
  8
ALL_ASSEMBLY_MEMBERS
100
AcDbCircle
 62
7
  6
CONTINUOUS
 10
3.1049044481
 20
3.6774527652
 40
0.2526402106
  0
CIRCLE
  5
2D3
100
AcDbEntity
  8
ALL_ASSEMBLY_MEMBERS
100
AcDbCircle
 62
7
  6
CONTINUOUS
 10
3.1049044481
 20
3.6774527652
 40
0.2272549781
  0
CIRCLE
  5
2D4
100
AcDbEntity
  8
ALL_ASSEMBLY_MEMBERS
100
AcDbCircle
 62
7
  6
CONTINUOUS
 10
3.1049044481
 20
3.6774527652
 40
0.21375
  0
CIRCLE
  5
2D5
100
AcDbEntity
  8
ALL_ASSEMBLY_MEMBERS
100
AcDbCircle
 62
7
  6
CONTINUOUS
 10
3.1049044481
 20
3.6774527652
 40
0.20875
  0
CIRCLE
  5
2D6
100
AcDbEntity
  8
ALL_ASSEMBLY_MEMBERS
100
AcDbCircle
 62
7
  6
CONTINUOUS
 10
3.1049044481
 20
3.6774527652
 40
0.1975723198
  0
ARC
  5
2D7
100
AcDbEntity
  8
ALL_ASSEMBLY_MEMBERS
100
AcDbCircle
 62
7
  6
CONTINUOUS
 10
3.1687530808
 20
3.6898467731
 40
0.0206559921
100
AcDbArc
 50
90.0
 51
135.0
  0
ARC
  5
2D8
100
AcDbEntity
  8
ALL_ASSEMBLY_MEMBERS
100
AcDbCircle
 62
7
  6
CONTINUOUS
 10
3.2155558153
 20
3.6898467731
 40
0.0206559921
100
AcDbArc
 50
45.0
 51
90.0
  0
ARC
  5
2D9
100
AcDbEntity
  8
ALL_ASSEMBLY_MEMBERS
100
AcDbCircle
 62
7
  6
CONTINUOUS
 10
2.9686544481
 20
3.699053752
 40
0.012
100
AcDbArc
 50
0.0
 51
71.7900431357
  0
ARC
  5
2DA
100
AcDbEntity
  8
ALL_ASSEMBLY_MEMBERS
100
AcDbCircle
 62
7
  6
CONTINUOUS
 10
3.0131544481
 20
3.6992305773
 40
0.012
100
AcDbArc
 50
110.7423799545
 51
180.0
  0
ARC
  5
2DB
100
AcDbEntity
  8
ALL_ASSEMBLY_MEMBERS
100
AcDbCircle
 62
7
  6
CONTINUOUS
 10
3.0131544481
 20
3.6992305773
 40
0.012
100
AcDbArc
 50
0.0
 51
69.2576200455
  0
ARC
  5
2DC
100
AcDbEntity
  8
ALL_ASSEMBLY_MEMBERS
100
AcDbCircle
 62
7
  6
CONTINUOUS
 10
3.0576544481
 20
3.699053752
 40
0.012
100
AcDbArc
 50
108.2099568643
 51
180.0
  0
ARC
  5
2DD
100
AcDbEntity
  8
ALL_ASSEMBLY_MEMBERS
100
AcDbCircle
 62
7
  6
CONTINUOUS
 10
3.0041544481
 20
3.6872305773
 40
0.003
100
AcDbArc
 50
180.0
 51
270.0
  0
ARC
  5
2DE
100
AcDbEntity
  8
ALL_ASSEMBLY_MEMBERS
100
AcDbCircle
 62
7
  6
CONTINUOUS
 10
3.0221544481
 20
3.6872305773
 40
0.003
100
AcDbArc
 50
270.0
 51
360.0
  0
ARC
  5
2DF
100
AcDbEntity
  8
ALL_ASSEMBLY_MEMBERS
100
AcDbCircle
 62
7
  6
CONTINUOUS
 10
3.1816544481
 20
3.7090027652
 40
0.0015
100
AcDbArc
 50
0.0000000001
 51
90.0
  0
ARC
  5
2E0
100
AcDbEntity
  8
ALL_ASSEMBLY_MEMBERS
100
AcDbCircle
 62
7
  6
CONTINUOUS
 10
3.2026544481
 20
3.7090027652
 40
0.0015
100
AcDbArc
 50
90.0
 51
179.9999999999
  0
ARC
  5
2E1
100
AcDbEntity
  8
ALL_ASSEMBLY_MEMBERS
100
AcDbCircle
 62
7
  6
CONTINUOUS
 10
4.989171219
 20
2.7031797505
 40
0.7338706607
100
AcDbArc
 50
95.4194203761
 51
95.5472000454
  0
ARC
  5
2E2
100
AcDbEntity
  8
ALL_ASSEMBLY_MEMBERS
100
AcDbCircle
 62
7
  6
CONTINUOUS
 10
4.9846715543
 20
2.7491491642
 40
0.6876815638
100
AcDbArc
 50
95.544290131
 51
95.8391253564
  0
ARC
  5
2E3
100
AcDbEntity
  8
ALL_ASSEMBLY_MEMBERS
100
AcDbCircle
 62
7
  6
CONTINUOUS
 10
3.6311544481
 20
3.6774527652
 40
0.125
100
AcDbArc
 50
235.0995
 51
124.9005
  0
ARC
  5
2E4
100
AcDbEntity
  8
ALL_ASSEMBLY_MEMBERS
100
AcDbCircle
 62
7
  6
CONTINUOUS
 10
3.445438309
 20
3.5139527652
 40
0.093
100
AcDbArc
 50
46.6958241996
 51
131.7081302521
  0
ARC
  5
2E5
100
AcDbEntity
  8
ALL_ASSEMBLY_MEMBERS
100
AcDbCircle
 62
7
  6
CONTINUOUS
 10
3.445438309
 20
3.8409527652
 40
0.093
100
AcDbArc
 50
228.2918697479
 51
313.3041758004
  0
ARC
  5
2E6
100
AcDbEntity
  8
ALL_ASSEMBLY_MEMBERS
100
AcDbCircle
 62
7
  6
CONTINUOUS
 10
4.8872722081
 20
3.4724180826
 40
0.0577001662
100
AcDbArc
 50
246.401723206
 51
247.4391923505
  0
ARC
  5
2E7
100
AcDbEntity
  8
ALL_ASSEMBLY_MEMBERS
100
AcDbCircle
 62
7
  6
CONTINUOUS
 10
3.373249321
 20
3.5949527652
 40
0.0155
100
AcDbArc
 50
270.0
 51
311.7081302521
  0
ARC
  5
2E8
100
AcDbEntity
  8
ALL_ASSEMBLY_MEMBERS
100
AcDbCircle
 62
7
  6
CONTINUOUS
 10
3.373249321
 20
3.7599527652
 40
0.0155
100
AcDbArc
 50
48.2918697479
 51
90.0
  0
ARC
  5
2E9
100
AcDbEntity
  8
ALL_ASSEMBLY_MEMBERS
100
AcDbCircle
 62
7
  6
CONTINUOUS
 10
3.5147113196
 20
3.5874527652
 40
0.008
100
AcDbArc
 50
226.6958241996
 51
360.0
  0
ARC
  5
2EA
100
AcDbEntity
  8
ALL_ASSEMBLY_MEMBERS
100
AcDbCircle
 62
7
  6
CONTINUOUS
 10
3.5147113196
 20
3.7674527652
 40
0.008
100
AcDbArc
 50
0.0
 51
133.3041758004
  0
ARC
  5
2EB
100
AcDbEntity
  8
ALL_ASSEMBLY_MEMBERS
100
AcDbCircle
 62
7
  6
CONTINUOUS
 10
3.53047506
 20
3.5855229114
 40
0.008
100
AcDbArc
 50
55.0995
 51
166.0407512246
  0
ARC
  5
2EC
100
AcDbEntity
  8
ALL_ASSEMBLY_MEMBERS
100
AcDbCircle
 62
7
  6
CONTINUOUS
 10
3.53047506
 20
3.7693826189
 40
0.008
100
AcDbArc
 50
193.9592487754
 51
304.9005
  0
ARC
  5
2ED
100
AcDbEntity
  8
ALL_ASSEMBLY_MEMBERS
100
AcDbCircle
 62
7
  6
CONTINUOUS
 10
5.0734157393
 20
1.2600318304
 40
1.8126179821
100
AcDbArc
 50
89.5497704352
 51
90.0002324618
  0
ARC
  5
2EE
100
AcDbEntity
  8
ALL_ASSEMBLY_MEMBERS
100
AcDbCircle
 62
7
  6
CONTINUOUS
 10
5.1502435609
 20
2.6240029275
 40
0.8133927635
100
AcDbArc
 50
84.6709554254
 51
85.1058821691
  0
ARC
  5
2EF
100
AcDbEntity
  8
ALL_ASSEMBLY_MEMBERS
100
AcDbCircle
 62
7
  6
CONTINUOUS
 10
5.1583573041
 20
2.7107344642
 40
0.7262825364
100
AcDbArc
 50
84.3264639099
 51
84.6728056377
  0
ARC
  5
2F0
100
AcDbEntity
  8
ALL_ASSEMBLY_MEMBERS
100
AcDbCircle
 62
7
  6
CONTINUOUS
 10
5.1632383176
 20
2.759922725
 40
0.6768526946
100
AcDbArc
 50
84.1601445362
 51
84.3259851849
  0
ARC
  5
2F1
100
AcDbEntity
  8
ALL_ASSEMBLY_MEMBERS
100
AcDbCircle
 62
7
  6
CONTINUOUS
 10
5.0734083851
 20
3.6774527652
 40
0.59
100
AcDbArc
 50
287.5818020922
 51
252.4181979078
  0
ARC
  5
2F2
100
AcDbEntity
  8
ALL_ASSEMBLY_MEMBERS
100
AcDbCircle
 62
7
  6
CONTINUOUS
 10
5.0734083851
 20
3.6774527652
 40
0.575
100
AcDbArc
 50
288.2227684446
 51
251.7772315554
  0
ARC
  5
2F3
100
AcDbEntity
  8
ALL_ASSEMBLY_MEMBERS
100
AcDbCircle
 62
7
  6
CONTINUOUS
 10
5.0734083851
 20
3.6774527652
 40
0.5655
100
AcDbArc
 50
288.651090832
 51
251.348909168
  0
ARC
  5
2F4
100
AcDbEntity
  8
ALL_ASSEMBLY_MEMBERS
100
AcDbCircle
 62
7
  6
CONTINUOUS
 10
5.0734083851
 20
3.6774527652
 40
0.441
100
AcDbArc
 50
296.202731331
 51
71.9125266733
  0
ARC
  5
2F5
100
AcDbEntity
  8
ALL_ASSEMBLY_MEMBERS
100
AcDbCircle
 62
7
  6
CONTINUOUS
 10
5.0734083851
 20
3.6774527652
 40
0.441
100
AcDbArc
 50
108.0874733267
 51
243.797268669
  0
ARC
  5
2F6
100
AcDbEntity
  8
ALL_ASSEMBLY_MEMBERS
100
AcDbCircle
 62
7
  6
CONTINUOUS
 10
5.0734083851
 20
3.6774527652
 40
0.4165
100
AcDbArc
 50
298.3209388048
 51
68.9350464563
  0
ARC
  5
2F7
100
AcDbEntity
  8
ALL_ASSEMBLY_MEMBERS
100
AcDbCircle
 62
7
  6
CONTINUOUS
 10
5.0734083851
 20
3.6774527652
 40
0.4165
100
AcDbArc
 50
111.0649535437
 51
241.6790611952
  0
ARC
  5
2F8
100
AcDbEntity
  8
ALL_ASSEMBLY_MEMBERS
100
AcDbCircle
 62
7
  6
CONTINUOUS
 10
5.0734083851
 20
3.6774527652
 40
0.2655
100
AcDbArc
 50
315.0951987628
 51
53.9399773265
  0
ARC
  5
2F9
100
AcDbEntity
  8
ALL_ASSEMBLY_MEMBERS
100
AcDbCircle
 62
7
  6
CONTINUOUS
 10
5.0734083851
 20
3.6774527652
 40
0.2655
100
AcDbArc
 50
126.0600226735
 51
224.9054972198
  0
ARC
  5
2FA
100
AcDbEntity
  8
ALL_ASSEMBLY_MEMBERS
100
AcDbCircle
 62
7
  6
CONTINUOUS
 10
5.0734083851
 20
3.6774527652
 40
0.23425
100
AcDbArc
 50
131.8508806577
 51
228.1491193423
  0
ARC
  5
2FB
100
AcDbEntity
  8
ALL_ASSEMBLY_MEMBERS
100
AcDbCircle
 62
7
  6
CONTINUOUS
 10
5.0734083851
 20
3.6774527652
 40
0.23425
100
AcDbArc
 50
311.8508806577
 51
48.1491193423
  0
ARC
  5
2FC
100
AcDbEntity
  8
ALL_ASSEMBLY_MEMBERS
100
AcDbCircle
 62
7
  6
CONTINUOUS
 10
5.0734083851
 20
3.6774527652
 40
0.20275
100
AcDbArc
 50
140.4309317992
 51
219.5690682008
  0
ARC
  5
2FD
100
AcDbEntity
  8
ALL_ASSEMBLY_MEMBERS
100
AcDbCircle
 62
7
  6
CONTINUOUS
 10
5.0734083851
 20
3.6774527652
 40
0.20275
100
AcDbArc
 50
320.4309317992
 51
39.5690682008
  0
ARC
  5
2FE
100
AcDbEntity
  8
ALL_ASSEMBLY_MEMBERS
100
AcDbCircle
 62
7
  6
CONTINUOUS
 10
5.0734083851
 20
3.6774527652
 40
0.17
100
AcDbArc
 50
336.8359686455
 51
23.1640313545
  0
ARC
  5
2FF
100
AcDbEntity
  8
ALL_ASSEMBLY_MEMBERS
100
AcDbCircle
 62
7
  6
CONTINUOUS
 10
5.0734083851
 20
3.6774527652
 40
0.17
100
AcDbArc
 50
156.8359686455
 51
203.1640313545
  0
ARC
  5
300
100
AcDbEntity
  8
ALL_ASSEMBLY_MEMBERS
100
AcDbCircle
 62
7
  6
CONTINUOUS
 10
5.0734083851
 20
3.6774527652
 40
0.1625
100
AcDbArc
 50
344.1338342343
 51
15.8661657657
  0
ARC
  5
301
100
AcDbEntity
  8
ALL_ASSEMBLY_MEMBERS
100
AcDbCircle
 62
7
  6
CONTINUOUS
 10
5.0734083851
 20
3.6774527652
 40
0.1625
100
AcDbArc
 50
164.1338342343
 51
195.8661657657
  0
ARC
  5
302
100
AcDbEntity
  8
ALL_ASSEMBLY_MEMBERS
100
AcDbCircle
 62
7
  6
CONTINUOUS
 10
5.0734083851
 20
3.6774527652
 40
0.16
100
AcDbArc
 50
167.6659018965
 51
192.3340981035
  0
ARC
  5
303
100
AcDbEntity
  8
ALL_ASSEMBLY_MEMBERS
100
AcDbCircle
 62
7
  6
CONTINUOUS
 10
5.0734083851
 20
3.6774527652
 40
0.16
100
AcDbArc
 50
347.6659018965
 51
12.3340981035
  0
ARC
  5
304
100
AcDbEntity
  8
ALL_ASSEMBLY_MEMBERS
100
AcDbCircle
 62
7
  6
CONTINUOUS
 10
5.0734083851
 20
3.6774527652
 40
0.1585249984
100
AcDbArc
 50
170.3031386663
 51
189.6177246807
  0
ARC
  5
305
100
AcDbEntity
  8
ALL_ASSEMBLY_MEMBERS
100
AcDbCircle
 62
7
  6
CONTINUOUS
 10
5.259277607
 20
3.4731961426
 40
0.0585206852
100
AcDbArc
 50
292.5113521649
 51
293.555678781
  0
ARC
  5
306
100
AcDbEntity
  8
ALL_ASSEMBLY_MEMBERS
100
AcDbCircle
 62
7
  6
CONTINUOUS
 10
5.0734083851
 20
4.0214527652
 40
0.15625
100
AcDbArc
 50
0.0
 51
180.0
  0
ARC
  5
307
100
AcDbEntity
  8
ALL_ASSEMBLY_MEMBERS
100
AcDbCircle
 62
7
  6
CONTINUOUS
 10
6.5156623221
 20
3.6774527652
 40
0.125
100
AcDbArc
 50
55.0995
 51
304.9005
  0
ARC
  5
308
100
AcDbEntity
  8
ALL_ASSEMBLY_MEMBERS
100
AcDbCircle
 62
7
  6
CONTINUOUS
 10
6.7013784612
 20
3.5139527652
 40
0.093
100
AcDbArc
 50
48.2918697479
 51
133.3041758004
  0
ARC
  5
309
100
AcDbEntity
  8
ALL_ASSEMBLY_MEMBERS
100
AcDbCircle
 62
7
  6
CONTINUOUS
 10
6.7735674492
 20
3.5949527652
 40
0.0155
100
AcDbArc
 50
228.2918697479
 51
270.0
  0
ARC
  5
30A
100
AcDbEntity
  8
ALL_ASSEMBLY_MEMBERS
100
AcDbCircle
 62
7
  6
CONTINUOUS
 10
6.6321054505
 20
3.5874527652
 40
0.008
100
AcDbArc
 50
180.0
 51
313.3041758004
  0
ARC
  5
30B
100
AcDbEntity
  8
ALL_ASSEMBLY_MEMBERS
100
AcDbCircle
 62
7
  6
CONTINUOUS
 10
6.6163417102
 20
3.5855229114
 40
0.008
100
AcDbArc
 50
13.9592487754
 51
124.9005
  0
ARC
  5
30C
100
AcDbEntity
  8
ALL_ASSEMBLY_MEMBERS
100
AcDbCircle
 62
7
  6
CONTINUOUS
 10
6.7013784612
 20
3.8409527652
 40
0.093
100
AcDbArc
 50
226.6958241996
 51
311.7081302521
  0
ARC
  5
30D
100
AcDbEntity
  8
ALL_ASSEMBLY_MEMBERS
100
AcDbCircle
 62
7
  6
CONTINUOUS
 10
6.7735674492
 20
3.7599527652
 40
0.0155
100
AcDbArc
 50
90.0
 51
131.7081302521
  0
ARC
  5
30E
100
AcDbEntity
  8
ALL_ASSEMBLY_MEMBERS
100
AcDbCircle
 62
7
  6
CONTINUOUS
 10
6.6321054505
 20
3.7674527652
 40
0.008
100
AcDbArc
 50
46.6958241996
 51
180.0
  0
ARC
  5
30F
100
AcDbEntity
  8
ALL_ASSEMBLY_MEMBERS
100
AcDbCircle
 62
7
  6
CONTINUOUS
 10
6.6163417102
 20
3.7693826189
 40
0.008
100
AcDbArc
 50
235.0995
 51
346.0407512246
  0
ARC
  5
310
100
AcDbEntity
  8
ALL_ASSEMBLY_MEMBERS
100
AcDbCircle
 62
7
  6
CONTINUOUS
 10
6.9121250206
 20
3.6589527652
 40
0.0605
100
AcDbArc
 50
72.3178031512
 51
100.863388708
  0
ARC
  5
311
100
AcDbEntity
  8
ALL_ASSEMBLY_MEMBERS
100
AcDbCircle
 62
7
  6
CONTINUOUS
 10
7.0426623221
 20
3.6613380875
 40
0.015
100
AcDbArc
 50
286.4592496283
 51
360.0
  0
ARC
  5
312
100
AcDbEntity
  8
ALL_ASSEMBLY_MEMBERS
100
AcDbCircle
 62
7
  6
CONTINUOUS
 10
6.9132114612
 20
3.6709527652
 40
0.024
100
AcDbArc
 50
201.6000344342
 51
256.3709027892
  0
ARC
  5
313
100
AcDbEntity
  8
ALL_ASSEMBLY_MEMBERS
100
AcDbCircle
 62
7
  6
CONTINUOUS
 10
6.9105592078
 20
3.6793848558
 40
0.0444320906
100
AcDbArc
 50
224.2338173193
 51
336.8459014309
  0
ARC
  5
314
100
AcDbEntity
  8
ALL_ASSEMBLY_MEMBERS
100
AcDbCircle
 62
7
  6
CONTINUOUS
 10
6.9304123221
 20
3.6777630797
 40
0.0425
100
AcDbArc
 50
158.3999655658
 51
201.6000344342
  0
ARC
  5
315
100
AcDbEntity
  8
ALL_ASSEMBLY_MEMBERS
100
AcDbCircle
 62
7
  6
CONTINUOUS
 10
6.9085747402
 20
3.6774527652
 40
0.0416624181
100
AcDbArc
 50
100.863388708
 51
224.2338173193
  0
ARC
  5
316
100
AcDbEntity
  8
ALL_ASSEMBLY_MEMBERS
100
AcDbCircle
 62
7
  6
CONTINUOUS
 10
6.9092344028
 20
3.6793848558
 40
0.0348621622
100
AcDbArc
 50
15.9292215989
 51
31.2636680057
  0
ARC
  5
317
100
AcDbEntity
  8
ALL_ASSEMBLY_MEMBERS
100
AcDbCircle
 62
7
  6
CONTINUOUS
 10
6.914814682
 20
3.6775649913
 40
0.0308038115
100
AcDbArc
 50
256.3709027892
 51
336.8459014309
  0
ARC
  5
318
100
AcDbEntity
  8
ALL_ASSEMBLY_MEMBERS
100
AcDbCircle
 62
7
  6
CONTINUOUS
 10
6.9159768733
 20
3.6834784883
 40
0.0269742769
100
AcDbArc
 50
31.2636680057
 51
158.3999655658
  0
ARC
  5
319
100
AcDbEntity
  8
ALL_ASSEMBLY_MEMBERS
100
AcDbCircle
 62
7
  6
CONTINUOUS
 10
7.0419123221
 20
3.6774527652
 40
0.59
100
AcDbArc
 50
191.0704647282
 51
346.5195456303
  0
ARC
  5
31A
100
AcDbEntity
  8
ALL_ASSEMBLY_MEMBERS
100
AcDbCircle
 62
7
  6
CONTINUOUS
 10
7.0419123221
 20
3.6774527652
 40
0.59
100
AcDbArc
 50
13.4804543697
 51
168.9295352718
  0
ARC
  5
31B
100
AcDbEntity
  8
ALL_ASSEMBLY_MEMBERS
100
AcDbCircle
 62
7
  6
CONTINUOUS
 10
7.0419123221
 20
3.6774527652
 40
0.5000013369
100
AcDbArc
 50
193.6794720831
 51
343.8173464522
  0
ARC
  5
31C
100
AcDbEntity
  8
ALL_ASSEMBLY_MEMBERS
100
AcDbCircle
 62
7
  6
CONTINUOUS
 10
7.0419123221
 20
3.6774527652
 40
0.5000013369
100
AcDbArc
 50
16.1826535478
 51
166.3205279169
  0
ARC
  5
31D
100
AcDbEntity
  8
ALL_ASSEMBLY_MEMBERS
100
AcDbCircle
 62
7
  6
CONTINUOUS
 10
7.0419123221
 20
3.6774527652
 40
0.4065013369
100
AcDbArc
 50
192.6883967159
 51
340.2854568003
  0
ARC
  5
31E
100
AcDbEntity
  8
ALL_ASSEMBLY_MEMBERS
100
AcDbCircle
 62
7
  6
CONTINUOUS
 10
7.0419123221
 20
3.6774527652
 40
0.4065013369
100
AcDbArc
 50
19.7145431997
 51
167.3116032841
  0
ARC
  5
31F
100
AcDbEntity
  8
ALL_ASSEMBLY_MEMBERS
100
AcDbCircle
 62
7
  6
CONTINUOUS
 10
7.0419123221
 20
3.6774527652
 40
0.3705
100
AcDbArc
 50
272.3764232079
 51
327.6237776714
  0
ARC
  5
320
100
AcDbEntity
  8
ALL_ASSEMBLY_MEMBERS
100
AcDbCircle
 62
7
  6
CONTINUOUS
 10
7.0419123221
 20
3.6774527652
 40
0.3705
100
AcDbArc
 50
332.3762223286
 51
340.5962417905
  0
ARC
  5
321
100
AcDbEntity
  8
ALL_ASSEMBLY_MEMBERS
100
AcDbCircle
 62
7
  6
CONTINUOUS
 10
7.0419123221
 20
3.6774527652
 40
0.3705
100
AcDbArc
 50
19.4037582095
 51
27.6237776714
  0
ARC
  5
322
100
AcDbEntity
  8
ALL_ASSEMBLY_MEMBERS
100
AcDbCircle
 62
7
  6
CONTINUOUS
 10
7.0419123221
 20
3.6774527652
 40
0.3705
100
AcDbArc
 50
32.3762223286
 51
87.6235767921
  0
ARC
  5
323
100
AcDbEntity
  8
ALL_ASSEMBLY_MEMBERS
100
AcDbCircle
 62
7
  6
CONTINUOUS
 10
7.0419123221
 20
3.6774527652
 40
0.3705
100
AcDbArc
 50
212.3762223286
 51
267.6235767921
  0
ARC
  5
324
100
AcDbEntity
  8
ALL_ASSEMBLY_MEMBERS
100
AcDbCircle
 62
7
  6
CONTINUOUS
 10
7.0419123221
 20
3.6774527652
 40
0.3705
100
AcDbArc
 50
191.4145347667
 51
207.6237776714
  0
ARC
  5
325
100
AcDbEntity
  8
ALL_ASSEMBLY_MEMBERS
100
AcDbCircle
 62
7
  6
CONTINUOUS
 10
7.0419123221
 20
3.6774527652
 40
0.3705
100
AcDbArc
 50
152.3762223286
 51
168.5854652333
  0
ARC
  5
326
100
AcDbEntity
  8
ALL_ASSEMBLY_MEMBERS
100
AcDbCircle
 62
7
  6
CONTINUOUS
 10
7.0419123221
 20
3.6774527652
 40
0.3705
100
AcDbArc
 50
92.3764232079
 51
147.6237776714
  0
ARC
  5
327
100
AcDbEntity
  8
ALL_ASSEMBLY_MEMBERS
100
AcDbCircle
 62
7
  6
CONTINUOUS
 10
7.0419123221
 20
3.6774527652
 40
0.32575
100
AcDbArc
 50
193.0411086176
 51
341.0775901738
  0
ARC
  5
328
100
AcDbEntity
  8
ALL_ASSEMBLY_MEMBERS
100
AcDbCircle
 62
7
  6
CONTINUOUS
 10
7.0419123221
 20
3.6774527652
 40
0.32575
100
AcDbArc
 50
18.9224098262
 51
166.9588913824
  0
ARC
  5
329
100
AcDbEntity
  8
ALL_ASSEMBLY_MEMBERS
100
AcDbCircle
 62
7
  6
CONTINUOUS
 10
7.0419123221
 20
3.6774527652
 40
0.3073169971
100
AcDbArc
 50
195.4441216438
 51
341.3141182502
  0
ARC
  5
32A
100
AcDbEntity
  8
ALL_ASSEMBLY_MEMBERS
100
AcDbCircle
 62
7
  6
CONTINUOUS
 10
7.0419123221
 20
3.6774527652
 40
0.3073169971
100
AcDbArc
 50
18.6858817498
 51
164.5558783562
  0
CIRCLE
  5
32B
100
AcDbEntity
  8
ALL_ASSEMBLY_MEMBERS
100
AcDbCircle
 62
7
  6
CONTINUOUS
 10
7.0419123221
 20
3.6774527652
 40
0.27875
  0
CIRCLE
  5
32C
100
AcDbEntity
  8
ALL_ASSEMBLY_MEMBERS
100
AcDbCircle
 62
7
  6
CONTINUOUS
 10
7.0419123221
 20
3.6774527652
 40
0.2645961576
  0
CIRCLE
  5
32D
100
AcDbEntity
  8
ALL_ASSEMBLY_MEMBERS
100
AcDbCircle
 62
7
  6
CONTINUOUS
 10
7.0419123221
 20
3.6774527652
 40
0.26375
  0
CIRCLE
  5
32E
100
AcDbEntity
  8
ALL_ASSEMBLY_MEMBERS
100
AcDbCircle
 62
7
  6
CONTINUOUS
 10
7.0419123221
 20
3.6774527652
 40
0.2526402106
  0
CIRCLE
  5
32F
100
AcDbEntity
  8
ALL_ASSEMBLY_MEMBERS
100
AcDbCircle
 62
7
  6
CONTINUOUS
 10
7.0419123221
 20
3.6774527652
 40
0.2272549781
  0
CIRCLE
  5
330
100
AcDbEntity
  8
ALL_ASSEMBLY_MEMBERS
100
AcDbCircle
 62
7
  6
CONTINUOUS
 10
7.0419123221
 20
3.6774527652
 40
0.21375
  0
CIRCLE
  5
331
100
AcDbEntity
  8
ALL_ASSEMBLY_MEMBERS
100
AcDbCircle
 62
7
  6
CONTINUOUS
 10
7.0419123221
 20
3.6774527652
 40
0.20875
  0
CIRCLE
  5
332
100
AcDbEntity
  8
ALL_ASSEMBLY_MEMBERS
100
AcDbCircle
 62
7
  6
CONTINUOUS
 10
7.0419123221
 20
3.6774527652
 40
0.1975723283
  0
ARC
  5
333
100
AcDbEntity
  8
ALL_ASSEMBLY_MEMBERS
100
AcDbCircle
 62
7
  6
CONTINUOUS
 10
7.0188858564
 20
3.6774045989
 40
0.0569735547
100
AcDbArc
 50
179.9515613656
 51
187.0787597455
  0
ARC
  5
334
100
AcDbEntity
  8
ALL_ASSEMBLY_MEMBERS
100
AcDbCircle
 62
7
  6
CONTINUOUS
 10
6.9838997904
 20
3.677454794
 40
0.0565125317
100
AcDbArc
 50
359.9979430711
 51
2.4505484092
  0
ARC
  5
335
100
AcDbEntity
  8
ALL_ASSEMBLY_MEMBERS
100
AcDbCircle
 62
7
  6
CONTINUOUS
 10
7.1026623221
 20
3.6613380875
 40
0.015
100
AcDbArc
 50
270.0
 51
328.815717175
  0
ARC
  5
336
100
AcDbEntity
  8
ALL_ASSEMBLY_MEMBERS
100
AcDbCircle
 62
7
  6
CONTINUOUS
 10
7.0906623221
 20
3.6613380875
 40
0.015
100
AcDbArc
 50
180.0
 51
270.0
  0
ARC
  5
337
100
AcDbEntity
  8
ALL_ASSEMBLY_MEMBERS
100
AcDbCircle
 62
7
  6
CONTINUOUS
 10
7.1329123221
 20
3.6550150229
 40
0.009
100
AcDbArc
 50
296.3877999613
 51
360.0
  0
ARC
  5
338
100
AcDbEntity
  8
ALL_ASSEMBLY_MEMBERS
100
AcDbCircle
 62
7
  6
CONTINUOUS
 10
7.1630532623
 20
3.6499527652
 40
0.003
100
AcDbArc
 50
180.0
 51
270.0
  0
ARC
  5
339
100
AcDbEntity
  8
ALL_ASSEMBLY_MEMBERS
100
AcDbCircle
 62
7
  6
CONTINUOUS
 10
7.1537427821
 20
3.6787027652
 40
0.0485
100
AcDbArc
 50
341.5590861804
 51
18.4409138196
  0
ARC
  5
33A
100
AcDbEntity
  8
ALL_ASSEMBLY_MEMBERS
100
AcDbCircle
 62
7
  6
CONTINUOUS
 10
7.1791623221
 20
3.6772027652
 40
0.04225
100
AcDbArc
 50
270.0
 51
90.0
  0
ARC
  5
33B
100
AcDbEntity
  8
ALL_ASSEMBLY_MEMBERS
100
AcDbCircle
 62
7
  6
CONTINUOUS
 10
7.1769847162
 20
3.6709527652
 40
0.024
100
AcDbArc
 50
270.0
 51
341.5590861804
  0
ARC
  5
33C
100
AcDbEntity
  8
ALL_ASSEMBLY_MEMBERS
100
AcDbCircle
 62
7
  6
CONTINUOUS
 10
7.1769847162
 20
3.6864527652
 40
0.024
100
AcDbArc
 50
18.4409138196
 51
90.0
  0
ARC
  5
33D
100
AcDbEntity
  8
ALL_ASSEMBLY_MEMBERS
100
AcDbCircle
 62
7
  6
CONTINUOUS
 10
7.0906623221
 20
3.6960674428
 40
0.015
100
AcDbArc
 50
106.4592496283
 51
180.0
  0
ARC
  5
33E
100
AcDbEntity
  8
ALL_ASSEMBLY_MEMBERS
100
AcDbCircle
 62
7
  6
CONTINUOUS
 10
7.0426623221
 20
3.6960674428
 40
0.015
100
AcDbArc
 50
0.0
 51
73.5407503717
  0
ARC
  5
33F
100
AcDbEntity
  8
ALL_ASSEMBLY_MEMBERS
100
AcDbCircle
 62
7
  6
CONTINUOUS
 10
7.1329123221
 20
3.7023905074
 40
0.009
100
AcDbArc
 50
0.0
 51
63.6122000388
  0
ARC
  5
340
100
AcDbEntity
  8
ALL_ASSEMBLY_MEMBERS
100
AcDbCircle
 62
7
  6
CONTINUOUS
 10
7.1630532623
 20
3.7074527652
 40
0.003
100
AcDbArc
 50
90.0
 51
180.0
  0
ARC
  5
341
100
AcDbEntity
  8
ALL_ASSEMBLY_MEMBERS
100
AcDbCircle
 62
7
  6
CONTINUOUS
 10
6.9314123221
 20
3.7194527652
 40
0.003
100
AcDbArc
 50
252.3178031513
 51
360.0
  0
ARC
  5
342
100
AcDbEntity
  8
ALL_ASSEMBLY_MEMBERS
100
AcDbCircle
 62
7
  6
CONTINUOUS
 10
8.5414019054
 20
3.6774527652
 40
0.1867604167
100
AcDbArc
 50
317.9864211385
 51
42.0135788615
  0
SPLINE
  5
343
100
AcDbEntity
  8
ALL_ASSEMBLY_MEMBERS
100
AcDbSpline
 62
7
  6
CONTINUOUS
 70
0
 71
3
 72
21
 73
17
 74
0
 42
0.0000001
 43
0.0000001
 44
0.0000000001
 40
0.0
 40
0.0
 40
0.0
 40
0.0
 40
0.1566166934
 40
0.3100202103
 40
0.4570674709
 40
0.5272604941
 40
0.5947501362
 40
0.6591920546
 40
0.7202584129
 40
0.7776398407
 40
0.8310474137
 40
0.8802146987
 40
0.9249000136
 40
0.9648891305
 40
0.9830645811
 40
1.0
 40
1.0
 40
1.0
 40
1.0
 10
5.0734083851
 20
3.0583480642
 30
0.0
 10
5.0796822495
 20
3.0583480642
 30
0.0
 10
5.0921014138
 20
3.0584252675
 30
0.0
 10
5.1104081478
 20
3.0587714491
 30
0.0
 10
5.1252484482
 20
3.0592521497
 30
0.0
 10
5.1366435083
 20
3.0597520274
 30
0.0
 10
5.144729527
 20
3.0601726494
 30
0.0
 10
5.1524465967
 20
3.0606424991
 30
0.0
 10
5.1597548184
 20
3.0611590926
 30
0.0
 10
5.1666164218
 20
3.0617196445
 30
0.0
 10
5.1729959633
 20
3.0623211223
 30
0.0
 10
5.178860555
 20
3.0629601852
 30
0.0
 10
5.1841799513
 20
3.0636333376
 30
0.0
 10
5.1882559914
 20
3.0642369787
 30
0.0
 10
5.1912221716
 20
3.0647398254
 30
0.0
 10
5.1926051195
 20
3.064996566
 30
0.0
 10
5.1932709439
 20
3.0651266418
 30
0.0
  0
SPLINE
  5
344
100
AcDbEntity
  8
ALL_ASSEMBLY_MEMBERS
100
AcDbSpline
 62
7
  6
CONTINUOUS
 70
0
 71
3
 72
21
 73
17
 74
0
 42
0.0000001
 43
0.0000001
 44
0.0000000001
 40
0.0
 40
0.0
 40
0.0
 40
0.0
 40
0.1566166934
 40
0.3100202103
 40
0.4570674709
 40
0.5272604941
 40
0.5947501362
 40
0.6591920546
 40
0.7202584129
 40
0.7776398407
 40
0.8310474137
 40
0.8802146987
 40
0.9249000136
 40
0.9648891305
 40
0.9830645811
 40
1.0
 40
1.0
 40
1.0
 40
1.0
 10
5.0734083851
 20
3.0583480642
 30
0.0
 10
5.0671345207
 20
3.0583480642
 30
0.0
 10
5.0547153564
 20
3.0584252675
 30
0.0
 10
5.0364086224
 20
3.0587714491
 30
0.0
 10
5.021568322
 20
3.0592521497
 30
0.0
 10
5.0101732619
 20
3.0597520274
 30
0.0
 10
5.0020872431
 20
3.0601726494
 30
0.0
 10
4.9943701735
 20
3.0606424991
 30
0.0
 10
4.9870619518
 20
3.0611590926
 30
0.0
 10
4.9802003484
 20
3.0617196445
 30
0.0
 10
4.9738208069
 20
3.0623211223
 30
0.0
 10
4.9679562152
 20
3.0629601852
 30
0.0
 10
4.9626368189
 20
3.0636333376
 30
0.0
 10
4.9585607788
 20
3.0642369787
 30
0.0
 10
4.9555945986
 20
3.0647398254
 30
0.0
 10
4.9542116506
 20
3.064996566
 30
0.0
 10
4.9535458263
 20
3.0651266418
 30
0.0
  0
SPLINE
  5
345
100
AcDbEntity
  8
ALL_ASSEMBLY_MEMBERS
100
AcDbSpline
 62
7
  6
CONTINUOUS
 70
0
 71
3
 72
39
 73
35
 74
0
 42
0.0000001
 43
0.0000001
 44
0.0000000001
 40
0.0
 40
0.0
 40
0.0
 40
0.0
 40
0.0077443318
 40
0.0161629964
 40
0.0252479308
 40
0.0349880673
 40
0.0563834056
 40
0.0802424716
 40
0.0930562505
 40
0.1064368363
 40
0.1348264083
 40
0.1652540049
 40
0.1975534576
 40
0.2315440085
 40
0.2670379121
 40
0.3417327959
 40
0.4199703667
 40
0.5
 40
0.5800296333
 40
0.6582672041
 40
0.7329620879
 40
0.7684559915
 40
0.8024465424
 40
0.8347459951
 40
0.8651735917
 40
0.8935631637
 40
0.9069437495
 40
0.9197575284
 40
0.9436165944
 40
0.9650119327
 40
0.9747520692
 40
0.9838370036
 40
0.9922556682
 40
1.0
 40
1.0
 40
1.0
 40
1.0
 10
5.1869045845
 20
3.0659746719
 30
0.0
 10
5.1863313179
 20
3.065845042
 30
0.0
 10
5.1851314723
 20
3.0655894024
 30
0.0
 10
5.1832496797
 20
3.0652277039
 30
0.0
 10
5.1812127589
 20
3.0648722738
 30
0.0
 10
5.1781982038
 20
3.064392238
 30
0.0
 10
5.1740637949
 20
3.0638178653
 30
0.0
 10
5.169687141
 20
3.0632998699
 30
0.0
 10
5.1659095684
 20
3.0628994704
 30
0.0
 10
5.1617868335
 20
3.0624945403
 30
0.0
 10
5.1563281457
 20
3.0620177055
 30
0.0
 10
5.1494323673
 20
3.0614991378
 30
0.0
 10
5.1421072677
 20
3.0610268483
 30
0.0
 10
5.1343940962
 20
3.060603342
 30
0.0
 10
5.1234634272
 20
3.0600987573
 30
0.0
 10
5.1091708239
 20
3.0596135219
 30
0.0
 10
5.0914935744
 20
3.0592640637
 30
0.0
 10
5.0734083851
 20
3.0591466743
 30
0.0
 10
5.0553231958
 20
3.0592640637
 30
0.0
 10
5.0376459463
 20
3.0596135219
 30
0.0
 10
5.023353343
 20
3.0600987573
 30
0.0
 10
5.012422674
 20
3.060603342
 30
0.0
 10
5.0047095025
 20
3.0610268483
 30
0.0
 10
4.9973844029
 20
3.0614991378
 30
0.0
 10
4.9904886245
 20
3.0620177055
 30
0.0
 10
4.9850299367
 20
3.0624945403
 30
0.0
 10
4.9809072018
 20
3.0628994704
 30
0.0
 10
4.9771296292
 20
3.0632998699
 30
0.0
 10
4.9727529753
 20
3.0638178653
 30
0.0
 10
4.9686185664
 20
3.064392238
 30
0.0
 10
4.9656040113
 20
3.0648722738
 30
0.0
 10
4.9635670905
 20
3.0652277039
 30
0.0
 10
4.9616852979
 20
3.0655894024
 30
0.0
 10
4.9604854523
 20
3.065845042
 30
0.0
 10
4.9599121857
 20
3.0659746719
 30
0.0
  0
SPLINE
  5
346
100
AcDbEntity
  8
ALL_ASSEMBLY_MEMBERS
100
AcDbSpline
 62
7
  6
CONTINUOUS
 70
0
 71
3
 72
19
 73
15
 74
0
 42
0.0000001
 43
0.0000001
 44
0.0000000001
 40
0.0
 40
0.0
 40
0.0
 40
0.0
 40
0.0559048042
 40
0.1144044532
 40
0.1751606724
 40
0.2378166359
 40
0.367357246
 40
0.5
 40
0.632642754
 40
0.7621833641
 40
0.8248393276
 40
0.8855955468
 40
0.9440951958
 40
1.0
 40
1.0
 40
1.0
 40
1.0
 10
5.0077229082
 20
3.0695989794
 30
0.0
 10
5.0101676633
 20
3.0694485696
 30
0.0
 10
5.0151722439
 20
3.069166308
 30
0.0
 10
5.0228381122
 20
3.0688031266
 30
0.0
 10
5.0308023007
 20
3.0684921023
 30
0.0
 10
5.0418796821
 20
3.0681454682
 30
0.0
 10
5.0561096053
 20
3.0678580906
 30
0.0
 10
5.0734083851
 20
3.067743303
 30
0.0
 10
5.0907071649
 20
3.0678580906
 30
0.0
 10
5.1049370881
 20
3.0681454682
 30
0.0
 10
5.1160144695
 20
3.0684921023
 30
0.0
 10
5.123978658
 20
3.0688031266
 30
0.0
 10
5.1316445262
 20
3.069166308
 30
0.0
 10
5.1366491069
 20
3.0694485696
 30
0.0
 10
5.139093862
 20
3.0695989794
 30
0.0
  0
SPLINE
  5
347
100
AcDbEntity
  8
ALL_ASSEMBLY_MEMBERS
100
AcDbSpline
 62
7
  6
CONTINUOUS
 70
0
 71
3
 72
11
 73
7
 74
0
 42
0.0000001
 43
0.0000001
 44
0.0000000001
 40
0.0
 40
0.0
 40
0.0
 40
0.0
 40
0.2730385444
 40
0.4996896654
 40
0.7263920674
 40
1.0
 40
1.0
 40
1.0
 40
1.0
 10
3.0649044481
 20
3.6774527652
 30
0.0
 10
3.0649040794
 20
3.6893481391
 30
0.0
 10
3.0714502477
 20
3.7111179321
 30
0.0
 10
3.1040761849
 20
3.7236001785
 30
0.0
 10
3.1366030196
 20
3.711093885
 30
0.0
 10
3.143404047
 20
3.6893460941
 30
0.0
 10
3.1434044481
 20
3.6774527652
 30
0.0
  0
SPLINE
  5
348
100
AcDbEntity
  8
ALL_ASSEMBLY_MEMBERS
100
AcDbSpline
 62
7
  6
CONTINUOUS
 70
0
 71
3
 72
11
 73
7
 74
0
 42
0.0000001
 43
0.0000001
 44
0.0000000001
 40
0.0
 40
0.0
 40
0.0
 40
0.0
 40
0.2911005069
 40
0.5007865867
 40
0.7104726666
 40
1.0
 40
1.0
 40
1.0
 40
1.0
 10
3.1255544481
 20
3.6774527652
 30
0.0
 10
3.1255544481
 20
3.6858086818
 30
0.0
 10
3.1236138278
 20
3.7001835484
 30
0.0
 10
3.1040915373
 20
3.7108458445
 30
0.0
 10
3.0843616943
 20
3.7002325021
 30
0.0
 10
3.0830544481
 20
3.6858146464
 30
0.0
 10
3.0830544481
 20
3.6774527652
 30
0.0
  0
SPLINE
  5
349
100
AcDbEntity
  8
ALL_ASSEMBLY_MEMBERS
100
AcDbSpline
 62
7
  6
CONTINUOUS
 70
0
 71
3
 72
11
 73
7
 74
0
 42
0.0000001
 43
0.0000001
 44
0.0000000001
 40
0.0
 40
0.0
 40
0.0
 40
0.0
 40
0.2736088651
 40
0.5002793729
 40
0.726960525
 40
1.0
 40
1.0
 40
1.0
 40
1.0
 10
3.1434044481
 20
3.6774527652
 30
0.0
 10
3.1434048492
 20
3.6655594362
 30
0.0
 10
3.1366057325
 20
3.6438131582
 30
0.0
 10
3.1040709694
 20
3.631305318
 30
0.0
 10
3.0714527446
 20
3.6437863026
 30
0.0
 10
3.0649048168
 20
3.6655573912
 30
0.0
 10
3.0649044481
 20
3.6774527652
 30
0.0
  0
SPLINE
  5
34A
100
AcDbEntity
  8
ALL_ASSEMBLY_MEMBERS
100
AcDbSpline
 62
7
  6
CONTINUOUS
 70
0
 71
3
 72
11
 73
7
 74
0
 42
0.0000001
 43
0.0000001
 44
0.0000000001
 40
0.0
 40
0.0
 40
0.0
 40
0.0
 40
0.2895273334
 40
0.4992134133
 40
0.7088994931
 40
1.0
 40
1.0
 40
1.0
 40
1.0
 10
3.0830544481
 20
3.6774527652
 30
0.0
 10
3.0830544481
 20
3.6690908839
 30
0.0
 10
3.0843616943
 20
3.6546730282
 30
0.0
 10
3.1040915373
 20
3.6440596858
 30
0.0
 10
3.1236138278
 20
3.6547219819
 30
0.0
 10
3.1255544481
 20
3.6690968485
 30
0.0
 10
3.1255544481
 20
3.6774527652
 30
0.0
  0
SPLINE
  5
34B
100
AcDbEntity
  8
ALL_ASSEMBLY_MEMBERS
100
AcDbSpline
 62
7
  6
CONTINUOUS
 70
0
 71
3
 72
11
 73
7
 74
0
 42
0.0000001
 43
0.0000001
 44
0.0000000001
 40
0.0
 40
0.0
 40
0.0
 40
0.0
 40
0.2893264667
 40
0.529018178
 40
0.7687211451
 40
1.0
 40
1.0
 40
1.0
 40
1.0
 10
7.0404123221
 20
3.6774527652
 30
0.0
 10
7.0404127232
 20
3.6655594362
 30
0.0
 10
7.0336136066
 20
3.6438131582
 30
0.0
 10
7.0010788434
 20
3.631305318
 30
0.0
 10
6.970900046
 20
3.642852884
 30
0.0
 10
6.9635241536
 20
3.6609797236
 30
0.0
 10
6.9623465718
 20
3.6703835428
 30
0.0
  0
SPLINE
  5
34C
100
AcDbEntity
  8
ALL_ASSEMBLY_MEMBERS
100
AcDbSpline
 62
7
  6
CONTINUOUS
 70
0
 71
3
 72
11
 73
7
 74
0
 42
0.0000001
 43
0.0000001
 44
0.0000000001
 40
0.0
 40
0.0
 40
0.0
 40
0.0
 40
0.2895273334
 40
0.4992134133
 40
0.7088994931
 40
1.0
 40
1.0
 40
1.0
 40
1.0
 10
6.9800623221
 20
3.6774527652
 30
0.0
 10
6.9800623221
 20
3.6690908839
 30
0.0
 10
6.9813695683
 20
3.6546730282
 30
0.0
 10
7.0010994113
 20
3.6440596858
 30
0.0
 10
7.0206217018
 20
3.6547219819
 30
0.0
 10
7.0225623221
 20
3.6690968485
 30
0.0
 10
7.0225623221
 20
3.6774527652
 30
0.0
  0
SPLINE
  5
34D
100
AcDbEntity
  8
ALL_ASSEMBLY_MEMBERS
100
AcDbSpline
 62
7
  6
CONTINUOUS
 70
0
 71
3
 72
11
 73
7
 74
0
 42
0.0000001
 43
0.0000001
 44
0.0000000001
 40
0.0
 40
0.0
 40
0.0
 40
0.0
 40
0.2911005069
 40
0.5007865867
 40
0.7104726666
 40
1.0
 40
1.0
 40
1.0
 40
1.0
 10
7.0225623221
 20
3.6774527652
 30
0.0
 10
7.0225623221
 20
3.6858086818
 30
0.0
 10
7.0206217018
 20
3.7001835484
 30
0.0
 10
7.0010994113
 20
3.7108458445
 30
0.0
 10
6.9813695683
 20
3.7002325021
 30
0.0
 10
6.9800623221
 20
3.6858146464
 30
0.0
 10
6.9800623221
 20
3.6774527652
 30
0.0
  0
SPLINE
  5
34E
100
AcDbEntity
  8
ALL_ASSEMBLY_MEMBERS
100
AcDbSpline
 62
7
  6
CONTINUOUS
 70
0
 71
3
 72
11
 73
7
 74
0
 42
0.0000001
 43
0.0000001
 44
0.0000000001
 40
0.0
 40
0.0
 40
0.0
 40
0.0
 40
0.2782003197
 40
0.5091362648
 40
0.7401244605
 40
1.0
 40
1.0
 40
1.0
 40
1.0
 10
6.9619123221
 20
3.6774527652
 30
0.0
 10
6.9619119534
 20
3.6893481391
 30
0.0
 10
6.9684581217
 20
3.7111179321
 30
0.0
 10
7.001084059
 20
3.7236001785
 30
0.0
 10
7.0327807144
 20
3.7114130819
 30
0.0
 10
7.0398860506
 20
3.6909410689
 30
0.0
 10
7.0403606413
 20
3.6798711059
 30
0.0
  0
SPLINE
  5
34F
100
AcDbEntity
  8
ALL_ASSEMBLY_MEMBERS
100
AcDbSpline
 62
7
  6
CONTINUOUS
 70
0
 71
3
 72
35
 73
31
 74
0
 42
0.0000001
 43
0.0000001
 44
0.0000000001
 40
0.0
 40
0.0
 40
0.0
 40
0.0
 40
0.0967753139
 40
0.1926724085
 40
0.2866973075
 40
0.3779840148
 40
0.4656678406
 40
0.5489046249
 40
0.6269061897
 40
0.6989375693
 40
0.7643185367
 40
0.7943253478
 40
0.822447122
 40
0.8486225823
 40
0.8727956566
 40
0.8949124171
 40
0.9149298005
 40
0.9328146504
 40
0.9485393446
 40
0.9620918526
 40
0.9680572883
 40
0.9734863219
 40
0.9783852776
 40
0.9827641534
 40
0.986639292
 40
0.990036533
 40
0.9929950516
 40
0.995574875
 40
0.9978668749
 40
1.0
 40
1.0
 40
1.0
 40
1.0
 10
5.0734083851
 20
3.0710309177
 30
0.0
 10
5.0779816016
 20
3.0710309177
 30
0.0
 10
5.0870865818
 20
3.0709920484
 30
0.0
 10
5.1006337997
 20
3.0708178666
 30
0.0
 10
5.1139196545
 20
3.0705292641
 30
0.0
 10
5.1268143261
 20
3.0701292337
 30
0.0
 10
5.1391950343
 20
3.0696219018
 30
0.0
 10
5.1509425481
 20
3.0690121339
 30
0.0
 10
5.1619436435
 20
3.0683062062
 30
0.0
 10
5.1720925319
 20
3.0675113374
 30
0.0
 10
5.1799690442
 20
3.0667618554
 30
0.0
 10
5.1857699044
 20
3.066116196
 30
0.0
 10
5.1897239296
 20
3.0656285578
 30
0.0
 10
5.1933978951
 20
3.0651249237
 30
0.0
 10
5.1967830351
 20
3.0646066466
 30
0.0
 10
5.1998712323
 20
3.06407496
 30
0.0
 10
5.2026551785
 20
3.0635312896
 30
0.0
 10
5.2051285247
 20
3.062977355
 30
0.0
 10
5.2072854949
 20
3.0624145415
 30
0.0
 10
5.208877082
 20
3.0619209054
 30
0.0
 10
5.209984698
 20
3.0615165259
 30
0.0
 10
5.2106975059
 20
3.0612248115
 30
0.0
 10
5.2113280596
 20
3.060931837
 30
0.0
 10
5.2118760897
 20
3.0606376811
 30
0.0
 10
5.2123415145
 20
3.0603423781
 30
0.0
 10
5.2127244883
 20
3.0600458099
 30
0.0
 10
5.2130252166
 20
3.0597474538
 30
0.0
 10
5.213243495
 20
3.0594459841
 30
0.0
 10
5.2133775737
 20
3.0591400066
 30
0.0
 10
5.2134083851
 20
3.0589299168
 30
0.0
 10
5.2134083851
 20
3.0588291138
 30
0.0
  0
SPLINE
  5
350
100
AcDbEntity
  8
ALL_ASSEMBLY_MEMBERS
100
AcDbSpline
 62
7
  6
CONTINUOUS
 70
0
 71
3
 72
44
 73
40
 74
0
 42
0.0000001
 43
0.0000001
 44
0.0000000001
 40
0.0
 40
0.0
 40
0.0
 40
0.0
 40
0.0877192247
 40
0.1746045078
 40
0.2597420461
 40
0.3423253278
 40
0.4215520501
 40
0.4966596069
 40
0.5669441303
 40
0.6317841841
 40
0.6619962606
 40
0.6906613747
 40
0.7177390956
 40
0.7431981328
 40
0.7670273686
 40
0.7892350972
 40
0.8098671564
 40
0.8290111857
 40
0.8380768386
 40
0.846839882
 40
0.8636506279
 40
0.8718214047
 40
0.8799642307
 40
0.8840635242
 40
0.8882031697
 40
0.8967073424
 40
0.9057163693
 40
0.9104915424
 40
0.9154930082
 40
0.9263342565
 40
0.9385317353
 40
0.9451695145
 40
0.9521855787
 40
0.9595620347
 40
0.9672279278
 40
0.975120164
 40
0.9832035298
 40
0.9914884176
 40
1.0
 40
1.0
 40
1.0
 40
1.0
 10
5.0734083851
 20
3.0449494328
 30
0.0
 10
5.0787673024
 20
3.0449494328
 30
0.0
 10
5.0894342499
 20
3.044996115
 30
0.0
 10
5.1053011558
 20
3.0452054541
 30
0.0
 10
5.1208518386
 20
3.0455522438
 30
0.0
 10
5.1359308729
 20
3.0460329036
 30
0.0
 10
5.1503919939
 20
3.0466427594
 30
0.0
 10
5.1640950733
 20
3.0473759791
 30
0.0
 10
5.1769107282
 20
3.0482259899
 30
0.0
 10
5.1869788066
 20
3.0490434092
 30
0.0
 10
5.1945031266
 20
3.0497582634
 30
0.0
 10
5.1997255911
 20
3.050307174
 30
0.0
 10
5.204653148
 20
3.0508811899
 30
0.0
 10
5.2092800131
 20
3.0514801761
 30
0.0
 10
5.213603086
 20
3.0521050052
 30
0.0
 10
5.2176237115
 20
3.052757159
 30
0.0
 10
5.2213484565
 20
3.0534409859
 30
0.0
 10
5.2242692431
 20
3.0540532716
 30
0.0
 10
5.2264680703
 20
3.0545705149
 30
0.0
 10
5.2285191631
 20
3.0550915589
 30
0.0
 10
5.2305015407
 20
3.0556606611
 30
0.0
 10
5.23242249
 20
3.0562978766
 30
0.0
 10
5.2335926819
 20
3.0567298157
 30
0.0
 10
5.2345211831
 20
3.0571034274
 30
0.0
 10
5.2354623791
 20
3.0575040734
 30
0.0
 10
5.2366608307
 20
3.0580655387
 30
0.0
 10
5.2378584496
 20
3.0587154143
 30
0.0
 10
5.2388399401
 20
3.0593106217
 30
0.0
 10
5.2398903212
 20
3.0600064154
 30
0.0
 10
5.2412510755
 20
3.0610512289
 30
0.0
 10
5.2425724206
 20
3.0622990394
 30
0.0
 10
5.2436125704
 20
3.0634889345
 30
0.0
 10
5.2443878651
 20
3.0645148877
 30
0.0
 10
5.2451190835
 20
3.0656483396
 30
0.0
 10
5.2457871628
 20
3.066881566
 30
0.0
 10
5.2463697607
 20
3.0682050637
 30
0.0
 10
5.2468457972
 20
3.0696107665
 30
0.0
 10
5.2472025589
 20
3.0710902961
 30
0.0
 10
5.2473507208
 20
3.0721074338
 30
0.0
 10
5.2474019166
 20
3.0726248945
 30
0.0
  0
SPLINE
  5
351
100
AcDbEntity
  8
ALL_ASSEMBLY_MEMBERS
100
AcDbSpline
 62
7
  6
CONTINUOUS
 70
0
 71
3
 72
66
 73
62
 74
0
 42
0.0000001
 43
0.0000001
 44
0.0000000001
 40
0.0
 40
0.0
 40
0.0
 40
0.0
 40
0.0050182834
 40
0.0102409348
 40
0.0157130114
 40
0.0214802678
 40
0.0275744036
 40
0.0340223361
 40
0.0408573134
 40
0.0480936331
 40
0.0557049707
 40
0.0636699447
 40
0.0719593762
 40
0.0805228134
 40
0.0893168147
 40
0.0982985492
 40
0.1074245822
 40
0.1166585929
 40
0.1259692894
 40
0.1353273348
 40
0.1447066494
 40
0.1540805438
 40
0.1634209597
 40
0.1727004701
 40
0.1818882954
 40
0.190948238
 40
0.1998424338
 40
0.2085310921
 40
0.2169646794
 40
0.2250893507
 40
0.2402979212
 40
0.2473320567
 40
0.2539602401
 40
0.2602178426
 40
0.2661391081
 40
0.2717521586
 40
0.2770913073
 40
0.2822022604
 40
0.2871297839
 40
0.2919167583
 40
0.2966016125
 40
0.3012113931
 40
0.305770189
 40
0.3148287935
 40
0.3332225762
 40
0.342744399
 40
0.3525784884
 40
0.373331811
 40
0.3957209739
 40
0.4198555049
 40
0.4457833544
 40
0.4734977275
 40
0.5029646527
 40
0.5341201169
 40
0.5668883179
 40
0.6011694983
 40
0.6738382289
 40
0.7511673806
 40
0.832076777
 40
0.915430448
 40
1.0
 40
1.0
 40
1.0
 40
1.0
 10
5.2826648171
 20
3.4195518605
 30
0.0
 10
5.2831161742
 20
3.4197487979
 30
0.0
 10
5.2840318414
 20
3.4201633055
 30
0.0
 10
5.2854162818
 20
3.420842823
 30
0.0
 10
5.2868413235
 20
3.421604372
 30
0.0
 10
5.2883122034
 20
3.4224594366
 30
0.0
 10
5.2898275614
 20
3.4234258761
 30
0.0
 10
5.2913812236
 20
3.4245235031
 30
0.0
 10
5.292964676
 20
3.4257688782
 30
0.0
 10
5.2945634907
 20
3.4271745847
 30
0.0
 10
5.2961543298
 20
3.4287516882
 30
0.0
 10
5.2977077851
 20
3.4305066777
 30
0.0
 10
5.2991933195
 20
3.4324390672
 30
0.0
 10
5.3005822052
 20
3.4345406365
 30
0.0
 10
5.3018402934
 20
3.4368014543
 30
0.0
 10
5.3029419056
 20
3.4392034697
 30
0.0
 10
5.303865923
 20
3.4417255274
 30
0.0
 10
5.3045882921
 20
3.4443462479
 30
0.0
 10
5.3050975368
 20
3.4470397406
 30
0.0
 10
5.3053836962
 20
3.449780471
 30
0.0
 10
5.3054379362
 20
3.4525417622
 30
0.0
 10
5.3052636784
 20
3.4552962582
 30
0.0
 10
5.3048623948
 20
3.4580171311
 30
0.0
 10
5.3042388297
 20
3.4606769348
 30
0.0
 10
5.3034105149
 20
3.463251129
 30
0.0
 10
5.3023929711
 20
3.4657157155
 30
0.0
 10
5.3012029908
 20
3.4680467369
 30
0.0
 10
5.2998720356
 20
3.4702280573
 30
0.0
 10
5.2984302537
 20
3.4722456167
 30
0.0
 10
5.2964396577
 20
3.474647324
 30
0.0
 10
5.2943141596
 20
3.4767491048
 30
0.0
 10
5.2921328359
 20
3.4785584388
 30
0.0
 10
5.2905637726
 20
3.4797258502
 30
0.0
 10
5.2890295048
 20
3.4807528053
 30
0.0
 10
5.2875358136
 20
3.4816577851
 30
0.0
 10
5.286087599
 20
3.4824612223
 30
0.0
 10
5.284684176
 20
3.4831795635
 30
0.0
 10
5.2833189278
 20
3.4838230013
 30
0.0
 10
5.281984828
 20
3.4844037739
 30
0.0
 10
5.2806748129
 20
3.4849337454
 30
0.0
 10
5.2793829621
 20
3.4854245472
 30
0.0
 10
5.2781024312
 20
3.4858812814
 30
0.0
 10
5.2764063792
 20
3.4864496635
 30
0.0
 10
5.2734018942
 20
3.487368415
 30
0.0
 10
5.2698890458
 20
3.4882832366
 30
0.0
 10
5.2662765291
 20
3.4891037577
 30
0.0
 10
5.262423342
 20
3.4899077551
 30
0.0
 10
5.2573093279
 20
3.4908462569
 30
0.0
 10
5.2507881581
 20
3.4918791613
 30
0.0
 10
5.2437446417
 20
3.4928504008
 30
0.0
 10
5.2361673619
 20
3.4937678559
 30
0.0
 10
5.2280576002
 20
3.4946335937
 30
0.0
 10
5.2194272175
 20
3.4954486694
 30
0.0
 10
5.2102943834
 20
3.4962121824
 30
0.0
 10
5.2006835331
 20
3.4969230193
 30
0.0
 10
5.1870017713
 20
3.4978157752
 30
0.0
 10
5.1689430018
 20
3.4987757582
 30
0.0
 10
5.1463009292
 20
3.4996720486
 30
0.0
 10
5.1226015218
 20
3.5003215747
 30
0.0
 10
5.0981859624
 20
3.500714959
 30
0.0
 10
5.081707303
 20
3.5008026486
 30
0.0
 10
5.0734083851
 20
3.5008026486
 30
0.0
  0
SPLINE
  5
352
100
AcDbEntity
  8
ALL_ASSEMBLY_MEMBERS
100
AcDbSpline
 62
7
  6
CONTINUOUS
 70
0
 71
3
 72
45
 73
41
 74
0
 42
0.0000001
 43
0.0000001
 44
0.0000000001
 40
0.0
 40
0.0
 40
0.0
 40
0.0
 40
0.0085623629
 40
0.01684751
 40
0.0249041026
 40
0.0327668878
 40
0.0404184962
 40
0.0478012924
 40
0.0548438838
 40
0.0614878207
 40
0.0677537253
 40
0.0736725461
 40
0.0792643343
 40
0.0845431168
 40
0.0895442574
 40
0.0943120829
 40
0.1033104081
 40
0.1118247144
 40
0.1200596758
 40
0.128197026
 40
0.1363736845
 40
0.1446750475
 40
0.153180147
 40
0.1710095112
 40
0.1901544896
 40
0.2107848265
 40
0.2329941993
 40
0.2568224112
 40
0.282282746
 40
0.3093600731
 40
0.3380261197
 40
0.3682385232
 40
0.4330811795
 40
0.5033669297
 40
0.5784718428
 40
0.6576944252
 40
0.7402731081
 40
0.8254058593
 40
0.9122865563
 40
1.0
 40
1.0
 40
1.0
 40
1.0
 10
4.8994148536
 20
3.0726248945
 30
0.0
 10
4.8994663553
 20
3.0721043418
 30
0.0
 10
4.8996145155
 20
3.0710840399
 30
0.0
 10
4.8999717192
 20
3.0696030387
 30
0.0
 10
4.9004477711
 20
3.0682009195
 30
0.0
 10
4.90103013
 20
3.066882002
 30
0.0
 10
4.9016988602
 20
3.0656517154
 30
0.0
 10
4.9024314957
 20
3.0645178787
 30
0.0
 10
4.9032063251
 20
3.0634886861
 30
0.0
 10
4.904006586
 20
3.0625679541
 30
0.0
 10
4.9048178978
 20
3.0617514168
 30
0.0
 10
4.9056292842
 20
3.0610286576
 30
0.0
 10
4.9064311552
 20
3.0603884289
 30
0.0
 10
4.9072151258
 20
3.0598173394
 30
0.0
 10
4.9079804766
 20
3.0593075943
 30
0.0
 10
4.9089597478
 20
3.0587107664
 30
0.0
 10
4.9101598586
 20
3.0580664128
 30
0.0
 10
4.9115835709
 20
3.0573962299
 30
0.0
 10
4.9129893109
 20
3.0568156981
 30
0.0
 10
4.9143971471
 20
3.0562979082
 30
0.0
 10
4.9158241833
 20
3.0558228687
 30
0.0
 10
4.9172856022
 20
3.0553820635
 30
0.0
 10
4.9193254457
 20
3.0548189821
 30
0.0
 10
4.9220259634
 20
3.0541626611
 30
0.0
 10
4.9254706853
 20
3.0534404187
 30
0.0
 10
4.9291955922
 20
3.0527568089
 30
0.0
 10
4.9332161599
 20
3.0521045554
 30
0.0
 10
4.9375394135
 20
3.051479855
 30
0.0
 10
4.9421663081
 20
3.0508808369
 30
0.0
 10
4.9470940292
 20
3.0503068662
 30
0.0
 10
4.9523165957
 20
3.049757969
 30
0.0
 10
4.9598412218
 20
3.0490431162
 30
0.0
 10
4.9699096499
 20
3.0482257375
 30
0.0
 10
4.9827254955
 20
3.0473757517
 30
0.0
 10
4.9964283624
 20
3.0466425862
 30
0.0
 10
5.0108889214
 20
3.0460328005
 30
0.0
 10
5.025967267
 20
3.0455521811
 30
0.0
 10
5.0415172377
 20
3.0452054267
 30
0.0
 10
5.0573833617
 20
3.0449961129
 30
0.0
 10
5.0680497724
 20
3.0449494328
 30
0.0
 10
5.0734083851
 20
3.0449494328
 30
0.0
  0
SPLINE
  5
353
100
AcDbEntity
  8
ALL_ASSEMBLY_MEMBERS
100
AcDbSpline
 62
7
  6
CONTINUOUS
 70
0
 71
3
 72
65
 73
61
 74
0
 42
0.0000001
 43
0.0000001
 44
0.0000000001
 40
0.0
 40
0.0
 40
0.0
 40
0.0
 40
0.0845768111
 40
0.1679351564
 40
0.2488501242
 40
0.3261829094
 40
0.3988532049
 40
0.4331340421
 40
0.4658995546
 40
0.4970521494
 40
0.5265157116
 40
0.5542270052
 40
0.5801518954
 40
0.6042848658
 40
0.6266692982
 40
0.6474232431
 40
0.6667781125
 40
0.6760540286
 40
0.685169638
 40
0.689701284
 40
0.6942347707
 40
0.7034004686
 40
0.7080864915
 40
0.7128779559
 40
0.7178094367
 40
0.722922917
 40
0.7282625904
 40
0.7338732895
 40
0.7397908102
 40
0.7460496494
 40
0.752689231
 40
0.7597248975
 40
0.7671411906
 40
0.7749294215
 40
0.7830626564
 40
0.7914908397
 40
0.8090492595
 40
0.8181046922
 40
0.8272887401
 40
0.8365662264
 40
0.8459051122
 40
0.8552780103
 40
0.864657822
 40
0.8740177826
 40
0.8833317064
 40
0.8925696566
 40
0.9016989594
 40
0.910684987
 40
0.9194853021
 40
0.9280503981
 40
0.936339078
 40
0.9443150776
 40
0.9519308821
 40
0.9591489332
 40
0.96598178
 40
0.9724437251
 40
0.9785412283
 40
0.9842983527
 40
0.9897634341
 40
1.0
 40
1.0
 40
1.0
 40
1.0
 10
5.0734083851
 20
3.5008026486
 30
0.0
 10
5.0651081497
 20
3.5008026486
 30
0.0
 10
5.0486271177
 20
3.5007149412
 30
0.0
 10
5.0242080616
 20
3.500321428
 30
0.0
 10
5.0005055669
 20
3.4996717276
 30
0.0
 10
4.9778607936
 20
3.4987751687
 30
0.0
 10
4.9598002404
 20
3.4978149166
 30
0.0
 10
4.9461176356
 20
3.4969219397
 30
0.0
 10
4.936506671
 20
3.4962109701
 30
0.0
 10
4.9273740615
 20
3.4954472643
 30
0.0
 10
4.9187439682
 20
3.4946321079
 30
0.0
 10
4.9106345681
 20
3.4937661015
 30
0.0
 10
4.9030574728
 20
3.4928486291
 30
0.0
 10
4.8960144468
 20
3.49187684
 30
0.0
 10
4.8894932523
 20
3.4908441714
 30
0.0
 10
4.8834605154
 20
3.4897358974
 30
0.0
 10
4.8787224012
 20
3.4887107866
 30
0.0
 10
4.8751277694
 20
3.487814658
 30
0.0
 10
4.8729586982
 20
3.4872168427
 30
0.0
 10
4.8712492528
 20
3.4867054696
 30
0.0
 10
4.8695430458
 20
3.4861669045
 30
0.0
 10
4.8678367165
 20
3.4855787913
 30
0.0
 10
4.8661266758
 20
3.4849278766
 30
0.0
 10
4.8648164014
 20
3.4843957554
 30
0.0
 10
4.8634814206
 20
3.4838140741
 30
0.0
 10
4.8621154895
 20
3.4831702159
 30
0.0
 10
4.8607118488
 20
3.4824518995
 30
0.0
 10
4.8592642011
 20
3.4816482825
 30
0.0
 10
4.8577719398
 20
3.4807415969
 30
0.0
 10
4.8562380414
 20
3.4797122895
 30
0.0
 10
4.8546676975
 20
3.4785442449
 30
0.0
 10
4.8530728357
 20
3.4772231988
 30
0.0
 10
4.8514744132
 20
3.4757349885
 30
0.0
 10
4.8498989201
 20
3.4740704388
 30
0.0
 10
4.8483743935
 20
3.4722277001
 30
0.0
 10
4.8464234084
 20
3.4695037034
 30
0.0
 10
4.844742278
 20
3.4664851263
 30
0.0
 10
4.8433993507
 20
3.4632356671
 30
0.0
 10
4.8425733583
 20
3.4606612905
 30
0.0
 10
4.8419521352
 20
3.4580016008
 30
0.0
 10
4.8415507499
 20
3.4552809811
 30
0.0
 10
4.8413783319
 20
3.452526323
 30
0.0
 10
4.8414342716
 20
3.4497647612
 30
0.0
 10
4.8417214139
 20
3.447023353
 30
0.0
 10
4.842233137
 20
3.4443292154
 30
0.0
 10
4.8429565
 20
3.4417075484
 30
0.0
 10
4.8438819356
 20
3.4391845137
 30
0.0
 10
4.8449878734
 20
3.4367827726
 30
0.0
 10
4.8462471419
 20
3.4345211354
 30
0.0
 10
4.8476364774
 20
3.4324186734
 30
0.0
 10
4.8491269125
 20
3.4304883033
 30
0.0
 10
4.8506827331
 20
3.4287333982
 30
0.0
 10
4.8522723541
 20
3.4271552462
 30
0.0
 10
4.8538702012
 20
3.4257504726
 30
0.0
 10
4.8554556185
 20
3.4245082957
 30
0.0
 10
4.8570127868
 20
3.4234128829
 30
0.0
 10
4.8585282427
 20
3.4224451632
 30
0.0
 10
4.8599968831
 20
3.421588586
 30
0.0
 10
4.8618560756
 20
3.4205985877
 30
0.0
 10
4.8632530017
 20
3.4199452683
 30
0.0
 10
4.8641735926
 20
3.4195431061
 30
0.0
  0
SPLINE
  5
354
100
AcDbEntity
  8
ALL_ASSEMBLY_MEMBERS
100
AcDbSpline
 62
7
  6
CONTINUOUS
 70
0
 71
3
 72
35
 73
31
 74
0
 42
0.0000001
 43
0.0000001
 44
0.0000000001
 40
0.0
 40
0.0
 40
0.0
 40
0.0
 40
0.0021331251
 40
0.004425125
 40
0.0070049484
 40
0.009963467
 40
0.013360708
 40
0.0172358466
 40
0.0216147224
 40
0.0265136781
 40
0.0319427117
 40
0.0379081474
 40
0.0514606554
 40
0.0671853496
 40
0.0850701995
 40
0.1050875829
 40
0.1272043434
 40
0.1513774177
 40
0.177552878
 40
0.2056746522
 40
0.2356814633
 40
0.3010624307
 40
0.3730938103
 40
0.4510953751
 40
0.5343321594
 40
0.6220159852
 40
0.7133026925
 40
0.8073275915
 40
0.9032246861
 40
1.0
 40
1.0
 40
1.0
 40
1.0
 10
4.9334083851
 20
3.0588291138
 30
0.0
 10
4.9334083851
 20
3.0589299168
 30
0.0
 10
4.9334391965
 20
3.0591400066
 30
0.0
 10
4.9335732752
 20
3.0594459841
 30
0.0
 10
4.9337915536
 20
3.0597474538
 30
0.0
 10
4.9340922819
 20
3.0600458099
 30
0.0
 10
4.9344752557
 20
3.0603423781
 30
0.0
 10
4.9349406805
 20
3.0606376811
 30
0.0
 10
4.9354887106
 20
3.060931837
 30
0.0
 10
4.9361192643
 20
3.0612248115
 30
0.0
 10
4.9368320722
 20
3.0615165259
 30
0.0
 10
4.9379396882
 20
3.0619209054
 30
0.0
 10
4.9395312753
 20
3.0624145415
 30
0.0
 10
4.9416882455
 20
3.062977355
 30
0.0
 10
4.9441615917
 20
3.0635312896
 30
0.0
 10
4.9469455379
 20
3.06407496
 30
0.0
 10
4.950033735
 20
3.0646066466
 30
0.0
 10
4.9534188751
 20
3.0651249237
 30
0.0
 10
4.9570928406
 20
3.0656285578
 30
0.0
 10
4.9610468658
 20
3.066116196
 30
0.0
 10
4.966847726
 20
3.0667618554
 30
0.0
 10
4.9747242383
 20
3.0675113374
 30
0.0
 10
4.9848731266
 20
3.0683062062
 30
0.0
 10
4.9958742221
 20
3.0690121339
 30
0.0
 10
5.0076217359
 20
3.0696219018
 30
0.0
 10
5.0200024441
 20
3.0701292337
 30
0.0
 10
5.0328971157
 20
3.0705292641
 30
0.0
 10
5.0461829705
 20
3.0708178666
 30
0.0
 10
5.0597301884
 20
3.0709920484
 30
0.0
 10
5.0688351686
 20
3.0710309177
 30
0.0
 10
5.0734083851
 20
3.0710309177
 30
0.0
  0
SPLINE
  5
355
100
AcDbEntity
  8
ALL_ASSEMBLY_MEMBERS
100
AcDbSpline
 62
7
  6
CONTINUOUS
 70
0
 71
3
 72
35
 73
31
 74
0
 42
0.0000001
 43
0.0000001
 44
0.0000000001
 40
0.0
 40
0.0
 40
0.0
 40
0.0
 40
0.0967753139
 40
0.1926724085
 40
0.2866973075
 40
0.3779840148
 40
0.4656678406
 40
0.5489046249
 40
0.6269061897
 40
0.6989375693
 40
0.7643185367
 40
0.7943253478
 40
0.822447122
 40
0.8486225823
 40
0.8727956566
 40
0.8949124171
 40
0.9149298005
 40
0.9328146504
 40
0.9485393446
 40
0.9620918526
 40
0.9680572883
 40
0.9734863219
 40
0.9783852776
 40
0.9827641534
 40
0.986639292
 40
0.990036533
 40
0.9929950516
 40
0.995574875
 40
0.9978668749
 40
1.0
 40
1.0
 40
1.0
 40
1.0
 10
5.0734083851
 20
3.0466273098
 30
0.0
 10
5.0688351686
 20
3.0466273098
 30
0.0
 10
5.0597301884
 20
3.0466661791
 30
0.0
 10
5.0461829705
 20
3.0468403609
 30
0.0
 10
5.0328971157
 20
3.0471289634
 30
0.0
 10
5.0200024441
 20
3.0475289938
 30
0.0
 10
5.0076217359
 20
3.0480363257
 30
0.0
 10
4.9958742221
 20
3.0486460936
 30
0.0
 10
4.9848731266
 20
3.0493520213
 30
0.0
 10
4.9747242383
 20
3.0501468901
 30
0.0
 10
4.966847726
 20
3.0508963721
 30
0.0
 10
4.9610468658
 20
3.0515420315
 30
0.0
 10
4.9570928406
 20
3.0520296697
 30
0.0
 10
4.9534188751
 20
3.0525333038
 30
0.0
 10
4.950033735
 20
3.0530515809
 30
0.0
 10
4.9469455379
 20
3.0535832675
 30
0.0
 10
4.9441615917
 20
3.0541269379
 30
0.0
 10
4.9416882455
 20
3.0546808725
 30
0.0
 10
4.9395312753
 20
3.055243686
 30
0.0
 10
4.9379396882
 20
3.0557373221
 30
0.0
 10
4.9368320722
 20
3.0561417016
 30
0.0
 10
4.9361192643
 20
3.056433416
 30
0.0
 10
4.9354887106
 20
3.0567263905
 30
0.0
 10
4.9349406805
 20
3.0570205464
 30
0.0
 10
4.9344752557
 20
3.0573158494
 30
0.0
 10
4.9340922819
 20
3.0576124176
 30
0.0
 10
4.9337915536
 20
3.0579107737
 30
0.0
 10
4.9335732752
 20
3.0582122434
 30
0.0
 10
4.9334391965
 20
3.0585182209
 30
0.0
 10
4.9334083851
 20
3.0587283107
 30
0.0
 10
4.9334083851
 20
3.0588291138
 30
0.0
  0
SPLINE
  5
356
100
AcDbEntity
  8
ALL_ASSEMBLY_MEMBERS
100
AcDbSpline
 62
7
  6
CONTINUOUS
 70
0
 71
3
 72
65
 73
61
 74
0
 42
0.0000001
 43
0.0000001
 44
0.0000000001
 40
0.0
 40
0.0
 40
0.0
 40
0.0
 40
0.049189523
 40
0.0979561248
 40
0.1458252727
 40
0.1923808897
 40
0.2372055599
 40
0.2798928543
 40
0.3200608189
 40
0.3573520239
 40
0.3914340205
 40
0.4071774626
 40
0.4220085427
 40
0.4358967763
 40
0.4488127059
 40
0.460728793
 40
0.4716230546
 40
0.481475732
 40
0.4902697651
 40
0.4979958268
 40
0.501457432
 40
0.5046514649
 40
0.5075788804
 40
0.5102420333
 40
0.5126450244
 40
0.5147938839
 40
0.516697532
 40
0.5183693607
 40
0.5198297797
 40
0.5211102443
 40
0.5222578805
 40
0.5233374184
 40
0.5244258058
 40
0.5255982497
 40
0.5269156399
 40
0.5284212723
 40
0.530143687
 40
0.5321014304
 40
0.5343067092
 40
0.5367676834
 40
0.5394898845
 40
0.54247704
 40
0.5457311113
 40
0.5492528645
 40
0.5570991122
 40
0.5660126428
 40
0.5759832173
 40
0.5869932318
 40
0.5990227713
 40
0.6120493337
 40
0.6260449183
 40
0.6568233738
 40
0.6910936787
 40
0.7285555219
 40
0.7688746863
 40
0.8116922366
 40
0.8566251379
 40
0.9032655189
 40
0.9511961622
 40
1.0
 40
1.0
 40
1.0
 40
1.0
 10
5.0734083851
 20
3.045008415
 30
0.0
 10
5.0784405523
 20
3.045008415
 30
0.0
 10
5.0884616713
 20
3.0450499679
 30
0.0
 10
5.1033788365
 20
3.0452362616
 30
0.0
 10
5.1180244791
 20
3.045545018
 30
0.0
 10
5.1322636849
 20
3.0459732274
 30
0.0
 10
5.1459684674
 20
3.0465167665
 30
0.0
 10
5.1590142113
 20
3.0471706658
 30
0.0
 10
5.1712823135
 20
3.0479286706
 30
0.0
 10
5.1826614533
 20
3.0487834696
 30
0.0
 10
5.1915376191
 20
3.0495893811
 30
0.0
 10
5.1981156363
 20
3.0502838083
 30
0.0
 10
5.2026338087
 20
3.0508100136
 30
0.0
 10
5.2068583937
 20
3.0513540465
 30
0.0
 10
5.2107798189
 20
3.0519146293
 30
0.0
 10
5.2143892074
 20
3.0524905344
 30
0.0
 10
5.2176784871
 20
3.053080206
 30
0.0
 10
5.220640391
 20
3.053682054
 30
0.0
 10
5.2232682854
 20
3.0542947828
 30
0.0
 10
5.2252416859
 20
3.0548306131
 30
0.0
 10
5.226646375
 20
3.0552687387
 30
0.0
 10
5.2275737791
 20
3.0555870672
 30
0.0
 10
5.2284137553
 20
3.0559070956
 30
0.0
 10
5.2291659143
 20
3.0562286627
 30
0.0
 10
5.2298300356
 20
3.0565515629
 30
0.0
 10
5.2304060046
 20
3.0568756704
 30
0.0
 10
5.2308937984
 20
3.0572009658
 30
0.0
 10
5.2312934837
 20
3.0575276614
 30
0.0
 10
5.2316050898
 20
3.0578564622
 30
0.0
 10
5.2318281038
 20
3.0581887588
 30
0.0
 10
5.2319604733
 20
3.0585260515
 30
0.0
 10
5.2319980735
 20
3.0588675375
 30
0.0
 10
5.2319388379
 20
3.0592083902
 30
0.0
 10
5.2317857985
 20
3.0595444879
 30
0.0
 10
5.2315427912
 20
3.0598758555
 30
0.0
 10
5.2312113872
 20
3.0602040828
 30
0.0
 10
5.2307919239
 20
3.060530427
 30
0.0
 10
5.23028433
 20
3.0608554475
 30
0.0
 10
5.2296885583
 20
3.0611792912
 30
0.0
 10
5.2290046521
 20
3.0615019049
 30
0.0
 10
5.2282327469
 20
3.0618231477
 30
0.0
 10
5.2273730951
 20
3.0621428024
 30
0.0
 10
5.2264261236
 20
3.0624607248
 30
0.0
 10
5.2249954294
 20
3.0628979505
 30
0.0
 10
5.2229900147
 20
3.063432729
 30
0.0
 10
5.2203243256
 20
3.0640443227
 30
0.0
 10
5.2173253171
 20
3.0646448717
 30
0.0
 10
5.2139997159
 20
3.0652330792
 30
0.0
 10
5.2103548709
 20
3.0658073317
 30
0.0
 10
5.2063989479
 20
3.0663661358
 30
0.0
 10
5.2005330338
 20
3.0671128119
 30
0.0
 10
5.1924933181
 20
3.067986567
 30
0.0
 10
5.1820479609
 20
3.0689252506
 30
0.0
 10
5.1706160527
 20
3.0697747325
 30
0.0
 10
5.1583012833
 20
3.0705270974
 30
0.0
 10
5.1452153218
 20
3.0711749597
 30
0.0
 10
5.1314771975
 20
3.0717121379
 30
0.0
 10
5.1172117464
 20
3.0721337414
 30
0.0
 10
5.1025471977
 20
3.0724356925
 30
0.0
 10
5.0926516802
 20
3.0725545954
 30
0.0
 10
5.0876591236
 20
3.0725938501
 30
0.0
  0
SPLINE
  5
357
100
AcDbEntity
  8
ALL_ASSEMBLY_MEMBERS
100
AcDbSpline
 62
7
  6
CONTINUOUS
 70
0
 71
3
 72
37
 73
33
 74
0
 42
0.0000001
 43
0.0000001
 44
0.0000000001
 40
0.0
 40
0.0
 40
0.0
 40
0.0
 40
0.0021243258
 40
0.0043558587
 40
0.0068381305
 40
0.009676222
 40
0.0129404568
 40
0.0166766723
 40
0.0209147848
 40
0.0256735658
 40
0.0309649012
 40
0.03679647
 40
0.0431731358
 40
0.0500978227
 40
0.0655926833
 40
0.0832707162
 40
0.1031084155
 40
0.1250729502
 40
0.1491181842
 40
0.1751939905
 40
0.2032441843
 40
0.2332028343
 40
0.2650020757
 40
0.29856853
 40
0.3706776278
 40
0.4488480808
 40
0.5323320557
 40
0.6203292235
 40
0.7119908097
 40
0.8064284007
 40
0.9027595989
 40
1.0
 40
1.0
 40
1.0
 40
1.0
 10
5.2474019069
 20
3.0726248945
 30
0.0
 10
5.2474142172
 20
3.0727491457
 30
0.0
 10
5.2474026469
 20
3.0730090532
 30
0.0
 10
5.2472722531
 20
3.0733938141
 30
0.0
 10
5.2470345212
 20
3.0737723866
 30
0.0
 10
5.2466927748
 20
3.0741462941
 30
0.0
 10
5.2462476933
 20
3.0745175292
 30
0.0
 10
5.2456990808
 20
3.0748870077
 30
0.0
 10
5.2450467164
 20
3.0752550134
 30
0.0
 10
5.244290671
 20
3.0756215988
 30
0.0
 10
5.2434312017
 20
3.0759866309
 30
0.0
 10
5.2424686787
 20
3.0763498904
 30
0.0
 10
5.2414035411
 20
3.0767111691
 30
0.0
 10
5.239785588
 20
3.077208681
 30
0.0
 10
5.237507653
 20
3.0778163364
 30
0.0
 10
5.2344696852
 20
3.078510292
 30
0.0
 10
5.2310402494
 20
3.0791913812
 30
0.0
 10
5.2272274956
 20
3.0798576482
 30
0.0
 10
5.223040493
 20
3.0805074416
 30
0.0
 10
5.2184893266
 20
3.0811389348
 30
0.0
 10
5.2135849949
 20
3.0817504081
 30
0.0
 10
5.2083393948
 20
3.0823404451
 30
0.0
 10
5.2027652711
 20
3.0829074637
 30
0.0
 10
5.1947190005
 20
3.083648614
 30
0.0
 10
5.1839462595
 20
3.084498951
 30
0.0
 10
5.1702347903
 20
3.0853851929
 30
0.0
 10
5.1555808937
 20
3.0861508083
 30
0.0
 10
5.1401272451
 20
3.0867880819
 30
0.0
 10
5.124024517
 20
3.0872905009
 30
0.0
 10
5.1074280891
 20
3.0876530657
 30
0.0
 10
5.0905012414
 20
3.0878719566
 30
0.0
 10
5.0791237966
 20
3.0879207559
 30
0.0
 10
5.0734083851
 20
3.0879207559
 30
0.0
  0
SPLINE
  5
358
100
AcDbEntity
  8
ALL_ASSEMBLY_MEMBERS
100
AcDbSpline
 62
7
  6
CONTINUOUS
 70
0
 71
3
 72
28
 73
24
 74
0
 42
0.0000001
 43
0.0000001
 44
0.0000000001
 40
0.0
 40
0.0
 40
0.0
 40
0.0
 40
0.0077438979
 40
0.0157905641
 40
0.0245837199
 40
0.034466951
 40
0.0456818058
 40
0.0583905168
 40
0.0727020967
 40
0.0886906014
 40
0.1064070877
 40
0.1258871599
 40
0.1471534992
 40
0.1702184598
 40
0.2217640241
 40
0.280541261
 40
0.3465142949
 40
0.4195966942
 40
0.4996834145
 40
0.5866508263
 40
0.680341159
 40
0.780586832
 40
1.0
 40
1.0
 40
1.0
 40
1.0
 10
5.2819004502
 20
3.4213199745
 30
0.0
 10
5.2819137585
 20
3.4214545913
 30
0.0
 10
5.2819053669
 20
3.4217339345
 30
0.0
 10
5.281782997
 20
3.4221496947
 30
0.0
 10
5.2815547721
 20
3.4225604557
 30
0.0
 10
5.2812235667
 20
3.4229667861
 30
0.0
 10
5.2807904558
 20
3.4233703005
 30
0.0
 10
5.2802556252
 20
3.4237719626
 30
0.0
 10
5.2796190153
 20
3.4241721879
 30
0.0
 10
5.2788806044
 20
3.4245710582
 30
0.0
 10
5.278040454
 20
3.4249684965
 30
0.0
 10
5.2770987348
 20
3.4253643111
 30
0.0
 10
5.276055797
 20
3.4257583422
 30
0.0
 10
5.2744712428
 20
3.4263013932
 30
0.0
 10
5.2722371665
 20
3.4269666033
 30
0.0
 10
5.2692528066
 20
3.4277287558
 30
0.0
 10
5.265879048
 20
3.4284794641
 30
0.0
 10
5.2621224526
 20
3.4292172913
 30
0.0
 10
5.2579902135
 20
3.4299404473
 30
0.0
 10
5.2534904156
 20
3.4306472309
 30
0.0
 10
5.2486319612
 20
3.4313363205
 30
0.0
 10
5.2414702762
 20
3.4322573971
 30
0.0
 10
5.235919833
 20
3.4328726691
 30
0.0
 10
5.2321069427
 20
3.4332626708
 30
0.0
  0
LINE
  5
359
100
AcDbEntity
  8
ALL_ASSEMBLY_MEMBERS
100
AcDbLine
 62
7
  6
CONTINUOUS
 10
5.2196378673
 20
3.4344301099
 11
5.2191523771
 21
3.4344716045
  0
LINE
  5
35A
100
AcDbEntity
  8
ALL_ASSEMBLY_MEMBERS
100
AcDbLine
 62
7
  6
CONTINUOUS
 10
5.2191523771
 20
3.4344716045
 11
5.218572847
 21
3.4345207842
  0
SPLINE
  5
35B
100
AcDbEntity
  8
ALL_ASSEMBLY_MEMBERS
100
AcDbSpline
 62
7
  6
CONTINUOUS
 70
0
 71
3
 72
15
 73
11
 74
0
 42
0.0000001
 43
0.0000001
 44
0.0000000001
 40
0.0
 40
0.0
 40
0.0
 40
0.0
 40
0.1039403328
 40
0.2160910445
 40
0.3354298917
 40
0.4608687446
 40
0.5912577488
 40
0.7253932654
 40
0.862081526
 40
1.0
 40
1.0
 40
1.0
 40
1.0
 10
5.218572847
 20
3.4345207842
 30
0.0
 10
5.2135567918
 20
3.434944806
 30
0.0
 10
5.2031210071
 20
3.4357393476
 30
0.0
 10
5.186907059
 20
3.4367534408
 30
0.0
 10
5.1696424216
 20
3.4376286273
 30
0.0
 10
5.1514869598
 20
3.4383564358
 30
0.0
 10
5.1326090325
 20
3.438929819
 30
0.0
 10
5.113181999
 20
3.4393433904
 30
0.0
 10
5.093387505
 20
3.4395930042
 30
0.0
 10
5.0800879292
 20
3.4396486359
 30
0.0
 10
5.0734083851
 20
3.4396486359
 30
0.0
  0
SPLINE
  5
35C
100
AcDbEntity
  8
ALL_ASSEMBLY_MEMBERS
100
AcDbSpline
 62
7
  6
CONTINUOUS
 70
0
 71
3
 72
37
 73
33
 74
0
 42
0.0000001
 43
0.0000001
 44
0.0000000001
 40
0.0
 40
0.0
 40
0.0
 40
0.0
 40
0.0021243258
 40
0.0043558587
 40
0.0068381305
 40
0.009676222
 40
0.0129404568
 40
0.0166766723
 40
0.0209147848
 40
0.0256735658
 40
0.0309649012
 40
0.03679647
 40
0.0431731358
 40
0.0500978227
 40
0.0655926833
 40
0.0832707162
 40
0.1031084155
 40
0.1250729502
 40
0.1491181842
 40
0.1751939905
 40
0.2032441843
 40
0.2332028343
 40
0.2650020757
 40
0.29856853
 40
0.3706776278
 40
0.4488480808
 40
0.5323320557
 40
0.6203292235
 40
0.7119908097
 40
0.8064284007
 40
0.9027595989
 40
1.0
 40
1.0
 40
1.0
 40
1.0
 10
4.8994148633
 20
3.0726248945
 30
0.0
 10
4.899402553
 20
3.0727491457
 30
0.0
 10
4.8994141233
 20
3.0730090532
 30
0.0
 10
4.8995445171
 20
3.0733938141
 30
0.0
 10
4.899782249
 20
3.0737723866
 30
0.0
 10
4.9001239954
 20
3.0741462941
 30
0.0
 10
4.9005690769
 20
3.0745175292
 30
0.0
 10
4.9011176894
 20
3.0748870077
 30
0.0
 10
4.9017700537
 20
3.0752550134
 30
0.0
 10
4.9025260992
 20
3.0756215988
 30
0.0
 10
4.9033855685
 20
3.0759866309
 30
0.0
 10
4.9043480915
 20
3.0763498904
 30
0.0
 10
4.9054132291
 20
3.0767111691
 30
0.0
 10
4.9070311822
 20
3.077208681
 30
0.0
 10
4.9093091172
 20
3.0778163364
 30
0.0
 10
4.912347085
 20
3.078510292
 30
0.0
 10
4.9157765208
 20
3.0791913812
 30
0.0
 10
4.9195892746
 20
3.0798576482
 30
0.0
 10
4.9237762772
 20
3.0805074416
 30
0.0
 10
4.9283274436
 20
3.0811389348
 30
0.0
 10
4.9332317753
 20
3.0817504081
 30
0.0
 10
4.9384773753
 20
3.0823404451
 30
0.0
 10
4.9440514991
 20
3.0829074637
 30
0.0
 10
4.9520977697
 20
3.083648614
 30
0.0
 10
4.9628705107
 20
3.084498951
 30
0.0
 10
4.9765819799
 20
3.0853851929
 30
0.0
 10
4.9912358764
 20
3.0861508083
 30
0.0
 10
5.0066895251
 20
3.0867880819
 30
0.0
 10
5.0227922531
 20
3.0872905009
 30
0.0
 10
5.0393886811
 20
3.0876530657
 30
0.0
 10
5.0563155288
 20
3.0878719566
 30
0.0
 10
5.0676929736
 20
3.0879207559
 30
0.0
 10
5.0734083851
 20
3.0879207559
 30
0.0
  0
SPLINE
  5
35D
100
AcDbEntity
  8
ALL_ASSEMBLY_MEMBERS
100
AcDbSpline
 62
7
  6
CONTINUOUS
 70
0
 71
3
 72
28
 73
24
 74
0
 42
0.0000001
 43
0.0000001
 44
0.0000000001
 40
0.0
 40
0.0
 40
0.0
 40
0.0
 40
0.0077438979
 40
0.0157905641
 40
0.0245837199
 40
0.034466951
 40
0.0456818058
 40
0.0583905168
 40
0.0727020967
 40
0.0886906014
 40
0.1064070877
 40
0.1258871599
 40
0.1471534992
 40
0.1702184598
 40
0.2217640241
 40
0.280541261
 40
0.3465142949
 40
0.4195966942
 40
0.4996834145
 40
0.5866508263
 40
0.680341159
 40
0.780586832
 40
1.0
 40
1.0
 40
1.0
 40
1.0
 10
4.86491632
 20
3.4213199745
 30
0.0
 10
4.8649030117
 20
3.4214545913
 30
0.0
 10
4.8649114033
 20
3.4217339345
 30
0.0
 10
4.8650337732
 20
3.4221496947
 30
0.0
 10
4.8652619981
 20
3.4225604557
 30
0.0
 10
4.8655932035
 20
3.4229667861
 30
0.0
 10
4.8660263144
 20
3.4233703005
 30
0.0
 10
4.866561145
 20
3.4237719626
 30
0.0
 10
4.8671977549
 20
3.4241721879
 30
0.0
 10
4.8679361658
 20
3.4245710582
 30
0.0
 10
4.8687763162
 20
3.4249684965
 30
0.0
 10
4.8697180354
 20
3.4253643111
 30
0.0
 10
4.8707609732
 20
3.4257583422
 30
0.0
 10
4.8723455274
 20
3.4263013932
 30
0.0
 10
4.8745796037
 20
3.4269666033
 30
0.0
 10
4.8775639636
 20
3.4277287558
 30
0.0
 10
4.8809377222
 20
3.4284794641
 30
0.0
 10
4.8846943176
 20
3.4292172913
 30
0.0
 10
4.8888265567
 20
3.4299404473
 30
0.0
 10
4.8933263546
 20
3.4306472309
 30
0.0
 10
4.898184809
 20
3.4313363205
 30
0.0
 10
4.905346494
 20
3.4322573971
 30
0.0
 10
4.9108969371
 20
3.4328726691
 30
0.0
 10
4.9147098275
 20
3.4332626708
 30
0.0
  0
LINE
  5
35E
100
AcDbEntity
  8
ALL_ASSEMBLY_MEMBERS
100
AcDbLine
 62
7
  6
CONTINUOUS
 10
4.9198602518
 20
3.4337700163
 11
4.9210290865
 21
3.4338800004
  0
LINE
  5
35F
100
AcDbEntity
  8
ALL_ASSEMBLY_MEMBERS
100
AcDbLine
 62
7
  6
CONTINUOUS
 10
4.9267070443
 20
3.4343895199
 11
4.9276643931
 21
3.4344716045
  0
LINE
  5
360
100
AcDbEntity
  8
ALL_ASSEMBLY_MEMBERS
100
AcDbLine
 62
7
  6
CONTINUOUS
 10
4.9276643931
 20
3.4344716045
 11
4.9291625256
 21
3.4345979626
  0
SPLINE
  5
361
100
AcDbEntity
  8
ALL_ASSEMBLY_MEMBERS
100
AcDbSpline
 62
7
  6
CONTINUOUS
 70
0
 71
3
 72
15
 73
11
 74
0
 42
0.0000001
 43
0.0000001
 44
0.0000000001
 40
0.0
 40
0.0
 40
0.0
 40
0.0
 40
0.1042890147
 40
0.2166558038
 40
0.3360924334
 40
0.4615268228
 40
0.591826795
 40
0.7258091037
 40
0.8623008902
 40
1.0
 40
1.0
 40
1.0
 40
1.0
 10
4.9291625256
 20
3.4345979626
 30
0.0
 10
4.9341639056
 20
3.4350156008
 30
0.0
 10
4.9445612392
 20
3.4357982591
 30
0.0
 10
4.9607047721
 20
3.4367975748
 30
0.0
 10
4.9778751513
 20
3.4376597059
 30
0.0
 10
4.9959158818
 20
3.4383764637
 30
0.0
 10
5.0146623109
 20
3.4389410278
 30
0.0
 10
5.0339450475
 20
3.4393481684
 30
0.0
 10
5.053586593
 20
3.4395938746
 30
0.0
 10
5.0667817762
 20
3.4396486359
 30
0.0
 10
5.0734083851
 20
3.4396486359
 30
0.0
  0
SPLINE
  5
362
100
AcDbEntity
  8
ALL_ASSEMBLY_MEMBERS
100
AcDbSpline
 62
7
  6
CONTINUOUS
 70
0
 71
3
 72
65
 73
61
 74
0
 42
0.0000001
 43
0.0000001
 44
0.0000000001
 40
0.0
 40
0.0
 40
0.0
 40
0.0
 40
0.049189523
 40
0.0979561248
 40
0.1458252727
 40
0.1923808897
 40
0.2372055599
 40
0.2798928543
 40
0.3200608189
 40
0.3573520239
 40
0.3914340205
 40
0.4071774626
 40
0.4220085427
 40
0.4358967763
 40
0.4488127059
 40
0.460728793
 40
0.4716230546
 40
0.481475732
 40
0.4902697651
 40
0.4979958268
 40
0.501457432
 40
0.5046514649
 40
0.5075788804
 40
0.5102420333
 40
0.5126450244
 40
0.5147938839
 40
0.516697532
 40
0.5183693607
 40
0.5198297797
 40
0.5211102443
 40
0.5222578805
 40
0.5233374184
 40
0.5244258058
 40
0.5255982497
 40
0.5269156399
 40
0.5284212723
 40
0.530143687
 40
0.5321014304
 40
0.5343067092
 40
0.5367676834
 40
0.5394898845
 40
0.54247704
 40
0.5457311113
 40
0.5492528645
 40
0.5570991122
 40
0.5660126428
 40
0.5759832173
 40
0.5869932318
 40
0.5990227713
 40
0.6120493337
 40
0.6260449183
 40
0.6568233738
 40
0.6910936787
 40
0.7285555219
 40
0.7688746863
 40
0.8116922366
 40
0.8566251379
 40
0.9032655189
 40
0.9511961622
 40
1.0
 40
1.0
 40
1.0
 40
1.0
 10
5.0734083851
 20
3.045008415
 30
0.0
 10
5.0683762179
 20
3.045008415
 30
0.0
 10
5.0583550989
 20
3.0450499679
 30
0.0
 10
5.0434379337
 20
3.0452362616
 30
0.0
 10
5.0287922911
 20
3.045545018
 30
0.0
 10
5.0145530853
 20
3.0459732274
 30
0.0
 10
5.0008483028
 20
3.0465167665
 30
0.0
 10
4.9878025589
 20
3.0471706658
 30
0.0
 10
4.9755344567
 20
3.0479286706
 30
0.0
 10
4.9641553169
 20
3.0487834696
 30
0.0
 10
4.9552791511
 20
3.0495893811
 30
0.0
 10
4.9487011339
 20
3.0502838083
 30
0.0
 10
4.9441829615
 20
3.0508100136
 30
0.0
 10
4.9399583765
 20
3.0513540465
 30
0.0
 10
4.9360369513
 20
3.0519146293
 30
0.0
 10
4.9324275628
 20
3.0524905344
 30
0.0
 10
4.9291382831
 20
3.053080206
 30
0.0
 10
4.9261763792
 20
3.053682054
 30
0.0
 10
4.9235484848
 20
3.0542947828
 30
0.0
 10
4.9215750843
 20
3.0548306131
 30
0.0
 10
4.9201703952
 20
3.0552687387
 30
0.0
 10
4.9192429911
 20
3.0555870672
 30
0.0
 10
4.9184030149
 20
3.0559070956
 30
0.0
 10
4.9176508559
 20
3.0562286627
 30
0.0
 10
4.9169867346
 20
3.0565515629
 30
0.0
 10
4.9164107656
 20
3.0568756704
 30
0.0
 10
4.9159229718
 20
3.0572009658
 30
0.0
 10
4.9155232865
 20
3.0575276614
 30
0.0
 10
4.9152116804
 20
3.0578564622
 30
0.0
 10
4.9149886664
 20
3.0581887588
 30
0.0
 10
4.9148562969
 20
3.0585260515
 30
0.0
 10
4.9148186967
 20
3.0588675375
 30
0.0
 10
4.9148779323
 20
3.0592083902
 30
0.0
 10
4.9150309717
 20
3.0595444879
 30
0.0
 10
4.9152739789
 20
3.0598758555
 30
0.0
 10
4.915605383
 20
3.0602040828
 30
0.0
 10
4.9160248463
 20
3.060530427
 30
0.0
 10
4.9165324402
 20
3.0608554475
 30
0.0
 10
4.9171282119
 20
3.0611792912
 30
0.0
 10
4.9178121181
 20
3.0615019049
 30
0.0
 10
4.9185840233
 20
3.0618231477
 30
0.0
 10
4.9194436751
 20
3.0621428024
 30
0.0
 10
4.9203906466
 20
3.0624607248
 30
0.0
 10
4.9218213407
 20
3.0628979505
 30
0.0
 10
4.9238267555
 20
3.063432729
 30
0.0
 10
4.9264924446
 20
3.0640443227
 30
0.0
 10
4.9294914531
 20
3.0646448717
 30
0.0
 10
4.9328170543
 20
3.0652330792
 30
0.0
 10
4.9364618993
 20
3.0658073317
 30
0.0
 10
4.9404178223
 20
3.0663661358
 30
0.0
 10
4.9462837364
 20
3.0671128119
 30
0.0
 10
4.9543234521
 20
3.067986567
 30
0.0
 10
4.9647688093
 20
3.0689252506
 30
0.0
 10
4.9762007175
 20
3.0697747325
 30
0.0
 10
4.9885154869
 20
3.0705270974
 30
0.0
 10
5.0016014484
 20
3.0711749597
 30
0.0
 10
5.0153395726
 20
3.0717121379
 30
0.0
 10
5.0296050238
 20
3.0721337414
 30
0.0
 10
5.0442695725
 20
3.0724356925
 30
0.0
 10
5.05416509
 20
3.0725545954
 30
0.0
 10
5.0591576466
 20
3.0725938501
 30
0.0
  0
SPLINE
  5
363
100
AcDbEntity
  8
ALL_ASSEMBLY_MEMBERS
100
AcDbSpline
 62
7
  6
CONTINUOUS
 70
0
 71
3
 72
35
 73
31
 74
0
 42
0.0000001
 43
0.0000001
 44
0.0000000001
 40
0.0
 40
0.0
 40
0.0
 40
0.0
 40
0.0021331251
 40
0.004425125
 40
0.0070049484
 40
0.009963467
 40
0.013360708
 40
0.0172358466
 40
0.0216147224
 40
0.0265136781
 40
0.0319427117
 40
0.0379081474
 40
0.0514606554
 40
0.0671853496
 40
0.0850701995
 40
0.1050875829
 40
0.1272043434
 40
0.1513774177
 40
0.177552878
 40
0.2056746522
 40
0.2356814633
 40
0.3010624307
 40
0.3730938103
 40
0.4510953751
 40
0.5343321594
 40
0.6220159852
 40
0.7133026925
 40
0.8073275915
 40
0.9032246861
 40
1.0
 40
1.0
 40
1.0
 40
1.0
 10
5.2134083851
 20
3.0588291138
 30
0.0
 10
5.2134083851
 20
3.0587283107
 30
0.0
 10
5.2133775737
 20
3.0585182209
 30
0.0
 10
5.213243495
 20
3.0582122434
 30
0.0
 10
5.2130252166
 20
3.0579107737
 30
0.0
 10
5.2127244883
 20
3.0576124176
 30
0.0
 10
5.2123415145
 20
3.0573158494
 30
0.0
 10
5.2118760897
 20
3.0570205464
 30
0.0
 10
5.2113280596
 20
3.0567263905
 30
0.0
 10
5.2106975059
 20
3.056433416
 30
0.0
 10
5.209984698
 20
3.0561417016
 30
0.0
 10
5.208877082
 20
3.0557373221
 30
0.0
 10
5.2072854949
 20
3.055243686
 30
0.0
 10
5.2051285247
 20
3.0546808725
 30
0.0
 10
5.2026551785
 20
3.0541269379
 30
0.0
 10
5.1998712323
 20
3.0535832675
 30
0.0
 10
5.1967830351
 20
3.0530515809
 30
0.0
 10
5.1933978951
 20
3.0525333038
 30
0.0
 10
5.1897239296
 20
3.0520296697
 30
0.0
 10
5.1857699044
 20
3.0515420315
 30
0.0
 10
5.1799690442
 20
3.0508963721
 30
0.0
 10
5.1720925319
 20
3.0501468901
 30
0.0
 10
5.1619436435
 20
3.0493520213
 30
0.0
 10
5.1509425481
 20
3.0486460936
 30
0.0
 10
5.1391950343
 20
3.0480363257
 30
0.0
 10
5.1268143261
 20
3.0475289938
 30
0.0
 10
5.1139196545
 20
3.0471289634
 30
0.0
 10
5.1006337997
 20
3.0468403609
 30
0.0
 10
5.0870865818
 20
3.0466661791
 30
0.0
 10
5.0779816016
 20
3.0466273098
 30
0.0
 10
5.0734083851
 20
3.0466273098
 30
0.0
  0
SPLINE
  5
364
100
AcDbEntity
  8
ALL_ASSEMBLY_MEMBERS
100
AcDbSpline
 62
7
  6
CONTINUOUS
 70
0
 71
3
 72
78
 73
74
 74
0
 42
0.0000001
 43
0.0000001
 44
0.0000000001
 40
0.0
 40
0.0
 40
0.0
 40
0.0
 40
0.0625018575
 40
0.1250037178
 40
0.1875055742
 40
0.2500074343
 40
0.3125092966
 40
0.3750111565
 40
0.4062626312
 40
0.4375141064
 40
0.4687655812
 40
0.5000170558
 40
0.5312685307
 40
0.5625200056
 40
0.5937714806
 40
0.609397286
 40
0.6250230912
 40
0.6406488967
 40
0.6562747029
 40
0.6719005082
 40
0.6797134184
 40
0.6875263291
 40
0.6953392414
 40
0.703152155
 40
0.7109650609
 40
0.7148715147
 40
0.7187779755
 40
0.7226844425
 40
0.7265908779
 40
0.7285440916
 40
0.730497334
 40
0.7324506235
 40
0.7344039029
 40
0.7363570795
 40
0.7373336081
 40
0.7383101428
 40
0.7392867927
 40
0.7402636928
 40
0.7412406266
 40
0.7422170983
 40
0.7427051953
 40
0.7431933463
 40
0.7441700191
 40
0.7451467705
 40
0.7461233754
 40
0.7470999675
 40
0.7480765761
 40
0.750029798
 40
0.751983008
 40
0.7539362239
 40
0.7558894545
 40
0.7578426966
 40
0.7617491275
 40
0.7656555182
 40
0.7695619097
 40
0.7734683202
 40
0.7812808301
 40
0.7890933215
 40
0.7969058145
 40
0.8047183165
 40
0.8125308155
 40
0.828153323
 40
0.8437758303
 40
0.8593983681
 40
0.875020785
 40
0.8906432315
 40
0.9062658295
 40
0.9218885039
 40
0.9375107977
 40
0.953132934
 40
0.9687553638
 40
0.9843777503
 40
1.0
 40
1.0
 40
1.0
 40
1.0
 10
7.4856623221
 20
3.5367027652
 30
0.0
 10
7.5102323747
 20
3.5378273656
 30
0.0
 10
7.5594010235
 20
3.5394962119
 30
0.0
 10
7.6331909428
 20
3.5402577392
 30
0.0
 10
7.706978695
 20
3.5392772587
 30
0.0
 10
7.7807226583
 20
3.5365544738
 30
0.0
 10
7.8543815958
 20
3.5320913659
 30
0.0
 10
7.9156599942
 20
3.5269238867
 30
0.0
 10
7.9645980357
 20
3.5219227646
 30
0.0
 10
8.001255246
 20
3.5177388309
 30
0.0
 10
8.0378604549
 20
3.513122427
 30
0.0
 10
8.0744086183
 20
3.5080741453
 30
0.0
 10
8.1108946425
 20
3.5025947592
 30
0.0
 10
8.1473134125
 20
3.4966850249
 30
0.0
 10
8.1776022345
 20
3.4914022496
 30
0.0
 10
8.2017944529
 20
3.486961721
 30
0.0
 10
8.2199187042
 20
3.483524262
 30
0.0
 10
8.238022344
 20
3.4799798815
 30
0.0
 10
8.2561047472
 20
3.4763287108
 30
0.0
 10
8.2711552049
 20
3.473197163
 30
0.0
 10
8.2831842937
 20
3.4706386117
 30
0.0
 10
8.2922004177
 20
3.4686930867
 30
0.0
 10
8.3012107667
 20
3.4667209867
 30
0.0
 10
8.3102152809
 20
3.4647224226
 30
0.0
 10
8.3177140328
 20
3.4630345384
 30
0.0
 10
8.3237100205
 20
3.4616709435
 30
0.0
 10
8.3282055379
 20
3.4606417615
 30
0.0
 10
8.3326996673
 20
3.4596065653
 30
0.0
 10
8.3364432077
 20
3.458737157
 30
0.0
 10
8.339437182
 20
3.4580379555
 30
0.0
 10
8.3416825217
 20
3.4575128183
 30
0.0
 10
8.3439280132
 20
3.4569882168
 30
0.0
 10
8.3461730584
 20
3.4564618211
 30
0.0
 10
8.3480428838
 20
3.4560189381
 30
0.0
 10
8.3495375273
 20
3.4556597917
 30
0.0
 10
8.3506583732
 20
3.4553898175
 30
0.0
 10
8.3517802327
 20
3.4551234037
 30
0.0
 10
8.3529045813
 20
3.4548669882
 30
0.0
 10
8.3540294967
 20
3.454613466
 30
0.0
 10
8.3549634836
 20
3.4543876974
 30
0.0
 10
8.3557059929
 20
3.4541896089
 30
0.0
 10
8.3564446495
 20
3.4539773269
 30
0.0
 10
8.357362878
 20
3.4536943768
 30
0.0
 10
8.3584660684
 20
3.4533589987
 30
0.0
 10
8.3595740479
 20
3.4530398633
 30
0.0
 10
8.3606834935
 20
3.4527261899
 30
0.0
 10
8.3621638096
 20
3.4523116595
 30
0.0
 10
8.3640168475
 20
3.4518029436
 30
0.0
 10
8.3662459253
 20
3.4512125904
 30
0.0
 10
8.3684805771
 20
3.4506436919
 30
0.0
 10
8.3707203884
 20
3.4500954076
 30
0.0
 10
8.3737132976
 20
3.4493914951
 30
0.0
 10
8.3774658574
 20
3.448560986
 30
0.0
 10
8.3819857438
 20
3.4476438973
 30
0.0
 10
8.3865213536
 20
3.4468079247
 30
0.0
 10
8.3925876504
 20
3.445801887
 30
0.0
 10
8.4002028114
 20
3.444747614
 30
0.0
 10
8.4093800224
 20
3.4438092659
 30
0.0
 10
8.4185849211
 20
3.4431993094
 30
0.0
 10
8.4278058349
 20
3.4429183723
 30
0.0
 10
8.4401043441
 20
3.4429830042
 30
0.0
 10
8.455461959
 20
3.4438870783
 30
0.0
 10
8.4737642791
 20
3.4462845368
 30
0.0
 10
8.4918492367
 20
3.4499820888
 30
0.0
 10
8.5096244187
 20
3.4549596965
 30
0.0
 10
8.5269985282
 20
3.4611946944
 30
0.0
 10
8.5438843401
 20
3.4686516976
 30
0.0
 10
8.5601946852
 20
3.4772951256
 30
0.0
 10
8.5758463346
 20
3.4870808227
 30
0.0
 10
8.5907560758
 20
3.4979631677
 30
0.0
 10
8.6048539657
 20
3.5098786401
 30
0.0
 10
8.6180691645
 20
3.5227648736
 30
0.0
 10
8.6262459943
 20
3.5319639537
 30
0.0
 10
8.6301623221
 20
3.5367027652
 30
0.0
  0
SPLINE
  5
365
100
AcDbEntity
  8
ALL_ASSEMBLY_MEMBERS
100
AcDbSpline
 62
7
  6
CONTINUOUS
 70
0
 71
3
 72
78
 73
74
 74
0
 42
0.0000001
 43
0.0000001
 44
0.0000000001
 40
0.0
 40
0.0
 40
0.0
 40
0.0
 40
0.0625018575
 40
0.1250037178
 40
0.1875055742
 40
0.2500074343
 40
0.3125092966
 40
0.3750111565
 40
0.4062626312
 40
0.4375141064
 40
0.4687655812
 40
0.5000170558
 40
0.5312685307
 40
0.5625200056
 40
0.5937714806
 40
0.609397286
 40
0.6250230912
 40
0.6406488967
 40
0.6562747029
 40
0.6719005082
 40
0.6797134184
 40
0.6875263291
 40
0.6953392414
 40
0.703152155
 40
0.7109650609
 40
0.7148715147
 40
0.7187779755
 40
0.7226844425
 40
0.7265908779
 40
0.7285440916
 40
0.730497334
 40
0.7324506235
 40
0.7344039029
 40
0.7363570795
 40
0.7373336081
 40
0.7383101428
 40
0.7392867927
 40
0.7402636928
 40
0.7412406266
 40
0.7422170983
 40
0.7427051953
 40
0.7431933463
 40
0.7441700191
 40
0.7451467705
 40
0.7461233754
 40
0.7470999675
 40
0.7480765761
 40
0.750029798
 40
0.751983008
 40
0.7539362239
 40
0.7558894545
 40
0.7578426966
 40
0.7617491275
 40
0.7656555182
 40
0.7695619097
 40
0.7734683202
 40
0.7812808301
 40
0.7890933215
 40
0.7969058145
 40
0.8047183165
 40
0.8125308155
 40
0.828153323
 40
0.8437758303
 40
0.8593983681
 40
0.875020785
 40
0.8906432315
 40
0.9062658295
 40
0.9218885039
 40
0.9375107977
 40
0.953132934
 40
0.9687553638
 40
0.9843777503
 40
1.0
 40
1.0
 40
1.0
 40
1.0
 10
7.4856623221
 20
3.8182027652
 30
0.0
 10
7.5102323747
 20
3.8170781648
 30
0.0
 10
7.5594010235
 20
3.8154093184
 30
0.0
 10
7.6331909428
 20
3.8146477911
 30
0.0
 10
7.706978695
 20
3.8156282716
 30
0.0
 10
7.7807226583
 20
3.8183510566
 30
0.0
 10
7.8543815958
 20
3.8228141644
 30
0.0
 10
7.9156599942
 20
3.8279816436
 30
0.0
 10
7.9645980357
 20
3.8329827657
 30
0.0
 10
8.001255246
 20
3.8371666994
 30
0.0
 10
8.0378604549
 20
3.8417831033
 30
0.0
 10
8.0744086183
 20
3.846831385
 30
0.0
 10
8.1108946425
 20
3.8523107711
 30
0.0
 10
8.1473134125
 20
3.8582205054
 30
0.0
 10
8.1776022345
 20
3.8635032807
 30
0.0
 10
8.2017944529
 20
3.8679438093
 30
0.0
 10
8.2199187042
 20
3.8713812683
 30
0.0
 10
8.238022344
 20
3.8749256488
 30
0.0
 10
8.2561047472
 20
3.8785768195
 30
0.0
 10
8.2711552049
 20
3.8817083673
 30
0.0
 10
8.2831842937
 20
3.8842669186
 30
0.0
 10
8.2922004177
 20
3.8862124436
 30
0.0
 10
8.3012107667
 20
3.8881845436
 30
0.0
 10
8.3102152809
 20
3.8901831077
 30
0.0
 10
8.3177140328
 20
3.8918709919
 30
0.0
 10
8.3237100205
 20
3.8932345868
 30
0.0
 10
8.3282055379
 20
3.8942637688
 30
0.0
 10
8.3326996673
 20
3.895298965
 30
0.0
 10
8.3364432077
 20
3.8961683733
 30
0.0
 10
8.339437182
 20
3.8968675749
 30
0.0
 10
8.3416825217
 20
3.897392712
 30
0.0
 10
8.3439280132
 20
3.8979173135
 30
0.0
 10
8.3461730584
 20
3.8984437092
 30
0.0
 10
8.3480428838
 20
3.8988865922
 30
0.0
 10
8.3495375273
 20
3.8992457386
 30
0.0
 10
8.3506583732
 20
3.8995157128
 30
0.0
 10
8.3517802327
 20
3.8997821266
 30
0.0
 10
8.3529045813
 20
3.9000385421
 30
0.0
 10
8.3540294967
 20
3.9002920643
 30
0.0
 10
8.3549634836
 20
3.9005178329
 30
0.0
 10
8.3557059929
 20
3.9007159214
 30
0.0
 10
8.3564446495
 20
3.9009282034
 30
0.0
 10
8.357362878
 20
3.9012111535
 30
0.0
 10
8.3584660684
 20
3.9015465316
 30
0.0
 10
8.3595740479
 20
3.901865667
 30
0.0
 10
8.3606834935
 20
3.9021793404
 30
0.0
 10
8.3621638096
 20
3.9025938708
 30
0.0
 10
8.3640168475
 20
3.9031025867
 30
0.0
 10
8.3662459253
 20
3.9036929399
 30
0.0
 10
8.3684805771
 20
3.9042618384
 30
0.0
 10
8.3707203884
 20
3.9048101227
 30
0.0
 10
8.3737132976
 20
3.9055140352
 30
0.0
 10
8.3774658574
 20
3.9063445443
 30
0.0
 10
8.3819857438
 20
3.9072616331
 30
0.0
 10
8.3865213536
 20
3.9080976057
 30
0.0
 10
8.3925876504
 20
3.9091036433
 30
0.0
 10
8.4002028114
 20
3.9101579163
 30
0.0
 10
8.4093800224
 20
3.9110962644
 30
0.0
 10
8.4185849211
 20
3.9117062209
 30
0.0
 10
8.4278058349
 20
3.9119871581
 30
0.0
 10
8.4401043441
 20
3.9119225261
 30
0.0
 10
8.455461959
 20
3.911018452
 30
0.0
 10
8.4737642791
 20
3.9086209936
 30
0.0
 10
8.4918492367
 20
3.9049234415
 30
0.0
 10
8.5096244187
 20
3.8999458338
 30
0.0
 10
8.5269985282
 20
3.8937108359
 30
0.0
 10
8.5438843401
 20
3.8862538328
 30
0.0
 10
8.5601946852
 20
3.8776104047
 30
0.0
 10
8.5758463346
 20
3.8678247076
 30
0.0
 10
8.5907560758
 20
3.8569423626
 30
0.0
 10
8.6048539657
 20
3.8450268902
 30
0.0
 10
8.6180691645
 20
3.8321406567
 30
0.0
 10
8.6262459943
 20
3.8229415766
 30
0.0
 10
8.6301623221
 20
3.8182027652
 30
0.0
  0
SPLINE
  5
366
100
AcDbEntity
  8
ALL_ASSEMBLY_MEMBERS
100
AcDbSpline
 62
7
  6
CONTINUOUS
 70
0
 71
3
 72
78
 73
74
 74
0
 42
0.0000001
 43
0.0000001
 44
0.0000000001
 40
0.0
 40
0.0
 40
0.0
 40
0.0
 40
0.0625018575
 40
0.1250037178
 40
0.1875055742
 40
0.2500074343
 40
0.3125092966
 40
0.3750111565
 40
0.4062626312
 40
0.4375141064
 40
0.4687655812
 40
0.5000170558
 40
0.5312685307
 40
0.5625200056
 40
0.5937714806
 40
0.609397286
 40
0.6250230912
 40
0.6406488967
 40
0.6562747029
 40
0.6719005082
 40
0.6797134184
 40
0.6875263291
 40
0.6953392414
 40
0.703152155
 40
0.7109650609
 40
0.7148715147
 40
0.7187779755
 40
0.7226844425
 40
0.7265908779
 40
0.7285440916
 40
0.730497334
 40
0.7324506235
 40
0.7344039029
 40
0.7363570795
 40
0.7373336081
 40
0.7383101428
 40
0.7392867927
 40
0.7402636928
 40
0.7412406266
 40
0.7422170983
 40
0.7427051953
 40
0.7431933463
 40
0.7441700191
 40
0.7451467705
 40
0.7461233754
 40
0.7470999675
 40
0.7480765761
 40
0.750029798
 40
0.751983008
 40
0.7539362239
 40
0.7558894545
 40
0.7578426966
 40
0.7617491275
 40
0.7656555182
 40
0.7695619097
 40
0.7734683202
 40
0.7812808301
 40
0.7890933215
 40
0.7969058145
 40
0.8047183165
 40
0.8125308155
 40
0.828153323
 40
0.8437758303
 40
0.8593983681
 40
0.875020785
 40
0.8906432315
 40
0.9062658295
 40
0.9218885039
 40
0.9375107977
 40
0.953132934
 40
0.9687553638
 40
0.9843777503
 40
1.0
 40
1.0
 40
1.0
 40
1.0
 10
2.6611544481
 20
3.8182027652
 30
0.0
 10
2.6365843955
 20
3.8170781648
 30
0.0
 10
2.5874157467
 20
3.8154093184
 30
0.0
 10
2.5136258274
 20
3.8146477911
 30
0.0
 10
2.4398380752
 20
3.8156282716
 30
0.0
 10
2.3660941119
 20
3.8183510566
 30
0.0
 10
2.2924351744
 20
3.8228141644
 30
0.0
 10
2.2311567759
 20
3.8279816436
 30
0.0
 10
2.1822187345
 20
3.8329827657
 30
0.0
 10
2.1455615241
 20
3.8371666994
 30
0.0
 10
2.1089563153
 20
3.8417831033
 30
0.0
 10
2.0724081519
 20
3.846831385
 30
0.0
 10
2.0359221277
 20
3.8523107711
 30
0.0
 10
1.9995033577
 20
3.8582205054
 30
0.0
 10
1.9692145357
 20
3.8635032807
 30
0.0
 10
1.9450223173
 20
3.8679438093
 30
0.0
 10
1.926898066
 20
3.8713812683
 30
0.0
 10
1.9087944261
 20
3.8749256488
 30
0.0
 10
1.8907120229
 20
3.8785768195
 30
0.0
 10
1.8756615653
 20
3.8817083673
 30
0.0
 10
1.8636324765
 20
3.8842669186
 30
0.0
 10
1.8546163525
 20
3.8862124436
 30
0.0
 10
1.8456060035
 20
3.8881845436
 30
0.0
 10
1.8366014893
 20
3.8901831077
 30
0.0
 10
1.8291027374
 20
3.8918709919
 30
0.0
 10
1.8231067497
 20
3.8932345868
 30
0.0
 10
1.8186112322
 20
3.8942637688
 30
0.0
 10
1.8141171029
 20
3.895298965
 30
0.0
 10
1.8103735624
 20
3.8961683733
 30
0.0
 10
1.8073795882
 20
3.8968675749
 30
0.0
 10
1.8051342485
 20
3.897392712
 30
0.0
 10
1.802888757
 20
3.8979173135
 30
0.0
 10
1.8006437118
 20
3.8984437092
 30
0.0
 10
1.7987738864
 20
3.8988865922
 30
0.0
 10
1.7972792428
 20
3.8992457386
 30
0.0
 10
1.796158397
 20
3.8995157128
 30
0.0
 10
1.7950365375
 20
3.8997821266
 30
0.0
 10
1.7939121889
 20
3.9000385421
 30
0.0
 10
1.7927872735
 20
3.9002920643
 30
0.0
 10
1.7918532866
 20
3.9005178329
 30
0.0
 10
1.7911107773
 20
3.9007159214
 30
0.0
 10
1.7903721207
 20
3.9009282034
 30
0.0
 10
1.7894538922
 20
3.9012111535
 30
0.0
 10
1.7883507018
 20
3.9015465316
 30
0.0
 10
1.7872427223
 20
3.901865667
 30
0.0
 10
1.7861332767
 20
3.9021793404
 30
0.0
 10
1.7846529606
 20
3.9025938708
 30
0.0
 10
1.7827999227
 20
3.9031025867
 30
0.0
 10
1.7805708449
 20
3.9036929399
 30
0.0
 10
1.7783361931
 20
3.9042618384
 30
0.0
 10
1.7760963818
 20
3.9048101227
 30
0.0
 10
1.7731034725
 20
3.9055140352
 30
0.0
 10
1.7693509128
 20
3.9063445443
 30
0.0
 10
1.7648310264
 20
3.9072616331
 30
0.0
 10
1.7602954166
 20
3.9080976057
 30
0.0
 10
1.7542291198
 20
3.9091036433
 30
0.0
 10
1.7466139588
 20
3.9101579163
 30
0.0
 10
1.7374367478
 20
3.9110962644
 30
0.0
 10
1.7282318491
 20
3.9117062209
 30
0.0
 10
1.7190109353
 20
3.9119871581
 30
0.0
 10
1.7067124261
 20
3.9119225261
 30
0.0
 10
1.6913548112
 20
3.911018452
 30
0.0
 10
1.6730524911
 20
3.9086209936
 30
0.0
 10
1.6549675335
 20
3.9049234415
 30
0.0
 10
1.6371923515
 20
3.8999458338
 30
0.0
 10
1.619818242
 20
3.8937108359
 30
0.0
 10
1.6029324301
 20
3.8862538328
 30
0.0
 10
1.586622085
 20
3.8776104047
 30
0.0
 10
1.5709704356
 20
3.8678247076
 30
0.0
 10
1.5560606944
 20
3.8569423626
 30
0.0
 10
1.5419628045
 20
3.8450268902
 30
0.0
 10
1.5287476057
 20
3.8321406567
 30
0.0
 10
1.5205707759
 20
3.8229415766
 30
0.0
 10
1.5166544481
 20
3.8182027652
 30
0.0
  0
SPLINE
  5
367
100
AcDbEntity
  8
ALL_ASSEMBLY_MEMBERS
100
AcDbSpline
 62
7
  6
CONTINUOUS
 70
0
 71
3
 72
78
 73
74
 74
0
 42
0.0000001
 43
0.0000001
 44
0.0000000001
 40
0.0
 40
0.0
 40
0.0
 40
0.0
 40
0.0625018575
 40
0.1250037178
 40
0.1875055742
 40
0.2500074343
 40
0.3125092966
 40
0.3750111565
 40
0.4062626312
 40
0.4375141064
 40
0.4687655812
 40
0.5000170558
 40
0.5312685307
 40
0.5625200056
 40
0.5937714806
 40
0.609397286
 40
0.6250230912
 40
0.6406488967
 40
0.6562747029
 40
0.6719005082
 40
0.6797134184
 40
0.6875263291
 40
0.6953392414
 40
0.703152155
 40
0.7109650609
 40
0.7148715147
 40
0.7187779755
 40
0.7226844425
 40
0.7265908779
 40
0.7285440916
 40
0.730497334
 40
0.7324506235
 40
0.7344039029
 40
0.7363570795
 40
0.7373336081
 40
0.7383101428
 40
0.7392867927
 40
0.7402636928
 40
0.7412406266
 40
0.7422170983
 40
0.7427051953
 40
0.7431933463
 40
0.7441700191
 40
0.7451467705
 40
0.7461233754
 40
0.7470999675
 40
0.7480765761
 40
0.750029798
 40
0.751983008
 40
0.7539362239
 40
0.7558894545
 40
0.7578426966
 40
0.7617491275
 40
0.7656555182
 40
0.7695619097
 40
0.7734683202
 40
0.7812808301
 40
0.7890933215
 40
0.7969058145
 40
0.8047183165
 40
0.8125308155
 40
0.828153323
 40
0.8437758303
 40
0.8593983681
 40
0.875020785
 40
0.8906432315
 40
0.9062658295
 40
0.9218885039
 40
0.9375107977
 40
0.953132934
 40
0.9687553638
 40
0.9843777503
 40
1.0
 40
1.0
 40
1.0
 40
1.0
 10
2.6611544481
 20
3.5367027652
 30
0.0
 10
2.6365843955
 20
3.5378273656
 30
0.0
 10
2.5874157467
 20
3.5394962119
 30
0.0
 10
2.5136258274
 20
3.5402577392
 30
0.0
 10
2.4398380752
 20
3.5392772587
 30
0.0
 10
2.3660941119
 20
3.5365544738
 30
0.0
 10
2.2924351744
 20
3.5320913659
 30
0.0
 10
2.2311567759
 20
3.5269238867
 30
0.0
 10
2.1822187345
 20
3.5219227646
 30
0.0
 10
2.1455615241
 20
3.5177388309
 30
0.0
 10
2.1089563153
 20
3.513122427
 30
0.0
 10
2.0724081519
 20
3.5080741453
 30
0.0
 10
2.0359221277
 20
3.5025947592
 30
0.0
 10
1.9995033577
 20
3.4966850249
 30
0.0
 10
1.9692145357
 20
3.4914022496
 30
0.0
 10
1.9450223173
 20
3.486961721
 30
0.0
 10
1.926898066
 20
3.483524262
 30
0.0
 10
1.9087944261
 20
3.4799798815
 30
0.0
 10
1.8907120229
 20
3.4763287108
 30
0.0
 10
1.8756615653
 20
3.473197163
 30
0.0
 10
1.8636324765
 20
3.4706386117
 30
0.0
 10
1.8546163525
 20
3.4686930867
 30
0.0
 10
1.8456060035
 20
3.4667209867
 30
0.0
 10
1.8366014893
 20
3.4647224226
 30
0.0
 10
1.8291027374
 20
3.4630345384
 30
0.0
 10
1.8231067497
 20
3.4616709435
 30
0.0
 10
1.8186112322
 20
3.4606417615
 30
0.0
 10
1.8141171029
 20
3.4596065653
 30
0.0
 10
1.8103735624
 20
3.458737157
 30
0.0
 10
1.8073795882
 20
3.4580379555
 30
0.0
 10
1.8051342485
 20
3.4575128183
 30
0.0
 10
1.802888757
 20
3.4569882168
 30
0.0
 10
1.8006437118
 20
3.4564618211
 30
0.0
 10
1.7987738864
 20
3.4560189381
 30
0.0
 10
1.7972792428
 20
3.4556597917
 30
0.0
 10
1.796158397
 20
3.4553898175
 30
0.0
 10
1.7950365375
 20
3.4551234037
 30
0.0
 10
1.7939121889
 20
3.4548669882
 30
0.0
 10
1.7927872735
 20
3.454613466
 30
0.0
 10
1.7918532866
 20
3.4543876974
 30
0.0
 10
1.7911107773
 20
3.4541896089
 30
0.0
 10
1.7903721207
 20
3.4539773269
 30
0.0
 10
1.7894538922
 20
3.4536943768
 30
0.0
 10
1.7883507018
 20
3.4533589987
 30
0.0
 10
1.7872427223
 20
3.4530398633
 30
0.0
 10
1.7861332767
 20
3.4527261899
 30
0.0
 10
1.7846529606
 20
3.4523116595
 30
0.0
 10
1.7827999227
 20
3.4518029436
 30
0.0
 10
1.7805708449
 20
3.4512125904
 30
0.0
 10
1.7783361931
 20
3.4506436919
 30
0.0
 10
1.7760963818
 20
3.4500954076
 30
0.0
 10
1.7731034725
 20
3.4493914951
 30
0.0
 10
1.7693509128
 20
3.448560986
 30
0.0
 10
1.7648310264
 20
3.4476438973
 30
0.0
 10
1.7602954166
 20
3.4468079247
 30
0.0
 10
1.7542291198
 20
3.445801887
 30
0.0
 10
1.7466139588
 20
3.444747614
 30
0.0
 10
1.7374367478
 20
3.4438092659
 30
0.0
 10
1.7282318491
 20
3.4431993094
 30
0.0
 10
1.7190109353
 20
3.4429183723
 30
0.0
 10
1.7067124261
 20
3.4429830042
 30
0.0
 10
1.6913548112
 20
3.4438870783
 30
0.0
 10
1.6730524911
 20
3.4462845368
 30
0.0
 10
1.6549675335
 20
3.4499820888
 30
0.0
 10
1.6371923515
 20
3.4549596965
 30
0.0
 10
1.619818242
 20
3.4611946944
 30
0.0
 10
1.6029324301
 20
3.4686516976
 30
0.0
 10
1.586622085
 20
3.4772951256
 30
0.0
 10
1.5709704356
 20
3.4870808227
 30
0.0
 10
1.5560606944
 20
3.4979631677
 30
0.0
 10
1.5419628045
 20
3.5098786401
 30
0.0
 10
1.5287476057
 20
3.5227648736
 30
0.0
 10
1.5205707759
 20
3.5319639537
 30
0.0
 10
1.5166544481
 20
3.5367027652
 30
0.0
  0
ENDSEC
  0
SECTION
  2
OBJECTS
  0
DICTIONARY
  5
C
100
AcDbDictionary
280
0
281
1
  3
ACAD_GROUP
350
D
  3
ACAD_MLINESTYLE
350
17
  3
ACAD_LAYOUT
350
1A
  3
ACAD_PLOTSETTINGS
350
19
  3
ACAD_PLOTSTYLENAME
350
E
  0
DICTIONARY
  5
D
102
{ACAD_REACTORS
330
C
102
}
100
AcDbDictionary
280
0
281
1
  0
ACDBDICTIONARYWDFLT
  5
E
102
{ACAD_REACTORS
330
C
102
}
100
AcDbDictionary
281
1
  3
Normal
350
F
100
AcDbDictionaryWithDefault
340
F
  0
DICTIONARY
  5
17
102
{ACAD_REACTORS
330
C
102
}
100
AcDbDictionary
280
0
281
1
  3
Standard
350
18
  0
DICTIONARY
  5
19
102
{ACAD_REACTORS
330
C
102
}
100
AcDbDictionary
281
1
  0
DICTIONARY
  5
1A
102
{ACAD_REACTORS
330
C
102
}
100
AcDbDictionary
281
1
  3
Model
350
368
  3
Layout1
350
369
  0
ACDBPLACEHOLDER
  5
F
102
{ACAD_REACTORS
330
E
102
}
  0
MLINESTYLE
  5
18
102
{ACAD_REACTORS
330
17
102
}
100
AcDbMlineStyle
  2
STANDARD
 70
0
  3

 62
256
 51
90.0
 52
90.0
 71
2
 49
0.5
 62
256
  6
BYLAYER
 49
-0.5
 62
256
  6
BYLAYER
  0
LAYOUT
  5
368
102
{ACAD_REACTORS
330
1A
102
}
100
AcDbPlotSettings
  1

  2
none_device
  4
ANSI_A_(11.00_x_8.50_Inches)
  6

 40
0.0
 41
0.0
 42
0.0
 43
0.0
 44
279.4
 45
215.9
 46
0.0
 47
0.0
 48
0.0
 49
0.0
140
0.0
141
0.0
142
1.0
143
1.0
 70
1024
 72
0
 73
0
 74
0
  7

 75
0
147
1.0
148
0.0
149
0.0
100
AcDbLayout
  1
Model
 70
0
 71
0
 10
0.0
 20
0.0
 11
11.0
 21
8.5
 12
0.0
 22
0.0
 32
0.0
 14
0.0
 24
0.0
 34
0.0
 15
0.0
 25
0.0
 35
0.0
146
0.0
 13
0.0
 23
0.0
 33
0.0
 16
1.0
 26
0.0
 36
0.0
 17
0.0
 27
1.0
 37
0.0
 76
0
330
21B
345
0
346
0
  0
LAYOUT
  5
369
102
{ACAD_REACTORS
330
1A
102
}
100
AcDbPlotSettings
  1

  2
none_device
  4
ANSI_A_(11.00_x_8.50_Inches)
  6

 40
0.0
 41
0.0
 42
0.0
 43
0.0
 44
279.4
 45
215.9
 46
0.0
 47
0.0
 48
0.0
 49
0.0
140
0.0
141
0.0
142
1.0
143
1.0
 70
0
 72
0
 73
0
 74
0
  7

 75
0
147
1.0
148
0.0
149
0.0
100
AcDbLayout
  1
Layout1
 70
0
 71
1
 10
0.0
 20
0.0
 11
11.0
 21
8.5
 12
0.0
 22
0.0
 32
0.0
 14
0.0
 24
0.0
 34
0.0
 15
0.0
 25
0.0
 35
0.0
146
0.0
 13
0.0
 23
0.0
 33
0.0
 16
1.0
 26
0.0
 36
0.0
 17
0.0
 27
1.0
 37
0.0
 76
0
330
21C
345
0
346
0
  0
ENDSEC
  0
EOF
