999
DXF file: E:\BT Custom\CADOUTPUT\_RIGHT.dxf
999
Pro/ENGINEER 2018400 by Parametric Technology Corporation
  0
SECTION
  2
HEADER
  9
$ACADVER
  1
AC1018
  9
$DWGCODEPAGE
  3
ANSI_1252
  9
$EXTMAX
 10
22.0
 20
17.0
 30
0.0
  9
$EXTMIN
 10
0.0
 20
0.0
 30
0.0
  9
$LIMMIN
 10
0.0
 20
0.0
  9
$LIMMAX
 10
22.0
 20
17.0
  9
$VIEWCTR
 10
11.0
 20
8.5
  9
$VIEWSIZE
 40
17.0
  9
$CLAYER
  8
0
  9
$LTSCALE
 40
1.21
  9
$CELTYPE
  6
BYLAYER
  9
$DIMSCALE
 40
1.0
  9
$DIMASZ
 40
0.1
  9
$DIMEXO
 40
0.0625
  9
$DIMDLI
 40
0.836
  9
$DIMEXE
 40
0.125
  9
$DIMCEN
 40
0.198
  9
$DIMLFAC
 40
1.0
  9
$DIMBLK
  1
_FILLED
  9
$DIMALT
 70
1
  9
$DIMALTD
 70
2
  9
$DIMALTTD
 70
2
  9
$DIMALTF
 40
25.4
  9
$DIMTXT
 40
0.08
  9
$DIMTOL
 70
1
  9
$DIMLIM
 70
0
  9
$DIMTFAC
 40
1.0
  9
$DIMTP
 40
0.001
  9
$DIMTM
 40
0.001
  9
$DIMGAP
 40
0.09
  9
$DIMDSEP
 70
46
  9
$AUNITS
 70
0
  9
$PDMODE
 70
3
  9
$PDSIZE
 40
0.06
  9
$HANDSEED
  5
4E4
  9
$TILEMODE
 70
1
  9
$MEASUREMENT
 70
0
  9
$INSUNITS
 70
1
  0
ENDSEC
  0
SECTION
  2
CLASSES
  0
CLASS
  1
ACDBDICTIONARYWDFLT
  2
AcDbDictionaryWithDefault
  3
AutoCAD 2000
 90
0
 91
1
280
0
281
0
  0
CLASS
  1
ACDBPLACEHOLDER
  2
AcDbPlaceHolder
  3
AutoCAD 2000
 90
0
 91
1
280
0
281
0
  0
CLASS
  1
LAYOUT
  2
AcDbLayout
  3
AutoCAD 2000
 90
0
 91
0
280
0
281
0
  0
ENDSEC
  0
SECTION
  2
TABLES
  0
TABLE
  2
VPORT
  5
8
100
AcDbSymbolTable
 70
2
  0
VPORT
  5
1F4
100
AcDbSymbolTableRecord
100
AcDbViewportTableRecord
  2
*ACTIVE
 70
0
 10
0.0
 20
0.0
 11
1.0
 21
1.0
 12
11.0
 22
8.5
 13
0.0
 23
0.0
 14
1.0
 24
1.0
 15
0.0
 25
0.0
 16
0.0
 26
0.0
 36
1.0
 17
0.0
 27
0.0
 37
0.0
 40
17.0
 41
1.2941176471
 42
50.0
 43
0.0
 44
0.0
 50
0.0
 51
0.0
 71
0
 72
100
 73
1
 74
1
 75
0
 76
0
 77
0
 78
0
  0
ENDTAB
  0
TABLE
  2
LTYPE
  5
5
100
AcDbSymbolTable
 70
6
  0
LTYPE
  5
14
100
AcDbSymbolTableRecord
100
AcDbLinetypeTableRecord
  2
BYBLOCK
 70
0
  3

 72
65
 73
0
 40
0.0
  0
LTYPE
  5
15
100
AcDbSymbolTableRecord
100
AcDbLinetypeTableRecord
  2
BYLAYER
 70
0
  3

 72
65
 73
0
 40
0.0
  0
LTYPE
  5
16
100
AcDbSymbolTableRecord
100
AcDbLinetypeTableRecord
  2
CONTINUOUS
 70
64
  3
Solid line
 72
65
 73
0
 40
0.0
  0
LTYPE
  5
1F5
100
AcDbSymbolTableRecord
100
AcDbLinetypeTableRecord
  2
CENTER
 70
64
  3
____ _ ____ _ ____ _ ____ _ ____ _ ____ _ ____
 72
65
 73
4
 40
0.6
 49
0.375
 74
0
 49
-0.075
 74
0
 49
0.075
 74
0
 49
-0.075
 74
0
  0
LTYPE
  5
1F6
100
AcDbSymbolTableRecord
100
AcDbLinetypeTableRecord
  2
HIDDEN
 70
64
  3
- - - - - - - - - - - - - - - - - - - -
 72
65
 73
2
 40
0.2
 49
0.1
 74
0
 49
-0.1
 74
0
  0
LTYPE
  5
1F7
100
AcDbSymbolTableRecord
100
AcDbLinetypeTableRecord
  2
PHANTOM
 70
64
  3
_____ _ _ _____ _ _ _____ _ _ _____
 72
65
 73
6
 40
0.8
 49
0.45
 74
0
 49
-0.05
 74
0
 49
0.1
 74
0
 49
-0.05
 74
0
 49
0.1
 74
0
 49
-0.05
 74
0
  0
LTYPE
  5
1F8
100
AcDbSymbolTableRecord
100
AcDbLinetypeTableRecord
  2
DOT
 70
64
  3
. . . . . . . . . . . . . . . . . . . .
 72
65
 73
2
 40
0.2
 49
0.1
 74
0
 49
-0.1
 74
0
  0
LTYPE
  5
1F9
100
AcDbSymbolTableRecord
100
AcDbLinetypeTableRecord
  2
DASHED
 70
64
  3
- - - - - - - - - - - - - - - - - - - -
 72
65
 73
2
 40
0.2
 49
0.1
 74
0
 49
-0.1
 74
0
  0
ENDTAB
  0
TABLE
  2
LAYER
  5
2
100
AcDbSymbolTable
 70
36
  0
LAYER
  5
10
100
AcDbSymbolTableRecord
100
AcDbLayerTableRecord
  2
0
 70
0
 62
7
  6
CONTINUOUS
370
-3
390
F
  0
LAYER
  5
1FA
100
AcDbSymbolTableRecord
100
AcDbLayerTableRecord
  2
DEFAULT_1
 70
0
 62
7
  6
CENTER
370
-3
390
F
  0
LAYER
  5
1FB
100
AcDbSymbolTableRecord
100
AcDbLayerTableRecord
  2
DEFAULT_2
 70
0
 62
8
  6
HIDDEN
370
-3
390
F
  0
LAYER
  5
1FC
100
AcDbSymbolTableRecord
100
AcDbLayerTableRecord
  2
DEFAULT_3
 70
0
 62
7
  6
PHANTOM
370
-3
390
F
  0
LAYER
  5
1FD
100
AcDbSymbolTableRecord
100
AcDbLayerTableRecord
  2
ALL_FEATURES
 70
0
 62
7
  6
CONTINUOUS
370
-3
390
F
  0
LAYER
  5
1FE
100
AcDbSymbolTableRecord
100
AcDbLayerTableRecord
  2
AXES_FEATURES
 70
0
 62
7
  6
CONTINUOUS
370
-3
390
F
  0
LAYER
  5
1FF
100
AcDbSymbolTableRecord
100
AcDbLayerTableRecord
  2
DEFAULT_COORDINATE_SYSTEM
 70
0
 62
7
  6
CONTINUOUS
370
-3
390
F
  0
LAYER
  5
200
100
AcDbSymbolTableRecord
100
AcDbLayerTableRecord
  2
DEFAULT_DATUM_AXES
 70
0
 62
7
  6
CONTINUOUS
370
-3
390
F
  0
LAYER
  5
201
100
AcDbSymbolTableRecord
100
AcDbLayerTableRecord
  2
DEFAULT_DATUM_PLANES
 70
0
 62
7
  6
CONTINUOUS
370
-3
390
F
  0
LAYER
  5
202
100
AcDbSymbolTableRecord
100
AcDbLayerTableRecord
  2
DIMENSIONS
 70
0
 62
7
  6
CONTINUOUS
370
-3
390
F
  0
ENDTAB
  0
TABLE
  2
STYLE
  5
3
100
AcDbSymbolTable
 70
1
  0
STYLE
  5
11
100
AcDbSymbolTableRecord
100
AcDbTextStyleTableRecord
  2
STANDARD
 70
0
 40
0.0
 41
0.8
 50
0.0
 71
0
 42
0.2
  3
txt
  4

  0
STYLE
  5
203
100
AcDbSymbolTableRecord
100
AcDbTextStyleTableRecord
  2
TEXTSTYLE_1
 70
0
 40
0.0
 41
0.8
 50
0.0
 71
0
 42
0.2
  3
gdt
  4

  0
ENDTAB
  0
TABLE
  2
VIEW
  5
6
100
AcDbSymbolTable
 70
0
  0
ENDTAB
  0
TABLE
  2
UCS
  5
7
100
AcDbSymbolTable
 70
0
  0
ENDTAB
  0
TABLE
  2
APPID
  5
9
100
AcDbSymbolTable
 70
1
  0
APPID
  5
204
100
AcDbSymbolTableRecord
100
AcDbRegAppTableRecord
  2
ACAD
 70
0
  0
ENDTAB
  0
TABLE
  2
BLOCK_RECORD
  5
1
100
AcDbSymbolTable
 70
0
  0
BLOCK_RECORD
  5
205
100
AcDbSymbolTableRecord
100
AcDbBlockTableRecord
  2
*Model_Space
  0
BLOCK_RECORD
  5
206
100
AcDbSymbolTableRecord
100
AcDbBlockTableRecord
  2
*Paper_Space
  0
BLOCK_RECORD
  5
207
100
AcDbSymbolTableRecord
100
AcDbBlockTableRecord
  2
_FILLED
  0
ENDTAB
  0
TABLE
  2
DIMSTYLE
  5
A
100
AcDbSymbolTable
 70
1
100
AcDbDimStyleTable
 71
0
  0
DIMSTYLE
105
208
100
AcDbSymbolTableRecord
100
AcDbDimStyleTableRecord
  2
STANDARD
 70
0
  3

  4

 40
1.0
 41
0.1
 42
0.0625
 43
0.38
 44
0.125
 45
0.0
 46
0.0
 47
0.001
 48
0.001
140
0.08
141
0.09
142
0.0
143
25.4
144
1.0
145
0.0
146
1.0
147
0.09
 71
1.0
 72
0.0
 73
1
 74
1
 75
0
 76
0
 77
0
 78
4
 79
1
170
1
171
2
172
0
173
0
174
0
175
0
176
0
177
0
178
0
270
2
179
3
271
3
272
3
273
2
274
2
275
0
280
0
281
0
282
0
283
1
284
4
285
0
286
0
287
3
288
0
340
11
278
46
341
207
342
207
343
207
344
207
  0
ENDTAB
  0
ENDSEC
  0
SECTION
  2
BLOCKS
  0
BLOCK
  5
20
100
AcDbEntity
  8
0
100
AcDbBlockBegin
  2
*Model_Space
 70
0
 10
0.0
 20
0.0
 30
0.0
  3
*Model_Space
  1

  0
ENDBLK
  5
21
100
AcDbEntity
  8
0
100
AcDbBlockEnd
  0
BLOCK
  5
1C
100
AcDbEntity
  8
0
100
AcDbBlockBegin
  2
*Paper_Space
 70
0
 10
0.0
 20
0.0
 30
0.0
  3
*Paper_Space
  1

  0
ENDBLK
  5
1D
100
AcDbEntity
  8
0
100
AcDbBlockEnd
  0
BLOCK
  5
209
100
AcDbEntity
  8
0
100
AcDbBlockBegin
  2
_FILLED
 70
64
 10
0.0
 20
0.0
  3
_FILLED
  1

  0
SOLID
  5
20A
100
AcDbEntity
  8
0
  6
BYBLOCK
 62
0
100
AcDbTrace
 10
0.0
 20
0.0
 11
-1.0
 21
0.2
 12
-1.0
 22
-0.2
 13
-1.0
 23
-0.2
  0
ENDBLK
  5
20B
100
AcDbEntity
  8
0
  6
BYBLOCK
 62
0
100
AcDbBlockEnd
  0
ENDSEC
  0
SECTION
  2
ENTITIES
  0
LINE
  5
20C
100
AcDbEntity
  8
0
100
AcDbLine
 62
7
  6
CONTINUOUS
 10
4.0125766793
 20
10.278934799
 11
4.0699574844
 21
10.9387518041
  0
LINE
  5
20D
100
AcDbEntity
  8
0
100
AcDbLine
 62
7
  6
CONTINUOUS
 10
4.2292695351
 20
11.086555086
 11
4.3082093439
 21
11.381162463
  0
LINE
  5
20E
100
AcDbEntity
  8
0
100
AcDbLine
 62
7
  6
CONTINUOUS
 10
4.9537139048
 20
10.8924408022
 11
5.0326537136
 21
11.1870481792
  0
LINE
  5
20F
100
AcDbEntity
  8
0
100
AcDbLine
 62
7
  6
CONTINUOUS
 10
4.7375652793
 20
10.0846746891
 11
5.0177805469
 21
10.68478338
  0
LINE
  5
210
100
AcDbEntity
  8
0
100
AcDbLine
 62
7
  6
CONTINUOUS
 10
14.472557045
 20
4.1376481858
 11
17.3125570241
 21
4.1376481858
  0
LINE
  5
211
100
AcDbEntity
  8
0
100
AcDbLine
 62
9
  6
CONTINUOUS
 10
14.9157391801
 20
4.1609598381
 11
16.869374889
 21
4.1609598381
  0
LINE
  5
212
100
AcDbEntity
  8
0
100
AcDbLine
 62
7
  6
CONTINUOUS
 10
14.9165263188
 20
4.3246481858
 11
14.8925570345
 21
4.3246481858
  0
LINE
  5
213
100
AcDbEntity
  8
0
100
AcDbLine
 62
7
  6
CONTINUOUS
 10
16.8685877503
 20
4.3246481858
 11
16.8925570345
 21
4.3246481858
  0
LINE
  5
214
100
AcDbEntity
  8
0
100
AcDbLine
 62
9
  6
CONTINUOUS
 10
17.3125570345
 20
4.3247989859
 11
16.8925570345
 21
4.3247989859
  0
LINE
  5
215
100
AcDbEntity
  8
0
100
AcDbLine
 62
9
  6
CONTINUOUS
 10
14.8925570345
 20
4.3247989859
 11
14.4725570345
 21
4.3247989859
  0
LINE
  5
216
100
AcDbEntity
  8
0
100
AcDbLine
 62
9
  6
CONTINUOUS
 10
17.2539134175
 20
4.3876481858
 11
16.8818992276
 21
4.3876481858
  0
LINE
  5
217
100
AcDbEntity
  8
0
100
AcDbLine
 62
9
  6
CONTINUOUS
 10
14.5312006516
 20
4.3876481858
 11
14.9032148415
 21
4.3876481858
  0
LINE
  5
218
100
AcDbEntity
  8
0
100
AcDbLine
 62
9
  6
CONTINUOUS
 10
14.5600570345
 20
4.4185739826
 11
14.9174012405
 21
4.4185739826
  0
LINE
  5
219
100
AcDbEntity
  8
0
100
AcDbLine
 62
9
  6
CONTINUOUS
 10
16.8677128286
 20
4.4185739826
 11
17.2250570345
 21
4.4185739826
  0
LINE
  5
21A
100
AcDbEntity
  8
0
100
AcDbLine
 62
7
  6
CONTINUOUS
 10
17.2250568608
 20
4.4626481858
 11
16.8494417741
 21
4.4626481858
  0
LINE
  5
21B
100
AcDbEntity
  8
0
100
AcDbLine
 62
7
  6
CONTINUOUS
 10
14.935672295
 20
4.4626481858
 11
14.5600572083
 21
4.4626481858
  0
LINE
  5
21C
100
AcDbEntity
  8
0
100
AcDbLine
 62
7
  6
CONTINUOUS
 10
17.1525570345
 20
4.5096481858
 11
16.8389352793
 21
4.5096481858
  0
LINE
  5
21D
100
AcDbEntity
  8
0
100
AcDbLine
 62
7
  6
CONTINUOUS
 10
14.9461787898
 20
4.5096481858
 11
14.6325570345
 21
4.5096481858
  0
LINE
  5
21E
100
AcDbEntity
  8
0
100
AcDbLine
 62
7
  6
CONTINUOUS
 10
14.6325570345
 20
4.7156481858
 11
15.0180138029
 21
4.7156481858
  0
LINE
  5
21F
100
AcDbEntity
  8
0
100
AcDbLine
 62
7
  6
CONTINUOUS
 10
16.7671002662
 20
4.7156481858
 11
17.1525570345
 21
4.7156481858
  0
LINE
  5
220
100
AcDbEntity
  8
0
100
AcDbLine
 62
7
  6
CONTINUOUS
 10
14.5960572105
 20
4.7626481858
 11
15.0409830701
 21
4.7626481858
  0
LINE
  5
221
100
AcDbEntity
  8
0
100
AcDbLine
 62
7
  6
CONTINUOUS
 10
16.744130999
 20
4.7626481858
 11
17.1890568586
 21
4.7626481858
  0
LINE
  5
222
100
AcDbEntity
  8
0
100
AcDbLine
 62
9
  6
CONTINUOUS
 10
15.1303513224
 20
4.9081169563
 11
16.6547627467
 21
4.9081169563
  0
LINE
  5
223
100
AcDbEntity
  8
0
100
AcDbLine
 62
7
  6
CONTINUOUS
 10
16.6223711303
 20
4.9246481858
 11
15.1627429388
 21
4.9246481858
  0
LINE
  5
224
100
AcDbEntity
  8
0
100
AcDbLine
 62
9
  6
CONTINUOUS
 10
15.6590889864
 20
4.9369375077
 11
16.1260250827
 21
4.9369375078
  0
LINE
  5
225
100
AcDbEntity
  8
0
100
AcDbLine
 62
9
  6
CONTINUOUS
 10
15.3450570345
 20
4.9411481858
 11
15.2513935949
 21
4.9411481858
  0
LINE
  5
226
100
AcDbEntity
  8
0
100
AcDbLine
 62
9
  6
CONTINUOUS
 10
16.4400570345
 20
4.9411481858
 11
16.5337204742
 21
4.9411481858
  0
LINE
  5
227
100
AcDbEntity
  8
0
100
AcDbLine
 62
9
  6
CONTINUOUS
 10
15.7591853886
 20
4.9722928467
 11
16.0259286805
 21
4.9722928467
  0
LINE
  5
228
100
AcDbEntity
  8
0
100
AcDbLine
 62
9
  6
CONTINUOUS
 10
15.3450570345
 20
5.0598196172
 11
16.4400570345
 21
5.0598196172
  0
LINE
  5
229
100
AcDbEntity
  8
0
100
AcDbLine
 62
9
  6
CONTINUOUS
 10
15.3750570345
 20
5.1312339015
 11
16.4100570345
 21
5.1312339015
  0
LINE
  5
22A
100
AcDbEntity
  8
0
100
AcDbLine
 62
9
  6
CONTINUOUS
 10
15.3935612029
 20
5.1561481858
 11
15.2740570345
 21
5.1561481858
  0
LINE
  5
22B
100
AcDbEntity
  8
0
100
AcDbLine
 62
9
  6
CONTINUOUS
 10
16.3915528662
 20
5.1561481858
 11
16.5110570345
 21
5.1561481858
  0
LINE
  5
22C
100
AcDbEntity
  8
0
100
AcDbLine
 62
7
  6
CONTINUOUS
 10
15.0825570345
 20
5.1776094706
 11
15.2619846416
 21
5.1776094706
  0
LINE
  5
22D
100
AcDbEntity
  8
0
100
AcDbLine
 62
7
  6
CONTINUOUS
 10
16.5231294275
 20
5.1776094706
 11
16.7025570345
 21
5.1776094706
  0
LINE
  5
22E
100
AcDbEntity
  8
0
100
AcDbLine
 62
7
  6
CONTINUOUS
 10
16.3800570345
 20
5.2026481858
 11
15.4050570345
 21
5.2026481858
  0
LINE
  5
22F
100
AcDbEntity
  8
0
100
AcDbLine
 62
9
  6
CONTINUOUS
 10
15.3022223133
 20
5.3843469973
 11
15.2779230403
 21
5.3843469973
  0
LINE
  5
230
100
AcDbEntity
  8
0
100
AcDbLine
 62
9
  6
CONTINUOUS
 10
16.3652117065
 20
5.3843469973
 11
16.5071910288
 21
5.3843469973
  0
LINE
  5
231
100
AcDbEntity
  8
0
100
AcDbLine
 62
7
  6
CONTINUOUS
 10
16.7025570246
 20
5.4246481858
 11
16.478983372
 21
5.4246481858
  0
LINE
  5
232
100
AcDbEntity
  8
0
100
AcDbLine
 62
7
  6
CONTINUOUS
 10
15.2684056009
 20
5.4246481858
 11
15.0825570445
 21
5.4246481858
  0
LINE
  5
233
100
AcDbEntity
  8
0
100
AcDbLine
 62
7
  6
CONTINUOUS
 10
16.6062233925
 20
5.4746481858
 11
16.4439873113
 21
5.4746481858
  0
LINE
  5
234
100
AcDbEntity
  8
0
100
AcDbLine
 62
7
  6
CONTINUOUS
 10
15.223990333
 20
5.4746481858
 11
15.1788906766
 21
5.4746481858
  0
LINE
  5
235
100
AcDbEntity
  8
0
100
AcDbLine
 62
9
  6
CONTINUOUS
 10
16.3429592194
 20
5.4902646246
 11
16.4330570345
 21
5.4902646246
  0
LINE
  5
236
100
AcDbEntity
  8
0
100
AcDbLine
 62
7
  6
CONTINUOUS
 10
16.6025116745
 20
5.7176481858
 11
16.3341951661
 21
5.7176481858
  0
LINE
  5
237
100
AcDbEntity
  8
0
100
AcDbLine
 62
9
  6
CONTINUOUS
 10
10.1064225696
 20
12.732080004
 11
9.5423751114
 21
12.2377618222
  0
LINE
  5
238
100
AcDbEntity
  8
0
100
AcDbLine
 62
9
  6
CONTINUOUS
 10
16.2125820407
 20
5.7962474285
 11
16.3222967621
 21
5.7962474285
  0
LINE
  5
239
100
AcDbEntity
  8
0
100
AcDbLine
 62
7
  6
CONTINUOUS
 10
16.2914059231
 20
5.8246481858
 11
16.1946839784
 21
5.8246481858
  0
LINE
  5
23A
100
AcDbEntity
  8
0
100
AcDbLine
 62
7
  6
CONTINUOUS
 10
16.2207647271
 20
6.1786481858
 11
16.2630570345
 21
6.1786481858
  0
LINE
  5
23B
100
AcDbEntity
  8
0
100
AcDbLine
 62
7
  6
CONTINUOUS
 10
15.3650570345
 20
6.2296481858
 11
15.3849574334
 21
6.2296481858
  0
LINE
  5
23C
100
AcDbEntity
  8
0
100
AcDbLine
 62
7
  6
CONTINUOUS
 10
16.265553382
 20
6.2296481858
 11
16.4200570345
 21
6.2296481858
  0
LINE
  5
23D
100
AcDbEntity
  8
0
100
AcDbLine
 62
7
  6
CONTINUOUS
 10
15.3511423698
 20
6.3086481858
 11
15.4707489009
 21
6.3086481858
  0
LINE
  5
23E
100
AcDbEntity
  8
0
100
AcDbLine
 62
7
  6
CONTINUOUS
 10
16.314371547
 20
6.3086481858
 11
16.4500570345
 21
6.3086481858
  0
LINE
  5
23F
100
AcDbEntity
  8
0
100
AcDbLine
 62
7
  6
CONTINUOUS
 10
15.4575430398
 20
6.7186481858
 11
15.4707425221
 21
6.7186481858
  0
LINE
  5
240
100
AcDbEntity
  8
0
100
AcDbLine
 62
7
  6
CONTINUOUS
 10
16.3143651682
 20
6.7186481858
 11
16.4500570345
 21
6.7186481858
  0
LINE
  5
241
100
AcDbEntity
  8
0
100
AcDbLine
 62
7
  6
CONTINUOUS
 10
16.4500570345
 20
6.7436481858
 11
16.4417918696
 21
6.7436481858
  0
LINE
  5
242
100
AcDbEntity
  8
0
100
AcDbLine
 62
7
  6
CONTINUOUS
 10
15.3904150693
 20
6.7986481858
 11
15.5203266562
 21
6.7986481858
  0
LINE
  5
243
100
AcDbEntity
  8
0
100
AcDbLine
 62
7
  6
CONTINUOUS
 10
16.2647875241
 20
6.7986481858
 11
16.4217493498
 21
6.7986481858
  0
LINE
  5
244
100
AcDbEntity
  8
0
100
AcDbLine
 62
7
  6
CONTINUOUS
 10
15.3910570345
 20
6.8146481858
 11
15.533082905
 21
6.8146481858
  0
LINE
  5
245
100
AcDbEntity
  8
0
100
AcDbLine
 62
7
  6
CONTINUOUS
 10
16.2520350567
 20
6.8146481858
 11
16.3940570345
 21
6.8146481858
  0
LINE
  5
246
100
AcDbEntity
  8
0
100
AcDbLine
 62
7
  6
CONTINUOUS
 10
15.3694375785
 20
6.8236481858
 11
15.3754570345
 21
6.8236481858
  0
LINE
  5
247
100
AcDbEntity
  8
0
100
AcDbLine
 62
7
  6
CONTINUOUS
 10
16.4096570345
 20
6.8236481858
 11
16.4217493498
 21
6.8236481858
  0
LINE
  5
248
100
AcDbEntity
  8
0
100
AcDbLine
 62
7
  6
CONTINUOUS
 10
15.3650570345
 20
6.8296481858
 11
15.5460006678
 21
6.8296481858
  0
LINE
  5
249
100
AcDbEntity
  8
0
100
AcDbLine
 62
7
  6
CONTINUOUS
 10
16.2391056207
 20
6.8296481858
 11
16.4200570345
 21
6.8296481858
  0
LINE
  5
24A
100
AcDbEntity
  8
0
100
AcDbLine
 62
7
  6
CONTINUOUS
 10
14.8849367778
 20
5.964642568
 11
14.9303766303
 21
5.955583809
  0
LINE
  5
24B
100
AcDbEntity
  8
0
100
AcDbLine
 62
7
  6
CONTINUOUS
 10
15.3650570345
 20
6.9009322829
 11
15.6280989737
 21
6.9009322829
  0
LINE
  5
24C
100
AcDbEntity
  8
0
100
AcDbLine
 62
7
  6
CONTINUOUS
 10
16.1570251587
 20
6.9009322829
 11
16.4200570345
 21
6.9009322829
  0
LINE
  5
24D
100
AcDbEntity
  8
0
100
AcDbLine
 62
7
  6
CONTINUOUS
 10
15.3872766133
 20
6.9231518617
 11
15.6643037999
 21
6.9231518617
  0
LINE
  5
24E
100
AcDbEntity
  8
0
100
AcDbLine
 62
7
  6
CONTINUOUS
 10
16.1208071798
 20
6.9231518617
 11
16.3978374558
 21
6.9231518617
  0
LINE
  5
24F
100
AcDbEntity
  8
0
100
AcDbLine
 62
7
  6
CONTINUOUS
 10
16.4200570345
 20
6.9259322829
 11
16.3892801992
 21
6.9259322829
  0
LINE
  5
250
100
AcDbEntity
  8
0
100
AcDbLine
 62
7
  6
CONTINUOUS
 10
15.3958338699
 20
6.9259322829
 11
15.3650570345
 21
6.9259322829
  0
LINE
  5
251
100
AcDbEntity
  8
0
100
AcDbLine
 62
7
  6
CONTINUOUS
 10
15.4380470784
 20
6.9396481858
 11
15.6964260886
 21
6.9396481858
  0
LINE
  5
252
100
AcDbEntity
  8
0
100
AcDbLine
 62
7
  6
CONTINUOUS
 10
16.0886751994
 20
6.9396481858
 11
16.3470669907
 21
6.9396481858
  0
LINE
  5
253
100
AcDbEntity
  8
0
100
AcDbLine
 62
7
  6
CONTINUOUS
 10
16.3978374558
 20
6.9481518617
 11
16.3066938543
 21
6.9481518617
  0
LINE
  5
254
100
AcDbEntity
  8
0
100
AcDbLine
 62
7
  6
CONTINUOUS
 10
15.4784202148
 20
6.9481518617
 11
15.3872766133
 21
6.9481518617
  0
LINE
  5
255
100
AcDbEntity
  8
0
100
AcDbLine
 62
9
  6
CONTINUOUS
 10
15.497412378
 20
6.9634574791
 11
15.7604498361
 21
6.9634574791
  0
LINE
  5
256
100
AcDbEntity
  8
0
100
AcDbLine
 62
9
  6
CONTINUOUS
 10
16.0246635826
 20
6.9634574791
 11
16.2877016911
 21
6.9634574791
  0
LINE
  5
257
100
AcDbEntity
  8
0
100
AcDbLine
 62
7
  6
CONTINUOUS
 10
16.3470669907
 20
6.9646481858
 11
16.2827908902
 21
6.9646481858
  0
LINE
  5
258
100
AcDbEntity
  8
0
100
AcDbLine
 62
7
  6
CONTINUOUS
 10
15.5023231789
 20
6.9646481858
 11
15.4380470784
 21
6.9646481858
  0
LINE
  5
259
100
AcDbEntity
  8
0
100
AcDbLine
 62
9
  6
CONTINUOUS
 10
15.6095025926
 20
6.9884574825
 11
15.4974123749
 21
6.9884574782
  0
LINE
  5
25A
100
AcDbEntity
  8
0
100
AcDbLine
 62
9
  6
CONTINUOUS
 10
16.2877016911
 20
6.9884574791
 11
16.1756114938
 21
6.9884574791
  0
LINE
  5
25B
100
AcDbEntity
  8
0
100
AcDbLine
 62
7
  6
CONTINUOUS
 10
14.8978765831
 20
5.9755003539
 11
14.9422750911
 21
5.965567803
  0
LINE
  5
25C
100
AcDbEntity
  8
0
100
AcDbLine
 62
7
  6
CONTINUOUS
 10
14.927307952
 20
6.0001962046
 11
14.9693266977
 21
5.9882667961
  0
LINE
  5
25D
100
AcDbEntity
  8
0
100
AcDbLine
 62
7
  6
CONTINUOUS
 10
9.8849619577
 20
10.2946496634
 11
9.882919262
 21
10.2900859594
  0
LINE
  5
25E
100
AcDbEntity
  8
0
100
AcDbLine
 62
7
  6
CONTINUOUS
 10
9.9577859494
 20
10.2456199149
 11
9.95559384
 21
10.2407223972
  0
LINE
  5
25F
100
AcDbEntity
  8
0
100
AcDbLine
 62
7
  6
CONTINUOUS
 10
16.575056864
 20
7.7776481858
 11
15.2100572051
 21
7.7776481858
  0
LINE
  5
260
100
AcDbEntity
  8
0
100
AcDbLine
 62
7
  6
CONTINUOUS
 10
15.3794034885
 20
6.2249878727
 11
15.3650570345
 21
6.2296481858
  0
LINE
  5
261
100
AcDbEntity
  8
0
100
AcDbLine
 62
7
  6
CONTINUOUS
 10
10.1126750819
 20
10.114356192
 11
10.1095749863
 21
10.1074300903
  0
LINE
  5
262
100
AcDbEntity
  8
0
100
AcDbLine
 62
7
  6
CONTINUOUS
 10
10.2498421417
 20
9.9924534846
 11
10.2467420461
 21
9.9855273829
  0
LINE
  5
263
100
AcDbEntity
  8
0
100
AcDbLine
 62
7
  6
CONTINUOUS
 10
10.3996197664
 20
9.8620085776
 11
10.3965196708
 21
9.8550824758
  0
LINE
  5
264
100
AcDbEntity
  8
0
100
AcDbLine
 62
7
  6
CONTINUOUS
 10
4.0472354587
 20
10.2294643119
 11
4.6828146524
 21
10.0591613803
  0
LINE
  5
265
100
AcDbEntity
  8
0
100
AcDbLine
 62
9
  6
CONTINUOUS
 10
4.0125766793
 20
10.278934799
 11
4.7375652793
 21
10.0846746891
  0
LINE
  5
266
100
AcDbEntity
  8
0
100
AcDbLine
 62
7
  6
CONTINUOUS
 10
10.6050152546
 20
9.7334354448
 11
10.6079903352
 21
9.7400822435
  0
LINE
  5
267
100
AcDbEntity
  8
0
100
AcDbLine
 62
9
  6
CONTINUOUS
 10
10.7169251944
 20
9.9222662282
 11
10.8803408555
 21
10.2873625496
  0
LINE
  5
268
100
AcDbEntity
  8
0
100
AcDbLine
 62
7
  6
CONTINUOUS
 10
10.6506522944
 20
9.7130084873
 11
10.6536273751
 21
9.719655286
  0
LINE
  5
269
100
AcDbEntity
  8
0
100
AcDbLine
 62
7
  6
CONTINUOUS
 10
10.8833723889
 20
9.6454828281
 11
10.8802722933
 21
9.6385567263
  0
LINE
  5
26A
100
AcDbEntity
  8
0
100
AcDbLine
 62
7
  6
CONTINUOUS
 10
15.2100572051
 20
8.5526481858
 11
16.575056864
 21
8.5526481858
  0
LINE
  5
26B
100
AcDbEntity
  8
0
100
AcDbLine
 62
7
  6
CONTINUOUS
 10
16.3978374558
 20
6.9231518617
 11
16.3470669907
 21
6.9396481858
  0
LINE
  5
26C
100
AcDbEntity
  8
0
100
AcDbLine
 62
7
  6
CONTINUOUS
 10
16.3470669907
 20
6.9646481858
 11
16.3978374558
 21
6.9481518617
  0
LINE
  5
26D
100
AcDbEntity
  8
0
100
AcDbLine
 62
7
  6
CONTINUOUS
 10
11.0804362672
 20
9.6206828582
 11
11.0773361716
 21
9.6137567564
  0
LINE
  5
26E
100
AcDbEntity
  8
0
100
AcDbLine
 62
7
  6
CONTINUOUS
 10
11.2627284864
 20
9.5995968631
 11
11.2596283908
 21
9.5926707613
  0
LINE
  5
26F
100
AcDbEntity
  8
0
100
AcDbLine
 62
7
  6
CONTINUOUS
 10
11.4638082649
 20
9.5715303175
 11
11.4616161555
 21
9.5666327998
  0
LINE
  5
270
100
AcDbEntity
  8
0
100
AcDbLine
 62
7
  6
CONTINUOUS
 10
11.5488884311
 20
9.549882793
 11
11.5468457354
 21
9.545319089
  0
LINE
  5
271
100
AcDbEntity
  8
0
100
AcDbLine
 62
7
  6
CONTINUOUS
 10
12.0874826
 20
9.518910909
 11
12.2436018682
 21
9.649917302
  0
LWPOLYLINE
  5
272
100
AcDbEntity
  8
0
100
AcDbPolyline
 62
7
  6
CONTINUOUS
 90
4
 70
0
 10
11.627145015
 20
9.5218514077
 10
11.663024009
 20
9.5197358468
 10
11.6987485483
 20
9.5175722622
 10
11.7291695972
 20
9.5156772941
  0
LWPOLYLINE
  5
273
100
AcDbEntity
  8
0
100
AcDbPolyline
 62
7
  6
CONTINUOUS
 90
14
 70
0
 10
11.7291709293
 20
9.5156772099
 10
11.7382895369
 20
9.5149234322
 10
11.749769278
 20
9.5134832369
 10
11.7619246575
 20
9.5113802466
 10
11.7748088392
 20
9.5085141561
 10
11.7884770209
 20
9.5047595015
 10
11.802978349
 20
9.4999619153
 10
11.8182640126
 20
9.4939697053
 10
11.8339089
 20
9.4867925947
 10
11.8494337168
 20
9.4785523836
 10
11.8645985093
 20
9.4693440541
 10
11.879330935
 20
9.4592057042
 10
11.8935745241
 20
9.4481657229
 10
11.9014250112
 20
9.4415040652
  0
LINE
  5
274
100
AcDbEntity
  8
0
100
AcDbLine
 62
7
  6
CONTINUOUS
 10
5.0177805469
 20
10.68478338
 11
4.0699574844
 21
10.9387518041
  0
LINE
  5
275
100
AcDbEntity
  8
0
100
AcDbLine
 62
7
  6
CONTINUOUS
 10
5.0391983405
 20
10.8695353167
 11
4.1437850995
 21
11.1094605715
  0
LINE
  5
276
100
AcDbEntity
  8
0
100
AcDbLine
 62
7
  6
CONTINUOUS
 10
10.4424288187
 20
9.8141869197
 11
10.8191888916
 21
9.6455506098
  0
LINE
  5
277
100
AcDbEntity
  8
0
100
AcDbLine
 62
9
  6
CONTINUOUS
 10
10.8208359156
 20
9.6449798549
 11
10.4409059273
 21
9.8150350063
  0
LINE
  5
278
100
AcDbEntity
  8
0
100
AcDbLine
 62
7
  6
CONTINUOUS
 10
15.3910570345
 20
6.8146481858
 11
15.3650570345
 21
6.8296481858
  0
LINE
  5
279
100
AcDbEntity
  8
0
100
AcDbLine
 62
7
  6
CONTINUOUS
 10
10.4000387958
 20
9.8427177629
 11
10.4409059273
 21
9.8150350063
  0
LINE
  5
27A
100
AcDbEntity
  8
0
100
AcDbLine
 62
7
  6
CONTINUOUS
 10
10.2502611711
 20
9.97316267
 11
10.3961006414
 21
9.8743732904
  0
LINE
  5
27B
100
AcDbEntity
  8
0
100
AcDbLine
 62
7
  6
CONTINUOUS
 10
10.1130941113
 20
10.0950653774
 11
10.2463230167
 21
10.0048181975
  0
LINE
  5
27C
100
AcDbEntity
  8
0
100
AcDbLine
 62
7
  6
CONTINUOUS
 10
9.959112965
 20
10.2283576844
 11
10.0307716437
 21
10.1798172145
  0
LINE
  5
27D
100
AcDbEntity
  8
0
100
AcDbLine
 62
7
  6
CONTINUOUS
 10
10.0694440425
 20
10.1536211355
 11
10.1091559569
 21
10.1267209049
  0
LINE
  5
27E
100
AcDbEntity
  8
0
100
AcDbLine
 62
9
  6
CONTINUOUS
 10
11.7045570345
 20
12.0076481858
 11
11.7045570345
 21
11.2576481858
  0
LINE
  5
27F
100
AcDbEntity
  8
0
100
AcDbLine
 62
7
  6
CONTINUOUS
 10
10.8687065179
 20
9.6329439549
 11
10.8208359156
 21
9.6449798549
  0
LINE
  5
280
100
AcDbEntity
  8
0
100
AcDbLine
 62
7
  6
CONTINUOUS
 10
11.0657703962
 20
9.608143985
 11
10.8949381643
 21
9.6510955995
  0
LINE
  5
281
100
AcDbEntity
  8
0
100
AcDbLine
 62
7
  6
CONTINUOUS
 10
11.2480626154
 20
9.5870579899
 11
11.1620233331
 21
9.6086904772
  0
LINE
  5
282
100
AcDbEntity
  8
0
100
AcDbLine
 62
7
  6
CONTINUOUS
 10
11.1167512545
 20
9.6200730415
 11
11.0920020426
 21
9.6262956296
  0
LINE
  5
283
100
AcDbEntity
  8
0
100
AcDbLine
 62
7
  6
CONTINUOUS
 10
11.45005038
 20
9.5610200284
 11
11.36611143
 21
9.5821244382
  0
LINE
  5
284
100
AcDbEntity
  8
0
100
AcDbLine
 62
7
  6
CONTINUOUS
 10
11.3208116755
 20
9.5935139609
 11
11.2742942618
 21
9.6052096345
  0
LINE
  5
285
100
AcDbEntity
  8
0
100
AcDbLine
 62
9
  6
CONTINUOUS
 10
5.0326537136
 20
11.1870481792
 11
4.3082093439
 21
11.381162463
  0
LINE
  5
286
100
AcDbEntity
  8
0
100
AcDbLine
 62
9
  6
CONTINUOUS
 10
10.8687065179
 20
9.6329439549
 11
10.4000387958
 21
9.8427177629
  0
LINE
  5
287
100
AcDbEntity
  8
0
100
AcDbLine
 62
9
  6
CONTINUOUS
 10
10.8802722933
 20
9.6385567263
 11
10.3965196708
 21
9.8550824758
  0
LINE
  5
288
100
AcDbEntity
  8
0
100
AcDbLine
 62
9
  6
CONTINUOUS
 10
10.3996197664
 20
9.8620085776
 11
10.8833723889
 21
9.6454828281
  0
LINE
  5
289
100
AcDbEntity
  8
0
100
AcDbLine
 62
9
  6
CONTINUOUS
 10
10.3961006414
 20
9.8743732904
 11
10.8949381643
 21
9.6510955995
  0
LINE
  5
28A
100
AcDbEntity
  8
0
100
AcDbLine
 62
9
  6
CONTINUOUS
 10
11.0657703962
 20
9.608143985
 11
10.2502611711
 21
9.97316267
  0
LINE
  5
28B
100
AcDbEntity
  8
0
100
AcDbLine
 62
9
  6
CONTINUOUS
 10
11.0773361716
 20
9.6137567564
 11
10.2467420461
 21
9.9855273829
  0
LINE
  5
28C
100
AcDbEntity
  8
0
100
AcDbLine
 62
9
  6
CONTINUOUS
 10
10.2498421417
 20
9.9924534846
 11
11.0804362672
 21
9.6206828582
  0
LINE
  5
28D
100
AcDbEntity
  8
0
100
AcDbLine
 62
9
  6
CONTINUOUS
 10
10.2463230167
 20
10.0048181975
 11
11.0920020426
 21
9.6262956296
  0
LINE
  5
28E
100
AcDbEntity
  8
0
100
AcDbLine
 62
9
  6
CONTINUOUS
 10
11.2480626154
 20
9.5870579899
 11
10.1130941113
 21
10.0950653774
  0
LINE
  5
28F
100
AcDbEntity
  8
0
100
AcDbLine
 62
9
  6
CONTINUOUS
 10
11.2596283908
 20
9.5926707613
 11
10.1095749863
 21
10.1074300903
  0
LINE
  5
290
100
AcDbEntity
  8
0
100
AcDbLine
 62
9
  6
CONTINUOUS
 10
10.1126750819
 20
10.114356192
 11
11.2627284864
 21
9.5995968631
  0
LINE
  5
291
100
AcDbEntity
  8
0
100
AcDbLine
 62
9
  6
CONTINUOUS
 10
10.1091559569
 20
10.1267209049
 11
11.2742942618
 21
9.6052096345
  0
LINE
  5
292
100
AcDbEntity
  8
0
100
AcDbLine
 62
9
  6
CONTINUOUS
 10
11.45005038
 20
9.5610200284
 11
9.959112965
 21
10.2283576844
  0
LINE
  5
293
100
AcDbEntity
  8
0
100
AcDbLine
 62
9
  6
CONTINUOUS
 10
11.4616161555
 20
9.5666327998
 11
9.95559384
 21
10.2407223972
  0
LINE
  5
294
100
AcDbEntity
  8
0
100
AcDbLine
 62
9
  6
CONTINUOUS
 10
9.9577859494
 20
10.2456199149
 11
11.4638082649
 21
9.5715303175
  0
LINE
  5
295
100
AcDbEntity
  8
0
100
AcDbLine
 62
7
  6
CONTINUOUS
 10
9.882919262
 20
10.2900859594
 11
11.5468457354
 21
9.545319089
  0
LINE
  5
296
100
AcDbEntity
  8
0
100
AcDbLine
 62
7
  6
CONTINUOUS
 10
9.8315663055
 20
10.3185493449
 11
11.6022845364
 21
9.5259829087
  0
LINE
  5
297
100
AcDbEntity
  8
0
100
AcDbLine
 62
7
  6
CONTINUOUS
 10
16.4217493498
 20
6.7986481858
 11
16.3940570345
 21
6.8146481858
  0
LINE
  5
298
100
AcDbEntity
  8
0
100
AcDbLine
 62
7
  6
CONTINUOUS
 10
16.4157076667
 20
6.8271389351
 11
16.4217493498
 21
6.8236481858
  0
LINE
  5
299
100
AcDbEntity
  8
0
100
AcDbLine
 62
7
  6
CONTINUOUS
 10
10.9749059725
 20
9.6315350023
 11
10.9747167609
 21
9.6316601633
  0
LINE
  5
29A
100
AcDbEntity
  8
0
100
AcDbLine
 62
7
  6
CONTINUOUS
 10
11.1620746221
 20
9.6087845631
 11
11.16205096
 21
9.6088003583
  0
LINE
  5
29B
100
AcDbEntity
  8
0
100
AcDbLine
 62
7
  6
CONTINUOUS
 10
11.1167789564
 20
9.620183221
 11
11.1168024107
 21
9.6201669617
  0
LINE
  5
29C
100
AcDbEntity
  8
0
100
AcDbLine
 62
7
  6
CONTINUOUS
 10
11.9014287314
 20
9.4415008042
 11
11.9014250112
 21
9.4415040652
  0
LWPOLYLINE
  5
29D
100
AcDbEntity
  8
0
100
AcDbPolyline
 62
7
  6
CONTINUOUS
 90
12
 70
0
 10
14.7421426079
 20
6.0492495074
 10
14.7513822478
 20
6.0388339903
 10
14.7624808309
 20
6.0277231771
 10
14.7743424556
 20
6.0172680919
 10
14.7868652547
 20
6.0075699608
 10
14.799926549
 20
5.9986995761
 10
14.8133993565
 20
5.9906960838
 10
14.8272682263
 20
5.983576926
 10
14.8415630223
 20
5.9773643252
 10
14.856294271
 20
5.9720709425
 10
14.8714797959
 20
5.9676916999
 10
14.8849367778
 20
5.964642568
  0
LWPOLYLINE
  5
29E
100
AcDbEntity
  8
0
100
AcDbPolyline
 62
7
  6
CONTINUOUS
 90
12
 70
0
 10
14.7570548227
 20
6.0617623413
 10
14.7662830134
 20
6.0513327996
 10
14.7773347929
 20
6.0401794744
 10
14.7891132246
 20
6.0296524647
 10
14.8015168027
 20
6.0198532355
 10
14.8144243266
 20
6.0108538246
 10
14.8277110968
 20
6.0026952661
 10
14.8413619272
 20
5.9953949248
 10
14.855405814
 20
5.9889738846
 10
14.8698529922
 20
5.9834442111
 10
14.8847208522
 20
5.978800359
 10
14.8978765831
 20
5.9755003539
  0
LWPOLYLINE
  5
29F
100
AcDbEntity
  8
0
100
AcDbPolyline
 62
7
  6
CONTINUOUS
 90
12
 70
0
 10
14.7910032686
 20
6.0902484698
 10
14.800192603
 20
6.0798003197
 10
14.8111243209
 20
6.0685602802
 10
14.8227002046
 20
6.0578758632
 10
14.8348208241
 20
6.0478488216
 10
14.8473697745
 20
6.0385539715
 10
14.860228648
 20
6.0300369655
 10
14.873382774
 20
6.0223158986
 10
14.8868591627
 20
6.0154104142
 10
14.9006672369
 20
6.0093323093
 10
14.9148230886
 20
6.0040759215
 10
14.9273079529
 20
6.0001962044
  0
LINE
  5
2A0
100
AcDbEntity
  8
0
100
AcDbLine
 62
7
  6
CONTINUOUS
 10
12.5108860013
 20
8.667603987
 11
13.3004491706
 21
9.3301261512
  0
LINE
  5
2A1
100
AcDbEntity
  8
0
100
AcDbLine
 62
9
  6
CONTINUOUS
 10
12.6209434959
 20
8.5771961697
 11
13.3703722067
 21
9.2060415245
  0
LINE
  5
2A2
100
AcDbEntity
  8
0
100
AcDbLine
 62
7
  6
CONTINUOUS
 10
15.310735965
 20
10.5566481858
 11
16.4743779398
 21
10.5566481858
  0
LINE
  5
2A3
100
AcDbEntity
  8
0
100
AcDbLine
 62
7
  6
CONTINUOUS
 10
13.1728052146
 20
9.2035573304
 11
13.1582814377
 21
9.2108332589
  0
LINE
  5
2A4
100
AcDbEntity
  8
0
100
AcDbLine
 62
7
  6
CONTINUOUS
 10
16.5337204742
 20
4.9411481858
 11
16.5490570345
 21
4.9258558041
  0
LWPOLYLINE
  5
2A5
100
AcDbEntity
  8
0
100
AcDbPolyline
 62
7
  6
CONTINUOUS
 90
9
 70
0
 10
14.8417839772
 20
6.1328585436
 10
14.8518316757
 20
6.1213747368
 10
14.863589233
 20
6.109083966
 10
14.8759375512
 20
6.0973517648
 10
14.8887570429
 20
6.0862948281
 10
14.9019109252
 20
6.076000013
 10
14.9152849584
 20
6.0665254828
 10
14.9288379062
 20
6.0579304652
 10
14.9397363162
 20
6.0517376069
  0
LINE
  5
2A6
100
AcDbEntity
  8
0
100
AcDbLine
 62
7
  6
CONTINUOUS
 10
15.2203719554
 20
5.4780031459
 11
14.931117531
 21
5.8227231453
  0
LINE
  5
2A7
100
AcDbEntity
  8
0
100
AcDbLine
 62
7
  6
CONTINUOUS
 10
12.6209434959
 20
8.5771961697
 11
14.7421426079
 21
6.0492495074
  0
LINE
  5
2A8
100
AcDbEntity
  8
0
100
AcDbLine
 62
7
  6
CONTINUOUS
 10
15.3670392566
 20
5.3071011724
 11
15.2351428187
 21
5.4642892261
  0
LINE
  5
2A9
100
AcDbEntity
  8
0
100
AcDbLine
 62
7
  6
CONTINUOUS
 10
12.6358557107
 20
8.5897090036
 11
14.7570548227
 21
6.0617623413
  0
LINE
  5
2AA
100
AcDbEntity
  8
0
100
AcDbLine
 62
7
  6
CONTINUOUS
 10
12.6698041566
 20
8.6181951321
 11
14.7910032686
 21
6.0902484698
  0
LINE
  5
2AB
100
AcDbEntity
  8
0
100
AcDbLine
 62
7
  6
CONTINUOUS
 10
12.7205848653
 20
8.6608052059
 11
14.8417839772
 21
6.1328585436
  0
LINE
  5
2AC
100
AcDbEntity
  8
0
100
AcDbLine
 62
7
  6
CONTINUOUS
 10
14.9071388933
 20
6.1876978296
 11
12.7859397813
 21
8.7156444919
  0
LINE
  5
2AD
100
AcDbEntity
  8
0
100
AcDbLine
 62
7
  6
CONTINUOUS
 10
14.9855124452
 20
6.2534610481
 11
12.8643133332
 21
8.7814077104
  0
LINE
  5
2AE
100
AcDbEntity
  8
0
100
AcDbLine
 62
7
  6
CONTINUOUS
 10
15.4060251115
 20
5.8034875884
 11
15.2003330764
 21
6.0486218102
  0
LINE
  5
2AF
100
AcDbEntity
  8
0
100
AcDbLine
 62
7
  6
CONTINUOUS
 10
15.0721388562
 20
6.3261492376
 11
12.9509397442
 21
8.8540958999
  0
LINE
  5
2B0
100
AcDbEntity
  8
0
100
AcDbLine
 62
7
  6
CONTINUOUS
 10
11.9428838868
 20
9.3975795884
 11
12.5108862567
 21
8.667604171
  0
LINE
  5
2B1
100
AcDbEntity
  8
0
100
AcDbLine
 62
7
  6
CONTINUOUS
 10
10.3484108507
 20
10.8741173236
 11
10.3484137108
 21
10.8741175941
  0
LWPOLYLINE
  5
2B2
100
AcDbEntity
  8
0
100
AcDbPolyline
 62
7
  6
CONTINUOUS
 90
3
 70
0
 10
10.3981514557
 20
10.8763373295
 10
10.3718277746
 20
10.8757811751
 10
10.3484137108
 20
10.8741175941
  0
LINE
  5
2B3
100
AcDbEntity
  8
0
100
AcDbLine
 62
7
  6
CONTINUOUS
 10
16.4743779398
 20
10.8080060466
 11
15.3107361293
 21
10.8080060466
  0
LINE
  5
2B4
100
AcDbEntity
  8
0
100
AcDbLine
 62
9
  6
CONTINUOUS
 10
16.415594129
 20
10.9340338483
 11
15.3695198993
 21
10.9340338788
  0
LINE
  5
2B5
100
AcDbEntity
  8
0
100
AcDbLine
 62
7
  6
CONTINUOUS
 10
15.0236236593
 20
11.1376481858
 11
14.5563944419
 21
11.1376481858
  0
LINE
  5
2B6
100
AcDbEntity
  8
0
100
AcDbLine
 62
7
  6
CONTINUOUS
 10
15.1496236593
 20
11.1951481858
 11
15.1102478476
 21
11.1951481858
  0
LINE
  5
2B7
100
AcDbEntity
  8
0
100
AcDbLine
 62
7
  6
CONTINUOUS
 10
11.7045570345
 20
11.2576481858
 11
14.3246236593
 21
11.2576481858
  0
LINE
  5
2B8
100
AcDbEntity
  8
0
100
AcDbLine
 62
7
  6
CONTINUOUS
 10
10.4237734523
 20
10.8755467931
 11
10.3981514557
 21
10.8763373295
  0
LINE
  5
2B9
100
AcDbEntity
  8
0
100
AcDbLine
 62
7
  6
CONTINUOUS
 10
10.7880226566
 20
10.8322042564
 11
10.7611646653
 21
10.8369713415
  0
LINE
  5
2BA
100
AcDbEntity
  8
0
100
AcDbLine
 62
7
  6
CONTINUOUS
 10
11.009345389
 20
10.7830752744
 11
10.9251725359
 21
10.8038555644
  0
LINE
  5
2BB
100
AcDbEntity
  8
0
100
AcDbLine
 62
7
  6
CONTINUOUS
 10
11.0918877742
 20
10.7601287868
 11
11.009345389
 21
10.7830752744
  0
LINE
  5
2BC
100
AcDbEntity
  8
0
100
AcDbLine
 62
7
  6
CONTINUOUS
 10
12.5443257387
 20
9.9022492245
 11
13.3004490417
 21
9.330125864
  0
LINE
  5
2BD
100
AcDbEntity
  8
0
100
AcDbLine
 62
7
  6
CONTINUOUS
 10
12.340718842
 20
10.0563334031
 11
12.0356738451
 21
10.2870903732
  0
LINE
  5
2BE
100
AcDbEntity
  8
0
100
AcDbLine
 62
7
  6
CONTINUOUS
 10
12.544325739
 20
9.9022492243
 11
12.340718842
 21
10.0563334031
  0
LINE
  5
2BF
100
AcDbEntity
  8
0
100
AcDbLine
 62
7
  6
CONTINUOUS
 10
12.045513159
 20
10.27967752
 11
12.0455090388
 21
10.2796807773
  0
LWPOLYLINE
  5
2C0
100
AcDbEntity
  8
0
100
AcDbPolyline
 62
7
  6
CONTINUOUS
 90
10
 70
0
 10
13.3703722067
 20
9.2060415245
 10
13.3603721522
 20
9.2172588878
 10
13.3482270726
 20
9.2292334243
 10
13.3351900685
 20
9.2404304933
 10
13.3214303433
 20
9.2507105701
 10
13.3071398549
 20
9.2599867999
 10
13.2924039324
 20
9.2682193007
 10
13.2772386136
 20
9.2753635755
 10
13.2616802873
 20
9.2814023365
 10
13.2476537771
 20
9.285825556
  0
LWPOLYLINE
  5
2C1
100
AcDbEntity
  8
0
100
AcDbPolyline
 62
7
  6
CONTINUOUS
 90
10
 70
0
 10
13.3554599919
 20
9.1935286906
 10
13.3454740588
 20
9.204761747
 10
13.3333851551
 20
9.2167855742
 10
13.320447422
 20
9.2280665158
 10
13.3068288897
 20
9.2384641371
 10
13.2927186116
 20
9.2478892436
 10
13.2782000014
 20
9.2563012021
 10
13.2632884399
 20
9.2636562479
 10
13.2480186319
 20
9.269936743
 10
13.2342735696
 20
9.2745982288
  0
LWPOLYLINE
  5
2C2
100
AcDbEntity
  8
0
100
AcDbPolyline
 62
7
  6
CONTINUOUS
 90
10
 70
0
 10
13.321511546
 20
9.1650425621
 10
13.3115695923
 20
9.1762992312
 10
13.2996213322
 20
9.1884263087
 10
13.2869216286
 20
9.1998932814
 10
13.273633867
 20
9.2105581896
 10
13.259938614
 20
9.2203265263
 10
13.2459146195
 20
9.2291550038
 10
13.2315757984
 20
9.2370001445
 10
13.2169532501
 20
9.2438422261
 10
13.2038346956
 20
9.2490569808
  0
LWPOLYLINE
  5
2C3
100
AcDbEntity
  8
0
100
AcDbPolyline
 62
7
  6
CONTINUOUS
 90
10
 70
0
 10
13.2707308374
 20
9.1224324882
 10
13.2615714813
 20
9.1329354925
 10
13.250644282
 20
9.1444706834
 10
13.2391735028
 20
9.1555500405
 10
13.2272774807
 20
9.1660574853
 10
13.2150899123
 20
9.1759038414
 10
13.2027129069
 20
9.1850327213
 10
13.190192188
 20
9.1933863148
 10
13.1775825398
 20
9.2009237791
 10
13.1728052146
 20
9.2035573304
  0
LINE
  5
2C4
100
AcDbEntity
  8
0
100
AcDbLine
 62
7
  6
CONTINUOUS
 10
15.1615750704
 20
6.4011951319
 11
13.0403759584
 21
8.9291417942
  0
LINE
  5
2C5
100
AcDbEntity
  8
0
100
AcDbLine
 62
7
  6
CONTINUOUS
 10
15.6183175749
 20
5.9816221161
 11
15.4126255398
 21
6.2267563379
  0
LINE
  5
2C6
100
AcDbEntity
  8
0
100
AcDbLine
 62
7
  6
CONTINUOUS
 10
15.2482014814
 20
6.4738833215
 11
13.1270023694
 21
9.0018299838
  0
LINE
  5
2C7
100
AcDbEntity
  8
0
100
AcDbLine
 62
7
  6
CONTINUOUS
 10
15.3265750333
 20
6.53964654
 11
13.2053759213
 21
9.0675932023
  0
LINE
  5
2C8
100
AcDbEntity
  8
0
100
AcDbLine
 62
7
  6
CONTINUOUS
 10
15.3919299493
 20
6.5944858259
 11
13.2707308374
 21
9.1224324882
  0
LINE
  5
2C9
100
AcDbEntity
  8
0
100
AcDbLine
 62
7
  6
CONTINUOUS
 10
15.442710658
 20
6.6370958998
 11
13.321511546
 21
9.1650425621
  0
LINE
  5
2CA
100
AcDbEntity
  8
0
100
AcDbLine
 62
7
  6
CONTINUOUS
 10
15.4766591039
 20
6.6655820283
 11
13.3554599919
 21
9.1935286906
  0
LINE
  5
2CB
100
AcDbEntity
  8
0
100
AcDbLine
 62
7
  6
CONTINUOUS
 10
16.1139325886
 20
5.9338190918
 11
15.9820361507
 21
6.0910071455
  0
LINE
  5
2CC
100
AcDbEntity
  8
0
100
AcDbLine
 62
7
  6
CONTINUOUS
 10
15.4915713187
 20
6.6780948622
 11
13.3703722067
 21
9.2060415245
  0
LINE
  5
2CD
100
AcDbEntity
  8
0
100
AcDbLine
 62
7
  6
CONTINUOUS
 10
15.9710955096
 20
6.1079350034
 11
15.6818410853
 21
6.4526550028
  0
LWPOLYLINE
  5
2CE
100
AcDbEntity
  8
0
100
AcDbPolyline
 62
7
  6
CONTINUOUS
 90
10
 70
0
 10
12.6576971212
 20
8.7713302284
 10
12.6592368167
 20
8.7668068998
 10
12.6644676199
 20
8.7529957497
 10
12.6705252741
 20
8.7391345425
 10
12.6773804344
 20
8.7252817688
 10
12.6849848862
 20
8.7114894113
 10
12.6933010195
 20
8.6978664348
 10
12.7022634224
 20
8.6845634483
 10
12.7117765272
 20
8.6717206499
 10
12.7205848653
 20
8.6608052059
  0
LINE
  5
2CF
100
AcDbEntity
  8
0
100
AcDbLine
 62
7
  6
CONTINUOUS
 10
12.6576971212
 20
8.7713302284
 11
12.6530537343
 21
8.7868968793
  0
LWPOLYLINE
  5
2D0
100
AcDbEntity
  8
0
100
AcDbPolyline
 62
7
  6
CONTINUOUS
 90
10
 70
0
 10
12.6075004764
 20
8.7486731574
 10
12.6103579941
 20
8.7348483705
 10
12.6145569502
 20
8.7192598566
 10
12.6197929955
 20
8.7037765801
 10
12.6260521075
 20
8.6884325925
 10
12.6332938855
 20
8.6732491473
 10
12.6414893742
 20
8.6583113148
 10
12.6505768574
 20
8.6438133293
 10
12.6604449038
 20
8.6299407452
 10
12.6698041566
 20
8.6181951321
  0
LWPOLYLINE
  5
2D1
100
AcDbEntity
  8
0
100
AcDbPolyline
 62
7
  6
CONTINUOUS
 90
10
 70
0
 10
12.5770616023
 20
8.7231319094
 10
12.5792654646
 20
8.708786207
 10
12.5827989706
 20
8.6926577852
 10
12.5874529112
 20
8.6766955735
 10
12.593215943
 20
8.6609368124
 10
12.6000476368
 20
8.6454042485
 10
12.6079224616
 20
8.6301870843
 10
12.6167854066
 20
8.6154869895
 10
12.6265273487
 20
8.6014938278
 10
12.6358557107
 20
8.5897090036
  0
LWPOLYLINE
  5
2D2
100
AcDbEntity
  8
0
100
AcDbPolyline
 62
7
  6
CONTINUOUS
 90
10
 70
0
 10
12.5636813948
 20
8.7119045823
 10
12.5656017377
 20
8.6973230823
 10
12.5688470814
 20
8.6809525021
 10
12.5732493886
 20
8.6647769882
 10
12.5787979531
 20
8.6488353787
 10
12.5854517388
 20
8.6331511946
 10
12.593186287
 20
8.6178153939
 10
12.6019493954
 20
8.6030321006
 10
12.6116330408
 20
8.5889921756
 10
12.6209434959
 20
8.5771961697
  0
LINE
  5
2D3
100
AcDbEntity
  8
0
100
AcDbLine
 62
7
  6
CONTINUOUS
 10
17.2605570345
 20
11.3516481858
 11
17.2245570345
 21
11.3516481858
  0
LINE
  5
2D4
100
AcDbEntity
  8
0
100
AcDbLine
 62
7
  6
CONTINUOUS
 10
16.9115570345
 20
11.4301481858
 11
16.7575570345
 21
11.4301481858
  0
LINE
  5
2D5
100
AcDbEntity
  8
0
100
AcDbLine
 62
7
  6
CONTINUOUS
 10
17.1645570345
 20
11.4541481858
 11
17.1335570345
 21
11.4541481858
  0
LINE
  5
2D6
100
AcDbEntity
  8
0
100
AcDbLine
 62
7
  6
CONTINUOUS
 10
17.1645570345
 20
11.8111481858
 11
17.1335570345
 21
11.8111481858
  0
LINE
  5
2D7
100
AcDbEntity
  8
0
100
AcDbLine
 62
7
  6
CONTINUOUS
 10
16.9115570345
 20
11.8351481858
 11
16.7575570345
 21
11.8351481858
  0
LINE
  5
2D8
100
AcDbEntity
  8
0
100
AcDbLine
 62
7
  6
CONTINUOUS
 10
16.4200570345
 20
6.9009322829
 11
16.3978374558
 21
6.9231518617
  0
LINE
  5
2D9
100
AcDbEntity
  8
0
100
AcDbLine
 62
7
  6
CONTINUOUS
 10
16.3978374558
 20
6.9481518617
 11
16.4200570346
 21
6.9259322829
  0
LINE
  5
2DA
100
AcDbEntity
  8
0
100
AcDbLine
 62
7
  6
CONTINUOUS
 10
16.4330570345
 20
5.4902646246
 11
16.5071910288
 21
5.3843469973
  0
LINE
  5
2DB
100
AcDbEntity
  8
0
100
AcDbLine
 62
7
  6
CONTINUOUS
 10
17.2605570345
 20
11.9136481858
 11
17.2245570345
 21
11.9136481858
  0
LINE
  5
2DC
100
AcDbEntity
  8
0
100
AcDbLine
 62
7
  6
CONTINUOUS
 10
11.7045570345
 20
12.0076481858
 11
14.3246236593
 21
12.0076481858
  0
LINE
  5
2DD
100
AcDbEntity
  8
0
100
AcDbLine
 62
7
  6
CONTINUOUS
 10
15.1102478476
 20
12.0701481858
 11
15.1496236593
 21
12.0701481858
  0
LINE
  5
2DE
100
AcDbEntity
  8
0
100
AcDbLine
 62
7
  6
CONTINUOUS
 10
15.0236236593
 20
12.1276481858
 11
14.5563944419
 21
12.1276481858
  0
LINE
  5
2DF
100
AcDbEntity
  8
0
100
AcDbLine
 62
7
  6
CONTINUOUS
 10
14.3246236593
 20
12.0626481858
 11
14.3246236593
 21
11.2026481858
  0
LINE
  5
2E0
100
AcDbEntity
  8
0
100
AcDbLine
 62
7
  6
CONTINUOUS
 10
14.4725570345
 20
4.3247989859
 11
14.4725570345
 21
4.1376481858
  0
LINE
  5
2E1
100
AcDbEntity
  8
0
100
AcDbLine
 62
7
  6
CONTINUOUS
 10
14.5563944419
 20
12.1276481858
 11
14.5563944419
 21
11.1376481858
  0
LINE
  5
2E2
100
AcDbEntity
  8
0
100
AcDbLine
 62
7
  6
CONTINUOUS
 10
14.5600570345
 20
4.4626481858
 11
14.5600570345
 21
4.4185739826
  0
LINE
  5
2E3
100
AcDbEntity
  8
0
100
AcDbLine
 62
7
  6
CONTINUOUS
 10
14.6325570345
 20
4.7626481858
 11
14.6325570345
 21
4.7156481858
  0
LINE
  5
2E4
100
AcDbEntity
  8
0
100
AcDbLine
 62
7
  6
CONTINUOUS
 10
14.6325570345
 20
4.5096481858
 11
14.6325570345
 21
4.4626481858
  0
LINE
  5
2E5
100
AcDbEntity
  8
0
100
AcDbLine
 62
7
  6
CONTINUOUS
 10
15.4380470784
 20
6.9646481858
 11
15.3872766133
 21
6.9481518617
  0
LINE
  5
2E6
100
AcDbEntity
  8
0
100
AcDbLine
 62
7
  6
CONTINUOUS
 10
15.3872766133
 20
6.9231518617
 11
15.4380470784
 21
6.9396481858
  0
LINE
  5
2E7
100
AcDbEntity
  8
0
100
AcDbLine
 62
7
  6
CONTINUOUS
 10
15.5870572017
 20
12.4496481858
 11
16.1980570038
 21
12.4496481858
  0
LINE
  5
2E8
100
AcDbEntity
  8
0
100
AcDbLine
 62
7
  6
CONTINUOUS
 10
16.1425570345
 20
12.4646481858
 11
15.6425570345
 21
12.4646481858
  0
LINE
  5
2E9
100
AcDbEntity
  8
0
100
AcDbLine
 62
7
  6
CONTINUOUS
 10
15.6425570345
 20
12.8396481858
 11
16.1425570345
 21
12.8396481858
  0
LINE
  5
2EA
100
AcDbEntity
  8
0
100
AcDbLine
 62
7
  6
CONTINUOUS
 10
16.2385570345
 20
12.9026481858
 11
15.5465570345
 21
12.9026481858
  0
LWPOLYLINE
  5
2EB
100
AcDbEntity
  8
0
100
AcDbPolyline
 62
7
  6
CONTINUOUS
 90
9
 70
0
 10
15.4548089825
 20
6.4839358513
 10
15.4502097079
 20
6.4967701185
 10
15.4441021768
 20
6.5114597577
 10
15.4371152294
 20
6.5261295962
 10
15.4293012247
 20
6.5407218928
 10
15.4206973867
 20
6.5551130064
 10
15.4113642015
 20
6.5691592685
 10
15.4013930134
 20
6.5827282851
 10
15.3919299493
 20
6.5944858259
  0
LINE
  5
2EC
100
AcDbEntity
  8
0
100
AcDbLine
 62
9
  6
CONTINUOUS
 10
15.0236236593
 20
11.1376481858
 11
15.0236236593
 21
12.1276481858
  0
LINE
  5
2ED
100
AcDbEntity
  8
0
100
AcDbLine
 62
9
  6
CONTINUOUS
 10
15.0669357535
 20
11.1663981858
 11
15.0669357535
 21
12.0988981858
  0
LINE
  5
2EE
100
AcDbEntity
  8
0
100
AcDbLine
 62
7
  6
CONTINUOUS
 10
15.0825570345
 20
5.4246481858
 11
15.0825570345
 21
5.1776094706
  0
LINE
  5
2EF
100
AcDbEntity
  8
0
100
AcDbLine
 62
9
  6
CONTINUOUS
 10
15.1102478476
 20
12.0701481858
 11
15.1102478476
 21
11.1951481858
  0
LINE
  5
2F0
100
AcDbEntity
  8
0
100
AcDbLine
 62
7
  6
CONTINUOUS
 10
15.1496236593
 20
11.1748807877
 11
15.1496236593
 21
12.0898807877
  0
LINE
  5
2F1
100
AcDbEntity
  8
0
100
AcDbLine
 62
7
  6
CONTINUOUS
 10
15.1788906766
 20
5.4746481858
 11
15.1788906766
 21
5.4246481858
  0
LINE
  5
2F2
100
AcDbEntity
  8
0
100
AcDbLine
 62
7
  6
CONTINUOUS
 10
15.3694064024
 20
6.8271389351
 11
15.3674547018
 21
6.8260112862
  0
LINE
  5
2F3
100
AcDbEntity
  8
0
100
AcDbLine
 62
7
  6
CONTINUOUS
 10
15.3815827375
 20
6.809174149
 11
15.3910570345
 21
6.8146481858
  0
LINE
  5
2F4
100
AcDbEntity
  8
0
100
AcDbLine
 62
7
  6
CONTINUOUS
 10
16.2630570345
 20
6.1786481858
 11
16.4200570345
 21
6.2296481858
  0
LINE
  5
2F5
100
AcDbEntity
  8
0
100
AcDbLine
 62
7
  6
CONTINUOUS
 10
16.2385568746
 20
13.1376481858
 11
15.5465571945
 21
13.1376481858
  0
LINE
  5
2F6
100
AcDbEntity
  8
0
100
AcDbLine
 62
7
  6
CONTINUOUS
 10
16.0205360225
 20
13.2896481858
 11
15.7645780466
 21
13.2896481858
  0
LWPOLYLINE
  5
2F7
100
AcDbEntity
  8
0
100
AcDbPolyline
 62
7
  6
CONTINUOUS
 90
12
 70
0
 10
15.5077257671
 20
6.4872245781
 10
15.5060729655
 20
6.5001934752
 10
15.5033545719
 20
6.5150470298
 10
15.4997665539
 20
6.5297007802
 10
15.4953061297
 20
6.544171557
 10
15.4899865532
 20
6.5584665915
 10
15.4838318596
 20
6.5726090724
 10
15.4768573216
 20
6.5865814098
 10
15.4690873367
 20
6.6002590674
 10
15.4605753711
 20
6.6135144169
 10
15.4514043659
 20
6.6262318699
 10
15.442710658
 20
6.6370958998
  0
LINE
  5
2F8
100
AcDbEntity
  8
0
100
AcDbLine
 62
7
  6
CONTINUOUS
 10
15.5121774623
 20
6.4437726726
 11
15.507725767
 21
6.4872245791
  0
LWPOLYLINE
  5
2F9
100
AcDbEntity
  8
0
100
AcDbPolyline
 62
7
  6
CONTINUOUS
 90
12
 70
0
 10
15.5371571358
 20
6.5119204299
 10
15.5361917339
 20
6.5254493355
 10
15.5342002091
 20
6.5408977158
 10
15.5312632699
 20
6.5560856266
 10
15.5273784752
 20
6.5710311571
 10
15.5225594843
 20
6.5857422917
 10
15.516832096
 20
6.6002439248
 10
15.5102107744
 20
6.6145180858
 10
15.5027142762
 20
6.628434844
 10
15.4943924987
 20
6.6418623309
 10
15.4853277389
 20
6.6546829636
 10
15.4766591039
 20
6.6655820283
  0
LWPOLYLINE
  5
2FA
100
AcDbEntity
  8
0
100
AcDbPolyline
 62
7
  6
CONTINUOUS
 90
12
 70
0
 10
15.5500969411
 20
6.5227782157
 10
15.5494309128
 20
6.5365602321
 10
15.5477551395
 20
6.5522755022
 10
15.5451002296
 20
6.5677021363
 10
15.5414642775
 20
6.5828585691
 10
15.5368615796
 20
6.5977529684
 10
15.5313192069
 20
6.6124108856
 10
15.5248516532
 20
6.6268140755
 10
15.5174754198
 20
6.640830688
 10
15.5092389202
 20
6.6543276145
 10
15.500224154
 20
6.6671869576
 10
15.4915713187
 20
6.6780948622
  0
LINE
  5
2FB
100
AcDbEntity
  8
0
100
AcDbLine
 62
7
  6
CONTINUOUS
 10
15.5392290689
 20
6.4664716657
 11
15.5371571358
 21
6.5119204299
  0
LINE
  5
2FC
100
AcDbEntity
  8
0
100
AcDbLine
 62
7
  6
CONTINUOUS
 10
15.5511275297
 20
6.4764556597
 11
15.5500969411
 21
6.5227782157
  0
LINE
  5
2FD
100
AcDbEntity
  8
0
100
AcDbLine
 62
7
  6
CONTINUOUS
 10
15.2360570345
 20
4.9246481858
 11
15.2360570345
 21
4.92585589
  0
LINE
  5
2FE
100
AcDbEntity
  8
0
100
AcDbLine
 62
7
  6
CONTINUOUS
 10
15.3450570345
 20
5.0598196172
 11
15.3450570345
 21
4.9246481858
  0
LINE
  5
2FF
100
AcDbEntity
  8
0
100
AcDbLine
 62
7
  6
CONTINUOUS
 10
15.3650570345
 20
6.8296481858
 11
15.3650570345
 21
6.9259322829
  0
LINE
  5
300
100
AcDbEntity
  8
0
100
AcDbLine
 62
7
  6
CONTINUOUS
 10
15.6425570345
 20
12.9026481858
 11
15.6425570345
 21
12.8396481858
  0
LINE
  5
301
100
AcDbEntity
  8
0
100
AcDbLine
 62
7
  6
CONTINUOUS
 10
15.6425570345
 20
12.4646481858
 11
15.6425570345
 21
12.4496481858
  0
LINE
  5
302
100
AcDbEntity
  8
0
100
AcDbLine
 62
9
  6
CONTINUOUS
 10
15.6590889864
 20
4.9369375077
 11
15.6590889864
 21
4.9246481858
  0
LINE
  5
303
100
AcDbEntity
  8
0
100
AcDbLine
 62
9
  6
CONTINUOUS
 10
15.6804102693
 20
4.9369375077
 11
15.6804102693
 21
4.9246481858
  0
LINE
  5
304
100
AcDbEntity
  8
0
100
AcDbLine
 62
7
  6
CONTINUOUS
 10
15.3872766133
 20
6.9481518617
 11
15.3650570345
 21
6.9259322829
  0
LINE
  5
305
100
AcDbEntity
  8
0
100
AcDbLine
 62
7
  6
CONTINUOUS
 10
15.3650570345
 20
6.9009322829
 11
15.3872766133
 21
6.9231518617
  0
LINE
  5
306
100
AcDbEntity
  8
0
100
AcDbLine
 62
9
  6
CONTINUOUS
 10
14.7421426079
 20
6.0492495074
 11
15.4915713187
 21
6.6780948622
  0
LINE
  5
307
100
AcDbEntity
  8
0
100
AcDbLine
 62
9
  6
CONTINUOUS
 10
14.8849367778
 20
5.964642568
 11
15.5500969411
 21
6.5227782157
  0
LINE
  5
308
100
AcDbEntity
  8
0
100
AcDbLine
 62
7
  6
CONTINUOUS
 10
16.3940570345
 20
6.8146481858
 11
16.4200570345
 21
6.8296481858
  0
LINE
  5
309
100
AcDbEntity
  8
0
100
AcDbLine
 62
7
  6
CONTINUOUS
 10
15.8075570345
 20
7.0372845021
 11
15.8075570345
 21
7.0290817886
  0
LINE
  5
30A
100
AcDbEntity
  8
0
100
AcDbLine
 62
7
  6
CONTINUOUS
 10
15.8075570345
 20
7.0256149188
 11
15.8075570345
 21
7.0127899195
  0
LINE
  5
30B
100
AcDbEntity
  8
0
100
AcDbLine
 62
7
  6
CONTINUOUS
 10
15.8303276793
 20
7.0326239892
 11
15.8303276793
 21
7.0353283099
  0
LINE
  5
30C
100
AcDbEntity
  8
0
100
AcDbLine
 62
7
  6
CONTINUOUS
 10
15.8315570345
 20
7.0137004238
 11
15.8315570345
 21
7.0193885687
  0
LINE
  5
30D
100
AcDbEntity
  8
0
100
AcDbLine
 62
7
  6
CONTINUOUS
 10
15.8315570345
 20
7.0257462585
 11
15.8315570345
 21
7.0267546485
  0
LINE
  5
30E
100
AcDbEntity
  8
0
100
AcDbLine
 62
7
  6
CONTINUOUS
 10
15.8315570345
 20
7.0374148519
 11
15.8315570345
 21
7.0384156479
  0
LINE
  5
30F
100
AcDbEntity
  8
0
100
AcDbLine
 62
9
  6
CONTINUOUS
 10
15.8447939088
 20
7.0319099859
 11
15.8447939088
 21
7.0309049674
  0
LINE
  5
310
100
AcDbEntity
  8
0
100
AcDbLine
 62
9
  6
CONTINUOUS
 10
15.84768155
 20
7.0260415027
 11
15.84768155
 21
7.0250326445
  0
LINE
  5
311
100
AcDbEntity
  8
0
100
AcDbLine
 62
9
  6
CONTINUOUS
 10
15.8603276793
 20
7.0389931753
 11
15.8603276793
 21
7.0379927524
  0
LINE
  5
312
100
AcDbEntity
  8
0
100
AcDbLine
 62
7
  6
CONTINUOUS
 10
15.8925570345
 20
6.9877633412
 11
15.8925570345
 21
6.986745686
  0
LINE
  5
313
100
AcDbEntity
  8
0
100
AcDbLine
 62
9
  6
CONTINUOUS
 10
15.9297863898
 20
7.0378806469
 11
15.9297863898
 21
7.0388811421
  0
LINE
  5
314
100
AcDbEntity
  8
0
100
AcDbLine
 62
9
  6
CONTINUOUS
 10
15.9424325191
 20
7.0248784252
 11
15.9424325191
 21
7.0258873846
  0
LINE
  5
315
100
AcDbEntity
  8
0
100
AcDbLine
 62
7
  6
CONTINUOUS
 10
15.9585570345
 20
7.0382107213
 11
15.9585570345
 21
7.0372097928
  0
LINE
  5
316
100
AcDbEntity
  8
0
100
AcDbLine
 62
7
  6
CONTINUOUS
 10
15.9585570345
 20
7.0191810939
 11
15.9585570345
 21
7.013492175
  0
LINE
  5
317
100
AcDbEntity
  8
0
100
AcDbLine
 62
7
  6
CONTINUOUS
 10
15.9585570345
 20
7.0265481677
 11
15.9585570345
 21
7.0255396422
  0
LINE
  5
318
100
AcDbEntity
  8
0
100
AcDbLine
 62
7
  6
CONTINUOUS
 10
15.9765570345
 20
7.0128453715
 11
15.9765570345
 21
7.0256699081
  0
LINE
  5
319
100
AcDbEntity
  8
0
100
AcDbLine
 62
7
  6
CONTINUOUS
 10
15.9765570345
 20
7.0348114398
 11
15.9765570345
 21
7.0373390769
  0
LINE
  5
31A
100
AcDbEntity
  8
0
100
AcDbLine
 62
9
  6
CONTINUOUS
 10
16.1047037998
 20
4.9246481858
 11
16.1047037998
 21
4.9369375077
  0
LINE
  5
31B
100
AcDbEntity
  8
0
100
AcDbLine
 62
9
  6
CONTINUOUS
 10
16.1260250827
 20
4.9246481858
 11
16.1260250827
 21
4.9369375078
  0
LINE
  5
31C
100
AcDbEntity
  8
0
100
AcDbLine
 62
7
  6
CONTINUOUS
 10
16.1425570345
 20
12.9026481858
 11
16.1425570345
 21
12.8396481858
  0
LINE
  5
31D
100
AcDbEntity
  8
0
100
AcDbLine
 62
7
  6
CONTINUOUS
 10
16.1425570345
 20
12.4646481858
 11
16.1425570345
 21
12.4496481858
  0
LINE
  5
31E
100
AcDbEntity
  8
0
100
AcDbLine
 62
7
  6
CONTINUOUS
 10
16.2360570345
 20
5.8246481858
 11
16.2360570345
 21
6.1786481858
  0
LINE
  5
31F
100
AcDbEntity
  8
0
100
AcDbLine
 62
7
  6
CONTINUOUS
 10
14.9303767158
 20
5.9555838807
 11
14.9692017603
 21
5.9881619612
  0
LINE
  5
320
100
AcDbEntity
  8
0
100
AcDbLine
 62
7
  6
CONTINUOUS
 10
14.9693269028
 20
5.9882669683
 11
15.5511274441
 21
6.4764555879
  0
LINE
  5
321
100
AcDbEntity
  8
0
100
AcDbLine
 62
7
  6
CONTINUOUS
 10
15.6536643396
 20
6.4551200517
 11
14.9335827722
 21
5.8508998741
  0
LINE
  5
322
100
AcDbEntity
  8
0
100
AcDbLine
 62
9
  6
CONTINUOUS
 10
15.6818410853
 20
6.4526550028
 11
15.4126255398
 21
6.2267563379
  0
LINE
  5
323
100
AcDbEntity
  8
0
100
AcDbLine
 62
9
  6
CONTINUOUS
 10
15.2003330764
 20
6.0486218102
 11
14.931117531
 21
5.8227231453
  0
LINE
  5
324
100
AcDbEntity
  8
0
100
AcDbLine
 62
7
  6
CONTINUOUS
 10
15.4060251115
 20
5.8034875884
 11
15.6183175749
 21
5.9816221161
  0
LINE
  5
325
100
AcDbEntity
  8
0
100
AcDbLine
 62
7
  6
CONTINUOUS
 10
16.4200570345
 20
6.8296481858
 11
16.4200570345
 21
6.9259322829
  0
LINE
  5
326
100
AcDbEntity
  8
0
100
AcDbLine
 62
7
  6
CONTINUOUS
 10
16.4400570345
 20
5.0598196172
 11
16.4400570345
 21
4.9246481858
  0
LINE
  5
327
100
AcDbEntity
  8
0
100
AcDbLine
 62
7
  6
CONTINUOUS
 10
16.4500570345
 20
6.7436481858
 11
16.4500570345
 21
6.3086481858
  0
LINE
  5
328
100
AcDbEntity
  8
0
100
AcDbLine
 62
7
  6
CONTINUOUS
 10
16.5490570345
 20
4.92585589
 11
16.5490570345
 21
4.9246481858
  0
LINE
  5
329
100
AcDbEntity
  8
0
100
AcDbLine
 62
7
  6
CONTINUOUS
 10
16.6062233925
 20
5.4746481858
 11
16.6062233925
 21
5.4246481858
  0
LINE
  5
32A
100
AcDbEntity
  8
0
100
AcDbLine
 62
7
  6
CONTINUOUS
 10
16.7025570345
 20
5.4246481858
 11
16.7025570345
 21
5.1776094706
  0
LINE
  5
32B
100
AcDbEntity
  8
0
100
AcDbLine
 62
7
  6
CONTINUOUS
 10
16.7575570345
 20
11.8351480221
 11
16.7575570345
 21
11.4301483495
  0
LINE
  5
32C
100
AcDbEntity
  8
0
100
AcDbLine
 62
7
  6
CONTINUOUS
 10
15.2889739476
 20
5.4001357848
 11
15.2779230403
 21
5.3843469973
  0
LINE
  5
32D
100
AcDbEntity
  8
0
100
AcDbLine
 62
7
  6
CONTINUOUS
 10
15.2513935949
 20
4.9411481858
 11
15.2360570345
 21
4.9258558041
  0
LINE
  5
32E
100
AcDbEntity
  8
0
100
AcDbLine
 62
9
  6
CONTINUOUS
 10
15.9710955096
 20
6.1079350034
 11
15.2203719554
 21
5.4780031459
  0
LINE
  5
32F
100
AcDbEntity
  8
0
100
AcDbLine
 62
7
  6
CONTINUOUS
 10
15.235142713
 20
5.4642891374
 11
15.9820362564
 21
6.0910072342
  0
LINE
  5
330
100
AcDbEntity
  8
0
100
AcDbLine
 62
9
  6
CONTINUOUS
 10
15.3670392566
 20
5.3071011724
 11
16.1139325886
 21
5.9338190918
  0
LINE
  5
331
100
AcDbEntity
  8
0
100
AcDbLine
 62
9
  6
CONTINUOUS
 10
16.9115570345
 20
11.4301481858
 11
16.9115570345
 21
11.8351481858
  0
LINE
  5
332
100
AcDbEntity
  8
0
100
AcDbLine
 62
9
  6
CONTINUOUS
 10
16.9497606965
 20
11.450526316
 11
16.9497606965
 21
11.8147700556
  0
LINE
  5
333
100
AcDbEntity
  8
0
100
AcDbLine
 62
9
  6
CONTINUOUS
 10
17.1184574132
 20
11.461033254
 11
17.1184574132
 21
11.8042631176
  0
LINE
  5
334
100
AcDbEntity
  8
0
100
AcDbLine
 62
9
  6
CONTINUOUS
 10
17.1335570345
 20
11.8111481858
 11
17.1335570345
 21
11.4541481858
  0
LINE
  5
335
100
AcDbEntity
  8
0
100
AcDbLine
 62
7
  6
CONTINUOUS
 10
17.1525570345
 20
4.7626481858
 11
17.1525570345
 21
4.7156481858
  0
LINE
  5
336
100
AcDbEntity
  8
0
100
AcDbLine
 62
7
  6
CONTINUOUS
 10
17.1525570345
 20
4.5096481858
 11
17.1525570345
 21
4.4626481858
  0
LINE
  5
337
100
AcDbEntity
  8
0
100
AcDbLine
 62
7
  6
CONTINUOUS
 10
17.1645570345
 20
11.8536481755
 11
17.1645570345
 21
11.4116481961
  0
LINE
  5
338
100
AcDbEntity
  8
0
100
AcDbLine
 62
9
  6
CONTINUOUS
 10
17.2245570345
 20
11.9136481858
 11
17.2245570345
 21
11.3516481858
  0
LINE
  5
339
100
AcDbEntity
  8
0
100
AcDbLine
 62
7
  6
CONTINUOUS
 10
17.2250570345
 20
4.4626481858
 11
17.2250570345
 21
4.4185739826
  0
LINE
  5
33A
100
AcDbEntity
  8
0
100
AcDbLine
 62
9
  6
CONTINUOUS
 10
17.2605570345
 20
11.3516481858
 11
17.2605570345
 21
11.9136481858
  0
LINE
  5
33B
100
AcDbEntity
  8
0
100
AcDbLine
 62
7
  6
CONTINUOUS
 10
17.3125570345
 20
4.3247989859
 11
17.3125570345
 21
4.1376481858
  0
LINE
  5
33C
100
AcDbEntity
  8
0
100
AcDbLine
 62
7
  6
CONTINUOUS
 10
17.3205570345
 20
11.4116481961
 11
17.3205570345
 21
11.8536481755
  0
LINE
  5
33D
100
AcDbEntity
  8
0
100
AcDbLine
 62
7
  6
CONTINUOUS
 10
17.4075570345
 20
11.5196049374
 11
17.4075570345
 21
11.7456914342
  0
ARC
  5
33E
100
AcDbEntity
  8
0
100
AcDbCircle
 62
7
  6
CONTINUOUS
 10
4.2835515577
 20
1.1597434191
 40
12.206406959
100
AcDbArc
 50
24.9542805895
 51
25.1242592548
  0
ARC
  5
33F
100
AcDbEntity
  8
0
100
AcDbCircle
 62
7
  6
CONTINUOUS
 10
6.9319489192
 20
3.8079695962
 40
8.8612701539
100
AcDbArc
 50
16.7709145399
 51
17.0168528055
  0
ARC
  5
340
100
AcDbEntity
  8
0
100
AcDbCircle
 62
7
  6
CONTINUOUS
 10
7.693007466
 20
4.9500702233
 40
7.9140995067
100
AcDbArc
 50
10.6365614337
 51
10.9267676498
  0
ARC
  5
341
100
AcDbEntity
  8
0
100
AcDbCircle
 62
7
  6
CONTINUOUS
 10
7.6901974319
 20
6.6827525048
 40
4.2080573219
100
AcDbArc
 50
55.5697425105
 51
56.2057314873
  0
ARC
  5
342
100
AcDbEntity
  8
0
100
AcDbCircle
 62
7
  6
CONTINUOUS
 10
7.5682090076
 20
10.5076481858
 40
3.375
100
AcDbArc
 50
41.2305771549
 51
165.0
  0
ARC
  5
343
100
AcDbEntity
  8
0
100
AcDbCircle
 62
7
  6
CONTINUOUS
 10
7.5682090076
 20
10.5076481858
 40
2.625
100
AcDbArc
 50
41.2305771549
 51
165.0
  0
ARC
  5
344
100
AcDbEntity
  8
0
100
AcDbCircle
 62
7
  6
CONTINUOUS
 10
4.6949791475
 20
10.1045598941
 40
0.047
100
AcDbArc
 50
255.0
 51
334.9702072738
  0
ARC
  5
345
100
AcDbEntity
  8
0
100
AcDbCircle
 62
7
  6
CONTINUOUS
 10
4.0593999538
 20
10.2748628258
 40
0.047
100
AcDbArc
 50
175.0297927262
 51
255.0
  0
ARC
  5
346
100
AcDbEntity
  8
0
100
AcDbCircle
 62
7
  6
CONTINUOUS
 10
10.3173387422
 20
5.5068544791
 40
4.2080573413
100
AcDbArc
 50
75.5680692175
 51
76.2040581914
  0
ARC
  5
347
100
AcDbEntity
  8
0
100
AcDbCircle
 62
7
  6
CONTINUOUS
 10
10.2555342444
 20
7.9101085791
 40
2.9702166682
100
AcDbArc
 50
76.9706019093
 51
79.6724112623
  0
ARC
  5
348
100
AcDbEntity
  8
0
100
AcDbCircle
 62
7
  6
CONTINUOUS
 10
10.2561102134
 20
7.9143746765
 40
2.9659149121
100
AcDbArc
 50
80.1955390642
 51
86.7593406943
  0
ARC
  5
349
100
AcDbEntity
  8
0
100
AcDbCircle
 62
7
  6
CONTINUOUS
 10
10.2561862231
 20
7.9148281919
 40
2.9655035674
100
AcDbArc
 50
56.0171864141
 51
60.5094916604
  0
ARC
  5
34A
100
AcDbEntity
  8
0
100
AcDbCircle
 62
7
  6
CONTINUOUS
 10
10.2562749557
 20
7.914995307
 40
2.9653153981
100
AcDbArc
 50
53.125057472
 51
56.0168032494
  0
ARC
  5
34B
100
AcDbEntity
  8
0
100
AcDbCircle
 62
7
  6
CONTINUOUS
 10
10.2563325196
 20
7.9150538575
 40
2.9652351209
100
AcDbArc
 50
60.5098056784
 51
61.9130693329
  0
ARC
  5
34C
100
AcDbEntity
  8
0
100
AcDbCircle
 62
7
  6
CONTINUOUS
 10
10.2563860582
 20
7.9151512899
 40
2.9651239562
100
AcDbArc
 50
61.913100391
 51
73.6326578193
  0
ARC
  5
34D
100
AcDbEntity
  8
0
100
AcDbCircle
 62
7
  6
CONTINUOUS
 10
10.2567326553
 20
7.9156091663
 40
2.9645496911
100
AcDbArc
 50
52.8869027376
 51
53.1249956307
  0
ARC
  5
34E
100
AcDbEntity
  8
0
100
AcDbCircle
 62
7
  6
CONTINUOUS
 10
10.2567933292
 20
7.9156501124
 40
2.9645339425
100
AcDbArc
 50
75.2852043632
 51
76.9701622895
  0
ARC
  5
34F
100
AcDbEntity
  8
0
100
AcDbCircle
 62
7
  6
CONTINUOUS
 10
10.2588902248
 20
7.9236225648
 40
2.9562903415
100
AcDbArc
 50
73.7270192247
 51
75.2852636222
  0
ARC
  5
350
100
AcDbEntity
  8
0
100
AcDbCircle
 62
7
  6
CONTINUOUS
 10
11.3997355733
 20
8.7913737998
 40
1.2038326631
100
AcDbArc
 50
45.4937900228
 51
54.4698993366
  0
ARC
  5
351
100
AcDbEntity
  8
0
100
AcDbCircle
 62
7
  6
CONTINUOUS
 10
10.7147028741
 20
10.1303231077
 40
0.9029695368
100
AcDbArc
 50
142.3731155407
 51
167.9683656294
  0
ARC
  5
352
100
AcDbEntity
  8
0
100
AcDbCircle
 62
7
  6
CONTINUOUS
 10
10.3955535602
 20
10.3762462139
 40
0.5000980673
100
AcDbArc
 50
92.6259842066
 51
95.4091286462
  0
ARC
  5
353
100
AcDbEntity
  8
0
100
AcDbCircle
 62
7
  6
CONTINUOUS
 10
10.3955457846
 20
10.3762709673
 40
0.5000731461
100
AcDbArc
 50
86.7641007561
 51
89.6736565326
  0
ARC
  5
354
100
AcDbEntity
  8
0
100
AcDbCircle
 62
7
  6
CONTINUOUS
 10
10.395545793
 20
10.376313469
 40
0.5000306451
100
AcDbArc
 50
89.6736297533
 51
90.3427467218
  0
ARC
  5
355
100
AcDbEntity
  8
0
100
AcDbCircle
 62
7
  6
CONTINUOUS
 10
10.395547936
 20
10.376343195
 40
0.5
100
AcDbArc
 50
95.4095346333
 51
142.373028687
  0
ARC
  5
356
100
AcDbEntity
  8
0
100
AcDbCircle
 62
7
  6
CONTINUOUS
 10
10.3955473914
 20
10.376366207
 40
0.4999779176
100
AcDbArc
 50
90.3429660429
 51
92.62590803
  0
ARC
  5
357
100
AcDbEntity
  8
0
100
AcDbCircle
 62
7
  6
CONTINUOUS
 10
10.7599555089
 20
10.0184027271
 40
0.3243652792
100
AcDbArc
 50
250.307276371
 51
258.7905030548
  0
ARC
  5
358
100
AcDbEntity
  8
0
100
AcDbCircle
 62
7
  6
CONTINUOUS
 10
10.7599555089
 20
10.0184027271
 40
0.3243652792
100
AcDbArc
 50
232.9819688247
 51
241.4665246898
  0
ARC
  5
359
100
AcDbEntity
  8
0
100
AcDbCircle
 62
7
  6
CONTINUOUS
 10
10.4465142102
 20
9.8233143276
 40
0.01
100
AcDbArc
 50
235.8869005307
 51
245.8869005304
  0
ARC
  5
35A
100
AcDbEntity
  8
0
100
AcDbCircle
 62
7
  6
CONTINUOUS
 10
10.8232742831
 20
9.6546780178
 40
0.01
100
AcDbArc
 50
245.8869005304
 51
255.8869005301
  0
ARC
  5
35B
100
AcDbEntity
  8
0
100
AcDbCircle
 62
7
  6
CONTINUOUS
 10
9.9486585415
 20
10.2497053064
 40
0.01
100
AcDbArc
 50
335.8869005304
 51
65.8869005303
  0
ARC
  5
35C
100
AcDbEntity
  8
0
100
AcDbCircle
 62
7
  6
CONTINUOUS
 10
11.4729356729
 20
9.567444926
 40
0.01
100
AcDbArc
 50
65.8869005305
 51
155.8869005304
  0
ARC
  5
35D
100
AcDbEntity
  8
0
100
AcDbCircle
 62
7
  6
CONTINUOUS
 10
11.4524887475
 20
9.5707181913
 40
0.01
100
AcDbArc
 50
255.8869005295
 51
335.8869005304
  0
ARC
  5
35E
100
AcDbEntity
  8
0
100
AcDbCircle
 62
7
  6
CONTINUOUS
 10
9.964721248
 20
10.2366370057
 40
0.01
100
AcDbArc
 50
155.8869005304
 51
235.8869005313
  0
ARC
  5
35F
100
AcDbEntity
  8
0
100
AcDbCircle
 62
7
  6
CONTINUOUS
 10
10.1035476739
 20
10.1184415835
 40
0.01
100
AcDbArc
 50
335.8869005304
 51
55.8869005313
  0
ARC
  5
360
100
AcDbEntity
  8
0
100
AcDbCircle
 62
7
  6
CONTINUOUS
 10
11.2718558944
 20
9.5955114716
 40
0.01
100
AcDbArc
 50
75.8869005295
 51
155.8869005304
  0
ARC
  5
361
100
AcDbEntity
  8
0
100
AcDbCircle
 62
7
  6
CONTINUOUS
 10
11.2505009828
 20
9.5967561528
 40
0.01
100
AcDbArc
 50
255.8869005287
 51
335.8869005304
  0
ARC
  5
362
100
AcDbEntity
  8
0
100
AcDbCircle
 62
7
  6
CONTINUOUS
 10
10.1187023943
 20
10.1033446988
 40
0.01
100
AcDbArc
 50
155.8869005304
 51
235.8869005321
  0
ARC
  5
363
100
AcDbEntity
  8
0
100
AcDbCircle
 62
7
  6
CONTINUOUS
 10
10.2407147337
 20
9.9965388761
 40
0.01
100
AcDbArc
 50
335.8869005304
 51
55.8869005304
  0
ARC
  5
364
100
AcDbEntity
  8
0
100
AcDbCircle
 62
7
  6
CONTINUOUS
 10
11.0895636752
 20
9.6165974667
 40
0.01
100
AcDbArc
 50
75.8869005304
 51
155.8869005304
  0
ARC
  5
365
100
AcDbEntity
  8
0
100
AcDbCircle
 62
7
  6
CONTINUOUS
 10
11.0682087636
 20
9.6178421479
 40
0.01
100
AcDbArc
 50
255.8869005271
 51
335.8869005304
  0
ARC
  5
366
100
AcDbEntity
  8
0
100
AcDbCircle
 62
7
  6
CONTINUOUS
 10
10.2558694541
 20
9.9814419914
 40
0.01
100
AcDbArc
 50
155.8869005304
 51
235.8869005337
  0
ARC
  5
367
100
AcDbEntity
  8
0
100
AcDbCircle
 62
7
  6
CONTINUOUS
 10
10.3904923584
 20
9.8660939691
 40
0.01
100
AcDbArc
 50
335.8869005304
 51
55.8869005305
  0
ARC
  5
368
100
AcDbEntity
  8
0
100
AcDbCircle
 62
7
  6
CONTINUOUS
 10
10.8924997969
 20
9.6413974366
 40
0.01
100
AcDbArc
 50
75.8869005304
 51
155.8869005304
  0
ARC
  5
369
100
AcDbEntity
  8
0
100
AcDbCircle
 62
7
  6
CONTINUOUS
 10
10.8711448853
 20
9.6426421178
 40
0.01
100
AcDbArc
 50
255.8869005303
 51
335.8869005304
  0
ARC
  5
36A
100
AcDbEntity
  8
0
100
AcDbCircle
 62
7
  6
CONTINUOUS
 10
10.4056470788
 20
9.8509970843
 40
0.01
100
AcDbArc
 50
155.8869005304
 51
235.8869005305
  0
ARC
  5
36B
100
AcDbEntity
  8
0
100
AcDbCircle
 62
7
  6
CONTINUOUS
 10
12.6575570345
 20
6.7814836663
 40
2.74
100
AcDbArc
 50
347.4231932474
 51
349.2425008382
  0
ARC
  5
36C
100
AcDbEntity
  8
0
100
AcDbCircle
 62
7
  6
CONTINUOUS
 10
12.6575570345
 20
6.7814836663
 40
2.74
100
AcDbArc
 50
3.5195931141
 51
21.3192166349
  0
ARC
  5
36D
100
AcDbEntity
  8
0
100
AcDbCircle
 62
7
  6
CONTINUOUS
 10
13.0040570345
 20
9.687956514
 40
2.481
100
AcDbArc
 50
332.7675811476
 51
20.4957386309
  0
ARC
  5
36E
100
AcDbEntity
  8
0
100
AcDbCircle
 62
7
  6
CONTINUOUS
 10
11.6912833185
 20
9.2016301145
 40
0.3189028728
100
AcDbArc
 50
37.9118769244
 51
48.7791145228
  0
ARC
  5
36F
100
AcDbEntity
  8
0
100
AcDbCircle
 62
7
  6
CONTINUOUS
 10
11.7045570345
 20
14.1326481858
 40
2.875
100
AcDbArc
 50
221.2305771549
 51
270.0
  0
ARC
  5
370
100
AcDbEntity
  8
0
100
AcDbCircle
 62
7
  6
CONTINUOUS
 10
11.7045570345
 20
14.1326481858
 40
2.125
100
AcDbArc
 50
221.2305771549
 51
270.0
  0
ARC
  5
371
100
AcDbEntity
  8
0
100
AcDbCircle
 62
7
  6
CONTINUOUS
 10
5.0148693502
 20
10.778738289
 40
0.094
100
AcDbArc
 50
271.7747442641
 51
75.0
  0
ARC
  5
372
100
AcDbEntity
  8
0
100
AcDbCircle
 62
7
  6
CONTINUOUS
 10
4.1194561093
 20
11.0186635438
 40
0.094
100
AcDbArc
 50
75.0
 51
238.2252557359
  0
ARC
  5
373
100
AcDbEntity
  8
0
100
AcDbCircle
 62
7
  6
CONTINUOUS
 10
15.2425570345
 20
5.2026481858
 40
1.1375
100
AcDbArc
 50
0.0
 51
40.0
  0
ARC
  5
374
100
AcDbEntity
  8
0
100
AcDbCircle
 62
7
  6
CONTINUOUS
 10
15.0887790657
 20
4.6776481858
 40
0.5
100
AcDbArc
 50
90.713010655
 51
170.2121809433
  0
ARC
  5
375
100
AcDbEntity
  8
0
100
AcDbCircle
 62
7
  6
CONTINUOUS
 10
15.4450321556
 20
5.2673837826
 40
0.2039751211
100
AcDbArc
 50
145.0110095298
 51
213.0478355064
  0
ARC
  5
376
100
AcDbEntity
  8
0
100
AcDbCircle
 62
7
  6
CONTINUOUS
 10
14.8996931457
 20
4.1376481858
 40
0.1871361111
100
AcDbArc
 50
92.1854050713
 51
180.0
  0
ARC
  5
377
100
AcDbEntity
  8
0
100
AcDbCircle
 62
7
  6
CONTINUOUS
 10
14.8995569886
 20
4.1377792461
 40
0.187
100
AcDbArc
 50
92.1452489224
 51
180.0401561489
  0
ARC
  5
378
100
AcDbEntity
  8
0
100
AcDbCircle
 62
7
  6
CONTINUOUS
 10
15.0795543607
 20
4.3256481858
 40
0.187
100
AcDbArc
 50
142.4881877779
 51
180.3063960032
  0
ARC
  5
379
100
AcDbEntity
  8
0
100
AcDbCircle
 62
7
  6
CONTINUOUS
 10
15.1302825009
 20
5.0626091612
 40
0.1715245336
100
AcDbArc
 50
314.9173576842
 51
33.0478355064
  0
ARC
  5
37A
100
AcDbEntity
  8
0
100
AcDbCircle
 62
7
  6
CONTINUOUS
 10
15.2425570345
 20
5.2026481858
 40
0.1625
100
AcDbArc
 50
0.0
 51
40.0
  0
ARC
  5
37B
100
AcDbEntity
  8
0
100
AcDbCircle
 62
7
  6
CONTINUOUS
 10
14.6694725518
 20
4.6126481858
 40
0.1094155172
100
AcDbArc
 50
109.7178358941
 51
250.2821641059
  0
ARC
  5
37C
100
AcDbEntity
  8
0
100
AcDbCircle
 62
7
  6
CONTINUOUS
 10
15.3050570345
 20
5.2026481858
 40
0.1
100
AcDbArc
 50
314.4270040008
 51
360.0
  0
ARC
  5
37D
100
AcDbEntity
  8
0
100
AcDbCircle
 62
7
  6
CONTINUOUS
 10
15.4450570345
 20
5.0598196172
 40
0.1
100
AcDbArc
 50
134.4270040008
 51
180.0
  0
ARC
  5
37E
100
AcDbEntity
  8
0
100
AcDbCircle
 62
7
  6
CONTINUOUS
 10
14.5355570345
 20
4.3247989859
 40
0.063
100
AcDbArc
 50
93.9651064013
 51
180.0
  0
ARC
  5
37F
100
AcDbEntity
  8
0
100
AcDbCircle
 62
7
  6
CONTINUOUS
 10
15.1627429388
 20
4.8846481858
 40
0.04
100
AcDbArc
 50
90.0
 51
144.0754589747
  0
ARC
  5
380
100
AcDbEntity
  8
0
100
AcDbCircle
 62
7
  6
CONTINUOUS
 10
14.5290570345
 20
4.4185739826
 40
0.031
100
AcDbArc
 50
273.9651064011
 51
360.0
  0
ARC
  5
381
100
AcDbEntity
  8
0
100
AcDbCircle
 62
7
  6
CONTINUOUS
 10
14.9406821046
 20
4.1626481858
 40
0.025
100
AcDbArc
 50
183.8723551763
 51
270.0
  0
ARC
  5
382
100
AcDbEntity
  8
0
100
AcDbCircle
 62
7
  6
CONTINUOUS
 10
15.2356928442
 20
5.4908588981
 40
0.02
100
AcDbArc
 50
220.0
 51
310.0
  0
ARC
  5
383
100
AcDbEntity
  8
0
100
AcDbCircle
 62
7
  6
CONTINUOUS
 10
15.1642582537
 20
6.7517300013
 40
1.36
100
AcDbArc
 50
337.4255442891
 51
340.9862257999
  0
ARC
  5
384
100
AcDbEntity
  8
0
100
AcDbCircle
 62
7
  6
CONTINUOUS
 10
15.1544249898
 20
6.3052021741
 40
1.36
100
AcDbArc
 50
17.6982774827
 51
21.2739720086
  0
ARC
  5
385
100
AcDbEntity
  8
0
100
AcDbCircle
 62
7
  6
CONTINUOUS
 10
15.1544249898
 20
6.3302021741
 40
1.3599999999
100
AcDbArc
 50
17.6982774827
 51
21.2739720087
  0
ARC
  5
386
100
AcDbEntity
  8
0
100
AcDbCircle
 62
7
  6
CONTINUOUS
 10
15.1998477469
 20
6.3992455997
 40
0.2686590224
100
AcDbArc
 50
10.9375857174
 51
18.3748942844
  0
ARC
  5
387
100
AcDbEntity
  8
0
100
AcDbCircle
 62
7
  6
CONTINUOUS
 10
15.0674127474
 20
6.288119377
 40
0.2686589145
100
AcDbArc
 50
241.6252724234
 51
249.0624152195
  0
ARC
  5
388
100
AcDbEntity
  8
0
100
AcDbCircle
 62
7
  6
CONTINUOUS
 10
15.2100570345
 20
5.5957004808
 40
0.125
100
AcDbArc
 50
162.8484554057
 51
255.5620803141
  0
ARC
  5
389
100
AcDbEntity
  8
0
100
AcDbCircle
 62
7
  6
CONTINUOUS
 10
14.8936976206
 20
5.9691115187
 40
0.0775384585
100
AcDbArc
 50
14.2128536322
 51
14.417821453
  0
ARC
  5
38A
100
AcDbEntity
  8
0
100
AcDbCircle
 62
7
  6
CONTINUOUS
 10
15.5439897597
 20
6.5145170962
 40
0.0770892761
100
AcDbArc
 50
245.5814710414
 51
245.9595763664
  0
ARC
  5
38B
100
AcDbEntity
  8
0
100
AcDbCircle
 62
7
  6
CONTINUOUS
 10
14.8943972478
 20
5.969288787
 40
0.076816723
100
AcDbArc
 50
14.0402509128
 51
14.2128041832
  0
ARC
  5
38C
100
AcDbEntity
  8
0
100
AcDbCircle
 62
7
  6
CONTINUOUS
 10
15.1315891242
 20
6.1945604575
 40
0.0714157384
100
AcDbArc
 50
351.2053962356
 51
352.6018806852
  0
ARC
  5
38D
100
AcDbEntity
  8
0
100
AcDbCircle
 62
7
  6
CONTINUOUS
 10
15.2808412905
 20
6.3197978953
 40
0.0714157384
100
AcDbArc
 50
267.3981193142
 51
268.794603764
  0
ARC
  5
38E
100
AcDbEntity
  8
0
100
AcDbCircle
 62
7
  6
CONTINUOUS
 10
15.2055984177
 20
6.255521538
 40
0.0702291871
100
AcDbArc
 50
267.3981563256
 51
268.8185677372
  0
ARC
  5
38F
100
AcDbEntity
  8
0
100
AcDbCircle
 62
7
  6
CONTINUOUS
 10
15.2079547669
 20
6.2574987498
 40
0.0702291871
100
AcDbArc
 50
351.1814322628
 51
352.6018436746
  0
ARC
  5
390
100
AcDbEntity
  8
0
100
AcDbCircle
 62
7
  6
CONTINUOUS
 10
15.0599960324
 20
6.1310071618
 40
0.069914295
100
AcDbArc
 50
353.0813363596
 51
354.4585579065
  0
ARC
  5
391
100
AcDbEntity
  8
0
100
AcDbCircle
 62
7
  6
CONTINUOUS
 10
15.3558579671
 20
6.3792201903
 40
0.0698669732
100
AcDbArc
 50
265.5409756664
 51
266.9191300675
  0
ARC
  5
392
100
AcDbEntity
  8
0
100
AcDbCircle
 62
7
  6
CONTINUOUS
 10
14.996558743
 20
6.0708013215
 40
0.0671612638
100
AcDbArc
 50
357.0969495197
 51
358.4364228436
  0
ARC
  5
393
100
AcDbEntity
  8
0
100
AcDbCircle
 62
7
  6
CONTINUOUS
 10
15.4261468736
 20
6.4311312205
 40
0.067004746
100
AcDbArc
 50
261.562012634
 51
262.9046150042
  0
ARC
  5
394
100
AcDbEntity
  8
0
100
AcDbCircle
 62
7
  6
CONTINUOUS
 10
15.4884638614
 20
6.4752745604
 40
0.0667235971
100
AcDbArc
 50
254.938244301
 51
255.7578264035
  0
ARC
  5
395
100
AcDbEntity
  8
0
100
AcDbCircle
 62
7
  6
CONTINUOUS
 10
14.942475401
 20
6.0170957541
 40
0.0666691512
100
AcDbArc
 50
3.8332575029
 51
5.0612632068
  0
ARC
  5
396
100
AcDbEntity
  8
0
100
AcDbCircle
 62
7
  6
CONTINUOUS
 10
15.2844273465
 20
6.3159676538
 40
0.0663086035
100
AcDbArc
 50
353.0055926835
 51
354.4587089205
  0
ARC
  5
397
100
AcDbEntity
  8
0
100
AcDbCircle
 62
7
  6
CONTINUOUS
 10
15.1347384635
 20
6.1903637674
 40
0.0663086035
100
AcDbArc
 50
265.5412910797
 51
266.9944073163
  0
ARC
  5
398
100
AcDbEntity
  8
0
100
AcDbCircle
 62
7
  6
CONTINUOUS
 10
15.4882514944
 20
6.4744394102
 40
0.065861869
100
AcDbArc
 50
255.7581530165
 51
256.1709053636
  0
ARC
  5
399
100
AcDbEntity
  8
0
100
AcDbCircle
 62
7
  6
CONTINUOUS
 10
15.3553977637
 20
6.3665145047
 40
0.0609395957
100
AcDbArc
 50
356.9586508621
 51
358.4365051702
  0
ARC
  5
39A
100
AcDbEntity
  8
0
100
AcDbCircle
 62
7
  6
CONTINUOUS
 10
15.0726168371
 20
6.1291097365
 40
0.0607991595
100
AcDbArc
 50
261.5617879328
 51
263.043056035
  0
ARC
  5
39B
100
AcDbEntity
  8
0
100
AcDbCircle
 62
7
  6
CONTINUOUS
 10
15.0236150645
 20
6.0777139049
 40
0.056683995
100
AcDbArc
 50
254.9376621647
 51
255.9032746088
  0
ARC
  5
39C
100
AcDbEntity
  8
0
100
AcDbCircle
 62
7
  6
CONTINUOUS
 10
15.414711606
 20
6.4058464083
 40
0.0566343196
100
AcDbArc
 50
3.6141188784
 51
5.0616984207
  0
ARC
  5
39D
100
AcDbEntity
  8
0
100
AcDbCircle
 62
7
  6
CONTINUOUS
 10
15.0234218254
 20
6.0769461135
 40
0.0558922596
100
AcDbArc
 50
255.9037019901
 51
256.3912100208
  0
ARC
  5
39E
100
AcDbEntity
  8
0
100
AcDbCircle
 62
7
  6
CONTINUOUS
 10
14.9464384199
 20
5.8355788975
 40
0.02
100
AcDbArc
 50
130.0
 51
220.0
  0
ARC
  5
39F
100
AcDbEntity
  8
0
100
AcDbCircle
 62
7
  6
CONTINUOUS
 10
15.7299820983
 20
4.2380835598
 40
1.142
100
AcDbArc
 50
356.1276448237
 51
35.9245410253
  0
ARC
  5
3A0
100
AcDbEntity
  8
0
100
AcDbCircle
 62
7
  6
CONTINUOUS
 10
16.0551319708
 20
4.2380835598
 40
1.142
100
AcDbArc
 50
144.0754589747
 51
183.8723551763
  0
ARC
  5
3A1
100
AcDbEntity
  8
0
100
AcDbCircle
 62
9
  6
CONTINUOUS
 10
15.8927084532
 20
4.4262422935
 40
0.5996147766
100
AcDbArc
 50
75.8457522372
 51
90.0144686594
  0
ARC
  5
3A2
100
AcDbEntity
  8
0
100
AcDbCircle
 62
9
  6
CONTINUOUS
 10
15.8923589338
 20
4.4266267676
 40
0.5992286534
100
AcDbArc
 50
89.9810585348
 51
104.1589092384
  0
ARC
  5
3A3
100
AcDbEntity
  8
0
100
AcDbCircle
 62
9
  6
CONTINUOUS
 10
15.8925580863
 20
4.4930030232
 40
0.4975001246
100
AcDbArc
 50
74.4498639587
 51
105.5497021285
  0
ARC
  5
3A4
100
AcDbEntity
  8
0
100
AcDbCircle
 62
7
  6
CONTINUOUS
 10
15.8925612846
 20
5.4888658636
 40
1.5507823863
100
AcDbArc
 50
91.1921097106
 51
93.1422369542
  0
ARC
  5
3A5
100
AcDbEntity
  8
0
100
AcDbCircle
 62
7
  6
CONTINUOUS
 10
15.892557471
 20
5.4889362126
 40
1.5507119732
100
AcDbArc
 50
90.0000161275
 51
91.1920229149
  0
ARC
  5
3A6
100
AcDbEntity
  8
0
100
AcDbCircle
 62
7
  6
CONTINUOUS
 10
15.8925570345
 20
5.4889781703
 40
1.5506700155
100
AcDbArc
 50
88.6231011457
 51
90.0
  0
ARC
  5
3A7
100
AcDbEntity
  8
0
100
AcDbCircle
 62
7
  6
CONTINUOUS
 10
15.8925570345
 20
5.4889781703
 40
1.5506700155
100
AcDbArc
 50
75.2369687319
 51
86.8887057507
  0
ARC
  5
3A8
100
AcDbEntity
  8
0
100
AcDbCircle
 62
7
  6
CONTINUOUS
 10
15.8925570345
 20
5.4639781703
 40
1.5506700155
100
AcDbArc
 50
87.3749745646
 51
92.6250254354
  0
ARC
  5
3A9
100
AcDbEntity
  8
0
100
AcDbCircle
 62
7
  6
CONTINUOUS
 10
15.8925570345
 20
5.4639781703
 40
1.5506700155
100
AcDbArc
 50
75.2369687319
 51
86.5742389704
  0
ARC
  5
3AA
100
AcDbEntity
  8
0
100
AcDbCircle
 62
7
  6
CONTINUOUS
 10
15.8925570345
 20
5.4639781703
 40
1.5506700155
100
AcDbArc
 50
93.4257610296
 51
104.7630312681
  0
ARC
  5
3AB
100
AcDbEntity
  8
0
100
AcDbCircle
 62
7
  6
CONTINUOUS
 10
15.8925570345
 20
5.4889781703
 40
1.550637771
100
AcDbArc
 50
86.8946954693
 51
87.5605752481
  0
ARC
  5
3AC
100
AcDbEntity
  8
0
100
AcDbCircle
 62
7
  6
CONTINUOUS
 10
15.8925570345
 20
5.4889781703
 40
1.550637771
100
AcDbArc
 50
92.2545204889
 51
104.7630312399
  0
ARC
  5
3AD
100
AcDbEntity
  8
0
100
AcDbCircle
 62
7
  6
CONTINUOUS
 10
15.8925570345
 20
5.4889781703
 40
1.5503500401
100
AcDbArc
 50
88.6239946244
 51
91.1911755502
  0
ARC
  5
3AE
100
AcDbEntity
  8
0
100
AcDbCircle
 62
7
  6
CONTINUOUS
 10
15.8925570345
 20
5.4639781703
 40
1.5496700155
100
AcDbArc
 50
92.6267205481
 51
92.6390169465
  0
ARC
  5
3AF
100
AcDbEntity
  8
0
100
AcDbCircle
 62
7
  6
CONTINUOUS
 10
15.8925570345
 20
5.4639781703
 40
1.5496700155
100
AcDbArc
 50
87.3622867644
 51
87.3732794519
  0
ARC
  5
3B0
100
AcDbEntity
  8
0
100
AcDbCircle
 62
7
  6
CONTINUOUS
 10
15.8925570345
 20
5.4889781703
 40
1.5496377502
100
AcDbArc
 50
86.8926895707
 51
87.5590000722
  0
ARC
  5
3B1
100
AcDbEntity
  8
0
100
AcDbCircle
 62
7
  6
CONTINUOUS
 10
15.8925570345
 20
5.4889781703
 40
1.5496377502
100
AcDbArc
 50
92.2559761406
 51
93.1443391817
  0
ARC
  5
3B2
100
AcDbEntity
  8
0
100
AcDbCircle
 62
7
  6
CONTINUOUS
 10
15.8925570345
 20
5.4889781703
 40
1.5493498336
100
AcDbArc
 50
88.6231061521
 51
91.1919446428
  0
ARC
  5
3B3
100
AcDbEntity
  8
0
100
AcDbCircle
 62
7
  6
CONTINUOUS
 10
15.8925570345
 20
5.4889781703
 40
1.5492001959
100
AcDbArc
 50
88.6229731319
 51
91.1920597897
  0
ARC
  5
3B4
100
AcDbEntity
  8
0
100
AcDbCircle
 62
7
  6
CONTINUOUS
 10
15.8925570345
 20
5.4889781703
 40
1.5481138514
100
AcDbArc
 50
86.889627857
 51
87.5565957966
  0
ARC
  5
3B5
100
AcDbEntity
  8
0
100
AcDbCircle
 62
7
  6
CONTINUOUS
 10
15.8925570345
 20
5.4889781703
 40
1.5389858664
100
AcDbArc
 50
86.871161409
 51
87.5420946835
  0
ARC
  5
3B6
100
AcDbEntity
  8
0
100
AcDbCircle
 62
7
  6
CONTINUOUS
 10
15.8925570345
 20
5.4889781703
 40
1.5389858664
100
AcDbArc
 50
92.2715987345
 51
93.1661244052
  0
ARC
  5
3B7
100
AcDbEntity
  8
0
100
AcDbCircle
 62
7
  6
CONTINUOUS
 10
15.8925570345
 20
5.4889781703
 40
1.5379782693
100
AcDbArc
 50
86.8691095275
 51
87.5404834123
  0
ARC
  5
3B8
100
AcDbEntity
  8
0
100
AcDbCircle
 62
7
  6
CONTINUOUS
 10
15.8925570345
 20
5.4889781703
 40
1.5379782693
100
AcDbArc
 50
92.2730877396
 51
93.1682007883
  0
ARC
  5
3B9
100
AcDbEntity
  8
0
100
AcDbCircle
 62
7
  6
CONTINUOUS
 10
15.8925570345
 20
5.4889781703
 40
1.5377182762
100
AcDbArc
 50
88.1413005928
 51
91.6723095547
  0
ARC
  5
3BA
100
AcDbEntity
  8
0
100
AcDbCircle
 62
7
  6
CONTINUOUS
 10
15.8925570345
 20
5.4889781703
 40
1.536709848
100
AcDbArc
 50
88.1400804383
 51
91.6734072789
  0
ARC
  5
3BB
100
AcDbEntity
  8
0
100
AcDbCircle
 62
7
  6
CONTINUOUS
 10
15.8925570345
 20
5.4889781703
 40
1.5325626806
100
AcDbArc
 50
87.7562904206
 51
92.0566497773
  0
ARC
  5
3BC
100
AcDbEntity
  8
0
100
AcDbCircle
 62
7
  6
CONTINUOUS
 10
16.6963350034
 20
4.6776481858
 40
0.5
100
AcDbArc
 50
9.7878190567
 51
89.286989345
  0
ARC
  5
3BD
100
AcDbEntity
  8
0
100
AcDbCircle
 62
7
  6
CONTINUOUS
 10
16.7055597084
 20
4.3256481858
 40
0.187
100
AcDbArc
 50
359.6936039968
 51
37.5118122221
  0
ARC
  5
3BE
100
AcDbEntity
  8
0
100
AcDbCircle
 62
7
  6
CONTINUOUS
 10
16.3400819135
 20
5.2673837826
 40
0.2039751211
100
AcDbArc
 50
326.9521644936
 51
34.9889904702
  0
ARC
  5
3BF
100
AcDbEntity
  8
0
100
AcDbCircle
 62
7
  6
CONTINUOUS
 10
16.6548315682
 20
5.0626091612
 40
0.1715245336
100
AcDbArc
 50
146.9521644936
 51
225.0826423158
  0
ARC
  5
3C0
100
AcDbEntity
  8
0
100
AcDbCircle
 62
7
  6
CONTINUOUS
 10
16.4800570345
 20
5.2026481858
 40
0.1
100
AcDbArc
 50
180.0
 51
225.5729959992
  0
ARC
  5
3C1
100
AcDbEntity
  8
0
100
AcDbCircle
 62
7
  6
CONTINUOUS
 10
16.3400570345
 20
5.0598196172
 40
0.1
100
AcDbArc
 50
0.0
 51
45.5729959992
  0
ARC
  5
3C2
100
AcDbEntity
  8
0
100
AcDbCircle
 62
7
  6
CONTINUOUS
 10
16.6223711303
 20
4.8846481858
 40
0.04
100
AcDbArc
 50
35.9245410253
 51
90.0
  0
ARC
  5
3C3
100
AcDbEntity
  8
0
100
AcDbCircle
 62
7
  6
CONTINUOUS
 10
15.8627242954
 20
5.5352955936
 40
1.4948045434
100
AcDbArc
 50
90.6868799544
 51
92.1150385228
  0
ARC
  5
3C4
100
AcDbEntity
  8
0
100
AcDbCircle
 62
7
  6
CONTINUOUS
 10
15.8627222661
 20
5.5355472398
 40
1.494552891
100
AcDbArc
 50
90.0446707878
 51
90.6869178152
  0
ARC
  5
3C5
100
AcDbEntity
  8
0
100
AcDbCircle
 62
7
  6
CONTINUOUS
 10
16.6208558154
 20
6.7517300013
 40
1.36
100
AcDbArc
 50
199.478501814
 51
202.5744557109
  0
ARC
  5
3C6
100
AcDbEntity
  8
0
100
AcDbCircle
 62
7
  6
CONTINUOUS
 10
15.8145427993
 20
5.902049508
 40
1.13026538
100
AcDbArc
 50
87.3533169901
 51
88.4663177929
  0
ARC
  5
3C7
100
AcDbEntity
  8
0
100
AcDbCircle
 62
7
  6
CONTINUOUS
 10
15.8145493471
 20
5.9019710031
 40
1.1293390232
100
AcDbArc
 50
87.7228061637
 51
88.4653917781
  0
ARC
  5
3C8
100
AcDbEntity
  8
0
100
AcDbCircle
 62
7
  6
CONTINUOUS
 10
15.8925570345
 20
6.5136481858
 40
0.4689999964
100
AcDbArc
 50
195.9690303764
 51
206.5927233587
  0
ARC
  5
3C9
100
AcDbEntity
  8
0
100
AcDbCircle
 62
7
  6
CONTINUOUS
 10
15.8925570345
 20
6.5136481858
 40
0.4689999964
100
AcDbArc
 50
284.3300181061
 51
155.4513427242
  0
ARC
  5
3CA
100
AcDbEntity
  8
0
100
AcDbCircle
 62
7
  6
CONTINUOUS
 10
15.9470485731
 20
6.6054011638
 40
0.4332177626
100
AcDbArc
 50
100.9119180869
 51
101.3814989818
  0
ARC
  5
3CB
100
AcDbEntity
  8
0
100
AcDbCircle
 62
7
  6
CONTINUOUS
 10
15.8925570345
 20
6.5136481858
 40
0.2815
100
AcDbArc
 50
264.5143668705
 51
197.2678987543
  0
ARC
  5
3CC
100
AcDbEntity
  8
0
100
AcDbCircle
 62
7
  6
CONTINUOUS
 10
15.8925570345
 20
6.5136481858
 40
0.2615
100
AcDbArc
 50
259.8777531766
 51
195.4308806341
  0
ARC
  5
3CD
100
AcDbEntity
  8
0
100
AcDbCircle
 62
7
  6
CONTINUOUS
 10
15.833323434
 20
6.7624703634
 40
0.2508277605
100
AcDbArc
 50
92.7048665277
 51
95.2452303393
  0
ARC
  5
3CE
100
AcDbEntity
  8
0
100
AcDbCircle
 62
7
  6
CONTINUOUS
 10
15.8925570345
 20
6.5136481858
 40
0.25
100
AcDbArc
 50
256.6295202321
 51
194.2087452247
  0
ARC
  5
3CF
100
AcDbEntity
  8
0
100
AcDbCircle
 62
7
  6
CONTINUOUS
 10
15.9523713757
 20
6.7708250914
 40
0.242455006
100
AcDbArc
 50
84.7092642936
 51
87.3390730626
  0
ARC
  5
3D0
100
AcDbEntity
  8
0
100
AcDbCircle
 62
7
  6
CONTINUOUS
 10
15.8130205923
 20
6.8672197102
 40
0.1450208649
100
AcDbArc
 50
86.333851369
 51
87.3407455665
  0
ARC
  5
3D1
100
AcDbEntity
  8
0
100
AcDbCircle
 62
7
  6
CONTINUOUS
 10
16.5750570345
 20
5.5957004808
 40
0.125
100
AcDbArc
 50
284.4379196859
 51
77.3122798359
  0
ARC
  5
3D2
100
AcDbEntity
  8
0
100
AcDbCircle
 62
7
  6
CONTINUOUS
 10
16.2914059231
 20
5.7936481858
 40
0.031
100
AcDbArc
 50
4.8096995456
 51
90.0
  0
ARC
  5
3D3
100
AcDbEntity
  8
0
100
AcDbCircle
 62
7
  6
CONTINUOUS
 10
15.9557746208
 20
6.0950792512
 40
0.02
100
AcDbArc
 50
310.0
 51
40.0
  0
ARC
  5
3D4
100
AcDbEntity
  8
0
100
AcDbCircle
 62
7
  6
CONTINUOUS
 10
15.6665201964
 20
6.4397992506
 40
0.02
100
AcDbArc
 50
40.0
 51
130.0
  0
ARC
  5
3D5
100
AcDbEntity
  8
0
100
AcDbCircle
 62
7
  6
CONTINUOUS
 10
15.8806396326
 20
8.1651481858
 40
0.738
100
AcDbArc
 50
148.3271956925
 51
211.6728043075
  0
ARC
  5
3D6
100
AcDbEntity
  8
0
100
AcDbCircle
 62
7
  6
CONTINUOUS
 10
15.9044744365
 20
8.1651481858
 40
0.738
100
AcDbArc
 50
328.3271956925
 51
31.6728043075
  0
ARC
  5
3D7
100
AcDbEntity
  8
0
100
AcDbCircle
 62
7
  6
CONTINUOUS
 10
16.2800570345
 20
6.9594478388
 40
0.03
100
AcDbArc
 50
9.985202167
 51
75.2369687317
  0
ARC
  5
3D8
100
AcDbEntity
  8
0
100
AcDbCircle
 62
7
  6
CONTINUOUS
 10
15.5050570345
 20
6.9594478388
 40
0.03
100
AcDbArc
 50
104.7630312683
 51
170.014797833
  0
ARC
  5
3D9
100
AcDbEntity
  8
0
100
AcDbCircle
 62
7
  6
CONTINUOUS
 10
15.5050570345
 20
6.9344478388
 40
0.03
100
AcDbArc
 50
104.7630312681
 51
170.017644151
  0
ARC
  5
3DA
100
AcDbEntity
  8
0
100
AcDbCircle
 62
7
  6
CONTINUOUS
 10
16.2800570345
 20
6.9344478388
 40
0.03
100
AcDbArc
 50
9.982355849
 51
75.2369687319
  0
ARC
  5
3DB
100
AcDbEntity
  8
0
100
AcDbCircle
 62
7
  6
CONTINUOUS
 10
15.9570269691
 20
7.013493544
 40
0.001530066
100
AcDbArc
 50
349.5110114631
 51
359.9487338929
  0
ARC
  5
3DC
100
AcDbEntity
  8
0
100
AcDbCircle
 62
7
  6
CONTINUOUS
 10
19.1275570345
 20
6.7814836663
 40
2.74
100
AcDbArc
 50
190.7574991618
 51
202.8463446634
  0
ARC
  5
3DD
100
AcDbEntity
  8
0
100
AcDbCircle
 62
7
  6
CONTINUOUS
 10
19.1275570345
 20
6.7814836663
 40
2.74
100
AcDbArc
 50
158.6807833651
 51
176.4804068859
  0
ARC
  5
3DE
100
AcDbEntity
  8
0
100
AcDbCircle
 62
7
  6
CONTINUOUS
 10
16.9450959366
 20
5.8486515144
 40
0.625
100
AcDbArc
 50
184.8096995456
 51
214.9889904702
  0
ARC
  5
3DF
100
AcDbEntity
  8
0
100
AcDbCircle
 62
7
  6
CONTINUOUS
 10
16.8854209234
 20
4.1376481858
 40
0.1871361111
100
AcDbArc
 50
0.0
 51
87.8145949287
  0
ARC
  5
3E0
100
AcDbEntity
  8
0
100
AcDbCircle
 62
7
  6
CONTINUOUS
 10
16.8855570805
 20
4.1377792461
 40
0.187
100
AcDbArc
 50
359.9598438511
 51
87.8547510776
  0
ARC
  5
3E1
100
AcDbEntity
  8
0
100
AcDbCircle
 62
7
  6
CONTINUOUS
 10
17.1156415173
 20
4.6126481858
 40
0.1094155172
100
AcDbArc
 50
289.7178358941
 51
70.2821641059
  0
ARC
  5
3E2
100
AcDbEntity
  8
0
100
AcDbCircle
 62
7
  6
CONTINUOUS
 10
17.2495570345
 20
4.3247989859
 40
0.063
100
AcDbArc
 50
0.0
 51
86.0348935987
  0
ARC
  5
3E3
100
AcDbEntity
  8
0
100
AcDbCircle
 62
7
  6
CONTINUOUS
 10
17.2560570345
 20
4.4185739826
 40
0.031
100
AcDbArc
 50
180.0
 51
266.0348935989
  0
ARC
  5
3E4
100
AcDbEntity
  8
0
100
AcDbCircle
 62
7
  6
CONTINUOUS
 10
16.8444319645
 20
4.1626481858
 40
0.025
100
AcDbArc
 50
270.0
 51
356.1276448237
  0
ARC
  5
3E5
100
AcDbEntity
  8
0
100
AcDbCircle
 62
7
  6
CONTINUOUS
 10
18.7810570345
 20
9.687956514
 40
2.481
100
AcDbArc
 50
159.5042613691
 51
207.2324188524
  0
ARC
  5
3E6
100
AcDbEntity
  8
0
100
AcDbCircle
 62
7
  6
CONTINUOUS
 10
22.1229100987
 20
16.1287425909
 40
12.2064069575
100
AcDbArc
 50
234.8757407453
 51
235.0457194106
  0
ARC
  5
3E7
100
AcDbEntity
  8
0
100
AcDbCircle
 62
7
  6
CONTINUOUS
 10
15.1883253185
 20
19.9171010407
 40
10.5495226945
100
AcDbArc
 50
250.3745771135
 51
251.2017883992
  0
ARC
  5
3E8
100
AcDbEntity
  8
0
100
AcDbCircle
 62
9
  6
CONTINUOUS
 10
15.18041934
 20
19.8944134826
 40
10.5254977148
100
AcDbArc
 50
250.136342869
 51
250.3736334725
  0
ARC
  5
3E9
100
AcDbEntity
  8
0
100
AcDbCircle
 62
7
  6
CONTINUOUS
 10
19.0550270174
 20
13.9804399167
 40
8.861270075
100
AcDbArc
 50
242.9831471933
 51
243.2290854612
  0
ARC
  5
3EA
100
AcDbEntity
  8
0
100
AcDbCircle
 62
7
  6
CONTINUOUS
 10
17.7981210818
 20
13.4292673507
 40
7.914099537
100
AcDbArc
 50
249.0732323508
 51
249.3634385657
  0
ARC
  5
3EB
100
AcDbEntity
  8
0
100
AcDbCircle
 62
7
  6
CONTINUOUS
 10
15.8925570345
 20
11.6323807877
 40
0.8725
100
AcDbArc
 50
211.6248525581
 51
233.1680874621
  0
ARC
  5
3EC
100
AcDbEntity
  8
0
100
AcDbCircle
 62
7
  6
CONTINUOUS
 10
15.8925570345
 20
11.6323807877
 40
0.8725
100
AcDbArc
 50
110.4960781802
 51
148.3751474419
  0
ARC
  5
3ED
100
AcDbEntity
  8
0
100
AcDbCircle
 62
7
  6
CONTINUOUS
 10
15.8925570366
 20
11.632380799
 40
0.8724999886
100
AcDbArc
 50
7.5179094971
 51
69.5039216851
  0
ARC
  5
3EE
100
AcDbEntity
  8
0
100
AcDbCircle
 62
7
  6
CONTINUOUS
 10
15.892557087
 20
11.6323807669
 40
0.8724999439
100
AcDbArc
 50
306.8319105803
 51
352.4820906859
  0
ARC
  5
3EF
100
AcDbEntity
  8
0
100
AcDbCircle
 62
7
  6
CONTINUOUS
 10
15.4324591325
 20
12.6521481858
 40
0.2815979021
100
AcDbArc
 50
318.2529672045
 51
41.7470327955
  0
ARC
  5
3F0
100
AcDbEntity
  8
0
100
AcDbCircle
 62
7
  6
CONTINUOUS
 10
16.3526549366
 20
12.6521481858
 40
0.2815979021
100
AcDbArc
 50
138.2529672045
 51
221.7470327955
  0
ARC
  5
3F1
100
AcDbEntity
  8
0
100
AcDbCircle
 62
7
  6
CONTINUOUS
 10
16.020536033
 20
13.1016481858
 40
0.188
100
AcDbArc
 50
11.0397144141
 51
90.0
  0
ARC
  5
3F2
100
AcDbEntity
  8
0
100
AcDbCircle
 62
7
  6
CONTINUOUS
 10
15.7645780361
 20
13.1016481858
 40
0.188
100
AcDbArc
 50
90.0
 51
168.9602855859
  0
ARC
  5
3F3
100
AcDbEntity
  8
0
100
AcDbCircle
 62
7
  6
CONTINUOUS
 10
15.310735965
 20
10.6823271162
 40
0.1256789304
100
AcDbArc
 50
90.0
 51
270.0
  0
ARC
  5
3F4
100
AcDbEntity
  8
0
100
AcDbCircle
 62
7
  6
CONTINUOUS
 10
16.4743781041
 20
10.6823271162
 40
0.1256789304
100
AcDbArc
 50
270.0
 51
90.0
  0
ARC
  5
3F5
100
AcDbEntity
  8
0
100
AcDbCircle
 62
7
  6
CONTINUOUS
 10
14.4496236593
 20
12.0626481858
 40
0.125
100
AcDbArc
 50
31.3322514977
 51
180.0
  0
ARC
  5
3F6
100
AcDbEntity
  8
0
100
AcDbCircle
 62
7
  6
CONTINUOUS
 10
14.4496236593
 20
11.2026481858
 40
0.125
100
AcDbArc
 50
180.0
 51
328.6677485023
  0
ARC
  5
3F7
100
AcDbEntity
  8
0
100
AcDbCircle
 62
7
  6
CONTINUOUS
 10
16.2385570345
 20
13.0201481858
 40
0.1175
100
AcDbArc
 50
270.0
 51
90.0
  0
ARC
  5
3F8
100
AcDbEntity
  8
0
100
AcDbCircle
 62
7
  6
CONTINUOUS
 10
15.5465570345
 20
13.0201481858
 40
0.1175
100
AcDbArc
 50
90.0
 51
270.0
  0
ARC
  5
3F9
100
AcDbEntity
  8
0
100
AcDbCircle
 62
7
  6
CONTINUOUS
 10
17.0381274276
 20
11.3912618171
 40
0.1064
100
AcDbArc
 50
40.9762844862
 51
146.1516146285
  0
ARC
  5
3FA
100
AcDbEntity
  8
0
100
AcDbCircle
 62
7
  6
CONTINUOUS
 10
17.0381274276
 20
11.8740345545
 40
0.1064
100
AcDbArc
 50
213.8483853715
 51
319.0237155138
  0
ARC
  5
3FB
100
AcDbEntity
  8
0
100
AcDbCircle
 62
7
  6
CONTINUOUS
 10
17.3205570345
 20
11.5426481858
 40
0.09
100
AcDbArc
 50
270.0000000001
 51
345.1648884178
  0
ARC
  5
3FC
100
AcDbEntity
  8
0
100
AcDbCircle
 62
7
  6
CONTINUOUS
 10
17.3205570345
 20
11.7226481858
 40
0.09
100
AcDbArc
 50
14.8351115822
 51
89.9999999999
  0
ARC
  5
3FD
100
AcDbEntity
  8
0
100
AcDbCircle
 62
7
  6
CONTINUOUS
 10
15.3275570345
 20
10.8780060466
 40
0.07
100
AcDbArc
 50
270.0
 51
53.1680874618
  0
ARC
  5
3FE
100
AcDbEntity
  8
0
100
AcDbCircle
 62
7
  6
CONTINUOUS
 10
16.4575570345
 20
10.8780060466
 40
0.07
100
AcDbArc
 50
126.8319125383
 51
270.0
  0
ARC
  5
3FF
100
AcDbEntity
  8
0
100
AcDbCircle
 62
7
  6
CONTINUOUS
 10
17.2605570345
 20
11.4116481858
 40
0.06
100
AcDbArc
 50
270.0
 51
360.0
  0
ARC
  5
400
100
AcDbEntity
  8
0
100
AcDbCircle
 62
7
  6
CONTINUOUS
 10
17.2605570345
 20
11.8536481858
 40
0.06
100
AcDbArc
 50
0.0
 51
90.0
  0
ARC
  5
401
100
AcDbEntity
  8
0
100
AcDbCircle
 62
7
  6
CONTINUOUS
 10
17.2245570345
 20
11.4116481858
 40
0.06
100
AcDbArc
 50
180.0
 51
270.0
  0
ARC
  5
402
100
AcDbEntity
  8
0
100
AcDbCircle
 62
7
  6
CONTINUOUS
 10
17.2245570345
 20
11.8536481858
 40
0.06
100
AcDbArc
 50
90.0
 51
180.0
  0
ARC
  5
403
100
AcDbEntity
  8
0
100
AcDbCircle
 62
7
  6
CONTINUOUS
 10
15.0236236593
 20
12.0806481858
 40
0.047
100
AcDbArc
 50
22.8486294329
 51
90.0
  0
ARC
  5
404
100
AcDbEntity
  8
0
100
AcDbCircle
 62
7
  6
CONTINUOUS
 10
15.0236236593
 20
11.1846481858
 40
0.047
100
AcDbArc
 50
270.0
 51
337.1513705671
  0
ARC
  5
405
100
AcDbEntity
  8
0
100
AcDbCircle
 62
7
  6
CONTINUOUS
 10
15.1102478476
 20
11.1481481858
 40
0.047
100
AcDbArc
 50
90.0
 51
157.1513705671
  0
ARC
  5
406
100
AcDbEntity
  8
0
100
AcDbCircle
 62
7
  6
CONTINUOUS
 10
15.1102478476
 20
12.1171481858
 40
0.047
100
AcDbArc
 50
202.848629433
 51
270.0
  0
ARC
  5
407
100
AcDbEntity
  8
0
100
AcDbCircle
 62
7
  6
CONTINUOUS
 10
16.9115570345
 20
11.7891481858
 40
0.046
100
AcDbArc
 50
33.8483853714
 51
90.0
  0
ARC
  5
408
100
AcDbEntity
  8
0
100
AcDbCircle
 62
7
  6
CONTINUOUS
 10
16.9115570345
 20
11.4761481858
 40
0.046
100
AcDbArc
 50
270.0
 51
326.1516146286
  0
ARC
  5
409
100
AcDbEntity
  8
0
100
AcDbCircle
 62
7
  6
CONTINUOUS
 10
17.1335570345
 20
11.7911481858
 40
0.02
100
AcDbArc
 50
90.0
 51
139.0237155138
  0
ARC
  5
40A
100
AcDbEntity
  8
0
100
AcDbCircle
 62
7
  6
CONTINUOUS
 10
17.1335570345
 20
11.4741481858
 40
0.02
100
AcDbArc
 50
220.9762844862
 51
270.0
  0
SPLINE
  5
40B
100
AcDbEntity
  8
0
100
AcDbSpline
 62
7
  6
CONTINUOUS
 70
0
 71
3
 72
9
 73
5
 74
0
 42
0.0000001
 43
0.0000001
 44
0.0000000001
 40
0.0
 40
0.0
 40
0.0
 40
0.0
 40
0.4905405235
 40
1.0
 40
1.0
 40
1.0
 40
1.0
 10
11.6022837677
 20
9.5259832527
 30
0.0
 10
11.6062482239
 20
9.5248350938
 30
0.0
 10
11.6144829378
 20
9.5230009232
 30
0.0
 10
11.6228657131
 20
9.5221006195
 30
0.0
 10
11.627145015
 20
9.5218514077
 30
0.0
  0
LINE
  5
40C
100
AcDbEntity
  8
0
100
AcDbLine
 62
7
  6
CONTINUOUS
 10
10.0535219436
 20
10.1696342708
 11
10.0527519176
 21
10.1698322154
  0
SPLINE
  5
40D
100
AcDbEntity
  8
0
100
AcDbSpline
 62
7
  6
CONTINUOUS
 70
0
 71
3
 72
18
 73
14
 74
0
 42
0.0000001
 43
0.0000001
 44
0.0000000001
 40
0.0
 40
0.0
 40
0.0
 40
0.0
 40
0.2197755734
 40
0.4123736469
 40
0.577015998
 40
0.7133820216
 40
0.8215337761
 40
0.8652738591
 40
0.9023873688
 40
0.9333031486
 40
0.9588022006
 40
0.9802763414
 40
1.0
 40
1.0
 40
1.0
 40
1.0
 10
10.120222448
 20
10.1397793904
 30
0.0
 10
10.1200063711
 20
10.1398761055
 30
0.0
 10
10.1195990267
 20
10.1400533842
 30
0.0
 10
10.1190223326
 20
10.1402854297
 30
0.0
 10
10.1185218956
 20
10.1404656347
 30
0.0
 10
10.1180998974
 20
10.1405933603
 30
0.0
 10
10.1177961436
 20
10.1406608486
 30
0.0
 10
10.1175937109
 20
10.1406842962
 30
0.0
 10
10.1174731289
 20
10.1406872366
 30
0.0
 10
10.1173725415
 20
10.1406768625
 30
0.0
 10
10.1172914408
 20
10.1406527971
 30
0.0
 10
10.1172296895
 20
10.140613608
 30
0.0
 10
10.1172031588
 20
10.1405763436
 30
0.0
 10
10.1171944829
 20
10.1405569502
 30
0.0
  0
SPLINE
  5
40E
100
AcDbEntity
  8
0
100
AcDbSpline
 62
7
  6
CONTINUOUS
 70
0
 71
3
 72
19
 73
15
 74
0
 42
0.0000001
 43
0.0000001
 44
0.0000000001
 40
0.0
 40
0.0
 40
0.0
 40
0.0
 40
0.2153527023
 40
0.4064460954
 40
0.5715635233
 40
0.7095078582
 40
0.7680517007
 40
0.8196055693
 40
0.8642226152
 40
0.9020788445
 40
0.9335352789
 40
0.9592910678
 40
0.9806831464
 40
1.0
 40
1.0
 40
1.0
 40
1.0
 10
10.2263276278
 20
10.092287134
 30
0.0
 10
10.2258653064
 20
10.0924940672
 30
0.0
 10
10.2249883475
 20
10.0928749409
 30
0.0
 10
10.2237400909
 20
10.0933747479
 30
0.0
 10
10.2226453872
 20
10.0937661081
 30
0.0
 10
10.2218304368
 20
10.0940118411
 30
0.0
 10
10.2212625465
 20
10.0941462836
 30
0.0
 10
10.2209045349
 20
10.0942125086
 30
0.0
 10
10.2205912271
 20
10.0942498313
 30
0.0
 10
10.2203229389
 20
10.0942583119
 30
0.0
 10
10.2200994717
 20
10.0942379779
 30
0.0
 10
10.2199199512
 20
10.0941881074
 30
0.0
 10
10.2197837279
 20
10.0941057919
 30
0.0
 10
10.219725338
 20
10.0940259228
 30
0.0
 10
10.2197067821
 20
10.0939844506
 30
0.0
  0
SPLINE
  5
40F
100
AcDbEntity
  8
0
100
AcDbSpline
 62
7
  6
CONTINUOUS
 70
0
 71
3
 72
21
 73
17
 74
0
 42
0.0000001
 43
0.0000001
 44
0.0000000001
 40
0.0
 40
0.0
 40
0.0
 40
0.0
 40
0.2088808556
 40
0.3977323028
 40
0.5634935438
 40
0.6369158612
 40
0.7036857855
 40
0.763606866
 40
0.8165498281
 40
0.8624650172
 40
0.9014238248
 40
0.9336853186
 40
0.9598473188
 40
0.9811474961
 40
0.9906989619
 40
1.0
 40
1.0
 40
1.0
 40
1.0
 10
10.3646065902
 20
10.0303940205
 30
0.0
 10
10.3638423426
 20
10.0307360947
 30
0.0
 10
10.3623790224
 20
10.0313696499
 30
0.0
 10
10.3602795267
 20
10.0322038451
 30
0.0
 10
10.3586616395
 20
10.0327771401
 30
0.0
 10
10.3574901232
 20
10.0331405435
 30
0.0
 10
10.3567168496
 20
10.0333544696
 30
0.0
 10
10.3560159206
 20
10.0335203095
 30
0.0
 10
10.3553900422
 20
10.0336375896
 30
0.0
 10
10.3548413996
 20
10.0337060527
 30
0.0
 10
10.3543715781
 20
10.0337258692
 30
0.0
 10
10.3539809988
 20
10.0336968512
 30
0.0
 10
10.3536689264
 20
10.033619129
 30
0.0
 10
10.3534656937
 20
10.033504286
 30
0.0
 10
10.3533552945
 20
10.0333855891
 30
0.0
 10
10.3533167329
 20
10.033319762
 30
0.0
 10
10.3533015043
 20
10.0332857301
 30
0.0
  0
SPLINE
  5
410
100
AcDbEntity
  8
0
100
AcDbSpline
 62
7
  6
CONTINUOUS
 70
0
 71
3
 72
23
 73
19
 74
0
 42
0.0000001
 43
0.0000001
 44
0.0000000001
 40
0.0
 40
0.0
 40
0.0
 40
0.0
 40
0.2001637344
 40
0.3859150628
 40
0.4718595965
 40
0.552439093
 40
0.6271625007
 40
0.6955992141
 40
0.7573812895
 40
0.8122184738
 40
0.8599173933
 40
0.9004068102
 40
0.9338083053
 40
0.9605745424
 40
0.9718031946
 40
0.9818772278
 40
0.9911319086
 40
1.0
 40
1.0
 40
1.0
 40
1.0
 10
10.5256358526
 20
9.9583179632
 30
0.0
 10
10.5245526923
 20
9.9588027814
 30
0.0
 10
10.5224510929
 20
9.9597082396
 30
0.0
 10
10.519847073
 20
9.960732339
 30
0.0
 10
10.51788142
 20
9.9614385783
 30
0.0
 10
10.5165249388
 20
9.9618925099
 30
0.0
 10
10.5152566604
 20
9.9622816943
 30
0.0
 10
10.5140848494
 20
9.9626037188
 30
0.0
 10
10.5130169871
 20
9.9628566962
 30
0.0
 10
10.5120596383
 20
9.9630392958
 30
0.0
 10
10.5112185095
 20
9.9631508239
 30
0.0
 10
10.5104976737
 20
9.9631911295
 30
0.0
 10
10.5099005278
 20
9.9631605152
 30
0.0
 10
10.5094829817
 20
9.9630711957
 30
0.0
 10
10.509221373
 20
9.9629555645
 30
0.0
 10
10.5090693617
 20
9.9628550695
 30
0.0
 10
10.5089507169
 20
9.9627354318
 30
0.0
 10
10.5088945578
 20
9.9626423742
 30
0.0
 10
10.5088730816
 20
9.9625943842
 30
0.0
  0
SPLINE
  5
411
100
AcDbEntity
  8
0
100
AcDbSpline
 62
7
  6
CONTINUOUS
 70
0
 71
3
 72
25
 73
21
 74
0
 42
0.0000001
 43
0.0000001
 44
0.0000000001
 40
0.0
 40
0.0
 40
0.0
 40
0.0
 40
0.1889166956
 40
0.3704894733
 40
0.4563395076
 40
0.5378115878
 40
0.614166932
 40
0.6847365066
 40
0.7489307912
 40
0.8062512468
 40
0.8563089727
 40
0.8988500276
 40
0.9172787791
 40
0.933827682
 40
0.9485399111
 40
0.9614986004
 40
0.9728402611
 40
0.9827871516
 40
0.9916802392
 40
1.0
 40
1.0
 40
1.0
 40
1.0
 10
10.6984415368
 20
9.8809708264
 30
0.0
 10
10.697066256
 20
9.8815863966
 30
0.0
 10
10.6943488676
 20
9.8827488183
 30
0.0
 10
10.690954368
 20
9.8840644791
 30
0.0
 10
10.6883307041
 20
9.8849923099
 30
0.0
 10
10.6864846369
 20
9.8856005627
 30
0.0
 10
10.6847410013
 20
9.8861286343
 30
0.0
 10
10.6831162237
 20
9.8865716829
 30
0.0
 10
10.681625362
 20
9.8869258179
 30
0.0
 10
10.6802818241
 20
9.8871882308
 30
0.0
 10
10.6790974905
 20
9.8873569183
 30
0.0
 10
10.6782131672
 20
9.8874221241
 30
0.0
 10
10.6775945973
 20
9.8874201043
 30
0.0
 10
10.6771988
 20
9.8873945653
 30
0.0
 10
10.6768491728
 20
9.8873450791
 30
0.0
 10
10.6765461524
 20
9.8872716989
 30
0.0
 10
10.6762899995
 20
9.8871742218
 30
0.0
 10
10.6760809532
 20
9.8870519877
 30
0.0
 10
10.675920026
 20
9.8869040456
 30
0.0
 10
10.6758456627
 20
9.8867862175
 30
0.0
 10
10.6758185562
 20
9.8867256498
 30
0.0
  0
SPLINE
  5
412
100
AcDbEntity
  8
0
100
AcDbSpline
 62
7
  6
CONTINUOUS
 70
0
 71
3
 72
25
 73
21
 74
0
 42
0.0000001
 43
0.0000001
 44
0.0000000001
 40
0.0
 40
0.0
 40
0.0
 40
0.0
 40
0.174776016
 40
0.3508113181
 40
0.4364005787
 40
0.5188829963
 40
0.597218246
 40
0.6704437945
 40
0.7376893692
 40
0.7981913394
 40
0.851307131
 40
0.8965414979
 40
0.91610451
 40
0.9336061602
 40
0.9490578022
 40
0.9625066873
 40
0.9740558247
 40
0.983896064
 40
0.992364034
 40
1.0
 40
1.0
 40
1.0
 40
1.0
 10
10.871247221
 20
9.8036236895
 30
0.0
 10
10.8696513193
 20
9.8043380088
 30
0.0
 10
10.866418278
 20
9.8057060034
 30
0.0
 10
10.8623360163
 20
9.8072567331
 30
0.0
 10
10.859082934
 20
9.8083834571
 30
0.0
 10
10.8567370293
 20
9.8091412849
 30
0.0
 10
10.8544929537
 20
9.8098100579
 30
0.0
 10
10.8523795621
 20
9.8103813032
 30
0.0
 10
10.8504235854
 20
9.8108480175
 30
0.0
 10
10.8486492329
 20
9.8112048743
 30
0.0
 10
10.8470781794
 20
9.8114478775
 30
0.0
 10
10.8459026448
 20
9.8115593614
 30
0.0
 10
10.8450793334
 20
9.8115822339
 30
0.0
 10
10.8445538208
 20
9.8115687376
 30
0.0
 10
10.844091167
 20
9.8115256974
 30
0.0
 10
10.8436923821
 20
9.811453179
 30
0.0
 10
10.8433580169
 20
9.8113512333
 30
0.0
 10
10.8430882374
 20
9.8112190172
 30
0.0
 10
10.8428837152
 20
9.8110548051
 30
0.0
 10
10.8427916408
 20
9.8109186034
 30
0.0
 10
10.8427604337
 20
9.8108488778
 30
0.0
  0
SPLINE
  5
413
100
AcDbEntity
  8
0
100
AcDbSpline
 62
7
  6
CONTINUOUS
 70
0
 71
3
 72
26
 73
22
 74
0
 42
0.0000001
 43
0.0000001
 44
0.0000000001
 40
0.0
 40
0.0
 40
0.0
 40
0.0
 40
0.0764877445
 40
0.1572716726
 40
0.3260281581
 40
0.4110786189
 40
0.4946371152
 40
0.5753081292
 40
0.6517736099
 40
0.7228150692
 40
0.7873306021
 40
0.8443548898
 40
0.8930806769
 40
0.9141363938
 40
0.9329098805
 40
0.9493730706
 40
0.9635279834
 40
0.9754300154
 40
0.9852209031
 40
0.9932097108
 40
1.0
 40
1.0
 40
1.0
 40
1.0
 10
11.0322764834
 20
9.7315476323
 30
0.0
 10
11.0314477276
 20
9.7319185801
 30
0.0
 10
11.0297334371
 20
9.732658612
 30
0.0
 10
11.0261460442
 20
9.7341116639
 30
0.0
 10
11.0224187968
 20
9.7354878923
 30
0.0
 10
11.0186234611
 20
9.7367668504
 30
0.0
 10
11.0158007687
 20
9.7376560011
 30
0.0
 10
11.0130579573
 20
9.7384574639
 30
0.0
 10
11.0104410822
 20
9.7391577982
 30
0.0
 10
11.00799344
 20
9.7397455909
 30
0.0
 10
11.0057548606
 20
9.7402117076
 30
0.0
 10
11.00376147
 20
9.7405489928
 30
0.0
 10
11.0022657434
 20
9.7407276183
 30
0.0
 10
11.0012163733
 20
9.7407945488
 30
0.0
 10
11.000547979
 20
9.7408074294
 30
0.0
 10
10.9999616522
 20
9.7407857977
 30
0.0
 10
10.999459409
 20
9.7407297428
 30
0.0
 10
10.9990424542
 20
9.7406396735
 30
0.0
 10
10.9987110236
 20
9.7405148771
 30
0.0
 10
10.998464056
 20
9.7403533745
 30
0.0
 10
10.9983551113
 20
9.7402091393
 30
0.0
 10
10.9983221783
 20
9.7401355662
 30
0.0
  0
SPLINE
  5
414
100
AcDbEntity
  8
0
100
AcDbSpline
 62
7
  6
CONTINUOUS
 70
0
 71
3
 72
28
 73
24
 74
0
 42
0.0000001
 43
0.0000001
 44
0.0000000001
 40
0.0
 40
0.0
 40
0.0
 40
0.0
 40
0.0641654072
 40
0.1358192641
 40
0.2133754514
 40
0.2951064071
 40
0.3792101306
 40
0.4638593348
 40
0.5472482636
 40
0.627634568
 40
0.7033697283
 40
0.7729281059
 40
0.8349290969
 40
0.8627118999
 40
0.8881682663
 40
0.9111792002
 40
0.9316446644
 40
0.949484075
 40
0.9646467528
 40
0.9771253692
 40
0.9823790342
 40
0.9869996758
 40
1.0
 40
1.0
 40
1.0
 40
1.0
 10
11.1705554459
 20
9.6696545187
 30
0.0
 10
11.1697680885
 20
9.6700069368
 30
0.0
 10
11.1680874871
 20
9.6707217275
 30
0.0
 10
11.1654181013
 20
9.6717727258
 30
0.0
 10
11.162503978
 20
9.6728445322
 30
0.0
 10
11.1594108645
 20
9.673912535
 30
0.0
 10
11.1562078153
 20
9.674952516
 30
0.0
 10
11.1529652889
 20
9.6759413059
 30
0.0
 10
11.1497533825
 20
9.6768573168
 30
0.0
 10
11.1466403488
 20
9.6776809656
 30
0.0
 10
11.1436913125
 20
9.6783950972
 30
0.0
 10
11.1409673404
 20
9.6789850496
 30
0.0
 10
11.1388608637
 20
9.6793770688
 30
0.0
 10
11.1373298564
 20
9.679614953
 30
0.0
 10
11.136313469
 20
9.6797491127
 30
0.0
 10
11.135391597
 20
9.6798451108
 30
0.0
 10
11.1345690608
 20
9.6799025359
 30
0.0
 10
11.133850265
 20
9.6799213796
 30
0.0
 10
11.133238495
 20
9.6799014518
 30
0.0
 10
11.1327989089
 20
9.6798513782
 30
0.0
 10
11.132503829
 20
9.6797867707
 30
0.0
 10
11.132214254
 20
9.679698251
 30
0.0
 10
11.131974875
 20
9.6795663413
 30
0.0
 10
11.1319034581
 20
9.6794068242
 30
0.0
  0
SPLINE
  5
415
100
AcDbEntity
  8
0
100
AcDbSpline
 62
7
  6
CONTINUOUS
 70
0
 71
3
 72
33
 73
29
 74
0
 42
0.0000001
 43
0.0000001
 44
0.0000000001
 40
0.0
 40
0.0
 40
0.0
 40
0.0
 40
0.0231513264
 40
0.0492503599
 40
0.1095400771
 40
0.1792171669
 40
0.2563484098
 40
0.3388142823
 40
0.4243858574
 40
0.5107975758
 40
0.5958057514
 40
0.677240178
 40
0.7530423511
 40
0.8213028213
 40
0.8520579643
 40
0.8802968348
 40
0.9058398466
 40
0.9285241392
 40
0.9482082732
 40
0.9647774279
 40
0.9718678311
 40
0.9781542565
 40
0.9836360682
 40
0.9883204483
 40
0.9922279952
 40
0.995401422
 40
0.9979305217
 40
1.0
 40
1.0
 40
1.0
 40
1.0
 10
11.2766606257
 20
9.6221622623
 30
0.0
 10
11.276351506
 20
9.6223006231
 30
0.0
 10
11.2756895604
 20
9.622585272
 30
0.0
 10
11.2742042393
 20
9.623186796
 30
0.0
 10
11.2720658733
 20
9.6239876196
 30
0.0
 10
11.2692041608
 20
9.6249825801
 30
0.0
 10
11.2660155616
 20
9.6260233222
 30
0.0
 10
11.2625882605
 20
9.6270804129
 30
0.0
 10
11.2590152818
 20
9.6281243846
 30
0.0
 10
11.2553918445
 20
9.6291268781
 30
0.0
 10
11.2518127568
 20
9.6300612582
 30
0.0
 10
11.248370372
 20
9.6309032741
 30
0.0
 10
11.2451528414
 20
9.6316313734
 30
0.0
 10
11.2426472914
 20
9.6321447841
 30
0.0
 10
11.2408163246
 20
9.6324812031
 30
0.0
 10
11.2395966301
 20
9.6326857105
 30
0.0
 10
11.2384901103
 20
9.6328501307
 30
0.0
 10
11.2375042288
 20
9.6329735104
 30
0.0
 10
11.2366457909
 20
9.6330551129
 30
0.0
 10
11.23601239
 20
9.6330900348
 30
0.0
 10
11.235574258
 20
9.6330937932
 30
0.0
 10
11.2352984179
 20
9.6330857393
 30
0.0
 10
11.2350583401
 20
9.6330670827
 30
0.0
 10
11.2348543539
 20
9.6330378615
 30
0.0
 10
11.234686531
 20
9.6329982507
 30
0.0
 10
11.2345546151
 20
9.6329479586
 30
0.0
 10
11.2344576622
 20
9.6328864524
 30
0.0
 10
11.2344146765
 20
9.6328319138
 30
0.0
 10
11.2344023035
 20
9.6328042841
 30
0.0
  0
LINE
  5
416
100
AcDbEntity
  8
0
100
AcDbLine
 62
7
  6
CONTINUOUS
 10
11.3433611301
 20
9.5923073819
 11
11.3425071597
 21
9.5926556482
  0
SPLINE
  5
417
100
AcDbEntity
  8
0
100
AcDbSpline
 62
7
  6
CONTINUOUS
 70
0
 71
3
 72
20
 73
16
 74
0
 42
0.0000001
 43
0.0000001
 44
0.0000000001
 40
0.0
 40
0.0
 40
0.0
 40
0.0
 40
0.0346183216
 40
0.0789281231
 40
0.1319852615
 40
0.1926591617
 40
0.2596722444
 40
0.3316365421
 40
0.4845290967
 40
0.6392952754
 40
0.7840080924
 40
0.8490603448
 40
0.9075051031
 40
0.958166224
 40
1.0
 40
1.0
 40
1.0
 40
1.0
 10
11.3425071597
 20
9.5926556482
 30
0.0
 10
11.3420512164
 20
9.5928294772
 30
0.0
 10
11.3410024755
 20
9.5932014636
 30
0.0
 10
11.339235633
 20
9.5937840702
 30
0.0
 10
11.3371092984
 20
9.5944484716
 30
0.0
 10
11.3346688814
 20
9.5951799396
 30
0.0
 10
11.3319656435
 20
9.595962331
 30
0.0
 10
11.3280045755
 20
9.5970737158
 30
0.0
 10
11.3228366178
 20
9.5984616956
 30
0.0
 10
11.3166567372
 20
9.6000328823
 30
0.0
 10
11.3116592304
 20
9.6012280477
 30
0.0
 10
11.3079705967
 20
9.602056627
 30
0.0
 10
11.3055697601
 20
9.6025688862
 30
0.0
 10
11.3034831949
 20
9.6029847248
 30
0.0
 10
11.3022000562
 20
9.6032164298
 30
0.0
 10
11.3016182059
 20
9.6033120791
 30
0.0
  0
SPLINE
  5
418
100
AcDbEntity
  8
0
100
AcDbSpline
 62
7
  6
CONTINUOUS
 70
0
 71
3
 72
17
 73
13
 74
0
 42
0.0000001
 43
0.0000001
 44
0.0000000001
 40
0.0
 40
0.0
 40
0.0
 40
0.0
 40
0.4161371206
 40
0.5833626385
 40
0.7225405991
 40
0.8332463358
 40
0.8778865791
 40
0.9154153372
 40
0.9459274448
 40
0.9696643144
 40
0.9871983477
 40
1.0
 40
1.0
 40
1.0
 40
1.0
 10
11.3016182059
 20
9.6033120791
 30
0.0
 10
11.3012319327
 20
9.6033755778
 30
0.0
 10
11.3006894557
 20
9.6034592798
 30
0.0
 10
11.3000146933
 20
9.6035415548
 30
0.0
 10
11.2996239679
 20
9.6035779713
 30
0.0
 10
11.2993471201
 20
9.6035924724
 30
0.0
 10
11.2991656328
 20
9.6035918558
 30
0.0
 10
11.2990597261
 20
9.6035862233
 30
0.0
 10
11.2989739423
 20
9.6035756258
 30
0.0
 10
11.2989080578
 20
9.6035598081
 30
0.0
 10
11.298861106
 20
9.603539368
 30
0.0
 10
11.2988399407
 20
9.6035180037
 30
0.0
 10
11.298835016
 20
9.6035070142
 30
0.0
  0
LINE
  5
419
100
AcDbEntity
  8
0
100
AcDbLine
 62
7
  6
CONTINUOUS
 10
10.1922546056
 20
10.0428773486
 11
10.1919660395
 21
10.0429521521
  0
SPLINE
  5
41A
100
AcDbEntity
  8
0
100
AcDbSpline
 62
7
  6
CONTINUOUS
 70
0
 71
3
 72
18
 73
14
 74
0
 42
0.0000001
 43
0.0000001
 44
0.0000000001
 40
0.0
 40
0.0
 40
0.0
 40
0.0
 40
0.2199031501
 40
0.4126334143
 40
0.5773969843
 40
0.7138577182
 40
0.822058027
 40
0.8657957571
 40
0.9028823028
 40
0.9337393301
 40
0.9591384526
 40
0.9804643048
 40
1.0
 40
1.0
 40
1.0
 40
1.0
 10
10.2521621213
 20
10.0160629829
 30
0.0
 10
10.2519436939
 20
10.0161607501
 30
0.0
 10
10.2515319202
 20
10.0163400143
 30
0.0
 10
10.2509490115
 20
10.0165748591
 30
0.0
 10
10.2504432306
 20
10.0167574864
 30
0.0
 10
10.2500168064
 20
10.0168872301
 30
0.0
 10
10.2497099474
 20
10.0169561493
 30
0.0
 10
10.2495054937
 20
10.0169805179
 30
0.0
 10
10.2493837838
 20
10.0169839863
 30
0.0
 10
10.2492823158
 20
10.0169740366
 30
0.0
 10
10.2492005682
 20
10.0169503002
 30
0.0
 10
10.2491383521
 20
10.0169113191
 30
0.0
 10
10.249111658
 20
10.0168740219
 30
0.0
 10
10.2491029765
 20
10.0168546156
 30
0.0
  0
SPLINE
  5
41B
100
AcDbEntity
  8
0
100
AcDbSpline
 62
7
  6
CONTINUOUS
 70
0
 71
3
 72
19
 73
15
 74
0
 42
0.0000001
 43
0.0000001
 44
0.0000000001
 40
0.0
 40
0.0
 40
0.0
 40
0.0
 40
0.2130819991
 40
0.4034666427
 40
0.5689306376
 40
0.7077774262
 40
0.7668560711
 40
0.8189302755
 40
0.8640228989
 40
0.9022597739
 40
0.9339624017
 40
0.9597886973
 40
0.9810319063
 40
1.0
 40
1.0
 40
1.0
 40
1.0
 10
10.368150081
 20
9.9641472336
 30
0.0
 10
10.3675683004
 20
9.9644076362
 30
0.0
 10
10.3664610202
 20
9.964888172
 30
0.0
 10
10.364880508
 20
9.9655201606
 30
0.0
 10
10.3634866388
 20
9.9660181401
 30
0.0
 10
10.3624452763
 20
9.9663327531
 30
0.0
 10
10.3617176955
 20
9.9665065628
 30
0.0
 10
10.3612581579
 20
9.9665930862
 30
0.0
 10
10.3608558674
 20
9.9666430669
 30
0.0
 10
10.3605114765
 20
9.9666564916
 30
0.0
 10
10.3602249768
 20
9.9666334241
 30
0.0
 10
10.3599953607
 20
9.9665731707
 30
0.0
 10
10.3598215057
 20
9.9664719904
 30
0.0
 10
10.3597470809
 20
9.9663721611
 30
0.0
 10
10.3597239026
 20
9.9663203712
 30
0.0
  0
SPLINE
  5
41C
100
AcDbEntity
  8
0
100
AcDbSpline
 62
7
  6
CONTINUOUS
 70
0
 71
3
 72
22
 73
18
 74
0
 42
0.0000001
 43
0.0000001
 44
0.0000000001
 40
0.0
 40
0.0
 40
0.0
 40
0.0
 40
0.2020637928
 40
0.3885411098
 40
0.5549633715
 40
0.6294388124
 40
0.6975437543
 40
0.7589435835
 40
0.813383162
 40
0.8606956605
 40
0.9008387584
 40
0.9339629948
 40
0.9605469373
 40
0.9717321731
 40
0.9817964751
 40
0.9910765226
 40
1.0
 40
1.0
 40
1.0
 40
1.0
 10
10.5248107429
 20
9.8940265445
 30
0.0
 10
10.5237871501
 20
9.8944847005
 30
0.0
 10
10.5218068906
 20
9.895339246
 30
0.0
 10
10.5189414487
 20
9.8964701744
 30
0.0
 10
10.5167030913
 20
9.8972575185
 30
0.0
 10
10.5150643952
 20
9.8977639131
 30
0.0
 10
10.5139731481
 20
9.8980659916
 30
0.0
 10
10.5129799071
 20
9.8983030837
 30
0.0
 10
10.5120903033
 20
9.8984740307
 30
0.0
 10
10.5113091929
 20
9.8985782046
 30
0.0
 10
10.5106399814
 20
9.8986154529
 30
0.0
 10
10.5100854542
 20
9.8985861208
 30
0.0
 10
10.5096976186
 20
9.8985014781
 30
0.0
 10
10.5094545029
 20
9.8983924282
 30
0.0
 10
10.5093129179
 20
9.8982975515
 30
0.0
 10
10.509202207
 20
9.8981846801
 30
0.0
 10
10.5091496073
 20
9.8980970989
 30
0.0
 10
10.5091293716
 20
9.8980518965
 30
0.0
  0
SPLINE
  5
41D
100
AcDbEntity
  8
0
100
AcDbSpline
 62
7
  6
CONTINUOUS
 70
0
 71
3
 72
25
 73
21
 74
0
 42
0.0000001
 43
0.0000001
 44
0.0000000001
 40
0.0
 40
0.0
 40
0.0
 40
0.0
 40
0.1862108583
 40
0.3667641994
 40
0.4525884884
 40
0.5342765767
 40
0.6110291138
 40
0.6821191651
 40
0.7469023305
 40
0.8048289198
 40
0.8554607741
 40
0.8984978006
 40
0.9171319824
 40
0.9338491341
 40
0.9486890809
 40
0.9617265041
 40
0.9730934534
 40
0.9830083198
 40
0.9918122433
 40
1.0
 40
1.0
 40
1.0
 40
1.0
 10
10.7013334383
 20
9.8150156882
 30
0.0
 10
10.6999042154
 20
9.8156554027
 30
0.0
 10
10.6970674052
 20
9.8168672776
 30
0.0
 10
10.6935170481
 20
9.8182407232
 30
0.0
 10
10.6907571032
 20
9.819215689
 30
0.0
 10
10.6888060293
 20
9.8198584241
 30
0.0
 10
10.6869587575
 20
9.8204186095
 30
0.0
 10
10.6852339395
 20
9.8208906539
 30
0.0
 10
10.683648701
 20
9.8212700203
 30
0.0
 10
10.6822183513
 20
9.8215533687
 30
0.0
 10
10.6809564815
 20
9.8217382708
 30
0.0
 10
10.6800138912
 20
9.8218132611
 30
0.0
 10
10.6793544198
 20
9.8218162386
 30
0.0
 10
10.6789326951
 20
9.821792889
 30
0.0
 10
10.6785604184
 20
9.8217443276
 30
0.0
 10
10.6782381096
 20
9.8216705243
 30
0.0
 10
10.6779660821
 20
9.8215713314
 30
0.0
 10
10.6777445125
 20
9.8214460925
 30
0.0
 10
10.6775745115
 20
9.821293566
 30
0.0
 10
10.6774963653
 20
9.8211712534
 30
0.0
 10
10.6774682318
 20
9.8211084123
 30
0.0
  0
SPLINE
  5
41E
100
AcDbEntity
  8
0
100
AcDbSpline
 62
7
  6
CONTINUOUS
 70
0
 71
3
 72
25
 73
21
 74
0
 42
0.0000001
 43
0.0000001
 44
0.0000000001
 40
0.0
 40
0.0
 40
0.0
 40
0.0
 40
0.1645009141
 40
0.3363182311
 40
0.4216178288
 40
0.5047518107
 40
0.5844685552
 40
0.6595949783
 40
0.7290566871
 40
0.7918923374
 40
0.8472728172
 40
0.8945236779
 40
0.9149465278
 40
0.9331795923
 40
0.9492115927
 40
0.9630649921
 40
0.9748157913
 40
0.9846295479
 40
0.9928308058
 40
1.0
 40
1.0
 40
1.0
 40
1.0
 10
10.874269043
 20
9.7376103995
 30
0.0
 10
10.8725914648
 20
9.7383612768
 30
0.0
 10
10.8691250539
 20
9.7398151591
 30
0.0
 10
10.8647127045
 20
9.7414682847
 30
0.0
 10
10.861115409
 20
9.742698435
 30
0.0
 10
10.8584741834
 20
9.7435423515
 30
0.0
 10
10.8559242956
 20
9.7442966887
 30
0.0
 10
10.8535045008
 20
9.7449499285
 30
0.0
 10
10.8512510062
 20
9.7454923625
 30
0.0
 10
10.8491969069
 20
9.7459163573
 30
0.0
 10
10.8473720575
 20
9.7462160212
 30
0.0
 10
10.8460043162
 20
9.7463666312
 30
0.0
 10
10.8450453742
 20
9.7464141411
 30
0.0
 10
10.8444340559
 20
9.7464148606
 30
0.0
 10
10.8438969679
 20
9.7463827133
 30
0.0
 10
10.8434356623
 20
9.746317827
 30
0.0
 10
10.8430510365
 20
9.7462203989
 30
0.0
 10
10.8427432362
 20
9.7460896948
 30
0.0
 10
10.8425121724
 20
9.7459235728
 30
0.0
 10
10.8424095583
 20
9.7457804301
 30
0.0
 10
10.8423768287
 20
9.7457073211
 30
0.0
  0
SPLINE
  5
41F
100
AcDbEntity
  8
0
100
AcDbSpline
 62
7
  6
CONTINUOUS
 70
0
 71
3
 72
28
 73
24
 74
0
 42
0.0000001
 43
0.0000001
 44
0.0000000001
 40
0.0
 40
0.0
 40
0.0
 40
0.0
 40
0.0640043076
 40
0.1355341135
 40
0.2130023138
 40
0.2946791797
 40
0.378759243
 40
0.4634104566
 40
0.5468214573
 40
0.6272440035
 40
0.7030240452
 40
0.7726313021
 40
0.8346817787
 40
0.8624889604
 40
0.8879691978
 40
0.9110035834
 40
0.9314921085
 40
0.9493543328
 40
0.9645399659
 40
0.9770420695
 40
0.9823079979
 40
0.9869413833
 40
1.0
 40
1.0
 40
1.0
 40
1.0
 10
11.0206449388
 20
9.6720931308
 30
0.0
 10
11.019858562
 20
9.67244511
 30
0.0
 10
11.0181794692
 20
9.6731595414
 30
0.0
 10
11.0155117943
 20
9.6742110914
 30
0.0
 10
11.0125979941
 20
9.6752847924
 30
0.0
 10
11.0095038937
 20
9.6763558065
 30
0.0
 10
11.006298673
 20
9.6773996193
 30
0.0
 10
11.0030529618
 20
9.6783927182
 30
0.0
 10
10.9998370682
 20
9.6793131516
 30
0.0
 10
10.9967194786
 20
9.6801409821
 30
0.0
 10
10.9937655572
 20
9.6808587388
 30
0.0
 10
10.9910366004
 20
9.6814515056
 30
0.0
 10
10.9889259633
 20
9.6818450979
 30
0.0
 10
10.9873917401
 20
9.6820836659
 30
0.0
 10
10.9863730955
 20
9.6822180505
 30
0.0
 10
10.9854490823
 20
9.6823140075
 30
0.0
 10
10.9846245392
 20
9.6823711369
 30
0.0
 10
10.9839038852
 20
9.6823894433
 30
0.0
 10
10.9832904284
 20
9.6823687627
 30
0.0
 10
10.9828495616
 20
9.6823178599
 30
0.0
 10
10.9825535979
 20
9.6822524855
 30
0.0
 10
10.9822627296
 20
9.6821629352
 30
0.0
 10
10.9820226686
 20
9.682029732
 30
0.0
 10
10.9819508408
 20
9.6818692963
 30
0.0
  0
SPLINE
  5
420
100
AcDbEntity
  8
0
100
AcDbSpline
 62
7
  6
CONTINUOUS
 70
0
 71
3
 72
22
 73
18
 74
0
 42
0.0000001
 43
0.0000001
 44
0.0000000001
 40
0.0
 40
0.0
 40
0.0
 40
0.0
 40
0.0170225529
 40
0.0365321826
 40
0.0825840052
 40
0.1372038052
 40
0.1992365905
 40
0.2673749091
 40
0.340198746
 40
0.4938871312
 40
0.6480847091
 40
0.7216169684
 40
0.7908667601
 40
0.854502213
 40
0.9112891733
 40
0.9601123739
 40
1.0
 40
1.0
 40
1.0
 40
1.0
 10
11.1210166764
 20
9.6271671403
 30
0.0
 10
11.1207972706
 20
9.6272653455
 30
0.0
 10
11.1203230785
 20
9.6274686907
 30
0.0
 10
11.1192414569
 20
9.627904865
 30
0.0
 10
11.1176510691
 20
9.6284979813
 30
0.0
 10
11.115480901
 20
9.6292528753
 30
0.0
 10
11.1130018133
 20
9.6300678454
 30
0.0
 10
11.1102663344
 20
9.6309250373
 30
0.0
 10
11.106280934
 20
9.6321208864
 30
0.0
 10
11.1011061578
 20
9.6335800076
 30
0.0
 10
11.0958931076
 20
9.6349362369
 30
0.0
 10
11.0918168174
 20
9.6359222191
 30
0.0
 10
11.0889751087
 20
9.6365717025
 30
0.0
 10
11.0863555446
 20
9.6371306276
 30
0.0
 10
11.084009674
 20
9.6375885763
 30
0.0
 10
11.0819846608
 20
9.6379370325
 30
0.0
 10
11.0807437732
 20
9.6381118206
 30
0.0
 10
11.0801840662
 20
9.6381750479
 30
0.0
  0
SPLINE
  5
421
100
AcDbEntity
  8
0
100
AcDbSpline
 62
7
  6
CONTINUOUS
 70
0
 71
3
 72
16
 73
12
 74
0
 42
0.0000001
 43
0.0000001
 44
0.0000000001
 40
0.0
 40
0.0
 40
0.0
 40
0.0
 40
0.2136321897
 40
0.4020743903
 40
0.5648131708
 40
0.7015335171
 40
0.8121553087
 40
0.897103119
 40
0.9304129502
 40
0.9581070671
 40
1.0
 40
1.0
 40
1.0
 40
1.0
 10
11.0801840662
 20
9.6381750479
 30
0.0
 10
11.0800011891
 20
9.6381957066
 30
0.0
 10
11.0796566132
 20
9.6382313249
 30
0.0
 10
11.0791714433
 20
9.6382691769
 30
0.0
 10
11.0787514639
 20
9.6382880813
 30
0.0
 10
11.0783979944
 20
9.6382883185
 30
0.0
 10
11.0781121197
 20
9.6382697984
 30
0.0
 10
11.0779169047
 20
9.6382378665
 30
0.0
 10
11.0777967313
 20
9.6381989934
 30
0.0
 10
11.0777171374
 20
9.6381610868
 30
0.0
 10
11.0776689575
 20
9.6381182629
 30
0.0
 10
11.0776542082
 20
9.6380853243
 30
0.0
  0
SPLINE
  5
422
100
AcDbEntity
  8
0
100
AcDbSpline
 62
7
  6
CONTINUOUS
 70
0
 71
3
 72
49
 73
45
 74
0
 42
0.0000001
 43
0.0000001
 44
0.0000000001
 40
0.0
 40
0.0
 40
0.0
 40
0.0
 40
0.0017697932
 40
0.004713781
 40
0.00882701
 40
0.014099792
 40
0.020518094
 40
0.0280667861
 40
0.0464730734
 40
0.069130953
 40
0.095810123
 40
0.126242295
 40
0.1601257017
 40
0.1971290287
 40
0.2368951772
 40
0.3231882121
 40
0.4158023792
 40
0.5113790001
 40
0.6065007489
 40
0.6528283902
 40
0.6977771385
 40
0.7409403614
 40
0.7819227647
 40
0.8203437167
 40
0.8558407097
 40
0.888072426
 40
0.9167222779
 40
0.9296130719
 40
0.9415036214
 40
0.9523634304
 40
0.9621637611
 40
0.9708798834
 40
0.9784879749
 40
0.9849682939
 40
0.9903039639
 40
0.9925376282
 40
0.9944800577
 40
0.9961301979
 40
0.9974870859
 40
0.998549953
 40
0.9993187587
 40
0.9997958854
 40
0.9999285184
 40
1.0
 40
1.0
 40
1.0
 40
1.0
 10
11.16205096
 20
9.6088003583
 30
0.0
 10
11.1620258193
 20
9.6088116111
 30
0.0
 10
11.1619565884
 20
9.6088362334
 30
0.0
 10
11.1618261596
 20
9.608879193
 30
0.0
 10
11.1616427156
 20
9.6089356506
 30
0.0
 10
11.1614069995
 20
9.6090058946
 30
0.0
 10
11.1611194486
 20
9.6090894507
 30
0.0
 10
11.1606349731
 20
9.6092277956
 30
0.0
 10
11.1599063264
 20
9.6094315277
 30
0.0
 10
11.1588897278
 20
9.6097110432
 30
0.0
 10
11.1576915994
 20
9.6100362951
 30
0.0
 10
11.1563239242
 20
9.6104038321
 30
0.0
 10
11.1548001959
 20
9.610809787
 30
0.0
 10
11.1531352558
 20
9.6112499786
 30
0.0
 10
11.1506806069
 20
9.6118943853
 30
0.0
 10
11.1473866682
 20
9.6127503239
 30
0.0
 10
11.1432488032
 20
9.6138121747
 30
0.0
 10
11.138974573
 20
9.6148953514
 30
0.0
 10
11.1353959046
 20
9.615790663
 30
0.0
 10
11.1325799447
 20
9.6164879656
 30
0.0
 10
11.1305481101
 20
9.6169875556
 30
0.0
 10
11.1285962452
 20
9.6174639566
 30
0.0
 10
11.1267422728
 20
9.6179129546
 30
0.0
 10
11.1250034646
 20
9.6183305642
 30
0.0
 10
11.1233962899
 20
9.6187130567
 30
0.0
 10
11.1219362611
 20
9.6190569845
 30
0.0
 10
11.1208179978
 20
9.6193172838
 30
0.0
 10
11.1200076003
 20
9.6195037691
 30
0.0
 10
11.1194667961
 20
9.6196271581
 30
0.0
 10
11.1189726451
 20
9.6197387907
 30
0.0
 10
11.1185264309
 20
9.619838406
 30
0.0
 10
11.1181293376
 20
9.6199257712
 30
0.0
 10
11.1177824152
 20
9.6200006904
 30
0.0
 10
11.1174865955
 20
9.6200629894
 30
0.0
 10
11.1172723146
 20
9.6201065534
 30
0.0
 10
11.117126994
 20
9.6201347933
 30
0.0
 10
11.117037863
 20
9.6201514477
 30
0.0
 10
11.1169619969
 20
9.6201648714
 30
0.0
 10
11.1168995112
 20
9.62017506
 30
0.0
 10
11.116850289
 20
9.620182061
 30
0.0
 10
11.1168147506
 20
9.6201858825
 30
0.0
 10
11.1167929333
 20
9.6201868285
 30
0.0
 10
11.1167826959
 20
9.6201856456
 30
0.0
 10
11.1167794116
 20
9.6201841552
 30
0.0
 10
11.1167789546
 20
9.6201831409
 30
0.0
  0
LINE
  5
423
100
AcDbEntity
  8
0
100
AcDbLine
 62
7
  6
CONTINUOUS
 10
10.3324132106
 20
9.9191526773
 11
10.3319205649
 21
9.9192822753
  0
SPLINE
  5
424
100
AcDbEntity
  8
0
100
AcDbSpline
 62
7
  6
CONTINUOUS
 70
0
 71
3
 72
19
 73
15
 74
0
 42
0.0000001
 43
0.0000001
 44
0.0000000001
 40
0.0
 40
0.0
 40
0.0
 40
0.0
 40
0.2161081132
 40
0.4076769557
 40
0.5730442166
 40
0.7110644053
 40
0.7695884901
 40
0.8210844776
 40
0.8656057863
 40
0.9033167253
 40
0.9345728076
 40
0.9600567793
 40
0.9810943675
 40
1.0
 40
1.0
 40
1.0
 40
1.0
 10
10.4168634472
 20
9.8813530874
 30
0.0
 10
10.4164197252
 20
9.8815516956
 30
0.0
 10
10.415578617
 20
9.8819174373
 30
0.0
 10
10.4143824061
 20
9.8823984805
 30
0.0
 10
10.4133347695
 20
9.8827762645
 30
0.0
 10
10.4125557295
 20
9.8830148175
 30
0.0
 10
10.4120133683
 20
9.883146589
 30
0.0
 10
10.4116718073
 20
9.8832122636
 30
0.0
 10
10.4113731478
 20
9.8832504203
 30
0.0
 10
10.4111176557
 20
9.8832610642
 30
0.0
 10
10.4109051208
 20
9.8832442577
 30
0.0
 10
10.4107346307
 20
9.8831993451
 30
0.0
 10
10.4106053641
 20
9.8831234321
 30
0.0
 10
10.4105500795
 20
9.8830486839
 30
0.0
 10
10.410532706
 20
9.8830098655
 30
0.0
  0
SPLINE
  5
425
100
AcDbEntity
  8
0
100
AcDbSpline
 62
7
  6
CONTINUOUS
 70
0
 71
3
 72
24
 73
20
 74
0
 42
0.0000001
 43
0.0000001
 44
0.0000000001
 40
0.0
 40
0.0
 40
0.0
 40
0.0
 40
0.1996739984
 40
0.3853492498
 40
0.4713662314
 40
0.5520678601
 40
0.626945105
 40
0.6955499181
 40
0.7574976363
 40
0.8124815724
 40
0.8602929968
 40
0.9008458012
 40
0.9342463042
 40
0.9483971922
 40
0.9609699171
 40
0.9721255873
 40
0.9821055843
 40
0.9912496639
 40
1.0
 40
1.0
 40
1.0
 40
1.0
 10
10.5726472178
 20
9.8116248914
 30
0.0
 10
10.571543511
 20
9.8121189061
 30
0.0
 10
10.5694002796
 20
9.8130431785
 30
0.0
 10
10.5667445113
 20
9.8140915529
 30
0.0
 10
10.5647375536
 20
9.8148175273
 30
0.0
 10
10.5633512537
 20
9.8152857271
 30
0.0
 10
10.5620545696
 20
9.8156885434
 30
0.0
 10
10.5608561672
 20
9.8160233085
 30
0.0
 10
10.5597638688
 20
9.8162879065
 30
0.0
 10
10.5587846338
 20
9.816480763
 30
0.0
 10
10.557924235
 20
9.8166010638
 30
0.0
 10
10.5571876243
 20
9.8166483018
 30
0.0
 10
10.5566526295
 20
9.8166263965
 30
0.0
 10
10.5562932011
 20
9.8165650937
 30
0.0
 10
10.5560718275
 20
9.816502986
 30
0.0
 10
10.5558836025
 20
9.8164220671
 30
0.0
 10
10.5557287371
 20
9.8163218456
 30
0.0
 10
10.5556080812
 20
9.8162018187
 30
0.0
 10
10.5555511934
 20
9.8161080541
 30
0.0
 10
10.5555295471
 20
9.8160596849
 30
0.0
  0
SPLINE
  5
426
100
AcDbEntity
  8
0
100
AcDbSpline
 62
7
  6
CONTINUOUS
 70
0
 71
3
 72
25
 73
21
 74
0
 42
0.0000001
 43
0.0000001
 44
0.0000000001
 40
0.0
 40
0.0
 40
0.0
 40
0.0
 40
0.1715704842
 40
0.3463142627
 40
0.4318271561
 40
0.5145243695
 40
0.5932966942
 40
0.6671132312
 40
0.7350382093
 40
0.7962459795
 40
0.8500371413
 40
0.8958647112
 40
0.9156780374
 40
0.9333922946
 40
0.9490121819
 40
0.9625809541
 40
0.9741946646
 40
0.9840417066
 40
0.9924583351
 40
1.0
 40
1.0
 40
1.0
 40
1.0
 10
10.7524212414
 20
9.7311587535
 30
0.0
 10
10.7507938065
 20
9.7318871869
 30
0.0
 10
10.7474779579
 20
9.7332891476
 30
0.0
 10
10.7432822891
 20
9.7348845683
 30
0.0
 10
10.73991564
 20
9.7360550004
 30
0.0
 10
10.7374743809
 20
9.7368483181
 30
0.0
 10
10.735132515
 20
9.7375523203
 30
0.0
 10
10.7329218518
 20
9.7381572352
 30
0.0
 10
10.7308719353
 20
9.7386548695
 30
0.0
 10
10.7290095911
 20
9.7390388638
 30
0.0
 10
10.7273588729
 20
9.7393043463
 30
0.0
 10
10.7261229486
 20
9.7394308568
 30
0.0
 10
10.7252569718
 20
9.739462658
 30
0.0
 10
10.7247043993
 20
9.7394540532
 30
0.0
 10
10.7242181405
 20
9.7394143607
 30
0.0
 10
10.7237993419
 20
9.739343752
 30
0.0
 10
10.7234486513
 20
9.739242192
 30
0.0
 10
10.7231661889
 20
9.7391089682
 30
0.0
 10
10.7229525644
 20
9.7389420679
 30
0.0
 10
10.722856781
 20
9.7388023008
 30
0.0
 10
10.7228247562
 20
9.7387307666
 30
0.0
  0
SPLINE
  5
427
100
AcDbEntity
  8
0
100
AcDbSpline
 62
7
  6
CONTINUOUS
 70
0
 71
3
 72
31
 73
27
 74
0
 42
0.0000001
 43
0.0000001
 44
0.0000000001
 40
0.0
 40
0.0
 40
0.0
 40
0.0
 40
0.0594644182
 40
0.1275564935
 40
0.2026544494
 40
0.2829558761
 40
0.3665515522
 40
0.4514816236
 40
0.535791002
 40
0.6175775172
 40
0.6950298698
 40
0.7664605018
 40
0.8303329327
 40
0.8590047182
 40
0.8852947151
 40
0.9090677832
 40
0.9302055347
 40
0.9486118981
 40
0.9642174348
 40
0.9769952216
 40
0.9823374935
 40
0.9870017039
 40
0.9910204859
 40
0.9944516004
 40
0.9973922351
 40
1.0
 40
1.0
 40
1.0
 40
1.0
 10
10.9015515077
 20
9.6644086396
 30
0.0
 10
10.9007973919
 20
9.6647461788
 30
0.0
 10
10.899164717
 20
9.6654367016
 30
0.0
 10
10.8965416161
 20
9.6664608925
 30
0.0
 10
10.8936240909
 20
9.6675248481
 30
0.0
 10
10.8904827391
 20
9.6686017904
 30
0.0
 10
10.8871927859
 20
9.6696648117
 30
0.0
 10
10.8838318996
 20
9.6706877428
 30
0.0
 10
10.8804780816
 20
9.6716458338
 30
0.0
 10
10.8772078585
 20
9.6725163535
 30
0.0
 10
10.8740947348
 20
9.6732791587
 30
0.0
 10
10.8712080054
 20
9.6739169103
 30
0.0
 10
10.8689702626
 20
9.6743471999
 30
0.0
 10
10.8673407117
 20
9.6746137437
 30
0.0
 10
10.8662574852
 20
9.6747672882
 30
0.0
 10
10.8652746441
 20
9.6748811311
 30
0.0
 10
10.8643978182
 20
9.6749547359
 30
0.0
 10
10.8636319731
 20
9.6749880327
 30
0.0
 10
10.8629815884
 20
9.6749810017
 30
0.0
 10
10.862513861
 20
9.6749404023
 30
0.0
 10
10.8622022579
 20
9.6748831595
 30
0.0
 10
10.8620137493
 20
9.6748327344
 30
0.0
 10
10.8618562347
 20
9.6747722685
 30
0.0
 10
10.8617296503
 20
9.6747014459
 30
0.0
 10
10.8616340823
 20
9.6746196228
 30
0.0
 10
10.8615904568
 20
9.6745543857
 30
0.0
 10
10.8615756574
 20
9.6745213132
 30
0.0
  0
LINE
  5
428
100
AcDbEntity
  8
0
100
AcDbLine
 62
7
  6
CONTINUOUS
 10
10.9747167609
 20
9.6316601633
 11
10.9732610196
 21
9.6321776339
  0
SPLINE
  5
429
100
AcDbEntity
  8
0
100
AcDbSpline
 62
7
  6
CONTINUOUS
 70
0
 71
3
 72
20
 73
16
 74
0
 42
0.0000001
 43
0.0000001
 44
0.0000000001
 40
0.0
 40
0.0
 40
0.0
 40
0.0
 40
0.0363242878
 40
0.0829902772
 40
0.1388833442
 40
0.2026870891
 40
0.3480073503
 40
0.5059902019
 40
0.6629851063
 40
0.7368930202
 40
0.8055906977
 40
0.8675687678
 40
0.9214321633
 40
0.965931477
 40
1.0
 40
1.0
 40
1.0
 40
1.0
 10
10.9732610196
 20
9.6321776339
 30
0.0
 10
10.9727602942
 20
9.6323396239
 30
0.0
 10
10.9716117101
 20
9.6326955225
 30
0.0
 10
10.9696826935
 20
9.6332680844
 30
0.0
 10
10.9673661369
 20
9.6339338909
 30
0.0
 10
10.9636687539
 20
9.6349694312
 30
0.0
 10
10.9585343693
 20
9.6363580935
 30
0.0
 10
10.9520797826
 20
9.6380356267
 30
0.0
 10
10.946612561
 20
9.6393979813
 30
0.0
 10
10.9423917166
 20
9.6404110393
 30
0.0
 10
10.9395051809
 20
9.6410846326
 30
0.0
 10
10.9368971706
 20
9.6416735516
 30
0.0
 10
10.9346268304
 20
9.6421658783
 30
0.0
 10
10.9327472631
 20
9.6425515211
 30
0.0
 10
10.9316286477
 20
9.6427630341
 30
0.0
 10
10.9311421748
 20
9.6428465756
 30
0.0
  0
LINE
  5
42A
100
AcDbEntity
  8
0
100
AcDbLine
 62
7
  6
CONTINUOUS
 10
10.9311421748
 20
9.6428465756
 11
10.9296386134
 21
9.6429969111
  0
SPLINE
  5
42B
100
AcDbEntity
  8
0
100
AcDbSpline
 62
7
  6
CONTINUOUS
 70
0
 71
3
 72
19
 73
15
 74
0
 42
0.0000001
 43
0.0000001
 44
0.0000000001
 40
0.0
 40
0.0
 40
0.0
 40
0.0
 40
0.0189993326
 40
0.0400404341
 40
0.0654340845
 40
0.0965156159
 40
0.1339996841
 40
0.1782538207
 40
0.2294600977
 40
0.2877044533
 40
0.4252565905
 40
0.5904933872
 40
0.7825354352
 40
1.0
 40
1.0
 40
1.0
 40
1.0
 10
10.9060976511
 20
9.6613942135
 30
0.0
 10
10.9061122112
 20
9.6614267412
 30
0.0
 10
10.9061283229
 20
9.6615027083
 30
0.0
 10
10.9061044511
 20
9.6616254266
 30
0.0
 10
10.9060384915
 20
9.6617562758
 30
0.0
 10
10.9059319043
 20
9.6618974055
 30
0.0
 10
10.9057844951
 20
9.6620497355
 30
0.0
 10
10.9055961302
 20
9.6622134814
 30
0.0
 10
10.9053668659
 20
9.6623885361
 30
0.0
 10
10.9049852102
 20
9.6626514529
 30
0.0
 10
10.9044053509
 20
9.6630022589
 30
0.0
 10
10.9035883968
 20
9.663443252
 30
0.0
 10
10.9026216737
 20
9.6639208307
 30
0.0
 10
10.90192382
 20
9.6642419941
 30
0.0
 10
10.9015515077
 20
9.6644086396
 30
0.0
  0
SPLINE
  5
42C
100
AcDbEntity
  8
0
100
AcDbSpline
 62
7
  6
CONTINUOUS
 70
0
 71
3
 72
23
 73
19
 74
0
 42
0.0000001
 43
0.0000001
 44
0.0000000001
 40
0.0
 40
0.0
 40
0.0
 40
0.0
 40
0.0088592628
 40
0.0180726185
 40
0.0280722741
 40
0.0391972778
 40
0.0656780567
 40
0.0987233029
 40
0.1388093665
 40
0.1860837808
 40
0.2405035268
 40
0.3018995632
 40
0.3700161423
 40
0.4445184368
 40
0.5250124593
 40
0.6110497097
 40
0.7976922763
 40
1.0
 40
1.0
 40
1.0
 40
1.0
 10
10.7658326205
 20
9.7222208311
 30
0.0
 10
10.7658526059
 20
9.7222654928
 30
0.0
 10
10.7658824417
 20
9.7223619348
 30
0.0
 10
10.7658923053
 20
9.72251789
 30
0.0
 10
10.765868262
 20
9.7226847199
 30
0.0
 10
10.7657870852
 20
9.7229358233
 30
0.0
 10
10.7655914673
 20
9.7232774742
 30
0.0
 10
10.7652441147
 20
9.7237055315
 30
0.0
 10
10.7647711842
 20
9.7241744781
 30
0.0
 10
10.7641742977
 20
9.7246820915
 30
0.0
 10
10.7634558377
 20
9.725226001
 30
0.0
 10
10.7626195295
 20
9.7258031129
 30
0.0
 10
10.7616699752
 20
9.7264100605
 30
0.0
 10
10.7606126941
 20
9.7270432611
 30
0.0
 10
10.7594539939
 20
9.727698911
 30
0.0
 10
10.7577360508
 20
9.7286229598
 30
0.0
 10
10.7553903576
 20
9.7297987918
 30
0.0
 10
10.7534410826
 20
9.7307022767
 30
0.0
 10
10.7524212414
 20
9.7311587535
 30
0.0
  0
SPLINE
  5
42D
100
AcDbEntity
  8
0
100
AcDbSpline
 62
7
  6
CONTINUOUS
 70
0
 71
3
 72
25
 73
21
 74
0
 42
0.0000001
 43
0.0000001
 44
0.0000000001
 40
0.0
 40
0.0
 40
0.0
 40
0.0
 40
0.0077314561
 40
0.0162565553
 40
0.0261138489
 40
0.0376444177
 40
0.051045331
 40
0.0664260124
 40
0.0838371343
 40
0.1032959804
 40
0.1482905692
 40
0.2011466542
 40
0.2613904781
 40
0.3283992958
 40
0.4014283829
 40
0.4796259669
 40
0.5620484635
 40
0.6476749468
 40
0.824155809
 40
1.0
 40
1.0
 40
1.0
 40
1.0
 10
10.5967157359
 20
9.7954798508
 30
0.0
 10
10.5967469135
 20
9.7955494922
 30
0.0
 10
10.5967875711
 20
9.7957079738
 30
0.0
 10
10.5967758257
 20
9.7959681278
 30
0.0
 10
10.5966975465
 20
9.7962545898
 30
0.0
 10
10.5965545833
 20
9.7965678898
 30
0.0
 10
10.5963476706
 20
9.7969084821
 30
0.0
 10
10.5960771127
 20
9.7972759478
 30
0.0
 10
10.5957435455
 20
9.7976696037
 30
0.0
 10
10.5951881929
 20
9.7982568196
 30
0.0
 10
10.5943364734
 20
9.7990427768
 30
0.0
 10
10.5931280986
 20
9.8000306814
 30
0.0
 10
10.5917017034
 20
9.8010921472
 30
0.0
 10
10.5900742235
 20
9.8022144255
 30
0.0
 10
10.5882652422
 20
9.8033838189
 30
0.0
 10
10.5862972143
 20
9.8045858889
 30
0.0
 10
10.5841950413
 20
9.8058056076
 30
0.0
 10
10.5812193867
 20
9.8074511983
 30
0.0
 10
10.5773773315
 20
9.8094332177
 30
0.0
 10
10.5742311949
 20
9.8109159095
 30
0.0
 10
10.5726472178
 20
9.8116248914
 30
0.0
  0
SPLINE
  5
42E
100
AcDbEntity
  8
0
100
AcDbSpline
 62
7
  6
CONTINUOUS
 70
0
 71
3
 72
28
 73
24
 74
0
 42
0.0000001
 43
0.0000001
 44
0.0000000001
 40
0.0
 40
0.0
 40
0.0
 40
0.0
 40
0.0131161021
 40
0.0177744854
 40
0.0230694133
 40
0.0356414223
 40
0.0509116247
 40
0.0688719078
 40
0.0894704722
 40
0.1126254019
 40
0.1382349593
 40
0.1661783916
 40
0.228513517
 40
0.298405421
 40
0.3744475917
 40
0.4550845562
 40
0.5386354751
 40
0.6233251139
 40
0.7073166164
 40
0.7887556175
 40
0.8658189939
 40
0.9367648599
 40
1.0
 40
1.0
 40
1.0
 40
1.0
 10
10.4501378369
 20
9.8588976751
 30
0.0
 10
10.4502103709
 20
9.8590597738
 30
0.0
 10
10.4501486966
 20
9.8593303721
 30
0.0
 10
10.4500201541
 20
9.8596098041
 30
0.0
 10
10.4498698604
 20
9.8598769986
 30
0.0
 10
10.4496109707
 20
9.8602436884
 30
0.0
 10
10.4492129283
 20
9.8607201129
 30
0.0
 10
10.4487132171
 20
9.8612509868
 30
0.0
 10
10.448114203
 20
9.8618338705
 30
0.0
 10
10.4474188804
 20
9.8624653704
 30
0.0
 10
10.4466308401
 20
9.8631420601
 30
0.0
 10
10.4454169295
 20
9.8641364374
 30
0.0
 10
10.4436980771
 20
9.8654595814
 30
0.0
 10
10.4414132354
 20
9.8671127452
 30
0.0
 10
10.4388842153
 20
9.8688495329
 30
0.0
 10
10.4361643454
 20
9.870633703
 30
0.0
 10
10.4333116859
 20
9.8724277382
 30
0.0
 10
10.4303882593
 20
9.8741934931
 30
0.0
 10
10.4274587627
 20
9.8758928664
 30
0.0
 10
10.424589145
 20
9.8774886175
 30
0.0
 10
10.4218449353
 20
9.8789453168
 30
0.0
 10
10.4192894068
 20
9.880230301
 30
0.0
 10
10.4176449174
 20
9.8810033044
 30
0.0
 10
10.4168634472
 20
9.8813530874
 30
0.0
  0
SPLINE
  5
42F
100
AcDbEntity
  8
0
100
AcDbSpline
 62
7
  6
CONTINUOUS
 70
0
 71
3
 72
17
 73
13
 74
0
 42
0.0000001
 43
0.0000001
 44
0.0000000001
 40
0.0
 40
0.0
 40
0.0
 40
0.0
 40
0.010422331
 40
0.0263059977
 40
0.0489627263
 40
0.078795212
 40
0.1604640671
 40
0.2715626496
 40
0.411748113
 40
0.5804155054
 40
0.7768057247
 40
1.0
 40
1.0
 40
1.0
 40
1.0
 10
10.370665706
 20
9.8932487205
 30
0.0
 10
10.3706704147
 20
9.8932592377
 30
0.0
 10
10.3706686929
 20
9.89329053
 30
0.0
 10
10.370645739
 20
9.8933394745
 30
0.0
 10
10.3706040252
 20
9.8934029051
 30
0.0
 10
10.3705107406
 20
9.8935182949
 30
0.0
 10
10.370339627
 20
9.8936957075
 30
0.0
 10
10.3700708642
 20
9.8939472615
 30
0.0
 10
10.3697214851
 20
9.8942532047
 30
0.0
 10
10.3692932144
 20
9.8946118812
 30
0.0
 10
10.3687878487
 20
9.8950213205
 30
0.0
 10
10.3684237737
 20
9.8953088348
 30
0.0
 10
10.3682293875
 20
9.8954608511
 30
0.0
  0
SPLINE
  5
430
100
AcDbEntity
  8
0
100
AcDbSpline
 62
7
  6
CONTINUOUS
 70
0
 71
3
 72
19
 73
15
 74
0
 42
0.0000001
 43
0.0000001
 44
0.0000000001
 40
0.0
 40
0.0
 40
0.0
 40
0.0
 40
0.0434050522
 40
0.0947362976
 40
0.1530439614
 40
0.217275684
 40
0.3589022333
 40
0.5098117294
 40
0.6595797183
 40
0.7976665425
 40
0.859156369
 40
0.9140477156
 40
0.9612977625
 40
1.0
 40
1.0
 40
1.0
 40
1.0
 10
10.3682293875
 20
9.8954608511
 30
0.0
 10
10.3677616446
 20
9.8958266412
 30
0.0
 10
10.3667319199
 20
9.8966137331
 30
0.0
 10
10.3650508594
 20
9.8978617972
 30
0.0
 10
10.3631255649
 20
9.8992586166
 30
0.0
 10
10.3601811775
 20
9.9013540162
 30
0.0
 10
10.3561706631
 20
9.9041358074
 30
0.0
 10
10.3511548601
 20
9.9075204309
 30
0.0
 10
10.3461395003
 20
9.910818358
 30
0.0
 10
10.3421150546
 20
9.9133961718
 30
0.0
 10
10.3391631333
 20
9.9152414132
 30
0.0
 10
10.3372550384
 20
9.9164119893
 30
0.0
 10
10.3356022438
 20
9.9174023543
 30
0.0
 10
10.3345852214
 20
9.9179926616
 30
0.0
 10
10.3341240777
 20
9.9182527924
 30
0.0
  0
LINE
  5
431
100
AcDbEntity
  8
0
100
AcDbLine
 62
7
  6
CONTINUOUS
 10
10.3341240777
 20
9.9182527924
 11
10.3324132106
 21
9.9191526773
  0
SPLINE
  5
432
100
AcDbEntity
  8
0
100
AcDbSpline
 62
7
  6
CONTINUOUS
 70
0
 71
3
 72
17
 73
13
 74
0
 42
0.0000001
 43
0.0000001
 44
0.0000000001
 40
0.0
 40
0.0
 40
0.0
 40
0.0
 40
0.0196504641
 40
0.0409973241
 40
0.0663243169
 40
0.0970289524
 40
0.1772729559
 40
0.2849141133
 40
0.4209224351
 40
0.5855834352
 40
0.7787610917
 40
1.0
 40
1.0
 40
1.0
 40
1.0
 10
11.1226709468
 20
9.6260635472
 30
0.0
 10
11.1226764491
 20
9.6260758329
 30
0.0
 10
11.1226828875
 20
9.6261040565
 30
0.0
 10
11.122675375
 20
9.6261497024
 30
0.0
 10
11.1226525359
 20
9.6261980341
 30
0.0
 10
11.1225973743
 20
9.6262737862
 30
0.0
 10
11.1224863629
 20
9.6263758477
 30
0.0
 10
11.1223059986
 20
9.6265052501
 30
0.0
 10
11.1220666472
 20
9.6266504894
 30
0.0
 10
11.121768828
 20
9.6268111259
 30
0.0
 10
11.1214129826
 20
9.6269866288
 30
0.0
 10
11.1211550114
 20
9.6271052221
 30
0.0
 10
11.1210166764
 20
9.6271671403
 30
0.0
  0
SPLINE
  5
433
100
AcDbEntity
  8
0
100
AcDbSpline
 62
7
  6
CONTINUOUS
 70
0
 71
3
 72
19
 73
15
 74
0
 42
0.0000001
 43
0.0000001
 44
0.0000000001
 40
0.0
 40
0.0
 40
0.0
 40
0.0
 40
0.0191708798
 40
0.0404403299
 40
0.066105695
 40
0.0975003292
 40
0.1353166132
 40
0.1799123686
 40
0.2314594644
 40
0.2900094775
 40
0.4280016756
 40
0.5932119567
 40
0.7844483547
 40
1.0
 40
1.0
 40
1.0
 40
1.0
 10
11.0262857888
 20
9.6683242839
 30
0.0
 10
11.0263040717
 20
9.6683651156
 30
0.0
 10
11.0263242571
 20
9.6684605687
 30
0.0
 10
11.0262945694
 20
9.6686148237
 30
0.0
 10
11.0262123083
 20
9.6687796432
 30
0.0
 10
11.026079162
 20
9.6689575064
 30
0.0
 10
11.025895069
 20
9.6691495508
 30
0.0
 10
11.0256598641
 20
9.6693558997
 30
0.0
 10
11.0253737189
 20
9.6695762944
 30
0.0
 10
11.0248981087
 20
9.6699067266
 30
0.0
 10
11.0241766819
 20
9.6703464279
 30
0.0
 10
11.0231624283
 20
9.6708971347
 30
0.0
 10
11.0219663245
 20
9.6714902651
 30
0.0
 10
11.0211040671
 20
9.6718876268
 30
0.0
 10
11.0206449388
 20
9.6720931308
 30
0.0
  0
SPLINE
  5
434
100
AcDbEntity
  8
0
100
AcDbSpline
 62
7
  6
CONTINUOUS
 70
0
 71
3
 72
22
 73
18
 74
0
 42
0.0000001
 43
0.0000001
 44
0.0000000001
 40
0.0
 40
0.0
 40
0.0
 40
0.0
 40
0.0090999184
 40
0.0184985746
 40
0.0286080614
 40
0.0397612029
 40
0.0660720733
 40
0.0986925154
 40
0.1381673652
 40
0.1847035027
 40
0.2383189451
 40
0.2989136114
 40
0.3662953095
 40
0.4402102585
 40
0.6063147249
 40
0.7941467062
 40
1.0
 40
1.0
 40
1.0
 40
1.0
 10
10.8857185279
 20
9.7299432185
 30
0.0
 10
10.8857361086
 20
9.7299824924
 30
0.0
 10
10.8857627719
 20
9.7300667513
 30
0.0
 10
10.8857735906
 20
9.7302025941
 30
0.0
 10
10.8857558839
 20
9.7303473354
 30
0.0
 10
10.885691263
 20
9.7305636858
 30
0.0
 10
10.885530937
 20
9.7308572236
 30
0.0
 10
10.8852425014
 20
9.7312236816
 30
0.0
 10
10.884847756
 20
9.7316235228
 30
0.0
 10
10.8843476841
 20
9.7320553058
 30
0.0
 10
10.8837437738
 20
9.7325174341
 30
0.0
 10
10.8830385162
 20
9.7330076466
 30
0.0
 10
10.8822351074
 20
9.7335236172
 30
0.0
 10
10.8809887364
 20
9.7342718762
 30
0.0
 10
10.8792142868
 20
9.73524519
 30
0.0
 10
10.8768470823
 20
9.7364305599
 30
0.0
 10
10.8751574904
 20
9.737212734
 30
0.0
 10
10.874269043
 20
9.7376103995
 30
0.0
  0
SPLINE
  5
435
100
AcDbEntity
  8
0
100
AcDbSpline
 62
7
  6
CONTINUOUS
 70
0
 71
3
 72
25
 73
21
 74
0
 42
0.0000001
 43
0.0000001
 44
0.0000000001
 40
0.0
 40
0.0
 40
0.0
 40
0.0
 40
0.0084362373
 40
0.0173974884
 40
0.0273555316
 40
0.038651918
 40
0.0515128936
 40
0.0660842095
 40
0.0824530308
 40
0.1006691625
 40
0.1427115596
 40
0.1922078199
 40
0.2489464406
 40
0.3125831979
 40
0.3826683863
 40
0.4586625444
 40
0.5399494967
 40
0.6258467524
 40
0.8084414882
 40
1.0
 40
1.0
 40
1.0
 40
1.0
 10
10.719637359
 20
9.8027245954
 30
0.0
 10
10.7196633342
 20
9.8027826382
 30
0.0
 10
10.719700509
 20
9.8029103201
 30
0.0
 10
10.7197057206
 20
9.8031182828
 30
0.0
 10
10.7196628394
 20
9.8033433602
 30
0.0
 10
10.7195732094
 20
9.8035853326
 30
0.0
 10
10.7194375008
 20
9.8038444805
 30
0.0
 10
10.7192559241
 20
9.8041207232
 30
0.0
 10
10.7190287856
 20
9.80441384
 30
0.0
 10
10.7186469016
 20
9.8048475702
 30
0.0
 10
10.7180521877
 20
9.8054243507
 30
0.0
 10
10.7171973476
 20
9.8061452293
 30
0.0
 10
10.7161761464
 20
9.8069184861
 30
0.0
 10
10.7149967636
 20
9.8077376312
 30
0.0
 10
10.7136687977
 20
9.8085956253
 30
0.0
 10
10.7122035792
 20
9.8094849911
 30
0.0
 10
10.7106138878
 20
9.8103978938
 30
0.0
 10
10.7082996402
 20
9.8116614005
 30
0.0
 10
10.7052074917
 20
9.8132328317
 30
0.0
 10
10.7026513563
 20
9.8144257934
 30
0.0
 10
10.7013334383
 20
9.8150156882
 30
0.0
  0
SPLINE
  5
436
100
AcDbEntity
  8
0
100
AcDbSpline
 62
7
  6
CONTINUOUS
 70
0
 71
3
 72
26
 73
22
 74
0
 42
0.0000001
 43
0.0000001
 44
0.0000000001
 40
0.0
 40
0.0
 40
0.0
 40
0.0
 40
0.0075112823
 40
0.0159067897
 40
0.0257405675
 40
0.0373459648
 40
0.0438779064
 40
0.0509137953
 40
0.0665296597
 40
0.0842400224
 40
0.1040488655
 40
0.1259383574
 40
0.1498704385
 40
0.2036416728
 40
0.2648232209
 40
0.3327181711
 40
0.4065047958
 40
0.4852522367
 40
0.653439914
 40
0.8282513057
 40
1.0
 40
1.0
 40
1.0
 40
1.0
 10
10.5501017412
 20
9.8769943311
 30
0.0
 10
10.5501335637
 20
9.8770654429
 30
0.0
 10
10.5501736356
 20
9.8772291896
 30
0.0
 10
10.5501555907
 20
9.8774984634
 30
0.0
 10
10.5500669104
 20
9.8777967852
 30
0.0
 10
10.5499411417
 20
9.8780592015
 30
0.0
 10
10.5498091784
 20
9.8782845743
 30
0.0
 10
10.5496432121
 20
9.8785378587
 30
0.0
 10
10.5493907404
 20
9.8788723606
 30
0.0
 10
10.5490304948
 20
9.8792898092
 30
0.0
 10
10.5486041325
 20
9.8797349908
 30
0.0
 10
10.5481129016
 20
9.8802064753
 30
0.0
 10
10.5473429293
 20
9.8808953465
 30
0.0
 10
10.5462262428
 20
9.8818064943
 30
0.0
 10
10.5447057229
 20
9.8829406589
 30
0.0
 10
10.542975936
 20
9.884139257
 30
0.0
 10
10.5410594792
 20
9.8853865023
 30
0.0
 10
10.5382263979
 20
9.887130458
 30
0.0
 10
10.5344243262
 20
9.8892965129
 30
0.0
 10
10.5296866482
 20
9.8917604177
 30
0.0
 10
10.5264366865
 20
9.8932987786
 30
0.0
 10
10.5248107429
 20
9.8940265445
 30
0.0
  0
SPLINE
  5
437
100
AcDbEntity
  8
0
100
AcDbSpline
 62
7
  6
CONTINUOUS
 70
0
 71
3
 72
29
 73
25
 74
0
 42
0.0000001
 43
0.0000001
 44
0.0000000001
 40
0.0
 40
0.0
 40
0.0
 40
0.0
 40
0.0030213405
 40
0.0062858553
 40
0.0099246103
 40
0.0140310158
 40
0.0238651913
 40
0.0360855052
 40
0.0507962432
 40
0.0680192801
 40
0.0877273568
 40
0.1098641769
 40
0.1610861487
 40
0.2208711621
 40
0.2881913791
 40
0.3618513172
 40
0.4405124708
 40
0.522713488
 40
0.606895311
 40
0.6914270177
 40
0.7746412649
 40
0.8548729876
 40
0.9305001212
 40
1.0
 40
1.0
 40
1.0
 40
1.0
 10
10.3996335306
 20
9.9428884729
 30
0.0
 10
10.3996493799
 20
9.9429238918
 30
0.0
 10
10.3996729007
 20
9.9430020831
 30
0.0
 10
10.3996813873
 20
9.9431300945
 30
0.0
 10
10.3996648389
 20
9.9432711596
 30
0.0
 10
10.3996063167
 20
9.9434898285
 30
0.0
 10
10.3994637808
 20
9.9437964032
 30
0.0
 10
10.399208654
 20
9.9441945115
 30
0.0
 10
10.398859868
 20
9.9446424466
 30
0.0
 10
10.3984187075
 20
9.945138113
 30
0.0
 10
10.3978868329
 20
9.9456793918
 30
0.0
 10
10.3970164387
 20
9.946498915
 30
0.0
 10
10.3957157386
 20
9.9476103642
 30
0.0
 10
10.3939122903
 20
9.949022787
 30
0.0
 10
10.3918302637
 20
9.9505445146
 30
0.0
 10
10.389508388
 20
9.9521469566
 30
0.0
 10
10.3869901364
 20
9.9537998211
 30
0.0
 10
10.3843235613
 20
9.9554716717
 30
0.0
 10
10.3815604319
 20
9.957130287
 30
0.0
 10
10.3787553739
 20
9.9587432213
 30
0.0
 10
10.375964798
 20
9.9602784369
 30
0.0
 10
10.3732456431
 20
9.9617050317
 30
0.0
 10
10.370653963
 20
9.9629940296
 30
0.0
 10
10.3689647878
 20
9.963782574
 30
0.0
 10
10.368150081
 20
9.9641472336
 30
0.0
  0
SPLINE
  5
438
100
AcDbEntity
  8
0
100
AcDbSpline
 62
7
  6
CONTINUOUS
 70
0
 71
3
 72
16
 73
12
 74
0
 42
0.0000001
 43
0.0000001
 44
0.0000000001
 40
0.0
 40
0.0
 40
0.0
 40
0.0
 40
0.0471353798
 40
0.0767076772
 40
0.11141659
 40
0.1979290048
 40
0.3087502338
 40
0.4444904306
 40
0.605164863
 40
0.7904986506
 40
1.0
 40
1.0
 40
1.0
 40
1.0
 10
10.2882249718
 20
9.9916630394
 30
0.0
 10
10.2882436587
 20
9.9917048082
 30
0.0
 10
10.2882488067
 20
9.9917835417
 30
0.0
 10
10.2882257869
 20
9.9918889709
 30
0.0
 10
10.2881751658
 20
9.9920269458
 30
0.0
 10
10.2880643185
 20
9.9922241581
 30
0.0
 10
10.2878756175
 20
9.9924870898
 30
0.0
 10
10.2876217008
 20
9.9927904821
 30
0.0
 10
10.2873034391
 20
9.9931333398
 30
0.0
 10
10.2869216245
 20
9.9935143287
 30
0.0
 10
10.2866423988
 20
9.9937769887
 30
0.0
 10
10.2864927111
 20
9.9939146749
 30
0.0
  0
SPLINE
  5
439
100
AcDbEntity
  8
0
100
AcDbSpline
 62
7
  6
CONTINUOUS
 70
0
 71
3
 72
20
 73
16
 74
0
 42
0.0000001
 43
0.0000001
 44
0.0000000001
 40
0.0
 40
0.0
 40
0.0
 40
0.0
 40
0.0401717673
 40
0.0883801902
 40
0.1438048178
 40
0.2055034077
 40
0.2724317131
 40
0.3434594267
 40
0.4929349748
 40
0.6436886356
 40
0.7850881641
 40
0.8490311333
 40
0.9068573537
 40
0.9574897384
 40
1.0
 40
1.0
 40
1.0
 40
1.0
 10
10.2864927111
 20
9.9939146749
 30
0.0
 10
10.2860891843
 20
9.994285848
 30
0.0
 10
10.2851778478
 20
9.9950767978
 30
0.0
 10
10.2836523642
 20
9.996312032
 30
0.0
 10
10.2818628478
 20
9.997686916
 30
0.0
 10
10.2798403411
 20
9.9991769308
 30
0.0
 10
10.2776194851
 20
10.0007560685
 30
0.0
 10
10.2743891871
 20
10.0029821419
 30
0.0
 10
10.2701597703
 20
10.0057736461
 30
0.0
 10
10.2650522244
 20
10.0089750349
 30
0.0
 10
10.260872679
 20
10.0114566151
 30
0.0
 10
10.2577433221
 20
10.0132198517
 30
0.0
 10
10.2556732339
 20
10.0143387813
 30
0.0
 10
10.2538395284
 20
10.015278807
 30
0.0
 10
10.2526916838
 20
10.0158259528
 30
0.0
 10
10.2521621213
 20
10.0160629829
 30
0.0
  0
LINE
  5
43A
100
AcDbEntity
  8
0
100
AcDbLine
 62
7
  6
CONTINUOUS
 10
10.2306808756
 20
10.0168508731
 11
10.2288068951
 21
10.0184894265
  0
SPLINE
  5
43B
100
AcDbEntity
  8
0
100
AcDbSpline
 62
7
  6
CONTINUOUS
 70
0
 71
3
 72
19
 73
15
 74
0
 42
0.0000001
 43
0.0000001
 44
0.0000000001
 40
0.0
 40
0.0
 40
0.0
 40
0.0
 40
0.040100524
 40
0.0892350445
 40
0.1463669045
 40
0.2103249245
 40
0.3535173107
 40
0.5076856525
 40
0.6609701652
 40
0.8014008634
 40
0.8632069403
 40
0.9176522084
 40
0.9635794973
 40
1.0
 40
1.0
 40
1.0
 40
1.0
 10
10.2288068951
 20
10.0184894265
 30
0.0
 10
10.2283586381
 20
10.0188344885
 30
0.0
 10
10.2273526413
 20
10.0195912973
 30
0.0
 10
10.2256872984
 20
10.0208119404
 30
0.0
 10
10.2237373201
 20
10.0222133775
 30
0.0
 10
10.2206936857
 20
10.0243664325
 30
0.0
 10
10.2165040489
 20
10.0272695159
 30
0.0
 10
10.2112424403
 20
10.0308373969
 30
0.0
 10
10.2059797854
 20
10.0343338072
 30
0.0
 10
10.2017758224
 20
10.0370688514
 30
0.0
 10
10.1987226165
 20
10.0390154706
 30
0.0
 10
10.1967847381
 20
10.0402315469
 30
0.0
 10
10.1951407939
 20
10.0412421302
 30
0.0
 10
10.1941434037
 20
10.0418378153
 30
0.0
 10
10.1936990255
 20
10.0420956756
 30
0.0
  0
LINE
  5
43C
100
AcDbEntity
  8
0
100
AcDbLine
 62
7
  6
CONTINUOUS
 10
10.1936990255
 20
10.0420956756
 11
10.1922546056
 21
10.0428773486
  0
LINE
  5
43D
100
AcDbEntity
  8
0
100
AcDbLine
 62
7
  6
CONTINUOUS
 10
11.3440217381
 20
9.5918649804
 11
11.3433611301
 21
9.5923073819
  0
SPLINE
  5
43E
100
AcDbEntity
  8
0
100
AcDbSpline
 62
7
  6
CONTINUOUS
 70
0
 71
3
 72
18
 73
14
 74
0
 42
0.0000001
 43
0.0000001
 44
0.0000000001
 40
0.0
 40
0.0
 40
0.0
 40
0.0
 40
0.0197236604
 40
0.0411978021
 40
0.0666968557
 40
0.0976126368
 40
0.1347261466
 40
0.1784662293
 40
0.2866179835
 40
0.422984009
 40
0.5876263601
 40
0.7802244292
 40
1.0
 40
1.0
 40
1.0
 40
1.0
 10
11.2792577195
 20
9.6204220682
 30
0.0
 10
11.2792664029
 20
9.6204414583
 30
0.0
 10
11.2792765195
 20
9.6204860695
 30
0.0
 10
11.2792646077
 20
9.6205582299
 30
0.0
 10
11.2792285267
 20
9.6206347454
 30
0.0
 10
11.2791692529
 20
9.6207166727
 30
0.0
 10
11.2790867293
 20
9.6208046416
 30
0.0
 10
11.2789343836
 20
9.6209399914
 30
0.0
 10
11.278681694
 20
9.6211215649
 30
0.0
 10
11.278305307
 20
9.6213511934
 30
0.0
 10
11.2778375268
 20
9.6216043585
 30
0.0
 10
11.2772802829
 20
9.6218798592
 30
0.0
 10
11.2768767025
 20
9.6220655472
 30
0.0
 10
11.2766606257
 20
9.6221622623
 30
0.0
  0
SPLINE
  5
43F
100
AcDbEntity
  8
0
100
AcDbSpline
 62
7
  6
CONTINUOUS
 70
0
 71
3
 72
19
 73
15
 74
0
 42
0.0000001
 43
0.0000001
 44
0.0000000001
 40
0.0
 40
0.0
 40
0.0
 40
0.0
 40
0.0193168537
 40
0.0407089288
 40
0.0664647162
 40
0.0979211534
 40
0.1357773855
 40
0.180394434
 40
0.2319483048
 40
0.2904921483
 40
0.4284364813
 40
0.5935539098
 40
0.7846473012
 40
1.0
 40
1.0
 40
1.0
 40
1.0
 10
11.1762320232
 20
9.6658475578
 30
0.0
 10
11.1762505906
 20
9.6658890248
 30
0.0
 10
11.1762712565
 20
9.665985779
 30
0.0
 10
11.1762418951
 20
9.6661422095
 30
0.0
 10
11.1761594925
 20
9.6663093159
 30
0.0
 10
11.1760257852
 20
9.6664895197
 30
0.0
 10
11.1758407292
 20
9.6666839542
 30
0.0
 10
11.1756041716
 20
9.666892749
 30
0.0
 10
11.175316278
 20
9.6671156286
 30
0.0
 10
11.1748376896
 20
9.6674495858
 30
0.0
 10
11.1741115137
 20
9.6678936548
 30
0.0
 10
11.1730903625
 20
9.6684493429
 30
0.0
 10
11.1718860381
 20
9.6690473013
 30
0.0
 10
11.1710177673
 20
9.6694475855
 30
0.0
 10
11.1705554459
 20
9.6696545187
 30
0.0
  0
SPLINE
  5
440
100
AcDbEntity
  8
0
100
AcDbSpline
 62
7
  6
CONTINUOUS
 70
0
 71
3
 72
21
 73
17
 74
0
 42
0.0000001
 43
0.0000001
 44
0.0000000001
 40
0.0
 40
0.0
 40
0.0
 40
0.0
 40
0.009301037
 40
0.0188525017
 40
0.0401526767
 40
0.0663146799
 40
0.0985761778
 40
0.137534983
 40
0.1834501664
 40
0.2363931304
 40
0.2963142166
 40
0.3630841451
 40
0.4365064633
 40
0.6022677017
 40
0.7911191487
 40
1.0
 40
1.0
 40
1.0
 40
1.0
 10
11.0419644171
 20
9.7250429498
 30
0.0
 10
11.0419796523
 20
9.7250769787
 30
0.0
 10
11.0420030555
 20
9.7251495907
 30
0.0
 10
11.0420180303
 20
9.7253109991
 30
0.0
 10
11.0419682861
 20
9.7255390736
 30
0.0
 10
11.0418183498
 20
9.725823589
 30
0.0
 10
11.0415797903
 20
9.7261342071
 30
0.0
 10
11.0412520205
 20
9.7264713894
 30
0.0
 10
11.0408354609
 20
9.7268349469
 30
0.0
 10
11.0403310408
 20
9.7272235839
 30
0.0
 10
11.0397404076
 20
9.727635842
 30
0.0
 10
11.0390657173
 20
9.7280700189
 30
0.0
 10
11.0380142438
 20
9.7287016169
 30
0.0
 10
11.0365088687
 20
9.7295262817
 30
0.0
 10
11.0344880758
 20
9.7305363112
 30
0.0
 10
11.0330407311
 20
9.7312055581
 30
0.0
 10
11.0322764834
 20
9.7315476323
 30
0.0
  0
SPLINE
  5
441
100
AcDbEntity
  8
0
100
AcDbSpline
 62
7
  6
CONTINUOUS
 70
0
 71
3
 72
23
 73
19
 74
0
 42
0.0000001
 43
0.0000001
 44
0.0000000001
 40
0.0
 40
0.0
 40
0.0
 40
0.0
 40
0.0088680895
 40
0.0181227715
 40
0.0281968066
 40
0.0394254604
 40
0.0661916978
 40
0.0995931905
 40
0.1400826046
 40
0.187781531
 40
0.2426187176
 40
0.3044007854
 40
0.3728375009
 40
0.4475609156
 40
0.5281404138
 40
0.6140849453
 40
0.7998362712
 40
1.0
 40
1.0
 40
1.0
 40
1.0
 10
10.8856037094
 20
9.7939712539
 30
0.0
 10
10.8856251921
 20
9.7940192409
 30
0.0
 10
10.8856571799
 20
9.7941231175
 30
0.0
 10
10.8856673631
 20
9.7942913021
 30
0.0
 10
10.8856410418
 20
9.7944716181
 30
0.0
 10
10.8855529958
 20
9.7947437534
 30
0.0
 10
10.8853414429
 20
9.7951146551
 30
0.0
 10
10.8849664609
 20
9.79558039
 30
0.0
 10
10.884456187
 20
9.7960911242
 30
0.0
 10
10.8838126587
 20
9.7966441227
 30
0.0
 10
10.8830387017
 20
9.7972364487
 30
0.0
 10
10.8821386353
 20
9.7978643084
 30
0.0
 10
10.8811178251
 20
9.7985236924
 30
0.0
 10
10.8799826625
 20
9.7992102786
 30
0.0
 10
10.8787404527
 20
9.7999195108
 30
0.0
 10
10.8769042518
 20
9.8009149662
 30
0.0
 10
10.8744057222
 20
9.8021747476
 30
0.0
 10
10.8723303814
 20
9.8031388713
 30
0.0
 10
10.871247221
 20
9.8036236895
 30
0.0
  0
SPLINE
  5
442
100
AcDbEntity
  8
0
100
AcDbSpline
 62
7
  6
CONTINUOUS
 70
0
 71
3
 72
25
 73
21
 74
0
 42
0.0000001
 43
0.0000001
 44
0.0000000001
 40
0.0
 40
0.0
 40
0.0
 40
0.0
 40
0.0083197621
 40
0.0172128533
 40
0.0271597469
 40
0.0385014071
 40
0.0514600923
 40
0.0661723188
 40
0.082721224
 40
0.1011499794
 40
0.1436910381
 40
0.1937487599
 40
0.2510692132
 40
0.3152635064
 40
0.3858330766
 40
0.4621884173
 40
0.5436605046
 40
0.6295105391
 40
0.8110833111
 40
1.0
 40
1.0
 40
1.0
 40
1.0
 10
10.7178046111
 20
9.8679328587
 30
0.0
 10
10.7178317232
 20
9.8679934238
 30
0.0
 10
10.7178700569
 20
9.8681273786
 30
0.0
 10
10.7178731809
 20
9.8683459529
 30
0.0
 10
10.7178250758
 20
9.868583287
 30
0.0
 10
10.7177271255
 20
9.8688392593
 30
0.0
 10
10.7175799814
 20
9.8691141313
 30
0.0
 10
10.7173839686
 20
9.8694078438
 30
0.0
 10
10.7171393382
 20
9.8697200355
 30
0.0
 10
10.7167287585
 20
9.8701826987
 30
0.0
 10
10.7160910005
 20
9.8707987704
 30
0.0
 10
10.7151762037
 20
9.8715696454
 30
0.0
 10
10.7140854476
 20
9.8723968128
 30
0.0
 10
10.7128281411
 20
9.8732727468
 30
0.0
 10
10.7114153109
 20
9.8741893194
 30
0.0
 10
10.7098598901
 20
9.8751378924
 30
0.0
 10
10.7081764325
 20
9.8761094408
 30
0.0
 10
10.7057366116
 20
9.8774480057
 30
0.0
 10
10.7024940303
 20
9.8791030758
 30
0.0
 10
10.6998168176
 20
9.8803552562
 30
0.0
 10
10.6984415368
 20
9.8809708264
 30
0.0
  0
SPLINE
  5
443
100
AcDbEntity
  8
0
100
AcDbSpline
 62
7
  6
CONTINUOUS
 70
0
 71
3
 72
25
 73
21
 74
0
 42
0.0000001
 43
0.0000001
 44
0.0000000001
 40
0.0
 40
0.0
 40
0.0
 40
0.0
 40
0.0076359689
 40
0.0161039406
 40
0.0259441805
 40
0.0374933186
 40
0.0509422045
 40
0.0663938527
 40
0.0838955098
 40
0.1034585226
 40
0.14869288
 40
0.2018086817
 40
0.2623106514
 40
0.3295562195
 40
0.4027817748
 40
0.4811170207
 40
0.5635994341
 40
0.6491886996
 40
0.825223993
 40
1.0
 40
1.0
 40
1.0
 40
1.0
 10
10.5500019149
 20
9.9418864262
 30
0.0
 10
10.550033125
 20
9.9419561505
 30
0.0
 10
10.5500733624
 20
9.9421155543
 30
0.0
 10
10.5500595777
 20
9.9423774797
 30
0.0
 10
10.5499784571
 20
9.9426667573
 30
0.0
 10
10.5498317349
 20
9.9429840358
 30
0.0
 10
10.5496201506
 20
9.9433297531
 30
0.0
 10
10.5493440329
 20
9.9437034645
 30
0.0
 10
10.5490040061
 20
9.9441043729
 30
0.0
 10
10.5484384651
 20
9.9447031451
 30
0.0
 10
10.5475721913
 20
9.9455055665
 30
0.0
 10
10.5463443417
 20
9.9465153412
 30
0.0
 10
10.5448961461
 20
9.947600884
 30
0.0
 10
10.5432450246
 20
9.9487486926
 30
0.0
 10
10.5414110772
 20
9.9499442604
 30
0.0
 10
10.5394173351
 20
9.9511723178
 30
0.0
 10
10.53728934
 20
9.9524169897
 30
0.0
 10
10.5342818751
 20
9.9540924617
 30
0.0
 10
10.5304058029
 20
9.9561038506
 30
0.0
 10
10.5272317543
 20
9.957603644
 30
0.0
 10
10.5256358526
 20
9.9583179632
 30
0.0
  0
SPLINE
  5
444
100
AcDbEntity
  8
0
100
AcDbSpline
 62
7
  6
CONTINUOUS
 70
0
 71
3
 72
26
 73
22
 74
0
 42
0.0000001
 43
0.0000001
 44
0.0000000001
 40
0.0
 40
0.0
 40
0.0
 40
0.0
 40
0.006790289
 40
0.0147790942
 40
0.0245699814
 40
0.0364720181
 40
0.0506269357
 40
0.0670901282
 40
0.0858636157
 40
0.1069193326
 40
0.1556451345
 40
0.2126694152
 40
0.2771849506
 40
0.3482264132
 40
0.4246918853
 40
0.5053629058
 40
0.588921394
 40
0.673971856
 40
0.8427283358
 40
0.9235122603
 40
1.0
 40
1.0
 40
1.0
 40
1.0
 10
10.393631376
 20
10.0107927639
 30
0.0
 10
10.3936643056
 20
10.0108663384
 30
0.0
 10
10.3936992955
 20
10.0110436755
 30
0.0
 10
10.3936552133
 20
10.0113354509
 30
0.0
 10
10.3935274878
 20
10.0116657637
 30
0.0
 10
10.3933168879
 20
10.012036724
 30
0.0
 10
10.3930241023
 20
10.0124486308
 30
0.0
 10
10.3926496288
 20
10.0129003129
 30
0.0
 10
10.3921947441
 20
10.0133902075
 30
0.0
 10
10.391445747
 20
10.0141282191
 30
0.0
 10
10.390316091
 20
10.0151247043
 30
0.0
 10
10.3887365703
 20
10.0163866401
 30
0.0
 10
10.3868976268
 20
10.0177456063
 30
0.0
 10
10.3848286638
 20
10.0191794281
 30
0.0
 10
10.382563028
 20
10.0206644863
 30
0.0
 10
10.3801380748
 20
10.0221760943
 30
0.0
 10
10.3775945096
 20
10.0236888591
 30
0.0
 10
10.3741122671
 20
10.0256673161
 30
0.0
 10
10.3706028419
 20
10.0275301935
 30
0.0
 10
10.3671292933
 20
10.0292375909
 30
0.0
 10
10.365435346
 20
10.0300230727
 30
0.0
 10
10.3646065902
 20
10.0303940205
 30
0.0
  0
SPLINE
  5
445
100
AcDbEntity
  8
0
100
AcDbSpline
 62
7
  6
CONTINUOUS
 70
0
 71
3
 72
28
 73
24
 74
0
 42
0.0000001
 43
0.0000001
 44
0.0000000001
 40
0.0
 40
0.0
 40
0.0
 40
0.0
 40
0.0130003213
 40
0.017620962
 40
0.022874628
 40
0.0353532443
 40
0.0505159192
 40
0.068355325
 40
0.0888207956
 40
0.1118317376
 40
0.1372881067
 40
0.1650709094
 40
0.2270719107
 40
0.2966302878
 40
0.3723654465
 40
0.452751753
 40
0.5361406744
 40
0.6207898846
 40
0.7048935994
 40
0.7866245593
 40
0.8641807423
 40
0.9358345963
 40
1.0
 40
1.0
 40
1.0
 40
1.0
 10
10.2593503357
 20
10.0699581308
 30
0.0
 10
10.2594217232
 20
10.070117661
 30
0.0
 10
10.2593606266
 20
10.0703840623
 30
0.0
 10
10.2592337305
 20
10.0706589928
 30
0.0
 10
10.2590853337
 20
10.0709220987
 30
0.0
 10
10.2588298293
 20
10.0712832921
 30
0.0
 10
10.2584371351
 20
10.071752814
 30
0.0
 10
10.2579442262
 20
10.0722763246
 30
0.0
 10
10.2573534329
 20
10.0728515001
 30
0.0
 10
10.2566676959
 20
10.0734750616
 30
0.0
 10
10.2558905334
 20
10.0741436877
 30
0.0
 10
10.2546931797
 20
10.075127007
 30
0.0
 10
10.2529975023
 20
10.0764368169
 30
0.0
 10
10.25074284
 20
10.0780752815
 30
0.0
 10
10.2482456314
 20
10.0797988673
 30
0.0
 10
10.2455574934
 20
10.0815718
 30
0.0
 10
10.2427346053
 20
10.083356939
 30
0.0
 10
10.2398370415
 20
10.0851164291
 30
0.0
 10
10.2369275995
 20
10.0868123748
 30
0.0
 10
10.2340704976
 20
10.0884076647
 30
0.0
 10
10.2313298009
 20
10.0898669333
 30
0.0
 10
10.2287676646
 20
10.0911575434
 30
0.0
 10
10.2271149852
 20
10.0919347159
 30
0.0
 10
10.2263276278
 20
10.092287134
 30
0.0
  0
SPLINE
  5
446
100
AcDbEntity
  8
0
100
AcDbSpline
 62
7
  6
CONTINUOUS
 70
0
 71
3
 72
16
 73
12
 74
0
 42
0.0000001
 43
0.0000001
 44
0.0000000001
 40
0.0
 40
0.0
 40
0.0
 40
0.0
 40
0.0466474069
 40
0.0760335147
 40
0.1105985749
 40
0.1969437669
 40
0.3077336202
 40
0.443566573
 40
0.6044442298
 40
0.7900886784
 40
1.0
 40
1.0
 40
1.0
 40
1.0
 10
10.1563111985
 20
10.115353574
 30
0.0
 10
10.1563295951
 20
10.1153946949
 30
0.0
 10
10.1563342338
 20
10.1154724574
 30
0.0
 10
10.1563108046
 20
10.1155763884
 30
0.0
 10
10.1562597076
 20
10.1157128622
 30
0.0
 10
10.1561484142
 20
10.1159080646
 30
0.0
 10
10.1559594583
 20
10.1161685951
 30
0.0
 10
10.1557054396
 20
10.1164695308
 30
0.0
 10
10.1553872497
 20
10.1168099147
 30
0.0
 10
10.1550056797
 20
10.1171884202
 30
0.0
 10
10.1547267596
 20
10.1174494973
 30
0.0
 10
10.1545772499
 20
10.1175863935
 30
0.0
  0
SPLINE
  5
447
100
AcDbEntity
  8
0
100
AcDbSpline
 62
7
  6
CONTINUOUS
 70
0
 71
3
 72
21
 73
17
 74
0
 42
0.0000001
 43
0.0000001
 44
0.0000000001
 40
0.0
 40
0.0
 40
0.0
 40
0.0
 40
0.0401508374
 40
0.0883685671
 40
0.1438264472
 40
0.2055756092
 40
0.2725650943
 40
0.3436583256
 40
0.493255356
 40
0.6440842641
 40
0.7166246182
 40
0.785479485
 40
0.8493767847
 40
0.9071242091
 40
0.9576417596
 40
1.0
 40
1.0
 40
1.0
 40
1.0
 10
10.1545772499
 20
10.1175863935
 30
0.0
 10
10.1541726675
 20
10.1179568428
 30
0.0
 10
10.1532590319
 20
10.1187468035
 30
0.0
 10
10.1517302081
 20
10.1199816324
 30
0.0
 10
10.1499368554
 20
10.1213574758
 30
0.0
 10
10.147910278
 20
10.1228497314
 30
0.0
 10
10.1456853555
 20
10.1244322446
 30
0.0
 10
10.1424499493
 20
10.1266641199
 30
0.0
 10
10.1382155963
 20
10.1294641849
 30
0.0
 10
10.1339010613
 20
10.1321763121
 30
0.0
 10
10.1304820053
 20
10.1342381081
 30
0.0
 10
10.128060931
 20
10.1356544089
 30
0.0
 10
10.1257948796
 20
10.1369348883
 30
0.0
 10
10.1237267844
 20
10.1380558116
 30
0.0
 10
10.1218961837
 20
10.1389962789
 30
0.0
 10
10.1207506694
 20
10.1395429606
 30
0.0
 10
10.120222448
 20
10.1397793904
 30
0.0
  0
SPLINE
  5
448
100
AcDbEntity
  8
0
100
AcDbSpline
 62
7
  6
CONTINUOUS
 70
0
 71
3
 72
17
 73
13
 74
0
 42
0.0000001
 43
0.0000001
 44
0.0000000001
 40
0.0
 40
0.0
 40
0.0
 40
0.0
 40
0.0128029002
 40
0.0303378222
 40
0.0540752636
 40
0.0845877047
 40
0.1221165995
 40
0.1667568191
 40
0.2774621482
 40
0.4166393721
 40
0.5838640547
 40
1.0
 40
1.0
 40
1.0
 40
1.0
 10
10.0915373331
 20
10.1438886544
 30
0.0
 10
10.0915422473
 20
10.1438996466
 30
0.0
 10
10.0915440814
 20
10.1439296584
 30
0.0
 10
10.0915280525
 20
10.1439782827
 30
0.0
 10
10.0914959673
 20
10.1440379441
 30
0.0
 10
10.0914467368
 20
10.1441089654
 30
0.0
 10
10.0913804024
 20
10.1441916833
 30
0.0
 10
10.0912599909
 20
10.1443274138
 30
0.0
 10
10.0910647964
 20
10.1445241768
 30
0.0
 10
10.0907774174
 20
10.1447912507
 30
0.0
 10
10.0902666728
 20
10.1452395614
 30
0.0
 10
10.0898429667
 20
10.1455882877
 30
0.0
 10
10.0895383578
 20
10.1458340032
 30
0.0
  0
SPLINE
  5
449
100
AcDbEntity
  8
0
100
AcDbSpline
 62
7
  6
CONTINUOUS
 70
0
 71
3
 72
20
 73
16
 74
0
 42
0.0000001
 43
0.0000001
 44
0.0000000001
 40
0.0
 40
0.0
 40
0.0
 40
0.0
 40
0.0418302651
 40
0.0924886339
 40
0.1509313773
 40
0.2159823325
 40
0.3606944362
 40
0.5154618729
 40
0.6683569205
 40
0.7403226625
 40
0.8073371806
 40
0.8680123968
 40
0.9210706425
 40
0.9653812463
 40
1.0
 40
1.0
 40
1.0
 40
1.0
 10
10.0895383578
 20
10.1458340032
 30
0.0
 10
10.0890794363
 20
10.1462041964
 30
0.0
 10
10.0880518787
 20
10.147006745
 30
0.0
 10
10.0863517748
 20
10.1482857986
 30
0.0
 10
10.0843703669
 20
10.149735016
 30
0.0
 10
10.0812950939
 20
10.1519339494
 30
0.0
 10
10.0770744104
 20
10.154864837
 30
0.0
 10
10.0717855474
 20
10.1584270537
 30
0.0
 10
10.0673074366
 20
10.1613566515
 30
0.0
 10
10.0638396379
 20
10.1635704262
 30
0.0
 10
10.0614551828
 20
10.1650652853
 30
0.0
 10
10.0592838015
 20
10.1663980562
 30
0.0
 10
10.0573716876
 20
10.167541261
 30
0.0
 10
10.0557600803
 20
10.1684708436
 30
0.0
 10
10.0547839663
 20
10.1690051778
 30
0.0
 10
10.0543505697
 20
10.1692294144
 30
0.0
  0
LINE
  5
44A
100
AcDbEntity
  8
0
100
AcDbLine
 62
7
  6
CONTINUOUS
 10
10.0543505697
 20
10.1692294144
 11
10.0535219436
 21
10.1696342708
  0
LINE
  5
44B
100
AcDbEntity
  8
0
100
AcDbLine
 62
7
  6
CONTINUOUS
 10
11.0872843383
 20
10.7614766442
 11
11.0919420128
 21
10.7601128577
  0
SPLINE
  5
44C
100
AcDbEntity
  8
0
100
AcDbSpline
 62
7
  6
CONTINUOUS
 70
0
 71
3
 72
8
 73
4
 74
0
 42
0.0000001
 43
0.0000001
 44
0.0000000001
 40
0.0
 40
0.0
 40
0.0
 40
0.0
 40
1.0
 40
1.0
 40
1.0
 40
1.0
 10
15.9635766519
 20
7.0130210073
 30
0.0
 10
15.9635935707
 20
7.0130202297
 30
0.0
 10
15.9636104895
 20
7.0130194521
 30
0.0
 10
15.9636274083
 20
7.0130186745
 30
0.0
  0
SPLINE
  5
44D
100
AcDbEntity
  8
0
100
AcDbSpline
 62
7
  6
CONTINUOUS
 70
0
 71
3
 72
8
 73
4
 74
0
 42
0.0000001
 43
0.0000001
 44
0.0000000001
 40
0.0
 40
0.0
 40
0.0
 40
0.0
 40
1.0
 40
1.0
 40
1.0
 40
1.0
 10
15.8214865476
 20
7.0130186692
 30
0.0
 10
15.8215035042
 20
7.0130194486
 30
0.0
 10
15.8215204607
 20
7.013020228
 30
0.0
 10
15.8215374172
 20
7.0130210073
 30
0.0
  0
SPLINE
  5
44E
100
AcDbEntity
  8
0
100
AcDbSpline
 62
7
  6
CONTINUOUS
 70
0
 71
3
 72
33
 73
29
 74
0
 42
0.0000001
 43
0.0000001
 44
0.0000000001
 40
0.0
 40
0.0
 40
0.0
 40
0.0
 40
0.010423489
 40
0.016628253
 40
0.0235810808
 40
0.0398725874
 40
0.0594732866
 40
0.0823950199
 40
0.1085620523
 40
0.1378387032
 40
0.1700425113
 40
0.2423005822
 40
0.3231709509
 40
0.4100441779
 40
0.5
 40
0.5899558222
 40
0.6768290491
 40
0.7576994178
 40
0.8299574887
 40
0.8621612968
 40
0.8914379477
 40
0.9176049801
 40
0.9405267134
 40
0.9601274126
 40
0.9764189192
 40
0.983371747
 40
0.989576511
 40
1.0
 40
1.0
 40
1.0
 40
1.0
 10
15.9124639956
 20
6.9872684532
 30
0.0
 10
15.9123988707
 20
6.9871414687
 30
0.0
 10
15.9122523073
 20
6.9869609235
 30
0.0
 10
15.9120090644
 20
6.9867488745
 30
0.0
 10
15.9116800888
 20
6.9865144601
 30
0.0
 10
15.9111632113
 20
6.9862334325
 30
0.0
 10
15.9104196666
 20
6.9859221647
 30
0.0
 10
15.9095270699
 20
6.9856238681
 30
0.0
 10
15.908491662
 20
6.985341063
 30
0.0
 10
15.9073208887
 20
6.9850763367
 30
0.0
 10
15.9055210904
 20
6.9847377748
 30
0.0
 10
15.9030066865
 20
6.9843864865
 30
0.0
 10
15.8997339466
 20
6.9840828091
 30
0.0
 10
15.8962098426
 20
6.9838955557
 30
0.0
 10
15.8925570345
 20
6.9838322193
 30
0.0
 10
15.8889042265
 20
6.9838955557
 30
0.0
 10
15.8853801225
 20
6.9840828091
 30
0.0
 10
15.8821073826
 20
6.9843864865
 30
0.0
 10
15.8795929787
 20
6.9847377748
 30
0.0
 10
15.8777931804
 20
6.9850763367
 30
0.0
 10
15.8766224071
 20
6.985341063
 30
0.0
 10
15.8755869992
 20
6.9856238681
 30
0.0
 10
15.8746944025
 20
6.9859221647
 30
0.0
 10
15.8739508578
 20
6.9862334325
 30
0.0
 10
15.8734339803
 20
6.9865144601
 30
0.0
 10
15.8731050047
 20
6.9867488745
 30
0.0
 10
15.8728617618
 20
6.9869609235
 30
0.0
 10
15.8727151984
 20
6.9871414687
 30
0.0
 10
15.8726500735
 20
6.9872684532
 30
0.0
  0
SPLINE
  5
44F
100
AcDbEntity
  8
0
100
AcDbSpline
 62
7
  6
CONTINUOUS
 70
0
 71
3
 72
9
 73
5
 74
0
 42
0.0000001
 43
0.0000001
 44
0.0000000001
 40
0.0
 40
0.0
 40
0.0
 40
0.0
 40
0.5196980508
 40
1.0
 40
1.0
 40
1.0
 40
1.0
 10
15.9852176174
 20
7.0118772346
 30
0.0
 10
15.9814905284
 20
7.0121003462
 30
0.0
 10
15.9743069823
 20
7.0123574146
 30
0.0
 10
15.9671186696
 20
7.0121961241
 30
0.0
 10
15.9636737605
 20
7.0119959408
 30
0.0
  0
SPLINE
  5
450
100
AcDbEntity
  8
0
100
AcDbSpline
 62
7
  6
CONTINUOUS
 70
0
 71
3
 72
8
 73
4
 74
0
 42
0.0000001
 43
0.0000001
 44
0.0000000001
 40
0.0
 40
0.0
 40
0.0
 40
0.0
 40
1.0
 40
1.0
 40
1.0
 40
1.0
 10
15.9636737605
 20
7.0119959408
 30
0.0
 10
15.9636417107
 20
7.0119940677
 30
0.0
 10
15.9636096608
 20
7.0119921945
 30
0.0
 10
15.9635776109
 20
7.0119903214
 30
0.0
  0
SPLINE
  5
451
100
AcDbEntity
  8
0
100
AcDbSpline
 62
7
  6
CONTINUOUS
 70
0
 71
3
 72
18
 73
14
 74
0
 42
0.0000001
 43
0.0000001
 44
0.0000000001
 40
0.0
 40
0.0
 40
0.0
 40
0.0
 40
0.1600126697
 40
0.3069731061
 40
0.4418926139
 40
0.566151666
 40
0.6815688725
 40
0.7367024735
 40
0.7905250834
 40
0.8433900945
 40
0.8956695904
 40
0.9477459128
 40
1.0
 40
1.0
 40
1.0
 40
1.0
 10
15.9635776109
 20
7.0119903214
 30
0.0
 10
15.960412282
 20
7.011804262
 30
0.0
 10
15.9543482868
 20
7.0112479248
 30
0.0
 10
15.9457109414
 20
7.0097437451
 30
0.0
 10
15.9379369304
 20
7.0076047894
 30
0.0
 10
15.9310331368
 20
7.0048291169
 30
0.0
 10
15.9259320669
 20
7.0019362756
 30
0.0
 10
15.9223412384
 20
6.9993074799
 30
0.0
 10
15.9199110402
 20
6.9972098144
 30
0.0
 10
15.9177037956
 20
6.9949571275
 30
0.0
 10
15.9157194893
 20
6.9925502205
 30
0.0
 10
15.9139582979
 20
6.9899904995
 30
0.0
 10
15.9129365205
 20
6.9881898107
 30
0.0
 10
15.9124639956
 20
6.9872684532
 30
0.0
  0
SPLINE
  5
452
100
AcDbEntity
  8
0
100
AcDbSpline
 62
7
  6
CONTINUOUS
 70
0
 71
3
 72
18
 73
14
 74
0
 42
0.0000001
 43
0.0000001
 44
0.0000000001
 40
0.0
 40
0.0
 40
0.0
 40
0.0
 40
0.0524231492
 40
0.1046660087
 40
0.1571034405
 40
0.2101118508
 40
0.2640578549
 40
0.3192901226
 40
0.4348164617
 40
0.5590496435
 40
0.6937989499
 40
0.8404438733
 40
1.0
 40
1.0
 40
1.0
 40
1.0
 10
15.8726500735
 20
6.9872684532
 30
0.0
 10
15.8721820652
 20
6.9881810041
 30
0.0
 10
15.8711708248
 20
6.9899648088
 30
0.0
 10
15.8694298222
 20
6.9925019692
 30
0.0
 10
15.8674699983
 20
6.9948892793
 30
0.0
 10
15.8652915109
 20
6.9971253741
 30
0.0
 10
15.8628943281
 20
6.9992094723
 30
0.0
 10
15.8593549371
 20
7.001823267
 30
0.0
 10
15.8543301343
 20
7.0047056142
 30
0.0
 10
15.8475310519
 20
7.0074822672
 30
0.0
 10
15.8398778478
 20
7.0096343647
 30
0.0
 10
15.8313772241
 20
7.0111637557
 30
0.0
 10
15.8254086482
 20
7.0117440629
 30
0.0
 10
15.8222936195
 20
7.0119438002
 30
0.0
  0
SPLINE
  5
453
100
AcDbEntity
  8
0
100
AcDbSpline
 62
7
  6
CONTINUOUS
 70
0
 71
3
 72
9
 73
5
 74
0
 42
0.0000001
 43
0.0000001
 44
0.0000000001
 40
0.0
 40
0.0
 40
0.0
 40
0.0
 40
0.4820465719
 40
1.0
 40
1.0
 40
1.0
 40
1.0
 10
15.8197489925
 20
7.0120844053
 30
0.0
 10
15.8165612076
 20
7.0122329053
 30
0.0
 10
15.8099375819
 20
7.0123317897
 30
0.0
 10
15.8033192766
 20
7.0120821323
 30
0.0
 10
15.7998964517
 20
7.0118772346
 30
0.0
  0
LINE
  5
454
100
AcDbEntity
  8
0
100
AcDbLine
 62
7
  6
CONTINUOUS
 10
15.976486003
 20
7.0122213884
 11
15.9765570345
 21
7.0128453715
  0
SPLINE
  5
455
100
AcDbEntity
  8
0
100
AcDbSpline
 62
7
  6
CONTINUOUS
 70
0
 71
3
 72
17
 73
13
 74
0
 42
0.0000001
 43
0.0000001
 44
0.0000000001
 40
0.0
 40
0.0
 40
0.0
 40
0.0
 40
0.1662444397
 40
0.3282178936
 40
0.4817796086
 40
0.623014409
 40
0.7483391181
 40
0.8545970632
 40
0.8997306832
 40
0.9391531701
 40
0.9726397287
 40
1.0
 40
1.0
 40
1.0
 40
1.0
 10
15.9297863898
 20
7.0377310599
 30
0.0
 10
15.9313856846
 20
7.0376926156
 30
0.0
 10
15.9345428261
 20
7.0376007517
 30
0.0
 10
15.9391754598
 20
7.0374187086
 30
0.0
 10
15.9435654507
 20
7.0371975554
 30
0.0
 10
15.9476003852
 20
7.0369433997
 30
0.0
 10
15.9511771428
 20
7.0366630054
 30
0.0
 10
15.9538275169
 20
7.0364025678
 30
0.0
 10
15.9556503297
 20
7.0361807041
 30
0.0
 10
15.9567751892
 20
7.0360218558
 30
0.0
 10
15.9577269339
 20
7.0358625822
 30
0.0
 10
15.9583008706
 20
7.0357453423
 30
0.0
 10
15.9585570345
 20
7.0356845198
 30
0.0
  0
LINE
  5
456
100
AcDbEntity
  8
0
100
AcDbLine
 62
7
  6
CONTINUOUS
 10
15.8650405823
 20
7.0307860711
 11
15.866734958
 21
7.0311092087
  0
SPLINE
  5
457
100
AcDbEntity
  8
0
100
AcDbSpline
 62
7
  6
CONTINUOUS
 70
0
 71
3
 72
27
 73
23
 74
0
 42
0.0000001
 43
0.0000001
 44
0.0000000001
 40
0.0
 40
0.0
 40
0.0
 40
0.0
 40
0.0015674431
 40
0.0033575501
 40
0.0055158743
 40
0.0081264694
 40
0.0148671688
 40
0.0237705904
 40
0.0348946977
 40
0.0482551694
 40
0.0638411408
 40
0.0816303503
 40
0.1015906627
 40
0.1236793446
 40
0.1740481227
 40
0.2322834958
 40
0.2978463726
 40
0.3701221553
 40
0.4484281987
 40
0.6201025072
 40
0.8063340449
 40
1.0
 40
1.0
 40
1.0
 40
1.0
 10
15.8303276793
 20
7.0353284398
 30
0.0
 10
15.8303276793
 20
7.03534425
 30
0.0
 10
15.8303348404
 20
7.0353783147
 30
0.0
 10
15.8303643058
 20
7.0354263353
 30
0.0
 10
15.8304111419
 20
7.0354736033
 30
0.0
 10
15.830505043
 20
7.0355424048
 30
0.0
 10
15.8306705633
 20
7.035625226
 30
0.0
 10
15.8309236853
 20
7.0357195554
 30
0.0
 10
15.8312468998
 20
7.0358150143
 30
0.0
 10
15.8316395217
 20
7.0359112865
 30
0.0
 10
15.8321009802
 20
7.0360079796
 30
0.0
 10
15.832630221
 20
7.0361047625
 30
0.0
 10
15.8332260435
 20
7.036201341
 30
0.0
 10
15.8341485655
 20
7.0363354259
 30
0.0
 10
15.8354569091
 20
7.036497823
 30
0.0
 10
15.8372041762
 20
7.0366808505
 30
0.0
 10
15.8391740638
 20
7.0368574393
 30
0.0
 10
15.8413477659
 20
7.0370258161
 30
0.0
 10
15.8445909749
 20
7.03724372
 30
0.0
 10
15.8489847687
 20
7.0374794762
 30
0.0
 10
15.8545440608
 20
7.0376992885
 30
0.0
 10
15.8583746676
 20
7.0378026569
 30
0.0
 10
15.8603276793
 20
7.0378433378
 30
0.0
  0
LINE
  5
458
100
AcDbEntity
  8
0
100
AcDbLine
 62
7
  6
CONTINUOUS
 10
15.8075570345
 20
7.0127899195
 11
15.8076204289
 21
7.0122004612
  0
SPLINE
  5
459
100
AcDbEntity
  8
0
100
AcDbSpline
 62
7
  6
CONTINUOUS
 70
0
 71
3
 72
21
 73
17
 74
0
 42
0.0000001
 43
0.0000001
 44
0.0000000001
 40
0.0
 40
0.0
 40
0.0
 40
0.0
 40
0.1891248944
 40
0.3709330219
 40
0.5385926565
 40
0.685990935
 40
0.7504760788
 40
0.8080921625
 40
0.8584197485
 40
0.9011518288
 40
0.9361479502
 40
0.963548709
 40
0.9746101012
 40
0.9841324927
 40
0.992434184
 40
1.0
 40
1.0
 40
1.0
 40
1.0
 10
15.9525570345
 20
7.0203658972
 30
0.0
 10
15.9529502372
 20
7.0203504914
 30
0.0
 10
15.9537210198
 20
7.0203084067
 30
0.0
 10
15.9548376811
 20
7.0202117645
 30
0.0
 10
15.9558640519
 20
7.0200861401
 30
0.0
 10
15.9566434997
 20
7.0199569054
 30
0.0
 10
15.9571920307
 20
7.0198401063
 30
0.0
 10
15.9575400894
 20
7.0197526846
 30
0.0
 10
15.957840452
 20
7.0196624462
 30
0.0
 10
15.9580907527
 20
7.019570308
 30
0.0
 10
15.9582889374
 20
7.0194772019
 30
0.0
 10
15.9584185685
 20
7.0193943596
 30
0.0
 10
15.9584917303
 20
7.0193259779
 30
0.0
 10
15.9585287255
 20
7.0192781747
 30
0.0
 10
15.95855163
 20
7.0192300064
 30
0.0
 10
15.9585570345
 20
7.0191968358
 30
0.0
 10
15.9585570345
 20
7.0191810939
 30
0.0
  0
SPLINE
  5
45A
100
AcDbEntity
  8
0
100
AcDbSpline
 62
7
  6
CONTINUOUS
 70
0
 71
3
 72
21
 73
17
 74
0
 42
0.0000001
 43
0.0000001
 44
0.0000000001
 40
0.0
 40
0.0
 40
0.0
 40
0.0
 40
0.0075635751
 40
0.015856664
 40
0.0253661319
 40
0.0364121768
 40
0.0637794634
 40
0.098743766
 40
0.1414487357
 40
0.1917563268
 40
0.2493602802
 40
0.3138416156
 40
0.4612562073
 40
0.6289564963
 40
0.8108185213
 40
1.0
 40
1.0
 40
1.0
 40
1.0
 10
15.8315570345
 20
7.0193885687
 30
0.0
 10
15.8315570345
 20
7.0194042973
 30
0.0
 10
15.83156243
 20
7.0194374285
 30
0.0
 10
15.8315853257
 20
7.0194855168
 30
0.0
 10
15.8316223114
 20
7.0195331908
 30
0.0
 10
15.831695459
 20
7.0196013212
 30
0.0
 10
15.831825074
 20
7.0196837292
 30
0.0
 10
15.8320232264
 20
7.0197761695
 30
0.0
 10
15.8322735017
 20
7.0198674778
 30
0.0
 10
15.8325738524
 20
7.0199567259
 30
0.0
 10
15.8329219162
 20
7.0200430066
 30
0.0
 10
15.8334705113
 20
7.0201580188
 30
0.0
 10
15.8342500513
 20
7.0202847034
 30
0.0
 10
15.8352764887
 20
7.0204069683
 30
0.0
 10
15.8363931596
 20
7.0204999469
 30
0.0
 10
15.8371638819
 20
7.0205395055
 30
0.0
 10
15.8375570345
 20
7.0205536239
 30
0.0
  0
LINE
  5
45B
100
AcDbEntity
  8
0
100
AcDbLine
 62
9
  6
CONTINUOUS
 10
12.2436044046
 20
9.6499148078
 11
12.544325739
 21
9.9022492243
  0
SPLINE
  5
45C
100
AcDbEntity
  8
0
100
AcDbSpline
 62
7
  6
CONTINUOUS
 70
0
 71
3
 72
18
 73
14
 74
0
 42
0.0000001
 43
0.0000001
 44
0.0000000001
 40
0.0
 40
0.0
 40
0.0
 40
0.0
 40
0.0207356498
 40
0.0430290157
 40
0.0691041083
 40
0.1003819772
 40
0.1376881789
 40
0.1814911595
 40
0.2894752727
 40
0.4253917029
 40
0.5893790507
 40
0.781163601
 40
1.0
 40
1.0
 40
1.0
 40
1.0
 10
11.2344023035
 20
9.6328042841
 30
0.0
 10
11.2343931341
 20
9.6327838081
 30
0.0
 10
11.2343819768
 20
9.6327372809
 30
0.0
 10
11.2343921588
 20
9.6326619216
 30
0.0
 10
11.2344267938
 20
9.6325822067
 30
0.0
 10
11.234484801
 20
9.6324973087
 30
0.0
 10
11.2345661559
 20
9.6324066015
 30
0.0
 10
11.234716768
 20
9.6322678083
 30
0.0
 10
11.2349677979
 20
9.6320824915
 30
0.0
 10
11.2353428001
 20
9.6318494377
 30
0.0
 10
11.2358095914
 20
9.6315937803
 30
0.0
 10
11.2363662895
 20
9.6313167692
 30
0.0
 10
11.2367698249
 20
9.6311307589
 30
0.0
 10
11.2369859388
 20
9.6310340272
 30
0.0
  0
SPLINE
  5
45D
100
AcDbEntity
  8
0
100
AcDbSpline
 62
9
  6
CONTINUOUS
 70
0
 71
3
 72
14
 73
10
 74
0
 42
0.0000001
 43
0.0000001
 44
0.0000000001
 40
0.0
 40
0.0
 40
0.0
 40
0.0
 40
0.2508700279
 40
0.3761209776
 40
0.5012288443
 40
0.626184376
 40
0.7509756197
 40
0.8755864412
 40
1.0
 40
1.0
 40
1.0
 40
1.0
 10
12.0993227651
 20
9.7710697708
 30
0.0
 10
12.0945556403
 20
9.7744777153
 30
0.0
 10
12.0873630873
 20
9.7795240614
 30
0.0
 10
12.0776959845
 20
9.7861291627
 30
0.0
 10
12.0704199447
 20
9.7910198121
 30
0.0
 10
12.0631212777
 20
9.7958571492
 30
0.0
 10
12.0558065671
 20
9.8006490296
 30
0.0
 10
12.048476277
 20
9.8053937905
 30
0.0
 10
12.0435745341
 20
9.8085258126
 30
0.0
 10
12.041120766
 20
9.8100829458
 30
0.0
  0
LINE
  5
45E
100
AcDbEntity
  8
0
100
AcDbLine
 62
7
  6
CONTINUOUS
 10
15.2775993175
 20
6.2484557807
 11
15.2575495369
 21
6.2773017982
  0
SPLINE
  5
45F
100
AcDbEntity
  8
0
100
AcDbSpline
 62
7
  6
CONTINUOUS
 70
0
 71
3
 72
19
 73
15
 74
0
 42
0.0000001
 43
0.0000001
 44
0.0000000001
 40
0.0
 40
0.0
 40
0.0
 40
0.0
 40
0.0201239785
 40
0.0421833763
 40
0.0684155048
 40
0.1001753943
 40
0.1381985734
 40
0.1828721951
 40
0.2343949977
 40
0.2928363179
 40
0.4304042594
 40
0.5949775527
 40
0.785403417
 40
1.0
 40
1.0
 40
1.0
 40
1.0
 10
11.1319034581
 20
9.6794068242
 30
0.0
 10
11.1318840429
 20
9.6793634582
 30
0.0
 10
11.1318615167
 20
9.6792633279
 30
0.0
 10
11.131887706
 20
9.6791010989
 30
0.0
 10
11.1319673745
 20
9.6789280376
 30
0.0
 10
11.1320985766
 20
9.6787421464
 30
0.0
 10
11.1322812623
 20
9.6785423423
 30
0.0
 10
11.1325155461
 20
9.6783284887
 30
0.0
 10
11.1328013007
 20
9.6781008914
 30
0.0
 10
11.1332769214
 20
9.6777609132
 30
0.0
 10
11.134000248
 20
9.677310474
 30
0.0
 10
11.1350192126
 20
9.6767492498
 30
0.0
 10
11.1362224087
 20
9.6761478232
 30
0.0
 10
11.137090666
 20
9.675746754
 30
0.0
 10
11.1375531285
 20
9.6755397576
 30
0.0
  0
SPLINE
  5
460
100
AcDbEntity
  8
0
100
AcDbSpline
 62
7
  6
CONTINUOUS
 70
0
 71
3
 72
21
 73
17
 74
0
 42
0.0000001
 43
0.0000001
 44
0.0000000001
 40
0.0
 40
0.0
 40
0.0
 40
0.0
 40
0.0095804966
 40
0.0194060211
 40
0.0411880534
 40
0.0677050844
 40
0.1002033278
 40
0.1392969704
 40
0.1852650508
 40
0.2381910278
 40
0.2980390966
 40
0.3646879075
 40
0.4379508127
 40
0.6033029859
 40
0.791662639
 40
1.0
 40
1.0
 40
1.0
 40
1.0
 10
10.9983221783
 20
9.7401355662
 30
0.0
 10
10.9983064406
 20
9.7401004078
 30
0.0
 10
10.9982820303
 20
9.7400255707
 30
0.0
 10
10.9982647703
 20
9.7398597614
 30
0.0
 10
10.9983110054
 20
9.739625772
 30
0.0
 10
10.9984572129
 20
9.7393333056
 30
0.0
 10
10.9986921973
 20
9.7390147993
 30
0.0
 10
10.9990163628
 20
9.7386697889
 30
0.0
 10
10.9994293625
 20
9.7382986109
 30
0.0
 10
10.9999303108
 20
9.7379026032
 30
0.0
 10
11.0005176609
 20
9.7374833595
 30
0.0
 10
11.0011893288
 20
9.7370426633
 30
0.0
 10
11.0022369615
 20
9.7364028901
 30
0.0
 10
11.0037389256
 20
9.7355699666
 30
0.0
 10
11.0057577916
 20
9.7345537126
 30
0.0
 10
11.0072052046
 20
9.7338829698
 30
0.0
 10
11.0079697673
 20
9.7335407546
 30
0.0
  0
SPLINE
  5
461
100
AcDbEntity
  8
0
100
AcDbSpline
 62
7
  6
CONTINUOUS
 70
0
 71
3
 72
23
 73
19
 74
0
 42
0.0000001
 43
0.0000001
 44
0.0000000001
 40
0.0
 40
0.0
 40
0.0
 40
0.0
 40
0.0090077609
 40
0.0184107459
 40
0.028631339
 40
0.039996731
 40
0.0669923133
 40
0.1005601617
 40
0.1411561865
 40
0.1889058574
 40
0.243745762
 40
0.3054889401
 40
0.3738513102
 40
0.4484725683
 40
0.528927896
 40
0.6147317605
 40
0.8001705743
 40
1.0
 40
1.0
 40
1.0
 40
1.0
 10
10.8427604337
 20
9.8108488778
 30
0.0
 10
10.8427385705
 20
9.8108000292
 30
0.0
 10
10.8427058141
 20
9.8106943884
 30
0.0
 10
10.84269425
 20
9.8105233792
 30
0.0
 10
10.8427190554
 20
9.8103398863
 30
0.0
 10
10.8428046333
 20
9.8100631522
 30
0.0
 10
10.8430126421
 20
9.8096856021
 30
0.0
 10
10.8433835973
 20
9.809211179
 30
0.0
 10
10.8438895095
 20
9.8086912537
 30
0.0
 10
10.8445284439
 20
9.8081287327
 30
0.0
 10
10.8452977138
 20
9.8075267857
 30
0.0
 10
10.8461931601
 20
9.8068894222
 30
0.0
 10
10.8472095786
 20
9.8062208773
 30
0.0
 10
10.8483407423
 20
9.8055257108
 30
0.0
 10
10.8495794916
 20
9.8048086973
 30
0.0
 10
10.8514118211
 20
9.8038039863
 30
0.0
 10
10.8539076941
 20
9.8025359491
 30
0.0
 10
10.8559830935
 20
9.8015693851
 30
0.0
 10
10.8570667469
 20
9.8010843462
 30
0.0
  0
SPLINE
  5
462
100
AcDbEntity
  8
0
100
AcDbSpline
 62
7
  6
CONTINUOUS
 70
0
 71
3
 72
25
 73
21
 74
0
 42
0.0000001
 43
0.0000001
 44
0.0000000001
 40
0.0
 40
0.0
 40
0.0
 40
0.0
 40
0.0083257365
 40
0.0172466185
 40
0.0272375141
 40
0.0386315532
 40
0.0516465432
 40
0.0664157157
 40
0.0830181304
 40
0.1014970743
 40
0.1441199664
 40
0.1942322546
 40
0.2515783111
 40
0.3157700561
 40
0.3863127746
 40
0.4626220628
 40
0.5440343041
 40
0.6298152837
 40
0.8112372144
 40
1.0
 40
1.0
 40
1.0
 40
1.0
 10
10.6758185562
 20
9.8867256498
 30
0.0
 10
10.6757913967
 20
9.8866649636
 30
0.0
 10
10.6757529825
 20
9.886530583
 30
0.0
 10
10.6757495049
 20
9.8863111523
 30
0.0
 10
10.6757970307
 20
9.8860724091
 30
0.0
 10
10.6758941013
 20
9.8858144568
 30
0.0
 10
10.6760401494
 20
9.8855370779
 30
0.0
 10
10.6762348453
 20
9.885240381
 30
0.0
 10
10.6764779038
 20
9.8849247267
 30
0.0
 10
10.6768858803
 20
9.8844567839
 30
0.0
 10
10.6775198098
 20
9.8838330858
 30
0.0
 10
10.6784296849
 20
9.8830521287
 30
0.0
 10
10.6795149984
 20
9.8822140276
 30
0.0
 10
10.6807665851
 20
9.8813266894
 30
0.0
 10
10.682173693
 20
9.8803986393
 30
0.0
 10
10.6837236831
 20
9.8794389216
 30
0.0
 10
10.6854022777
 20
9.8784569679
 30
0.0
 10
10.6878365567
 20
9.8771058202
 30
0.0
 10
10.6910750186
 20
9.8754391529
 30
0.0
 10
10.6937519979
 20
9.8741833782
 30
0.0
 10
10.695127859
 20
9.8735675482
 30
0.0
  0
SPLINE
  5
463
100
AcDbEntity
  8
0
100
AcDbSpline
 62
7
  6
CONTINUOUS
 70
0
 71
3
 72
25
 73
21
 74
0
 42
0.0000001
 43
0.0000001
 44
0.0000000001
 40
0.0
 40
0.0
 40
0.0
 40
0.0
 40
0.0075282462
 40
0.0159221789
 40
0.0257211626
 40
0.037253771
 40
0.0507056531
 40
0.0661725156
 40
0.0836988339
 40
0.1032914224
 40
0.1485913116
 40
0.2017683631
 40
0.262318598
 40
0.3295961072
 40
0.402837534
 40
0.4811756741
 40
0.5636522844
 40
0.6492314377
 40
0.8252440897
 40
1.0
 40
1.0
 40
1.0
 40
1.0
 10
10.5088730816
 20
9.9625943842
 30
0.0
 10
10.5088423043
 20
9.9625256103
 30
0.0
 10
10.5088030466
 20
9.9623677159
 30
0.0
 10
10.5088181452
 20
9.9621080102
 30
0.0
 10
10.5089002095
 20
9.9618202768
 30
0.0
 10
10.5090474569
 20
9.961503714
 30
0.0
 10
10.5092592863
 20
9.9611579428
 30
0.0
 10
10.5095352755
 20
9.9607833702
 30
0.0
 10
10.5098748536
 20
9.9603808816
 30
0.0
 10
10.5104392286
 20
9.9597788825
 30
0.0
 10
10.5113029557
 20
9.9589707246
 30
0.0
 10
10.5125265602
 20
9.9579519914
 30
0.0
 10
10.5139693245
 20
9.9568555876
 30
0.0
 10
10.5156141239
 20
9.955695522
 30
0.0
 10
10.5174412506
 20
9.9544868693
 30
0.0
 10
10.5194281256
 20
9.9532455136
 30
0.0
 10
10.5215496731
 20
9.9519879728
 30
0.0
 10
10.5245495733
 20
9.950296642
 30
0.0
 10
10.5284194604
 20
9.9482700952
 30
0.0
 10
10.5315925464
 20
9.9467653036
 30
0.0
 10
10.5331889711
 20
9.9460507503
 30
0.0
  0
SPLINE
  5
464
100
AcDbEntity
  8
0
100
AcDbSpline
 62
7
  6
CONTINUOUS
 70
0
 71
3
 72
26
 73
22
 74
0
 42
0.0000001
 43
0.0000001
 44
0.0000000001
 40
0.0
 40
0.0
 40
0.0
 40
0.0
 40
0.0066022983
 40
0.0144471917
 40
0.0241396602
 40
0.0359795408
 40
0.0501006448
 40
0.0665511513
 40
0.0853283908
 40
0.1063996792
 40
0.155179976
 40
0.2122722371
 40
0.2768552235
 40
0.3479556531
 40
0.4244691147
 40
0.5051784447
 40
0.5887692532
 40
0.6738500122
 40
0.8426681077
 40
0.9234831705
 40
1.0
 40
1.0
 40
1.0
 40
1.0
 10
10.3533015043
 20
10.0332857301
 30
0.0
 10
10.353269497
 20
10.0332142019
 30
0.0
 10
10.3532367531
 20
10.033040318
 30
0.0
 10
10.3532840674
 20
10.0327543375
 30
0.0
 10
10.353414405
 20
10.0324290853
 30
0.0
 10
10.3536272648
 20
10.0320622211
 30
0.0
 10
10.353921997
 20
10.0316534431
 30
0.0
 10
10.3542980572
 20
10.0312039026
 30
0.0
 10
10.3547541351
 20
10.0307151878
 30
0.0
 10
10.3555042666
 20
10.029977355
 30
0.0
 10
10.3566337072
 20
10.0289786429
 30
0.0
 10
10.3582108181
 20
10.0277106876
 30
0.0
 10
10.3600453163
 20
10.0263425446
 30
0.0
 10
10.3621080697
 20
10.0248969449
 30
0.0
 10
10.3643662039
 20
10.0233982074
 30
0.0
 10
10.366782995
 20
10.0218718312
 30
0.0
 10
10.3693184434
 20
10.0203441116
 30
0.0
 10
10.3727908539
 20
10.0183468089
 30
0.0
 10
10.3762931634
 20
10.0164686113
 30
0.0
 10
10.3797633823
 20
10.0147525635
 30
0.0
 10
10.3814570168
 20
10.0139653694
 30
0.0
 10
10.3822859507
 20
10.0135943419
 30
0.0
  0
SPLINE
  5
465
100
AcDbEntity
  8
0
100
AcDbSpline
 62
7
  6
CONTINUOUS
 70
0
 71
3
 72
31
 73
27
 74
0
 42
0.0000001
 43
0.0000001
 44
0.0000000001
 40
0.0
 40
0.0
 40
0.0
 40
0.0
 40
0.0026397431
 40
0.0055817033
 40
0.008976991
 40
0.0129224456
 40
0.0174763106
 40
0.0226736401
 40
0.0350673436
 40
0.0501735322
 40
0.067979827
 40
0.0884298238
 40
0.1114401012
 40
0.1369065939
 40
0.1647075517
 40
0.2267590676
 40
0.2963727732
 40
0.3721571252
 40
0.4525820237
 40
0.5359999761
 40
0.6206728055
 40
0.7047993778
 40
0.7865550273
 40
0.8641369606
 40
0.9358148377
 40
1.0
 40
1.0
 40
1.0
 40
1.0
 10
10.2197067821
 20
10.0939844506
 30
0.0
 10
10.2196922911
 20
10.0939520635
 30
0.0
 10
10.2196725433
 20
10.093878413
 30
0.0
 10
10.2196726967
 20
10.0937567784
 30
0.0
 10
10.2196999933
 20
10.0936206172
 30
0.0
 10
10.219753866
 20
10.0934696683
 30
0.0
 10
10.2198340334
 20
10.0933036485
 30
0.0
 10
10.2199850705
 20
10.0930468749
 30
0.0
 10
10.2202444386
 20
10.0926909745
 30
0.0
 10
10.2206406724
 20
10.092228129
 30
0.0
 10
10.2211370485
 20
10.091709959
 30
0.0
 10
10.2217309024
 20
10.0911392149
 30
0.0
 10
10.2224192756
 20
10.090518972
 30
0.0
 10
10.2231985182
 20
10.0898525414
 30
0.0
 10
10.2243979555
 20
10.0888706024
 30
0.0
 10
10.2260941067
 20
10.0875594803
 30
0.0
 10
10.2283463334
 20
10.0859151423
 30
0.0
 10
10.2308382904
 20
10.0841817203
 30
0.0
 10
10.2335188454
 20
10.0823957095
 30
0.0
 10
10.2363326043
 20
10.0805952033
 30
0.0
 10
10.2392204709
 20
10.0788192093
 30
0.0
 10
10.2421206606
 20
10.0771069287
 30
0.0
 10
10.2449698461
 20
10.0754968503
 30
0.0
 10
10.2477046235
 20
10.07402567
 30
0.0
 10
10.2502632066
 20
10.0727271707
 30
0.0
 10
10.2519151479
 20
10.0719477946
 30
0.0
 10
10.2527025895
 20
10.0715953389
 30
0.0
  0
SPLINE
  5
466
100
AcDbEntity
  8
0
100
AcDbSpline
 62
7
  6
CONTINUOUS
 70
0
 71
3
 72
18
 73
14
 74
0
 42
0.0000001
 43
0.0000001
 44
0.0000000001
 40
0.0
 40
0.0
 40
0.0
 40
0.0
 40
0.1308727176
 40
0.2588029531
 40
0.3219455357
 40
0.384657937
 40
0.4470187864
 40
0.5090960352
 40
0.5709406131
 40
0.6325871134
 40
0.7554064241
 40
0.8778036345
 40
1.0
 40
1.0
 40
1.0
 40
1.0
 10
15.0297724183
 20
6.086174102
 30
0.0
 10
15.0235457541
 20
6.0893495811
 30
0.0
 10
15.0114478937
 20
6.096061072
 30
0.0
 10
14.9969846431
 20
6.105380572
 30
0.0
 10
14.9859286727
 20
6.1132240928
 30
0.0
 10
14.9778932754
 20
6.1192660139
 30
0.0
 10
14.9700609053
 20
6.1254773067
 30
0.0
 10
14.9624124277
 20
6.1318412058
 30
0.0
 10
14.9549339182
 20
6.1383460013
 30
0.0
 10
14.945198941
 20
6.1471949922
 30
0.0
 10
14.933430536
 20
6.1586090811
 30
0.0
 10
14.9199286311
 20
6.1728553353
 30
0.0
 10
14.9113338863
 20
6.1826984316
 30
0.0
 10
14.9071388933
 20
6.1876978296
 30
0.0
  0
SPLINE
  5
467
100
AcDbEntity
  8
0
100
AcDbSpline
 62
7
  6
CONTINUOUS
 70
0
 71
3
 72
16
 73
12
 74
0
 42
0.0000001
 43
0.0000001
 44
0.0000000001
 40
0.0
 40
0.0
 40
0.0
 40
0.0
 40
0.0438263726
 40
0.0721677259
 40
0.1059495322
 40
0.1914406377
 40
0.3021728385
 40
0.4386208701
 40
0.600685112
 40
0.7880056555
 40
1.0
 40
1.0
 40
1.0
 40
1.0
 10
10.1171944829
 20
10.1405569502
 30
0.0
 10
10.1171762628
 20
10.1405162226
 30
0.0
 10
10.1171744961
 20
10.140437622
 30
0.0
 10
10.1172026001
 20
10.1403339357
 30
0.0
 10
10.1172613643
 20
10.140194916
 30
0.0
 10
10.1173854865
 20
10.1399953343
 30
0.0
 10
10.1175930806
 20
10.1397274075
 30
0.0
 10
10.1178705096
 20
10.1394162332
 30
0.0
 10
10.1182166448
 20
10.1390627763
 30
0.0
 10
10.1186304916
 20
10.1386684947
 30
0.0
 10
10.1189321656
 20
10.1383959389
 30
0.0
 10
10.1190937399
 20
10.1382528574
 30
0.0
  0
SPLINE
  5
468
100
AcDbEntity
  8
0
100
AcDbSpline
 62
7
  6
CONTINUOUS
 70
0
 71
3
 72
21
 73
17
 74
0
 42
0.0000001
 43
0.0000001
 44
0.0000000001
 40
0.0
 40
0.0
 40
0.0
 40
0.0
 40
0.040980902
 40
0.0898847615
 40
0.145874582
 40
0.2079968127
 40
0.2752018347
 40
0.3463607635
 40
0.4957032019
 40
0.6459199253
 40
0.7180902004
 40
0.7865700038
 40
0.8501123942
 40
0.907547069
 40
0.957813401
 40
1.0
 40
1.0
 40
1.0
 40
1.0
 10
10.1190937399
 20
10.1382528574
 30
0.0
 10
10.1195110443
 20
10.1378833152
 30
0.0
 10
10.1204463534
 20
10.1370954268
 30
0.0
 10
10.1220007745
 20
10.1358620682
 30
0.0
 10
10.1238108687
 20
10.1344891634
 30
0.0
 10
10.1258451358
 20
10.1330006167
 30
0.0
 10
10.1280688157
 20
10.1314220259
 30
0.0
 10
10.1312882209
 20
10.1291971888
 30
0.0
 10
10.1354860327
 20
10.1264028435
 30
0.0
 10
10.1397539928
 20
10.1236910764
 30
0.0
 10
10.1431310098
 20
10.1216298638
 30
0.0
 10
10.1455207955
 20
10.1202145258
 30
0.0
 10
10.1477579493
 20
10.1189353529
 30
0.0
 10
10.1498009888
 20
10.1178164295
 30
0.0
 10
10.1516115626
 20
10.1168789158
 30
0.0
 10
10.152746041
 20
10.1163354923
 30
0.0
 10
10.1532697792
 20
10.1161010692
 30
0.0
  0
SPLINE
  5
469
100
AcDbEntity
  8
0
100
AcDbSpline
 62
7
  6
CONTINUOUS
 70
0
 71
3
 72
16
 73
12
 74
0
 42
0.0000001
 43
0.0000001
 44
0.0000000001
 40
0.0
 40
0.0
 40
0.0
 40
0.0
 40
0.1273956515
 40
0.2535805454
 40
0.3789163592
 40
0.44135793
 40
0.5036854644
 40
0.5659196744
 40
0.6280746017
 40
0.7521952599
 40
1.0
 40
1.0
 40
1.0
 40
1.0
 10
15.0999342248
 20
6.145046848
 30
0.0
 10
15.0944453824
 20
6.1489083156
 30
0.0
 10
15.0837047484
 20
6.156860579
 30
0.0
 10
15.0681966165
 20
6.1694361156
 30
0.0
 10
15.0557605674
 20
6.180345623
 30
0.0
 10
15.0460753575
 20
6.1892783661
 30
0.0
 10
15.0389349464
 20
6.1960655955
 30
0.0
 10
15.031900736
 20
6.2029411481
 30
0.0
 10
15.0226665131
 20
6.2122212518
 30
0.0
 10
15.0068707847
 20
6.2287587041
 30
0.0
 10
14.9939034431
 20
6.2434610462
 30
0.0
 10
14.9855124452
 20
6.2534610481
 30
0.0
  0
SPLINE
  5
46A
100
AcDbEntity
  8
0
100
AcDbSpline
 62
7
  6
CONTINUOUS
 70
0
 71
3
 72
18
 73
14
 74
0
 42
0.0000001
 43
0.0000001
 44
0.0000000001
 40
0.0
 40
0.0
 40
0.0
 40
0.0
 40
0.0119381769
 40
0.0288018677
 40
0.0520527864
 40
0.0822237676
 40
0.1195303773
 40
0.164050314
 40
0.2747791337
 40
0.4142820332
 40
0.582088531
 40
0.7775893722
 40
1.0
 40
1.0
 40
1.0
 40
1.0
 10
10.0527519176
 20
10.1698322154
 30
0.0
 10
10.052747132
 20
10.1698215106
 30
0.0
 10
10.0527463839
 20
10.1697914868
 30
0.0
 10
10.0527647362
 20
10.1697434812
 30
0.0
 10
10.0527998965
 20
10.1696837953
 30
0.0
 10
10.0528532501
 20
10.1696123076
 30
0.0
 10
10.0529247107
 20
10.1695286035
 30
0.0
 10
10.053054122
 20
10.169390617
 30
0.0
 10
10.0532629501
 20
10.1691898834
 30
0.0
 10
10.0535694344
 20
10.1689165858
 30
0.0
 10
10.0539464297
 20
10.1685974915
 30
0.0
 10
10.0543923367
 20
10.1682339597
 30
0.0
 10
10.0547140846
 20
10.1679790507
 30
0.0
 10
10.054886012
 20
10.1678442816
 30
0.0
  0
SPLINE
  5
46B
100
AcDbEntity
  8
0
100
AcDbSpline
 62
7
  6
CONTINUOUS
 70
0
 71
3
 72
20
 73
16
 74
0
 42
0.0000001
 43
0.0000001
 44
0.0000000001
 40
0.0
 40
0.0
 40
0.0
 40
0.0
 40
0.0425025495
 40
0.0937147985
 40
0.1525898162
 40
0.217949337
 40
0.3629117632
 40
0.5174908713
 40
0.6698950494
 40
0.7415604089
 40
0.8082697709
 40
0.8686551354
 40
0.9214542981
 40
0.965547727
 40
1.0
 40
1.0
 40
1.0
 40
1.0
 10
10.054886012
 20
10.1678442816
 30
0.0
 10
10.0553560392
 20
10.1674758404
 30
0.0
 10
10.0564033855
 20
10.1666774719
 30
0.0
 10
10.058128325
 20
10.1654039119
 30
0.0
 10
10.0601278879
 20
10.1639618361
 30
0.0
 10
10.0632149614
 20
10.1617758945
 30
0.0
 10
10.0674314889
 20
10.1588582595
 30
0.0
 10
10.0726931981
 20
10.1553023577
 30
0.0
 10
10.0771334206
 20
10.1523707546
 30
0.0
 10
10.0805649598
 20
10.1501528599
 30
0.0
 10
10.0829219179
 20
10.1486545123
 30
0.0
 10
10.0850674447
 20
10.1473179068
 30
0.0
 10
10.0869567884
 20
10.1461712604
 30
0.0
 10
10.0885498784
 20
10.1452393634
 30
0.0
 10
10.0895156318
 20
10.1447045442
 30
0.0
 10
10.0899448413
 20
10.1444806331
 30
0.0
  0
LINE
  5
46C
100
AcDbEntity
  8
0
100
AcDbLine
 62
7
  6
CONTINUOUS
 10
10.0899448413
 20
10.1444806331
 11
10.0907637015
 21
10.1440785409
  0
LINE
  5
46D
100
AcDbEntity
  8
0
100
AcDbLine
 62
7
  6
CONTINUOUS
 10
10.0907637015
 20
10.1440785409
 11
10.0915373331
 21
10.1438886544
  0
SPLINE
  5
46E
100
AcDbEntity
  8
0
100
AcDbSpline
 62
7
  6
CONTINUOUS
 70
0
 71
3
 72
18
 73
14
 74
0
 42
0.0000001
 43
0.0000001
 44
0.0000000001
 40
0.0
 40
0.0
 40
0.0
 40
0.0
 40
0.2188364172
 40
0.4106209506
 40
0.5746082868
 40
0.7105247162
 40
0.818508844
 40
0.8623118258
 40
0.8996180207
 40
0.9308958914
 40
0.9569709872
 40
0.9792643518
 40
1.0
 40
1.0
 40
1.0
 40
1.0
 10
10.1532697792
 20
10.1161010692
 30
0.0
 10
10.1534858931
 20
10.1160043375
 30
0.0
 10
10.1538934479
 20
10.1158273071
 30
0.0
 10
10.1544709049
 20
10.1155966748
 30
0.0
 10
10.1549725416
 20
10.1154188677
 30
0.0
 10
10.155396172
 20
10.1152944567
 30
0.0
 10
10.1557016116
 20
10.1152306999
 30
0.0
 10
10.1559054575
 20
10.1152108392
 30
0.0
 10
10.1560273031
 20
10.1152105947
 30
0.0
 10
10.1561292623
 20
10.1152238923
 30
0.0
 10
10.1562117857
 20
10.1152511676
 30
0.0
 10
10.1562747704
 20
10.1152937778
 30
0.0
 10
10.1563020365
 20
10.1153330947
 30
0.0
 10
10.1563111985
 20
10.115353574
 30
0.0
  0
SPLINE
  5
46F
100
AcDbEntity
  8
0
100
AcDbSpline
 62
7
  6
CONTINUOUS
 70
0
 71
3
 72
19
 73
15
 74
0
 42
0.0000001
 43
0.0000001
 44
0.0000000001
 40
0.0
 40
0.0
 40
0.0
 40
0.0
 40
0.214596587
 40
0.4050224304
 40
0.5695957259
 40
0.7071636701
 40
0.7656049937
 40
0.817127796
 40
0.8618014149
 40
0.8998245966
 40
0.9315844812
 40
0.957816617
 40
0.9798760204
 40
1.0
 40
1.0
 40
1.0
 40
1.0
 10
10.2527025895
 20
10.0715953389
 30
0.0
 10
10.253165052
 20
10.0713883425
 30
0.0
 10
10.2540425873
 20
10.0710080019
 30
0.0
 10
10.2552926787
 20
10.0705113468
 30
0.0
 10
10.2563900544
 20
10.0701253056
 30
0.0
 10
10.2572078574
 20
10.0698859412
 30
0.0
 10
10.257778261
 20
10.0697577231
 30
0.0
 10
10.258138366
 20
10.0696962362
 30
0.0
 10
10.2584539318
 20
10.0696639794
 30
0.0
 10
10.2587246454
 20
10.0696608436
 30
0.0
 10
10.2589506852
 20
10.0696868349
 30
0.0
 10
10.2591328256
 20
10.0697427116
 30
0.0
 10
10.2592712599
 20
10.0698312556
 30
0.0
 10
10.2593309284
 20
10.0699147612
 30
0.0
 10
10.2593503357
 20
10.0699581308
 30
0.0
  0
SPLINE
  5
470
100
AcDbEntity
  8
0
100
AcDbSpline
 62
7
  6
CONTINUOUS
 70
0
 71
3
 72
26
 73
22
 74
0
 42
0.0000001
 43
0.0000001
 44
0.0000000001
 40
0.0
 40
0.0
 40
0.0
 40
0.0
 40
0.0014854696
 40
0.0058745374
 40
0.013066705
 40
0.0229616525
 40
0.0354592516
 40
0.0504595795
 40
0.0875697212
 40
0.1334975021
 40
0.1874526981
 40
0.2486502678
 40
0.3163112591
 40
0.3896639174
 40
0.4679450484
 40
0.550401707
 40
0.6362933046
 40
0.7248942609
 40
0.8154973639
 40
0.9074180636
 40
1.0
 40
1.0
 40
1.0
 40
1.0
 10
12.224720255
 20
10.1440798396
 30
0.0
 10
12.2246526403
 20
10.14390311
 30
0.0
 10
12.224382572
 20
10.1432052295
 30
0.0
 10
12.2237772227
 20
10.1416547442
 30
0.0
 10
12.222770843
 20
10.1391108848
 30
0.0
 10
12.2213690461
 20
10.1356127226
 30
0.0
 10
12.2195763546
 20
10.131199744
 30
0.0
 10
12.216441508
 20
10.1235902274
 30
0.0
 10
12.2115905548
 20
10.1120822752
 30
0.0
 10
12.2046369012
 20
10.0960766873
 30
0.0
 10
12.19623748
 20
10.07735525
 30
0.0
 10
12.1864313189
 20
10.0562326016
 30
0.0
 10
12.1752572749
 20
10.0330233704
 30
0.0
 10
12.1627542636
 20
10.0080421012
 30
0.0
 10
12.1489611814
 20
9.9816032546
 30
0.0
 10
12.1339169237
 20
9.9540211822
 30
0.0
 10
12.1176603541
 20
9.9256100864
 30
0.0
 10
12.1002303209
 20
9.8966840361
 30
0.0
 10
12.0816654753
 20
9.8675567236
 30
0.0
 10
12.0620047655
 20
9.8385421787
 30
0.0
 10
12.0482102374
 20
9.8195074307
 30
0.0
 10
12.0411207618
 20
9.810082943
 30
0.0
  0
SPLINE
  5
471
100
AcDbEntity
  8
0
100
AcDbSpline
 62
7
  6
CONTINUOUS
 70
0
 71
3
 72
21
 73
17
 74
0
 42
0.0000001
 43
0.0000001
 44
0.0000000001
 40
0.0
 40
0.0
 40
0.0
 40
0.0
 40
0.2083373527
 40
0.3966969928
 40
0.5620491682
 40
0.6353120752
 40
0.7019608806
 40
0.7618089483
 40
0.8147349245
 40
0.8607030186
 40
0.8997966642
 40
0.9322949092
 40
0.9588119392
 40
0.9805939754
 40
0.9904195009
 40
1.0
 40
1.0
 40
1.0
 40
1.0
 10
10.3822859507
 20
10.0135943419
 30
0.0
 10
10.3830505134
 20
10.0132521267
 30
0.0
 10
10.3845149946
 20
10.0126195172
 30
0.0
 10
10.3866178485
 20
10.0117909058
 30
0.0
 10
10.3882396225
 20
10.0112256565
 30
0.0
 10
10.3894146771
 20
10.0108705637
 30
0.0
 10
10.3901907993
 20
10.0106632349
 30
0.0
 10
10.3908947507
 20
10.010504497
 30
0.0
 10
10.3915238132
 20
10.0103947165
 30
0.0
 10
10.3920757676
 20
10.0103339848
 30
0.0
 10
10.392549026
 20
10.0103220715
 30
0.0
 10
10.3929431065
 20
10.0103590108
 30
0.0
 10
10.3932586245
 20
10.0104448107
 30
0.0
 10
10.3934639308
 20
10.0105662112
 30
0.0
 10
10.3935760897
 20
10.0106895442
 30
0.0
 10
10.3936156398
 20
10.0107576048
 30
0.0
 10
10.393631376
 20
10.0107927639
 30
0.0
  0
SPLINE
  5
472
100
AcDbEntity
  8
0
100
AcDbSpline
 62
7
  6
CONTINUOUS
 70
0
 71
3
 72
23
 73
19
 74
0
 42
0.0000001
 43
0.0000001
 44
0.0000000001
 40
0.0
 40
0.0
 40
0.0
 40
0.0
 40
0.1998294082
 40
0.3852682137
 40
0.4710720754
 40
0.5515274
 40
0.6261486509
 40
0.6945110201
 40
0.7562542115
 40
0.8110941189
 40
0.8588437874
 40
0.8994398197
 40
0.9330076763
 40
0.9600032621
 40
0.9713686551
 40
0.9815892481
 40
0.9909922344
 40
1.0
 40
1.0
 40
1.0
 40
1.0
 10
10.5331889711
 20
9.9460507503
 30
0.0
 10
10.5342726244
 20
9.9455657114
 30
0.0
 10
10.5363760825
 20
9.9446618353
 30
0.0
 10
10.5389844894
 20
9.9436452171
 30
0.0
 10
10.5409544658
 20
9.9429480311
 30
0.0
 10
10.5423144449
 20
9.9425018641
 30
0.0
 10
10.5435864582
 20
9.942121378
 30
0.0
 10
10.5447621755
 20
9.9418087318
 30
0.0
 10
10.5458340478
 20
9.9415655312
 30
0.0
 10
10.5467954493
 20
9.9413928365
 30
0.0
 10
10.5476406194
 20
9.9412910783
 30
0.0
 10
10.5483654042
 20
9.9412601485
 30
0.0
 10
10.5489663471
 20
9.9412995539
 30
0.0
 10
10.5493864904
 20
9.9413959456
 30
0.0
 10
10.5496498847
 20
9.9415164811
 30
0.0
 10
10.5498032553
 20
9.9416202231
 30
0.0
 10
10.5499230867
 20
9.9417427725
 30
0.0
 10
10.5499800496
 20
9.9418375785
 30
0.0
 10
10.5500019149
 20
9.9418864262
 30
0.0
  0
SPLINE
  5
473
100
AcDbEntity
  8
0
100
AcDbSpline
 62
7
  6
CONTINUOUS
 70
0
 71
3
 72
25
 73
21
 74
0
 42
0.0000001
 43
0.0000001
 44
0.0000000001
 40
0.0
 40
0.0
 40
0.0
 40
0.0
 40
0.1887627609
 40
0.3701846792
 40
0.4559656522
 40
0.5373778821
 40
0.6136871742
 40
0.6842298986
 40
0.7484216399
 40
0.8057677031
 40
0.8558800039
 40
0.8985028989
 40
0.9169818437
 40
0.9335842623
 40
0.9483534453
 40
0.9613684427
 40
0.9727624847
 40
0.982753381
 40
0.9916742628
 40
1.0
 40
1.0
 40
1.0
 40
1.0
 10
10.695127859
 20
9.8735675482
 30
0.0
 10
10.6965037199
 20
9.8729517184
 30
0.0
 10
10.6992236331
 20
9.8717918654
 30
0.0
 10
10.7026240369
 20
9.8704870028
 30
0.0
 10
10.7052533927
 20
9.8695716877
 30
0.0
 10
10.7071039801
 20
9.8689739935
 30
0.0
 10
10.7088523093
 20
9.8684573966
 30
0.0
 10
10.7104818346
 20
9.8680262617
 30
0.0
 10
10.7119773908
 20
9.8676839897
 30
0.0
 10
10.7133254572
 20
9.8674329196
 30
0.0
 10
10.7145140312
 20
9.8672746192
 30
0.0
 10
10.7154014918
 20
9.8672173492
 30
0.0
 10
10.716022265
 20
9.8672248277
 30
0.0
 10
10.7164195975
 20
9.8672538456
 30
0.0
 10
10.7167705733
 20
9.867306302
 30
0.0
 10
10.7170747333
 20
9.8673821696
 30
0.0
 10
10.7173317769
 20
9.8674816219
 30
0.0
 10
10.7175414883
 20
9.8676052267
 30
0.0
 10
10.7177028187
 20
9.8677540033
 30
0.0
 10
10.717777446
 20
9.867872175
 30
0.0
 10
10.7178046111
 20
9.8679328587
 30
0.0
  0
SPLINE
  5
474
100
AcDbEntity
  8
0
100
AcDbSpline
 62
7
  6
CONTINUOUS
 70
0
 71
3
 72
25
 73
21
 74
0
 42
0.0000001
 43
0.0000001
 44
0.0000000001
 40
0.0
 40
0.0
 40
0.0
 40
0.0
 40
0.1747558845
 40
0.3507685217
 40
0.4363476601
 40
0.5188242705
 40
0.5971624133
 40
0.6704038349
 40
0.7376813529
 40
0.7982315952
 40
0.8514086491
 40
0.8967085641
 40
0.9163011574
 40
0.9338274765
 40
0.9492943402
 40
0.962746225
 40
0.9742788357
 40
0.9840778226
 40
0.9924717559
 40
1.0
 40
1.0
 40
1.0
 40
1.0
 10
10.8570667469
 20
9.8010843462
 30
0.0
 10
10.8586631713
 20
9.800369793
 30
0.0
 10
10.8618992986
 20
9.7990058462
 30
0.0
 10
10.8659887435
 20
9.7974698276
 30
0.0
 10
10.8692486131
 20
9.7963593102
 30
0.0
 10
10.8715998197
 20
9.7956148641
 30
0.0
 10
10.873849238
 20
9.7949600716
 30
0.0
 10
10.8759678442
 20
9.7944026299
 30
0.0
 10
10.8779287503
 20
9.7939487961
 30
0.0
 10
10.8797075846
 20
9.7936032252
 30
0.0
 10
10.8812824915
 20
9.7933693559
 30
0.0
 10
10.882460608
 20
9.7932635928
 30
0.0
 10
10.8832855494
 20
9.7932437394
 30
0.0
 10
10.8838119418
 20
9.7932586231
 30
0.0
 10
10.8842751526
 20
9.7933023328
 30
0.0
 10
10.8846741411
 20
9.7933747043
 30
0.0
 10
10.8850083225
 20
9.7934757816
 30
0.0
 10
10.8852775792
 20
9.7936062652
 30
0.0
 10
10.8854813213
 20
9.7937680186
 30
0.0
 10
10.8855729227
 20
9.7939024842
 30
0.0
 10
10.8856037094
 20
9.7939712539
 30
0.0
  0
SPLINE
  5
475
100
AcDbEntity
  8
0
100
AcDbSpline
 62
9
  6
CONTINUOUS
 70
0
 71
3
 72
31
 73
27
 74
0
 42
0.0000001
 43
0.0000001
 44
0.0000000001
 40
0.0
 40
0.0
 40
0.0
 40
0.0
 40
0.0158353797
 40
0.0316606836
 40
0.0474618469
 40
0.0632377941
 40
0.078982852
 40
0.0946972629
 40
0.1103874123
 40
0.126051147
 40
0.1573096184
 40
0.188512076
 40
0.2196768032
 40
0.2508148048
 40
0.2819380352
 40
0.3130540465
 40
0.3441676476
 40
0.3752827366
 40
0.4375272398
 40
0.4998103581
 40
0.5621409185
 40
0.6245253199
 40
0.6869650785
 40
0.7494615501
 40
0.8746204965
 40
1.0
 40
1.0
 40
1.0
 40
1.0
 10
16.1047037998
 20
4.9369375077
 30
0.0
 10
16.104704349
 20
4.937417741
 30
0.0
 10
16.1046454289
 20
4.9383789964
 30
0.0
 10
16.1043835184
 20
4.9397975544
 30
0.0
 10
16.1039630614
 20
4.9411752433
 30
0.0
 10
16.1034049269
 20
4.9424997856
 30
0.0
 10
16.1027294349
 20
4.9437651163
 30
0.0
 10
16.1019509648
 20
4.9449663132
 30
0.0
 10
16.1010881657
 20
4.9461048399
 30
0.0
 10
16.0998484505
 20
4.9475444089
 30
0.0
 10
16.0981555065
 20
4.9492082371
 30
0.0
 10
16.0959598279
 20
4.9510128143
 30
0.0
 10
16.0936462409
 20
4.9526557328
 30
0.0
 10
16.091245865
 20
4.9541633659
 30
0.0
 10
16.0887763129
 20
4.9555511223
 30
0.0
 10
16.0862531221
 20
4.9568365151
 30
0.0
 10
16.0836867305
 20
4.958032394
 30
0.0
 10
16.0802175976
 20
4.9595217594
 30
0.0
 10
16.075806035
 20
4.9612061936
 30
0.0
 10
16.0704290347
 20
4.9629992301
 30
0.0
 10
16.0649882807
 20
4.9646024052
 30
0.0
 10
16.0594977936
 20
4.9660435329
 30
0.0
 10
16.0539679409
 20
4.9673466973
 30
0.0
 10
16.0465486982
 20
4.9689239238
 30
0.0
 10
16.0372077919
 20
4.9706294184
 30
0.0
 10
16.0296947518
 20
4.9717689421
 30
0.0
 10
16.0259286805
 20
4.9722928467
 30
0.0
  0
SPLINE
  5
476
100
AcDbEntity
  8
0
100
AcDbSpline
 62
7
  6
CONTINUOUS
 70
0
 71
3
 72
26
 73
22
 74
0
 42
0.0000001
 43
0.0000001
 44
0.0000000001
 40
0.0
 40
0.0
 40
0.0
 40
0.0
 40
0.0765168191
 40
0.1573318682
 40
0.3261499422
 40
0.4112306906
 40
0.4948215022
 40
0.5755308242
 40
0.6520442948
 40
0.7231447255
 40
0.7877277268
 40
0.8448200088
 40
0.8936003087
 40
0.9146716016
 40
0.9334488474
 40
0.9498993565
 40
0.9640204574
 40
0.9758603352
 40
0.9855528064
 40
0.993397702
 40
1.0
 40
1.0
 40
1.0
 40
1.0
 10
11.0079697673
 20
9.7335407546
 30
0.0
 10
11.0087987011
 20
9.7331697271
 30
0.0
 10
11.0105140599
 20
9.7324310693
 30
0.0
 10
11.0141056852
 20
9.7309862638
 30
0.0
 10
11.0178396171
 20
9.7296255484
 30
0.0
 10
11.021642457
 20
9.7283664779
 30
0.0
 10
11.0244708949
 20
9.7274933432
 30
0.0
 10
11.0272192825
 20
9.7267078059
 30
0.0
 10
11.0298413619
 20
9.7260221792
 30
0.0
 10
11.0322936513
 20
9.7254468636
 30
0.0
 10
11.0345361136
 20
9.7249901755
 30
0.0
 10
11.0365323885
 20
9.7246586975
 30
0.0
 10
11.0380296329
 20
9.724481716
 30
0.0
 10
11.0390796258
 20
9.7244138203
 30
0.0
 10
11.0397479351
 20
9.7243992639
 30
0.0
 10
11.040333722
 20
9.7244182856
 30
0.0
 10
11.0408349288
 20
9.7244708044
 30
0.0
 10
11.0412503344
 20
9.7245564595
 30
0.0
 10
11.041579731
 20
9.7246759365
 30
0.0
 10
11.0418245302
 20
9.7248311681
 30
0.0
 10
11.0419323958
 20
9.7249714279
 30
0.0
 10
11.0419644171
 20
9.7250429498
 30
0.0
  0
SPLINE
  5
477
100
AcDbEntity
  8
0
100
AcDbSpline
 62
9
  6
CONTINUOUS
 70
0
 71
3
 72
27
 73
23
 74
0
 42
0.0000001
 43
0.0000001
 44
0.0000000001
 40
0.0
 40
0.0
 40
0.0
 40
0.0
 40
0.0324479166
 40
0.0648394143
 40
0.0971253921
 40
0.1132184797
 40
0.1292708675
 40
0.1612438276
 40
0.1930403732
 40
0.2560892765
 40
0.2874045722
 40
0.3185927895
 40
0.3806520141
 40
0.4424370107
 40
0.4732745772
 40
0.504088224
 40
0.5656852184
 40
0.6273136981
 40
0.6890312687
 40
0.7508798955
 40
0.8750572904
 40
1.0
 40
1.0
 40
1.0
 40
1.0
 10
16.1260250827
 20
4.9369375077
 30
0.0
 10
16.126026684
 20
4.9382346377
 30
0.0
 10
16.125903583
 20
4.9408281861
 30
0.0
 10
16.1253758585
 20
4.9446792969
 30
0.0
 10
16.1246630594
 20
4.9478330158
 30
0.0
 10
16.1239339605
 20
4.9503040724
 30
0.0
 10
16.1231044898
 20
4.952730016
 30
0.0
 10
16.121891896
 20
4.955685455
 30
0.0
 10
16.1196211962
 20
4.9602223029
 30
0.0
 10
16.116885197
 20
4.9644801081
 30
0.0
 10
16.1137971879
 20
4.9684390253
 30
0.0
 10
16.110516969
 20
4.97218866
 30
0.0
 10
16.1060790538
 20
4.9765296689
 30
0.0
 10
16.1012851261
 20
4.9804466187
 30
0.0
 10
16.0972911955
 20
4.9833459021
 30
0.0
 10
16.0932046265
 20
4.9860997114
 30
0.0
 10
16.0879309165
 20
4.9892872243
 30
0.0
 10
16.0813911704
 20
4.9927428593
 30
0.0
 10
16.0746789779
 20
4.99587274
 30
0.0
 10
16.0655254249
 20
4.9996606039
 30
0.0
 10
16.0537715279
 20
5.0037415219
 30
0.0
 10
16.0441752739
 20
5.0064242793
 30
0.0
 10
16.039332866
 20
5.0076481858
 30
0.0
  0
SPLINE
  5
478
100
AcDbEntity
  8
0
100
AcDbSpline
 62
7
  6
CONTINUOUS
 70
0
 71
3
 72
31
 73
27
 74
0
 42
0.0000001
 43
0.0000001
 44
0.0000000001
 40
0.0
 40
0.0
 40
0.0
 40
0.0
 40
0.0641851524
 40
0.1358630181
 40
0.2134449421
 40
0.2952005741
 40
0.3793271469
 40
0.4639999663
 40
0.5474179223
 40
0.6278428208
 40
0.7036271918
 40
0.7732409141
 40
0.835292436
 40
0.8630934028
 40
0.8885598992
 40
0.9115701709
 40
0.9320201657
 40
0.9498264661
 40
0.9649326566
 40
0.9773263587
 40
0.9825236879
 40
0.9870775532
 40
0.991023008
 40
0.9944182959
 40
0.9973602565
 40
1.0
 40
1.0
 40
1.0
 40
1.0
 10
11.1375531285
 20
9.6755397576
 30
0.0
 10
11.13834057
 20
9.6751873019
 30
0.0
 10
11.1400223227
 20
9.6744745299
 30
0.0
 10
11.1426952244
 20
9.6734314373
 30
0.0
 10
11.1456142873
 20
9.6723719811
 30
0.0
 10
11.1487131556
 20
9.6713197342
 30
0.0
 10
11.1519222228
 20
9.6702975356
 30
0.0
 10
11.155170597
 20
9.6693269726
 30
0.0
 10
11.158387882
 20
9.6684280075
 30
0.0
 10
11.1615056177
 20
9.6676187264
 30
0.0
 10
11.1644584915
 20
9.6669150639
 30
0.0
 10
11.1671852219
 20
9.6663308406
 30
0.0
 10
11.1692929935
 20
9.6659393421
 30
0.0
 10
11.1708243598
 20
9.6656989843
 30
0.0
 10
11.1718404958
 20
9.6655618106
 30
0.0
 10
11.1727616494
 20
9.6654616357
 30
0.0
 10
11.1735829197
 20
9.6653989758
 30
0.0
 10
11.1743000424
 20
9.6653739886
 30
0.0
 10
11.1749091914
 20
9.6653868288
 30
0.0
 10
11.1753474039
 20
9.6654304949
 30
0.0
 10
11.1756395203
 20
9.6654889147
 30
0.0
 10
11.1758167415
 20
9.6655397284
 30
0.0
 10
11.1759652058
 20
9.665600112
 30
0.0
 10
11.176084937
 20
9.6656704642
 30
0.0
 10
11.176175752
 20
9.6657513818
 30
0.0
 10
11.1762175233
 20
9.6658151746
 30
0.0
 10
11.1762320232
 20
9.6658475578
 30
0.0
  0
SPLINE
  5
479
100
AcDbEntity
  8
0
100
AcDbSpline
 62
7
  6
CONTINUOUS
 70
0
 71
3
 72
32
 73
28
 74
0
 42
0.0000001
 43
0.0000001
 44
0.0000000001
 40
0.0
 40
0.0
 40
0.0
 40
0.0
 40
0.0231671603
 40
0.0492849528
 40
0.1096215262
 40
0.1793533844
 40
0.2565407065
 40
0.3390602377
 40
0.4246846622
 40
0.5111533062
 40
0.5962273458
 40
0.6777369165
 40
0.7536168423
 40
0.8219443174
 40
0.8527232514
 40
0.8809757845
 40
0.9065198036
 40
0.9291906203
 40
0.948843606
 40
0.9653617159
 40
0.9724182095
 40
0.9786643433
 40
0.9840984009
 40
0.9887269452
 40
0.9925687099
 40
0.9956639146
 40
1.0
 40
1.0
 40
1.0
 40
1.0
 10
11.2369859388
 20
9.6310340272
 30
0.0
 10
11.2372950704
 20
9.6308956611
 30
0.0
 10
11.237957347
 20
9.6306116477
 30
0.0
 10
11.2394442666
 20
9.6300136348
 30
0.0
 10
11.2415861946
 20
9.629221425
 30
0.0
 10
11.24445347
 20
9.6282414816
 30
0.0
 10
11.2476483578
 20
9.627219389
 30
0.0
 10
11.2510819166
 20
9.6261825966
 30
0.0
 10
11.2546605897
 20
9.6251583946
 30
0.0
 10
11.2582888471
 20
9.6241730084
 30
0.0
 10
11.2618717052
 20
9.6232512441
 30
0.0
 10
11.2653166597
 20
9.6224160564
 30
0.0
 10
11.2685353587
 20
9.6216883558
 30
0.0
 10
11.2710406285
 20
9.6211698031
 30
0.0
 10
11.27287054
 20
9.6208259764
 30
0.0
 10
11.2740888572
 20
9.6206148522
 30
0.0
 10
11.2751934816
 20
9.6204427356
 30
0.0
 10
11.2761769439
 20
9.6203107785
 30
0.0
 10
11.277032475
 20
9.6202199704
 30
0.0
 10
11.277663205
 20
9.6201766531
 30
0.0
 10
11.2780991111
 20
9.6201659563
 30
0.0
 10
11.2783730549
 20
9.6201690485
 30
0.0
 10
11.2786112742
 20
9.6201828638
 30
0.0
 10
11.2788130105
 20
9.6202070179
 30
0.0
 10
11.2789794757
 20
9.6202423613
 30
0.0
 10
11.2791333703
 20
9.620295281
 30
0.0
 10
11.279231811
 20
9.6203642146
 30
0.0
 10
11.2792577195
 20
9.6204220682
 30
0.0
  0
LINE
  5
47A
100
AcDbEntity
  8
0
100
AcDbLine
 62
7
  6
CONTINUOUS
 10
11.2994920165
 20
9.6030565555
 11
11.3003372964
 21
9.6027137774
  0
SPLINE
  5
47B
100
AcDbEntity
  8
0
100
AcDbSpline
 62
7
  6
CONTINUOUS
 70
0
 71
3
 72
20
 73
16
 74
0
 42
0.0000001
 43
0.0000001
 44
0.0000000001
 40
0.0
 40
0.0
 40
0.0
 40
0.0
 40
0.0344514425
 40
0.0785441973
 40
0.1313428411
 40
0.1917278514
 40
0.2584370093
 40
0.3301023008
 40
0.4825067
 40
0.6370863846
 40
0.7820495156
 40
0.8474093811
 40
0.9062847207
 40
0.9574972377
 40
1.0
 40
1.0
 40
1.0
 40
1.0
 10
11.3003372964
 20
9.6027137774
 30
0.0
 10
11.3007902102
 20
9.6025428506
 30
0.0
 10
11.3018324266
 20
9.6021789055
 30
0.0
 10
11.3035886969
 20
9.601611636
 30
0.0
 10
11.3057024924
 20
9.6009664884
 30
0.0
 10
11.3081286299
 20
9.6002568318
 30
0.0
 10
11.3108162522
 20
9.5994972433
 30
0.0
 10
11.3147563865
 20
9.5984156059
 30
0.0
 10
11.3199007808
 20
9.5970571751
 30
0.0
 10
11.3260580457
 20
9.5955019949
 30
0.0
 10
11.3310430113
 20
9.5943010842
 30
0.0
 10
11.3347298547
 20
9.593455053
 30
0.0
 10
11.3371374377
 20
9.5929245116
 30
0.0
 10
11.3392363906
 20
9.592486516
 30
0.0
 10
11.3405295416
 20
9.5922372895
 30
0.0
 10
11.3411174505
 20
9.5921322038
 30
0.0
  0
SPLINE
  5
47C
100
AcDbEntity
  8
0
100
AcDbSpline
 62
7
  6
CONTINUOUS
 70
0
 71
3
 72
18
 73
14
 74
0
 42
0.0000001
 43
0.0000001
 44
0.0000000001
 40
0.0
 40
0.0
 40
0.0
 40
0.0
 40
0.2224106218
 40
0.4179114474
 40
0.5857179609
 40
0.7252208943
 40
0.8359497277
 40
0.8804696636
 40
0.9177762702
 40
0.947947247
 40
0.9711981585
 40
0.9880618384
 40
1.0
 40
1.0
 40
1.0
 40
1.0
 10
11.3411174505
 20
9.5921322038
 30
0.0
 10
11.341332496
 20
9.5920937656
 30
0.0
 10
11.3417369492
 20
9.5920236301
 30
0.0
 10
11.3423051255
 20
9.5919332627
 30
0.0
 10
11.3427942525
 20
9.5918646845
 30
0.0
 10
11.3432022511
 20
9.5918181827
 30
0.0
 10
11.3434910749
 20
9.5917961696
 30
0.0
 10
11.3436801959
 20
9.5917915825
 30
0.0
 10
11.3437902276
 20
9.5917940515
 30
0.0
 10
11.3438790857
 20
9.5918018859
 30
0.0
 10
11.343947022
 20
9.5918154262
 30
0.0
 10
11.34399505
 20
9.5918337204
 30
0.0
 10
11.3440169428
 20
9.59185428
 30
0.0
 10
11.3440217381
 20
9.5918649804
 30
0.0
  0
LINE
  5
47D
100
AcDbEntity
  8
0
100
AcDbLine
 62
7
  6
CONTINUOUS
 10
10.2303904158
 20
10.0169214445
 11
10.2306808756
 21
10.0168508731
  0
SPLINE
  5
47E
100
AcDbEntity
  8
0
100
AcDbSpline
 62
7
  6
CONTINUOUS
 70
0
 71
3
 72
18
 73
14
 74
0
 42
0.0000001
 43
0.0000001
 44
0.0000000001
 40
0.0
 40
0.0
 40
0.0
 40
0.0
 40
0.2186051874
 40
0.4102109039
 40
0.5740690056
 40
0.7099082907
 40
0.8178771617
 40
0.8617020039
 40
0.8990552224
 40
0.9304130674
 40
0.9566084587
 40
0.9790663018
 40
1.0
 40
1.0
 40
1.0
 40
1.0
 10
10.2851470049
 20
9.9924126131
 30
0.0
 10
10.2853654848
 20
9.9923148223
 30
0.0
 10
10.2857775541
 20
9.9921359057
 30
0.0
 10
10.2863615324
 20
9.9919030405
 30
0.0
 10
10.2868689941
 20
9.9917237716
 30
0.0
 10
10.2872977035
 20
9.9915986697
 30
0.0
 10
10.2876069214
 20
9.9915349738
 30
0.0
 10
10.2878133516
 20
9.9915156244
 30
0.0
 10
10.2879368284
 20
9.9915159275
 30
0.0
 10
10.2880402139
 20
9.9915299656
 30
0.0
 10
10.28812395
 20
9.9915581888
 30
0.0
 10
10.2881878888
 20
9.9916019517
 30
0.0
 10
10.2882156109
 20
9.9916421161
 30
0.0
 10
10.2882249718
 20
9.9916630394
 30
0.0
  0
SPLINE
  5
47F
100
AcDbEntity
  8
0
100
AcDbSpline
 62
9
  6
CONTINUOUS
 70
0
 71
3
 72
46
 73
42
 74
0
 42
0.0000001
 43
0.0000001
 44
0.0000000001
 40
0.0
 40
0.0
 40
0.0
 40
0.0
 40
0.0001004745
 40
0.0001989862
 40
0.0003160964
 40
0.0004646557
 40
0.0006509731
 40
0.0008781124
 40
0.00146023
 40
0.0022170565
 40
0.0031500719
 40
0.0042592751
 40
0.0055440022
 40
0.00700325
 40
0.0086358252
 40
0.0104404197
 40
0.0124156525
 40
0.0168722678
 40
0.0219939146
 40
0.0277685268
 40
0.034183888
 40
0.0412277001
 40
0.0488876214
 40
0.0660063345
 40
0.0854411065
 40
0.1070931772
 40
0.1308641045
 40
0.1566558657
 40
0.1843709349
 40
0.21391235
 40
0.2451837768
 40
0.2780895741
 40
0.3125348608
 40
0.3856677665
 40
0.4638421368
 40
0.5463345455
 40
0.6324426562
 40
0.7214895925
 40
0.8128293598
 40
0.905853597
 40
1.0
 40
1.0
 40
1.0
 40
1.0
 10
12.0455090208
 20
10.2796807909
 30
0.0
 10
12.0454977774
 20
10.2796892947
 30
0.0
 10
12.0454717385
 20
10.2797024381
 30
0.0
 10
12.0454257478
 20
10.2796996218
 30
0.0
 10
12.0453796309
 20
10.2796755676
 30
0.0
 10
12.0453319012
 20
10.2796333357
 30
0.0
 10
12.0452813049
 20
10.2795725856
 30
0.0
 10
12.0452030222
 20
10.2794567252
 30
0.0
 10
12.045099961
 20
10.2792621279
 30
0.0
 10
12.0449706541
 20
10.2789706916
 30
0.0
 10
12.0448278653
 20
10.2786047189
 30
0.0
 10
12.0446715079
 20
10.2781648574
 30
0.0
 10
12.0445016434
 20
10.277651578
 30
0.0
 10
12.044318216
 20
10.2770655417
 30
0.0
 10
12.0441211724
 20
10.2764073984
 30
0.0
 10
12.0439104284
 20
10.2756778287
 30
0.0
 10
12.0435983061
 20
10.274565152
 30
0.0
 10
12.0431752698
 20
10.2730002759
 30
0.0
 10
12.0426294779
 20
10.270916467
 30
0.0
 10
12.0420264343
 20
10.2685635988
 30
0.0
 10
12.0413653582
 20
10.265947219
 30
0.0
 10
12.0406454732
 20
10.2630728748
 30
0.0
 10
12.039565502
 20
10.2587405994
 30
0.0
 10
12.038067556
 20
10.2527207981
 30
0.0
 10
12.0360820247
 20
10.2447992911
 30
0.0
 10
12.0338413383
 20
10.2359795595
 30
0.0
 10
12.0313389187
 20
10.2263061497
 30
0.0
 10
12.0285682002
 20
10.2158236081
 30
0.0
 10
12.0255225542
 20
10.2045764986
 30
0.0
 10
12.0221953346
 20
10.1926093877
 30
0.0
 10
12.0185798785
 20
10.1799668503
 30
0.0
 10
12.014669509
 20
10.1666934431
 30
0.0
 10
12.0089381921
 20
10.1478342443
 30
0.0
 10
12.0010131008
 20
10.1230045201
 30
0.0
 10
11.9903994688
 20
10.0919630115
 30
0.0
 10
11.9784478433
 20
10.0594637374
 30
0.0
 10
11.9651047887
 20
10.0258623513
 30
0.0
 10
11.9503167098
 20
9.9915142549
 30
0.0
 10
11.934029605
 20
9.9567743054
 30
0.0
 10
11.9161897787
 20
9.9219981468
 30
0.0
 10
11.9032777611
 20
9.8991198839
 30
0.0
 10
11.8965309691
 20
9.8877636203
 30
0.0
  0
SPLINE
  5
480
100
AcDbEntity
  8
0
100
AcDbSpline
 62
9
  6
CONTINUOUS
 70
0
 71
3
 72
14
 73
10
 74
0
 42
0.0000001
 43
0.0000001
 44
0.0000000001
 40
0.0
 40
0.0
 40
0.0
 40
0.0
 40
0.1061315426
 40
0.2199272883
 40
0.3403507371
 40
0.4662700995
 40
0.59647848
 40
0.729712334
 40
1.0
 40
1.0
 40
1.0
 40
1.0
 10
16.0259286805
 20
4.9722928467
 30
0.0
 10
16.0265807395
 20
4.9734644903
 30
0.0
 10
16.0278733865
 20
4.975925239
 30
0.0
 10
16.0297203997
 20
4.9798093557
 30
0.0
 10
16.0315290288
 20
4.9839853939
 30
0.0
 10
16.0332800623
 20
4.9884095527
 30
0.0
 10
16.0349550712
 20
4.993035573
 30
0.0
 10
16.0370731352
 20
4.9994380484
 30
0.0
 10
16.0384788508
 20
5.0043418549
 30
0.0
 10
16.0393327746
 20
5.0076481858
 30
0.0
  0
SPLINE
  5
481
100
AcDbEntity
  8
0
100
AcDbSpline
 62
7
  6
CONTINUOUS
 70
0
 71
3
 72
19
 73
15
 74
0
 42
0.0000001
 43
0.0000001
 44
0.0000000001
 40
0.0
 40
0.0
 40
0.0
 40
0.0
 40
0.2121542621
 40
0.4017121108
 40
0.5664974744
 40
0.7048742562
 40
0.763825871
 40
0.8158649742
 40
0.86103365
 40
0.8994828438
 40
0.9315694675
 40
0.9579871211
 40
0.9800522884
 40
1.0
 40
1.0
 40
1.0
 40
1.0
 10
10.3911621681
 20
9.9449606478
 30
0.0
 10
10.391744235
 20
9.9447001169
 30
0.0
 10
10.3928526138
 20
9.9442205284
 30
0.0
 10
10.3944364729
 20
9.9435941698
 30
0.0
 10
10.3958350934
 20
9.9431056384
 30
0.0
 10
10.39688142
 20
9.9428022075
 30
0.0
 10
10.3976133032
 20
9.9426391634
 30
0.0
 10
10.3980763728
 20
9.9425607695
 30
0.0
 10
10.3984824232
 20
9.9425193553
 30
0.0
 10
10.3988308011
 20
9.9425148856
 30
0.0
 10
10.3991214714
 20
9.9425472175
 30
0.0
 10
10.3993552808
 20
9.9426171903
 30
0.0
 10
10.3995326238
 20
9.9427282345
 30
0.0
 10
10.3996090395
 20
9.9428337419
 30
0.0
 10
10.3996335306
 20
9.9428884729
 30
0.0
  0
SPLINE
  5
482
100
AcDbEntity
  8
0
100
AcDbSpline
 62
7
  6
CONTINUOUS
 70
0
 71
3
 72
22
 73
18
 74
0
 42
0.0000001
 43
0.0000001
 44
0.0000000001
 40
0.0
 40
0.0
 40
0.0
 40
0.0
 40
0.2015492528
 40
0.3875488947
 40
0.5535665784
 40
0.6278854937
 40
0.6958756233
 40
0.757212586
 40
0.8116500628
 40
0.8590337972
 40
0.8993309666
 40
0.9327025683
 40
0.9596374245
 40
0.971033809
 40
0.9813286688
 40
0.9908471176
 40
1.0
 40
1.0
 40
1.0
 40
1.0
 10
10.5343529413
 20
9.8808690273
 30
0.0
 10
10.5353771755
 20
9.8804105841
 30
0.0
 10
10.537359828
 20
9.8795580301
 30
0.0
 10
10.5402319443
 20
9.8784383104
 30
0.0
 10
10.542477769
 20
9.8776666734
 30
0.0
 10
10.5441230362
 20
9.8771760081
 30
0.0
 10
10.5452194275
 20
9.8768861901
 30
0.0
 10
10.5462179827
 20
9.8766619683
 30
0.0
 10
10.5471130064
 20
9.8765041819
 30
0.0
 10
10.5478995642
 20
9.876413101
 30
0.0
 10
10.5485741696
 20
9.8763885948
 30
0.0
 10
10.5491339567
 20
9.8764300991
 30
0.0
 10
10.5495254429
 20
9.8765246449
 30
0.0
 10
10.5497710771
 20
9.8766407666
 30
0.0
 10
10.5499146215
 20
9.876740402
 30
0.0
 10
10.5500271433
 20
9.8768575731
 30
0.0
 10
10.5500809259
 20
9.8769478162
 30
0.0
 10
10.5501017412
 20
9.8769943311
 30
0.0
  0
SPLINE
  5
483
100
AcDbEntity
  8
0
100
AcDbSpline
 62
7
  6
CONTINUOUS
 70
0
 71
3
 72
25
 73
21
 74
0
 42
0.0000001
 43
0.0000001
 44
0.0000000001
 40
0.0
 40
0.0
 40
0.0
 40
0.0
 40
0.1860430497
 40
0.3664296994
 40
0.4521773941
 40
0.5338000541
 40
0.6105045255
 40
0.6815709625
 40
0.7463610237
 40
0.8043293762
 40
0.8550386225
 40
0.8981838229
 40
0.916879558
 40
0.9336622591
 40
0.9485669974
 40
0.9616645814
 40
0.973082569
 40
0.9830297975
 40
0.9918401311
 40
1.0
 40
1.0
 40
1.0
 40
1.0
 10
10.6956979844
 20
9.8086516278
 30
0.0
 10
10.6971280099
 20
9.8080115541
 30
0.0
 10
10.6999684907
 20
9.8068036086
 30
0.0
 10
10.7035274287
 20
9.8054461999
 30
0.0
 10
10.7062956108
 20
9.8044896273
 30
0.0
 10
10.7082532033
 20
9.8038623384
 30
0.0
 10
10.7101072039
 20
9.8033188083
 30
0.0
 10
10.7118387766
 20
9.8028638896
 30
0.0
 10
10.7134306302
 20
9.8025013736
 30
0.0
 10
10.7148672904
 20
9.8022338889
 30
0.0
 10
10.7161349832
 20
9.8020632215
 30
0.0
 10
10.7170818093
 20
9.801998751
 30
0.0
 10
10.7177442153
 20
9.8020028427
 30
0.0
 10
10.7181679109
 20
9.8020304983
 30
0.0
 10
10.7185418686
 20
9.8020826378
 30
0.0
 10
10.7188655164
 20
9.8021592704
 30
0.0
 10
10.7191385364
 20
9.8022604239
 30
0.0
 10
10.7193606884
 20
9.8023868462
 30
0.0
 10
10.719530973
 20
9.8025396256
 30
0.0
 10
10.7196092893
 20
9.8026618726
 30
0.0
 10
10.719637359
 20
9.8027245954
 30
0.0
  0
SPLINE
  5
484
100
AcDbEntity
  8
0
100
AcDbSpline
 62
7
  6
CONTINUOUS
 70
0
 71
3
 72
30
 73
26
 74
0
 42
0.0000001
 43
0.0000001
 44
0.0000000001
 40
0.0
 40
0.0
 40
0.0
 40
0.0
 40
0.0411380264
 40
0.0629108512
 40
0.0855312778
 40
0.1090220942
 40
0.1333947407
 40
0.158651218
 40
0.1847857011
 40
0.2117858856
 40
0.2396341027
 40
0.2683082382
 40
0.2977824905
 40
0.3280279965
 40
0.3590133494
 40
0.39070503
 40
0.4230677676
 40
0.4896543146
 40
0.5584706904
 40
0.6291974208
 40
0.7015075757
 40
0.775070897
 40
0.8495573417
 40
0.9246403395
 40
1.0
 40
1.0
 40
1.0
 40
1.0
 10
11.627145015
 20
9.5218514077
 30
0.0
 10
11.6342527542
 20
9.5214374775
 30
0.0
 10
11.645186367
 20
9.5216851293
 30
0.0
 10
11.6598908463
 20
9.5234229182
 30
0.0
 10
11.6714647529
 20
9.5254840976
 30
0.0
 10
11.6833483807
 20
9.5282602287
 30
0.0
 10
11.6955220063
 20
9.5317338682
 30
0.0
 10
11.7079632958
 20
9.535887505
 30
0.0
 10
11.7206505153
 20
9.5407037715
 30
0.0
 10
11.7335616367
 20
9.5461653329
 30
0.0
 10
11.7466746099
 20
9.5522548847
 30
0.0
 10
11.7599673051
 20
9.5589551313
 30
0.0
 10
11.773417544
 20
9.5662487784
 30
0.0
 10
11.7870031149
 20
9.5741185276
 30
0.0
 10
11.800701743
 20
9.5825470714
 30
0.0
 10
11.8144912519
 20
9.5915171009
 30
0.0
 10
11.8331451218
 20
9.6042971992
 30
0.0
 10
11.8565244584
 20
9.6215325676
 30
0.0
 10
11.8843260932
 20
9.6439035549
 30
0.0
 10
11.911957712
 20
9.6680188893
 30
0.0
 10
11.9392407769
 20
9.6937402545
 30
0.0
 10
11.9659970996
 20
9.720929651
 30
0.0
 10
11.9920484717
 20
9.7494489882
 30
0.0
 10
12.0172161234
 20
9.7791593465
 30
0.0
 10
12.0332803024
 20
9.7996601253
 30
0.0
 10
12.0411207597
 20
9.8100829403
 30
0.0
  0
SPLINE
  5
485
100
AcDbEntity
  8
0
100
AcDbSpline
 62
9
  6
CONTINUOUS
 70
0
 71
3
 72
31
 73
27
 74
0
 42
0.0000001
 43
0.0000001
 44
0.0000000001
 40
0.0
 40
0.0
 40
0.0
 40
0.0
 40
0.0171678226
 40
0.0353031094
 40
0.054474487
 40
0.0747289468
 40
0.0960961163
 40
0.1185918
 40
0.1422186321
 40
0.1669658171
 40
0.192814859
 40
0.2197415952
 40
0.2477173396
 40
0.2767097727
 40
0.3066836399
 40
0.3376013028
 40
0.3694230642
 40
0.4021048013
 40
0.4698506959
 40
0.5404420795
 40
0.6134671298
 40
0.6885066222
 40
0.7651274474
 40
0.8428813497
 40
0.9213203248
 40
1.0
 40
1.0
 40
1.0
 40
1.0
 10
11.7291709293
 20
9.5156772099
 30
0.0
 10
11.731794587
 20
9.5155114774
 30
0.0
 10
11.737208132
 20
9.515428071
 30
0.0
 10
11.7455388698
 20
9.5159818917
 30
0.0
 10
11.7542759195
 20
9.5171963341
 30
0.0
 10
11.7634026196
 20
9.5190573825
 30
0.0
 10
11.7729034087
 20
9.521551337
 30
0.0
 10
11.7827617521
 20
9.5246647747
 30
0.0
 10
11.7929601345
 20
9.5283836262
 30
0.0
 10
11.8034801691
 20
9.5326925102
 30
0.0
 10
11.8143025447
 20
9.5375760525
 30
0.0
 10
11.8254077722
 20
9.5430187845
 30
0.0
 10
11.8367762769
 20
9.5490052371
 30
0.0
 10
11.8483884252
 20
9.5555199149
 30
0.0
 10
11.8602245441
 20
9.5625473029
 30
0.0
 10
11.8722648974
 20
9.5700718546
 30
0.0
 10
11.8844894161
 20
9.5780777617
 30
0.0
 10
11.9012068681
 20
9.5895093961
 30
0.0
 10
11.9223989308
 20
9.6049051453
 30
0.0
 10
11.9479272491
 20
9.6248098095
 30
0.0
 10
11.9736748092
 20
9.6462222855
 30
0.0
 10
11.9994651834
 20
9.6690027456
 30
0.0
 10
12.0251194931
 20
9.6930089528
 30
0.0
 10
12.0504557215
 20
9.7180962648
 30
0.0
 10
12.0752898489
 20
9.7441180118
 30
0.0
 10
12.0913946924
 20
9.7619977606
 30
0.0
 10
12.0993232727
 20
9.7710694082
 30
0.0
  0
SPLINE
  5
486
100
AcDbEntity
  8
0
100
AcDbSpline
 62
7
  6
CONTINUOUS
 70
0
 71
3
 72
25
 73
21
 74
0
 42
0.0000001
 43
0.0000001
 44
0.0000000001
 40
0.0
 40
0.0
 40
0.0
 40
0.0
 40
0.1645490601
 40
0.3364139694
 40
0.4217371625
 40
0.5048984269
 40
0.5846519144
 40
0.6598297866
 40
0.7293603492
 40
0.7922802261
 40
0.8477514419
 40
0.895082942
 40
0.9155337212
 40
0.9337818141
 40
0.9498090974
 40
0.9636325304
 40
0.9753176359
 40
0.9850207232
 40
0.9930541535
 40
1.0
 40
1.0
 40
1.0
 40
1.0
 10
10.8537643595
 20
9.7379017471
 30
0.0
 10
10.8554425298
 20
9.7371506048
 30
0.0
 10
10.8589136671
 20
9.7357039971
 30
0.0
 10
10.8633368319
 20
9.7340748769
 30
0.0
 10
10.8669441929
 20
9.7328703007
 30
0.0
 10
10.8695931874
 20
9.7320471812
 30
0.0
 10
10.8721507369
 20
9.7313139447
 30
0.0
 10
10.8745778194
 20
9.7306807458
 30
0.0
 10
10.8768379828
 20
9.7301560321
 30
0.0
 10
10.8788978656
 20
9.7297463735
 30
0.0
 10
10.8807273163
 20
9.729456855
 30
0.0
 10
10.8820978038
 20
9.7293109867
 30
0.0
 10
10.8830582125
 20
9.7292644954
 30
0.0
 10
10.8836699715
 20
9.7292632312
 30
0.0
 10
10.8842069404
 20
9.7292936392
 30
0.0
 10
10.8846675107
 20
9.729355526
 30
0.0
 10
10.8850507519
 20
9.7294488001
 30
0.0
 10
10.8853565859
 20
9.7295740601
 30
0.0
 10
10.8855854047
 20
9.729733572
 30
0.0
 10
10.8856868183
 20
9.7298723818
 30
0.0
 10
10.8857185279
 20
9.7299432185
 30
0.0
  0
SPLINE
  5
487
100
AcDbEntity
  8
0
100
AcDbSpline
 62
7
  6
CONTINUOUS
 70
0
 71
3
 72
31
 73
27
 74
0
 42
0.0000001
 43
0.0000001
 44
0.0000000001
 40
0.0
 40
0.0
 40
0.0
 40
0.0
 40
0.0640394322
 40
0.135611225
 40
0.2131245537
 40
0.2948455844
 40
0.3789675538
 40
0.463661791
 40
0.5471231618
 40
0.6276089493
 40
0.7034663163
 40
0.7731585628
 40
0.835286356
 40
0.8631220081
 40
0.8886192235
 40
0.9116553908
 40
0.9321248886
 40
0.9499433501
 40
0.9650526473
 40
0.9774387176
 40
0.9826274054
 40
0.9871690087
 40
0.9910980099
 40
0.9944722899
 40
0.9973888811
 40
1.0
 40
1.0
 40
1.0
 40
1.0
 10
10.9875546642
 20
9.6780177389
 30
0.0
 10
10.9883411562
 20
9.6776657083
 30
0.0
 10
10.9900218462
 20
9.6769540845
 30
0.0
 10
10.9926943968
 20
9.6759135141
 30
0.0
 10
10.9956150446
 20
9.6748569564
 30
0.0
 10
10.9987171175
 20
9.6738077998
 30
0.0
 10
11.0019306695
 20
9.6727886376
 30
0.0
 10
11.0051844695
 20
9.6718207824
 30
0.0
 10
11.0084077964
 20
9.6709239301
 30
0.0
 10
11.0115318776
 20
9.6701159453
 30
0.0
 10
11.0144910897
 20
9.6694126132
 30
0.0
 10
11.0172238391
 20
9.6688276911
 30
0.0
 10
11.019336246
 20
9.6684347375
 30
0.0
 10
11.0208709452
 20
9.6681926757
 30
0.0
 10
11.0218892279
 20
9.668054071
 30
0.0
 10
11.022812226
 20
9.6679522829
 30
0.0
 10
11.023635014
 20
9.6678878669
 30
0.0
 10
11.0243532959
 20
9.6678609996
 30
0.0
 10
11.0249632271
 20
9.6678718776
 30
0.0
 10
11.0254018906
 20
9.6679137674
 30
0.0
 10
11.0256942202
 20
9.6679707465
 30
0.0
 10
11.0258714151
 20
9.6680205191
 30
0.0
 10
11.0260197611
 20
9.6680798561
 30
0.0
 10
11.0261392917
 20
9.6681491641
 30
0.0
 10
11.0262298561
 20
9.6682290457
 30
0.0
 10
11.0262714308
 20
9.6682922178
 30
0.0
 10
11.0262857888
 20
9.6683242839
 30
0.0
  0
SPLINE
  5
488
100
AcDbEntity
  8
0
100
AcDbSpline
 62
7
  6
CONTINUOUS
 70
0
 71
3
 72
22
 73
18
 74
0
 42
0.0000001
 43
0.0000001
 44
0.0000000001
 40
0.0
 40
0.0
 40
0.0
 40
0.0
 40
0.016938143
 40
0.0363306601
 40
0.0820627636
 40
0.1362684325
 40
0.1978179999
 40
0.2654339766
 40
0.3377325244
 40
0.4905294755
 40
0.6443304638
 40
0.7179384338
 40
0.787477542
 40
0.8516268331
 40
0.9091542961
 40
0.95893983
 40
1.0
 40
1.0
 40
1.0
 40
1.0
 10
11.0792963086
 20
9.6369545439
 30
0.0
 10
11.0795133952
 20
9.6368573768
 30
0.0
 10
11.0799825863
 20
9.6366569044
 30
0.0
 10
11.0810526927
 20
9.6362293198
 30
0.0
 10
11.0826260909
 20
9.6356521876
 30
0.0
 10
11.0847730538
 20
9.6349221786
 30
0.0
 10
11.0872254612
 20
9.6341372385
 30
0.0
 10
11.089931724
 20
9.6333130806
 30
0.0
 10
11.0938776003
 20
9.6321623515
 30
0.0
 10
11.0990080073
 20
9.6307521496
 30
0.0
 10
11.1041797747
 20
9.62942624
 30
0.0
 10
11.1082327885
 20
9.6284466548
 30
0.0
 10
11.111068909
 20
9.6277913054
 30
0.0
 10
11.1136918253
 20
9.6272169682
 30
0.0
 10
11.1160507992
 20
9.6267348445
 30
0.0
 10
11.1180993461
 20
9.6263547312
 30
0.0
 10
11.1193592689
 20
9.6261533491
 30
0.0
 10
11.1199304888
 20
9.6260750979
 30
0.0
  0
SPLINE
  5
489
100
AcDbEntity
  8
0
100
AcDbSpline
 62
7
  6
CONTINUOUS
 70
0
 71
3
 72
16
 73
12
 74
0
 42
0.0000001
 43
0.0000001
 44
0.0000000001
 40
0.0
 40
0.0
 40
0.0
 40
0.0
 40
0.2161753868
 40
0.4066668566
 40
0.5708633423
 40
0.7083529813
 40
0.8189375367
 40
0.9028876384
 40
0.9352604895
 40
0.9616796268
 40
1.0
 40
1.0
 40
1.0
 40
1.0
 10
11.1199304888
 20
9.6260750979
 30
0.0
 10
11.1201297231
 20
9.6260478049
 30
0.0
 10
11.1205049557
 20
9.6259995365
 30
0.0
 10
11.121033072
 20
9.6259433521
 30
0.0
 10
11.1214896354
 20
9.6259081404
 30
0.0
 10
11.1218730343
 20
9.625893714
 30
0.0
 10
11.1221820388
 20
9.6259003881
 30
0.0
 10
11.1223923393
 20
9.6259236098
 30
0.0
 10
11.1225215406
 20
9.6259571397
 30
0.0
 10
11.1226046425
 20
9.6259904713
 30
0.0
 10
11.1226563764
 20
9.6260310138
 30
0.0
 10
11.1226709468
 20
9.6260635472
 30
0.0
  0
SPLINE
  5
48A
100
AcDbEntity
  8
0
100
AcDbSpline
 62
9
  6
CONTINUOUS
 70
0
 71
3
 72
31
 73
27
 74
0
 42
0.0000001
 43
0.0000001
 44
0.0000000001
 40
0.0
 40
0.0
 40
0.0
 40
0.0
 40
0.1253795038
 40
0.2505384456
 40
0.3130349131
 40
0.3754746811
 40
0.4378590761
 40
0.5001896389
 40
0.5624727574
 40
0.6247172594
 40
0.65583235
 40
0.6869459507
 40
0.7180619609
 40
0.7491851905
 40
0.7803231932
 40
0.8114879198
 40
0.8426903753
 40
0.8739488478
 40
0.8896125826
 40
0.9053027325
 40
0.9210171412
 40
0.9367621972
 40
0.9525381494
 40
0.9683393086
 40
0.9841646188
 40
1.0
 40
1.0
 40
1.0
 40
1.0
 10
15.7591853886
 20
4.9722928467
 30
0.0
 10
15.755419317
 20
4.9717689442
 30
0.0
 10
15.7479062775
 20
4.9706294174
 30
0.0
 10
15.7385653707
 20
4.9689239263
 30
0.0
 10
15.7311461304
 20
4.9673466886
 30
0.0
 10
15.7256162743
 20
4.9660435386
 30
0.0
 10
15.7201257893
 20
4.9646024017
 30
0.0
 10
15.7146850351
 20
4.9629992282
 30
0.0
 10
15.709308033
 20
4.9612061963
 30
0.0
 10
15.704896473
 20
4.9595217554
 30
0.0
 10
15.7014273379
 20
4.9580323953
 30
0.0
 10
15.6988609466
 20
4.9568365157
 30
0.0
 10
15.6963377565
 20
4.9555511215
 30
0.0
 10
15.693868205
 20
4.9541633643
 30
0.0
 10
15.6914678274
 20
4.952655734
 30
0.0
 10
15.6891542399
 20
4.9510128159
 30
0.0
 10
15.6869585648
 20
4.9492082345
 30
0.0
 10
15.6852656193
 20
4.9475444083
 30
0.0
 10
15.6840258998
 20
4.9461048429
 30
0.0
 10
15.6831631009
 20
4.944966316
 30
0.0
 10
15.6823846356
 20
4.9437651159
 30
0.0
 10
15.6817091502
 20
4.942499782
 30
0.0
 10
15.6811510065
 20
4.9411752439
 30
0.0
 10
15.6807305443
 20
4.9397975558
 30
0.0
 10
15.6804686403
 20
4.9383789965
 30
0.0
 10
15.6804097183
 20
4.9374177411
 30
0.0
 10
15.6804102693
 20
4.9369375077
 30
0.0
  0
SPLINE
  5
48B
100
AcDbEntity
  8
0
100
AcDbSpline
 62
7
  6
CONTINUOUS
 70
0
 71
3
 72
49
 73
45
 74
0
 42
0.0000001
 43
0.0000001
 44
0.0000000001
 40
0.0
 40
0.0
 40
0.0
 40
0.0
 40
0.0017704868
 40
0.0047175557
 40
0.0088366306
 40
0.0141178763
 40
0.0205471162
 40
0.0281088686
 40
0.0465458463
 40
0.0692373447
 40
0.0959495448
 40
0.1264108411
 40
0.1603170467
 40
0.197335506
 40
0.2371093931
 40
0.3234014423
 40
0.4160074371
 40
0.5115868397
 40
0.6067293848
 40
0.6530719816
 40
0.6980357627
 40
0.7412113819
 40
0.782200874
 40
0.8206207586
 40
0.8561070805
 40
0.8883181106
 40
0.9169381733
 40
0.9298110013
 40
0.941682359
 40
0.952521722
 40
0.9623011849
 40
0.9709963996
 40
0.9785838554
 40
0.9850446039
 40
0.9903619746
 40
0.9925871118
 40
0.9945215138
 40
0.9961641282
 40
0.9975139803
 40
0.9985702624
 40
0.9993328636
 40
0.9998038359
 40
0.9999329803
 40
1.0
 40
1.0
 40
1.0
 40
1.0
 10
11.1168024107
 20
9.6201669617
 30
0.0
 10
11.1168275587
 20
9.6201557056
 30
0.0
 10
11.116897041
 20
9.6201315753
 30
0.0
 10
11.1170279922
 20
9.6200898253
 30
0.0
 10
11.1172123095
 20
9.6200353688
 30
0.0
 10
11.1174492029
 20
9.6199678582
 30
0.0
 10
11.1177382319
 20
9.6198877678
 30
0.0
 10
11.1182251993
 20
9.6197553882
 30
0.0
 10
11.1189574974
 20
9.6195607641
 30
0.0
 10
11.119978923
 20
9.6192938216
 30
0.0
 10
11.1211822739
 20
9.6189829646
 30
0.0
 10
11.1225552834
 20
9.6186311174
 30
0.0
 10
11.1240841984
 20
9.6182415722
 30
0.0
 10
11.1257539687
 20
9.6178178998
 30
0.0
 10
11.1282143691
 20
9.61719549
 30
0.0
 10
11.1315140311
 20
9.6163634285
 30
0.0
 10
11.13565624
 20
9.6153208764
 30
0.0
 10
11.139932229
 20
9.6142455622
 30
0.0
 10
11.1435101274
 20
9.6133462975
 30
0.0
 10
11.1463242372
 20
9.6126395446
 30
0.0
 10
11.1483540949
 20
9.6121301551
 30
0.0
 10
11.1503032865
 20
9.6116415724
 30
0.0
 10
11.15215388
 20
9.6111784744
 30
0.0
 10
11.1538886321
 20
9.6107453826
 30
0.0
 10
11.1554911492
 20
9.6103466102
 30
0.0
 10
11.1569460602
 20
9.609986213
 30
0.0
 10
11.1580597911
 20
9.6097120699
 30
0.0
 10
11.1588664981
 20
9.6095149123
 30
0.0
 10
11.1594045854
 20
9.6093841486
 30
0.0
 10
11.1598960853
 20
9.6092655356
 30
0.0
 10
11.1603397494
 20
9.6091593989
 30
0.0
 10
11.1607344327
 20
9.6090660285
 30
0.0
 10
11.1610791235
 20
9.6089856794
 30
0.0
 10
11.1613729241
 20
9.6089185732
 30
0.0
 10
11.1615856694
 20
9.6088713698
 30
0.0
 10
11.1617298949
 20
9.6088405503
 30
0.0
 10
11.161818312
 20
9.6088222623
 30
0.0
 10
11.161893543
 20
9.6088073892
 30
0.0
 10
11.1619554623
 20
9.6087959408
 30
0.0
 10
11.1620042182
 20
9.6087878734
 30
0.0
 10
11.1620393148
 20
9.6087831909
 30
0.0
 10
11.1620609037
 20
9.6087816157
 30
0.0
 10
11.1620708876
 20
9.6087823694
 30
0.0
 10
11.1620741689
 20
9.6087836358
 30
0.0
 10
11.1620745976
 20
9.6087845865
 30
0.0
  0
SPLINE
  5
48C
100
AcDbEntity
  8
0
100
AcDbSpline
 62
9
  6
CONTINUOUS
 70
0
 71
3
 72
37
 73
33
 74
0
 42
0.0000001
 43
0.0000001
 44
0.0000000001
 40
0.0
 40
0.0
 40
0.0
 40
0.0
 40
0.0020543621
 40
0.0045051094
 40
0.0073723643
 40
0.0106718971
 40
0.0144169464
 40
0.0186191961
 40
0.0232893303
 40
0.0284373633
 40
0.0340720773
 40
0.0401988692
 40
0.0539458732
 40
0.069711944
 40
0.087528665
 40
0.1074190481
 40
0.1293751938
 40
0.1533811207
 40
0.1794204789
 40
0.207468906
 40
0.2374708299
 40
0.2693627362
 40
0.3030809571
 40
0.3385545206
 40
0.3756836011
 40
0.4544794649
 40
0.5385709884
 40
0.6269025773
 40
0.7183649007
 40
0.811794022
 40
0.9060318852
 40
1.0
 40
1.0
 40
1.0
 40
1.0
 10
10.3484137108
 20
10.8741175941
 30
0.0
 10
10.3489088843
 20
10.8741643568
 30
0.0
 10
10.3500013459
 20
10.8741972959
 30
0.0
 10
10.3517850042
 20
10.8741049553
 30
0.0
 10
10.3538592955
 20
10.8738713045
 30
0.0
 10
10.3562296437
 20
10.873492961
 30
0.0
 10
10.3589017087
 20
10.872966547
 30
0.0
 10
10.3618807155
 20
10.8722888295
 30
0.0
 10
10.365171854
 20
10.8714566484
 30
0.0
 10
10.3687800482
 20
10.8704669377
 30
0.0
 10
10.3727093364
 20
10.8693170115
 30
0.0
 10
10.3786106739
 20
10.867495749
 30
0.0
 10
10.3868049718
 20
10.8647898392
 30
0.0
 10
10.3976140796
 20
10.8609843444
 30
0.0
 10
10.4097558026
 20
10.8564902919
 30
0.0
 10
10.4232348735
 20
10.8512960062
 30
0.0
 10
10.4380472627
 20
10.8453974096
 30
0.0
 10
10.4541802658
 20
10.8387934642
 30
0.0
 10
10.4716177683
 20
10.8314846617
 30
0.0
 10
10.4903351013
 20
10.8234754728
 30
0.0
 10
10.51029896
 20
10.8147788351
 30
0.0
 10
10.531467327
 20
10.8054111129
 30
0.0
 10
10.5537948852
 20
10.7953901745
 30
0.0
 10
10.577228494
 20
10.7847377495
 30
0.0
 10
10.6105335936
 20
10.7694293933
 30
0.0
 10
10.6544199111
 20
10.7489584458
 30
0.0
 10
10.7093900255
 20
10.7229270542
 30
0.0
 10
10.7670132078
 20
10.6953344811
 30
0.0
 10
10.8265848236
 20
10.6665774018
 30
0.0
 10
10.8873996184
 20
10.6371066343
 30
0.0
 10
10.9487591993
 20
10.6073689193
 30
0.0
 10
10.9897782589
 20
10.5875268659
 30
0.0
 10
11.0102661916
 20
10.5776362115
 30
0.0
  0
SPLINE
  5
48D
100
AcDbEntity
  8
0
100
AcDbSpline
 62
9
  6
CONTINUOUS
 70
0
 71
3
 72
31
 73
27
 74
0
 42
0.0000001
 43
0.0000001
 44
0.0000000001
 40
0.0
 40
0.0
 40
0.0
 40
0.0
 40
0.0010791466
 40
0.0043430806
 40
0.0098360575
 40
0.0176026671
 40
0.0276816817
 40
0.0400876883
 40
0.0548294827
 40
0.0719161791
 40
0.0913492824
 40
0.1130989311
 40
0.1371275737
 40
0.1633978627
 40
0.1918647626
 40
0.2224518822
 40
0.2896500796
 40
0.3260859977
 40
0.3642612619
 40
0.4453144792
 40
0.531740426
 40
0.6223114146
 40
0.7157467024
 40
0.8107106121
 40
0.905875163
 40
1.0
 40
1.0
 40
1.0
 40
1.0
 10
10.4237734523
 20
10.8755467931
 30
0.0
 10
10.4240000949
 20
10.8754790903
 30
0.0
 10
10.4249103551
 20
10.8752003814
 30
0.0
 10
10.4269686687
 20
10.8745588339
 30
0.0
 10
10.430418481
 20
10.873455889
 30
0.0
 10
10.4352805641
 20
10.8718653375
 30
0.0
 10
10.4415685201
 20
10.8697604048
 30
0.0
 10
10.4492885158
 20
10.8671176039
 30
0.0
 10
10.4584401784
 20
10.8639150025
 30
0.0
 10
10.4690202675
 20
10.8601318153
 30
0.0
 10
10.4810174646
 20
10.855750454
 30
0.0
 10
10.4944121704
 20
10.8507609821
 30
0.0
 10
10.5091765465
 20
10.8451560721
 30
0.0
 10
10.525279535
 20
10.8389296849
 30
0.0
 10
10.5426821288
 20
10.8320792078
 30
0.0
 10
10.5683730439
 20
10.821793589
 30
0.0
 10
10.5955903035
 20
10.8106221689
 30
0.0
 10
10.6242507667
 20
10.7985908267
 30
0.0
 10
10.6556422904
 20
10.7852204746
 30
0.0
 10
10.6969796664
 20
10.7672407051
 30
0.0
 10
10.7486312872
 20
10.7441870214
 30
0.0
 10
10.8025417691
 20
10.7195411779
 30
0.0
 10
10.8579259144
 20
10.693623639
 30
0.0
 10
10.9139984666
 20
10.6668069458
 30
0.0
 10
10.9699819239
 20
10.6394586294
 30
0.0
 10
11.0070927292
 20
10.6209029992
 30
0.0
 10
11.0254962608
 20
10.6115778137
 30
0.0
  0
SPLINE
  5
48E
100
AcDbEntity
  8
0
100
AcDbSpline
 62
9
  6
CONTINUOUS
 70
0
 71
3
 72
27
 73
23
 74
0
 42
0.0000001
 43
0.0000001
 44
0.0000000001
 40
0.0
 40
0.0
 40
0.0
 40
0.0
 40
0.1249427105
 40
0.2491201042
 40
0.3109687317
 40
0.3726863043
 40
0.4343147886
 40
0.4959117849
 40
0.5267254295
 40
0.5575629952
 40
0.6193479958
 40
0.6814072185
 40
0.7125954392
 40
0.7439107345
 40
0.8069596356
 40
0.8387561781
 40
0.8707291342
 40
0.8867815237
 40
0.9028746106
 40
0.9351605922
 40
0.9675520826
 40
1.0
 40
1.0
 40
1.0
 40
1.0
 10
15.7457812031
 20
5.0076481858
 30
0.0
 10
15.7409387952
 20
5.0064242794
 30
0.0
 10
15.7313425446
 20
5.0037415107
 30
0.0
 10
15.7195886427
 20
4.9996606084
 30
0.0
 10
15.710435088
 20
4.9958727478
 30
0.0
 10
15.7037228977
 20
4.9927428614
 30
0.0
 10
15.6971831578
 20
4.9892872144
 30
0.0
 10
15.6919094458
 20
4.9860997053
 30
0.0
 10
15.6878228742
 20
4.9833458999
 30
0.0
 10
15.6838289444
 20
4.9804466153
 30
0.0
 10
15.6790350167
 20
4.9765296659
 30
0.0
 10
15.6745970988
 20
4.9721886588
 30
0.0
 10
15.6713168857
 20
4.9684390193
 30
0.0
 10
15.6682288668
 20
4.9644801096
 30
0.0
 10
15.6654928801
 20
4.9602222965
 30
0.0
 10
15.6632221718
 20
4.955685454
 30
0.0
 10
15.6620095725
 20
4.9527300171
 30
0.0
 10
15.6611801039
 20
4.9503040729
 30
0.0
 10
15.6604510126
 20
4.9478330137
 30
0.0
 10
15.6597382224
 20
4.944679294
 30
0.0
 10
15.6592104672
 20
4.9408281874
 30
0.0
 10
15.6590873791
 20
4.9382346378
 30
0.0
 10
15.6590889864
 20
4.9369375077
 30
0.0
  0
SPLINE
  5
48F
100
AcDbEntity
  8
0
100
AcDbSpline
 62
7
  6
CONTINUOUS
 70
0
 71
3
 72
13
 73
9
 74
0
 42
0.0000001
 43
0.0000001
 44
0.0000000001
 40
0.0
 40
0.0
 40
0.0
 40
0.0
 40
0.2498106825
 40
0.3747362011
 40
0.4996857844
 40
0.6246689445
 40
0.7497006555
 40
1.0
 40
1.0
 40
1.0
 40
1.0
 10
12.9509397442
 20
8.8540958999
 30
0.0
 10
12.9434403326
 20
8.8630333507
 30
0.0
 10
12.9322920471
 20
8.8765259229
 30
0.0
 10
12.9176429687
 20
8.8946926609
 30
0.0
 10
12.9067652049
 20
8.9084105974
 30
0.0
 10
12.8959975304
 20
8.9222214957
 30
0.0
 10
12.8818046571
 20
8.9407837523
 30
0.0
 10
12.8713886322
 20
8.9548857561
 30
0.0
 10
12.8645769088
 20
8.9643858971
 30
0.0
  0
SPLINE
  5
490
100
AcDbEntity
  8
0
100
AcDbSpline
 62
7
  6
CONTINUOUS
 70
0
 71
3
 72
13
 73
9
 74
0
 42
0.0000001
 43
0.0000001
 44
0.0000000001
 40
0.0
 40
0.0
 40
0.0
 40
0.0
 40
0.2498106825
 40
0.3747362011
 40
0.4996857844
 40
0.6246689445
 40
0.7497006555
 40
1.0
 40
1.0
 40
1.0
 40
1.0
 10
13.0403759584
 20
8.9291417942
 30
0.0
 10
13.0328765468
 20
8.938079245
 30
0.0
 10
13.0215248365
 20
8.9514011235
 30
0.0
 10
13.0061778779
 20
8.9689822705
 30
0.0
 10
12.9945572515
 20
8.9820768713
 30
0.0
 10
12.9828259588
 20
8.995079198
 30
0.0
 10
12.9670102712
 20
9.0122797517
 30
0.0
 10
12.9549312323
 20
9.0249863209
 30
0.0
 10
12.9467582631
 20
9.0333442411
 30
0.0
  0
SPLINE
  5
491
100
AcDbEntity
  8
0
100
AcDbSpline
 62
9
  6
CONTINUOUS
 70
0
 71
3
 72
14
 73
10
 74
0
 42
0.0000001
 43
0.0000001
 44
0.0000000001
 40
0.0
 40
0.0
 40
0.0
 40
0.0
 40
0.1061311285
 40
0.2199265379
 40
0.3403497519
 40
0.4662690026
 40
0.5964774142
 40
0.7297114566
 40
1.0
 40
1.0
 40
1.0
 40
1.0
 10
15.7591853886
 20
4.9722928867
 30
0.0
 10
15.7585333266
 20
4.9734645228
 30
0.0
 10
15.7572406728
 20
4.9759252579
 30
0.0
 10
15.7553936489
 20
4.9798093566
 30
0.0
 10
15.7535850071
 20
4.9839853809
 30
0.0
 10
15.7518339589
 20
4.9884095306
 30
0.0
 10
15.7501589334
 20
4.9930355474
 30
0.0
 10
15.7480408436
 20
4.9994380302
 30
0.0
 10
15.7466351086
 20
5.0043418462
 30
0.0
 10
15.7457811715
 20
5.0076481858
 30
0.0
  0
SPLINE
  5
492
100
AcDbEntity
  8
0
100
AcDbSpline
 62
7
  6
CONTINUOUS
 70
0
 71
3
 72
16
 73
12
 74
0
 42
0.0000001
 43
0.0000001
 44
0.0000000001
 40
0.0
 40
0.0
 40
0.0
 40
0.0
 40
0.2483747812
 40
0.3727350551
 40
0.4349887709
 40
0.497303498
 40
0.5596891751
 40
0.6221590076
 40
0.747425684
 40
0.8732929316
 40
1.0
 40
1.0
 40
1.0
 40
1.0
 10
13.1270023694
 20
9.0018299838
 30
0.0
 10
13.1195012583
 20
9.0107694599
 30
0.0
 10
13.1079428518
 20
9.0239366602
 30
0.0
 10
13.0939296202
 20
9.0388155605
 30
0.0
 10
13.0857599028
 20
9.0471852422
 30
0.0
 10
13.0795488491
 20
9.0533967395
 30
0.0
 10
13.0732559259
 20
9.0595398721
 30
0.0
 10
13.0647438889
 20
9.0676426269
 30
0.0
 10
13.0538619247
 20
9.0775801527
 30
0.0
 10
13.0403760855
 20
9.089129809
 30
0.0
 10
13.0310883032
 20
9.0965219224
 30
0.0
 10
13.026357739
 20
9.100136132
 30
0.0
  0
SPLINE
  5
493
100
AcDbEntity
  8
0
100
AcDbSpline
 62
7
  6
CONTINUOUS
 70
0
 71
3
 72
18
 73
14
 74
0
 42
0.0000001
 43
0.0000001
 44
0.0000000001
 40
0.0
 40
0.0
 40
0.0
 40
0.0
 40
0.1229043156
 40
0.2459704574
 40
0.3693709214
 40
0.4312561801
 40
0.4932946087
 40
0.5555108728
 40
0.6179376753
 40
0.6806212893
 40
0.7436153336
 40
0.8707745156
 40
1.0
 40
1.0
 40
1.0
 40
1.0
 10
13.2053759213
 20
9.0675932023
 30
0.0
 10
13.2016257243
 20
9.072062513
 30
0.0
 10
13.1939605052
 20
9.0808743568
 30
0.0
 10
13.1819760249
 20
9.0936784148
 30
0.0
 10
13.1715804585
 20
9.1039885474
 30
0.0
 10
13.1630134051
 20
9.1120171264
 30
0.0
 10
13.1564516758
 20
9.1179357132
 30
0.0
 10
13.1497590806
 20
9.1237451699
 30
0.0
 10
13.1429294401
 20
9.129440943
 30
0.0
 10
13.1359495976
 20
9.1350112796
 30
0.0
 10
13.1263976238
 20
9.1422799794
 30
0.0
 10
13.113995326
 20
9.1510118228
 30
0.0
 10
13.1036686047
 20
9.1574671739
 30
0.0
 10
13.0983738087
 20
9.1605647895
 30
0.0
  0
SPLINE
  5
494
100
AcDbEntity
  8
0
100
AcDbSpline
 62
7
  6
CONTINUOUS
 70
0
 71
3
 72
22
 73
18
 74
0
 42
0.0000001
 43
0.0000001
 44
0.0000000001
 40
0.0
 40
0.0
 40
0.0
 40
0.0
 40
0.0484617426
 40
0.0968161935
 40
0.1455895873
 40
0.1953019775
 40
0.2464464058
 40
0.2994770912
 40
0.4126896063
 40
0.4736216861
 40
0.5377712184
 40
0.6053555324
 40
0.6765539942
 40
0.7515126984
 40
0.8303488241
 40
0.9131544732
 40
1.0
 40
1.0
 40
1.0
 40
1.0
 10
15.8925570345
 20
6.9877633412
 30
0.0
 10
15.8931434162
 20
6.9889063323
 30
0.0
 10
15.8944335721
 20
6.9911312827
 30
0.0
 10
15.8967151839
 20
6.9942524519
 30
0.0
 10
15.8993352347
 20
6.9971407892
 30
0.0
 10
15.9022928145
 20
6.9997937129
 30
0.0
 10
15.9055872785
 20
7.0022100635
 30
0.0
 10
15.9105339353
 20
7.0051790849
 30
0.0
 10
15.9160841328
 20
7.0075907833
 30
0.0
 10
15.9221093013
 20
7.0094956581
 30
0.0
 10
15.92707107
 20
7.0107212096
 30
0.0
 10
15.9323617747
 20
7.0117077156
 30
0.0
 10
15.937980486
 20
7.0124553116
 30
0.0
 10
15.9439248862
 20
7.0129637433
 30
0.0
 10
15.9501926535
 20
7.0132329186
 30
0.0
 10
15.9567809229
 20
7.0132627852
 30
0.0
 10
15.9612769569
 20
7.0131264424
 30
0.0
 10
15.9635766519
 20
7.0130210073
 30
0.0
  0
SPLINE
  5
495
100
AcDbEntity
  8
0
100
AcDbSpline
 62
7
  6
CONTINUOUS
 70
0
 71
3
 72
22
 73
18
 74
0
 42
0.0000001
 43
0.0000001
 44
0.0000000001
 40
0.0
 40
0.0
 40
0.0
 40
0.0
 40
0.086845527
 40
0.1696511762
 40
0.248487302
 40
0.3234460063
 40
0.3946444681
 40
0.4622287821
 40
0.5263783144
 40
0.5873103941
 40
0.700522909
 40
0.7535535943
 40
0.8046980226
 40
0.8544104128
 40
0.9031838066
 40
0.9515382574
 40
1.0
 40
1.0
 40
1.0
 40
1.0
 10
15.8215374172
 20
7.0130210073
 30
0.0
 10
15.8238371122
 20
7.0131264424
 30
0.0
 10
15.8283331462
 20
7.0132627852
 30
0.0
 10
15.8349214156
 20
7.0132329186
 30
0.0
 10
15.8411891829
 20
7.0129637433
 30
0.0
 10
15.8471335832
 20
7.0124553116
 30
0.0
 10
15.8527522945
 20
7.0117077156
 30
0.0
 10
15.8580429991
 20
7.0107212096
 30
0.0
 10
15.8630047679
 20
7.0094956581
 30
0.0
 10
15.8690299363
 20
7.0075907833
 30
0.0
 10
15.8745801338
 20
7.0051790849
 30
0.0
 10
15.8795267906
 20
7.0022100635
 30
0.0
 10
15.8828212546
 20
6.9997937129
 30
0.0
 10
15.8857788344
 20
6.9971407892
 30
0.0
 10
15.8883988852
 20
6.9942524519
 30
0.0
 10
15.890680497
 20
6.9911312827
 30
0.0
 10
15.8919706529
 20
6.9889063323
 30
0.0
 10
15.8925570345
 20
6.9877633412
 30
0.0
  0
LINE
  5
496
100
AcDbEntity
  8
0
100
AcDbLine
 62
7
  6
CONTINUOUS
 10
10.3701681129
 20
9.8933672661
 11
10.370665706
 21
9.8932487205
  0
SPLINE
  5
497
100
AcDbEntity
  8
0
100
AcDbSpline
 62
7
  6
CONTINUOUS
 70
0
 71
3
 72
19
 73
15
 74
0
 42
0.0000001
 43
0.0000001
 44
0.0000000001
 40
0.0
 40
0.0
 40
0.0
 40
0.0
 40
0.2144765757
 40
0.404607043
 40
0.5688033301
 40
0.7060150599
 40
0.7643185197
 40
0.8157485299
 40
0.8603909358
 40
0.8984609962
 40
0.9303709589
 40
0.9568789316
 40
0.9793541653
 40
1.0
 40
1.0
 40
1.0
 40
1.0
 10
10.4437520254
 20
9.8604313996
 30
0.0
 10
10.4441960276
 20
9.860232666
 30
0.0
 10
10.4450382947
 20
9.8598680101
 30
0.0
 10
10.4462382216
 20
9.859393376
 30
0.0
 10
10.4472912917
 20
9.8590264128
 30
0.0
 10
10.4480761452
 20
9.8588008279
 30
0.0
 10
10.4486236417
 20
9.8586817572
 30
0.0
 10
10.4489694848
 20
9.8586257545
 30
0.0
 10
10.4492727732
 20
9.8585979563
 30
0.0
 10
10.4495332427
 20
9.8585982655
 30
0.0
 10
10.4497510688
 20
9.858626663
 30
0.0
 10
10.4499269433
 20
9.8586839461
 30
0.0
 10
10.4500607764
 20
9.8587726738
 30
0.0
 10
10.4501187111
 20
9.8588549328
 30
0.0
 10
10.4501378369
 20
9.8588976751
 30
0.0
  0
SPLINE
  5
498
100
AcDbEntity
  8
0
100
AcDbSpline
 62
7
  6
CONTINUOUS
 70
0
 71
3
 72
23
 73
19
 74
0
 42
0.0000001
 43
0.0000001
 44
0.0000000001
 40
0.0
 40
0.0
 40
0.0
 40
0.0
 40
0.1990029976
 40
0.3840492709
 40
0.46978295
 40
0.5502348122
 40
0.6249076993
 40
0.6933653405
 40
0.7552386237
 40
0.8102344373
 40
0.8581555862
 40
0.8989308981
 40
0.9326752041
 40
0.9598287987
 40
0.971261
 40
0.9815346379
 40
0.9909743392
 40
1.0
 40
1.0
 40
1.0
 40
1.0
 10
10.5794908913
 20
9.7996752232
 30
0.0
 10
10.5805956616
 20
9.7991807324
 30
0.0
 10
10.5827429356
 20
9.7982599414
 30
0.0
 10
10.5854082363
 20
9.7972278989
 30
0.0
 10
10.5874245662
 20
9.796521619
 30
0.0
 10
10.5888184369
 20
9.7960702835
 30
0.0
 10
10.5901231845
 20
9.7956863115
 30
0.0
 10
10.5913300022
 20
9.7953718028
 30
0.0
 10
10.5924308993
 20
9.795128261
 30
0.0
 10
10.5934188478
 20
9.7949566258
 30
0.0
 10
10.5942877328
 20
9.7948572126
 30
0.0
 10
10.5950330827
 20
9.794829768
 30
0.0
 10
10.5956511713
 20
9.7948736348
 30
0.0
 10
10.5960831789
 20
9.7949747477
 30
0.0
 10
10.5963540308
 20
9.7950995313
 30
0.0
 10
10.5965116659
 20
9.7952064932
 30
0.0
 10
10.596634764
 20
9.7953324359
 30
0.0
 10
10.5966933048
 20
9.7954297463
 30
0.0
 10
10.5967157359
 20
9.7954798508
 30
0.0
  0
SPLINE
  5
499
100
AcDbEntity
  8
0
100
AcDbSpline
 62
7
  6
CONTINUOUS
 70
0
 71
3
 72
25
 73
21
 74
0
 42
0.0000001
 43
0.0000001
 44
0.0000000001
 40
0.0
 40
0.0
 40
0.0
 40
0.0
 40
0.171570545
 40
0.3463095053
 40
0.431821395
 40
0.5145254667
 40
0.5933216779
 40
0.6671876829
 40
0.735193394
 40
0.7965122035
 40
0.8504354372
 40
0.8963952817
 40
0.9162650118
 40
0.9340195428
 40
0.949658961
 40
0.9632141007
 40
0.9747707819
 40
0.9845005901
 40
0.9927259084
 40
1.0
 40
1.0
 40
1.0
 40
1.0
 10
10.7361331524
 20
9.7295627702
 30
0.0
 10
10.7377616355
 20
9.7288338677
 30
0.0
 10
10.7410842582
 20
9.7274412986
 30
0.0
 10
10.7452956299
 20
9.7258789221
 30
0.0
 10
10.7486770305
 20
9.7247444457
 30
0.0
 10
10.7511297645
 20
9.7239806432
 30
0.0
 10
10.7534831103
 20
9.7233071638
 30
0.0
 10
10.7557048837
 20
9.7227319978
 30
0.0
 10
10.757765192
 20
9.7222616484
 30
0.0
 10
10.7596368448
 20
9.7219010016
 30
0.0
 10
10.761295381
 20
9.7216537088
 30
0.0
 10
10.7625363944
 20
9.7215378738
 30
0.0
 10
10.7634054487
 20
9.7215109302
 30
0.0
 10
10.7639595242
 20
9.7215213712
 30
0.0
 10
10.7644465351
 20
9.7215611374
 30
0.0
 10
10.7648652731
 20
9.7216301864
 30
0.0
 10
10.7652150528
 20
9.721728392
 30
0.0
 10
10.7654957859
 20
9.721856545
 30
0.0
 10
10.7657072229
 20
9.7220166308
 30
0.0
 10
10.7658017236
 20
9.7221517853
 30
0.0
 10
10.7658326205
 20
9.7222208311
 30
0.0
  0
SPLINE
  5
49A
100
AcDbEntity
  8
0
100
AcDbSpline
 62
7
  6
CONTINUOUS
 70
0
 71
3
 72
31
 73
27
 74
0
 42
0.0000001
 43
0.0000001
 44
0.0000000001
 40
0.0
 40
0.0
 40
0.0
 40
0.0
 40
0.0595463301
 40
0.1277379408
 40
0.2029455777
 40
0.2833579898
 40
0.3670617336
 40
0.4521010597
 40
0.5365300393
 40
0.6184543607
 40
0.6960632183
 40
0.7676577394
 40
0.8316761112
 40
0.8604023382
 40
0.8867269084
 40
0.9105083841
 40
0.9316227011
 40
0.9499648377
 40
0.9654582629
 40
0.9780636348
 40
0.9832918329
 40
0.9878193686
 40
0.9916762876
 40
0.9949163019
 40
0.9976353068
 40
1.0
 40
1.0
 40
1.0
 40
1.0
 10
10.8660746291
 20
9.6714014822
 30
0.0
 10
10.866828874
 20
9.6710638852
 30
0.0
 10
10.8684641374
 20
9.6703781979
 30
0.0
 10
10.8710950247
 20
9.6693721792
 30
0.0
 10
10.8740234475
 20
9.668336329
 30
0.0
 10
10.8771773578
 20
9.667294876
 30
0.0
 10
10.8804802393
 20
9.6662713918
 30
0.0
 10
10.8838534363
 20
9.6652882736
 30
0.0
 10
10.8872183059
 20
9.6643664924
 30
0.0
 10
10.890497897
 20
9.6635253938
 30
0.0
 10
10.8936183278
 20
9.6627824766
 30
0.0
 10
10.89650986
 20
9.6621534002
 30
0.0
 10
10.8987493159
 20
9.6617204388
 30
0.0
 10
10.9003786967
 20
9.6614452828
 30
0.0
 10
10.9014606348
 20
9.6612828503
 30
0.0
 10
10.9024411358
 20
9.661157674
 30
0.0
 10
10.9033145091
 20
9.6610705369
 30
0.0
 10
10.904075767
 20
9.6610218841
 30
0.0
 10
10.9047204195
 20
9.6610120466
 30
0.0
 10
10.9051830036
 20
9.6610368314
 30
0.0
 10
10.9054904041
 20
9.661080808
 30
0.0
 10
10.9056750853
 20
9.661121651
 30
0.0
 10
10.9058286186
 20
9.6611723469
 30
0.0
 10
10.9059511875
 20
9.6612332552
 30
0.0
 10
10.9060429438
 20
9.6613051762
 30
0.0
 10
10.9060842438
 20
9.6613642613
 30
0.0
 10
10.9060976511
 20
9.6613942135
 30
0.0
  0
SPLINE
  5
49B
100
AcDbEntity
  8
0
100
AcDbSpline
 62
7
  6
CONTINUOUS
 70
0
 71
3
 72
22
 73
18
 74
0
 42
0.0000001
 43
0.0000001
 44
0.0000000001
 40
0.0
 40
0.0
 40
0.0
 40
0.0
 40
0.0484794295
 40
0.0968484755
 40
0.1456333132
 40
0.1953540525
 40
0.2465038938
 40
0.2995372943
 40
0.4127482364
 40
0.4736767167
 40
0.5378211373
 40
0.6053990882
 40
0.676590166
 40
0.751540665
 40
0.8303679349
 40
0.9131642218
 40
1.0
 40
1.0
 40
1.0
 40
1.0
 10
15.8925570345
 20
6.986745686
 30
0.0
 10
15.891970679
 20
6.9878893901
 30
0.0
 10
15.8906805933
 20
6.9901157235
 30
0.0
 10
15.8883990303
 20
6.9932389359
 30
0.0
 10
15.8857790237
 20
6.9961291743
 30
0.0
 10
15.8828214794
 20
6.9987838527
 30
0.0
 10
15.8795270401
 20
7.001201807
 30
0.0
 10
15.8745805172
 20
7.0041727368
 30
0.0
 10
15.8690302901
 20
7.0065860833
 30
0.0
 10
15.8630050205
 20
7.0084922518
 30
0.0
 10
15.858043232
 20
7.0097186198
 30
0.0
 10
15.8527525009
 20
7.0107057824
 30
0.0
 10
15.8471337567
 20
7.0114538764
 30
0.0
 10
15.8411893177
 20
7.0119626472
 30
0.0
 10
15.8349215065
 20
7.012232003
 30
0.0
 10
15.8283331893
 20
7.0122618916
 30
0.0
 10
15.8238371258
 20
7.0121254601
 30
0.0
 10
15.8215374172
 20
7.0120199562
 30
0.0
  0
SPLINE
  5
49C
100
AcDbEntity
  8
0
100
AcDbSpline
 62
7
  6
CONTINUOUS
 70
0
 71
3
 72
22
 73
18
 74
0
 42
0.0000001
 43
0.0000001
 44
0.0000000001
 40
0.0
 40
0.0
 40
0.0
 40
0.0
 40
0.0868357789
 40
0.1696320664
 40
0.2484593369
 40
0.3234098363
 40
0.3946009143
 40
0.4621788653
 40
0.5263232858
 40
0.5872517658
 40
0.7004627076
 40
0.7534961077
 40
0.8046459486
 40
0.8543666876
 40
0.9031515249
 40
0.9515205704
 40
1.0
 40
1.0
 40
1.0
 40
1.0
 10
15.9635766519
 20
7.0120199562
 30
0.0
 10
15.9612769433
 20
7.0121254601
 30
0.0
 10
15.9567808797
 20
7.0122618916
 30
0.0
 10
15.9501925625
 20
7.012232003
 30
0.0
 10
15.9439247513
 20
7.0119626472
 30
0.0
 10
15.9379803123
 20
7.0114538764
 30
0.0
 10
15.932361568
 20
7.0107057824
 30
0.0
 10
15.9270708369
 20
7.0097186197
 30
0.0
 10
15.9221090484
 20
7.0084922517
 30
0.0
 10
15.9160837788
 20
7.0065860832
 30
0.0
 10
15.9105335517
 20
7.0041727367
 30
0.0
 10
15.9055870289
 20
7.0012018069
 30
0.0
 10
15.9022925896
 20
6.9987838527
 30
0.0
 10
15.8993350454
 20
6.9961291742
 30
0.0
 10
15.8967150388
 20
6.9932389359
 30
0.0
 10
15.8944334758
 20
6.9901157235
 30
0.0
 10
15.8931433901
 20
6.9878893901
 30
0.0
 10
15.8925570345
 20
6.986745686
 30
0.0
  0
LINE
  5
49D
100
AcDbEntity
  8
0
100
AcDbLine
 62
7
  6
CONTINUOUS
 10
10.929825612
 20
9.6428667959
 11
10.931240451
 21
9.642380336
  0
SPLINE
  5
49E
100
AcDbEntity
  8
0
100
AcDbSpline
 62
7
  6
CONTINUOUS
 70
0
 71
3
 72
21
 73
17
 74
0
 42
0.0000001
 43
0.0000001
 44
0.0000000001
 40
0.0
 40
0.0
 40
0.0
 40
0.0
 40
0.0358778201
 40
0.0820863293
 40
0.1375123744
 40
0.2008487555
 40
0.2706391399
 40
0.3453207419
 40
0.5027738665
 40
0.6597654972
 40
0.7338926339
 40
0.8029493164
 40
0.8654148216
 40
0.919883469
 40
0.9651006006
 40
1.0
 40
1.0
 40
1.0
 40
1.0
 10
10.931240451
 20
9.642380336
 30
0.0
 10
10.9317363762
 20
9.6422276655
 30
0.0
 10
10.9328759122
 20
9.6418943367
 30
0.0
 10
10.9347915833
 20
9.6413599065
 30
0.0
 10
10.9370949439
 20
9.6407375304
 30
0.0
 10
10.9397313614
 20
9.6400404947
 30
0.0
 10
10.9426399782
 20
9.639283566
 30
0.0
 10
10.9468690765
 20
9.6381960753
 30
0.0
 10
10.952324336
 20
9.6368129589
 30
0.0
 10
10.9577764315
 20
9.6354501298
 30
0.0
 10
10.9619914786
 20
9.6344104559
 30
0.0
 10
10.9648810305
 20
9.6337056496
 30
0.0
 10
10.9674965218
 20
9.6330771314
 30
0.0
 10
10.969779351
 20
9.6325399619
 30
0.0
 10
10.97167722
 20
9.6321076588
 30
0.0
 10
10.9728098277
 20
9.6318627729
 30
0.0
 10
10.9733044918
 20
9.6317624118
 30
0.0
  0
LINE
  5
49F
100
AcDbEntity
  8
0
100
AcDbLine
 62
7
  6
CONTINUOUS
 10
10.9733044918
 20
9.6317624118
 11
10.9749059762
 21
9.6315350009
  0
SPLINE
  5
4A0
100
AcDbEntity
  8
0
100
AcDbSpline
 62
7
  6
CONTINUOUS
 70
0
 71
3
 72
18
 73
14
 74
0
 42
0.0000001
 43
0.0000001
 44
0.0000000001
 40
0.0
 40
0.0
 40
0.0
 40
0.0
 40
0.1229043156
 40
0.2459704574
 40
0.3693709214
 40
0.4312561801
 40
0.4932946087
 40
0.5555108728
 40
0.6179376753
 40
0.6806212893
 40
0.7436153336
 40
0.8707745156
 40
1.0
 40
1.0
 40
1.0
 40
1.0
 10
12.7859397813
 20
8.7156444919
 30
0.0
 10
12.7821895844
 20
8.7201138026
 30
0.0
 10
12.7748426636
 20
8.7291927304
 30
0.0
 10
12.7643142112
 20
8.7432185409
 30
0.0
 10
12.7559658838
 20
8.7552465111
 30
0.0
 10
12.7495469301
 20
8.7650775598
 30
0.0
 10
12.7448576923
 20
8.7725673535
 30
0.0
 10
12.7402986513
 20
8.7801670747
 30
0.0
 10
12.7358753644
 20
8.7878820182
 30
0.0
 10
12.7316016906
 20
8.7957231
 30
0.0
 10
12.7261021016
 20
8.8063921543
 30
0.0
 10
12.719656551
 20
8.8201223021
 30
0.0
 10
12.7150924875
 20
8.8314130972
 30
0.0
 10
12.7129613633
 20
8.8371653487
 30
0.0
  0
SPLINE
  5
4A1
100
AcDbEntity
  8
0
100
AcDbSpline
 62
7
  6
CONTINUOUS
 70
0
 71
3
 72
16
 73
12
 74
0
 42
0.0000001
 43
0.0000001
 44
0.0000000001
 40
0.0
 40
0.0
 40
0.0
 40
0.0
 40
0.2483747812
 40
0.3727350551
 40
0.4349887709
 40
0.497303498
 40
0.5596891751
 40
0.6221590076
 40
0.747425684
 40
0.8732929316
 40
1.0
 40
1.0
 40
1.0
 40
1.0
 10
12.8643133332
 20
8.7814077104
 30
0.0
 10
12.8568122221
 20
8.7903471865
 30
0.0
 10
12.8458521574
 20
8.8040164552
 30
0.0
 10
12.8336326732
 20
8.8204004882
 30
0.0
 10
12.8268088022
 20
8.8298994692
 30
0.0
 10
12.8217702097
 20
8.8370947783
 30
0.0
 10
12.8168131597
 20
8.8443588416
 30
0.0
 10
12.8103116037
 20
8.8541485902
 30
0.0
 10
12.8024146845
 20
8.8665908662
 30
0.0
 10
12.7933822848
 20
8.8818774019
 30
0.0
 10
12.7877152807
 20
8.892307709
 30
0.0
 10
12.784977433
 20
8.8975940063
 30
0.0
  0
SPLINE
  5
4A2
100
AcDbEntity
  8
0
100
AcDbSpline
 62
7
  6
CONTINUOUS
 70
0
 71
3
 72
13
 73
9
 74
0
 42
0.0000001
 43
0.0000001
 44
0.0000000001
 40
0.0
 40
0.0
 40
0.0
 40
0.0
 40
0.25041813
 40
0.3754582179
 40
0.5004311023
 40
0.6253594276
 40
0.7502566419
 40
1.0
 40
1.0
 40
1.0
 40
1.0
 10
15.1774841806
 20
6.2101189873
 30
0.0
 10
15.168204354
 20
6.2193449989
 30
0.0
 10
15.1545334559
 20
6.2334234032
 30
0.0
 10
15.1367008716
 20
6.2525503817
 30
0.0
 10
15.1235042856
 20
6.2670327393
 30
0.0
 10
15.1104518238
 20
6.2816349141
 30
0.0
 10
15.0932374412
 20
6.3012602895
 30
0.0
 10
15.0805274907
 20
6.3161520523
 30
0.0
 10
15.0721388562
 20
6.3261492376
 30
0.0
  0
SPLINE
  5
4A3
100
AcDbEntity
  8
0
100
AcDbSpline
 62
7
  6
CONTINUOUS
 70
0
 71
3
 72
13
 73
9
 74
0
 42
0.0000001
 43
0.0000001
 44
0.0000000001
 40
0.0
 40
0.0
 40
0.0
 40
0.0
 40
0.25041813
 40
0.3754582179
 40
0.5004311023
 40
0.6253594276
 40
0.7502566419
 40
1.0
 40
1.0
 40
1.0
 40
1.0
 10
15.2575495369
 20
6.2773017982
 30
0.0
 10
15.2500751141
 20
6.2880427235
 30
0.0
 10
15.2385845189
 20
6.3039506192
 30
0.0
 10
15.222844718
 20
6.3248336514
 30
0.0
 10
15.2108739431
 20
6.3403445866
 30
0.0
 10
15.1987601443
 20
6.3557343933
 30
0.0
 10
15.1824221686
 20
6.3760951614
 30
0.0
 10
15.1699637049
 20
6.3911979466
 30
0.0
 10
15.1615750704
 20
6.4011951319
 30
0.0
  0
SPLINE
  5
4A4
100
AcDbEntity
  8
0
100
AcDbSpline
 62
7
  6
CONTINUOUS
 70
0
 71
3
 72
16
 73
12
 74
0
 42
0.0000001
 43
0.0000001
 44
0.0000000001
 40
0.0
 40
0.0
 40
0.0
 40
0.0
 40
0.1273956515
 40
0.2535805454
 40
0.3789163592
 40
0.44135793
 40
0.5036854644
 40
0.5659196744
 40
0.6280746017
 40
0.7521952599
 40
1.0
 40
1.0
 40
1.0
 40
1.0
 10
15.3350994927
 20
6.3423739375
 30
0.0
 10
15.3322498169
 20
6.3484499289
 30
0.0
 10
15.3262834578
 20
6.3604082845
 30
0.0
 10
15.3165919306
 20
6.3778645321
 30
0.0
 10
15.3080076605
 20
6.3920060657
 30
0.0
 10
15.3008924449
 20
6.4030952901
 30
0.0
 10
15.2954482481
 20
6.4113058123
 30
0.0
 10
15.2898986284
 20
6.4194270845
 30
0.0
 10
15.2823630163
 20
6.4301324919
 30
0.0
 10
15.2688197046
 20
6.4485599461
 30
0.0
 10
15.2565924792
 20
6.4638833196
 30
0.0
 10
15.2482014814
 20
6.4738833215
 30
0.0
  0
SPLINE
  5
4A5
100
AcDbEntity
  8
0
100
AcDbSpline
 62
7
  6
CONTINUOUS
 70
0
 71
3
 72
18
 73
14
 74
0
 42
0.0000001
 43
0.0000001
 44
0.0000000001
 40
0.0
 40
0.0
 40
0.0
 40
0.0
 40
0.1308727176
 40
0.2588029531
 40
0.3219455357
 40
0.384657937
 40
0.4470187864
 40
0.5090960352
 40
0.5709406131
 40
0.6325871134
 40
0.7554064241
 40
0.8778036345
 40
1.0
 40
1.0
 40
1.0
 40
1.0
 10
15.4052612992
 20
6.4012466835
 30
0.0
 10
15.4032153116
 20
6.4079301669
 30
0.0
 10
15.3987065548
 20
6.4210096717
 30
0.0
 10
15.392040156
 20
6.4368715072
 30
0.0
 10
15.3862356451
 20
6.4491215257
 30
0.0
 10
15.3816808464
 20
6.4580840159
 30
0.0
 10
15.3769239939
 20
6.4668759743
 30
0.0
 10
15.3719849209
 20
6.4755133338
 30
0.0
 10
15.3668775774
 20
6.4840077739
 30
0.0
 10
15.3598534837
 20
6.495131466
 30
0.0
 10
15.3506563625
 20
6.5087031182
 30
0.0
 10
15.3389711221
 20
6.524473735
 30
0.0
 10
15.3307700263
 20
6.534647142
 30
0.0
 10
15.3265750333
 20
6.53964654
 30
0.0
  0
LINE
  5
4A6
100
AcDbEntity
  8
0
100
AcDbLine
 62
7
  6
CONTINUOUS
 10
10.9296386134
 20
9.6429969111
 11
10.929825612
 21
9.6428667959
  0
SPLINE
  5
4A7
100
AcDbEntity
  8
0
100
AcDbSpline
 62
7
  6
CONTINUOUS
 70
0
 71
3
 72
19
 73
15
 74
0
 42
0.0000001
 43
0.0000001
 44
0.0000000001
 40
0.0
 40
0.0
 40
0.0
 40
0.0
 40
0.0208663305
 40
0.0434374977
 40
0.0699173338
 40
0.1016901915
 40
0.1395470601
 40
0.1839275427
 40
0.235061666
 40
0.2930699356
 40
0.4297692415
 40
0.5937660461
 40
0.7842791984
 40
1.0
 40
1.0
 40
1.0
 40
1.0
 10
10.8615756574
 20
9.6745213132
 30
0.0
 10
10.8615595324
 20
9.6744852785
 30
0.0
 10
10.861540053
 20
9.6744030913
 30
0.0
 10
10.8615581369
 20
9.6742698226
 30
0.0
 10
10.8616192037
 20
9.6741282392
 30
0.0
 10
10.861721384
 20
9.6739769834
 30
0.0
 10
10.8618646433
 20
9.6738151536
 30
0.0
 10
10.8620490926
 20
9.6736425712
 30
0.0
 10
10.8622746847
 20
9.6734593266
 30
0.0
 10
10.8626512618
 20
9.6731860354
 30
0.0
 10
10.8632262903
 20
9.6728243748
 30
0.0
 10
10.8640395459
 20
9.6723740385
 30
0.0
 10
10.8650043247
 20
9.6718906681
 30
0.0
 10
10.8657021097
 20
9.6715682204
 30
0.0
 10
10.8660746291
 20
9.6714014822
 30
0.0
  0
LINE
  5
4A8
100
AcDbEntity
  8
0
100
AcDbLine
 62
7
  6
CONTINUOUS
 10
15.9297863898
 20
7.0378806547
 11
15.9585570345
 21
7.0372097842
  0
SPLINE
  5
4A9
100
AcDbEntity
  8
0
100
AcDbSpline
 62
7
  6
CONTINUOUS
 70
0
 71
3
 72
22
 73
18
 74
0
 42
0.0000001
 43
0.0000001
 44
0.0000000001
 40
0.0
 40
0.0
 40
0.0
 40
0.0
 40
0.0092126881
 40
0.0187928343
 40
0.0291468142
 40
0.0405964595
 40
0.067615945
 40
0.1010411871
 40
0.1413638528
 40
0.188748077
 40
0.2431651845
 40
0.3044653116
 40
0.3724065132
 40
0.4466692446
 40
0.6125710981
 40
0.7984813509
 40
1.0
 40
1.0
 40
1.0
 40
1.0
 10
10.7228247562
 20
9.7387307666
 30
0.0
 10
10.7228038642
 20
9.7386841001
 30
0.0
 10
10.7227721984
 20
9.7385835876
 30
0.0
 10
10.7227592671
 20
9.7384211776
 30
0.0
 10
10.7227798693
 20
9.7382472567
 30
0.0
 10
10.7228555595
 20
9.7379860807
 30
0.0
 10
10.7230435982
 20
9.7376301814
 30
0.0
 10
10.7233824511
 20
9.7371837537
 30
0.0
 10
10.7238463614
 20
9.7366957049
 30
0.0
 10
10.7244338892
 20
9.7361685805
 30
0.0
 10
10.7251428834
 20
9.7356051221
 30
0.0
 10
10.7259699501
 20
9.7350088801
 30
0.0
 10
10.7269107725
 20
9.7343835952
 30
0.0
 10
10.7283645423
 20
9.733482871
 30
0.0
 10
10.7304259269
 20
9.7323221295
 30
0.0
 10
10.7331628264
 20
9.7309278744
 30
0.0
 10
10.7351123333
 20
9.7300196848
 30
0.0
 10
10.7361331524
 20
9.7295627702
 30
0.0
  0
SPLINE
  5
4AA
100
AcDbEntity
  8
0
100
AcDbSpline
 62
7
  6
CONTINUOUS
 70
0
 71
3
 72
25
 73
21
 74
0
 42
0.0000001
 43
0.0000001
 44
0.0000000001
 40
0.0
 40
0.0
 40
0.0
 40
0.0
 40
0.0052133241
 40
0.0111660615
 40
0.0183978815
 40
0.0272143079
 40
0.0377800719
 40
0.0501840512
 40
0.0644761188
 40
0.0806839205
 40
0.1188741952
 40
0.1647489208
 40
0.2182018745
 40
0.2790700369
 40
0.3471380449
 40
0.4221568297
 40
0.5038381388
 40
0.591862992
 40
0.7855095823
 40
1.0
 40
1.0
 40
1.0
 40
1.0
 10
15.8303276793
 20
7.0326240785
 30
0.0
 10
15.8303276793
 20
7.0325984578
 30
0.0
 10
15.8303398589
 20
7.0325431986
 30
0.0
 10
15.830390373
 20
7.0324666424
 30
0.0
 10
15.830470336
 20
7.0323928773
 30
0.0
 10
15.8305798108
 20
7.0323206242
 30
0.0
 10
15.8307190847
 20
7.0322493994
 30
0.0
 10
15.8308883302
 20
7.0321791141
 30
0.0
 10
15.831087558
 20
7.0321097996
 30
0.0
 10
15.831411191
 20
7.0320134756
 30
0.0
 10
15.8318908838
 20
7.0318991954
 30
0.0
 10
15.8325549853
 20
7.0317731267
 30
0.0
 10
15.8333331061
 20
7.0316525976
 30
0.0
 10
15.8342221938
 20
7.0315382007
 30
0.0
 10
15.8352187799
 20
7.0314305247
 30
0.0
 10
15.8363188618
 20
7.0313301012
 30
0.0
 10
15.8375180063
 20
7.0312373641
 30
0.0
 10
15.8392999183
 20
7.0311208263
 30
0.0
 10
15.8417354527
 20
7.0310001864
 30
0.0
 10
15.8437401813
 20
7.030933058
 30
0.0
 10
15.8447939088
 20
7.0309048287
 30
0.0
  0
LINE
  5
4AB
100
AcDbEntity
  8
0
100
AcDbLine
 62
7
  6
CONTINUOUS
 10
15.8315570345
 20
7.0374148422
 11
15.8603276793
 21
7.0379927527
  0
SPLINE
  5
4AC
100
AcDbEntity
  8
0
100
AcDbSpline
 62
7
  6
CONTINUOUS
 70
0
 71
3
 72
25
 73
21
 74
0
 42
0.0000001
 43
0.0000001
 44
0.0000000001
 40
0.0
 40
0.0
 40
0.0
 40
0.0
 40
0.0075183201
 40
0.0159003756
 40
0.0256806446
 40
0.0371851809
 40
0.0505986597
 40
0.0660164211
 40
0.0834832162
 40
0.1030063891
 40
0.1481409422
 40
0.2011253123
 40
0.26146823
 40
0.3285402353
 40
0.4015975671
 40
0.4797951501
 40
0.5621986332
 40
0.6477964057
 40
0.8242137796
 40
1.0
 40
1.0
 40
1.0
 40
1.0
 10
10.5555295471
 20
9.8160596849
 30
0.0
 10
10.555499207
 20
9.8159918887
 30
0.0
 10
10.5554604021
 20
9.8158363036
 30
0.0
 10
10.5554747246
 20
9.8155803485
 30
0.0
 10
10.5555546974
 20
9.8152966556
 30
0.0
 10
10.5556985773
 20
9.8149844378
 30
0.0
 10
10.5559057689
 20
9.8146433138
 30
0.0
 10
10.5561758557
 20
9.8142736673
 30
0.0
 10
10.5565082857
 20
9.8138763542
 30
0.0
 10
10.5570609089
 20
9.813281941
 30
0.0
 10
10.5579070188
 20
9.8124835147
 30
0.0
 10
10.5591062802
 20
9.8114764273
 30
0.0
 10
10.5605211627
 20
9.8103919179
 30
0.0
 10
10.562135337
 20
9.8092437777
 30
0.0
 10
10.5639300291
 20
9.8080468795
 30
0.0
 10
10.5658837141
 20
9.8068169258
 30
0.0
 10
10.5679724488
 20
9.8055702697
 30
0.0
 10
10.5709323495
 20
9.803891498
 30
0.0
 10
10.5747615785
 20
9.8018778015
 30
0.0
 10
10.5779057908
 20
9.8003847078
 30
0.0
 10
10.5794908913
 20
9.7996752232
 30
0.0
  0
LINE
  5
4AD
100
AcDbEntity
  8
0
100
AcDbLine
 62
7
  6
CONTINUOUS
 10
15.8624933585
 20
7.0302918817
 11
15.8615669166
 21
7.0303308658
  0
LINE
  5
4AE
100
AcDbEntity
  8
0
100
AcDbLine
 62
7
  6
CONTINUOUS
 10
15.8615669166
 20
7.0303308658
 11
15.8594225799
 21
7.0304181761
  0
SPLINE
  5
4AF
100
AcDbEntity
  8
0
100
AcDbSpline
 62
9
  6
CONTINUOUS
 70
0
 71
3
 72
37
 73
33
 74
0
 42
0.0000001
 43
0.0000001
 44
0.0000000001
 40
0.0
 40
0.0
 40
0.0
 40
0.0
 40
0.0212083582
 40
0.0432201801
 40
0.0660181813
 40
0.0895871374
 40
0.1139136286
 40
0.1389838224
 40
0.1647821692
 40
0.1779494329
 40
0.1912928865
 40
0.2185016496
 40
0.2463950942
 40
0.2749592922
 40
0.3041787233
 40
0.3340377633
 40
0.364522104
 40
0.3956181169
 40
0.4273110079
 40
0.4924179838
 40
0.5257948618
 40
0.5596937867
 40
0.5940945977
 40
0.6289773847
 40
0.70010951
 40
0.7729333589
 40
0.8099308028
 40
0.8472926275
 40
0.885000098
 40
0.9230348081
 40
0.9613760269
 40
1.0
 40
1.0
 40
1.0
 40
1.0
 10
11.0102661916
 20
10.5776362115
 30
0.0
 10
11.0093497325
 20
10.5755832041
 30
0.0
 10
11.0074820398
 20
10.5713994374
 30
0.0
 10
11.0046263104
 20
10.5650100709
 30
0.0
 10
11.0016614049
 20
10.558395403
 30
0.0
 10
10.9985931032
 20
10.5515581856
 30
0.0
 10
10.9954339565
 20
10.5444977204
 30
0.0
 10
10.9921930157
 20
10.5372149595
 30
0.0
 10
10.9894334646
 20
10.5310128019
 30
0.0
 10
10.9871732372
 20
10.5259491173
 30
0.0
 10
10.9848466878
 20
10.5207513046
 30
0.0
 10
10.9818766985
 20
10.5141311474
 30
0.0
 10
10.9782501512
 20
10.5060370681
 30
0.0
 10
10.9745489519
 20
10.497742884
 30
0.0
 10
10.9707602356
 20
10.4892595769
 30
0.0
 10
10.9668709963
 20
10.4805982496
 30
0.0
 10
10.9628843206
 20
10.4717626278
 30
0.0
 10
10.9588110134
 20
10.4627528226
 30
0.0
 10
10.9532256084
 20
10.4503986642
 30
0.0
 10
10.9475522913
 20
10.437818886
 30
0.0
 10
10.9418131756
 20
10.425012291
 30
0.0
 10
10.9374246627
 20
10.4151675032
 30
0.0
 10
10.9329920688
 20
10.4051676117
 30
0.0
 10
10.9269782172
 20
10.3915512176
 30
0.0
 10
10.9193379889
 20
10.374200384
 30
0.0
 10
10.9115949397
 20
10.356649876
 30
0.0
 10
10.9052687036
 20
10.3423872083
 30
0.0
 10
10.9004325989
 20
10.3315360188
 30
0.0
 10
10.8955249019
 20
10.3205963812
 30
0.0
 10
10.8905388797
 20
10.3095781484
 30
0.0
 10
10.8854734711
 20
10.2984892841
 30
0.0
 10
10.8820596263
 20
10.2910788133
 30
0.0
 10
10.8803408598
 20
10.2873625465
 30
0.0
  0
SPLINE
  5
4B0
100
AcDbEntity
  8
0
100
AcDbSpline
 62
7
  6
CONTINUOUS
 70
0
 71
3
 72
31
 73
27
 74
0
 42
0.0000001
 43
0.0000001
 44
0.0000000001
 40
0.0
 40
0.0
 40
0.0
 40
0.0
 40
0.0025357219
 40
0.0053876634
 40
0.0087113759
 40
0.0126041123
 40
0.0171230811
 40
0.0223010671
 40
0.034697073
 40
0.0498527155
 40
0.0677479731
 40
0.0883199718
 40
0.1114807071
 40
0.1371195654
 40
0.1651108546
 40
0.2275739098
 40
0.2976072561
 40
0.3737805981
 40
0.4545281986
 40
0.5381705997
 40
0.6229407004
 40
0.7070109839
 40
0.7885319674
 40
0.865678055
 40
0.9367005139
 40
1.0
 40
1.0
 40
1.0
 40
1.0
 10
10.410532706
 20
9.8830098655
 30
0.0
 10
10.410518692
 20
9.8829785533
 30
0.0
 10
10.4105001411
 20
9.8829067085
 30
0.0
 10
10.4105026563
 20
9.8827878815
 30
0.0
 10
10.4105325913
 20
9.8826543285
 30
0.0
 10
10.4105894295
 20
9.8825056707
 30
0.0
 10
10.4106729259
 20
9.8823415895
 30
0.0
 10
10.410829412
 20
9.8820866616
 30
0.0
 10
10.4110963241
 20
9.881732307
 30
0.0
 10
10.4115021845
 20
9.881270073
 30
0.0
 10
10.4120094041
 20
9.8807510196
 30
0.0
 10
10.4126151518
 20
9.8801779069
 30
0.0
 10
10.4133163003
 20
9.8795538738
 30
0.0
 10
10.4141090018
 20
9.8788822473
 30
0.0
 10
10.4153276884
 20
9.8778913638
 30
0.0
 10
10.4170479604
 20
9.8765660797
 30
0.0
 10
10.4193280355
 20
9.8749011102
 30
0.0
 10
10.4218461995
 20
9.8731439561
 30
0.0
 10
10.4245501235
 20
9.8713323588
 30
0.0
 10
10.427383405
 20
9.8695058422
 30
0.0
 10
10.4302861156
 20
9.8677050041
 30
0.0
 10
10.4331957501
 20
9.8659707498
 30
0.0
 10
10.4360483076
 20
9.8643433065
 30
0.0
 10
10.4387797165
 20
9.862861008
 30
0.0
 10
10.4413275289
 20
9.8615590338
 30
0.0
 10
10.4429703869
 20
9.8607812579
 30
0.0
 10
10.4437520254
 20
9.8604313996
 30
0.0
  0
SPLINE
  5
4B1
100
AcDbEntity
  8
0
100
AcDbSpline
 62
7
  6
CONTINUOUS
 70
0
 71
3
 72
14
 73
10
 74
0
 42
0.0000001
 43
0.0000001
 44
0.0000000001
 40
0.0
 40
0.0
 40
0.0
 40
0.0
 40
0.0789586029
 40
0.1751664509
 40
0.2869952255
 40
0.4124292276
 40
0.5491319359
 40
0.6945099195
 40
1.0
 40
1.0
 40
1.0
 40
1.0
 10
15.9585570345
 20
7.0265481677
 30
0.0
 10
15.9581403762
 20
7.0264622771
 30
0.0
 10
15.9572080957
 20
7.0263106448
 30
0.0
 10
15.9556714925
 20
7.026135275
 30
0.0
 10
15.9538800525
 20
7.0259938335
 30
0.0
 10
15.9518676891
 20
7.0258895871
 30
0.0
 10
15.9496728291
 20
7.0258250696
 30
0.0
 10
15.9465070966
 20
7.0257936495
 30
0.0
 10
15.9440775954
 20
7.0258339989
 30
0.0
 10
15.9424325191
 20
7.0258873846
 30
0.0
  0
LINE
  5
4B2
100
AcDbEntity
  8
0
100
AcDbLine
 62
7
  6
CONTINUOUS
 10
15.9585570345
 20
7.0382107074
 11
15.9297863898
 21
7.0388811425
  0
SPLINE
  5
4B3
100
AcDbEntity
  8
0
100
AcDbSpline
 62
9
  6
CONTINUOUS
 70
0
 71
3
 72
16
 73
12
 74
0
 42
0.0000001
 43
0.0000001
 44
0.0000000001
 40
0.0
 40
0.0
 40
0.0
 40
0.0
 40
0.1327633801
 40
0.2651396405
 40
0.3960736751
 40
0.524371823
 40
0.6495977151
 40
0.7712916773
 40
0.888374747
 40
0.9449160502
 40
1.0
 40
1.0
 40
1.0
 40
1.0
 10
11.0102661916
 20
10.5776362115
 30
0.0
 10
11.0372659268
 20
10.564621415
 30
0.0
 10
11.0911944323
 20
10.5386458763
 30
0.0
 10
11.1717610901
 20
10.4998565692
 30
0.0
 10
11.2514099826
 20
10.4614848622
 30
0.0
 10
11.3295539427
 20
10.4237087915
 30
0.0
 10
11.4057376716
 20
10.3866711236
 30
0.0
 10
11.4795313346
 20
10.3505088308
 30
0.0
 10
11.5392482494
 20
10.320860195
 30
0.0
 10
11.585364898
 20
10.2976376988
 30
0.0
 10
11.6078229005
 20
10.2862045332
 30
0.0
 10
11.6188905501
 20
10.2805338334
 30
0.0
  0
SPLINE
  5
4B4
100
AcDbEntity
  8
0
100
AcDbSpline
 62
7
  6
CONTINUOUS
 70
0
 71
3
 72
18
 73
14
 74
0
 42
0.0000001
 43
0.0000001
 44
0.0000000001
 40
0.0
 40
0.0
 40
0.0
 40
0.0
 40
0.0090787544
 40
0.0157194381
 40
0.0240393412
 40
0.0460326067
 40
0.0754121504
 40
0.156659303
 40
0.2678467455
 40
0.4085386658
 40
0.5780504713
 40
0.7755425521
 40
1.0
 40
1.0
 40
1.0
 40
1.0
 10
10.3319205649
 20
9.9192822753
 30
0.0
 10
10.3319160901
 20
9.9192722803
 30
0.0
 10
10.3319191721
 20
9.9192514086
 30
0.0
 10
10.3319306484
 20
9.9192252469
 30
0.0
 10
10.3319534128
 20
9.9191865891
 30
0.0
 10
10.331997792
 20
9.9191297955
 30
0.0
 10
10.3321058095
 20
9.919011643
 30
0.0
 10
10.3323015263
 20
9.9188288201
 30
0.0
 10
10.3326063716
 20
9.918567028
 30
0.0
 10
10.3330011307
 20
9.9182467253
 30
0.0
 10
10.333483463
 20
9.9178693724
 30
0.0
 10
10.3340510299
 20
9.9174370763
 30
0.0
 10
10.3344588772
 20
9.917132591
 30
0.0
 10
10.3346764049
 20
9.9169713934
 30
0.0
  0
SPLINE
  5
4B5
100
AcDbEntity
  8
0
100
AcDbSpline
 62
7
  6
CONTINUOUS
 70
0
 71
3
 72
18
 73
14
 74
0
 42
0.0000001
 43
0.0000001
 44
0.0000000001
 40
0.0
 40
0.0
 40
0.0
 40
0.0
 40
0.0448086849
 40
0.0973080681
 40
0.2214585743
 40
0.3637253866
 40
0.5143829253
 40
0.6632282131
 40
0.8000477396
 40
0.8608784595
 40
0.9151386999
 40
0.9618090548
 40
1.0
 40
1.0
 40
1.0
 40
1.0
 10
10.3346764049
 20
9.9169713934
 30
0.0
 10
10.3351656084
 20
9.9166088723
 30
0.0
 10
10.336234063
 20
9.9158298204
 30
0.0
 10
10.3386822089
 20
9.9140797837
 30
0.0
 10
10.3422339136
 20
9.911596533
 30
0.0
 10
10.3469045761
 20
9.9083863588
 30
0.0
 10
10.3518736082
 20
9.90501806
 30
0.0
 10
10.3568022354
 20
9.9017223052
 30
0.0
 10
10.360736047
 20
9.8991348854
 30
0.0
 10
10.3636127994
 20
9.8972796044
 30
0.0
 10
10.3654692289
 20
9.8961025397
 30
0.0
 10
10.3670763936
 20
9.8951070599
 30
0.0
 10
10.3680658115
 20
9.8945145928
 30
0.0
 10
10.3685147147
 20
9.8942541982
 30
0.0
  0
LINE
  5
4B6
100
AcDbEntity
  8
0
100
AcDbLine
 62
7
  6
CONTINUOUS
 10
10.3685147147
 20
9.8942541982
 11
10.3701681129
 21
9.8933672661
  0
SPLINE
  5
4B7
100
AcDbEntity
  8
0
100
AcDbSpline
 62
9
  6
CONTINUOUS
 70
0
 71
3
 72
15
 73
11
 74
0
 42
0.0000001
 43
0.0000001
 44
0.0000000001
 40
0.0
 40
0.0
 40
0.0
 40
0.0
 40
0.1143485224
 40
0.2326393111
 40
0.3543998658
 40
0.4791773073
 40
0.6065372726
 40
0.7360550158
 40
0.8673311184
 40
1.0
 40
1.0
 40
1.0
 40
1.0
 10
11.6188905501
 20
10.2805338334
 30
0.0
 10
11.6179491748
 20
10.2700238714
 30
0.0
 10
11.6157694397
 20
10.2486643673
 30
0.0
 10
11.611629452
 20
10.2162200919
 30
0.0
 10
11.6064872337
 20
10.1829446587
 30
0.0
 10
11.6002710909
 20
10.149001303
 30
0.0
 10
11.5929097803
 20
10.1145547439
 30
0.0
 10
11.5843338665
 20
10.0797713807
 30
0.0
 10
11.5744743194
 20
10.0448201413
 30
0.0
 10
11.5670319132
 20
10.0216214221
 30
0.0
 10
11.5630721391
 20
10.0100368528
 30
0.0
  0
LINE
  5
4B8
100
AcDbEntity
  8
0
100
AcDbLine
 62
7
  6
CONTINUOUS
 10
15.8603276793
 20
7.0389931811
 11
15.8315570345
 21
7.0384156423
  0
LINE
  5
4B9
100
AcDbEntity
  8
0
100
AcDbLine
 62
9
  6
CONTINUOUS
 10
11.6188905501
 20
10.2805338334
 11
11.6569016187
 21
10.2610109235
  0
SPLINE
  5
4BA
100
AcDbEntity
  8
0
100
AcDbSpline
 62
7
  6
CONTINUOUS
 70
0
 71
3
 72
25
 73
21
 74
0
 42
0.0000001
 43
0.0000001
 44
0.0000000001
 40
0.0
 40
0.0
 40
0.0
 40
0.0
 40
0.2144949019
 40
0.4081455406
 40
0.4961722073
 40
0.57785515
 40
0.6528753395
 40
0.7209444918
 40
0.7818135087
 40
0.8352669528
 40
0.8811417433
 40
0.9193315421
 40
0.935538924
 40
0.9498304166
 40
0.9622335437
 40
0.9727979949
 40
0.9816123617
 40
0.9888412168
 40
0.9947903029
 40
1.0
 40
1.0
 40
1.0
 40
1.0
 10
15.8447939088
 20
7.0319097955
 30
0.0
 10
15.8437401834
 20
7.0319380064
 30
0.0
 10
15.8417354611
 20
7.0320051737
 30
0.0
 10
15.8392999275
 20
7.0321256976
 30
0.0
 10
15.8375180157
 20
7.0322421648
 30
0.0
 10
15.8363188709
 20
7.0323348426
 30
0.0
 10
15.8352187883
 20
7.0324351999
 30
0.0
 10
15.8342222013
 20
7.0325428055
 30
0.0
 10
15.8333331129
 20
7.0326571282
 30
0.0
 10
15.8325549918
 20
7.03277758
 30
0.0
 10
15.8318908904
 20
7.0329035652
 30
0.0
 10
15.8314111957
 20
7.0330177687
 30
0.0
 10
15.8310875607
 20
7.0331140331
 30
0.0
 10
15.8308883337
 20
7.0331833068
 30
0.0
 10
15.8307190895
 20
7.0332535489
 30
0.0
 10
15.8305798182
 20
7.0333247239
 30
0.0
 10
15.8304703446
 20
7.0333969155
 30
0.0
 10
15.8303903801
 20
7.0334706109
 30
0.0
 10
15.8303398599
 20
7.0335471012
 30
0.0
 10
15.8303276793
 20
7.0336023238
 30
0.0
 10
15.8303276793
 20
7.033627926
 30
0.0
  0
SPLINE
  5
4BB
100
AcDbEntity
  8
0
100
AcDbSpline
 62
7
  6
CONTINUOUS
 70
0
 71
3
 72
14
 73
10
 74
0
 42
0.0000001
 43
0.0000001
 44
0.0000000001
 40
0.0
 40
0.0
 40
0.0
 40
0.0
 40
0.3054697369
 40
0.4508368928
 40
0.5875308153
 40
0.7129609378
 40
0.8247937047
 40
0.9210157956
 40
1.0
 40
1.0
 40
1.0
 40
1.0
 10
15.84768155
 20
7.0260415027
 30
0.0
 10
15.8460361936
 20
7.0259934656
 30
0.0
 10
15.8436064099
 20
7.0259610294
 30
0.0
 10
15.8404405796
 20
7.0260027617
 30
0.0
 10
15.838245768
 20
7.026074424
 30
0.0
 10
15.8362335254
 20
7.0261852105
 30
0.0
 10
15.8344422302
 20
7.026332462
 30
0.0
 10
15.8329057523
 20
7.0265128028
 30
0.0
 10
15.8319736174
 20
7.0266674305
 30
0.0
 10
15.8315570345
 20
7.0267546485
 30
0.0
  0
SPLINE
  5
4BC
100
AcDbEntity
  8
0
100
AcDbSpline
 62
9
  6
CONTINUOUS
 70
0
 71
3
 72
39
 73
35
 74
0
 42
0.0000001
 43
0.0000001
 44
0.0000000001
 40
0.0
 40
0.0
 40
0.0
 40
0.0
 40
0.104174163
 40
0.2046422892
 40
0.3010321605
 40
0.392961849
 40
0.4800407606
 40
0.5618705553
 40
0.6380459594
 40
0.7081554847
 40
0.7717825918
 40
0.8010344806
 40
0.8285081499
 40
0.8541505279
 40
0.8779082907
 40
0.8997278789
 40
0.9195555146
 40
0.9373372218
 40
0.953018853
 40
0.9600552011
 40
0.9665461698
 40
0.9724849655
 40
0.9778647992
 40
0.9826788942
 40
0.9869205004
 40
0.9905829188
 40
0.9936595511
 40
0.9961440088
 40
0.9971623259
 40
0.9980304786
 40
0.9987479729
 40
0.9993146173
 40
0.9997309662
 40
1.0
 40
1.0
 40
1.0
 40
1.0
 10
11.6188905501
 20
10.2805338334
 30
0.0
 10
11.6197275722
 20
10.2898787477
 30
0.0
 10
11.6211847833
 20
10.3082534148
 30
0.0
 10
11.6227992186
 20
10.3353189619
 30
0.0
 10
11.6238671522
 20
10.3613077899
 30
0.0
 10
11.6244504053
 20
10.3861055809
 30
0.0
 10
11.6246108195
 20
10.409598183
 30
0.0
 10
11.6244102357
 20
10.4316713784
 30
0.0
 10
11.6239105232
 20
10.4522109597
 30
0.0
 10
11.623173532
 20
10.471102713
 30
0.0
 10
11.6223928672
 20
10.485761846
 30
0.0
 10
11.6217001614
 20
10.4965791873
 30
0.0
 10
11.6211746268
 20
10.5039789838
 30
0.0
 10
11.620636172
 20
10.5108816201
 30
0.0
 10
11.6200925845
 20
10.5172729211
 30
0.0
 10
11.6195516671
 20
10.5231387083
 30
0.0
 10
11.6190212402
 20
10.5284648091
 30
0.0
 10
11.6185091127
 20
10.5332370454
 30
0.0
 10
11.6180903376
 20
10.5368605345
 30
0.0
 10
11.6177698732
 20
10.5394716214
 30
0.0
 10
11.6175477582
 20
10.5412106951
 30
0.0
 10
11.617336052
 20
10.5428006718
 30
0.0
 10
11.6171357371
 20
10.5442397821
 30
0.0
 10
11.6169478124
 20
10.5455262603
 30
0.0
 10
11.6167732775
 20
10.5466583409
 30
0.0
 10
11.616613191
 20
10.547634281
 30
0.0
 10
11.6164685539
 20
10.5484523152
 30
0.0
 10
11.6163556592
 20
10.5490340901
 30
0.0
 10
11.6162725764
 20
10.5494188913
 30
0.0
 10
11.6162190205
 20
10.5496472553
 30
0.0
 10
11.6161701274
 20
10.5498347999
 30
0.0
 10
11.6161262775
 20
10.5499817439
 30
0.0
 10
11.6160874534
 20
10.5500873749
 30
0.0
 10
11.6160602789
 20
10.5501435832
 30
0.0
 10
11.6160456038
 20
10.550162864
 30
0.0
  0
SPLINE
  5
4BD
100
AcDbEntity
  8
0
100
AcDbSpline
 62
7
  6
CONTINUOUS
 70
0
 71
3
 72
14
 73
10
 74
0
 42
0.0000001
 43
0.0000001
 44
0.0000000001
 40
0.0
 40
0.0
 40
0.0
 40
0.0
 40
0.3054905554
 40
0.4508681847
 40
0.5875704112
 40
0.7130039287
 40
0.8248324255
 40
0.9210404616
 40
1.0
 40
1.0
 40
1.0
 40
1.0
 10
15.9424325191
 20
7.0248784252
 30
0.0
 10
15.944077602
 20
7.0248250042
 30
0.0
 10
15.946507112
 20
7.0247846286
 30
0.0
 10
15.9496728525
 20
7.0248160695
 30
0.0
 10
15.9518677113
 20
7.0248806302
 30
0.0
 10
15.953880071
 20
7.0249849453
 30
0.0
 10
15.9556715067
 20
7.0251264798
 30
0.0
 10
15.9572081066
 20
7.0253019649
 30
0.0
 10
15.9581403811
 20
7.0254536962
 30
0.0
 10
15.9585570345
 20
7.0255396422
 30
0.0
  0
SPLINE
  5
4BE
100
AcDbEntity
  8
0
100
AcDbSpline
 62
7
  6
CONTINUOUS
 70
0
 71
3
 72
14
 73
10
 74
0
 42
0.0000001
 43
0.0000001
 44
0.0000000001
 40
0.0
 40
0.0
 40
0.0
 40
0.0
 40
0.078985153
 40
0.1752077024
 40
0.2870406929
 40
0.4124709244
 40
0.5491648214
 40
0.6945318074
 40
1.0
 40
1.0
 40
1.0
 40
1.0
 10
15.8315570345
 20
7.0257462585
 30
0.0
 10
15.8319736123
 20
7.0256589843
 30
0.0
 10
15.8329057423
 20
7.0255042553
 30
0.0
 10
15.8344422207
 20
7.0253237959
 30
0.0
 10
15.8362335186
 20
7.0251764471
 30
0.0
 10
15.8382457658
 20
7.0250655874
 30
0.0
 10
15.8404405829
 20
7.0249938781
 30
0.0
 10
15.8436064142
 20
7.0249521181
 30
0.0
 10
15.8460361974
 20
7.0249845759
 30
0.0
 10
15.84768155
 20
7.0250326445
 30
0.0
  0
LINE
  5
4BF
100
AcDbEntity
  8
0
100
AcDbLine
 62
7
  6
CONTINUOUS
 10
15.8315570345
 20
7.0137004238
 11
15.8315858148
 21
7.0134063058
  0
LINE
  5
4C0
100
AcDbEntity
  8
0
100
AcDbLine
 62
9
  6
CONTINUOUS
 10
11.0102661922
 20
10.5776362112
 11
11.0254940721
 21
10.6115724158
  0
SPLINE
  5
4C1
100
AcDbEntity
  8
0
100
AcDbSpline
 62
9
  6
CONTINUOUS
 70
0
 71
3
 72
57
 73
53
 74
0
 42
0.0000001
 43
0.0000001
 44
0.0000000001
 40
0.0
 40
0.0
 40
0.0
 40
0.0
 40
0.0594683376
 40
0.1171943771
 40
0.1731624178
 40
0.2273578684
 40
0.3303841458
 40
0.4261860175
 40
0.4713563132
 40
0.5146935535
 40
0.5561805951
 40
0.595798876
 40
0.633530631
 40
0.6693580747
 40
0.6865525797
 40
0.7032652979
 40
0.719497049
 40
0.735249628
 40
0.7505245967
 40
0.7653238207
 40
0.7796500845
 40
0.7935057651
 40
0.8198033098
 40
0.8442042442
 40
0.8666913675
 40
0.8872528937
 40
0.8968050996
 40
0.9058609415
 40
0.9144132636
 40
0.9224603004
 40
0.9300077461
 40
0.9370732775
 40
0.9436948341
 40
0.9499267857
 40
0.9557739223
 40
0.961184779
 40
0.9660846346
 40
0.9704261682
 40
0.9741822989
 40
0.9758396128
 40
0.9773546757
 40
0.9787407232
 40
0.980023727
 40
0.9812466248
 40
0.9824704424
 40
0.9837689025
 40
0.9852167227
 40
0.9868801868
 40
0.9888142778
 40
0.9910624094
 40
0.9936580128
 40
1.0
 40
1.0
 40
1.0
 40
1.0
 10
11.0254940721
 20
10.6115724158
 30
0.0
 10
11.026843362
 20
10.6145556019
 30
0.0
 10
11.0294988043
 20
10.6204362057
 30
0.0
 10
11.0334068207
 20
10.6291322039
 30
0.0
 10
11.0371753741
 20
10.6375725781
 30
0.0
 10
11.0419285578
 20
10.6483046649
 30
0.0
 10
11.0475441787
 20
10.6610533332
 30
0.0
 10
11.0530168536
 20
10.6733219638
 30
0.0
 10
11.0572081158
 20
10.6825634851
 30
0.0
 10
11.0601952005
 20
10.6890674414
 30
0.0
 10
11.0630601169
 20
10.69529111
 30
0.0
 10
11.0657760912
 20
10.701243598
 30
0.0
 10
11.0683188435
 20
10.7069324572
 30
0.0
 10
11.0703145422
 20
10.7115133243
 30
0.0
 10
11.0718166144
 20
10.7150466994
 30
0.0
 10
11.0728791191
 20
10.7175945439
 30
0.0
 10
11.0738985749
 20
10.7200742735
 30
0.0
 10
11.0748839045
 20
10.7224824372
 30
0.0
 10
11.0758434094
 20
10.7248159507
 30
0.0
 10
11.0767851722
 20
10.7270718349
 30
0.0
 10
11.0777186804
 20
10.7292463944
 30
0.0
 10
11.0789356821
 20
10.7319879459
 30
0.0
 10
11.0804257223
 20
10.7352148571
 30
0.0
 10
11.0821567615
 20
10.7388534597
 30
0.0
 10
11.0837616359
 20
10.7422023301
 30
0.0
 10
11.085018664
 20
10.7448113328
 30
0.0
 10
11.0859505407
 20
10.7467561623
 30
0.0
 10
11.0865820222
 20
10.7481117097
 30
0.0
 10
11.0871522099
 20
10.7494041749
 30
0.0
 10
11.0876493183
 20
10.7506375325
 30
0.0
 10
11.0880617093
 20
10.7518156554
 30
0.0
 10
11.0883775384
 20
10.7529422839
 30
0.0
 10
11.0885847471
 20
10.7540211043
 30
0.0
 10
11.0886694995
 20
10.7550488951
 30
0.0
 10
11.0886723855
 20
10.7560124232
 30
0.0
 10
11.0886332923
 20
10.7569012427
 30
0.0
 10
11.0885927039
 20
10.7577069382
 30
0.0
 10
11.0885710108
 20
10.7584222329
 30
0.0
 10
11.0885830311
 20
10.7589598916
 30
0.0
 10
11.0886241904
 20
10.759339414
 30
0.0
 10
11.0886716438
 20
10.7595862491
 30
0.0
 10
11.0887406882
 20
10.7598067158
 30
0.0
 10
11.0888356466
 20
10.7600000034
 30
0.0
 10
11.0889611176
 20
10.7601645031
 30
0.0
 10
11.089121021
 20
10.7602975503
 30
0.0
 10
11.0893177357
 20
10.7603966763
 30
0.0
 10
11.089553158
 20
10.7604611233
 30
0.0
 10
11.0898302272
 20
10.760491024
 30
0.0
 10
11.0901526296
 20
10.7604862163
 30
0.0
 10
11.0905240525
 20
10.7604463066
 30
0.0
 10
11.0911306329
 20
10.7603378794
 30
0.0
 10
11.0916070024
 20
10.7602112491
 30
0.0
 10
11.0919420219
 20
10.760112855
 30
0.0
  0
SPLINE
  5
4C2
100
AcDbEntity
  8
0
100
AcDbSpline
 62
7
  6
CONTINUOUS
 70
0
 71
3
 72
11
 73
7
 74
0
 42
0.0000001
 43
0.0000001
 44
0.0000000001
 40
0.0
 40
0.0
 40
0.0
 40
0.0
 40
0.2277806851
 40
0.4649093196
 40
0.7200089916
 40
1.0
 40
1.0
 40
1.0
 40
1.0
 10
15.9585570345
 20
7.0145086651
 30
0.0
 10
15.9585570345
 20
7.0144011085
 30
0.0
 10
15.958533014
 20
7.0141809182
 30
0.0
 10
15.958426298
 20
7.0138559034
 30
0.0
 10
15.9582502948
 20
7.0135345988
 30
0.0
 10
15.9580956763
 20
7.013333575
 30
0.0
 10
15.9580089625
 20
7.0132337743
 30
0.0
  0
SPLINE
  5
4C3
100
AcDbEntity
  8
0
100
AcDbSpline
 62
7
  6
CONTINUOUS
 70
0
 71
3
 72
11
 73
7
 74
0
 42
0.0000001
 43
0.0000001
 44
0.0000000001
 40
0.0
 40
0.0
 40
0.0
 40
0.0
 40
0.2806905691
 40
0.5359752001
 40
0.7728299678
 40
1.0
 40
1.0
 40
1.0
 40
1.0
 10
15.8321180205
 20
7.0134254466
 30
0.0
 10
15.8320293391
 20
7.0135265753
 30
0.0
 10
15.831871209
 20
7.0137301716
 30
0.0
 10
15.8316910002
 20
7.0140557081
 30
0.0
 10
15.8315816765
 20
7.0143848788
 30
0.0
 10
15.8315570345
 20
7.0146079174
 30
0.0
 10
15.8315570345
 20
7.0147167752
 30
0.0
  0
SPLINE
  5
4C4
100
AcDbEntity
  8
0
100
AcDbSpline
 62
7
  6
CONTINUOUS
 70
0
 71
3
 72
17
 73
13
 74
0
 42
0.0000001
 43
0.0000001
 44
0.0000000001
 40
0.0
 40
0.0
 40
0.0
 40
0.0
 40
0.0211422403
 40
0.0436901458
 40
0.0698579126
 40
0.1010902516
 40
0.1816965319
 40
0.2890918695
 40
0.4244474852
 40
0.5881533742
 40
0.7801425415
 40
1.0
 40
1.0
 40
1.0
 40
1.0
 10
11.0776542082
 20
9.6380853243
 30
0.0
 10
11.0776482509
 20
9.6380720203
 30
0.0
 10
11.0776408487
 20
9.6380420033
 30
0.0
 10
11.0776467565
 20
9.6379933888
 30
0.0
 10
11.0776682672
 20
9.6379421078
 30
0.0
 10
11.0777214857
 20
9.6378627596
 30
0.0
 10
11.0778306939
 20
9.6377565284
 30
0.0
 10
11.0780095931
 20
9.6376232521
 30
0.0
 10
11.0782477332
 20
9.6374749662
 30
0.0
 10
11.078544679
 20
9.6373121536
 30
0.0
 10
11.0789000325
 20
9.6371353385
 30
0.0
 10
11.0791579505
 20
9.6370164724
 30
0.0
 10
11.0792963086
 20
9.6369545439
 30
0.0
  0
SPLINE
  5
4C5
100
AcDbEntity
  8
0
100
AcDbSpline
 62
7
  6
CONTINUOUS
 70
0
 71
3
 72
15
 73
11
 74
0
 42
0.0000001
 43
0.0000001
 44
0.0000000001
 40
0.0
 40
0.0
 40
0.0
 40
0.0
 40
0.1555066489
 40
0.3041931053
 40
0.4451436183
 40
0.5774137402
 40
0.7000342376
 40
0.8120144038
 40
0.9123448703
 40
1.0
 40
1.0
 40
1.0
 40
1.0
 10
11.6569016187
 20
10.2610109235
 30
0.0
 10
11.6578280099
 20
10.2725507413
 30
0.0
 10
11.6593488673
 20
10.2951486655
 30
0.0
 10
11.6607697644
 20
10.328260461
 30
0.0
 10
11.6614097429
 20
10.3596659992
 30
0.0
 10
11.6613948684
 20
10.3891370057
 30
0.0
 10
11.6608512211
 20
10.4164454752
 30
0.0
 10
11.659904877
 20
10.4413632759
 30
0.0
 10
11.6586818916
 20
10.4636621414
 30
0.0
 10
11.6576961217
 20
10.4776229049
 30
0.0
 10
11.6571846888
 20
10.4841284598
 30
0.0
  0
SPLINE
  5
4C6
100
AcDbEntity
  8
0
100
AcDbSpline
 62
7
  6
CONTINUOUS
 70
0
 71
3
 72
19
 73
15
 74
0
 42
0.0000001
 43
0.0000001
 44
0.0000000001
 40
0.0
 40
0.0
 40
0.0
 40
0.0
 40
0.0202910476
 40
0.0424865934
 40
0.0688128186
 40
0.1006286252
 40
0.1386766329
 40
0.1833508445
 40
0.2348549987
 40
0.2932627948
 40
0.4307329139
 40
0.5951881424
 40
0.7854980498
 40
1.0
 40
1.0
 40
1.0
 40
1.0
 10
10.9819508408
 20
9.6818692963
 30
0.0
 10
10.9819313888
 20
9.681825848
 30
0.0
 10
10.9819086395
 20
9.6817257423
 30
0.0
 10
10.9819339616
 20
9.6815635009
 30
0.0
 10
10.9820124558
 20
9.6813904805
 30
0.0
 10
10.9821421558
 20
9.6812047885
 30
0.0
 10
10.9823229871
 20
9.6810053539
 30
0.0
 10
10.9825550644
 20
9.6807920438
 30
0.0
 10
10.9828382682
 20
9.6805651596
 30
0.0
 10
10.9833097969
 20
9.6802264453
 30
0.0
 10
10.9840273064
 20
9.6797779847
 30
0.0
 10
10.9850385533
 20
9.6792196667
 30
0.0
 10
10.9862331048
 20
9.6786217696
 30
0.0
 10
10.9870953425
 20
9.6782233295
 30
0.0
 10
10.9875546642
 20
9.6780177389
 30
0.0
  0
SPLINE
  5
4C7
100
AcDbEntity
  8
0
100
AcDbSpline
 62
7
  6
CONTINUOUS
 70
0
 71
3
 72
21
 73
17
 74
0
 42
0.0000001
 43
0.0000001
 44
0.0000000001
 40
0.0
 40
0.0
 40
0.0
 40
0.0
 40
0.0094120093
 40
0.0191233289
 40
0.0408728598
 40
0.0676092956
 40
0.1005205352
 40
0.1401699565
 40
0.186780099
 40
0.2403871271
 40
0.3009020279
 40
0.3681467523
 40
0.4418767828
 40
0.6075047133
 40
0.7947679671
 40
1.0
 40
1.0
 40
1.0
 40
1.0
 10
10.8423768287
 20
9.7457073211
 30
0.0
 10
10.8423585777
 20
9.7456665532
 30
0.0
 10
10.8423305506
 20
9.7455793266
 30
0.0
 10
10.8423124709
 20
9.745384842
 30
0.0
 10
10.8423712902
 20
9.7451091387
 30
0.0
 10
10.8425489622
 20
9.7447635001
 30
0.0
 10
10.8428321372
 20
9.744384916
 30
0.0
 10
10.8432213609
 20
9.7439734642
 30
0.0
 10
10.843715876
 20
9.7435298767
 30
0.0
 10
10.8443142883
 20
9.743056264
 30
0.0
 10
10.8450142638
 20
9.7425549512
 30
0.0
 10
10.845812763
 20
9.742028529
 30
0.0
 10
10.8470528641
 20
9.7412670162
 30
0.0
 10
10.8488216714
 20
9.740280123
 30
0.0
 10
10.8511856617
 20
9.7390843722
 30
0.0
 10
10.8528753736
 20
9.7382996537
 30
0.0
 10
10.8537643595
 20
9.7379017471
 30
0.0
  0
SPLINE
  5
4C8
100
AcDbEntity
  8
0
100
AcDbSpline
 62
9
  6
CONTINUOUS
 70
0
 71
3
 72
46
 73
42
 74
0
 42
0.0000001
 43
0.0000001
 44
0.0000000001
 40
0.0
 40
0.0
 40
0.0
 40
0.0
 40
0.0256943481
 40
0.0519230514
 40
0.0786522899
 40
0.1058628986
 40
0.1616668745
 40
0.2192099528
 40
0.2485969681
 40
0.2783760351
 40
0.3085354929
 40
0.3237567252
 40
0.3390724144
 40
0.3544821476
 40
0.3699803538
 40
0.3855590116
 40
0.4012101322
 40
0.4090605608
 40
0.4169272189
 40
0.432710995
 40
0.4485647582
 40
0.4644916124
 40
0.4724834552
 40
0.4804943141
 40
0.4965712209
 40
0.5289318871
 40
0.5452075379
 40
0.5615427613
 40
0.5943845202
 40
0.6108873469
 40
0.6274416518
 40
0.6606929181
 40
0.6773839949
 40
0.694115503
 40
0.7276928792
 40
0.7614110695
 40
0.7952550063
 40
0.8292090614
 40
0.8632558018
 40
0.9315545656
 40
1.0
 40
1.0
 40
1.0
 40
1.0
 10
11.5630721391
 20
10.0100368528
 30
0.0
 10
11.5571112268
 20
10.0121152085
 30
0.0
 10
11.5451055344
 20
10.0164301331
 30
0.0
 10
11.5269884864
 20
10.0231527629
 30
0.0
 10
11.5085375529
 20
10.030046268
 30
0.0
 10
11.4832982253
 20
10.0395319926
 30
0.0
 10
11.451003135
 20
10.0517631664
 30
0.0
 10
11.4182329302
 20
10.0642493258
 30
0.0
 10
11.3914563536
 20
10.0745075161
 30
0.0
 10
11.3709762872
 20
10.0823949326
 30
0.0
 10
11.3537581432
 20
10.0890681174
 30
0.0
 10
11.3398791035
 20
10.0945230103
 30
0.0
 10
11.3293901635
 20
10.098696337
 30
0.0
 10
11.3188615288
 20
10.1029534684
 30
0.0
 10
11.3082857564
 20
10.1072661301
 30
0.0
 10
11.2976536154
 20
10.1115976217
 30
0.0
 10
11.2887495811
 20
10.1151906989
 30
0.0
 10
11.2815885068
 20
10.118039366
 30
0.0
 10
11.2743883497
 20
10.1208778464
 30
0.0
 10
11.2653472817
 20
10.1244079697
 30
0.0
 10
11.2544562026
 20
10.1286446163
 30
0.0
 10
11.2453556433
 20
10.1322036057
 30
0.0
 10
11.2380603883
 20
10.1350880332
 30
0.0
 10
11.2307385639
 20
10.1380054442
 30
0.0
 10
11.2178724309
 20
10.1431830914
 30
0.0
 10
11.2031540351
 20
10.1491965808
 30
0.0
 10
11.1883884061
 20
10.1552619793
 30
0.0
 10
11.1735204684
 20
10.161389392
 30
0.0
 10
11.1586135595
 20
10.167568707
 30
0.0
 10
11.1436731787
 20
10.1738076302
 30
0.0
 10
11.1286487596
 20
10.1801063569
 30
0.0
 10
11.1135893051
 20
10.1864411046
 30
0.0
 10
11.0984863201
 20
10.1927846419
 30
0.0
 10
11.0833066596
 20
10.1991525242
 30
0.0
 10
11.0642673415
 20
10.2071340468
 30
0.0
 10
11.0413544824
 20
10.2167503138
 30
0.0
 10
11.0183732193
 20
10.2264426956
 30
0.0
 10
10.9953496661
 20
10.2362422836
 30
0.0
 10
10.9645922573
 20
10.2494860392
 30
0.0
 10
10.9261757425
 20
10.266368637
 30
0.0
 10
10.8955927988
 20
10.2802795853
 30
0.0
 10
10.8803408551
 20
10.2873625486
 30
0.0
  0
SPLINE
  5
4C9
100
AcDbEntity
  8
0
100
AcDbSpline
 62
7
  6
CONTINUOUS
 70
0
 71
3
 72
25
 73
21
 74
0
 42
0.0000001
 43
0.0000001
 44
0.0000000001
 40
0.0
 40
0.0
 40
0.0
 40
0.0
 40
0.0084817542
 40
0.0175157588
 40
0.0275623266
 40
0.0389544507
 40
0.0519121334
 40
0.0665747207
 40
0.0830287765
 40
0.1013209731
 40
0.1434830274
 40
0.1930528469
 40
0.2498195859
 40
0.3134427355
 40
0.3834774158
 40
0.4593919496
 40
0.5405781196
 40
0.6263601505
 40
0.8087022738
 40
1.0
 40
1.0
 40
1.0
 40
1.0
 10
10.6774682318
 20
9.8211084123
 30
0.0
 10
10.6774420566
 20
9.8210499454
 30
0.0
 10
10.677404492
 20
9.8209211909
 30
0.0
 10
10.6773984937
 20
9.8207113219
 30
0.0
 10
10.6774401516
 20
9.8204836203
 30
0.0
 10
10.6775282778
 20
9.8202383178
 30
0.0
 10
10.6776622126
 20
9.8199752088
 30
0.0
 10
10.6778416916
 20
9.81969438
 30
0.0
 10
10.6780664871
 20
9.8193961559
 30
0.0
 10
10.6784445103
 20
9.8189547611
 30
0.0
 10
10.6790337754
 20
9.818367209
 30
0.0
 10
10.67988179
 20
9.8176323664
 30
0.0
 10
10.6808956056
 20
9.8168442268
 30
0.0
 10
10.6820673549
 20
9.8160097622
 30
0.0
 10
10.6833877773
 20
9.8151364981
 30
0.0
 10
10.6848459028
 20
9.8142324259
 30
0.0
 10
10.686429293
 20
9.8133058805
 30
0.0
 10
10.6887363958
 20
9.8120259342
 30
0.0
 10
10.6918233323
 20
9.8104394546
 30
0.0
 10
10.6943792734
 20
9.8092418776
 30
0.0
 10
10.6956979844
 20
9.8086516278
 30
0.0
  0
SPLINE
  5
4CA
100
AcDbEntity
  8
0
100
AcDbSpline
 62
9
  6
CONTINUOUS
 70
0
 71
3
 72
15
 73
11
 74
0
 42
0.0000001
 43
0.0000001
 44
0.0000000001
 40
0.0
 40
0.0
 40
0.0
 40
0.0
 40
0.1247303549
 40
0.2506231598
 40
0.3770759824
 40
0.5035015935
 40
0.629353325
 40
0.7542127899
 40
0.8777894472
 40
1.0
 40
1.0
 40
1.0
 40
1.0
 10
11.3819405265
 20
9.624608011
 30
0.0
 10
11.3894199364
 20
9.6406709863
 30
0.0
 10
11.4049117353
 20
9.6727312619
 30
0.0
 10
11.4290656808
 20
9.7205440394
 30
0.0
 10
11.4536815013
 20
9.7683907164
 30
0.0
 10
11.4781743095
 20
9.8162943178
 30
0.0
 10
11.5019687319
 20
9.864298525
 30
0.0
 10
11.524492785
 20
9.912470549
 30
0.0
 10
11.5451832718
 20
9.9609012081
 30
0.0
 10
11.5574460694
 20
9.9936127561
 30
0.0
 10
11.5630721391
 20
10.0100368528
 30
0.0
  0
LINE
  5
4CB
100
AcDbEntity
  8
0
100
AcDbLine
 62
9
  6
CONTINUOUS
 10
11.5630721393
 20
10.0100368534
 11
11.6040321833
 21
9.9951384045
  0
SPLINE
  5
4CC
100
AcDbEntity
  8
0
100
AcDbSpline
 62
7
  6
CONTINUOUS
 70
0
 71
3
 72
25
 73
21
 74
0
 42
0.0000001
 43
0.0000001
 44
0.0000000001
 40
0.0
 40
0.0
 40
0.0
 40
0.0
 40
0.0073373809
 40
0.0156086899
 40
0.0253666519
 40
0.0369355044
 40
0.0504907099
 40
0.0661199922
 40
0.0838570486
 40
0.1037032948
 40
0.1496047069
 40
0.2034624741
 40
0.2647165145
 40
0.3326639526
 40
0.4064825188
 40
0.4852451444
 40
0.5679318827
 40
0.653444868
 40
0.8282521941
 40
1.0
 40
1.0
 40
1.0
 40
1.0
 10
10.5091293716
 20
9.8980518965
 30
0.0
 10
10.5090982626
 20
9.8979824058
 30
0.0
 10
10.5090598747
 20
9.8978212661
 30
0.0
 10
10.5090802597
 20
9.8975559863
 30
0.0
 10
10.509170638
 20
9.8972606565
 30
0.0
 10
10.5093292524
 20
9.8969341992
 30
0.0
 10
10.5095555009
 20
9.8965761899
 30
0.0
 10
10.5098489852
 20
9.8961871872
 30
0.0
 10
10.5102089749
 20
9.8957681316
 30
0.0
 10
10.510806063
 20
9.8951401066
 30
0.0
 10
10.5117168438
 20
9.89429539
 30
0.0
 10
10.5130035165
 20
9.8932287682
 30
0.0
 10
10.5145168218
 20
9.8920798905
 30
0.0
 10
10.5162377689
 20
9.8908643013
 30
0.0
 10
10.518144587
 20
9.8895987127
 30
0.0
 10
10.5202124648
 20
9.8883007328
 30
0.0
 10
10.5224139423
 20
9.8869886558
 30
0.0
 10
10.5255101699
 20
9.8852328081
 30
0.0
 10
10.5294780257
 20
9.8831428452
 30
0.0
 10
10.5327263096
 20
9.8815971012
 30
0.0
 10
10.5343529413
 20
9.8808690273
 30
0.0
  0
SPLINE
  5
4CD
100
AcDbEntity
  8
0
100
AcDbSpline
 62
9
  6
CONTINUOUS
 70
0
 71
3
 72
15
 73
11
 74
0
 42
0.0000001
 43
0.0000001
 44
0.0000000001
 40
0.0
 40
0.0
 40
0.0
 40
0.0
 40
0.1253354213
 40
0.2513420865
 40
0.3776285907
 40
0.5037743882
 40
0.6293734625
 40
0.7540786973
 40
0.8776489189
 40
1.0
 40
1.0
 40
1.0
 40
1.0
 10
11.4167120721
 20
9.6090444055
 30
0.0
 10
11.4245448973
 20
9.6251890467
 30
0.0
 10
11.4407251052
 20
9.6573358636
 30
0.0
 10
11.4658938672
 20
9.7051867575
 30
0.0
 10
11.4914565487
 20
9.7529590161
 30
0.0
 10
11.5168223683
 20
9.8007707089
 30
0.0
 10
11.5414006719
 20
9.8487407146
 30
0.0
 10
11.5646001938
 20
9.8969898657
 30
0.0
 10
11.5858269449
 20
9.9456378538
 30
0.0
 10
11.5983248566
 20
9.9785770859
 30
0.0
 10
11.6040321833
 20
9.9951384045
 30
0.0
  0
SPLINE
  5
4CE
100
AcDbEntity
  8
0
100
AcDbSpline
 62
9
  6
CONTINUOUS
 70
0
 71
3
 72
117
 73
113
 74
0
 42
0.0000001
 43
0.0000001
 44
0.0000000001
 40
0.0
 40
0.0
 40
0.0
 40
0.0
 40
0.0122931025
 40
0.024625036
 40
0.0307745506
 40
0.0369000943
 40
0.0429978062
 40
0.0460372176
 40
0.0490717467
 40
0.0521033824
 40
0.0551347261
 40
0.0612041577
 40
0.0672897803
 40
0.0733918462
 40
0.0795047246
 40
0.0856198326
 40
0.0917285126
 40
0.0947784955
 40
0.0978250882
 40
0.1008684854
 40
0.1039095515
 40
0.1069494486
 40
0.1099890925
 40
0.1160698862
 40
0.1221547902
 40
0.1343335407
 40
0.1404214793
 40
0.1465029134
 40
0.1495399196
 40
0.1525740515
 40
0.158634221
 40
0.1646845473
 40
0.1707259174
 40
0.1827843538
 40
0.1948135309
 40
0.200818114
 40
0.2068161033
 40
0.2187907619
 40
0.2307342585
 40
0.2426431896
 40
0.2545143406
 40
0.2663458587
 40
0.2898846649
 40
0.3132483409
 40
0.3364233392
 40
0.3593956323
 40
0.3821522153
 40
0.4046802023
 40
0.4269657064
 40
0.4707534122
 40
0.5134077225
 40
0.5548265348
 40
0.5949112317
 40
0.6144223446
 40
0.6335621913
 40
0.6523186361
 40
0.6706838141
 40
0.6886492502
 40
0.7061980572
 40
0.7233137673
 40
0.7399922465
 40
0.7562307031
 40
0.7720170401
 40
0.7873374571
 40
0.8021826423
 40
0.8304145117
 40
0.8566462166
 40
0.8808150904
 40
0.9028606498
 40
0.9227272571
 40
0.9318290498
 40
0.9403701328
 40
0.9483459513
 40
0.9557513236
 40
0.9625811771
 40
0.9688315848
 40
0.9744983996
 40
0.9795753096
 40
0.9818907442
 40
0.9840582743
 40
0.9860792771
 40
0.9879552091
 40
0.989686532
 40
0.9912683176
 40
0.992694212
 40
0.9933471119
 40
0.9939594879
 40
0.9945316756
 40
0.9950654137
 40
0.9955622956
 40
0.9960238303
 40
0.9964523758
 40
0.9968524323
 40
0.9972322697
 40
0.9976054469
 40
0.9979857473
 40
0.9983586066
 40
0.9985326615
 40
0.9986926939
 40
0.9988342942
 40
0.9989532697
 40
0.9990462633
 40
0.9990827485
 40
0.9991132341
 40
0.9991395949
 40
0.9991654336
 40
0.999195273
 40
0.9992328071
 40
0.9993397017
 40
0.9994983472
 40
0.9997163212
 40
1.0
 40
1.0
 40
1.0
 40
1.0
 10
10.8803408603
 20
10.2873625475
 30
0.0
 10
10.8765544889
 20
10.2885306563
 30
0.0
 10
10.8689071269
 20
10.290663535
 30
0.0
 10
10.8593219449
 20
10.2932168117
 30
0.0
 10
10.8517053396
 20
10.2954323449
 30
0.0
 10
10.8460628301
 20
10.2972334013
 30
0.0
 10
10.8414328234
 20
10.298901516
 30
0.0
 10
10.837791798
 20
10.3003638108
 30
0.0
 10
10.8350980132
 20
10.3015301086
 30
0.0
 10
10.8324428969
 20
10.3027759438
 30
0.0
 10
10.8289520079
 20
10.3045396114
 30
0.0
 10
10.8246688071
 20
10.3069132013
 30
0.0
 10
10.8196335597
 20
10.3099608598
 30
0.0
 10
10.8146660144
 20
10.3131427065
 30
0.0
 10
10.8097319767
 20
10.316392971
 30
0.0
 10
10.8047972154
 20
10.3196459509
 30
0.0
 10
10.800653844
 20
10.3223056349
 30
0.0
 10
10.7973041005
 20
10.3243690541
 30
0.0
 10
10.7947719851
 20
10.3258753017
 30
0.0
 10
10.7922141646
 20
10.3273317953
 30
0.0
 10
10.7896286224
 20
10.3287339449
 30
0.0
 10
10.7870185749
 20
10.330087223
 30
0.0
 10
10.783508377
 20
10.3318317939
 30
0.0
 10
10.7790695305
 20
10.3339114332
 30
0.0
 10
10.7718847143
 20
10.3370677679
 30
0.0
 10
10.7646166163
 20
10.3400341993
 30
0.0
 10
10.7573305785
 20
10.3429506308
 30
0.0
 10
10.7527836461
 20
10.3447810975
 30
0.0
 10
10.74915949
 20
10.346267631
 30
0.0
 10
10.7455499812
 20
10.3477716556
 30
0.0
 10
10.7410578908
 20
10.3496826356
 30
0.0
 10
10.7356929766
 20
10.3520175062
 30
0.0
 10
10.7285757411
 20
10.3551705846
 30
0.0
 10
10.7197251485
 20
10.3591683767
 30
0.0
 10
10.7108967793
 20
10.3631862711
 30
0.0
 10
10.7038356904
 20
10.3663713666
 30
0.0
 10
10.6967823654
 20
10.3695308575
 30
0.0
 10
10.6879705614
 20
10.3734472987
 30
0.0
 10
10.6774084058
 20
10.3781165702
 30
0.0
 10
10.6668764781
 20
10.3827717128
 30
0.0
 10
10.6563874428
 20
10.3874345664
 30
0.0
 10
10.6424848354
 20
10.3936468552
 30
0.0
 10
10.6252149605
 20
10.4014035583
 30
0.0
 10
10.604611141
 20
10.4106615145
 30
0.0
 10
10.5841749662
 20
10.4198470434
 30
0.0
 10
10.5639201731
 20
10.4289587861
 30
0.0
 10
10.5438523296
 20
10.4379777627
 30
0.0
 10
10.5239760942
 20
10.4468830163
 30
0.0
 10
10.4979057499
 20
10.4585429208
 30
0.0
 10
10.4659122334
 20
10.472848927
 30
0.0
 10
10.4282977712
 20
10.489692781
 30
0.0
 10
10.3917742604
 20
10.5060523785
 30
0.0
 10
10.3620420047
 20
10.5193249997
 30
0.0
 10
10.3388680283
 20
10.5296720407
 30
0.0
 10
10.3219759329
 20
10.5372261242
 30
0.0
 10
10.3054300103
 20
10.5446494578
 30
0.0
 10
10.2892275657
 20
10.5519136124
 30
0.0
 10
10.2733655136
 20
10.5589853916
 30
0.0
 10
10.2578735019
 20
10.565898141
 30
0.0
 10
10.2427827663
 20
10.5726919435
 30
0.0
 10
10.2280810213
 20
10.5793208838
 30
0.0
 10
10.2137516625
 20
10.5857331128
 30
0.0
 10
10.1998147379
 20
10.5919505352
 30
0.0
 10
10.1862940947
 20
10.5979987627
 30
0.0
 10
10.169116342
 20
10.6056957793
 30
0.0
 10
10.1487304046
 20
10.6148340699
 30
0.0
 10
10.1255899292
 20
10.6251745532
 30
0.0
 10
10.1042679235
 20
10.634696849
 30
0.0
 10
10.0848272705
 20
10.6434004475
 30
0.0
 10
10.0698297161
 20
10.6501428355
 30
0.0
 10
10.0587978254
 20
10.6550903304
 30
0.0
 10
10.0512607737
 20
10.6584641798
 30
0.0
 10
10.0442206401
 20
10.6616097642
 30
0.0
 10
10.037683532
 20
10.6645290468
 30
0.0
 10
10.0316555686
 20
10.6672245179
 30
0.0
 10
10.0261396801
 20
10.6696923489
 30
0.0
 10
10.02113883
 20
10.671927799
 30
0.0
 10
10.0172984439
 20
10.6736512927
 30
0.0
 10
10.0144915045
 20
10.6749226889
 30
0.0
 10
10.012581704
 20
10.675787394
 30
0.0
 10
10.010798128
 20
10.6765873938
 30
0.0
 10
10.0091374769
 20
10.6773178654
 30
0.0
 10
10.0075977409
 20
10.677971229
 30
0.0
 10
10.0061909071
 20
10.6785662698
 30
0.0
 10
10.0051112804
 20
10.679042788
 30
0.0
 10
10.0043286042
 20
10.6794169679
 30
0.0
 10
10.0038013356
 20
10.6796870044
 30
0.0
 10
10.0033182911
 20
10.6799582127
 30
0.0
 10
10.0028741515
 20
10.6802221531
 30
0.0
 10
10.002461714
 20
10.6804695857
 30
0.0
 10
10.0020736874
 20
10.6806917785
 30
0.0
 10
10.0017024923
 20
10.6808799315
 30
0.0
 10
10.0013401619
 20
10.6810249766
 30
0.0
 10
10.0009786318
 20
10.6811170473
 30
0.0
 10
10.0006119897
 20
10.6811446612
 30
0.0
 10
10.0002500167
 20
10.6811001461
 30
0.0
 10
9.999958989
 20
10.6810314236
 30
0.0
 10
9.9997391882
 20
10.6809712856
 30
0.0
 10
9.999591553
 20
10.6809299425
 30
0.0
 10
9.9994604312
 20
10.6808952599
 30
0.0
 10
9.999349047
 20
10.6808713189
 30
0.0
 10
9.9992690005
 20
10.6808620871
 30
0.0
 10
9.9992173973
 20
10.6808661751
 30
0.0
 10
9.999188187
 20
10.6808745514
 30
0.0
 10
9.9991656058
 20
10.6808899575
 30
0.0
 10
9.999151816
 20
10.6809135008
 30
0.0
 10
9.9991479128
 20
10.6809438641
 30
0.0
 10
9.9991557094
 20
10.6809998647
 30
0.0
 10
9.9991940458
 20
10.6810908916
 30
0.0
 10
9.9992723801
 20
10.681225509
 30
0.0
 10
9.9993930076
 20
10.6814011611
 30
0.0
 10
9.9994901601
 20
10.681530407
 30
0.0
 10
9.9995459851
 20
10.6816028268
 30
0.0
  0
SPLINE
  5
4CF
100
AcDbEntity
  8
0
100
AcDbSpline
 62
7
  6
CONTINUOUS
 70
0
 71
3
 72
30
 73
26
 74
0
 42
0.0000001
 43
0.0000001
 44
0.0000000001
 40
0.0
 40
0.0
 40
0.0
 40
0.0
 40
0.0028675051
 40
0.0059910828
 40
0.0095063635
 40
0.0135076797
 40
0.0231824977
 40
0.0352965799
 40
0.0499432171
 40
0.0671343134
 40
0.0868359881
 40
0.1089863602
 40
0.133500855
 40
0.1602803066
 40
0.2201620289
 40
0.2875850335
 40
0.3613401662
 40
0.4400832641
 40
0.5223541332
 40
0.6065985499
 40
0.691190897
 40
0.774466933
 40
0.8547608885
 40
0.9304472463
 40
1.0
 40
1.0
 40
1.0
 40
1.0
 10
10.3597239026
 20
9.9663203712
 30
0.0
 10
10.3597088669
 20
9.9662867752
 30
0.0
 10
10.3596870453
 20
9.9662120142
 30
0.0
 10
10.3596812532
 20
9.9660892776
 30
0.0
 10
10.3597004198
 20
9.9659534176
 30
0.0
 10
10.3597627831
 20
9.9657411457
 30
0.0
 10
10.3599099706
 20
9.9654424007
 30
0.0
 10
10.3601694949
 20
9.9650526418
 30
0.0
 10
10.3605224247
 20
9.9646117556
 30
0.0
 10
10.3609672785
 20
9.9641217289
 30
0.0
 10
10.3615023467
 20
9.9635846935
 30
0.0
 10
10.3621251624
 20
9.9630032815
 30
0.0
 10
10.3628328037
 20
9.9623802333
 30
0.0
 10
10.3639264911
 20
9.9614633788
 30
0.0
 10
10.365481777
 20
9.9602407778
 30
0.0
 10
10.3675590023
 20
9.9587087361
 30
0.0
 10
10.36987296
 20
9.9570913655
 30
0.0
 10
10.3723806442
 20
9.9554198621
 30
0.0
 10
10.3750350728
 20
9.9537269427
 30
0.0
 10
10.3777856507
 20
9.9520462782
 30
0.0
 10
10.3805789598
 20
9.950411921
 30
0.0
 10
10.383359631
 20
9.9488575691
 30
0.0
 10
10.3860714888
 20
9.9474157078
 30
0.0
 10
10.3886588953
 20
9.9461166636
 30
0.0
 10
10.3903472952
 20
9.9453253816
 30
0.0
 10
10.3911621681
 20
9.9449606478
 30
0.0
  0
SPLINE
  5
4D0
100
AcDbEntity
  8
0
100
AcDbSpline
 62
7
  6
CONTINUOUS
 70
0
 71
3
 72
34
 73
30
 74
0
 42
0.0000001
 43
0.0000001
 44
0.0000000001
 40
0.0
 40
0.0
 40
0.0
 40
0.0
 40
0.1250019878
 40
0.1875029844
 40
0.2500040054
 40
0.3125050479
 40
0.3750060937
 40
0.4375071218
 40
0.5000080748
 40
0.5625088186
 40
0.6250090618
 40
0.6562599037
 40
0.6875107089
 40
0.7187614683
 40
0.7500121515
 40
0.7812626587
 40
0.8125128054
 40
0.8437622059
 40
0.875009703
 40
0.8906357045
 40
0.9062615669
 40
0.921887077
 40
0.9375116346
 40
0.9531334209
 40
0.9687475265
 40
0.9765622271
 40
0.9843763587
 40
0.9921889301
 40
1.0
 40
1.0
 40
1.0
 40
1.0
 10
15.2936232008
 20
6.1530096671
 30
0.0
 10
15.2982362016
 20
6.1568804343
 30
0.0
 10
15.3051545745
 20
6.1626879319
 30
0.0
 10
15.3143893505
 20
6.1704190057
 30
0.0
 10
15.3213282711
 20
6.1762019606
 30
0.0
 10
15.3282900286
 20
6.1819574431
 30
0.0
 10
15.3352875001
 20
6.1876695287
 30
0.0
 10
15.3423364843
 20
6.1933180446
 30
0.0
 10
15.3494559874
 20
6.1988776551
 30
0.0
 10
15.356668706
 20
6.2043160336
 30
0.0
 10
15.3627800536
 20
6.2087121593
 30
0.0
 10
15.3677464362
 20
6.2121181125
 30
0.0
 10
15.3715153254
 20
6.2146072935
 30
0.0
 10
15.3753341063
 20
6.2170193924
 30
0.0
 10
15.3792096987
 20
6.21933938
 30
0.0
 10
15.383150268
 20
6.2215475725
 30
0.0
 10
15.3871657264
 20
6.2236172917
 30
0.0
 10
15.3912678504
 20
6.2255101546
 30
0.0
 10
15.3947716215
 20
6.2268927073
 30
0.0
 10
15.3976330005
 20
6.2278323195
 30
0.0
 10
15.3998107069
 20
6.2284341362
 30
0.0
 10
15.4020206145
 20
6.2289063248
 30
0.0
 10
15.4042612709
 20
6.2292091609
 30
0.0
 10
15.4065221379
 20
6.2292815448
 30
0.0
 10
15.4084029866
 20
6.229067235
 30
0.0
 10
15.4098537012
 20
6.2286530453
 30
0.0
 10
15.4108911719
 20
6.2281960564
 30
0.0
 10
15.4118401205
 20
6.2275736629
 30
0.0
 10
15.412383665
 20
6.2270445931
 30
0.0
 10
15.4126255398
 20
6.2267563379
 30
0.0
  0
SPLINE
  5
4D1
100
AcDbEntity
  8
0
100
AcDbSpline
 62
7
  6
CONTINUOUS
 70
0
 71
3
 72
16
 73
12
 74
0
 42
0.0000001
 43
0.0000001
 44
0.0000000001
 40
0.0
 40
0.0
 40
0.0
 40
0.0
 40
0.0436162902
 40
0.0718757152
 40
0.1055940201
 40
0.1910095176
 40
0.3017274568
 40
0.438215992
 40
0.6003706271
 40
0.7878275325
 40
1.0
 40
1.0
 40
1.0
 40
1.0
 10
10.2491029765
 20
10.0168546156
 30
0.0
 10
10.2490848153
 20
10.016814019
 30
0.0
 10
10.2490832823
 20
10.0167355503
 30
0.0
 10
10.2491117063
 20
10.0166321629
 30
0.0
 10
10.2491709719
 20
10.0164933383
 30
0.0
 10
10.2492958731
 20
10.0162939994
 30
0.0
 10
10.2495045387
 20
10.0160262938
 30
0.0
 10
10.2497832746
 20
10.0157152482
 30
0.0
 10
10.2501309358
 20
10.0153618139
 30
0.0
 10
10.2505465125
 20
10.0149674435
 30
0.0
 10
10.250849376
 20
10.0146947693
 30
0.0
 10
10.2510115771
 20
10.0145516077
 30
0.0
  0
SPLINE
  5
4D2
100
AcDbEntity
  8
0
100
AcDbSpline
 62
7
  6
CONTINUOUS
 70
0
 71
3
 72
21
 73
17
 74
0
 42
0.0000001
 43
0.0000001
 44
0.0000000001
 40
0.0
 40
0.0
 40
0.0
 40
0.0
 40
0.0409835692
 40
0.0898727389
 40
0.1458324718
 40
0.2079115864
 40
0.2750634776
 40
0.3461629869
 40
0.4953867541
 40
0.6455231721
 40
0.7176826408
 40
0.7861782678
 40
0.8497670929
 40
0.9072815683
 40
0.9576627363
 40
1.0
 40
1.0
 40
1.0
 40
1.0
 10
10.2510115771
 20
10.0145516077
 30
0.0
 10
10.2514290838
 20
10.014183109
 30
0.0
 10
10.2523643338
 20
10.0133973811
 30
0.0
 10
10.2539178093
 20
10.0121670584
 30
0.0
 10
10.2557258333
 20
10.0107972935
 30
0.0
 10
10.2577569729
 20
10.0093117956
 30
0.0
 10
10.25997658
 20
10.007735994
 30
0.0
 10
10.2631894631
 20
10.0055143624
 30
0.0
 10
10.2673783433
 20
10.0027223663
 30
0.0
 10
10.2716371373
 20
10.0000112444
 30
0.0
 10
10.2750078771
 20
9.9979495595
 30
0.0
 10
10.2773945063
 20
9.9965331516
 30
0.0
 10
10.2796299646
 20
9.9952524866
 30
0.0
 10
10.2816730105
 20
9.9941317596
 30
0.0
 10
10.2834854582
 20
9.9931922323
 30
0.0
 10
10.2846219393
 20
9.9926476303
 30
0.0
 10
10.2851470049
 20
9.9924126131
 30
0.0
  0
SPLINE
  5
4D3
100
AcDbEntity
  8
0
100
AcDbSpline
 62
9
  6
CONTINUOUS
 70
0
 71
3
 72
25
 73
21
 74
0
 42
0.0000001
 43
0.0000001
 44
0.0000000001
 40
0.0
 40
0.0
 40
0.0
 40
0.0
 40
0.0200715411
 40
0.0413685298
 40
0.0638290328
 40
0.0873907856
 40
0.1375675199
 40
0.1913971369
 40
0.2483988386
 40
0.3081798025
 40
0.3703653785
 40
0.4345789897
 40
0.5004869523
 40
0.5679277856
 40
0.6367878406
 40
0.7069613041
 40
0.7783655856
 40
0.8509865034
 40
0.9248471982
 40
1.0
 40
1.0
 40
1.0
 40
1.0
 10
11.5428365287
 20
9.5525916004
 30
0.0
 10
11.5443895503
 20
9.5551798897
 30
0.0
 10
11.5476230508
 20
9.5604949537
 30
0.0
 10
11.5526967754
 20
9.5686435535
 30
0.0
 10
11.5581268626
 20
9.5771880589
 30
0.0
 10
11.5659877115
 20
9.5893331133
 30
0.0
 10
11.5765974194
 20
9.605317495
 30
0.0
 10
11.5902487156
 20
9.6253162907
 30
0.0
 10
11.604959291
 20
9.6463384109
 30
0.0
 10
11.620537012
 20
9.6682863208
 30
0.0
 10
11.63680173
 20
9.6910764129
 30
0.0
 10
11.6535780218
 20
9.7146334163
 30
0.0
 10
11.6707084869
 20
9.7389082813
 30
0.0
 10
11.6880474514
 20
9.7638904355
 30
0.0
 10
11.7054678522
 20
9.7895950415
 30
0.0
 10
11.7228473465
 20
9.8160440421
 30
0.0
 10
11.7400686172
 20
9.8432688711
 30
0.0
 10
11.7569673212
 20
9.8713458963
 30
0.0
 10
11.77338411
 20
9.9003580212
 30
0.0
 10
11.7838079214
 20
9.9202011663
 30
0.0
 10
11.7888877739
 20
9.930297074
 30
0.0
  0
SPLINE
  5
4D4
100
AcDbEntity
  8
0
100
AcDbSpline
 62
7
  6
CONTINUOUS
 70
0
 71
3
 72
34
 73
30
 74
0
 42
0.0000001
 43
0.0000001
 44
0.0000000001
 40
0.0
 40
0.0
 40
0.0
 40
0.0
 40
0.0078110605
 40
0.0156236219
 40
0.0234377537
 40
0.0312524565
 40
0.0468665678
 40
0.062488359
 40
0.0781129187
 40
0.0937384309
 40
0.1093642949
 40
0.1249902972
 40
0.1562377944
 40
0.1874871948
 40
0.2187373414
 40
0.2499878482
 40
0.2812385312
 40
0.3124892903
 40
0.3437400955
 40
0.3749909373
 40
0.4374911803
 40
0.4999919242
 40
0.5624928772
 40
0.6249939054
 40
0.6874949514
 40
0.749995994
 40
0.8124970151
 40
0.8749980119
 40
1.0
 40
1.0
 40
1.0
 40
1.0
 10
15.2003330764
 20
6.0486218102
 30
0.0
 10
15.2000912034
 20
6.0489100632
 30
0.0
 10
15.1996645598
 20
6.0495372168
 30
0.0
 10
15.1992164061
 20
6.0505798177
 30
0.0
 10
15.1989465132
 20
6.051680874
 30
0.0
 10
15.1987905268
 20
6.0531814627
 30
0.0
 10
15.1989060716
 20
6.0550709405
 30
0.0
 10
15.1993699425
 20
6.0572848782
 30
0.0
 10
15.2000572539
 20
6.0594388955
 30
0.0
 10
15.2009060049
 20
6.0615332239
 30
0.0
 10
15.2018768229
 20
6.0635733309
 30
0.0
 10
15.2032990191
 20
6.0662280631
 30
0.0
 10
15.2052689723
 20
6.0694385098
 30
0.0
 10
15.2078453817
 20
6.0731496019
 30
0.0
 10
15.2105809111
 20
6.0767446349
 30
0.0
 10
15.2134398051
 20
6.0802418714
 30
0.0
 10
15.2163975127
 20
6.0836557056
 30
0.0
 10
15.2194360667
 20
6.0869975968
 30
0.0
 10
15.2225418682
 20
6.0902769692
 30
0.0
 10
15.2267584485
 20
6.0945764413
 30
0.0
 10
15.2321489715
 20
6.0998315368
 30
0.0
 10
15.2387571561
 20
6.1059902803
 30
0.0
 10
15.2454685446
 20
6.1120361726
 30
0.0
 10
15.2522552428
 20
6.1179971788
 30
0.0
 10
15.2590956004
 20
6.1238964155
 30
0.0
 10
15.2659724946
 20
6.1297529443
 30
0.0
 10
15.2728724788
 20
6.135582212
 30
0.0
 10
15.2820896423
 20
6.1433341557
 30
0.0
 10
15.2890102295
 20
6.1491389245
 30
0.0
 10
15.2936232008
 20
6.1530096671
 30
0.0
  0
SPLINE
  5
4D5
100
AcDbEntity
  8
0
100
AcDbSpline
 62
9
  6
CONTINUOUS
 70
0
 71
3
 72
19
 73
15
 74
0
 42
0.0000001
 43
0.0000001
 44
0.0000000001
 40
0.0
 40
0.0
 40
0.0
 40
0.0
 40
0.0575408776
 40
0.116402816
 40
0.1764053341
 40
0.2373618051
 40
0.2990917483
 40
0.3614540643
 40
0.4875375336
 40
0.614662432
 40
0.7424501564
 40
0.8707999854
 40
0.9352641434
 40
1.0
 40
1.0
 40
1.0
 40
1.0
 10
11.4525442476
 20
9.5930060663
 30
0.0
 10
11.4559500494
 20
9.6005777014
 30
0.0
 10
11.4629994269
 20
9.6158233664
 30
0.0
 10
11.4740833588
 20
9.6387372328
 30
0.0
 10
11.4857236315
 20
9.661926112
 30
0.0
 10
11.4978366542
 20
9.6853382161
 30
0.0
 10
11.5103423915
 20
9.7089287246
 30
0.0
 10
11.527456494
 20
9.7407108878
 30
0.0
 10
11.5492330328
 20
9.7806981487
 30
0.0
 10
11.5752057426
 20
9.8291497477
 30
0.0
 10
11.6003985682
 20
9.8783826803
 30
0.0
 10
11.6201651078
 20
9.920220508
 30
0.0
 10
11.6348463065
 20
9.9543622694
 30
0.0
 10
11.6417417955
 20
9.9716853025
 30
0.0
 10
11.6450619846
 20
9.9804157766
 30
0.0
  0
LINE
  5
4D6
100
AcDbEntity
  8
0
100
AcDbLine
 62
7
  6
CONTINUOUS
 10
10.1919660395
 20
10.0429521521
 11
10.1939778667
 21
10.0412801929
  0
SPLINE
  5
4D7
100
AcDbEntity
  8
0
100
AcDbSpline
 62
7
  6
CONTINUOUS
 70
0
 71
3
 72
19
 73
15
 74
0
 42
0.0000001
 43
0.0000001
 44
0.0000000001
 40
0.0
 40
0.0
 40
0.0
 40
0.0
 40
0.0408196926
 40
0.0905624997
 40
0.1481896749
 40
0.2125262284
 40
0.3561105869
 40
0.5101915979
 40
0.663003338
 40
0.8027518605
 40
0.864196505
 40
0.9182901964
 40
0.9638858034
 40
1.0
 40
1.0
 40
1.0
 40
1.0
 10
10.1939778667
 20
10.0412801929
 30
0.0
 10
10.1944391409
 20
10.0409379448
 30
0.0
 10
10.1954693088
 20
10.0401877898
 30
0.0
 10
10.1971666744
 20
10.0389765924
 30
0.0
 10
10.1991428405
 20
10.0375865057
 30
0.0
 10
10.2022097743
 20
10.0354520909
 30
0.0
 10
10.2064081222
 20
10.03256755
 30
0.0
 10
10.2116526249
 20
10.0290074258
 30
0.0
 10
10.2168715124
 20
10.0255058317
 30
0.0
 10
10.2210254731
 20
10.0227566866
 30
0.0
 10
10.224035829
 20
10.0207967285
 30
0.0
 10
10.2259439312
 20
10.0195719715
 30
0.0
 10
10.2275613689
 20
10.0185543799
 30
0.0
 10
10.2285426719
 20
10.0179550858
 30
0.0
 10
10.2289799373
 20
10.0176961836
 30
0.0
  0
LINE
  5
4D8
100
AcDbEntity
  8
0
100
AcDbLine
 62
7
  6
CONTINUOUS
 10
10.2289799373
 20
10.0176961836
 11
10.2303904158
 21
10.0169214445
  0
LINE
  5
4D9
100
AcDbEntity
  8
0
100
AcDbLine
 62
7
  6
CONTINUOUS
 10
11.9428838868
 20
9.3975795884
 11
12.0874826
 21
9.518910909
  0
SPLINE
  5
4DA
100
AcDbEntity
  8
0
100
AcDbSpline
 62
9
  6
CONTINUOUS
 70
0
 71
3
 72
46
 73
42
 74
0
 42
0.0000001
 43
0.0000001
 44
0.0000000001
 40
0.0
 40
0.0
 40
0.0
 40
0.0
 40
0.0001584725
 40
0.0002927176
 40
0.0004696456
 40
0.0006907325
 40
0.0009566101
 40
0.0012675435
 40
0.0016236158
 40
0.0024710256
 40
0.0034981529
 40
0.0047038348
 40
0.0060867084
 40
0.0093780791
 40
0.0133599438
 40
0.0180195257
 40
0.0233438726
 40
0.0293199552
 40
0.0359347152
 40
0.0431750903
 40
0.0510280297
 40
0.0594805037
 40
0.0685195102
 40
0.0883052595
 40
0.1102819957
 40
0.134347114
 40
0.160398785
 40
0.1883360386
 40
0.2180588483
 40
0.2494682206
 40
0.2824662917
 40
0.3169564324
 40
0.3528433631
 40
0.3900332812
 40
0.4679531224
 40
0.5500021722
 40
0.6354994249
 40
0.7238053193
 40
0.814330541
 40
0.9065468099
 40
1.0
 40
1.0
 40
1.0
 40
1.0
 10
11.7160424498
 20
10.4961129893
 30
0.0
 10
11.7160149446
 20
10.4961098793
 30
0.0
 10
11.7159792546
 20
10.4960591016
 30
0.0
 10
11.7159519524
 20
10.4959852723
 30
0.0
 10
11.7159279926
 20
10.4958940764
 30
0.0
 10
11.7159071195
 20
10.4957803947
 30
0.0
 10
11.7158880507
 20
10.4956421481
 30
0.0
 10
11.7158712616
 20
10.4954800968
 30
0.0
 10
11.7158504777
 20
10.4952163497
 30
0.0
 10
11.7158312745
 20
10.4948271438
 30
0.0
 10
11.7158170686
 20
10.49428928
 30
0.0
 10
11.7158104637
 20
10.4936577413
 30
0.0
 10
11.7158114075
 20
10.4926306765
 30
0.0
 10
11.715832164
 20
10.4911188026
 30
0.0
 10
11.715879204
 20
10.4890350131
 30
0.0
 10
11.7159470007
 20
10.4865965337
 30
0.0
 10
11.7160322647
 20
10.4838100925
 30
0.0
 10
11.7161317795
 20
10.480682418
 30
0.0
 10
11.7162422289
 20
10.4772202486
 30
0.0
 10
11.7163602879
 20
10.4734303237
 30
0.0
 10
11.7164826116
 20
10.4693193844
 30
0.0
 10
11.7166058428
 20
10.4648941711
 30
0.0
 10
11.7167719743
 20
10.4583850496
 30
0.0
 10
11.7169615201
 20
10.4495134909
 30
0.0
 10
11.7171321857
 20
10.4380165175
 30
0.0
 10
11.717225647
 20
10.4254241158
 30
0.0
 10
11.7172149801
 20
10.4117902064
 30
0.0
 10
11.7170732563
 20
10.3971687056
 30
0.0
 10
11.71677352
 20
10.3816135268
 30
0.0
 10
11.716288805
 20
10.3651785811
 30
0.0
 10
11.7155921368
 20
10.3479177722
 30
0.0
 10
11.7146565333
 20
10.3298850156
 30
0.0
 10
11.7134550138
 20
10.3111341613
 30
0.0
 10
11.711430785
 20
10.2848366711
 30
0.0
 10
11.7080805773
 20
10.2505571192
 30
0.0
 10
11.702630086
 20
10.2080221712
 30
0.0
 10
11.6954730866
 20
10.1638997404
 30
0.0
 10
11.6863934331
 20
10.118619028
 30
0.0
 10
11.6751741309
 20
10.0726078258
 30
0.0
 10
11.6615983206
 20
10.0262959016
 30
0.0
 10
11.6508863645
 20
9.9956648444
 30
0.0
 10
11.6450619846
 20
9.9804157766
 30
0.0
  0
SPLINE
  5
4DB
100
AcDbEntity
  8
0
100
AcDbSpline
 62
7
  6
CONTINUOUS
 70
0
 71
3
 72
13
 73
9
 74
0
 42
0.0000001
 43
0.0000001
 44
0.0000000001
 40
0.0
 40
0.0
 40
0.0
 40
0.0
 40
0.2609205377
 40
0.3895453703
 40
0.5165098696
 40
0.6414501568
 40
0.7639694384
 40
1.0
 40
1.0
 40
1.0
 40
1.0
 10
11.6040335767
 20
9.995142448
 30
0.0
 10
11.6117341956
 20
10.0174881948
 30
0.0
 10
11.6218512933
 20
10.0513424738
 30
0.0
 10
11.6328052485
 20
10.0968350426
 30
0.0
 10
11.6397550092
 20
10.1306041683
 30
0.0
 10
11.6455628026
 20
10.1640254496
 30
0.0
 10
11.6518203858
 20
10.2073771836
 30
0.0
 10
11.6551907236
 20
10.2396987407
 30
0.0
 10
11.6569016187
 20
10.2610109235
 30
0.0
  0
SPLINE
  5
4DC
100
AcDbEntity
  8
0
100
AcDbSpline
 62
9
  6
CONTINUOUS
 70
0
 71
3
 72
43
 73
39
 74
0
 42
0.0000001
 43
0.0000001
 44
0.0000000001
 40
0.0
 40
0.0
 40
0.0
 40
0.0
 40
0.1154478965
 40
0.2245318933
 40
0.3271043709
 40
0.4230172104
 40
0.5121218125
 40
0.5942691162
 40
0.669309616
 40
0.7370933788
 40
0.79747006
 40
0.824833666
 40
0.8502889424
 40
0.8738169871
 40
0.8953988751
 40
0.9150156586
 40
0.9326483679
 40
0.9482780114
 40
0.9618855762
 40
0.9679251324
 40
0.9734520296
 40
0.9784638853
 40
0.9829583158
 40
0.9869329361
 40
0.9903853601
 40
0.9933132003
 40
0.9957140681
 40
0.9967161405
 40
0.9975855736
 40
0.9983220684
 40
0.9989253258
 40
0.9993950469
 40
0.9995797378
 40
0.9997309324
 40
0.9998485933
 40
0.9999326832
 40
0.9999831646
 40
1.0
 40
1.0
 40
1.0
 40
1.0
 10
11.6571846888
 20
10.4841284598
 30
0.0
 10
11.657042314
 20
10.4859395025
 30
0.0
 10
11.6567575707
 20
10.4894611458
 30
0.0
 10
11.6563197625
 20
10.4945896595
 30
0.0
 10
11.6558869242
 20
10.4994100381
 30
0.0
 10
11.6554628
 20
10.5039155046
 30
0.0
 10
11.655051134
 20
10.5080992835
 30
0.0
 10
11.6546556705
 20
10.5119545992
 30
0.0
 10
11.6542801538
 20
10.5154746759
 30
0.0
 10
11.6539283267
 20
10.5186527373
 30
0.0
 10
11.6536495641
 20
10.5210840643
 30
0.0
 10
11.6534414213
 20
10.5228530509
 30
0.0
 10
11.6532987671
 20
10.524045909
 30
0.0
 10
11.6531648414
 20
10.5251481824
 30
0.0
 10
11.6530401118
 20
10.5261590241
 30
0.0
 10
11.6529250465
 20
10.5270775869
 30
0.0
 10
11.6528201135
 20
10.527903024
 30
0.0
 10
11.6527257807
 20
10.5286344883
 30
0.0
 10
11.6526537951
 20
10.5291848988
 30
0.0
 10
11.6526018809
 20
10.5295776081
 30
0.0
 10
11.6525674635
 20
10.5298361958
 30
0.0
 10
11.6525360472
 20
10.530070655
 30
0.0
 10
11.6525076903
 20
10.53028088
 30
0.0
 10
11.6524824515
 20
10.5304667648
 30
0.0
 10
11.6524603892
 20
10.5306282035
 30
0.0
 10
11.6524415619
 20
10.5307650904
 30
0.0
 10
11.6524279038
 20
10.5308637676
 30
0.0
 10
11.6524186418
 20
10.5309303547
 30
0.0
 10
11.6524129695
 20
10.5309709984
 30
0.0
 10
11.6524081531
 20
10.5310054274
 30
0.0
 10
11.6524041876
 20
10.5310336184
 30
0.0
 10
11.652401443
 20
10.5310532274
 30
0.0
 10
11.6523996478
 20
10.5310657608
 30
0.0
 10
11.6523986972
 20
10.5310728667
 30
0.0
 10
11.6523977931
 20
10.5310782637
 30
0.0
 10
11.6523975196
 20
10.5310824242
 30
0.0
 10
11.6523966866
 20
10.5310843779
 30
0.0
 10
11.6523970532
 20
10.5310858461
 30
0.0
 10
11.652396804
 20
10.531085936
 30
0.0
  0
SPLINE
  5
4DD
100
AcDbEntity
  8
0
100
AcDbSpline
 62
9
  6
CONTINUOUS
 70
0
 71
3
 72
45
 73
41
 74
0
 42
0.0000001
 43
0.0000001
 44
0.0000000001
 40
0.0
 40
0.0
 40
0.0
 40
0.0
 40
0.000143029
 40
0.0002937148
 40
0.0004649029
 40
0.0006653985
 40
0.0011731729
 40
0.0018404647
 40
0.0026755838
 40
0.0036818251
 40
0.004860315
 40
0.0062111149
 40
0.0077337078
 40
0.0094272383
 40
0.0112906403
 40
0.0133227105
 40
0.0178875733
 40
0.0231108273
 40
0.0289808431
 40
0.035485675
 40
0.0426131934
 40
0.0503511604
 40
0.0676092049
 40
0.0871611182
 40
0.1089081717
 40
0.1327519061
 40
0.158594312
 40
0.1863379573
 40
0.2158860912
 40
0.247142737
 40
0.2800127833
 40
0.314402075
 40
0.3873661078
 40
0.465305238
 40
0.5475114789
 40
0.6333037228
 40
0.7220332904
 40
0.8130907465
 40
0.9059142817
 40
1.0
 40
1.0
 40
1.0
 40
1.0
 10
11.913737244
 20
10.3738393796
 30
0.0
 10
11.9137155912
 20
10.3738436653
 30
0.0
 10
11.9136692984
 20
10.3738451552
 30
0.0
 10
11.9135997373
 20
10.3738237634
 30
0.0
 10
11.9135308863
 20
10.3737805448
 30
0.0
 10
11.9134313344
 20
10.373687469
 30
0.0
 10
11.9133090122
 20
10.3735118411
 30
0.0
 10
11.9131679115
 20
10.3732352943
 30
0.0
 10
11.9130220658
 20
10.3728762217
 30
0.0
 10
11.9128713534
 20
10.3724350982
 30
0.0
 10
11.9127156723
 20
10.3719120399
 30
0.0
 10
11.9125549065
 20
10.371307694
 30
0.0
 10
11.9123888986
 20
10.3706226913
 30
0.0
 10
11.9122174709
 20
10.3698577425
 30
0.0
 10
11.9120404166
 20
10.3690135715
 30
0.0
 10
11.9117866056
 20
10.3677328256
 30
0.0
 10
11.9114568006
 20
10.3659386697
 30
0.0
 10
11.9110484013
 20
10.3635569741
 30
0.0
 10
11.9106119132
 20
10.3608764476
 30
0.0
 10
11.9101455435
 20
10.357903108
 30
0.0
 10
11.9096475043
 20
10.3546429733
 30
0.0
 10
11.9089116712
 20
10.3497404546
 30
0.0
 10
11.9079066345
 20
10.342939501
 30
0.0
 10
11.9065835084
 20
10.3340001406
 30
0.0
 10
11.9050888346
 20
10.3240587799
 30
0.0
 10
11.9034077683
 20
10.3131638209
 30
0.0
 10
11.9015254875
 20
10.3013636702
 30
0.0
 10
11.8994270686
 20
10.2887067551
 30
0.0
 10
11.8970975612
 20
10.2752415062
 30
0.0
 10
11.8945219876
 20
10.261016364
 30
0.0
 10
11.8916853469
 20
10.2460797444
 30
0.0
 10
11.8874508278
 20
10.2248580112
 30
0.0
 10
11.8814279309
 20
10.1969020628
 30
0.0
 10
11.8730544966
 20
10.1619122493
 30
0.0
 10
11.8632790788
 20
10.1252338517
 30
0.0
 10
11.8519815596
 20
10.0872531376
 30
0.0
 10
11.8390415813
 20
10.0483560523
 30
0.0
 10
11.8243381987
 20
10.0089278184
 30
0.0
 10
11.8077507308
 20
9.9693548553
 30
0.0
 10
11.7954175899
 20
9.9432655957
 30
0.0
 10
11.7888877739
 20
9.930297074
 30
0.0
  0
LINE
  5
4DE
100
AcDbEntity
  8
0
100
AcDbLine
 62
7
  6
CONTINUOUS
 10
15.2024103544
 20
6.1853647495
 11
15.1774841806
 21
6.2101189873
  0
SPLINE
  5
4DF
100
AcDbEntity
  8
0
100
AcDbSpline
 62
7
  6
CONTINUOUS
 70
0
 71
3
 72
14
 73
10
 74
0
 42
0.0000001
 43
0.0000001
 44
0.0000000001
 40
0.0
 40
0.0
 40
0.0
 40
0.0
 40
0.128653951
 40
0.2563460689
 40
0.3830302118
 40
0.5086723053
 40
0.6332290603
 40
0.7566629186
 40
1.0
 40
1.0
 40
1.0
 40
1.0
 10
11.8965309691
 20
9.8877636203
 30
0.0
 10
11.8920074955
 20
9.8898115631
 30
0.0
 10
11.8829772353
 20
9.8938545468
 30
0.0
 10
11.8694087418
 20
9.8997246163
 30
0.0
 10
11.8558525467
 20
9.9053253657
 30
0.0
 10
11.8423373184
 20
9.910704277
 30
0.0
 10
11.8288856775
 20
9.9159017753
 30
0.0
 10
11.8111233694
 20
9.9225431113
 30
0.0
 10
11.7977785894
 20
9.9272708666
 30
0.0
 10
11.7888877739
 20
9.930297074
 30
0.0
  0
LINE
  5
4E0
100
AcDbEntity
  8
0
100
AcDbLine
 62
7
  6
CONTINUOUS
 10
11.298835016
 20
9.6035070142
 11
11.2994920165
 21
9.6030565555
  0
SPLINE
  5
4E1
100
AcDbEntity
  8
0
100
AcDbSpline
 62
7
  6
CONTINUOUS
 70
0
 71
3
 72
21
 73
17
 74
0
 42
0.0000001
 43
0.0000001
 44
0.0000000001
 40
0.0
 40
0.0
 40
0.0
 40
0.0
 40
0.1276831074
 40
0.2547762825
 40
0.3811801747
 40
0.4440973265
 40
0.5068110068
 40
0.5693116537
 40
0.6315893104
 40
0.693632518
 40
0.7554297801
 40
0.7862332957
 40
0.8169720519
 40
0.8782527773
 40
0.9392656635
 40
1.0
 40
1.0
 40
1.0
 40
1.0
 10
12.0411207632
 20
9.810082942
 30
0.0
 10
12.0351981936
 20
9.813798373
 30
0.0
 10
12.0233207898
 20
9.8211175293
 30
0.0
 10
12.0053758686
 20
9.8317788467
 30
0.0
 10
11.9903355863
 20
9.8403814993
 30
0.0
 10
11.9782680593
 20
9.8470774269
 30
0.0
 10
11.9692176505
 20
9.851998106
 30
0.0
 10
11.960157147
 20
9.8568261146
 30
0.0
 10
11.9510904505
 20
9.8615637252
 30
0.0
 10
11.94201771
 20
9.8662058462
 30
0.0
 10
11.9344411082
 20
9.8699876145
 30
0.0
 10
11.9283732955
 20
9.8729531183
 30
0.0
 10
11.9223132597
 20
9.875869853
 30
0.0
 10
11.9147322133
 20
9.8794401844
 30
0.0
 10
11.905630176
 20
9.8836348393
 30
0.0
 10
11.8995605587
 20
9.8863920136
 30
0.0
 10
11.8965309691
 20
9.8877636203
 30
0.0
  0
ENDSEC
  0
SECTION
  2
OBJECTS
  0
DICTIONARY
  5
C
100
AcDbDictionary
280
0
281
1
  3
ACAD_GROUP
350
D
  3
ACAD_MLINESTYLE
350
17
  3
ACAD_LAYOUT
350
1A
  3
ACAD_PLOTSETTINGS
350
19
  3
ACAD_PLOTSTYLENAME
350
E
  0
DICTIONARY
  5
D
102
{ACAD_REACTORS
330
C
102
}
100
AcDbDictionary
280
0
281
1
  0
ACDBDICTIONARYWDFLT
  5
E
102
{ACAD_REACTORS
330
C
102
}
100
AcDbDictionary
281
1
  3
Normal
350
F
100
AcDbDictionaryWithDefault
340
F
  0
DICTIONARY
  5
17
102
{ACAD_REACTORS
330
C
102
}
100
AcDbDictionary
280
0
281
1
  3
Standard
350
18
  0
DICTIONARY
  5
19
102
{ACAD_REACTORS
330
C
102
}
100
AcDbDictionary
281
1
  0
DICTIONARY
  5
1A
102
{ACAD_REACTORS
330
C
102
}
100
AcDbDictionary
281
1
  3
Model
350
4E2
  3
Layout1
350
4E3
  0
ACDBPLACEHOLDER
  5
F
102
{ACAD_REACTORS
330
E
102
}
  0
MLINESTYLE
  5
18
102
{ACAD_REACTORS
330
17
102
}
100
AcDbMlineStyle
  2
STANDARD
 70
0
  3

 62
256
 51
90.0
 52
90.0
 71
2
 49
0.5
 62
256
  6
BYLAYER
 49
-0.5
 62
256
  6
BYLAYER
  0
LAYOUT
  5
4E2
102
{ACAD_REACTORS
330
1A
102
}
100
AcDbPlotSettings
  1

  2
none_device
  4
ANSI_C_(22.00_x_17.00_Inches)
  6

 40
0.0
 41
0.0
 42
0.0
 43
0.0
 44
558.8
 45
431.8
 46
0.0
 47
0.0
 48
0.0
 49
0.0
140
0.0
141
0.0
142
1.0
143
1.0
 70
1024
 72
0
 73
0
 74
0
  7

 75
0
147
1.0
148
0.0
149
0.0
100
AcDbLayout
  1
Model
 70
0
 71
0
 10
0.0
 20
0.0
 11
22.0
 21
17.0
 12
0.0
 22
0.0
 32
0.0
 14
0.0
 24
0.0
 34
0.0
 15
0.0
 25
0.0
 35
0.0
146
0.0
 13
0.0
 23
0.0
 33
0.0
 16
1.0
 26
0.0
 36
0.0
 17
0.0
 27
1.0
 37
0.0
 76
0
330
205
345
0
346
0
  0
LAYOUT
  5
4E3
102
{ACAD_REACTORS
330
1A
102
}
100
AcDbPlotSettings
  1

  2
none_device
  4
ANSI_C_(22.00_x_17.00_Inches)
  6

 40
0.0
 41
0.0
 42
0.0
 43
0.0
 44
558.8
 45
431.8
 46
0.0
 47
0.0
 48
0.0
 49
0.0
140
0.0
141
0.0
142
1.0
143
1.0
 70
0
 72
0
 73
0
 74
0
  7

 75
0
147
1.0
148
0.0
149
0.0
100
AcDbLayout
  1
Layout1
 70
0
 71
1
 10
0.0
 20
0.0
 11
22.0
 21
17.0
 12
0.0
 22
0.0
 32
0.0
 14
0.0
 24
0.0
 34
0.0
 15
0.0
 25
0.0
 35
0.0
146
0.0
 13
0.0
 23
0.0
 33
0.0
 16
1.0
 26
0.0
 36
0.0
 17
0.0
 27
1.0
 37
0.0
 76
0
330
206
345
0
346
0
  0
ENDSEC
  0
EOF
