999
DXF file: E:\BT Custom\CADOUTPUT\_TOP.dxf
999
Pro/ENGINEER 2018400 by Parametric Technology Corporation
  0
SECTION
  2
HEADER
  9
$ACADVER
  1
AC1018
  9
$DWGCODEPAGE
  3
ANSI_1252
  9
$EXTMAX
 10
22.0
 20
17.0
 30
0.0
  9
$EXTMIN
 10
0.0
 20
0.0
 30
0.0
  9
$LIMMIN
 10
0.0
 20
0.0
  9
$LIMMAX
 10
22.0
 20
17.0
  9
$VIEWCTR
 10
11.0
 20
8.5
  9
$VIEWSIZE
 40
17.0
  9
$CLAYER
  8
0
  9
$LTSCALE
 40
1.21
  9
$CELTYPE
  6
BYLAYER
  9
$DIMSCALE
 40
1.0
  9
$DIMASZ
 40
0.1
  9
$DIMEXO
 40
0.0625
  9
$DIMDLI
 40
0.836
  9
$DIMEXE
 40
0.125
  9
$DIMCEN
 40
0.198
  9
$DIMLFAC
 40
1.0
  9
$DIMBLK
  1
_FILLED
  9
$DIMALT
 70
1
  9
$DIMALTD
 70
2
  9
$DIMALTTD
 70
2
  9
$DIMALTF
 40
25.4
  9
$DIMTXT
 40
0.08
  9
$DIMTOL
 70
1
  9
$DIMLIM
 70
0
  9
$DIMTFAC
 40
1.0
  9
$DIMTP
 40
0.001
  9
$DIMTM
 40
0.001
  9
$DIMGAP
 40
0.09
  9
$DIMDSEP
 70
46
  9
$AUNITS
 70
0
  9
$PDMODE
 70
3
  9
$PDSIZE
 40
0.06
  9
$HANDSEED
  5
4A2
  9
$TILEMODE
 70
1
  9
$MEASUREMENT
 70
0
  9
$INSUNITS
 70
1
  0
ENDSEC
  0
SECTION
  2
CLASSES
  0
CLASS
  1
ACDBDICTIONARYWDFLT
  2
AcDbDictionaryWithDefault
  3
AutoCAD 2000
 90
0
 91
1
280
0
281
0
  0
CLASS
  1
ACDBPLACEHOLDER
  2
AcDbPlaceHolder
  3
AutoCAD 2000
 90
0
 91
1
280
0
281
0
  0
CLASS
  1
LAYOUT
  2
AcDbLayout
  3
AutoCAD 2000
 90
0
 91
0
280
0
281
0
  0
ENDSEC
  0
SECTION
  2
TABLES
  0
TABLE
  2
VPORT
  5
8
100
AcDbSymbolTable
 70
2
  0
VPORT
  5
1F4
100
AcDbSymbolTableRecord
100
AcDbViewportTableRecord
  2
*ACTIVE
 70
0
 10
0.0
 20
0.0
 11
1.0
 21
1.0
 12
11.0
 22
8.5
 13
0.0
 23
0.0
 14
1.0
 24
1.0
 15
0.0
 25
0.0
 16
0.0
 26
0.0
 36
1.0
 17
0.0
 27
0.0
 37
0.0
 40
17.0
 41
1.2941176471
 42
50.0
 43
0.0
 44
0.0
 50
0.0
 51
0.0
 71
0
 72
100
 73
1
 74
1
 75
0
 76
0
 77
0
 78
0
  0
ENDTAB
  0
TABLE
  2
LTYPE
  5
5
100
AcDbSymbolTable
 70
6
  0
LTYPE
  5
14
100
AcDbSymbolTableRecord
100
AcDbLinetypeTableRecord
  2
BYBLOCK
 70
0
  3

 72
65
 73
0
 40
0.0
  0
LTYPE
  5
15
100
AcDbSymbolTableRecord
100
AcDbLinetypeTableRecord
  2
BYLAYER
 70
0
  3

 72
65
 73
0
 40
0.0
  0
LTYPE
  5
16
100
AcDbSymbolTableRecord
100
AcDbLinetypeTableRecord
  2
CONTINUOUS
 70
64
  3
Solid line
 72
65
 73
0
 40
0.0
  0
LTYPE
  5
1F5
100
AcDbSymbolTableRecord
100
AcDbLinetypeTableRecord
  2
CENTER
 70
64
  3
____ _ ____ _ ____ _ ____ _ ____ _ ____ _ ____
 72
65
 73
4
 40
0.6
 49
0.375
 74
0
 49
-0.075
 74
0
 49
0.075
 74
0
 49
-0.075
 74
0
  0
LTYPE
  5
1F6
100
AcDbSymbolTableRecord
100
AcDbLinetypeTableRecord
  2
HIDDEN
 70
64
  3
- - - - - - - - - - - - - - - - - - - -
 72
65
 73
2
 40
0.2
 49
0.1
 74
0
 49
-0.1
 74
0
  0
LTYPE
  5
1F7
100
AcDbSymbolTableRecord
100
AcDbLinetypeTableRecord
  2
PHANTOM
 70
64
  3
_____ _ _ _____ _ _ _____ _ _ _____
 72
65
 73
6
 40
0.8
 49
0.45
 74
0
 49
-0.05
 74
0
 49
0.1
 74
0
 49
-0.05
 74
0
 49
0.1
 74
0
 49
-0.05
 74
0
  0
LTYPE
  5
1F8
100
AcDbSymbolTableRecord
100
AcDbLinetypeTableRecord
  2
DOT
 70
64
  3
. . . . . . . . . . . . . . . . . . . .
 72
65
 73
2
 40
0.2
 49
0.1
 74
0
 49
-0.1
 74
0
  0
LTYPE
  5
1F9
100
AcDbSymbolTableRecord
100
AcDbLinetypeTableRecord
  2
DASHED
 70
64
  3
- - - - - - - - - - - - - - - - - - - -
 72
65
 73
2
 40
0.2
 49
0.1
 74
0
 49
-0.1
 74
0
  0
ENDTAB
  0
TABLE
  2
LAYER
  5
2
100
AcDbSymbolTable
 70
36
  0
LAYER
  5
10
100
AcDbSymbolTableRecord
100
AcDbLayerTableRecord
  2
0
 70
0
 62
7
  6
CONTINUOUS
370
-3
390
F
  0
LAYER
  5
1FA
100
AcDbSymbolTableRecord
100
AcDbLayerTableRecord
  2
DEFAULT_1
 70
0
 62
7
  6
CENTER
370
-3
390
F
  0
LAYER
  5
1FB
100
AcDbSymbolTableRecord
100
AcDbLayerTableRecord
  2
DEFAULT_2
 70
0
 62
8
  6
HIDDEN
370
-3
390
F
  0
LAYER
  5
1FC
100
AcDbSymbolTableRecord
100
AcDbLayerTableRecord
  2
DEFAULT_3
 70
0
 62
7
  6
PHANTOM
370
-3
390
F
  0
LAYER
  5
1FD
100
AcDbSymbolTableRecord
100
AcDbLayerTableRecord
  2
ALL_FEATURES
 70
0
 62
7
  6
CONTINUOUS
370
-3
390
F
  0
LAYER
  5
1FE
100
AcDbSymbolTableRecord
100
AcDbLayerTableRecord
  2
AXES_FEATURES
 70
0
 62
7
  6
CONTINUOUS
370
-3
390
F
  0
LAYER
  5
1FF
100
AcDbSymbolTableRecord
100
AcDbLayerTableRecord
  2
DEFAULT_COORDINATE_SYSTEM
 70
0
 62
7
  6
CONTINUOUS
370
-3
390
F
  0
LAYER
  5
200
100
AcDbSymbolTableRecord
100
AcDbLayerTableRecord
  2
DEFAULT_DATUM_AXES
 70
0
 62
7
  6
CONTINUOUS
370
-3
390
F
  0
LAYER
  5
201
100
AcDbSymbolTableRecord
100
AcDbLayerTableRecord
  2
DEFAULT_DATUM_PLANES
 70
0
 62
7
  6
CONTINUOUS
370
-3
390
F
  0
LAYER
  5
202
100
AcDbSymbolTableRecord
100
AcDbLayerTableRecord
  2
DIMENSIONS
 70
0
 62
7
  6
CONTINUOUS
370
-3
390
F
  0
ENDTAB
  0
TABLE
  2
STYLE
  5
3
100
AcDbSymbolTable
 70
1
  0
STYLE
  5
11
100
AcDbSymbolTableRecord
100
AcDbTextStyleTableRecord
  2
STANDARD
 70
0
 40
0.0
 41
0.8
 50
0.0
 71
0
 42
0.2
  3
txt
  4

  0
STYLE
  5
203
100
AcDbSymbolTableRecord
100
AcDbTextStyleTableRecord
  2
TEXTSTYLE_1
 70
0
 40
0.0
 41
0.8
 50
0.0
 71
0
 42
0.2
  3
gdt
  4

  0
ENDTAB
  0
TABLE
  2
VIEW
  5
6
100
AcDbSymbolTable
 70
0
  0
ENDTAB
  0
TABLE
  2
UCS
  5
7
100
AcDbSymbolTable
 70
0
  0
ENDTAB
  0
TABLE
  2
APPID
  5
9
100
AcDbSymbolTable
 70
1
  0
APPID
  5
204
100
AcDbSymbolTableRecord
100
AcDbRegAppTableRecord
  2
ACAD
 70
0
  0
ENDTAB
  0
TABLE
  2
BLOCK_RECORD
  5
1
100
AcDbSymbolTable
 70
0
  0
BLOCK_RECORD
  5
205
100
AcDbSymbolTableRecord
100
AcDbBlockTableRecord
  2
*Model_Space
  0
BLOCK_RECORD
  5
206
100
AcDbSymbolTableRecord
100
AcDbBlockTableRecord
  2
*Paper_Space
  0
BLOCK_RECORD
  5
207
100
AcDbSymbolTableRecord
100
AcDbBlockTableRecord
  2
_FILLED
  0
ENDTAB
  0
TABLE
  2
DIMSTYLE
  5
A
100
AcDbSymbolTable
 70
1
100
AcDbDimStyleTable
 71
0
  0
DIMSTYLE
105
208
100
AcDbSymbolTableRecord
100
AcDbDimStyleTableRecord
  2
STANDARD
 70
0
  3

  4

 40
1.0
 41
0.1
 42
0.0625
 43
0.38
 44
0.125
 45
0.0
 46
0.0
 47
0.001
 48
0.001
140
0.08
141
0.09
142
0.0
143
25.4
144
1.0
145
0.0
146
1.0
147
0.09
 71
1.0
 72
0.0
 73
1
 74
1
 75
0
 76
0
 77
0
 78
4
 79
1
170
1
171
2
172
0
173
0
174
0
175
0
176
0
177
0
178
0
270
2
179
3
271
3
272
3
273
2
274
2
275
0
280
0
281
0
282
0
283
1
284
4
285
0
286
0
287
3
288
0
340
11
278
46
341
207
342
207
343
207
344
207
  0
ENDTAB
  0
ENDSEC
  0
SECTION
  2
BLOCKS
  0
BLOCK
  5
20
100
AcDbEntity
  8
0
100
AcDbBlockBegin
  2
*Model_Space
 70
0
 10
0.0
 20
0.0
 30
0.0
  3
*Model_Space
  1

  0
ENDBLK
  5
21
100
AcDbEntity
  8
0
100
AcDbBlockEnd
  0
BLOCK
  5
1C
100
AcDbEntity
  8
0
100
AcDbBlockBegin
  2
*Paper_Space
 70
0
 10
0.0
 20
0.0
 30
0.0
  3
*Paper_Space
  1

  0
ENDBLK
  5
1D
100
AcDbEntity
  8
0
100
AcDbBlockEnd
  0
BLOCK
  5
209
100
AcDbEntity
  8
0
100
AcDbBlockBegin
  2
_FILLED
 70
64
 10
0.0
 20
0.0
  3
_FILLED
  1

  0
SOLID
  5
20A
100
AcDbEntity
  8
0
  6
BYBLOCK
 62
0
100
AcDbTrace
 10
0.0
 20
0.0
 11
-1.0
 21
0.2
 12
-1.0
 22
-0.2
 13
-1.0
 23
-0.2
  0
ENDBLK
  5
20B
100
AcDbEntity
  8
0
  6
BYBLOCK
 62
0
100
AcDbBlockEnd
  0
ENDSEC
  0
SECTION
  2
ENTITIES
  0
LINE
  5
20C
100
AcDbEntity
  8
0
100
AcDbLine
 62
7
  6
CONTINUOUS
 10
-2.0403640413
 20
12.9264054058
 11
-2.0403640413
 21
12.4034054058
  0
LINE
  5
20D
100
AcDbEntity
  8
0
100
AcDbLine
 62
7
  6
CONTINUOUS
 10
-2.0203640413
 20
12.9464054058
 11
-2.0203640413
 21
12.3834054058
  0
LINE
  5
20E
100
AcDbEntity
  8
0
100
AcDbLine
 62
7
  6
CONTINUOUS
 10
-1.9403640413
 20
12.3834054058
 11
-1.9403640413
 21
12.9464054058
  0
LINE
  5
20F
100
AcDbEntity
  8
0
100
AcDbLine
 62
7
  6
CONTINUOUS
 10
-2.0203640413
 20
12.9464054058
 11
-2.0403640413
 21
12.9264054058
  0
LINE
  5
210
100
AcDbEntity
  8
0
100
AcDbLine
 62
7
  6
CONTINUOUS
 10
0.6039363163
 20
12.8829035047
 11
0.8571047554
 21
13.3214041042
  0
LINE
  5
211
100
AcDbEntity
  8
0
100
AcDbLine
 62
7
  6
CONTINUOUS
 10
1.3351359587
 20
12.7489054058
 11
1.3261359587
 21
12.7273906872
  0
LINE
  5
212
100
AcDbEntity
  8
0
100
AcDbLine
 62
7
  6
CONTINUOUS
 10
0.3486359587
 20
12.9464054058
 11
0.3486359587
 21
12.3834054058
  0
LINE
  5
213
100
AcDbEntity
  8
0
100
AcDbLine
 62
7
  6
CONTINUOUS
 10
0.4536359587
 20
12.3834054058
 11
0.4536359587
 21
12.9464054058
  0
LINE
  5
214
100
AcDbEntity
  8
0
100
AcDbLine
 62
7
  6
CONTINUOUS
 10
0.6536359587
 20
12.8619054058
 11
0.6536359587
 21
12.4679054058
  0
LINE
  5
215
100
AcDbEntity
  8
0
100
AcDbLine
 62
7
  6
CONTINUOUS
 10
0.7136359587
 20
12.4679054058
 11
0.7136359587
 21
12.4704831849
  0
LINE
  5
216
100
AcDbEntity
  8
0
100
AcDbLine
 62
7
  6
CONTINUOUS
 10
0.7136359587
 20
12.8593276268
 11
0.7136359587
 21
12.8619054058
  0
LINE
  5
217
100
AcDbEntity
  8
0
100
AcDbLine
 62
7
  6
CONTINUOUS
 10
0.9711359587
 20
12.7489054058
 11
0.9711359587
 21
12.7309054058
  0
LINE
  5
218
100
AcDbEntity
  8
0
100
AcDbLine
 62
7
  6
CONTINUOUS
 10
0.9711359587
 20
12.6039054058
 11
0.9711359587
 21
12.5799054058
  0
LINE
  5
219
100
AcDbEntity
  8
0
100
AcDbLine
 62
7
  6
CONTINUOUS
 10
0.9876359587
 20
12.7081073796
 11
0.9876359587
 21
12.6267034321
  0
LINE
  5
21A
100
AcDbEntity
  8
0
100
AcDbLine
 62
7
  6
CONTINUOUS
 10
1.0276359587
 20
12.6267034321
 11
1.0276359587
 21
12.6549054058
  0
LINE
  5
21B
100
AcDbEntity
  8
0
100
AcDbLine
 62
7
  6
CONTINUOUS
 10
1.0286359587
 20
12.6844610301
 11
1.0286359587
 21
12.7084610301
  0
LINE
  5
21C
100
AcDbEntity
  8
0
100
AcDbLine
 62
7
  6
CONTINUOUS
 10
1.0441359587
 20
12.5799054058
 11
1.0441359587
 21
12.6039054058
  0
LINE
  5
21D
100
AcDbEntity
  8
0
100
AcDbLine
 62
7
  6
CONTINUOUS
 10
1.0441359587
 20
12.7309054058
 11
1.0441359587
 21
12.7489054058
  0
LINE
  5
21E
100
AcDbEntity
  8
0
100
AcDbLine
 62
7
  6
CONTINUOUS
 10
1.0611359587
 20
12.7489054058
 11
1.0611359587
 21
12.7309054058
  0
LINE
  5
21F
100
AcDbEntity
  8
0
100
AcDbLine
 62
7
  6
CONTINUOUS
 10
1.0611359587
 20
12.6039054058
 11
1.0611359587
 21
12.5799054058
  0
LINE
  5
220
100
AcDbEntity
  8
0
100
AcDbLine
 62
7
  6
CONTINUOUS
 10
1.0766359587
 20
12.7084610301
 11
1.0766359587
 21
12.6844610301
  0
LINE
  5
221
100
AcDbEntity
  8
0
100
AcDbLine
 62
7
  6
CONTINUOUS
 10
1.0776359587
 20
12.6549054058
 11
1.0776359587
 21
12.6267034321
  0
LINE
  5
222
100
AcDbEntity
  8
0
100
AcDbLine
 62
7
  6
CONTINUOUS
 10
1.1176359587
 20
12.6267034321
 11
1.1176359587
 21
12.7081073796
  0
LINE
  5
223
100
AcDbEntity
  8
0
100
AcDbLine
 62
7
  6
CONTINUOUS
 10
1.1341359587
 20
12.5799054058
 11
1.1341359587
 21
12.6039054058
  0
LINE
  5
224
100
AcDbEntity
  8
0
100
AcDbLine
 62
7
  6
CONTINUOUS
 10
1.1341359587
 20
12.7309054058
 11
1.1341359587
 21
12.7489054058
  0
LINE
  5
225
100
AcDbEntity
  8
0
100
AcDbLine
 62
7
  6
CONTINUOUS
 10
1.9126957019
 20
12.5237412555
 11
1.6151671619
 21
12.0084067075
  0
LINE
  5
226
100
AcDbEntity
  8
0
100
AcDbLine
 62
7
  6
CONTINUOUS
 10
1.4866506773
 20
12.7189054058
 11
1.4951359587
 21
12.7273906872
  0
LINE
  5
227
100
AcDbEntity
  8
0
100
AcDbLine
 62
7
  6
CONTINUOUS
 10
1.3741359587
 20
12.6039054058
 11
1.3741359587
 21
12.5799054058
  0
LINE
  5
228
100
AcDbEntity
  8
0
100
AcDbLine
 62
7
  6
CONTINUOUS
 10
1.3926359587
 20
12.7280054058
 11
1.3926359587
 21
12.6353656983
  0
LINE
  5
229
100
AcDbEntity
  8
0
100
AcDbLine
 62
7
  6
CONTINUOUS
 10
1.4286359587
 20
12.6353656983
 11
1.4286359587
 21
12.7280054058
  0
LINE
  5
22A
100
AcDbEntity
  8
0
100
AcDbLine
 62
7
  6
CONTINUOUS
 10
1.4471359587
 20
12.5799054058
 11
1.4471359587
 21
12.6039054058
  0
LINE
  5
22B
100
AcDbEntity
  8
0
100
AcDbLine
 62
7
  6
CONTINUOUS
 10
1.7586359587
 20
12.8609054058
 11
1.7586359587
 21
12.8593276268
  0
LINE
  5
22C
100
AcDbEntity
  8
0
100
AcDbLine
 62
7
  6
CONTINUOUS
 10
1.7586359587
 20
12.4704831849
 11
1.7586359587
 21
12.4689054058
  0
LINE
  5
22D
100
AcDbEntity
  8
0
100
AcDbLine
 62
9
  6
CONTINUOUS
 10
1.7728257044
 20
12.4689054058
 11
1.7728257044
 21
12.5148451567
  0
LINE
  5
22E
100
AcDbEntity
  8
0
100
AcDbLine
 62
9
  6
CONTINUOUS
 10
1.7728257044
 20
12.8149258039
 11
1.7728257044
 21
12.8609054058
  0
LINE
  5
22F
100
AcDbEntity
  8
0
100
AcDbLine
 62
9
  6
CONTINUOUS
 10
1.7934511296
 20
12.4767625487
 11
1.7934511296
 21
12.6585885996
  0
LINE
  5
230
100
AcDbEntity
  8
0
100
AcDbLine
 62
9
  6
CONTINUOUS
 10
1.7934511296
 20
12.6710863666
 11
1.7934511296
 21
12.853048263
  0
LINE
  5
231
100
AcDbEntity
  8
0
100
AcDbLine
 62
9
  6
CONTINUOUS
 10
2.0447757595
 20
12.8565489702
 11
2.0447757595
 21
12.4732618415
  0
LINE
  5
232
100
AcDbEntity
  8
0
100
AcDbLine
 62
7
  6
CONTINUOUS
 10
2.0717497018
 20
12.8449054058
 11
2.0717497018
 21
12.4849054058
  0
LINE
  5
233
100
AcDbEntity
  8
0
100
AcDbLine
 62
9
  6
CONTINUOUS
 10
2.096431631
 20
12.8356427632
 11
2.096431631
 21
12.4941680485
  0
LINE
  5
234
100
AcDbEntity
  8
0
100
AcDbLine
 62
9
  6
CONTINUOUS
 10
2.145597701
 20
12.4598686851
 11
2.145597701
 21
12.8699421266
  0
LINE
  5
235
100
AcDbEntity
  8
0
100
AcDbLine
 62
7
  6
CONTINUOUS
 10
2.145597701
 20
12.8699421266
 11
2.096431631
 21
12.8356427632
  0
LINE
  5
236
100
AcDbEntity
  8
0
100
AcDbLine
 62
7
  6
CONTINUOUS
 10
0.4536359587
 20
12.3834054058
 11
0.6536359587
 21
12.4679054058
  0
LINE
  5
237
100
AcDbEntity
  8
0
100
AcDbLine
 62
7
  6
CONTINUOUS
 10
1.4951359587
 20
12.7273906872
 11
1.4861359587
 21
12.7489054058
  0
LINE
  5
238
100
AcDbEntity
  8
0
100
AcDbLine
 62
7
  6
CONTINUOUS
 10
4.7411359587
 20
11.7959720306
 11
4.7411359587
 21
11.3287428131
  0
LINE
  5
239
100
AcDbEntity
  8
0
100
AcDbLine
 62
7
  6
CONTINUOUS
 10
4.7986359587
 20
11.9219720306
 11
4.7986359587
 21
11.8825962189
  0
LINE
  5
23A
100
AcDbEntity
  8
0
100
AcDbLine
 62
7
  6
CONTINUOUS
 10
4.8611359587
 20
11.0969720306
 11
4.8611359587
 21
1.3638400913
  0
LINE
  5
23B
100
AcDbEntity
  8
0
100
AcDbLine
 62
7
  6
CONTINUOUS
 10
4.9551359587
 20
14.0329054058
 11
4.9551359587
 21
13.9969054058
  0
LINE
  5
23C
100
AcDbEntity
  8
0
100
AcDbLine
 62
7
  6
CONTINUOUS
 10
5.0336359587
 20
13.6839054058
 11
5.0336359587
 21
13.5299054058
  0
LINE
  5
23D
100
AcDbEntity
  8
0
100
AcDbLine
 62
7
  6
CONTINUOUS
 10
5.0576359587
 20
13.9369054058
 11
5.0576359587
 21
13.9059054058
  0
LINE
  5
23E
100
AcDbEntity
  8
0
100
AcDbLine
 62
7
  6
CONTINUOUS
 10
0.8571047556
 20
12.0084067072
 11
0.6039363163
 21
12.4469073069
  0
LINE
  5
23F
100
AcDbEntity
  8
0
100
AcDbLine
 62
7
  6
CONTINUOUS
 10
5.4146359587
 20
13.9369054058
 11
5.4146359587
 21
13.9059054058
  0
LINE
  5
240
100
AcDbEntity
  8
0
100
AcDbLine
 62
7
  6
CONTINUOUS
 10
5.4386359587
 20
13.6839054058
 11
5.4386359587
 21
13.5299054058
  0
LINE
  5
241
100
AcDbEntity
  8
0
100
AcDbLine
 62
7
  6
CONTINUOUS
 10
5.5171359587
 20
14.0329054058
 11
5.5171359587
 21
13.9969054058
  0
LINE
  5
242
100
AcDbEntity
  8
0
100
AcDbLine
 62
7
  6
CONTINUOUS
 10
5.6111359587
 20
11.0969720306
 11
5.6111359587
 21
1.3638400913
  0
LINE
  5
243
100
AcDbEntity
  8
0
100
AcDbLine
 62
7
  6
CONTINUOUS
 10
5.6736359587
 20
11.9219720306
 11
5.6736359587
 21
11.8825962189
  0
LINE
  5
244
100
AcDbEntity
  8
0
100
AcDbLine
 62
7
  6
CONTINUOUS
 10
5.7311359587
 20
11.7959720306
 11
5.7311359587
 21
11.3287428131
  0
LINE
  5
245
100
AcDbEntity
  8
0
100
AcDbLine
 62
7
  6
CONTINUOUS
 10
8.5595762154
 20
12.8060695562
 11
8.8571047554
 21
13.3214041042
  0
LINE
  5
246
100
AcDbEntity
  8
0
100
AcDbLine
 62
7
  6
CONTINUOUS
 10
8.3266742163
 20
12.4598686851
 11
8.3758402863
 21
12.4941680485
  0
LINE
  5
247
100
AcDbEntity
  8
0
100
AcDbLine
 62
7
  6
CONTINUOUS
 10
10.0186359587
 20
12.9464054058
 11
9.8186359587
 21
12.8619054058
  0
LINE
  5
248
100
AcDbEntity
  8
0
100
AcDbLine
 62
7
  6
CONTINUOUS
 10
9.0378271323
 20
12.6879054058
 11
9.0551359587
 21
12.6928455001
  0
LINE
  5
249
100
AcDbEntity
  8
0
100
AcDbLine
 62
7
  6
CONTINUOUS
 10
-2.0203640413
 20
12.3834054058
 11
-2.0403640413
 21
12.4034054058
  0
LINE
  5
24A
100
AcDbEntity
  8
0
100
AcDbLine
 62
7
  6
CONTINUOUS
 10
1.6151670901
 20
13.3214042285
 11
1.9126957019
 21
12.8060695562
  0
LINE
  5
24B
100
AcDbEntity
  8
0
100
AcDbLine
 62
7
  6
CONTINUOUS
 10
9.3965808953
 20
12.6390833293
 11
9.3833011486
 21
12.6171422801
  0
LINE
  5
24C
100
AcDbEntity
  8
0
100
AcDbLine
 62
7
  6
CONTINUOUS
 10
9.868335601
 20
12.4469073069
 11
9.6151671619
 21
12.0084067075
  0
LINE
  5
24D
100
AcDbEntity
  8
0
100
AcDbLine
 62
7
  6
CONTINUOUS
 10
15.8186359587
 20
12.8619054058
 11
16.0186359587
 21
12.9464054058
  0
LINE
  5
24E
100
AcDbEntity
  8
0
100
AcDbLine
 62
7
  6
CONTINUOUS
 10
1.3261359587
 20
12.7273906872
 11
1.33462124
 21
12.7189054058
  0
LINE
  5
24F
100
AcDbEntity
  8
0
100
AcDbLine
 62
9
  6
CONTINUOUS
 10
8.3266742163
 20
12.8699421266
 11
8.3266742163
 21
12.4598686851
  0
LINE
  5
250
100
AcDbEntity
  8
0
100
AcDbLine
 62
9
  6
CONTINUOUS
 10
8.3758402863
 20
12.4941680485
 11
8.3758402863
 21
12.8356427632
  0
LINE
  5
251
100
AcDbEntity
  8
0
100
AcDbLine
 62
7
  6
CONTINUOUS
 10
8.4005222155
 20
12.4849054058
 11
8.4005222155
 21
12.8449054058
  0
LINE
  5
252
100
AcDbEntity
  8
0
100
AcDbLine
 62
9
  6
CONTINUOUS
 10
8.4274961578
 20
12.4732618415
 11
8.4274961578
 21
12.8565489702
  0
LINE
  5
253
100
AcDbEntity
  8
0
100
AcDbLine
 62
9
  6
CONTINUOUS
 10
8.6788207878
 20
12.8530300085
 11
8.6788207878
 21
12.671222212
  0
LINE
  5
254
100
AcDbEntity
  8
0
100
AcDbLine
 62
9
  6
CONTINUOUS
 10
8.6788207878
 20
12.6587244451
 11
8.6788207878
 21
12.4767625487
  0
LINE
  5
255
100
AcDbEntity
  8
0
100
AcDbLine
 62
9
  6
CONTINUOUS
 10
8.6994462129
 20
12.8609054058
 11
8.6994462129
 21
12.814965655
  0
LINE
  5
256
100
AcDbEntity
  8
0
100
AcDbLine
 62
9
  6
CONTINUOUS
 10
8.6994462129
 20
12.5148850078
 11
8.6994462129
 21
12.4689054058
  0
LINE
  5
257
100
AcDbEntity
  8
0
100
AcDbLine
 62
7
  6
CONTINUOUS
 10
8.7136359587
 20
12.4689054058
 11
8.7136359587
 21
12.4704831849
  0
LINE
  5
258
100
AcDbEntity
  8
0
100
AcDbLine
 62
7
  6
CONTINUOUS
 10
8.7136359587
 20
12.8593276268
 11
8.7136359587
 21
12.8609054058
  0
LINE
  5
259
100
AcDbEntity
  8
0
100
AcDbLine
 62
7
  6
CONTINUOUS
 10
9.3956143017
 20
12.5799054058
 11
9.4051359587
 21
12.6339054058
  0
LINE
  5
25A
100
AcDbEntity
  8
0
100
AcDbLine
 62
7
  6
CONTINUOUS
 10
12.4926359587
 20
12.3834054058
 11
12.5126359587
 21
12.4034054058
  0
LINE
  5
25B
100
AcDbEntity
  8
0
100
AcDbLine
 62
7
  6
CONTINUOUS
 10
14.3758402863
 20
12.4941680485
 11
14.3266742163
 21
12.4598686851
  0
LINE
  5
25C
100
AcDbEntity
  8
0
100
AcDbLine
 62
7
  6
CONTINUOUS
 10
9.2461359587
 20
12.7489054058
 11
9.2461359587
 21
12.7309054058
  0
LINE
  5
25D
100
AcDbEntity
  8
0
100
AcDbLine
 62
7
  6
CONTINUOUS
 10
9.2461359587
 20
12.6039054058
 11
9.2461359587
 21
12.5799054058
  0
LINE
  5
25E
100
AcDbEntity
  8
0
100
AcDbLine
 62
7
  6
CONTINUOUS
 10
9.2676359587
 20
12.6326760506
 11
9.2676359587
 21
12.7021347611
  0
LINE
  5
25F
100
AcDbEntity
  8
0
100
AcDbLine
 62
7
  6
CONTINUOUS
 10
9.3036359587
 20
12.6326760506
 11
9.3036359587
 21
12.7021347611
  0
LINE
  5
260
100
AcDbEntity
  8
0
100
AcDbLine
 62
7
  6
CONTINUOUS
 10
9.3251359587
 20
12.7309054058
 11
9.3251359587
 21
12.7489054058
  0
LINE
  5
261
100
AcDbEntity
  8
0
100
AcDbLine
 62
7
  6
CONTINUOUS
 10
9.4261359587
 20
12.7489054058
 11
9.4261359587
 21
12.7309054058
  0
LINE
  5
262
100
AcDbEntity
  8
0
100
AcDbLine
 62
7
  6
CONTINUOUS
 10
9.4261359587
 20
12.6039054058
 11
9.4261359587
 21
12.5799054058
  0
LINE
  5
263
100
AcDbEntity
  8
0
100
AcDbLine
 62
7
  6
CONTINUOUS
 10
9.4361359587
 20
12.7147808903
 11
9.4361359587
 21
12.6200299213
  0
LINE
  5
264
100
AcDbEntity
  8
0
100
AcDbLine
 62
7
  6
CONTINUOUS
 10
9.472417839
 20
12.6099054058
 11
9.472417839
 21
12.7249054058
  0
LINE
  5
265
100
AcDbEntity
  8
0
100
AcDbLine
 62
7
  6
CONTINUOUS
 10
9.7586359587
 20
12.8619054058
 11
9.7586359587
 21
12.8593276268
  0
LINE
  5
266
100
AcDbEntity
  8
0
100
AcDbLine
 62
7
  6
CONTINUOUS
 10
9.7586359587
 20
12.4704831849
 11
9.7586359587
 21
12.4679054058
  0
LINE
  5
267
100
AcDbEntity
  8
0
100
AcDbLine
 62
7
  6
CONTINUOUS
 10
9.8186359587
 20
12.4679054058
 11
9.8186359587
 21
12.8619054058
  0
LINE
  5
268
100
AcDbEntity
  8
0
100
AcDbLine
 62
7
  6
CONTINUOUS
 10
10.0186359587
 20
12.9464054058
 11
10.0186359587
 21
12.3834054058
  0
LINE
  5
269
100
AcDbEntity
  8
0
100
AcDbLine
 62
7
  6
CONTINUOUS
 10
10.1236359587
 20
12.3834054058
 11
10.1236359587
 21
12.9464054058
  0
LWPOLYLINE
  5
26A
100
AcDbEntity
  8
0
100
AcDbPolyline
 62
7
  6
CONTINUOUS
 90
10
 70
0
 10
23.1450423223
 20
12.3151762501
 10
23.1384668755
 20
12.3132524475
 10
23.1325301892
 20
12.3110396025
 10
23.1270045274
 20
12.3085219304
 10
23.1218912562
 20
12.3057448263
 10
23.1171862552
 20
12.3027466966
 10
23.1128767962
 20
12.2995552856
 10
23.1089627453
 20
12.296203616
 10
23.1054587013
 20
12.2927418001
 10
23.1034038247
 20
12.2904577197
  0
LINE
  5
26B
100
AcDbEntity
  8
0
100
AcDbLine
 62
7
  6
CONTINUOUS
 10
2.145597701
 20
12.4598686851
 11
2.096431631
 21
12.4941680485
  0
LWPOLYLINE
  5
26C
100
AcDbEntity
  8
0
100
AcDbPolyline
 62
7
  6
CONTINUOUS
 90
18
 70
0
 10
22.977130008
 20
12.2550663733
 10
22.9699937181
 20
12.2524935485
 10
22.961000072
 20
12.2485528774
 10
22.9526262725
 20
12.2440823352
 10
22.9448629888
 20
12.2391183318
 10
22.9377112961
 20
12.2336941451
 10
22.9311761205
 20
12.2278405464
 10
22.925252061
 20
12.2215752431
 10
22.9198987098
 20
12.21487086
 10
22.9151037371
 20
12.2077288389
 10
22.9108703339
 20
12.2001799005
 10
22.9071643802
 20
12.1921900477
 10
22.9039541876
 20
12.1836371446
 10
22.9012877124
 20
12.174535585
 10
22.8992016869
 20
12.1649044174
 10
22.8977190745
 20
12.1547538639
 10
22.8968521878
 20
12.144073476
 10
22.896605162
 20
12.1341376336
  0
LINE
  5
26D
100
AcDbEntity
  8
0
100
AcDbLine
 62
7
  6
CONTINUOUS
 10
22.9771300084
 20
12.2550663735
 11
22.9771219114
 21
12.2550637109
  0
LINE
  5
26E
100
AcDbEntity
  8
0
100
AcDbLine
 62
7
  6
CONTINUOUS
 10
22.9956275287
 20
12.2611498062
 11
22.9771219114
 21
12.2550637109
  0
LINE
  5
26F
100
AcDbEntity
  8
0
100
AcDbLine
 62
7
  6
CONTINUOUS
 10
9.0551359587
 20
12.6928455001
 11
9.0391359587
 21
12.7489054058
  0
LINE
  5
270
100
AcDbEntity
  8
0
100
AcDbLine
 62
7
  6
CONTINUOUS
 10
14.55952155
 20
12.8059748729
 11
14.8571055069
 21
13.3214054058
  0
LWPOLYLINE
  5
271
100
AcDbEntity
  8
0
100
AcDbPolyline
 62
7
  6
CONTINUOUS
 90
16
 70
0
 10
22.9080782862
 20
12.2019106953
 10
22.8991582158
 20
12.1977406383
 10
22.8889600058
 20
12.1921063116
 10
22.8796792171
 20
12.1860019822
 10
22.87125132
 20
12.1794610087
 10
22.863658461
 20
12.1725466201
 10
22.8568652506
 20
12.1653054541
 10
22.8507931148
 20
12.1577214208
 10
22.8453512368
 20
12.1497165779
 10
22.8404710767
 20
12.1411784847
 10
22.8360960708
 20
12.1318804544
 10
22.8323242728
 20
12.1217663219
 10
22.8292859887
 20
12.1108925426
 10
22.8270862046
 20
12.0993534377
 10
22.8257896034
 20
12.0872456697
 10
22.8254182192
 20
12.0760392161
  0
LINE
  5
272
100
AcDbEntity
  8
0
100
AcDbLine
 62
7
  6
CONTINUOUS
 10
22.9130447635
 20
12.2040573093
 11
22.9080831116
 21
12.2019127811
  0
LINE
  5
273
100
AcDbEntity
  8
0
100
AcDbLine
 62
7
  6
CONTINUOUS
 10
22.9080831116
 20
12.2019127811
 11
22.9080782865
 21
12.2019106955
  0
LINE
  5
274
100
AcDbEntity
  8
0
100
AcDbLine
 62
9
  6
CONTINUOUS
 10
4.8611359587
 20
8.4769054058
 11
5.6111359587
 21
8.4769054058
  0
LINE
  5
275
100
AcDbEntity
  8
0
100
AcDbLine
 62
7
  6
CONTINUOUS
 10
0.4536359587
 20
12.9464054058
 11
0.6536359587
 21
12.8619054058
  0
LINE
  5
276
100
AcDbEntity
  8
0
100
AcDbLine
 62
7
  6
CONTINUOUS
 10
8.8571047556
 20
12.0084067072
 11
8.5595762154
 21
12.5237412555
  0
LINE
  5
277
100
AcDbEntity
  8
0
100
AcDbLine
 62
7
  6
CONTINUOUS
 10
12.4126359587
 20
12.9464054058
 11
12.4126359587
 21
12.3834054058
  0
LINE
  5
278
100
AcDbEntity
  8
0
100
AcDbLine
 62
7
  6
CONTINUOUS
 10
12.4926359587
 20
12.3834054058
 11
12.4926359587
 21
12.9464054058
  0
LINE
  5
279
100
AcDbEntity
  8
0
100
AcDbLine
 62
7
  6
CONTINUOUS
 10
12.5126359587
 20
12.4034054058
 11
12.5126359587
 21
12.9264054058
  0
LINE
  5
27A
100
AcDbEntity
  8
0
100
AcDbLine
 62
7
  6
CONTINUOUS
 10
15.1300154601
 20
12.5511888777
 11
15.1686359587
 21
12.6349054058
  0
LINE
  5
27B
100
AcDbEntity
  8
0
100
AcDbLine
 62
7
  6
CONTINUOUS
 10
15.2003497802
 20
12.655906226
 11
15.1543397014
 21
12.5561715202
  0
LINE
  5
27C
100
AcDbEntity
  8
0
100
AcDbLine
 62
7
  6
CONTINUOUS
 10
15.868335601
 20
12.4469073069
 11
15.6151664104
 21
12.0084054058
  0
LINE
  5
27D
100
AcDbEntity
  8
0
100
AcDbLine
 62
7
  6
CONTINUOUS
 10
18.5126359587
 20
12.4034054058
 11
18.4926359587
 21
12.3834054058
  0
LWPOLYLINE
  5
27E
100
AcDbEntity
  8
0
100
AcDbPolyline
 62
7
  6
CONTINUOUS
 90
15
 70
0
 10
23.059630472
 20
12.293917738
 10
23.0551909611
 20
12.2927057116
 10
23.0475302974
 20
12.2901335387
 10
23.0400844566
 20
12.286988735
 10
23.0329946818
 20
12.283309624
 10
23.0263843227
 20
12.2791563146
 10
23.0203496726
 20
12.2746153668
 10
23.0150001658
 20
12.2698470958
 10
23.0103933925
 20
12.2650312033
 10
23.0064426306
 20
12.2602265667
 10
23.0029965545
 20
12.2553716667
 10
22.9999371783
 20
12.2503759871
 10
22.9971844441
 20
12.2451408913
 10
22.9946803601
 20
12.2395450619
 10
22.9930288009
 20
12.2352664857
  0
LINE
  5
27F
100
AcDbEntity
  8
0
100
AcDbLine
 62
7
  6
CONTINUOUS
 10
23.1505177951
 20
12.3165646865
 11
23.1450431202
 21
12.3151764525
  0
LINE
  5
280
100
AcDbEntity
  8
0
100
AcDbLine
 62
7
  6
CONTINUOUS
 10
23.0596410601
 20
12.2939203964
 11
23.0596304719
 21
12.293917738
  0
LINE
  5
281
100
AcDbEntity
  8
0
100
AcDbLine
 62
7
  6
CONTINUOUS
 10
23.0719972215
 20
12.297021397
 11
23.0596410602
 21
12.2939203964
  0
LINE
  5
282
100
AcDbEntity
  8
0
100
AcDbLine
 62
7
  6
CONTINUOUS
 10
9.6151670901
 20
13.3214042285
 11
9.868335601
 21
12.8829035047
  0
LINE
  5
283
100
AcDbEntity
  8
0
100
AcDbLine
 62
7
  6
CONTINUOUS
 10
8.3266742163
 20
12.8699421266
 11
8.3758402863
 21
12.8356427632
  0
LINE
  5
284
100
AcDbEntity
  8
0
100
AcDbLine
 62
9
  6
CONTINUOUS
 10
14.3266742163
 20
12.8699421266
 11
14.3266742163
 21
12.4598686851
  0
LINE
  5
285
100
AcDbEntity
  8
0
100
AcDbLine
 62
9
  6
CONTINUOUS
 10
14.3758402863
 20
12.8356427632
 11
14.3758402863
 21
12.4941680485
  0
LINE
  5
286
100
AcDbEntity
  8
0
100
AcDbLine
 62
7
  6
CONTINUOUS
 10
14.4005222155
 20
12.8449054058
 11
14.4005222155
 21
12.4849054058
  0
LINE
  5
287
100
AcDbEntity
  8
0
100
AcDbLine
 62
9
  6
CONTINUOUS
 10
14.4274961578
 20
12.8565489702
 11
14.4274961578
 21
12.4732618415
  0
LINE
  5
288
100
AcDbEntity
  8
0
100
AcDbLine
 62
9
  6
CONTINUOUS
 10
14.6788207878
 20
12.4767625487
 11
14.6788207878
 21
12.6580815694
  0
LINE
  5
289
100
AcDbEntity
  8
0
100
AcDbLine
 62
9
  6
CONTINUOUS
 10
14.6788207878
 20
12.6717293454
 11
14.6788207878
 21
12.853048263
  0
LINE
  5
28A
100
AcDbEntity
  8
0
100
AcDbLine
 62
9
  6
CONTINUOUS
 10
14.6994462129
 20
12.4689054058
 11
14.6994462129
 21
12.5141640819
  0
LINE
  5
28B
100
AcDbEntity
  8
0
100
AcDbLine
 62
9
  6
CONTINUOUS
 10
14.6994462129
 20
12.8156467424
 11
14.6994462129
 21
12.8609054058
  0
LINE
  5
28C
100
AcDbEntity
  8
0
100
AcDbLine
 62
7
  6
CONTINUOUS
 10
14.7136359587
 20
12.8609054058
 11
14.7136359587
 21
12.8593276268
  0
LINE
  5
28D
100
AcDbEntity
  8
0
100
AcDbLine
 62
7
  6
CONTINUOUS
 10
14.7136359587
 20
12.4704831849
 11
14.7136359587
 21
12.4689054058
  0
LINE
  5
28E
100
AcDbEntity
  8
0
100
AcDbLine
 62
7
  6
CONTINUOUS
 10
14.9286359587
 20
12.6274054058
 11
14.9286359587
 21
12.7024054058
  0
LINE
  5
28F
100
AcDbEntity
  8
0
100
AcDbLine
 62
7
  6
CONTINUOUS
 10
14.9486359587
 20
12.6817706426
 11
14.9486359587
 21
12.6480401691
  0
LWPOLYLINE
  5
290
100
AcDbEntity
  8
0
100
AcDbPolyline
 62
7
  6
CONTINUOUS
 90
13
 70
0
 10
22.8320679533
 20
12.1208489747
 10
22.8262241677
 20
12.1161690526
 10
22.8173325602
 20
12.1078729532
 10
22.8093825073
 20
12.0992112579
 10
22.8022906461
 20
12.0901553165
 10
22.7960076639
 20
12.0806929679
 10
22.790477863
 20
12.0707703384
 10
22.7857828226
 20
12.0605219028
 10
22.7819601352
 20
12.0500341751
 10
22.7789946125
 20
12.039277701
 10
22.7768842728
 20
12.0282137551
 10
22.7756409701
 20
12.0167898404
 10
22.7752834141
 20
12.0063189363
  0
LINE
  5
291
100
AcDbEntity
  8
0
100
AcDbLine
 62
7
  6
CONTINUOUS
 10
4.8061359587
 20
11.0969720306
 11
5.6661357869
 21
11.0969720306
  0
LINE
  5
292
100
AcDbEntity
  8
0
100
AcDbLine
 62
7
  6
CONTINUOUS
 10
4.7411359587
 20
11.3287428131
 11
5.7311359587
 21
11.3287428131
  0
LINE
  5
293
100
AcDbEntity
  8
0
100
AcDbLine
 62
7
  6
CONTINUOUS
 10
9.0551359587
 20
12.633827708
 11
9.0385858471
 21
12.6409054058
  0
LINE
  5
294
100
AcDbEntity
  8
0
100
AcDbLine
 62
7
  6
CONTINUOUS
 10
9.4051359587
 20
12.6339054058
 11
9.3965808953
 21
12.6390833293
  0
LINE
  5
295
100
AcDbEntity
  8
0
100
AcDbLine
 62
7
  6
CONTINUOUS
 10
15.7586359587
 20
12.4679054058
 11
15.7586359587
 21
12.4704831849
  0
LINE
  5
296
100
AcDbEntity
  8
0
100
AcDbLine
 62
7
  6
CONTINUOUS
 10
15.7586359587
 20
12.8593276268
 11
15.7586359587
 21
12.8619054058
  0
LINE
  5
297
100
AcDbEntity
  8
0
100
AcDbLine
 62
7
  6
CONTINUOUS
 10
15.8186359587
 20
12.4679054058
 11
15.8186359587
 21
12.8619054058
  0
LINE
  5
298
100
AcDbEntity
  8
0
100
AcDbLine
 62
7
  6
CONTINUOUS
 10
16.0186359587
 20
12.3834054058
 11
16.0186359587
 21
12.9464054058
  0
LINE
  5
299
100
AcDbEntity
  8
0
100
AcDbLine
 62
7
  6
CONTINUOUS
 10
15.1686359587
 20
12.6349054058
 11
14.9286359587
 21
12.6274054058
  0
LINE
  5
29A
100
AcDbEntity
  8
0
100
AcDbLine
 62
7
  6
CONTINUOUS
 10
14.9486359587
 20
12.6480401691
 11
15.2003497802
 21
12.655906226
  0
LINE
  5
29B
100
AcDbEntity
  8
0
100
AcDbLine
 62
9
  6
CONTINUOUS
 10
5.7311359587
 20
11.7959720306
 11
4.7411359587
 21
11.7959720306
  0
LINE
  5
29C
100
AcDbEntity
  8
0
100
AcDbLine
 62
9
  6
CONTINUOUS
 10
4.7698859587
 20
11.8392841248
 11
5.7023859587
 21
11.8392841248
  0
LINE
  5
29D
100
AcDbEntity
  8
0
100
AcDbLine
 62
9
  6
CONTINUOUS
 10
4.7986359587
 20
11.8825962189
 11
5.6736359587
 21
11.8825962189
  0
LINE
  5
29E
100
AcDbEntity
  8
0
100
AcDbLine
 62
7
  6
CONTINUOUS
 10
5.6936358559
 20
11.9219720306
 11
4.7786360614
 21
11.9219720306
  0
LINE
  5
29F
100
AcDbEntity
  8
0
100
AcDbLine
 62
7
  6
CONTINUOUS
 10
15.6151664104
 20
12.0084054058
 11
14.8571055069
 21
12.0084054058
  0
LINE
  5
2A0
100
AcDbEntity
  8
0
100
AcDbLine
 62
7
  6
CONTINUOUS
 10
9.6151653106
 20
12.0084054058
 11
8.857106607
 21
12.0084054058
  0
LINE
  5
2A1
100
AcDbEntity
  8
0
100
AcDbLine
 62
7
  6
CONTINUOUS
 10
1.6151653106
 20
12.0084054058
 11
0.857106607
 21
12.0084054058
  0
LINE
  5
2A2
100
AcDbEntity
  8
0
100
AcDbLine
 62
7
  6
CONTINUOUS
 10
12.4926359587
 20
12.3834054058
 11
12.4126359587
 21
12.3834054058
  0
LINE
  5
2A3
100
AcDbEntity
  8
0
100
AcDbLine
 62
7
  6
CONTINUOUS
 10
10.1236359587
 20
12.3834054058
 11
10.0186359587
 21
12.3834054058
  0
LINE
  5
2A4
100
AcDbEntity
  8
0
100
AcDbLine
 62
7
  6
CONTINUOUS
 10
-2.0203640413
 20
12.3834054058
 11
-1.9403640413
 21
12.3834054058
  0
LINE
  5
2A5
100
AcDbEntity
  8
0
100
AcDbLine
 62
7
  6
CONTINUOUS
 10
0.3486359587
 20
12.3834054058
 11
0.4536359587
 21
12.3834054058
  0
LINE
  5
2A6
100
AcDbEntity
  8
0
100
AcDbLine
 62
7
  6
CONTINUOUS
 10
16.0186359587
 20
12.3834054058
 11
16.1236359587
 21
12.3834054058
  0
LINE
  5
2A7
100
AcDbEntity
  8
0
100
AcDbLine
 62
7
  6
CONTINUOUS
 10
18.4126359587
 20
12.3834054058
 11
18.4926359587
 21
12.3834054058
  0
LINE
  5
2A8
100
AcDbEntity
  8
0
100
AcDbLine
 62
7
  6
CONTINUOUS
 10
9.8186359587
 20
12.4679054058
 11
9.7586359587
 21
12.4679054058
  0
LINE
  5
2A9
100
AcDbEntity
  8
0
100
AcDbLine
 62
7
  6
CONTINUOUS
 10
0.6536359587
 20
12.4679054058
 11
0.7136359587
 21
12.4679054058
  0
LINE
  5
2AA
100
AcDbEntity
  8
0
100
AcDbLine
 62
7
  6
CONTINUOUS
 10
15.7586359587
 20
12.4679054058
 11
15.8186359587
 21
12.4679054058
  0
LINE
  5
2AB
100
AcDbEntity
  8
0
100
AcDbLine
 62
7
  6
CONTINUOUS
 10
14.7136359587
 20
12.4689054058
 11
14.6994462129
 21
12.4689054058
  0
LINE
  5
2AC
100
AcDbEntity
  8
0
100
AcDbLine
 62
7
  6
CONTINUOUS
 10
1.7728257044
 20
12.4689054058
 11
1.7586359587
 21
12.4689054058
  0
LINE
  5
2AD
100
AcDbEntity
  8
0
100
AcDbLine
 62
7
  6
CONTINUOUS
 10
8.6994462129
 20
12.4689054058
 11
8.7136359587
 21
12.4689054058
  0
LINE
  5
2AE
100
AcDbEntity
  8
0
100
AcDbLine
 62
7
  6
CONTINUOUS
 10
10.0186359587
 20
12.3834054058
 11
9.8186359587
 21
12.4679054058
  0
LINE
  5
2AF
100
AcDbEntity
  8
0
100
AcDbLine
 62
7
  6
CONTINUOUS
 10
12.4926359587
 20
12.9464054058
 11
12.5126359587
 21
12.9264054058
  0
LINE
  5
2B0
100
AcDbEntity
  8
0
100
AcDbLine
 62
7
  6
CONTINUOUS
 10
16.1236359587
 20
12.3834054058
 11
16.1236359587
 21
12.9464054058
  0
LINE
  5
2B1
100
AcDbEntity
  8
0
100
AcDbLine
 62
7
  6
CONTINUOUS
 10
0.9711359587
 20
12.5799054058
 11
1.0441359587
 21
12.5799054058
  0
LINE
  5
2B2
100
AcDbEntity
  8
0
100
AcDbLine
 62
7
  6
CONTINUOUS
 10
1.0611359587
 20
12.5799054058
 11
1.1341359587
 21
12.5799054058
  0
LINE
  5
2B3
100
AcDbEntity
  8
0
100
AcDbLine
 62
7
  6
CONTINUOUS
 10
1.3741359587
 20
12.5799054058
 11
1.4471359587
 21
12.5799054058
  0
LINE
  5
2B4
100
AcDbEntity
  8
0
100
AcDbLine
 62
7
  6
CONTINUOUS
 10
9.2461359587
 20
12.5799054058
 11
9.3956143017
 21
12.5799054058
  0
LINE
  5
2B5
100
AcDbEntity
  8
0
100
AcDbLine
 62
7
  6
CONTINUOUS
 10
9.4261359587
 20
12.5799054058
 11
9.5106359587
 21
12.5799054058
  0
LINE
  5
2B6
100
AcDbEntity
  8
0
100
AcDbLine
 62
7
  6
CONTINUOUS
 10
9.3576359587
 20
12.6026760506
 11
9.3336359587
 21
12.6026760506
  0
LINE
  5
2B7
100
AcDbEntity
  8
0
100
AcDbLine
 62
7
  6
CONTINUOUS
 10
9.5062807468
 20
12.6039054058
 11
9.478417839
 21
12.6039054058
  0
LINE
  5
2B8
100
AcDbEntity
  8
0
100
AcDbLine
 62
7
  6
CONTINUOUS
 10
1.0336359587
 20
12.6609054058
 11
1.0716359587
 21
12.6609054058
  0
LINE
  5
2B9
100
AcDbEntity
  8
0
100
AcDbLine
 62
7
  6
CONTINUOUS
 10
1.0706359587
 20
12.6784610301
 11
1.0346359587
 21
12.6784610301
  0
LINE
  5
2BA
100
AcDbEntity
  8
0
100
AcDbLine
 62
7
  6
CONTINUOUS
 10
9.478417839
 20
12.7309054058
 11
9.5062807468
 21
12.7309054058
  0
LINE
  5
2BB
100
AcDbEntity
  8
0
100
AcDbLine
 62
7
  6
CONTINUOUS
 10
1.3638332241
 20
12.7310054058
 11
1.3896359587
 21
12.7310054058
  0
LINE
  5
2BC
100
AcDbEntity
  8
0
100
AcDbLine
 62
7
  6
CONTINUOUS
 10
1.4316359587
 20
12.7310054058
 11
1.4574386932
 21
12.7310054058
  0
LINE
  5
2BD
100
AcDbEntity
  8
0
100
AcDbLine
 62
7
  6
CONTINUOUS
 10
9.5106359587
 20
12.7489054058
 11
9.4261359587
 21
12.7489054058
  0
LINE
  5
2BE
100
AcDbEntity
  8
0
100
AcDbLine
 62
7
  6
CONTINUOUS
 10
9.3251359587
 20
12.7489054058
 11
9.2461359587
 21
12.7489054058
  0
LINE
  5
2BF
100
AcDbEntity
  8
0
100
AcDbLine
 62
7
  6
CONTINUOUS
 10
9.0391359587
 20
12.7489054058
 11
9.0211359587
 21
12.7489054058
  0
LINE
  5
2C0
100
AcDbEntity
  8
0
100
AcDbLine
 62
7
  6
CONTINUOUS
 10
1.4861359587
 20
12.7489054058
 11
1.3351359587
 21
12.7489054058
  0
LINE
  5
2C1
100
AcDbEntity
  8
0
100
AcDbLine
 62
7
  6
CONTINUOUS
 10
1.1341359587
 20
12.7489054058
 11
1.0611359587
 21
12.7489054058
  0
LINE
  5
2C2
100
AcDbEntity
  8
0
100
AcDbLine
 62
7
  6
CONTINUOUS
 10
1.0441359587
 20
12.7489054058
 11
0.9711359587
 21
12.7489054058
  0
LINE
  5
2C3
100
AcDbEntity
  8
0
100
AcDbLine
 62
7
  6
CONTINUOUS
 10
14.7136359587
 20
12.8609054058
 11
14.6994462129
 21
12.8609054058
  0
LINE
  5
2C4
100
AcDbEntity
  8
0
100
AcDbLine
 62
7
  6
CONTINUOUS
 10
1.7728257044
 20
12.8609054058
 11
1.7586359587
 21
12.8609054058
  0
LINE
  5
2C5
100
AcDbEntity
  8
0
100
AcDbLine
 62
7
  6
CONTINUOUS
 10
8.6994462129
 20
12.8609054058
 11
8.7136359587
 21
12.8609054058
  0
LINE
  5
2C6
100
AcDbEntity
  8
0
100
AcDbLine
 62
7
  6
CONTINUOUS
 10
9.8186359587
 20
12.8619054058
 11
9.7586359587
 21
12.8619054058
  0
LINE
  5
2C7
100
AcDbEntity
  8
0
100
AcDbLine
 62
7
  6
CONTINUOUS
 10
0.6536359587
 20
12.8619054058
 11
0.7136359587
 21
12.8619054058
  0
LINE
  5
2C8
100
AcDbEntity
  8
0
100
AcDbLine
 62
7
  6
CONTINUOUS
 10
15.7586359587
 20
12.8619054058
 11
15.8186359587
 21
12.8619054058
  0
LINE
  5
2C9
100
AcDbEntity
  8
0
100
AcDbLine
 62
7
  6
CONTINUOUS
 10
12.4926359587
 20
12.9464054058
 11
12.4126359587
 21
12.9464054058
  0
LINE
  5
2CA
100
AcDbEntity
  8
0
100
AcDbLine
 62
7
  6
CONTINUOUS
 10
10.1236359587
 20
12.9464054058
 11
10.0186359587
 21
12.9464054058
  0
LINE
  5
2CB
100
AcDbEntity
  8
0
100
AcDbLine
 62
7
  6
CONTINUOUS
 10
-2.0203640413
 20
12.9464054058
 11
-1.9403640413
 21
12.9464054058
  0
LINE
  5
2CC
100
AcDbEntity
  8
0
100
AcDbLine
 62
7
  6
CONTINUOUS
 10
0.3486359587
 20
12.9464054058
 11
0.4536359587
 21
12.9464054058
  0
LINE
  5
2CD
100
AcDbEntity
  8
0
100
AcDbLine
 62
7
  6
CONTINUOUS
 10
16.0186359587
 20
12.9464054058
 11
16.1236359587
 21
12.9464054058
  0
LINE
  5
2CE
100
AcDbEntity
  8
0
100
AcDbLine
 62
7
  6
CONTINUOUS
 10
18.4126359587
 20
12.9464054058
 11
18.4926359587
 21
12.9464054058
  0
LINE
  5
2CF
100
AcDbEntity
  8
0
100
AcDbLine
 62
7
  6
CONTINUOUS
 10
0.8571066068
 20
13.3214054058
 11
1.6151650507
 21
13.3214054058
  0
LINE
  5
2D0
100
AcDbEntity
  8
0
100
AcDbLine
 62
7
  6
CONTINUOUS
 10
8.8571066068
 20
13.3214054058
 11
9.6151650507
 21
13.3214054058
  0
LINE
  5
2D1
100
AcDbEntity
  8
0
100
AcDbLine
 62
7
  6
CONTINUOUS
 10
14.8571055069
 20
13.3214054058
 11
15.6151664104
 21
13.3214054058
  0
LINE
  5
2D2
100
AcDbEntity
  8
0
100
AcDbLine
 62
7
  6
CONTINUOUS
 10
14.9486359587
 20
12.6817706426
 11
15.2003497802
 21
12.6739045857
  0
LINE
  5
2D3
100
AcDbEntity
  8
0
100
AcDbLine
 62
7
  6
CONTINUOUS
 10
15.1686359587
 20
12.6949054058
 11
14.9286359587
 21
12.7024054058
  0
LINE
  5
2D4
100
AcDbEntity
  8
0
100
AcDbLine
 62
7
  6
CONTINUOUS
 10
14.8571055069
 20
12.0084054058
 11
14.55952155
 21
12.5238359387
  0
LINE
  5
2D5
100
AcDbEntity
  8
0
100
AcDbLine
 62
7
  6
CONTINUOUS
 10
15.1300154601
 20
12.778621934
 11
15.1686359587
 21
12.6949054058
  0
LINE
  5
2D6
100
AcDbEntity
  8
0
100
AcDbLine
 62
7
  6
CONTINUOUS
 10
15.2003497802
 20
12.6739045857
 11
15.1543397014
 21
12.7736392914
  0
LINE
  5
2D7
100
AcDbEntity
  8
0
100
AcDbLine
 62
7
  6
CONTINUOUS
 10
5.0336359587
 20
13.5299054058
 11
5.4386359587
 21
13.5299054058
  0
LINE
  5
2D8
100
AcDbEntity
  8
0
100
AcDbLine
 62
9
  6
CONTINUOUS
 10
5.4386359587
 20
13.6839054058
 11
5.0336359587
 21
13.6839054058
  0
LINE
  5
2D9
100
AcDbEntity
  8
0
100
AcDbLine
 62
9
  6
CONTINUOUS
 10
5.0540140888
 20
13.7221090678
 11
5.4182578285
 21
13.7221090678
  0
LINE
  5
2DA
100
AcDbEntity
  8
0
100
AcDbLine
 62
9
  6
CONTINUOUS
 10
5.0645210269
 20
13.8908057845
 11
5.4077508904
 21
13.8908057845
  0
LINE
  5
2DB
100
AcDbEntity
  8
0
100
AcDbLine
 62
9
  6
CONTINUOUS
 10
5.0576359587
 20
13.9059054058
 11
5.4146359587
 21
13.9059054058
  0
LINE
  5
2DC
100
AcDbEntity
  8
0
100
AcDbLine
 62
7
  6
CONTINUOUS
 10
5.0151359587
 20
13.9369054058
 11
5.4571359587
 21
13.9369054058
  0
LINE
  5
2DD
100
AcDbEntity
  8
0
100
AcDbLine
 62
9
  6
CONTINUOUS
 10
4.9551359587
 20
13.9969054058
 11
5.5171359587
 21
13.9969054058
  0
LINE
  5
2DE
100
AcDbEntity
  8
0
100
AcDbLine
 62
9
  6
CONTINUOUS
 10
5.5171359587
 20
14.0329054058
 11
4.9551359587
 21
14.0329054058
  0
LINE
  5
2DF
100
AcDbEntity
  8
0
100
AcDbLine
 62
7
  6
CONTINUOUS
 10
5.4571359587
 20
14.0929054058
 11
5.0151359587
 21
14.0929054058
  0
LINE
  5
2E0
100
AcDbEntity
  8
0
100
AcDbLine
 62
7
  6
CONTINUOUS
 10
5.3491793959
 20
14.1799054058
 11
5.1230925214
 21
14.1799054058
  0
LINE
  5
2E1
100
AcDbEntity
  8
0
100
AcDbLine
 62
7
  6
CONTINUOUS
 10
15.8186359587
 20
12.4679054058
 11
16.0186359587
 21
12.3834054058
  0
LINE
  5
2E2
100
AcDbEntity
  8
0
100
AcDbLine
 62
7
  6
CONTINUOUS
 10
14.3758402863
 20
12.8356427632
 11
14.3266742163
 21
12.8699421266
  0
LINE
  5
2E3
100
AcDbEntity
  8
0
100
AcDbLine
 62
7
  6
CONTINUOUS
 10
15.6151664104
 20
13.3214054058
 11
15.868335601
 21
12.8829035047
  0
LINE
  5
2E4
100
AcDbEntity
  8
0
100
AcDbLine
 62
7
  6
CONTINUOUS
 10
18.4126359587
 20
12.3834054058
 11
18.4126359587
 21
12.9464054058
  0
LINE
  5
2E5
100
AcDbEntity
  8
0
100
AcDbLine
 62
7
  6
CONTINUOUS
 10
18.4926359587
 20
12.3834054058
 11
18.4926359587
 21
12.9464054058
  0
LINE
  5
2E6
100
AcDbEntity
  8
0
100
AcDbLine
 62
7
  6
CONTINUOUS
 10
18.5126359587
 20
12.9264054058
 11
18.5126359587
 21
12.4034054058
  0
LWPOLYLINE
  5
2E7
100
AcDbEntity
  8
0
100
AcDbPolyline
 62
7
  6
CONTINUOUS
 90
9
 70
0
 10
22.7755202265
 20
12.0132539072
 10
22.7716845738
 20
12.0073607177
 10
22.7657680164
 20
11.9966259152
 10
22.7606837385
 20
11.9855101917
 10
22.7565000773
 20
11.9740785616
 10
22.7532750875
 20
11.962439808
 10
22.7510339914
 20
11.9507117166
 10
22.7497683423
 20
11.9390218253
 10
22.7494278032
 20
11.9289484599
  0
LWPOLYLINE
  5
2E8
100
AcDbEntity
  8
0
100
AcDbPolyline
 62
7
  6
CONTINUOUS
 90
3
 70
0
 10
22.6430517812
 20
8.4349392699
 10
22.6298826222
 20
8.4201961681
 10
22.61531474
 20
8.4039951873
  0
LWPOLYLINE
  5
2E9
100
AcDbEntity
  8
0
100
AcDbPolyline
 62
7
  6
CONTINUOUS
 90
4
 70
0
 10
22.5619595318
 20
8.3461060262
 10
22.5292838765
 20
8.3097455549
 10
22.4972777551
 20
8.2713858676
 10
22.4719121504
 20
8.2387407522
  0
LINE
  5
2EA
100
AcDbEntity
  8
0
100
AcDbLine
 62
7
  6
CONTINUOUS
 10
22.61531474
 20
8.4039951873
 11
22.6017411476
 21
8.3889991045
  0
LWPOLYLINE
  5
2EB
100
AcDbEntity
  8
0
100
AcDbPolyline
 62
7
  6
CONTINUOUS
 90
3
 70
0
 10
22.6019163225
 20
8.3891885422
 10
22.5748779674
 20
8.3599940925
 10
22.5619591722
 20
8.3461056401
  0
LINE
  5
2EC
100
AcDbEntity
  8
0
100
AcDbLine
 62
7
  6
CONTINUOUS
 10
23.3690044855
 20
12.3070465092
 11
23.3600221043
 21
12.3091240524
  0
LINE
  5
2ED
100
AcDbEntity
  8
0
100
AcDbLine
 62
7
  6
CONTINUOUS
 10
23.3690152143
 20
12.3070440264
 11
23.3690044855
 21
12.3070465092
  0
LWPOLYLINE
  5
2EE
100
AcDbEntity
  8
0
100
AcDbPolyline
 62
7
  6
CONTINUOUS
 90
16
 70
0
 10
22.471807901
 20
8.2386020332
 10
22.4452328627
 20
8.201874165
 10
22.415533148
 20
8.1571695411
 10
22.3881443536
 20
8.111738438
 10
22.3631148684
 20
8.065745786
 10
22.3404835866
 20
8.0193756561
 10
22.3202524711
 20
7.9728027161
 10
22.3024177716
 20
7.9262070028
 10
22.2869518865
 20
7.8797021513
 10
22.273826897
 20
7.8334232477
 10
22.263012441
 20
7.7875368483
 10
22.2544460002
 20
7.7420671507
 10
22.2480459285
 20
7.696887029
 10
22.2437653415
 20
7.6519269244
 10
22.2415848018
 20
7.6072737481
 10
22.2414389915
 20
7.5649414498
  0
LINE
  5
2EF
100
AcDbEntity
  8
0
100
AcDbLine
 62
7
  6
CONTINUOUS
 10
22.4719121991
 20
8.2387408169
 11
22.4718140362
 21
8.2386101951
  0
LINE
  5
2F0
100
AcDbEntity
  8
0
100
AcDbLine
 62
7
  6
CONTINUOUS
 10
23.4551233475
 20
12.2764752495
 11
23.4395825391
 21
12.280917029
  0
LINE
  5
2F1
100
AcDbEntity
  8
0
100
AcDbLine
 62
7
  6
CONTINUOUS
 10
23.5317279808
 20
12.2300749117
 11
23.5120435483
 21
12.2375142267
  0
LWPOLYLINE
  5
2F2
100
AcDbEntity
  8
0
100
AcDbPolyline
 62
7
  6
CONTINUOUS
 90
10
 70
0
 10
23.7409597767
 20
12.4529865514
 10
23.741907751
 20
12.4552583466
 10
23.7429018187
 20
12.4576733216
 10
23.7439345568
 20
12.460218155
 10
23.7450016401
 20
12.4628853157
 10
23.7461009472
 20
12.4656756773
 10
23.7472257316
 20
12.4685790601
 10
23.7483715708
 20
12.4715893828
 10
23.749535503
 20
12.4747024247
 10
23.7506234678
 20
12.4776668786
  0
LINE
  5
2F3
100
AcDbEntity
  8
0
100
AcDbLine
 62
7
  6
CONTINUOUS
 10
23.7392269522
 20
12.448905599
 11
23.7409597767
 21
12.4529865514
  0
LINE
  5
2F4
100
AcDbEntity
  8
0
100
AcDbLine
 62
7
  6
CONTINUOUS
 10
23.7376815602
 20
12.4453400799
 11
23.7392269522
 21
12.448905599
  0
LINE
  5
2F5
100
AcDbEntity
  8
0
100
AcDbLine
 62
7
  6
CONTINUOUS
 10
23.7363135036
 20
12.4422427129
 11
23.7376815602
 21
12.4453400799
  0
LINE
  5
2F6
100
AcDbEntity
  8
0
100
AcDbLine
 62
7
  6
CONTINUOUS
 10
23.7351117623
 20
12.4395615434
 11
23.7363135036
 21
12.4422427129
  0
LINE
  5
2F7
100
AcDbEntity
  8
0
100
AcDbLine
 62
7
  6
CONTINUOUS
 10
23.7340598057
 20
12.4372469547
 11
23.7351117623
 21
12.4395615434
  0
LINE
  5
2F8
100
AcDbEntity
  8
0
100
AcDbLine
 62
7
  6
CONTINUOUS
 10
23.7328038929
 20
12.4345207672
 11
23.7340598057
 21
12.4372469547
  0
LINE
  5
2F9
100
AcDbEntity
  8
0
100
AcDbLine
 62
7
  6
CONTINUOUS
 10
23.7319153716
 20
12.4326152483
 11
23.7328038929
 21
12.4345207672
  0
LWPOLYLINE
  5
2FA
100
AcDbEntity
  8
0
100
AcDbPolyline
 62
7
  6
CONTINUOUS
 90
6
 70
0
 10
22.749517014
 20
8.5836135975
 10
22.7313238458
 20
8.5530054248
 10
22.7109979181
 20
8.521869585
 10
22.6892927556
 20
8.4915442192
 10
22.666263276
 20
8.4621293035
 10
22.6430521472
 20
8.4349396809
  0
LINE
  5
2FB
100
AcDbEntity
  8
0
100
AcDbLine
 62
7
  6
CONTINUOUS
 10
18.5126359587
 20
12.9264054058
 11
18.4926359587
 21
12.9464054058
  0
LWPOLYLINE
  5
2FC
100
AcDbEntity
  8
0
100
AcDbPolyline
 62
7
  6
CONTINUOUS
 90
4
 70
0
 10
23.7606540341
 20
12.5079508635
 10
23.761680776
 20
12.5114154854
 10
23.7628905714
 20
12.5156202363
 10
23.763595191
 20
12.518129599
  0
LWPOLYLINE
  5
2FD
100
AcDbEntity
  8
0
100
AcDbPolyline
 62
7
  6
CONTINUOUS
 90
6
 70
0
 10
22.8011061993
 20
8.689523873
 10
22.7930066762
 20
8.6703830117
 10
22.78348095
 20
8.6493341015
 10
22.7729574022
 20
8.6275877368
 10
22.7613955393
 20
8.6052100766
 10
22.7495175323
 20
8.5836145121
  0
LINE
  5
2FE
100
AcDbEntity
  8
0
100
AcDbLine
 62
7
  6
CONTINUOUS
 10
23.3033575024
 20
12.3111675392
 11
23.3015143715
 21
12.3122111818
  0
LINE
  5
2FF
100
AcDbEntity
  8
0
100
AcDbLine
 62
7
  6
CONTINUOUS
 10
23.9103127452
 20
8.3461056401
 11
23.8832195618
 21
8.3752771824
  0
LINE
  5
300
100
AcDbEntity
  8
0
100
AcDbLine
 62
7
  6
CONTINUOUS
 10
23.8832195618
 20
8.3752771824
 11
23.8703555948
 21
8.3891885422
  0
LWPOLYLINE
  5
301
100
AcDbEntity
  8
0
100
AcDbPolyline
 62
7
  6
CONTINUOUS
 90
4
 70
0
 10
23.8705307697
 20
8.3889991045
 10
23.8569571773
 20
8.4039951873
 10
23.8423892951
 20
8.4201961681
 10
23.8292201361
 20
8.4349392699
  0
LWPOLYLINE
  5
302
100
AcDbEntity
  8
0
100
AcDbPolyline
 62
7
  6
CONTINUOUS
 90
6
 70
0
 10
23.8292197701
 20
8.4349396809
 10
23.8060086414
 20
8.4621293035
 10
23.7829791617
 20
8.4915442192
 10
23.7612739992
 20
8.521869585
 10
23.7409480715
 20
8.5530054248
 10
23.7227549033
 20
8.5836135975
  0
LWPOLYLINE
  5
303
100
AcDbEntity
  8
0
100
AcDbPolyline
 62
7
  6
CONTINUOUS
 90
4
 70
0
 10
24.0003597669
 20
8.2387407522
 10
23.9749941622
 20
8.2713858676
 10
23.9429880408
 20
8.3097455549
 10
23.9103123855
 20
8.3461060262
  0
LINE
  5
304
100
AcDbEntity
  8
0
100
AcDbLine
 62
7
  6
CONTINUOUS
 10
24.0003597182
 20
8.2387408169
 11
24.0004578811
 21
8.2386101951
  0
LWPOLYLINE
  5
305
100
AcDbEntity
  8
0
100
AcDbPolyline
 62
7
  6
CONTINUOUS
 90
13
 70
0
 10
22.2414391507
 20
7.5649664502
 10
22.2430335763
 20
7.524552272
 10
22.2465120774
 20
7.4819480571
 10
22.2518698409
 20
7.4390806648
 10
22.2591218969
 20
7.3961061464
 10
22.2682721881
 20
7.3531808055
 10
22.2793153273
 20
7.3104566576
 10
22.2922361818
 20
7.2680864715
 10
22.3070106024
 20
7.2262212376
 10
22.3236065861
 20
7.1850075133
 10
22.3419807395
 20
7.1445945058
 10
22.3620683291
 20
7.1051229876
 10
22.3814033762
 20
7.0707428693
  0
LWPOLYLINE
  5
306
100
AcDbEntity
  8
0
100
AcDbPolyline
 62
7
  6
CONTINUOUS
 90
4
 70
0
 10
22.8254182193
 20
9.9548391018
 10
22.8257774336
 20
9.9435566936
 10
22.8272491696
 20
9.929008804
 10
22.8288861442
 20
9.9196967969
  0
LWPOLYLINE
  5
307
100
AcDbEntity
  8
0
100
AcDbPolyline
 62
7
  6
CONTINUOUS
 90
4
 70
0
 10
22.7752834141
 20
9.8851195418
 10
22.775582872
 20
9.875419952
 10
22.7767760275
 20
9.8633184399
 10
22.7776743931
 20
9.8581246992
  0
LINE
  5
308
100
AcDbEntity
  8
0
100
AcDbLine
 62
7
  6
CONTINUOUS
 10
22.2414396231
 20
7.5649414581
 11
22.2414391507
 21
7.5649664502
  0
LINE
  5
309
100
AcDbEntity
  8
0
100
AcDbLine
 62
7
  6
CONTINUOUS
 10
22.89661814
 20
10.010617496
 11
22.8966322445
 21
10.0095799465
  0
LINE
  5
30A
100
AcDbEntity
  8
0
100
AcDbLine
 62
7
  6
CONTINUOUS
 10
22.896605162
 20
10.0129396146
 11
22.89661814
 21
10.010617496
  0
LINE
  5
30B
100
AcDbEntity
  8
0
100
AcDbLine
 62
7
  6
CONTINUOUS
 10
22.7461359587
 20
12.2845197145
 11
22.7461359587
 21
12.3680821038
  0
LINE
  5
30C
100
AcDbEntity
  8
0
100
AcDbLine
 62
7
  6
CONTINUOUS
 10
22.7486359587
 20
12.6649054058
 11
22.7486359587
 21
12.4052650181
  0
LINE
  5
30D
100
AcDbEntity
  8
0
100
AcDbLine
 62
7
  6
CONTINUOUS
 10
22.7494278032
 20
11.9289480129
 11
22.7494278032
 21
9.8077480577
  0
LINE
  5
30E
100
AcDbEntity
  8
0
100
AcDbLine
 62
7
  6
CONTINUOUS
 10
22.7661359587
 20
12.3906659462
 11
22.7661359587
 21
11.9972934972
  0
LINE
  5
30F
100
AcDbEntity
  8
0
100
AcDbLine
 62
7
  6
CONTINUOUS
 10
22.7752834141
 20
12.0063192004
 11
22.7752834141
 21
9.8851200884
  0
LINE
  5
310
100
AcDbEntity
  8
0
100
AcDbLine
 62
7
  6
CONTINUOUS
 10
22.8254182192
 20
12.0760393564
 11
22.8254182192
 21
9.9548402445
  0
LINE
  5
311
100
AcDbEntity
  8
0
100
AcDbLine
 62
7
  6
CONTINUOUS
 10
22.896605162
 20
12.1341386759
 11
22.896605162
 21
10.0129395639
  0
LINE
  5
312
100
AcDbEntity
  8
0
100
AcDbLine
 62
7
  6
CONTINUOUS
 10
22.9865686889
 20
12.1904562119
 11
22.9865686889
 21
10.0692571
  0
LINE
  5
313
100
AcDbEntity
  8
0
100
AcDbLine
 62
7
  6
CONTINUOUS
 10
22.8500619345
 20
8.9007487736
 11
22.8491651568
 21
8.8841960847
  0
LINE
  5
314
100
AcDbEntity
  8
0
100
AcDbLine
 62
7
  6
CONTINUOUS
 10
22.8497095419
 20
8.8896754089
 11
22.8493325392
 21
8.8844534047
  0
LINE
  5
315
100
AcDbEntity
  8
0
100
AcDbLine
 62
7
  6
CONTINUOUS
 10
22.8491651568
 20
8.8841960847
 11
22.8477668881
 21
8.8677694231
  0
LINE
  5
316
100
AcDbEntity
  8
0
100
AcDbLine
 62
7
  6
CONTINUOUS
 10
22.8493325392
 20
8.8844534047
 11
22.8479308329
 21
8.8689265887
  0
LINE
  5
317
100
AcDbEntity
  8
0
100
AcDbLine
 62
7
  6
CONTINUOUS
 10
22.8477668943
 20
8.8677694848
 11
22.8473537965
 21
8.8640102157
  0
LINE
  5
318
100
AcDbEntity
  8
0
100
AcDbLine
 62
7
  6
CONTINUOUS
 10
22.8479308329
 20
8.8689265887
 11
22.8459647029
 21
8.8521750832
  0
LINE
  5
319
100
AcDbEntity
  8
0
100
AcDbLine
 62
7
  6
CONTINUOUS
 10
22.8459647029
 20
8.8521750832
 11
22.8433553353
 21
8.8342294057
  0
LINE
  5
31A
100
AcDbEntity
  8
0
100
AcDbLine
 62
7
  6
CONTINUOUS
 10
22.8433553353
 20
8.8342294057
 11
22.8402907049
 21
8.8165904969
  0
LWPOLYLINE
  5
31B
100
AcDbEntity
  8
0
100
AcDbPolyline
 62
7
  6
CONTINUOUS
 90
8
 70
0
 10
22.8403597969
 20
8.8169219149
 10
22.8374848415
 20
8.8031314157
 10
22.8336760048
 20
8.7871091837
 10
22.8290270352
 20
8.7697758935
 10
22.823462742
 20
8.7511714688
 10
22.8169122956
 20
8.7313463361
 10
22.8093089114
 20
8.7103571305
 10
22.8011064274
 20
8.6895244307
  0
LWPOLYLINE
  5
31C
100
AcDbEntity
  8
0
100
AcDbPolyline
 62
7
  6
CONTINUOUS
 90
13
 70
0
 10
24.0908685412
 20
7.0707428694
 10
24.1102036053
 20
7.1051230193
 10
24.130291192
 20
7.1445945353
 10
24.1486653428
 20
7.1850075404
 10
24.1652613242
 20
7.2262212621
 10
24.1800357426
 20
7.2680864932
 10
24.1929565953
 20
7.3104566764
 10
24.2039997329
 20
7.3531808213
 10
24.2131500228
 20
7.3961061591
 10
24.2204020778
 20
7.4390806743
 10
24.2257598406
 20
7.4819480634
 10
24.2292383412
 20
7.5245522752
 10
24.2308327666
 20
7.5649664502
  0
LWPOLYLINE
  5
31D
100
AcDbEntity
  8
0
100
AcDbPolyline
 62
7
  6
CONTINUOUS
 90
4
 70
0
 10
23.3145739406
 20
12.3033732666
 10
23.3112142887
 20
12.3060504907
 10
23.3063595318
 20
12.3093764354
 10
23.3033578399
 20
12.311167348
  0
LWPOLYLINE
  5
31E
100
AcDbEntity
  8
0
100
AcDbPolyline
 62
7
  6
CONTINUOUS
 90
6
 70
0
 10
23.722754385
 20
8.5836145121
 10
23.7108763781
 20
8.6052100766
 10
23.6993145151
 20
8.6275877368
 10
23.6887909673
 20
8.6493341015
 10
23.6792652412
 20
8.6703830117
 10
23.671165718
 20
8.689523873
  0
LINE
  5
31F
100
AcDbEntity
  8
0
100
AcDbLine
 62
7
  6
CONTINUOUS
 10
22.7260145232
 20
9.6220890811
 11
22.8466103274
 21
8.9783975273
  0
LWPOLYLINE
  5
320
100
AcDbEntity
  8
0
100
AcDbPolyline
 62
7
  6
CONTINUOUS
 90
8
 70
0
 10
22.8461833999
 20
8.9814416925
 10
22.8471195946
 20
8.9747662465
 10
22.8481639537
 20
8.9658067003
 10
22.8491064107
 20
8.9554028805
 10
22.8498563144
 20
8.9436214629
 10
22.8503238199
 20
8.9305361102
 10
22.8504207868
 20
8.9162207754
 10
22.8500619345
 20
8.9007487736
  0
LINE
  5
321
100
AcDbEntity
  8
0
100
AcDbLine
 62
7
  6
CONTINUOUS
 10
23.6249181208
 20
8.8640102157
 11
23.624505023
 21
8.8677694848
  0
LWPOLYLINE
  5
322
100
AcDbEntity
  8
0
100
AcDbPolyline
 62
7
  6
CONTINUOUS
 90
3
 70
0
 10
23.6243410844
 20
8.8689265887
 10
23.6229393781
 20
8.8844534047
 10
23.6225623754
 20
8.8896754089
  0
LINE
  5
323
100
AcDbEntity
  8
0
100
AcDbLine
 62
7
  6
CONTINUOUS
 10
23.6245050292
 20
8.8677694231
 11
23.6231067606
 21
8.8841960847
  0
LWPOLYLINE
  5
324
100
AcDbEntity
  8
0
100
AcDbPolyline
 62
7
  6
CONTINUOUS
 90
9
 70
0
 10
23.6231067606
 20
8.8841960847
 10
23.6222099828
 20
8.9007487736
 10
23.6218511305
 20
8.9162207754
 10
23.6219480974
 20
8.9305361102
 10
23.6224156029
 20
8.9436214629
 10
23.6231655066
 20
8.9554028805
 10
23.6241079636
 20
8.9658067003
 10
23.6251523227
 20
8.9747662465
 10
23.6260885174
 20
8.9814416925
  0
LWPOLYLINE
  5
325
100
AcDbEntity
  8
0
100
AcDbPolyline
 62
7
  6
CONTINUOUS
 90
7
 70
0
 10
23.7261072128
 20
11.8892063136
 10
23.7257170036
 20
11.8999927882
 10
23.7243396854
 20
11.9120925094
 10
23.7219585268
 20
11.9241457117
 10
23.7185254725
 20
11.9362517098
 10
23.7139551415
 20
11.9485014347
 10
23.7130953795
 20
11.9503458116
  0
LWPOLYLINE
  5
326
100
AcDbEntity
  8
0
100
AcDbPolyline
 62
7
  6
CONTINUOUS
 90
11
 70
0
 10
23.7130953795
 20
11.9681937878
 10
23.7127254645
 20
11.9787169678
 10
23.711383542
 20
11.9906529741
 10
23.7090390078
 20
12.0024810213
 10
23.7056950688
 20
12.0141044769
 10
23.7013837295
 20
12.0254266768
 10
23.696160384
 20
12.0363657339
 10
23.6900757757
 20
12.0468892622
 10
23.6830295518
 20
12.0571331863
 10
23.6749201143
 20
12.0671190204
 10
23.6721873062
 20
12.0699876841
  0
LWPOLYLINE
  5
327
100
AcDbEntity
  8
0
100
AcDbPolyline
 62
7
  6
CONTINUOUS
 90
14
 70
0
 10
23.6747833118
 20
12.0424349289
 10
23.6743975216
 20
12.0535465758
 10
23.6730299761
 20
12.0657565615
 10
23.6706849639
 20
12.0775310829
 10
23.6674112137
 20
12.0887617869
 10
23.663283763
 20
12.0993932262
 10
23.658432678
 20
12.1093231714
 10
23.6529709841
 20
12.1185444703
 10
23.6467681827
 20
12.1273446683
 10
23.6397097468
 20
12.1358193407
 10
23.6317453634
 20
12.1439386769
 10
23.6228418692
 20
12.1516507974
 10
23.6129409033
 20
12.1589239971
 10
23.6019677496
 20
12.1657383309
  0
LWPOLYLINE
  5
328
100
AcDbEntity
  8
0
100
AcDbPolyline
 62
7
  6
CONTINUOUS
 90
17
 70
0
 10
23.6136453602
 20
12.1067289725
 10
23.6133327372
 20
12.1173869938
 10
23.6122396239
 20
12.1288631815
 10
23.6103790725
 20
12.1397802035
 10
23.6077898945
 20
12.1500903208
 10
23.6045390608
 20
12.1597323319
 10
23.6007209324
 20
12.1686506128
 10
23.5964397408
 20
12.1768253633
 10
23.5916679136
 20
12.1844382509
 10
23.5863229761
 20
12.1916339172
 10
23.5803362238
 20
12.1984791396
 10
23.5736656656
 20
12.204976893
 10
23.5662737158
 20
12.2111094976
 10
23.5581400591
 20
12.2168342059
 10
23.5492754442
 20
12.2220852845
 10
23.5397025252
 20
12.2267966044
 10
23.5317286912
 20
12.2300746433
  0
LINE
  5
329
100
AcDbEntity
  8
0
100
AcDbLine
 62
7
  6
CONTINUOUS
 10
23.0922078679
 20
12.2285362998
 11
23.0922078679
 21
10.1073371879
  0
LINE
  5
32A
100
AcDbEntity
  8
0
100
AcDbLine
 62
7
  6
CONTINUOUS
 10
23.2068905781
 20
12.2452949752
 11
23.2068905781
 21
10.1240958632
  0
LINE
  5
32B
100
AcDbEntity
  8
0
100
AcDbLine
 62
7
  6
CONTINUOUS
 10
23.2361359587
 20
8.3883939751
 11
23.2361359587
 21
7.8642903932
  0
LINE
  5
32C
100
AcDbEntity
  8
0
100
AcDbLine
 62
9
  6
CONTINUOUS
 10
23.2361359587
 20
6.6039149924
 11
23.2361359587
 21
7.8642903841
  0
LINE
  5
32D
100
AcDbEntity
  8
0
100
AcDbLine
 62
9
  6
CONTINUOUS
 10
23.2361359587
 20
8.3883939751
 11
23.2361359587
 21
10.072797413
  0
LINE
  5
32E
100
AcDbEntity
  8
0
100
AcDbLine
 62
7
  6
CONTINUOUS
 10
23.3234108832
 20
12.2396792289
 11
23.3234108832
 21
10.1184801169
  0
LINE
  5
32F
100
AcDbEntity
  8
0
100
AcDbLine
 62
7
  6
CONTINUOUS
 10
23.4344473838
 20
12.2120419188
 11
23.4344473838
 21
10.0908428068
  0
LINE
  5
330
100
AcDbEntity
  8
0
100
AcDbLine
 62
7
  6
CONTINUOUS
 10
23.5330232482
 20
12.1641195988
 11
23.5330232482
 21
10.0429204868
  0
LINE
  5
331
100
AcDbEntity
  8
0
100
AcDbLine
 62
7
  6
CONTINUOUS
 10
23.6136453602
 20
9.9855305182
 11
23.6136453602
 21
12.1067296301
  0
LINE
  5
332
100
AcDbEntity
  8
0
100
AcDbLine
 62
7
  6
CONTINUOUS
 10
23.6747833118
 20
9.9212356861
 11
23.6747833118
 21
12.0424347981
  0
LINE
  5
333
100
AcDbEntity
  8
0
100
AcDbLine
 62
7
  6
CONTINUOUS
 10
23.7061359587
 20
12.0125719537
 11
23.7061359587
 21
12.3906659462
  0
LINE
  5
334
100
AcDbEntity
  8
0
100
AcDbLine
 62
7
  6
CONTINUOUS
 10
23.7130953795
 20
9.8469944567
 11
23.7130953795
 21
11.9681935687
  0
LINE
  5
335
100
AcDbEntity
  8
0
100
AcDbLine
 62
7
  6
CONTINUOUS
 10
23.7236359587
 20
12.6649054058
 11
23.7236359587
 21
12.40526213
  0
LINE
  5
336
100
AcDbEntity
  8
0
100
AcDbLine
 62
7
  6
CONTINUOUS
 10
23.7261072128
 20
9.7998130997
 11
23.7261072128
 21
11.8892053345
  0
LINE
  5
337
100
AcDbEntity
  8
0
100
AcDbLine
 62
7
  6
CONTINUOUS
 10
23.7261359587
 20
12.2845197145
 11
23.7261359587
 21
12.3680821038
  0
LWPOLYLINE
  5
338
100
AcDbEntity
  8
0
100
AcDbPolyline
 62
7
  6
CONTINUOUS
 90
3
 70
0
 10
23.7119523131
 20
9.829345976
 10
23.7127684685
 20
9.8370502776
 10
23.7130953794
 20
9.846997545
  0
LWPOLYLINE
  5
339
100
AcDbEntity
  8
0
100
AcDbPolyline
 62
7
  6
CONTINUOUS
 90
4
 70
0
 10
23.6104300667
 20
9.949337385
 10
23.6117279797
 20
9.9578532816
 10
23.6132280171
 20
9.9728441926
 10
23.6136453602
 20
9.9855311276
  0
LWPOLYLINE
  5
33A
100
AcDbEntity
  8
0
100
AcDbPolyline
 62
7
  6
CONTINUOUS
 90
4
 70
0
 10
23.6715922709
 20
9.88887368
 10
23.673062012
 20
9.8970957272
 10
23.674441971
 20
9.9105941041
 10
23.6747833118
 20
9.9212347399
  0
LINE
  5
33B
100
AcDbEntity
  8
0
100
AcDbLine
 62
7
  6
CONTINUOUS
 10
23.6256615899
 20
8.9783975273
 11
23.7462573941
 21
9.6220890811
  0
LWPOLYLINE
  5
33C
100
AcDbEntity
  8
0
100
AcDbPolyline
 62
7
  6
CONTINUOUS
 90
7
 70
0
 10
23.6711654899
 20
8.6895244307
 10
23.6629630059
 20
8.7103571305
 10
23.6553596217
 20
8.7313463361
 10
23.6488091753
 20
8.7511714688
 10
23.6432448821
 20
8.7697758935
 10
23.6385959125
 20
8.7871091837
 10
23.6347870758
 20
8.8031314157
  0
LINE
  5
33D
100
AcDbEntity
  8
0
100
AcDbLine
 62
7
  6
CONTINUOUS
 10
23.6347870758
 20
8.8031314157
 11
23.6319121204
 21
8.8169219149
  0
LINE
  5
33E
100
AcDbEntity
  8
0
100
AcDbLine
 62
7
  6
CONTINUOUS
 10
23.6319812124
 20
8.8165904969
 11
23.628916582
 21
8.8342294057
  0
LINE
  5
33F
100
AcDbEntity
  8
0
100
AcDbLine
 62
7
  6
CONTINUOUS
 10
23.628916582
 20
8.8342294057
 11
23.6263072145
 21
8.8521750832
  0
LINE
  5
340
100
AcDbEntity
  8
0
100
AcDbLine
 62
7
  6
CONTINUOUS
 10
23.6263072145
 20
8.8521750832
 11
23.6243410844
 21
8.8689265887
  0
LWPOLYLINE
  5
341
100
AcDbEntity
  8
0
100
AcDbPolyline
 62
7
  6
CONTINUOUS
 90
16
 70
0
 10
24.2308329258
 20
7.5649414498
 10
24.2306871155
 20
7.6072737481
 10
24.2285065758
 20
7.6519269244
 10
24.2242259888
 20
7.696887029
 10
24.2178259171
 20
7.7420671507
 10
24.2092594763
 20
7.7875368483
 10
24.1984450203
 20
7.8334232477
 10
24.1853200308
 20
7.8797021513
 10
24.1698541457
 20
7.9262070028
 10
24.1520194462
 20
7.9728027161
 10
24.1317883307
 20
8.0193756561
 10
24.1091570489
 20
8.065745786
 10
24.0841275637
 20
8.111738438
 10
24.0567387693
 20
8.1571695411
 10
24.0270390546
 20
8.201874165
 10
24.0004640164
 20
8.2386020332
  0
LINE
  5
342
100
AcDbEntity
  8
0
100
AcDbLine
 62
7
  6
CONTINUOUS
 10
24.2308322942
 20
7.5649414581
 11
24.2308327666
 21
7.5649664502
  0
LWPOLYLINE
  5
343
100
AcDbEntity
  8
0
100
AcDbPolyline
 62
7
  6
CONTINUOUS
 90
13
 70
0
 10
23.424076715
 20
12.268839288
 10
23.422913236
 20
12.2707331088
 10
23.4201750859
 20
12.2747553468
 10
23.4170164606
 20
12.2787921082
 10
23.4133540434
 20
12.2828541513
 10
23.4091088852
 20
12.2869202775
 10
23.4042649695
 20
12.2908997177
 10
23.3988475201
 20
12.294684209
 10
23.3929161722
 20
12.298167204
 10
23.3865264665
 20
12.3012700696
 10
23.3796794518
 20
12.303960926
 10
23.3724004219
 20
12.3062004981
 10
23.3690152143
 20
12.3070440264
  0
LWPOLYLINE
  5
344
100
AcDbEntity
  8
0
100
AcDbPolyline
 62
7
  6
CONTINUOUS
 90
17
 70
0
 10
23.5313079856
 20
12.1877230635
 10
23.5308397627
 20
12.1905188798
 10
23.5291169332
 20
12.1988327759
 10
23.5269687002
 20
12.2067364266
 10
23.5243949313
 20
12.2142561849
 10
23.5213897955
 20
12.2214232817
 10
23.5178827108
 20
12.2283565227
 10
23.5138402484
 20
12.2350256146
 10
23.5092684435
 20
12.2413580289
 10
23.5041592342
 20
12.247328359
 10
23.498468456
 20
12.2529480308
 10
23.4921359154
 20
12.2582187127
 10
23.4851206393
 20
12.2631147017
 10
23.4775062513
 20
12.2675361851
 10
23.4694196362
 20
12.2713951494
 10
23.4609911808
 20
12.2746367212
 10
23.4551328881
 20
12.2764725219
  0
ARC
  5
345
100
AcDbEntity
  8
0
100
AcDbCircle
 62
9
  6
CONTINUOUS
 10
5.2359879794
 20
1.1717703689
 40
0.3868431228
100
AcDbArc
 50
248.4891827211
 51
270.0219172503
  0
ARC
  5
346
100
AcDbEntity
  8
0
100
AcDbCircle
 62
9
  6
CONTINUOUS
 10
5.2363963249
 20
1.1710964408
 40
0.3861644621
100
AcDbArc
 50
269.9613697817
 51
295.630475539
  0
ARC
  5
347
100
AcDbEntity
  8
0
100
AcDbCircle
 62
7
  6
CONTINUOUS
 10
5.2363679103
 20
1.1702917345
 40
0.3855365227
100
AcDbArc
 50
269.9655295686
 51
295.6559804326
  0
ARC
  5
348
100
AcDbEntity
  8
0
100
AcDbCircle
 62
7
  6
CONTINUOUS
 10
5.2359039963
 20
1.1702916721
 40
0.38553646
100
AcDbArc
 50
244.3436210269
 51
270.0344720319
  0
ARC
  5
349
100
AcDbEntity
  8
0
100
AcDbCircle
 62
9
  6
CONTINUOUS
 10
5.2343101989
 20
1.1669373626
 40
0.3817287898
100
AcDbArc
 50
244.3110392461
 51
248.4574778444
  0
ARC
  5
34A
100
AcDbEntity
  8
0
100
AcDbCircle
 62
7
  6
CONTINUOUS
 10
1.9172036805
 20
12.3379054058
 40
0.186
100
AcDbArc
 50
46.6958241998
 51
131.7081302521
  0
ARC
  5
34B
100
AcDbEntity
  8
0
100
AcDbCircle
 62
7
  6
CONTINUOUS
 10
1.4646359587
 20
12.6353656983
 40
0.036
100
AcDbArc
 50
180.0
 51
240.9147049393
  0
ARC
  5
34C
100
AcDbEntity
  8
0
100
AcDbCircle
 62
7
  6
CONTINUOUS
 10
1.3566359587
 20
12.6353656983
 40
0.036
100
AcDbArc
 50
299.0852950607
 51
360.0
  0
ARC
  5
34D
100
AcDbEntity
  8
0
100
AcDbCircle
 62
7
  6
CONTINUOUS
 10
1.7728257044
 20
12.4999054058
 40
0.031
100
AcDbArc
 50
270.0
 51
311.7081302525
  0
ARC
  5
34E
100
AcDbEntity
  8
0
100
AcDbCircle
 62
7
  6
CONTINUOUS
 10
1.1416359587
 20
12.6267034321
 40
0.024
100
AcDbArc
 50
180.0
 51
251.7900431357
  0
ARC
  5
34F
100
AcDbEntity
  8
0
100
AcDbCircle
 62
7
  6
CONTINUOUS
 10
1.0536359587
 20
12.6267034321
 40
0.024
100
AcDbArc
 50
288.2099568643
 51
360.0
  0
ARC
  5
350
100
AcDbEntity
  8
0
100
AcDbCircle
 62
7
  6
CONTINUOUS
 10
1.0516359587
 20
12.6267034321
 40
0.024
100
AcDbArc
 50
180.0
 51
251.7900431357
  0
ARC
  5
351
100
AcDbEntity
  8
0
100
AcDbCircle
 62
7
  6
CONTINUOUS
 10
0.9636359587
 20
12.6267034321
 40
0.024
100
AcDbArc
 50
288.2099568643
 51
360.0
  0
ARC
  5
352
100
AcDbEntity
  8
0
100
AcDbCircle
 62
7
  6
CONTINUOUS
 10
2.0872771825
 20
12.4810456983
 40
0.016
100
AcDbArc
 50
55.0994999987
 51
166.0407512249
  0
ARC
  5
353
100
AcDbEntity
  8
0
100
AcDbCircle
 62
7
  6
CONTINUOUS
 10
2.0557497018
 20
12.4849054058
 40
0.016
100
AcDbArc
 50
226.6958241996
 51
360.0
  0
ARC
  5
354
100
AcDbEntity
  8
0
100
AcDbCircle
 62
7
  6
CONTINUOUS
 10
1.0716359587
 20
12.6549054058
 40
0.006
100
AcDbArc
 50
0.0
 51
90.0
  0
ARC
  5
355
100
AcDbEntity
  8
0
100
AcDbCircle
 62
7
  6
CONTINUOUS
 10
1.0336359587
 20
12.6549054058
 40
0.006
100
AcDbArc
 50
90.0
 51
180.0
  0
ARC
  5
356
100
AcDbEntity
  8
0
100
AcDbCircle
 62
7
  6
CONTINUOUS
 10
-1.762843208
 20
12.6649054058
 40
0.3735208333
100
AcDbArc
 50
137.9864211384
 51
222.0135788616
  0
ARC
  5
357
100
AcDbEntity
  8
0
100
AcDbCircle
 62
7
  6
CONTINUOUS
 10
1.2361359587
 20
12.6649054058
 40
1.1800000459
100
AcDbArc
 50
11.072010916
 51
166.4913590837
  0
ARC
  5
358
100
AcDbEntity
  8
0
100
AcDbCircle
 62
7
  6
CONTINUOUS
 10
1.2361359587
 20
12.6649054058
 40
1.1800000459
100
AcDbArc
 50
193.5086409163
 51
348.927989084
  0
ARC
  5
359
100
AcDbEntity
  8
0
100
AcDbCircle
 62
7
  6
CONTINUOUS
 10
1.2361359587
 20
12.6649054058
 40
1.0000026738
100
AcDbArc
 50
196.2201008613
 51
346.3216802936
  0
ARC
  5
35A
100
AcDbEntity
  8
0
100
AcDbCircle
 62
7
  6
CONTINUOUS
 10
1.2361359587
 20
12.6649054058
 40
1.0000026738
100
AcDbArc
 50
13.6783197064
 51
163.7798991387
  0
ARC
  5
35B
100
AcDbEntity
  8
0
100
AcDbCircle
 62
9
  6
CONTINUOUS
 10
1.2361359587
 20
12.6649054058
 40
0.8130026738
100
AcDbArc
 50
199.7135430635
 51
347.3054963373
  0
ARC
  5
35C
100
AcDbEntity
  8
0
100
AcDbCircle
 62
9
  6
CONTINUOUS
 10
1.2361359587
 20
12.6649054058
 40
0.8130026738
100
AcDbArc
 50
12.6945186451
 51
160.2864368312
  0
ARC
  5
35D
100
AcDbEntity
  8
0
100
AcDbCircle
 62
7
  6
CONTINUOUS
 10
1.2361359587
 20
12.6649054058
 40
0.741
100
AcDbArc
 50
62.3704986062
 51
117.6295013938
  0
ARC
  5
35E
100
AcDbEntity
  8
0
100
AcDbCircle
 62
7
  6
CONTINUOUS
 10
1.2361359587
 20
12.6649054058
 40
0.741
100
AcDbArc
 50
122.3704986062
 51
160.5969726274
  0
ARC
  5
35F
100
AcDbEntity
  8
0
100
AcDbCircle
 62
7
  6
CONTINUOUS
 10
1.2361359587
 20
12.6649054058
 40
0.741
100
AcDbArc
 50
11.418053378
 51
57.6295013938
  0
ARC
  5
360
100
AcDbEntity
  8
0
100
AcDbCircle
 62
7
  6
CONTINUOUS
 10
1.2361359587
 20
12.6649054058
 40
0.741
100
AcDbArc
 50
242.3704986062
 51
297.6295013938
  0
ARC
  5
361
100
AcDbEntity
  8
0
100
AcDbCircle
 62
7
  6
CONTINUOUS
 10
1.2361359587
 20
12.6649054058
 40
0.741
100
AcDbArc
 50
302.3704986062
 51
348.5819557439
  0
ARC
  5
362
100
AcDbEntity
  8
0
100
AcDbCircle
 62
7
  6
CONTINUOUS
 10
1.2361359587
 20
12.6649054058
 40
0.741
100
AcDbArc
 50
199.403009378
 51
237.6295013938
  0
ARC
  5
363
100
AcDbEntity
  8
0
100
AcDbCircle
 62
7
  6
CONTINUOUS
 10
1.2361359587
 20
12.6649054058
 40
0.6515
100
AcDbArc
 50
13.0486538714
 51
161.0780495038
  0
ARC
  5
364
100
AcDbEntity
  8
0
100
AcDbCircle
 62
7
  6
CONTINUOUS
 10
1.2361359587
 20
12.6649054058
 40
0.6515
100
AcDbArc
 50
198.9219504962
 51
346.9513461286
  0
ARC
  5
365
100
AcDbEntity
  8
0
100
AcDbCircle
 62
9
  6
CONTINUOUS
 10
1.2361359587
 20
12.6649054058
 40
0.6146339942
100
AcDbArc
 50
15.450833647
 51
161.2981645619
  0
ARC
  5
366
100
AcDbEntity
  8
0
100
AcDbCircle
 62
9
  6
CONTINUOUS
 10
1.2361359587
 20
12.6649054058
 40
0.6146339942
100
AcDbArc
 50
198.7018354381
 51
344.549166353
  0
CIRCLE
  5
367
100
AcDbEntity
  8
0
100
AcDbCircle
 62
7
  6
CONTINUOUS
 10
1.2361359587
 20
12.6649054058
 40
0.5575
  0
CIRCLE
  5
368
100
AcDbEntity
  8
0
100
AcDbCircle
 62
7
  6
CONTINUOUS
 10
1.2361359587
 20
12.6649054058
 40
0.5291923153
  0
CIRCLE
  5
369
100
AcDbEntity
  8
0
100
AcDbCircle
 62
7
  6
CONTINUOUS
 10
1.2361359587
 20
12.6649054058
 40
0.5275
  0
CIRCLE
  5
36A
100
AcDbEntity
  8
0
100
AcDbCircle
 62
7
  6
CONTINUOUS
 10
1.2361359587
 20
12.6649054058
 40
0.5052804212
  0
CIRCLE
  5
36B
100
AcDbEntity
  8
0
100
AcDbCircle
 62
7
  6
CONTINUOUS
 10
1.2361359587
 20
12.6649054058
 40
0.4545099561
  0
CIRCLE
  5
36C
100
AcDbEntity
  8
0
100
AcDbCircle
 62
7
  6
CONTINUOUS
 10
1.2361359587
 20
12.6649054058
 40
0.4275
  0
CIRCLE
  5
36D
100
AcDbEntity
  8
0
100
AcDbCircle
 62
7
  6
CONTINUOUS
 10
1.2361359587
 20
12.6649054058
 40
0.4175
  0
CIRCLE
  5
36E
100
AcDbEntity
  8
0
100
AcDbCircle
 62
9
  6
CONTINUOUS
 10
1.2361359587
 20
12.6649054058
 40
0.3951446396
  0
ARC
  5
36F
100
AcDbEntity
  8
0
100
AcDbCircle
 62
7
  6
CONTINUOUS
 10
1.3638332241
 20
12.6896934217
 40
0.0413119841
100
AcDbArc
 50
90.0
 51
135.0000000003
  0
ARC
  5
370
100
AcDbEntity
  8
0
100
AcDbCircle
 62
7
  6
CONTINUOUS
 10
1.4574386932
 20
12.6896934217
 40
0.0413119841
100
AcDbArc
 50
44.9999999997
 51
90.0
  0
ARC
  5
371
100
AcDbEntity
  8
0
100
AcDbCircle
 62
7
  6
CONTINUOUS
 10
1.0346359587
 20
12.6844610301
 40
0.006
100
AcDbArc
 50
180.0
 51
270.0
  0
ARC
  5
372
100
AcDbEntity
  8
0
100
AcDbCircle
 62
7
  6
CONTINUOUS
 10
1.0706359587
 20
12.6844610301
 40
0.006
100
AcDbArc
 50
270.0
 51
360.0
  0
ARC
  5
373
100
AcDbEntity
  8
0
100
AcDbCircle
 62
7
  6
CONTINUOUS
 10
0.9636359587
 20
12.7081073796
 40
0.024
100
AcDbArc
 50
0.0
 51
71.7900431357
  0
ARC
  5
374
100
AcDbEntity
  8
0
100
AcDbCircle
 62
7
  6
CONTINUOUS
 10
1.0526359587
 20
12.7084610301
 40
0.024
100
AcDbArc
 50
110.7423799545
 51
180.0
  0
ARC
  5
375
100
AcDbEntity
  8
0
100
AcDbCircle
 62
7
  6
CONTINUOUS
 10
1.0526359587
 20
12.7084610301
 40
0.024
100
AcDbArc
 50
0.0
 51
69.2576200455
  0
ARC
  5
376
100
AcDbEntity
  8
0
100
AcDbCircle
 62
7
  6
CONTINUOUS
 10
1.1416359587
 20
12.7081073796
 40
0.024
100
AcDbArc
 50
108.2099568643
 51
180.0
  0
ARC
  5
377
100
AcDbEntity
  8
0
100
AcDbCircle
 62
7
  6
CONTINUOUS
 10
1.3896359587
 20
12.7280054058
 40
0.003
100
AcDbArc
 50
0.0
 51
90.0
  0
ARC
  5
378
100
AcDbEntity
  8
0
100
AcDbCircle
 62
7
  6
CONTINUOUS
 10
1.4316359587
 20
12.7280054058
 40
0.003
100
AcDbArc
 50
90.0
 51
180.0
  0
ARC
  5
379
100
AcDbEntity
  8
0
100
AcDbCircle
 62
7
  6
CONTINUOUS
 10
2.2886359587
 20
12.6649054058
 40
0.25
100
AcDbArc
 50
235.0995
 51
124.9005
  0
ARC
  5
37A
100
AcDbEntity
  8
0
100
AcDbCircle
 62
7
  6
CONTINUOUS
 10
1.9172036805
 20
12.9919054058
 40
0.186
100
AcDbArc
 50
228.2918697479
 51
313.3041758002
  0
ARC
  5
37B
100
AcDbEntity
  8
0
100
AcDbCircle
 62
7
  6
CONTINUOUS
 10
1.7728257044
 20
12.8299054058
 40
0.031
100
AcDbArc
 50
48.2918697475
 51
90.0
  0
ARC
  5
37C
100
AcDbEntity
  8
0
100
AcDbCircle
 62
7
  6
CONTINUOUS
 10
2.0872771825
 20
12.8487651133
 40
0.016
100
AcDbArc
 50
193.9592487751
 51
304.9005000013
  0
ARC
  5
37D
100
AcDbEntity
  8
0
100
AcDbCircle
 62
7
  6
CONTINUOUS
 10
2.0557497018
 20
12.8449054058
 40
0.016
100
AcDbArc
 50
0.0
 51
133.3041758004
  0
ARC
  5
37E
100
AcDbEntity
  8
0
100
AcDbCircle
 62
7
  6
CONTINUOUS
 10
8.5550682368
 20
12.3379054058
 40
0.186
100
AcDbArc
 50
48.2918697479
 51
133.3041758002
  0
ARC
  5
37F
100
AcDbEntity
  8
0
100
AcDbCircle
 62
7
  6
CONTINUOUS
 10
5.6661359587
 20
11.2219720306
 40
0.125
100
AcDbArc
 50
270.0
 51
58.6677485023
  0
ARC
  5
380
100
AcDbEntity
  8
0
100
AcDbCircle
 62
7
  6
CONTINUOUS
 10
4.8061359587
 20
11.2219720306
 40
0.125
100
AcDbArc
 50
121.3322514977
 51
270.0
  0
ARC
  5
381
100
AcDbEntity
  8
0
100
AcDbCircle
 62
7
  6
CONTINUOUS
 10
8.9765613556
 20
12.6279054058
 40
0.121
100
AcDbArc
 50
72.3178031512
 51
100.8633887081
  0
ARC
  5
382
100
AcDbEntity
  8
0
100
AcDbCircle
 62
7
  6
CONTINUOUS
 10
9.5062807468
 20
12.6519054058
 40
0.048
100
AcDbArc
 50
270.0
 51
341.5590861806
  0
ARC
  5
383
100
AcDbEntity
  8
0
100
AcDbCircle
 62
7
  6
CONTINUOUS
 10
8.9787342369
 20
12.6519054058
 40
0.048
100
AcDbArc
 50
201.6000344343
 51
256.3709027895
  0
ARC
  5
384
100
AcDbEntity
  8
0
100
AcDbCircle
 62
7
  6
CONTINUOUS
 10
4.7516359587
 20
11.8825962189
 40
0.047
100
AcDbArc
 50
292.848629433
 51
360.0
  0
ARC
  5
385
100
AcDbEntity
  8
0
100
AcDbCircle
 62
7
  6
CONTINUOUS
 10
5.7206359587
 20
11.8825962189
 40
0.047
100
AcDbArc
 50
180.0
 51
247.1513705671
  0
ARC
  5
386
100
AcDbEntity
  8
0
100
AcDbCircle
 62
7
  6
CONTINUOUS
 10
5.6841359587
 20
11.7959720306
 40
0.047
100
AcDbArc
 50
0.0
 51
67.1513705671
  0
ARC
  5
387
100
AcDbEntity
  8
0
100
AcDbCircle
 62
7
  6
CONTINUOUS
 10
4.7881359587
 20
11.7959720306
 40
0.047
100
AcDbArc
 50
112.8486294329
 51
180.0
  0
ARC
  5
388
100
AcDbEntity
  8
0
100
AcDbCircle
 62
7
  6
CONTINUOUS
 10
8.6994462129
 20
12.4999054058
 40
0.031
100
AcDbArc
 50
228.2918697475
 51
270.0
  0
ARC
  5
389
100
AcDbEntity
  8
0
100
AcDbCircle
 62
7
  6
CONTINUOUS
 10
9.3336359587
 20
12.6326760506
 40
0.03
100
AcDbArc
 50
180.0
 51
270.0
  0
ARC
  5
38A
100
AcDbEntity
  8
0
100
AcDbCircle
 62
7
  6
CONTINUOUS
 10
9.3576359587
 20
12.6326760506
 40
0.03
100
AcDbArc
 50
270.0
 51
328.8157171748
  0
ARC
  5
38B
100
AcDbEntity
  8
0
100
AcDbCircle
 62
7
  6
CONTINUOUS
 10
9.2376359587
 20
12.6326760506
 40
0.03
100
AcDbArc
 50
286.4592496283
 51
360.0
  0
ARC
  5
38C
100
AcDbEntity
  8
0
100
AcDbCircle
 62
7
  6
CONTINUOUS
 10
9.4181359587
 20
12.6200299213
 40
0.018
100
AcDbArc
 50
296.3877999613
 51
360.0
  0
ARC
  5
38D
100
AcDbEntity
  8
0
100
AcDbCircle
 62
7
  6
CONTINUOUS
 10
8.3849947348
 20
12.4810456983
 40
0.016
100
AcDbArc
 50
13.9592487751
 51
124.9005000013
  0
ARC
  5
38E
100
AcDbEntity
  8
0
100
AcDbCircle
 62
7
  6
CONTINUOUS
 10
8.4165222155
 20
12.4849054058
 40
0.016
100
AcDbArc
 50
180.0
 51
313.3041758004
  0
ARC
  5
38F
100
AcDbEntity
  8
0
100
AcDbCircle
 62
7
  6
CONTINUOUS
 10
9.478417839
 20
12.6099054058
 40
0.006
100
AcDbArc
 50
180.0
 51
270.0
  0
ARC
  5
390
100
AcDbEntity
  8
0
100
AcDbCircle
 62
7
  6
CONTINUOUS
 10
5.2361359587
 20
12.6649054058
 40
1.42
100
AcDbArc
 50
290.407320023
 51
78.8080299618
  0
ARC
  5
391
100
AcDbEntity
  8
0
100
AcDbCircle
 62
7
  6
CONTINUOUS
 10
5.2361359587
 20
12.6649054058
 40
1.42
100
AcDbArc
 50
101.1919496069
 51
249.5928004452
  0
ARC
  5
392
100
AcDbEntity
  8
0
100
AcDbCircle
 62
9
  6
CONTINUOUS
 10
5.2361359587
 20
12.6649054058
 40
1.361356383
100
AcDbArc
 50
101.9124974007
 51
248.6737890914
  0
ARC
  5
393
100
AcDbEntity
  8
0
100
AcDbCircle
 62
9
  6
CONTINUOUS
 10
5.2361359587
 20
12.6649054058
 40
1.361356383
100
AcDbArc
 50
291.3262947118
 51
78.087492645
  0
ARC
  5
394
100
AcDbEntity
  8
0
100
AcDbCircle
 62
7
  6
CONTINUOUS
 10
5.2361359587
 20
12.6649054058
 40
1.3325
100
AcDbArc
 50
291.8091811757
 51
78.1361359084
  0
ARC
  5
395
100
AcDbEntity
  8
0
100
AcDbCircle
 62
7
  6
CONTINUOUS
 10
5.2361359587
 20
12.6649054058
 40
1.3325
100
AcDbArc
 50
101.8638640916
 51
248.1908188243
  0
ARC
  5
396
100
AcDbEntity
  8
0
100
AcDbCircle
 62
7
  6
CONTINUOUS
 10
5.2361359587
 20
12.6649054058
 40
1.2965
100
AcDbArc
 50
292.451638726
 51
79.4574588578
  0
ARC
  5
397
100
AcDbEntity
  8
0
100
AcDbCircle
 62
7
  6
CONTINUOUS
 10
5.2361359587
 20
12.6649054058
 40
1.2965
100
AcDbArc
 50
100.5424968162
 51
247.5483584093
  0
ARC
  5
398
100
AcDbEntity
  8
0
100
AcDbCircle
 62
7
  6
CONTINUOUS
 10
5.2361359587
 20
12.6649054058
 40
0.8725
100
AcDbArc
 50
97.5179102286
 51
238.3751474419
  0
ARC
  5
399
100
AcDbEntity
  8
0
100
AcDbCircle
 62
7
  6
CONTINUOUS
 10
5.2361359587
 20
12.6649054058
 40
0.8725
100
AcDbArc
 50
301.6248525581
 51
82.4820896076
  0
CIRCLE
  5
39A
100
AcDbEntity
  8
0
100
AcDbCircle
 62
7
  6
CONTINUOUS
 10
5.2361359587
 20
12.6649054058
 40
0.4635
  0
CIRCLE
  5
39B
100
AcDbEntity
  8
0
100
AcDbCircle
 62
9
  6
CONTINUOUS
 10
5.2361359587
 20
12.6649054058
 40
0.346
  0
CIRCLE
  5
39C
100
AcDbEntity
  8
0
100
AcDbCircle
 62
7
  6
CONTINUOUS
 10
5.2361359587
 20
12.6649054058
 40
0.3125
  0
CIRCLE
  5
39D
100
AcDbEntity
  8
0
100
AcDbCircle
 62
9
  6
CONTINUOUS
 10
5.2361359587
 20
12.6649054058
 40
0.1279789985
  0
ARC
  5
39E
100
AcDbEntity
  8
0
100
AcDbCircle
 62
7
  6
CONTINUOUS
 10
5.4775223274
 20
13.8104757989
 40
0.1064
100
AcDbArc
 50
130.9762844862
 51
236.1516146285
  0
ARC
  5
39F
100
AcDbEntity
  8
0
100
AcDbCircle
 62
7
  6
CONTINUOUS
 10
4.9947495899
 20
13.8104757989
 40
0.1064
100
AcDbArc
 50
303.8483853715
 51
49.0237155138
  0
ARC
  5
3A0
100
AcDbEntity
  8
0
100
AcDbCircle
 62
7
  6
CONTINUOUS
 10
5.3261359587
 20
14.0929054058
 40
0.09
100
AcDbArc
 50
0.0
 51
75.164888418
  0
ARC
  5
3A1
100
AcDbEntity
  8
0
100
AcDbCircle
 62
7
  6
CONTINUOUS
 10
5.1461359587
 20
14.0929054058
 40
0.09
100
AcDbArc
 50
104.835111582
 51
180.0
  0
ARC
  5
3A2
100
AcDbEntity
  8
0
100
AcDbCircle
 62
7
  6
CONTINUOUS
 10
5.4571359587
 20
13.9969054058
 40
0.06
100
AcDbArc
 50
270.0
 51
360.0
  0
ARC
  5
3A3
100
AcDbEntity
  8
0
100
AcDbCircle
 62
7
  6
CONTINUOUS
 10
5.0151359587
 20
13.9969054058
 40
0.06
100
AcDbArc
 50
180.0
 51
270.0
  0
ARC
  5
3A4
100
AcDbEntity
  8
0
100
AcDbCircle
 62
7
  6
CONTINUOUS
 10
5.4571359587
 20
14.0329054058
 40
0.06
100
AcDbArc
 50
0.0
 51
90.0
  0
ARC
  5
3A5
100
AcDbEntity
  8
0
100
AcDbCircle
 62
7
  6
CONTINUOUS
 10
5.0151359587
 20
14.0329054058
 40
0.06
100
AcDbArc
 50
90.0
 51
180.0
  0
ARC
  5
3A6
100
AcDbEntity
  8
0
100
AcDbCircle
 62
7
  6
CONTINUOUS
 10
5.0796359587
 20
13.6839054058
 40
0.046
100
AcDbArc
 50
123.848385371
 51
180.0
  0
ARC
  5
3A7
100
AcDbEntity
  8
0
100
AcDbCircle
 62
7
  6
CONTINUOUS
 10
5.3926359587
 20
13.6839054058
 40
0.046
100
AcDbArc
 50
0.0
 51
56.151614629
  0
ARC
  5
3A8
100
AcDbEntity
  8
0
100
AcDbCircle
 62
7
  6
CONTINUOUS
 10
5.0776359587
 20
13.9059054058
 40
0.02
100
AcDbArc
 50
180.0
 51
229.0237155138
  0
ARC
  5
3A9
100
AcDbEntity
  8
0
100
AcDbCircle
 62
7
  6
CONTINUOUS
 10
5.3946359587
 20
13.9059054058
 40
0.02
100
AcDbArc
 50
310.9762844862
 51
360.0
  0
ARC
  5
3AA
100
AcDbEntity
  8
0
100
AcDbCircle
 62
7
  6
CONTINUOUS
 10
8.1836359587
 20
12.6649054058
 40
0.25
100
AcDbArc
 50
55.0995
 51
304.9005
  0
ARC
  5
3AB
100
AcDbEntity
  8
0
100
AcDbCircle
 62
7
  6
CONTINUOUS
 10
8.5550682368
 20
12.9919054058
 40
0.186
100
AcDbArc
 50
226.6958241998
 51
311.7081302521
  0
ARC
  5
3AC
100
AcDbEntity
  8
0
100
AcDbCircle
 62
7
  6
CONTINUOUS
 10
8.6994462129
 20
12.8299054058
 40
0.031
100
AcDbArc
 50
90.0
 51
131.7081302525
  0
ARC
  5
3AD
100
AcDbEntity
  8
0
100
AcDbCircle
 62
7
  6
CONTINUOUS
 10
8.3849947348
 20
12.8487651133
 40
0.016
100
AcDbArc
 50
235.0994999987
 51
346.0407512249
  0
ARC
  5
3AE
100
AcDbEntity
  8
0
100
AcDbCircle
 62
7
  6
CONTINUOUS
 10
8.4165222155
 20
12.8449054058
 40
0.016
100
AcDbArc
 50
46.6958241996
 51
180.0
  0
ARC
  5
3AF
100
AcDbEntity
  8
0
100
AcDbCircle
 62
7
  6
CONTINUOUS
 10
8.97342973
 20
12.6687695871
 40
0.0888641812
100
AcDbArc
 50
224.2338173194
 51
336.845901431
  0
ARC
  5
3B0
100
AcDbEntity
  8
0
100
AcDbCircle
 62
7
  6
CONTINUOUS
 10
9.0131359587
 20
12.6655260349
 40
0.085
100
AcDbArc
 50
158.3999655657
 51
201.6000344343
  0
ARC
  5
3B1
100
AcDbEntity
  8
0
100
AcDbCircle
 62
7
  6
CONTINUOUS
 10
8.9694607949
 20
12.6649054058
 40
0.0833248363
100
AcDbArc
 50
100.8633887079
 51
224.2338173196
  0
ARC
  5
3B2
100
AcDbEntity
  8
0
100
AcDbCircle
 62
7
  6
CONTINUOUS
 10
8.9707801201
 20
12.6687695871
 40
0.0697243244
100
AcDbArc
 50
15.9292215989
 51
31.263668006
  0
ARC
  5
3B3
100
AcDbEntity
  8
0
100
AcDbCircle
 62
7
  6
CONTINUOUS
 10
8.9819406784
 20
12.6651298581
 40
0.061607623
100
AcDbArc
 50
256.3709027898
 51
336.845901431
  0
ARC
  5
3B4
100
AcDbEntity
  8
0
100
AcDbCircle
 62
7
  6
CONTINUOUS
 10
8.984265061
 20
12.676956852
 40
0.0539485538
100
AcDbArc
 50
31.2636680057
 51
158.3999655655
  0
ARC
  5
3B5
100
AcDbEntity
  8
0
100
AcDbCircle
 62
7
  6
CONTINUOUS
 10
9.2361359587
 20
12.6649054058
 40
1.1800000459
100
AcDbArc
 50
13.5086409163
 51
168.927989084
  0
ARC
  5
3B6
100
AcDbEntity
  8
0
100
AcDbCircle
 62
7
  6
CONTINUOUS
 10
9.2361359587
 20
12.6649054058
 40
1.1800000459
100
AcDbArc
 50
191.072010916
 51
346.4913590837
  0
ARC
  5
3B7
100
AcDbEntity
  8
0
100
AcDbCircle
 62
7
  6
CONTINUOUS
 10
9.2361359587
 20
12.6649054058
 40
1.0000026738
100
AcDbArc
 50
193.6783197064
 51
343.7798991387
  0
ARC
  5
3B8
100
AcDbEntity
  8
0
100
AcDbCircle
 62
7
  6
CONTINUOUS
 10
9.2361359587
 20
12.6649054058
 40
1.0000026738
100
AcDbArc
 50
16.2201008613
 51
166.3216802936
  0
ARC
  5
3B9
100
AcDbEntity
  8
0
100
AcDbCircle
 62
9
  6
CONTINUOUS
 10
9.2361359587
 20
12.6649054058
 40
0.8130026738
100
AcDbArc
 50
192.6945186451
 51
340.2864368312
  0
ARC
  5
3BA
100
AcDbEntity
  8
0
100
AcDbCircle
 62
9
  6
CONTINUOUS
 10
9.2361359587
 20
12.6649054058
 40
0.8130026738
100
AcDbArc
 50
19.7135430635
 51
167.3054963373
  0
ARC
  5
3BB
100
AcDbEntity
  8
0
100
AcDbCircle
 62
7
  6
CONTINUOUS
 10
9.2361359587
 20
12.6649054058
 40
0.741
100
AcDbArc
 50
62.3704986062
 51
117.6295013938
  0
ARC
  5
3BC
100
AcDbEntity
  8
0
100
AcDbCircle
 62
7
  6
CONTINUOUS
 10
9.2361359587
 20
12.6649054058
 40
0.741
100
AcDbArc
 50
122.3704986062
 51
168.5819557439
  0
ARC
  5
3BD
100
AcDbEntity
  8
0
100
AcDbCircle
 62
7
  6
CONTINUOUS
 10
9.2361359587
 20
12.6649054058
 40
0.741
100
AcDbArc
 50
19.403009378
 51
57.6295013938
  0
ARC
  5
3BE
100
AcDbEntity
  8
0
100
AcDbCircle
 62
7
  6
CONTINUOUS
 10
9.2361359587
 20
12.6649054058
 40
0.741
100
AcDbArc
 50
242.3704986062
 51
297.6295013938
  0
ARC
  5
3BF
100
AcDbEntity
  8
0
100
AcDbCircle
 62
7
  6
CONTINUOUS
 10
9.2361359587
 20
12.6649054058
 40
0.741
100
AcDbArc
 50
302.3704986062
 51
340.5969726274
  0
ARC
  5
3C0
100
AcDbEntity
  8
0
100
AcDbCircle
 62
7
  6
CONTINUOUS
 10
9.2361359587
 20
12.6649054058
 40
0.741
100
AcDbArc
 50
191.418053378
 51
237.6295013938
  0
ARC
  5
3C1
100
AcDbEntity
  8
0
100
AcDbCircle
 62
7
  6
CONTINUOUS
 10
9.2361359587
 20
12.6649054058
 40
0.6515
100
AcDbArc
 50
18.9219504962
 51
166.9513461286
  0
ARC
  5
3C2
100
AcDbEntity
  8
0
100
AcDbCircle
 62
7
  6
CONTINUOUS
 10
9.2361359587
 20
12.6649054058
 40
0.6515
100
AcDbArc
 50
193.0486538714
 51
341.0780495038
  0
ARC
  5
3C3
100
AcDbEntity
  8
0
100
AcDbCircle
 62
9
  6
CONTINUOUS
 10
9.2361359587
 20
12.6649054058
 40
0.6146339942
100
AcDbArc
 50
18.7018354381
 51
164.549166353
  0
ARC
  5
3C4
100
AcDbEntity
  8
0
100
AcDbCircle
 62
9
  6
CONTINUOUS
 10
9.2361359587
 20
12.6649054058
 40
0.6146339942
100
AcDbArc
 50
195.450833647
 51
341.2981645619
  0
CIRCLE
  5
3C5
100
AcDbEntity
  8
0
100
AcDbCircle
 62
7
  6
CONTINUOUS
 10
9.2361359587
 20
12.6649054058
 40
0.5575
  0
CIRCLE
  5
3C6
100
AcDbEntity
  8
0
100
AcDbCircle
 62
7
  6
CONTINUOUS
 10
9.2361359587
 20
12.6649054058
 40
0.5291923153
  0
CIRCLE
  5
3C7
100
AcDbEntity
  8
0
100
AcDbCircle
 62
7
  6
CONTINUOUS
 10
9.2361359587
 20
12.6649054058
 40
0.5275
  0
CIRCLE
  5
3C8
100
AcDbEntity
  8
0
100
AcDbCircle
 62
7
  6
CONTINUOUS
 10
9.2361359587
 20
12.6649054058
 40
0.5052804212
  0
CIRCLE
  5
3C9
100
AcDbEntity
  8
0
100
AcDbCircle
 62
7
  6
CONTINUOUS
 10
9.2361359587
 20
12.6649054058
 40
0.4545099561
  0
CIRCLE
  5
3CA
100
AcDbEntity
  8
0
100
AcDbCircle
 62
7
  6
CONTINUOUS
 10
9.2361359587
 20
12.6649054058
 40
0.4275
  0
CIRCLE
  5
3CB
100
AcDbEntity
  8
0
100
AcDbCircle
 62
7
  6
CONTINUOUS
 10
9.2361359587
 20
12.6649054058
 40
0.4175
  0
CIRCLE
  5
3CC
100
AcDbEntity
  8
0
100
AcDbCircle
 62
9
  6
CONTINUOUS
 10
9.2361359587
 20
12.6649054058
 40
0.3951446566
  0
ARC
  5
3CD
100
AcDbEntity
  8
0
100
AcDbCircle
 62
7
  6
CONTINUOUS
 10
9.2376359587
 20
12.7021347611
 40
0.03
100
AcDbArc
 50
0.0
 51
73.5407503717
  0
ARC
  5
3CE
100
AcDbEntity
  8
0
100
AcDbCircle
 62
7
  6
CONTINUOUS
 10
9.0151359587
 20
12.7489054058
 40
0.006
100
AcDbArc
 50
252.3178031517
 51
360.0
  0
ARC
  5
3CF
100
AcDbEntity
  8
0
100
AcDbCircle
 62
7
  6
CONTINUOUS
 10
9.4597968786
 20
12.6674054058
 40
0.097
100
AcDbArc
 50
341.5590861806
 51
18.4409138194
  0
ARC
  5
3D0
100
AcDbEntity
  8
0
100
AcDbCircle
 62
7
  6
CONTINUOUS
 10
9.5106359587
 20
12.6644054058
 40
0.0845
100
AcDbArc
 50
270.0
 51
90.0
  0
ARC
  5
3D1
100
AcDbEntity
  8
0
100
AcDbCircle
 62
7
  6
CONTINUOUS
 10
9.5062807468
 20
12.6829054058
 40
0.048
100
AcDbArc
 50
18.4409138195
 51
90.0
  0
ARC
  5
3D2
100
AcDbEntity
  8
0
100
AcDbCircle
 62
7
  6
CONTINUOUS
 10
9.3336359587
 20
12.7021347611
 40
0.03
100
AcDbArc
 50
106.4592496283
 51
180.0
  0
ARC
  5
3D3
100
AcDbEntity
  8
0
100
AcDbCircle
 62
7
  6
CONTINUOUS
 10
9.4181359587
 20
12.7147808903
 40
0.018
100
AcDbArc
 50
0.0
 51
63.6122000388
  0
ARC
  5
3D4
100
AcDbEntity
  8
0
100
AcDbCircle
 62
7
  6
CONTINUOUS
 10
9.478417839
 20
12.7249054058
 40
0.006
100
AcDbArc
 50
90.0
 51
180.0
  0
ARC
  5
3D5
100
AcDbEntity
  8
0
100
AcDbCircle
 62
7
  6
CONTINUOUS
 10
14.5550682368
 20
12.3379054058
 40
0.186
100
AcDbArc
 50
48.2918697479
 51
133.3041758004
  0
ARC
  5
3D6
100
AcDbEntity
  8
0
100
AcDbCircle
 62
7
  6
CONTINUOUS
 10
14.6994462129
 20
12.4999054058
 40
0.031
100
AcDbArc
 50
228.2918697479
 51
270.0
  0
ARC
  5
3D7
100
AcDbEntity
  8
0
100
AcDbCircle
 62
7
  6
CONTINUOUS
 10
14.4165222155
 20
12.4849054058
 40
0.016
100
AcDbArc
 50
180.0
 51
313.3041758004
  0
ARC
  5
3D8
100
AcDbEntity
  8
0
100
AcDbCircle
 62
7
  6
CONTINUOUS
 10
14.3849947348
 20
12.4810456983
 40
0.016
100
AcDbArc
 50
13.9592487754
 51
124.9005
  0
ARC
  5
3D9
100
AcDbEntity
  8
0
100
AcDbCircle
 62
7
  6
CONTINUOUS
 10
15.1436359587
 20
12.5449054058
 40
0.015
100
AcDbArc
 50
155.2349591454
 51
298.1124318918
  0
ARC
  5
3DA
100
AcDbEntity
  8
0
100
AcDbCircle
 62
7
  6
CONTINUOUS
 10
12.2351151253
 20
12.6649054058
 40
0.3735208333
100
AcDbArc
 50
317.9864211384
 51
42.0135788616
  0
ARC
  5
3DB
100
AcDbEntity
  8
0
100
AcDbCircle
 62
7
  6
CONTINUOUS
 10
14.1836359587
 20
12.6649054058
 40
0.25
100
AcDbArc
 50
55.0995
 51
304.9005
  0
ARC
  5
3DC
100
AcDbEntity
  8
0
100
AcDbCircle
 62
7
  6
CONTINUOUS
 10
14.5550682368
 20
12.9919054058
 40
0.186
100
AcDbArc
 50
226.6958241996
 51
311.7081302521
  0
ARC
  5
3DD
100
AcDbEntity
  8
0
100
AcDbCircle
 62
7
  6
CONTINUOUS
 10
14.6994462129
 20
12.8299054058
 40
0.031
100
AcDbArc
 50
90.0
 51
131.7081302521
  0
ARC
  5
3DE
100
AcDbEntity
  8
0
100
AcDbCircle
 62
7
  6
CONTINUOUS
 10
14.4165222155
 20
12.8449054058
 40
0.016
100
AcDbArc
 50
46.6958241996
 51
180.0
  0
ARC
  5
3DF
100
AcDbEntity
  8
0
100
AcDbCircle
 62
7
  6
CONTINUOUS
 10
14.3849947348
 20
12.8487651133
 40
0.016
100
AcDbArc
 50
235.0995
 51
346.0407512246
  0
ARC
  5
3E0
100
AcDbEntity
  8
0
100
AcDbCircle
 62
7
  6
CONTINUOUS
 10
15.1436359587
 20
12.7849054058
 40
0.015
100
AcDbArc
 50
61.8875681082
 51
204.7650408546
  0
ARC
  5
3E1
100
AcDbEntity
  8
0
100
AcDbCircle
 62
7
  6
CONTINUOUS
 10
15.6219072795
 20
11.6496503898
 40
1.02
100
AcDbArc
 50
95.5287050837
 51
117.2838838627
  0
ARC
  5
3E2
100
AcDbEntity
  8
0
100
AcDbCircle
 62
7
  6
CONTINUOUS
 10
15.6219072795
 20
11.6496503898
 40
1.0
100
AcDbArc
 50
95.5287050837
 51
118.1124318918
  0
ARC
  5
3E3
100
AcDbEntity
  8
0
100
AcDbCircle
 62
7
  6
CONTINUOUS
 10
15.2361359587
 20
12.6649054058
 40
1.18
100
AcDbArc
 50
191.0760073174
 51
346.4924185986
  0
ARC
  5
3E4
100
AcDbEntity
  8
0
100
AcDbCircle
 62
7
  6
CONTINUOUS
 10
15.2361359587
 20
12.6649054058
 40
1.18
100
AcDbArc
 50
13.5075816396
 51
168.9239920695
  0
ARC
  5
3E5
100
AcDbEntity
  8
0
100
AcDbCircle
 62
7
  6
CONTINUOUS
 10
15.6219072795
 20
13.6801604218
 40
1.02
100
AcDbArc
 50
242.7161161373
 51
264.4712949163
  0
ARC
  5
3E6
100
AcDbEntity
  8
0
100
AcDbCircle
 62
7
  6
CONTINUOUS
 10
15.2361359587
 20
12.6649054058
 40
1.0000026738
100
AcDbArc
 50
16.215881983
 51
166.3223714028
  0
ARC
  5
3E7
100
AcDbEntity
  8
0
100
AcDbCircle
 62
7
  6
CONTINUOUS
 10
15.2361359587
 20
12.6649054058
 40
1.0000026738
100
AcDbArc
 50
193.6776285972
 51
343.784118017
  0
ARC
  5
3E8
100
AcDbEntity
  8
0
100
AcDbCircle
 62
7
  6
CONTINUOUS
 10
15.6219072795
 20
13.6801604218
 40
1.0
100
AcDbArc
 50
241.8875681082
 51
264.4712949163
  0
ARC
  5
3E9
100
AcDbEntity
  8
0
100
AcDbCircle
 62
9
  6
CONTINUOUS
 10
15.2361359587
 20
12.6649054058
 40
0.8130026738
100
AcDbArc
 50
19.7141667618
 51
167.3114378843
  0
ARC
  5
3EA
100
AcDbEntity
  8
0
100
AcDbCircle
 62
9
  6
CONTINUOUS
 10
15.2361359587
 20
12.6649054058
 40
0.8130026738
100
AcDbArc
 50
192.6885621157
 51
340.2858332382
  0
ARC
  5
3EB
100
AcDbEntity
  8
0
100
AcDbCircle
 62
7
  6
CONTINUOUS
 10
15.2361359587
 20
12.6649054058
 40
0.741
100
AcDbArc
 50
191.4163374728
 51
237.6295013938
  0
ARC
  5
3EC
100
AcDbEntity
  8
0
100
AcDbCircle
 62
7
  6
CONTINUOUS
 10
15.2361359587
 20
12.6649054058
 40
0.741
100
AcDbArc
 50
242.3704986062
 51
297.6295013938
  0
ARC
  5
3ED
100
AcDbEntity
  8
0
100
AcDbCircle
 62
7
  6
CONTINUOUS
 10
15.2361359587
 20
12.6649054058
 40
0.741
100
AcDbArc
 50
302.3704986062
 51
340.5963894337
  0
ARC
  5
3EE
100
AcDbEntity
  8
0
100
AcDbCircle
 62
7
  6
CONTINUOUS
 10
15.2361359587
 20
12.6649054058
 40
0.741
100
AcDbArc
 50
19.403610757
 51
57.6295013938
  0
ARC
  5
3EF
100
AcDbEntity
  8
0
100
AcDbCircle
 62
7
  6
CONTINUOUS
 10
15.2361359587
 20
12.6649054058
 40
0.741
100
AcDbArc
 50
62.3704986062
 51
117.6295013938
  0
ARC
  5
3F0
100
AcDbEntity
  8
0
100
AcDbCircle
 62
7
  6
CONTINUOUS
 10
15.2361359587
 20
12.6649054058
 40
0.741
100
AcDbArc
 50
122.3704986062
 51
168.583662243
  0
ARC
  5
3F1
100
AcDbEntity
  8
0
100
AcDbCircle
 62
7
  6
CONTINUOUS
 10
15.2361359587
 20
12.6649054058
 40
0.6515
100
AcDbArc
 50
18.9219504962
 51
166.9542756586
  0
ARC
  5
3F2
100
AcDbEntity
  8
0
100
AcDbCircle
 62
7
  6
CONTINUOUS
 10
15.2361359587
 20
12.6649054058
 40
0.6515
100
AcDbArc
 50
193.0457243414
 51
341.0780495038
  0
ARC
  5
3F3
100
AcDbEntity
  8
0
100
AcDbCircle
 62
9
  6
CONTINUOUS
 10
15.2361359587
 20
12.6649054058
 40
0.6146339942
100
AcDbArc
 50
195.4348999001
 51
341.3152799794
  0
ARC
  5
3F4
100
AcDbEntity
  8
0
100
AcDbCircle
 62
9
  6
CONTINUOUS
 10
15.2361359587
 20
12.6649054058
 40
0.6146339942
100
AcDbArc
 50
18.6847200206
 51
164.5651000999
  0
CIRCLE
  5
3F5
100
AcDbEntity
  8
0
100
AcDbCircle
 62
7
  6
CONTINUOUS
 10
15.2361359587
 20
12.6649054058
 40
0.5575
  0
CIRCLE
  5
3F6
100
AcDbEntity
  8
0
100
AcDbCircle
 62
7
  6
CONTINUOUS
 10
15.2361359587
 20
12.6649054058
 40
0.5291923153
  0
CIRCLE
  5
3F7
100
AcDbEntity
  8
0
100
AcDbCircle
 62
7
  6
CONTINUOUS
 10
15.2361359587
 20
12.6649054058
 40
0.5275
  0
CIRCLE
  5
3F8
100
AcDbEntity
  8
0
100
AcDbCircle
 62
7
  6
CONTINUOUS
 10
15.2361359587
 20
12.6649054058
 40
0.5052804212
  0
CIRCLE
  5
3F9
100
AcDbEntity
  8
0
100
AcDbCircle
 62
7
  6
CONTINUOUS
 10
15.2361359587
 20
12.6649054058
 40
0.4545099561
  0
CIRCLE
  5
3FA
100
AcDbEntity
  8
0
100
AcDbCircle
 62
7
  6
CONTINUOUS
 10
15.2361359587
 20
12.6649054058
 40
0.4170458354
  0
CIRCLE
  5
3FB
100
AcDbEntity
  8
0
100
AcDbCircle
 62
9
  6
CONTINUOUS
 10
15.2361359587
 20
12.6649054058
 40
0.3951446566
  0
ARC
  5
3FC
100
AcDbEntity
  8
0
100
AcDbCircle
 62
7
  6
CONTINUOUS
 10
18.2351151253
 20
12.6649054058
 40
0.3735208333
100
AcDbArc
 50
317.9864211385
 51
42.0135788615
  0
ARC
  5
3FD
100
AcDbEntity
  8
0
100
AcDbCircle
 62
7
  6
CONTINUOUS
 10
15.5236359587
 20
12.6649054058
 40
0.02
100
AcDbArc
 50
275.5287050837
 51
84.4712949163
  0
ARC
  5
3FE
100
AcDbEntity
  8
0
100
AcDbCircle
 62
7
  6
CONTINUOUS
 10
25.9457100994
 20
10.1273634819
 40
2.7388214705
100
AcDbArc
 50
180.0683581618
 51
181.1534914568
  0
ARC
  5
3FF
100
AcDbEntity
  8
0
100
AcDbCircle
 62
7
  6
CONTINUOUS
 10
24.1058584004
 20
8.932491997
 40
0.4844033723
100
AcDbArc
 50
170.0786578882
 51
174.1701622415
  0
ARC
  5
400
100
AcDbEntity
  8
0
100
AcDbCircle
 62
7
  6
CONTINUOUS
 10
22.3664135169
 20
8.932491997
 40
0.4844033723
100
AcDbArc
 50
5.8298377585
 51
9.9213421118
  0
ARC
  5
401
100
AcDbEntity
  8
0
100
AcDbCircle
 62
7
  6
CONTINUOUS
 10
23.0740223194
 20
9.0160283142
 40
0.2304491471
100
AcDbArc
 50
180.0194114571
 51
188.6317663808
  0
ARC
  5
402
100
AcDbEntity
  8
0
100
AcDbCircle
 62
7
  6
CONTINUOUS
 10
23.3982495979
 20
9.0160283142
 40
0.2304491471
100
AcDbArc
 50
351.3682336193
 51
359.9805885428
  0
ARC
  5
403
100
AcDbEntity
  8
0
100
AcDbCircle
 62
9
  6
CONTINUOUS
 10
23.4963897474
 20
8.85492446
 40
0.1287575959
100
AcDbArc
 50
5.7254249368
 51
6.7732226261
  0
ARC
  5
404
100
AcDbEntity
  8
0
100
AcDbCircle
 62
9
  6
CONTINUOUS
 10
22.9758821699
 20
8.85492446
 40
0.1287575959
100
AcDbArc
 50
173.2267773745
 51
174.2745750634
  0
ARC
  5
405
100
AcDbEntity
  8
0
100
AcDbCircle
 62
9
  6
CONTINUOUS
 10
22.9747029349
 20
8.8550623247
 40
0.1275703314
100
AcDbArc
 50
172.519003357
 51
173.2257999277
  0
ARC
  5
406
100
AcDbEntity
  8
0
100
AcDbCircle
 62
9
  6
CONTINUOUS
 10
23.4975689825
 20
8.8550623247
 40
0.1275703313
100
AcDbArc
 50
6.7742000726
 51
7.4809966431
  0
ARC
  5
407
100
AcDbEntity
  8
0
100
AcDbCircle
 62
9
  6
CONTINUOUS
 10
23.0441268236
 20
12.0660700399
 40
0.2779908822
100
AcDbArc
 50
180.0202216795
 51
191.9794446961
  0
ARC
  5
408
100
AcDbEntity
  8
0
100
AcDbCircle
 62
9
  6
CONTINUOUS
 10
22.9423754277
 20
12.1224983043
 40
0.0865021507
100
AcDbArc
 50
109.9112143842
 51
113.3553831105
  0
ARC
  5
409
100
AcDbEntity
  8
0
100
AcDbCircle
 62
9
  6
CONTINUOUS
 10
22.870110783
 20
12.0760391456
 40
0.0446925638
100
AcDbArc
 50
178.0680870941
 51
179.9997296906
  0
ARC
  5
40A
100
AcDbEntity
  8
0
100
AcDbCircle
 62
7
  6
CONTINUOUS
 10
23.0559589012
 20
12.2899203952
 40
0.3105479861
100
AcDbArc
 50
199.8952996466
 51
201.0506930153
  0
ARC
  5
40B
100
AcDbEntity
  8
0
100
AcDbCircle
 62
7
  6
CONTINUOUS
 10
23.2360937631
 20
11.803197214
 40
0.5098586713
100
AcDbArc
 50
92.710377101
 51
92.905901894
  0
ARC
  5
40C
100
AcDbEntity
  8
0
100
AcDbCircle
 62
7
  6
CONTINUOUS
 10
23.2372071159
 20
11.8129766483
 40
0.500021754
100
AcDbArc
 50
81.5376074507
 51
81.7984992415
  0
ARC
  5
40D
100
AcDbEntity
  8
0
100
AcDbCircle
 62
9
  6
CONTINUOUS
 10
23.4290714049
 20
12.066014744
 40
0.2770645571
100
AcDbArc
 50
350.9047215077
 51
359.9911456595
  0
ARC
  5
40E
100
AcDbEntity
  8
0
100
AcDbCircle
 62
9
  6
CONTINUOUS
 10
23.3440624678
 20
12.2244648916
 40
0.0845750551
100
AcDbArc
 50
110.4842780172
 51
110.6282006368
  0
ARC
  5
40F
100
AcDbEntity
  8
0
100
AcDbCircle
 62
7
  6
CONTINUOUS
 10
23.2958299484
 20
12.266029716
 40
0.0958675577
100
AcDbArc
 50
151.5454042494
 51
153.6072974282
  0
ARC
  5
410
100
AcDbEntity
  8
0
100
AcDbCircle
 62
7
  6
CONTINUOUS
 10
23.2482047768
 20
12.2540635085
 40
0.0683198557
100
AcDbArc
 50
121.1610447053
 51
122.4474705391
  0
ARC
  5
411
100
AcDbEntity
  8
0
100
AcDbCircle
 62
7
  6
CONTINUOUS
 10
23.1825940697
 20
12.2580296821
 40
0.0609983152
100
AcDbArc
 50
61.6608025975
 51
63.0428590486
  0
ARC
  5
412
100
AcDbEntity
  8
0
100
AcDbCircle
 62
7
  6
CONTINUOUS
 10
23.2361359587
 20
12.6649054058
 40
0.9794250637
100
AcDbArc
 50
300.0177267377
 51
240.2002677667
  0
ARC
  5
413
100
AcDbEntity
  8
0
100
AcDbCircle
 62
9
  6
CONTINUOUS
 10
23.2361359587
 20
12.6649054058
 40
0.7622057121
100
AcDbArc
 50
308.0718326349
 51
231.9281673425
  0
ARC
  5
414
100
AcDbEntity
  8
0
100
AcDbCircle
 62
9
  6
CONTINUOUS
 10
23.2361359587
 20
12.6649054058
 40
0.7298140957
100
AcDbArc
 50
310.1064731142
 51
229.8935268909
  0
ARC
  5
415
100
AcDbEntity
  8
0
100
AcDbCircle
 62
7
  6
CONTINUOUS
 10
23.2361359587
 20
12.6649054058
 40
0.5475
100
AcDbArc
 50
332.9443433651
 51
207.0556566349
  0
ARC
  5
416
100
AcDbEntity
  8
0
100
AcDbCircle
 62
9
  6
CONTINUOUS
 10
23.2361359587
 20
12.6649054058
 40
0.5175
100
AcDbArc
 50
340.4256396444
 51
199.5743603556
  0
ARC
  5
417
100
AcDbEntity
  8
0
100
AcDbCircle
 62
7
  6
CONTINUOUS
 10
23.2361359587
 20
12.6649054058
 40
0.4875
100
AcDbArc
 50
0.0
 51
180.0
  0
ARC
  5
418
100
AcDbEntity
  8
0
100
AcDbCircle
 62
7
  6
CONTINUOUS
 10
23.4159261284
 20
12.2900648388
 40
0.3109609373
100
AcDbArc
 50
338.9500741827
 51
340.1039331553
  0
ARC
  5
419
100
AcDbEntity
  8
0
100
AcDbCircle
 62
7
  6
CONTINUOUS
 10
23.3315006817
 20
12.2582123253
 40
0.0535122875
100
AcDbArc
 50
112.7691220541
 51
114.0356202988
  0
SPLINE
  5
41A
100
AcDbEntity
  8
0
100
AcDbSpline
 62
7
  6
CONTINUOUS
 70
0
 71
3
 72
11
 73
7
 74
0
 42
0.0000001
 43
0.0000001
 44
0.0000000001
 40
0.0
 40
0.0
 40
0.0
 40
0.0
 40
0.248048877
 40
0.4968891318
 40
0.7472941467
 40
1.0
 40
1.0
 40
1.0
 40
1.0
 10
22.7461359587
 20
12.2845197145
 30
0.0
 10
22.7461359587
 20
12.2760585633
 30
0.0
 10
22.7468856001
 20
12.2590998749
 30
0.0
 10
22.7502521967
 20
12.233800573
 30
0.0
 10
22.7558442875
 20
12.2087360774
 30
0.0
 10
22.7610122924
 20
12.192345715
 30
0.0
 10
22.7639456463
 20
12.1842401668
 30
0.0
  0
SPLINE
  5
41B
100
AcDbEntity
  8
0
100
AcDbSpline
 62
7
  6
CONTINUOUS
 70
0
 71
3
 72
11
 73
7
 74
0
 42
0.0000001
 43
0.0000001
 44
0.0000000001
 40
0.0
 40
0.0
 40
0.0
 40
0.0
 40
0.2527058533
 40
0.5031108682
 40
0.751951123
 40
1.0
 40
1.0
 40
1.0
 40
1.0
 10
23.708326271
 20
12.1842401668
 30
0.0
 10
23.7112596249
 20
12.192345715
 30
0.0
 10
23.7164276298
 20
12.2087360774
 30
0.0
 10
23.7220197206
 20
12.233800573
 30
0.0
 10
23.7253863173
 20
12.2590998749
 30
0.0
 10
23.7261359587
 20
12.2760585633
 30
0.0
 10
23.7261359587
 20
12.2845197145
 30
0.0
  0
SPLINE
  5
41C
100
AcDbEntity
  8
0
100
AcDbSpline
 62
7
  6
CONTINUOUS
 70
0
 71
3
 72
16
 73
12
 74
0
 42
0.0000001
 43
0.0000001
 44
0.0000000001
 40
0.0
 40
0.0
 40
0.0
 40
0.0
 40
0.1215657058
 40
0.2451237717
 40
0.3701906862
 40
0.4962498979
 40
0.559502843
 40
0.6228126667
 40
0.74931405
 40
0.875229034
 40
1.0
 40
1.0
 40
1.0
 40
1.0
 10
23.2102460621
 20
12.3124002786
 30
0.0
 10
23.2079716409
 20
12.3133563028
 30
0.0
 10
23.2032975458
 20
12.3150807263
 30
0.0
 10
23.196048835
 20
12.3170860904
 30
0.0
 10
23.1885725096
 20
12.3185181431
 30
0.0
 10
23.1822234174
 20
12.3192184624
 30
0.0
 10
23.1771016935
 20
12.3194753897
 30
0.0
 10
23.1719648357
 20
12.3195267555
 30
0.0
 10
23.1655576696
 20
12.3192104892
 30
0.0
 10
23.1579578039
 20
12.3182343074
 30
0.0
 10
23.1529723894
 20
12.3171869055
 30
0.0
 10
23.1505177951
 20
12.3165646865
 30
0.0
  0
SPLINE
  5
41D
100
AcDbEntity
  8
0
100
AcDbSpline
 62
7
  6
CONTINUOUS
 70
0
 71
3
 72
12
 73
8
 74
0
 42
0.0000001
 43
0.0000001
 44
0.0000000001
 40
0.0
 40
0.0
 40
0.0
 40
0.0
 40
0.2500898752
 40
0.501354469
 40
0.6268720188
 40
0.7519749068
 40
1.0
 40
1.0
 40
1.0
 40
1.0
 10
23.1115833173
 20
12.298487909
 30
0.0
 10
23.1083059055
 20
12.2990453775
 30
0.0
 10
23.1016723659
 20
12.2998169459
 30
0.0
 10
23.0933254864
 20
12.2999367271
 30
0.0
 10
23.086663873
 20
12.2995240107
 30
0.0
 10
23.0800757915
 20
12.2987739855
 30
0.0
 10
23.0751951159
 20
12.2978238477
 30
0.0
 10
23.0719972215
 20
12.297021397
 30
0.0
  0
SPLINE
  5
41E
100
AcDbEntity
  8
0
100
AcDbSpline
 62
7
  6
CONTINUOUS
 70
0
 71
3
 72
9
 73
5
 74
0
 42
0.0000001
 43
0.0000001
 44
0.0000000001
 40
0.0
 40
0.0
 40
0.0
 40
0.0
 40
0.2523258723
 40
1.0
 40
1.0
 40
1.0
 40
1.0
 10
23.0100073775
 20
12.2646164987
 30
0.0
 10
23.0087780021
 20
12.2644207875
 30
0.0
 10
23.0039214633
 20
12.2635508378
 30
0.0
 10
22.9991315638
 20
12.262302204
 30
0.0
 10
22.9956275287
 20
12.2611498062
 30
0.0
  0
SPLINE
  5
41F
100
AcDbEntity
  8
0
100
AcDbSpline
 62
7
  6
CONTINUOUS
 70
0
 71
3
 72
43
 73
39
 74
0
 42
0.0000001
 43
0.0000001
 44
0.0000000001
 40
0.0
 40
0.0
 40
0.0
 40
0.0
 40
0.0316967234
 40
0.0475448772
 40
0.0633900256
 40
0.0950616738
 40
0.1267089169
 40
0.1425237482
 40
0.1583298252
 40
0.1899072674
 40
0.2214408996
 40
0.2529260705
 40
0.2843592306
 40
0.3157380245
 40
0.3470613125
 40
0.3783292194
 40
0.4095431141
 40
0.4407055644
 40
0.4718203
 40
0.5028920993
 40
0.5339266908
 40
0.5649306297
 40
0.5959111345
 40
0.6268759425
 40
0.6578331334
 40
0.6887909511
 40
0.7197576258
 40
0.7507411979
 40
0.7817493349
 40
0.8127891655
 40
0.8438671297
 40
0.8594250348
 40
0.8749944873
 40
0.9061645267
 40
0.9373864755
 40
0.9530204889
 40
0.9686682714
 40
1.0
 40
1.0
 40
1.0
 40
1.0
 10
5.2361359587
 20
0.7978044805
 30
0.0
 10
5.2500492197
 20
0.7978044805
 30
0.0
 10
5.2709294644
 20
0.7985643064
 30
0.0
 10
5.2986437888
 20
0.8010923055
 30
0.0
 10
5.3262381133
 20
0.8046257627
 30
0.0
 10
5.3604453672
 20
0.8109204877
 30
0.0
 10
5.3940899292
 20
0.8196896653
 30
0.0
 10
5.4205443057
 20
0.8281588217
 30
0.0
 10
5.4466419848
 20
0.8375802333
 30
0.0
 10
5.4785598449
 20
0.8511291291
 30
0.0
 10
5.5155176881
 20
0.8701378531
 30
0.0
 10
5.5509187861
 20
0.8917902531
 30
0.0
 10
5.5845622145
 20
0.9159676458
 30
0.0
 10
5.6162578777
 20
0.9425375211
 30
0.0
 10
5.6458254762
 20
0.9713534595
 30
0.0
 10
5.6730960184
 20
1.0022560821
 30
0.0
 10
5.6979129259
 20
1.0350735333
 30
0.0
 10
5.7201329593
 20
1.0696224768
 30
0.0
 10
5.7396271392
 20
1.1057090094
 30
0.0
 10
5.7562818972
 20
1.1431295785
 30
0.0
 10
5.7699996609
 20
1.1816722663
 30
0.0
 10
5.780699744
 20
1.2211179383
 30
0.0
 10
5.7883191005
 20
1.2612415771
 30
0.0
 10
5.7928125749
 20
1.3018137544
 30
0.0
 10
5.7941535738
 20
1.3426020523
 30
0.0
 10
5.7923341868
 20
1.3833726253
 30
0.0
 10
5.7873650975
 20
1.4238917659
 30
0.0
 10
5.7792758824
 20
1.4639273292
 30
0.0
 10
5.7681141586
 20
1.5032508
 30
0.0
 10
5.7539464168
 20
1.5416366525
 30
0.0
 10
5.7397065317
 20
1.5726562993
 30
0.0
 10
5.7269083587
 20
1.5967826387
 30
0.0
 10
5.7131786526
 20
1.6204382142
 30
0.0
 10
5.6943180272
 20
1.6490348588
 30
0.0
 10
5.6733265669
 20
1.6761412524
 30
0.0
 10
5.6553235563
 20
1.6968523698
 30
0.0
 10
5.6365214685
 20
1.7169052095
 30
0.0
 10
5.6215722481
 20
1.7311468394
 30
0.0
 10
5.6112670386
 20
1.7402544708
 30
0.0
  0
SPLINE
  5
420
100
AcDbEntity
  8
0
100
AcDbSpline
 62
7
  6
CONTINUOUS
 70
0
 71
3
 72
43
 73
39
 74
0
 42
0.0000001
 43
0.0000001
 44
0.0000000001
 40
0.0
 40
0.0
 40
0.0
 40
0.0
 40
0.0313317145
 40
0.04697949
 40
0.0626134965
 40
0.0938354319
 40
0.1250054584
 40
0.1405749049
 40
0.1561328041
 40
0.1872107575
 40
0.2182505787
 40
0.2492587079
 40
0.2802422736
 40
0.3112089439
 40
0.3421667588
 40
0.3731239488
 40
0.4040887575
 40
0.4350692648
 40
0.4660732076
 40
0.4971078045
 40
0.5281796104
 40
0.5592943535
 40
0.5904568122
 40
0.6216707157
 40
0.6529386316
 40
0.6842619288
 40
0.7156407315
 40
0.7470738999
 40
0.7785590786
 40
0.8100927176
 40
0.8416701656
 40
0.857476245
 40
0.8732910785
 40
0.9049383248
 40
0.936609975
 40
0.9524551238
 40
0.9683032776
 40
1.0
 40
1.0
 40
1.0
 40
1.0
 10
4.8610036465
 20
1.7402533815
 30
0.0
 10
4.8506984811
 20
1.7311457354
 30
0.0
 10
4.8357493275
 20
1.7169040863
 30
0.0
 10
4.8169473295
 20
1.6968512262
 30
0.0
 10
4.7989444071
 20
1.6761400935
 30
0.0
 10
4.7779530554
 20
1.6490336886
 30
0.0
 10
4.7590925343
 20
1.6204370435
 30
0.0
 10
4.7453629112
 20
1.5967814719
 30
0.0
 10
4.7325648194
 20
1.5726551394
 30
0.0
 10
4.7183250289
 20
1.5416355088
 30
0.0
 10
4.7041573952
 20
1.5032496839
 30
0.0
 10
4.6929957761
 20
1.4639262474
 30
0.0
 10
4.6849066511
 20
1.4238907264
 30
0.0
 10
4.6799376495
 20
1.3833716324
 30
0.0
 10
4.6781183405
 20
1.3426011107
 30
0.0
 10
4.6794594051
 20
1.3018128672
 30
0.0
 10
4.6839529445
 20
1.2612407475
 30
0.0
 10
4.691572352
 20
1.2211171672
 30
0.0
 10
4.7022724789
 20
1.1816715545
 30
0.0
 10
4.7159902834
 20
1.1431289282
 30
0.0
 10
4.7326450691
 20
1.1057084181
 30
0.0
 10
4.7521392727
 20
1.0696219454
 30
0.0
 10
4.7743593236
 20
1.0350730613
 30
0.0
 10
4.7991762388
 20
1.0022556661
 30
0.0
 10
4.8264467854
 20
0.9713531002
 30
0.0
 10
4.8560143802
 20
0.9425372151
 30
0.0
 10
4.887710033
 20
0.9159673898
 30
0.0
 10
4.9213534463
 20
0.8917900459
 30
0.0
 10
4.956754522
 20
0.8701376898
 30
0.0
 10
4.9937123375
 20
0.8511290057
 30
0.0
 10
5.0256301704
 20
0.8375801401
 30
0.0
 10
5.051727825
 20
0.8281587492
 30
0.0
 10
5.078182175
 20
0.8196896125
 30
0.0
 10
5.1118267008
 20
0.8109204554
 30
0.0
 10
5.1460339158
 20
0.8046257458
 30
0.0
 10
5.1736282074
 20
0.8010922972
 30
0.0
 10
5.2013424973
 20
0.7985643045
 30
0.0
 10
5.2222227154
 20
0.7978044805
 30
0.0
 10
5.2361359587
 20
0.7978044805
 30
0.0
  0
SPLINE
  5
421
100
AcDbEntity
  8
0
100
AcDbSpline
 62
7
  6
CONTINUOUS
 70
0
 71
3
 72
18
 73
14
 74
0
 42
0.0000001
 43
0.0000001
 44
0.0000000001
 40
0.0
 40
0.0
 40
0.0
 40
0.0
 40
0.1243650991
 40
0.2482876365
 40
0.3101923856
 40
0.3721065155
 40
0.4340710542
 40
0.4961254375
 40
0.6206310306
 40
0.7459332253
 40
0.8089780348
 40
0.872320545
 40
1.0
 40
1.0
 40
1.0
 40
1.0
 10
22.7260145232
 20
9.6220890811
 30
0.0
 10
22.7245636105
 20
9.6298334649
 30
0.0
 10
22.7222549327
 20
9.6454113736
 30
0.0
 10
22.7208872861
 20
9.6650368093
 30
0.0
 10
22.7207205432
 20
9.6807350241
 30
0.0
 10
22.721059702
 20
9.6925035279
 30
0.0
 10
22.7218598969
 20
9.7042591582
 30
0.0
 10
22.7235394998
 20
9.7199178835
 30
0.0
 10
22.7267853879
 20
9.7394284619
 30
0.0
 10
22.731520722
 20
9.7586956269
 30
0.0
 10
22.7361890561
 20
9.7739461812
 30
0.0
 10
22.7414694415
 20
9.7891546114
 30
0.0
 10
22.7460714599
 20
9.8003629982
 30
0.0
 10
22.749411448
 20
9.807730367
 30
0.0
  0
SPLINE
  5
422
100
AcDbEntity
  8
0
100
AcDbSpline
 62
7
  6
CONTINUOUS
 70
0
 71
3
 72
30
 73
26
 74
0
 42
0.0000001
 43
0.0000001
 44
0.0000000001
 40
0.0
 40
0.0
 40
0.0
 40
0.0
 40
0.027190369
 40
0.0546131169
 40
0.0822858558
 40
0.1102220966
 40
0.1669145384
 40
0.2247697937
 40
0.2838288873
 40
0.3138235298
 40
0.3441272535
 40
0.3747397406
 40
0.4056561979
 40
0.4683606766
 40
0.532171473
 40
0.5969869373
 40
0.6626910413
 40
0.6958418882
 40
0.7291683558
 40
0.7626549064
 40
0.796286009
 40
0.8300437605
 40
0.8639083115
 40
0.931867262
 40
1.0
 40
1.0
 40
1.0
 40
1.0
 10
22.749411448
 20
9.807730367
 30
0.0
 10
22.7515968635
 20
9.8125509717
 30
0.0
 10
22.7562152385
 20
9.8221314348
 30
0.0
 10
22.7638368789
 20
9.8362256998
 30
0.0
 10
22.7721697202
 20
9.8500817243
 30
0.0
 10
22.7842626987
 20
9.8682998565
 30
0.0
 10
22.8011072221
 20
9.8903815148
 30
0.0
 10
22.8237951599
 20
9.9154756848
 30
0.0
 10
22.8446371279
 20
9.9351039416
 30
0.0
 10
22.8624496876
 20
9.9500285389
 30
0.0
 10
22.8764441128
 20
9.9608676213
 30
0.0
 10
22.8909829485
 20
9.971275599
 30
0.0
 10
22.9111520356
 20
9.9846266036
 30
0.0
 10
22.9375995851
 20
10.0001616631
 30
0.0
 10
22.9709427722
 20
10.016815814
 30
0.0
 10
23.0058397094
 20
10.0314828933
 30
0.0
 10
23.0359572443
 20
10.0419444329
 30
0.0
 10
23.0606338658
 20
10.0492441487
 30
0.0
 10
23.0794591872
 20
10.0541820226
 30
0.0
 10
23.0985194222
 20
10.0585550549
 30
0.0
 10
23.1177885145
 20
10.0623509322
 30
0.0
 10
23.1372375291
 20
10.0655664923
 30
0.0
 10
23.1633978212
 20
10.0690826409
 30
0.0
 10
23.1963716066
 20
10.0720141466
 30
0.0
 10
23.2228692549
 20
10.0727972209
 30
0.0
 10
23.2361319077
 20
10.0727973007
 30
0.0
  0
SPLINE
  5
423
100
AcDbEntity
  8
0
100
AcDbSpline
 62
7
  6
CONTINUOUS
 70
0
 71
3
 72
23
 73
19
 74
0
 42
0.0000001
 43
0.0000001
 44
0.0000000001
 40
0.0
 40
0.0
 40
0.0
 40
0.0
 40
0.0599017787
 40
0.1195948643
 40
0.1494095308
 40
0.1792228655
 40
0.2389056115
 40
0.2987874879
 40
0.3589931247
 40
0.4196388183
 40
0.4808338625
 40
0.5426819611
 40
0.5738865743
 40
0.6052911561
 40
0.6687286787
 40
0.7330639837
 40
0.8645366404
 40
1.0
 40
1.0
 40
1.0
 40
1.0
 10
23.7462573941
 20
9.6220890811
 30
0.0
 10
23.747622935
 20
9.6293777851
 30
0.0
 10
23.7498284374
 20
9.6440328366
 30
0.0
 10
23.751242517
 20
9.6624921067
 30
0.0
 10
23.7515539511
 20
9.6772631734
 30
0.0
 10
23.7513170918
 20
9.6920342167
 30
0.0
 10
23.749995303
 20
9.7104972635
 30
0.0
 10
23.7467892413
 20
9.7325389119
 30
0.0
 10
23.7419814344
 20
9.7544096225
 30
0.0
 10
23.735590504
 20
9.7760402723
 30
0.0
 10
23.7276353876
 20
9.7973620968
 30
0.0
 10
23.7197404586
 20
9.8147662194
 30
0.0
 10
23.7126727298
 20
9.8284594212
 30
0.0
 10
23.7050530163
 20
9.8420792763
 30
0.0
 10
23.694581285
 20
9.858790222
 30
0.0
 10
23.6758298783
 20
9.8848577869
 30
0.0
 10
23.648818097
 20
9.9158535838
 30
0.0
 10
23.6242957802
 20
9.9381248863
 30
0.0
 10
23.6112824538
 20
9.9487019373
 30
0.0
  0
LINE
  5
424
100
AcDbEntity
  8
0
100
AcDbLine
 62
7
  6
CONTINUOUS
 10
23.6112824538
 20
9.9487019373
 11
23.6104631334
 21
9.9493663042
  0
SPLINE
  5
425
100
AcDbEntity
  8
0
100
AcDbSpline
 62
7
  6
CONTINUOUS
 70
0
 71
3
 72
20
 73
16
 74
0
 42
0.0000001
 43
0.0000001
 44
0.0000000001
 40
0.0
 40
0.0
 40
0.0
 40
0.0
 40
0.0580389461
 40
0.1168521805
 40
0.1764203228
 40
0.2367146647
 40
0.3593033432
 40
0.4842998465
 40
0.5475903739
 40
0.611331154
 40
0.6754707394
 40
0.7399556254
 40
0.8047225337
 40
0.8697034689
 40
1.0
 40
1.0
 40
1.0
 40
1.0
 10
23.6104631334
 20
9.9493663042
 30
0.0
 10
23.6044233415
 20
9.954252311
 30
0.0
 10
23.5920101418
 20
9.9637809601
 30
0.0
 10
23.5725865621
 20
9.9772259189
 30
0.0
 10
23.5522921522
 20
9.9898969582
 30
0.0
 10
23.5239978576
 20
10.0058100419
 30
0.0
 10
23.4867562077
 20
10.0235854306
 30
0.0
 10
23.4477724916
 20
10.0382830581
 30
0.0
 10
23.4155271085
 20
10.0482219639
 30
0.0
 10
23.3907785419
 20
10.0547543658
 30
0.0
 10
23.365628394
 20
10.0603064572
 30
0.0
 10
23.3401382151
 20
10.0648550358
 30
0.0
 10
23.3143748922
 20
10.0683989211
 30
0.0
 10
23.2797260625
 20
10.0717819857
 30
0.0
 10
23.2535724386
 20
10.0727974058
 30
0.0
 10
23.2361319077
 20
10.0727973007
 30
0.0
  0
LINE
  5
426
100
AcDbEntity
  8
0
100
AcDbLine
 62
7
  6
CONTINUOUS
 10
23.2119838908
 20
12.3124855201
 11
23.2128529866
 21
12.3125259205
  0
SPLINE
  5
427
100
AcDbEntity
  8
0
100
AcDbSpline
 62
7
  6
CONTINUOUS
 70
0
 71
3
 72
28
 73
24
 74
0
 42
0.0000001
 43
0.0000001
 44
0.0000000001
 40
0.0
 40
0.0
 40
0.0
 40
0.0
 40
0.0641708257
 40
0.1282945163
 40
0.192323769
 40
0.2562092971
 40
0.319903701
 40
0.3516698589
 40
0.3833733902
 40
0.4150108022
 40
0.4465789363
 40
0.5094856129
 40
0.5720730343
 40
0.6343141605
 40
0.6653019655
 40
0.696195768
 40
0.7269943709
 40
0.7576974949
 40
0.7883061785
 40
0.8188217503
 40
0.8795692466
 40
0.939957999
 40
1.0
 40
1.0
 40
1.0
 40
1.0
 10
23.2361306522
 20
6.6039149924
 30
0.0
 10
23.2579165506
 20
6.6039148822
 30
0.0
 10
23.301484246
 20
6.6052714727
 30
0.0
 10
23.3665358534
 20
6.6113243174
 30
0.0
 10
23.4310007571
 20
6.6213415605
 30
0.0
 10
23.4945842019
 20
6.635269695
 30
0.0
 10
23.5466474008
 20
6.6501071324
 30
0.0
 10
23.5875677534
 20
6.6638861661
 30
0.0
 10
23.6178310527
 20
6.6751582048
 30
0.0
 10
23.6476566869
 20
6.6873656694
 30
0.0
 10
23.6867497698
 20
6.7048399473
 30
0.0
 10
23.7343719596
 20
6.7289157337
 30
0.0
 10
23.7893332769
 20
6.7612702625
 30
0.0
 10
23.8331271171
 20
6.7910158208
 30
0.0
 10
23.8667831156
 20
6.8163838948
 30
0.0
 10
23.891273693
 20
6.8361481658
 30
0.0
 10
23.9150161605
 20
6.8566573136
 30
0.0
 10
23.9379787889
 20
6.8778937861
 30
0.0
 10
23.9601376965
 20
6.8998317444
 30
0.0
 10
23.9885379683
 20
6.9299293953
 30
0.0
 10
24.021944199
 20
6.9691640051
 30
0.0
 10
24.0585406006
 20
7.0186585081
 30
0.0
 10
24.0805304381
 20
7.0531747746
 30
0.0
 10
24.0908685412
 20
7.0707428694
 30
0.0
  0
SPLINE
  5
428
100
AcDbEntity
  8
0
100
AcDbSpline
 62
7
  6
CONTINUOUS
 70
0
 71
3
 72
28
 73
24
 74
0
 42
0.0000001
 43
0.0000001
 44
0.0000000001
 40
0.0
 40
0.0
 40
0.0
 40
0.0
 40
0.0641708393
 40
0.1282945372
 40
0.1923237912
 40
0.2562093155
 40
0.3199037119
 40
0.3516698653
 40
0.3833733917
 40
0.4150107989
 40
0.4465789283
 40
0.5094855958
 40
0.5720730091
 40
0.6343141287
 40
0.6653019312
 40
0.696195732
 40
0.7269943341
 40
0.7576974582
 40
0.788306143
 40
0.818821717
 40
0.8795692207
 40
0.9399579842
 40
1.0
 40
1.0
 40
1.0
 40
1.0
 10
23.2361306522
 20
6.6039149924
 30
0.0
 10
23.2143449761
 20
6.6039151026
 30
0.0
 10
23.1707777414
 20
6.6052721032
 30
0.0
 10
23.1057268597
 20
6.6113254735
 30
0.0
 10
23.0412627109
 20
6.6213431544
 30
0.0
 10
22.9776800414
 20
6.6352716403
 30
0.0
 10
22.9256174985
 20
6.6501093004
 30
0.0
 10
22.8846976726
 20
6.6638884705
 30
0.0
 10
22.854434768
 20
6.6751605911
 30
0.0
 10
22.824609526
 20
6.6873681148
 30
0.0
 10
22.7855169607
 20
6.7048424418
 30
0.0
 10
22.7378954069
 20
6.7289182358
 30
0.0
 10
22.6829348279
 20
6.7612726918
 30
0.0
 10
22.639141577
 20
6.7910181245
 30
0.0
 10
22.6054860296
 20
6.8163860614
 30
0.0
 10
22.5809957788
 20
6.8361502123
 30
0.0
 10
22.5572536259
 20
6.856659223
 30
0.0
 10
22.5342912991
 20
6.8778955417
 30
0.0
 10
22.5121326783
 20
6.8998333296
 30
0.0
 10
22.4837327675
 20
6.9299307334
 30
0.0
 10
22.4503269489
 20
6.9691649972
 30
0.0
 10
22.4137309744
 20
7.0186590316
 30
0.0
 10
22.3917413741
 20
7.0531749532
 30
0.0
 10
22.3814033762
 20
7.0707428693
 30
0.0
  0
SPLINE
  5
429
100
AcDbEntity
  8
0
100
AcDbSpline
 62
7
  6
CONTINUOUS
 70
0
 71
3
 72
20
 73
16
 74
0
 42
0.0000001
 43
0.0000001
 44
0.0000000001
 40
0.0
 40
0.0
 40
0.0
 40
0.0
 40
0.1206189219
 40
0.1823402973
 40
0.2448274473
 40
0.371540317
 40
0.4355280505
 40
0.4996916253
 40
0.563857233
 40
0.6278542882
 40
0.6915227815
 40
0.7547202528
 40
0.8173071163
 40
0.8791452783
 40
1.0
 40
1.0
 40
1.0
 40
1.0
 10
23.3015143715
 20
12.3122111818
 30
0.0
 10
23.2982826228
 20
12.3140399395
 30
0.0
 10
23.2931919924
 20
12.3164587108
 30
0.0
 10
23.2860979146
 20
12.3190147738
 30
0.0
 10
23.2786723934
 20
12.3211610144
 30
0.0
 10
23.2709868099
 20
12.322597294
 30
0.0
 10
23.2631719873
 20
12.3233335174
 30
0.0
 10
23.2572510233
 20
12.3235344119
 30
0.0
 10
23.2513287175
 20
12.3233799955
 30
0.0
 10
23.2454415569
 20
12.3228688597
 30
0.0
 10
23.2396268251
 20
12.3219976885
 30
0.0
 10
23.2339203273
 20
12.320774918
 30
0.0
 10
23.2283552112
 20
12.3192123992
 30
0.0
 10
23.2212271869
 20
12.3167114717
 30
0.0
 10
23.2161052376
 20
12.3143329569
 30
0.0
 10
23.2128529866
 20
12.3125259205
 30
0.0
  0
SPLINE
  5
42A
100
AcDbEntity
  8
0
100
AcDbSpline
 62
7
  6
CONTINUOUS
 70
0
 71
3
 72
14
 73
10
 74
0
 42
0.0000001
 43
0.0000001
 44
0.0000000001
 40
0.0
 40
0.0
 40
0.0
 40
0.0
 40
0.1243970073
 40
0.2496592583
 40
0.3754470539
 40
0.5014272902
 40
0.6272485593
 40
0.7525460223
 40
1.0
 40
1.0
 40
1.0
 40
1.0
 10
23.3600221043
 20
12.3091240524
 30
0.0
 10
23.3580104969
 20
12.3095892031
 30
0.0
 10
23.3539412905
 20
12.310389771
 30
0.0
 10
23.3477577779
 20
12.3111944824
 30
0.0
 10
23.3415083823
 20
12.3115966298
 30
0.0
 10
23.3352371247
 20
12.3115920743
 30
0.0
 10
23.3289865736
 20
12.3111878649
 30
0.0
 10
23.3207762125
 20
12.3101276329
 30
0.0
 10
23.3147215315
 20
12.3087440073
 30
0.0
 10
23.3107904248
 20
12.3075544997
 30
0.0
  0
SPLINE
  5
42B
100
AcDbEntity
  8
0
100
AcDbSpline
 62
7
  6
CONTINUOUS
 70
0
 71
3
 72
10
 73
6
 74
0
 42
0.0000001
 43
0.0000001
 44
0.0000000001
 40
0.0
 40
0.0
 40
0.0
 40
0.0
 40
0.4965295056
 40
0.7479100787
 40
1.0
 40
1.0
 40
1.0
 40
1.0
 10
23.4395825391
 20
12.280917029
 30
0.0
 10
23.4350869089
 20
12.2822018431
 30
0.0
 10
23.4281495769
 20
12.2836060748
 30
0.0
 10
23.4187674435
 20
12.2844622243
 30
0.0
 10
23.4140218871
 20
12.2845521851
 30
0.0
 10
23.4116484106
 20
12.2845111618
 30
0.0
  0
SPLINE
  5
42C
100
AcDbEntity
  8
0
100
AcDbSpline
 62
7
  6
CONTINUOUS
 70
0
 71
3
 72
51
 73
47
 74
0
 42
0.0000001
 43
0.0000001
 44
0.0000000001
 40
0.0
 40
0.0
 40
0.0
 40
0.0
 40
0.0137386586
 40
0.0274967891
 40
0.0412932952
 40
0.0551469961
 40
0.0690758078
 40
0.0830968432
 40
0.0972260978
 40
0.1114783159
 40
0.1258668283
 40
0.1404034053
 40
0.1550981661
 40
0.1699594998
 40
0.2001965111
 40
0.2311560647
 40
0.2628402165
 40
0.2952235105
 40
0.3282552981
 40
0.3618625999
 40
0.3959534732
 40
0.4304205963
 40
0.4651450419
 40
0.5000000926
 40
0.5348551417
 40
0.5695795826
 40
0.6040466979
 40
0.6381375611
 40
0.67174485
 40
0.7047766223
 40
0.7371598999
 40
0.7688440343
 40
0.7998035695
 40
0.830040563
 40
0.844901888
 40
0.8595966405
 40
0.8741332097
 40
0.8885217147
 40
0.9027739261
 40
0.9169031747
 40
0.9309242048
 40
0.944853012
 40
0.9587067093
 40
0.9725032129
 40
0.9862613418
 40
1.0
 40
1.0
 40
1.0
 40
1.0
 10
23.7261359587
 20
12.3680821038
 30
0.0
 10
23.7261359587
 20
12.374365424
 30
0.0
 10
23.7257348368
 20
12.3869446433
 30
0.0
 10
23.723932176
 20
12.4057558723
 30
0.0
 10
23.7209339736
 20
12.4244678732
 30
0.0
 10
23.7167496224
 20
12.4430304402
 30
0.0
 10
23.7113918672
 20
12.461395722
 30
0.0
 10
23.7048768393
 20
12.4795166942
 30
0.0
 10
23.6972236917
 20
12.497347862
 30
0.0
 10
23.6884544455
 20
12.5148452313
 30
0.0
 10
23.678593699
 20
12.5319664627
 30
0.0
 10
23.6676686253
 20
12.5486707197
 30
0.0
 10
23.6557080794
 20
12.5649193252
 30
0.0
 10
23.6383255889
 20
12.5860442834
 30
0.0
 10
23.6141166029
 20
12.6111160224
 30
0.0
 10
23.581659382
 20
12.6386203641
 30
0.0
 10
23.5459393913
 20
12.6634863428
 30
0.0
 10
23.5073027042
 20
12.6854950885
 30
0.0
 10
23.4661159666
 20
12.704455842
 30
0.0
 10
23.4227680043
 20
12.7202026903
 30
0.0
 10
23.3776664787
 20
12.7325973409
 30
0.0
 10
23.3312350843
 20
12.7415302326
 30
0.0
 10
23.2839099698
 20
12.746921998
 30
0.0
 10
23.2361358321
 20
12.7487246054
 30
0.0
 10
23.1883616972
 20
12.7469219809
 30
0.0
 10
23.1410365915
 20
12.7415301942
 30
0.0
 10
23.0946052109
 20
12.7325972867
 30
0.0
 10
23.0495037031
 20
12.7202026244
 30
0.0
 10
23.0061557633
 20
12.7044557651
 30
0.0
 10
22.964969052
 20
12.6854950036
 30
0.0
 10
22.9263323911
 20
12.6634862576
 30
0.0
 10
22.8906124274
 20
12.6386202818
 30
0.0
 10
22.8581552345
 20
12.6111159453
 30
0.0
 10
22.8339462684
 20
12.5860442157
 30
0.0
 10
22.8165637921
 20
12.5649192664
 30
0.0
 10
22.8046032558
 20
12.5486706679
 30
0.0
 10
22.7936781907
 20
12.5319664182
 30
0.0
 10
22.7838174518
 20
12.514845194
 30
0.0
 10
22.775048212
 20
12.4973478318
 30
0.0
 10
22.7673950692
 20
12.4795166709
 30
0.0
 10
22.7608800448
 20
12.4613957052
 30
0.0
 10
22.755522292
 20
12.443030429
 30
0.0
 10
22.7513379424
 20
12.4244678666
 30
0.0
 10
22.748339741
 20
12.4057558691
 30
0.0
 10
22.7465370804
 20
12.3869446422
 30
0.0
 10
22.7461359587
 20
12.3743654238
 30
0.0
 10
22.7461359587
 20
12.3680821038
 30
0.0
  0
SPLINE
  5
42D
100
AcDbEntity
  8
0
100
AcDbSpline
 62
7
  6
CONTINUOUS
 70
0
 71
3
 72
90
 73
86
 74
0
 42
0.0000001
 43
0.0000001
 44
0.0000000001
 40
0.0
 40
0.0
 40
0.0
 40
0.0
 40
0.0156221855
 40
0.0312445079
 40
0.0468668734
 40
0.0624889455
 40
0.0781111751
 40
0.0937337853
 40
0.1093563192
 40
0.1249787014
 40
0.1406010541
 40
0.1562235278
 40
0.1718459708
 40
0.179658438
 40
0.1874709043
 40
0.1952833712
 40
0.2030958411
 40
0.210908302
 40
0.2187207613
 40
0.2226271527
 40
0.2265335499
 40
0.2304399444
 40
0.2343463199
 40
0.2382526945
 40
0.2402059148
 40
0.242159147
 40
0.244112381
 40
0.2460656036
 40
0.2480188115
 40
0.2499720134
 40
0.2509486211
 40
0.2519252311
 40
0.2529018356
 40
0.2538784238
 40
0.2548550246
 40
0.2553433734
 40
0.2558317764
 40
0.2568084451
 40
0.2572965942
 40
0.2577846891
 40
0.2582728635
 40
0.2587611733
 40
0.2592496061
 40
0.2597381046
 40
0.2602265905
 40
0.2607150024
 40
0.2616916483
 40
0.2626681789
 40
0.2636447036
 40
0.2646212702
 40
0.2655978727
 40
0.2675511441
 40
0.2695044256
 40
0.27145766
 40
0.2734108656
 40
0.277317285
 40
0.2812237359
 40
0.2851301807
 40
0.2890366185
 40
0.2968494922
 40
0.3046623737
 40
0.312475254
 40
0.3202881325
 40
0.3281010106
 40
0.3359138894
 40
0.3437267688
 40
0.3593525107
 40
0.374978252
 40
0.390603993
 40
0.4062297342
 40
0.4218554755
 40
0.4374812169
 40
0.4687325634
 40
0.4999839099
 40
0.5312352561
 40
0.5624866025
 40
0.5937379492
 40
0.6249892955
 40
0.6562406413
 40
0.6874919876
 40
0.7499935931
 40
0.8124951963
 40
0.8749967958
 40
0.9374983993
 40
1.0
 40
1.0
 40
1.0
 40
1.0
 10
-1.9403640413
 20
12.3834054058
 30
0.0
 10
-1.9325313857
 20
12.373927783
 30
0.0
 10
-1.9161777262
 20
12.3555296227
 30
0.0
 10
-1.8897473285
 20
12.3297571557
 30
0.0
 10
-1.8615515487
 20
12.3059262109
 30
0.0
 10
-1.8317320667
 20
12.2841615209
 30
0.0
 10
-1.8004287665
 20
12.2645901266
 30
0.0
 10
-1.7678080813
 20
12.2473032708
 30
0.0
 10
-1.7340364388
 20
12.2323892637
 30
0.0
 10
-1.6992882897
 20
12.2199192712
 30
0.0
 10
-1.6637376651
 20
12.2099640431
 30
0.0
 10
-1.6275687223
 20
12.2025689866
 30
0.0
 10
-1.5970608544
 20
12.1985729465
 30
0.0
 10
-1.5725357412
 20
12.1966891615
 30
0.0
 10
-1.554100825
 20
12.1959336172
 30
0.0
 10
-1.5356509329
 20
12.1958366081
 30
0.0
 10
-1.5172092516
 20
12.1963985003
 30
0.0
 10
-1.4987995273
 20
12.1976183952
 30
0.0
 10
-1.4835036951
 20
12.1991823661
 30
0.0
 10
-1.4713070312
 20
12.2007602102
 30
0.0
 10
-1.4621817943
 20
12.202106628
 30
0.0
 10
-1.4530820832
 20
12.2036157245
 30
0.0
 10
-1.4440109041
 20
12.2052876818
 30
0.0
 10
-1.4364776973
 20
12.2068161141
 30
0.0
 10
-1.4304681006
 20
12.208118526
 30
0.0
 10
-1.4259695679
 20
12.2091347929
 30
0.0
 10
-1.4214801735
 20
12.2101906983
 30
0.0
 10
-1.4170005497
 20
12.2112872519
 30
0.0
 10
-1.4125312544
 20
12.2124250782
 30
0.0
 10
-1.4088161
 20
12.2134089146
 30
0.0
 10
-1.40584948
 20
12.2142163314
 30
0.0
 10
-1.4036268446
 20
12.214830414
 30
0.0
 10
-1.4014064062
 20
12.2154523284
 30
0.0
 10
-1.3991874166
 20
12.2160793563
 30
0.0
 10
-1.397341141
 20
12.2166121953
 30
0.0
 10
-1.3958679979
 20
12.2170519963
 30
0.0
 10
-1.3943980699
 20
12.2175025406
 30
0.0
 10
-1.3929286599
 20
12.2179544171
 30
0.0
 10
-1.3914513884
 20
12.2183791089
 30
0.0
 10
-1.3903377109
 20
12.2186762208
 30
0.0
 10
-1.3892193908
 20
12.2189557397
 30
0.0
 10
-1.388097667
 20
12.2192223507
 30
0.0
 10
-1.3869737176
 20
12.2194805058
 30
0.0
 10
-1.3858487351
 20
12.2197347242
 30
0.0
 10
-1.3847238897
 20
12.2199894834
 30
0.0
 10
-1.3832259105
 20
12.2203359828
 30
0.0
 10
-1.3813561078
 20
12.2207793541
 30
0.0
 10
-1.3791144587
 20
12.2213194894
 30
0.0
 10
-1.3768725302
 20
12.2218582049
 30
0.0
 10
-1.3746293359
 20
12.2223918713
 30
0.0
 10
-1.3716372313
 20
12.223099071
 30
0.0
 10
-1.3678954153
 20
12.2239762758
 30
0.0
 10
-1.3634044427
 20
12.2250255211
 30
0.0
 10
-1.3589137605
 20
12.2260757841
 30
0.0
 10
-1.3529258129
 20
12.2274741908
 30
0.0
 10
-1.3454387316
 20
12.2292130057
 30
0.0
 10
-1.3364504731
 20
12.2312833987
 30
0.0
 10
-1.3274594381
 20
12.2333417624
 30
0.0
 10
-1.3154674627
 20
12.2360689522
 30
0.0
 10
-1.3004699589
 20
12.2394447207
 30
0.0
 10
-1.2824609306
 20
12.2434418489
 30
0.0
 10
-1.2644402323
 20
12.2473860489
 30
0.0
 10
-1.2464079855
 20
12.2512770987
 30
0.0
 10
-1.2283643386
 20
12.2551149288
 30
0.0
 10
-1.210309431
 20
12.2588994412
 30
0.0
 10
-1.186221446
 20
12.2638743499
 30
0.0
 10
-1.1560840806
 20
12.2699596393
 30
0.0
 10
-1.119876805
 20
12.2770483996
 30
0.0
 10
-1.0836283102
 20
12.2839233162
 30
0.0
 10
-1.0473398683
 20
12.2905841302
 30
0.0
 10
-1.0110127239
 20
12.2970306083
 30
0.0
 10
-0.962526807
 20
12.3053398079
 30
0.0
 10
-0.901828641
 20
12.3151894009
 30
0.0
 10
-0.8288566437
 20
12.3261481645
 30
0.0
 10
-0.7557603084
 20
12.3362447297
 30
0.0
 10
-0.6825498736
 20
12.3454775388
 30
0.0
 10
-0.6092355295
 20
12.3538453992
 30
0.0
 10
-0.5358275386
 20
12.3613471742
 30
0.0
 10
-0.462335983
 20
12.3679816885
 30
0.0
 10
-0.3642510251
 20
12.3756702045
 30
0.0
 10
-0.2414843784
 20
12.38310885
 30
0.0
 10
-0.093996877
 20
12.3885543856
 30
0.0
 10
0.0535787414
 20
12.3905153559
 30
0.0
 10
0.201158549
 20
12.3889922988
 30
0.0
 10
0.2994958535
 20
12.3856546066
 30
0.0
 10
0.3486359587
 20
12.3834054058
 30
0.0
  0
SPLINE
  5
42E
100
AcDbEntity
  8
0
100
AcDbSpline
 62
7
  6
CONTINUOUS
 70
0
 71
3
 72
90
 73
86
 74
0
 42
0.0000001
 43
0.0000001
 44
0.0000000001
 40
0.0
 40
0.0
 40
0.0
 40
0.0
 40
0.0156221855
 40
0.0312445079
 40
0.0468668734
 40
0.0624889455
 40
0.0781111751
 40
0.0937337853
 40
0.1093563192
 40
0.1249787014
 40
0.1406010541
 40
0.1562235278
 40
0.1718459708
 40
0.179658438
 40
0.1874709043
 40
0.1952833712
 40
0.2030958411
 40
0.210908302
 40
0.2187207613
 40
0.2226271527
 40
0.2265335499
 40
0.2304399444
 40
0.2343463199
 40
0.2382526945
 40
0.2402059148
 40
0.242159147
 40
0.244112381
 40
0.2460656036
 40
0.2480188115
 40
0.2499720134
 40
0.2509486211
 40
0.2519252311
 40
0.2529018356
 40
0.2538784238
 40
0.2548550246
 40
0.2553433734
 40
0.2558317764
 40
0.2568084451
 40
0.2572965942
 40
0.2577846891
 40
0.2582728635
 40
0.2587611733
 40
0.2592496061
 40
0.2597381046
 40
0.2602265905
 40
0.2607150024
 40
0.2616916483
 40
0.2626681789
 40
0.2636447036
 40
0.2646212702
 40
0.2655978727
 40
0.2675511441
 40
0.2695044256
 40
0.27145766
 40
0.2734108656
 40
0.277317285
 40
0.2812237359
 40
0.2851301807
 40
0.2890366185
 40
0.2968494922
 40
0.3046623737
 40
0.312475254
 40
0.3202881325
 40
0.3281010106
 40
0.3359138894
 40
0.3437267688
 40
0.3593525107
 40
0.374978252
 40
0.390603993
 40
0.4062297342
 40
0.4218554755
 40
0.4374812169
 40
0.4687325634
 40
0.4999839099
 40
0.5312352561
 40
0.5624866025
 40
0.5937379492
 40
0.6249892955
 40
0.6562406413
 40
0.6874919876
 40
0.7499935931
 40
0.8124951963
 40
0.8749967958
 40
0.9374983993
 40
1.0
 40
1.0
 40
1.0
 40
1.0
 10
-1.9403640413
 20
12.9464054058
 30
0.0
 10
-1.9325313857
 20
12.9558830287
 30
0.0
 10
-1.9161777262
 20
12.9742811889
 30
0.0
 10
-1.8897473285
 20
13.000053656
 30
0.0
 10
-1.8615515487
 20
13.0238846007
 30
0.0
 10
-1.8317320667
 20
13.0456492908
 30
0.0
 10
-1.8004287665
 20
13.065220685
 30
0.0
 10
-1.7678080813
 20
13.0825075408
 30
0.0
 10
-1.7340364388
 20
13.097421548
 30
0.0
 10
-1.6992882897
 20
13.1098915405
 30
0.0
 10
-1.6637376651
 20
13.1198467685
 30
0.0
 10
-1.6275687223
 20
13.1272418251
 30
0.0
 10
-1.5970608544
 20
13.1312378651
 30
0.0
 10
-1.5725357412
 20
13.1331216501
 30
0.0
 10
-1.554100825
 20
13.1338771945
 30
0.0
 10
-1.5356509329
 20
13.1339742035
 30
0.0
 10
-1.5172092516
 20
13.1334123114
 30
0.0
 10
-1.4987995273
 20
13.1321924165
 30
0.0
 10
-1.4835036951
 20
13.1306284456
 30
0.0
 10
-1.4713070312
 20
13.1290506014
 30
0.0
 10
-1.4621817943
 20
13.1277041836
 30
0.0
 10
-1.4530820832
 20
13.1261950871
 30
0.0
 10
-1.4440109041
 20
13.1245231298
 30
0.0
 10
-1.4364776973
 20
13.1229946976
 30
0.0
 10
-1.4304681006
 20
13.1216922856
 30
0.0
 10
-1.4259695679
 20
13.1206760188
 30
0.0
 10
-1.4214801735
 20
13.1196201134
 30
0.0
 10
-1.4170005497
 20
13.1185235597
 30
0.0
 10
-1.4125312544
 20
13.1173857335
 30
0.0
 10
-1.4088161
 20
13.116401897
 30
0.0
 10
-1.40584948
 20
13.1155944803
 30
0.0
 10
-1.4036268446
 20
13.1149803976
 30
0.0
 10
-1.4014064062
 20
13.1143584833
 30
0.0
 10
-1.3991874166
 20
13.1137314553
 30
0.0
 10
-1.397341141
 20
13.1131986164
 30
0.0
 10
-1.3958679979
 20
13.1127588154
 30
0.0
 10
-1.3943980699
 20
13.1123082711
 30
0.0
 10
-1.3929286599
 20
13.1118563945
 30
0.0
 10
-1.3914513884
 20
13.1114317028
 30
0.0
 10
-1.3903377109
 20
13.1111345909
 30
0.0
 10
-1.3892193908
 20
13.1108550719
 30
0.0
 10
-1.388097667
 20
13.110588461
 30
0.0
 10
-1.3869737176
 20
13.1103303058
 30
0.0
 10
-1.3858487351
 20
13.1100760875
 30
0.0
 10
-1.3847238897
 20
13.1098213282
 30
0.0
 10
-1.3832259105
 20
13.1094748289
 30
0.0
 10
-1.3813561078
 20
13.1090314575
 30
0.0
 10
-1.3791144587
 20
13.1084913223
 30
0.0
 10
-1.3768725302
 20
13.1079526067
 30
0.0
 10
-1.3746293359
 20
13.1074189403
 30
0.0
 10
-1.3716372313
 20
13.1067117407
 30
0.0
 10
-1.3678954153
 20
13.1058345358
 30
0.0
 10
-1.3634044427
 20
13.1047852906
 30
0.0
 10
-1.3589137605
 20
13.1037350276
 30
0.0
 10
-1.3529258129
 20
13.1023366208
 30
0.0
 10
-1.3454387316
 20
13.100597806
 30
0.0
 10
-1.3364504731
 20
13.098527413
 30
0.0
 10
-1.3274594381
 20
13.0964690492
 30
0.0
 10
-1.3154674627
 20
13.0937418594
 30
0.0
 10
-1.3004699589
 20
13.0903660909
 30
0.0
 10
-1.2824609306
 20
13.0863689628
 30
0.0
 10
-1.2644402323
 20
13.0824247627
 30
0.0
 10
-1.2464079855
 20
13.078533713
 30
0.0
 10
-1.2283643386
 20
13.0746958828
 30
0.0
 10
-1.210309431
 20
13.0709113704
 30
0.0
 10
-1.186221446
 20
13.0659364618
 30
0.0
 10
-1.1560840806
 20
13.0598511723
 30
0.0
 10
-1.119876805
 20
13.052762412
 30
0.0
 10
-1.0836283102
 20
13.0458874954
 30
0.0
 10
-1.0473398683
 20
13.0392266814
 30
0.0
 10
-1.0110127239
 20
13.0327802033
 30
0.0
 10
-0.962526807
 20
13.0244710037
 30
0.0
 10
-0.901828641
 20
13.0146214108
 30
0.0
 10
-0.8288566437
 20
13.0036626472
 30
0.0
 10
-0.7557603084
 20
12.9935660819
 30
0.0
 10
-0.6825498736
 20
12.9843332729
 30
0.0
 10
-0.6092355295
 20
12.9759654124
 30
0.0
 10
-0.5358275386
 20
12.9684636374
 30
0.0
 10
-0.462335983
 20
12.9618291231
 30
0.0
 10
-0.3642510251
 20
12.9541406071
 30
0.0
 10
-0.2414843784
 20
12.9467019616
 30
0.0
 10
-0.093996877
 20
12.941256426
 30
0.0
 10
0.0535787414
 20
12.9392954557
 30
0.0
 10
0.201158549
 20
12.9408185129
 30
0.0
 10
0.2994958535
 20
12.944156205
 30
0.0
 10
0.3486359587
 20
12.9464054058
 30
0.0
  0
SPLINE
  5
42F
100
AcDbEntity
  8
0
100
AcDbSpline
 62
7
  6
CONTINUOUS
 70
0
 71
3
 72
11
 73
7
 74
0
 42
0.0000001
 43
0.0000001
 44
0.0000000001
 40
0.0
 40
0.0
 40
0.0
 40
0.0
 40
0.2911005069
 40
0.5007865867
 40
0.7104726666
 40
1.0
 40
1.0
 40
1.0
 40
1.0
 10
1.2774359587
 20
12.6649054058
 30
0.0
 10
1.2774359587
 20
12.6481935726
 30
0.0
 10
1.2735547181
 20
12.6194438393
 30
0.0
 10
1.2345101371
 20
12.5981192471
 30
0.0
 10
1.195050451
 20
12.619345932
 30
0.0
 10
1.1924359587
 20
12.6481816433
 30
0.0
 10
1.1924359587
 20
12.6649054058
 30
0.0
  0
SPLINE
  5
430
100
AcDbEntity
  8
0
100
AcDbSpline
 62
7
  6
CONTINUOUS
 70
0
 71
3
 72
11
 73
7
 74
0
 42
0.0000001
 43
0.0000001
 44
0.0000000001
 40
0.0
 40
0.0
 40
0.0
 40
0.0
 40
0.2895273334
 40
0.4992134133
 40
0.7088994931
 40
1.0
 40
1.0
 40
1.0
 40
1.0
 10
1.1924359587
 20
12.6649054058
 30
0.0
 10
1.1924359587
 20
12.6816291684
 30
0.0
 10
1.195050451
 20
12.7104648796
 30
0.0
 10
1.2345101371
 20
12.7316915646
 30
0.0
 10
1.2735547181
 20
12.7103669723
 30
0.0
 10
1.2774359587
 20
12.6816172391
 30
0.0
 10
1.2774359587
 20
12.6649054058
 30
0.0
  0
SPLINE
  5
431
100
AcDbEntity
  8
0
100
AcDbSpline
 62
7
  6
CONTINUOUS
 70
0
 71
3
 72
11
 73
7
 74
0
 42
0.0000001
 43
0.0000001
 44
0.0000000001
 40
0.0
 40
0.0
 40
0.0
 40
0.0
 40
0.2736079326
 40
0.5003103346
 40
0.7269614556
 40
1.0
 40
1.0
 40
1.0
 40
1.0
 10
1.3131359587
 20
12.6649054058
 30
0.0
 10
1.3131351565
 20
12.6886920637
 30
0.0
 10
1.2995331017
 20
12.7321876455
 30
0.0
 10
1.2344794324
 20
12.7572002325
 30
0.0
 10
1.1692275578
 20
12.7322357396
 30
0.0
 10
1.1561352213
 20
12.6886961538
 30
0.0
 10
1.1561359587
 20
12.6649054058
 30
0.0
  0
SPLINE
  5
432
100
AcDbEntity
  8
0
100
AcDbSpline
 62
7
  6
CONTINUOUS
 70
0
 71
3
 72
11
 73
7
 74
0
 42
0.0000001
 43
0.0000001
 44
0.0000000001
 40
0.0
 40
0.0
 40
0.0
 40
0.0
 40
0.273039475
 40
0.4997206271
 40
0.7263911349
 40
1.0
 40
1.0
 40
1.0
 40
1.0
 10
1.1561359587
 20
12.6649054058
 30
0.0
 10
1.156136696
 20
12.6411146579
 30
0.0
 10
1.1692325517
 20
12.5975724806
 30
0.0
 10
1.2344690012
 20
12.5726105116
 30
0.0
 10
1.2995385276
 20
12.5976261919
 30
0.0
 10
1.3131367608
 20
12.6411187479
 30
0.0
 10
1.3131359587
 20
12.6649054058
 30
0.0
  0
SPLINE
  5
433
100
AcDbEntity
  8
0
100
AcDbSpline
 62
7
  6
CONTINUOUS
 70
0
 71
3
 72
90
 73
86
 74
0
 42
0.0000001
 43
0.0000001
 44
0.0000000001
 40
0.0
 40
0.0
 40
0.0
 40
0.0
 40
0.0156221855
 40
0.0312445079
 40
0.0468668734
 40
0.0624889455
 40
0.0781111751
 40
0.0937337853
 40
0.1093563192
 40
0.1249787014
 40
0.1406010541
 40
0.1562235278
 40
0.1718459708
 40
0.179658438
 40
0.1874709043
 40
0.1952833712
 40
0.2030958411
 40
0.210908302
 40
0.2187207613
 40
0.2226271527
 40
0.2265335499
 40
0.2304399444
 40
0.2343463199
 40
0.2382526945
 40
0.2402059148
 40
0.242159147
 40
0.244112381
 40
0.2460656036
 40
0.2480188115
 40
0.2499720134
 40
0.2509486211
 40
0.2519252311
 40
0.2529018356
 40
0.2538784238
 40
0.2548550246
 40
0.2553433734
 40
0.2558317764
 40
0.2568084451
 40
0.2572965942
 40
0.2577846891
 40
0.2582728635
 40
0.2587611733
 40
0.2592496061
 40
0.2597381046
 40
0.2602265905
 40
0.2607150024
 40
0.2616916483
 40
0.2626681789
 40
0.2636447036
 40
0.2646212702
 40
0.2655978727
 40
0.2675511441
 40
0.2695044256
 40
0.27145766
 40
0.2734108656
 40
0.277317285
 40
0.2812237359
 40
0.2851301807
 40
0.2890366185
 40
0.2968494922
 40
0.3046623737
 40
0.312475254
 40
0.3202881325
 40
0.3281010106
 40
0.3359138894
 40
0.3437267688
 40
0.3593525107
 40
0.374978252
 40
0.390603993
 40
0.4062297342
 40
0.4218554755
 40
0.4374812169
 40
0.4687325634
 40
0.4999839099
 40
0.5312352561
 40
0.5624866025
 40
0.5937379492
 40
0.6249892955
 40
0.6562406413
 40
0.6874919876
 40
0.7499935931
 40
0.8124951963
 40
0.8749967958
 40
0.9374983993
 40
1.0
 40
1.0
 40
1.0
 40
1.0
 10
12.4126359587
 20
12.9464054058
 30
0.0
 10
12.404803303
 20
12.9558830287
 30
0.0
 10
12.3884496435
 20
12.9742811889
 30
0.0
 10
12.3620192458
 20
13.000053656
 30
0.0
 10
12.333823466
 20
13.0238846007
 30
0.0
 10
12.304003984
 20
13.0456492908
 30
0.0
 10
12.2727006838
 20
13.065220685
 30
0.0
 10
12.2400799986
 20
13.0825075408
 30
0.0
 10
12.2063083561
 20
13.097421548
 30
0.0
 10
12.171560207
 20
13.1098915405
 30
0.0
 10
12.1360095824
 20
13.1198467685
 30
0.0
 10
12.0998406396
 20
13.1272418251
 30
0.0
 10
12.0693327717
 20
13.1312378651
 30
0.0
 10
12.0448076585
 20
13.1331216501
 30
0.0
 10
12.0263727423
 20
13.1338771945
 30
0.0
 10
12.0079228502
 20
13.1339742035
 30
0.0
 10
11.9894811689
 20
13.1334123114
 30
0.0
 10
11.9710714446
 20
13.1321924165
 30
0.0
 10
11.9557756124
 20
13.1306284456
 30
0.0
 10
11.9435789485
 20
13.1290506014
 30
0.0
 10
11.9344537116
 20
13.1277041836
 30
0.0
 10
11.9253540005
 20
13.1261950871
 30
0.0
 10
11.9162828214
 20
13.1245231298
 30
0.0
 10
11.9087496147
 20
13.1229946976
 30
0.0
 10
11.9027400179
 20
13.1216922856
 30
0.0
 10
11.8982414852
 20
13.1206760188
 30
0.0
 10
11.8937520908
 20
13.1196201134
 30
0.0
 10
11.889272467
 20
13.1185235597
 30
0.0
 10
11.8848031718
 20
13.1173857335
 30
0.0
 10
11.8810880174
 20
13.116401897
 30
0.0
 10
11.8781213973
 20
13.1155944803
 30
0.0
 10
11.8758987619
 20
13.1149803976
 30
0.0
 10
11.8736783235
 20
13.1143584833
 30
0.0
 10
11.8714593339
 20
13.1137314553
 30
0.0
 10
11.8696130583
 20
13.1131986164
 30
0.0
 10
11.8681399152
 20
13.1127588154
 30
0.0
 10
11.8666699872
 20
13.1123082711
 30
0.0
 10
11.8652005772
 20
13.1118563945
 30
0.0
 10
11.8637233057
 20
13.1114317028
 30
0.0
 10
11.8626096282
 20
13.1111345909
 30
0.0
 10
11.8614913081
 20
13.1108550719
 30
0.0
 10
11.8603695844
 20
13.110588461
 30
0.0
 10
11.8592456349
 20
13.1103303058
 30
0.0
 10
11.8581206524
 20
13.1100760875
 30
0.0
 10
11.856995807
 20
13.1098213282
 30
0.0
 10
11.8554978278
 20
13.1094748289
 30
0.0
 10
11.8536280252
 20
13.1090314575
 30
0.0
 10
11.851386376
 20
13.1084913223
 30
0.0
 10
11.8491444475
 20
13.1079526067
 30
0.0
 10
11.8469012532
 20
13.1074189403
 30
0.0
 10
11.8439091486
 20
13.1067117407
 30
0.0
 10
11.8401673326
 20
13.1058345358
 30
0.0
 10
11.83567636
 20
13.1047852906
 30
0.0
 10
11.8311856778
 20
13.1037350276
 30
0.0
 10
11.8251977303
 20
13.1023366208
 30
0.0
 10
11.8177106489
 20
13.100597806
 30
0.0
 10
11.8087223904
 20
13.098527413
 30
0.0
 10
11.7997313554
 20
13.0964690492
 30
0.0
 10
11.78773938
 20
13.0937418594
 30
0.0
 10
11.7727418762
 20
13.0903660909
 30
0.0
 10
11.7547328479
 20
13.0863689628
 30
0.0
 10
11.7367121496
 20
13.0824247627
 30
0.0
 10
11.7186799028
 20
13.078533713
 30
0.0
 10
11.7006362559
 20
13.0746958828
 30
0.0
 10
11.6825813483
 20
13.0709113704
 30
0.0
 10
11.6584933633
 20
13.0659364618
 30
0.0
 10
11.6283559979
 20
13.0598511723
 30
0.0
 10
11.5921487223
 20
13.052762412
 30
0.0
 10
11.5559002275
 20
13.0458874954
 30
0.0
 10
11.5196117856
 20
13.0392266814
 30
0.0
 10
11.4832846412
 20
13.0327802033
 30
0.0
 10
11.4347987243
 20
13.0244710037
 30
0.0
 10
11.3741005583
 20
13.0146214108
 30
0.0
 10
11.301128561
 20
13.0036626472
 30
0.0
 10
11.2280322257
 20
12.9935660819
 30
0.0
 10
11.154821791
 20
12.9843332729
 30
0.0
 10
11.0815074469
 20
12.9759654124
 30
0.0
 10
11.0080994559
 20
12.9684636374
 30
0.0
 10
10.9346079003
 20
12.9618291231
 30
0.0
 10
10.8365229424
 20
12.9541406071
 30
0.0
 10
10.7137562957
 20
12.9467019616
 30
0.0
 10
10.5662687943
 20
12.941256426
 30
0.0
 10
10.4186931759
 20
12.9392954557
 30
0.0
 10
10.2711133683
 20
12.9408185129
 30
0.0
 10
10.1727760638
 20
12.944156205
 30
0.0
 10
10.1236359587
 20
12.9464054058
 30
0.0
  0
SPLINE
  5
434
100
AcDbEntity
  8
0
100
AcDbSpline
 62
7
  6
CONTINUOUS
 70
0
 71
3
 72
90
 73
86
 74
0
 42
0.0000001
 43
0.0000001
 44
0.0000000001
 40
0.0
 40
0.0
 40
0.0
 40
0.0
 40
0.0625016007
 40
0.1250032042
 40
0.1875048037
 40
0.2500064069
 40
0.3125080124
 40
0.3437593587
 40
0.3750107045
 40
0.4062620508
 40
0.4375133975
 40
0.4687647439
 40
0.5000160901
 40
0.5312674366
 40
0.5625187831
 40
0.5781445245
 40
0.5937702658
 40
0.609396007
 40
0.625021748
 40
0.6406474893
 40
0.6562732312
 40
0.6640861106
 40
0.6718989894
 40
0.6797118675
 40
0.687524746
 40
0.6953376263
 40
0.7031505078
 40
0.7109633815
 40
0.7148698193
 40
0.7187762641
 40
0.722682715
 40
0.7265891344
 40
0.72854234
 40
0.7304955744
 40
0.7324488559
 40
0.7344021273
 40
0.7353787298
 40
0.7363552964
 40
0.7373318211
 40
0.7383083517
 40
0.7392849976
 40
0.7397734095
 40
0.7402618954
 40
0.7407503939
 40
0.7412388267
 40
0.7417271365
 40
0.7422153109
 40
0.7427034058
 40
0.7431915549
 40
0.7441682236
 40
0.7446566266
 40
0.7451449754
 40
0.7461215762
 40
0.7470981644
 40
0.7480747689
 40
0.7490513789
 40
0.7500279866
 40
0.7519811885
 40
0.7539343964
 40
0.755887619
 40
0.757840853
 40
0.7597940852
 40
0.7617473055
 40
0.7656536801
 40
0.7695600556
 40
0.7734664501
 40
0.7773728473
 40
0.7812792387
 40
0.789091698
 40
0.7969041589
 40
0.8047166288
 40
0.8125290957
 40
0.820341562
 40
0.8281540292
 40
0.8437764722
 40
0.8593989459
 40
0.8750212986
 40
0.8906436808
 40
0.9062662147
 40
0.9218888249
 40
0.9375110545
 40
0.9531331266
 40
0.9687554921
 40
0.9843778145
 40
1.0
 40
1.0
 40
1.0
 40
1.0
 10
16.1236359587
 20
12.3834054058
 30
0.0
 10
16.1727760638
 20
12.3856546066
 30
0.0
 10
16.2711133683
 20
12.3889922988
 30
0.0
 10
16.4186931759
 20
12.3905153559
 30
0.0
 10
16.5662687943
 20
12.3885543856
 30
0.0
 10
16.7137562957
 20
12.38310885
 30
0.0
 10
16.8365229424
 20
12.3756702045
 30
0.0
 10
16.9346079003
 20
12.3679816885
 30
0.0
 10
17.0080994559
 20
12.3613471742
 30
0.0
 10
17.0815074469
 20
12.3538453992
 30
0.0
 10
17.154821791
 20
12.3454775388
 30
0.0
 10
17.2280322257
 20
12.3362447297
 30
0.0
 10
17.301128561
 20
12.3261481645
 30
0.0
 10
17.3741005583
 20
12.3151894009
 30
0.0
 10
17.4347987243
 20
12.3053398079
 30
0.0
 10
17.4832846412
 20
12.2970306083
 30
0.0
 10
17.5196117856
 20
12.2905841302
 30
0.0
 10
17.5559002275
 20
12.2839233162
 30
0.0
 10
17.5921487223
 20
12.2770483996
 30
0.0
 10
17.6283559979
 20
12.2699596393
 30
0.0
 10
17.6584933633
 20
12.2638743499
 30
0.0
 10
17.6825813483
 20
12.2588994412
 30
0.0
 10
17.7006362559
 20
12.2551149288
 30
0.0
 10
17.7186799028
 20
12.2512770987
 30
0.0
 10
17.7367121496
 20
12.2473860489
 30
0.0
 10
17.7547328479
 20
12.2434418489
 30
0.0
 10
17.7727418762
 20
12.2394447207
 30
0.0
 10
17.78773938
 20
12.2360689522
 30
0.0
 10
17.7997313554
 20
12.2333417624
 30
0.0
 10
17.8087223904
 20
12.2312833987
 30
0.0
 10
17.8177106489
 20
12.2292130057
 30
0.0
 10
17.8251977303
 20
12.2274741908
 30
0.0
 10
17.8311856778
 20
12.2260757841
 30
0.0
 10
17.83567636
 20
12.2250255211
 30
0.0
 10
17.8401673326
 20
12.2239762758
 30
0.0
 10
17.8439091486
 20
12.223099071
 30
0.0
 10
17.8469012532
 20
12.2223918713
 30
0.0
 10
17.8491444475
 20
12.2218582049
 30
0.0
 10
17.851386376
 20
12.2213194894
 30
0.0
 10
17.8536280252
 20
12.2207793541
 30
0.0
 10
17.8554978278
 20
12.2203359828
 30
0.0
 10
17.856995807
 20
12.2199894834
 30
0.0
 10
17.8581206524
 20
12.2197347242
 30
0.0
 10
17.8592456349
 20
12.2194805058
 30
0.0
 10
17.8603695844
 20
12.2192223507
 30
0.0
 10
17.8614913081
 20
12.2189557397
 30
0.0
 10
17.8626096282
 20
12.2186762208
 30
0.0
 10
17.8637233057
 20
12.2183791089
 30
0.0
 10
17.8652005772
 20
12.2179544171
 30
0.0
 10
17.8666699872
 20
12.2175025406
 30
0.0
 10
17.8681399152
 20
12.2170519963
 30
0.0
 10
17.8696130583
 20
12.2166121953
 30
0.0
 10
17.8714593339
 20
12.2160793563
 30
0.0
 10
17.8736783235
 20
12.2154523284
 30
0.0
 10
17.8758987619
 20
12.214830414
 30
0.0
 10
17.8781213973
 20
12.2142163314
 30
0.0
 10
17.8810880174
 20
12.2134089146
 30
0.0
 10
17.8848031718
 20
12.2124250782
 30
0.0
 10
17.889272467
 20
12.2112872519
 30
0.0
 10
17.8937520908
 20
12.2101906983
 30
0.0
 10
17.8982414852
 20
12.2091347929
 30
0.0
 10
17.9027400179
 20
12.208118526
 30
0.0
 10
17.9087496147
 20
12.2068161141
 30
0.0
 10
17.9162828214
 20
12.2052876818
 30
0.0
 10
17.9253540005
 20
12.2036157245
 30
0.0
 10
17.9344537116
 20
12.202106628
 30
0.0
 10
17.9435789485
 20
12.2007602102
 30
0.0
 10
17.9557756124
 20
12.1991823661
 30
0.0
 10
17.9710714446
 20
12.1976183952
 30
0.0
 10
17.9894811689
 20
12.1963985003
 30
0.0
 10
18.0079228502
 20
12.1958366081
 30
0.0
 10
18.0263727423
 20
12.1959336172
 30
0.0
 10
18.0448076585
 20
12.1966891615
 30
0.0
 10
18.0693327717
 20
12.1985729465
 30
0.0
 10
18.0998406396
 20
12.2025689866
 30
0.0
 10
18.1360095824
 20
12.2099640431
 30
0.0
 10
18.171560207
 20
12.2199192712
 30
0.0
 10
18.2063083561
 20
12.2323892637
 30
0.0
 10
18.2400799986
 20
12.2473032708
 30
0.0
 10
18.2727006838
 20
12.2645901266
 30
0.0
 10
18.304003984
 20
12.2841615209
 30
0.0
 10
18.333823466
 20
12.3059262109
 30
0.0
 10
18.3620192458
 20
12.3297571557
 30
0.0
 10
18.3884496435
 20
12.3555296227
 30
0.0
 10
18.404803303
 20
12.373927783
 30
0.0
 10
18.4126359587
 20
12.3834054058
 30
0.0
  0
SPLINE
  5
435
100
AcDbEntity
  8
0
100
AcDbSpline
 62
7
  6
CONTINUOUS
 70
0
 71
3
 72
90
 73
86
 74
0
 42
0.0000001
 43
0.0000001
 44
0.0000000001
 40
0.0
 40
0.0
 40
0.0
 40
0.0
 40
0.0625016007
 40
0.1250032042
 40
0.1875048037
 40
0.2500064069
 40
0.3125080124
 40
0.3437593587
 40
0.3750107045
 40
0.4062620508
 40
0.4375133975
 40
0.4687647439
 40
0.5000160901
 40
0.5312674366
 40
0.5625187831
 40
0.5781445245
 40
0.5937702658
 40
0.609396007
 40
0.625021748
 40
0.6406474893
 40
0.6562732312
 40
0.6640861106
 40
0.6718989894
 40
0.6797118675
 40
0.687524746
 40
0.6953376263
 40
0.7031505078
 40
0.7109633815
 40
0.7148698193
 40
0.7187762641
 40
0.722682715
 40
0.7265891344
 40
0.72854234
 40
0.7304955744
 40
0.7324488559
 40
0.7344021273
 40
0.7353787298
 40
0.7363552964
 40
0.7373318211
 40
0.7383083517
 40
0.7392849976
 40
0.7397734095
 40
0.7402618954
 40
0.7407503939
 40
0.7412388267
 40
0.7417271365
 40
0.7422153109
 40
0.7427034058
 40
0.7431915549
 40
0.7441682236
 40
0.7446566266
 40
0.7451449754
 40
0.7461215762
 40
0.7470981644
 40
0.7480747689
 40
0.7490513789
 40
0.7500279866
 40
0.7519811885
 40
0.7539343964
 40
0.755887619
 40
0.757840853
 40
0.7597940852
 40
0.7617473055
 40
0.7656536801
 40
0.7695600556
 40
0.7734664501
 40
0.7773728473
 40
0.7812792387
 40
0.789091698
 40
0.7969041589
 40
0.8047166288
 40
0.8125290957
 40
0.820341562
 40
0.8281540292
 40
0.8437764722
 40
0.8593989459
 40
0.8750212986
 40
0.8906436808
 40
0.9062662147
 40
0.9218888249
 40
0.9375110545
 40
0.9531331266
 40
0.9687554921
 40
0.9843778145
 40
1.0
 40
1.0
 40
1.0
 40
1.0
 10
16.1236359587
 20
12.9464054058
 30
0.0
 10
16.1727760638
 20
12.944156205
 30
0.0
 10
16.2711133683
 20
12.9408185129
 30
0.0
 10
16.4186931759
 20
12.9392954557
 30
0.0
 10
16.5662687943
 20
12.941256426
 30
0.0
 10
16.7137562957
 20
12.9467019616
 30
0.0
 10
16.8365229424
 20
12.9541406071
 30
0.0
 10
16.9346079003
 20
12.9618291231
 30
0.0
 10
17.0080994559
 20
12.9684636374
 30
0.0
 10
17.0815074469
 20
12.9759654124
 30
0.0
 10
17.154821791
 20
12.9843332729
 30
0.0
 10
17.2280322257
 20
12.9935660819
 30
0.0
 10
17.301128561
 20
13.0036626472
 30
0.0
 10
17.3741005583
 20
13.0146214108
 30
0.0
 10
17.4347987243
 20
13.0244710037
 30
0.0
 10
17.4832846412
 20
13.0327802033
 30
0.0
 10
17.5196117856
 20
13.0392266814
 30
0.0
 10
17.5559002275
 20
13.0458874954
 30
0.0
 10
17.5921487223
 20
13.052762412
 30
0.0
 10
17.6283559979
 20
13.0598511723
 30
0.0
 10
17.6584933633
 20
13.0659364618
 30
0.0
 10
17.6825813483
 20
13.0709113704
 30
0.0
 10
17.7006362559
 20
13.0746958828
 30
0.0
 10
17.7186799028
 20
13.078533713
 30
0.0
 10
17.7367121496
 20
13.0824247627
 30
0.0
 10
17.7547328479
 20
13.0863689628
 30
0.0
 10
17.7727418762
 20
13.0903660909
 30
0.0
 10
17.78773938
 20
13.0937418594
 30
0.0
 10
17.7997313554
 20
13.0964690492
 30
0.0
 10
17.8087223904
 20
13.098527413
 30
0.0
 10
17.8177106489
 20
13.100597806
 30
0.0
 10
17.8251977303
 20
13.1023366208
 30
0.0
 10
17.8311856778
 20
13.1037350276
 30
0.0
 10
17.83567636
 20
13.1047852906
 30
0.0
 10
17.8401673326
 20
13.1058345358
 30
0.0
 10
17.8439091486
 20
13.1067117407
 30
0.0
 10
17.8469012532
 20
13.1074189403
 30
0.0
 10
17.8491444475
 20
13.1079526067
 30
0.0
 10
17.851386376
 20
13.1084913223
 30
0.0
 10
17.8536280252
 20
13.1090314575
 30
0.0
 10
17.8554978278
 20
13.1094748289
 30
0.0
 10
17.856995807
 20
13.1098213282
 30
0.0
 10
17.8581206524
 20
13.1100760875
 30
0.0
 10
17.8592456349
 20
13.1103303058
 30
0.0
 10
17.8603695844
 20
13.110588461
 30
0.0
 10
17.8614913081
 20
13.1108550719
 30
0.0
 10
17.8626096282
 20
13.1111345909
 30
0.0
 10
17.8637233057
 20
13.1114317028
 30
0.0
 10
17.8652005772
 20
13.1118563945
 30
0.0
 10
17.8666699872
 20
13.1123082711
 30
0.0
 10
17.8681399152
 20
13.1127588154
 30
0.0
 10
17.8696130583
 20
13.1131986164
 30
0.0
 10
17.8714593339
 20
13.1137314553
 30
0.0
 10
17.8736783235
 20
13.1143584833
 30
0.0
 10
17.8758987619
 20
13.1149803976
 30
0.0
 10
17.8781213973
 20
13.1155944803
 30
0.0
 10
17.8810880174
 20
13.116401897
 30
0.0
 10
17.8848031718
 20
13.1173857335
 30
0.0
 10
17.889272467
 20
13.1185235597
 30
0.0
 10
17.8937520908
 20
13.1196201134
 30
0.0
 10
17.8982414852
 20
13.1206760188
 30
0.0
 10
17.9027400179
 20
13.1216922856
 30
0.0
 10
17.9087496147
 20
13.1229946976
 30
0.0
 10
17.9162828214
 20
13.1245231298
 30
0.0
 10
17.9253540005
 20
13.1261950871
 30
0.0
 10
17.9344537116
 20
13.1277041836
 30
0.0
 10
17.9435789485
 20
13.1290506014
 30
0.0
 10
17.9557756124
 20
13.1306284456
 30
0.0
 10
17.9710714446
 20
13.1321924165
 30
0.0
 10
17.9894811689
 20
13.1334123114
 30
0.0
 10
18.0079228502
 20
13.1339742035
 30
0.0
 10
18.0263727423
 20
13.1338771945
 30
0.0
 10
18.0448076585
 20
13.1331216501
 30
0.0
 10
18.0693327717
 20
13.1312378651
 30
0.0
 10
18.0998406396
 20
13.1272418251
 30
0.0
 10
18.1360095824
 20
13.1198467685
 30
0.0
 10
18.171560207
 20
13.1098915405
 30
0.0
 10
18.2063083561
 20
13.097421548
 30
0.0
 10
18.2400799986
 20
13.0825075408
 30
0.0
 10
18.2727006838
 20
13.065220685
 30
0.0
 10
18.304003984
 20
13.0456492908
 30
0.0
 10
18.333823466
 20
13.0238846007
 30
0.0
 10
18.3620192458
 20
13.000053656
 30
0.0
 10
18.3884496435
 20
12.9742811889
 30
0.0
 10
18.404803303
 20
12.9558830287
 30
0.0
 10
18.4126359587
 20
12.9464054058
 30
0.0
  0
SPLINE
  5
436
100
AcDbEntity
  8
0
100
AcDbSpline
 62
7
  6
CONTINUOUS
 70
0
 71
3
 72
90
 73
86
 74
0
 42
0.0000001
 43
0.0000001
 44
0.0000000001
 40
0.0
 40
0.0
 40
0.0
 40
0.0
 40
0.0156221855
 40
0.0312445079
 40
0.0468668734
 40
0.0624889455
 40
0.0781111751
 40
0.0937337853
 40
0.1093563192
 40
0.1249787014
 40
0.1406010541
 40
0.1562235278
 40
0.1718459708
 40
0.179658438
 40
0.1874709043
 40
0.1952833712
 40
0.2030958411
 40
0.210908302
 40
0.2187207613
 40
0.2226271527
 40
0.2265335499
 40
0.2304399444
 40
0.2343463199
 40
0.2382526945
 40
0.2402059148
 40
0.242159147
 40
0.244112381
 40
0.2460656036
 40
0.2480188115
 40
0.2499720134
 40
0.2509486211
 40
0.2519252311
 40
0.2529018356
 40
0.2538784238
 40
0.2548550246
 40
0.2553433734
 40
0.2558317764
 40
0.2568084451
 40
0.2572965942
 40
0.2577846891
 40
0.2582728635
 40
0.2587611733
 40
0.2592496061
 40
0.2597381046
 40
0.2602265905
 40
0.2607150024
 40
0.2616916483
 40
0.2626681789
 40
0.2636447036
 40
0.2646212702
 40
0.2655978727
 40
0.2675511441
 40
0.2695044256
 40
0.27145766
 40
0.2734108656
 40
0.277317285
 40
0.2812237359
 40
0.2851301807
 40
0.2890366185
 40
0.2968494922
 40
0.3046623737
 40
0.312475254
 40
0.3202881325
 40
0.3281010106
 40
0.3359138894
 40
0.3437267688
 40
0.3593525107
 40
0.374978252
 40
0.390603993
 40
0.4062297342
 40
0.4218554755
 40
0.4374812169
 40
0.4687325634
 40
0.4999839099
 40
0.5312352561
 40
0.5624866025
 40
0.5937379492
 40
0.6249892955
 40
0.6562406413
 40
0.6874919876
 40
0.7499935931
 40
0.8124951963
 40
0.8749967958
 40
0.9374983993
 40
1.0
 40
1.0
 40
1.0
 40
1.0
 10
12.4126359587
 20
12.3834054058
 30
0.0
 10
12.404803303
 20
12.373927783
 30
0.0
 10
12.3884496435
 20
12.3555296227
 30
0.0
 10
12.3620192458
 20
12.3297571557
 30
0.0
 10
12.333823466
 20
12.3059262109
 30
0.0
 10
12.304003984
 20
12.2841615209
 30
0.0
 10
12.2727006838
 20
12.2645901266
 30
0.0
 10
12.2400799986
 20
12.2473032708
 30
0.0
 10
12.2063083561
 20
12.2323892637
 30
0.0
 10
12.171560207
 20
12.2199192712
 30
0.0
 10
12.1360095824
 20
12.2099640431
 30
0.0
 10
12.0998406396
 20
12.2025689866
 30
0.0
 10
12.0693327717
 20
12.1985729465
 30
0.0
 10
12.0448076585
 20
12.1966891615
 30
0.0
 10
12.0263727423
 20
12.1959336172
 30
0.0
 10
12.0079228502
 20
12.1958366081
 30
0.0
 10
11.9894811689
 20
12.1963985003
 30
0.0
 10
11.9710714446
 20
12.1976183952
 30
0.0
 10
11.9557756124
 20
12.1991823661
 30
0.0
 10
11.9435789485
 20
12.2007602102
 30
0.0
 10
11.9344537116
 20
12.202106628
 30
0.0
 10
11.9253540005
 20
12.2036157245
 30
0.0
 10
11.9162828214
 20
12.2052876818
 30
0.0
 10
11.9087496147
 20
12.2068161141
 30
0.0
 10
11.9027400179
 20
12.208118526
 30
0.0
 10
11.8982414852
 20
12.2091347929
 30
0.0
 10
11.8937520908
 20
12.2101906983
 30
0.0
 10
11.889272467
 20
12.2112872519
 30
0.0
 10
11.8848031718
 20
12.2124250782
 30
0.0
 10
11.8810880174
 20
12.2134089146
 30
0.0
 10
11.8781213973
 20
12.2142163314
 30
0.0
 10
11.8758987619
 20
12.214830414
 30
0.0
 10
11.8736783235
 20
12.2154523284
 30
0.0
 10
11.8714593339
 20
12.2160793563
 30
0.0
 10
11.8696130583
 20
12.2166121953
 30
0.0
 10
11.8681399152
 20
12.2170519963
 30
0.0
 10
11.8666699872
 20
12.2175025406
 30
0.0
 10
11.8652005772
 20
12.2179544171
 30
0.0
 10
11.8637233057
 20
12.2183791089
 30
0.0
 10
11.8626096282
 20
12.2186762208
 30
0.0
 10
11.8614913081
 20
12.2189557397
 30
0.0
 10
11.8603695844
 20
12.2192223507
 30
0.0
 10
11.8592456349
 20
12.2194805058
 30
0.0
 10
11.8581206524
 20
12.2197347242
 30
0.0
 10
11.856995807
 20
12.2199894834
 30
0.0
 10
11.8554978278
 20
12.2203359828
 30
0.0
 10
11.8536280252
 20
12.2207793541
 30
0.0
 10
11.851386376
 20
12.2213194894
 30
0.0
 10
11.8491444475
 20
12.2218582049
 30
0.0
 10
11.8469012532
 20
12.2223918713
 30
0.0
 10
11.8439091486
 20
12.223099071
 30
0.0
 10
11.8401673326
 20
12.2239762758
 30
0.0
 10
11.83567636
 20
12.2250255211
 30
0.0
 10
11.8311856778
 20
12.2260757841
 30
0.0
 10
11.8251977303
 20
12.2274741908
 30
0.0
 10
11.8177106489
 20
12.2292130057
 30
0.0
 10
11.8087223904
 20
12.2312833987
 30
0.0
 10
11.7997313554
 20
12.2333417624
 30
0.0
 10
11.78773938
 20
12.2360689522
 30
0.0
 10
11.7727418762
 20
12.2394447207
 30
0.0
 10
11.7547328479
 20
12.2434418489
 30
0.0
 10
11.7367121496
 20
12.2473860489
 30
0.0
 10
11.7186799028
 20
12.2512770987
 30
0.0
 10
11.7006362559
 20
12.2551149288
 30
0.0
 10
11.6825813483
 20
12.2588994412
 30
0.0
 10
11.6584933633
 20
12.2638743499
 30
0.0
 10
11.6283559979
 20
12.2699596393
 30
0.0
 10
11.5921487223
 20
12.2770483996
 30
0.0
 10
11.5559002275
 20
12.2839233162
 30
0.0
 10
11.5196117856
 20
12.2905841302
 30
0.0
 10
11.4832846412
 20
12.2970306083
 30
0.0
 10
11.4347987243
 20
12.3053398079
 30
0.0
 10
11.3741005583
 20
12.3151894009
 30
0.0
 10
11.301128561
 20
12.3261481645
 30
0.0
 10
11.2280322257
 20
12.3362447297
 30
0.0
 10
11.154821791
 20
12.3454775388
 30
0.0
 10
11.0815074469
 20
12.3538453992
 30
0.0
 10
11.0080994559
 20
12.3613471742
 30
0.0
 10
10.9346079003
 20
12.3679816885
 30
0.0
 10
10.8365229424
 20
12.3756702045
 30
0.0
 10
10.7137562957
 20
12.38310885
 30
0.0
 10
10.5662687943
 20
12.3885543856
 30
0.0
 10
10.4186931759
 20
12.3905153559
 30
0.0
 10
10.2711133683
 20
12.3889922988
 30
0.0
 10
10.1727760638
 20
12.3856546066
 30
0.0
 10
10.1236359587
 20
12.3834054058
 30
0.0
  0
SPLINE
  5
437
100
AcDbEntity
  8
0
100
AcDbSpline
 62
7
  6
CONTINUOUS
 70
0
 71
3
 72
11
 73
7
 74
0
 42
0.0000001
 43
0.0000001
 44
0.0000000001
 40
0.0
 40
0.0
 40
0.0
 40
0.0
 40
0.2895273334
 40
0.4992134133
 40
0.7088994931
 40
1.0
 40
1.0
 40
1.0
 40
1.0
 10
9.1124359587
 20
12.6649054058
 30
0.0
 10
9.1124359587
 20
12.6816291684
 30
0.0
 10
9.115050451
 20
12.7104648796
 30
0.0
 10
9.1545101371
 20
12.7316915646
 30
0.0
 10
9.1935547181
 20
12.7103669723
 30
0.0
 10
9.1974359587
 20
12.6816172391
 30
0.0
 10
9.1974359587
 20
12.6649054058
 30
0.0
  0
SPLINE
  5
438
100
AcDbEntity
  8
0
100
AcDbSpline
 62
7
  6
CONTINUOUS
 70
0
 71
3
 72
11
 73
7
 74
0
 42
0.0000001
 43
0.0000001
 44
0.0000000001
 40
0.0
 40
0.0
 40
0.0
 40
0.0
 40
0.2911005069
 40
0.5007865867
 40
0.7104726666
 40
1.0
 40
1.0
 40
1.0
 40
1.0
 10
9.1974359587
 20
12.6649054058
 30
0.0
 10
9.1974359587
 20
12.6481935726
 30
0.0
 10
9.1935547181
 20
12.6194438393
 30
0.0
 10
9.1545101371
 20
12.5981192471
 30
0.0
 10
9.115050451
 20
12.619345932
 30
0.0
 10
9.1124359587
 20
12.6481816433
 30
0.0
 10
9.1124359587
 20
12.6649054058
 30
0.0
  0
SPLINE
  5
439
100
AcDbEntity
  8
0
100
AcDbSpline
 62
7
  6
CONTINUOUS
 70
0
 71
3
 72
11
 73
7
 74
0
 42
0.0000001
 43
0.0000001
 44
0.0000000001
 40
0.0
 40
0.0
 40
0.0
 40
0.0
 40
0.273039475
 40
0.4997206271
 40
0.7263911349
 40
1.0
 40
1.0
 40
1.0
 40
1.0
 10
9.0761359587
 20
12.6649054058
 30
0.0
 10
9.076136696
 20
12.6411146579
 30
0.0
 10
9.0892325517
 20
12.5975724806
 30
0.0
 10
9.1544690012
 20
12.5726105116
 30
0.0
 10
9.2195385276
 20
12.5976261919
 30
0.0
 10
9.2331367608
 20
12.6411187479
 30
0.0
 10
9.2331359587
 20
12.6649054058
 30
0.0
  0
SPLINE
  5
43A
100
AcDbEntity
  8
0
100
AcDbSpline
 62
7
  6
CONTINUOUS
 70
0
 71
3
 72
11
 73
7
 74
0
 42
0.0000001
 43
0.0000001
 44
0.0000000001
 40
0.0
 40
0.0
 40
0.0
 40
0.0
 40
0.2736079326
 40
0.5003103346
 40
0.7269614556
 40
1.0
 40
1.0
 40
1.0
 40
1.0
 10
9.2331359587
 20
12.6649054058
 30
0.0
 10
9.2331351565
 20
12.6886920637
 30
0.0
 10
9.2195331017
 20
12.7321876455
 30
0.0
 10
9.1544794324
 20
12.7572002325
 30
0.0
 10
9.0892275578
 20
12.7322357396
 30
0.0
 10
9.0761352213
 20
12.6886961538
 30
0.0
 10
9.0761359587
 20
12.6649054058
 30
0.0
  0
SPLINE
  5
43B
100
AcDbEntity
  8
0
100
AcDbSpline
 62
9
  6
CONTINUOUS
 70
0
 71
3
 72
25
 73
21
 74
0
 42
0.0000001
 43
0.0000001
 44
0.0000000001
 40
0.0
 40
0.0
 40
0.0
 40
0.0
 40
0.0529140895
 40
0.1067211776
 40
0.1617538704
 40
0.2182543611
 40
0.2764043328
 40
0.3061575633
 40
0.3363710622
 40
0.3981313213
 40
0.4615858823
 40
0.526533609
 40
0.5927319184
 40
0.6262289851
 40
0.6599439584
 40
0.7278691585
 40
0.7961992221
 40
0.8645730204
 40
0.932622658
 40
1.0
 40
1.0
 40
1.0
 40
1.0
 10
23.5330232482
 20
12.1641195988
 30
0.0
 10
23.5327065582
 20
12.1662517201
 30
0.0
 10
23.5317445872
 20
12.1705099447
 30
0.0
 10
23.52939522
 20
12.1766869773
 30
0.0
 10
23.5261751318
 20
12.1826247024
 30
0.0
 10
23.5221281541
 20
12.1882495655
 30
0.0
 10
23.5181308814
 20
12.1925855895
 30
0.0
 10
23.5145729715
 20
12.1958281294
 30
0.0
 10
23.510721801
 20
12.1989555136
 30
0.0
 10
23.5054858359
 20
12.2025379092
 30
0.0
 10
23.4986751337
 20
12.2062537013
 30
0.0
 10
23.4913770374
 20
12.2093776058
 30
0.0
 10
23.4849859628
 20
12.2114441788
 30
0.0
 10
23.4797124404
 20
12.2127640864
 30
0.0
 10
23.4743154429
 20
12.2138573998
 30
0.0
 10
23.4674431649
 20
12.2147767352
 30
0.0
 10
23.4591072917
 20
12.2151743704
 30
0.0
 10
23.4507619008
 20
12.2148715716
 30
0.0
 10
23.4425108355
 20
12.2138706659
 30
0.0
 10
23.4371041297
 20
12.2127311334
 30
0.0
 10
23.4344473838
 20
12.2120419188
 30
0.0
  0
SPLINE
  5
43C
100
AcDbEntity
  8
0
100
AcDbSpline
 62
9
  6
CONTINUOUS
 70
0
 71
3
 72
33
 73
29
 74
0
 42
0.0000001
 43
0.0000001
 44
0.0000000001
 40
0.0
 40
0.0
 40
0.0
 40
0.0
 40
0.0772383084
 40
0.155204907
 40
0.2332936021
 40
0.3108940359
 40
0.3873948665
 40
0.4621869719
 40
0.4987535474
 40
0.5346674764
 40
0.5698550345
 40
0.6042435275
 40
0.6377615481
 40
0.6703392925
 40
0.7019089559
 40
0.7324052346
 40
0.7617659708
 40
0.7899329903
 40
0.8168532061
 40
0.8424800883
 40
0.8667756428
 40
0.8897131025
 40
0.9112806102
 40
0.9314862681
 40
0.9503650126
 40
0.9679877661
 40
0.9844730161
 40
1.0
 40
1.0
 40
1.0
 40
1.0
 10
23.2361359587
 20
8.4883908211
 30
0.0
 10
23.251680366
 20
8.4882261212
 30
0.0
 10
23.2829179395
 20
8.4880929953
 30
0.0
 10
23.329871345
 20
8.4882923244
 30
0.0
 10
23.3768959518
 20
8.4887164841
 30
0.0
 10
23.4236249646
 20
8.4891925792
 30
0.0
 10
23.4696916493
 20
8.4895476437
 30
0.0
 10
23.50750148
 20
8.4895996109
 30
0.0
 10
23.5371416411
 20
8.4894013868
 30
0.0
 10
23.5588096139
 20
8.4891141609
 30
0.0
 10
23.5800364552
 20
8.4886656709
 30
0.0
 10
23.6007763032
 20
8.4880341293
 30
0.0
 10
23.6209833205
 20
8.4871978182
 30
0.0
 10
23.6406117033
 20
8.4861350216
 30
0.0
 10
23.6596156925
 20
8.4848240455
 30
0.0
 10
23.6779495901
 20
8.4832432134
 30
0.0
 10
23.6955677804
 20
8.4813708658
 30
0.0
 10
23.7124247605
 20
8.479185353
 30
0.0
 10
23.7284751805
 20
8.4766650203
 30
0.0
 10
23.7436739005
 20
8.4737881755
 30
0.0
 10
23.7579760607
 20
8.4705330296
 30
0.0
 10
23.7713371756
 20
8.4668775746
 30
0.0
 10
23.7837132015
 20
8.4627994081
 30
0.0
 10
23.7950606568
 20
8.4582752834
 30
0.0
 10
23.8053362392
 20
8.4532808888
 30
0.0
 10
23.8144971662
 20
8.4477889344
 30
0.0
 10
23.8224967896
 20
8.4417722563
 30
0.0
 10
23.8271416631
 20
8.43727361
 30
0.0
 10
23.8292197701
 20
8.4349396809
 30
0.0
  0
SPLINE
  5
43D
100
AcDbEntity
  8
0
100
AcDbSpline
 62
9
  6
CONTINUOUS
 70
0
 71
3
 72
25
 73
21
 74
0
 42
0.0000001
 43
0.0000001
 44
0.0000000001
 40
0.0
 40
0.0
 40
0.0
 40
0.0
 40
0.0539155754
 40
0.1093670625
 40
0.1664775233
 40
0.2252796877
 40
0.2857513921
 40
0.3166090129
 40
0.3478601425
 40
0.4114218024
 40
0.4761978271
 40
0.541878444
 40
0.6081327041
 40
0.6413802223
 40
0.6746512397
 40
0.7410996813
 40
0.8071800857
 40
0.8725633769
 40
0.9369304783
 40
1.0
 40
1.0
 40
1.0
 40
1.0
 10
23.4344473838
 20
12.2120419188
 30
0.0
 10
23.4334411371
 20
12.2140614366
 30
0.0
 10
23.4311120462
 20
12.2180199128
 30
0.0
 10
23.426836964
 20
12.2235415388
 30
0.0
 10
23.421799036
 20
12.2286677029
 30
0.0
 10
23.4160632427
 20
12.2333361695
 30
0.0
 10
23.4107886671
 20
12.2367723902
 30
0.0
 10
23.4062874981
 20
12.2392369518
 30
0.0
 10
23.4015514959
 20
12.2415282396
 30
0.0
 10
23.3953341319
 20
12.2439962839
 30
0.0
 10
23.3875373056
 20
12.2462993698
 30
0.0
 10
23.3794594697
 20
12.247937343
 30
0.0
 10
23.3725826193
 20
12.2487264818
 30
0.0
 10
23.3670314812
 20
12.2490017058
 30
0.0
 10
23.3614654592
 20
12.2490331307
 30
0.0
 10
23.3545298596
 20
12.2486190023
 30
0.0
 10
23.3463247807
 20
12.2474198838
 30
0.0
 10
23.3383370453
 20
12.2455401317
 30
0.0
 10
23.3306664849
 20
12.2430017207
 30
0.0
 10
23.3257720712
 20
12.2408587434
 30
0.0
 10
23.3234108832
 20
12.2396792289
 30
0.0
  0
SPLINE
  5
43E
100
AcDbEntity
  8
0
100
AcDbSpline
 62
9
  6
CONTINUOUS
 70
0
 71
3
 72
11
 73
7
 74
0
 42
0.0000001
 43
0.0000001
 44
0.0000000001
 40
0.0
 40
0.0
 40
0.0
 40
0.0
 40
0.2494179985
 40
0.5006979264
 40
0.7516221138
 40
1.0
 40
1.0
 40
1.0
 40
1.0
 10
23.4468992935
 20
8.4295330601
 30
0.0
 10
23.4293811473
 20
8.4289441535
 30
0.0
 10
23.3942141943
 20
8.4277585035
 30
0.0
 10
23.3414163278
 20
8.4261899808
 30
0.0
 10
23.288680014
 20
8.4250561346
 30
0.0
 10
23.2535909059
 20
8.4247451753
 30
0.0
 10
23.2361359587
 20
8.4247451753
 30
0.0
  0
SPLINE
  5
43F
100
AcDbEntity
  8
0
100
AcDbSpline
 62
9
  6
CONTINUOUS
 70
0
 71
3
 72
32
 73
28
 74
0
 42
0.0000001
 43
0.0000001
 44
0.0000000001
 40
0.0
 40
0.0
 40
0.0
 40
0.0
 40
0.1535728649
 40
0.2306101061
 40
0.3070375771
 40
0.3822823694
 40
0.4557827653
 40
0.4917080123
 40
0.5269939173
 40
0.561575591
 40
0.5953899972
 40
0.6283763143
 40
0.6604763843
 40
0.6916352702
 40
0.7218019573
 40
0.7509302367
 40
0.7789798295
 40
0.8059178202
 40
0.8317204928
 40
0.856375683
 40
0.8798857803
 40
0.9022715222
 40
0.9235766917
 40
0.9438737231
 40
0.9632699694
 40
0.9819139223
 40
1.0
 40
1.0
 40
1.0
 40
1.0
 10
23.2361359587
 20
8.6860856153
 30
0.0
 10
23.2622517908
 20
8.6854307406
 30
0.0
 10
23.3014654737
 20
8.6842873672
 30
0.0
 10
23.3536480729
 20
8.6820486755
 30
0.0
 10
23.392496122
 20
8.6799143533
 30
0.0
 10
23.4307076208
 20
8.6772329289
 30
0.0
 10
23.462000224
 20
8.6744441729
 30
0.0
 10
23.4864780629
 20
8.6718282681
 30
0.0
 10
23.5043467129
 20
8.6696842281
 30
0.0
 10
23.5218269518
 20
8.6673315608
 30
0.0
 10
23.538880736
 20
8.6647584082
 30
0.0
 10
23.5554700386
 20
8.6619529795
 30
0.0
 10
23.5715568759
 20
8.6589034663
 30
0.0
 10
23.5871033128
 20
8.6555980589
 30
0.0
 10
23.6020714777
 20
8.6520249318
 30
0.0
 10
23.6164235777
 20
8.648172231
 30
0.0
 10
23.6301219178
 20
8.6440280505
 30
0.0
 10
23.6431289204
 20
8.6395803957
 30
0.0
 10
23.655407143
 20
8.6348171277
 30
0.0
 10
23.6669192836
 20
8.6297258801
 30
0.0
 10
23.6776281614
 20
8.6242939332
 30
0.0
 10
23.6874966236
 20
8.6185080736
 30
0.0
 10
23.696487387
 20
8.6123543392
 30
0.0
 10
23.7045625389
 20
8.6058181089
 30
0.0
 10
23.7116833721
 20
8.5988832919
 30
0.0
 10
23.7178080895
 20
8.5915357124
 30
0.0
 10
23.7212374929
 20
8.5862911653
 30
0.0
 10
23.722754385
 20
8.5836145121
 30
0.0
  0
SPLINE
  5
440
100
AcDbEntity
  8
0
100
AcDbSpline
 62
9
  6
CONTINUOUS
 70
0
 71
3
 72
33
 73
29
 74
0
 42
0.0000001
 43
0.0000001
 44
0.0000000001
 40
0.0
 40
0.0
 40
0.0
 40
0.0
 40
0.0756850351
 40
0.1517800767
 40
0.2277367709
 40
0.3030154322
 40
0.377087793
 40
0.4494407233
 40
0.4848188088
 40
0.5195843639
 40
0.5536801898
 40
0.5870514471
 40
0.6196460906
 40
0.6514154004
 40
0.6823146332
 40
0.7123038259
 40
0.7413487871
 40
0.7694223261
 40
0.7965057723
 40
0.8225908516
 40
0.8476819832
 40
0.8717990575
 40
0.8949807178
 40
0.9172880999
 40
0.9388088425
 40
0.9596609677
 40
0.9799959469
 40
1.0
 40
1.0
 40
1.0
 40
1.0
 10
23.2361359587
 20
8.8178615302
 30
0.0
 10
23.2480160477
 20
8.8176794871
 30
0.0
 10
23.2718377171
 20
8.8170804241
 30
0.0
 10
23.3075544085
 20
8.8154465087
 30
0.0
 10
23.343163282
 20
8.8130293044
 30
0.0
 10
23.3783881921
 20
8.8097856704
 30
0.0
 10
23.4129530947
 20
8.8056725155
 30
0.0
 10
23.4411856735
 20
8.8014539593
 30
0.0
 10
23.4632183838
 20
8.7975782796
 30
0.0
 10
23.4792812042
 20
8.794447184
 30
0.0
 10
23.4949709796
 20
8.7910648486
 30
0.0
 10
23.5102532659
 20
8.7874257756
 30
0.0
 10
23.5250936094
 20
8.7835245312
 30
0.0
 10
23.5394576033
 20
8.7793556492
 30
0.0
 10
23.5533108818
 20
8.7749136449
 30
0.0
 10
23.5666191312
 20
8.7701929965
 30
0.0
 10
23.5793480965
 20
8.7651881271
 30
0.0
 10
23.5914635867
 20
8.7598933775
 30
0.0
 10
23.6029314738
 20
8.7543029682
 30
0.0
 10
23.6137176816
 20
8.7484109482
 30
0.0
 10
23.6237881502
 20
8.7422111321
 30
0.0
 10
23.6331087679
 20
8.7356970216
 30
0.0
 10
23.6416452372
 20
8.7288617522
 30
0.0
 10
23.6493628941
 20
8.7216980083
 30
0.0
 10
23.656226353
 20
8.7141982838
 30
0.0
 10
23.6621994579
 20
8.7063544492
 30
0.0
 10
23.6672441182
 20
8.6981606944
 30
0.0
 10
23.6699764226
 20
8.6924309655
 30
0.0
 10
23.6711654899
 20
8.6895244307
 30
0.0
  0
SPLINE
  5
441
100
AcDbEntity
  8
0
100
AcDbSpline
 62
9
  6
CONTINUOUS
 70
0
 71
3
 72
24
 73
20
 74
0
 42
0.0000001
 43
0.0000001
 44
0.0000000001
 40
0.0
 40
0.0
 40
0.0
 40
0.0
 40
0.1152098972
 40
0.1754190516
 40
0.2371323764
 40
0.3001660957
 40
0.3321261743
 40
0.3643407168
 40
0.4293711947
 40
0.4949469534
 40
0.560709571
 40
0.626296574
 40
0.6589240928
 40
0.6913838004
 40
0.7556566874
 40
0.8188829269
 40
0.8808174555
 40
0.9412427608
 40
1.0
 40
1.0
 40
1.0
 40
1.0
 10
23.3234108832
 20
12.2396792289
 30
0.0
 10
23.3200976926
 20
12.2432649944
 30
0.0
 10
23.3143564468
 20
12.2481127671
 30
0.0
 10
23.3057791169
 20
12.2533634648
 30
0.0
 10
23.2987159222
 20
12.2567915646
 30
0.0
 10
23.2924860625
 20
12.2591194971
 30
0.0
 10
23.287316389
 20
12.2606526771
 30
0.0
 10
23.2819995631
 20
12.2619668328
 30
0.0
 10
23.275196395
 20
12.2631724775
 30
0.0
 10
23.2668991974
 20
12.2639214691
 30
0.0
 10
23.2585448964
 20
12.2639730099
 30
0.0
 10
23.2516082901
 20
12.2634291595
 30
0.0
 10
23.2461262667
 20
12.2626366253
 30
0.0
 10
23.2407398737
 20
12.2616102895
 30
0.0
 10
23.2341717761
 20
12.2598954031
 30
0.0
 10
23.2266086318
 20
12.2571730616
 30
0.0
 10
23.2194761236
 20
12.2538317727
 30
0.0
 10
23.2128638756
 20
12.2499116312
 30
0.0
 10
23.208800621
 20
12.2468922373
 30
0.0
 10
23.2068905781
 20
12.2452949752
 30
0.0
  0
SPLINE
  5
442
100
AcDbEntity
  8
0
100
AcDbSpline
 62
7
  6
CONTINUOUS
 70
0
 71
3
 72
33
 73
29
 74
0
 42
0.0000001
 43
0.0000001
 44
0.0000000001
 40
0.0
 40
0.0
 40
0.0
 40
0.0
 40
0.07379621
 40
0.1477423159
 40
0.221410536
 40
0.2943710157
 40
0.3661982586
 40
0.4364781451
 40
0.4709166798
 40
0.5048227642
 40
0.5381519247
 40
0.5708624048
 40
0.6029157017
 40
0.634277197
 40
0.664916902
 40
0.6948103367
 40
0.723939571
 40
0.7522944479
 40
0.7798740168
 40
0.8066881879
 40
0.8327596121
 40
0.8581257575
 40
0.8828411114
 40
0.906979372
 40
0.9306354126
 40
0.9539267137
 40
0.9769938966
 40
1.0
 40
1.0
 40
1.0
 40
1.0
 10
23.2361359587
 20
8.9970686262
 30
0.0
 10
23.2475078155
 20
8.9970686262
 30
0.0
 10
23.2702779672
 20
8.9965300873
 30
0.0
 10
23.3043258665
 20
8.9941635649
 30
0.0
 10
23.3381045495
 20
8.9902734159
 30
0.0
 10
23.3713483307
 20
8.9848971302
 30
0.0
 10
23.4037920846
 20
8.9780722992
 30
0.0
 10
23.4301189312
 20
8.9711628546
 30
0.0
 10
23.4505501004
 20
8.964918781
 30
0.0
 10
23.4654035114
 20
8.9599266125
 30
0.0
 10
23.4798564669
 20
8.9545987888
 30
0.0
 10
23.4938758494
 20
8.9489398775
 30
0.0
 10
23.5074284449
 20
8.9429545227
 30
0.0
 10
23.5204810928
 20
8.9366473105
 30
0.0
 10
23.533000647
 20
8.9300227904
 30
0.0
 10
23.5449539835
 20
8.9230854525
 30
0.0
 10
23.5563079912
 20
8.9158397119
 30
0.0
 10
23.5670295588
 20
8.908289887
 30
0.0
 10
23.5770855515
 20
8.9004401768
 30
0.0
 10
23.5864427736
 20
8.8922946385
 30
0.0
 10
23.5950679127
 20
8.8838571727
 30
0.0
 10
23.6029274636
 20
8.8751315229
 30
0.0
 10
23.6099876311
 20
8.8661213215
 30
0.0
 10
23.6162142363
 20
8.8568301325
 30
0.0
 10
23.6215726073
 20
8.8472617603
 30
0.0
 10
23.6260276722
 20
8.8374199003
 30
0.0
 10
23.6295436731
 20
8.8273104722
 30
0.0
 10
23.6312362257
 20
8.8204020846
 30
0.0
 10
23.6319121207
 20
8.8169219138
 30
0.0
  0
SPLINE
  5
443
100
AcDbEntity
  8
0
100
AcDbSpline
 62
9
  6
CONTINUOUS
 70
0
 71
3
 72
33
 73
29
 74
0
 42
0.0000001
 43
0.0000001
 44
0.0000000001
 40
0.0
 40
0.0
 40
0.0
 40
0.0
 40
0.0269987297
 40
0.0540442057
 40
0.0811797264
 40
0.1084511446
 40
0.1359005632
 40
0.1635657207
 40
0.1914812294
 40
0.2196787708
 40
0.2481875423
 40
0.2770346727
 40
0.3062445066
 40
0.335834586
 40
0.3658157924
 40
0.3961947231
 40
0.4581418418
 40
0.5216898776
 40
0.5540525489
 40
0.5867854549
 40
0.6198735688
 40
0.6532984919
 40
0.6870373831
 40
0.7210631574
 40
0.7898499974
 40
0.8594389334
 40
0.9295794308
 40
1.0
 40
1.0
 40
1.0
 40
1.0
 10
23.6286991759
 20
9.0159527759
 30
0.0
 10
23.628699151
 20
9.0208735608
 30
0.0
 10
23.6283831093
 20
9.0307265423
 30
0.0
 10
23.6269639985
 20
9.0454637415
 30
0.0
 10
23.6246006611
 20
9.0601302091
 30
0.0
 10
23.6212956701
 20
9.0746888281
 30
0.0
 10
23.6170560276
 20
9.089103622
 30
0.0
 10
23.6119000778
 20
9.103341146
 30
0.0
 10
23.6058433051
 20
9.1173677707
 30
0.0
 10
23.5989012505
 20
9.1311500888
 30
0.0
 10
23.5910895358
 20
9.1446550045
 30
0.0
 10
23.5824245502
 20
9.1578500167
 30
0.0
 10
23.5729209224
 20
9.1707001515
 30
0.0
 10
23.5626019363
 20
9.1831740893
 30
0.0
 10
23.5514952761
 20
9.1952433017
 30
0.0
 10
23.53557511
 20
9.2108584226
 30
0.0
 10
23.5138180257
 20
9.2292025053
 30
0.0
 10
23.4901245428
 20
9.245599838
 30
0.0
 10
23.4699893676
 20
9.2576250126
 30
0.0
 10
23.4542325156
 20
9.2661199496
 30
0.0
 10
23.4379505101
 20
9.2740122599
 30
0.0
 10
23.4211809111
 20
9.281281222
 30
0.0
 10
23.403964663
 20
9.287909618
 30
0.0
 10
23.3803907962
 20
9.2959068979
 30
0.0
 10
23.3500509025
 20
9.3042155596
 30
0.0
 10
23.3126931681
 20
9.3113946633
 30
0.0
 10
23.2746001026
 20
9.31571799
 30
0.0
 10
23.2489708022
 20
9.3166765777
 30
0.0
 10
23.2361359587
 20
9.31667411
 30
0.0
  0
SPLINE
  5
444
100
AcDbEntity
  8
0
100
AcDbSpline
 62
7
  6
CONTINUOUS
 70
0
 71
3
 72
9
 73
5
 74
0
 42
0.0000001
 43
0.0000001
 44
0.0000000001
 40
0.0
 40
0.0
 40
0.0
 40
0.0
 40
0.4899852013
 40
1.0
 40
1.0
 40
1.0
 40
1.0
 10
23.623960388
 20
8.9816949715
 30
0.0
 10
23.6224238498
 20
8.9667289257
 30
0.0
 10
23.6206607681
 20
8.9360314144
 30
0.0
 10
23.6215072885
 20
8.9052993175
 30
0.0
 10
23.6225624482
 20
8.8896751933
 30
0.0
  0
SPLINE
  5
445
100
AcDbEntity
  8
0
100
AcDbSpline
 62
9
  6
CONTINUOUS
 70
0
 71
3
 72
25
 73
21
 74
0
 42
0.0000001
 43
0.0000001
 44
0.0000000001
 40
0.0
 40
0.0
 40
0.0
 40
0.0
 40
0.0608611516
 40
0.123242725
 40
0.1869176106
 40
0.2516109595
 40
0.3170293632
 40
0.3499281517
 40
0.3829010785
 40
0.4488951866
 40
0.5146879923
 40
0.5799261178
 40
0.644268526
 40
0.6760161285
 40
0.7074328688
 40
0.7691773345
 40
0.829388951
 40
0.8879583526
 40
0.9448225854
 40
1.0
 40
1.0
 40
1.0
 40
1.0
 10
23.2068905781
 20
12.2452949752
 30
0.0
 10
23.2047369563
 20
12.24669451
 30
0.0
 10
23.2002207072
 20
12.2492956635
 30
0.0
 10
23.1930229858
 20
12.2525499325
 30
0.0
 10
23.1854032756
 20
12.2551806882
 30
0.0
 10
23.1774570311
 20
12.2571566255
 30
0.0
 10
23.1706524112
 20
12.25823028
 30
0.0
 10
23.1651330418
 20
12.2587324145
 30
0.0
 10
23.159572655
 20
12.2589923442
 30
0.0
 10
23.1526115378
 20
12.2588678075
 30
0.0
 10
23.144330739
 20
12.258016494
 30
0.0
 10
23.1362203395
 20
12.2564785728
 30
0.0
 10
23.129658003
 20
12.2546281269
 30
0.0
 10
23.1245910086
 20
12.2528116557
 30
0.0
 10
23.1197181293
 20
12.2507967429
 30
0.0
 10
23.113921401
 20
12.2478920167
 30
0.0
 10
23.1074718959
 20
12.2438131014
 30
0.0
 10
23.1016399651
 20
12.2392145546
 30
0.0
 10
23.0964998244
 20
12.2341519741
 30
0.0
 10
23.0935390635
 20
12.2304468252
 30
0.0
 10
23.0922078679
 20
12.2285362998
 30
0.0
  0
SPLINE
  5
446
100
AcDbEntity
  8
0
100
AcDbSpline
 62
9
  6
CONTINUOUS
 70
0
 71
3
 72
25
 73
21
 74
0
 42
0.0000001
 43
0.0000001
 44
0.0000000001
 40
0.0
 40
0.0
 40
0.0
 40
0.0
 40
0.0652755557
 40
0.1315621227
 40
0.198537945
 40
0.2658528259
 40
0.3331549093
 40
0.3667053383
 40
0.4001337515
 40
0.4664648365
 40
0.5318674706
 40
0.5960472915
 40
0.6587407784
 40
0.6894745316
 40
0.7197700846
 40
0.7790239555
 40
0.8365639921
 40
0.8924664319
 40
0.9468680286
 40
1.0
 40
1.0
 40
1.0
 40
1.0
 10
23.0922078679
 20
12.2285362998
 30
0.0
 10
23.0896781988
 20
12.2294776253
 30
0.0
 10
23.0844856783
 20
12.231130617
 30
0.0
 10
23.0764621748
 20
12.2329140576
 30
0.0
 10
23.0682312826
 20
12.2340138251
 30
0.0
 10
23.0598956516
 20
12.2344176611
 30
0.0
 10
23.0529371996
 20
12.2341640204
 30
0.0
 10
23.0474120324
 20
12.2335979749
 30
0.0
 10
23.0419571663
 20
12.2327934146
 30
0.0
 10
23.0352715014
 20
12.2313536556
 30
0.0
 10
23.0275229319
 20
12.2289542586
 30
0.0
 10
23.0201615738
 20
12.2259215085
 30
0.0
 10
23.0143884705
 20
12.2228729873
 30
0.0
 10
23.010059781
 20
12.2201422387
 30
0.0
 10
23.0059992363
 20
12.2172665763
 30
0.0
 10
23.0013274114
 20
12.2133511273
 30
0.0
 10
22.9963963513
 20
12.2081645997
 30
0.0
 10
22.9922332539
 20
12.2025895041
 30
0.0
 10
22.9888929924
 20
12.1966940412
 30
0.0
 10
22.9872345101
 20
12.1925498886
 30
0.0
 10
22.9865686889
 20
12.1904562119
 30
0.0
  0
SPLINE
  5
447
100
AcDbEntity
  8
0
100
AcDbSpline
 62
9
  6
CONTINUOUS
 70
0
 71
3
 72
23
 73
19
 74
0
 42
0.0000001
 43
0.0000001
 44
0.0000000001
 40
0.0
 40
0.0
 40
0.0
 40
0.0
 40
0.0824971285
 40
0.1624663625
 40
0.2398406818
 40
0.3145594154
 40
0.3865695151
 40
0.4558271331
 40
0.5222995883
 40
0.5859678226
 40
0.6468294742
 40
0.7049032713
 40
0.7602358539
 40
0.8129053664
 40
0.8630274275
 40
0.910763125
 40
0.9563278261
 40
1.0
 40
1.0
 40
1.0
 40
1.0
 10
22.7013416399
 20
8.3912389213
 30
0.0
 10
22.6972591299
 20
8.3908377935
 30
0.0
 10
22.6892253538
 20
8.3899832256
 30
0.0
 10
22.67739008
 20
8.388508839
 30
0.0
 10
22.6659690104
 20
8.3868553725
 30
0.0
 10
22.6549772107
 20
8.385016726
 30
0.0
 10
22.6444296643
 20
8.3829867869
 30
0.0
 10
22.6343413299
 20
8.3807594274
 30
0.0
 10
22.6247271168
 20
8.3783284934
 30
0.0
 10
22.6156018836
 20
8.3756877837
 30
0.0
 10
22.6069803975
 20
8.3728310318
 30
0.0
 10
22.5988772385
 20
8.3697517672
 30
0.0
 10
22.5913065993
 20
8.3664437474
 30
0.0
 10
22.5842824321
 20
8.36290049
 30
0.0
 10
22.577818775
 20
8.3591152822
 30
0.0
 10
22.5719296267
 20
8.3550808204
 30
0.0
 10
22.5666301587
 20
8.3507903498
 30
0.0
 10
22.5634396873
 20
8.3476950448
 30
0.0
 10
22.5619595318
 20
8.3461060262
 30
0.0
  0
SPLINE
  5
448
100
AcDbEntity
  8
0
100
AcDbSpline
 62
9
  6
CONTINUOUS
 70
0
 71
3
 72
19
 73
15
 74
0
 42
0.0000001
 43
0.0000001
 44
0.0000000001
 40
0.0
 40
0.0
 40
0.0
 40
0.0
 40
0.1256183487
 40
0.2515899815
 40
0.3146262932
 40
0.3775815302
 40
0.4403752666
 40
0.5030294047
 40
0.5655902813
 40
0.628105267
 40
0.6905977872
 40
0.7529857344
 40
0.8770822004
 40
1.0
 40
1.0
 40
1.0
 40
1.0
 10
22.5158619366
 20
7.7826145629
 30
0.0
 10
22.5159499209
 20
7.8096387936
 30
0.0
 10
22.5181256804
 20
7.8637758966
 30
0.0
 10
22.5257922599
 20
7.9310897654
 30
0.0
 10
22.5348903715
 20
7.9845363668
 30
0.0
 10
22.5431685793
 20
8.0243069068
 30
0.0
 10
22.5528787505
 20
8.0636671308
 30
0.0
 10
22.5639964954
 20
8.102564887
 30
0.0
 10
22.5765013909
 20
8.1409761093
 30
0.0
 10
22.5903979503
 20
8.1788691879
 30
0.0
 10
22.6056778214
 20
8.2161862029
 30
0.0
 10
22.6277919337
 20
8.2649819501
 30
0.0
 10
22.6585998781
 20
8.3240553673
 30
0.0
 10
22.6865955873
 20
8.369288808
 30
0.0
 10
22.7013416399
 20
8.3912389213
 30
0.0
  0
SPLINE
  5
449
100
AcDbEntity
  8
0
100
AcDbSpline
 62
9
  6
CONTINUOUS
 70
0
 71
3
 72
32
 73
28
 74
0
 42
0.0000001
 43
0.0000001
 44
0.0000000001
 40
0.0
 40
0.0
 40
0.0
 40
0.0
 40
0.0399013692
 40
0.0793471103
 40
0.1183226892
 40
0.1568103311
 40
0.19478842
 40
0.2322394288
 40
0.2691620991
 40
0.3055589895
 40
0.3414172622
 40
0.3767108521
 40
0.4455497418
 40
0.479111409
 40
0.5120959059
 40
0.5762528573
 40
0.6378885308
 40
0.6677295896
 40
0.6969057301
 40
0.753263216
 40
0.8070524932
 40
0.8584108661
 40
0.8832348392
 40
0.9075213436
 40
0.9313059414
 40
0.9546299817
 40
1.0
 40
1.0
 40
1.0
 40
1.0
 10
22.5158619366
 20
7.7826145629
 30
0.0
 10
22.5122162644
 20
7.7817207131
 30
0.0
 10
22.5049773993
 20
7.7798985904
 30
0.0
 10
22.494218562
 20
7.777043175
 30
0.0
 10
22.4836271984
 20
7.7740789494
 30
0.0
 10
22.4732091415
 20
7.7710115163
 30
0.0
 10
22.4629683856
 20
7.7678529456
 30
0.0
 10
22.4529080413
 20
7.7646116943
 30
0.0
 10
22.4430349086
 20
7.7612774383
 30
0.0
 10
22.4333567299
 20
7.7578380686
 30
0.0
 10
22.4238783099
 20
7.7542980358
 30
0.0
 10
22.4116122851
 20
7.7495039028
 30
0.0
 10
22.3996518722
 20
7.7445226298
 30
0.0
 10
22.3880375676
 20
7.7392943113
 30
0.0
 10
22.376925132
 20
7.7340299892
 30
0.0
 10
22.3636120636
 20
7.7272487535
 30
0.0
 10
22.3508339973
 20
7.7200932415
 30
0.0
 10
22.3411058139
 20
7.7142445976
 30
0.0
 10
22.3319211268
 20
7.708460462
 30
0.0
 10
22.3210535765
 20
7.7011250235
 30
0.0
 10
22.3088909294
 20
7.6920085896
 30
0.0
 10
22.2995314745
 20
7.6841281494
 30
0.0
 10
22.2926067631
 20
7.6776932758
 30
0.0
 10
22.2877457376
 20
7.6728543844
 30
0.0
 10
22.2831619386
 20
7.6679428757
 30
0.0
 10
22.2774801983
 20
7.6613528917
 30
0.0
 10
22.2735630117
 20
7.6562000898
 30
0.0
 10
22.2711359591
 20
7.6526892311
 30
0.0
  0
LINE
  5
44A
100
AcDbEntity
  8
0
100
AcDbLine
 62
9
  6
CONTINUOUS
 10
22.7013416399
 20
8.3912389213
 11
22.7268909774
 21
8.42924999
  0
SPLINE
  5
44B
100
AcDbEntity
  8
0
100
AcDbSpline
 62
9
  6
CONTINUOUS
 70
0
 71
3
 72
50
 73
46
 74
0
 42
0.0000001
 43
0.0000001
 44
0.0000000001
 40
0.0
 40
0.0
 40
0.0
 40
0.0
 40
0.0293033018
 40
0.0587849824
 40
0.0884377621
 40
0.1182558309
 40
0.148237671
 40
0.1783821857
 40
0.2086870736
 40
0.239147546
 40
0.2697582613
 40
0.3005123965
 40
0.331399631
 40
0.3624097512
 40
0.3935342405
 40
0.4247670825
 40
0.440422465
 40
0.4561029772
 40
0.4718087006
 40
0.4875400109
 40
0.5032971567
 40
0.5190802847
 40
0.5348894564
 40
0.5507240418
 40
0.5824633544
 40
0.5983650427
 40
0.6142861467
 40
0.6461823987
 40
0.6621559188
 40
0.6781452726
 40
0.7101668006
 40
0.7261964037
 40
0.7422371858
 40
0.7582879269
 40
0.7743470576
 40
0.7904134575
 40
0.8064870853
 40
0.8225696603
 40
0.8386621683
 40
0.8708771519
 40
0.8869988448
 40
0.9031292591
 40
0.9354099251
 40
0.9677069258
 40
1.0
 40
1.0
 40
1.0
 40
1.0
 10
22.5816896076
 20
7.7978424434
 30
0.0
 10
22.5879790757
 20
7.7992156702
 30
0.0
 10
22.6006077472
 20
7.8019183475
 30
0.0
 10
22.6196398897
 20
7.8058256615
 30
0.0
 10
22.6388154303
 20
7.8095934855
 30
0.0
 10
22.6581304233
 20
7.8132176537
 30
0.0
 10
22.6775789831
 20
7.8167123492
 30
0.0
 10
22.6971564801
 20
7.8200913509
 30
0.0
 10
22.7168579883
 20
7.8233677679
 30
0.0
 10
22.7366795202
 20
7.8265446381
 30
0.0
 10
22.756615904
 20
7.8296264911
 30
0.0
 10
22.7766614909
 20
7.8326138247
 30
0.0
 10
22.7968136777
 20
7.8354784365
 30
0.0
 10
22.8170687238
 20
7.8381934848
 30
0.0
 10
22.8374228215
 20
7.8407350115
 30
0.0
 10
22.8544485069
 20
7.8427014489
 30
0.0
 10
22.8681143741
 20
7.844181298
 30
0.0
 10
22.8783942453
 20
7.8452435037
 30
0.0
 10
22.8886952116
 20
7.8462627546
 30
0.0
 10
22.8990163863
 20
7.847248022
 30
0.0
 10
22.9093570543
 20
7.8482075771
 30
0.0
 10
22.9197165114
 20
7.849149525
 30
0.0
 10
22.9300937847
 20
7.8500833356
 30
0.0
 10
22.9439631152
 20
7.8513228904
 30
0.0
 10
22.9578550436
 20
7.8525380391
 30
0.0
 10
22.9717699038
 20
7.8537080364
 30
0.0
 10
22.9857223558
 20
7.8548417753
 30
0.0
 10
22.9996957079
 20
7.8559124914
 30
0.0
 10
23.0136889862
 20
7.8569161231
 30
0.0
 10
23.0277129405
 20
7.8578753949
 30
0.0
 10
23.0417544997
 20
7.8587585018
 30
0.0
 10
23.055814485
 20
7.8595170691
 30
0.0
 10
23.0663746924
 20
7.8600124744
 30
0.0
 10
23.0769450945
 20
7.8604222305
 30
0.0
 10
23.0875244855
 20
7.8607344969
 30
0.0
 10
23.0981116346
 20
7.860937377
 30
0.0
 10
23.1087055109
 20
7.861019068
 30
0.0
 10
23.1193053101
 20
7.8610198589
 30
0.0
 10
23.1334510465
 20
7.8609658173
 30
0.0
 10
23.1476054196
 20
7.8609127393
 30
0.0
 10
23.1617682303
 20
7.8609367278
 30
0.0
 10
23.1759450828
 20
7.8610370953
 30
0.0
 10
23.1936739788
 20
7.86137587
 30
0.0
 10
23.2149364666
 20
7.8623496396
 30
0.0
 10
23.2290819807
 20
7.8635335966
 30
0.0
 10
23.2361359587
 20
7.8642903932
 30
0.0
  0
SPLINE
  5
44C
100
AcDbEntity
  8
0
100
AcDbSpline
 62
9
  6
CONTINUOUS
 70
0
 71
3
 72
14
 73
10
 74
0
 42
0.0000001
 43
0.0000001
 44
0.0000000001
 40
0.0
 40
0.0
 40
0.0
 40
0.0
 40
0.2479187948
 40
0.3723778408
 40
0.497170649
 40
0.6223191249
 40
0.7478431703
 40
0.873741318
 40
1.0
 40
1.0
 40
1.0
 40
1.0
 10
22.5158619366
 20
7.7826145635
 30
0.0
 10
22.5212772749
 20
7.7839761979
 30
0.0
 10
22.5294214752
 20
7.785980908
 30
0.0
 10
22.5403161003
 20
7.7885692082
 30
0.0
 10
22.5485304955
 20
7.7904755139
 30
0.0
 10
22.5567762982
 20
7.792352174
 30
0.0
 10
22.5650525402
 20
7.7942070495
 30
0.0
 10
22.57335917
 20
7.7960404761
 30
0.0
 10
22.5789093953
 20
7.7972447314
 30
0.0
 10
22.5816896076
 20
7.7978424434
 30
0.0
  0
SPLINE
  5
44D
100
AcDbEntity
  8
0
100
AcDbSpline
 62
9
  6
CONTINUOUS
 70
0
 71
3
 72
21
 73
17
 74
0
 42
0.0000001
 43
0.0000001
 44
0.0000000001
 40
0.0
 40
0.0
 40
0.0
 40
0.0
 40
0.0501805192
 40
0.1030182376
 40
0.1583173346
 40
0.2158705949
 40
0.2754624262
 40
0.3368710365
 40
0.3998700451
 40
0.4642297075
 40
0.5297177882
 40
0.5961000796
 40
0.7306058288
 40
0.8658631504
 40
0.9331877738
 40
1.0
 40
1.0
 40
1.0
 40
1.0
 10
22.7013416399
 20
8.3912389213
 30
0.0
 10
22.7102486608
 20
8.3921140825
 30
0.0
 10
22.7285639231
 20
8.3936161903
 30
0.0
 10
22.7567580177
 20
8.3952049139
 30
0.0
 10
22.7862928615
 20
8.3962507166
 30
0.0
 10
22.8170450399
 20
8.3968145746
 30
0.0
 10
22.8488913581
 20
8.3969575826
 30
0.0
 10
22.8817082626
 20
8.3967409567
 30
0.0
 10
22.9153721035
 20
8.3962260114
 30
0.0
 10
22.9497591099
 20
8.3954741227
 30
0.0
 10
22.9847453713
 20
8.3945467872
 30
0.0
 10
23.0322342809
 20
8.3931526107
 30
0.0
 10
23.0921582418
 20
8.3912903837
 30
0.0
 10
23.1522581937
 20
8.3896724736
 30
0.0
 10
23.2002975057
 20
8.3887641612
 30
0.0
 10
23.2242200302
 20
8.3884813597
 30
0.0
 10
23.2361359587
 20
8.3883939751
 30
0.0
  0
SPLINE
  5
44E
100
AcDbEntity
  8
0
100
AcDbSpline
 62
7
  6
CONTINUOUS
 70
0
 71
3
 72
19
 73
15
 74
0
 42
0.0000001
 43
0.0000001
 44
0.0000000001
 40
0.0
 40
0.0
 40
0.0
 40
0.0
 40
0.0512021352
 40
0.1043394749
 40
0.1593294906
 40
0.2160853539
 40
0.2745167609
 40
0.3345305832
 40
0.3960313885
 40
0.4589218617
 40
0.588474597
 40
0.7223851171
 40
0.8598355315
 40
1.0
 40
1.0
 40
1.0
 40
1.0
 10
22.7268909774
 20
8.42924999
 30
0.0
 10
22.7319655875
 20
8.4297318149
 30
0.0
 10
22.7423173747
 20
8.4306024807
 30
0.0
 10
22.7581460966
 20
8.4316413393
 30
0.0
 10
22.7745415809
 20
8.4324535892
 30
0.0
 10
22.7914733978
 20
8.4330548904
 30
0.0
 10
22.8089112091
 20
8.4334609222
 30
0.0
 10
22.8268246121
 20
8.4336873599
 30
0.0
 10
22.8451831978
 20
8.433749945
 30
0.0
 10
22.8704645696
 20
8.4336344929
 30
0.0
 10
22.9029519928
 20
8.433151773
 30
0.0
 10
22.9428534456
 20
8.4321779694
 30
0.0
 10
22.9838039703
 20
8.4309283088
 30
0.0
 10
23.0114264164
 20
8.430001889
 30
0.0
 10
23.0253726239
 20
8.4295330601
 30
0.0
  0
SPLINE
  5
44F
100
AcDbEntity
  8
0
100
AcDbSpline
 62
9
  6
CONTINUOUS
 70
0
 71
3
 72
26
 73
22
 74
0
 42
0.0000001
 43
0.0000001
 44
0.0000000001
 40
0.0
 40
0.0
 40
0.0
 40
0.0
 40
0.0691937428
 40
0.1386812158
 40
0.2081077278
 40
0.2771071467
 40
0.3113437487
 40
0.3453447932
 40
0.379073336
 40
0.4124991357
 40
0.4783268498
 40
0.5426532213
 40
0.6053043629
 40
0.6661561717
 40
0.6959039222
 40
0.7251982458
 40
0.7824950257
 40
0.8383179915
 40
0.8929460963
 40
0.9467069119
 40
1.0
 40
1.0
 40
1.0
 40
1.0
 10
22.9865686889
 20
12.1904562119
 30
0.0
 10
22.9838463924
 20
12.1908808191
 30
0.0
 10
22.9783496349
 20
12.191489397
 30
0.0
 10
22.9700563574
 20
12.1916979852
 30
0.0
 10
22.9617821341
 20
12.1912141998
 30
0.0
 10
22.9549674928
 20
12.1902375393
 30
0.0
 10
22.9496184276
 20
12.1891125834
 30
0.0
 10
22.9456846202
 20
12.1881019138
 30
0.0
 10
22.9418316159
 20
12.1869228074
 30
0.0
 10
22.9368445268
 20
12.1851383271
 30
0.0
 10
22.9308698633
 20
12.1825180148
 30
0.0
 10
22.9241549943
 20
12.1787716496
 30
0.0
 10
22.918008236
 20
12.1744884809
 30
0.0
 10
22.9133887339
 20
12.1704804983
 30
0.0
 10
22.9100652877
 20
12.1670496992
 30
0.0
 10
22.9070465008
 20
12.1635327718
 30
0.0
 10
22.9037559344
 20
12.1588945117
 30
0.0
 10
22.9006089561
 20
12.152981892
 30
0.0
 10
22.8983210564
 20
12.1468347637
 30
0.0
 10
22.8969231466
 20
12.1405297158
 30
0.0
 10
22.896605162
 20
12.1362607423
 30
0.0
 10
22.896605162
 20
12.1341386759
 30
0.0
  0
SPLINE
  5
450
100
AcDbEntity
  8
0
100
AcDbSpline
 62
9
  6
CONTINUOUS
 70
0
 71
3
 72
24
 73
20
 74
0
 42
0.0000001
 43
0.0000001
 44
0.0000000001
 40
0.0
 40
0.0
 40
0.0
 40
0.0
 40
0.1404838451
 40
0.2099620292
 40
0.2785908372
 40
0.3461499149
 40
0.4124459923
 40
0.4450791412
 40
0.4773482109
 40
0.5407636796
 40
0.6026845584
 40
0.6631042936
 40
0.7220485672
 40
0.7795935598
 40
0.8078952107
 40
0.8359096164
 40
0.8911987078
 40
0.9457936109
 40
1.0
 40
1.0
 40
1.0
 40
1.0
 10
22.8966107393
 20
12.1334474235
 30
0.0
 10
22.8919706897
 20
12.1332678989
 30
0.0
 10
22.8850415851
 20
12.132491183
 30
0.0
 10
22.8760506182
 20
12.1304767575
 30
0.0
 10
22.8695375499
 20
12.1285052237
 30
0.0
 10
22.8632911617
 20
12.1260840976
 30
0.0
 10
22.8583277795
 20
12.1236917616
 30
0.0
 10
22.85454796
 20
12.1215634832
 30
0.0
 10
22.850945264
 20
12.1193230695
 30
0.0
 10
22.8467046868
 20
12.1162844366
 30
0.0
 10
22.8420502517
 20
12.1122670976
 30
0.0
 10
22.837894706
 20
12.1079370398
 30
0.0
 10
22.8342748265
 20
12.1033323232
 30
0.0
 10
22.8317203558
 20
12.0992731165
 30
0.0
 10
22.8299892496
 20
12.0959292657
 30
0.0
 10
22.8284842417
 20
12.09255935
 30
0.0
 10
22.8269939432
 20
12.0882394792
 30
0.0
 10
22.8258420636
 20
12.0829271957
 30
0.0
 10
22.825504021
 20
12.0793365221
 30
0.0
 10
22.8254436228
 20
12.0775458147
 30
0.0
  0
SPLINE
  5
451
100
AcDbEntity
  8
0
100
AcDbSpline
 62
9
  6
CONTINUOUS
 70
0
 71
3
 72
22
 73
18
 74
0
 42
0.0000001
 43
0.0000001
 44
0.0000000001
 40
0.0
 40
0.0
 40
0.0
 40
0.0
 40
0.0537563633
 40
0.1079023004
 40
0.1627805936
 40
0.2187096557
 40
0.2471777751
 40
0.2760207512
 40
0.3348911675
 40
0.395435756
 40
0.4576523832
 40
0.5214798664
 40
0.58682422
 40
0.7214281577
 40
0.7903793787
 40
0.8600127606
 40
1.0
 40
1.0
 40
1.0
 40
1.0
 10
23.6136453602
 20
12.1067296301
 30
0.0
 10
23.6136453602
 20
12.1087030311
 30
0.0
 10
23.6133783473
 20
12.1126690148
 30
0.0
 10
23.612192509
 20
12.1185423777
 30
0.0
 10
23.610235313
 20
12.1242900529
 30
0.0
 10
23.607985126
 20
12.1288969509
 30
0.0
 10
23.6058245967
 20
12.1324510023
 30
0.0
 10
23.6033907453
 20
12.1359562374
 30
0.0
 10
23.599898159
 20
12.1401467008
 30
0.0
 10
23.5950939329
 20
12.1447871765
 30
0.0
 10
23.5897035058
 20
12.1490313578
 30
0.0
 10
23.5837826869
 20
12.1528337171
 30
0.0
 10
23.5751763402
 20
12.1572965527
 30
0.0
 10
23.5658178841
 20
12.1606165781
 30
0.0
 10
23.5560225893
 20
12.1628037694
 30
0.0
 10
23.5458892257
 20
12.1642369706
 30
0.0
 10
23.5381536546
 20
12.1644157024
 30
0.0
 10
23.5330232482
 20
12.1641195988
 30
0.0
  0
SPLINE
  5
452
100
AcDbEntity
  8
0
100
AcDbSpline
 62
9
  6
CONTINUOUS
 70
0
 71
3
 72
39
 73
35
 74
0
 42
0.0000001
 43
0.0000001
 44
0.0000000001
 40
0.0
 40
0.0
 40
0.0
 40
0.0
 40
0.0271755652
 40
0.0548256396
 40
0.083018647
 40
0.111804978
 40
0.1412173942
 40
0.1712710238
 40
0.2019640841
 40
0.2332789465
 40
0.2651834933
 40
0.2976325935
 40
0.3305696684
 40
0.3639283394
 40
0.3976340582
 40
0.4316057495
 40
0.4657574634
 40
0.5
 40
0.5342425366
 40
0.5683942505
 40
0.6023659418
 40
0.6360716606
 40
0.6694303316
 40
0.7023674065
 40
0.7348165067
 40
0.7667210535
 40
0.7980359159
 40
0.8287289762
 40
0.8587826058
 40
0.888195022
 40
0.916981353
 40
0.9451743604
 40
0.9728244348
 40
1.0
 40
1.0
 40
1.0
 40
1.0
 10
22.7661359587
 20
12.1849739111
 30
0.0
 10
22.7698702821
 20
12.1946770699
 30
0.0
 10
22.778388989
 20
12.2138881576
 30
0.0
 10
22.7940143241
 20
12.2415917567
 30
0.0
 10
22.8124856231
 20
12.2682387966
 30
0.0
 10
22.833679845
 20
12.2936552707
 30
0.0
 10
22.8574586951
 20
12.3176806205
 30
0.0
 10
22.8836676465
 20
12.3401621014
 30
0.0
 10
22.912137343
 20
12.3609572753
 30
0.0
 10
22.9426843203
 20
12.3799344264
 30
0.0
 10
22.9751122559
 20
12.3969732567
 30
0.0
 10
23.009213021
 20
12.411965668
 30
0.0
 10
23.0447678985
 20
12.4248165655
 30
0.0
 10
23.0815490032
 20
12.4354442718
 30
0.0
 10
23.1193206308
 20
12.4437812003
 30
0.0
 10
23.1578407409
 20
12.4497743784
 30
0.0
 10
23.1968625279
 20
12.4533856099
 30
0.0
 10
23.2361359587
 20
12.4545918949
 30
0.0
 10
23.2754093894
 20
12.4533856099
 30
0.0
 10
23.3144311764
 20
12.4497743784
 30
0.0
 10
23.3529512865
 20
12.4437812003
 30
0.0
 10
23.3907229141
 20
12.4354442718
 30
0.0
 10
23.4275040188
 20
12.4248165655
 30
0.0
 10
23.4630588964
 20
12.411965668
 30
0.0
 10
23.4971596614
 20
12.3969732567
 30
0.0
 10
23.529587597
 20
12.3799344264
 30
0.0
 10
23.5601345743
 20
12.3609572753
 30
0.0
 10
23.5886042708
 20
12.3401621014
 30
0.0
 10
23.6148132222
 20
12.3176806205
 30
0.0
 10
23.6385920723
 20
12.2936552707
 30
0.0
 10
23.6597862942
 20
12.2682387966
 30
0.0
 10
23.6782575932
 20
12.2415917567
 30
0.0
 10
23.6938829283
 20
12.2138881576
 30
0.0
 10
23.7024016352
 20
12.1946770699
 30
0.0
 10
23.7061359587
 20
12.1849739111
 30
0.0
  0
SPLINE
  5
453
100
AcDbEntity
  8
0
100
AcDbSpline
 62
9
  6
CONTINUOUS
 70
0
 71
3
 72
21
 73
17
 74
0
 42
0.0000001
 43
0.0000001
 44
0.0000000001
 40
0.0
 40
0.0
 40
0.0
 40
0.0
 40
0.1406060748
 40
0.2772276742
 40
0.3438163911
 40
0.4091212884
 40
0.4730935611
 40
0.5357273648
 40
0.597083045
 40
0.6572460966
 40
0.7163114072
 40
0.774389786
 40
0.831614977
 40
0.8881507741
 40
0.9441978607
 40
1.0
 40
1.0
 40
1.0
 40
1.0
 10
22.8253916201
 20
12.0604321977
 30
0.0
 10
22.8218090608
 20
12.0594640429
 30
0.0
 10
22.8148561596
 20
12.0571143701
 30
0.0
 10
22.8066760439
 20
12.0531221438
 30
0.0
 10
22.8006558101
 20
12.0493731356
 30
0.0
 10
22.7964697402
 20
12.0463317602
 30
0.0
 10
22.7926029165
 20
12.0430522623
 30
0.0
 10
22.7890844379
 20
12.0395470819
 30
0.0
 10
22.7859324785
 20
12.0358398279
 30
0.0
 10
22.783159457
 20
12.0319561516
 30
0.0
 10
22.780778386
 20
12.0279203844
 30
0.0
 10
22.7788021311
 20
12.0237570251
 30
0.0
 10
22.7772437546
 20
12.0194905515
 30
0.0
 10
22.7761164338
 20
12.0151453275
 30
0.0
 10
22.7754335649
 20
12.0107464222
 30
0.0
 10
22.7752834141
 20
12.0077920084
 30
0.0
 10
22.7752834141
 20
12.0063192004
 30
0.0
  0
SPLINE
  5
454
100
AcDbEntity
  8
0
100
AcDbSpline
 62
9
  6
CONTINUOUS
 70
0
 71
3
 72
83
 73
79
 74
0
 42
0.0000001
 43
0.0000001
 44
0.0000000001
 40
0.0
 40
0.0
 40
0.0
 40
0.0
 40
0.0078827092
 40
0.0158140386
 40
0.023636148
 40
0.0274586758
 40
0.0311978481
 40
0.0330310266
 40
0.0348402277
 40
0.0383984593
 40
0.0418958766
 40
0.045354863
 40
0.0522432822
 40
0.0557143871
 40
0.0592307989
 40
0.0610124155
 40
0.0628115917
 40
0.0664575904
 40
0.070157645
 40
0.073900279
 40
0.0814671721
 40
0.0852684712
 40
0.0890665378
 40
0.092850844
 40
0.0966188788
 40
0.1041182062
 40
0.1115888592
 40
0.1190542174
 40
0.1227918454
 40
0.1265342822
 40
0.1340304747
 40
0.1490464857
 40
0.1640632593
 40
0.1790836678
 40
0.1941210303
 40
0.2091790786
 40
0.224259337
 40
0.2393662696
 40
0.2696692314
 40
0.3000873749
 40
0.3306210533
 40
0.3612812432
 40
0.3920796798
 40
0.4230113765
 40
0.43852581
 40
0.4540763406
 40
0.4696663318
 40
0.4852896903
 40
0.5009411897
 40
0.5166268254
 40
0.5323524849
 40
0.5481149036
 40
0.5797347551
 40
0.6114855147
 40
0.6433662435
 40
0.6593537231
 40
0.6753701427
 40
0.7074829067
 40
0.7396990887
 40
0.7558454172
 40
0.7720150522
 40
0.8044159295
 40
0.8368911792
 40
0.8531545931
 40
0.869431427
 40
0.885720062
 40
0.9020230853
 40
0.9183395382
 40
0.9264985316
 40
0.9346554441
 40
0.9428100849
 40
0.950967342
 40
0.9591325431
 40
0.9673103275
 40
0.9755010521
 40
0.9836878864
 40
0.9918549771
 40
1.0
 40
1.0
 40
1.0
 40
1.0
 10
22.2711359595
 20
7.6526892315
 30
0.0
 10
22.2709956245
 20
7.6488803473
 30
0.0
 10
22.2707118373
 20
7.641239131
 30
0.0
 10
22.2704045013
 20
7.6298143336
 30
0.0
 10
22.2703515336
 20
7.6203476024
 30
0.0
 10
22.2705038339
 20
7.6129103263
 30
0.0
 10
22.2706930442
 20
7.6083711547
 30
0.0
 10
22.2709115083
 20
7.6048086009
 30
0.0
 10
22.2711701146
 20
7.6013364751
 30
0.0
 10
22.2715662573
 20
7.5970680512
 30
0.0
 10
22.2721420732
 20
7.5920164125
 30
0.0
 10
22.2730116093
 20
7.5853785875
 30
0.0
 10
22.2740003761
 20
7.5787702721
 30
0.0
 10
22.2750154299
 20
7.572138223
 30
0.0
 10
22.2756455443
 20
7.5679451984
 30
0.0
 10
22.2761363235
 20
7.5645488047
 30
0.0
 10
22.2766209892
 20
7.5610882528
 30
0.0
 10
22.2772114094
 20
7.5567058939
 30
0.0
 10
22.2779039127
 20
7.5513891636
 30
0.0
 10
22.2788273548
 20
7.5441906876
 30
0.0
 10
22.2797615531
 20
7.5369441772
 30
0.0
 10
22.280753743
 20
7.5296783321
 30
0.0
 10
22.2815379372
 20
7.5242301482
 30
0.0
 10
22.28237391
 20
7.518805904
 30
0.0
 10
22.2835577743
 20
7.5116249044
 30
0.0
 10
22.2851615412
 20
7.50270715
 30
0.0
 10
22.287264149
 20
7.4920644351
 30
0.0
 10
22.2891427177
 20
7.4832326124
 30
0.0
 10
22.290708017
 20
7.4761776993
 30
0.0
 10
22.2923166041
 20
7.4691172191
 30
0.0
 10
22.2952465331
 20
7.4567649993
 30
0.0
 10
22.2997651867
 20
7.4391880691
 30
0.0
 10
22.3057839301
 20
7.418248784
 30
0.0
 10
22.3123813214
 20
7.397473991
 30
0.0
 10
22.3195322083
 20
7.3768621468
 30
0.0
 10
22.3272347405
 20
7.3564191094
 30
0.0
 10
22.3354876006
 20
7.3361555063
 30
0.0
 10
22.3472245038
 20
7.3093624586
 30
0.0
 10
22.3632303777
 20
7.2763562767
 30
0.0
 10
22.3845234602
 20
7.237688281
 30
0.0
 10
22.4078759781
 20
7.2000242522
 30
0.0
 10
22.4332268923
 20
7.1634519107
 30
0.0
 10
22.4605019503
 20
7.1280490341
 30
0.0
 10
22.4847651641
 20
7.0996311418
 30
0.0
 10
22.5050828768
 20
7.0775867911
 30
0.0
 10
22.5207771132
 20
7.0613790558
 30
0.0
 10
22.5368906371
 20
7.0455131615
 30
0.0
 10
22.553427474
 20
7.030017022
 30
0.0
 10
22.5703933329
 20
7.0149221542
 30
0.0
 10
22.5877622983
 20
7.0002168379
 30
0.0
 10
22.6055088793
 20
6.9858839055
 30
0.0
 10
22.629697113
 20
6.967277724
 30
0.0
 10
22.6608714532
 20
6.9450642095
 30
0.0
 10
22.6996244784
 20
6.9201468457
 30
0.0
 10
22.7329622082
 20
6.9008634804
 30
0.0
 10
22.7602292708
 20
6.8863435967
 30
0.0
 10
22.7879287897
 20
6.8724149775
 30
0.0
 10
22.8232412896
 20
6.8561845365
 30
0.0
 10
22.8593289893
 20
6.8415922962
 30
0.0
 10
22.8886425842
 20
6.8308931757
 30
0.0
 10
22.9182768551
 20
6.8208358081
 30
0.0
 10
22.955806565
 20
6.8095086261
 30
0.0
 10
22.9938573263
 20
6.7998919596
 30
0.0
 10
23.024580961
 20
6.7932249195
 30
0.0
 10
23.0477642808
 20
6.7887457305
 30
0.0
 10
23.0710637142
 20
6.7848006391
 30
0.0
 10
23.0944620404
 20
6.7813613665
 30
0.0
 10
23.1140257498
 20
6.7788903353
 30
0.0
 10
23.1297147804
 20
6.7772086835
 30
0.0
 10
23.1414962016
 20
6.7761102074
 30
0.0
 10
23.1532920501
 20
6.775191273
 30
0.0
 10
23.1651008521
 20
6.7743989037
 30
0.0
 10
23.1769252424
 20
6.7736764965
 30
0.0
 10
23.1887668057
 20
6.772969888
 30
0.0
 10
23.2006160915
 20
6.7722193861
 30
0.0
 10
23.2124702033
 20
6.7716276684
 30
0.0
 10
23.2243165249
 20
6.7714050624
 30
0.0
 10
23.232205656
 20
6.7716434505
 30
0.0
 10
23.2361359587
 20
6.7718943563
 30
0.0
  0
SPLINE
  5
455
100
AcDbEntity
  8
0
100
AcDbSpline
 62
9
  6
CONTINUOUS
 70
0
 71
3
 72
34
 73
30
 74
0
 42
0.0000001
 43
0.0000001
 44
0.0000000001
 40
0.0
 40
0.0
 40
0.0
 40
0.0
 40
0.0633363174
 40
0.1275985149
 40
0.1600058837
 40
0.1925466234
 40
0.2578704853
 40
0.2906024843
 40
0.3233310562
 40
0.3886281897
 40
0.4211543169
 40
0.4535558283
 40
0.4858055278
 40
0.5178798947
 40
0.5814095841
 40
0.612853722
 40
0.6440609672
 40
0.6750236389
 40
0.7057388975
 40
0.7362047741
 40
0.7664200493
 40
0.7963872935
 40
0.8261177328
 40
0.8556215171
 40
0.8849057342
 40
0.9139766932
 40
0.9428445059
 40
0.9715172989
 40
1.0
 40
1.0
 40
1.0
 40
1.0
 10
23.2361359587
 20
7.120759222
 30
0.0
 10
23.2134740923
 20
7.1225728681
 30
0.0
 10
23.1679254553
 20
7.1277325842
 30
0.0
 10
23.111386696
 20
7.1381161559
 30
0.0
 10
23.0662886679
 20
7.148986467
 30
0.0
 10
23.0212641066
 20
7.1616401654
 30
0.0
 10
22.9768846252
 20
7.1769164556
 30
0.0
 10
22.9334979128
 20
7.1948734631
 30
0.0
 10
22.8909004723
 20
7.2146044503
 30
0.0
 10
22.8496481286
 20
7.2369834489
 30
0.0
 10
22.8101362695
 20
7.2619826618
 30
0.0
 10
22.7815256224
 20
7.2819582349
 30
0.0
 10
22.7539983522
 20
7.3031388273
 30
0.0
 10
22.7189851355
 20
7.3328268538
 30
0.0
 10
22.6863807071
 20
7.3648392558
 30
0.0
 10
22.6565390971
 20
7.3989305852
 30
0.0
 10
22.635720667
 20
7.4253273295
 30
0.0
 10
22.6164665688
 20
7.452565197
 30
0.0
 10
22.5988183948
 20
7.4805563356
 30
0.0
 10
22.582817089
 20
7.509213726
 30
0.0
 10
22.5685027666
 20
7.5384517815
 30
0.0
 10
22.5559152701
 20
7.5681873201
 30
0.0
 10
22.5450523695
 20
7.5983235234
 30
0.0
 10
22.5359086192
 20
7.628768922
 30
0.0
 10
22.528478221
 20
7.6594335271
 30
0.0
 10
22.5227553109
 20
7.6902296976
 30
0.0
 10
22.5187165478
 20
7.7210701602
 30
0.0
 10
22.5163373843
 20
7.7518698769
 30
0.0
 10
22.5158396846
 20
7.7723908326
 30
0.0
 10
22.5158619366
 20
7.7826145629
 30
0.0
  0
SPLINE
  5
456
100
AcDbEntity
  8
0
100
AcDbSpline
 62
9
  6
CONTINUOUS
 70
0
 71
3
 72
26
 73
22
 74
0
 42
0.0000001
 43
0.0000001
 44
0.0000000001
 40
0.0
 40
0.0
 40
0.0
 40
0.0
 40
0.062746376
 40
0.1258461705
 40
0.1893196811
 40
0.2531262038
 40
0.317216108
 40
0.3814903801
 40
0.4458380339
 40
0.5101106755
 40
0.5741507455
 40
0.606040203
 40
0.6378049662
 40
0.700848782
 40
0.7320979091
 40
0.7631225046
 40
0.8243778254
 40
0.8545792643
 40
0.8844528176
 40
0.9430745377
 40
1.0
 40
1.0
 40
1.0
 40
1.0
 10
23.2361359587
 20
7.1961218233
 30
0.0
 10
23.2156614696
 20
7.1961218233
 30
0.0
 10
23.1745733276
 20
7.1979352738
 30
0.0
 10
23.1132716373
 20
7.2062193244
 30
0.0
 10
23.0526575117
 20
7.2202351332
 30
0.0
 10
22.9933155424
 20
7.2399740614
 30
0.0
 10
22.9358940296
 20
7.2654093146
 30
0.0
 10
22.8810165228
 20
7.2963130392
 30
0.0
 10
22.8293512852
 20
7.3324381265
 30
0.0
 10
22.7814812263
 20
7.3733389235
 30
0.0
 10
22.7451913473
 20
7.4110902192
 30
0.0
 10
22.7185665869
 20
7.4431599929
 30
0.0
 10
22.6937236282
 20
7.4762220603
 30
0.0
 10
22.6714330284
 20
7.510882216
 30
0.0
 10
22.6518308998
 20
7.5467835038
 30
0.0
 10
22.6342121098
 20
7.5830513586
 30
0.0
 10
22.6193209146
 20
7.6202141875
 30
0.0
 10
22.6071491782
 20
7.6578982668
 30
0.0
 10
22.5969067744
 20
7.6952631743
 30
0.0
 10
22.5873979056
 20
7.7418158588
 30
0.0
 10
22.5830352961
 20
7.7793188068
 30
0.0
 10
22.581683309
 20
7.7978446321
 30
0.0
  0
SPLINE
  5
457
100
AcDbEntity
  8
0
100
AcDbSpline
 62
9
  6
CONTINUOUS
 70
0
 71
3
 72
23
 73
19
 74
0
 42
0.0000001
 43
0.0000001
 44
0.0000000001
 40
0.0
 40
0.0
 40
0.0
 40
0.0
 40
0.0549126532
 40
0.1100907671
 40
0.1378855385
 40
0.1658615461
 40
0.2224629387
 40
0.2801242113
 40
0.3389926822
 40
0.399169628
 40
0.4607235283
 40
0.5237024097
 40
0.5881389461
 40
0.6540002934
 40
0.7211853352
 40
0.7895549423
 40
0.8589455864
 40
1.0
 40
1.0
 40
1.0
 40
1.0
 10
23.6747833118
 20
9.9212356861
 30
0.0
 10
23.6747833118
 20
9.9228963539
 30
0.0
 10
23.6745963206
 20
9.9262285858
 30
0.0
 10
23.6738928053
 20
9.9303481315
 30
0.0
 10
23.6730491568
 20
9.933597298
 30
0.0
 10
23.6720107426
 20
9.9368347578
 30
0.0
 10
23.6703601623
 20
9.9408167966
 30
0.0
 10
23.6678587012
 20
9.9454263803
 30
0.0
 10
23.6648527794
 20
9.94985497
 30
0.0
 10
23.6613666707
 20
9.954069544
 30
0.0
 10
23.6574242051
 20
9.9580373453
 30
0.0
 10
23.6530495345
 20
9.9617257711
 30
0.0
 10
23.648267372
 20
9.9650986509
 30
0.0
 10
23.6431184382
 20
9.9681368048
 30
0.0
 10
23.6376462735
 20
9.9708249145
 30
0.0
 10
23.6318932238
 20
9.9731461842
 30
0.0
 10
23.6238660954
 20
9.9757425626
 30
0.0
 10
23.6176135377
 20
9.9770659278
 30
0.0
 10
23.6133896959
 20
9.9776625175
 30
0.0
  0
SPLINE
  5
458
100
AcDbEntity
  8
0
100
AcDbSpline
 62
9
  6
CONTINUOUS
 70
0
 71
3
 72
14
 73
10
 74
0
 42
0.0000001
 43
0.0000001
 44
0.0000000001
 40
0.0
 40
0.0
 40
0.0
 40
0.0
 40
0.2688863963
 40
0.3978406809
 40
0.5231702336
 40
0.6453146623
 40
0.7649892242
 40
0.8829537743
 40
1.0
 40
1.0
 40
1.0
 40
1.0
 10
22.7752402669
 20
11.9724186509
 30
0.0
 10
22.7713158647
 20
11.9697991856
 30
0.0
 10
22.7658544875
 20
11.9653426914
 30
0.0
 10
22.7597957211
 20
11.9584252973
 30
0.0
 10
22.7560503235
 20
11.952962748
 30
0.0
 10
22.7531108698
 20
11.947209432
 30
0.0
 10
22.7509952152
 20
11.9412411153
 30
0.0
 10
22.7497155505
 20
11.935131708
 30
0.0
 10
22.7494278239
 20
11.9310023437
 30
0.0
 10
22.7494278032
 20
11.9289484599
 30
0.0
  0
SPLINE
  5
459
100
AcDbEntity
  8
0
100
AcDbSpline
 62
9
  6
CONTINUOUS
 70
0
 71
3
 72
11
 73
7
 74
0
 42
0.0000001
 43
0.0000001
 44
0.0000000001
 40
0.0
 40
0.0
 40
0.0
 40
0.0
 40
0.2494179985
 40
0.5006979264
 40
0.7516221138
 40
1.0
 40
1.0
 40
1.0
 40
1.0
 10
23.0253726239
 20
8.4295330601
 30
0.0
 10
23.04289077
 20
8.4289441535
 30
0.0
 10
23.078057723
 20
8.4277585035
 30
0.0
 10
23.1308555895
 20
8.4261899808
 30
0.0
 10
23.1835919033
 20
8.4250561346
 30
0.0
 10
23.2186810114
 20
8.4247451753
 30
0.0
 10
23.2361359587
 20
8.4247451753
 30
0.0
  0
SPLINE
  5
45A
100
AcDbEntity
  8
0
100
AcDbSpline
 62
9
  6
CONTINUOUS
 70
0
 71
3
 72
33
 73
29
 74
0
 42
0.0000001
 43
0.0000001
 44
0.0000000001
 40
0.0
 40
0.0
 40
0.0
 40
0.0
 40
0.0772383084
 40
0.155204907
 40
0.2332936021
 40
0.3108940359
 40
0.3873948665
 40
0.4621869719
 40
0.4987535474
 40
0.5346674764
 40
0.5698550345
 40
0.6042435275
 40
0.6377615481
 40
0.6703392925
 40
0.7019089559
 40
0.7324052346
 40
0.7617659708
 40
0.7899329903
 40
0.8168532061
 40
0.8424800883
 40
0.8667756428
 40
0.8897131025
 40
0.9112806102
 40
0.9314862681
 40
0.9503650126
 40
0.9679877661
 40
0.9844730161
 40
1.0
 40
1.0
 40
1.0
 40
1.0
 10
23.2361359587
 20
8.4883908211
 30
0.0
 10
23.2205915514
 20
8.4882261212
 30
0.0
 10
23.1893539778
 20
8.4880929953
 30
0.0
 10
23.1424005723
 20
8.4882923244
 30
0.0
 10
23.0953759655
 20
8.4887164841
 30
0.0
 10
23.0486469528
 20
8.4891925792
 30
0.0
 10
23.0025802681
 20
8.4895476437
 30
0.0
 10
22.9647704373
 20
8.4895996109
 30
0.0
 10
22.9351302762
 20
8.4894013868
 30
0.0
 10
22.9134623034
 20
8.4891141609
 30
0.0
 10
22.8922354622
 20
8.4886656709
 30
0.0
 10
22.8714956141
 20
8.4880341293
 30
0.0
 10
22.8512885968
 20
8.4871978182
 30
0.0
 10
22.8316602141
 20
8.4861350216
 30
0.0
 10
22.8126562248
 20
8.4848240455
 30
0.0
 10
22.7943223272
 20
8.4832432134
 30
0.0
 10
22.7767041369
 20
8.4813708658
 30
0.0
 10
22.7598471569
 20
8.479185353
 30
0.0
 10
22.7437967368
 20
8.4766650203
 30
0.0
 10
22.7285980168
 20
8.4737881755
 30
0.0
 10
22.7142958566
 20
8.4705330296
 30
0.0
 10
22.7009347417
 20
8.4668775746
 30
0.0
 10
22.6885587158
 20
8.4627994081
 30
0.0
 10
22.6772112605
 20
8.4582752834
 30
0.0
 10
22.6669356782
 20
8.4532808888
 30
0.0
 10
22.6577747512
 20
8.4477889344
 30
0.0
 10
22.6497751277
 20
8.4417722563
 30
0.0
 10
22.6451302543
 20
8.43727361
 30
0.0
 10
22.6430521472
 20
8.4349396809
 30
0.0
  0
SPLINE
  5
45B
100
AcDbEntity
  8
0
100
AcDbSpline
 62
9
  6
CONTINUOUS
 70
0
 71
3
 72
32
 73
28
 74
0
 42
0.0000001
 43
0.0000001
 44
0.0000000001
 40
0.0
 40
0.0
 40
0.0
 40
0.0
 40
0.1535728649
 40
0.2306101061
 40
0.3070375771
 40
0.3822823694
 40
0.4557827653
 40
0.4917080123
 40
0.5269939173
 40
0.561575591
 40
0.5953899972
 40
0.6283763143
 40
0.6604763843
 40
0.6916352702
 40
0.7218019573
 40
0.7509302367
 40
0.7789798295
 40
0.8059178202
 40
0.8317204928
 40
0.856375683
 40
0.8798857803
 40
0.9022715222
 40
0.9235766917
 40
0.9438737231
 40
0.9632699694
 40
0.9819139223
 40
1.0
 40
1.0
 40
1.0
 40
1.0
 10
23.2361359587
 20
8.6860856153
 30
0.0
 10
23.2100201266
 20
8.6854307406
 30
0.0
 10
23.1708064436
 20
8.6842873672
 30
0.0
 10
23.1186238444
 20
8.6820486755
 30
0.0
 10
23.0797757953
 20
8.6799143533
 30
0.0
 10
23.0415642965
 20
8.6772329289
 30
0.0
 10
23.0102716933
 20
8.6744441729
 30
0.0
 10
22.9857938544
 20
8.6718282681
 30
0.0
 10
22.9679252044
 20
8.6696842281
 30
0.0
 10
22.9504449655
 20
8.6673315608
 30
0.0
 10
22.9333911813
 20
8.6647584082
 30
0.0
 10
22.9168018787
 20
8.6619529795
 30
0.0
 10
22.9007150414
 20
8.6589034663
 30
0.0
 10
22.8851686045
 20
8.6555980589
 30
0.0
 10
22.8702004396
 20
8.6520249318
 30
0.0
 10
22.8558483396
 20
8.648172231
 30
0.0
 10
22.8421499995
 20
8.6440280505
 30
0.0
 10
22.8291429969
 20
8.6395803957
 30
0.0
 10
22.8168647744
 20
8.6348171277
 30
0.0
 10
22.8053526338
 20
8.6297258801
 30
0.0
 10
22.794643756
 20
8.6242939332
 30
0.0
 10
22.7847752938
 20
8.6185080736
 30
0.0
 10
22.7757845303
 20
8.6123543392
 30
0.0
 10
22.7677093784
 20
8.6058181089
 30
0.0
 10
22.7605885452
 20
8.5988832919
 30
0.0
 10
22.7544638278
 20
8.5915357124
 30
0.0
 10
22.7510344244
 20
8.5862911653
 30
0.0
 10
22.7495175323
 20
8.5836145121
 30
0.0
  0
SPLINE
  5
45C
100
AcDbEntity
  8
0
100
AcDbSpline
 62
9
  6
CONTINUOUS
 70
0
 71
3
 72
33
 73
29
 74
0
 42
0.0000001
 43
0.0000001
 44
0.0000000001
 40
0.0
 40
0.0
 40
0.0
 40
0.0
 40
0.0756850351
 40
0.1517800767
 40
0.2277367709
 40
0.3030154322
 40
0.377087793
 40
0.4494407233
 40
0.4848188088
 40
0.5195843639
 40
0.5536801898
 40
0.5870514471
 40
0.6196460906
 40
0.6514154004
 40
0.6823146332
 40
0.7123038259
 40
0.7413487871
 40
0.7694223261
 40
0.7965057723
 40
0.8225908516
 40
0.8476819832
 40
0.8717990575
 40
0.8949807178
 40
0.9172880999
 40
0.9388088425
 40
0.9596609677
 40
0.9799959469
 40
1.0
 40
1.0
 40
1.0
 40
1.0
 10
23.2361359587
 20
8.8178615302
 30
0.0
 10
23.2242558696
 20
8.8176794871
 30
0.0
 10
23.2004342002
 20
8.8170804241
 30
0.0
 10
23.1647175088
 20
8.8154465087
 30
0.0
 10
23.1291086353
 20
8.8130293044
 30
0.0
 10
23.0938837252
 20
8.8097856704
 30
0.0
 10
23.0593188226
 20
8.8056725155
 30
0.0
 10
23.0310862438
 20
8.8014539593
 30
0.0
 10
23.0090535335
 20
8.7975782796
 30
0.0
 10
22.9929907131
 20
8.794447184
 30
0.0
 10
22.9773009378
 20
8.7910648486
 30
0.0
 10
22.9620186515
 20
8.7874257756
 30
0.0
 10
22.9471783079
 20
8.7835245312
 30
0.0
 10
22.9328143141
 20
8.7793556492
 30
0.0
 10
22.9189610356
 20
8.7749136449
 30
0.0
 10
22.9056527861
 20
8.7701929965
 30
0.0
 10
22.8929238208
 20
8.7651881271
 30
0.0
 10
22.8808083306
 20
8.7598933775
 30
0.0
 10
22.8693404435
 20
8.7543029682
 30
0.0
 10
22.8585542357
 20
8.7484109482
 30
0.0
 10
22.8484837671
 20
8.7422111321
 30
0.0
 10
22.8391631494
 20
8.7356970216
 30
0.0
 10
22.8306266801
 20
8.7288617522
 30
0.0
 10
22.8229090232
 20
8.7216980083
 30
0.0
 10
22.8160455644
 20
8.7141982838
 30
0.0
 10
22.8100724594
 20
8.7063544492
 30
0.0
 10
22.8050277992
 20
8.6981606944
 30
0.0
 10
22.8022954947
 20
8.6924309655
 30
0.0
 10
22.8011064274
 20
8.6895244307
 30
0.0
  0
SPLINE
  5
45D
100
AcDbEntity
  8
0
100
AcDbSpline
 62
7
  6
CONTINUOUS
 70
0
 71
3
 72
33
 73
29
 74
0
 42
0.0000001
 43
0.0000001
 44
0.0000000001
 40
0.0
 40
0.0
 40
0.0
 40
0.0
 40
0.07379621
 40
0.1477423159
 40
0.221410536
 40
0.2943710157
 40
0.3661982586
 40
0.4364781451
 40
0.4709166798
 40
0.5048227642
 40
0.5381519247
 40
0.5708624048
 40
0.6029157017
 40
0.634277197
 40
0.664916902
 40
0.6948103367
 40
0.723939571
 40
0.7522944479
 40
0.7798740168
 40
0.8066881879
 40
0.8327596121
 40
0.8581257575
 40
0.8828411114
 40
0.906979372
 40
0.9306354126
 40
0.9539267137
 40
0.9769938966
 40
1.0
 40
1.0
 40
1.0
 40
1.0
 10
23.2361359587
 20
8.9970686262
 30
0.0
 10
23.2247641018
 20
8.9970686262
 30
0.0
 10
23.2019939501
 20
8.9965300873
 30
0.0
 10
23.1679460508
 20
8.9941635649
 30
0.0
 10
23.1341673678
 20
8.9902734159
 30
0.0
 10
23.1009235866
 20
8.9848971302
 30
0.0
 10
23.0684798327
 20
8.9780722992
 30
0.0
 10
23.0421529861
 20
8.9711628546
 30
0.0
 10
23.0217218169
 20
8.964918781
 30
0.0
 10
23.0068684059
 20
8.9599266125
 30
0.0
 10
22.9924154504
 20
8.9545987888
 30
0.0
 10
22.9783960679
 20
8.9489398775
 30
0.0
 10
22.9648434724
 20
8.9429545227
 30
0.0
 10
22.9517908246
 20
8.9366473105
 30
0.0
 10
22.9392712703
 20
8.9300227904
 30
0.0
 10
22.9273179338
 20
8.9230854525
 30
0.0
 10
22.9159639261
 20
8.9158397119
 30
0.0
 10
22.9052423585
 20
8.908289887
 30
0.0
 10
22.8951863658
 20
8.9004401768
 30
0.0
 10
22.8858291437
 20
8.8922946385
 30
0.0
 10
22.8772040046
 20
8.8838571727
 30
0.0
 10
22.8693444537
 20
8.8751315229
 30
0.0
 10
22.8622842863
 20
8.8661213215
 30
0.0
 10
22.856057681
 20
8.8568301325
 30
0.0
 10
22.85069931
 20
8.8472617603
 30
0.0
 10
22.8462442451
 20
8.8374199003
 30
0.0
 10
22.8427282442
 20
8.8273104722
 30
0.0
 10
22.8410356917
 20
8.8204020846
 30
0.0
 10
22.8403597967
 20
8.8169219138
 30
0.0
  0
SPLINE
  5
45E
100
AcDbEntity
  8
0
100
AcDbSpline
 62
7
  6
CONTINUOUS
 70
0
 71
3
 72
9
 73
5
 74
0
 42
0.0000001
 43
0.0000001
 44
0.0000000001
 40
0.0
 40
0.0
 40
0.0
 40
0.0
 40
0.4899852013
 40
1.0
 40
1.0
 40
1.0
 40
1.0
 10
22.8483115293
 20
8.9816949715
 30
0.0
 10
22.8498480675
 20
8.9667289257
 30
0.0
 10
22.8516111493
 20
8.9360314144
 30
0.0
 10
22.8507646289
 20
8.9052993175
 30
0.0
 10
22.8497094691
 20
8.8896751933
 30
0.0
  0
SPLINE
  5
45F
100
AcDbEntity
  8
0
100
AcDbSpline
 62
9
  6
CONTINUOUS
 70
0
 71
3
 72
33
 73
29
 74
0
 42
0.0000001
 43
0.0000001
 44
0.0000000001
 40
0.0
 40
0.0
 40
0.0
 40
0.0
 40
0.0269987297
 40
0.0540442057
 40
0.0811797264
 40
0.1084511446
 40
0.1359005632
 40
0.1635657207
 40
0.1914812294
 40
0.2196787708
 40
0.2481875423
 40
0.2770346727
 40
0.3062445066
 40
0.335834586
 40
0.3658157924
 40
0.3961947231
 40
0.4581418418
 40
0.5216898776
 40
0.5540525489
 40
0.5867854549
 40
0.6198735688
 40
0.6532984919
 40
0.6870373831
 40
0.7210631574
 40
0.7898499974
 40
0.8594389334
 40
0.9295794308
 40
1.0
 40
1.0
 40
1.0
 40
1.0
 10
22.8435727414
 20
9.0159527759
 30
0.0
 10
22.8435727664
 20
9.0208735608
 30
0.0
 10
22.843888808
 20
9.0307265423
 30
0.0
 10
22.8453079188
 20
9.0454637415
 30
0.0
 10
22.8476712562
 20
9.0601302091
 30
0.0
 10
22.8509762472
 20
9.0746888281
 30
0.0
 10
22.8552158897
 20
9.089103622
 30
0.0
 10
22.8603718396
 20
9.103341146
 30
0.0
 10
22.8664286122
 20
9.1173677707
 30
0.0
 10
22.8733706668
 20
9.1311500888
 30
0.0
 10
22.8811823815
 20
9.1446550045
 30
0.0
 10
22.8898473671
 20
9.1578500167
 30
0.0
 10
22.8993509949
 20
9.1707001515
 30
0.0
 10
22.909669981
 20
9.1831740893
 30
0.0
 10
22.9207766412
 20
9.1952433017
 30
0.0
 10
22.9366968073
 20
9.2108584226
 30
0.0
 10
22.9584538916
 20
9.2292025053
 30
0.0
 10
22.9821473745
 20
9.245599838
 30
0.0
 10
23.0022825497
 20
9.2576250126
 30
0.0
 10
23.0180394017
 20
9.2661199496
 30
0.0
 10
23.0343214072
 20
9.2740122599
 30
0.0
 10
23.0510910062
 20
9.281281222
 30
0.0
 10
23.0683072543
 20
9.287909618
 30
0.0
 10
23.0918811211
 20
9.2959068979
 30
0.0
 10
23.1222210149
 20
9.3042155596
 30
0.0
 10
23.1595787493
 20
9.3113946633
 30
0.0
 10
23.1976718147
 20
9.31571799
 30
0.0
 10
23.2233011151
 20
9.3166765777
 30
0.0
 10
23.2361359587
 20
9.31667411
 30
0.0
  0
SPLINE
  5
460
100
AcDbEntity
  8
0
100
AcDbSpline
 62
9
  6
CONTINUOUS
 70
0
 71
3
 72
51
 73
47
 74
0
 42
0.0000001
 43
0.0000001
 44
0.0000000001
 40
0.0
 40
0.0
 40
0.0
 40
0.0
 40
0.013500581
 40
0.0270243328
 40
0.0405931006
 40
0.0542291663
 40
0.0679532279
 40
0.0817849773
 40
0.0957425651
 40
0.1098424708
 40
0.1240993328
 40
0.1385258255
 40
0.1531325795
 40
0.167928134
 40
0.1980993649
 40
0.2290767937
 40
0.2608551687
 40
0.2933999604
 40
0.3266505404
 40
0.3605237474
 40
0.3949175872
 40
0.4297150186
 40
0.4647877507
 40
0.5
 40
0.5352122493
 40
0.5702849814
 40
0.6050824128
 40
0.6394762526
 40
0.6733494596
 40
0.7066000396
 40
0.7391448313
 40
0.7709232063
 40
0.8019006351
 40
0.832071866
 40
0.8468674205
 40
0.8614741745
 40
0.8759006672
 40
0.8901575292
 40
0.9042574349
 40
0.9182150227
 40
0.9320467721
 40
0.9457708337
 40
0.9594068994
 40
0.9729756672
 40
0.986499419
 40
1.0
 40
1.0
 40
1.0
 40
1.0
 10
22.7461359587
 20
12.3680821038
 30
0.0
 10
22.7461359587
 20
12.3742245711
 30
0.0
 10
22.7465304113
 20
12.3865236781
 30
0.0
 10
22.7483032857
 20
12.404919362
 30
0.0
 10
22.7512533548
 20
12.4232264037
 30
0.0
 10
22.7553730815
 20
12.4413992429
 30
0.0
 10
22.7606524526
 20
12.4593942203
 30
0.0
 10
22.7670783856
 20
12.477167662
 30
0.0
 10
22.7746351217
 20
12.4946766486
 30
0.0
 10
22.7833041037
 20
12.5118789256
 30
0.0
 10
22.7930641582
 20
12.5287330861
 30
0.0
 10
22.803891368
 20
12.5451984793
 30
0.0
 10
22.8157598185
 20
12.5612359528
 30
0.0
 10
22.8330432055
 20
12.5821295244
 30
0.0
 10
22.8571572609
 20
12.6069698382
 30
0.0
 10
22.8895325436
 20
12.6342622491
 30
0.0
 10
22.9252286386
 20
12.6589856123
 30
0.0
 10
22.9638997161
 20
12.680904682
 30
0.0
 10
23.005175245
 20
12.6998139665
 30
0.0
 10
23.0486597536
 20
12.7155349833
 30
0.0
 10
23.0939372022
 20
12.7279193606
 30
0.0
 10
23.1405745025
 20
12.7368500709
 30
0.0
 10
23.1881256671
 20
12.7422425509
 30
0.0
 10
23.2361359587
 20
12.7440457201
 30
0.0
 10
23.2841462502
 20
12.7422425509
 30
0.0
 10
23.3316974148
 20
12.7368500709
 30
0.0
 10
23.3783347152
 20
12.7279193606
 30
0.0
 10
23.4236121637
 20
12.7155349833
 30
0.0
 10
23.4670966724
 20
12.6998139665
 30
0.0
 10
23.5083722012
 20
12.680904682
 30
0.0
 10
23.5470432787
 20
12.6589856123
 30
0.0
 10
23.5827393738
 20
12.6342622491
 30
0.0
 10
23.6151146564
 20
12.6069698382
 30
0.0
 10
23.6392287118
 20
12.5821295244
 30
0.0
 10
23.6565120988
 20
12.5612359528
 30
0.0
 10
23.6683805493
 20
12.5451984793
 30
0.0
 10
23.6792077591
 20
12.5287330861
 30
0.0
 10
23.6889678136
 20
12.5118789256
 30
0.0
 10
23.6976367956
 20
12.4946766486
 30
0.0
 10
23.7051935317
 20
12.477167662
 30
0.0
 10
23.7116194647
 20
12.4593942203
 30
0.0
 10
23.7168988358
 20
12.4413992429
 30
0.0
 10
23.7210185625
 20
12.4232264037
 30
0.0
 10
23.7239686316
 20
12.404919362
 30
0.0
 10
23.7257415061
 20
12.3865236781
 30
0.0
 10
23.7261359587
 20
12.3742245711
 30
0.0
 10
23.7261359587
 20
12.3680821038
 30
0.0
  0
SPLINE
  5
461
100
AcDbEntity
  8
0
100
AcDbSpline
 62
9
  6
CONTINUOUS
 70
0
 71
3
 72
31
 73
27
 74
0
 42
0.0000001
 43
0.0000001
 44
0.0000000001
 40
0.0
 40
0.0
 40
0.0
 40
0.0
 40
0.0640069118
 40
0.1278284637
 40
0.1914552211
 40
0.2231821976
 40
0.2548152225
 40
0.2863323814
 40
0.3177934148
 40
0.3335324212
 40
0.3492902621
 40
0.3808339267
 40
0.4123380136
 40
0.4437323847
 40
0.4750298782
 40
0.5062616718
 40
0.537439094
 40
0.5685582507
 40
0.6306447347
 40
0.6616525695
 40
0.6926449267
 40
0.7545570683
 40
0.8163110505
 40
0.8778344199
 40
0.9390795187
 40
1.0
 40
1.0
 40
1.0
 40
1.0
 10
22.4718141321
 20
8.2386102051
 30
0.0
 10
22.463737451
 20
8.2278611772
 30
0.0
 10
22.448016604
 20
8.206083136
 30
0.0
 10
22.425746865
 20
8.172583807
 30
0.0
 10
22.4083232329
 20
8.1440352634
 30
0.0
 10
22.3950973444
 20
8.1208686698
 30
0.0
 10
22.3855627963
 20
8.103365875
 30
0.0
 10
22.3764168682
 20
8.0857199284
 30
0.0
 10
22.3691022992
 20
8.0708892409
 30
0.0
 10
22.3634207885
 20
8.0589467979
 30
0.0
 10
22.3578408462
 20
8.0469374204
 30
0.0
 10
22.3510741061
 20
8.0318286142
 30
0.0
 10
22.343320558
 20
8.0135666567
 30
0.0
 10
22.3359680581
 20
7.995195151
 30
0.0
 10
22.3290162403
 20
7.9767294948
 30
0.0
 10
22.3224556259
 20
7.9581696428
 30
0.0
 10
22.3162835927
 20
7.9395163077
 30
0.0
 10
22.3085843441
 20
7.9145471689
 30
0.0
 10
22.3016659646
 20
7.889380133
 30
0.0
 10
22.2955063097
 20
7.8640515134
 30
0.0
 10
22.2898577263
 20
7.8386413579
 30
0.0
 10
22.2837610872
 20
7.8067213144
 30
0.0
 10
22.2780365334
 20
7.7682329902
 30
0.0
 10
22.2739544883
 20
7.729675862
 30
0.0
 10
22.271547852
 20
7.6911538742
 30
0.0
 10
22.271079007
 20
7.665486003
 30
0.0
 10
22.2711359591
 20
7.6526892264
 30
0.0
  0
SPLINE
  5
462
100
AcDbEntity
  8
0
100
AcDbSpline
 62
7
  6
CONTINUOUS
 70
0
 71
3
 72
23
 73
19
 74
0
 42
0.0000001
 43
0.0000001
 44
0.0000000001
 40
0.0
 40
0.0
 40
0.0
 40
0.0
 40
0.0438292885
 40
0.0894691656
 40
0.137217381
 40
0.1873061297
 40
0.2399106446
 40
0.2951581144
 40
0.3531359563
 40
0.4138990191
 40
0.4774756222
 40
0.5438725066
 40
0.6130788417
 40
0.6850694468
 40
0.7598073764
 40
0.8372459945
 40
0.9173306451
 40
1.0
 40
1.0
 40
1.0
 40
1.0
 10
22.6019163225
 20
8.3891885422
 30
0.0
 10
22.6032413322
 20
8.3906234741
 30
0.0
 10
22.6060977078
 20
8.3934154592
 30
0.0
 10
22.610846982
 20
8.397278111
 30
0.0
 10
22.6161241321
 20
8.400899136
 30
0.0
 10
22.6219155779
 20
8.4042859711
 30
0.0
 10
22.6282088524
 20
8.4074465748
 30
0.0
 10
22.6349914856
 20
8.4103883572
 30
0.0
 10
22.6422511373
 20
8.4131185321
 30
0.0
 10
22.6499754474
 20
8.4156440908
 30
0.0
 10
22.6581520219
 20
8.4179718846
 30
0.0
 10
22.6667684134
 20
8.4201086629
 30
0.0
 10
22.675812122
 20
8.422061109
 30
0.0
 10
22.6852705997
 20
8.4238358627
 30
0.0
 10
22.6951312539
 20
8.4254395371
 30
0.0
 10
22.7053814683
 20
8.4268787293
 30
0.0
 10
22.7160085541
 20
8.4281600251
 30
0.0
 10
22.72322356
 20
8.4289017755
 30
0.0
 10
22.7268909774
 20
8.42924999
 30
0.0
  0
SPLINE
  5
463
100
AcDbEntity
  8
0
100
AcDbSpline
 62
9
  6
CONTINUOUS
 70
0
 71
3
 72
25
 73
21
 74
0
 42
0.0000001
 43
0.0000001
 44
0.0000000001
 40
0.0
 40
0.0
 40
0.0
 40
0.0
 40
0.0529140895
 40
0.1067211776
 40
0.1617538704
 40
0.2182543611
 40
0.2764043328
 40
0.3061575633
 40
0.3363710622
 40
0.3981313213
 40
0.4615858823
 40
0.526533609
 40
0.5927319184
 40
0.6262289851
 40
0.6599439584
 40
0.7278691585
 40
0.7961992221
 40
0.8645730204
 40
0.932622658
 40
1.0
 40
1.0
 40
1.0
 40
1.0
 10
23.5330232482
 20
10.0429204868
 30
0.0
 10
23.5327065582
 20
10.0450526082
 30
0.0
 10
23.5317445872
 20
10.0493108328
 30
0.0
 10
23.52939522
 20
10.0554878653
 30
0.0
 10
23.5261751318
 20
10.0614255905
 30
0.0
 10
23.5221281541
 20
10.0670504535
 30
0.0
 10
23.5181308814
 20
10.0713864775
 30
0.0
 10
23.5145729715
 20
10.0746290174
 30
0.0
 10
23.510721801
 20
10.0777564017
 30
0.0
 10
23.5054858359
 20
10.0813387973
 30
0.0
 10
23.4986751337
 20
10.0850545893
 30
0.0
 10
23.4913770374
 20
10.0881784938
 30
0.0
 10
23.4849859628
 20
10.0902450668
 30
0.0
 10
23.4797124404
 20
10.0915649744
 30
0.0
 10
23.4743154429
 20
10.0926582878
 30
0.0
 10
23.4674431649
 20
10.0935776232
 30
0.0
 10
23.4591072917
 20
10.0939752584
 30
0.0
 10
23.4507619008
 20
10.0936724596
 30
0.0
 10
23.4425108355
 20
10.092671554
 30
0.0
 10
23.4371041297
 20
10.0915320214
 30
0.0
 10
23.4344473838
 20
10.0908428068
 30
0.0
  0
SPLINE
  5
464
100
AcDbEntity
  8
0
100
AcDbSpline
 62
7
  6
CONTINUOUS
 70
0
 71
3
 72
11
 73
7
 74
0
 42
0.0000001
 43
0.0000001
 44
0.0000000001
 40
0.0
 40
0.0
 40
0.0
 40
0.0
 40
0.2325922122
 40
0.47632355
 40
0.7319025043
 40
1.0
 40
1.0
 40
1.0
 40
1.0
 10
23.5330232482
 20
10.0429204868
 30
0.0
 10
23.5330232482
 20
10.0397625517
 30
0.0
 10
23.5328600104
 20
10.0332945901
 30
0.0
 10
23.5321535163
 20
10.0233795299
 30
0.0
 10
23.5309707275
 20
10.0130248042
 30
0.0
 10
23.5298852337
 20
10.0059961141
 30
0.0
 10
23.5292655499
 20
10.0024092553
 30
0.0
  0
SPLINE
  5
465
100
AcDbEntity
  8
0
100
AcDbSpline
 62
7
  6
CONTINUOUS
 70
0
 71
3
 72
13
 73
9
 74
0
 42
0.0000001
 43
0.0000001
 44
0.0000000001
 40
0.0
 40
0.0
 40
0.0
 40
0.0
 40
0.2220803991
 40
0.339706555
 40
0.4619764693
 40
0.5890444505
 40
0.7210263513
 40
1.0
 40
1.0
 40
1.0
 40
1.0
 10
22.9930288009
 20
12.2352664857
 30
0.0
 10
22.9918829506
 20
12.2321002884
 30
0.0
 10
22.9904381848
 20
12.2271415966
 30
0.0
 10
22.9889892523
 20
12.2202874619
 30
0.0
 10
22.9880926376
 20
12.2147941261
 30
0.0
 10
22.9874030618
 20
12.2090523234
 30
0.0
 10
22.9867422796
 20
12.2009201535
 30
0.0
 10
22.9865686889
 20
12.1946859837
 30
0.0
 10
22.9865686889
 20
12.1904562119
 30
0.0
  0
SPLINE
  5
466
100
AcDbEntity
  8
0
100
AcDbSpline
 62
9
  6
CONTINUOUS
 70
0
 71
3
 72
25
 73
21
 74
0
 42
0.0000001
 43
0.0000001
 44
0.0000000001
 40
0.0
 40
0.0
 40
0.0
 40
0.0
 40
0.0539155754
 40
0.1093670625
 40
0.1664775233
 40
0.2252796877
 40
0.2857513921
 40
0.3166090129
 40
0.3478601425
 40
0.4114218024
 40
0.4761978271
 40
0.541878444
 40
0.6081327041
 40
0.6413802223
 40
0.6746512397
 40
0.7410996813
 40
0.8071800857
 40
0.8725633769
 40
0.9369304783
 40
1.0
 40
1.0
 40
1.0
 40
1.0
 10
23.4344473838
 20
10.0908428068
 30
0.0
 10
23.4334411371
 20
10.0928623246
 30
0.0
 10
23.4311120462
 20
10.0968208008
 30
0.0
 10
23.426836964
 20
10.1023424268
 30
0.0
 10
23.421799036
 20
10.1074685909
 30
0.0
 10
23.4160632427
 20
10.1121370575
 30
0.0
 10
23.4107886671
 20
10.1155732783
 30
0.0
 10
23.4062874981
 20
10.1180378399
 30
0.0
 10
23.4015514959
 20
10.1203291277
 30
0.0
 10
23.3953341319
 20
10.122797172
 30
0.0
 10
23.3875373056
 20
10.1251002578
 30
0.0
 10
23.3794594697
 20
10.126738231
 30
0.0
 10
23.3725826193
 20
10.1275273698
 30
0.0
 10
23.3670314812
 20
10.1278025939
 30
0.0
 10
23.3614654592
 20
10.1278340187
 30
0.0
 10
23.3545298596
 20
10.1274198904
 30
0.0
 10
23.3463247807
 20
10.1262207718
 30
0.0
 10
23.3383370453
 20
10.1243410198
 30
0.0
 10
23.3306664849
 20
10.1218026087
 30
0.0
 10
23.3257720712
 20
10.1196596315
 30
0.0
 10
23.3234108832
 20
10.1184801169
 30
0.0
  0
SPLINE
  5
467
100
AcDbEntity
  8
0
100
AcDbSpline
 62
7
  6
CONTINUOUS
 70
0
 71
3
 72
11
 73
7
 74
0
 42
0.0000001
 43
0.0000001
 44
0.0000000001
 40
0.0
 40
0.0
 40
0.0
 40
0.0
 40
0.2281774372
 40
0.4705175749
 40
0.7276055004
 40
1.0
 40
1.0
 40
1.0
 40
1.0
 10
23.4344473838
 20
10.0908428068
 30
0.0
 10
23.4344473838
 20
10.0872150504
 30
0.0
 10
23.4343027746
 20
10.0797338574
 30
0.0
 10
23.4336860889
 20
10.0681803261
 30
0.0
 10
23.4326540142
 20
10.0559509727
 30
0.0
 10
23.4317106971
 20
10.0475846592
 30
0.0
 10
23.4311719881
 20
10.0432875389
 30
0.0
  0
SPLINE
  5
468
100
AcDbEntity
  8
0
100
AcDbSpline
 62
7
  6
CONTINUOUS
 70
0
 71
3
 72
20
 73
16
 74
0
 42
0.0000001
 43
0.0000001
 44
0.0000000001
 40
0.0
 40
0.0
 40
0.0
 40
0.0
 40
0.0390554609
 40
0.081148566
 40
0.1265164987
 40
0.175240153
 40
0.2272898514
 40
0.2825581552
 40
0.3408870366
 40
0.4021921928
 40
0.4664874385
 40
0.5337810784
 40
0.6773446858
 40
0.8328077352
 40
1.0
 40
1.0
 40
1.0
 40
1.0
 10
23.1034038247
 20
12.2904577197
 30
0.0
 10
23.1028626368
 20
12.2898273701
 30
0.0
 10
23.1018315895
 20
12.2884360466
 30
0.0
 10
23.100480313
 20
12.2861038642
 30
0.0
 10
23.0992590337
 20
12.2834733032
 30
0.0
 10
23.0981582841
 20
12.2805636303
 30
0.0
 10
23.0971686501
 20
12.2773935837
 30
0.0
 10
23.0962816274
 20
12.2739822442
 30
0.0
 10
23.0954871635
 20
12.2703466733
 30
0.0
 10
23.0947807549
 20
12.2664977134
 30
0.0
 10
23.0941627222
 20
12.2624406514
 30
0.0
 10
23.0934388459
 20
12.2566318723
 30
0.0
 10
23.0927643898
 20
12.2488657369
 30
0.0
 10
23.0923006822
 20
12.2389571032
 30
0.0
 10
23.0922078679
 20
12.2320928566
 30
0.0
 10
23.0922078679
 20
12.2285362998
 30
0.0
  0
SPLINE
  5
469
100
AcDbEntity
  8
0
100
AcDbSpline
 62
9
  6
CONTINUOUS
 70
0
 71
3
 72
14
 73
10
 74
0
 42
0.0000001
 43
0.0000001
 44
0.0000000001
 40
0.0
 40
0.0
 40
0.0
 40
0.0
 40
0.1179627348
 40
0.2365397484
 40
0.3564885305
 40
0.4785277182
 40
0.603327524
 40
0.7315034944
 40
1.0
 40
1.0
 40
1.0
 40
1.0
 10
22.2414391507
 20
7.5649664503
 30
0.0
 10
22.2413695261
 20
7.5686693414
 30
0.0
 10
22.2415618353
 20
7.5761049068
 30
0.0
 10
22.2428465204
 20
7.5872370958
 30
0.0
 10
22.2451206343
 20
7.5983410122
 30
0.0
 10
22.2483778859
 20
7.6093998664
 30
0.0
 10
22.2526122611
 20
7.620399862
 30
0.0
 10
22.2596578923
 20
7.6351916181
 30
0.0
 10
22.2662541501
 20
7.6458169947
 30
0.0
 10
22.2711359595
 20
7.6526892269
 30
0.0
  0
SPLINE
  5
46A
100
AcDbEntity
  8
0
100
AcDbSpline
 62
9
  6
CONTINUOUS
 70
0
 71
3
 72
24
 73
20
 74
0
 42
0.0000001
 43
0.0000001
 44
0.0000000001
 40
0.0
 40
0.0
 40
0.0
 40
0.0
 40
0.1152098972
 40
0.1754190516
 40
0.2371323764
 40
0.3001660957
 40
0.3321261743
 40
0.3643407168
 40
0.4293711947
 40
0.4949469534
 40
0.560709571
 40
0.626296574
 40
0.6589240928
 40
0.6913838004
 40
0.7556566874
 40
0.8188829269
 40
0.8808174555
 40
0.9412427608
 40
1.0
 40
1.0
 40
1.0
 40
1.0
 10
23.3234108832
 20
10.1184801169
 30
0.0
 10
23.3200976926
 20
10.1220658825
 30
0.0
 10
23.3143564468
 20
10.1269136552
 30
0.0
 10
23.3057791169
 20
10.1321643528
 30
0.0
 10
23.2987159222
 20
10.1355924527
 30
0.0
 10
23.2924860625
 20
10.1379203851
 30
0.0
 10
23.287316389
 20
10.1394535651
 30
0.0
 10
23.2819995631
 20
10.1407677208
 30
0.0
 10
23.275196395
 20
10.1419733656
 30
0.0
 10
23.2668991974
 20
10.1427223572
 30
0.0
 10
23.2585448964
 20
10.1427738979
 30
0.0
 10
23.2516082901
 20
10.1422300475
 30
0.0
 10
23.2461262667
 20
10.1414375133
 30
0.0
 10
23.2407398737
 20
10.1404111776
 30
0.0
 10
23.2341717761
 20
10.1386962911
 30
0.0
 10
23.2266086318
 20
10.1359739496
 30
0.0
 10
23.2194761236
 20
10.1326326608
 30
0.0
 10
23.2128638756
 20
10.1287125192
 30
0.0
 10
23.208800621
 20
10.1256931254
 30
0.0
 10
23.2068905781
 20
10.1240958632
 30
0.0
  0
SPLINE
  5
46B
100
AcDbEntity
  8
0
100
AcDbSpline
 62
7
  6
CONTINUOUS
 70
0
 71
3
 72
11
 73
7
 74
0
 42
0.0000001
 43
0.0000001
 44
0.0000000001
 40
0.0
 40
0.0
 40
0.0
 40
0.0
 40
0.2258882624
 40
0.4675601737
 40
0.7254535253
 40
1.0
 40
1.0
 40
1.0
 40
1.0
 10
23.3234108832
 20
10.1184801169
 30
0.0
 10
23.3234108832
 20
10.1146253065
 30
0.0
 10
23.3233388641
 20
10.1066462261
 30
0.0
 10
23.32303435
 20
10.0942696016
 30
0.0
 10
23.3225248442
 20
10.0810687383
 30
0.0
 10
23.3220600204
 20
10.0719942336
 30
0.0
 10
23.3217944771
 20
10.0673165961
 30
0.0
  0
SPLINE
  5
46C
100
AcDbEntity
  8
0
100
AcDbSpline
 62
9
  6
CONTINUOUS
 70
0
 71
3
 72
25
 73
21
 74
0
 42
0.0000001
 43
0.0000001
 44
0.0000000001
 40
0.0
 40
0.0
 40
0.0
 40
0.0
 40
0.0608611516
 40
0.123242725
 40
0.1869176106
 40
0.2516109595
 40
0.3170293632
 40
0.3499281517
 40
0.3829010785
 40
0.4488951866
 40
0.5146879923
 40
0.5799261178
 40
0.644268526
 40
0.6760161285
 40
0.7074328688
 40
0.7691773345
 40
0.829388951
 40
0.8879583526
 40
0.9448225854
 40
1.0
 40
1.0
 40
1.0
 40
1.0
 10
23.2068905781
 20
10.1240958632
 30
0.0
 10
23.2047369563
 20
10.125495398
 30
0.0
 10
23.2002207072
 20
10.1280965516
 30
0.0
 10
23.1930229858
 20
10.1313508206
 30
0.0
 10
23.1854032756
 20
10.1339815762
 30
0.0
 10
23.1774570311
 20
10.1359575135
 30
0.0
 10
23.1706524112
 20
10.137031168
 30
0.0
 10
23.1651330418
 20
10.1375333025
 30
0.0
 10
23.159572655
 20
10.1377932322
 30
0.0
 10
23.1526115378
 20
10.1376686956
 30
0.0
 10
23.144330739
 20
10.136817382
 30
0.0
 10
23.1362203395
 20
10.1352794608
 30
0.0
 10
23.129658003
 20
10.1334290149
 30
0.0
 10
23.1245910086
 20
10.1316125437
 30
0.0
 10
23.1197181293
 20
10.1295976309
 30
0.0
 10
23.113921401
 20
10.1266929047
 30
0.0
 10
23.1074718959
 20
10.1226139894
 30
0.0
 10
23.1016399651
 20
10.1180154426
 30
0.0
 10
23.0964998244
 20
10.1129528621
 30
0.0
 10
23.0935390635
 20
10.1092477132
 30
0.0
 10
23.0922078679
 20
10.1073371879
 30
0.0
  0
SPLINE
  5
46D
100
AcDbEntity
  8
0
100
AcDbSpline
 62
7
  6
CONTINUOUS
 70
0
 71
3
 72
25
 73
21
 74
0
 42
0.0000001
 43
0.0000001
 44
0.0000000001
 40
0.0
 40
0.0
 40
0.0
 40
0.0
 40
0.0276052527
 40
0.043145011
 40
0.0599489802
 40
0.0780629039
 40
0.097507699
 40
0.1182861612
 40
0.140387776
 40
0.1884664578
 40
0.2415085868
 40
0.2697955375
 40
0.2992010729
 40
0.3611860672
 40
0.4272470079
 40
0.4973403776
 40
0.5714260083
 40
0.6494582411
 40
0.8171556108
 40
1.0
 40
1.0
 40
1.0
 40
1.0
 10
23.3145739406
 20
12.3033732666
 30
0.0
 10
23.3150306297
 20
12.3029847627
 30
0.0
 10
23.3156562202
 20
12.3022724365
 30
0.0
 10
23.3163748114
 20
12.3011865502
 30
0.0
 10
23.3169066663
 20
12.3002268416
 30
0.0
 10
23.3174107211
 20
12.2991584398
 30
0.0
 10
23.3178883938
 20
12.2979842512
 30
0.0
 10
23.3183406126
 20
12.2967079116
 30
0.0
 10
23.3189273833
 20
12.2948210167
 30
0.0
 10
23.3195915201
 20
12.2922266091
 30
0.0
 10
23.3201546722
 20
12.2894720702
 30
0.0
 10
23.320570885
 20
12.287103116
 30
0.0
 10
23.3209774859
 20
12.2845356208
 30
0.0
 10
23.3214368412
 20
12.2811463283
 30
0.0
 10
23.3219120957
 20
12.2768687428
 30
0.0
 10
23.3223200489
 20
12.2723203052
 30
0.0
 10
23.3226621234
 20
12.2675057925
 30
0.0
 10
23.3230406797
 20
12.2605694983
 30
0.0
 10
23.3233412925
 20
12.2512645964
 30
0.0
 10
23.3234108832
 20
12.2436505913
 30
0.0
 10
23.3234108832
 20
12.2396792289
 30
0.0
  0
SPLINE
  5
46E
100
AcDbEntity
  8
0
100
AcDbSpline
 62
9
  6
CONTINUOUS
 70
0
 71
3
 72
25
 73
21
 74
0
 42
0.0000001
 43
0.0000001
 44
0.0000000001
 40
0.0
 40
0.0
 40
0.0
 40
0.0
 40
0.0652755557
 40
0.1315621227
 40
0.198537945
 40
0.2658528259
 40
0.3331549093
 40
0.3667053383
 40
0.4001337515
 40
0.4664648365
 40
0.5318674706
 40
0.5960472915
 40
0.6587407784
 40
0.6894745316
 40
0.7197700846
 40
0.7790239555
 40
0.8365639921
 40
0.8924664319
 40
0.9468680286
 40
1.0
 40
1.0
 40
1.0
 40
1.0
 10
23.0922078679
 20
10.1073371879
 30
0.0
 10
23.0896781988
 20
10.1082785133
 30
0.0
 10
23.0844856783
 20
10.109931505
 30
0.0
 10
23.0764621748
 20
10.1117149456
 30
0.0
 10
23.0682312826
 20
10.1128147131
 30
0.0
 10
23.0598956516
 20
10.1132185491
 30
0.0
 10
23.0529371996
 20
10.1129649084
 30
0.0
 10
23.0474120324
 20
10.1123988629
 30
0.0
 10
23.0419571663
 20
10.1115943026
 30
0.0
 10
23.0352715014
 20
10.1101545437
 30
0.0
 10
23.0275229319
 20
10.1077551466
 30
0.0
 10
23.0201615738
 20
10.1047223965
 30
0.0
 10
23.0143884705
 20
10.1016738753
 30
0.0
 10
23.010059781
 20
10.0989431267
 30
0.0
 10
23.0059992363
 20
10.0960674644
 30
0.0
 10
23.0013274114
 20
10.0921520153
 30
0.0
 10
22.9963963513
 20
10.0869654878
 30
0.0
 10
22.9922332539
 20
10.0813903921
 30
0.0
 10
22.9888929924
 20
10.0754949293
 30
0.0
 10
22.9872345101
 20
10.0713507766
 30
0.0
 10
22.9865686889
 20
10.0692571
 30
0.0
  0
SPLINE
  5
46F
100
AcDbEntity
  8
0
100
AcDbSpline
 62
7
  6
CONTINUOUS
 70
0
 71
3
 72
11
 73
7
 74
0
 42
0.0000001
 43
0.0000001
 44
0.0000000001
 40
0.0
 40
0.0
 40
0.0
 40
0.0
 40
0.2267957684
 40
0.4687282815
 40
0.7263005313
 40
1.0
 40
1.0
 40
1.0
 40
1.0
 10
23.0922078679
 20
10.1073371879
 30
0.0
 10
23.0922078679
 20
10.1035717773
 30
0.0
 10
23.092321094
 20
10.0957893594
 30
0.0
 10
23.0928014971
 20
10.0837393367
 30
0.0
 10
23.0936053748
 20
10.0709262993
 30
0.0
 10
23.0943392791
 20
10.0621357058
 30
0.0
 10
23.094758479
 20
10.0576109467
 30
0.0
  0
SPLINE
  5
470
100
AcDbEntity
  8
0
100
AcDbSpline
 62
7
  6
CONTINUOUS
 70
0
 71
3
 72
17
 73
13
 74
0
 42
0.0000001
 43
0.0000001
 44
0.0000000001
 40
0.0
 40
0.0
 40
0.0
 40
0.0
 40
0.0970561057
 40
0.1485303387
 40
0.20197563
 40
0.257359161
 40
0.3146680789
 40
0.4352129524
 40
0.5638998598
 40
0.7008895334
 40
0.8462545919
 40
1.0
 40
1.0
 40
1.0
 40
1.0
 10
23.424076715
 20
12.268839288
 30
0.0
 10
23.4250408204
 20
12.2672175539
 30
0.0
 10
23.4263294392
 20
12.2646222265
 30
0.0
 10
23.4277853831
 20
12.2609754639
 30
0.0
 10
23.4288010088
 20
12.2580281264
 30
0.0
 10
23.429726524
 20
12.2549332733
 30
0.0
 10
23.4308661922
 20
12.2505440589
 30
0.0
 10
23.4320648927
 20
12.2447025652
 30
0.0
 10
23.4331485859
 20
12.2372700683
 30
0.0
 10
23.4339094212
 20
12.2293132775
 30
0.0
 10
23.4343560478
 20
12.2208455941
 30
0.0
 10
23.4344473838
 20
12.2150305688
 30
0.0
 10
23.4344473838
 20
12.2120419188
 30
0.0
  0
SPLINE
  5
471
100
AcDbEntity
  8
0
100
AcDbSpline
 62
9
  6
CONTINUOUS
 70
0
 71
3
 72
26
 73
22
 74
0
 42
0.0000001
 43
0.0000001
 44
0.0000000001
 40
0.0
 40
0.0
 40
0.0
 40
0.0
 40
0.0691937376
 40
0.1386812054
 40
0.2081077126
 40
0.2771071274
 40
0.3113437278
 40
0.345344771
 40
0.3790733128
 40
0.4124991118
 40
0.4783268256
 40
0.5426531983
 40
0.6053043427
 40
0.6661561557
 40
0.6959039086
 40
0.7251982348
 40
0.7824950196
 40
0.8383179897
 40
0.8929460974
 40
0.946706914
 40
1.0
 40
1.0
 40
1.0
 40
1.0
 10
22.9865686889
 20
10.0692571
 30
0.0
 10
22.9838463937
 20
10.069681707
 30
0.0
 10
22.9783496391
 20
10.0702902847
 30
0.0
 10
22.9700563656
 20
10.0704988733
 30
0.0
 10
22.9617821464
 20
10.070015089
 30
0.0
 10
22.9549675083
 20
10.0690384299
 30
0.0
 10
22.9496184453
 20
10.0679134756
 30
0.0
 10
22.9456846396
 20
10.0669028073
 30
0.0
 10
22.9418316368
 20
10.0657237023
 30
0.0
 10
22.9368445494
 20
10.0639392242
 30
0.0
 10
22.9308698876
 20
10.0613189148
 30
0.0
 10
22.9241550199
 20
10.0575725535
 30
0.0
 10
22.9180082622
 20
10.0532893891
 30
0.0
 10
22.9133887596
 20
10.0492814103
 30
0.0
 10
22.9100653126
 20
10.0458506144
 30
0.0
 10
22.9070465244
 20
10.0423336903
 30
0.0
 10
22.9037559558
 20
10.0376954341
 30
0.0
 10
22.9006089738
 20
10.031782819
 30
0.0
 10
22.8983210694
 20
10.0256356951
 30
0.0
 10
22.8969231537
 20
10.0193306513
 30
0.0
 10
22.8966051645
 20
10.0150616801
 30
0.0
 10
22.896605162
 20
10.0129396146
 30
0.0
  0
SPLINE
  5
472
100
AcDbEntity
  8
0
100
AcDbSpline
 62
7
  6
CONTINUOUS
 70
0
 71
3
 72
11
 73
7
 74
0
 42
0.0000001
 43
0.0000001
 44
0.0000000001
 40
0.0
 40
0.0
 40
0.0
 40
0.0
 40
0.2300923196
 40
0.4730202618
 40
0.7294467978
 40
1.0
 40
1.0
 40
1.0
 40
1.0
 10
22.9865686889
 20
10.0692571
 30
0.0
 10
22.9865686889
 20
10.0658271439
 30
0.0
 10
22.9867310345
 20
10.0587751698
 30
0.0
 10
22.9874279946
 20
10.0479211147
 30
0.0
 10
22.9885946218
 20
10.0365011912
 30
0.0
 10
22.989662731
 20
10.0287168439
 30
0.0
 10
22.9902725816
 20
10.0247301175
 30
0.0
  0
SPLINE
  5
473
100
AcDbEntity
  8
0
100
AcDbSpline
 62
7
  6
CONTINUOUS
 70
0
 71
3
 72
9
 73
5
 74
0
 42
0.0000001
 43
0.0000001
 44
0.0000000001
 40
0.0
 40
0.0
 40
0.0
 40
0.0
 40
0.4844087321
 40
1.0
 40
1.0
 40
1.0
 40
1.0
 10
23.5313079856
 20
12.1877230635
 30
0.0
 10
23.5319050696
 20
12.1839457546
 30
0.0
 10
23.5327706532
 20
12.1760876491
 30
0.0
 10
23.5330232482
 20
12.1681899808
 30
0.0
 10
23.5330232482
 20
12.1641195988
 30
0.0
  0
SPLINE
  5
474
100
AcDbEntity
  8
0
100
AcDbSpline
 62
9
  6
CONTINUOUS
 70
0
 71
3
 72
23
 73
19
 74
0
 42
0.0000001
 43
0.0000001
 44
0.0000000001
 40
0.0
 40
0.0
 40
0.0
 40
0.0
 40
0.1407935737
 40
0.2104018068
 40
0.2791314888
 40
0.3467552394
 40
0.4130754788
 40
0.4779477411
 40
0.5413156032
 40
0.603156817
 40
0.6634685074
 40
0.7222847533
 40
0.7796965708
 40
0.8079372575
 40
0.8358997282
 40
0.8911253803
 40
0.9457200898
 40
1.0
 40
1.0
 40
1.0
 40
1.0
 10
22.8966107393
 20
10.0122483115
 30
0.0
 10
22.8918899897
 20
10.0120656646
 30
0.0
 10
22.8848409907
 20
10.0112665661
 30
0.0
 10
22.8757024179
 20
10.009188487
 30
0.0
 10
22.8690901233
 20
10.0071540245
 30
0.0
 10
22.8627578636
 20
10.0046549841
 30
0.0
 10
22.8567639626
 20
10.0017081836
 30
0.0
 10
22.8511697856
 20
9.9983263105
 30
0.0
 10
22.8460221679
 20
9.9945454992
 30
0.0
 10
22.8413589581
 20
9.9904078388
 30
0.0
 10
22.8372183922
 20
9.985952508
 30
0.0
 10
22.8336389566
 20
9.9812194739
 30
0.0
 10
22.8311415679
 20
9.9770518705
 30
0.0
 10
22.8294715631
 20
9.973622587
 30
0.0
 10
22.8280364044
 20
9.9701680236
 30
0.0
 10
22.8266477491
 20
9.9657453795
 30
0.0
 10
22.8256424249
 20
9.9603187888
 30
0.0
 10
22.8254182192
 20
9.9566615888
 30
0.0
 10
22.8254182192
 20
9.9548402445
 30
0.0
  0
SPLINE
  5
475
100
AcDbEntity
  8
0
100
AcDbSpline
 62
9
  6
CONTINUOUS
 70
0
 71
3
 72
21
 73
17
 74
0
 42
0.0000001
 43
0.0000001
 44
0.0000000001
 40
0.0
 40
0.0
 40
0.0
 40
0.0
 40
0.1406652513
 40
0.2773729926
 40
0.3440077607
 40
0.4093554102
 40
0.4733630932
 40
0.5360200824
 40
0.5973831891
 40
0.6575387715
 40
0.7165825933
 40
0.7746263741
 40
0.8318050361
 40
0.8882840712
 40
0.9442666365
 40
1.0
 40
1.0
 40
1.0
 40
1.0
 10
22.8261772199
 20
9.9394415662
 30
0.0
 10
22.8225476691
 20
9.9384959663
 30
0.0
 10
22.8154994675
 20
9.9361808005
 30
0.0
 10
22.8071998055
 20
9.9322089841
 30
0.0
 10
22.801086669
 20
9.9284630177
 30
0.0
 10
22.7968338185
 20
9.925417789
 30
0.0
 10
22.7929033823
 20
9.9221288489
 30
0.0
 10
22.7893253071
 20
9.9186088719
 30
0.0
 10
22.7861195057
 20
9.9148810679
 30
0.0
 10
22.7832986331
 20
9.9109721057
 30
0.0
 10
22.780876104
 20
9.9069069213
 30
0.0
 10
22.7788651192
 20
9.9027106927
 30
0.0
 10
22.7772790963
 20
9.8984085548
 30
0.0
 10
22.7761315817
 20
9.8940255285
 30
0.0
 10
22.7754363123
 20
9.8895873624
 30
0.0
 10
22.7752834141
 20
9.886606166
 30
0.0
 10
22.7752834141
 20
9.8851200884
 30
0.0
  0
SPLINE
  5
476
100
AcDbEntity
  8
0
100
AcDbSpline
 62
9
  6
CONTINUOUS
 70
0
 71
3
 72
16
 73
12
 74
0
 42
0.0000001
 43
0.0000001
 44
0.0000000001
 40
0.0
 40
0.0
 40
0.0
 40
0.0
 40
0.1353307948
 40
0.2671421768
 40
0.3954904187
 40
0.4584541728
 40
0.5206559239
 40
0.6430133916
 40
0.7632517096
 40
0.8820208397
 40
1.0
 40
1.0
 40
1.0
 40
1.0
 10
22.7714470346
 20
9.8485067574
 30
0.0
 10
22.769727714
 20
9.8471899765
 30
0.0
 10
22.7664516682
 20
9.844431449
 30
0.0
 10
22.7620279716
 20
9.8398913499
 30
0.0
 10
22.7588196706
 20
9.8358218784
 30
0.0
 10
22.7565858864
 20
9.8324329585
 30
0.0
 10
22.7546021185
 20
9.8290022831
 30
0.0
 10
22.7525403536
 20
9.8245679107
 30
0.0
 10
22.7507517272
 20
9.8190535923
 30
0.0
 10
22.7496705916
 20
9.8134296973
 30
0.0
 10
22.7494278032
 20
9.8096368659
 30
0.0
 10
22.7494278032
 20
9.8077489009
 30
0.0
  0
SPLINE
  5
477
100
AcDbEntity
  8
0
100
AcDbSpline
 62
9
  6
CONTINUOUS
 70
0
 71
3
 72
23
 73
19
 74
0
 42
0.0000001
 43
0.0000001
 44
0.0000000001
 40
0.0
 40
0.0
 40
0.0
 40
0.0
 40
0.0549319762
 40
0.1101280747
 40
0.1379308068
 40
0.1659139233
 40
0.2225267639
 40
0.280195379
 40
0.3390669841
 40
0.3992429182
 40
0.4607917672
 40
0.5237616053
 40
0.5881856072
 40
0.6540332017
 40
0.7212050037
 40
0.7895634464
 40
0.8589463595
 40
1.0
 40
1.0
 40
1.0
 40
1.0
 10
23.6747833118
 20
12.0424349289
 30
0.0
 10
23.6747833069
 20
12.0440913487
 30
0.0
 10
23.674597267
 20
12.0474149986
 30
0.0
 10
23.6738973505
 20
12.0515241651
 30
0.0
 10
23.6730580209
 20
12.0547653861
 30
0.0
 10
23.6720249044
 20
12.0579949907
 30
0.0
 10
23.6703826523
 20
12.0619677125
 30
0.0
 10
23.6678935587
 20
12.0665673607
 30
0.0
 10
23.6649022687
 20
12.0709873653
 30
0.0
 10
23.6614328751
 20
12.0751949566
 30
0.0
 10
23.6575090226
 20
12.0791576204
 30
0.0
 10
23.6531546935
 20
12.0828430405
 30
0.0
 10
23.6483942417
 20
12.0862152676
 30
0.0
 10
23.6432677248
 20
12.0892548001
 30
0.0
 10
23.6378184288
 20
12.0919465631
 30
0.0
 10
23.6320883545
 20
12.0942738646
 30
0.0
 10
23.624091418
 20
12.0968817969
 30
0.0
 10
23.6178609091
 20
12.0982175692
 30
0.0
 10
23.6136510768
 20
12.0988243339
 30
0.0
  0
SPLINE
  5
478
100
AcDbEntity
  8
0
100
AcDbSpline
 62
9
  6
CONTINUOUS
 70
0
 71
3
 72
18
 73
14
 74
0
 42
0.0000001
 43
0.0000001
 44
0.0000000001
 40
0.0
 40
0.0
 40
0.0
 40
0.0
 40
0.0569816772
 40
0.1141624477
 40
0.1717062997
 40
0.2297594965
 40
0.3478144234
 40
0.4693553167
 40
0.531737808
 40
0.5952658295
 40
0.7257544566
 40
0.8607907345
 40
1.0
 40
1.0
 40
1.0
 40
1.0
 10
23.7130953795
 20
11.9681937878
 30
0.0
 10
23.713095373
 20
11.9694628439
 30
0.0
 10
23.7129831573
 20
11.9720067582
 30
0.0
 10
23.7124844047
 20
11.9758026541
 30
0.0
 10
23.7116607098
 20
11.9795662948
 30
0.0
 10
23.7101291852
 20
11.9845448064
 30
0.0
 10
23.7074073911
 20
11.9906224786
 30
0.0
 10
23.7037219355
 20
11.9962812298
 30
0.0
 10
23.7002142371
 20
12.0005373221
 30
0.0
 10
23.6962713541
 20
12.0046738759
 30
0.0
 10
23.6906768849
 20
12.0094434937
 30
0.0
 10
23.6831241563
 20
12.0144005548
 30
0.0
 10
23.6776456577
 20
12.0171370272
 30
0.0
 10
23.6747989515
 20
12.0183652645
 30
0.0
  0
SPLINE
  5
479
100
AcDbEntity
  8
0
100
AcDbSpline
 62
9
  6
CONTINUOUS
 70
0
 71
3
 72
31
 73
27
 74
0
 42
0.0000001
 43
0.0000001
 44
0.0000000001
 40
0.0
 40
0.0
 40
0.0
 40
0.0
 40
0.0640069118
 40
0.1278284637
 40
0.1914552211
 40
0.2231821976
 40
0.2548152225
 40
0.2863323814
 40
0.3177934148
 40
0.3335324212
 40
0.3492902621
 40
0.3808339267
 40
0.4123380136
 40
0.4437323847
 40
0.4750298782
 40
0.5062616718
 40
0.537439094
 40
0.5685582507
 40
0.6306447347
 40
0.6616525695
 40
0.6926449267
 40
0.7545570683
 40
0.8163110505
 40
0.8778344199
 40
0.9390795187
 40
1.0
 40
1.0
 40
1.0
 40
1.0
 10
24.0004577852
 20
8.2386102051
 30
0.0
 10
24.0085344664
 20
8.2278611772
 30
0.0
 10
24.0242553133
 20
8.206083136
 30
0.0
 10
24.0465250523
 20
8.172583807
 30
0.0
 10
24.0639486844
 20
8.1440352634
 30
0.0
 10
24.0771745729
 20
8.1208686698
 30
0.0
 10
24.086709121
 20
8.103365875
 30
0.0
 10
24.0958550491
 20
8.0857199284
 30
0.0
 10
24.1031696181
 20
8.0708892409
 30
0.0
 10
24.1088511288
 20
8.0589467979
 30
0.0
 10
24.1144310711
 20
8.0469374204
 30
0.0
 10
24.1211978113
 20
8.0318286142
 30
0.0
 10
24.1289513593
 20
8.0135666567
 30
0.0
 10
24.1363038592
 20
7.995195151
 30
0.0
 10
24.1432556771
 20
7.9767294948
 30
0.0
 10
24.1498162914
 20
7.9581696428
 30
0.0
 10
24.1559883246
 20
7.9395163077
 30
0.0
 10
24.1636875732
 20
7.9145471689
 30
0.0
 10
24.1706059527
 20
7.889380133
 30
0.0
 10
24.1767656076
 20
7.8640515134
 30
0.0
 10
24.1824141911
 20
7.8386413579
 30
0.0
 10
24.1885108301
 20
7.8067213144
 30
0.0
 10
24.1942353839
 20
7.7682329902
 30
0.0
 10
24.198317429
 20
7.729675862
 30
0.0
 10
24.2007240653
 20
7.6911538742
 30
0.0
 10
24.2011929103
 20
7.665486003
 30
0.0
 10
24.2011359582
 20
7.6526892264
 30
0.0
  0
SPLINE
  5
47A
100
AcDbEntity
  8
0
100
AcDbSpline
 62
7
  6
CONTINUOUS
 70
0
 71
3
 72
23
 73
19
 74
0
 42
0.0000001
 43
0.0000001
 44
0.0000000001
 40
0.0
 40
0.0
 40
0.0
 40
0.0
 40
0.0438292885
 40
0.0894691656
 40
0.137217381
 40
0.1873061297
 40
0.2399106446
 40
0.2951581144
 40
0.3531359563
 40
0.4138990191
 40
0.4774756222
 40
0.5438725066
 40
0.6130788417
 40
0.6850694468
 40
0.7598073764
 40
0.8372459945
 40
0.9173306451
 40
1.0
 40
1.0
 40
1.0
 40
1.0
 10
23.8703555948
 20
8.3891885422
 30
0.0
 10
23.8690305851
 20
8.3906234741
 30
0.0
 10
23.8661742095
 20
8.3934154592
 30
0.0
 10
23.8614249353
 20
8.397278111
 30
0.0
 10
23.8561477852
 20
8.400899136
 30
0.0
 10
23.8503563394
 20
8.4042859711
 30
0.0
 10
23.8440630649
 20
8.4074465748
 30
0.0
 10
23.8372804318
 20
8.4103883572
 30
0.0
 10
23.8300207801
 20
8.4131185321
 30
0.0
 10
23.8222964699
 20
8.4156440908
 30
0.0
 10
23.8141198954
 20
8.4179718846
 30
0.0
 10
23.8055035039
 20
8.4201086629
 30
0.0
 10
23.7964597953
 20
8.422061109
 30
0.0
 10
23.7870013176
 20
8.4238358627
 30
0.0
 10
23.7771406634
 20
8.4254395371
 30
0.0
 10
23.766890449
 20
8.4268787293
 30
0.0
 10
23.7562633632
 20
8.4281600251
 30
0.0
 10
23.7490483573
 20
8.4289017755
 30
0.0
 10
23.7453809399
 20
8.42924999
 30
0.0
  0
SPLINE
  5
47B
100
AcDbEntity
  8
0
100
AcDbSpline
 62
9
  6
CONTINUOUS
 70
0
 71
3
 72
13
 73
9
 74
0
 42
0.0000001
 43
0.0000001
 44
0.0000000001
 40
0.0
 40
0.0
 40
0.0
 40
0.0
 40
0.1206427823
 40
0.2417121044
 40
0.36364146
 40
0.486878072
 40
0.7387278096
 40
1.0
 40
1.0
 40
1.0
 40
1.0
 10
23.7261072128
 20
11.8892063136
 30
0.0
 10
23.7261071815
 20
11.8906371883
 30
0.0
 10
23.7259693715
 20
11.8935058975
 30
0.0
 10
23.7253498105
 20
11.8977804124
 30
0.0
 10
23.7243171391
 20
11.9020066381
 30
0.0
 10
23.7223765253
 20
11.9075813633
 30
0.0
 10
23.7188842438
 20
11.9143218749
 30
0.0
 10
23.7151849182
 20
11.9191926128
 30
0.0
 10
23.7131273259
 20
11.921509695
 30
0.0
  0
SPLINE
  5
47C
100
AcDbEntity
  8
0
100
AcDbSpline
 62
7
  6
CONTINUOUS
 70
0
 71
3
 72
47
 73
43
 74
0
 42
0.0000001
 43
0.0000001
 44
0.0000000001
 40
0.0
 40
0.0
 40
0.0
 40
0.0
 40
0.013446634
 40
0.0269713779
 40
0.0405901713
 40
0.054317835
 40
0.068168004
 40
0.0821530115
 40
0.0962837843
 40
0.1105697891
 40
0.1396292452
 40
0.1693858763
 40
0.199860774
 40
0.2310518053
 40
0.2629352256
 40
0.2954677507
 40
0.3285887918
 40
0.3622229387
 40
0.3962823604
 40
0.430669375
 40
0.465278871
 40
0.5000008359
 40
0.5347227889
 40
0.5693322494
 40
0.6037192058
 40
0.6377785478
 40
0.6714125953
 40
0.7045335197
 40
0.7370659136
 40
0.7689491918
 40
0.8001400737
 40
0.8306148194
 40
0.8603713003
 40
0.8894306132
 40
0.9037165507
 40
0.9178472599
 40
0.9318322081
 40
0.9456823227
 40
0.9594099374
 40
0.973028688
 40
0.9865533955
 40
1.0
 40
1.0
 40
1.0
 40
1.0
 10
23.7180773419
 20
12.4371716317
 30
0.0
 10
23.7169892178
 20
12.4426441275
 30
0.0
 10
23.7144922967
 20
12.453560995
 30
0.0
 10
23.7098143574
 20
12.469749786
 30
0.0
 10
23.7042034125
 20
12.4857633453
 30
0.0
 10
23.6976708518
 20
12.5015693801
 30
0.0
 10
23.6902296792
 20
12.5171369595
 30
0.0
 10
23.6818948208
 20
12.5324352925
 30
0.0
 10
23.672682502
 20
12.5474346451
 30
0.0
 10
23.6591799636
 20
12.5671041229
 30
0.0
 10
23.6401551194
 20
12.5907972412
 30
0.0
 10
23.6142893635
 20
12.6173968833
 30
0.0
 10
23.5854587059
 20
12.6421286441
 30
0.0
 10
23.5538924351
 20
12.6647992739
 30
0.0
 10
23.5198387288
 20
12.6852346033
 30
0.0
 10
23.4835649199
 20
12.7032765675
 30
0.0
 10
23.4453552824
 20
12.7187859381
 30
0.0
 10
23.4055088975
 20
12.7316425799
 30
0.0
 10
23.3643375886
 20
12.7417470717
 30
0.0
 10
23.322163412
 20
12.7490209404
 30
0.0
 10
23.2793162955
 20
12.7534079014
 30
0.0
 10
23.2361313967
 20
12.7548737614
 30
0.0
 10
23.1929465337
 20
12.753407283
 30
0.0
 10
23.1500995239
 20
12.7490197086
 30
0.0
 10
23.1079255244
 20
12.7417452359
 30
0.0
 10
23.0667544614
 20
12.7316401543
 30
0.0
 10
23.0269083894
 20
12.7187829416
 30
0.0
 10
22.9886991292
 20
12.7032730232
 30
0.0
 10
22.9524257594
 20
12.6852305387
 30
0.0
 10
22.9183725503
 20
12.6647947203
 30
0.0
 10
22.8868068313
 20
12.6421236368
 30
0.0
 10
22.8579767758
 20
12.6173914607
 30
0.0
 10
22.8321116678
 20
12.5907914454
 30
0.0
 10
22.8130874022
 20
12.5670980533
 30
0.0
 10
22.7995853454
 20
12.5474283828
 30
0.0
 10
22.790373393
 20
12.5324288976
 30
0.0
 10
22.7820389083
 20
12.5171304447
 30
0.0
 10
22.7745981162
 20
12.5015627581
 30
0.0
 10
22.7680659419
 20
12.4857566292
 30
0.0
 10
22.7624553883
 20
12.469742989
 30
0.0
 10
22.7577778447
 20
12.4535541306
 30
0.0
 10
22.7552811913
 20
12.4426372299
 30
0.0
 10
22.7541932011
 20
12.4371647199
 30
0.0
  0
SPLINE
  5
47D
100
AcDbEntity
  8
0
100
AcDbSpline
 62
9
  6
CONTINUOUS
 70
0
 71
3
 72
51
 73
47
 74
0
 42
0.0000001
 43
0.0000001
 44
0.0000000001
 40
0.0
 40
0.0
 40
0.0
 40
0.0
 40
0.013500581
 40
0.0270243328
 40
0.0405931005
 40
0.0542291663
 40
0.0679532278
 40
0.0817849772
 40
0.0957425651
 40
0.1098424707
 40
0.1240993327
 40
0.1385258253
 40
0.1531325793
 40
0.1679281338
 40
0.1980993647
 40
0.2290767936
 40
0.2608551687
 40
0.2933999603
 40
0.3266505404
 40
0.3605237474
 40
0.3949175872
 40
0.4297150186
 40
0.4647877507
 40
0.5
 40
0.5352122493
 40
0.5702849814
 40
0.6050824128
 40
0.6394762526
 40
0.6733494596
 40
0.7066000397
 40
0.7391448313
 40
0.7709232064
 40
0.8019006353
 40
0.8320718662
 40
0.8468674207
 40
0.8614741747
 40
0.8759006673
 40
0.8901575293
 40
0.9042574349
 40
0.9182150228
 40
0.9320467722
 40
0.9457708337
 40
0.9594068995
 40
0.9729756672
 40
0.986499419
 40
1.0
 40
1.0
 40
1.0
 40
1.0
 10
23.7236359587
 20
12.5128342938
 30
0.0
 10
23.7236359587
 20
12.5189454221
 30
0.0
 10
23.7232435186
 20
12.5311817785
 30
0.0
 10
23.7214796894
 20
12.5494836068
 30
0.0
 10
23.7185446716
 20
12.5676972453
 30
0.0
 10
23.714445964
 20
12.5857773659
 30
0.0
 10
23.7091935285
 20
12.6036805322
 30
0.0
 10
23.7028003808
 20
12.621363293
 30
0.0
 10
23.6952821996
 20
12.6387829481
 30
0.0
 10
23.6866574471
 20
12.6558974583
 30
0.0
 10
23.6769471887
 20
12.6726656282
 30
0.0
 10
23.6661752198
 20
12.6890470143
 30
0.0
 10
23.6543673227
 20
12.705002664
 30
0.0
 10
23.6371721163
 20
12.7257896357
 30
0.0
 10
23.6131810917
 20
12.7505032132
 30
0.0
 10
23.5809709891
 20
12.7776563771
 30
0.0
 10
23.545457017
 20
12.8022536007
 30
0.0
 10
23.5069832408
 20
12.8240608385
 30
0.0
 10
23.4659183015
 20
12.8428736471
 30
0.0
 10
23.4226556525
 20
12.8585144546
 30
0.0
 10
23.3776092114
 20
12.8708356463
 30
0.0
 10
23.3312098564
 20
12.8797207918
 30
0.0
 10
23.2839012998
 20
12.8850857591
 30
0.0
 10
23.2361359587
 20
12.8868797285
 30
0.0
 10
23.1883706175
 20
12.8850857591
 30
0.0
 10
23.1410620609
 20
12.8797207918
 30
0.0
 10
23.094662706
 20
12.8708356463
 30
0.0
 10
23.0496162648
 20
12.8585144546
 30
0.0
 10
23.0063536159
 20
12.8428736471
 30
0.0
 10
22.9652886765
 20
12.8240608385
 30
0.0
 10
22.9268149003
 20
12.8022536007
 30
0.0
 10
22.8913009282
 20
12.7776563771
 30
0.0
 10
22.8590908256
 20
12.7505032132
 30
0.0
 10
22.835099801
 20
12.7257896357
 30
0.0
 10
22.8179045946
 20
12.705002664
 30
0.0
 10
22.8060966975
 20
12.6890470143
 30
0.0
 10
22.7953247286
 20
12.6726656282
 30
0.0
 10
22.7856144702
 20
12.6558974583
 30
0.0
 10
22.7769897177
 20
12.6387829481
 30
0.0
 10
22.7694715365
 20
12.621363293
 30
0.0
 10
22.7630783888
 20
12.6036805322
 30
0.0
 10
22.7578259533
 20
12.5857773659
 30
0.0
 10
22.7537272457
 20
12.5676972453
 30
0.0
 10
22.7507922279
 20
12.5494836068
 30
0.0
 10
22.7490283987
 20
12.5311817785
 30
0.0
 10
22.7486359587
 20
12.5189454221
 30
0.0
 10
22.7486359587
 20
12.5128342938
 30
0.0
  0
SPLINE
  5
47E
100
AcDbEntity
  8
0
100
AcDbSpline
 62
9
  6
CONTINUOUS
 70
0
 71
3
 72
14
 73
10
 74
0
 42
0.0000001
 43
0.0000001
 44
0.0000000001
 40
0.0
 40
0.0
 40
0.0
 40
0.0
 40
0.1179627348
 40
0.2365397484
 40
0.3564885305
 40
0.4785277182
 40
0.603327524
 40
0.7315034944
 40
1.0
 40
1.0
 40
1.0
 40
1.0
 10
24.2308327666
 20
7.5649664503
 30
0.0
 10
24.2309023912
 20
7.5686693414
 30
0.0
 10
24.230710082
 20
7.5761049068
 30
0.0
 10
24.2294253969
 20
7.5872370958
 30
0.0
 10
24.227151283
 20
7.5983410122
 30
0.0
 10
24.2238940314
 20
7.6093998664
 30
0.0
 10
24.2196596562
 20
7.620399862
 30
0.0
 10
24.212614025
 20
7.6351916181
 30
0.0
 10
24.2060177672
 20
7.6458169947
 30
0.0
 10
24.2011359578
 20
7.6526892269
 30
0.0
  0
SPLINE
  5
47F
100
AcDbEntity
  8
0
100
AcDbSpline
 62
9
  6
CONTINUOUS
 70
0
 71
3
 72
16
 73
12
 74
0
 42
0.0000001
 43
0.0000001
 44
0.0000000001
 40
0.0
 40
0.0
 40
0.0
 40
0.0
 40
0.1203295023
 40
0.2431685961
 40
0.3679724606
 40
0.494136346
 40
0.5575518153
 40
0.6210805056
 40
0.7481354576
 40
0.8746693636
 40
1.0
 40
1.0
 40
1.0
 40
1.0
 10
23.2099548209
 20
12.3086448679
 30
0.0
 10
23.2075703351
 20
12.3098479182
 30
0.0
 10
23.2026247631
 20
12.3120346179
 30
0.0
 10
23.1948674331
 20
12.3146242914
 30
0.0
 10
23.1867831882
 20
12.3165378689
 30
0.0
 10
23.1798686751
 20
12.317545583
 30
0.0
 10
23.1742667737
 20
12.3179895815
 30
0.0
 10
23.1686309463
 20
12.3181858078
 30
0.0
 10
23.1615859507
 20
12.3179698387
 30
0.0
 10
23.1532231701
 20
12.3169907624
 30
0.0
 10
23.1477395122
 20
12.3158604307
 30
0.0
 10
23.1450431202
 20
12.3151764525
 30
0.0
  0
SPLINE
  5
480
100
AcDbEntity
  8
0
100
AcDbSpline
 62
7
  6
CONTINUOUS
 70
0
 71
3
 72
23
 73
19
 74
0
 42
0.0000001
 43
0.0000001
 44
0.0000000001
 40
0.0
 40
0.0
 40
0.0
 40
0.0
 40
0.008745515
 40
0.0193316234
 40
0.0317588835
 40
0.0460021532
 40
0.0620228771
 40
0.0797748971
 40
0.1202654664
 40
0.167039933
 40
0.2196385848
 40
0.2775898782
 40
0.3404178515
 40
0.4077917803
 40
0.4796187081
 40
0.6363409771
 40
0.8099992763
 40
1.0
 40
1.0
 40
1.0
 40
1.0
 10
23.2099548213
 20
12.3086448676
 30
0.0
 10
23.2098724204
 20
12.3084789215
 30
0.0
 10
23.2097170789
 20
12.3080988929
 30
0.0
 10
23.2095153105
 20
12.3074566463
 30
0.0
 10
23.2093228493
 20
12.306690794
 30
0.0
 10
23.2091396275
 20
12.3058049275
 30
0.0
 10
23.2089654767
 20
12.3048025614
 30
0.0
 10
23.2087349862
 20
12.3032461065
 30
0.0
 10
23.2084764153
 20
12.3010358767
 30
0.0
 10
23.2082086872
 20
12.2980847246
 30
0.0
 10
23.2079702108
 20
12.2947601112
 30
0.0
 10
23.2077587972
 20
12.2910930163
 30
0.0
 10
23.2075719095
 20
12.2871112188
 30
0.0
 10
23.2074078594
 20
12.2828342356
 30
0.0
 10
23.2072144783
 20
12.2765678891
 30
0.0
 10
23.2070360645
 20
12.2680485758
 30
0.0
 10
23.2069144381
 20
12.2570245802
 30
0.0
 10
23.2068905781
 20
12.249320237
 30
0.0
 10
23.2068905781
 20
12.2452949752
 30
0.0
  0
SPLINE
  5
481
100
AcDbEntity
  8
0
100
AcDbSpline
 62
9
  6
CONTINUOUS
 70
0
 71
3
 72
13
 73
9
 74
0
 42
0.0000001
 43
0.0000001
 44
0.0000000001
 40
0.0
 40
0.0
 40
0.0
 40
0.0
 40
0.2486308129
 40
0.4999001545
 40
0.6257435009
 40
0.7512427792
 40
0.8760879318
 40
1.0
 40
1.0
 40
1.0
 40
1.0
 10
23.1065501335
 20
12.29383312
 30
0.0
 10
23.1027459363
 20
12.2948004025
 30
0.0
 10
23.0949635895
 20
12.2962489573
 30
0.0
 10
23.0850794674
 20
12.296867818
 30
0.0
 10
23.0771434178
 20
12.296648694
 30
0.0
 10
23.0712236958
 20
12.2961229151
 30
0.0
 10
23.0653789233
 20
12.2952322971
 30
0.0
 10
23.0615384551
 20
12.294396659
 30
0.0
 10
23.0596410601
 20
12.2939203964
 30
0.0
  0
SPLINE
  5
482
100
AcDbEntity
  8
0
100
AcDbSpline
 62
9
  6
CONTINUOUS
 70
0
 71
3
 72
11
 73
7
 74
0
 42
0.0000001
 43
0.0000001
 44
0.0000000001
 40
0.0
 40
0.0
 40
0.0
 40
0.0
 40
0.2526580558
 40
0.5042210952
 40
0.7536608943
 40
1.0
 40
1.0
 40
1.0
 40
1.0
 10
23.0060871231
 20
12.2597289499
 30
0.0
 10
23.0036078462
 20
12.2597103153
 30
0.0
 10
22.9986594528
 20
12.2594846818
 30
0.0
 10
22.9913111577
 20
12.2585900337
 30
0.0
 10
22.9841131908
 20
12.257149538
 30
0.0
 10
22.9794264202
 20
12.2558213697
 30
0.0
 10
22.9771300084
 20
12.2550663735
 30
0.0
  0
SPLINE
  5
483
100
AcDbEntity
  8
0
100
AcDbSpline
 62
9
  6
CONTINUOUS
 70
0
 71
3
 72
19
 73
15
 74
0
 42
0.0000001
 43
0.0000001
 44
0.0000000001
 40
0.0
 40
0.0
 40
0.0
 40
0.0
 40
0.121149983
 40
0.2459936855
 40
0.309514253
 40
0.373527464
 40
0.4378439312
 40
0.5022657043
 40
0.6305715113
 40
0.6941623461
 40
0.7571462254
 40
0.8193704586
 40
0.8806871943
 40
1.0
 40
1.0
 40
1.0
 40
1.0
 10
23.3033575025
 20
12.3111675391
 30
0.0
 10
23.2999181994
 20
12.3131158679
 30
0.0
 10
23.2926269052
 20
12.3165472728
 30
0.0
 10
23.2829494363
 20
12.3195453708
 30
0.0
 10
23.2748723093
 20
12.3211737791
 30
0.0
 10
23.268663934
 20
12.3220071769
 30
0.0
 10
23.2623854737
 20
12.3224426723
 30
0.0
 10
23.2539948893
 20
12.3224901967
 30
0.0
 10
23.2456371352
 20
12.3217375551
 30
0.0
 10
23.2374661451
 20
12.3201646075
 30
0.0
 10
23.2315036564
 20
12.3185984808
 30
0.0
 10
23.2257302397
 20
12.3166570744
 30
0.0
 10
23.2184086919
 20
12.3136177486
 30
0.0
 10
23.2132100107
 20
12.3107798725
 30
0.0
 10
23.2099548217
 20
12.3086448679
 30
0.0
  0
SPLINE
  5
484
100
AcDbEntity
  8
0
100
AcDbSpline
 62
9
  6
CONTINUOUS
 70
0
 71
3
 72
14
 73
10
 74
0
 42
0.0000001
 43
0.0000001
 44
0.0000000001
 40
0.0
 40
0.0
 40
0.0
 40
0.0
 40
0.1248057323
 40
0.250527485
 40
0.3767400082
 40
0.503031118
 40
0.6289652358
 40
0.7540908408
 40
1.0
 40
1.0
 40
1.0
 40
1.0
 10
23.3690044855
 20
12.3070465092
 30
0.0
 10
23.3667595225
 20
12.3075658914
 30
0.0
 10
23.3622131585
 20
12.3084431807
 30
0.0
 10
23.3553005496
 20
12.309266136
 30
0.0
 10
23.348318448
 20
12.309585792
 30
0.0
 10
23.3413281294
 20
12.3093986578
 30
0.0
 10
23.3343880882
 20
12.3087163962
 30
0.0
 10
23.3253395335
 20
12.3071681367
 30
0.0
 10
23.318718481
 20
12.3052809528
 30
0.0
 10
23.3144653981
 20
12.303692118
 30
0.0
  0
SPLINE
  5
485
100
AcDbEntity
  8
0
100
AcDbSpline
 62
9
  6
CONTINUOUS
 70
0
 71
3
 72
13
 73
9
 74
0
 42
0.0000001
 43
0.0000001
 44
0.0000000001
 40
0.0
 40
0.0
 40
0.0
 40
0.0
 40
0.1231173201
 40
0.2471992979
 40
0.4973828323
 40
0.6231266416
 40
0.7489751822
 40
1.0
 40
1.0
 40
1.0
 40
1.0
 10
23.4551233475
 20
12.2764752495
 30
0.0
 10
23.4535893377
 20
12.276913728
 30
0.0
 10
23.4504849894
 20
12.2777117802
 30
0.0
 10
23.4441645088
 20
12.2789856675
 30
0.0
 10
23.4377202406
 20
12.2797761841
 30
0.0
 10
23.4312231859
 20
12.2800877339
 30
0.0
 10
23.4247080122
 20
12.280078121
 30
0.0
 10
23.4198274174
 20
12.2797081106
 30
0.0
 10
23.416600582
 20
12.2792966122
 30
0.0
  0
SPLINE
  5
486
100
AcDbEntity
  8
0
100
AcDbSpline
 62
9
  6
CONTINUOUS
 70
0
 71
3
 72
9
 73
5
 74
0
 42
0.0000001
 43
0.0000001
 44
0.0000000001
 40
0.0
 40
0.0
 40
0.0
 40
0.0
 40
0.4958000092
 40
1.0
 40
1.0
 40
1.0
 40
1.0
 10
23.5317279808
 20
12.2300749117
 30
0.0
 10
23.5288920083
 20
12.2311466699
 30
0.0
 10
23.5230548393
 20
12.2330080814
 30
0.0
 10
23.5170633929
 20
12.234283206
 30
0.0
 10
23.5140204859
 20
12.234779399
 30
0.0
  0
SPLINE
  5
487
100
AcDbEntity
  8
0
100
AcDbSpline
 62
9
  6
CONTINUOUS
 70
0
 71
3
 72
41
 73
37
 74
0
 42
0.0000001
 43
0.0000001
 44
0.0000000001
 40
0.0
 40
0.0
 40
0.0
 40
0.0
 40
0.0319076159
 40
0.0638049296
 40
0.0956825114
 40
0.1275305631
 40
0.1593402087
 40
0.1911031134
 40
0.222811832
 40
0.254459904
 40
0.2860419915
 40
0.3175539514
 40
0.348992941
 40
0.3803574826
 40
0.411647512
 40
0.4428643558
 40
0.474010739
 40
0.5050907421
 40
0.5361097285
 40
0.5670742468
 40
0.597991907
 40
0.6288712453
 40
0.6597215483
 40
0.69055267
 40
0.7213748518
 40
0.7521985135
 40
0.7830340477
 40
0.8138916087
 40
0.8447809096
 40
0.8602427485
 40
0.875715871
 40
0.9066951325
 40
0.937730839
 40
0.9532742258
 40
0.9688339569
 40
1.0
 40
1.0
 40
1.0
 40
1.0
 10
5.2361359587
 20
0.9161334708
 30
0.0
 10
5.2255212074
 20
0.9161334708
 30
0.0
 10
5.2042883813
 20
0.9168382297
 30
0.0
 10
5.1725930767
 20
0.9200049281
 30
0.0
 10
5.1411960524
 20
0.9252660988
 30
0.0
 10
5.110247166
 20
0.9325970815
 30
0.0
 10
5.0798919725
 20
0.9419632788
 30
0.0
 10
5.0502737945
 20
0.9533206178
 30
0.0
 10
5.0215323538
 20
0.9666155871
 30
0.0
 10
4.9938032924
 20
0.9817855659
 30
0.0
 10
4.9672174888
 20
0.9987590817
 30
0.0
 10
4.9419004595
 20
1.0174561513
 30
0.0
 10
4.9179717633
 20
1.0377886475
 30
0.0
 10
4.8955444269
 20
1.0596607154
 30
0.0
 10
4.8747244119
 20
1.082969214
 30
0.0
 10
4.8556101156
 20
1.1076042026
 30
0.0
 10
4.8382919025
 20
1.1334494504
 30
0.0
 10
4.8228516691
 20
1.1603829876
 30
0.0
 10
4.809362452
 20
1.1882776771
 30
0.0
 10
4.7978880782
 20
1.2170018121
 30
0.0
 10
4.7884828552
 20
1.2464197396
 30
0.0
 10
4.7811913092
 20
1.2763925009
 30
0.0
 10
4.7760479678
 20
1.3067784917
 30
0.0
 10
4.7730771902
 20
1.3374341283
 30
0.0
 10
4.7722930513
 20
1.3682145615
 30
0.0
 10
4.7736992384
 20
1.3989742683
 30
0.0
 10
4.7772891764
 20
1.4295681322
 30
0.0
 10
4.783045537
 20
1.4598506795
 30
0.0
 10
4.7896242657
 20
1.484703166
 30
0.0
 10
4.7959351676
 20
1.5042820254
 30
0.0
 10
4.802943687
 20
1.5236540677
 30
0.0
 10
4.8129923355
 20
1.5474175667
 30
0.0
 10
4.8246962679
 20
1.5704368861
 30
0.0
 10
4.835021084
 20
1.5883500305
 30
0.0
 10
4.845987637
 20
1.6059277869
 30
0.0
 10
4.8549037095
 20
1.6186809844
 30
0.0
 10
4.861135402
 20
1.6269672678
 30
0.0
  0
SPLINE
  5
488
100
AcDbEntity
  8
0
100
AcDbSpline
 62
9
  6
CONTINUOUS
 70
0
 71
3
 72
41
 73
37
 74
0
 42
0.0000001
 43
0.0000001
 44
0.0000000001
 40
0.0
 40
0.0
 40
0.0
 40
0.0
 40
0.0311660452
 40
0.0467257764
 40
0.0622691628
 40
0.0933048684
 40
0.124284131
 40
0.1397572558
 40
0.1552190981
 40
0.1861084078
 40
0.2169659784
 40
0.2478015205
 40
0.2786251859
 40
0.3094473651
 40
0.3402784792
 40
0.3711287722
 40
0.4020081007
 40
0.4329257537
 40
0.4638902693
 40
0.4949092561
 40
0.5259892597
 40
0.5571356415
 40
0.5883524817
 40
0.6196425093
 40
0.6510070537
 40
0.6824460451
 40
0.7139580041
 40
0.7455400906
 40
0.7771881629
 40
0.808896882
 40
0.8406597862
 40
0.8724694301
 40
0.9043174791
 40
0.9361950591
 40
0.9680923756
 40
1.0
 40
1.0
 40
1.0
 40
1.0
 10
5.6111362283
 20
1.6269676495
 30
0.0
 10
5.6173679328
 20
1.6186813681
 30
0.0
 10
5.6262840236
 20
1.6059281734
 30
0.0
 10
5.6372506003
 20
1.5883504194
 30
0.0
 10
5.647575439
 20
1.5704372771
 30
0.0
 10
5.6592794001
 20
1.5474179584
 30
0.0
 10
5.6693280766
 20
1.5236544569
 30
0.0
 10
5.6763366185
 20
1.5042824099
 30
0.0
 10
5.6826475426
 20
1.4847035422
 30
0.0
 10
5.6892262983
 20
1.4598510427
 30
0.0
 10
5.6949826883
 20
1.429568477
 30
0.0
 10
5.6985726527
 20
1.3989745942
 30
0.0
 10
5.6999788631
 20
1.3682148708
 30
0.0
 10
5.6991947454
 20
1.3374344244
 30
0.0
 10
5.6962239878
 20
1.3067787778
 30
0.0
 10
5.6910806654
 20
1.2763927781
 30
0.0
 10
5.6837891373
 20
1.2464200064
 30
0.0
 10
5.6743839301
 20
1.2170020652
 30
0.0
 10
5.6629095694
 20
1.1882779125
 30
0.0
 10
5.649420362
 20
1.1603832025
 30
0.0
 10
5.6339801356
 20
1.1334496444
 30
0.0
 10
5.6166619278
 20
1.1076043768
 30
0.0
 10
5.5975476352
 20
1.0829693693
 30
0.0
 10
5.5767276209
 20
1.0596608511
 30
0.0
 10
5.5543002818
 20
1.0377887633
 30
0.0
 10
5.5303715804
 20
1.017456248
 30
0.0
 10
5.5050545449
 20
0.9987591614
 30
0.0
 10
5.4784687339
 20
0.9817856301
 30
0.0
 10
5.4507396632
 20
0.9666156371
 30
0.0
 10
5.4219982116
 20
0.953320655
 30
0.0
 10
5.3923800221
 20
0.9419633052
 30
0.0
 10
5.3620248171
 20
0.9325970991
 30
0.0
 10
5.3310759187
 20
0.9252661094
 30
0.0
 10
5.2996788805
 20
0.920004933
 30
0.0
 10
5.2679835578
 20
0.9168382307
 30
0.0
 10
5.2467507178
 20
0.9161334708
 30
0.0
 10
5.2361359587
 20
0.9161334708
 30
0.0
  0
SPLINE
  5
489
100
AcDbEntity
  8
0
100
AcDbSpline
 62
7
  6
CONTINUOUS
 70
0
 71
3
 72
23
 73
19
 74
0
 42
0.0000001
 43
0.0000001
 44
0.0000000001
 40
0.0
 40
0.0
 40
0.0
 40
0.0
 40
0.0635736945
 40
0.1271060168
 40
0.1905586565
 40
0.2538950322
 40
0.3170830623
 40
0.3800962102
 40
0.4429145099
 40
0.5055252725
 40
0.5679237035
 40
0.630113214
 40
0.6921052624
 40
0.7539190669
 40
0.8155808826
 40
0.8771230167
 40
0.9385825771
 40
1.0
 40
1.0
 40
1.0
 40
1.0
 10
5.2361359587
 20
1.0016179064
 30
0.0
 10
5.2484019499
 20
1.0016179064
 30
0.0
 10
5.2729418668
 20
1.002781708
 30
0.0
 10
5.3093890704
 20
1.0080026112
 30
0.0
 10
5.3451353751
 20
1.0166485519
 30
0.0
 10
5.3798328425
 20
1.0286365731
 30
0.0
 10
5.4131487116
 20
1.0438519334
 30
0.0
 10
5.4447621097
 20
1.0621485377
 30
0.0
 10
5.4743685812
 20
1.0833510269
 30
0.0
 10
5.5016829235
 20
1.1072556959
 30
0.0
 10
5.5264415911
 20
1.1336330701
 30
0.0
 10
5.5484057707
 20
1.1622294485
 30
0.0
 10
5.5673631223
 20
1.1927698334
 30
0.0
 10
5.5831305356
 20
1.2249601757
 30
0.0
 10
5.5955552492
 20
1.2584900806
 30
0.0
 10
5.6045171469
 20
1.2930375101
 30
0.0
 10
5.6099291883
 20
1.3282644561
 30
0.0
 10
5.6111359491
 20
1.3519901339
 30
0.0
 10
5.611135949
 20
1.3638400913
 30
0.0
  0
SPLINE
  5
48A
100
AcDbEntity
  8
0
100
AcDbSpline
 62
9
  6
CONTINUOUS
 70
0
 71
3
 72
23
 73
19
 74
0
 42
0.0000001
 43
0.0000001
 44
0.0000000001
 40
0.0
 40
0.0
 40
0.0
 40
0.0
 40
0.0635736921
 40
0.1271060092
 40
0.1905586538
 40
0.2538950134
 40
0.3170830368
 40
0.3800961988
 40
0.4429144906
 40
0.5055252498
 40
0.5679236956
 40
0.6301132076
 40
0.6921052603
 40
0.7539190687
 40
0.8155808842
 40
0.8771230188
 40
0.9385825785
 40
1.0
 40
1.0
 40
1.0
 40
1.0
 10
5.2361359587
 20
1.0805577152
 30
0.0
 10
5.2238699677
 20
1.0805577152
 30
0.0
 10
5.1993300519
 20
1.0817215166
 30
0.0
 10
5.1628828483
 20
1.0869424192
 30
0.0
 10
5.1271365459
 20
1.0955883583
 30
0.0
 10
5.0924390811
 20
1.1075763777
 30
0.0
 10
5.0591232122
 20
1.1227917358
 30
0.0
 10
5.0275098129
 20
1.1410883388
 30
0.0
 10
4.9979033396
 20
1.1622908273
 30
0.0
 10
4.9705889951
 20
1.1861954956
 30
0.0
 10
4.9458303244
 20
1.2125728711
 30
0.0
 10
4.9238661413
 20
1.2411692525
 30
0.0
 10
4.9049087877
 20
1.271709639
 30
0.0
 10
4.8891413731
 20
1.3038999829
 30
0.0
 10
4.8767166588
 20
1.3374298889
 30
0.0
 10
4.8677547609
 20
1.3719773188
 30
0.0
 10
4.8623427193
 20
1.407204265
 30
0.0
 10
4.8611359587
 20
1.4309299427
 30
0.0
 10
4.8611359587
 20
1.4427799
 30
0.0
  0
SPLINE
  5
48B
100
AcDbEntity
  8
0
100
AcDbSpline
 62
7
  6
CONTINUOUS
 70
0
 71
3
 72
9
 73
5
 74
0
 42
0.0000001
 43
0.0000001
 44
0.0000000001
 40
0.0
 40
0.0
 40
0.0
 40
0.0
 40
0.4820969102
 40
1.0
 40
1.0
 40
1.0
 40
1.0
 10
22.8966322445
 20
10.0095799465
 30
0.0
 10
22.8967163215
 20
10.0043386763
 30
0.0
 10
22.8973966278
 20
9.9934713888
 30
0.0
 10
22.8989519551
 20
9.9826984609
 30
0.0
 10
22.8999491134
 20
9.9771561771
 30
0.0
  0
SPLINE
  5
48C
100
AcDbEntity
  8
0
100
AcDbSpline
 62
7
  6
CONTINUOUS
 70
0
 71
3
 72
11
 73
7
 74
0
 42
0.0000001
 43
0.0000001
 44
0.0000000001
 40
0.0
 40
0.0
 40
0.0
 40
0.0
 40
0.2530212738
 40
0.5034785626
 40
0.7521832739
 40
1.0
 40
1.0
 40
1.0
 40
1.0
 10
22.7661359587
 20
12.3906659462
 30
0.0
 10
22.7628464818
 20
12.382118664
 30
0.0
 10
22.7570467016
 20
12.364811851
 30
0.0
 10
22.7507632962
 20
12.3382826848
 30
0.0
 10
22.7469788697
 20
12.3114731506
 30
0.0
 10
22.7461359587
 20
12.2934897512
 30
0.0
 10
22.7461359587
 20
12.2845197145
 30
0.0
  0
SPLINE
  5
48D
100
AcDbEntity
  8
0
100
AcDbSpline
 62
9
  6
CONTINUOUS
 70
0
 71
3
 72
22
 73
18
 74
0
 42
0.0000001
 43
0.0000001
 44
0.0000000001
 40
0.0
 40
0.0
 40
0.0
 40
0.0
 40
0.0537563349
 40
0.1079022754
 40
0.1627805964
 40
0.2187097044
 40
0.247177852
 40
0.2760208578
 40
0.3348913319
 40
0.3954359682
 40
0.4576526289
 40
0.5214801296
 40
0.5868244849
 40
0.7214283812
 40
0.790379558
 40
0.860012885
 40
1.0
 40
1.0
 40
1.0
 40
1.0
 10
23.6136453602
 20
9.9855311276
 30
0.0
 10
23.6136453329
 20
9.9875045166
 30
0.0
 10
23.6133782688
 20
9.9914704737
 30
0.0
 10
23.6121923656
 20
9.9973437896
 30
0.0
 10
23.6102351159
 20
10.0030914138
 30
0.0
 10
23.6079848937
 20
10.007698267
 30
0.0
 10
23.6058243414
 20
10.011252282
 30
0.0
 10
23.6033904708
 20
10.0147574802
 30
0.0
 10
23.5998978692
 20
10.0189478977
 30
0.0
 10
23.5950936367
 20
10.0235883207
 30
0.0
 10
23.5897032139
 20
10.0278324518
 30
0.0
 10
23.583782409
 20
10.0316347643
 30
0.0
 10
23.5751760935
 20
10.0360975418
 30
0.0
 10
23.5658176839
 20
10.0394175219
 30
0.0
 10
23.5560224443
 20
10.0416046825
 30
0.0
 10
23.5458891431
 20
10.0430378618
 30
0.0
 10
23.5381536217
 20
10.0432165886
 30
0.0
 10
23.5330232482
 20
10.0429204868
 30
0.0
  0
SPLINE
  5
48E
100
AcDbEntity
  8
0
100
AcDbSpline
 62
9
  6
CONTINUOUS
 70
0
 71
3
 72
32
 73
28
 74
0
 42
0.0000001
 43
0.0000001
 44
0.0000000001
 40
0.0
 40
0.0
 40
0.0
 40
0.0
 40
0.0399013692
 40
0.0793471103
 40
0.1183226892
 40
0.1568103311
 40
0.19478842
 40
0.2322394288
 40
0.2691620991
 40
0.3055589895
 40
0.3414172622
 40
0.3767108521
 40
0.4455497418
 40
0.479111409
 40
0.5120959059
 40
0.5762528573
 40
0.6378885308
 40
0.6677295896
 40
0.6969057301
 40
0.753263216
 40
0.8070524932
 40
0.8584108661
 40
0.8832348392
 40
0.9075213436
 40
0.9313059414
 40
0.9546299817
 40
1.0
 40
1.0
 40
1.0
 40
1.0
 10
23.9564099807
 20
7.7826145629
 30
0.0
 10
23.9600556529
 20
7.7817207131
 30
0.0
 10
23.967294518
 20
7.7798985904
 30
0.0
 10
23.9780533553
 20
7.777043175
 30
0.0
 10
23.9886447189
 20
7.7740789494
 30
0.0
 10
23.9990627758
 20
7.7710115163
 30
0.0
 10
24.0093035317
 20
7.7678529456
 30
0.0
 10
24.019363876
 20
7.7646116943
 30
0.0
 10
24.0292370087
 20
7.7612774383
 30
0.0
 10
24.0389151874
 20
7.7578380686
 30
0.0
 10
24.0483936074
 20
7.7542980358
 30
0.0
 10
24.0606596322
 20
7.7495039028
 30
0.0
 10
24.0726200451
 20
7.7445226298
 30
0.0
 10
24.0842343497
 20
7.7392943113
 30
0.0
 10
24.0953467853
 20
7.7340299892
 30
0.0
 10
24.1086598537
 20
7.7272487535
 30
0.0
 10
24.12143792
 20
7.7200932415
 30
0.0
 10
24.1311661034
 20
7.7142445976
 30
0.0
 10
24.1403507905
 20
7.708460462
 30
0.0
 10
24.1512183408
 20
7.7011250235
 30
0.0
 10
24.1633809879
 20
7.6920085896
 30
0.0
 10
24.1727404428
 20
7.6841281494
 30
0.0
 10
24.1796651542
 20
7.6776932758
 30
0.0
 10
24.1845261797
 20
7.6728543844
 30
0.0
 10
24.1891099787
 20
7.6679428757
 30
0.0
 10
24.194791719
 20
7.6613528917
 30
0.0
 10
24.1987089056
 20
7.6562000898
 30
0.0
 10
24.2011359582
 20
7.6526892311
 30
0.0
  0
SPLINE
  5
48F
100
AcDbEntity
  8
0
100
AcDbSpline
 62
9
  6
CONTINUOUS
 70
0
 71
3
 72
19
 73
15
 74
0
 42
0.0000001
 43
0.0000001
 44
0.0000000001
 40
0.0
 40
0.0
 40
0.0
 40
0.0
 40
0.1256183487
 40
0.2515899815
 40
0.3146262932
 40
0.3775815302
 40
0.4403752666
 40
0.5030294047
 40
0.5655902813
 40
0.628105267
 40
0.6905977872
 40
0.7529857344
 40
0.8770822004
 40
1.0
 40
1.0
 40
1.0
 40
1.0
 10
23.9564099807
 20
7.7826145629
 30
0.0
 10
23.9563219964
 20
7.8096387936
 30
0.0
 10
23.9541462369
 20
7.8637758966
 30
0.0
 10
23.9464796574
 20
7.9310897654
 30
0.0
 10
23.9373815459
 20
7.9845363668
 30
0.0
 10
23.929103338
 20
8.0243069068
 30
0.0
 10
23.9193931668
 20
8.0636671308
 30
0.0
 10
23.9082754219
 20
8.102564887
 30
0.0
 10
23.8957705265
 20
8.1409761093
 30
0.0
 10
23.881873967
 20
8.1788691879
 30
0.0
 10
23.8665940959
 20
8.2161862029
 30
0.0
 10
23.8444799836
 20
8.2649819501
 30
0.0
 10
23.8136720392
 20
8.3240553673
 30
0.0
 10
23.78567633
 20
8.369288808
 30
0.0
 10
23.7709302774
 20
8.3912389213
 30
0.0
  0
SPLINE
  5
490
100
AcDbEntity
  8
0
100
AcDbSpline
 62
9
  6
CONTINUOUS
 70
0
 71
3
 72
23
 73
19
 74
0
 42
0.0000001
 43
0.0000001
 44
0.0000000001
 40
0.0
 40
0.0
 40
0.0
 40
0.0
 40
0.0824971285
 40
0.1624663625
 40
0.2398406818
 40
0.3145594154
 40
0.3865695151
 40
0.4558271331
 40
0.5222995883
 40
0.5859678226
 40
0.6468294742
 40
0.7049032713
 40
0.7602358539
 40
0.8129053664
 40
0.8630274275
 40
0.910763125
 40
0.9563278261
 40
1.0
 40
1.0
 40
1.0
 40
1.0
 10
23.7709302774
 20
8.3912389213
 30
0.0
 10
23.7750127874
 20
8.3908377935
 30
0.0
 10
23.7830465636
 20
8.3899832256
 30
0.0
 10
23.7948818374
 20
8.388508839
 30
0.0
 10
23.8063029069
 20
8.3868553725
 30
0.0
 10
23.8172947066
 20
8.385016726
 30
0.0
 10
23.827842253
 20
8.3829867869
 30
0.0
 10
23.8379305875
 20
8.3807594274
 30
0.0
 10
23.8475448005
 20
8.3783284934
 30
0.0
 10
23.8566700337
 20
8.3756877837
 30
0.0
 10
23.8652915198
 20
8.3728310318
 30
0.0
 10
23.8733946788
 20
8.3697517672
 30
0.0
 10
23.880965318
 20
8.3664437474
 30
0.0
 10
23.8879894852
 20
8.36290049
 30
0.0
 10
23.8944531423
 20
8.3591152822
 30
0.0
 10
23.9003422906
 20
8.3550808204
 30
0.0
 10
23.9056417586
 20
8.3507903498
 30
0.0
 10
23.90883223
 20
8.3476950448
 30
0.0
 10
23.9103123855
 20
8.3461060262
 30
0.0
  0
LINE
  5
491
100
AcDbEntity
  8
0
100
AcDbLine
 62
9
  6
CONTINUOUS
 10
23.7709302774
 20
8.3912389213
 11
23.7453809399
 21
8.42924999
  0
SPLINE
  5
492
100
AcDbEntity
  8
0
100
AcDbSpline
 62
9
  6
CONTINUOUS
 70
0
 71
3
 72
21
 73
17
 74
0
 42
0.0000001
 43
0.0000001
 44
0.0000000001
 40
0.0
 40
0.0
 40
0.0
 40
0.0
 40
0.0501805192
 40
0.1030182376
 40
0.1583173346
 40
0.2158705949
 40
0.2754624262
 40
0.3368710365
 40
0.3998700451
 40
0.4642297075
 40
0.5297177882
 40
0.5961000796
 40
0.7306058288
 40
0.8658631504
 40
0.9331877738
 40
1.0
 40
1.0
 40
1.0
 40
1.0
 10
23.7709302774
 20
8.3912389213
 30
0.0
 10
23.7620232565
 20
8.3921140825
 30
0.0
 10
23.7437079942
 20
8.3936161903
 30
0.0
 10
23.7155138996
 20
8.3952049139
 30
0.0
 10
23.6859790558
 20
8.3962507166
 30
0.0
 10
23.6552268774
 20
8.3968145746
 30
0.0
 10
23.6233805592
 20
8.3969575826
 30
0.0
 10
23.5905636547
 20
8.3967409567
 30
0.0
 10
23.5568998138
 20
8.3962260114
 30
0.0
 10
23.5225128074
 20
8.3954741227
 30
0.0
 10
23.487526546
 20
8.3945467872
 30
0.0
 10
23.4400376365
 20
8.3931526107
 30
0.0
 10
23.3801136755
 20
8.3912903837
 30
0.0
 10
23.3200137236
 20
8.3896724736
 30
0.0
 10
23.2719744116
 20
8.3887641612
 30
0.0
 10
23.2480518871
 20
8.3884813597
 30
0.0
 10
23.2361359587
 20
8.3883939751
 30
0.0
  0
SPLINE
  5
493
100
AcDbEntity
  8
0
100
AcDbSpline
 62
9
  6
CONTINUOUS
 70
0
 71
3
 72
14
 73
10
 74
0
 42
0.0000001
 43
0.0000001
 44
0.0000000001
 40
0.0
 40
0.0
 40
0.0
 40
0.0
 40
0.2479187948
 40
0.3723778408
 40
0.497170649
 40
0.6223191249
 40
0.7478431703
 40
0.873741318
 40
1.0
 40
1.0
 40
1.0
 40
1.0
 10
23.9564099807
 20
7.7826145635
 30
0.0
 10
23.9509946424
 20
7.7839761979
 30
0.0
 10
23.9428504421
 20
7.785980908
 30
0.0
 10
23.931955817
 20
7.7885692082
 30
0.0
 10
23.9237414218
 20
7.7904755139
 30
0.0
 10
23.9154956191
 20
7.792352174
 30
0.0
 10
23.9072193771
 20
7.7942070495
 30
0.0
 10
23.8989127473
 20
7.7960404761
 30
0.0
 10
23.893362522
 20
7.7972447314
 30
0.0
 10
23.8905823098
 20
7.7978424434
 30
0.0
  0
SPLINE
  5
494
100
AcDbEntity
  8
0
100
AcDbSpline
 62
9
  6
CONTINUOUS
 70
0
 71
3
 72
50
 73
46
 74
0
 42
0.0000001
 43
0.0000001
 44
0.0000000001
 40
0.0
 40
0.0
 40
0.0
 40
0.0
 40
0.0293033018
 40
0.0587849824
 40
0.0884377621
 40
0.1182558309
 40
0.148237671
 40
0.1783821857
 40
0.2086870736
 40
0.239147546
 40
0.2697582613
 40
0.3005123965
 40
0.331399631
 40
0.3624097512
 40
0.3935342405
 40
0.4247670825
 40
0.440422465
 40
0.4561029772
 40
0.4718087006
 40
0.4875400109
 40
0.5032971567
 40
0.5190802847
 40
0.5348894564
 40
0.5507240418
 40
0.5824633544
 40
0.5983650427
 40
0.6142861467
 40
0.6461823987
 40
0.6621559188
 40
0.6781452726
 40
0.7101668006
 40
0.7261964037
 40
0.7422371858
 40
0.7582879269
 40
0.7743470576
 40
0.7904134575
 40
0.8064870853
 40
0.8225696603
 40
0.8386621683
 40
0.8708771519
 40
0.8869988448
 40
0.9031292591
 40
0.9354099251
 40
0.9677069258
 40
1.0
 40
1.0
 40
1.0
 40
1.0
 10
23.8905823098
 20
7.7978424434
 30
0.0
 10
23.8842928416
 20
7.7992156702
 30
0.0
 10
23.8716641701
 20
7.8019183475
 30
0.0
 10
23.8526320276
 20
7.8058256615
 30
0.0
 10
23.833456487
 20
7.8095934855
 30
0.0
 10
23.814141494
 20
7.8132176537
 30
0.0
 10
23.7946929342
 20
7.8167123492
 30
0.0
 10
23.7751154373
 20
7.8200913509
 30
0.0
 10
23.755413929
 20
7.8233677679
 30
0.0
 10
23.7355923971
 20
7.8265446381
 30
0.0
 10
23.7156560133
 20
7.8296264911
 30
0.0
 10
23.6956104264
 20
7.8326138247
 30
0.0
 10
23.6754582396
 20
7.8354784365
 30
0.0
 10
23.6552031935
 20
7.8381934848
 30
0.0
 10
23.6348490958
 20
7.8407350115
 30
0.0
 10
23.6178234104
 20
7.8427014489
 30
0.0
 10
23.6041575432
 20
7.844181298
 30
0.0
 10
23.5938776721
 20
7.8452435037
 30
0.0
 10
23.5835767057
 20
7.8462627546
 30
0.0
 10
23.573255531
 20
7.847248022
 30
0.0
 10
23.562914863
 20
7.8482075771
 30
0.0
 10
23.5525554059
 20
7.849149525
 30
0.0
 10
23.5421781326
 20
7.8500833356
 30
0.0
 10
23.5283088021
 20
7.8513228904
 30
0.0
 10
23.5144168737
 20
7.8525380391
 30
0.0
 10
23.5005020135
 20
7.8537080364
 30
0.0
 10
23.4865495615
 20
7.8548417753
 30
0.0
 10
23.4725762094
 20
7.8559124914
 30
0.0
 10
23.4585829311
 20
7.8569161231
 30
0.0
 10
23.4445589768
 20
7.8578753949
 30
0.0
 10
23.4305174176
 20
7.8587585018
 30
0.0
 10
23.4164574323
 20
7.8595170691
 30
0.0
 10
23.4058972249
 20
7.8600124744
 30
0.0
 10
23.3953268228
 20
7.8604222305
 30
0.0
 10
23.3847474318
 20
7.8607344969
 30
0.0
 10
23.3741602827
 20
7.860937377
 30
0.0
 10
23.3635664064
 20
7.861019068
 30
0.0
 10
23.3529666072
 20
7.8610198589
 30
0.0
 10
23.3388208708
 20
7.8609658173
 30
0.0
 10
23.3246664977
 20
7.8609127393
 30
0.0
 10
23.310503687
 20
7.8609367278
 30
0.0
 10
23.2963268345
 20
7.8610370953
 30
0.0
 10
23.2785979385
 20
7.86137587
 30
0.0
 10
23.2573354507
 20
7.8623496396
 30
0.0
 10
23.2431899366
 20
7.8635335966
 30
0.0
 10
23.2361359587
 20
7.8642903932
 30
0.0
  0
SPLINE
  5
495
100
AcDbEntity
  8
0
100
AcDbSpline
 62
7
  6
CONTINUOUS
 70
0
 71
3
 72
19
 73
15
 74
0
 42
0.0000001
 43
0.0000001
 44
0.0000000001
 40
0.0
 40
0.0
 40
0.0
 40
0.0
 40
0.0512021352
 40
0.1043394749
 40
0.1593294906
 40
0.2160853539
 40
0.2745167609
 40
0.3345305832
 40
0.3960313885
 40
0.4589218617
 40
0.588474597
 40
0.7223851171
 40
0.8598355315
 40
1.0
 40
1.0
 40
1.0
 40
1.0
 10
23.7453809399
 20
8.42924999
 30
0.0
 10
23.7403063298
 20
8.4297318149
 30
0.0
 10
23.7299545426
 20
8.4306024807
 30
0.0
 10
23.7141258207
 20
8.4316413393
 30
0.0
 10
23.6977303364
 20
8.4324535892
 30
0.0
 10
23.6807985195
 20
8.4330548904
 30
0.0
 10
23.6633607082
 20
8.4334609222
 30
0.0
 10
23.6454473052
 20
8.4336873599
 30
0.0
 10
23.6270887195
 20
8.433749945
 30
0.0
 10
23.6018073477
 20
8.4336344929
 30
0.0
 10
23.5693199245
 20
8.433151773
 30
0.0
 10
23.5294184717
 20
8.4321779694
 30
0.0
 10
23.488467947
 20
8.4309283088
 30
0.0
 10
23.4608455009
 20
8.430001889
 30
0.0
 10
23.4468992935
 20
8.4295330601
 30
0.0
  0
SPLINE
  5
496
100
AcDbEntity
  8
0
100
AcDbSpline
 62
9
  6
CONTINUOUS
 70
0
 71
3
 72
19
 73
15
 74
0
 42
0.0000001
 43
0.0000001
 44
0.0000000001
 40
0.0
 40
0.0
 40
0.0
 40
0.0
 40
0.0568087567
 40
0.1138248272
 40
0.1712187102
 40
0.2291421105
 40
0.3470123297
 40
0.4685008497
 40
0.5309159706
 40
0.594507436
 40
0.6592925853
 40
0.7252610372
 40
0.8605405921
 40
1.0
 40
1.0
 40
1.0
 40
1.0
 10
23.7130953794
 20
9.846997545
 30
0.0
 10
23.7130952866
 20
9.8482961803
 30
0.0
 10
23.7129775892
 20
9.8508996464
 30
0.0
 10
23.7124551465
 20
9.8547833937
 30
0.0
 10
23.7115926945
 20
9.8586325184
 30
0.0
 10
23.7099892577
 20
9.8637218947
 30
0.0
 10
23.7071400335
 20
9.8699271686
 30
0.0
 10
23.7032859357
 20
9.875684228
 30
0.0
 10
23.6996209317
 20
9.8799999704
 30
0.0
 10
23.6965604327
 20
9.8831127222
 30
0.0
 10
23.6932313701
 20
9.8860597893
 30
0.0
 10
23.6884182841
 20
9.8897832896
 30
0.0
 10
23.6818122759
 20
9.893948107
 30
0.0
 10
23.676123539
 20
9.8966478118
 30
0.0
 10
23.6731702601
 20
9.8978484594
 30
0.0
  0
SPLINE
  5
497
100
AcDbEntity
  8
0
100
AcDbSpline
 62
9
  6
CONTINUOUS
 70
0
 71
3
 72
27
 73
23
 74
0
 42
0.0000001
 43
0.0000001
 44
0.0000000001
 40
0.0
 40
0.0
 40
0.0
 40
0.0
 40
0.0267072807
 40
0.0534638183
 40
0.0803181271
 40
0.1073172627
 40
0.1345061484
 40
0.1619269599
 40
0.1896186143
 40
0.2176163402
 40
0.24595133
 40
0.2746504724
 40
0.3332049287
 40
0.393428265
 40
0.4553740602
 40
0.5190281229
 40
0.5843141934
 40
0.6511011447
 40
0.7192105564
 40
0.7884247773
 40
0.8584947871
 40
1.0
 40
1.0
 40
1.0
 40
1.0
 10
4.8611359587
 20
6.5967472118
 30
0.0
 10
4.8611359587
 20
6.6013624181
 30
0.0
 10
4.8614378773
 20
6.6106041734
 30
0.0
 10
4.862794926
 20
6.6244265657
 30
0.0
 10
4.8650528957
 20
6.63818226
 30
0.0
 10
4.868206192
 20
6.6518370721
 30
0.0
 10
4.8722470402
 20
6.6653580845
 30
0.0
 10
4.8771654079
 20
6.6787125048
 30
0.0
 10
4.8829491876
 20
6.6918681041
 30
0.0
 10
4.8895841004
 20
6.7047930446
 30
0.0
 10
4.8970542604
 20
6.7174565416
 30
0.0
 10
4.9081754348
 20
6.7340596804
 30
0.0
 10
4.9241230491
 20
6.7540091268
 30
0.0
 10
4.9461217699
 20
6.7762510095
 30
0.0
 10
4.9709004216
 20
6.7967553268
 30
0.0
 10
4.9982178338
 20
6.8153270381
 30
0.0
 10
5.0278114097
 20
6.8317926046
 30
0.0
 10
5.0593976361
 20
6.8459969037
 30
0.0
 10
5.0926729396
 20
6.8578062271
 30
0.0
 10
5.1273236103
 20
6.8671094228
 30
0.0
 10
5.1750418515
 20
6.8760806403
 30
0.0
 10
5.2116828607
 20
6.8787709409
 30
0.0
 10
5.2361359587
 20
6.8787709409
 30
0.0
  0
SPLINE
  5
498
100
AcDbEntity
  8
0
100
AcDbSpline
 62
9
  6
CONTINUOUS
 70
0
 71
3
 72
27
 73
23
 74
0
 42
0.0000001
 43
0.0000001
 44
0.0000000001
 40
0.0
 40
0.0
 40
0.0
 40
0.0
 40
0.1415052129
 40
0.2115752227
 40
0.2807894436
 40
0.3488988553
 40
0.4156858066
 40
0.4809718771
 40
0.5446259398
 40
0.606571735
 40
0.6667950713
 40
0.7253495276
 40
0.75404867
 40
0.7823836598
 40
0.8103813857
 40
0.8380730401
 40
0.8654938516
 40
0.8926827373
 40
0.9196818729
 40
0.9465361817
 40
0.9732927193
 40
1.0
 40
1.0
 40
1.0
 40
1.0
 10
5.2361359587
 20
6.8787709409
 30
0.0
 10
5.2605890566
 20
6.8787709409
 30
0.0
 10
5.2972300659
 20
6.8760806403
 30
0.0
 10
5.344948307
 20
6.8671094228
 30
0.0
 10
5.3795989778
 20
6.8578062271
 30
0.0
 10
5.4128742812
 20
6.8459969037
 30
0.0
 10
5.4444605076
 20
6.8317926046
 30
0.0
 10
5.4740540835
 20
6.8153270381
 30
0.0
 10
5.5013714957
 20
6.7967553268
 30
0.0
 10
5.5261501474
 20
6.7762510095
 30
0.0
 10
5.5481488682
 20
6.7540091268
 30
0.0
 10
5.5640964825
 20
6.7340596804
 30
0.0
 10
5.5752176569
 20
6.7174565416
 30
0.0
 10
5.5826878169
 20
6.7047930446
 30
0.0
 10
5.5893227298
 20
6.6918681041
 30
0.0
 10
5.5951065094
 20
6.6787125048
 30
0.0
 10
5.6000248771
 20
6.6653580845
 30
0.0
 10
5.6040657253
 20
6.6518370721
 30
0.0
 10
5.6072190216
 20
6.63818226
 30
0.0
 10
5.6094769913
 20
6.6244265657
 30
0.0
 10
5.61083404
 20
6.6106041734
 30
0.0
 10
5.6111359587
 20
6.6013624181
 30
0.0
 10
5.6111359587
 20
6.5967472118
 30
0.0
  0
SPLINE
  5
499
100
AcDbEntity
  8
0
100
AcDbSpline
 62
9
  6
CONTINUOUS
 70
0
 71
3
 72
34
 73
30
 74
0
 42
0.0000001
 43
0.0000001
 44
0.0000000001
 40
0.0
 40
0.0
 40
0.0
 40
0.0
 40
0.0633363174
 40
0.1275985149
 40
0.1600058837
 40
0.1925466234
 40
0.2578704853
 40
0.2906024843
 40
0.3233310562
 40
0.3886281897
 40
0.4211543169
 40
0.4535558283
 40
0.4858055278
 40
0.5178798947
 40
0.5814095841
 40
0.612853722
 40
0.6440609672
 40
0.6750236389
 40
0.7057388975
 40
0.7362047741
 40
0.7664200493
 40
0.7963872935
 40
0.8261177328
 40
0.8556215171
 40
0.8849057342
 40
0.9139766932
 40
0.9428445059
 40
0.9715172989
 40
1.0
 40
1.0
 40
1.0
 40
1.0
 10
23.2361359587
 20
7.120759222
 30
0.0
 10
23.258797825
 20
7.1225728681
 30
0.0
 10
23.304346462
 20
7.1277325842
 30
0.0
 10
23.3608852214
 20
7.1381161559
 30
0.0
 10
23.4059832494
 20
7.148986467
 30
0.0
 10
23.4510078108
 20
7.1616401654
 30
0.0
 10
23.4953872921
 20
7.1769164556
 30
0.0
 10
23.5387740045
 20
7.1948734631
 30
0.0
 10
23.5813714451
 20
7.2146044503
 30
0.0
 10
23.6226237887
 20
7.2369834489
 30
0.0
 10
23.6621356478
 20
7.2619826618
 30
0.0
 10
23.6907462949
 20
7.2819582349
 30
0.0
 10
23.7182735651
 20
7.3031388273
 30
0.0
 10
23.7532867818
 20
7.3328268538
 30
0.0
 10
23.7858912102
 20
7.3648392558
 30
0.0
 10
23.8157328202
 20
7.3989305852
 30
0.0
 10
23.8365512503
 20
7.4253273295
 30
0.0
 10
23.8558053485
 20
7.452565197
 30
0.0
 10
23.8734535225
 20
7.4805563356
 30
0.0
 10
23.8894548283
 20
7.509213726
 30
0.0
 10
23.9037691507
 20
7.5384517815
 30
0.0
 10
23.9163566472
 20
7.5681873201
 30
0.0
 10
23.9272195478
 20
7.5983235234
 30
0.0
 10
23.9363632981
 20
7.628768922
 30
0.0
 10
23.9437936963
 20
7.6594335271
 30
0.0
 10
23.9495166064
 20
7.6902296976
 30
0.0
 10
23.9535553696
 20
7.7210701602
 30
0.0
 10
23.955934533
 20
7.7518698769
 30
0.0
 10
23.9564322327
 20
7.7723908326
 30
0.0
 10
23.9564099807
 20
7.7826145629
 30
0.0
  0
SPLINE
  5
49A
100
AcDbEntity
  8
0
100
AcDbSpline
 62
9
  6
CONTINUOUS
 70
0
 71
3
 72
83
 73
79
 74
0
 42
0.0000001
 43
0.0000001
 44
0.0000000001
 40
0.0
 40
0.0
 40
0.0
 40
0.0
 40
0.0078827092
 40
0.0158140386
 40
0.023636148
 40
0.0274586758
 40
0.0311978481
 40
0.0330310266
 40
0.0348402277
 40
0.0383984593
 40
0.0418958766
 40
0.045354863
 40
0.0522432822
 40
0.0557143871
 40
0.0592307989
 40
0.0610124155
 40
0.0628115917
 40
0.0664575904
 40
0.070157645
 40
0.073900279
 40
0.0814671721
 40
0.0852684712
 40
0.0890665378
 40
0.092850844
 40
0.0966188788
 40
0.1041182062
 40
0.1115888592
 40
0.1190542174
 40
0.1227918454
 40
0.1265342822
 40
0.1340304747
 40
0.1490464857
 40
0.1640632593
 40
0.1790836678
 40
0.1941210303
 40
0.2091790786
 40
0.224259337
 40
0.2393662696
 40
0.2696692314
 40
0.3000873749
 40
0.3306210533
 40
0.3612812432
 40
0.3920796798
 40
0.4230113765
 40
0.43852581
 40
0.4540763406
 40
0.4696663318
 40
0.4852896903
 40
0.5009411897
 40
0.5166268254
 40
0.5323524849
 40
0.5481149036
 40
0.5797347551
 40
0.6114855147
 40
0.6433662435
 40
0.6593537231
 40
0.6753701427
 40
0.7074829067
 40
0.7396990887
 40
0.7558454172
 40
0.7720150522
 40
0.8044159295
 40
0.8368911792
 40
0.8531545931
 40
0.869431427
 40
0.885720062
 40
0.9020230853
 40
0.9183395382
 40
0.9264985316
 40
0.9346554441
 40
0.9428100849
 40
0.950967342
 40
0.9591325431
 40
0.9673103275
 40
0.9755010521
 40
0.9836878864
 40
0.9918549771
 40
1.0
 40
1.0
 40
1.0
 40
1.0
 10
24.2011359578
 20
7.6526892315
 30
0.0
 10
24.2012762928
 20
7.6488803473
 30
0.0
 10
24.20156008
 20
7.641239131
 30
0.0
 10
24.201867416
 20
7.6298143336
 30
0.0
 10
24.2019203837
 20
7.6203476024
 30
0.0
 10
24.2017680834
 20
7.6129103263
 30
0.0
 10
24.2015788731
 20
7.6083711547
 30
0.0
 10
24.201360409
 20
7.6048086009
 30
0.0
 10
24.2011018027
 20
7.6013364751
 30
0.0
 10
24.20070566
 20
7.5970680512
 30
0.0
 10
24.2001298441
 20
7.5920164125
 30
0.0
 10
24.199260308
 20
7.5853785875
 30
0.0
 10
24.1982715412
 20
7.5787702721
 30
0.0
 10
24.1972564874
 20
7.572138223
 30
0.0
 10
24.1966263731
 20
7.5679451984
 30
0.0
 10
24.1961355938
 20
7.5645488047
 30
0.0
 10
24.1956509282
 20
7.5610882528
 30
0.0
 10
24.195060508
 20
7.5567058939
 30
0.0
 10
24.1943680046
 20
7.5513891636
 30
0.0
 10
24.1934445626
 20
7.5441906876
 30
0.0
 10
24.1925103642
 20
7.5369441772
 30
0.0
 10
24.1915181743
 20
7.5296783321
 30
0.0
 10
24.1907339801
 20
7.5242301482
 30
0.0
 10
24.1898980073
 20
7.518805904
 30
0.0
 10
24.188714143
 20
7.5116249044
 30
0.0
 10
24.1871103761
 20
7.50270715
 30
0.0
 10
24.1850077683
 20
7.4920644351
 30
0.0
 10
24.1831291996
 20
7.4832326124
 30
0.0
 10
24.1815639003
 20
7.4761776993
 30
0.0
 10
24.1799553133
 20
7.4691172191
 30
0.0
 10
24.1770253843
 20
7.4567649993
 30
0.0
 10
24.1725067306
 20
7.4391880691
 30
0.0
 10
24.1664879872
 20
7.418248784
 30
0.0
 10
24.1598905959
 20
7.397473991
 30
0.0
 10
24.152739709
 20
7.3768621468
 30
0.0
 10
24.1450371768
 20
7.3564191094
 30
0.0
 10
24.1367843167
 20
7.3361555063
 30
0.0
 10
24.1250474135
 20
7.3093624586
 30
0.0
 10
24.1090415396
 20
7.2763562767
 30
0.0
 10
24.0877484571
 20
7.237688281
 30
0.0
 10
24.0643959392
 20
7.2000242522
 30
0.0
 10
24.039045025
 20
7.1634519107
 30
0.0
 10
24.011769967
 20
7.1280490341
 30
0.0
 10
23.9875067532
 20
7.0996311418
 30
0.0
 10
23.9671890405
 20
7.0775867911
 30
0.0
 10
23.9514948041
 20
7.0613790558
 30
0.0
 10
23.9353812802
 20
7.0455131615
 30
0.0
 10
23.9188444433
 20
7.0300170219
 30
0.0
 10
23.9018785845
 20
7.0149221541
 30
0.0
 10
23.884509619
 20
7.0002168379
 30
0.0
 10
23.866763038
 20
6.9858839055
 30
0.0
 10
23.8425748043
 20
6.967277724
 30
0.0
 10
23.8114004641
 20
6.9450642095
 30
0.0
 10
23.7726474389
 20
6.9201468457
 30
0.0
 10
23.7393097092
 20
6.9008634804
 30
0.0
 10
23.7120426465
 20
6.8863435967
 30
0.0
 10
23.6843431276
 20
6.8724149775
 30
0.0
 10
23.6490306277
 20
6.8561845365
 30
0.0
 10
23.612942928
 20
6.8415922962
 30
0.0
 10
23.5836293331
 20
6.8308931757
 30
0.0
 10
23.5539950622
 20
6.8208358081
 30
0.0
 10
23.5164653523
 20
6.8095086261
 30
0.0
 10
23.478414591
 20
6.7998919596
 30
0.0
 10
23.4476909563
 20
6.7932249195
 30
0.0
 10
23.4245076365
 20
6.7887457305
 30
0.0
 10
23.4012082031
 20
6.7848006391
 30
0.0
 10
23.3778098769
 20
6.7813613665
 30
0.0
 10
23.3582461675
 20
6.7788903353
 30
0.0
 10
23.3425571369
 20
6.7772086835
 30
0.0
 10
23.3307757157
 20
6.7761102074
 30
0.0
 10
23.3189798672
 20
6.775191273
 30
0.0
 10
23.3071710652
 20
6.7743989037
 30
0.0
 10
23.2953466749
 20
6.7736764965
 30
0.0
 10
23.2835051116
 20
6.772969888
 30
0.0
 10
23.2716558258
 20
6.7722193861
 30
0.0
 10
23.2598017141
 20
6.7716276684
 30
0.0
 10
23.2479553924
 20
6.7714050624
 30
0.0
 10
23.2400662613
 20
6.7716434505
 30
0.0
 10
23.2361359587
 20
6.7718943563
 30
0.0
  0
SPLINE
  5
49B
100
AcDbEntity
  8
0
100
AcDbSpline
 62
9
  6
CONTINUOUS
 70
0
 71
3
 72
26
 73
22
 74
0
 42
0.0000001
 43
0.0000001
 44
0.0000000001
 40
0.0
 40
0.0
 40
0.0
 40
0.0
 40
0.062746376
 40
0.1258461705
 40
0.1893196811
 40
0.2531262038
 40
0.317216108
 40
0.3814903801
 40
0.4458380339
 40
0.5101106755
 40
0.5741507455
 40
0.606040203
 40
0.6378049662
 40
0.700848782
 40
0.7320979091
 40
0.7631225046
 40
0.8243778254
 40
0.8545792643
 40
0.8844528176
 40
0.9430745377
 40
1.0
 40
1.0
 40
1.0
 40
1.0
 10
23.2361359587
 20
7.1961218233
 30
0.0
 10
23.2566104477
 20
7.1961218233
 30
0.0
 10
23.2976985897
 20
7.1979352738
 30
0.0
 10
23.35900028
 20
7.2062193244
 30
0.0
 10
23.4196144056
 20
7.2202351332
 30
0.0
 10
23.4789563749
 20
7.2399740614
 30
0.0
 10
23.5363778877
 20
7.2654093146
 30
0.0
 10
23.5912553945
 20
7.2963130392
 30
0.0
 10
23.6429206321
 20
7.3324381265
 30
0.0
 10
23.690790691
 20
7.3733389235
 30
0.0
 10
23.72708057
 20
7.4110902192
 30
0.0
 10
23.7537053304
 20
7.4431599929
 30
0.0
 10
23.7785482891
 20
7.4762220603
 30
0.0
 10
23.8008388889
 20
7.510882216
 30
0.0
 10
23.8204410175
 20
7.5467835038
 30
0.0
 10
23.8380598075
 20
7.5830513586
 30
0.0
 10
23.8529510027
 20
7.6202141875
 30
0.0
 10
23.8651227391
 20
7.6578982668
 30
0.0
 10
23.8753651429
 20
7.6952631743
 30
0.0
 10
23.8848740117
 20
7.7418158588
 30
0.0
 10
23.8892366212
 20
7.7793188068
 30
0.0
 10
23.8905886083
 20
7.7978446321
 30
0.0
  0
SPLINE
  5
49C
100
AcDbEntity
  8
0
100
AcDbSpline
 62
7
  6
CONTINUOUS
 70
0
 71
3
 72
23
 73
19
 74
0
 42
0.0000001
 43
0.0000001
 44
0.0000000001
 40
0.0
 40
0.0
 40
0.0
 40
0.0
 40
0.0614174201
 40
0.1228769763
 40
0.1844191075
 40
0.2460809226
 40
0.3078947284
 40
0.3698867739
 40
0.4320762784
 40
0.4944747157
 40
0.5570854811
 40
0.6199037788
 40
0.6829169279
 40
0.7461049586
 40
0.8094413314
 40
0.8728939653
 40
0.9364262858
 40
1.0
 40
1.0
 40
1.0
 40
1.0
 10
4.8611359683
 20
1.3638400913
 30
0.0
 10
4.8611359684
 20
1.3519901344
 30
0.0
 10
4.8623427288
 20
1.3282644579
 30
0.0
 10
4.8677547698
 20
1.2930375138
 30
0.0
 10
4.8767166666
 20
1.2584900857
 30
0.0
 10
4.8891413795
 20
1.224960181
 30
0.0
 10
4.904908792
 20
1.1927698389
 30
0.0
 10
4.9238661424
 20
1.1622294549
 30
0.0
 10
4.945830321
 20
1.1336330764
 30
0.0
 10
4.9705889883
 20
1.1072557011
 30
0.0
 10
4.9979033313
 20
1.0833510307
 30
0.0
 10
5.0275098029
 20
1.0621485409
 30
0.0
 10
5.0591232006
 20
1.0438519361
 30
0.0
 10
5.0924390693
 20
1.0286365754
 30
0.0
 10
5.127136535
 20
1.0166485541
 30
0.0
 10
5.1628828375
 20
1.0080026132
 30
0.0
 10
5.1993300433
 20
1.0027817085
 30
0.0
 10
5.2238699636
 20
1.0016179064
 30
0.0
 10
5.2361359587
 20
1.0016179064
 30
0.0
  0
SPLINE
  5
49D
100
AcDbEntity
  8
0
100
AcDbSpline
 62
9
  6
CONTINUOUS
 70
0
 71
3
 72
23
 73
19
 74
0
 42
0.0000001
 43
0.0000001
 44
0.0000000001
 40
0.0
 40
0.0
 40
0.0
 40
0.0
 40
0.0614174215
 40
0.1228769812
 40
0.1844191158
 40
0.2460809313
 40
0.3078947397
 40
0.3698867924
 40
0.4320763044
 40
0.4944747502
 40
0.5570855094
 40
0.6199038012
 40
0.6829169632
 40
0.7461049866
 40
0.8094413462
 40
0.8728939908
 40
0.9364263079
 40
1.0
 40
1.0
 40
1.0
 40
1.0
 10
5.6111359587
 20
1.4427799
 30
0.0
 10
5.6111359587
 20
1.4309299427
 30
0.0
 10
5.609929198
 20
1.407204265
 30
0.0
 10
5.6045171564
 20
1.3719773188
 30
0.0
 10
5.5955552585
 20
1.3374298889
 30
0.0
 10
5.5831305442
 20
1.3038999829
 30
0.0
 10
5.5673631296
 20
1.271709639
 30
0.0
 10
5.548405776
 20
1.2411692525
 30
0.0
 10
5.5264415929
 20
1.2125728711
 30
0.0
 10
5.5016829222
 20
1.1861954956
 30
0.0
 10
5.4743685777
 20
1.1622908273
 30
0.0
 10
5.4447621044
 20
1.1410883388
 30
0.0
 10
5.4131487051
 20
1.1227917358
 30
0.0
 10
5.3798328363
 20
1.1075763777
 30
0.0
 10
5.3451353714
 20
1.0955883583
 30
0.0
 10
5.309389069
 20
1.0869424192
 30
0.0
 10
5.2729418654
 20
1.0817215166
 30
0.0
 10
5.2484019496
 20
1.0805577152
 30
0.0
 10
5.2361359587
 20
1.0805577152
 30
0.0
  0
SPLINE
  5
49E
100
AcDbEntity
  8
0
100
AcDbSpline
 62
7
  6
CONTINUOUS
 70
0
 71
3
 72
11
 73
7
 74
0
 42
0.0000001
 43
0.0000001
 44
0.0000000001
 40
0.0
 40
0.0
 40
0.0
 40
0.0
 40
0.2478167261
 40
0.4965214374
 40
0.7469787262
 40
1.0
 40
1.0
 40
1.0
 40
1.0
 10
23.7261359587
 20
12.2845197145
 30
0.0
 10
23.7261359587
 20
12.2934897512
 30
0.0
 10
23.7252930476
 20
12.3114731506
 30
0.0
 10
23.7215086211
 20
12.3382826848
 30
0.0
 10
23.7152252157
 20
12.364811851
 30
0.0
 10
23.7094254355
 20
12.382118664
 30
0.0
 10
23.7061359587
 20
12.3906659462
 30
0.0
  0
SPLINE
  5
49F
100
AcDbEntity
  8
0
100
AcDbSpline
 62
9
  6
CONTINUOUS
 70
0
 71
3
 72
51
 73
47
 74
0
 42
0.0000001
 43
0.0000001
 44
0.0000000001
 40
0.0
 40
0.0
 40
0.0
 40
0.0
 40
0.0135005649
 40
0.0270242964
 40
0.0405930637
 40
0.0542291302
 40
0.067953195
 40
0.0817849466
 40
0.0957425345
 40
0.1098424395
 40
0.1240993018
 40
0.1385257958
 40
0.1531325513
 40
0.167928107
 40
0.1980993396
 40
0.2290767707
 40
0.2608551481
 40
0.2933999423
 40
0.3266505251
 40
0.3605237349
 40
0.3949175777
 40
0.4297150122
 40
0.4647877475
 40
0.5
 40
0.5352122525
 40
0.5702849878
 40
0.6050824223
 40
0.6394762651
 40
0.6733494749
 40
0.7066000577
 40
0.7391448519
 40
0.7709232293
 40
0.8019006604
 40
0.832071893
 40
0.8468674487
 40
0.8614742042
 40
0.8759006982
 40
0.8901575605
 40
0.9042574655
 40
0.9182150534
 40
0.932046805
 40
0.9457708698
 40
0.9594069363
 40
0.9729757036
 40
0.9864994351
 40
1.0
 40
1.0
 40
1.0
 40
1.0
 10
22.7661359587
 20
12.0659719272
 30
0.0
 10
22.7661359587
 20
12.0718636746
 30
0.0
 10
22.7665143085
 20
12.0836607614
 30
0.0
 10
22.7682148193
 20
12.101305585
 30
0.0
 10
22.7710444719
 20
12.1188653925
 30
0.0
 10
22.7749960449
 20
12.1362964851
 30
0.0
 10
22.7800599293
 20
12.1535569771
 30
0.0
 10
22.7862235774
 20
12.1706049754
 30
0.0
 10
22.7934718731
 20
12.1873993112
 30
0.0
 10
22.801787017
 20
12.2038994554
 30
0.0
 10
22.8111487005
 20
12.2200656923
 30
0.0
 10
22.8215339823
 20
12.2358590309
 30
0.0
 10
22.8329180056
 20
12.2512419164
 30
0.0
 10
22.849495947
 20
12.2712826927
 30
0.0
 10
22.8726257549
 20
12.2951091196
 30
0.0
 10
22.9036795979
 20
12.3212875583
 30
0.0
 10
22.9379187103
 20
12.3450018091
 30
0.0
 10
22.9750113784
 20
12.3660262264
 30
0.0
 10
23.0146021943
 20
12.3841637063
 30
0.0
 10
23.0563118279
 20
12.3992430519
 30
0.0
 10
23.0997412209
 20
12.4111219464
 30
0.0
 10
23.1444749618
 20
12.4196881394
 30
0.0
 10
23.1900852666
 20
12.4248605192
 30
0.0
 10
23.2361359587
 20
12.4265900899
 30
0.0
 10
23.2821866507
 20
12.4248605192
 30
0.0
 10
23.3277969555
 20
12.4196881394
 30
0.0
 10
23.3725306964
 20
12.4111219464
 30
0.0
 10
23.4159600894
 20
12.3992430519
 30
0.0
 10
23.457669723
 20
12.3841637063
 30
0.0
 10
23.4972605389
 20
12.3660262264
 30
0.0
 10
23.5343532071
 20
12.3450018091
 30
0.0
 10
23.5685923194
 20
12.3212875583
 30
0.0
 10
23.5996461624
 20
12.2951091196
 30
0.0
 10
23.6227759703
 20
12.2712826927
 30
0.0
 10
23.6393539117
 20
12.2512419164
 30
0.0
 10
23.650737935
 20
12.2358590309
 30
0.0
 10
23.6611232169
 20
12.2200656923
 30
0.0
 10
23.6704849003
 20
12.2038994554
 30
0.0
 10
23.6788000442
 20
12.1873993112
 30
0.0
 10
23.68604834
 20
12.1706049754
 30
0.0
 10
23.692211988
 20
12.1535569771
 30
0.0
 10
23.6972758724
 20
12.1362964851
 30
0.0
 10
23.7012274454
 20
12.1188653925
 30
0.0
 10
23.704057098
 20
12.101305585
 30
0.0
 10
23.7057576088
 20
12.0836607614
 30
0.0
 10
23.7061359587
 20
12.0718636746
 30
0.0
 10
23.7061359587
 20
12.0659719272
 30
0.0
  0
ENDSEC
  0
SECTION
  2
OBJECTS
  0
DICTIONARY
  5
C
100
AcDbDictionary
280
0
281
1
  3
ACAD_GROUP
350
D
  3
ACAD_MLINESTYLE
350
17
  3
ACAD_LAYOUT
350
1A
  3
ACAD_PLOTSETTINGS
350
19
  3
ACAD_PLOTSTYLENAME
350
E
  0
DICTIONARY
  5
D
102
{ACAD_REACTORS
330
C
102
}
100
AcDbDictionary
280
0
281
1
  0
ACDBDICTIONARYWDFLT
  5
E
102
{ACAD_REACTORS
330
C
102
}
100
AcDbDictionary
281
1
  3
Normal
350
F
100
AcDbDictionaryWithDefault
340
F
  0
DICTIONARY
  5
17
102
{ACAD_REACTORS
330
C
102
}
100
AcDbDictionary
280
0
281
1
  3
Standard
350
18
  0
DICTIONARY
  5
19
102
{ACAD_REACTORS
330
C
102
}
100
AcDbDictionary
281
1
  0
DICTIONARY
  5
1A
102
{ACAD_REACTORS
330
C
102
}
100
AcDbDictionary
281
1
  3
Model
350
4A0
  3
Layout1
350
4A1
  0
ACDBPLACEHOLDER
  5
F
102
{ACAD_REACTORS
330
E
102
}
  0
MLINESTYLE
  5
18
102
{ACAD_REACTORS
330
17
102
}
100
AcDbMlineStyle
  2
STANDARD
 70
0
  3

 62
256
 51
90.0
 52
90.0
 71
2
 49
0.5
 62
256
  6
BYLAYER
 49
-0.5
 62
256
  6
BYLAYER
  0
LAYOUT
  5
4A0
102
{ACAD_REACTORS
330
1A
102
}
100
AcDbPlotSettings
  1

  2
none_device
  4
ANSI_C_(22.00_x_17.00_Inches)
  6

 40
0.0
 41
0.0
 42
0.0
 43
0.0
 44
558.8
 45
431.8
 46
0.0
 47
0.0
 48
0.0
 49
0.0
140
0.0
141
0.0
142
1.0
143
1.0
 70
1024
 72
0
 73
0
 74
0
  7

 75
0
147
1.0
148
0.0
149
0.0
100
AcDbLayout
  1
Model
 70
0
 71
0
 10
0.0
 20
0.0
 11
22.0
 21
17.0
 12
0.0
 22
0.0
 32
0.0
 14
0.0
 24
0.0
 34
0.0
 15
0.0
 25
0.0
 35
0.0
146
0.0
 13
0.0
 23
0.0
 33
0.0
 16
1.0
 26
0.0
 36
0.0
 17
0.0
 27
1.0
 37
0.0
 76
0
330
205
345
0
346
0
  0
LAYOUT
  5
4A1
102
{ACAD_REACTORS
330
1A
102
}
100
AcDbPlotSettings
  1

  2
none_device
  4
ANSI_C_(22.00_x_17.00_Inches)
  6

 40
0.0
 41
0.0
 42
0.0
 43
0.0
 44
558.8
 45
431.8
 46
0.0
 47
0.0
 48
0.0
 49
0.0
140
0.0
141
0.0
142
1.0
143
1.0
 70
0
 72
0
 73
0
 74
0
  7

 75
0
147
1.0
148
0.0
149
0.0
100
AcDbLayout
  1
Layout1
 70
0
 71
1
 10
0.0
 20
0.0
 11
22.0
 21
17.0
 12
0.0
 22
0.0
 32
0.0
 14
0.0
 24
0.0
 34
0.0
 15
0.0
 25
0.0
 35
0.0
146
0.0
 13
0.0
 23
0.0
 33
0.0
 16
1.0
 26
0.0
 36
0.0
 17
0.0
 27
1.0
 37
0.0
 76
0
330
206
345
0
346
0
  0
ENDSEC
  0
EOF
