999
DXF file: 3-1044bp_top.dxf
999
Pro/ENGINEER 2013150 by Parametric Technology Corporation
  0
SECTION
  2
HEADER
  9
$ACADVER
  1
AC1021
  9
$DWGCODEPAGE
  3
ANSI_1252
  9
$EXTMAX
 10
11.0
 20
8.5
 30
0.0
  9
$EXTMIN
 10
0.0
 20
0.0
 30
0.0
  9
$LIMMIN
 10
0.0
 20
0.0
  9
$LIMMAX
 10
11.0
 20
8.5
  9
$VIEWCTR
 10
5.5
 20
4.25
  9
$VIEWSIZE
 40
8.5
  9
$CLAYER
  8
0
  9
$LTSCALE
 40
0.605
  9
$CELTYPE
  6
BYLAYER
  9
$DIMSCALE
 40
1.0
  9
$DIMASZ
 40
0.1
  9
$DIMEXO
 40
0.0625
  9
$DIMDLI
 40
0.418
  9
$DIMEXE
 40
0.125
  9
$DIMCEN
 40
0.099
  9
$DIMLFAC
 40
1.0
  9
$DIMBLK
  1
_FILLED
  9
$DIMTXT
 40
0.08
  9
$DIMTOL
 70
1
  9
$DIMLIM
 70
0
  9
$DIMTFAC
 40
1.0
  9
$DIMTP
 40
0.001
  9
$DIMTM
 40
0.001
  9
$DIMGAP
 40
0.09
  9
$DIMDSEP
 70
46
  9
$PDMODE
 70
3
  9
$PDSIZE
 40
0.06
  9
$HANDSEED
  5
415
  9
$TILEMODE
 70
1
  9
$MEASUREMENT
 70
0
  9
$INSUNITS
 70
1
  0
ENDSEC
  0
SECTION
  2
CLASSES
  0
CLASS
  1
ACDBDICTIONARYWDFLT
  2
AcDbDictionaryWithDefault
  3
AutoCAD 2000
 90
0
 91
1
280
0
281
0
  0
CLASS
  1
ACDBPLACEHOLDER
  2
AcDbPlaceHolder
  3
AutoCAD 2000
 90
0
 91
1
280
0
281
0
  0
CLASS
  1
LAYOUT
  2
AcDbLayout
  3
AutoCAD 2000
 90
0
 91
0
280
0
281
0
  0
ENDSEC
  0
SECTION
  2
TABLES
  0
TABLE
  2
VPORT
  5
8
100
AcDbSymbolTable
 70
2
  0
VPORT
  5
1F4
100
AcDbSymbolTableRecord
100
AcDbViewportTableRecord
  2
*ACTIVE
 70
0
 10
0.0
 20
0.0
 11
1.0
 21
1.0
 12
5.5
 22
4.25
 13
0.0
 23
0.0
 14
1.0
 24
1.0
 15
0.0
 25
0.0
 16
0.0
 26
0.0
 36
1.0
 17
0.0
 27
0.0
 37
0.0
 40
8.5
 41
1.2941176471
 42
50.0
 43
0.0
 44
0.0
 50
0.0
 51
0.0
 71
0
 72
100
 73
1
 74
1
 75
0
 76
0
 77
0
 78
0
  0
ENDTAB
  0
TABLE
  2
LTYPE
  5
5
100
AcDbSymbolTable
 70
6
  0
LTYPE
  5
14
100
AcDbSymbolTableRecord
100
AcDbLinetypeTableRecord
  2
BYBLOCK
 70
0
  3

 72
65
 73
0
 40
0.0
  0
LTYPE
  5
15
100
AcDbSymbolTableRecord
100
AcDbLinetypeTableRecord
  2
BYLAYER
 70
0
  3

 72
65
 73
0
 40
0.0
  0
LTYPE
  5
16
100
AcDbSymbolTableRecord
100
AcDbLinetypeTableRecord
  2
CONTINUOUS
 70
64
  3
Solid line
 72
65
 73
0
 40
0.0
  0
LTYPE
  5
1F5
100
AcDbSymbolTableRecord
100
AcDbLinetypeTableRecord
  2
CENTER
 70
64
  3
____ _ ____ _ ____ _ ____ _ ____ _ ____ _ ____
 72
65
 73
4
 40
0.6
 49
0.375
 74
0
 49
-0.075
 74
0
 49
0.075
 74
0
 49
-0.075
 74
0
  0
LTYPE
  5
1F6
100
AcDbSymbolTableRecord
100
AcDbLinetypeTableRecord
  2
HIDDEN
 70
64
  3
- - - - - - - - - - - - - - - - - - - -
 72
65
 73
2
 40
0.2
 49
0.1
 74
0
 49
-0.1
 74
0
  0
LTYPE
  5
1F7
100
AcDbSymbolTableRecord
100
AcDbLinetypeTableRecord
  2
PHANTOM
 70
64
  3
_____ _ _ _____ _ _ _____ _ _ _____
 72
65
 73
6
 40
0.8
 49
0.45
 74
0
 49
-0.05
 74
0
 49
0.1
 74
0
 49
-0.05
 74
0
 49
0.1
 74
0
 49
-0.05
 74
0
  0
LTYPE
  5
1F8
100
AcDbSymbolTableRecord
100
AcDbLinetypeTableRecord
  2
DOT
 70
64
  3
. . . . . . . . . . . . . . . . . . . .
 72
65
 73
2
 40
0.2
 49
0.1
 74
0
 49
-0.1
 74
0
  0
LTYPE
  5
1F9
100
AcDbSymbolTableRecord
100
AcDbLinetypeTableRecord
  2
DASHED
 70
64
  3
- - - - - - - - - - - - - - - - - - - -
 72
65
 73
2
 40
0.2
 49
0.1
 74
0
 49
-0.1
 74
0
  0
ENDTAB
  0
TABLE
  2
LAYER
  5
2
100
AcDbSymbolTable
 70
36
  0
LAYER
  5
10
100
AcDbSymbolTableRecord
100
AcDbLayerTableRecord
  2
0
 70
0
 62
7
  6
CONTINUOUS
370
-3
390
F
  0
LAYER
  5
1FA
100
AcDbSymbolTableRecord
100
AcDbLayerTableRecord
  2
DEFAULT_1
 70
0
 62
7
  6
CENTER
370
-3
390
F
  0
LAYER
  5
1FB
100
AcDbSymbolTableRecord
100
AcDbLayerTableRecord
  2
DEFAULT_2
 70
0
 62
8
  6
HIDDEN
370
-3
390
F
  0
LAYER
  5
1FC
100
AcDbSymbolTableRecord
100
AcDbLayerTableRecord
  2
DEFAULT_3
 70
0
 62
7
  6
PHANTOM
370
-3
390
F
  0
LAYER
  5
1FD
100
AcDbSymbolTableRecord
100
AcDbLayerTableRecord
  2
_  SHELL
 70
0
 62
7
  6
CONTINUOUS
370
-3
390
F
  0
LAYER
  5
1FE
100
AcDbSymbolTableRecord
100
AcDbLayerTableRecord
  2
06___PRT_ALL_SURFS_15
 70
0
 62
7
  6
CONTINUOUS
370
-3
390
F
  0
LAYER
  5
1FF
100
AcDbSymbolTableRecord
100
AcDbLayerTableRecord
  2
11_9
 70
0
 62
7
  6
CONTINUOUS
370
-3
390
F
  0
LAYER
  5
200
100
AcDbSymbolTableRecord
100
AcDbLayerTableRecord
  2
1451A0A-0Z1-01
 70
0
 62
7
  6
CONTINUOUS
370
-3
390
F
  0
LAYER
  5
201
100
AcDbSymbolTableRecord
100
AcDbLayerTableRecord
  2
1451A0A-0Z1-02
 70
0
 62
7
  6
CONTINUOUS
370
-3
390
F
  0
LAYER
  5
202
100
AcDbSymbolTableRecord
100
AcDbLayerTableRecord
  2
1451A0A-0Z1-02_1
 70
0
 62
7
  6
CONTINUOUS
370
-3
390
F
  0
LAYER
  5
203
100
AcDbSymbolTableRecord
100
AcDbLayerTableRecord
  2
1451A0A-0Z1-03
 70
0
 62
7
  6
CONTINUOUS
370
-3
390
F
  0
LAYER
  5
204
100
AcDbSymbolTableRecord
100
AcDbLayerTableRecord
  2
1451A0A-0Z1-04
 70
0
 62
7
  6
CONTINUOUS
370
-3
390
F
  0
LAYER
  5
205
100
AcDbSymbolTableRecord
100
AcDbLayerTableRecord
  2
1451A0A-0Z1-05
 70
0
 62
7
  6
CONTINUOUS
370
-3
390
F
  0
LAYER
  5
206
100
AcDbSymbolTableRecord
100
AcDbLayerTableRecord
  2
1451A0A-0Z1-06
 70
0
 62
7
  6
CONTINUOUS
370
-3
390
F
  0
LAYER
  5
207
100
AcDbSymbolTableRecord
100
AcDbLayerTableRecord
  2
1451A0A-0Z1-07
 70
0
 62
7
  6
CONTINUOUS
370
-3
390
F
  0
LAYER
  5
208
100
AcDbSymbolTableRecord
100
AcDbLayerTableRecord
  2
2-254_ASSY_PLANES
 70
0
 62
7
  6
CONTINUOUS
370
-3
390
F
  0
LAYER
  5
209
100
AcDbSymbolTableRecord
100
AcDbLayerTableRecord
  2
22_4
 70
0
 62
7
  6
CONTINUOUS
370
-3
390
F
  0
LAYER
  5
20A
100
AcDbSymbolTableRecord
100
AcDbLayerTableRecord
  2
22_5
 70
0
 62
7
  6
CONTINUOUS
370
-3
390
F
  0
LAYER
  5
20B
100
AcDbSymbolTableRecord
100
AcDbLayerTableRecord
  2
264X18
 70
0
 62
7
  6
CONTINUOUS
370
-3
390
F
  0
LAYER
  5
20C
100
AcDbSymbolTableRecord
100
AcDbLayerTableRecord
  2
3-238_ASSY_PLANES
 70
0
 62
7
  6
CONTINUOUS
370
-3
390
F
  0
LAYER
  5
20D
100
AcDbSymbolTableRecord
100
AcDbLayerTableRecord
  2
30X15
 70
0
 62
7
  6
CONTINUOUS
370
-3
390
F
  0
LAYER
  5
20E
100
AcDbSymbolTableRecord
100
AcDbLayerTableRecord
  2
315X18
 70
0
 62
7
  6
CONTINUOUS
370
-3
390
F
  0
LAYER
  5
20F
100
AcDbSymbolTableRecord
100
AcDbLayerTableRecord
  2
59X178
 70
0
 62
7
  6
CONTINUOUS
370
-3
390
F
  0
LAYER
  5
210
100
AcDbSymbolTableRecord
100
AcDbLayerTableRecord
  2
6X15
 70
0
 62
7
  6
CONTINUOUS
370
-3
390
F
  0
LAYER
  5
211
100
AcDbSymbolTableRecord
100
AcDbLayerTableRecord
  2
925X178
 70
0
 62
7
  6
CONTINUOUS
370
-3
390
F
  0
LAYER
  5
212
100
AcDbSymbolTableRecord
100
AcDbLayerTableRecord
  2
AA
 70
0
 62
7
  6
CONTINUOUS
370
-3
390
F
  0
LAYER
  5
213
100
AcDbSymbolTableRecord
100
AcDbLayerTableRecord
  2
ALL_ASSEMBLY_MEMBERS
 70
0
 62
7
  6
CONTINUOUS
370
-3
390
F
  0
LAYER
  5
214
100
AcDbSymbolTableRecord
100
AcDbLayerTableRecord
  2
ALL_FEATURES
 70
0
 62
7
  6
CONTINUOUS
370
-3
390
F
  0
LAYER
  5
215
100
AcDbSymbolTableRecord
100
AcDbLayerTableRecord
  2
AXES_FEATURES
 70
0
 62
7
  6
CONTINUOUS
370
-3
390
F
  0
LAYER
  5
216
100
AcDbSymbolTableRecord
100
AcDbLayerTableRecord
  2
CHAMFER_FEATURES
 70
0
 62
7
  6
CONTINUOUS
370
-3
390
F
  0
LAYER
  5
217
100
AcDbSymbolTableRecord
100
AcDbLayerTableRecord
  2
COLOR14
 70
0
 62
7
  6
CONTINUOUS
370
-3
390
F
  0
LAYER
  5
218
100
AcDbSymbolTableRecord
100
AcDbLayerTableRecord
  2
COLOR33
 70
0
 62
7
  6
CONTINUOUS
370
-3
390
F
  0
LAYER
  5
219
100
AcDbSymbolTableRecord
100
AcDbLayerTableRecord
  2
COLOR9
 70
0
 62
7
  6
CONTINUOUS
370
-3
390
F
  0
LAYER
  5
21A
100
AcDbSymbolTableRecord
100
AcDbLayerTableRecord
  2
CONSTR_CURVES
 70
0
 62
7
  6
CONTINUOUS
370
-3
390
F
  0
LAYER
  5
21B
100
AcDbSymbolTableRecord
100
AcDbLayerTableRecord
  2
CURVE
 70
0
 62
7
  6
CONTINUOUS
370
-3
390
F
  0
LAYER
  5
21C
100
AcDbSymbolTableRecord
100
AcDbLayerTableRecord
  2
CUT_FEATURES
 70
0
 62
7
  6
CONTINUOUS
370
-3
390
F
  0
LAYER
  5
21D
100
AcDbSymbolTableRecord
100
AcDbLayerTableRecord
  2
DATUM_CURVES
 70
0
 62
7
  6
CONTINUOUS
370
-3
390
F
  0
LAYER
  5
21E
100
AcDbSymbolTableRecord
100
AcDbLayerTableRecord
  2
DATUM_PLANES
 70
0
 62
7
  6
CONTINUOUS
370
-3
390
F
  0
LAYER
  5
21F
100
AcDbSymbolTableRecord
100
AcDbLayerTableRecord
  2
DATUM_POINTS
 70
0
 62
7
  6
CONTINUOUS
370
-3
390
F
  0
LAYER
  5
220
100
AcDbSymbolTableRecord
100
AcDbLayerTableRecord
  2
DEFAULT_COORDINATE_SYSTEM
 70
0
 62
7
  6
CONTINUOUS
370
-3
390
F
  0
LAYER
  5
221
100
AcDbSymbolTableRecord
100
AcDbLayerTableRecord
  2
DEFAULT_DATUM_AXES
 70
0
 62
7
  6
CONTINUOUS
370
-3
390
F
  0
LAYER
  5
222
100
AcDbSymbolTableRecord
100
AcDbLayerTableRecord
  2
DEFAULT_DATUM_CURVES
 70
0
 62
7
  6
CONTINUOUS
370
-3
390
F
  0
LAYER
  5
223
100
AcDbSymbolTableRecord
100
AcDbLayerTableRecord
  2
DEFAULT_DATUM_PLANES
 70
0
 62
7
  6
CONTINUOUS
370
-3
390
F
  0
LAYER
  5
224
100
AcDbSymbolTableRecord
100
AcDbLayerTableRecord
  2
DEFAULT_SURFACES
 70
0
 62
7
  6
CONTINUOUS
370
-3
390
F
  0
LAYER
  5
225
100
AcDbSymbolTableRecord
100
AcDbLayerTableRecord
  2
DETAIL_ITEMS
 70
0
 62
7
  6
CONTINUOUS
370
-3
390
F
  0
LAYER
  5
226
100
AcDbSymbolTableRecord
100
AcDbLayerTableRecord
  2
DIMENSIONS
 70
0
 62
7
  6
CONTINUOUS
370
-3
390
F
  0
LAYER
  5
227
100
AcDbSymbolTableRecord
100
AcDbLayerTableRecord
  2
FOR_TEXT
 70
0
 62
7
  6
CONTINUOUS
370
-3
390
F
  0
LAYER
  5
228
100
AcDbSymbolTableRecord
100
AcDbLayerTableRecord
  2
HIDE
 70
0
 62
7
  6
CONTINUOUS
370
-3
390
F
  0
LAYER
  5
229
100
AcDbSymbolTableRecord
100
AcDbLayerTableRecord
  2
HIDE_10
 70
0
 62
7
  6
CONTINUOUS
370
-3
390
F
  0
LAYER
  5
22A
100
AcDbSymbolTableRecord
100
AcDbLayerTableRecord
  2
HIDE_7
 70
0
 62
7
  6
CONTINUOUS
370
-3
390
F
  0
LAYER
  5
22B
100
AcDbSymbolTableRecord
100
AcDbLayerTableRecord
  2
HIDE_8
 70
0
 62
7
  6
CONTINUOUS
370
-3
390
F
  0
LAYER
  5
22C
100
AcDbSymbolTableRecord
100
AcDbLayerTableRecord
  2
HIDE_9
 70
0
 62
7
  6
CONTINUOUS
370
-3
390
F
  0
LAYER
  5
22D
100
AcDbSymbolTableRecord
100
AcDbLayerTableRecord
  2
HOLE_FEATURES
 70
0
 62
7
  6
CONTINUOUS
370
-3
390
F
  0
LAYER
  5
22E
100
AcDbSymbolTableRecord
100
AcDbLayerTableRecord
  2
INTFCLR_33883
 70
0
 62
7
  6
CONTINUOUS
370
-3
390
F
  0
LAYER
  5
22F
100
AcDbSymbolTableRecord
100
AcDbLayerTableRecord
  2
INTFCLR_33883_1
 70
0
 62
7
  6
CONTINUOUS
370
-3
390
F
  0
LAYER
  5
230
100
AcDbSymbolTableRecord
100
AcDbLayerTableRecord
  2
INTFCLR_33883_2
 70
0
 62
7
  6
CONTINUOUS
370
-3
390
F
  0
LAYER
  5
231
100
AcDbSymbolTableRecord
100
AcDbLayerTableRecord
  2
INTFCLR_33883_3
 70
0
 62
7
  6
CONTINUOUS
370
-3
390
F
  0
LAYER
  5
232
100
AcDbSymbolTableRecord
100
AcDbLayerTableRecord
  2
INTFCLR_33883_4
 70
0
 62
7
  6
CONTINUOUS
370
-3
390
F
  0
LAYER
  5
233
100
AcDbSymbolTableRecord
100
AcDbLayerTableRecord
  2
INTFCLR_33883_5
 70
0
 62
7
  6
CONTINUOUS
370
-3
390
F
  0
LAYER
  5
234
100
AcDbSymbolTableRecord
100
AcDbLayerTableRecord
  2
INTF_BLANK
 70
0
 62
7
  6
CONTINUOUS
370
-3
390
F
  0
LAYER
  5
235
100
AcDbSymbolTableRecord
100
AcDbLayerTableRecord
  2
LAY0001
 70
0
 62
7
  6
CONTINUOUS
370
-3
390
F
  0
LAYER
  5
236
100
AcDbSymbolTableRecord
100
AcDbLayerTableRecord
  2
NOTES
 70
0
 62
7
  6
CONTINUOUS
370
-3
390
F
  0
LAYER
  5
237
100
AcDbSymbolTableRecord
100
AcDbLayerTableRecord
  2
PART_REFERENCE_DIMENSIONS
 70
0
 62
7
  6
CONTINUOUS
370
-3
390
F
  0
LAYER
  5
238
100
AcDbSymbolTableRecord
100
AcDbLayerTableRecord
  2
PLATED_AREA
 70
0
 62
7
  6
CONTINUOUS
370
-3
390
F
  0
LAYER
  5
239
100
AcDbSymbolTableRecord
100
AcDbLayerTableRecord
  2
POINTS
 70
0
 62
7
  6
CONTINUOUS
370
-3
390
F
  0
LAYER
  5
23A
100
AcDbSymbolTableRecord
100
AcDbLayerTableRecord
  2
PROTRUSION
 70
0
 62
7
  6
CONTINUOUS
370
-3
390
F
  0
LAYER
  5
23B
100
AcDbSymbolTableRecord
100
AcDbLayerTableRecord
  2
PROTRUSION_FEATURES
 70
0
 62
7
  6
CONTINUOUS
370
-3
390
F
  0
LAYER
  5
23C
100
AcDbSymbolTableRecord
100
AcDbLayerTableRecord
  2
QUILT
 70
0
 62
7
  6
CONTINUOUS
370
-3
390
F
  0
LAYER
  5
23D
100
AcDbSymbolTableRecord
100
AcDbLayerTableRecord
  2
QUILTED_AREA
 70
0
 62
7
  6
CONTINUOUS
370
-3
390
F
  0
LAYER
  5
23E
100
AcDbSymbolTableRecord
100
AcDbLayerTableRecord
  2
QUILTS
 70
0
 62
7
  6
CONTINUOUS
370
-3
390
F
  0
LAYER
  5
23F
100
AcDbSymbolTableRecord
100
AcDbLayerTableRecord
  2
REFERENCE_DIMENSIONS
 70
0
 62
7
  6
CONTINUOUS
370
-3
390
F
  0
LAYER
  5
240
100
AcDbSymbolTableRecord
100
AcDbLayerTableRecord
  2
ROUND_FEATURES
 70
0
 62
7
  6
CONTINUOUS
370
-3
390
F
  0
LAYER
  5
241
100
AcDbSymbolTableRecord
100
AcDbLayerTableRecord
  2
S01012-09A
 70
0
 62
7
  6
CONTINUOUS
370
-3
390
F
  0
LAYER
  5
242
100
AcDbSymbolTableRecord
100
AcDbLayerTableRecord
  2
S01012-10A
 70
0
 62
7
  6
CONTINUOUS
370
-3
390
F
  0
LAYER
  5
243
100
AcDbSymbolTableRecord
100
AcDbLayerTableRecord
  2
S02015-05
 70
0
 62
7
  6
CONTINUOUS
370
-3
390
F
  0
LAYER
  5
244
100
AcDbSymbolTableRecord
100
AcDbLayerTableRecord
  2
S02015-16B
 70
0
 62
7
  6
CONTINUOUS
370
-3
390
F
  0
LAYER
  5
245
100
AcDbSymbolTableRecord
100
AcDbLayerTableRecord
  2
S02015-17
 70
0
 62
7
  6
CONTINUOUS
370
-3
390
F
  0
LAYER
  5
246
100
AcDbSymbolTableRecord
100
AcDbLayerTableRecord
  2
S02015-18
 70
0
 62
7
  6
CONTINUOUS
370
-3
390
F
  0
LAYER
  5
247
100
AcDbSymbolTableRecord
100
AcDbLayerTableRecord
  2
S02015-20A
 70
0
 62
7
  6
CONTINUOUS
370
-3
390
F
  0
LAYER
  5
248
100
AcDbSymbolTableRecord
100
AcDbLayerTableRecord
  2
S02015-31A
 70
0
 62
7
  6
CONTINUOUS
370
-3
390
F
  0
LAYER
  5
249
100
AcDbSymbolTableRecord
100
AcDbLayerTableRecord
  2
S02015-32A
 70
0
 62
7
  6
CONTINUOUS
370
-3
390
F
  0
LAYER
  5
24A
100
AcDbSymbolTableRecord
100
AcDbLayerTableRecord
  2
S02015-32A_1
 70
0
 62
7
  6
CONTINUOUS
370
-3
390
F
  0
LAYER
  5
24B
100
AcDbSymbolTableRecord
100
AcDbLayerTableRecord
  2
S02015-35
 70
0
 62
7
  6
CONTINUOUS
370
-3
390
F
  0
LAYER
  5
24C
100
AcDbSymbolTableRecord
100
AcDbLayerTableRecord
  2
S15025-04A
 70
0
 62
7
  6
CONTINUOUS
370
-3
390
F
  0
LAYER
  5
24D
100
AcDbSymbolTableRecord
100
AcDbLayerTableRecord
  2
SHELL_FEATURES
 70
0
 62
7
  6
CONTINUOUS
370
-3
390
F
  0
LAYER
  5
24E
100
AcDbSymbolTableRecord
100
AcDbLayerTableRecord
  2
SURFACE
 70
0
 62
7
  6
CONTINUOUS
370
-3
390
F
  0
LAYER
  5
24F
100
AcDbSymbolTableRecord
100
AcDbLayerTableRecord
  2
XSEC_DATUMS
 70
0
 62
7
  6
CONTINUOUS
370
-3
390
F
  0
LAYER
  5
250
100
AcDbSymbolTableRecord
100
AcDbLayerTableRecord
  2
___SHELL
 70
0
 62
7
  6
CONTINUOUS
370
-3
390
F
  0
ENDTAB
  0
TABLE
  2
STYLE
  5
3
100
AcDbSymbolTable
 70
1
  0
STYLE
  5
11
100
AcDbSymbolTableRecord
100
AcDbTextStyleTableRecord
  2
STANDARD
 70
0
 40
0.0
 41
0.8
 50
0.0
 71
0
 42
0.2
  3
txt
  4

  0
STYLE
  5
251
100
AcDbSymbolTableRecord
100
AcDbTextStyleTableRecord
  2
TEXTSTYLE_1
 70
0
 40
0.0
 41
0.8
 50
0.0
 71
0
 42
0.2
  3
gdt
  4

  0
ENDTAB
  0
TABLE
  2
VIEW
  5
6
100
AcDbSymbolTable
 70
0
  0
ENDTAB
  0
TABLE
  2
UCS
  5
7
100
AcDbSymbolTable
 70
0
  0
ENDTAB
  0
TABLE
  2
APPID
  5
9
100
AcDbSymbolTable
 70
1
  0
APPID
  5
252
100
AcDbSymbolTableRecord
100
AcDbRegAppTableRecord
  2
ACAD
 70
0
  0
ENDTAB
  0
TABLE
  2
BLOCK_RECORD
  5
1
100
AcDbSymbolTable
 70
0
  0
BLOCK_RECORD
  5
253
100
AcDbSymbolTableRecord
100
AcDbBlockTableRecord
  2
*Model_Space
  0
BLOCK_RECORD
  5
254
100
AcDbSymbolTableRecord
100
AcDbBlockTableRecord
  2
*Paper_Space
  0
ENDTAB
  0
TABLE
  2
DIMSTYLE
  5
A
100
AcDbSymbolTable
 70
1
100
AcDbDimStyleTable
 71
0
  0
DIMSTYLE
105
255
100
AcDbSymbolTableRecord
100
AcDbDimStyleTableRecord
  2
STANDARD
 70
0
  3

  4

 40
1.0
 41
0.1
 42
0.0625
 43
0.38
 44
0.125
 45
0.0
 46
0.0
 47
0.001
 48
0.001
140
0.08
141
0.09
142
0.0
143
25.4
144
1.0
145
0.0
146
1.0
147
0.09
 71
1.0
 72
0.0
 73
1
 74
1
 75
0
 76
0
 77
0
 78
4
170
0
171
2
172
0
173
0
174
0
175
0
176
0
177
0
178
0
270
2
271
3
272
3
273
2
274
2
275
0
280
0
281
0
282
0
283
1
284
4
285
0
286
0
287
3
288
0
340
11
278
46
  0
ENDTAB
  0
ENDSEC
  0
SECTION
  2
BLOCKS
  0
BLOCK
  5
20
100
AcDbEntity
  8
0
100
AcDbBlockBegin
  2
*Model_Space
 70
0
 10
0.0
 20
0.0
 30
0.0
  3
*Model_Space
  1

  0
ENDBLK
  5
21
100
AcDbEntity
  8
0
100
AcDbBlockEnd
  0
BLOCK
  5
1C
100
AcDbEntity
  8
0
100
AcDbBlockBegin
  2
*Paper_Space
 70
0
 10
0.0
 20
0.0
 30
0.0
  3
*Paper_Space
  1

  0
ENDBLK
  5
1D
100
AcDbEntity
  8
0
100
AcDbBlockEnd
  0
ENDSEC
  0
SECTION
  2
ENTITIES
  0
LINE
  5
256
100
AcDbEntity
  8
0
100
AcDbLine
 62
7
  6
CONTINUOUS
 10
0.0
 20
0.0
 11
0.0
 21
8.5
  0
LINE
  5
257
100
AcDbEntity
  8
0
100
AcDbLine
 62
7
  6
CONTINUOUS
 10
0.0
 20
0.0
 11
11.0
 21
0.0
  0
LINE
  5
258
100
AcDbEntity
  8
0
100
AcDbLine
 62
7
  6
CONTINUOUS
 10
0.0
 20
8.5
 11
11.0
 21
8.5
  0
LINE
  5
259
100
AcDbEntity
  8
0
100
AcDbLine
 62
7
  6
CONTINUOUS
 10
11.0
 20
0.0
 11
11.0
 21
8.5
  0
LINE
  5
25A
100
AcDbEntity
  8
ALL_ASSEMBLY_MEMBERS
100
AcDbLine
 62
7
  6
CONTINUOUS
 10
5.0032046701
 20
6.582227153
 11
4.989572944
 21
6.5743469981
  0
LINE
  5
25B
100
AcDbEntity
  8
ALL_ASSEMBLY_MEMBERS
100
AcDbLine
 62
7
  6
CONTINUOUS
 10
5.0025245093
 20
6.5554393428
 11
4.9895722145
 21
6.5479520347
  0
LINE
  5
25C
100
AcDbEntity
  8
ALL_ASSEMBLY_MEMBERS
100
AcDbLine
 62
7
  6
CONTINUOUS
 10
5.0018871411
 20
6.5286516566
 11
4.9895715197
 21
6.5215324644
  0
LINE
  5
25D
100
AcDbEntity
  8
ALL_ASSEMBLY_MEMBERS
100
AcDbLine
 62
7
  6
CONTINUOUS
 10
5.0011039219
 20
6.501865076
 11
4.9895729414
 21
6.4951994333
  0
LINE
  5
25E
100
AcDbEntity
  8
ALL_ASSEMBLY_MEMBERS
100
AcDbLine
 62
7
  6
CONTINUOUS
 10
5.0004155927
 20
6.4750772841
 11
4.9895722007
 21
6.4688091818
  0
LINE
  5
25F
100
AcDbEntity
  8
ALL_ASSEMBLY_MEMBERS
100
AcDbLine
 62
7
  6
CONTINUOUS
 10
4.9997656948
 20
6.4482891743
 11
4.9895708097
 21
6.4423960366
  0
LINE
  5
260
100
AcDbEntity
  8
ALL_ASSEMBLY_MEMBERS
100
AcDbLine
 62
7
  6
CONTINUOUS
 10
5.279931537
 20
6.6018628371
 11
5.2825982653
 21
6.6034046993
  0
LINE
  5
261
100
AcDbEntity
  8
ALL_ASSEMBLY_MEMBERS
100
AcDbLine
 62
7
  6
CONTINUOUS
 10
5.0043990817
 20
6.6071161805
 11
4.9922153754
 21
6.5949324741
  0
LINE
  5
262
100
AcDbEntity
  8
ALL_ASSEMBLY_MEMBERS
100
AcDbLine
 62
7
  6
CONTINUOUS
 10
4.9990027167
 20
6.4215030467
 11
4.9895728609
 21
6.41605209
  0
LINE
  5
263
100
AcDbEntity
  8
ALL_ASSEMBLY_MEMBERS
100
AcDbLine
 62
7
  6
CONTINUOUS
 10
5.2806071212
 20
6.5750783859
 11
5.2939026315
 21
6.5827647178
  0
LINE
  5
264
100
AcDbEntity
  8
ALL_ASSEMBLY_MEMBERS
100
AcDbLine
 62
7
  6
CONTINUOUS
 10
4.9983066659
 20
6.394715328
 11
4.9921435648
 21
6.3911526926
  0
LINE
  5
265
100
AcDbEntity
  8
ALL_ASSEMBLY_MEMBERS
100
AcDbLine
 62
7
  6
CONTINUOUS
 10
5.2813223434
 20
6.5482931763
 11
5.2939024227
 21
6.5555658687
  0
LINE
  5
266
100
AcDbEntity
  8
ALL_ASSEMBLY_MEMBERS
100
AcDbLine
 62
7
  6
CONTINUOUS
 10
5.2820471577
 20
6.5215078438
 11
5.2939019964
 21
6.5283612402
  0
LINE
  5
267
100
AcDbEntity
  8
ALL_ASSEMBLY_MEMBERS
100
AcDbLine
 62
7
  6
CONTINUOUS
 10
5.2827133541
 20
6.4947230052
 11
5.2939025617
 21
6.501191528
  0
LINE
  5
268
100
AcDbEntity
  8
ALL_ASSEMBLY_MEMBERS
100
AcDbLine
 62
7
  6
CONTINUOUS
 10
5.2834302881
 20
6.4679378379
 11
5.2939024668
 21
6.4739918079
  0
LINE
  5
269
100
AcDbEntity
  8
ALL_ASSEMBLY_MEMBERS
100
AcDbLine
 62
7
  6
CONTINUOUS
 10
5.2841580564
 20
6.4411526837
 11
5.293902382
 21
6.4467858477
  0
LINE
  5
26A
100
AcDbEntity
  8
ALL_ASSEMBLY_MEMBERS
100
AcDbLine
 62
7
  6
CONTINUOUS
 10
4.9977592563
 20
6.381111316
 11
4.9893990817
 21
6.3762845669
  0
LINE
  5
26B
100
AcDbEntity
  8
ALL_ASSEMBLY_MEMBERS
100
AcDbLine
 62
7
  6
CONTINUOUS
 10
3.9229928317
 20
6.2966161805
 11
3.9229928317
 21
6.3671161805
  0
LINE
  5
26C
100
AcDbEntity
  8
ALL_ASSEMBLY_MEMBERS
100
AcDbLine
 62
7
  6
CONTINUOUS
 10
4.989572944
 20
6.5743469986
 11
4.9893990872
 21
6.5741471794
  0
LINE
  5
26D
100
AcDbEntity
  8
ALL_ASSEMBLY_MEMBERS
100
AcDbLine
 62
7
  6
CONTINUOUS
 10
4.9895715197
 20
6.5215324613
 11
4.9893990895
 21
6.5213345214
  0
LINE
  5
26E
100
AcDbEntity
  8
ALL_ASSEMBLY_MEMBERS
100
AcDbLine
 62
7
  6
CONTINUOUS
 10
4.9895722007
 20
6.4688091817
 11
4.9893990893
 21
6.4686104124
  0
LINE
  5
26F
100
AcDbEntity
  8
ALL_ASSEMBLY_MEMBERS
100
AcDbLine
 62
7
  6
CONTINUOUS
 10
4.9895728609
 20
6.4160520903
 11
4.9893990895
 21
6.4158525852
  0
LINE
  5
270
100
AcDbEntity
  8
ALL_ASSEMBLY_MEMBERS
100
AcDbLine
 62
7
  6
CONTINUOUS
 10
5.2848202056
 20
6.4143675325
 11
5.2939025015
 21
6.4196179436
  0
LINE
  5
271
100
AcDbEntity
  8
ALL_ASSEMBLY_MEMBERS
100
AcDbLine
 62
7
  6
CONTINUOUS
 10
5.2940865817
 20
6.3926355651
 11
5.2857264071
 21
6.387808816
  0
LINE
  5
272
100
AcDbEntity
  8
ALL_ASSEMBLY_MEMBERS
100
AcDbLine
 62
7
  6
CONTINUOUS
 10
5.2940865817
 20
6.5829773389
 11
5.2939026315
 21
6.5827647178
  0
LINE
  5
273
100
AcDbEntity
  8
ALL_ASSEMBLY_MEMBERS
100
AcDbLine
 62
7
  6
CONTINUOUS
 10
5.2939024227
 20
6.5555658687
 11
5.2940865803
 21
6.5557781507
  0
LINE
  5
274
100
AcDbEntity
  8
ALL_ASSEMBLY_MEMBERS
100
AcDbLine
 62
7
  6
CONTINUOUS
 10
4.3917428317
 20
4.0165958619
 11
4.3917428317
 21
3.7927746008
  0
LINE
  5
275
100
AcDbEntity
  8
ALL_ASSEMBLY_MEMBERS
100
AcDbLine
 62
7
  6
CONTINUOUS
 10
4.6954928317
 20
6.2800512128
 11
4.6954928317
 21
6.3671161805
  0
LINE
  5
276
100
AcDbEntity
  8
ALL_ASSEMBLY_MEMBERS
100
AcDbLine
 62
7
  6
CONTINUOUS
 10
4.8745553317
 20
5.3609911805
 11
4.8745553317
 21
5.5429382995
  0
LINE
  5
277
100
AcDbEntity
  8
ALL_ASSEMBLY_MEMBERS
100
AcDbLine
 62
7
  6
CONTINUOUS
 10
4.9921436224
 20
6.3910510038
 11
4.9921435649
 21
6.3911526926
  0
LINE
  5
278
100
AcDbEntity
  8
ALL_ASSEMBLY_MEMBERS
100
AcDbLine
 62
9
  6
CONTINUOUS
 10
4.8858053317
 20
5.3497411805
 11
4.8858053317
 21
5.5429382995
  0
LINE
  5
279
100
AcDbEntity
  8
ALL_ASSEMBLY_MEMBERS
100
AcDbLine
 62
7
  6
CONTINUOUS
 10
4.9261178317
 20
4.449345212
 11
4.9261178317
 21
4.2000900716
  0
LINE
  5
27A
100
AcDbEntity
  8
ALL_ASSEMBLY_MEMBERS
100
AcDbLine
 62
7
  6
CONTINUOUS
 10
4.9720553317
 20
4.6429156934
 11
4.9720553317
 21
4.5574986481
  0
LINE
  5
27B
100
AcDbEntity
  8
ALL_ASSEMBLY_MEMBERS
100
AcDbLine
 62
7
  6
CONTINUOUS
 10
4.9893990817
 20
6.5741460432
 11
4.9893990817
 21
6.5693800626
  0
LINE
  5
27C
100
AcDbEntity
  8
ALL_ASSEMBLY_MEMBERS
100
AcDbLine
 62
7
  6
CONTINUOUS
 10
4.9893990817
 20
6.5477519311
 11
4.9893990817
 21
6.5422262233
  0
LINE
  5
27D
100
AcDbEntity
  8
ALL_ASSEMBLY_MEMBERS
100
AcDbLine
 62
7
  6
CONTINUOUS
 10
4.9893990817
 20
6.5213332899
 11
4.9893990817
 21
6.5149885137
  0
LINE
  5
27E
100
AcDbEntity
  8
ALL_ASSEMBLY_MEMBERS
100
AcDbLine
 62
7
  6
CONTINUOUS
 10
4.9893990817
 20
6.4949984935
 11
4.9893990817
 21
6.4878054002
  0
LINE
  5
27F
100
AcDbEntity
  8
ALL_ASSEMBLY_MEMBERS
100
AcDbLine
 62
7
  6
CONTINUOUS
 10
4.9893990817
 20
6.4686090929
 11
4.9893990817
 21
6.4606443813
  0
LINE
  5
280
100
AcDbEntity
  8
ALL_ASSEMBLY_MEMBERS
100
AcDbLine
 62
7
  6
CONTINUOUS
 10
4.9893990817
 20
6.4421976307
 11
4.9893990817
 21
6.4334182545
  0
LINE
  5
281
100
AcDbEntity
  8
ALL_ASSEMBLY_MEMBERS
100
AcDbLine
 62
7
  6
CONTINUOUS
 10
4.9893990817
 20
6.4158512524
 11
4.9893990817
 21
6.4062306835
  0
LINE
  5
282
100
AcDbEntity
  8
ALL_ASSEMBLY_MEMBERS
100
AcDbLine
 62
7
  6
CONTINUOUS
 10
4.9893990817
 20
6.3762845669
 11
4.9893990817
 21
6.3671161805
  0
LINE
  5
283
100
AcDbEntity
  8
ALL_ASSEMBLY_MEMBERS
100
AcDbLine
 62
7
  6
CONTINUOUS
 10
4.9893990817
 20
6.2107947671
 11
4.9893990817
 21
4.7265887797
  0
LINE
  5
284
100
AcDbEntity
  8
ALL_ASSEMBLY_MEMBERS
100
AcDbLine
 62
7
  6
CONTINUOUS
 10
4.9977592563
 20
6.387808816
 11
4.9977592563
 21
6.381111316
  0
LINE
  5
285
100
AcDbEntity
  8
ALL_ASSEMBLY_MEMBERS
100
AcDbLine
 62
7
  6
CONTINUOUS
 10
4.998117204
 20
6.4011938273
 11
4.998117204
 21
6.3944963273
  0
LINE
  5
286
100
AcDbEntity
  8
ALL_ASSEMBLY_MEMBERS
100
AcDbLine
 62
7
  6
CONTINUOUS
 10
4.9988123339
 20
6.4279804779
 11
4.9988123339
 21
6.4212829779
  0
LINE
  5
287
100
AcDbEntity
  8
ALL_ASSEMBLY_MEMBERS
100
AcDbLine
 62
7
  6
CONTINUOUS
 10
4.9995742632
 20
6.4547653955
 11
4.9995742632
 21
6.4480678955
  0
LINE
  5
288
100
AcDbEntity
  8
ALL_ASSEMBLY_MEMBERS
100
AcDbLine
 62
7
  6
CONTINUOUS
 10
5.0002233214
 20
6.481552529
 11
5.0002233214
 21
6.474855029
  0
LINE
  5
289
100
AcDbEntity
  8
ALL_ASSEMBLY_MEMBERS
100
AcDbLine
 62
7
  6
CONTINUOUS
 10
5.0009107174
 20
6.5083392381
 11
5.0009107174
 21
6.5016417381
  0
LINE
  5
28A
100
AcDbEntity
  8
ALL_ASSEMBLY_MEMBERS
100
AcDbLine
 62
7
  6
CONTINUOUS
 10
5.0016928082
 20
6.5351245153
 11
5.0016928082
 21
6.5284270153
  0
LINE
  5
28B
100
AcDbEntity
  8
ALL_ASSEMBLY_MEMBERS
100
AcDbLine
 62
7
  6
CONTINUOUS
 10
5.0023293444
 20
6.5619112354
 11
5.0023293444
 21
6.5552137354
  0
LINE
  5
28C
100
AcDbEntity
  8
ALL_ASSEMBLY_MEMBERS
100
AcDbLine
 62
7
  6
CONTINUOUS
 10
5.0030085602
 20
6.5886979489
 11
5.0030085602
 21
6.5820004489
  0
LINE
  5
28D
100
AcDbEntity
  8
ALL_ASSEMBLY_MEMBERS
100
AcDbLine
 62
7
  6
CONTINUOUS
 10
4.9893991738
 20
4.7151453236
 11
4.9893990817
 21
4.7150268781
  0
LINE
  5
28E
100
AcDbEntity
  8
ALL_ASSEMBLY_MEMBERS
100
AcDbLine
 62
7
  6
CONTINUOUS
 10
5.182832359
 20
4.4933537875
 11
5.182832359
 21
4.4410823726
  0
LINE
  5
28F
100
AcDbEntity
  8
ALL_ASSEMBLY_MEMBERS
100
AcDbLine
 62
7
  6
CONTINUOUS
 10
5.1904040034
 20
4.3008086323
 11
5.1904040034
 21
4.2080008673
  0
LINE
  5
290
100
AcDbEntity
  8
ALL_ASSEMBLY_MEMBERS
100
AcDbLine
 62
7
  6
CONTINUOUS
 10
5.2637783045
 20
4.5263998313
 11
5.2637783045
 21
4.4741284165
  0
LINE
  5
291
100
AcDbEntity
  8
ALL_ASSEMBLY_MEMBERS
100
AcDbLine
 62
7
  6
CONTINUOUS
 10
5.2801280549
 20
6.595392541
 11
5.2801280549
 21
6.602090041
  0
LINE
  5
292
100
AcDbEntity
  8
ALL_ASSEMBLY_MEMBERS
100
AcDbLine
 62
7
  6
CONTINUOUS
 10
5.2808027279
 20
6.5686070311
 11
5.2808027279
 21
6.5753045311
  0
LINE
  5
293
100
AcDbEntity
  8
ALL_ASSEMBLY_MEMBERS
100
AcDbLine
 62
7
  6
CONTINUOUS
 10
5.2815169474
 20
6.5418206599
 11
5.2815169474
 21
6.5485181599
  0
LINE
  5
294
100
AcDbEntity
  8
ALL_ASSEMBLY_MEMBERS
100
AcDbLine
 62
7
  6
CONTINUOUS
 10
5.282240741
 20
6.5150341453
 11
5.282240741
 21
6.5217316453
  0
LINE
  5
295
100
AcDbEntity
  8
ALL_ASSEMBLY_MEMBERS
100
AcDbLine
 62
7
  6
CONTINUOUS
 10
5.2829060583
 20
6.4882482867
 11
5.2829060583
 21
6.4949457867
  0
LINE
  5
296
100
AcDbEntity
  8
ALL_ASSEMBLY_MEMBERS
100
AcDbLine
 62
7
  6
CONTINUOUS
 10
5.2836220171
 20
6.4614619896
 11
5.2836220171
 21
6.4681594896
  0
LINE
  5
297
100
AcDbEntity
  8
ALL_ASSEMBLY_MEMBERS
100
AcDbLine
 62
7
  6
CONTINUOUS
 10
5.284348797
 20
6.4346756901
 11
5.284348797
 21
6.4413731901
  0
LINE
  5
298
100
AcDbEntity
  8
ALL_ASSEMBLY_MEMBERS
100
AcDbLine
 62
7
  6
CONTINUOUS
 10
5.2850100911
 20
6.4078895479
 11
5.2850100911
 21
6.4145870479
  0
LINE
  5
299
100
AcDbEntity
  8
ALL_ASSEMBLY_MEMBERS
100
AcDbLine
 62
7
  6
CONTINUOUS
 10
5.2857264071
 20
6.387808816
 11
5.2857264071
 21
6.381111316
  0
LINE
  5
29A
100
AcDbEntity
  8
ALL_ASSEMBLY_MEMBERS
100
AcDbLine
 62
7
  6
CONTINUOUS
 10
5.2940865817
 20
6.5873375717
 11
5.2940865817
 21
6.5829773297
  0
LINE
  5
29B
100
AcDbEntity
  8
ALL_ASSEMBLY_MEMBERS
100
AcDbLine
 62
7
  6
CONTINUOUS
 10
5.2940865817
 20
6.5609409239
 11
5.2940865817
 21
6.5557787359
  0
LINE
  5
29C
100
AcDbEntity
  8
ALL_ASSEMBLY_MEMBERS
100
AcDbLine
 62
7
  6
CONTINUOUS
 10
5.2940865817
 20
6.5345670131
 11
5.2940865817
 21
6.528574661
  0
LINE
  5
29D
100
AcDbEntity
  8
ALL_ASSEMBLY_MEMBERS
100
AcDbLine
 62
7
  6
CONTINUOUS
 10
5.2940865817
 20
6.5081985948
 11
5.2940865817
 21
6.5014042206
  0
LINE
  5
29E
100
AcDbEntity
  8
ALL_ASSEMBLY_MEMBERS
100
AcDbLine
 62
7
  6
CONTINUOUS
 10
5.2940865817
 20
6.48179653
 11
5.2940865817
 21
6.4742046251
  0
LINE
  5
29F
100
AcDbEntity
  8
ALL_ASSEMBLY_MEMBERS
100
AcDbLine
 62
7
  6
CONTINUOUS
 10
5.2940865817
 20
6.4554236274
 11
5.2940865817
 21
6.4469988097
  0
LINE
  5
2A0
100
AcDbEntity
  8
ALL_ASSEMBLY_MEMBERS
100
AcDbLine
 62
7
  6
CONTINUOUS
 10
5.2940865817
 20
6.429056946
 11
5.2940865817
 21
6.4198307071
  0
LINE
  5
2A1
100
AcDbEntity
  8
ALL_ASSEMBLY_MEMBERS
100
AcDbLine
 62
7
  6
CONTINUOUS
 10
5.2940865817
 20
6.4026525418
 11
5.2940865817
 21
6.3926355651
  0
LINE
  5
2A2
100
AcDbEntity
  8
ALL_ASSEMBLY_MEMBERS
100
AcDbLine
 62
7
  6
CONTINUOUS
 10
5.2940865817
 20
6.3762845669
 11
5.2940865817
 21
6.3671161805
  0
LINE
  5
2A3
100
AcDbEntity
  8
ALL_ASSEMBLY_MEMBERS
100
AcDbLine
 62
7
  6
CONTINUOUS
 10
5.2940865817
 20
6.2107947671
 11
5.2940864896
 21
4.7264703342
  0
LINE
  5
2A4
100
AcDbEntity
  8
ALL_ASSEMBLY_MEMBERS
100
AcDbLine
 62
9
  6
CONTINUOUS
 10
4.9893991738
 20
4.7151453236
 11
4.9902867328
 21
4.7155069782
  0
LINE
  5
2A5
100
AcDbEntity
  8
ALL_ASSEMBLY_MEMBERS
100
AcDbLine
 62
7
  6
CONTINUOUS
 10
5.29933166
 20
4.3452781619
 11
5.29933166
 21
4.2524703969
  0
LINE
  5
2A6
100
AcDbEntity
  8
ALL_ASSEMBLY_MEMBERS
100
AcDbLine
 62
7
  6
CONTINUOUS
 10
5.3114303317
 20
4.6429156934
 11
5.3114303317
 21
4.5574986481
  0
LINE
  5
2A7
100
AcDbEntity
  8
ALL_ASSEMBLY_MEMBERS
100
AcDbLine
 62
7
  6
CONTINUOUS
 10
5.3573678317
 20
4.449345212
 11
5.3573678317
 21
4.2000900716
  0
LINE
  5
2A8
100
AcDbEntity
  8
ALL_ASSEMBLY_MEMBERS
100
AcDbLine
 62
9
  6
CONTINUOUS
 10
5.3976803317
 20
5.3497411805
 11
5.3976803317
 21
5.5429382995
  0
LINE
  5
2A9
100
AcDbEntity
  8
ALL_ASSEMBLY_MEMBERS
100
AcDbLine
 62
7
  6
CONTINUOUS
 10
5.4089303317
 20
5.3609911805
 11
5.4089303317
 21
5.5429382995
  0
LINE
  5
2AA
100
AcDbEntity
  8
ALL_ASSEMBLY_MEMBERS
100
AcDbLine
 62
7
  6
CONTINUOUS
 10
4.8858053317
 20
5.3497411805
 11
4.9893990817
 21
5.3497411805
  0
LINE
  5
2AB
100
AcDbEntity
  8
ALL_ASSEMBLY_MEMBERS
100
AcDbLine
 62
7
  6
CONTINUOUS
 10
5.2940865817
 20
5.3497411805
 11
5.3976803317
 21
5.3497411805
  0
LINE
  5
2AC
100
AcDbEntity
  8
ALL_ASSEMBLY_MEMBERS
100
AcDbLine
 62
9
  6
CONTINUOUS
 10
4.8745553317
 20
5.3609911805
 11
4.9893990817
 21
5.3609911805
  0
LINE
  5
2AD
100
AcDbEntity
  8
ALL_ASSEMBLY_MEMBERS
100
AcDbLine
 62
9
  6
CONTINUOUS
 10
5.2940865817
 20
5.3609911805
 11
5.4089303317
 21
5.3609911805
  0
LINE
  5
2AE
100
AcDbEntity
  8
ALL_ASSEMBLY_MEMBERS
100
AcDbLine
 62
7
  6
CONTINUOUS
 10
5.5879928317
 20
6.2800512128
 11
5.5879928317
 21
6.3671161805
  0
LINE
  5
2AF
100
AcDbEntity
  8
ALL_ASSEMBLY_MEMBERS
100
AcDbLine
 62
9
  6
CONTINUOUS
 10
5.2940865817
 20
5.4821161805
 11
4.9893990817
 21
5.4821161805
  0
LINE
  5
2B0
100
AcDbEntity
  8
ALL_ASSEMBLY_MEMBERS
100
AcDbLine
 62
7
  6
CONTINUOUS
 10
5.29933166
 20
4.3452781619
 11
5.1904040034
 21
4.3008086323
  0
LINE
  5
2B1
100
AcDbEntity
  8
ALL_ASSEMBLY_MEMBERS
100
AcDbLine
 62
7
  6
CONTINUOUS
 10
5.29933166
 20
4.2524703969
 11
5.1904040034
 21
4.2080008673
  0
LINE
  5
2B2
100
AcDbEntity
  8
ALL_ASSEMBLY_MEMBERS
100
AcDbLine
 62
9
  6
CONTINUOUS
 10
4.8745553317
 20
5.5429382995
 11
4.9893990817
 21
5.5429382995
  0
LINE
  5
2B3
100
AcDbEntity
  8
ALL_ASSEMBLY_MEMBERS
100
AcDbLine
 62
9
  6
CONTINUOUS
 10
5.2940865817
 20
5.5429382995
 11
5.4089303317
 21
5.5429382995
  0
LINE
  5
2B4
100
AcDbEntity
  8
ALL_ASSEMBLY_MEMBERS
100
AcDbLine
 62
7
  6
CONTINUOUS
 10
5.8917428317
 20
4.0165958619
 11
5.8917428317
 21
3.7927746008
  0
LINE
  5
2B5
100
AcDbEntity
  8
ALL_ASSEMBLY_MEMBERS
100
AcDbLine
 62
9
  6
CONTINUOUS
 10
5.8917428317
 20
3.792772571
 11
5.8917428317
 21
3.7927746008
  0
LINE
  5
2B6
100
AcDbEntity
  8
ALL_ASSEMBLY_MEMBERS
100
AcDbLine
 62
9
  6
CONTINUOUS
 10
5.4609303317
 20
5.8795111
 11
5.2940865817
 21
5.8795111
  0
LINE
  5
2B7
100
AcDbEntity
  8
ALL_ASSEMBLY_MEMBERS
100
AcDbLine
 62
9
  6
CONTINUOUS
 10
4.9893990817
 20
5.8795111
 11
4.8225553317
 21
5.8795111
  0
LINE
  5
2B8
100
AcDbEntity
  8
ALL_ASSEMBLY_MEMBERS
100
AcDbLine
 62
7
  6
CONTINUOUS
 10
4.9895833232
 20
6.4060177249
 11
4.989399088
 21
6.4062294364
  0
LINE
  5
2B9
100
AcDbEntity
  8
ALL_ASSEMBLY_MEMBERS
100
AcDbLine
 62
7
  6
CONTINUOUS
 10
4.9895848553
 20
6.4604297239
 11
4.9893990884
 21
6.4606431553
  0
LINE
  5
2BA
100
AcDbEntity
  8
ALL_ASSEMBLY_MEMBERS
100
AcDbLine
 62
7
  6
CONTINUOUS
 10
4.989582565
 20
6.5147764406
 11
4.9893990866
 21
6.5149874276
  0
LINE
  5
2BB
100
AcDbEntity
  8
ALL_ASSEMBLY_MEMBERS
100
AcDbLine
 62
7
  6
CONTINUOUS
 10
4.989583307
 20
6.5691671253
 11
4.9893990844
 21
6.5693792492
  0
LINE
  5
2BC
100
AcDbEntity
  8
ALL_ASSEMBLY_MEMBERS
100
AcDbLine
 62
7
  6
CONTINUOUS
 10
5.293913354
 20
6.4556238484
 11
5.2940865815
 21
6.4554238292
  0
LINE
  5
2BD
100
AcDbEntity
  8
ALL_ASSEMBLY_MEMBERS
100
AcDbLine
 62
7
  6
CONTINUOUS
 10
5.2940865817
 20
6.4026525363
 11
5.2939133006
 21
6.4028528112
  0
LINE
  5
2BE
100
AcDbEntity
  8
ALL_ASSEMBLY_MEMBERS
100
AcDbLine
 62
7
  6
CONTINUOUS
 10
6.3604928317
 20
6.2966161805
 11
6.3604928317
 21
6.3671161805
  0
LINE
  5
2BF
100
AcDbEntity
  8
ALL_ASSEMBLY_MEMBERS
100
AcDbLine
 62
7
  6
CONTINUOUS
 10
4.9921437375
 20
6.3910509373
 11
4.9977592563
 21
6.387808816
  0
LINE
  5
2C0
100
AcDbEntity
  8
ALL_ASSEMBLY_MEMBERS
100
AcDbLine
 62
7
  6
CONTINUOUS
 10
4.9903726247
 20
6.4055614669
 11
4.9983066139
 21
6.4009748628
  0
LINE
  5
2C1
100
AcDbEntity
  8
ALL_ASSEMBLY_MEMBERS
100
AcDbLine
 62
7
  6
CONTINUOUS
 10
4.9895833232
 20
6.406017725
 11
4.9903726247
 21
6.4055614669
  0
LINE
  5
2C2
100
AcDbEntity
  8
ALL_ASSEMBLY_MEMBERS
100
AcDbLine
 62
7
  6
CONTINUOUS
 10
4.9910695683
 20
6.4323465673
 11
4.9990026702
 21
6.4277604414
  0
LINE
  5
2C3
100
AcDbEntity
  8
ALL_ASSEMBLY_MEMBERS
100
AcDbLine
 62
7
  6
CONTINUOUS
 10
4.9895826596
 20
6.4332060803
 11
4.9910695683
 21
6.4323465673
  0
LINE
  5
2C4
100
AcDbEntity
  8
ALL_ASSEMBLY_MEMBERS
100
AcDbLine
 62
7
  6
CONTINUOUS
 10
4.9899230725
 20
6.4602342164
 11
4.9995263417
 21
6.4546825088
  0
LINE
  5
2C5
100
AcDbEntity
  8
ALL_ASSEMBLY_MEMBERS
100
AcDbLine
 62
7
  6
CONTINUOUS
 10
4.9895848553
 20
6.4604297251
 11
4.9899230725
 21
6.4602342164
  0
LINE
  5
2C6
100
AcDbEntity
  8
ALL_ASSEMBLY_MEMBERS
100
AcDbLine
 62
7
  6
CONTINUOUS
 10
5.2939131717
 20
6.5611413399
 11
5.2940865796
 21
6.5609416099
  0
LINE
  5
2C7
100
AcDbEntity
  8
ALL_ASSEMBLY_MEMBERS
100
AcDbLine
 62
7
  6
CONTINUOUS
 10
5.3094484444
 20
6.2107947671
 11
5.3107052957
 21
6.2108651953
  0
LINE
  5
2C8
100
AcDbEntity
  8
ALL_ASSEMBLY_MEMBERS
100
AcDbLine
 62
7
  6
CONTINUOUS
 10
4.974037219
 20
6.2107947671
 11
5.3094484444
 21
6.2107947671
  0
LINE
  5
2C9
100
AcDbEntity
  8
ALL_ASSEMBLY_MEMBERS
100
AcDbLine
 62
9
  6
CONTINUOUS
 10
5.3107052957
 20
6.2108651953
 11
4.9727803678
 21
6.2108651953
  0
LINE
  5
2CA
100
AcDbEntity
  8
ALL_ASSEMBLY_MEMBERS
100
AcDbLine
 62
7
  6
CONTINUOUS
 10
6.3173678317
 20
6.2497411805
 11
5.5274019704
 21
6.2497411805
  0
LINE
  5
2CB
100
AcDbEntity
  8
ALL_ASSEMBLY_MEMBERS
100
AcDbLine
 62
7
  6
CONTINUOUS
 10
4.756083693
 20
6.2497411805
 11
3.9661178317
 21
6.2497411805
  0
LINE
  5
2CC
100
AcDbEntity
  8
ALL_ASSEMBLY_MEMBERS
100
AcDbLine
 62
9
  6
CONTINUOUS
 10
5.5742660364
 20
6.2619866088
 11
4.709219627
 21
6.2619866088
  0
LINE
  5
2CD
100
AcDbEntity
  8
ALL_ASSEMBLY_MEMBERS
100
AcDbLine
 62
9
  6
CONTINUOUS
 10
5.5879928317
 20
6.2800512128
 11
4.6954928317
 21
6.2800512128
  0
LINE
  5
2CE
100
AcDbEntity
  8
ALL_ASSEMBLY_MEMBERS
100
AcDbLine
 62
7
  6
CONTINUOUS
 10
6.3604928317
 20
6.2966161805
 11
5.5879928317
 21
6.2966161805
  0
LINE
  5
2CF
100
AcDbEntity
  8
ALL_ASSEMBLY_MEMBERS
100
AcDbLine
 62
7
  6
CONTINUOUS
 10
4.6954928317
 20
6.2966161805
 11
3.9229928317
 21
6.2966161805
  0
LINE
  5
2D0
100
AcDbEntity
  8
ALL_ASSEMBLY_MEMBERS
100
AcDbLine
 62
7
  6
CONTINUOUS
 10
4.974037219
 20
6.2107947671
 11
4.9727803678
 21
6.2108651953
  0
LINE
  5
2D1
100
AcDbEntity
  8
ALL_ASSEMBLY_MEMBERS
100
AcDbLine
 62
7
  6
CONTINUOUS
 10
5.2857264071
 20
6.381111316
 11
5.2940865817
 21
6.3762845669
  0
LINE
  5
2D2
100
AcDbEntity
  8
ALL_ASSEMBLY_MEMBERS
100
AcDbLine
 62
7
  6
CONTINUOUS
 10
4.9911715694
 20
6.4866743485
 11
5.0001751862
 21
6.4814692724
  0
LINE
  5
2D3
100
AcDbEntity
  8
ALL_ASSEMBLY_MEMBERS
100
AcDbLine
 62
7
  6
CONTINUOUS
 10
4.9895833199
 20
6.4875924468
 11
4.9911715694
 21
6.4866743485
  0
LINE
  5
2D4
100
AcDbEntity
  8
ALL_ASSEMBLY_MEMBERS
100
AcDbLine
 62
7
  6
CONTINUOUS
 10
4.989582565
 20
6.5147764401
 11
5.0008623465
 21
6.5082555746
  0
LINE
  5
2D5
100
AcDbEntity
  8
ALL_ASSEMBLY_MEMBERS
100
AcDbLine
 62
7
  6
CONTINUOUS
 10
5.2924758885
 20
6.4036836555
 11
5.2848201547
 21
6.4081090985
  0
LINE
  5
2D6
100
AcDbEntity
  8
ALL_ASSEMBLY_MEMBERS
100
AcDbLine
 62
7
  6
CONTINUOUS
 10
5.2939133006
 20
6.4028528113
 11
5.2924758885
 21
6.4036836555
  0
LINE
  5
2D7
100
AcDbEntity
  8
ALL_ASSEMBLY_MEMBERS
100
AcDbLine
 62
7
  6
CONTINUOUS
 10
5.2918129274
 20
6.4304712152
 11
5.2843965656
 21
6.4347583206
  0
LINE
  5
2D8
100
AcDbEntity
  8
ALL_ASSEMBLY_MEMBERS
100
AcDbLine
 62
7
  6
CONTINUOUS
 10
5.2939134902
 20
6.429257056
 11
5.2918129274
 21
6.4304712152
  0
LINE
  5
2D9
100
AcDbEntity
  8
ALL_ASSEMBLY_MEMBERS
100
AcDbLine
 62
7
  6
CONTINUOUS
 10
5.2923999619
 20
6.4564986104
 11
5.2836700342
 21
6.4615450491
  0
LINE
  5
2DA
100
AcDbEntity
  8
ALL_ASSEMBLY_MEMBERS
100
AcDbLine
 62
7
  6
CONTINUOUS
 10
5.293913354
 20
6.4556238484
 11
5.2923999619
 21
6.4564986104
  0
LINE
  5
2DB
100
AcDbEntity
  8
ALL_ASSEMBLY_MEMBERS
100
AcDbLine
 62
7
  6
CONTINUOUS
 10
4.9895841853
 20
6.5420123957
 11
5.0016441572
 21
6.5350403695
  0
LINE
  5
2DC
100
AcDbEntity
  8
ALL_ASSEMBLY_MEMBERS
100
AcDbLine
 62
7
  6
CONTINUOUS
 10
4.989583307
 20
6.5691671254
 11
5.0022804826
 21
6.5618267254
  0
LINE
  5
2DD
100
AcDbEntity
  8
ALL_ASSEMBLY_MEMBERS
100
AcDbLine
 62
7
  6
CONTINUOUS
 10
4.9922652677
 20
6.5947956285
 11
5.0029594597
 21
6.5886130268
  0
LINE
  5
2DE
100
AcDbEntity
  8
ALL_ASSEMBLY_MEMBERS
100
AcDbLine
 62
7
  6
CONTINUOUS
 10
5.2790865817
 20
6.6071161805
 11
5.2826515777
 21
6.6035511845
  0
LINE
  5
2DF
100
AcDbEntity
  8
ALL_ASSEMBLY_MEMBERS
100
AcDbLine
 62
7
  6
CONTINUOUS
 10
6.3604928317
 20
6.3671161805
 11
3.9229928317
 21
6.3671161805
  0
LINE
  5
2E0
100
AcDbEntity
  8
ALL_ASSEMBLY_MEMBERS
100
AcDbLine
 62
7
  6
CONTINUOUS
 10
5.2940865817
 20
6.3762845669
 11
4.9893991738
 21
6.3762845669
  0
LINE
  5
2E1
100
AcDbEntity
  8
ALL_ASSEMBLY_MEMBERS
100
AcDbLine
 62
7
  6
CONTINUOUS
 10
5.2857264071
 20
6.381111316
 11
4.9977593434
 21
6.381111316
  0
LINE
  5
2E2
100
AcDbEntity
  8
ALL_ASSEMBLY_MEMBERS
100
AcDbLine
 62
7
  6
CONTINUOUS
 10
5.2857264071
 20
6.387808816
 11
4.9977593434
 21
6.387808816
  0
LINE
  5
2E3
100
AcDbEntity
  8
ALL_ASSEMBLY_MEMBERS
100
AcDbLine
 62
7
  6
CONTINUOUS
 10
5.2940865817
 20
6.3926355651
 11
5.0308139552
 21
6.3926355651
  0
LINE
  5
2E4
100
AcDbEntity
  8
ALL_ASSEMBLY_MEMBERS
100
AcDbLine
 62
7
  6
CONTINUOUS
 10
5.2939132407
 20
6.4819968675
 11
5.2829543203
 21
6.4883317687
  0
LINE
  5
2E5
100
AcDbEntity
  8
ALL_ASSEMBLY_MEMBERS
100
AcDbLine
 62
7
  6
CONTINUOUS
 10
5.2931651155
 20
6.5088310595
 11
5.2822892248
 21
6.5151180104
  0
LINE
  5
2E6
100
AcDbEntity
  8
ALL_ASSEMBLY_MEMBERS
100
AcDbLine
 62
7
  6
CONTINUOUS
 10
5.2939138784
 20
6.508398268
 11
5.2931651155
 21
6.5088310595
  0
LINE
  5
2E7
100
AcDbEntity
  8
ALL_ASSEMBLY_MEMBERS
100
AcDbLine
 62
7
  6
CONTINUOUS
 10
5.2939133953
 20
6.5347671853
 11
5.2815656873
 21
6.5419049667
  0
LINE
  5
2E8
100
AcDbEntity
  8
ALL_ASSEMBLY_MEMBERS
100
AcDbLine
 62
7
  6
CONTINUOUS
 10
5.2929875644
 20
6.5616763523
 11
5.2808517195
 21
6.5686917719
  0
LINE
  5
2E9
100
AcDbEntity
  8
ALL_ASSEMBLY_MEMBERS
100
AcDbLine
 62
7
  6
CONTINUOUS
 10
5.2939131717
 20
6.56114134
 11
5.2929875644
 21
6.5616763523
  0
LINE
  5
2EA
100
AcDbEntity
  8
ALL_ASSEMBLY_MEMBERS
100
AcDbLine
 62
7
  6
CONTINUOUS
 10
5.2923110199
 20
6.5884634545
 11
5.2801772774
 21
6.5954776809
  0
LINE
  5
2EB
100
AcDbEntity
  8
ALL_ASSEMBLY_MEMBERS
100
AcDbLine
 62
7
  6
CONTINUOUS
 10
5.2939143443
 20
6.5875367158
 11
5.2923110199
 21
6.5884634545
  0
LINE
  5
2EC
100
AcDbEntity
  8
ALL_ASSEMBLY_MEMBERS
100
AcDbLine
 62
7
  6
CONTINUOUS
 10
5.2790865817
 20
6.6071161805
 11
5.0043990817
 21
6.6071161805
  0
ARC
  5
2ED
100
AcDbEntity
  8
ALL_ASSEMBLY_MEMBERS
100
AcDbCircle
 62
7
  6
CONTINUOUS
 10
3.9370553317
 20
5.5429382995
 40
0.9375
100
AcDbArc
 50
0.0
 51
21.0394697813
  0
ARC
  5
2EE
100
AcDbEntity
  8
ALL_ASSEMBLY_MEMBERS
100
AcDbCircle
 62
7
  6
CONTINUOUS
 10
4.5089303317
 20
6.2497411805
 40
1.03125
100
AcDbArc
 50
338.9605302187
 51
360.0
  0
ARC
  5
2EF
100
AcDbEntity
  8
ALL_ASSEMBLY_MEMBERS
100
AcDbCircle
 62
7
  6
CONTINUOUS
 10
3.9190797882
 20
6.2497411805
 40
0.0470380435
100
AcDbArc
 50
0.0
 51
85.2281119392
  0
ARC
  5
2F0
100
AcDbEntity
  8
ALL_ASSEMBLY_MEMBERS
100
AcDbCircle
 62
7
  6
CONTINUOUS
 10
4.8858053317
 20
5.3609911805
 40
0.01125
100
AcDbArc
 50
180.0
 51
270.0
  0
ARC
  5
2F1
100
AcDbEntity
  8
ALL_ASSEMBLY_MEMBERS
100
AcDbCircle
 62
9
  6
CONTINUOUS
 10
5.1144408655
 20
3.8360028537
 40
0.5081808988
100
AcDbArc
 50
111.7559468994
 51
112.207496982
  0
ARC
  5
2F2
100
AcDbEntity
  8
ALL_ASSEMBLY_MEMBERS
100
AcDbCircle
 62
7
  6
CONTINUOUS
 10
5.1417408187
 20
4.3867657365
 40
0.18337695
100
AcDbArc
 50
22.3316374299
 51
34.8899615237
  0
ARC
  5
2F3
100
AcDbEntity
  8
ALL_ASSEMBLY_MEMBERS
100
AcDbCircle
 62
7
  6
CONTINUOUS
 10
5.1417072155
 20
4.3867852468
 40
0.183334622
100
AcDbArc
 50
145.1035572105
 51
157.7286208033
  0
ARC
  5
2F4
100
AcDbEntity
  8
ALL_ASSEMBLY_MEMBERS
100
AcDbCircle
 62
7
  6
CONTINUOUS
 10
5.0558876511
 20
4.4307233113
 40
0.0875843818
100
AcDbArc
 50
171.5437847129
 51
175.5966886348
  0
ARC
  5
2F5
100
AcDbEntity
  8
ALL_ASSEMBLY_MEMBERS
100
AcDbCircle
 62
7
  6
CONTINUOUS
 10
5.0783053084
 20
4.6340474257
 40
0.1082258827
100
AcDbArc
 50
145.275726377
 51
147.7997210204
  0
ARC
  5
2F6
100
AcDbEntity
  8
ALL_ASSEMBLY_MEMBERS
100
AcDbCircle
 62
7
  6
CONTINUOUS
 10
5.0902897954
 20
4.6923069734
 40
0.1053491092
100
AcDbArc
 50
220.5488126578
 51
222.5213826251
  0
ARC
  5
2F7
100
AcDbEntity
  8
ALL_ASSEMBLY_MEMBERS
100
AcDbCircle
 62
7
  6
CONTINUOUS
 10
5.08851679
 20
4.6660469844
 40
0.1029577814
100
AcDbArc
 50
220.0808074849
 51
220.5989351671
  0
ARC
  5
2F8
100
AcDbEntity
  8
ALL_ASSEMBLY_MEMBERS
100
AcDbCircle
 62
7
  6
CONTINUOUS
 10
5.0865371861
 20
4.6644057268
 40
0.1003863626
100
AcDbArc
 50
217.6612681655
 51
220.0915463475
  0
ARC
  5
2F9
100
AcDbEntity
  8
ALL_ASSEMBLY_MEMBERS
100
AcDbCircle
 62
7
  6
CONTINUOUS
 10
5.0851840434
 20
4.6819718622
 40
0.0986542057
100
AcDbArc
 50
215.8262580877
 51
219.9925341526
  0
ARC
  5
2FA
100
AcDbEntity
  8
ALL_ASSEMBLY_MEMBERS
100
AcDbCircle
 62
7
  6
CONTINUOUS
 10
5.0841039953
 20
4.6625328525
 40
0.0973158481
100
AcDbArc
 50
215.8521474023
 51
217.6636373758
  0
ARC
  5
2FB
100
AcDbEntity
  8
ALL_ASSEMBLY_MEMBERS
100
AcDbCircle
 62
7
  6
CONTINUOUS
 10
5.0828347595
 20
4.6616126262
 40
0.0957481206
100
AcDbArc
 50
215.1781009797
 51
215.8506596651
  0
ARC
  5
2FC
100
AcDbEntity
  8
ALL_ASSEMBLY_MEMBERS
100
AcDbCircle
 62
7
  6
CONTINUOUS
 10
5.0825444958
 20
4.6800489151
 40
0.0953885157
100
AcDbArc
 50
214.7815736533
 51
215.8177812659
  0
ARC
  5
2FD
100
AcDbEntity
  8
ALL_ASSEMBLY_MEMBERS
100
AcDbCircle
 62
7
  6
CONTINUOUS
 10
5.0822052929
 20
4.6984585169
 40
0.0949764563
100
AcDbArc
 50
214.4177492101
 51
215.748052041
  0
ARC
  5
2FE
100
AcDbEntity
  8
ALL_ASSEMBLY_MEMBERS
100
AcDbCircle
 62
7
  6
CONTINUOUS
 10
5.0714200982
 20
4.6549112286
 40
0.0824925754
100
AcDbArc
 50
203.7481354411
 51
205.6398350016
  0
ARC
  5
2FF
100
AcDbEntity
  8
ALL_ASSEMBLY_MEMBERS
100
AcDbCircle
 62
7
  6
CONTINUOUS
 10
5.0710454103
 20
4.6920329686
 40
0.0820809768
100
AcDbArc
 50
203.0195452387
 51
205.4853256678
  0
ARC
  5
300
100
AcDbEntity
  8
ALL_ASSEMBLY_MEMBERS
100
AcDbCircle
 62
7
  6
CONTINUOUS
 10
5.0690471509
 20
4.7098671996
 40
0.0799147465
100
AcDbArc
 50
199.1654012205
 51
202.7356496118
  0
ARC
  5
301
100
AcDbEntity
  8
ALL_ASSEMBLY_MEMBERS
100
AcDbCircle
 62
7
  6
CONTINUOUS
 10
5.0679246432
 20
4.672123407
 40
0.0787144248
100
AcDbArc
 50
196.7772676467
 51
203.3429046854
  0
ARC
  5
302
100
AcDbEntity
  8
ALL_ASSEMBLY_MEMBERS
100
AcDbCircle
 62
7
  6
CONTINUOUS
 10
5.0677595433
 20
4.6780867789
 40
0.0785524216
100
AcDbArc
 50
198.4881016415
 51
200.0544044727
  0
ARC
  5
303
100
AcDbEntity
  8
ALL_ASSEMBLY_MEMBERS
100
AcDbCircle
 62
7
  6
CONTINUOUS
 10
5.067714815
 20
4.6972821731
 40
0.0785052169
100
AcDbArc
 50
198.8820720596
 51
199.7990317768
  0
ARC
  5
304
100
AcDbEntity
  8
ALL_ASSEMBLY_MEMBERS
100
AcDbCircle
 62
7
  6
CONTINUOUS
 10
5.0670832787
 20
4.6904616354
 40
0.07781995
100
AcDbArc
 50
194.4005410117
 51
203.0954992828
  0
ARC
  5
305
100
AcDbEntity
  8
ALL_ASSEMBLY_MEMBERS
100
AcDbCircle
 62
7
  6
CONTINUOUS
 10
5.0663673599
 20
4.7089299713
 40
0.0770757951
100
AcDbArc
 50
193.6395607587
 51
199.1613002339
  0
ARC
  5
306
100
AcDbEntity
  8
ALL_ASSEMBLY_MEMBERS
100
AcDbCircle
 62
7
  6
CONTINUOUS
 10
5.0650708881
 20
4.6526191359
 40
0.0757340045
100
AcDbArc
 50
194.3820612653
 51
194.6799075766
  0
ARC
  5
307
100
AcDbEntity
  8
ALL_ASSEMBLY_MEMBERS
100
AcDbCircle
 62
7
  6
CONTINUOUS
 10
5.0649749488
 20
4.6771921276
 40
0.0756278484
100
AcDbArc
 50
188.8197613031
 51
198.5142680901
  0
ARC
  5
308
100
AcDbEntity
  8
ALL_ASSEMBLY_MEMBERS
100
AcDbCircle
 62
7
  6
CONTINUOUS
 10
5.0646111422
 20
4.6963089982
 40
0.0752536693
100
AcDbArc
 50
188.5495895547
 51
198.945729889
  0
ARC
  5
309
100
AcDbEntity
  8
ALL_ASSEMBLY_MEMBERS
100
AcDbCircle
 62
7
  6
CONTINUOUS
 10
5.0645688698
 20
4.6711233428
 40
0.0752128232
100
AcDbArc
 50
191.6086200039
 51
196.7857653858
  0
ARC
  5
30A
100
AcDbEntity
  8
ALL_ASSEMBLY_MEMBERS
100
AcDbCircle
 62
7
  6
CONTINUOUS
 10
5.0635591099
 20
4.7082214103
 40
0.0741796589
100
AcDbArc
 50
187.9493762472
 51
193.6192034852
  0
ARC
  5
30B
100
AcDbEntity
  8
ALL_ASSEMBLY_MEMBERS
100
AcDbCircle
 62
7
  6
CONTINUOUS
 10
5.0634455353
 20
4.6895278851
 40
0.0740642787
100
AcDbArc
 50
188.7402256362
 51
194.4007658681
  0
ARC
  5
30C
100
AcDbEntity
  8
ALL_ASSEMBLY_MEMBERS
100
AcDbCircle
 62
7
  6
CONTINUOUS
 10
5.0623894904
 20
4.652027726
 40
0.0729898003
100
AcDbArc
 50
180.0491953977
 51
194.4551806461
  0
ARC
  5
30D
100
AcDbEntity
  8
ALL_ASSEMBLY_MEMBERS
100
AcDbCircle
 62
7
  6
CONTINUOUS
 10
5.062180844
 20
4.6706646041
 40
0.0727813413
100
AcDbArc
 50
180.0244344871
 51
191.6331626993
  0
ARC
  5
30E
100
AcDbEntity
  8
ALL_ASSEMBLY_MEMBERS
100
AcDbCircle
 62
7
  6
CONTINUOUS
 10
5.0619204203
 20
4.6766201695
 40
0.0725218063
100
AcDbArc
 50
183.011305218
 51
188.7432416031
  0
ARC
  5
30F
100
AcDbEntity
  8
ALL_ASSEMBLY_MEMBERS
100
AcDbCircle
 62
7
  6
CONTINUOUS
 10
5.0618035435
 20
4.7079520868
 40
0.0724037194
100
AcDbArc
 50
180.0065263872
 51
187.9304284637
  0
ARC
  5
310
100
AcDbEntity
  8
ALL_ASSEMBLY_MEMBERS
100
AcDbCircle
 62
7
  6
CONTINUOUS
 10
5.0617522652
 20
4.6892770037
 40
0.0723525498
100
AcDbArc
 50
180.0073625033
 51
188.7476160308
  0
ARC
  5
311
100
AcDbEntity
  8
ALL_ASSEMBLY_MEMBERS
100
AcDbCircle
 62
7
  6
CONTINUOUS
 10
5.0617436022
 20
4.6958099652
 40
0.072343837
100
AcDbArc
 50
180.0067638719
 51
188.4963805493
  0
ARC
  5
312
100
AcDbEntity
  8
ALL_ASSEMBLY_MEMBERS
100
AcDbCircle
 62
7
  6
CONTINUOUS
 10
5.0616907484
 20
4.6573656654
 40
0.0722912402
100
AcDbArc
 50
180.0097244417
 51
186.3902668233
  0
ARC
  5
313
100
AcDbEntity
  8
ALL_ASSEMBLY_MEMBERS
100
AcDbCircle
 62
7
  6
CONTINUOUS
 10
5.0614936999
 20
4.6957960061
 40
0.0720939343
100
AcDbArc
 50
175.1131460665
 51
179.9956935356
  0
ARC
  5
314
100
AcDbEntity
  8
ALL_ASSEMBLY_MEMBERS
100
AcDbCircle
 62
7
  6
CONTINUOUS
 10
5.0614833506
 20
4.6765859741
 40
0.0720836348
100
AcDbArc
 50
174.9685640284
 51
180.0039879419
  0
ARC
  5
315
100
AcDbEntity
  8
ALL_ASSEMBLY_MEMBERS
100
AcDbCircle
 62
7
  6
CONTINUOUS
 10
5.0614726182
 20
4.6765874176
 40
0.0720729025
100
AcDbArc
 50
180.0051360895
 51
183.0040055636
  0
ARC
  5
316
100
AcDbEntity
  8
ALL_ASSEMBLY_MEMBERS
100
AcDbCircle
 62
7
  6
CONTINUOUS
 10
5.0613223122
 20
4.6573561051
 40
0.071922803
100
AcDbArc
 50
174.715803877
 51
180.0021582107
  0
ARC
  5
317
100
AcDbEntity
  8
ALL_ASSEMBLY_MEMBERS
100
AcDbCircle
 62
7
  6
CONTINUOUS
 10
5.0827310499
 20
4.7332618916
 40
0.0947354911
100
AcDbArc
 50
210.3128024158
 51
212.2409263034
  0
ARC
  5
318
100
AcDbEntity
  8
ALL_ASSEMBLY_MEMBERS
100
AcDbCircle
 62
7
  6
CONTINUOUS
 10
5.0814920238
 20
4.7166344421
 40
0.0941085118
100
AcDbArc
 50
214.0939746397
 51
214.6527843943
  0
ARC
  5
319
100
AcDbEntity
  8
ALL_ASSEMBLY_MEMBERS
100
AcDbCircle
 62
7
  6
CONTINUOUS
 10
5.0717447079
 20
4.7279527956
 40
0.0825113715
100
AcDbArc
 50
195.6643104309
 51
201.1933749042
  0
ARC
  5
31A
100
AcDbEntity
  8
ALL_ASSEMBLY_MEMBERS
100
AcDbCircle
 62
7
  6
CONTINUOUS
 10
5.0707815746
 20
4.7105925853
 40
0.0817947487
100
AcDbArc
 50
202.7347401246
 51
204.5338229947
  0
ARC
  5
31B
100
AcDbEntity
  8
ALL_ASSEMBLY_MEMBERS
100
AcDbCircle
 62
7
  6
CONTINUOUS
 10
5.0687362312
 20
4.7270673183
 40
0.07937556
100
AcDbArc
 50
190.4753653524
 51
195.6352207354
  0
ARC
  5
31C
100
AcDbEntity
  8
ALL_ASSEMBLY_MEMBERS
100
AcDbCircle
 62
7
  6
CONTINUOUS
 10
5.0662313379
 20
4.7266264605
 40
0.0768322648
100
AcDbArc
 50
180.0280995019
 51
190.491705249
  0
ARC
  5
31D
100
AcDbEntity
  8
ALL_ASSEMBLY_MEMBERS
100
AcDbCircle
 62
7
  6
CONTINUOUS
 10
5.0611807421
 20
4.7150278947
 40
0.0717816643
100
AcDbArc
 50
175.4846319732
 51
179.9062687361
  0
ARC
  5
31E
100
AcDbEntity
  8
ALL_ASSEMBLY_MEMBERS
100
AcDbCircle
 62
7
  6
CONTINUOUS
 10
5.1375675719
 20
4.7866136644
 40
0.2023154316
100
AcDbArc
 50
270.5725154658
 51
271.2007027694
  0
ARC
  5
31F
100
AcDbEntity
  8
ALL_ASSEMBLY_MEMBERS
100
AcDbCircle
 62
7
  6
CONTINUOUS
 10
5.137576211
 20
4.7663572666
 40
0.2004411191
100
AcDbArc
 50
271.1947911315
 51
271.9020530289
  0
ARC
  5
320
100
AcDbEntity
  8
ALL_ASSEMBLY_MEMBERS
100
AcDbCircle
 62
7
  6
CONTINUOUS
 10
5.1375817439
 20
4.7477186275
 40
0.2002880233
100
AcDbArc
 50
270.3444314065
 51
271.20281826
  0
ARC
  5
321
100
AcDbEntity
  8
ALL_ASSEMBLY_MEMBERS
100
AcDbCircle
 62
7
  6
CONTINUOUS
 10
5.1221776146
 20
7.8878009614
 40
1.6875
100
AcDbArc
 50
276.4144817261
 51
285.5395954904
  0
ARC
  5
322
100
AcDbEntity
  8
ALL_ASSEMBLY_MEMBERS
100
AcDbCircle
 62
7
  6
CONTINUOUS
 10
4.7142428317
 20
6.2800512128
 40
0.01875
100
AcDbArc
 50
180.0
 51
254.4604045096
  0
ARC
  5
323
100
AcDbEntity
  8
ALL_ASSEMBLY_MEMBERS
100
AcDbCircle
 62
7
  6
CONTINUOUS
 10
4.6171117591
 20
25.6935775585
 40
19.1517573605
100
AcDbArc
 50
271.5697205404
 51
271.7978451176
  0
ARC
  5
324
100
AcDbEntity
  8
ALL_ASSEMBLY_MEMBERS
100
AcDbCircle
 62
7
  6
CONTINUOUS
 10
4.6625331304
 20
24.2351930279
 40
17.7137308619
100
AcDbArc
 50
271.5502123072
 51
271.7968551047
  0
ARC
  5
325
100
AcDbEntity
  8
ALL_ASSEMBLY_MEMBERS
100
AcDbCircle
 62
7
  6
CONTINUOUS
 10
5.1527183017
 20
4.5332699092
 40
0.2103267275
100
AcDbArc
 50
291.1873474425
 51
292.2068449397
  0
ARC
  5
326
100
AcDbEntity
  8
ALL_ASSEMBLY_MEMBERS
100
AcDbCircle
 62
7
  6
CONTINUOUS
 10
5.1535078238
 20
4.5214501116
 40
0.1983257455
100
AcDbArc
 50
292.2056797053
 51
293.2853448654
  0
ARC
  5
327
100
AcDbEntity
  8
ALL_ASSEMBLY_MEMBERS
100
AcDbCircle
 62
7
  6
CONTINUOUS
 10
5.2275508141
 20
4.4307118917
 40
0.087632529
100
AcDbArc
 50
4.412963923
 51
8.4552073895
  0
ARC
  5
328
100
AcDbEntity
  8
ALL_ASSEMBLY_MEMBERS
100
AcDbCircle
 62
7
  6
CONTINUOUS
 10
5.1417430349
 20
4.5774624637
 40
0.2560592461
100
AcDbArc
 50
269.014111116
 51
270.9869216489
  0
ARC
  5
329
100
AcDbEntity
  8
ALL_ASSEMBLY_MEMBERS
100
AcDbCircle
 62
7
  6
CONTINUOUS
 10
5.2132916096
 20
4.6477359885
 40
0.0807943182
100
AcDbArc
 50
356.2914189562
 51
359.9722651048
  0
ARC
  5
32A
100
AcDbEntity
  8
ALL_ASSEMBLY_MEMBERS
100
AcDbCircle
 62
7
  6
CONTINUOUS
 10
5.2133304474
 20
4.6477325255
 40
0.0807554788
100
AcDbArc
 50
359.9747087359
 51
4.7119717813
  0
ARC
  5
32B
100
AcDbEntity
  8
ALL_ASSEMBLY_MEMBERS
100
AcDbCircle
 62
7
  6
CONTINUOUS
 10
5.2014467144
 20
4.6543711702
 40
0.112768481
100
AcDbArc
 50
323.8597262891
 51
324.2259649405
  0
ARC
  5
32C
100
AcDbEntity
  8
ALL_ASSEMBLY_MEMBERS
100
AcDbCircle
 62
7
  6
CONTINUOUS
 10
5.1943661738
 20
4.6878460073
 40
0.1014448294
100
AcDbArc
 50
326.7591452071
 51
328.2498819031
  0
ARC
  5
32D
100
AcDbEntity
  8
ALL_ASSEMBLY_MEMBERS
100
AcDbCircle
 62
7
  6
CONTINUOUS
 10
5.2001037175
 20
4.7183867844
 40
0.0921804725
100
AcDbArc
 50
330.558443914
 51
333.1488207942
  0
ARC
  5
32E
100
AcDbEntity
  8
ALL_ASSEMBLY_MEMBERS
100
AcDbCircle
 62
7
  6
CONTINUOUS
 10
5.2045301215
 20
4.7310934747
 40
0.0903818321
100
AcDbArc
 50
329.5452903328
 51
334.2823466411
  0
ARC
  5
32F
100
AcDbEntity
  8
ALL_ASSEMBLY_MEMBERS
100
AcDbCircle
 62
7
  6
CONTINUOUS
 10
5.2047826817
 20
4.6823405113
 40
0.0896484863
100
AcDbArc
 50
336.6896662439
 51
338.7732021491
  0
ARC
  5
330
100
AcDbEntity
  8
ALL_ASSEMBLY_MEMBERS
100
AcDbCircle
 62
7
  6
CONTINUOUS
 10
5.2072983238
 20
4.6626933091
 40
0.0869528019
100
AcDbArc
 50
338.579762139
 51
345.5307122266
  0
ARC
  5
331
100
AcDbEntity
  8
ALL_ASSEMBLY_MEMBERS
100
AcDbCircle
 62
7
  6
CONTINUOUS
 10
5.2050526972
 20
4.7159977657
 40
0.0866860814
100
AcDbArc
 50
333.0801555869
 51
340.7005936466
  0
ARC
  5
332
100
AcDbEntity
  8
ALL_ASSEMBLY_MEMBERS
100
AcDbCircle
 62
7
  6
CONTINUOUS
 10
5.2075590385
 20
4.6999144975
 40
0.0866795525
100
AcDbArc
 50
339.2530671944
 51
345.5697088707
  0
ARC
  5
333
100
AcDbEntity
  8
ALL_ASSEMBLY_MEMBERS
100
AcDbCircle
 62
7
  6
CONTINUOUS
 10
5.2077683117
 20
4.706625124
 40
0.0864588053
100
AcDbArc
 50
341.9233442003
 51
342.7930337965
  0
ARC
  5
334
100
AcDbEntity
  8
ALL_ASSEMBLY_MEMBERS
100
AcDbCircle
 62
7
  6
CONTINUOUS
 10
5.2078014899
 20
4.6811957022
 40
0.0864200041
100
AcDbArc
 50
338.7560621568
 51
347.057796552
  0
ARC
  5
335
100
AcDbEntity
  8
ALL_ASSEMBLY_MEMBERS
100
AcDbCircle
 62
7
  6
CONTINUOUS
 10
5.2080604496
 20
4.6680513352
 40
0.0861516645
100
AcDbArc
 50
341.9403456449
 51
343.5273583666
  0
ARC
  5
336
100
AcDbEntity
  8
ALL_ASSEMBLY_MEMBERS
100
AcDbCircle
 62
7
  6
CONTINUOUS
 10
5.2087032801
 20
4.7291173724
 40
0.0857645546
100
AcDbArc
 50
334.2619505849
 51
339.1648439988
  0
ARC
  5
337
100
AcDbEntity
  8
ALL_ASSEMBLY_MEMBERS
100
AcDbCircle
 62
7
  6
CONTINUOUS
 10
5.2102123071
 20
4.661872731
 40
0.083926241
100
AcDbArc
 50
345.5760839274
 51
347.0830770837
  0
ARC
  5
338
100
AcDbEntity
  8
ALL_ASSEMBLY_MEMBERS
100
AcDbCircle
 62
7
  6
CONTINUOUS
 10
5.210218349
 20
4.6991745282
 40
0.0839197546
100
AcDbArc
 50
345.6065218739
 51
347.1073828158
  0
ARC
  5
339
100
AcDbEntity
  8
ALL_ASSEMBLY_MEMBERS
100
AcDbCircle
 62
7
  6
CONTINUOUS
 10
5.2078823989
 20
4.7149757702
 40
0.0836776275
100
AcDbArc
 50
340.720679466
 51
342.1069702406
  0
ARC
  5
33A
100
AcDbEntity
  8
ALL_ASSEMBLY_MEMBERS
100
AcDbCircle
 62
7
  6
CONTINUOUS
 10
5.2107535595
 20
4.7283226842
 40
0.0835656939
100
AcDbArc
 50
339.1740844582
 51
340.2828499274
  0
ARC
  5
33B
100
AcDbEntity
  8
ALL_ASSEMBLY_MEMBERS
100
AcDbCircle
 62
7
  6
CONTINUOUS
 10
5.2106558799
 20
4.7058084872
 40
0.0834589298
100
AcDbArc
 50
342.7421449712
 51
352.6750663742
  0
ARC
  5
33C
100
AcDbEntity
  8
ALL_ASSEMBLY_MEMBERS
100
AcDbCircle
 62
7
  6
CONTINUOUS
 10
5.2111917464
 20
4.6672204455
 40
0.0829133361
100
AcDbArc
 50
343.4643938122
 51
352.7232189066
  0
ARC
  5
33D
100
AcDbEntity
  8
ALL_ASSEMBLY_MEMBERS
100
AcDbCircle
 62
7
  6
CONTINUOUS
 10
5.2113314989
 20
4.6616185279
 40
0.0827785461
100
AcDbArc
 50
347.0814080293
 51
350.4833994815
  0
ARC
  5
33E
100
AcDbEntity
  8
ALL_ASSEMBLY_MEMBERS
100
AcDbCircle
 62
7
  6
CONTINUOUS
 10
5.2114154173
 20
4.6989040949
 40
0.0826925243
100
AcDbArc
 50
347.1049718235
 51
350.9183603736
  0
ARC
  5
33F
100
AcDbEntity
  8
ALL_ASSEMBLY_MEMBERS
100
AcDbCircle
 62
7
  6
CONTINUOUS
 10
5.2093956005
 20
4.7145007695
 40
0.0820916781
100
AcDbArc
 50
342.0979726012
 51
345.2640652338
  0
ARC
  5
340
100
AcDbEntity
  8
ALL_ASSEMBLY_MEMBERS
100
AcDbCircle
 62
7
  6
CONTINUOUS
 10
5.2123583766
 20
4.6614340569
 40
0.0817353022
100
AcDbArc
 50
350.4919201214
 51
350.9017359338
  0
ARC
  5
341
100
AcDbEntity
  8
ALL_ASSEMBLY_MEMBERS
100
AcDbCircle
 62
7
  6
CONTINUOUS
 10
5.2124810719
 20
4.6987183993
 40
0.0816109192
100
AcDbArc
 50
350.9290058
 51
351.219813853
  0
ARC
  5
342
100
AcDbEntity
  8
ALL_ASSEMBLY_MEMBERS
100
AcDbCircle
 62
7
  6
CONTINUOUS
 10
5.2127740053
 20
4.7276229891
 40
0.0814276498
100
AcDbArc
 50
340.2666800182
 51
344.2142734438
  0
ARC
  5
343
100
AcDbEntity
  8
ALL_ASSEMBLY_MEMBERS
100
AcDbCircle
 62
7
  6
CONTINUOUS
 10
5.2129222631
 20
4.6800104009
 40
0.0811636205
100
AcDbArc
 50
347.2343077014
 51
0.002860843
  0
ARC
  5
344
100
AcDbEntity
  8
ALL_ASSEMBLY_MEMBERS
100
AcDbCircle
 62
7
  6
CONTINUOUS
 10
5.2130698234
 20
4.7053998274
 40
0.081016072
100
AcDbArc
 50
0.0326378837
 51
7.6632246791
  0
ARC
  5
345
100
AcDbEntity
  8
ALL_ASSEMBLY_MEMBERS
100
AcDbCircle
 62
7
  6
CONTINUOUS
 10
5.2130840406
 20
4.6613273637
 40
0.0810018975
100
AcDbArc
 50
350.8950889908
 51
359.9599587023
  0
ARC
  5
346
100
AcDbEntity
  8
ALL_ASSEMBLY_MEMBERS
100
AcDbCircle
 62
7
  6
CONTINUOUS
 10
5.213104225
 20
4.6986307484
 40
0.0809816897
100
AcDbArc
 50
351.2138021864
 51
359.9611247252
  0
ARC
  5
347
100
AcDbEntity
  8
ALL_ASSEMBLY_MEMBERS
100
AcDbCircle
 62
7
  6
CONTINUOUS
 10
5.2131563747
 20
4.6862022221
 40
0.0809298032
100
AcDbArc
 50
355.6356830556
 51
356.3264742137
  0
ARC
  5
348
100
AcDbEntity
  8
ALL_ASSEMBLY_MEMBERS
100
AcDbCircle
 62
7
  6
CONTINUOUS
 10
5.2132315938
 20
4.6669319654
 40
0.0808542989
100
AcDbArc
 50
0.0273605746
 51
4.7710883826
  0
ARC
  5
349
100
AcDbEntity
  8
ALL_ASSEMBLY_MEMBERS
100
AcDbCircle
 62
7
  6
CONTINUOUS
 10
5.2132739201
 20
4.6669365103
 40
0.0808119706
100
AcDbArc
 50
352.735920489
 51
0.024152552
  0
ARC
  5
34A
100
AcDbEntity
  8
ALL_ASSEMBLY_MEMBERS
100
AcDbCircle
 62
7
  6
CONTINUOUS
 10
5.2132893583
 20
4.7054129297
 40
0.0807965308
100
AcDbArc
 50
352.715182725
 51
0.0234352305
  0
ARC
  5
34B
100
AcDbEntity
  8
ALL_ASSEMBLY_MEMBERS
100
AcDbCircle
 62
7
  6
CONTINUOUS
 10
5.2132996063
 20
4.6861933794
 40
0.0807862994
100
AcDbArc
 50
356.3262241917
 51
359.9720796516
  0
ARC
  5
34C
100
AcDbEntity
  8
ALL_ASSEMBLY_MEMBERS
100
AcDbCircle
 62
7
  6
CONTINUOUS
 10
5.2133498069
 20
4.6861904646
 40
0.0807360974
100
AcDbArc
 50
359.9741308279
 51
4.2319993561
  0
ARC
  5
34D
100
AcDbEntity
  8
ALL_ASSEMBLY_MEMBERS
100
AcDbCircle
 62
7
  6
CONTINUOUS
 10
5.2139575728
 20
4.7272803885
 40
0.0801955187
100
AcDbArc
 50
344.219775732
 51
344.6872690484
  0
ARC
  5
34E
100
AcDbEntity
  8
ALL_ASSEMBLY_MEMBERS
100
AcDbCircle
 62
7
  6
CONTINUOUS
 10
5.212510188
 20
4.7137461683
 40
0.0788876153
100
AcDbArc
 50
345.2187011528
 51
353.1557955661
  0
ARC
  5
34F
100
AcDbEntity
  8
ALL_ASSEMBLY_MEMBERS
100
AcDbCircle
 62
7
  6
CONTINUOUS
 10
5.216548747
 20
4.7266806673
 40
0.0775380279
100
AcDbArc
 50
344.6090406416
 51
359.8445767244
  0
ARC
  5
350
100
AcDbEntity
  8
ALL_ASSEMBLY_MEMBERS
100
AcDbCircle
 62
9
  6
CONTINUOUS
 10
5.5152331575
 20
3.7928391341
 40
0.3765105405
100
AcDbArc
 50
355.9349920084
 51
356.205671098
  0
ARC
  5
351
100
AcDbEntity
  8
ALL_ASSEMBLY_MEMBERS
100
AcDbCircle
 62
9
  6
CONTINUOUS
 10
5.5159924749
 20
3.7927930265
 40
0.3757498364
100
AcDbArc
 50
356.2050243469
 51
359.9968808598
  0
ARC
  5
352
100
AcDbEntity
  8
ALL_ASSEMBLY_MEMBERS
100
AcDbCircle
 62
7
  6
CONTINUOUS
 10
5.3976803317
 20
5.3609911805
 40
0.01125
100
AcDbArc
 50
270.0
 51
360.0
  0
ARC
  5
353
100
AcDbEntity
  8
ALL_ASSEMBLY_MEMBERS
100
AcDbCircle
 62
7
  6
CONTINUOUS
 10
5.1613080488
 20
7.8878009614
 40
1.6875
100
AcDbArc
 50
254.4604045096
 51
263.5855182739
  0
ARC
  5
354
100
AcDbEntity
  8
ALL_ASSEMBLY_MEMBERS
100
AcDbCircle
 62
7
  6
CONTINUOUS
 10
5.5692428317
 20
6.2800512128
 40
0.01875
100
AcDbArc
 50
285.5395954903
 51
360.0
  0
ARC
  5
355
100
AcDbEntity
  8
ALL_ASSEMBLY_MEMBERS
100
AcDbCircle
 62
7
  6
CONTINUOUS
 10
6.3464303317
 20
5.5429382995
 40
0.9375
100
AcDbArc
 50
158.9605302187
 51
180.0
  0
ARC
  5
356
100
AcDbEntity
  8
ALL_ASSEMBLY_MEMBERS
100
AcDbCircle
 62
7
  6
CONTINUOUS
 10
5.7745553317
 20
6.2497411805
 40
1.03125
100
AcDbArc
 50
180.0
 51
201.0394697813
  0
ARC
  5
357
100
AcDbEntity
  8
ALL_ASSEMBLY_MEMBERS
100
AcDbCircle
 62
7
  6
CONTINUOUS
 10
6.3644058752
 20
6.2497411805
 40
0.0470380435
100
AcDbArc
 50
94.7718880608
 51
180.0
  0
SPLINE
  5
358
100
AcDbEntity
  8
ALL_ASSEMBLY_MEMBERS
100
AcDbSpline
 62
7
  6
CONTINUOUS
 70
0
 71
3
 72
26
 73
22
 74
0
 42
0.0000001
 43
0.0000001
 44
0.0000000001
 40
0.0
 40
0.0
 40
0.0
 40
0.0
 40
0.0654611377
 40
0.1307500729
 40
0.1957184067
 40
0.2602403362
 40
0.3242255567
 40
0.3876244771
 40
0.4504323791
 40
0.5126796738
 40
0.5744310668
 40
0.63577765
 40
0.6663373175
 40
0.6968321426
 40
0.7576408579
 40
0.8183078132
 40
0.8486206016
 40
0.87891954
 40
0.9092034427
 40
0.9394738294
 40
1.0
 40
1.0
 40
1.0
 40
1.0
 10
5.140989337
 20
4.4168638386
 30
0.0
 10
5.1356679483
 20
4.416882887
 30
0.0
 10
5.1250361699
 20
4.4173234143
 30
0.0
 10
5.1092209839
 20
4.419190228
 30
0.0
 10
5.0936700208
 20
4.4222549113
 30
0.0
 10
5.0785103823
 20
4.4265066561
 30
0.0
 10
5.0638641922
 20
4.4319300313
 30
0.0
 10
5.0498512193
 20
4.4385078384
 30
0.0
 10
5.0365902035
 20
4.4462194302
 30
0.0
 10
5.0242007923
 20
4.4550396803
 30
0.0
 10
5.012806994
 20
4.464934854
 30
0.0
 10
5.0042358903
 20
4.4740548343
 30
0.0
 10
4.9980163862
 20
4.4818270636
 30
0.0
 10
4.9922524768
 20
4.4898892037
 30
0.0
 10
4.9859085627
 20
4.5005218678
 30
0.0
 10
4.9808302703
 20
4.5118004755
 30
0.0
 10
4.9775924322
 20
4.5211177846
 30
0.0
 10
4.9755878383
 20
4.5282343878
 30
0.0
 10
4.9740158208
 20
4.5354557212
 30
0.0
 10
4.9725109752
 20
4.5451869351
 30
0.0
 10
4.9720553317
 20
4.5525783953
 30
0.0
 10
4.9720553317
 20
4.5574986481
 30
0.0
  0
SPLINE
  5
359
100
AcDbEntity
  8
ALL_ASSEMBLY_MEMBERS
100
AcDbSpline
 62
7
  6
CONTINUOUS
 70
0
 71
3
 72
12
 73
8
 74
0
 42
0.0000001
 43
0.0000001
 44
0.0000000001
 40
0.0
 40
0.0
 40
0.0
 40
0.0
 40
0.2470010997
 40
0.4964996982
 40
0.621975668
 40
0.7478078161
 40
1.0
 40
1.0
 40
1.0
 40
1.0
 10
5.2179830771
 20
4.4314886401
 30
0.0
 10
5.2119732364
 20
4.4290351329
 30
0.0
 10
5.1996255475
 20
4.42473559
 30
0.0
 10
5.1837033355
 20
4.4209209717
 30
0.0
 10
5.1707108273
 20
4.4187891498
 30
0.0
 10
5.1575619287
 20
4.4172737252
 30
0.0
 10
5.1476170899
 20
4.416840114
 30
0.0
 10
5.140989337
 20
4.4168638386
 30
0.0
  0
SPLINE
  5
35A
100
AcDbEntity
  8
ALL_ASSEMBLY_MEMBERS
100
AcDbSpline
 62
7
  6
CONTINUOUS
 70
0
 71
3
 72
17
 73
13
 74
0
 42
0.0000001
 43
0.0000001
 44
0.0000000001
 40
0.0
 40
0.0
 40
0.0
 40
0.0
 40
0.1411283215
 40
0.2778292828
 40
0.4096322953
 40
0.5364477138
 40
0.5980344249
 40
0.6584298182
 40
0.7758254684
 40
0.8893482765
 40
0.9449752912
 40
1.0
 40
1.0
 40
1.0
 40
1.0
 10
5.2065464384
 20
4.3991272187
 30
0.0
 10
5.2106623403
 20
4.4008075286
 30
0.0
 10
5.2186233881
 20
4.4044782666
 30
0.0
 10
5.2297907179
 20
4.4109840574
 30
0.0
 10
5.2398716772
 20
4.4183340138
 30
0.0
 10
5.2473348708
 20
4.4251558819
 30
0.0
 10
5.2526214379
 20
4.4309479064
 30
0.0
 10
5.2573504542
 20
4.4368266673
 30
0.0
 10
5.2624064605
 20
4.4445191786
 30
0.0
 10
5.2662811552
 20
4.4527093435
 30
0.0
 10
5.2685729958
 20
4.4593945363
 30
0.0
 10
5.2694511848
 20
4.4627720509
 30
0.0
 10
5.2698220864
 20
4.4644652357
 30
0.0
  0
SPLINE
  5
35B
100
AcDbEntity
  8
ALL_ASSEMBLY_MEMBERS
100
AcDbSpline
 62
7
  6
CONTINUOUS
 70
0
 71
3
 72
20
 73
16
 74
0
 42
0.0000001
 43
0.0000001
 44
0.0000000001
 40
0.0
 40
0.0
 40
0.0
 40
0.0
 40
0.0615817219
 40
0.1231372657
 40
0.1847287821
 40
0.2463595373
 40
0.3080373558
 40
0.3697917993
 40
0.4316565847
 40
0.4936690389
 40
0.5558714204
 40
0.6183124003
 40
0.7440122275
 40
0.8711828922
 40
1.0
 40
1.0
 40
1.0
 40
1.0
 10
5.3114303317
 20
4.5574986481
 30
0.0
 10
5.3114303317
 20
4.5540803981
 30
0.0
 10
5.3111379309
 20
4.547241775
 30
0.0
 10
5.3098280171
 20
4.5370600848
 30
0.0
 10
5.3076602645
 20
4.5270226461
 30
0.0
 10
5.3046599698
 20
4.5171952886
 30
0.0
 10
5.3008551855
 20
4.5076411323
 30
0.0
 10
5.2962850841
 20
4.4984145664
 30
0.0
 10
5.2909896069
 20
4.4895631988
 30
0.0
 10
5.2850139412
 20
4.4811263597
 30
0.0
 10
5.2784017772
 20
4.4731370784
 30
0.0
 10
5.2687807426
 20
4.4630965199
 30
0.0
 10
5.2553569057
 20
4.4517718833
 30
0.0
 10
5.2374621772
 20
4.440330464
 30
0.0
 10
5.2246029879
 20
4.4341912074
 30
0.0
 10
5.2179830771
 20
4.4314886401
 30
0.0
  0
SPLINE
  5
35C
100
AcDbEntity
  8
ALL_ASSEMBLY_MEMBERS
100
AcDbSpline
 62
7
  6
CONTINUOUS
 70
0
 71
3
 72
15
 73
11
 74
0
 42
0.0000001
 43
0.0000001
 44
0.0000000001
 40
0.0
 40
0.0
 40
0.0
 40
0.0
 40
0.1211365621
 40
0.2426665153
 40
0.3649730572
 40
0.4884223454
 40
0.6133580185
 40
0.7400884165
 40
0.8688903368
 40
1.0
 40
1.0
 40
1.0
 40
1.0
 10
5.3114301169
 20
4.6429214464
 30
0.0
 10
5.3114300403
 20
4.645204985
 30
0.0
 10
5.3112449897
 20
4.6497816281
 30
0.0
 10
5.3104127629
 20
4.6566182752
 30
0.0
 10
5.3090303493
 20
4.663410013
 30
0.0
 10
5.3071017078
 20
4.6701337992
 30
0.0
 10
5.3046328831
 20
4.6767673265
 30
0.0
 10
5.30163368
 20
4.6832895242
 30
0.0
 10
5.2981131254
 20
4.6896782232
 30
0.0
 10
5.2954509501
 20
4.6937968761
 30
0.0
 10
5.2940406882
 20
4.6958265746
 30
0.0
  0
SPLINE
  5
35D
100
AcDbEntity
  8
ALL_ASSEMBLY_MEMBERS
100
AcDbSpline
 62
7
  6
CONTINUOUS
 70
0
 71
3
 72
14
 73
10
 74
0
 42
0.0000001
 43
0.0000001
 44
0.0000000001
 40
0.0
 40
0.0
 40
0.0
 40
0.0
 40
0.1217170705
 40
0.2437655366
 40
0.3664726189
 40
0.4901514553
 40
0.6150969365
 40
0.7415848583
 40
1.0
 40
1.0
 40
1.0
 40
1.0
 10
4.9720555465
 20
4.6429099403
 30
0.0
 10
4.9720554763
 20
4.6450048294
 30
0.0
 10
4.9722108276
 20
4.6492019628
 30
0.0
 10
4.9729093458
 20
4.6554760409
 30
0.0
 10
4.9740727225
 20
4.6617154073
 30
0.0
 10
4.9756962507
 20
4.66790232
 30
0.0
 10
4.9777756536
 20
4.6740204064
 30
0.0
 10
4.9811718448
 20
4.6821170503
 30
0.0
 10
4.9843558003
 20
4.6879551793
 30
0.0
 10
4.9867255869
 20
4.6917188769
 30
0.0
  0
SPLINE
  5
35E
100
AcDbEntity
  8
ALL_ASSEMBLY_MEMBERS
100
AcDbSpline
 62
7
  6
CONTINUOUS
 70
0
 71
3
 72
14
 73
10
 74
0
 42
0.0000001
 43
0.0000001
 44
0.0000000001
 40
0.0
 40
0.0
 40
0.0
 40
0.0
 40
0.1349587468
 40
0.2673882406
 40
0.5234952212
 40
0.6471167737
 40
0.7677091868
 40
0.8853029146
 40
1.0
 40
1.0
 40
1.0
 40
1.0
 10
5.2265865817
 20
4.5390037457
 30
0.0
 10
5.2300464085
 20
4.5404162141
 30
0.0
 10
5.2368233798
 20
4.5434119843
 30
0.0
 10
5.2497137755
 20
4.5500541161
 30
0.0
 10
5.2617089062
 20
4.5577104769
 30
0.0
 10
5.2725620261
 20
4.5663360038
 30
0.0
 10
5.2799458992
 20
4.5731213381
 30
0.0
 10
5.2866288075
 20
4.5802625796
 30
0.0
 10
5.2906427033
 20
4.585299505
 30
0.0
 10
5.2925157806
 20
4.5878643623
 30
0.0
  0
SPLINE
  5
35F
100
AcDbEntity
  8
ALL_ASSEMBLY_MEMBERS
100
AcDbSpline
 62
7
  6
CONTINUOUS
 70
0
 71
3
 72
15
 73
11
 74
0
 42
0.0000001
 43
0.0000001
 44
0.0000000001
 40
0.0
 40
0.0
 40
0.0
 40
0.0
 40
0.1314425879
 40
0.2604598297
 40
0.3872965435
 40
0.5122350593
 40
0.635601332
 40
0.7577563037
 40
0.8790862882
 40
1.0
 40
1.0
 40
1.0
 40
1.0
 10
5.2929390334
 20
4.5884478369
 30
0.0
 10
5.2944366496
 20
4.5905263307
 30
0.0
 10
5.2972645754
 20
4.5947480519
 30
0.0
 10
5.3010071608
 20
4.6013107913
 30
0.0
 10
5.3041980344
 20
4.6080194392
 30
0.0
 10
5.3068245285
 20
4.6148509176
 30
0.0
 10
5.3088768391
 20
4.6217814122
 30
0.0
 10
5.3103489051
 20
4.6287864377
 30
0.0
 10
5.3112334741
 20
4.6358411099
 30
0.0
 10
5.3114301959
 20
4.6405648222
 30
0.0
 10
5.3114301169
 20
4.6429214464
 30
0.0
  0
SPLINE
  5
360
100
AcDbEntity
  8
ALL_ASSEMBLY_MEMBERS
100
AcDbSpline
 62
9
  6
CONTINUOUS
 70
0
 71
3
 72
9
 73
5
 74
0
 42
0.0000001
 43
0.0000001
 44
0.0000000001
 40
0.0
 40
0.0
 40
0.0
 40
0.0
 40
0.4948732273
 40
1.0
 40
1.0
 40
1.0
 40
1.0
 10
5.2065464384
 20
4.3991272187
 30
0.0
 10
5.2028866239
 20
4.3976331057
 30
0.0
 10
5.1953692177
 20
4.3949058422
 30
0.0
 10
5.1876705449
 20
4.3927458206
 30
0.0
 10
5.1837490161
 20
4.3917958263
 30
0.0
  0
SPLINE
  5
361
100
AcDbEntity
  8
ALL_ASSEMBLY_MEMBERS
100
AcDbSpline
 62
9
  6
CONTINUOUS
 70
0
 71
3
 72
26
 73
22
 74
0
 42
0.0000001
 43
0.0000001
 44
0.0000000001
 40
0.0
 40
0.0
 40
0.0
 40
0.0
 40
0.137328783
 40
0.2068830326
 40
0.2764451214
 40
0.3456032361
 40
0.4139577064
 40
0.4811320774
 40
0.5467878694
 40
0.6106386608
 40
0.6418231944
 40
0.6724797021
 40
0.7321302966
 40
0.7895590965
 40
0.8448203684
 40
0.8717012429
 40
0.8981142673
 40
0.9241002878
 40
0.94970614
 40
0.9749858224
 40
1.0
 40
1.0
 40
1.0
 40
1.0
 10
5.1837490161
 20
4.3917958263
 30
0.0
 10
5.1747062125
 20
4.3896051982
 30
0.0
 10
5.1607822956
 20
4.3874213833
 30
0.0
 10
5.1420561176
 20
4.3866676162
 30
0.0
 10
5.127939135
 20
4.3871874898
 30
0.0
 10
5.1139871045
 20
4.3887894624
 30
0.0
 10
5.1003623129
 20
4.3914538172
 30
0.0
 10
5.0872261227
 20
4.3951505554
 30
0.0
 10
5.0747342193
 20
4.3998360961
 30
0.0
 10
5.064904911
 20
4.404556472
 30
0.0
 10
5.0575089138
 20
4.4087840005
 30
0.0
 10
5.0505682609
 20
4.4132141873
 30
0.0
 10
5.0425443082
 20
4.4192312504
 30
0.0
 10
5.0340019657
 20
4.4272264373
 30
0.0
 10
5.0278892725
 20
4.4344759028
 30
0.0
 10
5.0237075355
 20
4.4405317203
 30
0.0
 10
5.0209517131
 20
4.4451471651
 30
0.0
 10
5.0185557071
 20
4.4498625357
 30
0.0
 10
5.0165271219
 20
4.4546643734
 30
0.0
 10
5.0148730361
 20
4.4595380935
 30
0.0
 10
5.0140186756
 20
4.4628406685
 30
0.0
 10
5.0136566909
 20
4.4644963312
 30
0.0
  0
SPLINE
  5
362
100
AcDbEntity
  8
ALL_ASSEMBLY_MEMBERS
100
AcDbSpline
 62
9
  6
CONTINUOUS
 70
0
 71
3
 72
20
 73
16
 74
0
 42
0.0000001
 43
0.0000001
 44
0.0000000001
 40
0.0
 40
0.0
 40
0.0
 40
0.0
 40
0.1383915055
 40
0.2059111568
 40
0.2722821558
 40
0.4016577042
 40
0.5269226293
 40
0.5881934628
 40
0.6486436187
 40
0.7083672753
 40
0.7674675932
 40
0.8260578777
 40
0.8842584935
 40
0.9421955375
 40
1.0
 40
1.0
 40
1.0
 40
1.0
 10
5.2637783045
 20
4.4741284165
 30
0.0
 10
5.2674888691
 20
4.476844137
 30
0.0
 10
5.2728327755
 20
4.4811377769
 30
0.0
 10
5.2794503505
 20
4.4873108137
 30
0.0
 10
5.2855385524
 20
4.4935962381
 30
0.0
 10
5.292355305
 20
4.501827572
 30
0.0
 10
5.2981186437
 20
4.5106306677
 30
0.0
 10
5.3019806384
 20
4.5178763997
 30
0.0
 10
5.304486716
 20
4.5233639115
 30
0.0
 10
5.3066177493
 20
4.5289304891
 30
0.0
 10
5.3083680528
 20
4.5345637736
 30
0.0
 10
5.3097337182
 20
4.5402504834
 30
0.0
 10
5.3107119412
 20
4.5459774558
 30
0.0
 10
5.3112994482
 20
4.5517311381
 30
0.0
 10
5.3114301666
 20
4.5555780361
 30
0.0
 10
5.3114302045
 20
4.5574986481
 30
0.0
  0
SPLINE
  5
363
100
AcDbEntity
  8
ALL_ASSEMBLY_MEMBERS
100
AcDbSpline
 62
7
  6
CONTINUOUS
 70
0
 71
3
 72
25
 73
21
 74
0
 42
0.0000001
 43
0.0000001
 44
0.0000000001
 40
0.0
 40
0.0
 40
0.0
 40
0.0
 40
0.0239853384
 40
0.0492345644
 40
0.075702598
 40
0.1033151516
 40
0.1319829254
 40
0.1615754077
 40
0.2229889203
 40
0.2866080066
 40
0.3516064873
 40
0.4173743617
 40
0.4834851625
 40
0.5496193117
 40
0.6155537301
 40
0.6811289012
 40
0.7462139995
 40
0.8107347113
 40
0.8746084672
 40
1.0
 40
1.0
 40
1.0
 40
1.0
 10
5.2637783045
 20
4.4741284165
 30
0.0
 10
5.2637783045
 20
4.4736688347
 30
0.0
 10
5.2637191458
 20
4.4727248406
 30
0.0
 10
5.2634746324
 20
4.4712927944
 30
0.0
 10
5.2630774194
 20
4.4698233868
 30
0.0
 10
5.2625343269
 20
4.4683320179
 30
0.0
 10
5.2618588654
 20
4.4668302105
 30
0.0
 10
5.2607840492
 20
4.4648031465
 30
0.0
 10
5.2591701819
 20
4.4623114912
 30
0.0
 10
5.2569203951
 20
4.4594437576
 30
0.0
 10
5.2544065884
 20
4.4566913775
 30
0.0
 10
5.2516916079
 20
4.4540692885
 30
0.0
 10
5.2488214476
 20
4.4515853375
 30
0.0
 10
5.2458332529
 20
4.449240105
 30
0.0
 10
5.2427543181
 20
4.4470332641
 30
0.0
 10
5.2396064418
 20
4.4449625762
 30
0.0
 10
5.2364066879
 20
4.4430250048
 30
0.0
 10
5.2331676587
 20
4.4412198455
 30
0.0
 10
5.2288402942
 20
4.4390002815
 30
0.0
 10
5.2255297258
 20
4.4375105701
 30
0.0
 10
5.2233053317
 20
4.4366024651
 30
0.0
  0
SPLINE
  5
364
100
AcDbEntity
  8
ALL_ASSEMBLY_MEMBERS
100
AcDbSpline
 62
7
  6
CONTINUOUS
 70
0
 71
3
 72
25
 73
21
 74
0
 42
0.0000001
 43
0.0000001
 44
0.0000000001
 40
0.0
 40
0.0
 40
0.0
 40
0.0
 40
0.1500436271
 40
0.294797171
 40
0.364857464
 40
0.4331293981
 40
0.4994002472
 40
0.563435705
 40
0.6249818588
 40
0.6837972778
 40
0.7397237198
 40
0.7666323816
 40
0.7928823902
 40
0.8185544634
 40
0.8437899585
 40
0.8687794764
 40
0.893776533
 40
0.9190907726
 40
0.9450558511
 40
1.0
 40
1.0
 40
1.0
 40
1.0
 10
5.2233053317
 20
4.4366024651
 30
0.0
 10
5.2211430665
 20
4.435719724
 30
0.0
 10
5.2168335761
 20
4.4341307558
 30
0.0
 10
5.2113641804
 20
4.4325753813
 30
0.0
 10
5.2070520093
 20
4.4316616029
 30
0.0
 10
5.2039054476
 20
4.4311597998
 30
0.0
 10
5.2008280519
 20
4.430849862
 30
0.0
 10
5.1978407603
 20
4.4307512066
 30
0.0
 10
5.1949699097
 20
4.4308876069
 30
0.0
 10
5.1922500678
 20
4.4312874299
 30
0.0
 10
5.1901168174
 20
4.4318766314
 30
0.0
 10
5.1885443862
 20
4.4325223511
 30
0.0
 10
5.1874541267
 20
4.4330894558
 30
0.0
 10
5.1864483288
 20
4.4337500144
 30
0.0
 10
5.1855388728
 20
4.4345084412
 30
0.0
 10
5.1847380686
 20
4.4353672208
 30
0.0
 10
5.1840597832
 20
4.4363277122
 30
0.0
 10
5.1835169833
 20
4.437388439
 30
0.0
 10
5.1829799638
 20
4.4389569752
 30
0.0
 10
5.182832359
 20
4.440227136
 30
0.0
 10
5.182832359
 20
4.4410823726
 30
0.0
  0
SPLINE
  5
365
100
AcDbEntity
  8
ALL_ASSEMBLY_MEMBERS
100
AcDbSpline
 62
7
  6
CONTINUOUS
 70
0
 71
3
 72
25
 73
21
 74
0
 42
0.0000001
 43
0.0000001
 44
0.0000000001
 40
0.0
 40
0.0
 40
0.0
 40
0.0
 40
0.0636210501
 40
0.1286311052
 40
0.1946799626
 40
0.2614549313
 40
0.3285977231
 40
0.3957393333
 40
0.4625147288
 40
0.5285675963
 40
0.5935623643
 40
0.6571936176
 40
0.7191984869
 40
0.7793670271
 40
0.8375525188
 40
0.8658865615
 40
0.8937053467
 40
0.9210146279
 40
0.9478252092
 40
1.0
 40
1.0
 40
1.0
 40
1.0
 10
5.2265865817
 20
4.5390037457
 30
0.0
 10
5.2213961037
 20
4.5368847419
 30
0.0
 10
5.210713697
 20
4.5330483508
 30
0.0
 10
5.1941380319
 20
4.5285614511
 30
0.0
 10
5.1769906974
 20
4.5253220809
 30
0.0
 10
5.1594619939
 20
4.5233648604
 30
0.0
 10
5.1417403304
 20
4.5227099222
 30
0.0
 10
5.124018636
 20
4.5233648487
 30
0.0
 10
5.1064896635
 20
4.5253231008
 30
0.0
 10
5.0893436949
 20
4.5285627981
 30
0.0
 10
5.0727668918
 20
4.5330491488
 30
0.0
 10
5.0569395987
 20
4.5387348311
 30
0.0
 10
5.0420331361
 20
4.5455584341
 30
0.0
 10
5.0282102063
 20
4.5534463435
 30
0.0
 10
5.017624748
 20
4.5609054381
 30
0.0
 10
5.009857631
 20
4.56732962
 30
0.0
 10
5.0044444361
 20
4.5723138647
 30
0.0
 10
4.9994065511
 20
4.5774922959
 30
0.0
 10
4.9932660474
 20
4.584569698
 30
0.0
 10
4.9891721285
 20
4.5902270644
 30
0.0
 10
4.9867224729
 20
4.594117827
 30
0.0
  0
SPLINE
  5
366
100
AcDbEntity
  8
ALL_ASSEMBLY_MEMBERS
100
AcDbSpline
 62
7
  6
CONTINUOUS
 70
0
 71
3
 72
15
 73
11
 74
0
 42
0.0000001
 43
0.0000001
 44
0.0000000001
 40
0.0
 40
0.0
 40
0.0
 40
0.0
 40
0.1302613371
 40
0.2585164986
 40
0.3849860266
 40
0.5099156176
 40
0.6335769455
 40
0.756267678
 40
0.8783001665
 40
1.0
 40
1.0
 40
1.0
 40
1.0
 10
4.9867224729
 20
4.594117827
 30
0.0
 10
4.985528206
 20
4.5960146688
 30
0.0
 10
4.9832758366
 20
4.5998549961
 30
0.0
 10
4.9803049579
 20
4.6057814469
 30
0.0
 10
4.9777761909
 20
4.6118107266
 30
0.0
 10
4.9756967961
 20
4.6179260859
 30
0.0
 10
4.9740738714
 20
4.6241110589
 30
0.0
 10
4.972910888
 20
4.6303482558
 30
0.0
 10
4.9722111465
 20
4.6366200537
 30
0.0
 10
4.9720556168
 20
4.6408157724
 30
0.0
 10
4.9720555465
 20
4.6429099403
 30
0.0
  0
SPLINE
  5
367
100
AcDbEntity
  8
ALL_ASSEMBLY_MEMBERS
100
AcDbSpline
 62
9
  6
CONTINUOUS
 70
0
 71
3
 72
26
 73
22
 74
0
 42
0.0000001
 43
0.0000001
 44
0.0000000001
 40
0.0
 40
0.0
 40
0.0
 40
0.0
 40
0.0251821038
 40
0.050444888
 40
0.0758670659
 40
0.1015241193
 40
0.1274863212
 40
0.1538176193
 40
0.2077740373
 40
0.2637853071
 40
0.3220702951
 40
0.3827134953
 40
0.4456758983
 40
0.5108100352
 40
0.5778764527
 40
0.6465602926
 40
0.7164880961
 40
0.7872452487
 40
0.8583836286
 40
0.929458528
 40
1.0
 40
1.0
 40
1.0
 40
1.0
 10
4.972055459
 20
4.5574986153
 30
0.0
 10
4.9720554151
 20
4.5552290284
 30
0.0
 10
4.9722380093
 20
4.5506804659
 30
0.0
 10
4.9730594642
 20
4.5438853815
 30
0.0
 10
4.9744244989
 20
4.5371343075
 30
0.0
 10
4.9763296737
 20
4.5304501668
 30
0.0
 10
4.9787678994
 20
4.523854043
 30
0.0
 10
4.9827497336
 20
4.5151369989
 30
0.0
 10
4.9890645053
 20
4.5045486032
 30
0.0
 10
4.9985364544
 20
4.4926542017
 30
0.0
 10
5.0098392606
 20
4.4816073839
 30
0.0
 10
5.0228238315
 20
4.4715462831
 30
0.0
 10
5.0373229918
 20
4.4625940448
 30
0.0
 10
5.0531513621
 20
4.4548614701
 30
0.0
 10
5.0701073802
 20
4.4484446073
 30
0.0
 10
5.0879752836
 20
4.4434236976
 30
0.0
 10
5.1065277981
 20
4.4398614158
 30
0.0
 10
5.1255284036
 20
4.4378029578
 30
0.0
 10
5.1447363073
 20
4.4372733959
 30
0.0
 10
5.1639043369
 20
4.4382804776
 30
0.0
 10
5.1765714174
 20
4.4399774621
 30
0.0
 10
5.182832359
 20
4.4410823726
 30
0.0
  0
SPLINE
  5
368
100
AcDbEntity
  8
ALL_ASSEMBLY_MEMBERS
100
AcDbSpline
 62
7
  6
CONTINUOUS
 70
0
 71
3
 72
17
 73
13
 74
0
 42
0.0000001
 43
0.0000001
 44
0.0000000001
 40
0.0
 40
0.0
 40
0.0
 40
0.0
 40
0.1361873031
 40
0.2684113677
 40
0.3331211108
 40
0.3969360798
 40
0.4599040885
 40
0.5220811568
 40
0.6442847625
 40
0.7641906926
 40
0.8825034502
 40
1.0
 40
1.0
 40
1.0
 40
1.0
 10
5.3106767909
 20
4.5440960854
 30
0.0
 10
5.3143650316
 20
4.5408082057
 30
0.0
 10
5.3213650683
 20
4.5340178205
 30
0.0
 10
5.3292549373
 20
4.5248379056
 30
0.0
 10
5.3348855219
 20
4.517231708
 30
0.0
 10
5.3387398849
 20
4.5114478891
 30
0.0
 10
5.3422483981
 20
4.5055543576
 30
0.0
 10
5.3464313178
 20
4.4976111282
 30
0.0
 10
5.3507903393
 20
4.4874425435
 30
0.0
 10
5.3545752594
 20
4.4748965286
 30
0.0
 10
5.3568592405
 20
4.4621660041
 30
0.0
 10
5.3573677924
 20
4.453602065
 30
0.0
 10
5.3573676732
 20
4.4493392008
 30
0.0
  0
SPLINE
  5
369
100
AcDbEntity
  8
ALL_ASSEMBLY_MEMBERS
100
AcDbSpline
 62
7
  6
CONTINUOUS
 70
0
 71
3
 72
22
 73
18
 74
0
 42
0.0000001
 43
0.0000001
 44
0.0000000001
 40
0.0
 40
0.0
 40
0.0
 40
0.0
 40
0.0618406289
 40
0.1248575756
 40
0.1888067333
 40
0.2534816584
 40
0.38399113
 40
0.4493870747
 40
0.5145216474
 40
0.5791477979
 40
0.6430294709
 40
0.7059452578
 40
0.7676938055
 40
0.8280999006
 40
0.8870179744
 40
0.9443401778
 40
1.0
 40
1.0
 40
1.0
 40
1.0
 10
5.2495553317
 20
4.0680472652
 30
0.0
 10
5.244031171
 20
4.065792036
 30
0.0
 10
5.2327107611
 20
4.0616376938
 30
0.0
 10
5.2152097407
 20
4.0565344503
 30
0.0
 10
5.1971421907
 20
4.0525357171
 30
0.0
 10
5.172421356
 20
4.0487070519
 30
0.0
 10
5.1472446923
 20
4.0472145238
 30
0.0
 10
5.1220602336
 20
4.0480603129
 30
0.0
 10
5.103303569
 20
4.0498633446
 30
0.0
 10
5.084842909
 20
4.0528218115
 30
0.0
 10
5.066818279
 20
4.0569118913
 30
0.0
 10
5.0493684338
 20
4.0621034703
 30
0.0
 10
5.0326269992
 20
4.0683568555
 30
0.0
 10
5.0167221695
 20
4.0756239324
 30
0.0
 10
5.001776128
 20
4.0838512965
 30
0.0
 10
4.9879042603
 20
4.0929743914
 30
0.0
 10
4.979313506
 20
4.0997111447
 30
0.0
 10
4.9752403197
 20
4.1032112133
 30
0.0
  0
SPLINE
  5
36A
100
AcDbEntity
  8
ALL_ASSEMBLY_MEMBERS
100
AcDbSpline
 62
7
  6
CONTINUOUS
 70
0
 71
3
 72
17
 73
13
 74
0
 42
0.0000001
 43
0.0000001
 44
0.0000000001
 40
0.0
 40
0.0
 40
0.0
 40
0.0
 40
0.1366091341
 40
0.2691322108
 40
0.39778134
 40
0.460780789
 40
0.5229556793
 40
0.6450586182
 40
0.7051894174
 40
0.7648065609
 40
0.8828321111
 40
1.0
 40
1.0
 40
1.0
 40
1.0
 10
4.9752403197
 20
4.1032112133
 30
0.0
 10
4.9713697212
 20
4.1065371992
 30
0.0
 10
4.9640195578
 20
4.1134202154
 30
0.0
 10
4.9541380043
 20
4.1245462506
 30
0.0
 10
4.9470069452
 20
4.1343621597
 30
0.0
 10
4.9420482782
 20
4.1424490746
 30
0.0
 10
4.9376444927
 20
4.1505731139
 30
0.0
 10
4.9339521626
 20
4.1589483775
 30
0.0
 10
4.9310321857
 20
4.167502766
 30
0.0
 10
4.9286556112
 20
4.1760661011
 30
0.0
 10
4.9266541099
 20
4.1869235755
 30
0.0
 10
4.9261179058
 20
4.1957185241
 30
0.0
 10
4.9261180167
 20
4.2000955622
 30
0.0
  0
SPLINE
  5
36B
100
AcDbEntity
  8
ALL_ASSEMBLY_MEMBERS
100
AcDbSpline
 62
7
  6
CONTINUOUS
 70
0
 71
3
 72
14
 73
10
 74
0
 42
0.0000001
 43
0.0000001
 44
0.0000000001
 40
0.0
 40
0.0
 40
0.0
 40
0.0
 40
0.2608679236
 40
0.3881255511
 40
0.5134506395
 40
0.6370540139
 40
0.7591700428
 40
0.8800575348
 40
1.0
 40
1.0
 40
1.0
 40
1.0
 10
5.2922157458
 20
4.4917691817
 30
0.0
 10
5.2951355262
 20
4.4881670638
 30
0.0
 10
5.2991768617
 20
4.4825480449
 30
0.0
 10
5.3037817378
 20
4.4746632519
 30
0.0
 10
5.3067742605
 20
4.4686778951
 30
0.0
 10
5.3093254448
 20
4.4625907701
 30
0.0
 10
5.3114286531
 20
4.4564175556
 30
0.0
 10
5.3130766754
 20
4.450175052
 30
0.0
 10
5.3138722477
 20
4.4459645129
 30
0.0
 10
5.3141918982
 20
4.443856671
 30
0.0
  0
LINE
  5
36C
100
AcDbEntity
  8
ALL_ASSEMBLY_MEMBERS
100
AcDbLine
 62
7
  6
CONTINUOUS
 10
5.3141918982
 20
4.443856671
 11
5.3142308753
 21
4.4435970435
  0
SPLINE
  5
36D
100
AcDbEntity
  8
ALL_ASSEMBLY_MEMBERS
100
AcDbSpline
 62
7
  6
CONTINUOUS
 70
0
 71
3
 72
13
 73
9
 74
0
 42
0.0000001
 43
0.0000001
 44
0.0000000001
 40
0.0
 40
0.0
 40
0.0
 40
0.0
 40
0.2609067146
 40
0.5133903236
 40
0.6370101718
 40
0.7591402233
 40
0.8800432411
 40
1.0
 40
1.0
 40
1.0
 40
1.0
 10
4.991278243
 20
4.4917791907
 30
0.0
 10
4.9883573739
 20
4.4881763967
 30
0.0
 10
4.9830114675
 20
4.4807482269
 30
0.0
 10
4.9775881517
 20
4.470768884
 30
0.0
 10
4.974161444
 20
4.4625952323
 30
0.0
 10
4.9720582043
 20
4.4564202436
 30
0.0
 10
4.9704092986
 20
4.4501764795
 30
0.0
 10
4.9696132023
 20
4.4459649842
 30
0.0
 10
4.9692935342
 20
4.4438566456
 30
0.0
  0
LINE
  5
36E
100
AcDbEntity
  8
ALL_ASSEMBLY_MEMBERS
100
AcDbLine
 62
7
  6
CONTINUOUS
 10
4.9692935342
 20
4.4438566456
 11
4.9692554405
 21
4.4436029077
  0
SPLINE
  5
36F
100
AcDbEntity
  8
ALL_ASSEMBLY_MEMBERS
100
AcDbSpline
 62
7
  6
CONTINUOUS
 70
0
 71
3
 72
33
 73
29
 74
0
 42
0.0000001
 43
0.0000001
 44
0.0000000001
 40
0.0
 40
0.0
 40
0.0
 40
0.0
 40
0.0331197094
 40
0.0667398098
 40
0.1351498373
 40
0.2047203112
 40
0.2748901169
 40
0.3450588729
 40
0.4146315651
 40
0.4490242697
 40
0.483057676
 40
0.516668871
 40
0.549800266
 40
0.5823992863
 40
0.6144213062
 40
0.6458280335
 40
0.6765910001
 40
0.7360860859
 40
0.7648425889
 40
0.792942585
 40
0.8204136159
 40
0.8472948455
 40
0.873639878
 40
0.8995139502
 40
0.9249949443
 40
0.9501708547
 40
0.9751383067
 40
1.0
 40
1.0
 40
1.0
 40
1.0
 10
5.2284615817
 20
4.3378335668
 30
0.0
 10
5.2251605287
 20
4.3364859176
 30
0.0
 10
5.2184346594
 20
4.3339474496
 30
0.0
 10
5.2045727568
 20
4.3295106288
 30
0.0
 10
5.1865731397
 20
4.3252096469
 30
0.0
 10
5.1643493379
 20
4.3220979208
 30
0.0
 10
5.1417426357
 20
4.3210544344
 30
0.0
 10
5.1191371957
 20
4.3220976817
 30
0.0
 10
5.1005415085
 20
4.3247016585
 30
0.0
 10
5.0860100749
 20
4.32781527
 30
0.0
 10
5.0753892727
 20
4.3306383545
 30
0.0
 10
5.0650520596
 20
4.3339467762
 30
0.0
 10
5.0550418264
 20
4.3377251542
 30
0.0
 10
5.0454018959
 20
4.3419591465
 30
0.0
 10
5.0361729408
 20
4.3466290066
 30
0.0
 10
5.0273942166
 20
4.3517169501
 30
0.0
 10
5.0164648205
 20
4.3589446481
 30
0.0
 10
5.0064341149
 20
4.3669849466
 30
0.0
 10
4.9975049111
 20
4.3757813092
 30
0.0
 10
4.9914989554
 20
4.382600062
 30
0.0
 10
4.9861348262
 20
4.3896829715
 30
0.0
 10
4.9814371313
 20
4.3970016846
 30
0.0
 10
4.9774252233
 20
4.4045239633
 30
0.0
 10
4.9741179042
 20
4.4122183846
 30
0.0
 10
4.9715297576
 20
4.4200515328
 30
0.0
 10
4.9696720814
 20
4.4279897333
 30
0.0
 10
4.9685547115
 20
4.4359977098
 30
0.0
 10
4.9683053315
 20
4.4413653937
 30
0.0
 10
4.9683053317
 20
4.4440419111
 30
0.0
  0
SPLINE
  5
370
100
AcDbEntity
  8
ALL_ASSEMBLY_MEMBERS
100
AcDbSpline
 62
7
  6
CONTINUOUS
 70
0
 71
3
 72
20
 73
16
 74
0
 42
0.0000001
 43
0.0000001
 44
0.0000000001
 40
0.0
 40
0.0
 40
0.0
 40
0.0
 40
0.0587139992
 40
0.1175309724
 40
0.1765523963
 40
0.2358768333
 40
0.2955999699
 40
0.3558129087
 40
0.416600519
 40
0.4780422245
 40
0.603124949
 40
0.7315784268
 40
0.7972066756
 40
0.8638081602
 40
1.0
 40
1.0
 40
1.0
 40
1.0
 10
4.9261179902
 20
4.4493512232
 30
0.0
 10
4.9261180497
 20
4.4514806757
 30
0.0
 10
4.926244511
 20
4.4557443954
 30
0.0
 10
4.9268135326
 20
4.4621258649
 30
0.0
 10
4.9277601327
 20
4.4684849002
 30
0.0
 10
4.9290823832
 20
4.4748100293
 30
0.0
 10
4.9307786312
 20
4.4810900149
 30
0.0
 10
4.9328456154
 20
4.487313712
 30
0.0
 10
4.935279176
 20
4.4934705501
 30
0.0
 10
4.9390289709
 20
4.5016228571
 30
0.0
 10
4.9446355322
 20
4.5116019261
 30
0.0
 10
4.9513117125
 20
4.5210822356
 30
0.0
 10
4.9572967242
 20
4.5284051608
 30
0.0
 10
4.9638039694
 20
4.5356495779
 30
0.0
 10
4.9690915445
 20
4.5407801175
 30
0.0
 10
4.9727778514
 20
4.5440678481
 30
0.0
  0
SPLINE
  5
371
100
AcDbEntity
  8
ALL_ASSEMBLY_MEMBERS
100
AcDbSpline
 62
7
  6
CONTINUOUS
 70
0
 71
3
 72
20
 73
16
 74
0
 42
0.0000001
 43
0.0000001
 44
0.0000000001
 40
0.0
 40
0.0
 40
0.0
 40
0.0
 40
0.0585478862
 40
0.1172039948
 40
0.176075097
 40
0.2352647216
 40
0.2948731653
 40
0.3549954634
 40
0.4157195692
 40
0.4771274225
 40
0.602238982
 40
0.6661087972
 40
0.7309086175
 40
0.8634097773
 40
1.0
 40
1.0
 40
1.0
 40
1.0
 10
5.3573676467
 20
4.2000845811
 30
0.0
 10
5.3573675913
 20
4.1978974111
 30
0.0
 10
5.357234215
 20
4.1935178582
 30
0.0
 10
5.356633978
 20
4.1869638167
 30
0.0
 10
5.3556354028
 20
4.1804340989
 30
0.0
 10
5.3542407017
 20
4.1739411201
 30
0.0
 10
5.3524517339
 20
4.1674970492
 30
0.0
 10
5.3502721311
 20
4.1611139932
 30
0.0
 10
5.3477064982
 20
4.1548033226
 30
0.0
 10
5.3437534035
 20
4.1464516039
 30
0.0
 10
5.3390573035
 20
4.1383376467
 30
0.0
 10
5.3336881812
 20
4.130520455
 30
0.0
 10
5.3277636606
 20
4.1227638086
 30
0.0
 10
5.3194688089
 20
4.1134220422
 30
0.0
 10
5.3121196871
 20
4.1065410714
 30
0.0
 10
5.3082498014
 20
4.1032153477
 30
0.0
  0
SPLINE
  5
372
100
AcDbEntity
  8
ALL_ASSEMBLY_MEMBERS
100
AcDbSpline
 62
7
  6
CONTINUOUS
 70
0
 71
3
 72
11
 73
7
 74
0
 42
0.0000001
 43
0.0000001
 44
0.0000000001
 40
0.0
 40
0.0
 40
0.0
 40
0.0
 40
0.2394065325
 40
0.4861025855
 40
0.7398566242
 40
1.0
 40
1.0
 40
1.0
 40
1.0
 10
5.3082498014
 20
4.1032153477
 30
0.0
 10
5.3040918307
 20
4.0996420479
 30
0.0
 10
5.2953128394
 20
4.0927701163
 30
0.0
 10
5.2811186552
 20
4.0834855717
 30
0.0
 10
5.2658112851
 20
4.0751393839
 30
0.0
 10
5.2550707389
 20
4.0702989207
 30
0.0
 10
5.2495553317
 20
4.0680472652
 30
0.0
  0
SPLINE
  5
373
100
AcDbEntity
  8
ALL_ASSEMBLY_MEMBERS
100
AcDbSpline
 62
7
  6
CONTINUOUS
 70
0
 71
3
 72
23
 73
19
 74
0
 42
0.0000001
 43
0.0000001
 44
0.0000000001
 40
0.0
 40
0.0
 40
0.0
 40
0.0
 40
0.0554237214
 40
0.1110729915
 40
0.1671670412
 40
0.2239128969
 40
0.2814995973
 40
0.3400958084
 40
0.3998433598
 40
0.4608605419
 40
0.5232363376
 40
0.5870349007
 40
0.6522900271
 40
0.719007988
 40
0.7871791359
 40
0.8567796871
 40
0.9277593522
 40
1.0
 40
1.0
 40
1.0
 40
1.0
 10
5.3151803317
 20
4.4440419111
 30
0.0
 10
5.3151803315
 20
4.4414245229
 30
0.0
 10
5.3149418907
 20
4.4361760413
 30
0.0
 10
5.3138734254
 20
4.4283440223
 30
0.0
 10
5.3120969107
 20
4.4205771713
 30
0.0
 10
5.3096211005
 20
4.4129085688
 30
0.0
 10
5.3064567062
 20
4.4053695873
 30
0.0
 10
5.3026165347
 20
4.3979917826
 30
0.0
 10
5.2981183762
 20
4.3908044312
 30
0.0
 10
5.2929794682
 20
4.3838378916
 30
0.0
 10
5.2872227692
 20
4.3771191937
 30
0.0
 10
5.28087092
 20
4.3706765597
 30
0.0
 10
5.2739510357
 20
4.3645355451
 30
0.0
 10
5.2664917431
 20
4.3587207489
 30
0.0
 10
5.2585225969
 20
4.353256173
 30
0.0
 10
5.2500757762
 20
4.3481625593
 30
0.0
 10
5.2411863716
 20
4.3434627237
 30
0.0
 10
5.2350417589
 20
4.3406271552
 30
0.0
 10
5.2319080871
 20
4.3392784891
 30
0.0
  0
SPLINE
  5
374
100
AcDbEntity
  8
ALL_ASSEMBLY_MEMBERS
100
AcDbSpline
 62
7
  6
CONTINUOUS
 70
0
 71
3
 72
10
 73
6
 74
0
 42
0.0000001
 43
0.0000001
 44
0.0000000001
 40
0.0
 40
0.0
 40
0.0
 40
0.0
 40
0.2446746717
 40
0.6188674972
 40
1.0
 40
1.0
 40
1.0
 40
1.0
 10
5.2495553317
 20
4.2244946405
 30
0.0
 10
5.2449099397
 20
4.2225981672
 30
0.0
 10
5.2330133282
 20
4.2181548566
 30
0.0
 10
5.2133106396
 20
4.2123797999
 30
0.0
 10
5.1981171792
 20
4.2092643008
 30
0.0
 10
5.1904040034
 20
4.2080008673
 30
0.0
  0
SPLINE
  5
375
100
AcDbEntity
  8
ALL_ASSEMBLY_MEMBERS
100
AcDbSpline
 62
7
  6
CONTINUOUS
 70
0
 71
3
 72
33
 73
29
 74
0
 42
0.0000001
 43
0.0000001
 44
0.0000000001
 40
0.0
 40
0.0
 40
0.0
 40
0.0
 40
0.035270159
 40
0.0707298083
 40
0.1419162059
 40
0.2131025383
 40
0.2838575953
 40
0.3189421241
 40
0.353757108
 40
0.3882529529
 40
0.4223831825
 40
0.4893574529
 40
0.554392455
 40
0.6172595604
 40
0.647843904
 40
0.6778434111
 40
0.7072570197
 40
0.7360925165
 40
0.7643647897
 40
0.7920970991
 40
0.8193216862
 40
0.8460781857
 40
0.8724154412
 40
0.898389407
 40
0.9240632166
 40
0.9495063652
 40
0.9747927235
 40
1.0
 40
1.0
 40
1.0
 40
1.0
 10
5.1904040034
 20
4.3008086323
 30
0.0
 10
5.186458863
 20
4.3001624105
 30
0.0
 10
5.1785197916
 20
4.2990285142
 30
0.0
 10
5.1625139625
 20
4.2973958562
 30
0.0
 10
5.1423513987
 20
4.296555698
 30
0.0
 10
5.1181874599
 20
4.2974662531
 30
0.0
 10
5.0982366315
 20
4.2998185386
 30
0.0
 10
5.0825439151
 20
4.3026509445
 30
0.0
 10
5.0709923918
 20
4.305231509
 30
0.0
 10
5.0596638121
 20
4.3082672851
 30
0.0
 10
5.044998062
 20
4.3128778546
 30
0.0
 10
5.0274143635
 20
4.3196945656
 30
0.0
 10
5.0076140681
 20
4.3295553879
 30
0.0
 10
4.992368154
 20
4.3391212353
 30
0.0
 10
4.9811434222
 20
4.3474855857
 30
0.0
 10
4.9733063306
 20
4.3540238738
 30
0.0
 10
4.9660007199
 20
4.3608643761
 30
0.0
 10
4.9592487824
 20
4.3679849772
 30
0.0
 10
4.9530721572
 20
4.375363633
 30
0.0
 10
4.9474912009
 20
4.3829777286
 30
0.0
 10
4.9425225561
 20
4.3908025014
 30
0.0
 10
4.9381836612
 20
4.3988143379
 30
0.0
 10
4.9344876181
 20
4.4069873328
 30
0.0
 10
4.9314465706
 20
4.4152958211
 30
0.0
 10
4.9290715246
 20
4.4237136121
 30
0.0
 10
4.9273686935
 20
4.4322136048
 30
0.0
 10
4.9263454765
 20
4.4407682648
 30
0.0
 10
4.9261179103
 20
4.4464940901
 30
0.0
 10
4.9261179902
 20
4.4493512232
 30
0.0
  0
SPLINE
  5
376
100
AcDbEntity
  8
ALL_ASSEMBLY_MEMBERS
100
AcDbSpline
 62
7
  6
CONTINUOUS
 70
0
 71
3
 72
34
 73
30
 74
0
 42
0.0000001
 43
0.0000001
 44
0.0000000001
 40
0.0
 40
0.0
 40
0.0
 40
0.0
 40
0.0310803188
 40
0.0616772863
 40
0.1215351527
 40
0.1509073151
 40
0.1799643215
 40
0.2087605005
 40
0.2373540625
 40
0.2658068972
 40
0.294182631
 40
0.3225462536
 40
0.3509631211
 40
0.379497366
 40
0.4082116656
 40
0.4371657812
 40
0.4664154141
 40
0.4960126096
 40
0.5260042019
 40
0.5564309784
 40
0.5873289799
 40
0.6187283943
 40
0.650652755
 40
0.7161237032
 40
0.7497090162
 40
0.7838559034
 40
0.853803062
 40
0.9259203743
 40
1.0
 40
1.0
 40
1.0
 40
1.0
 10
5.3014836714
 20
4.5094334395
 30
0.0
 10
5.3028323782
 20
4.5076408231
 30
0.0
 10
5.3054114454
 20
4.5040084962
 30
0.0
 10
5.3100723769
 20
4.4965732543
 30
0.0
 10
5.3140149297
 20
4.488846274
 30
0.0
 10
5.317160895
 20
4.4809043795
 30
0.0
 10
5.3191020944
 20
4.4749105172
 30
0.0
 10
5.3206343
 20
4.4688573972
 30
0.0
 10
5.3217530044
 20
4.4627585532
 30
0.0
 10
5.3224563503
 20
4.4566284954
 30
0.0
 10
5.3227429023
 20
4.4504814291
 30
0.0
 10
5.322610863
 20
4.4443316882
 30
0.0
 10
5.3220612881
 20
4.4381936948
 30
0.0
 10
5.3210959214
 20
4.4320816483
 30
0.0
 10
5.3197160346
 20
4.426009959
 30
0.0
 10
5.3179254328
 20
4.4199927155
 30
0.0
 10
5.3157289437
 20
4.4140436398
 30
0.0
 10
5.3131308695
 20
4.4081768094
 30
0.0
 10
5.3101376032
 20
4.4024057462
 30
0.0
 10
5.306756832
 20
4.3967433487
 30
0.0
 10
5.3029958232
 20
4.3912030464
 30
0.0
 10
5.2988631297
 20
4.3857974458
 30
0.0
 10
5.2928216387
 20
4.3787273661
 30
0.0
 10
5.2861131564
 20
4.3720382545
 30
0.0
 10
5.2788252813
 20
4.3657634227
 30
0.0
 10
5.2709921757
 20
4.3596427191
 30
0.0
 10
5.2604344596
 20
4.352517155
 30
0.0
 10
5.2467833985
 20
4.3449300535
 30
0.0
 10
5.2371618768
 20
4.3405650239
 30
0.0
 10
5.2322115817
 20
4.3385440744
 30
0.0
  0
SPLINE
  5
377
100
AcDbEntity
  8
ALL_ASSEMBLY_MEMBERS
100
AcDbSpline
 62
7
  6
CONTINUOUS
 70
0
 71
3
 72
10
 73
6
 74
0
 42
0.0000001
 43
0.0000001
 44
0.0000000001
 40
0.0
 40
0.0
 40
0.0
 40
0.0
 40
0.4887323386
 40
0.7417653517
 40
1.0
 40
1.0
 40
1.0
 40
1.0
 10
5.29933166
 20
4.2524703969
 30
0.0
 10
5.2918980304
 20
4.2468420208
 30
0.0
 10
5.2799757429
 20
4.2391121456
 30
0.0
 10
5.2630411537
 20
4.2303123977
 30
0.0
 10
5.2541164731
 20
4.2263567187
 30
0.0
 10
5.2495553317
 20
4.2244946405
 30
0.0
  0
SPLINE
  5
378
100
AcDbEntity
  8
ALL_ASSEMBLY_MEMBERS
100
AcDbSpline
 62
7
  6
CONTINUOUS
 70
0
 71
3
 72
15
 73
11
 74
0
 42
0.0000001
 43
0.0000001
 44
0.0000000001
 40
0.0
 40
0.0
 40
0.0
 40
0.0
 40
0.1313512195
 40
0.2603107674
 40
0.3871185119
 40
0.5120554704
 40
0.6354452226
 40
0.7576409495
 40
0.879025749
 40
1.0
 40
1.0
 40
1.0
 40
1.0
 10
5.2965885538
 20
4.4992838969
 30
0.0
 10
5.298094816
 20
4.4971729572
 30
0.0
 10
5.3009384549
 20
4.492886161
 30
0.0
 10
5.3047017672
 20
4.4862267354
 30
0.0
 10
5.3079097487
 20
4.4794216413
 30
0.0
 10
5.3105494884
 20
4.472493933
 30
0.0
 10
5.3126132758
 20
4.4654679669
 30
0.0
 10
5.3140924714
 20
4.4583673396
 30
0.0
 10
5.3149819332
 20
4.4512174513
 30
0.0
 10
5.3151803319
 20
4.4464302805
 30
0.0
 10
5.3151803317
 20
4.4440419111
 30
0.0
  0
SPLINE
  5
379
100
AcDbEntity
  8
ALL_ASSEMBLY_MEMBERS
100
AcDbSpline
 62
7
  6
CONTINUOUS
 70
0
 71
3
 72
12
 73
8
 74
0
 42
0.0000001
 43
0.0000001
 44
0.0000000001
 40
0.0
 40
0.0
 40
0.0
 40
0.0
 40
0.1209514585
 40
0.2434931058
 40
0.4923607899
 40
0.7450910204
 40
1.0
 40
1.0
 40
1.0
 40
1.0
 10
5.2287343093
 20
4.3371605038
 30
0.0
 10
5.2255588339
 20
4.3359294734
 30
0.0
 10
5.2191055644
 20
4.3336043115
 30
0.0
 10
5.2058554302
 20
4.329512109
 30
0.0
 10
5.1887236541
 20
4.325478061
 30
0.0
 10
5.1676193184
 20
4.3224131035
 30
0.0
 10
5.1533300888
 20
4.321564844
 30
0.0
 10
5.1461534456
 20
4.3214412033
 30
0.0
  0
SPLINE
  5
37A
100
AcDbEntity
  8
ALL_ASSEMBLY_MEMBERS
100
AcDbSpline
 62
7
  6
CONTINUOUS
 70
0
 71
3
 72
35
 73
31
 74
0
 42
0.0000001
 43
0.0000001
 44
0.0000000001
 40
0.0
 40
0.0
 40
0.0
 40
0.0
 40
0.0753327217
 40
0.1499462431
 40
0.2232670959
 40
0.2592889642
 40
0.2947996768
 40
0.3297470738
 40
0.3640868081
 40
0.3977808
 40
0.4308009954
 40
0.4947203352
 40
0.5256444486
 40
0.5558818657
 40
0.5854597994
 40
0.6144167404
 40
0.6428054426
 40
0.6706904072
 40
0.6981483971
 40
0.7252669564
 40
0.7521421036
 40
0.7788769643
 40
0.8055781154
 40
0.8323534423
 40
0.8593083836
 40
0.8865439276
 40
0.9141528444
 40
0.9422192186
 40
0.9708148201
 40
1.0
 40
1.0
 40
1.0
 40
1.0
 10
5.1373372391
 20
4.3214411238
 30
0.0
 10
5.1296855596
 20
4.3215728076
 30
0.0
 10
5.1144577111
 20
4.3225186365
 30
0.0
 10
5.0920116809
 20
4.3259732623
 30
0.0
 10
5.073855608
 20
4.3305294433
 30
0.0
 10
5.0598795758
 20
4.3351506479
 30
0.0
 10
5.0497875641
 20
4.3390573901
 30
0.0
 10
5.0400667877
 20
4.343410473
 30
0.0
 10
5.0307556707
 20
4.3481907863
 30
0.0
 10
5.0218918478
 20
4.3533813191
 30
0.0
 10
5.0108403426
 20
4.3607369759
 30
0.0
 10
5.0006779417
 20
4.368892466
 30
0.0
 10
4.9915987172
 20
4.3777932602
 30
0.0
 10
4.9854691936
 20
4.3846885038
 30
0.0
 10
4.9799702918
 20
4.3918461748
 30
0.0
 10
4.9751256484
 20
4.3992391576
 30
0.0
 10
4.9709544901
 20
4.4068369055
 30
0.0
 10
4.9674744833
 20
4.4146090931
 30
0.0
 10
4.964701026
 20
4.4225243673
 30
0.0
 10
4.9626444723
 20
4.4305500068
 30
0.0
 10
4.9613158217
 20
4.4386535789
 30
0.0
 10
4.9607186109
 20
4.4468012502
 30
0.0
 10
4.9608573385
 20
4.4549595329
 30
0.0
 10
4.9617302828
 20
4.4630945163
 30
0.0
 10
4.9633337242
 20
4.4711727094
 30
0.0
 10
4.9656616013
 20
4.479160532
 30
0.0
 10
4.9687022223
 20
4.4870258389
 30
0.0
 10
4.972444755
 20
4.4947358989
 30
0.0
 10
4.976871126
 20
4.5022599364
 30
0.0
 10
4.9802312817
 20
4.5070807554
 30
0.0
 10
4.9820141523
 20
4.5094496347
 30
0.0
  0
SPLINE
  5
37B
100
AcDbEntity
  8
ALL_ASSEMBLY_MEMBERS
100
AcDbSpline
 62
7
  6
CONTINUOUS
 70
0
 71
3
 72
15
 73
11
 74
0
 42
0.0000001
 43
0.0000001
 44
0.0000000001
 40
0.0
 40
0.0
 40
0.0
 40
0.0
 40
0.1209773105
 40
0.2423648357
 40
0.3645626123
 40
0.4879534766
 40
0.6128904567
 40
0.7396969963
 40
0.8686537299
 40
1.0
 40
1.0
 40
1.0
 40
1.0
 10
4.9683053317
 20
4.4440419111
 30
0.0
 10
4.9683053319
 20
4.4464292837
 30
0.0
 10
4.9685035655
 20
4.4512144476
 30
0.0
 10
4.9693922846
 20
4.4583613637
 30
0.0
 10
4.9708702413
 20
4.4654590816
 30
0.0
 10
4.9729323117
 20
4.472482233
 30
0.0
 10
4.9755698726
 20
4.4794072523
 30
0.0
 10
4.9787752319
 20
4.4862098082
 30
0.0
 10
4.9825354814
 20
4.4928668663
 30
0.0
 10
4.98537682
 20
4.4971522673
 30
0.0
 10
4.9868818662
 20
4.4992625444
 30
0.0
  0
SPLINE
  5
37C
100
AcDbEntity
  8
ALL_ASSEMBLY_MEMBERS
100
AcDbSpline
 62
7
  6
CONTINUOUS
 70
0
 71
3
 72
19
 73
15
 74
0
 42
0.0000001
 43
0.0000001
 44
0.0000000001
 40
0.0
 40
0.0
 40
0.0
 40
0.0
 40
0.0579656395
 40
0.1160588795
 40
0.1744048985
 40
0.2331248515
 40
0.2923353508
 40
0.3521451116
 40
0.412654836
 40
0.4739565401
 40
0.5991879588
 40
0.7284063411
 40
0.8619855339
 40
1.0
 40
1.0
 40
1.0
 40
1.0
 10
5.3573676732
 20
4.4493392008
 30
0.0
 10
5.3573676065
 20
4.446952625
 30
0.0
 10
5.3572086741
 20
4.4421727002
 30
0.0
 10
5.356493789
 20
4.435022725
 30
0.0
 10
5.3553051069
 20
4.4279043718
 30
0.0
 10
5.3536451914
 20
4.4208338514
 30
0.0
 10
5.3515169208
 20
4.4138270179
 30
0.0
 10
5.3489262047
 20
4.4068991936
 30
0.0
 10
5.345878548
 20
4.4000654255
 30
0.0
 10
5.3411817106
 20
4.3910377062
 30
0.0
 10
5.3341709409
 20
4.3800532768
 30
0.0
 10
5.3241265202
 20
4.3675916247
 30
0.0
 10
5.3124821655
 20
4.3558607379
 30
0.0
 10
5.3038619567
 20
4.3487082781
 30
0.0
 10
5.29933166
 20
4.3452781619
 30
0.0
  0
SPLINE
  5
37D
100
AcDbEntity
  8
ALL_ASSEMBLY_MEMBERS
100
AcDbSpline
 62
9
  6
CONTINUOUS
 70
0
 71
3
 72
14
 73
10
 74
0
 42
0.0000001
 43
0.0000001
 44
0.0000000001
 40
0.0
 40
0.0
 40
0.0
 40
0.0
 40
0.1276181271
 40
0.2550118457
 40
0.381834893
 40
0.5078489408
 40
0.6328467061
 40
0.7566599981
 40
1.0
 40
1.0
 40
1.0
 40
1.0
 10
4.8858053317
 20
5.5429382995
 30
0.0
 10
4.8858050278
 20
5.5575883035
 30
0.0
 10
4.885107837
 20
5.5868672056
 30
0.0
 10
4.881995514
 20
5.630605143
 30
0.0
 10
4.8768367754
 20
5.6739646813
 30
0.0
 10
4.8696971789
 20
5.7167624565
 30
0.0
 10
4.8606406702
 20
5.7588440099
 30
0.0
 10
4.8462186631
 20
5.8134829352
 30
0.0
 10
4.8326881937
 20
5.853479309
 30
0.0
 10
4.8225553317
 20
5.8795111
 30
0.0
  0
SPLINE
  5
37E
100
AcDbEntity
  8
ALL_ASSEMBLY_MEMBERS
100
AcDbSpline
 62
9
  6
CONTINUOUS
 70
0
 71
3
 72
11
 73
7
 74
0
 42
0.0000001
 43
0.0000001
 44
0.0000000001
 40
0.0
 40
0.0
 40
0.0
 40
0.0
 40
0.2433618503
 40
0.4921559679
 40
0.7449907312
 40
1.0
 40
1.0
 40
1.0
 40
1.0
 10
4.8225553317
 20
5.8795111
 30
0.0
 10
4.8116410362
 20
5.9081989159
 30
0.0
 10
4.7921315002
 20
5.9672266584
 30
0.0
 10
4.770717132
 20
6.0588428688
 30
0.0
 10
4.7575227767
 20
6.1534873838
 30
0.0
 10
4.7545556414
 20
6.2175783042
 30
0.0
 10
4.754555346
 20
6.2497411805
 30
0.0
  0
SPLINE
  5
37F
100
AcDbEntity
  8
ALL_ASSEMBLY_MEMBERS
100
AcDbSpline
 62
9
  6
CONTINUOUS
 70
0
 71
3
 72
18
 73
14
 74
0
 42
0.0000001
 43
0.0000001
 44
0.0000000001
 40
0.0
 40
0.0
 40
0.0
 40
0.0
 40
0.0309885952
 40
0.0639379208
 40
0.1002963154
 40
0.1410835495
 40
0.1869466797
 40
0.2381614183
 40
0.3566102239
 40
0.4954141588
 40
0.6517505182
 40
0.8217930685
 40
1.0
 40
1.0
 40
1.0
 40
1.0
 10
4.8120553442
 20
5.8795111048
 30
0.0
 10
4.8120965058
 20
5.8794040963
 30
0.0
 10
4.8122128018
 20
5.8791943068
 30
0.0
 10
4.8124708361
 20
5.8789232192
 30
0.0
 10
4.812809378
 20
5.8786922845
 30
0.0
 10
4.8132249357
 20
5.8785025249
 30
0.0
 10
4.8137145331
 20
5.8783551137
 30
0.0
 10
4.8144993612
 20
5.8782076691
 30
0.0
 10
4.815643552
 20
5.8781463794
 30
0.0
 10
4.8171728221
 20
5.878243758
 30
0.0
 10
4.8188757553
 20
5.878506774
 30
0.0
 10
4.8206955242
 20
5.8789296591
 30
0.0
 10
4.8219301617
 20
5.879301625
 30
0.0
 10
4.8225553317
 20
5.8795111048
 30
0.0
  0
SPLINE
  5
380
100
AcDbEntity
  8
ALL_ASSEMBLY_MEMBERS
100
AcDbSpline
 62
9
  6
CONTINUOUS
 70
0
 71
3
 72
14
 73
10
 74
0
 42
0.0000001
 43
0.0000001
 44
0.0000000001
 40
0.0
 40
0.0
 40
0.0
 40
0.0
 40
0.1276181271
 40
0.2550118457
 40
0.381834893
 40
0.5078489408
 40
0.6328467065
 40
0.756659998
 40
1.0
 40
1.0
 40
1.0
 40
1.0
 10
5.3976803317
 20
5.5429382995
 30
0.0
 10
5.3976806357
 20
5.5575883035
 30
0.0
 10
5.3983778265
 20
5.5868672056
 30
0.0
 10
5.4014901494
 20
5.630605143
 30
0.0
 10
5.406648888
 20
5.6739646813
 30
0.0
 10
5.4137884845
 20
5.7167624566
 30
0.0
 10
5.4228449934
 20
5.7588440099
 30
0.0
 10
5.4372670001
 20
5.8134829352
 30
0.0
 10
5.4507974686
 20
5.8534793094
 30
0.0
 10
5.4609303317
 20
5.8795111
 30
0.0
  0
SPLINE
  5
381
100
AcDbEntity
  8
ALL_ASSEMBLY_MEMBERS
100
AcDbSpline
 62
9
  6
CONTINUOUS
 70
0
 71
3
 72
11
 73
7
 74
0
 42
0.0000001
 43
0.0000001
 44
0.0000000001
 40
0.0
 40
0.0
 40
0.0
 40
0.0
 40
0.2433618504
 40
0.4921559678
 40
0.7449907312
 40
1.0
 40
1.0
 40
1.0
 40
1.0
 10
5.4609303317
 20
5.8795111
 30
0.0
 10
5.4718446268
 20
5.9081989161
 30
0.0
 10
5.4913541635
 20
5.9672266584
 30
0.0
 10
5.5127685313
 20
6.0588428688
 30
0.0
 10
5.5259628868
 20
6.1534873838
 30
0.0
 10
5.528930022
 20
6.2175783042
 30
0.0
 10
5.5289303174
 20
6.2497411805
 30
0.0
  0
SPLINE
  5
382
100
AcDbEntity
  8
ALL_ASSEMBLY_MEMBERS
100
AcDbSpline
 62
9
  6
CONTINUOUS
 70
0
 71
3
 72
18
 73
14
 74
0
 42
0.0000001
 43
0.0000001
 44
0.0000000001
 40
0.0
 40
0.0
 40
0.0
 40
0.0
 40
0.1782069328
 40
0.3482494839
 40
0.5045858435
 40
0.643389778
 40
0.7618385828
 40
0.8130533211
 40
0.8589164509
 40
0.8997036848
 40
0.9360620792
 40
0.9690114048
 40
1.0
 40
1.0
 40
1.0
 40
1.0
 10
5.4609303317
 20
5.8795111048
 30
0.0
 10
5.4615555017
 20
5.879301625
 30
0.0
 10
5.4627901392
 20
5.8789296591
 30
0.0
 10
5.4646099081
 20
5.8785067739
 30
0.0
 10
5.4663128413
 20
5.878243758
 30
0.0
 10
5.4678421114
 20
5.8781463794
 30
0.0
 10
5.4689863022
 20
5.8782076691
 30
0.0
 10
5.4697711303
 20
5.8783551137
 30
0.0
 10
5.4702607276
 20
5.8785025249
 30
0.0
 10
5.4706762854
 20
5.8786922845
 30
0.0
 10
5.4710148272
 20
5.8789232192
 30
0.0
 10
5.4712728616
 20
5.8791943068
 30
0.0
 10
5.4713891575
 20
5.8794040964
 30
0.0
 10
5.4714303192
 20
5.8795111048
 30
0.0
  0
SPLINE
  5
383
100
AcDbEntity
  8
ALL_ASSEMBLY_MEMBERS
100
AcDbSpline
 62
7
  6
CONTINUOUS
 70
0
 71
3
 72
16
 73
12
 74
0
 42
0.0000001
 43
0.0000001
 44
0.0000000001
 40
0.0
 40
0.0
 40
0.0
 40
0.0
 40
0.1354963779
 40
0.2700641275
 40
0.4023147906
 40
0.5312371783
 40
0.6559285208
 40
0.7757448818
 40
0.8903808203
 40
0.9458055336
 40
1.0
 40
1.0
 40
1.0
 40
1.0
 10
5.1417428317
 20
4.5489204542
 30
0.0
 10
5.1487632781
 20
4.5490572328
 30
0.0
 10
5.1627523381
 20
4.5500151011
 30
0.0
 10
5.183345269
 20
4.5534765941
 30
0.0
 10
5.2031579002
 20
4.5589148064
 30
0.0
 10
5.22180971
 20
4.5662325491
 30
0.0
 10
5.2389545486
 20
4.5753040068
 30
0.0
 10
5.2542658054
 20
4.5859700556
 30
0.0
 10
5.2653812009
 20
4.5961562002
 30
0.0
 10
5.2730351502
 20
4.6049132054
 30
0.0
 10
5.2764378534
 20
4.6094710748
 30
0.0
 10
5.2780254939
 20
4.6117877683
 30
0.0
  0
SPLINE
  5
384
100
AcDbEntity
  8
ALL_ASSEMBLY_MEMBERS
100
AcDbSpline
 62
7
  6
CONTINUOUS
 70
0
 71
3
 72
9
 73
5
 74
0
 42
0.0000001
 43
0.0000001
 44
0.0000000001
 40
0.0
 40
0.0
 40
0.0
 40
0.0
 40
0.5064128557
 40
1.0
 40
1.0
 40
1.0
 40
1.0
 10
5.2780254939
 20
4.6117877683
 30
0.0
 10
5.2801001495
 20
4.6148151165
 30
0.0
 10
5.2838840217
 20
4.6210150782
 30
0.0
 10
5.286939594
 20
4.6276073
 30
0.0
 10
5.2882450241
 20
4.6309376566
 30
0.0
  0
SPLINE
  5
385
100
AcDbEntity
  8
ALL_ASSEMBLY_MEMBERS
100
AcDbSpline
 62
7
  6
CONTINUOUS
 70
0
 71
3
 72
16
 73
12
 74
0
 42
0.0000001
 43
0.0000001
 44
0.0000000001
 40
0.0
 40
0.0
 40
0.0
 40
0.0
 40
0.1355119936
 40
0.2700926101
 40
0.4023521451
 40
0.5312803244
 40
0.6559707233
 40
0.7757781538
 40
0.8903990696
 40
0.9458148787
 40
1.0
 40
1.0
 40
1.0
 40
1.0
 10
5.1417428317
 20
4.5862165108
 30
0.0
 10
5.1487698268
 20
4.586353659
 30
0.0
 10
5.1627717783
 20
4.5873135671
 30
0.0
 10
5.1833829356
 20
4.5907817789
 30
0.0
 10
5.2032117192
 20
4.5962303492
 30
0.0
 10
5.2218766527
 20
4.6035617094
 30
0.0
 10
5.2390306692
 20
4.6126495348
 30
0.0
 10
5.2543461486
 20
4.6233341934
 30
0.0
 10
5.2654605288
 20
4.6335374014
 30
0.0
 10
5.2731104397
 20
4.6423083086
 30
0.0
 10
5.2765100583
 20
4.6468731281
 30
0.0
 10
5.2780958748
 20
4.6491932668
 30
0.0
  0
SPLINE
  5
386
100
AcDbEntity
  8
ALL_ASSEMBLY_MEMBERS
100
AcDbSpline
 62
7
  6
CONTINUOUS
 70
0
 71
3
 72
9
 73
5
 74
0
 42
0.0000001
 43
0.0000001
 44
0.0000000001
 40
0.0
 40
0.0
 40
0.0
 40
0.0
 40
0.5066334788
 40
1.0
 40
1.0
 40
1.0
 40
1.0
 10
5.2780958748
 20
4.6491932668
 30
0.0
 10
5.280254589
 20
4.652351587
 30
0.0
 10
5.2841752802
 20
4.6588266555
 30
0.0
 10
5.2872988925
 20
4.665724925
 30
0.0
 10
5.2886177838
 20
4.6692090481
 30
0.0
  0
SPLINE
  5
387
100
AcDbEntity
  8
ALL_ASSEMBLY_MEMBERS
100
AcDbSpline
 62
7
  6
CONTINUOUS
 70
0
 71
3
 72
17
 73
13
 74
0
 42
0.0000001
 43
0.0000001
 44
0.0000000001
 40
0.0
 40
0.0
 40
0.0
 40
0.0
 40
0.1357927029
 40
0.2706257412
 40
0.403066602
 40
0.5320683618
 40
0.6567053593
 40
0.717201173
 40
0.7763944436
 40
0.8907310589
 40
0.9459831504
 40
1.0
 40
1.0
 40
1.0
 40
1.0
 10
5.1417428317
 20
4.5675987017
 30
0.0
 10
5.1488752698
 20
4.5677382993
 30
0.0
 10
5.163086029
 20
4.5687235256
 30
0.0
 10
5.1839932419
 20
4.5722900618
 30
0.0
 10
5.2040838434
 20
4.5778939679
 30
0.0
 10
5.2229568833
 20
4.5854321633
 30
0.0
 10
5.2375172093
 20
4.5932922682
 30
0.0
 10
5.2481923239
 20
4.6004343851
 30
0.0
 10
5.2579490651
 20
4.6079250111
 30
0.0
 10
5.2667275155
 20
4.6162069446
 30
0.0
 10
5.2743084095
 20
4.6251921574
 30
0.0
 10
5.2776564678
 20
4.6298645843
 30
0.0
 10
5.279211957
 20
4.6322380361
 30
0.0
  0
SPLINE
  5
388
100
AcDbEntity
  8
ALL_ASSEMBLY_MEMBERS
100
AcDbSpline
 62
7
  6
CONTINUOUS
 70
0
 71
3
 72
9
 73
5
 74
0
 42
0.0000001
 43
0.0000001
 44
0.0000000001
 40
0.0
 40
0.0
 40
0.0
 40
0.0
 40
0.2532120839
 40
1.0
 40
1.0
 40
1.0
 40
1.0
 10
5.2806299001
 20
4.6344641478
 30
0.0
 10
5.2812516926
 20
4.6354690928
 30
0.0
 10
5.2836369964
 20
4.6394808162
 30
0.0
 10
5.2857345284
 20
4.6436647609
 30
0.0
 10
5.2871136127
 20
4.6468656061
 30
0.0
  0
LINE
  5
389
100
AcDbEntity
  8
ALL_ASSEMBLY_MEMBERS
100
AcDbLine
 62
7
  6
CONTINUOUS
 10
5.2920261222
 20
4.6618403821
 11
5.2920796682
 21
4.6620761176
  0
SPLINE
  5
38A
100
AcDbEntity
  8
ALL_ASSEMBLY_MEMBERS
100
AcDbSpline
 62
7
  6
CONTINUOUS
 70
0
 71
3
 72
9
 73
5
 74
0
 42
0.0000001
 43
0.0000001
 44
0.0000000001
 40
0.0
 40
0.0
 40
0.0
 40
0.0
 40
0.2458276098
 40
1.0
 40
1.0
 40
1.0
 40
1.0
 10
5.0097534738
 20
4.6183879963
 30
0.0
 10
5.0104882073
 20
4.6175157241
 30
0.0
 10
5.013536188
 20
4.6140175217
 30
0.0
 10
5.016813019
 20
4.6107199776
 30
0.0
 10
5.019387699
 20
4.608350783
 30
0.0
  0
SPLINE
  5
38B
100
AcDbEntity
  8
ALL_ASSEMBLY_MEMBERS
100
AcDbSpline
 62
7
  6
CONTINUOUS
 70
0
 71
3
 72
14
 73
10
 74
0
 42
0.0000001
 43
0.0000001
 44
0.0000000001
 40
0.0
 40
0.0
 40
0.0
 40
0.0
 40
0.2271531648
 40
0.3478750287
 40
0.4727469824
 40
0.6011597795
 40
0.7323865267
 40
0.8656645446
 40
1.0
 40
1.0
 40
1.0
 40
1.0
 10
5.019387699
 20
4.608350783
 30
0.0
 10
5.0267366456
 20
4.6015883563
 30
0.0
 10
5.0393517774
 20
4.5926426481
 30
0.0
 10
5.0579509316
 20
4.5833296937
 30
0.0
 10
5.0733233877
 20
4.5774135378
 30
0.0
 10
5.0896098879
 20
4.5728032775
 30
0.0
 10
5.1065997367
 20
4.5695608186
 30
0.0
 10
5.1240591338
 20
4.5677367276
 30
0.0
 10
5.1358378606
 20
4.5674831283
 30
0.0
 10
5.1417428317
 20
4.5675987017
 30
0.0
  0
SPLINE
  5
38C
100
AcDbEntity
  8
ALL_ASSEMBLY_MEMBERS
100
AcDbSpline
 62
7
  6
CONTINUOUS
 70
0
 71
3
 72
22
 73
18
 74
0
 42
0.0000001
 43
0.0000001
 44
0.0000000001
 40
0.0
 40
0.0
 40
0.0
 40
0.0
 40
0.059810844
 40
0.1218121661
 40
0.1856818011
 40
0.2511184631
 40
0.3849472643
 40
0.4525267753
 40
0.5198512572
 40
0.5864275868
 40
0.6517877194
 40
0.7155029086
 40
0.7772106982
 40
0.8366258069
 40
0.8935727527
 40
0.9479989869
 40
1.0
 40
1.0
 40
1.0
 40
1.0
 10
5.2526717082
 20
4.6411912413
 30
0.0
 10
5.2483665588
 20
4.6378349143
 30
0.0
 10
5.239187065
 20
4.6315141681
 30
0.0
 10
5.2242595693
 20
4.6234322675
 30
0.0
 10
5.2081224221
 20
4.6166877546
 30
0.0
 10
5.1851635484
 20
4.6095500381
 30
0.0
 10
5.1609938309
 20
4.6055087753
 30
0.0
 10
5.1364633984
 20
4.6045808991
 30
0.0
 10
5.1180711469
 20
4.6054629065
 30
0.0
 10
5.1000265552
 20
4.6079051548
 30
0.0
 10
5.0825896876
 20
4.6118681727
 30
0.0
 10
5.0660156503
 20
4.6172912372
 30
0.0
 10
5.0505440625
 20
4.6240881772
 30
0.0
 10
5.036402539
 20
4.6321620361
 30
0.0
 10
5.0237943236
 20
4.6413902763
 30
0.0
 10
5.0129100932
 20
4.6516386509
 30
0.0
 10
5.00677575
 20
4.6592199713
 30
0.0
 10
5.0040771492
 20
4.6631241703
 30
0.0
  0
SPLINE
  5
38D
100
AcDbEntity
  8
ALL_ASSEMBLY_MEMBERS
100
AcDbSpline
 62
7
  6
CONTINUOUS
 70
0
 71
3
 72
9
 73
5
 74
0
 42
0.0000001
 43
0.0000001
 44
0.0000000001
 40
0.0
 40
0.0
 40
0.0
 40
0.0
 40
0.2541164876
 40
1.0
 40
1.0
 40
1.0
 40
1.0
 10
5.00355895
 20
4.663881736
 30
0.0
 10
5.0028636663
 20
4.6649089129
 30
0.0
 10
5.0002080679
 20
4.6690047203
 30
0.0
 10
4.9978832251
 20
4.6733168578
 30
0.0
 10
4.9963715576
 20
4.6766289239
 30
0.0
  0
LINE
  5
38E
100
AcDbEntity
  8
ALL_ASSEMBLY_MEMBERS
100
AcDbLine
 62
7
  6
CONTINUOUS
 10
5.2939131301
 20
6.4292570547
 11
5.2940859478
 21
6.4290567724
  0
LINE
  5
38F
100
AcDbEntity
  8
ALL_ASSEMBLY_MEMBERS
100
AcDbLine
 62
7
  6
CONTINUOUS
 10
4.9895711235
 20
6.4423960352
 11
4.9893997797
 21
6.4421963292
  0
LINE
  5
390
100
AcDbEntity
  8
ALL_ASSEMBLY_MEMBERS
100
AcDbLine
 62
7
  6
CONTINUOUS
 10
5.2939021197
 20
6.419617945
 11
5.2940858975
 21
6.4198309113
  0
SPLINE
  5
391
100
AcDbEntity
  8
ALL_ASSEMBLY_MEMBERS
100
AcDbSpline
 62
7
  6
CONTINUOUS
 70
0
 71
3
 72
11
 73
7
 74
0
 42
0.0000001
 43
0.0000001
 44
0.0000000001
 40
0.0
 40
0.0
 40
0.0
 40
0.0
 40
0.2393283133
 40
0.4855718957
 40
0.7391628966
 40
1.0
 40
1.0
 40
1.0
 40
1.0
 10
5.2803797765
 20
4.6730768091
 30
0.0
 10
5.2787144954
 20
4.6701251157
 30
0.0
 10
5.2750094886
 20
4.6643151785
 30
0.0
 10
5.2685086389
 20
4.6560912094
 30
0.0
 10
5.2610467334
 20
4.6483023333
 30
0.0
 10
5.2555522774
 20
4.6435032123
 30
0.0
 10
5.2526717082
 20
4.6411912413
 30
0.0
  0
SPLINE
  5
392
100
AcDbEntity
  8
ALL_ASSEMBLY_MEMBERS
100
AcDbSpline
 62
7
  6
CONTINUOUS
 70
0
 71
3
 72
15
 73
11
 74
0
 42
0.0000001
 43
0.0000001
 44
0.0000000001
 40
0.0
 40
0.0
 40
0.0
 40
0.0
 40
0.1070770089
 40
0.2197694474
 40
0.3383864399
 40
0.4627301916
 40
0.5921643571
 40
0.7256861643
 40
0.8621344321
 40
1.0
 40
1.0
 40
1.0
 40
1.0
 10
5.2824419797
 20
4.6852828
 30
0.0
 10
5.279510118
 20
4.6802900598
 30
0.0
 10
5.2725277128
 20
4.67058668
 30
0.0
 10
5.2595030035
 20
4.6576371039
 30
0.0
 10
5.2439662368
 20
4.6461948148
 30
0.0
 10
5.2262571422
 20
4.6364965049
 30
0.0
 10
5.206752418
 20
4.6287391491
 30
0.0
 10
5.1858645818
 20
4.6230777408
 30
0.0
 10
5.1640420837
 20
4.6196359028
 30
0.0
 10
5.149197576
 20
4.618865481
 30
0.0
 10
5.1417428317
 20
4.618865481
 30
0.0
  0
SPLINE
  5
393
100
AcDbEntity
  8
ALL_ASSEMBLY_MEMBERS
100
AcDbSpline
 62
7
  6
CONTINUOUS
 70
0
 71
3
 72
15
 73
11
 74
0
 42
0.0000001
 43
0.0000001
 44
0.0000000001
 40
0.0
 40
0.0
 40
0.0
 40
0.0
 40
0.1373766871
 40
0.2734103696
 40
0.4066442528
 40
0.5359667897
 40
0.6604008927
 40
0.7793025211
 40
0.8924285778
 40
1.0
 40
1.0
 40
1.0
 40
1.0
 10
5.1417428317
 20
4.618865481
 30
0.0
 10
5.1344513942
 20
4.618865481
 30
0.0
 10
5.1199289084
 20
4.6196028665
 30
0.0
 10
5.0985612761
 20
4.6228971353
 30
0.0
 10
5.0780691571
 20
4.6283191906
 30
0.0
 10
5.058874277
 20
4.6357554186
 30
0.0
 10
5.0413647697
 20
4.6450630313
 30
0.0
 10
5.0258970226
 20
4.6560604812
 30
0.0
 10
5.0127930723
 20
4.6685289984
 30
0.0
 10
5.0056483134
 20
4.6778930729
 30
0.0
 10
5.0026026046
 20
4.6827223473
 30
0.0
  0
SPLINE
  5
394
100
AcDbEntity
  8
ALL_ASSEMBLY_MEMBERS
100
AcDbSpline
 62
7
  6
CONTINUOUS
 70
0
 71
3
 72
9
 73
5
 74
0
 42
0.0000001
 43
0.0000001
 44
0.0000000001
 40
0.0
 40
0.0
 40
0.0
 40
0.0
 40
0.25334593
 40
1.0
 40
1.0
 40
1.0
 40
1.0
 10
5.0009475303
 20
4.6854469441
 30
0.0
 10
5.0003570487
 20
4.6864571909
 30
0.0
 10
4.9981015765
 20
4.6904881822
 30
0.0
 10
4.9961540859
 20
4.6946926152
 30
0.0
 10
4.9948990606
 20
4.6979047991
 30
0.0
  0
LINE
  5
395
100
AcDbEntity
  8
ALL_ASSEMBLY_MEMBERS
100
AcDbLine
 62
7
  6
CONTINUOUS
 10
4.9948990606
 20
4.6979047991
 11
4.9948139427
 21
4.6981235516
  0
LINE
  5
396
100
AcDbEntity
  8
ALL_ASSEMBLY_MEMBERS
100
AcDbLine
 62
7
  6
CONTINUOUS
 10
5.2939019982
 20
6.4467858489
 11
5.2940859478
 21
6.4469985443
  0
LINE
  5
397
100
AcDbEntity
  8
ALL_ASSEMBLY_MEMBERS
100
AcDbLine
 62
7
  6
CONTINUOUS
 10
4.9895829397
 20
6.4332060817
 11
4.9893997672
 21
6.4334196521
  0
LINE
  5
398
100
AcDbEntity
  8
ALL_ASSEMBLY_MEMBERS
100
AcDbLine
 62
7
  6
CONTINUOUS
 10
5.2939129143
 20
6.4819968662
 11
5.2940859464
 21
6.4817958991
  0
LINE
  5
399
100
AcDbEntity
  8
ALL_ASSEMBLY_MEMBERS
100
AcDbLine
 62
7
  6
CONTINUOUS
 10
5.2939134152
 20
6.5083982667
 11
5.2940858944
 21
6.5081990543
  0
LINE
  5
39A
100
AcDbEntity
  8
ALL_ASSEMBLY_MEMBERS
100
AcDbLine
 62
7
  6
CONTINUOUS
 10
4.9895732637
 20
6.495199432
 11
4.9893997799
 21
6.4949974237
  0
LINE
  5
39B
100
AcDbEntity
  8
ALL_ASSEMBLY_MEMBERS
100
AcDbLine
 62
7
  6
CONTINUOUS
 10
5.2939017495
 20
6.4739918065
 11
5.294086153
 21
6.4742048236
  0
SPLINE
  5
39C
100
AcDbEntity
  8
ALL_ASSEMBLY_MEMBERS
100
AcDbSpline
 62
7
  6
CONTINUOUS
 70
0
 71
3
 72
9
 73
5
 74
0
 42
0.0000001
 43
0.0000001
 44
0.0000000001
 40
0.0
 40
0.0
 40
0.0
 40
0.0
 40
0.2464196436
 40
1.0
 40
1.0
 40
1.0
 40
1.0
 10
4.9969512806
 20
4.6567151727
 30
0.0
 10
4.9974388843
 20
4.6556918768
 30
0.0
 10
4.9995022435
 20
4.6515798811
 30
0.0
 10
5.0018962896
 20
4.6476353412
 30
0.0
 10
5.003855563
 20
4.6447756791
 30
0.0
  0
SPLINE
  5
39D
100
AcDbEntity
  8
ALL_ASSEMBLY_MEMBERS
100
AcDbSpline
 62
7
  6
CONTINUOUS
 70
0
 71
3
 72
16
 73
12
 74
0
 42
0.0000001
 43
0.0000001
 44
0.0000000001
 40
0.0
 40
0.0
 40
0.0
 40
0.0
 40
0.0529524935
 40
0.1072927593
 40
0.2202580708
 40
0.3390960206
 40
0.4635041637
 40
0.5928191197
 40
0.7261054858
 40
0.8623101618
 40
1.0
 40
1.0
 40
1.0
 40
1.0
 10
5.0051229855
 20
4.6429711747
 30
0.0
 10
5.0067045215
 20
4.6407738627
 30
0.0
 10
5.0100988632
 20
4.6364551082
 30
0.0
 10
5.0177476167
 20
4.6281774263
 30
0.0
 10
5.0288797063
 20
4.6185988895
 30
0.0
 10
5.044211585
 20
4.6086795592
 30
0.0
 10
5.061398575
 20
4.6003639891
 30
0.0
 10
5.0801114074
 20
4.5938134691
 30
0.0
 10
5.1000005602
 20
4.5891568381
 30
0.0
 10
5.1206806329
 20
4.5864928722
 30
0.0
 10
5.1347045273
 20
4.5860791418
 30
0.0
 10
5.1417428317
 20
4.5862165108
 30
0.0
  0
SPLINE
  5
39E
100
AcDbEntity
  8
ALL_ASSEMBLY_MEMBERS
100
AcDbSpline
 62
7
  6
CONTINUOUS
 70
0
 71
3
 72
9
 73
5
 74
0
 42
0.0000001
 43
0.0000001
 44
0.0000000001
 40
0.0
 40
0.0
 40
0.0
 40
0.0
 40
0.4937387419
 40
1.0
 40
1.0
 40
1.0
 40
1.0
 10
4.9956529998
 20
4.6409341425
 30
0.0
 10
4.9967950109
 20
4.6382817493
 30
0.0
 10
4.9993959635
 20
4.6330298662
 30
0.0
 10
5.0025096913
 20
4.6280666067
 30
0.0
 10
5.0041987879
 20
4.6256345882
 30
0.0
  0
LINE
  5
39F
100
AcDbEntity
  8
ALL_ASSEMBLY_MEMBERS
100
AcDbLine
 62
7
  6
CONTINUOUS
 10
5.009602275
 20
4.6185680092
 11
5.0097534738
 21
4.6183879963
  0
SPLINE
  5
3A0
100
AcDbEntity
  8
ALL_ASSEMBLY_MEMBERS
100
AcDbSpline
 62
7
  6
CONTINUOUS
 70
0
 71
3
 72
9
 73
5
 74
0
 42
0.0000001
 43
0.0000001
 44
0.0000000001
 40
0.0
 40
0.0
 40
0.0
 40
0.0
 40
0.2476700149
 40
1.0
 40
1.0
 40
1.0
 40
1.0
 10
4.9918090928
 20
4.6334267208
 30
0.0
 10
4.9920693686
 20
4.6324331857
 30
0.0
 10
4.9932015933
 20
4.6284433014
 30
0.0
 10
4.9946562792
 20
4.6245457662
 30
0.0
 10
4.9959126159
 20
4.6216900741
 30
0.0
  0
SPLINE
  5
3A1
100
AcDbEntity
  8
ALL_ASSEMBLY_MEMBERS
100
AcDbSpline
 62
7
  6
CONTINUOUS
 70
0
 71
3
 72
9
 73
5
 74
0
 42
0.0000001
 43
0.0000001
 44
0.0000000001
 40
0.0
 40
0.0
 40
0.0
 40
0.0
 40
0.2461336012
 40
1.0
 40
1.0
 40
1.0
 40
1.0
 10
4.99705041
 20
4.619215648
 30
0.0
 10
4.9975767132
 20
4.6181189091
 30
0.0
 10
4.9998122251
 20
4.6137101097
 30
0.0
 10
5.0024270544
 20
4.609495654
 30
0.0
 10
5.0045735819
 20
4.6064502234
 30
0.0
  0
SPLINE
  5
3A2
100
AcDbEntity
  8
ALL_ASSEMBLY_MEMBERS
100
AcDbSpline
 62
7
  6
CONTINUOUS
 70
0
 71
3
 72
15
 73
11
 74
0
 42
0.0000001
 43
0.0000001
 44
0.0000000001
 40
0.0
 40
0.0
 40
0.0
 40
0.0
 40
0.1088270828
 40
0.2230819098
 40
0.3427069952
 40
0.4673255215
 40
0.5962741873
 40
0.7287162795
 40
0.8637211007
 40
1.0
 40
1.0
 40
1.0
 40
1.0
 10
5.0103426555
 20
4.5990461676
 30
0.0
 10
5.0137643318
 20
4.5950538313
 30
0.0
 10
5.0214097106
 20
4.5873956023
 30
0.0
 10
5.0346073187
 20
4.5773262659
 30
0.0
 10
5.0495930095
 20
4.5685598033
 30
0.0
 10
5.0661132133
 20
4.5612482012
 30
0.0
 10
5.0838921094
 20
4.5555097882
 30
0.0
 10
5.1026392808
 20
4.5514478326
 30
0.0
 10
5.1220353897
 20
4.5491387739
 30
0.0
 10
5.1351597352
 20
4.5487921965
 30
0.0
 10
5.1417428317
 20
4.5489204542
 30
0.0
  0
LINE
  5
3A3
100
AcDbEntity
  8
ALL_ASSEMBLY_MEMBERS
100
AcDbLine
 62
7
  6
CONTINUOUS
 10
5.2939021414
 20
6.5011915292
 11
5.2940859464
 21
6.5014035866
  0
LINE
  5
3A4
100
AcDbEntity
  8
ALL_ASSEMBLY_MEMBERS
100
AcDbLine
 62
7
  6
CONTINUOUS
 10
5.2939016359
 20
6.5283612415
 11
5.2940858944
 21
6.5285750288
  0
LINE
  5
3A5
100
AcDbEntity
  8
ALL_ASSEMBLY_MEMBERS
100
AcDbLine
 62
7
  6
CONTINUOUS
 10
4.9895835829
 20
6.4875924482
 11
4.9893997455
 21
6.4878067643
  0
LINE
  5
3A6
100
AcDbEntity
  8
ALL_ASSEMBLY_MEMBERS
100
AcDbLine
 62
7
  6
CONTINUOUS
 10
4.9895844499
 20
6.5420123972
 11
4.9893997512
 21
6.5422277152
  0
LINE
  5
3A7
100
AcDbEntity
  8
ALL_ASSEMBLY_MEMBERS
100
AcDbLine
 62
7
  6
CONTINUOUS
 10
5.2939128085
 20
6.5347671854
 11
5.2940862844
 21
6.5345664526
  0
LINE
  5
3A8
100
AcDbEntity
  8
ALL_ASSEMBLY_MEMBERS
100
AcDbLine
 62
7
  6
CONTINUOUS
 10
4.9922654083
 20
6.5947956278
 11
4.9922158157
 21
6.5949328174
  0
LINE
  5
3A9
100
AcDbEntity
  8
ALL_ASSEMBLY_MEMBERS
100
AcDbLine
 62
7
  6
CONTINUOUS
 10
5.2939140808
 20
6.5875367143
 11
5.2940859621
 21
6.5873366985
  0
LINE
  5
3AA
100
AcDbEntity
  8
ALL_ASSEMBLY_MEMBERS
100
AcDbLine
 62
7
  6
CONTINUOUS
 10
5.2825979563
 20
6.6034046999
 11
5.2826515235
 21
6.603550568
  0
LINE
  5
3AB
100
AcDbEntity
  8
ALL_ASSEMBLY_MEMBERS
100
AcDbLine
 62
7
  6
CONTINUOUS
 10
4.9895725531
 20
6.5479520334
 11
4.9893997735
 21
6.5477511378
  0
SPLINE
  5
3AC
100
AcDbEntity
  8
ALL_ASSEMBLY_MEMBERS
100
AcDbSpline
 62
7
  6
CONTINUOUS
 70
0
 71
3
 72
32
 73
28
 74
0
 42
0.0000001
 43
0.0000001
 44
0.0000000001
 40
0.0
 40
0.0
 40
0.0
 40
0.0
 40
0.0007392684
 40
0.0012452814
 40
0.0018712619
 40
0.0035202431
 40
0.0057300648
 40
0.0085166515
 40
0.011886533
 40
0.0158410772
 40
0.0203797961
 40
0.0312032834
 40
0.0443405716
 40
0.0597705364
 40
0.0774599284
 40
0.0973621218
 40
0.1194291707
 40
0.1698591205
 40
0.2282666788
 40
0.2940890472
 40
0.3667001106
 40
0.4454006187
 40
0.5294394912
 40
0.6179920011
 40
0.710219328
 40
0.8052670709
 40
1.0
 40
1.0
 40
1.0
 40
1.0
 10
5.2940859621
 20
6.5873366985
 30
0.0
 10
5.2940856307
 20
6.5872990824
 30
0.0
 10
5.2940504462
 20
6.587238108
 30
0.0
 10
5.2939780025
 20
6.5871774955
 30
0.0
 10
5.2938572033
 20
6.5871022584
 30
0.0
 10
5.2936458257
 20
6.5870142636
 30
0.0
 10
5.2933226738
 20
6.5869140136
 30
0.0
 10
5.2929087937
 20
6.5868133954
 30
0.0
 10
5.2924042989
 20
6.5867120518
 30
0.0
 10
5.2918092
 20
6.5866103709
 30
0.0
 10
5.2908369028
 20
6.5864658175
 30
0.0
 10
5.2893972491
 20
6.5862895889
 30
0.0
 10
5.2874030433
 20
6.5860870494
 30
0.0
 10
5.2850579991
 20
6.5858838233
 30
0.0
 10
5.2823676771
 20
6.5856800099
 30
0.0
 10
5.2793388063
 20
6.5854757508
 30
0.0
 10
5.2746457432
 20
6.5851901179
 30
0.0
 10
5.2679938215
 20
6.5848394024
 30
0.0
 10
5.259115526
 20
6.5844331064
 30
0.0
 10
5.2491075503
 20
6.5840257235
 30
0.0
 10
5.2380662415
 20
6.5836175171
 30
0.0
 10
5.2260974314
 20
6.5832086734
 30
0.0
 10
5.2133170169
 20
6.5827994464
 30
0.0
 10
5.1998479715
 20
6.5823898398
 30
0.0
 10
5.1858185016
 20
6.5819799879
 30
0.0
 10
5.1663878874
 20
6.5814287334
 30
0.0
 10
5.1516480289
 20
6.5810224923
 30
0.0
 10
5.1417428317
 20
6.5807493853
 30
0.0
  0
SPLINE
  5
3AD
100
AcDbEntity
  8
ALL_ASSEMBLY_MEMBERS
100
AcDbSpline
 62
7
  6
CONTINUOUS
 70
0
 71
3
 72
32
 73
28
 74
0
 42
0.0000001
 43
0.0000001
 44
0.0000000001
 40
0.0
 40
0.0
 40
0.0
 40
0.0
 40
0.0007372426
 40
0.0012403629
 40
0.0018629548
 40
0.0035047571
 40
0.0057078388
 40
0.0084881759
 40
0.0118512751
 40
0.0157986374
 40
0.0203300209
 40
0.0311393119
 40
0.0442645595
 40
0.0596851469
 40
0.0773641059
 40
0.097255713
 40
0.1193135835
 40
0.1697299976
 40
0.2281242335
 40
0.293943246
 40
0.366555573
 40
0.4452692764
 40
0.5293258873
 40
0.6178997583
 40
0.7101516384
 40
0.8052252295
 40
1.0
 40
1.0
 40
1.0
 40
1.0
 10
5.2940858907
 20
6.5609416103
 30
0.0
 10
5.2940861334
 20
6.5609040958
 30
0.0
 10
5.2940519926
 20
6.5608427466
 30
0.0
 10
5.2939802841
 20
6.5607818531
 30
0.0
 10
5.2938604822
 20
6.5607063178
 30
0.0
 10
5.29365014
 20
6.560618024
 30
0.0
 10
5.2933281571
 20
6.5605174718
 30
0.0
 10
5.2929153669
 20
6.5604165676
 30
0.0
 10
5.2924119761
 20
6.5603149075
 30
0.0
 10
5.2918180159
 20
6.560212922
 30
0.0
 10
5.2908472426
 20
6.560067928
 30
0.0
 10
5.2894093419
 20
6.5598911921
 30
0.0
 10
5.2874169728
 20
6.5596881225
 30
0.0
 10
5.2850735511
 20
6.5594844248
 30
0.0
 10
5.2823847661
 20
6.559280124
 30
0.0
 10
5.2793574083
 20
6.5590754132
 30
0.0
 10
5.2746659901
 20
6.5587891837
 30
0.0
 10
5.2680158101
 20
6.5584378609
 30
0.0
 10
5.2591389167
 20
6.5580308863
 30
0.0
 10
5.2491315575
 20
6.5576229929
 30
0.0
 10
5.2380894936
 20
6.5572142775
 30
0.0
 10
5.226118831
 20
6.5568050542
 30
0.0
 10
5.2133355235
 20
6.5563954931
 30
0.0
 10
5.1998629905
 20
6.5559856511
 30
0.0
 10
5.185829607
 20
6.5555756473
 30
0.0
 10
5.1663939326
 20
6.5550243141
 30
0.0
 10
5.1516503483
 20
6.5546181381
 30
0.0
 10
5.1417428317
 20
6.5543451244
 30
0.0
  0
SPLINE
  5
3AE
100
AcDbEntity
  8
ALL_ASSEMBLY_MEMBERS
100
AcDbSpline
 62
7
  6
CONTINUOUS
 70
0
 71
3
 72
27
 73
23
 74
0
 42
0.0000001
 43
0.0000001
 44
0.0000000001
 40
0.0
 40
0.0
 40
0.0
 40
0.0
 40
0.0020923985
 40
0.003703145
 40
0.0057786455
 40
0.0114124242
 40
0.0190870577
 40
0.0236986038
 40
0.0288277565
 40
0.0406399197
 40
0.0545229837
 40
0.0704720345
 40
0.1085067142
 40
0.1545818727
 40
0.2085190431
 40
0.2701069041
 40
0.3390609007
 40
0.4150845855
 40
0.4978688839
 40
0.5870658343
 40
0.783239597
 40
1.0
 40
1.0
 40
1.0
 40
1.0
 10
5.2940862844
 20
6.5345664526
 30
0.0
 10
5.2940861412
 20
6.5345131651
 30
0.0
 10
5.2940161744
 20
6.5344286904
 30
0.0
 10
5.2938938945
 20
6.5343528521
 30
0.0
 10
5.2936771753
 20
6.5342511538
 30
0.0
 10
5.2933028758
 20
6.5341350172
 30
0.0
 10
5.2928581341
 20
6.5340308279
 30
0.0
 10
5.2924230093
 20
6.5339449908
 30
0.0
 10
5.291882474
 20
6.5338493308
 30
0.0
 10
5.2911062117
 20
6.5337317642
 30
0.0
 10
5.2900543271
 20
6.5335959118
 30
0.0
 10
5.288336693
 20
6.5334029133
 30
0.0
 10
5.2857991329
 20
6.5331678
 30
0.0
 10
5.2822937902
 20
6.5328974674
 30
0.0
 10
5.2781871596
 20
6.5326261573
 30
0.0
 10
5.27349683
 20
6.5323541263
 30
0.0
 10
5.2682432108
 20
6.5320815359
 30
0.0
 10
5.2624491437
 20
6.5318085821
 30
0.0
 10
5.2561390324
 20
6.5315354214
 30
0.0
 10
5.2467706842
 20
6.5311588169
 30
0.0
 10
5.2339911664
 20
6.5306944488
 30
0.0
 10
5.223480558
 20
6.5303479376
 30
0.0
 10
5.2179630568
 20
6.5301723093
 30
0.0
  0
SPLINE
  5
3AF
100
AcDbEntity
  8
ALL_ASSEMBLY_MEMBERS
100
AcDbSpline
 62
7
  6
CONTINUOUS
 70
0
 71
3
 72
32
 73
28
 74
0
 42
0.0000001
 43
0.0000001
 44
0.0000000001
 40
0.0
 40
0.0
 40
0.0
 40
0.0
 40
0.0007367812
 40
0.0012401199
 40
0.0018630778
 40
0.0035058052
 40
0.0057098352
 40
0.0084911868
 40
0.0118554678
 40
0.01580411
 40
0.0203368088
 40
0.0311486085
 40
0.0442758367
 40
0.0596978125
 40
0.0773782682
 40
0.0972713465
 40
0.1193304726
 40
0.1697488601
 40
0.2281450655
 40
0.2939649959
 40
0.3665777871
 40
0.4452904905
 40
0.5293456856
 40
0.6179171134
 40
0.7101652103
 40
0.8052337148
 40
1.0
 40
1.0
 40
1.0
 40
1.0
 10
5.2940858944
 20
6.5081990543
 30
0.0
 10
5.2940860367
 20
6.508161563
 30
0.0
 10
5.2940516917
 20
6.5081003472
 30
0.0
 10
5.2939798686
 20
6.5080395976
 30
0.0
 10
5.2938598855
 20
6.5079642044
 30
0.0
 10
5.2936493634
 20
6.5078760732
 30
0.0
 10
5.2933271753
 20
6.5077756878
 30
0.0
 10
5.2929141847
 20
6.507674948
 30
0.0
 10
5.2924105839
 20
6.5075734501
 30
0.0
 10
5.2918164062
 20
6.5074716202
 30
0.0
 10
5.2908453442
 20
6.5073268415
 30
0.0
 10
5.2894071257
 20
6.5071503495
 30
0.0
 10
5.2874144427
 20
6.506947531
 30
0.0
 10
5.2850707673
 20
6.5067440573
 30
0.0
 10
5.2823817602
 20
6.5065399664
 30
0.0
 10
5.2793541926
 20
6.5063354412
 30
0.0
 10
5.2746625491
 20
6.5060494384
 30
0.0
 10
5.2680121333
 20
6.5056983223
 30
0.0
 10
5.2591350379
 20
6.5052915066
 30
0.0
 10
5.2491275648
 20
6.5048836809
 30
0.0
 10
5.2380855472
 20
6.5044749649
 30
0.0
 10
5.226115058
 20
6.5040656586
 30
0.0
 10
5.2133320786
 20
6.5036559495
 30
0.0
 10
5.1998600213
 20
6.5032458885
 30
0.0
 10
5.1858273052
 20
6.5028356049
 30
0.0
 10
5.1663926428
 20
6.5022838123
 30
0.0
 10
5.1516498487
 20
6.5018772096
 30
0.0
 10
5.1417428317
 20
6.5016038749
 30
0.0
  0
SPLINE
  5
3B0
100
AcDbEntity
  8
ALL_ASSEMBLY_MEMBERS
100
AcDbSpline
 62
7
  6
CONTINUOUS
 70
0
 71
3
 72
32
 73
28
 74
0
 42
0.0000001
 43
0.0000001
 44
0.0000000001
 40
0.0
 40
0.0
 40
0.0
 40
0.0
 40
0.0007402902
 40
0.0012462321
 40
0.0018719418
 40
0.0035201193
 40
0.0057291261
 40
0.008515039
 40
0.0118840347
 40
0.0158374826
 40
0.0203749812
 40
0.0311959752
 40
0.0443312114
 40
0.0597599226
 40
0.0774478192
 40
0.0973483926
 40
0.1194140932
 40
0.1698427478
 40
0.2282489259
 40
0.2940708571
 40
0.3666816428
 40
0.4453830827
 40
0.529423443
 40
0.6179782763
 40
0.7102089779
 40
0.8052607699
 40
1.0
 40
1.0
 40
1.0
 40
1.0
 10
5.2940859464
 20
6.4817958991
 30
0.0
 10
5.2940857311
 20
6.4817582298
 30
0.0
 10
5.2940507931
 20
6.4816970566
 30
0.0
 10
5.2939784731
 20
6.4816362177
 30
0.0
 10
5.2938578846
 20
6.4815607551
 30
0.0
 10
5.2936467054
 20
6.4814724954
 30
0.0
 10
5.2933237611
 20
6.4813719634
 30
0.0
 10
5.2929100639
 20
6.4812710761
 30
0.0
 10
5.292405757
 20
6.481169458
 30
0.0
 10
5.2918108625
 20
6.4810675101
 30
0.0
 10
5.290838858
 20
6.4809225853
 30
0.0
 10
5.2893995371
 20
6.4807459242
 30
0.0
 10
5.2874056548
 20
6.4805429199
 30
0.0
 10
5.2850608693
 20
6.4803392663
 30
0.0
 10
5.2823707748
 20
6.4801350403
 30
0.0
 10
5.2793421276
 20
6.4799303965
 30
0.0
 10
5.2746492661
 20
6.4796442616
 30
0.0
 10
5.2679975113
 20
6.4792930174
 30
0.0
 10
5.259119311
 20
6.478886194
 30
0.0
 10
5.2491113605
 20
6.4784783947
 30
0.0
 10
5.2380699445
 20
6.4780698565
 30
0.0
 10
5.2261009158
 20
6.4776607779
 30
0.0
 10
5.2133201393
 20
6.4772513976
 30
0.0
 10
5.199850598
 20
6.4768417224
 30
0.0
 10
5.185820494
 20
6.4764318803
 30
0.0
 10
5.1663889872
 20
6.475880744
 30
0.0
 10
5.1516484517
 20
6.4754747017
 30
0.0
 10
5.1417428317
 20
6.4752017725
 30
0.0
  0
SPLINE
  5
3B1
100
AcDbEntity
  8
ALL_ASSEMBLY_MEMBERS
100
AcDbSpline
 62
7
  6
CONTINUOUS
 70
0
 71
3
 72
36
 73
32
 74
0
 42
0.0000001
 43
0.0000001
 44
0.0000000001
 40
0.0
 40
0.0
 40
0.0
 40
0.0
 40
0.0635591101
 40
0.135079706
 40
0.2129127715
 40
0.2953717506
 40
0.3806173375
 40
0.4667563035
 40
0.5518809683
 40
0.6341002004
 40
0.7115903549
 40
0.7480214359
 40
0.7826351428
 40
0.8152393951
 40
0.8456574052
 40
0.8737150906
 40
0.8992598702
 40
0.9221534715
 40
0.9422629176
 40
0.9594840605
 40
0.9737243613
 40
0.9849034181
 40
0.9893309799
 40
0.9929790373
 40
0.99451038
 40
0.9958467926
 40
0.9969890548
 40
0.9979390664
 40
0.9987010802
 40
0.9992836162
 40
1.0
 40
1.0
 40
1.0
 40
1.0
 10
5.0308139552
 20
6.3926355651
 30
0.0
 10
5.0363949112
 20
6.3928598717
 30
0.0
 10
5.0482574701
 20
6.3932974928
 30
0.0
 10
5.0669577392
 20
6.3939137072
 30
0.0
 10
5.0873196776
 20
6.394531249
 30
0.0
 10
5.1088882284
 20
6.3951497138
 30
0.0
 10
5.1311869606
 20
6.3957686585
 30
0.0
 10
5.1537200316
 20
6.396387767
 30
0.0
 10
5.1759870571
 20
6.3970067051
 30
0.0
 10
5.1974937518
 20
6.3976252102
 30
0.0
 10
5.2147222513
 20
6.3981500797
 30
0.0
 10
5.2277683382
 20
6.3985746045
 30
0.0
 10
5.2368715024
 20
6.3988863063
 30
0.0
 10
5.2454459271
 20
6.399197871
 30
0.0
 10
5.2534438268
 20
6.3995091544
 30
0.0
 10
5.2608208592
 20
6.3998201958
 30
0.0
 10
5.2675360377
 20
6.4001308612
 30
0.0
 10
5.2735519587
 20
6.4004408282
 30
0.0
 10
5.278835353
 20
6.4007501314
 30
0.0
 10
5.2833569766
 20
6.4010578734
 30
0.0
 10
5.2870917172
 20
6.4013638449
 30
0.0
 10
5.2897013811
 20
6.4016316038
 30
0.0
 10
5.2913787634
 20
6.4018549627
 30
0.0
 10
5.2922124478
 20
6.4019892326
 30
0.0
 10
5.2927744537
 20
6.4020993335
 30
0.0
 10
5.2931182131
 20
6.402176755
 30
0.0
 10
5.2934097509
 20
6.4022542296
 30
0.0
 10
5.2936480818
 20
6.4023305145
 30
0.0
 10
5.2938365159
 20
6.4024087587
 30
0.0
 10
5.2939905607
 20
6.4024925135
 30
0.0
 10
5.2940858755
 20
6.402589582
 30
0.0
 10
5.2940858388
 20
6.4026525365
 30
0.0
  0
SPLINE
  5
3B2
100
AcDbEntity
  8
ALL_ASSEMBLY_MEMBERS
100
AcDbSpline
 62
7
  6
CONTINUOUS
 70
0
 71
3
 72
21
 73
17
 74
0
 42
0.0000001
 43
0.0000001
 44
0.0000000001
 40
0.0
 40
0.0
 40
0.0
 40
0.0
 40
0.007748028
 40
0.0137019457
 40
0.0213679835
 40
0.0421749083
 40
0.0705391488
 40
0.0875960046
 40
0.1065765864
 40
0.1503051088
 40
0.2017061808
 40
0.2607458605
 40
0.4015705788
 40
0.5723330373
 40
0.7721510773
 40
1.0
 40
1.0
 40
1.0
 40
1.0
 10
5.294086153
 20
6.4554238274
 30
0.0
 10
5.2940861118
 20
6.4553706535
 30
0.0
 10
5.2940166062
 20
6.4552862337
 30
0.0
 10
5.2938949062
 20
6.4552103904
 30
0.0
 10
5.2936793821
 20
6.4551087414
 30
0.0
 10
5.2933068532
 20
6.4549926317
 30
0.0
 10
5.2928639987
 20
6.4548885371
 30
0.0
 10
5.2924304238
 20
6.454802788
 30
0.0
 10
5.2918913651
 20
6.4547072013
 30
0.0
 10
5.291116993
 20
6.4545897466
 30
0.0
 10
5.2900676308
 20
6.4544540232
 30
0.0
 10
5.2883539836
 20
6.4542611209
 30
0.0
 10
5.2858210952
 20
6.4540259979
 30
0.0
 10
5.2823217066
 20
6.4537559311
 30
0.0
 10
5.2782236368
 20
6.4534848486
 30
0.0
 10
5.2752935176
 20
6.4533146102
 30
0.0
 10
5.2737321897
 20
6.4532284381
 30
0.0
  0
SPLINE
  5
3B3
100
AcDbEntity
  8
ALL_ASSEMBLY_MEMBERS
100
AcDbSpline
 62
7
  6
CONTINUOUS
 70
0
 71
3
 72
32
 73
28
 74
0
 42
0.0000001
 43
0.0000001
 44
0.0000000001
 40
0.0
 40
0.0
 40
0.0
 40
0.0
 40
0.0007389515
 40
0.0012438936
 40
0.0018685448
 40
0.0035146233
 40
0.00572171
 40
0.0085058968
 40
0.011873136
 40
0.0158248098
 40
0.0203605529
 40
0.0311782358
 40
0.0443106677
 40
0.0597372257
 40
0.077423108
 40
0.0973218606
 40
0.119386092
 40
0.1698130556
 40
0.2282182195
 40
0.2940398691
 40
0.3666509488
 40
0.445354401
 40
0.5293981363
 40
0.6179574172
 40
0.7101933413
 40
0.8052506063
 40
1.0
 40
1.0
 40
1.0
 40
1.0
 10
5.2940859478
 20
6.4290567724
 30
0.0
 10
5.2940858731
 20
6.4290191705
 30
0.0
 10
5.2940511674
 20
6.4289579769
 30
0.0
 10
5.2939790417
 20
6.428897167
 30
0.0
 10
5.2938586904
 20
6.4288217238
 30
0.0
 10
5.2936477685
 20
6.4287335025
 30
0.0
 10
5.2933251186
 20
6.4286330105
 30
0.0
 10
5.2929116926
 20
6.4285321617
 30
0.0
 10
5.2924076526
 20
6.4284305679
 30
0.0
 10
5.2918130256
 20
6.4283286401
 30
0.0
 10
5.2908413679
 20
6.428183731
 30
0.0
 10
5.2894024453
 20
6.4280070771
 30
0.0
 10
5.2874089809
 20
6.4278040655
 30
0.0
 10
5.2850645465
 20
6.4276003902
 30
0.0
 10
5.2823747534
 20
6.4273961179
 30
0.0
 10
5.2793463723
 20
6.4271914102
 30
0.0
 10
5.2746537584
 20
6.4269051577
 30
0.0
 10
5.2680022069
 20
6.4265537275
 30
0.0
 10
5.2591241463
 20
6.4261466194
 30
0.0
 10
5.2491162319
 20
6.4257384776
 30
0.0
 10
5.238074696
 20
6.4253295328
 30
0.0
 10
5.2261053594
 20
6.4249199927
 30
0.0
 10
5.213324062
 20
6.4245100913
 30
0.0
 10
5.1998538351
 20
6.4240998445
 30
0.0
 10
5.1858229378
 20
6.4236893846
 30
0.0
 10
5.1663903383
 20
6.423137362
 30
0.0
 10
5.1516489839
 20
6.42273061
 30
0.0
 10
5.1417428317
 20
6.4224571835
 30
0.0
  0
SPLINE
  5
3B4
100
AcDbEntity
  8
ALL_ASSEMBLY_MEMBERS
100
AcDbSpline
 62
7
  6
CONTINUOUS
 70
0
 71
3
 72
11
 73
7
 74
0
 42
0.0000001
 43
0.0000001
 44
0.0000000001
 40
0.0
 40
0.0
 40
0.0
 40
0.0
 40
0.2353937426
 40
0.4826552582
 40
0.7387626812
 40
1.0
 40
1.0
 40
1.0
 40
1.0
 10
5.0470003032
 20
4.6076535899
 30
0.0
 10
5.053498008
 20
4.6037518356
 30
0.0
 10
5.0675030394
 20
4.5968506221
 30
0.0
 10
5.0902023258
 20
4.5895047842
 30
0.0
 10
5.1144920143
 20
4.585098073
 30
0.0
 10
5.1311782706
 20
4.5842242934
 30
0.0
 10
5.1395891307
 20
4.5843083329
 30
0.0
  0
SPLINE
  5
3B5
100
AcDbEntity
  8
ALL_ASSEMBLY_MEMBERS
100
AcDbSpline
 62
7
  6
CONTINUOUS
 70
0
 71
3
 72
13
 73
9
 74
0
 42
0.0000001
 43
0.0000001
 44
0.0000000001
 40
0.0
 40
0.0
 40
0.0
 40
0.0
 40
0.2574296929
 40
0.3853321645
 40
0.512085319
 40
0.6372868276
 40
0.760575229
 40
1.0
 40
1.0
 40
1.0
 40
1.0
 10
5.1418070276
 20
4.5843426559
 30
0.0
 10
5.149751096
 20
4.584509152
 30
0.0
 10
5.1616439097
 20
4.5854583287
 30
0.0
 10
5.1772297612
 20
4.5881265946
 30
0.0
 10
5.1886526882
 20
4.5908035263
 30
0.0
 10
5.1997503513
 20
4.5941483133
 30
0.0
 10
5.2138678533
 20
4.5994096851
 30
0.0
 10
5.2239642103
 20
4.6043560176
 30
0.0
 10
5.2303423199
 20
4.6080886988
 30
0.0
  0
LINE
  5
3B6
100
AcDbEntity
  8
ALL_ASSEMBLY_MEMBERS
100
AcDbLine
 62
7
  6
CONTINUOUS
 10
5.2841575559
 20
6.4411526822
 11
5.2830635494
 21
6.4408005808
  0
SPLINE
  5
3B7
100
AcDbEntity
  8
ALL_ASSEMBLY_MEMBERS
100
AcDbSpline
 62
7
  6
CONTINUOUS
 70
0
 71
3
 72
45
 73
41
 74
0
 42
0.0000001
 43
0.0000001
 44
0.0000000001
 40
0.0
 40
0.0
 40
0.0
 40
0.0
 40
0.0037678497
 40
0.0086122888
 40
0.0145283102
 40
0.021503062
 40
0.0385706778
 40
0.0596822082
 40
0.0846462909
 40
0.1132511633
 40
0.1452415658
 40
0.1803366454
 40
0.2182287781
 40
0.2585800879
 40
0.3452269591
 40
0.4372257628
 40
0.5313369223
 40
0.6242480783
 40
0.6692282077
 40
0.7126909741
 40
0.7542573728
 40
0.7935566039
 40
0.830248015
 40
0.864004942
 40
0.8945332389
 40
0.9215659458
 40
0.9448634302
 40
0.9550501454
 40
0.9642304703
 40
0.9723830209
 40
0.9794935362
 40
0.9855496823
 40
0.9905402107
 40
0.9926330424
 40
0.9944567709
 40
0.9960124046
 40
0.9973021142
 40
0.9983300627
 40
0.9991050514
 40
1.0
 40
1.0
 40
1.0
 40
1.0
 10
5.2830635494
 20
6.4408005808
 30
0.0
 10
5.2827145086
 20
6.4407226416
 30
0.0
 10
5.2819098252
 20
6.4405758239
 30
0.0
 10
5.2805447167
 20
6.4403799085
 30
0.0
 10
5.2788727515
 20
6.4401827597
 30
0.0
 10
5.2760432548
 20
6.4398991672
 30
0.0
 10
5.2717707211
 20
6.4395563317
 30
0.0
 10
5.2657900961
 20
6.4391635358
 30
0.0
 10
5.2587124814
 20
6.4387687153
 30
0.0
 10
5.2506009891
 20
6.4383725177
 30
0.0
 10
5.2415269071
 20
6.4379754062
 30
0.0
 10
5.2315705649
 20
6.4375776951
 30
0.0
 10
5.2208200562
 20
6.437179594
 30
0.0
 10
5.2051784525
 20
6.4366353866
 30
0.0
 10
5.1844024407
 20
6.435966296
 30
0.0
 10
5.158524866
 20
6.4351794358
 30
0.0
 10
5.1320524458
 20
6.4343921234
 30
0.0
 10
5.1100412073
 20
6.4337294648
 30
0.0
 10
5.0928358282
 20
6.4331921905
 30
0.0
 10
5.0805020393
 20
6.4327936888
 30
0.0
 10
5.068707752
 20
6.4323954768
 30
0.0
 10
5.057556565
 20
6.4319974709
 30
0.0
 10
5.0471471196
 20
6.4315999312
 30
0.0
 10
5.0375708271
 20
6.4312028656
 30
0.0
 10
5.0289121368
 20
6.4308065953
 30
0.0
 10
5.0212473463
 20
6.4304113885
 30
0.0
 10
5.0155132501
 20
6.4300699392
 30
0.0
 10
5.011473139
 20
6.4297920056
 30
0.0
 10
5.0088685737
 20
6.4295932841
 30
0.0
 10
5.0065569129
 20
6.4293948716
 30
0.0
 10
5.0045429578
 20
6.4291970491
 30
0.0
 10
5.002830725
 20
6.4289999295
 30
0.0
 10
5.001595214
 20
6.4288284339
 30
0.0
 10
5.0007614309
 20
6.4286876726
 30
0.0
 10
5.0002516428
 20
6.4285887468
 30
0.0
 10
4.9998190113
 20
6.428489701
 30
0.0
 10
4.9994658765
 20
6.428392483
 30
0.0
 10
4.9991850697
 20
6.4282923788
 30
0.0
 10
4.9989635717
 20
6.4281887046
 30
0.0
 10
4.9988129243
 20
6.4280654259
 30
0.0
 10
4.9988127013
 20
6.4279804794
 30
0.0
  0
SPLINE
  5
3B8
100
AcDbEntity
  8
ALL_ASSEMBLY_MEMBERS
100
AcDbSpline
 62
7
  6
CONTINUOUS
 70
0
 71
3
 72
10
 73
6
 74
0
 42
0.0000001
 43
0.0000001
 44
0.0000000001
 40
0.0
 40
0.0
 40
0.0
 40
0.0
 40
0.5102071694
 40
0.7574903107
 40
1.0
 40
1.0
 40
1.0
 40
1.0
 10
5.0097534738
 20
4.6051557263
 30
0.0
 10
5.0066015619
 20
4.6088957733
 30
0.0
 10
5.0023093453
 20
4.614800129
 30
0.0
 10
4.9976440514
 20
4.6231832407
 30
0.0
 10
4.9957080445
 20
4.6274687338
 30
0.0
 10
4.9948439664
 20
4.6296269899
 30
0.0
  0
SPLINE
  5
3B9
100
AcDbEntity
  8
ALL_ASSEMBLY_MEMBERS
100
AcDbSpline
 62
7
  6
CONTINUOUS
 70
0
 71
3
 72
9
 73
5
 74
0
 42
0.0000001
 43
0.0000001
 44
0.0000000001
 40
0.0
 40
0.0
 40
0.0
 40
0.0
 40
0.5042607086
 40
1.0
 40
1.0
 40
1.0
 40
1.0
 10
4.9948439664
 20
4.6296269899
 30
0.0
 10
4.9935718225
 20
4.6328044948
 30
0.0
 10
4.9914500012
 20
4.6392752641
 30
0.0
 10
4.9902229774
 20
4.6459756644
 30
0.0
 10
4.9898486652
 20
4.6493196422
 30
0.0
  0
SPLINE
  5
3BA
100
AcDbEntity
  8
ALL_ASSEMBLY_MEMBERS
100
AcDbSpline
 62
7
  6
CONTINUOUS
 70
0
 71
3
 72
32
 73
28
 74
0
 42
0.0000001
 43
0.0000001
 44
0.0000000001
 40
0.0
 40
0.0
 40
0.0
 40
0.0
 40
0.0007560167
 40
0.0012659053
 40
0.0018938946
 40
0.0035437036
 40
0.0057525687
 40
0.0085372785
 40
0.0119037554
 40
0.0158537797
 40
0.0203872894
 40
0.0311996785
 40
0.0443270326
 40
0.0597490169
 40
0.0774285887
 40
0.0973202113
 40
0.119377667
 40
0.1697921516
 40
0.2281829158
 40
0.2939974132
 40
0.3666041777
 40
0.4453118445
 40
0.5293617259
 40
0.6179285499
 40
0.7101733528
 40
0.8052401019
 40
1.0
 40
1.0
 40
1.0
 40
1.0
 10
4.9893997735
 20
6.5693792488
 30
0.0
 10
4.9893994984
 20
6.5694177229
 30
0.0
 10
4.9894331314
 20
6.5694806705
 30
0.0
 10
4.9895050922
 20
6.5695438363
 30
0.0
 10
4.989624681
 20
6.5696216046
 30
0.0
 10
4.9898349822
 20
6.5697127269
 30
0.0
 10
4.9901569903
 20
6.569816396
 30
0.0
 10
4.9905697774
 20
6.5699204452
 30
0.0
 10
4.9910731309
 20
6.5700252471
 30
0.0
 10
4.9916670403
 20
6.5701303857
 30
0.0
 10
4.9926376632
 20
6.5702798471
 30
0.0
 10
4.9940754448
 20
6.5704620419
 30
0.0
 10
4.9960677459
 20
6.570671386
 30
0.0
 10
4.9984111073
 20
6.5708813774
 30
0.0
 10
5.0010998318
 20
6.5710919945
 30
0.0
 10
5.0041271289
 20
6.5713030355
 30
0.0
 10
5.0088184409
 20
6.571598116
 30
0.0
 10
5.0154685397
 20
6.571960308
 30
0.0
 10
5.0243454004
 20
6.5723798847
 30
0.0
 10
5.0343527395
 20
6.5728004117
 30
0.0
 10
5.0453948211
 20
6.5732217954
 30
0.0
 10
5.0573655342
 20
6.5736437055
 30
0.0
 10
5.07014894
 20
6.5740659719
 30
0.0
 10
5.0836216204
 20
6.574488531
 30
0.0
 10
5.0976552273
 20
6.5749112624
 30
0.0
 10
5.1170912533
 20
6.5754797145
 30
0.0
 10
5.1318351319
 20
6.5758985053
 30
0.0
 10
5.1417428317
 20
6.5761799979
 30
0.0
  0
SPLINE
  5
3BB
100
AcDbEntity
  8
ALL_ASSEMBLY_MEMBERS
100
AcDbSpline
 62
7
  6
CONTINUOUS
 70
0
 71
3
 72
15
 73
11
 74
0
 42
0.0000001
 43
0.0000001
 44
0.0000000001
 40
0.0
 40
0.0
 40
0.0
 40
0.0
 40
0.136474159
 40
0.2715809385
 40
0.4041200627
 40
0.5331293407
 40
0.6577293066
 40
0.7772589735
 40
0.8913858841
 40
1.0
 40
1.0
 40
1.0
 40
1.0
 10
5.1417428317
 20
4.5544029189
 30
0.0
 10
5.1351100618
 20
4.5542702443
 30
0.0
 10
5.1218905431
 20
4.5546157556
 30
0.0
 10
5.1023577582
 20
4.5569535791
 30
0.0
 10
5.0834886486
 20
4.5610679652
 30
0.0
 10
5.0656057603
 20
4.5668802419
 30
0.0
 10
5.0490106686
 20
4.5742907076
 30
0.0
 10
5.0339807761
 20
4.5831698354
 30
0.0
 10
5.0207776965
 20
4.5933657009
 30
0.0
 10
5.0131548935
 20
4.6011175764
 30
0.0
 10
5.0097534738
 20
4.6051557263
 30
0.0
  0
SPLINE
  5
3BC
100
AcDbEntity
  8
ALL_ASSEMBLY_MEMBERS
100
AcDbSpline
 62
7
  6
CONTINUOUS
 70
0
 71
3
 72
32
 73
28
 74
0
 42
0.0000001
 43
0.0000001
 44
0.0000000001
 40
0.0
 40
0.0
 40
0.0
 40
0.0
 40
0.0007624001
 40
0.0012773525
 40
0.0019107835
 40
0.0035714911
 40
0.0057903404
 40
0.0085841868
 40
0.0119601687
 40
0.0159199758
 40
0.0204632911
 40
0.0312943509
 40
0.0444374462
 40
0.059871677
 40
0.0775640322
 40
0.0974681174
 40
0.1195361703
 40
0.1699658672
 40
0.2283703189
 40
0.2941877406
 40
0.3667920483
 40
0.4454843203
 40
0.5295133458
 40
0.6180534472
 40
0.7102657862
 40
0.8052977248
 40
1.0
 40
1.0
 40
1.0
 40
1.0
 10
4.9893997512
 20
6.5422277152
 30
0.0
 10
4.9894002164
 20
6.5422665118
 30
0.0
 10
4.9894351
 20
6.5423293215
 30
0.0
 10
4.9895080863
 20
6.542392569
 30
0.0
 10
4.9896289364
 20
6.5424703908
 30
0.0
 10
4.9898405943
 20
6.5425616605
 30
0.0
 10
4.9901641526
 20
6.5426655093
 30
0.0
 10
4.9905783845
 20
6.5427697382
 30
0.0
 10
4.9910831845
 20
6.5428746614
 30
0.0
 10
4.9916785675
 20
6.5429799137
 30
0.0
 10
4.9926511285
 20
6.54312949
 30
0.0
 10
4.9940911417
 20
6.5433117995
 30
0.0
 10
4.9960857898
 20
6.5435212516
 30
0.0
 10
4.9984311924
 20
6.5437313296
 30
0.0
 10
5.0011217933
 20
6.5439419285
 30
0.0
 10
5.0041508797
 20
6.5441529011
 30
0.0
 10
5.008844087
 20
6.5444477928
 30
0.0
 10
5.0154961219
 20
6.5448096314
 30
0.0
 10
5.0243745109
 20
6.545228461
 30
0.0
 10
5.0343824662
 20
6.5456480302
 30
0.0
 10
5.0454236793
 20
6.5460680632
 30
0.0
 10
5.0573923052
 20
6.5464883499
 30
0.0
 10
5.0701723854
 20
6.5469086144
 30
0.0
 10
5.0836408683
 20
6.5473288411
 30
0.0
 10
5.0976695673
 20
6.5477488787
 30
0.0
 10
5.1170990726
 20
6.5483132278
 30
0.0
 10
5.1318381333
 20
6.5487284333
 30
0.0
 10
5.1417428317
 20
6.5490072517
 30
0.0
  0
SPLINE
  5
3BD
100
AcDbEntity
  8
ALL_ASSEMBLY_MEMBERS
100
AcDbSpline
 62
7
  6
CONTINUOUS
 70
0
 71
3
 72
15
 73
11
 74
0
 42
0.0000001
 43
0.0000001
 44
0.0000000001
 40
0.0
 40
0.0
 40
0.0
 40
0.0
 40
0.1357453811
 40
0.2702912627
 40
0.4024048088
 40
0.5312002629
 40
0.6558813226
 40
0.7757903829
 40
0.8905343641
 40
1.0
 40
1.0
 40
1.0
 40
1.0
 10
5.1417428317
 20
4.5736665923
 30
0.0
 10
5.1353437255
 20
4.5735382404
 30
0.0
 10
5.1225833393
 20
4.5738517129
 30
0.0
 10
5.1037085764
 20
4.576013083
 30
0.0
 10
5.0854304186
 20
4.5798345708
 30
0.0
 10
5.0680437978
 20
4.585247099
 30
0.0
 10
5.0518170083
 20
4.5921573961
 30
0.0
 10
5.0370066729
 20
4.6004606212
 30
0.0
 10
5.0238478337
 20
4.6100175426
 30
0.0
 10
5.0161329983
 20
4.6173009716
 30
0.0
 10
5.0126448517
 20
4.621105165
 30
0.0
  0
SPLINE
  5
3BE
100
AcDbEntity
  8
ALL_ASSEMBLY_MEMBERS
100
AcDbSpline
 62
7
  6
CONTINUOUS
 70
0
 71
3
 72
10
 73
6
 74
0
 42
0.0000001
 43
0.0000001
 44
0.0000000001
 40
0.0
 40
0.0
 40
0.0
 40
0.0
 40
0.5113747096
 40
0.7582175052
 40
1.0
 40
1.0
 40
1.0
 40
1.0
 10
5.0102400222
 20
4.6238199774
 30
0.0
 10
5.006700027
 20
4.627958968
 30
0.0
 10
5.0019219463
 20
4.6345341959
 30
0.0
 10
4.9968783565
 20
4.6439266409
 30
0.0
 10
4.9948529482
 20
4.6487312249
 30
0.0
 10
4.9939699564
 20
4.6511501903
 30
0.0
  0
SPLINE
  5
3BF
100
AcDbEntity
  8
ALL_ASSEMBLY_MEMBERS
100
AcDbSpline
 62
7
  6
CONTINUOUS
 70
0
 71
3
 72
32
 73
28
 74
0
 42
0.0000001
 43
0.0000001
 44
0.0000000001
 40
0.0
 40
0.0
 40
0.0
 40
0.0
 40
0.0007541045
 40
0.0012629438
 40
0.0018899128
 40
0.0035378319
 40
0.0057450303
 40
0.0085281687
 40
0.0118930965
 40
0.0158416106
 40
0.02037367
 40
0.0311834358
 40
0.0443087092
 40
0.0597291308
 40
0.0774072684
 40
0.0972976685
 40
0.1193542185
 40
0.1697678488
 40
0.2281583775
 40
0.2939731439
 40
0.3665806468
 40
0.4452899178
 40
0.5293420535
 40
0.6179117937
 40
0.7101601776
 40
0.8052312607
 40
1.0
 40
1.0
 40
1.0
 40
1.0
 10
4.98939978
 20
6.5149874272
 30
0.0
 10
4.9893994132
 20
6.515025803
 30
0.0
 10
4.9894329149
 20
6.5150886739
 30
0.0
 10
4.9895047316
 20
6.5151516948
 30
0.0
 10
4.9896241714
 20
6.5152293225
 30
0.0
 10
4.9898342997
 20
6.5153202553
 30
0.0
 10
4.9901560991
 20
6.5154237099
 30
0.0
 10
4.9905686859
 20
6.515527546
 30
0.0
 10
4.991071839
 20
6.515632137
 30
0.0
 10
4.9916655489
 20
6.5157370638
 30
0.0
 10
4.9926359237
 20
6.5158862293
 30
0.0
 10
4.9940734262
 20
6.516068061
 30
0.0
 10
4.9960654385
 20
6.5162769844
 30
0.0
 10
4.9984085638
 20
6.5164865539
 30
0.0
 10
5.0010970891
 20
6.5166967549
 30
0.0
 10
5.0041242151
 20
6.5169073803
 30
0.0
 10
5.0088153829
 20
6.5172018851
 30
0.0
 10
5.015465378
 20
6.5175633724
 30
0.0
 10
5.0243421813
 20
6.5179821474
 30
0.0
 10
5.0343495326
 20
6.518401886
 30
0.0
 10
5.0453917102
 20
6.5188225019
 30
0.0
 10
5.0573626118
 20
6.5192436675
 30
0.0
 10
5.0701463094
 20
6.5196652204
 30
0.0
 10
5.083619376
 20
6.5200870982
 30
0.0
 10
5.0976534696
 20
6.5205091862
 30
0.0
 10
5.1170902559
 20
6.5210768282
 30
0.0
 10
5.1318347319
 20
6.5214950875
 30
0.0
 10
5.1417428317
 20
6.5217762564
 30
0.0
  0
SPLINE
  5
3C0
100
AcDbEntity
  8
ALL_ASSEMBLY_MEMBERS
100
AcDbSpline
 62
7
  6
CONTINUOUS
 70
0
 71
3
 72
28
 73
24
 74
0
 42
0.0000001
 43
0.0000001
 44
0.0000000001
 40
0.0
 40
0.0
 40
0.0
 40
0.0
 40
0.1892422336
 40
0.3716772717
 40
0.4582382328
 40
0.5406662891
 40
0.6182039792
 40
0.6901475781
 40
0.7558529641
 40
0.8147229729
 40
0.8662363003
 40
0.8890794538
 40
0.9099147842
 40
0.9286984129
 40
0.9453868251
 40
0.9599386042
 40
0.972326551
 40
0.9825321606
 40
0.9905408912
 40
0.9937197406
 40
0.9963497612
 40
0.998437853
 40
1.0
 40
1.0
 40
1.0
 40
1.0
 10
5.1417428317
 20
6.5807493853
 30
0.0
 10
5.1321340412
 20
6.5804844509
 30
0.0
 10
5.1132620984
 20
6.5799640545
 30
0.0
 10
5.0899956523
 20
6.5792993216
 30
0.0
 10
5.0721534481
 20
6.578759364
 30
0.0
 10
5.0596375867
 20
6.5783616864
 30
0.0
 10
5.0478645904
 20
6.5779642745
 30
0.0
 10
5.0369415153
 20
6.577567224
 30
0.0
 10
5.026967301
 20
6.5771708282
 30
0.0
 10
5.0180317086
 20
6.5767750919
 30
0.0
 10
5.0112730589
 20
6.5764343934
 30
0.0
 10
5.0064457612
 20
6.5761575766
 30
0.0
 10
5.0032792649
 20
6.5759585614
 30
0.0
 10
5.0004260536
 20
6.5757598317
 30
0.0
 10
4.9978928315
 20
6.5755615138
 30
0.0
 10
4.9956855699
 20
6.5753636359
 30
0.0
 10
4.9938089712
 20
6.5751666747
 30
0.0
 10
4.9922668594
 20
6.5749707605
 30
0.0
 10
4.9911933331
 20
6.5747993069
 30
0.0
 10
4.9905060459
 20
6.574656556
 30
0.0
 10
4.9901168553
 20
6.5745584059
 30
0.0
 10
4.989812997
 20
6.5744610159
 30
0.0
 10
4.9896421198
 20
6.5743867393
 30
0.0
 10
4.9895734415
 20
6.5743469972
 30
0.0
  0
SPLINE
  5
3C1
100
AcDbEntity
  8
ALL_ASSEMBLY_MEMBERS
100
AcDbSpline
 62
7
  6
CONTINUOUS
 70
0
 71
3
 72
32
 73
28
 74
0
 42
0.0000001
 43
0.0000001
 44
0.0000000001
 40
0.0
 40
0.0
 40
0.0
 40
0.0
 40
0.0007610356
 40
0.0012754804
 40
0.0019084993
 40
0.003568584
 40
0.00578698
 40
0.0085804836
 40
0.0119561943
 40
0.0159157813
 40
0.0204589167
 40
0.0312897147
 40
0.0444326541
 40
0.0598668236
 40
0.077559208
 40
0.0974633857
 40
0.119531566
 40
0.1699615673
 40
0.228366439
 40
0.2941842549
 40
0.3667889483
 40
0.445481469
 40
0.5295106751
 40
0.6180511623
 40
0.7102641729
 40
0.805296794
 40
1.0
 40
1.0
 40
1.0
 40
1.0
 10
4.9893997455
 20
6.4878067643
 30
0.0
 10
4.989400204
 20
6.4878454916
 30
0.0
 10
4.9894351084
 20
6.4879081928
 30
0.0
 10
4.9895080642
 20
6.4879712889
 30
0.0
 10
4.9896289142
 20
6.4880489682
 30
0.0
 10
4.9898405592
 20
6.488140065
 30
0.0
 10
4.9901640989
 20
6.4882437351
 30
0.0
 10
4.9905783162
 20
6.4883477961
 30
0.0
 10
4.9910831048
 20
6.488452565
 30
0.0
 10
4.9916784781
 20
6.4885576753
 30
0.0
 10
4.9926510331
 20
6.4887070701
 30
0.0
 10
4.9940910386
 20
6.4888891963
 30
0.0
 10
4.9960856792
 20
6.4890984917
 30
0.0
 10
4.9984310818
 20
6.4893084696
 30
0.0
 10
5.0011216902
 20
6.4895190266
 30
0.0
 10
5.0041507891
 20
6.4897300181
 30
0.0
 10
5.008844018
 20
6.4900250241
 30
0.0
 10
5.0154960813
 20
6.4903871832
 30
0.0
 10
5.0243745008
 20
6.4908066496
 30
0.0
 10
5.0343824828
 20
6.4912271421
 30
0.0
 10
5.0454237065
 20
6.4916483977
 30
0.0
 10
5.057392325
 20
6.4920702225
 30
0.0
 10
5.0701723908
 20
6.4924923545
 30
0.0
 10
5.0836408735
 20
6.4929147931
 30
0.0
 10
5.0976695901
 20
6.4933374015
 30
0.0
 10
5.1170991051
 20
6.4939057093
 30
0.0
 10
5.1318381556
 20
6.4943244095
 30
0.0
 10
5.1417428317
 20
6.4946058484
 30
0.0
  0
SPLINE
  5
3C2
100
AcDbEntity
  8
ALL_ASSEMBLY_MEMBERS
100
AcDbSpline
 62
7
  6
CONTINUOUS
 70
0
 71
3
 72
20
 73
16
 74
0
 42
0.0000001
 43
0.0000001
 44
0.0000000001
 40
0.0
 40
0.0
 40
0.0
 40
0.0
 40
0.0711719579
 40
0.1421032015
 40
0.2819312896
 40
0.4176338735
 40
0.5477403675
 40
0.6103591106
 40
0.67120479
 40
0.7302299719
 40
0.7874407804
 40
0.8428870994
 40
0.8966762381
 40
0.9489748653
 40
1.0
 40
1.0
 40
1.0
 40
1.0
 10
5.1417428317
 20
4.5928814975
 30
0.0
 10
5.1375353514
 20
4.5927969522
 30
0.0
 10
5.1291272428
 20
4.5928756525
 30
0.0
 10
5.1124882758
 20
4.594006974
 30
0.0
 10
5.0921982871
 20
4.597207691
 30
0.0
 10
5.0690881404
 20
4.6038489557
 30
0.0
 10
5.0512264523
 20
4.6116450657
 30
0.0
 10
5.0382177765
 20
4.6191244886
 30
0.0
 10
5.0292918383
 20
4.6252080386
 30
0.0
 10
5.0211384829
 20
4.6317968468
 30
0.0
 10
5.0138112399
 20
4.6388419911
 30
0.0
 10
5.0073618311
 20
4.6462955411
 30
0.0
 10
5.0018375439
 20
4.6541072101
 30
0.0
 10
4.9972744672
 20
4.662218208
 30
0.0
 10
4.994872235
 20
4.6678519991
 30
0.0
 10
4.9938503168
 20
4.6706907274
 30
0.0
  0
SPLINE
  5
3C3
100
AcDbEntity
  8
ALL_ASSEMBLY_MEMBERS
100
AcDbSpline
 62
7
  6
CONTINUOUS
 70
0
 71
3
 72
32
 73
28
 74
0
 42
0.0000001
 43
0.0000001
 44
0.0000000001
 40
0.0
 40
0.0
 40
0.0
 40
0.0
 40
0.0007575739
 40
0.0012674537
 40
0.0018951416
 40
0.0035438916
 40
0.0057514884
 40
0.0085347293
 40
0.0118995417
 40
0.0158477968
 40
0.0203795063
 40
0.0311884506
 40
0.0443129464
 40
0.0597326995
 40
0.0774101384
 40
0.0972998928
 40
0.1193559335
 40
0.1697691474
 40
0.228159518
 40
0.2939736573
 40
0.3665804572
 40
0.4452890499
 40
0.5293409772
 40
0.6179107402
 40
0.710159203
 40
0.8052303456
 40
1.0
 40
1.0
 40
1.0
 40
1.0
 10
4.9893997797
 20
6.4606431529
 30
0.0
 10
4.9893993517
 20
6.4606817054
 30
0.0
 10
4.989432655
 20
6.4607449174
 30
0.0
 10
4.9895044461
 20
6.4608084042
 30
0.0
 10
4.9896237461
 20
6.4608864858
 30
0.0
 10
4.9898337603
 20
6.4609779832
 30
0.0
 10
4.9901554403
 20
6.4610820499
 30
0.0
 10
4.9905679052
 20
6.4611864981
 30
0.0
 10
4.9910709291
 20
6.4612916935
 30
0.0
 10
4.9916645083
 20
6.461397219
 30
0.0
 10
4.9926347001
 20
6.461547223
 30
0.0
 10
4.994072007
 20
6.4617300536
 30
0.0
 10
4.9960638266
 20
6.4619400876
 30
0.0
 10
4.9984067926
 20
6.4621507322
 30
0.0
 10
5.0010951865
 20
6.4623619736
 30
0.0
 10
5.0041222075
 20
6.4625735985
 30
0.0
 10
5.0088133027
 20
6.4628694396
 30
0.0
 10
5.0154632914
 20
6.4632324315
 30
0.0
 10
5.0243401338
 20
6.4636527436
 30
0.0
 10
5.0343475488
 20
6.4640737982
 30
0.0
 10
5.0453897978
 20
6.4644954846
 30
0.0
 10
5.0573608222
 20
6.4649174633
 30
0.0
 10
5.0701447063
 20
6.465339551
 30
0.0
 10
5.0836180213
 20
6.4657616689
 30
0.0
 10
5.0976523976
 20
6.4661836819
 30
0.0
 10
5.1170896304
 20
6.4667507751
 30
0.0
 10
5.1318344684
 20
6.467168105
 30
0.0
 10
5.1417428317
 20
6.4674483965
 30
0.0
  0
SPLINE
  5
3C4
100
AcDbEntity
  8
ALL_ASSEMBLY_MEMBERS
100
AcDbSpline
 62
9
  6
CONTINUOUS
 70
0
 71
3
 72
22
 73
18
 74
0
 42
0.0000001
 43
0.0000001
 44
0.0000000001
 40
0.0
 40
0.0
 40
0.0
 40
0.0
 40
0.0726063612
 40
0.1449514164
 40
0.2165837961
 40
0.2871785392
 40
0.3564660944
 40
0.4241915969
 40
0.5539797126
 40
0.6158987188
 40
0.6757322948
 40
0.7335318867
 40
0.7894369863
 40
0.8436800671
 40
0.8965794406
 40
0.9485341856
 40
1.0
 40
1.0
 40
1.0
 40
1.0
 10
5.1417428317
 20
4.9103540566
 30
0.0
 10
5.1367655757
 20
4.9103540566
 30
0.0
 10
5.1268255981
 20
4.9107003961
 30
0.0
 10
5.1120474012
 20
4.912243927
 30
0.0
 10
5.0975500189
 20
4.9148058316
 30
0.0
 10
5.0834788718
 20
4.9183563143
 30
0.0
 10
5.0699642598
 20
4.9228659576
 30
0.0
 10
5.0531060896
 20
4.9299891851
 30
0.0
 10
5.0375844609
 20
4.9388896552
 30
0.0
 10
5.0239543256
 20
4.949487917
 30
0.0
 10
5.0150150055
 20
4.9579811546
 30
0.0
 10
5.0072895631
 20
4.9670588118
 30
0.0
 10
5.0008568393
 20
4.9766390179
 30
0.0
 10
4.9957781977
 20
4.9866281983
 30
0.0
 10
4.9921128234
 20
4.996933899
 30
0.0
 10
4.989893742
 20
5.0074498538
 30
0.0
 10
4.9893998516
 20
5.0145493099
 30
0.0
 10
4.9893998516
 20
5.0180773553
 30
0.0
  0
SPLINE
  5
3C5
100
AcDbEntity
  8
ALL_ASSEMBLY_MEMBERS
100
AcDbSpline
 62
7
  6
CONTINUOUS
 70
0
 71
3
 72
32
 73
28
 74
0
 42
0.0000001
 43
0.0000001
 44
0.0000000001
 40
0.0
 40
0.0
 40
0.0
 40
0.0
 40
0.0007599288
 40
0.0012739873
 40
0.0019067043
 40
0.0035663568
 40
0.0057844609
 40
0.0085777623
 40
0.0119533208
 40
0.0159127853
 40
0.0204558191
 40
0.0312864574
 40
0.0444292767
 40
0.0598633351
 40
0.0775554782
 40
0.0974593564
 40
0.1195272973
 40
0.1699571734
 40
0.2283618476
 40
0.2941799195
 40
0.3667850879
 40
0.4454789612
 40
0.5295099559
 40
0.6180513797
 40
0.7102640613
 40
0.8052962279
 40
1.0
 40
1.0
 40
1.0
 40
1.0
 10
4.9893997672
 20
6.4334196521
 30
0.0
 10
4.989400233
 20
6.4334583226
 30
0.0
 10
4.9894351755
 20
6.4335209239
 30
0.0
 10
4.9895081225
 20
6.4335838809
 30
0.0
 10
4.9896289934
 20
6.4336614222
 30
0.0
 10
4.9898406503
 20
6.4337523437
 30
0.0
 10
4.9901642001
 20
6.4338558187
 30
0.0
 10
4.9905784288
 20
6.4339596812
 30
0.0
 10
4.9910832297
 20
6.4340642504
 30
0.0
 10
4.991678614
 20
6.434169159
 30
0.0
 10
4.9926511854
 20
6.4343182656
 30
0.0
 10
4.9940912039
 20
6.4345000362
 30
0.0
 10
4.9960858517
 20
6.4347089182
 30
0.0
 10
4.9984312489
 20
6.4349184766
 30
0.0
 10
5.0011218354
 20
6.4351286116
 30
0.0
 10
5.0041509002
 20
6.4353391771
 30
0.0
 10
5.0088440956
 20
6.4356335848
 30
0.0
 10
5.0154961177
 20
6.4359950016
 30
0.0
 10
5.0243745041
 20
6.4364136119
 30
0.0
 10
5.0343824704
 20
6.4368332416
 30
0.0
 10
5.0454237457
 20
6.4372536418
 30
0.0
 10
5.0573924839
 20
6.4376746159
 30
0.0
 10
5.0701726844
 20
6.4380959074
 30
0.0
 10
5.083641209
 20
6.4385175167
 30
0.0
 10
5.0976698474
 20
6.4389393082
 30
0.0
 10
5.1170992296
 20
6.4395065445
 30
0.0
 10
5.131838191
 20
6.4399244933
 30
0.0
 10
5.1417428317
 20
6.4402054483
 30
0.0
  0
SPLINE
  5
3C6
100
AcDbEntity
  8
ALL_ASSEMBLY_MEMBERS
100
AcDbSpline
 62
7
  6
CONTINUOUS
 70
0
 71
3
 72
28
 73
24
 74
0
 42
0.0000001
 43
0.0000001
 44
0.0000000001
 40
0.0
 40
0.0
 40
0.0
 40
0.0
 40
0.189251955
 40
0.3717100148
 40
0.4582809426
 40
0.5407168432
 40
0.6182617094
 40
0.6902037918
 40
0.7559058488
 40
0.8147674112
 40
0.8662729253
 40
0.8891132675
 40
0.909944358
 40
0.9287236637
 40
0.945409021
 40
0.959959149
 40
0.9723433056
 40
0.9825439721
 40
0.9905481836
 40
0.9937254098
 40
0.996354282
 40
0.9984405319
 40
1.0
 40
1.0
 40
1.0
 40
1.0
 10
5.1417428317
 20
6.5543451244
 30
0.0
 10
5.1321335289
 20
6.5540803284
 30
0.0
 10
5.1132598846
 20
6.5535602689
 30
0.0
 10
5.089991216
 20
6.5528961447
 30
0.0
 10
5.0721468921
 20
6.5523567774
 30
0.0
 10
5.0596297272
 20
6.5519595643
 30
0.0
 10
5.0478560081
 20
6.551562709
 30
0.0
 10
5.0369327778
 20
6.5511662211
 30
0.0
 10
5.0269591977
 20
6.5507704941
 30
0.0
 10
5.0180245578
 20
6.5503754356
 30
0.0
 10
5.0112668372
 20
6.5500353549
 30
0.0
 10
5.0064402576
 20
6.5497590779
 30
0.0
 10
5.0032743121
 20
6.5495604345
 30
0.0
 10
5.000421662
 20
6.5493620802
 30
0.0
 10
4.9978888671
 20
6.5491641374
 30
0.0
 10
4.9956819983
 20
6.5489666754
 30
0.0
 10
4.9938058872
 20
6.5487700952
 30
0.0
 10
4.9922644044
 20
6.5485745558
 30
0.0
 10
4.9911913951
 20
6.5484034314
 30
0.0
 10
4.9905044286
 20
6.548260959
 30
0.0
 10
4.9901154223
 20
6.5481630339
 30
0.0
 10
4.9898117989
 20
6.5480658574
 30
0.0
 10
4.9896411086
 20
6.5479917163
 30
0.0
 10
4.9895725531
 20
6.5479520334
 30
0.0
  0
SPLINE
  5
3C7
100
AcDbEntity
  8
ALL_ASSEMBLY_MEMBERS
100
AcDbSpline
 62
7
  6
CONTINUOUS
 70
0
 71
3
 72
32
 73
28
 74
0
 42
0.0000001
 43
0.0000001
 44
0.0000000001
 40
0.0
 40
0.0
 40
0.0
 40
0.0
 40
0.0007551001
 40
0.0012641222
 40
0.0018911457
 40
0.0035389548
 40
0.005745914
 40
0.0085287131
 40
0.0118932209
 40
0.0158412682
 40
0.0203728401
 40
0.0311816506
 40
0.0443061149
 40
0.0597258981
 40
0.0774034419
 40
0.0972933417
 40
0.1193495366
 40
0.1697630087
 40
0.2281536977
 40
0.293968402
 40
0.3665758837
 40
0.4452852264
 40
0.5293378271
 40
0.6179082388
 40
0.7101573621
 40
0.8052291879
 40
1.0
 40
1.0
 40
1.0
 40
1.0
 10
4.9893997808
 20
6.4062294358
 30
0.0
 10
4.9893993646
 20
6.4062678621
 30
0.0
 10
4.9894327486
 20
6.4063308595
 30
0.0
 10
4.9895045176
 20
6.4063940441
 30
0.0
 10
4.9896238598
 20
6.4064718334
 30
0.0
 10
4.9898338952
 20
6.4065629661
 30
0.0
 10
4.9901555904
 20
6.4066666391
 30
0.0
 10
4.9905680743
 20
6.4067706974
 30
0.0
 10
4.9910711222
 20
6.4068755116
 30
0.0
 10
4.9916647274
 20
6.4069806628
 30
0.0
 10
4.9926349639
 20
6.4071301486
 30
0.0
 10
4.9940723157
 20
6.4073123712
 30
0.0
 10
4.9960641767
 20
6.4075217428
 30
0.0
 10
4.9984071794
 20
6.4077317613
 30
0.0
 10
5.0010956057
 20
6.4079424144
 30
0.0
 10
5.0041226542
 20
6.4081534919
 30
0.0
 10
5.0088137736
 20
6.4084486287
 30
0.0
 10
5.0154637703
 20
6.4088108841
 30
0.0
 10
5.0243406104
 20
6.4092305366
 30
0.0
 10
5.0343480209
 20
6.4096511398
 30
0.0
 10
5.0453902666
 20
6.4100725997
 30
0.0
 10
5.0573612748
 20
6.4104945898
 30
0.0
 10
5.0701451243
 20
6.4109169421
 30
0.0
 10
5.0836183852
 20
6.4113395919
 30
0.0
 10
5.0976526943
 20
6.411762419
 30
0.0
 10
5.1170898114
 20
6.4123310064
 30
0.0
 10
5.1318345472
 20
6.4127499026
 30
0.0
 10
5.1417428317
 20
6.4130314688
 30
0.0
  0
SPLINE
  5
3C8
100
AcDbEntity
  8
ALL_ASSEMBLY_MEMBERS
100
AcDbSpline
 62
7
  6
CONTINUOUS
 70
0
 71
3
 72
28
 73
24
 74
0
 42
0.0000001
 43
0.0000001
 44
0.0000000001
 40
0.0
 40
0.0
 40
0.0
 40
0.0
 40
0.1892656861
 40
0.3717197536
 40
0.458289603
 40
0.540725841
 40
0.6182696994
 40
0.6902171217
 40
0.7559236531
 40
0.8147921658
 40
0.8663010419
 40
0.8891409455
 40
0.9099724152
 40
0.9287514567
 40
0.9454344374
 40
0.9599800448
 40
0.9723614051
 40
0.9825597654
 40
0.9905602959
 40
0.9937345892
 40
0.9963597924
 40
0.998442949
 40
1.0
 40
1.0
 40
1.0
 40
1.0
 10
5.1417428317
 20
6.5279453843
 30
0.0
 10
5.1321328415
 20
6.527678058
 30
0.0
 10
5.1132587082
 20
6.5271535531
 30
0.0
 10
5.0899895837
 20
6.5264849511
 30
0.0
 10
5.0721454782
 20
6.5259426578
 30
0.0
 10
5.0596283822
 20
6.5255436307
 30
0.0
 10
5.0478544053
 20
6.5251452214
 30
0.0
 10
5.0369307039
 20
6.5247475147
 30
0.0
 10
5.0269562497
 20
6.5243507839
 30
0.0
 10
5.0180208339
 20
6.5239550213
 30
0.0
 10
5.0112625895
 20
6.5236145411
 30
0.0
 10
5.006435824
 20
6.5233380535
 30
0.0
 10
5.0032698793
 20
6.5231393469
 30
0.0
 10
5.0004173268
 20
6.5229409905
 30
0.0
 10
4.9978848763
 20
6.5227431074
 30
0.0
 10
4.9956784816
 20
6.522545721
 30
0.0
 10
4.9938028327
 20
6.5223493138
 30
0.0
 10
4.992261761
 20
6.5221540077
 30
0.0
 10
4.9911891653
 20
6.5219831289
 30
0.0
 10
4.9905026834
 20
6.521840868
 30
0.0
 10
4.9901141472
 20
6.5217430819
 30
0.0
 10
4.9898109585
 20
6.5216460738
 30
0.0
 10
4.9896405121
 20
6.5215720749
 30
0.0
 10
4.9895720565
 20
6.5215324635
 30
0.0
  0
SPLINE
  5
3C9
100
AcDbEntity
  8
ALL_ASSEMBLY_MEMBERS
100
AcDbSpline
 62
9
  6
CONTINUOUS
 70
0
 71
3
 72
22
 73
18
 74
0
 42
0.0000001
 43
0.0000001
 44
0.0000000001
 40
0.0
 40
0.0
 40
0.0
 40
0.0
 40
0.0514658144
 40
0.1034205594
 40
0.1563199329
 40
0.2105630137
 40
0.2664681133
 40
0.3242677052
 40
0.3841012812
 40
0.4460202874
 40
0.5758084031
 40
0.6435339056
 40
0.7128214608
 40
0.7834162039
 40
0.8550485836
 40
0.9273936388
 40
1.0
 40
1.0
 40
1.0
 40
1.0
 10
5.2940858118
 20
5.0180773553
 30
0.0
 10
5.2940858118
 20
5.0145493099
 30
0.0
 10
5.2935919215
 20
5.0074498538
 30
0.0
 10
5.29137284
 20
4.996933899
 30
0.0
 10
5.2877074657
 20
4.9866281983
 30
0.0
 10
5.2826288241
 20
4.9766390179
 30
0.0
 10
5.2761961003
 20
4.9670588118
 30
0.0
 10
5.2684706579
 20
4.9579811546
 30
0.0
 10
5.2595313378
 20
4.949487917
 30
0.0
 10
5.2459012026
 20
4.9388896552
 30
0.0
 10
5.2303795738
 20
4.9299891851
 30
0.0
 10
5.2135214036
 20
4.9228659576
 30
0.0
 10
5.2000067916
 20
4.9183563143
 30
0.0
 10
5.1859356445
 20
4.9148058316
 30
0.0
 10
5.1714382622
 20
4.912243927
 30
0.0
 10
5.1566600653
 20
4.9107003961
 30
0.0
 10
5.1467200878
 20
4.9103540566
 30
0.0
 10
5.1417428317
 20
4.9103540566
 30
0.0
  0
SPLINE
  5
3CA
100
AcDbEntity
  8
ALL_ASSEMBLY_MEMBERS
100
AcDbSpline
 62
7
  6
CONTINUOUS
 70
0
 71
3
 72
22
 73
18
 74
0
 42
0.0000001
 43
0.0000001
 44
0.0000000001
 40
0.0
 40
0.0
 40
0.0
 40
0.0
 40
0.0037605421
 40
0.008437222
 40
0.0145479101
 40
0.0223293293
 40
0.0318950252
 40
0.0433054552
 40
0.0717754661
 40
0.1078637735
 40
0.1515970864
 40
0.2029694091
 40
0.261959078
 40
0.4026609975
 40
0.5732022913
 40
0.7726472045
 40
1.0
 40
1.0
 40
1.0
 40
1.0
 10
5.2836209247
 20
6.4614619872
 30
0.0
 10
5.283620938
 20
6.4614379655
 30
0.0
 10
5.2836042437
 20
6.4613839103
 30
0.0
 10
5.2835412587
 20
6.4613136209
 30
0.0
 10
5.2834438759
 20
6.4612450185
 30
0.0
 10
5.2833101428
 20
6.4611766915
 30
0.0
 10
5.2831395614
 20
6.4611081169
 30
0.0
 10
5.2828394961
 20
6.4610090201
 30
0.0
 10
5.2823686557
 20
6.4608896207
 30
0.0
 10
5.2816903575
 20
6.4607533037
 30
0.0
 10
5.2808634464
 20
6.4606163215
 30
0.0
 10
5.2798887211
 20
6.4604787065
 30
0.0
 10
5.278296876
 20
6.4602830878
 30
0.0
 10
5.275943709
 20
6.460044745
 30
0.0
 10
5.2726929549
 20
6.45977095
 30
0.0
 10
5.268887095
 20
6.4594961561
 30
0.0
 10
5.2661662236
 20
6.4593236283
 30
0.0
 10
5.2647165613
 20
6.459236316
 30
0.0
  0
SPLINE
  5
3CB
100
AcDbEntity
  8
ALL_ASSEMBLY_MEMBERS
100
AcDbSpline
 62
7
  6
CONTINUOUS
 70
0
 71
3
 72
20
 73
16
 74
0
 42
0.0000001
 43
0.0000001
 44
0.0000000001
 40
0.0
 40
0.0
 40
0.0
 40
0.0
 40
0.0524638841
 40
0.1060323876
 40
0.1609047042
 40
0.2172349511
 40
0.2751249995
 40
0.3346233928
 40
0.3957373389
 40
0.4584234205
 40
0.5880789853
 40
0.7225825692
 40
0.8604981497
 40
0.9302131921
 40
1.0
 40
1.0
 40
1.0
 40
1.0
 10
5.2899597034
 20
4.6797978964
 30
0.0
 10
5.288970227
 20
4.6767663253
 30
0.0
 10
5.2866299028
 20
4.6707452379
 30
0.0
 10
5.2821355062
 20
4.6620401624
 30
0.0
 10
5.2766631576
 20
4.6536324748
 30
0.0
 10
5.2702488449
 20
4.645582556
 30
0.0
 10
5.2629401558
 20
4.6379425887
 30
0.0
 10
5.2547898747
 20
4.6307615877
 30
0.0
 10
5.2458520103
 20
4.624089742
 30
0.0
 10
5.2328289721
 20
4.615835614
 30
0.0
 10
5.2149160004
 20
4.6070799686
 30
0.0
 10
5.1916746598
 20
4.5993210843
 30
0.0
 10
5.1712292647
 20
4.5952191697
 30
0.0
 10
5.154459044
 20
4.59338897
 30
0.0
 10
5.145983895
 20
4.5929667176
 30
0.0
 10
5.1417428317
 20
4.5928814975
 30
0.0
  0
SPLINE
  5
3CC
100
AcDbEntity
  8
ALL_ASSEMBLY_MEMBERS
100
AcDbSpline
 62
7
  6
CONTINUOUS
 70
0
 71
3
 72
9
 73
5
 74
0
 42
0.0000001
 43
0.0000001
 44
0.0000000001
 40
0.0
 40
0.0
 40
0.0
 40
0.0
 40
0.4966313151
 40
1.0
 40
1.0
 40
1.0
 40
1.0
 10
5.2938515089
 20
4.6800436209
 30
0.0
 10
5.2935724184
 20
4.6763867032
 30
0.0
 10
5.2925062644
 20
4.6690534762
 30
0.0
 10
5.2904725471
 20
4.6619296218
 30
0.0
 10
5.289227438
 20
4.658427041
 30
0.0
  0
SPLINE
  5
3CD
100
AcDbEntity
  8
ALL_ASSEMBLY_MEMBERS
100
AcDbSpline
 62
7
  6
CONTINUOUS
 70
0
 71
3
 72
20
 73
16
 74
0
 42
0.0000001
 43
0.0000001
 44
0.0000000001
 40
0.0
 40
0.0
 40
0.0
 40
0.0
 40
0.0525628053
 40
0.1062610277
 40
0.1612775334
 40
0.2177519158
 40
0.2757730691
 40
0.3353784748
 40
0.3965673258
 40
0.45929104
 40
0.5889038489
 40
0.7232183813
 40
0.8608392911
 40
0.930385308
 40
1.0
 40
1.0
 40
1.0
 40
1.0
 10
5.289227438
 20
4.658427041
 30
0.0
 10
5.2881705992
 20
4.6554540783
 30
0.0
 10
5.2857075487
 20
4.6495550291
 30
0.0
 10
5.2810690562
 20
4.6410399109
 30
0.0
 10
5.2754888389
 20
4.6328246302
 30
0.0
 10
5.2690024959
 20
4.6249664975
 30
0.0
 10
5.2616565139
 20
4.617515011
 30
0.0
 10
5.2535025485
 20
4.6105164263
 30
0.0
 10
5.2445928929
 20
4.6040187313
 30
0.0
 10
5.2316522068
 20
4.5959875033
 30
0.0
 10
5.2139137249
 20
4.5874738769
 30
0.0
 10
5.1909575304
 20
4.5799311465
 30
0.0
 10
5.1707958529
 20
4.5759431742
 30
0.0
 10
5.154270037
 20
4.5741623571
 30
0.0
 10
5.145920796
 20
4.5737503931
 30
0.0
 10
5.1417428317
 20
4.5736665923
 30
0.0
  0
SPLINE
  5
3CE
100
AcDbEntity
  8
ALL_ASSEMBLY_MEMBERS
100
AcDbSpline
 62
7
  6
CONTINUOUS
 70
0
 71
3
 72
42
 73
38
 74
0
 42
0.0000001
 43
0.0000001
 44
0.0000000001
 40
0.0
 40
0.0
 40
0.0
 40
0.0
 40
0.000889794
 40
0.0016535492
 40
0.0026644194
 40
0.0039311434
 40
0.0054577611
 40
0.0072462865
 40
0.0092977309
 40
0.0141901438
 40
0.0201288977
 40
0.0271016096
 40
0.0350947288
 40
0.0540828495
 40
0.0769343142
 40
0.1034525491
 40
0.1334162144
 40
0.1665613291
 40
0.2026102727
 40
0.2412471844
 40
0.2821434704
 40
0.3249459998
 40
0.3692858824
 40
0.4610458793
 40
0.5542734272
 40
0.6457690081
 40
0.7323946846
 40
0.811182073
 40
0.8467823269
 40
0.8794345014
 40
0.9088660024
 40
0.9348203608
 40
0.9570797552
 40
0.9754574432
 40
0.9897977258
 40
0.9954215705
 40
1.0
 40
1.0
 40
1.0
 40
1.0
 10
5.282906015
 20
6.488248286
 30
0.0
 10
5.2829058983
 20
6.4881649158
 30
0.0
 10
5.2827611059
 20
6.4880426702
 30
0.0
 10
5.2825455709
 20
6.4879396644
 30
0.0
 10
5.2822738206
 20
6.4878406037
 30
0.0
 10
5.2819319271
 20
6.4877443646
 30
0.0
 10
5.2815133399
 20
6.4876463519
 30
0.0
 10
5.2810202332
 20
6.4875484532
 30
0.0
 10
5.2802138566
 20
6.4874091303
 30
0.0
 10
5.2790186027
 20
6.4872394364
 30
0.0
 10
5.2773617847
 20
6.4870444493
 30
0.0
 10
5.2754128353
 20
6.4868487355
 30
0.0
 10
5.2722435828
 20
6.4865708141
 30
0.0
 10
5.2675865026
 20
6.4862324893
 30
0.0
 10
5.2611934091
 20
6.4858431835
 30
0.0
 10
5.2537703876
 20
6.4854524211
 30
0.0
 10
5.2453817919
 20
6.4850606431
 30
0.0
 10
5.2360993688
 20
6.4846680575
 30
0.0
 10
5.2260036511
 20
6.4842751137
 30
0.0
 10
5.2151811855
 20
6.4838817506
 30
0.0
 10
5.2037255499
 20
6.4834882055
 30
0.0
 10
5.1917352748
 20
6.4830944805
 30
0.0
 10
5.1749812215
 20
6.4825633114
 30
0.0
 10
5.1535041052
 20
6.4819082378
 30
0.0
 10
5.1276103787
 20
6.4811304555
 30
0.0
 10
5.1021979106
 20
6.4803533505
 30
0.0
 10
5.0781390436
 20
6.4795777122
 30
0.0
 10
5.0593165152
 20
6.478913616
 30
0.0
 10
5.0455500827
 20
6.478371871
 30
0.0
 10
5.0364058512
 20
6.4779798371
 30
0.0
 10
5.0281662574
 20
6.4775887699
 30
0.0
 10
5.0209016135
 20
6.4771986999
 30
0.0
 10
5.0146741704
 20
6.4768107633
 30
0.0
 10
5.0095373758
 20
6.4764251993
 30
0.0
 10
5.0059601676
 20
6.4760877854
 30
0.0
 10
5.003677892
 20
6.4758054621
 30
0.0
 10
5.0027324819
 20
6.4756624548
 30
0.0
 10
5.0023100007
 20
6.4755880602
 30
0.0
  0
LINE
  5
3CF
100
AcDbEntity
  8
ALL_ASSEMBLY_MEMBERS
100
AcDbLine
 62
7
  6
CONTINUOUS
 10
5.0023100007
 20
6.4755880602
 11
5.0004163365
 21
6.4750772846
  0
SPLINE
  5
3D0
100
AcDbEntity
  8
ALL_ASSEMBLY_MEMBERS
100
AcDbSpline
 62
7
  6
CONTINUOUS
 70
0
 71
3
 72
20
 73
16
 74
0
 42
0.0000001
 43
0.0000001
 44
0.0000000001
 40
0.0
 40
0.0
 40
0.0
 40
0.0
 40
0.0524661519
 40
0.1060360153
 40
0.1609089694
 40
0.2172393191
 40
0.2751290725
 40
0.3346267787
 40
0.3957397312
 40
0.4584247181
 40
0.5880783687
 40
0.7225809559
 40
0.8604965661
 40
0.9302121978
 40
1.0
 40
1.0
 40
1.0
 40
1.0
 10
5.2899677889
 20
4.6413437132
 30
0.0
 10
5.2889791122
 20
4.6383112141
 30
0.0
 10
5.2866402566
 20
4.6322882331
 30
0.0
 10
5.2821475724
 20
4.6235802553
 30
0.0
 10
5.2766765063
 20
4.6151697063
 30
0.0
 10
5.2702630472
 20
4.6071170115
 30
0.0
 10
5.2629547869
 20
4.5994744183
 30
0.0
 10
5.2548045729
 20
4.5922909532
 30
0.0
 10
5.2458664059
 20
4.5856168778
 30
0.0
 10
5.2328424932
 20
4.5773600849
 30
0.0
 10
5.214927573
 20
4.5686017971
 30
0.0
 10
5.1916829436
 20
4.5608411251
 30
0.0
 10
5.171234262
 20
4.5567389857
 30
0.0
 10
5.1544612261
 20
4.5549094195
 30
0.0
 10
5.1459846233
 20
4.5544877671
 30
0.0
 10
5.1417428317
 20
4.5544029189
 30
0.0
  0
SPLINE
  5
3D1
100
AcDbEntity
  8
ALL_ASSEMBLY_MEMBERS
100
AcDbSpline
 62
7
  6
CONTINUOUS
 70
0
 71
3
 72
28
 73
24
 74
0
 42
0.0000001
 43
0.0000001
 44
0.0000000001
 40
0.0
 40
0.0
 40
0.0
 40
0.0
 40
0.1892399317
 40
0.3716874594
 40
0.4582536294
 40
0.540685469
 40
0.618227268
 40
0.6901672104
 40
0.7558685462
 40
0.8147310541
 40
0.8662392006
 40
0.8890814295
 40
0.9099146215
 40
0.928696357
 40
0.9453845916
 40
0.9599380976
 40
0.9723257102
 40
0.9825300054
 40
0.9905382616
 40
0.993717746
 40
0.996349077
 40
0.9984379122
 40
1.0
 40
1.0
 40
1.0
 40
1.0
 10
5.1417428317
 20
6.5016038749
 30
0.0
 10
5.1321341474
 20
6.5013387713
 30
0.0
 10
5.1132616659
 20
6.500818044
 30
0.0
 10
5.089994411
 20
6.5001529325
 30
0.0
 10
5.0721510951
 20
6.4996126927
 30
0.0
 10
5.0596345546
 20
6.4992148046
 30
0.0
 10
5.047861329
 20
6.4988172488
 30
0.0
 10
5.0369384252
 20
6.498420035
 30
0.0
 10
5.0269649711
 20
6.4980235614
 30
0.0
 10
5.0180302189
 20
6.4976277368
 30
0.0
 10
5.0112722533
 20
6.4972869843
 30
0.0
 10
5.0064453679
 20
6.4970101565
 30
0.0
 10
5.0032791207
 20
6.4968111104
 30
0.0
 10
5.0004261211
 20
6.4966123519
 30
0.0
 10
4.9978929151
 20
6.4964140031
 30
0.0
 10
4.9956855866
 20
6.4962161399
 30
0.0
 10
4.993808983
 20
6.4960191548
 30
0.0
 10
4.9922669812
 20
6.4958232103
 30
0.0
 10
4.9911935165
 20
6.4956517325
 30
0.0
 10
4.9905061541
 20
6.4955089755
 30
0.0
 10
4.9901168167
 20
6.4954108469
 30
0.0
 10
4.989812848
 20
6.4953134685
 30
0.0
 10
4.9896419341
 20
6.4952391822
 30
0.0
 10
4.9895732637
 20
6.495199432
 30
0.0
  0
SPLINE
  5
3D2
100
AcDbEntity
  8
ALL_ASSEMBLY_MEMBERS
100
AcDbSpline
 62
7
  6
CONTINUOUS
 70
0
 71
3
 72
9
 73
5
 74
0
 42
0.0000001
 43
0.0000001
 44
0.0000000001
 40
0.0
 40
0.0
 40
0.0
 40
0.0
 40
0.4965626026
 40
1.0
 40
1.0
 40
1.0
 40
1.0
 10
5.2939167398
 20
4.6425100696
 30
0.0
 10
5.2936690343
 20
4.6386881538
 30
0.0
 10
5.2926194304
 20
4.6310176321
 30
0.0
 10
5.2905107165
 20
4.6235705695
 30
0.0
 10
5.2892077418
 20
4.6199127522
 30
0.0
  0
SPLINE
  5
3D3
100
AcDbEntity
  8
ALL_ASSEMBLY_MEMBERS
100
AcDbSpline
 62
7
  6
CONTINUOUS
 70
0
 71
3
 72
13
 73
9
 74
0
 42
0.0000001
 43
0.0000001
 44
0.0000000001
 40
0.0
 40
0.0
 40
0.0
 40
0.0
 40
0.1118162199
 40
0.2268014007
 40
0.3455102826
 40
0.4683040131
 40
0.7262332544
 40
1.0
 40
1.0
 40
1.0
 40
1.0
 10
5.2892077418
 20
4.6199127522
 30
0.0
 10
5.28787224
 20
4.6161636221
 30
0.0
 10
5.2846404785
 20
4.6087358626
 30
0.0
 10
5.2783171108
 20
4.5981537134
 30
0.0
 10
5.2705324494
 20
4.588096392
 30
0.0
 10
5.2581202147
 20
4.5753265161
 30
0.0
 10
5.2393159481
 20
4.5613049848
 30
0.0
 10
5.2222513853
 20
4.552885738
 30
0.0
 10
5.2131989424
 20
4.5492797506
 30
0.0
  0
SPLINE
  5
3D4
100
AcDbEntity
  8
ALL_ASSEMBLY_MEMBERS
100
AcDbSpline
 62
7
  6
CONTINUOUS
 70
0
 71
3
 72
49
 73
45
 74
0
 42
0.0000001
 43
0.0000001
 44
0.0000000001
 40
0.0
 40
0.0
 40
0.0
 40
0.0
 40
0.0009338801
 40
0.0017474005
 40
0.0028288296
 40
0.0041873318
 40
0.005826351
 40
0.0077471485
 40
0.0099499599
 40
0.0151998535
 40
0.0215704011
 40
0.0290525888
 40
0.0376294305
 40
0.0472795762
 40
0.0579812828
 40
0.0824473665
 40
0.1107993177
 40
0.1427750913
 40
0.1780794787
 40
0.2163805495
 40
0.2573266591
 40
0.3005315955
 40
0.3455978513
 40
0.3921023034
 40
0.4876909201
 40
0.5837476017
 40
0.6767069021
 40
0.720940107
 40
0.7631205455
 40
0.8028605917
 40
0.8397857907
 40
0.8735605487
 40
0.9038652266
 40
0.9304263209
 40
0.9529948513
 40
0.9627163499
 40
0.9713682652
 40
0.9789304583
 40
0.9853841661
 40
0.9907186642
 40
0.9949290152
 40
0.9980157024
 40
0.9991426641
 40
1.0
 40
1.0
 40
1.0
 40
1.0
 10
5.2822400143
 20
6.515034146
 30
0.0
 10
5.2822401038
 20
6.5149464534
 30
0.0
 10
5.2820829029
 20
6.5148193499
 30
0.0
 10
5.2818529366
 20
6.5147129923
 30
0.0
 10
5.2815601858
 20
6.5146099174
 30
0.0
 10
5.2811919803
 20
6.5145099224
 30
0.0
 10
5.280740831
 20
6.5144079876
 30
0.0
 10
5.2802095016
 20
6.5143061814
 30
0.0
 10
5.279341175
 20
6.5141613077
 30
0.0
 10
5.2780550321
 20
6.5139847595
 30
0.0
 10
5.2762726787
 20
6.5137818582
 30
0.0
 10
5.2741762924
 20
6.5135783562
 30
0.0
 10
5.2717707649
 20
6.5133742591
 30
0.0
 10
5.2690619976
 20
6.5131697604
 30
0.0
 10
5.2648632276
 20
6.5128838044
 30
0.0
 10
5.2589088608
 20
6.5125327971
 30
0.0
 10
5.2509569422
 20
6.5121262646
 30
0.0
 10
5.2419861642
 20
6.5117187813
 30
0.0
 10
5.2320803253
 20
6.511310579
 30
0.0
 10
5.2213315276
 20
6.5109018299
 30
0.0
 10
5.2098403707
 20
6.5104928196
 30
0.0
 10
5.197713586
 20
6.5100834989
 30
0.0
 10
5.1850645856
 20
6.5096740773
 30
0.0
 10
5.1674987039
 20
6.5091229663
 30
0.0
 10
5.1451464201
 20
6.5084438451
 30
0.0
 10
5.1184338646
 20
6.5076359942
 30
0.0
 10
5.09654208
 20
6.5069529609
 30
0.0
 10
5.07970784
 20
6.5063982734
 30
0.0
 10
5.0678688857
 20
6.5059893437
 30
0.0
 10
5.056716578
 20
6.5055808453
 30
0.0
 10
5.0463541246
 20
6.5051726936
 30
0.0
 10
5.0368783764
 20
6.504765297
 30
0.0
 10
5.0283767703
 20
6.5043587435
 30
0.0
 10
5.0209287361
 20
6.5039535196
 30
0.0
 10
5.0154135399
 20
6.5036025886
 30
0.0
 10
5.0115796957
 20
6.5033158857
 30
0.0
 10
5.0091528132
 20
6.5031120748
 30
0.0
 10
5.0070339046
 20
6.5029089132
 30
0.0
 10
5.0052281541
 20
6.5027063711
 30
0.0
 10
5.0037390114
 20
6.5025054808
 30
0.0
 10
5.0025698523
 20
6.5023059752
 30
0.0
 10
5.0017969203
 20
6.5021310785
 30
0.0
 10
5.0013446593
 20
6.5019814427
 30
0.0
 10
5.0011736594
 20
6.5019053959
 30
0.0
 10
5.0011039794
 20
6.5018650753
 30
0.0
  0
SPLINE
  5
3D5
100
AcDbEntity
  8
ALL_ASSEMBLY_MEMBERS
100
AcDbSpline
 62
7
  6
CONTINUOUS
 70
0
 71
3
 72
30
 73
26
 74
0
 42
0.0000001
 43
0.0000001
 44
0.0000000001
 40
0.0
 40
0.0
 40
0.0
 40
0.0
 40
0.1911836876
 40
0.2844553809
 40
0.3750132212
 40
0.4620838535
 40
0.5449034189
 40
0.6227170207
 40
0.6948119683
 40
0.7605404725
 40
0.8192909324
 40
0.8705332173
 40
0.8931793957
 40
0.913771604
 40
0.9322655683
 40
0.9486172419
 40
0.9627830817
 40
0.9747286412
 40
0.9844332596
 40
0.9884398404
 40
0.9918802297
 40
0.9947534803
 40
0.9970600362
 40
0.9988038871
 40
1.0
 40
1.0
 40
1.0
 40
1.0
 10
5.1417428317
 20
6.5992370245
 30
0.0
 10
5.1507244098
 20
6.5994066398
 30
0.0
 10
5.1640877641
 20
6.5996598403
 30
0.0
 10
5.1817052003
 20
6.6000045909
 30
0.0
 10
5.1944314412
 20
6.6002614113
 30
0.0
 10
5.2066664552
 20
6.6005186023
 30
0.0
 10
5.2183025079
 20
6.6007761441
 30
0.0
 10
5.2292347074
 20
6.6010339741
 30
0.0
 10
5.2393636011
 20
6.6012920617
 30
0.0
 10
5.2485964587
 20
6.601550163
 30
0.0
 10
5.2568490817
 20
6.6018083217
 30
0.0
 10
5.2630774615
 20
6.6020311422
 30
0.0
 10
5.2675131406
 20
6.6022125895
 30
0.0
 10
5.2704108446
 20
6.6023430173
 30
0.0
 10
5.2730124636
 20
6.6024733596
 30
0.0
 10
5.2753117092
 20
6.602603555
 30
0.0
 10
5.2773027366
 20
6.6027334329
 30
0.0
 10
5.278980672
 20
6.6028629688
 30
0.0
 10
5.2801810257
 20
6.6029760145
 30
0.0
 10
5.2809815482
 20
6.603069204
 30
0.0
 10
5.2814621318
 20
6.6031343595
 30
0.0
 10
5.2818619359
 20
6.603199233
 30
0.0
 10
5.282181161
 20
6.6032634373
 30
0.0
 10
5.2824191554
 20
6.6033269955
 30
0.0
 10
5.2825493269
 20
6.6033765247
 30
0.0
 10
5.2825979563
 20
6.6034046999
 30
0.0
  0
SPLINE
  5
3D6
100
AcDbEntity
  8
ALL_ASSEMBLY_MEMBERS
100
AcDbSpline
 62
7
  6
CONTINUOUS
 70
0
 71
3
 72
28
 73
24
 74
0
 42
0.0000001
 43
0.0000001
 44
0.0000000001
 40
0.0
 40
0.0
 40
0.0
 40
0.0
 40
0.1892550315
 40
0.3716999391
 40
0.4582657082
 40
0.5406983237
 40
0.6182394139
 40
0.6901851685
 40
0.7558911411
 40
0.8147603181
 40
0.866271091
 40
0.8891124274
 40
0.9099456709
 40
0.9287268208
 40
0.9454122391
 40
0.959960607
 40
0.9723450569
 40
0.9825468641
 40
0.9905512376
 40
0.9937276191
 40
0.9963550266
 40
0.9984405034
 40
1.0
 40
1.0
 40
1.0
 40
1.0
 10
5.1417428317
 20
6.4752017725
 30
0.0
 10
5.1321333839
 20
6.4749370037
 30
0.0
 10
5.1132602732
 20
6.4744170166
 30
0.0
 10
5.0899924051
 20
6.4737529887
 30
0.0
 10
5.0721491986
 20
6.4732137036
 30
0.0
 10
5.059632668
 20
6.4728165671
 30
0.0
 10
5.0478591351
 20
6.4724197359
 30
0.0
 10
5.0369357225
 20
6.4720233075
 30
0.0
 10
5.0269613827
 20
6.4716275674
 30
0.0
 10
5.0180258999
 20
6.4712325226
 30
0.0
 10
5.0112674824
 20
6.470892441
 30
0.0
 10
5.0064404826
 20
6.4706161394
 30
0.0
 10
5.0032742865
 20
6.4704175042
 30
0.0
 10
5.0004214326
 20
6.4702191603
 30
0.0
 10
4.9978886322
 20
6.4700212328
 30
0.0
 10
4.9956818401
 20
6.4698237466
 30
0.0
 10
4.9938057462
 20
6.4696271861
 30
0.0
 10
4.9922641802
 20
6.4694316754
 30
0.0
 10
4.9911911443
 20
6.469260577
 30
0.0
 10
4.9905042877
 20
6.4691181113
 30
0.0
 10
4.9901154487
 20
6.4690201644
 30
0.0
 10
4.9898119451
 20
6.4689229827
 30
0.0
 10
4.9896412937
 20
6.4688488542
 30
0.0
 10
4.9895727311
 20
6.4688091809
 30
0.0
  0
SPLINE
  5
3D7
100
AcDbEntity
  8
ALL_ASSEMBLY_MEMBERS
100
AcDbSpline
 62
7
  6
CONTINUOUS
 70
0
 71
3
 72
28
 73
24
 74
0
 42
0.0000001
 43
0.0000001
 44
0.0000000001
 40
0.0
 40
0.0
 40
0.0
 40
0.0
 40
0.1890637616
 40
0.371352948
 40
0.4578552859
 40
0.5402357868
 40
0.6177395767
 40
0.6896577988
 40
0.7553539096
 40
0.8142289093
 40
0.8657679171
 40
0.8886326808
 40
0.9094937451
 40
0.9283085115
 40
0.9450347645
 40
0.9596313245
 40
0.9720682401
 40
0.9823279576
 40
0.9903974267
 40
0.993609662
 40
0.9962751937
 40
0.9984000002
 40
1.0
 40
1.0
 40
1.0
 40
1.0
 10
5.1417428317
 20
6.5217762564
 30
0.0
 10
5.1513423782
 20
6.5220486693
 30
0.0
 10
5.1701974964
 20
6.5225837691
 30
0.0
 10
5.1934440227
 20
6.5232672455
 30
0.0
 10
5.2112730151
 20
6.523822438
 30
0.0
 10
5.2237814392
 20
6.5242313837
 30
0.0
 10
5.2355486634
 20
6.5246400351
 30
0.0
 10
5.2464678775
 20
6.5250483713
 30
0.0
 10
5.256440168
 20
6.5254560031
 30
0.0
 10
5.2653763753
 20
6.5258630206
 30
0.0
 10
5.2721372157
 20
6.526213425
 30
0.0
 10
5.2769677898
 20
6.5264981077
 30
0.0
 10
5.2801379285
 20
6.5267028431
 30
0.0
 10
5.2829955697
 20
6.5269073034
 30
0.0
 10
5.2855341434
 20
6.5271113649
 30
0.0
 10
5.2877476075
 20
6.5273149668
 30
0.0
 10
5.2896311571
 20
6.5275176964
 30
0.0
 10
5.2911809278
 20
6.5277193885
 30
0.0
 10
5.2922612807
 20
6.5278958921
 30
0.0
 10
5.2929544467
 20
6.5280427315
 30
0.0
 10
5.2933484273
 20
6.5281438072
 30
0.0
 10
5.2936572246
 20
6.5282441567
 30
0.0
 10
5.2938312984
 20
6.5283205271
 30
0.0
 10
5.2939016359
 20
6.5283612415
 30
0.0
  0
SPLINE
  5
3D8
100
AcDbEntity
  8
ALL_ASSEMBLY_MEMBERS
100
AcDbSpline
 62
7
  6
CONTINUOUS
 70
0
 71
3
 72
11
 73
7
 74
0
 42
0.0000001
 43
0.0000001
 44
0.0000000001
 40
0.0
 40
0.0
 40
0.0
 40
0.0
 40
0.2471556108
 40
0.4956504252
 40
0.7463200355
 40
1.0
 40
1.0
 40
1.0
 40
1.0
 10
4.9893990823
 20
4.7150268781
 30
0.0
 10
4.9893991063
 20
4.7126561856
 30
0.0
 10
4.9896229458
 20
4.7078990524
 30
0.0
 10
4.9906228652
 20
4.700800739
 30
0.0
 10
4.9922827304
 20
4.6937629159
 30
0.0
 10
4.9938162571
 20
4.6891668233
 30
0.0
 10
4.9946858515
 20
4.6868942421
 30
0.0
  0
SPLINE
  5
3D9
100
AcDbEntity
  8
ALL_ASSEMBLY_MEMBERS
100
AcDbSpline
 62
7
  6
CONTINUOUS
 70
0
 71
3
 72
23
 73
19
 74
0
 42
0.0000001
 43
0.0000001
 44
0.0000000001
 40
0.0
 40
0.0
 40
0.0
 40
0.0
 40
0.050920447
 40
0.1039732908
 40
0.1595182506
 40
0.2177076048
 40
0.2785054686
 40
0.3417047413
 40
0.4069642319
 40
0.4738357644
 40
0.5417918119
 40
0.6102570971
 40
0.6786322036
 40
0.7463242869
 40
0.8127659822
 40
0.8774470781
 40
0.9399821267
 40
1.0
 40
1.0
 40
1.0
 40
1.0
 10
4.9946858515
 20
4.6868942421
 30
0.0
 10
4.9964738409
 20
4.6822215454
 30
0.0
 10
5.0009872777
 20
4.6729916073
 30
0.0
 10
5.010110402
 20
4.6601734289
 30
0.0
 10
5.0215300279
 20
4.6483418321
 30
0.0
 10
5.0350378668
 20
4.6377001845
 30
0.0
 10
5.0503963405
 20
4.6284238832
 30
0.0
 10
5.0673367709
 20
4.6206658909
 30
0.0
 10
5.0855659959
 20
4.6145563846
 30
0.0
 10
5.1047689507
 20
4.6102006546
 30
0.0
 10
5.1246125227
 20
4.6076707672
 30
0.0
 10
5.1447530054
 20
4.6070098861
 30
0.0
 10
5.1648414163
 20
4.608231139
 30
0.0
 10
5.1845293349
 20
4.611312448
 30
0.0
 10
5.2034751858
 20
4.6161999479
 30
0.0
 10
5.2213543918
 20
4.6228133209
 30
0.0
 10
5.2378491058
 20
4.6310400073
 30
0.0
 10
5.2479568375
 20
4.6376494873
 30
0.0
 10
5.2526717082
 20
4.6411912413
 30
0.0
  0
SPLINE
  5
3DA
100
AcDbEntity
  8
ALL_ASSEMBLY_MEMBERS
100
AcDbSpline
 62
7
  6
CONTINUOUS
 70
0
 71
3
 72
18
 73
14
 74
0
 42
0.0000001
 43
0.0000001
 44
0.0000000001
 40
0.0
 40
0.0
 40
0.0
 40
0.0
 40
0.0161376052
 40
0.0383442879
 40
0.0667868517
 40
0.1015169265
 40
0.1425460913
 40
0.1898675267
 40
0.3033131607
 40
0.4416502991
 40
0.6043635229
 40
0.7907267529
 40
1.0
 40
1.0
 40
1.0
 40
1.0
 10
5.2834297028
 20
6.4679378375
 30
0.0
 10
5.2833419221
 20
6.4678869839
 30
0.0
 10
5.2831181592
 20
6.4677935832
 30
0.0
 10
5.2827162177
 20
6.4676722648
 30
0.0
 10
5.2821932499
 20
6.4675498489
 30
0.0
 10
5.2815498439
 20
6.4674265531
 30
0.0
 10
5.280785984
 20
6.4673027412
 30
0.0
 10
5.2795296759
 20
6.4671263617
 30
0.0
 10
5.2776614416
 20
6.4669116059
 30
0.0
 10
5.2750673642
 20
6.4666651155
 30
0.0
 10
5.272013219
 20
6.4664177044
 30
0.0
 10
5.2685119606
 20
6.4661695759
 30
0.0
 10
5.2660297536
 20
6.4660129088
 30
0.0
 10
5.2647165613
 20
6.465933816
 30
0.0
  0
SPLINE
  5
3DB
100
AcDbEntity
  8
ALL_ASSEMBLY_MEMBERS
100
AcDbSpline
 62
7
  6
CONTINUOUS
 70
0
 71
3
 72
28
 73
24
 74
0
 42
0.0000001
 43
0.0000001
 44
0.0000000001
 40
0.0
 40
0.0
 40
0.0
 40
0.0
 40
0.1892737807
 40
0.3717510004
 40
0.4583297096
 40
0.5407718732
 40
0.6183211016
 40
0.6902656309
 40
0.7559685032
 40
0.8148296315
 40
0.8663328389
 40
0.8891709125
 40
0.9099988066
 40
0.92877413
 40
0.9454548621
 40
0.9599997733
 40
0.9723775337
 40
0.9825707353
 40
0.990566701
 40
0.9937395891
 40
0.9963640142
 40
0.9984455829
 40
1.0
 40
1.0
 40
1.0
 40
1.0
 10
5.1417428317
 20
6.4487867416
 30
0.0
 10
5.1321324065
 20
6.4485207317
 30
0.0
 10
5.1132566421
 20
6.4479986975
 30
0.0
 10
5.0899854273
 20
6.4473329993
 30
0.0
 10
5.0721393511
 20
6.4467929037
 30
0.0
 10
5.0596211989
 20
6.446395407
 30
0.0
 10
5.0478467596
 20
6.4459985061
 30
0.0
 10
5.0369230822
 20
6.4456021974
 30
0.0
 10
5.0269492947
 20
6.4452068546
 30
0.0
 10
5.018014684
 20
6.4448123721
 30
0.0
 10
5.0112571532
 20
6.4444729399
 30
0.0
 10
5.0064309102
 20
6.4441972814
 30
0.0
 10
5.0032653995
 20
6.4439991267
 30
0.0
 10
5.0004132999
 20
6.4438013012
 30
0.0
 10
4.9978811531
 20
6.4436039245
 30
0.0
 10
4.9956750475
 20
6.4434070719
 30
0.0
 10
4.9937998352
 20
6.4432111314
 30
0.0
 10
4.9922593927
 20
6.443016262
 30
0.0
 10
4.9911873138
 20
6.4428457477
 30
0.0
 10
4.9905011221
 20
6.4427037882
 30
0.0
 10
4.9901127237
 20
6.4426062416
 30
0.0
 10
4.9898097324
 20
6.4425094562
 30
0.0
 10
4.989639457
 20
6.4424355904
 30
0.0
 10
4.9895711235
 20
6.4423960352
 30
0.0
  0
SPLINE
  5
3DC
100
AcDbEntity
  8
ALL_ASSEMBLY_MEMBERS
100
AcDbSpline
 62
7
  6
CONTINUOUS
 70
0
 71
3
 72
11
 73
7
 74
0
 42
0.0000001
 43
0.0000001
 44
0.0000000001
 40
0.0
 40
0.0
 40
0.0
 40
0.0
 40
0.2395906492
 40
0.4876647963
 40
0.741986723
 40
1.0
 40
1.0
 40
1.0
 40
1.0
 10
5.0614684886
 20
4.5633946022
 30
0.0
 10
5.0672321241
 20
4.560724779
 30
0.0
 10
5.0793148482
 20
4.5560242193
 30
0.0
 10
5.0983765056
 20
4.5510127909
 30
0.0
 10
5.1183481507
 20
4.5480091839
 30
0.0
 10
5.1319455039
 20
4.5473931139
 30
0.0
 10
5.1387857605
 20
4.5474342231
 30
0.0
  0
SPLINE
  5
3DD
100
AcDbEntity
  8
ALL_ASSEMBLY_MEMBERS
100
AcDbSpline
 62
7
  6
CONTINUOUS
 70
0
 71
3
 72
11
 73
7
 74
0
 42
0.0000001
 43
0.0000001
 44
0.0000000001
 40
0.0
 40
0.0
 40
0.0
 40
0.0
 40
0.2554090208
 40
0.5087961323
 40
0.7577136833
 40
1.0
 40
1.0
 40
1.0
 40
1.0
 10
5.1417861094
 20
4.5474747372
 30
0.0
 10
5.1485196557
 20
4.5476161067
 30
0.0
 10
5.1619291645
 20
4.5485736716
 30
0.0
 10
5.1816450098
 20
4.5520212015
 30
0.0
 10
5.2005607349
 20
4.5574168422
 30
0.0
 10
5.2125825545
 20
4.5623277322
 30
0.0
 10
5.218341715
 20
4.5650938236
 30
0.0
  0
SPLINE
  5
3DE
100
AcDbEntity
  8
ALL_ASSEMBLY_MEMBERS
100
AcDbSpline
 62
7
  6
CONTINUOUS
 70
0
 71
3
 72
28
 73
24
 74
0
 42
0.0000001
 43
0.0000001
 44
0.0000000001
 40
0.0
 40
0.0
 40
0.0
 40
0.0
 40
0.1892441563
 40
0.3716780475
 40
0.4582402471
 40
0.540670982
 40
0.6182108687
 40
0.6901554648
 40
0.7558610925
 40
0.8147306415
 40
0.8662430079
 40
0.889085566
 40
0.9099202237
 40
0.9287031038
 40
0.9453906928
 40
0.9599417077
 40
0.9723291514
 40
0.982534317
 40
0.9905424456
 40
0.993720868
 40
0.9963504243
 40
0.9984381502
 40
1.0
 40
1.0
 40
1.0
 40
1.0
 10
5.1417428317
 20
6.4224571835
 30
0.0
 10
5.1321339445
 20
6.422191962
 30
0.0
 10
5.113261963
 20
6.4216710476
 30
0.0
 10
5.0899954138
 20
6.4210057608
 30
0.0
 10
5.0721530677
 20
6.4204654157
 30
0.0
 10
5.0596368948
 20
6.4200674805
 30
0.0
 10
5.0478635992
 20
6.419669842
 30
0.0
 10
5.0369403487
 20
6.4192725988
 30
0.0
 10
5.0269660938
 20
6.4188760474
 30
0.0
 10
5.0180305603
 20
6.4184801897
 30
0.0
 10
5.0112720122
 20
6.4181394158
 30
0.0
 10
5.0064448267
 20
6.4178625579
 30
0.0
 10
5.0032784321
 20
6.4176635226
 30
0.0
 10
5.0004253338
 20
6.4174647815
 30
0.0
 10
4.9978922292
 20
6.4172664601
 30
0.0
 10
4.9956850723
 20
6.4170685854
 30
0.0
 10
4.9938085582
 20
6.416871639
 30
0.0
 10
4.9922665219
 20
6.4166757472
 30
0.0
 10
4.9911930664
 20
6.4165043195
 30
0.0
 10
4.9905058517
 20
6.4163615897
 30
0.0
 10
4.9901167229
 20
6.4162634544
 30
0.0
 10
4.9898129184
 20
6.4161660841
 30
0.0
 10
4.989642071
 20
6.4160918234
 30
0.0
 10
4.9895734055
 20
6.4160520892
 30
0.0
  0
SPLINE
  5
3DF
100
AcDbEntity
  8
ALL_ASSEMBLY_MEMBERS
100
AcDbSpline
 62
7
  6
CONTINUOUS
 70
0
 71
3
 72
36
 73
32
 74
0
 42
0.0000001
 43
0.0000001
 44
0.0000000001
 40
0.0
 40
0.0
 40
0.0
 40
0.0
 40
0.0780767192
 40
0.160580103
 40
0.2459894155
 40
0.3328869822
 40
0.4197955025
 40
0.5052161032
 40
0.5876895436
 40
0.6658094608
 40
0.738234628
 40
0.8037346218
 40
0.8335295058
 40
0.8611870427
 40
0.8865859754
 40
0.9096150983
 40
0.9301838193
 40
0.9482045345
 40
0.9635961176
 40
0.976303402
 40
0.9816362164
 40
0.9862814848
 40
0.9902349845
 40
0.9934960753
 40
0.9960696047
 40
0.9971022067
 40
0.9979688574
 40
0.9986748611
 40
0.9992303422
 40
0.9996565548
 40
1.0
 40
1.0
 40
1.0
 40
1.0
 10
5.2117332425
 20
6.544058816
 30
0.0
 10
5.2062602528
 20
6.5438661857
 30
0.0
 10
5.1950034366
 20
6.5434852778
 30
0.0
 10
5.1777583679
 20
6.5429318724
 30
0.0
 10
5.1598942996
 20
6.5423781885
 30
0.0
 10
5.1417211099
 20
6.5418244037
 30
0.0
 10
5.1235471279
 20
6.5412706234
 30
0.0
 10
5.1056835973
 20
6.5407170329
 30
0.0
 10
5.0884367999
 20
6.5401638039
 30
0.0
 10
5.072101978
 20
6.5396112709
 30
0.0
 10
5.0569583891
 20
6.539059548
 30
0.0
 10
5.0452037637
 20
6.5385875153
 30
0.0
 10
5.0365882447
 20
6.5382047496
 30
0.0
 10
5.0307835929
 20
6.5379270658
 30
0.0
 10
5.0254540683
 20
6.537649686
 30
0.0
 10
5.0206224748
 20
6.5373726089
 30
0.0
 10
5.0163093047
 20
6.5370960854
 30
0.0
 10
5.0125329913
 20
6.5368204772
 30
0.0
 10
5.0093097252
 20
6.5365457342
 30
0.0
 10
5.0069767794
 20
6.5363067273
 30
0.0
 10
5.0053976654
 20
6.5361106367
 30
0.0
 10
5.0044302234
 20
6.5359726401
 30
0.0
 10
5.0036096442
 20
6.5358352519
 30
0.0
 10
5.0029367391
 20
6.5356984768
 30
0.0
 10
5.0024697167
 20
6.5355786663
 30
0.0
 10
5.0021719803
 20
6.5354793087
 30
0.0
 10
5.0020025179
 20
6.535410532
 30
0.0
 10
5.0018695388
 20
6.5353419997
 30
0.0
 10
5.0017725889
 20
6.5352731905
 30
0.0
 10
5.0017098271
 20
6.535202703
 30
0.0
 10
5.0016930986
 20
6.5351486061
 30
0.0
 10
5.001693039
 20
6.5351245166
 30
0.0
  0
SPLINE
  5
3E0
100
AcDbEntity
  8
ALL_ASSEMBLY_MEMBERS
100
AcDbSpline
 62
7
  6
CONTINUOUS
 70
0
 71
3
 72
30
 73
26
 74
0
 42
0.0000001
 43
0.0000001
 44
0.0000000001
 40
0.0
 40
0.0
 40
0.0
 40
0.0
 40
0.1565769467
 40
0.2398249847
 40
0.3245924484
 40
0.4095148502
 40
0.4931982116
 40
0.5742843846
 40
0.6514573913
 40
0.7234607386
 40
0.7891304559
 40
0.8473936082
 40
0.8734529829
 40
0.8973155011
 40
0.9188872489
 40
0.9380864135
 40
0.9548321019
 40
0.9690562334
 40
0.9807124988
 40
0.9855649203
 40
0.9897607678
 40
0.9932972233
 40
0.9961762699
 40
0.9984047795
 40
1.0
 40
1.0
 40
1.0
 40
1.0
 10
5.2117332425
 20
6.537361316
 30
0.0
 10
5.2007737033
 20
6.5369755782
 30
0.0
 10
5.1839857203
 20
6.5364285064
 30
0.0
 10
5.1612629022
 20
6.5357226937
 30
0.0
 10
5.1435558853
 20
6.535182677
 30
0.0
 10
5.12581837
 20
6.5346425817
 30
0.0
 10
5.1083387994
 20
6.5341026402
 30
0.0
 10
5.091402234
 20
6.533563025
 30
0.0
 10
5.0752841263
 20
6.5330239421
 30
0.0
 10
5.0602463622
 20
6.5324856404
 30
0.0
 10
5.0465338793
 20
6.5319485602
 30
0.0
 10
5.036038803
 20
6.5314870232
 30
0.0
 10
5.028471009
 20
6.5311120745
 30
0.0
 10
5.0234710285
 20
6.5308416643
 30
0.0
 10
5.0189522657
 20
6.53057164
 30
0.0
 10
5.0149329019
 20
6.5303022052
 30
0.0
 10
5.0114293614
 20
6.5300336677
 30
0.0
 10
5.008455856
 20
6.5297660462
 30
0.0
 10
5.0063157747
 20
6.5295330292
 30
0.0
 10
5.0048783206
 20
6.5293414521
 30
0.0
 10
5.0040071002
 20
6.5292071067
 30
0.0
 10
5.0032759954
 20
6.5290733051
 30
0.0
 10
5.0026848585
 20
6.5289405472
 30
0.0
 10
5.0022342713
 20
6.5288090921
 30
0.0
 10
5.0019845952
 20
6.5287075488
 30
0.0
 10
5.0018878542
 20
6.5286516573
 30
0.0
  0
SPLINE
  5
3E1
100
AcDbEntity
  8
ALL_ASSEMBLY_MEMBERS
100
AcDbSpline
 62
7
  6
CONTINUOUS
 70
0
 71
3
 72
36
 73
32
 74
0
 42
0.0000001
 43
0.0000001
 44
0.0000000001
 40
0.0
 40
0.0
 40
0.0
 40
0.0
 40
0.0497905683
 40
0.1106523354
 40
0.1809241735
 40
0.2587572253
 40
0.3420655041
 40
0.4286228324
 40
0.5161167218
 40
0.6022106484
 40
0.6846049798
 40
0.7237204528
 40
0.7610984291
 40
0.7964887655
 40
0.8296518325
 40
0.8603723784
 40
0.8884403226
 40
0.9136710001
 40
0.9359005364
 40
0.9549748495
 40
0.9707777664
 40
0.9832060505
 40
0.9881298233
 40
0.992187696
 40
0.9938916255
 40
0.9953791535
 40
0.9966511723
 40
0.997709603
 40
0.9985584244
 40
0.999206458
 40
1.0
 40
1.0
 40
1.0
 40
1.0
 10
5.2647165613
 20
6.465933816
 30
0.0
 10
5.2603170088
 20
6.4656691953
 30
0.0
 10
5.2505344679
 20
6.4651682252
 30
0.0
 10
5.2345333146
 20
6.4644877224
 30
0.0
 10
5.2160479838
 20
6.4638036349
 30
0.0
 10
5.195574594
 20
6.4631167927
 30
0.0
 10
5.1736588868
 20
6.4624286917
 30
0.0
 10
5.1508876203
 20
6.4617398762
 30
0.0
 10
5.1278696588
 20
6.4610509342
 30
0.0
 10
5.105220366
 20
6.4603623171
 30
0.0
 10
5.0868523333
 20
6.4597796695
 30
0.0
 10
5.0727953562
 20
6.4593080711
 30
0.0
 10
5.062897398
 20
6.4589606748
 30
0.0
 10
5.053526683
 20
6.4586135206
 30
0.0
 10
5.0447457101
 20
6.4582665528
 30
0.0
 10
5.036613443
 20
6.4579200259
 30
0.0
 10
5.0291840288
 20
6.4575739184
 30
0.0
 10
5.0225071008
 20
6.4572284634
 30
0.0
 10
5.0166274386
 20
6.4568840495
 30
0.0
 10
5.0115838004
 20
6.4565412006
 30
0.0
 10
5.0074100894
 20
6.4562002981
 30
0.0
 10
5.0044898258
 20
6.4559023557
 30
0.0
 10
5.0026108616
 20
6.4556535909
 30
0.0
 10
5.0016766569
 20
6.4555040416
 30
0.0
 10
5.0010466591
 20
6.4553814282
 30
0.0
 10
5.0006611024
 20
6.4552952007
 30
0.0
 10
5.0003339228
 20
6.4552089119
 30
0.0
 10
5.0000663229
 20
6.4551239978
 30
0.0
 10
4.9998546247
 20
6.4550368768
 30
0.0
 10
4.9996819479
 20
6.4549438487
 30
0.0
 10
4.9995746317
 20
6.4548356388
 30
0.0
 10
4.9995747951
 20
6.454765394
 30
0.0
  0
LINE
  5
3E2
100
AcDbEntity
  8
ALL_ASSEMBLY_MEMBERS
100
AcDbLine
 62
7
  6
CONTINUOUS
 10
5.2827127964
 20
6.4947230037
 11
5.2817415124
 21
6.4943979645
  0
SPLINE
  5
3E3
100
AcDbEntity
  8
ALL_ASSEMBLY_MEMBERS
100
AcDbSpline
 62
7
  6
CONTINUOUS
 70
0
 71
3
 72
44
 73
40
 74
0
 42
0.0000001
 43
0.0000001
 44
0.0000000001
 40
0.0
 40
0.0
 40
0.0
 40
0.0
 40
0.003642626
 40
0.0083654175
 40
0.0141642351
 40
0.0210267213
 40
0.0378859639
 40
0.0588121429
 40
0.083614982
 40
0.1120835821
 40
0.1439627259
 40
0.1789717539
 40
0.2168023333
 40
0.2571160455
 40
0.3437546963
 40
0.4358245982
 40
0.5300709799
 40
0.6231637779
 40
0.6682461203
 40
0.7118156699
 40
0.7534908062
 40
0.7928983785
 40
0.8296957463
 40
0.8635535245
 40
0.8941764351
 40
0.9212946743
 40
0.9446681069
 40
0.9640990736
 40
0.9722789534
 40
0.9794138495
 40
0.9854910905
 40
0.9904991125
 40
0.9925992632
 40
0.9944295362
 40
0.9959910339
 40
0.997285933
 40
0.9983184354
 40
0.9990974514
 40
1.0
 40
1.0
 40
1.0
 40
1.0
 10
5.2817415124
 20
6.4943979645
 30
0.0
 10
5.2814082086
 20
6.4943193859
 30
0.0
 10
5.2806351262
 20
6.4941720001
 30
0.0
 10
5.279317976
 20
6.4939759029
 30
0.0
 10
5.2776954957
 20
6.4937785001
 30
0.0
 10
5.2749348165
 20
6.4934940309
 30
0.0
 10
5.2707511968
 20
6.4931505083
 30
0.0
 10
5.2648803942
 20
6.4927570729
 30
0.0
 10
5.2579162363
 20
6.4923615584
 30
0.0
 10
5.2499210828
 20
6.4919646185
 30
0.0
 10
5.2409654466
 20
6.4915667381
 30
0.0
 10
5.2311289437
 20
6.4911682489
 30
0.0
 10
5.2204989309
 20
6.490769357
 30
0.0
 10
5.2050173713
 20
6.4902239093
 30
0.0
 10
5.1844380985
 20
6.4895533871
 30
0.0
 10
5.1587898636
 20
6.4887650161
 30
0.0
 10
5.132534615
 20
6.4879761862
 30
0.0
 10
5.1106948773
 20
6.48731232
 30
0.0
 10
5.0936176359
 20
6.4867740523
 30
0.0
 10
5.081372167
 20
6.4863747771
 30
0.0
 10
5.0696604643
 20
6.4859757944
 30
0.0
 10
5.0585857903
 20
6.4855770212
 30
0.0
 10
5.0482465091
 20
6.4851787208
 30
0.0
 10
5.038733705
 20
6.4847809068
 30
0.0
 10
5.0301316669
 20
6.4843838432
 30
0.0
 10
5.0225163397
 20
6.483988047
 30
0.0
 10
5.0159547273
 20
6.483593572
 30
0.0
 10
5.0111737625
 20
6.4832509868
 30
0.0
 10
5.0079194215
 20
6.482969537
 30
0.0
 10
5.0059180895
 20
6.4827713236
 30
0.0
 10
5.0042165451
 20
6.4825738474
 30
0.0
 10
5.0029887697
 20
6.4824020394
 30
0.0
 10
5.0021602507
 20
6.4822610133
 30
0.0
 10
5.0016536699
 20
6.4821619003
 30
0.0
 10
5.0012237471
 20
6.4820626725
 30
0.0
 10
5.0008727573
 20
6.4819652625
 30
0.0
 10
5.0005937144
 20
6.4818649785
 30
0.0
 10
5.0003731584
 20
6.4817609553
 30
0.0
 10
5.0002238392
 20
6.4816373783
 30
0.0
 10
5.0002236196
 20
6.4815525304
 30
0.0
  0
SPLINE
  5
3E4
100
AcDbEntity
  8
ALL_ASSEMBLY_MEMBERS
100
AcDbSpline
 62
7
  6
CONTINUOUS
 70
0
 71
3
 72
34
 73
30
 74
0
 42
0.0000001
 43
0.0000001
 44
0.0000000001
 40
0.0
 40
0.0
 40
0.0
 40
0.0
 40
0.0487450006
 40
0.1081686369
 40
0.1767094394
 40
0.2526369768
 40
0.3339958711
 40
0.4186965301
 40
0.5045654281
 40
0.5893991804
 40
0.6710197539
 40
0.7473326372
 40
0.7828828697
 40
0.8163834108
 40
0.8476244889
 40
0.8764045074
 40
0.9025361215
 40
0.9258592877
 40
0.9462194618
 40
0.9634909019
 40
0.9709359852
 40
0.977570407
 40
0.9833828678
 40
0.9883672256
 40
0.9925196441
 40
0.9958381962
 40
0.998325464
 40
0.9992619443
 40
1.0
 40
1.0
 40
1.0
 40
1.0
 10
5.2647165613
 20
6.459236316
 30
0.0
 10
5.260414217
 20
6.4589775421
 30
0.0
 10
5.2508620515
 20
6.4584867158
 30
0.0
 10
5.2352512965
 20
6.4578192177
 30
0.0
 10
5.2172352175
 20
6.4571483082
 30
0.0
 10
5.1972785165
 20
6.4564747774
 30
0.0
 10
5.1758922183
 20
6.4558000193
 30
0.0
 10
5.1536264989
 20
6.4551245488
 30
0.0
 10
5.1310533941
 20
6.4544488949
 30
0.0
 10
5.108752748
 20
6.453773536
 30
0.0
 10
5.0872974377
 20
6.4530988855
 30
0.0
 10
5.0701988636
 20
6.4525251328
 30
0.0
 10
5.0573539547
 20
6.4520601881
 30
0.0
 10
5.0484924928
 20
6.4517199135
 30
0.0
 10
5.0402301208
 20
6.4513799751
 30
0.0
 10
5.0326198951
 20
6.4510404504
 30
0.0
 10
5.0257105249
 20
6.4507013329
 30
0.0
 10
5.0195465837
 20
6.4503631337
 30
0.0
 10
5.01416736
 20
6.4500258298
 30
0.0
 10
5.0101921802
 20
6.4497336458
 30
0.0
 10
5.0074303023
 20
6.4494952669
 30
0.0
 10
5.0056795716
 20
6.4493257432
 30
0.0
 10
5.0041475047
 20
6.4491566154
 30
0.0
 10
5.0028364064
 20
6.4489880077
 30
0.0
 10
5.0017476243
 20
6.4488205732
 30
0.0
 10
5.0008829116
 20
6.4486542353
 30
0.0
 10
5.0003038342
 20
6.4485081781
 30
0.0
 10
4.9999570087
 20
6.4483845577
 30
0.0
 10
4.9998223197
 20
6.4483218661
 30
0.0
 10
4.9997658391
 20
6.4482891732
 30
0.0
  0
LINE
  5
3E5
100
AcDbEntity
  8
ALL_ASSEMBLY_MEMBERS
100
AcDbLine
 62
7
  6
CONTINUOUS
 10
5.2820469017
 20
6.5215078452
 11
5.2804226316
 21
6.5210452488
  0
SPLINE
  5
3E6
100
AcDbEntity
  8
ALL_ASSEMBLY_MEMBERS
100
AcDbSpline
 62
7
  6
CONTINUOUS
 70
0
 71
3
 72
43
 73
39
 74
0
 42
0.0000001
 43
0.0000001
 44
0.0000000001
 40
0.0
 40
0.0
 40
0.0
 40
0.0
 40
0.0043470249
 40
0.0097480417
 40
0.0161968894
 40
0.0236842832
 40
0.0417042664
 40
0.0636540829
 40
0.0893535054
 40
0.1185732581
 40
0.1510687341
 40
0.1865525346
 40
0.2652421549
 40
0.3519200785
 40
0.4435879687
 40
0.5370757665
 40
0.6291515967
 40
0.6736603826
 40
0.716633629
 40
0.75769714
 40
0.7965002116
 40
0.8327018101
 40
0.8659954279
 40
0.896089048
 40
0.9227265276
 40
0.9456798949
 40
0.9647501704
 40
0.9727813083
 40
0.979785543
 40
0.9857474046
 40
0.9906594017
 40
0.9927205246
 40
0.9945181856
 40
0.9960529006
 40
0.9973262018
 40
0.9983416838
 40
0.9991079128
 40
1.0
 40
1.0
 40
1.0
 40
1.0
 10
5.2804226316
 20
6.5210452488
 30
0.0
 10
5.280023964
 20
6.5209698377
 30
0.0
 10
5.2791253181
 20
6.5208255519
 30
0.0
 10
5.2776261063
 20
6.5206304256
 30
0.0
 10
5.2758318039
 20
6.5204343389
 30
0.0
 10
5.2728621961
 20
6.5201545364
 30
0.0
 10
5.2684454683
 20
6.5198148182
 30
0.0
 10
5.2623284755
 20
6.5194245565
 30
0.0
 10
5.2551643907
 20
6.5190329057
 30
0.0
 10
5.2470148328
 20
6.518639769
 30
0.0
 10
5.2379511132
 20
6.5182460173
 30
0.0
 10
5.2242723376
 20
6.5177012526
 30
0.0
 10
5.2055373323
 20
6.5170341036
 30
0.0
 10
5.1815591119
 20
6.5162553019
 30
0.0
 10
5.1561990351
 20
6.515475222
 30
0.0
 10
5.1303349259
 20
6.5146946285
 30
0.0
 10
5.1088707693
 20
6.514037432
 30
0.0
 10
5.0921198919
 20
6.5135046169
 30
0.0
 10
5.0801283669
 20
6.5131096983
 30
0.0
 10
5.0686696889
 20
6.5127149453
 30
0.0
 10
5.0578434343
 20
6.5123205624
 30
0.0
 10
5.0477428959
 20
6.5119264634
 30
0.0
 10
5.0384559058
 20
6.511532999
 30
0.0
 10
5.0300624454
 20
6.5111401932
 30
0.0
 10
5.0226352058
 20
6.5107485856
 30
0.0
 10
5.0162384102
 20
6.5103585137
 30
0.0
 10
5.0115785654
 20
6.5100193697
 30
0.0
 10
5.0084073866
 20
6.5097410342
 30
0.0
 10
5.0064573269
 20
6.5095450191
 30
0.0
 10
5.0048000239
 20
6.5093496224
 30
0.0
 10
5.0036045594
 20
6.509179584
 30
0.0
 10
5.0027977632
 20
6.5090400786
 30
0.0
 10
5.0023040901
 20
6.5089420362
 30
0.0
 10
5.0018849469
 20
6.5088438815
 30
0.0
 10
5.0015426289
 20
6.508747534
 30
0.0
 10
5.0012707489
 20
6.5086483264
 30
0.0
 10
5.0010552723
 20
6.5085452711
 30
0.0
 10
5.0009111207
 20
6.508422501
 30
0.0
 10
5.0009112965
 20
6.5083392367
 30
0.0
  0
SPLINE
  5
3E7
100
AcDbEntity
  8
ALL_ASSEMBLY_MEMBERS
100
AcDbSpline
 62
7
  6
CONTINUOUS
 70
0
 71
3
 72
18
 73
14
 74
0
 42
0.0000001
 43
0.0000001
 44
0.0000000001
 40
0.0
 40
0.0
 40
0.0
 40
0.0
 40
0.2104211729
 40
0.3976109263
 40
0.5607969638
 40
0.6992520759
 40
0.8125520248
 40
0.8596895145
 40
0.9004500203
 40
0.9348182906
 40
0.962803356
 40
0.984473091
 40
1.0
 40
1.0
 40
1.0
 40
1.0
 10
5.2737321897
 20
6.4719416939
 30
0.0
 10
5.2751546633
 20
6.4720226128
 30
0.0
 10
5.2778421592
 20
6.4721828476
 30
0.0
 10
5.2816308912
 20
6.4724366743
 30
0.0
 10
5.2849311894
 20
6.4726896805
 30
0.0
 10
5.2877295221
 20
6.4729418023
 30
0.0
 10
5.289741643
 20
6.4731614296
 30
0.0
 10
5.2910920106
 20
6.4733419548
 30
0.0
 10
5.2919102524
 20
6.4734685337
 30
0.0
 10
5.2925970236
 20
6.4735945573
 30
0.0
 10
5.293152463
 20
6.4737196374
 30
0.0
 10
5.2935760018
 20
6.4738435139
 30
0.0
 10
5.2938107294
 20
6.4739391908
 30
0.0
 10
5.2939017495
 20
6.4739918065
 30
0.0
  0
SPLINE
  5
3E8
100
AcDbEntity
  8
ALL_ASSEMBLY_MEMBERS
100
AcDbSpline
 62
7
  6
CONTINUOUS
 70
0
 71
3
 72
23
 73
19
 74
0
 42
0.0000001
 43
0.0000001
 44
0.0000000001
 40
0.0
 40
0.0
 40
0.0
 40
0.0
 40
0.0032741186
 40
0.0083786708
 40
0.0153588981
 40
0.0242306695
 40
0.0349977911
 40
0.0476549749
 40
0.0786078672
 40
0.1170200041
 40
0.1628152014
 40
0.2159139129
 40
0.2762124338
 40
0.3435800512
 40
0.4178841494
 40
0.586762769
 40
0.7814348416
 40
1.0
 40
1.0
 40
1.0
 40
1.0
 10
4.9921441319
 20
6.3911526923
 30
0.0
 10
4.992180703
 20
6.3911738637
 30
0.0
 10
4.9922844215
 20
6.3912085892
 30
0.0
 10
4.9924771408
 20
6.3912532004
 30
0.0
 10
4.9927442005
 20
6.3912981647
 30
0.0
 10
4.9930846407
 20
6.3913438832
 30
0.0
 10
4.9934989962
 20
6.3913897824
 30
0.0
 10
4.9941977111
 20
6.3914557415
 30
0.0
 10
4.995253401
 20
6.3915355272
 30
0.0
 10
4.9967369173
 20
6.3916268745
 30
0.0
 10
4.9985067036
 20
6.3917185244
 30
0.0
 10
5.000559267
 20
6.3918104031
 30
0.0
 10
5.0028904944
 20
6.3919023626
 30
0.0
 10
5.0054955925
 20
6.3919943959
 30
0.0
 10
5.0095016455
 20
6.3921226782
 30
0.0
 10
5.0151506207
 20
6.3922801876
 30
0.0
 10
5.0226614676
 20
6.3924623414
 30
0.0
 10
5.0279936555
 20
6.3925774153
 30
0.0
 10
5.0308139552
 20
6.3926355651
 30
0.0
  0
SPLINE
  5
3E9
100
AcDbEntity
  8
ALL_ASSEMBLY_MEMBERS
100
AcDbSpline
 62
7
  6
CONTINUOUS
 70
0
 71
3
 72
13
 73
9
 74
0
 42
0.0000001
 43
0.0000001
 44
0.0000000001
 40
0.0
 40
0.0
 40
0.0
 40
0.0
 40
0.29888392
 40
0.5773818499
 40
0.70296866
 40
0.8165106157
 40
0.9161030154
 40
1.0
 40
1.0
 40
1.0
 40
1.0
 10
5.1417428317
 20
6.4674483965
 30
0.0
 10
5.1548953054
 20
6.4678204586
 30
0.0
 10
5.1803031745
 20
6.4685384653
 30
0.0
 10
5.2112359734
 20
6.4694687325
 30
0.0
 10
5.2340105457
 20
6.4702347764
 30
0.0
 10
5.2489118498
 20
6.470787067
 30
0.0
 10
5.2619765352
 20
6.4713364054
 30
0.0
 10
5.2700445872
 20
6.4717350451
 30
0.0
 10
5.2737321897
 20
6.4719416939
 30
0.0
  0
SPLINE
  5
3EA
100
AcDbEntity
  8
ALL_ASSEMBLY_MEMBERS
100
AcDbSpline
 62
7
  6
CONTINUOUS
 70
0
 71
3
 72
12
 73
8
 74
0
 42
0.0000001
 43
0.0000001
 44
0.0000000001
 40
0.0
 40
0.0
 40
0.0
 40
0.0
 40
0.2347215343
 40
0.4820236604
 40
0.7385132236
 40
0.8689481606
 40
1.0
 40
1.0
 40
1.0
 40
1.0
 10
5.0409287192
 20
4.6457503181
 30
0.0
 10
5.0477609006
 20
4.6410123378
 30
0.0
 10
5.0627200911
 20
4.6325769374
 30
0.0
 10
5.0873495297
 20
4.6234925818
 30
0.0
 10
5.1094167622
 20
4.6188537648
 30
0.0
 10
5.1276766438
 20
4.6169568304
 30
0.0
 10
5.1369424176
 20
4.6166318133
 30
0.0
 10
5.1415845167
 20
4.6166282041
 30
0.0
  0
SPLINE
  5
3EB
100
AcDbEntity
  8
ALL_ASSEMBLY_MEMBERS
100
AcDbSpline
 62
7
  6
CONTINUOUS
 70
0
 71
3
 72
12
 73
8
 74
0
 42
0.0000001
 43
0.0000001
 44
0.0000000001
 40
0.0
 40
0.0
 40
0.0
 40
0.0
 40
0.1310454889
 40
0.2614839384
 40
0.5179924656
 40
0.7653040297
 40
1.0
 40
1.0
 40
1.0
 40
1.0
 10
5.1415845167
 20
4.6166282041
 30
0.0
 10
5.1462419654
 20
4.616624583
 30
0.0
 10
5.1555392451
 20
4.6169372804
 30
0.0
 10
5.1738633587
 20
4.618818066
 30
0.0
 10
5.196010528
 20
4.6234522498
 30
0.0
 10
5.220727866
 20
4.6325546549
 30
0.0
 10
5.2357374693
 20
4.6410181121
 30
0.0
 10
5.2425903993
 20
4.6457735305
 30
0.0
  0
SPLINE
  5
3EC
100
AcDbEntity
  8
ALL_ASSEMBLY_MEMBERS
100
AcDbSpline
 62
7
  6
CONTINUOUS
 70
0
 71
3
 72
52
 73
48
 74
0
 42
0.0000001
 43
0.0000001
 44
0.0000000001
 40
0.0
 40
0.0
 40
0.0
 40
0.0
 40
0.0003869793
 40
0.000642613
 40
0.0009544977
 40
0.0017668291
 40
0.0028475338
 40
0.0042048828
 40
0.0058424634
 40
0.0077618691
 40
0.0099637134
 40
0.0152145738
 40
0.0215904507
 40
0.0290765463
 40
0.0376553938
 40
0.0473089468
 40
0.0580182587
 40
0.0824985781
 40
0.1108647346
 40
0.1428609229
 40
0.1781822899
 40
0.2165070013
 40
0.2574724574
 40
0.3007011096
 40
0.3457879683
 40
0.3923137113
 40
0.4879395215
 40
0.5840249479
 40
0.6770006604
 40
0.7212342723
 40
0.7634147283
 40
0.8031452034
 40
0.8400616755
 40
0.8738174189
 40
0.9041025939
 40
0.9306363801
 40
0.9424172708
 40
0.9531733093
 40
0.9628797037
 40
0.9715120211
 40
0.9790510081
 40
0.9854837135
 40
0.990798541
 40
0.9949860484
 40
0.9980443847
 40
0.9991566486
 40
1.0
 40
1.0
 40
1.0
 40
1.0
 10
5.2850099426
 20
6.407889549
 30
0.0
 10
5.2850100249
 20
6.4078524932
 30
0.0
 10
5.2849797059
 20
6.4077920542
 30
0.0
 10
5.2849130839
 20
6.4077301322
 30
0.0
 10
5.2848035989
 20
6.4076549427
 30
0.0
 10
5.2846109375
 20
6.4075664279
 30
0.0
 10
5.284316195
 20
6.4074658546
 30
0.0
 10
5.2839389669
 20
6.4073648628
 30
0.0
 10
5.2834794136
 20
6.4072632125
 30
0.0
 10
5.2829373987
 20
6.4071612444
 30
0.0
 10
5.2820516752
 20
6.4070163178
 30
0.0
 10
5.2807391011
 20
6.4068396529
 30
0.0
 10
5.278920115
 20
6.4066367943
 30
0.0
 10
5.2767808458
 20
6.4064331809
 30
0.0
 10
5.2743265676
 20
6.4062289574
 30
0.0
 10
5.2715627348
 20
6.4060243418
 30
0.0
 10
5.2672782018
 20
6.4057383439
 30
0.0
 10
5.261202336
 20
6.4053871572
 30
0.0
 10
5.2530882184
 20
6.4049803962
 30
0.0
 10
5.2439348852
 20
6.4045728242
 30
0.0
 10
5.2338271514
 20
6.4041643454
 30
0.0
 10
5.2228599227
 20
6.4037555122
 30
0.0
 10
5.2111350465
 20
6.4033462463
 30
0.0
 10
5.1987622839
 20
6.4029368063
 30
0.0
 10
5.185856815
 20
6.4025271739
 30
0.0
 10
5.1679359421
 20
6.4019758603
 30
0.0
 10
5.1451332501
 20
6.4012964613
 30
0.0
 10
5.1178845263
 20
6.4004882852
 30
0.0
 10
5.09555541
 20
6.3998050071
 30
0.0
 10
5.0783865829
 20
6.3992500275
 30
0.0
 10
5.0663143069
 20
6.3988410184
 30
0.0
 10
5.0549431092
 20
6.3984322857
 30
0.0
 10
5.04437917
 20
6.3980240816
 30
0.0
 10
5.0347203818
 20
6.3976164922
 30
0.0
 10
5.0260567449
 20
6.3972097671
 30
0.0
 10
5.0194971015
 20
6.3968596517
 30
0.0
 10
5.0148068384
 20
6.3965753027
 30
0.0
 10
5.011726081
 20
6.3963708061
 30
0.0
 10
5.0089475216
 20
6.3961666292
 30
0.0
 10
5.0064779189
 20
6.3959627924
 30
0.0
 10
5.0043229139
 20
6.3957594858
 30
0.0
 10
5.0024872028
 20
6.3955568991
 30
0.0
 10
5.0009742365
 20
6.395356073
 30
0.0
 10
4.9997881819
 20
6.3951566916
 30
0.0
 10
4.9990056734
 20
6.3949817556
 30
0.0
 10
4.9985493395
 20
6.3948318822
 30
0.0
 10
4.9983773285
 20
6.3947557559
 30
0.0
 10
4.9983074181
 20
6.394715331
 30
0.0
  0
SPLINE
  5
3ED
100
AcDbEntity
  8
ALL_ASSEMBLY_MEMBERS
100
AcDbSpline
 62
7
  6
CONTINUOUS
 70
0
 71
3
 72
52
 73
48
 74
0
 42
0.0000001
 43
0.0000001
 44
0.0000000001
 40
0.0
 40
0.0
 40
0.0
 40
0.0
 40
0.0003889998
 40
0.000645373
 40
0.0009576514
 40
0.0017698773
 40
0.0028497138
 40
0.0042059726
 40
0.0058427701
 40
0.0077622164
 40
0.0099651737
 40
0.0152183325
 40
0.0215924695
 40
0.0290749632
 40
0.0376521039
 40
0.0473069694
 40
0.0580151189
 40
0.0824875885
 40
0.1108524834
 40
0.1428400902
 40
0.1781579101
 40
0.2164747288
 40
0.2574343722
 40
0.3006565406
 40
0.3457364106
 40
0.3922569645
 40
0.4878719006
 40
0.5839490784
 40
0.6769205181
 40
0.7211556183
 40
0.7633354684
 40
0.8030694832
 40
0.8399889741
 40
0.8737492342
 40
0.9040418807
 40
0.9305805352
 40
0.9423678052
 40
0.9531291698
 40
0.9628376245
 40
0.9714734081
 40
0.9790195991
 40
0.9854598359
 40
0.990779028
 40
0.9949696979
 40
0.9980352862
 40
0.9991521164
 40
1.0
 40
1.0
 40
1.0
 40
1.0
 10
5.2843484785
 20
6.4346756886
 30
0.0
 10
5.2843483831
 20
6.4346386151
 30
0.0
 10
5.284318051
 20
6.4345783225
 30
0.0
 10
5.2842516572
 20
6.4345163375
 30
0.0
 10
5.284142787
 20
6.4344411925
 30
0.0
 10
5.2839512952
 20
6.4343526526
 30
0.0
 10
5.2836583086
 20
6.4342520788
 30
0.0
 10
5.2832832562
 20
6.4341510893
 30
0.0
 10
5.2828261514
 20
6.4340494522
 30
0.0
 10
5.2822867434
 20
6.4339475044
 30
0.0
 10
5.2814049651
 20
6.433802646
 30
0.0
 10
5.2800985201
 20
6.4336260874
 30
0.0
 10
5.2782885177
 20
6.4334231995
 30
0.0
 10
5.2761601068
 20
6.4332195828
 30
0.0
 10
5.2737178663
 20
6.4330153929
 30
0.0
 10
5.2709672842
 20
6.4328108915
 30
0.0
 10
5.2667037867
 20
6.432524949
 30
0.0
 10
5.2606576635
 20
6.4321737159
 30
0.0
 10
5.2525835984
 20
6.4317671953
 30
0.0
 10
5.2434748142
 20
6.4313595646
 30
0.0
 10
5.2334167464
 20
6.4309512623
 30
0.0
 10
5.2225029754
 20
6.4305424399
 30
0.0
 10
5.2108354034
 20
6.4301332762
 30
0.0
 10
5.1985229133
 20
6.4297239007
 30
0.0
 10
5.1856801684
 20
6.4293143233
 30
0.0
 10
5.1678461168
 20
6.4287631111
 30
0.0
 10
5.1451534137
 20
6.4280837898
 30
0.0
 10
5.1180355835
 20
6.4272757228
 30
0.0
 10
5.0958129598
 20
6.4265924912
 30
0.0
 10
5.0787255357
 20
6.4260376171
 30
0.0
 10
5.0667098578
 20
6.4256285967
 30
0.0
 10
5.0553918061
 20
6.4252199271
 30
0.0
 10
5.0448767224
 20
6.4248117372
 30
0.0
 10
5.0352621521
 20
6.42440414
 30
0.0
 10
5.0266378651
 20
6.4239975072
 30
0.0
 10
5.0201074751
 20
6.4236472937
 30
0.0
 10
5.0154378336
 20
6.4233630256
 30
0.0
 10
5.012370357
 20
6.423158566
 30
0.0
 10
5.0096039432
 20
6.4229543393
 30
0.0
 10
5.007144857
 20
6.4227504606
 30
0.0
 10
5.0049983637
 20
6.4225471902
 30
0.0
 10
5.0031695796
 20
6.4223446652
 30
0.0
 10
5.0016624274
 20
6.4221438358
 30
0.0
 10
5.0004807227
 20
6.4219442732
 30
0.0
 10
4.9997006392
 20
6.4217693259
 30
0.0
 10
4.9992450209
 20
6.4216195408
 30
0.0
 10
4.999073023
 20
6.4215434463
 30
0.0
 10
4.9990030383
 20
6.4215030482
 30
0.0
  0
SPLINE
  5
3EE
100
AcDbEntity
  8
ALL_ASSEMBLY_MEMBERS
100
AcDbSpline
 62
7
  6
CONTINUOUS
 70
0
 71
3
 72
31
 73
27
 74
0
 42
0.0000001
 43
0.0000001
 44
0.0000000001
 40
0.0
 40
0.0
 40
0.0
 40
0.0
 40
0.0008619836
 40
0.0022581098
 40
0.004216284
 40
0.0067451515
 40
0.0098480005
 40
0.0135260824
 40
0.022608225
 40
0.0339795741
 40
0.0476131427
 40
0.0634799721
 40
0.0815503259
 40
0.1017859807
 40
0.1241358049
 40
0.1485474257
 40
0.1749683562
 40
0.2335928408
 40
0.2994472193
 40
0.371923793
 40
0.4503274264
 40
0.5339207054
 40
0.6218826361
 40
0.7133690103
 40
0.8075192341
 40
1.0
 40
1.0
 40
1.0
 40
1.0
 10
4.9922158157
 20
6.5949328174
 30
0.0
 10
4.9922463622
 20
6.5949630763
 30
0.0
 10
4.9923508646
 20
6.5950134627
 30
0.0
 10
4.992550282
 20
6.5950760488
 30
0.0
 10
4.9928376731
 20
6.5951398752
 30
0.0
 10
4.9932104472
 20
6.5952047059
 30
0.0
 10
4.9936703739
 20
6.5952700146
 30
0.0
 10
4.9944559931
 20
6.5953642845
 30
0.0
 10
4.9956544694
 20
6.5954782083
 30
0.0
 10
4.997349767
 20
6.5956086995
 30
0.0
 10
4.9993842992
 20
6.595739954
 30
0.0
 10
5.0017535115
 20
6.5958718815
 30
0.0
 10
5.0044524677
 20
6.5960042076
 30
0.0
 10
5.0074751266
 20
6.5961368536
 30
0.0
 10
5.0108143541
 20
6.5962697964
 30
0.0
 10
5.01446232
 20
6.5964029983
 30
0.0
 10
5.0199190119
 20
6.5965873196
 30
0.0
 10
5.0274425783
 20
6.5968151753
 30
0.0
 10
5.0372632688
 20
6.5970812661
 30
0.0
 10
5.0480708642
 20
6.5973481931
 30
0.0
 10
5.0597635143
 20
6.5976160211
 30
0.0
 10
5.0722287595
 20
6.5978845248
 30
0.0
 10
5.0853467094
 20
6.5981537443
 30
0.0
 10
5.0989913413
 20
6.5984235806
 30
0.0
 10
5.117848619
 20
6.598786882
 30
0.0
 10
5.132143459
 20
6.5990557422
 30
0.0
 10
5.1417428317
 20
6.5992370245
 30
0.0
  0
LINE
  5
3EF
100
AcDbEntity
  8
ALL_ASSEMBLY_MEMBERS
100
AcDbLine
 62
7
  6
CONTINUOUS
 10
5.2799312904
 20
6.6018628386
 11
5.2783621709
 21
6.6014084474
  0
SPLINE
  5
3F0
100
AcDbEntity
  8
ALL_ASSEMBLY_MEMBERS
100
AcDbSpline
 62
7
  6
CONTINUOUS
 70
0
 71
3
 72
43
 73
39
 74
0
 42
0.0000001
 43
0.0000001
 44
0.0000000001
 40
0.0
 40
0.0
 40
0.0
 40
0.0
 40
0.0043245695
 40
0.009703678
 40
0.0161313869
 40
0.023598436
 40
0.0415803377
 40
0.0634965494
 40
0.0891664152
 40
0.1183612845
 40
0.1508364887
 40
0.1863042065
 40
0.2649751447
 40
0.3516505494
 40
0.4433297736
 40
0.5368399176
 40
0.6289460083
 40
0.6734723689
 40
0.7164631223
 40
0.7575455235
 40
0.7963667304
 40
0.8325864017
 40
0.8658978542
 40
0.8960069348
 40
0.9226606556
 40
0.9456261509
 40
0.9647097181
 40
0.9727463799
 40
0.9797542777
 40
0.9857204488
 40
0.9906375891
 40
0.9927012566
 40
0.994501277
 40
0.9960380629
 40
0.9973130779
 40
0.9983301471
 40
0.9990988226
 40
1.0
 40
1.0
 40
1.0
 40
1.0
 10
5.2783621709
 20
6.6014084474
 30
0.0
 10
5.2779717469
 20
6.6013329464
 30
0.0
 10
5.2770909053
 20
6.6011885532
 30
0.0
 10
5.2756203782
 20
6.6009933706
 30
0.0
 10
5.2738588634
 20
6.6007972211
 30
0.0
 10
5.2709410363
 20
6.6005172558
 30
0.0
 10
5.2665986657
 20
6.6001773856
 30
0.0
 10
5.2605820632
 20
6.5997870006
 30
0.0
 10
5.2535326188
 20
6.5993952042
 30
0.0
 10
5.2455110448
 20
6.5990019253
 30
0.0
 10
5.2365875915
 20
6.5986080304
 30
0.0
 10
5.2231170011
 20
6.5980630185
 30
0.0
 10
5.2046635333
 20
6.5973956093
 30
0.0
 10
5.1810420824
 20
6.5966165409
 30
0.0
 10
5.1560554666
 20
6.5958361964
 30
0.0
 10
5.1305692687
 20
6.5950553427
 30
0.0
 10
5.1094171674
 20
6.5943979325
 30
0.0
 10
5.0929088671
 20
6.5938649618
 30
0.0
 10
5.081090349
 20
6.5934699001
 30
0.0
 10
5.0697967347
 20
6.5930750303
 30
0.0
 10
5.0591261279
 20
6.5926805133
 30
0.0
 10
5.0491705906
 20
6.5922862823
 30
0.0
 10
5.0400168043
 20
6.5918927147
 30
0.0
 10
5.0317434979
 20
6.5914997424
 30
0.0
 10
5.0244226403
 20
6.5911080706
 30
0.0
 10
5.0181172036
 20
6.590717807
 30
0.0
 10
5.0135239553
 20
6.5903785919
 30
0.0
 10
5.0103980821
 20
6.5901001985
 30
0.0
 10
5.0084759864
 20
6.5899040804
 30
0.0
 10
5.0068423897
 20
6.589708611
 30
0.0
 10
5.0056638918
 20
6.5895385367
 30
0.0
 10
5.0048684847
 20
6.5893990013
 30
0.0
 10
5.004381765
 20
6.5893009288
 30
0.0
 10
5.0039686178
 20
6.589202752
 30
0.0
 10
5.0036312256
 20
6.5891063533
 30
0.0
 10
5.003363487
 20
6.5890071022
 30
0.0
 10
5.0031504631
 20
6.5889036218
 30
0.0
 10
5.0030092106
 20
6.5887808144
 30
0.0
 10
5.0030092701
 20
6.5886979484
 30
0.0
  0
SPLINE
  5
3F1
100
AcDbEntity
  8
ALL_ASSEMBLY_MEMBERS
100
AcDbSpline
 62
7
  6
CONTINUOUS
 70
0
 71
3
 72
28
 73
24
 74
0
 42
0.0000001
 43
0.0000001
 44
0.0000000001
 40
0.0
 40
0.0
 40
0.0
 40
0.0
 40
0.1890750469
 40
0.3713645178
 40
0.4578644215
 40
0.540241711
 40
0.6177416612
 40
0.6896616613
 40
0.7553601935
 40
0.8142409964
 40
0.8657843086
 40
0.88864965
 40
0.9095117732
 40
0.9283271628
 40
0.9450526825
 40
0.9596468678
 40
0.9720817431
 40
0.982339361
 40
0.9904059336
 40
0.9936161916
 40
0.9962793304
 40
0.9984019302
 40
1.0
 40
1.0
 40
1.0
 40
1.0
 10
5.1417428317
 20
6.4946058484
 30
0.0
 10
5.1513429623
 20
6.4948786336
 30
0.0
 10
5.1701986913
 20
6.4954143904
 30
0.0
 10
5.1934457136
 20
6.4960985268
 30
0.0
 10
5.2112744604
 20
6.496654116
 30
0.0
 10
5.2237824232
 20
6.4970632709
 30
0.0
 10
5.2355493991
 20
6.4974720984
 30
0.0
 10
5.2464686526
 20
6.4978805166
 30
0.0
 10
5.2564414706
 20
6.498288218
 30
0.0
 10
5.2653783354
 20
6.4986952159
 30
0.0
 10
5.2721397379
 20
6.4990455479
 30
0.0
 10
5.2769706296
 20
6.499330151
 30
0.0
 10
5.2801408964
 20
6.4995347897
 30
0.0
 10
5.2829986007
 20
6.4997391309
 30
0.0
 10
5.2855370651
 20
6.4999430469
 30
0.0
 10
5.287750285
 20
6.5001465014
 30
0.0
 10
5.2896335263
 20
6.5003490381
 30
0.0
 10
5.2911829685
 20
6.5005505078
 30
0.0
 10
5.2922629992
 20
6.5007267974
 30
0.0
 10
5.2929558286
 20
6.5008734526
 30
0.0
 10
5.293349498
 20
6.5009744014
 30
0.0
 10
5.2936579921
 20
6.5010746103
 30
0.0
 10
5.2938318854
 20
6.5011508693
 30
0.0
 10
5.2939021414
 20
6.5011915292
 30
0.0
  0
SPLINE
  5
3F2
100
AcDbEntity
  8
ALL_ASSEMBLY_MEMBERS
100
AcDbSpline
 62
7
  6
CONTINUOUS
 70
0
 71
3
 72
11
 73
7
 74
0
 42
0.0000001
 43
0.0000001
 44
0.0000000001
 40
0.0
 40
0.0
 40
0.0
 40
0.0
 40
0.2376849579
 40
0.4855075009
 40
0.7406892263
 40
1.0
 40
1.0
 40
1.0
 40
1.0
 10
5.0549205316
 20
4.5849677074
 30
0.0
 10
5.0612285942
 20
4.5816866371
 30
0.0
 10
5.074619673
 20
4.5759250377
 30
0.0
 10
5.0959919878
 20
4.5698722637
 30
0.0
 10
5.1185787089
 20
4.5663653614
 30
0.0
 10
5.1340001148
 20
4.5657979626
 30
0.0
 10
5.1417557146
 20
4.5659597267
 30
0.0
  0
SPLINE
  5
3F3
100
AcDbEntity
  8
ALL_ASSEMBLY_MEMBERS
100
AcDbSpline
 62
7
  6
CONTINUOUS
 70
0
 71
3
 72
10
 73
6
 74
0
 42
0.0000001
 43
0.0000001
 44
0.0000000001
 40
0.0
 40
0.0
 40
0.0
 40
0.0
 40
0.2565039059
 40
0.5104813337
 40
1.0
 40
1.0
 40
1.0
 40
1.0
 10
5.1442290504
 20
4.566026585
 30
0.0
 10
5.1512350567
 20
4.5662592619
 30
0.0
 10
5.1651692369
 20
4.5674531311
 30
0.0
 10
5.1920250816
 20
4.5726464533
 30
0.0
 10
5.2113226412
 20
4.5797405381
 30
0.0
 10
5.2231922322
 20
4.5859113351
 30
0.0
  0
LINE
  5
3F4
100
AcDbEntity
  8
ALL_ASSEMBLY_MEMBERS
100
AcDbLine
 62
7
  6
CONTINUOUS
 10
5.2806064157
 20
6.5750783864
 11
5.2793383818
 21
6.5746853215
  0
SPLINE
  5
3F5
100
AcDbEntity
  8
ALL_ASSEMBLY_MEMBERS
100
AcDbSpline
 62
7
  6
CONTINUOUS
 70
0
 71
3
 72
44
 73
40
 74
0
 42
0.0000001
 43
0.0000001
 44
0.0000000001
 40
0.0
 40
0.0
 40
0.0
 40
0.0
 40
0.0040097036
 40
0.0090862457
 40
0.0152216837
 40
0.0224058464
 40
0.0398689965
 40
0.0613252047
 40
0.0865923697
 40
0.1154517879
 40
0.1476482663
 40
0.1829055815
 40
0.2209090658
 40
0.2613317824
 40
0.3479894037
 40
0.4398492683
 40
0.5337006996
 40
0.6262642335
 40
0.6710467656
 40
0.7143067186
 40
0.7556622775
 40
0.7947553287
 40
0.8312425891
 40
0.8648055939
 40
0.8951546011
 40
0.922020441
 40
0.9451778497
 40
0.9644192355
 40
0.9725223711
 40
0.9795913006
 40
0.9856099602
 40
0.9905673414
 40
0.9926471663
 40
0.9944611319
 40
0.9960099615
 40
0.9972954075
 40
0.9983213053
 40
0.9990963288
 40
1.0
 40
1.0
 40
1.0
 40
1.0
 10
5.2793383818
 20
6.5746853215
 30
0.0
 10
5.2789755086
 20
6.5746084666
 30
0.0
 10
5.2781472795
 20
6.5744627452
 30
0.0
 10
5.276752738
 20
6.5742671024
 30
0.0
 10
5.2750622603
 20
6.5740703015
 30
0.0
 10
5.2722285978
 20
6.5737881297
 30
0.0
 10
5.2679771001
 20
6.5734466852
 30
0.0
 10
5.2620523144
 20
6.5730547436
 30
0.0
 10
5.2550714258
 20
6.5726611851
 30
0.0
 10
5.2470957379
 20
6.572266211
 30
0.0
 10
5.238194931
 20
6.5718703648
 30
0.0
 10
5.2284475092
 20
6.5714740461
 30
0.0
 10
5.2179385505
 20
6.5710772185
 30
0.0
 10
5.2026768742
 20
6.5705352476
 30
0.0
 10
5.1824344823
 20
6.5698686023
 30
0.0
 10
5.1572508566
 20
6.5690844072
 30
0.0
 10
5.1315206538
 20
6.5682997854
 30
0.0
 10
5.1101436338
 20
6.5676393385
 30
0.0
 10
5.0934450283
 20
6.5671038279
 30
0.0
 10
5.0814814817
 20
6.5667068114
 30
0.0
 10
5.0700445423
 20
6.5663099725
 30
0.0
 10
5.0592345027
 20
6.5659134595
 30
0.0
 10
5.0491458225
 20
6.5655173306
 30
0.0
 10
5.0398666679
 20
6.5651217065
 30
0.0
 10
5.0314784008
 20
6.5647269122
 30
0.0
 10
5.0240538297
 20
6.5643331609
 30
0.0
 10
5.0176583521
 20
6.5639410845
 30
0.0
 10
5.0129988395
 20
6.5636001799
 30
0.0
 10
5.0098276419
 20
6.563320347
 30
0.0
 10
5.0078772236
 20
6.5631232888
 30
0.0
 10
5.006219439
 20
6.5629269378
 30
0.0
 10
5.005023656
 20
6.5627559894
 30
0.0
 10
5.0042168338
 20
6.5626157395
 30
0.0
 10
5.003723196
 20
6.5625171776
 30
0.0
 10
5.003304063
 20
6.5624185001
 30
0.0
 10
5.0029616548
 20
6.5623216314
 30
0.0
 10
5.0026896071
 20
6.5622218801
 30
0.0
 10
5.0024736668
 20
6.562118262
 30
0.0
 10
5.002329396
 20
6.561994829
 30
0.0
 10
5.0023296015
 20
6.561911234
 30
0.0
  0
SPLINE
  5
3F6
100
AcDbEntity
  8
ALL_ASSEMBLY_MEMBERS
100
AcDbSpline
 62
7
  6
CONTINUOUS
 70
0
 71
3
 72
28
 73
24
 74
0
 42
0.0000001
 43
0.0000001
 44
0.0000000001
 40
0.0
 40
0.0
 40
0.0
 40
0.0
 40
0.0015983755
 40
0.0037204857
 40
0.0063819645
 40
0.0095903114
 40
0.0176562312
 40
0.0279154597
 40
0.0403512227
 40
0.0549427035
 40
0.0716652131
 40
0.0904798302
 40
0.1113415714
 40
0.1342050536
 40
0.1857432935
 40
0.2446234881
 40
0.3103217886
 40
0.3822453426
 40
0.4597480856
 40
0.5421300951
 40
0.6286327455
 40
0.8109185294
 40
1.0
 40
1.0
 40
1.0
 40
1.0
 10
5.2939019544
 20
6.5827647183
 30
0.0
 10
5.2938316725
 20
6.5827240725
 30
0.0
 10
5.2936577831
 20
6.5826478361
 30
0.0
 10
5.2933493836
 20
6.5825476416
 30
0.0
 10
5.2929559309
 20
6.5824466835
 30
0.0
 10
5.2922633254
 20
6.5823000069
 30
0.0
 10
5.2911833324
 20
6.5821237851
 30
0.0
 10
5.2896337911
 20
6.5819223776
 30
0.0
 10
5.2877505565
 20
6.5817199051
 30
0.0
 10
5.2855375858
 20
6.5815164607
 30
0.0
 10
5.2829994529
 20
6.5813125802
 30
0.0
 10
5.280141961
 20
6.5811083004
 30
0.0
 10
5.276971849
 20
6.580903717
 30
0.0
 10
5.2721413339
 20
6.5806191711
 30
0.0
 10
5.2653803234
 20
6.5802688842
 30
0.0
 10
5.2564437692
 20
6.5798619793
 30
0.0
 10
5.2464708279
 20
6.5794543074
 30
0.0
 10
5.2355512788
 20
6.5790459481
 30
0.0
 10
5.2237837584
 20
6.5786371435
 30
0.0
 10
5.2112752925
 20
6.5782280374
 30
0.0
 10
5.1934463801
 20
6.5776725108
 30
0.0
 10
5.1701991137
 20
6.5769884582
 30
0.0
 10
5.151343274
 20
6.5764527608
 30
0.0
 10
5.1417428317
 20
6.5761799979
 30
0.0
  0
SPLINE
  5
3F7
100
AcDbEntity
  8
ALL_ASSEMBLY_MEMBERS
100
AcDbSpline
 62
7
  6
CONTINUOUS
 70
0
 71
3
 72
23
 73
19
 74
0
 42
0.0000001
 43
0.0000001
 44
0.0000000001
 40
0.0
 40
0.0
 40
0.0
 40
0.0
 40
0.0046518596
 40
0.0111053659
 40
0.0194084689
 40
0.0295797222
 40
0.0416262668
 40
0.0555463147
 40
0.0889554474
 40
0.129689155
 40
0.1776157842
 40
0.2325697203
 40
0.2943204066
 40
0.3626276084
 40
0.4372451549
 40
0.6042649648
 40
0.7929304942
 40
1.0
 40
1.0
 40
1.0
 40
1.0
 10
5.2813218043
 20
6.5482931745
 30
0.0
 10
5.2812280937
 20
6.5482390641
 30
0.0
 10
5.2809876527
 20
6.5481403073
 30
0.0
 10
5.2805547635
 20
6.5480122375
 30
0.0
 10
5.279989062
 20
6.5478829412
 30
0.0
 10
5.2792910857
 20
6.547752669
 30
0.0
 10
5.2784605844
 20
6.5476218657
 30
0.0
 10
5.2770919635
 20
6.5474354918
 30
0.0
 10
5.2750557772
 20
6.5472087719
 30
0.0
 10
5.2722280969
 20
6.5469483694
 30
0.0
 10
5.2688975149
 20
6.5466870149
 30
0.0
 10
5.2650768216
 20
6.5464249294
 30
0.0
 10
5.2607810896
 20
6.5461623027
 30
0.0
 10
5.2560272059
 20
6.5458992846
 30
0.0
 10
5.2488265285
 20
6.5455345231
 30
0.0
 10
5.2388268804
 20
6.5450854941
 30
0.0
 10
5.2257465407
 20
6.5445632836
 30
0.0
 10
5.216547083
 20
6.5442283247
 30
0.0
 10
5.2117332425
 20
6.544058816
 30
0.0
  0
SPLINE
  5
3F8
100
AcDbEntity
  8
ALL_ASSEMBLY_MEMBERS
100
AcDbSpline
 62
7
  6
CONTINUOUS
 70
0
 71
3
 72
23
 73
19
 74
0
 42
0.0000001
 43
0.0000001
 44
0.0000000001
 40
0.0
 40
0.0
 40
0.0
 40
0.0
 40
0.2077770048
 40
0.3969593978
 40
0.5643421743
 40
0.6390712118
 40
0.7074442964
 40
0.7692032484
 40
0.8240920834
 40
0.8718951139
 40
0.9124520216
 40
0.9456109766
 40
0.9593757116
 40
0.9712542966
 40
0.9812451001
 40
0.9893515443
 40
0.9955882476
 40
1.0
 40
1.0
 40
1.0
 40
1.0
 10
5.2179630568
 20
6.5512478227
 30
0.0
 10
5.2232329131
 20
6.5514207182
 30
0.0
 10
5.2333006513
 20
6.5517622619
 30
0.0
 10
5.2476119072
 20
6.55229484
 30
0.0
 10
5.2585472145
 20
6.5527527295
 30
0.0
 10
5.26641752
 20
6.5531248369
 30
0.0
 10
5.2716093118
 20
6.5533930446
 30
0.0
 10
5.2762969181
 20
6.5536608009
 30
0.0
 10
5.2804616077
 20
6.5539280619
 30
0.0
 10
5.2840870902
 20
6.5541945293
 30
0.0
 10
5.2871594748
 20
6.5544598943
 30
0.0
 10
5.289367643
 20
6.5546910248
 30
0.0
 10
5.2908477292
 20
6.5548812895
 30
0.0
 10
5.2917422415
 20
6.5550145839
 30
0.0
 10
5.2924913008
 20
6.5551472786
 30
0.0
 10
5.2930951386
 20
6.5552788244
 30
0.0
 10
5.2935527626
 20
6.5554090188
 30
0.0
 10
5.2938054863
 20
6.5555098499
 30
0.0
 10
5.2939024192
 20
6.5555658686
 30
0.0
  0
SPLINE
  5
3F9
100
AcDbEntity
  8
ALL_ASSEMBLY_MEMBERS
100
AcDbSpline
 62
7
  6
CONTINUOUS
 70
0
 71
3
 72
28
 73
24
 74
0
 42
0.0000001
 43
0.0000001
 44
0.0000000001
 40
0.0
 40
0.0
 40
0.0
 40
0.0
 40
0.1890710884
 40
0.3713587055
 40
0.4578579261
 40
0.5402344306
 40
0.617733511
 40
0.6896520814
 40
0.7553497764
 40
0.8142305239
 40
0.8657746994
 40
0.8886406398
 40
0.9095033111
 40
0.928319354
 40
0.9450457888
 40
0.9596411153
 40
0.9720768823
 40
0.9823353526
 40
0.9904030121
 40
0.9936139871
 40
0.9962779678
 40
0.9984013027
 40
1.0
 40
1.0
 40
1.0
 40
1.0
 10
5.1417428317
 20
6.4402054483
 30
0.0
 10
5.1513427558
 20
6.4404777598
 30
0.0
 10
5.1701981778
 20
6.4410126273
 30
0.0
 10
5.1934448545
 20
6.4416957473
 30
0.0
 10
5.2112734206
 20
6.442250602
 30
0.0
 10
5.2237812562
 20
6.4426592632
 30
0.0
 10
5.235548068
 20
6.4430676401
 30
0.0
 10
5.2464671554
 20
6.4434756626
 30
0.0
 10
5.25643985
 20
6.4438830215
 30
0.0
 10
5.2653767085
 20
6.4442897411
 30
0.0
 10
5.2721381791
 20
6.4446398849
 30
0.0
 10
5.2769691704
 20
6.4449243719
 30
0.0
 10
5.2801395269
 20
6.4451289468
 30
0.0
 10
5.2829973366
 20
6.445333242
 30
0.0
 10
5.2855359363
 20
6.4455371303
 30
0.0
 10
5.2877493036
 20
6.4457405709
 30
0.0
 10
5.2896326875
 20
6.4459431184
 30
0.0
 10
5.2911822678
 20
6.4461446192
 30
0.0
 10
5.2922624265
 20
6.446320951
 30
0.0
 10
5.2929553825
 20
6.4464676495
 30
0.0
 10
5.2933491633
 20
6.4465686298
 30
0.0
 10
5.2936577617
 20
6.4466688788
 30
0.0
 10
5.2938317157
 20
6.4467451717
 30
0.0
 10
5.2939019982
 20
6.4467858489
 30
0.0
  0
LINE
  5
3FA
100
AcDbEntity
  8
ALL_ASSEMBLY_MEMBERS
100
AcDbLine
 62
7
  6
CONTINUOUS
 10
5.2848198021
 20
6.414367534
 11
5.2828763062
 21
6.4138504813
  0
SPLINE
  5
3FB
100
AcDbEntity
  8
ALL_ASSEMBLY_MEMBERS
100
AcDbSpline
 62
7
  6
CONTINUOUS
 70
0
 71
3
 72
42
 73
38
 74
0
 42
0.0000001
 43
0.0000001
 44
0.0000000001
 40
0.0
 40
0.0
 40
0.0
 40
0.0
 40
0.0045960386
 40
0.0102377691
 40
0.0246260099
 40
0.043055767
 40
0.0653694414
 40
0.091384978
 40
0.1208719233
 40
0.1535850841
 40
0.1892376992
 40
0.2681216735
 40
0.3548162113
 40
0.4463457168
 40
0.5395695314
 40
0.6312899358
 40
0.6755979877
 40
0.7183619432
 40
0.7592116152
 40
0.7978013516
 40
0.8337946689
 40
0.8668885473
 40
0.8967963185
 40
0.9232635162
 40
0.9460675438
 40
0.9650100866
 40
0.9729864717
 40
0.9799429748
 40
0.9858637801
 40
0.9907406847
 40
0.9927866462
 40
0.9945708012
 40
0.9960936904
 40
0.997356834
 40
0.9983637413
 40
0.9991225879
 40
1.0
 40
1.0
 40
1.0
 40
1.0
 10
5.2828763062
 20
6.4138504813
 30
0.0
 10
5.2824457051
 20
6.413775984
 30
0.0
 10
5.2814826416
 20
6.4136326853
 30
0.0
 10
5.2791582001
 20
6.4133496991
 30
0.0
 10
5.275516435
 20
6.4130118505
 30
0.0
 10
5.270288617
 20
6.4126255537
 30
0.0
 10
5.2639528343
 20
6.4122369504
 30
0.0
 10
5.2565642304
 20
6.4118464424
 30
0.0
 10
5.2481856701
 20
6.411454739
 30
0.0
 10
5.2388899482
 20
6.4110623881
 30
0.0
 10
5.2248997186
 20
6.4105200677
 30
0.0
 10
5.2057778538
 20
6.4098556141
 30
0.0
 10
5.1813439644
 20
6.4090796037
 30
0.0
 10
5.1555460146
 20
6.4083023786
 30
0.0
 10
5.1292700072
 20
6.4075246907
 30
0.0
 10
5.1074822088
 20
6.4068698367
 30
0.0
 10
5.0904906604
 20
6.4063389549
 30
0.0
 10
5.0783340449
 20
6.4059455677
 30
0.0
 10
5.0667214253
 20
6.4055523417
 30
0.0
 10
5.0557529412
 20
6.4051594888
 30
0.0
 10
5.04552238
 20
6.404766932
 30
0.0
 10
5.0361179384
 20
6.4043749879
 30
0.0
 10
5.0276200828
 20
6.4039837407
 30
0.0
 10
5.0201016782
 20
6.403593643
 30
0.0
 10
5.013627392
 20
6.4032051297
 30
0.0
 10
5.0089115313
 20
6.4028673088
 30
0.0
 10
5.0057025034
 20
6.4025900511
 30
0.0
 10
5.0037292681
 20
6.4023948182
 30
0.0
 10
5.0020523276
 20
6.4022002174
 30
0.0
 10
5.0008427519
 20
6.4020308459
 30
0.0
 10
5.0000264852
 20
6.4018918842
 30
0.0
 10
4.9995270775
 20
6.4017942352
 30
0.0
 10
4.9991030363
 20
6.401696468
 30
0.0
 10
4.9987567677
 20
6.4016005296
 30
0.0
 10
4.9984815452
 20
6.4015016977
 30
0.0
 10
4.9982642644
 20
6.4013994296
 30
0.0
 10
4.998117469
 20
6.4012772511
 30
0.0
 10
4.9981176787
 20
6.4011938258
 30
0.0
  0
SPLINE
  5
3FC
100
AcDbEntity
  8
ALL_ASSEMBLY_MEMBERS
100
AcDbSpline
 62
7
  6
CONTINUOUS
 70
0
 71
3
 72
13
 73
9
 74
0
 42
0.0000001
 43
0.0000001
 44
0.0000000001
 40
0.0
 40
0.0
 40
0.0
 40
0.0
 40
0.0838969567
 40
0.1834890465
 40
0.2970306514
 40
0.4226172207
 40
0.7011152609
 40
1.0
 40
1.0
 40
1.0
 40
1.0
 10
5.2737321897
 20
6.4532284381
 30
0.0
 10
5.2700446337
 20
6.4530217919
 30
0.0
 10
5.2619766531
 20
6.4526239201
 30
0.0
 10
5.2489120438
 20
6.4520772796
 30
0.0
 10
5.2340108013
 20
6.4515293048
 30
0.0
 10
5.2112362572
 20
6.4507713773
 30
0.0
 10
5.1803033928
 20
6.4498548635
 30
0.0
 10
5.1548954041
 20
6.4491507956
 30
0.0
 10
5.1417428317
 20
6.4487867416
 30
0.0
  0
SPLINE
  5
3FD
100
AcDbEntity
  8
ALL_ASSEMBLY_MEMBERS
100
AcDbSpline
 62
7
  6
CONTINUOUS
 70
0
 71
3
 72
49
 73
45
 74
0
 42
0.0000001
 43
0.0000001
 44
0.0000000001
 40
0.0
 40
0.0
 40
0.0
 40
0.0
 40
0.0009435635
 40
0.0017595555
 40
0.0028418248
 40
0.0041998404
 40
0.0058381564
 40
0.0077588732
 40
0.0099621028
 40
0.0152130847
 40
0.0215828897
 40
0.0290605508
 40
0.0376333084
 40
0.0472812319
 40
0.0579802213
 40
0.0824336038
 40
0.1107757472
 40
0.1427366096
 40
0.1780269401
 40
0.216312143
 40
0.2572412612
 40
0.3004300528
 40
0.3454784614
 40
0.3919670669
 40
0.4875247577
 40
0.5835566534
 40
0.6765003891
 40
0.7207304963
 40
0.7629103137
 40
0.8026532302
 40
0.8395857262
 40
0.8733701433
 40
0.9036905958
 40
0.9302689825
 40
0.9528616437
 40
0.9625955623
 40
0.9712606559
 40
0.9788378332
 40
0.9853086787
 40
0.9906602574
 40
0.9948881877
 40
0.9979940216
 40
0.9991314859
 40
1.0
 40
1.0
 40
1.0
 40
1.0
 10
5.2801275027
 20
6.5953925397
 30
0.0
 10
5.2801273322
 20
6.5953052609
 30
0.0
 10
5.2799731593
 20
6.5951782636
 30
0.0
 10
5.2797458452
 20
6.5950715029
 30
0.0
 10
5.2794578622
 20
6.5949684662
 30
0.0
 10
5.2790955511
 20
6.594868409
 30
0.0
 10
5.2786516193
 20
6.5947664848
 30
0.0
 10
5.278128537
 20
6.594664707
 30
0.0
 10
5.2772734
 20
6.5945198752
 30
0.0
 10
5.2760067366
 20
6.5943433988
 30
0.0
 10
5.2742517262
 20
6.5941405603
 30
0.0
 10
5.2721878107
 20
6.5939370238
 30
0.0
 10
5.2698194637
 20
6.5937329683
 30
0.0
 10
5.2671522064
 20
6.5935285448
 30
0.0
 10
5.2630180527
 20
6.5932427018
 30
0.0
 10
5.2571552443
 20
6.5928916609
 30
0.0
 10
5.2493258303
 20
6.5924853323
 30
0.0
 10
5.2404928711
 20
6.5920778765
 30
0.0
 10
5.2307393438
 20
6.5916698125
 30
0.0
 10
5.2201556203
 20
6.591261158
 30
0.0
 10
5.2088408006
 20
6.5908522446
 30
0.0
 10
5.1969000153
 20
6.5904430527
 30
0.0
 10
5.184444699
 20
6.5900337192
 30
0.0
 10
5.1671473465
 20
6.5894827755
 30
0.0
 10
5.1451357551
 20
6.5888038186
 30
0.0
 10
5.1188290286
 20
6.5879962003
 30
0.0
 10
5.0972684674
 20
6.5873133739
 30
0.0
 10
5.0806876498
 20
6.586758879
 30
0.0
 10
5.0690257616
 20
6.5863500703
 30
0.0
 10
5.0580393174
 20
6.5859416869
 30
0.0
 10
5.0478299965
 20
6.5855336832
 30
0.0
 10
5.0384929693
 20
6.5851263688
 30
0.0
 10
5.0301146351
 20
6.584719992
 30
0.0
 10
5.0227728442
 20
6.5843148147
 30
0.0
 10
5.0173353309
 20
6.5839640629
 30
0.0
 10
5.0135544346
 20
6.5836774604
 30
0.0
 10
5.0111602751
 20
6.5834736978
 30
0.0
 10
5.009069085
 20
6.5832705718
 30
0.0
 10
5.0072860456
 20
6.5830681237
 30
0.0
 10
5.0058147064
 20
6.5828672513
 30
0.0
 10
5.0046584548
 20
6.5826677497
 30
0.0
 10
5.0038931845
 20
6.5824928138
 30
0.0
 10
5.003444388
 20
6.5823433086
 30
0.0
 10
5.0032742201
 20
6.5822673626
 30
0.0
 10
5.0032046701
 20
6.582227153
 30
0.0
  0
SPLINE
  5
3FE
100
AcDbEntity
  8
ALL_ASSEMBLY_MEMBERS
100
AcDbSpline
 62
7
  6
CONTINUOUS
 70
0
 71
3
 72
28
 73
24
 74
0
 42
0.0000001
 43
0.0000001
 44
0.0000000001
 40
0.0
 40
0.0
 40
0.0
 40
0.0
 40
0.1890713273
 40
0.3713654971
 40
0.4578705372
 40
0.5402537294
 40
0.6177594033
 40
0.6896793215
 40
0.7553763564
 40
0.8142517228
 40
0.8657899308
 40
0.888653636
 40
0.9095134363
 40
0.9283266352
 40
0.9450509162
 40
0.9596451185
 40
0.97207981
 40
0.9823372677
 40
0.9904041488
 40
0.9936148728
 40
0.9962787025
 40
0.9984017541
 40
1.0
 40
1.0
 40
1.0
 40
1.0
 10
5.1417428317
 20
6.4130314688
 30
0.0
 10
5.1513427746
 20
6.4133042729
 30
0.0
 10
5.1701985556
 20
6.4138400811
 30
0.0
 10
5.1934458909
 20
6.4145242961
 30
0.0
 10
5.2112754384
 20
6.4150799715
 30
0.0
 10
5.2237842528
 20
6.4154892112
 30
0.0
 10
5.2355518158
 20
6.415898098
 30
0.0
 10
5.2464712789
 20
6.4163065988
 30
0.0
 10
5.256443741
 20
6.4167143311
 30
0.0
 10
5.2653799934
 20
6.4171213752
 30
0.0
 10
5.2721407763
 20
6.4174717369
 30
0.0
 10
5.2769712076
 20
6.4177563421
 30
0.0
 10
5.2801411611
 20
6.4179609958
 30
0.0
 10
5.2829985718
 20
6.4181653534
 30
0.0
 10
5.2855368611
 20
6.4183692905
 30
0.0
 10
5.287750009
 20
6.418572753
 30
0.0
 10
5.2896332312
 20
6.4187753165
 30
0.0
 10
5.2911826676
 20
6.4189768198
 30
0.0
 10
5.2922627252
 20
6.4191531403
 30
0.0
 10
5.2929556253
 20
6.4192998196
 30
0.0
 10
5.2933493771
 20
6.4194007764
 30
0.0
 10
5.293657937
 20
6.4195010001
 30
0.0
 10
5.2938318588
 20
6.4195772758
 30
0.0
 10
5.2939021197
 20
6.419617945
 30
0.0
  0
SPLINE
  5
3FF
100
AcDbEntity
  8
ALL_ASSEMBLY_MEMBERS
100
AcDbSpline
 62
7
  6
CONTINUOUS
 70
0
 71
3
 72
50
 73
46
 74
0
 42
0.0000001
 43
0.0000001
 44
0.0000000001
 40
0.0
 40
0.0
 40
0.0
 40
0.0
 40
0.0009414357
 40
0.0017572605
 40
0.0028394414
 40
0.0041971374
 40
0.0058346356
 40
0.0077541314
 40
0.0099566479
 40
0.0152080019
 40
0.0215791579
 40
0.0290574456
 40
0.0376290545
 40
0.0472773951
 40
0.0579782716
 40
0.0824336776
 40
0.1107783598
 40
0.1427435204
 40
0.1780368294
 40
0.216327801
 40
0.2572607588
 40
0.3004558948
 40
0.3455091176
 40
0.3920038403
 40
0.4875722629
 40
0.5836135579
 40
0.676564143
 40
0.7207958633
 40
0.7629771799
 40
0.8027187168
 40
0.8396509305
 40
0.8734308121
 40
0.9037485804
 40
0.9303195366
 40
0.9421254377
 40
0.9529064915
 40
0.9626363157
 40
0.9712957551
 40
0.9788673336
 40
0.9853341525
 40
0.9906811123
 40
0.994902182
 40
0.9980005405
 40
0.9991345352
 40
1.0
 40
1.0
 40
1.0
 40
1.0
 10
5.2808024831
 20
6.5686070297
 30
0.0
 10
5.280802272
 20
6.5685195234
 30
0.0
 10
5.2806467919
 20
6.5683926333
 30
0.0
 10
5.2804184813
 20
6.5682859559
 30
0.0
 10
5.2801289246
 20
6.5681829137
 30
0.0
 10
5.2797648554
 20
6.5680828505
 30
0.0
 10
5.2793188698
 20
6.567980906
 30
0.0
 10
5.2787934126
 20
6.5678790877
 30
0.0
 10
5.2779341397
 20
6.5677342232
 30
0.0
 10
5.2766610904
 20
6.5675577434
 30
0.0
 10
5.2748971928
 20
6.567354898
 30
0.0
 10
5.2728230448
 20
6.5671513419
 30
0.0
 10
5.2704430851
 20
6.5669472019
 30
0.0
 10
5.267762644
 20
6.5667427561
 30
0.0
 10
5.2636078404
 20
6.5664568979
 30
0.0
 10
5.2577157574
 20
6.5661057649
 30
0.0
 10
5.2498472559
 20
6.5656993557
 30
0.0
 10
5.2409702382
 20
6.5652918468
 30
0.0
 10
5.2311678755
 20
6.5648836632
 30
0.0
 10
5.2205313155
 20
6.5644749652
 30
0.0
 10
5.2091597902
 20
6.5640659285
 30
0.0
 10
5.1971593379
 20
6.5636566816
 30
0.0
 10
5.1846416392
 20
6.5632472381
 30
0.0
 10
5.1672578734
 20
6.5626961955
 30
0.0
 10
5.1451364475
 20
6.5620170879
 30
0.0
 10
5.1186988633
 20
6.5612093052
 30
0.0
 10
5.0970314422
 20
6.5605263496
 30
0.0
 10
5.0803687884
 20
6.5599717286
 30
0.0
 10
5.068649825
 20
6.5595628674
 30
0.0
 10
5.057609772
 20
6.5591543776
 30
0.0
 10
5.047351185
 20
6.5587463459
 30
0.0
 10
5.0379692561
 20
6.558338937
 30
0.0
 10
5.0295513661
 20
6.5579324624
 30
0.0
 10
5.0231757113
 20
6.5575824312
 30
0.0
 10
5.0186152954
 20
6.5572983389
 30
0.0
 10
5.0156183857
 20
6.5570939676
 30
0.0
 10
5.0129146643
 20
6.5568898238
 30
0.0
 10
5.0105101839
 20
6.5566860415
 30
0.0
 10
5.0084101371
 20
6.5564828583
 30
0.0
 10
5.0066196273
 20
6.5562804204
 30
0.0
 10
5.0051424323
 20
6.5560795876
 30
0.0
 10
5.0039821701
 20
6.5558800577
 30
0.0
 10
5.0032146834
 20
6.5557050885
 30
0.0
 10
5.0027648453
 20
6.5555555331
 30
0.0
 10
5.0025943574
 20
6.5554795681
 30
0.0
 10
5.0025246909
 20
6.555439344
 30
0.0
  0
SPLINE
  5
400
100
AcDbEntity
  8
ALL_ASSEMBLY_MEMBERS
100
AcDbSpline
 62
7
  6
CONTINUOUS
 70
0
 71
3
 72
28
 73
24
 74
0
 42
0.0000001
 43
0.0000001
 44
0.0000000001
 40
0.0
 40
0.0
 40
0.0
 40
0.0
 40
0.0010299364
 40
0.0023074203
 40
0.0039720216
 40
0.0060873856
 40
0.0086836847
 40
0.011776599
 40
0.0194827007
 40
0.0292435249
 40
0.041071997
 40
0.0549710833
 40
0.0709308336
 40
0.1089636538
 40
0.1550240295
 40
0.2089489485
 40
0.2705051902
 40
0.3394139082
 40
0.4153931174
 40
0.4981312339
 40
0.587282541
 40
0.7833747628
 40
1.0
 40
1.0
 40
1.0
 40
1.0
 10
5.2815169355
 20
6.5418206596
 30
0.0
 10
5.2815169166
 20
6.541796595
 30
0.0
 10
5.2815003002
 20
6.5417425379
 30
0.0
 10
5.2814377058
 20
6.541672084
 30
0.0
 10
5.28134098
 20
6.5416033206
 30
0.0
 10
5.2812082994
 20
6.5415348364
 30
0.0
 10
5.2810392272
 20
6.5414661106
 30
0.0
 10
5.2807422449
 20
6.5413668398
 30
0.0
 10
5.2802765289
 20
6.541247136
 30
0.0
 10
5.2796057006
 20
6.5411104807
 30
0.0
 10
5.278787817
 20
6.5409731799
 30
0.0
 10
5.2778235349
 20
6.5408353123
 30
0.0
 10
5.276249311
 20
6.5406394336
 30
0.0
 10
5.2739235564
 20
6.5404007272
 30
0.0
 10
5.2707103671
 20
6.5401262992
 30
0.0
 10
5.26694591
 20
6.5398510152
 30
0.0
 10
5.2626464402
 20
6.5395749201
 30
0.0
 10
5.2578307624
 20
6.5392982843
 30
0.0
 10
5.252519454
 20
6.5390213459
 30
0.0
 10
5.246734602
 20
6.5387441776
 30
0.0
 10
5.2381451594
 20
6.5383620264
 30
0.0
 10
5.2264283656
 20
6.5378909392
 30
0.0
 10
5.2167915769
 20
6.537539434
 30
0.0
 10
5.2117332425
 20
6.537361316
 30
0.0
  0
SPLINE
  5
401
100
AcDbEntity
  8
ALL_ASSEMBLY_MEMBERS
100
AcDbSpline
 62
7
  6
CONTINUOUS
 70
0
 71
3
 72
18
 73
14
 74
0
 42
0.0000001
 43
0.0000001
 44
0.0000000001
 40
0.0
 40
0.0
 40
0.0
 40
0.0
 40
0.115935818
 40
0.1764302119
 40
0.2383443985
 40
0.3014663074
 40
0.3655514542
 40
0.430339945
 40
0.4955570946
 40
0.6260778339
 40
0.7549565726
 40
0.8801498388
 40
1.0
 40
1.0
 40
1.0
 40
1.0
 10
5.042690577
 20
4.6286577261
 30
0.0
 10
5.0493181596
 20
4.6243649345
 30
0.0
 10
5.0600073998
 20
4.6187219596
 30
0.0
 10
5.07514207
 20
4.6128281676
 30
0.0
 10
5.0872343722
 20
4.6091168941
 30
0.0
 10
5.0997957878
 20
4.6062201414
 30
0.0
 10
5.1127191547
 20
4.6041582758
 30
0.0
 10
5.1258942413
 20
4.6029570683
 30
0.0
 10
5.1436436194
 20
4.6025138703
 30
0.0
 10
5.1657627254
 20
4.6041402275
 30
0.0
 10
5.1914819881
 20
4.6095114226
 30
0.0
 10
5.2155297468
 20
4.6181438587
 30
0.0
 10
5.2302913524
 20
4.6261095489
 30
0.0
 10
5.2371170095
 20
4.6305866951
 30
0.0
  0
SPLINE
  5
402
100
AcDbEntity
  8
ALL_ASSEMBLY_MEMBERS
100
AcDbSpline
 62
7
  6
CONTINUOUS
 70
0
 71
3
 72
32
 73
28
 74
0
 42
0.0000001
 43
0.0000001
 44
0.0000000001
 40
0.0
 40
0.0
 40
0.0
 40
0.0
 40
0.032930092
 40
0.0663234735
 40
0.1001050526
 40
0.1342154806
 40
0.1685991355
 40
0.2031915227
 40
0.2727030625
 40
0.3422059746
 40
0.4111397311
 40
0.4789710226
 40
0.545222732
 40
0.6095016202
 40
0.6715260277
 40
0.7311519805
 40
0.7600810213
 40
0.7884309225
 40
0.8162308409
 40
0.8435209516
 40
0.8703519861
 40
0.8967834063
 40
0.922884658
 40
0.9487321036
 40
0.9615897363
 40
0.974414656
 40
1.0
 40
1.0
 40
1.0
 40
1.0
 10
5.5130817659
 20
3.3240918441
 30
0.0
 10
5.4988601885
 20
3.3182859094
 30
0.0
 10
5.4698989706
 20
3.3073564707
 30
0.0
 10
5.4254044858
 20
3.2931239033
 30
0.0
 10
5.3797201274
 20
3.2809960998
 30
0.0
 10
5.3330470176
 20
3.2710199086
 30
0.0
 10
5.2855747424
 20
3.2632354702
 30
0.0
 10
5.2213829005
 20
3.2558036684
 30
0.0
 10
5.1403539615
 20
3.2521553866
 30
0.0
 10
5.0433256793
 20
3.2567816777
 30
0.0
 10
4.9479201194
 20
3.2703314374
 30
0.0
 10
4.8557174449
 20
3.2925965334
 30
0.0
 10
4.7682350537
 20
3.3232366407
 30
0.0
 10
4.6869094821
 20
3.3617955332
 30
0.0
 10
4.613091942
 20
3.4076984213
 30
0.0
 10
4.5582933343
 20
3.4519874867
 30
0.0
 10
4.5195739794
 20
3.4904429462
 30
0.0
 10
4.4934366935
 20
3.5203551786
 30
0.0
 10
4.4700400284
 20
3.5515069142
 30
0.0
 10
4.4494945037
 20
3.5837751459
 30
0.0
 10
4.431908808
 20
3.6170293072
 30
0.0
 10
4.4173728768
 20
3.6511262284
 30
0.0
 10
4.405976495
 20
3.6859150643
 30
0.0
 10
4.3991330611
 20
3.7154059404
 30
0.0
 10
4.3953033171
 20
3.7391440039
 30
0.0
 10
4.3925694121
 20
3.7629082516
 30
0.0
 10
4.3917428317
 20
3.7808396816
 30
0.0
 10
4.3917428317
 20
3.7927746008
 30
0.0
  0
SPLINE
  5
403
100
AcDbEntity
  8
ALL_ASSEMBLY_MEMBERS
100
AcDbSpline
 62
7
  6
CONTINUOUS
 70
0
 71
3
 72
25
 73
21
 74
0
 42
0.0000001
 43
0.0000001
 44
0.0000000001
 40
0.0
 40
0.0
 40
0.0
 40
0.0
 40
0.0562189653
 40
0.0843992902
 40
0.1126517259
 40
0.1694494838
 40
0.2268090847
 40
0.2557595294
 40
0.2849126277
 40
0.3438865326
 40
0.4038754347
 40
0.4649911252
 40
0.5273214039
 40
0.5909309942
 40
0.6558595387
 40
0.7221182697
 40
0.7896991014
 40
0.8585833531
 40
0.9287231909
 40
1.0
 40
1.0
 40
1.0
 40
1.0
 10
5.8917428317
 20
3.7927746008
 30
0.0
 10
5.8917428317
 20
3.7807970487
 30
0.0
 10
5.8909105483
 20
3.7628014577
 30
0.0
 10
5.888157344
 20
3.7389533532
 30
0.0
 10
5.88429977
 20
3.7151319526
 30
0.0
 10
5.8774082718
 20
3.6855396116
 30
0.0
 10
5.8678717943
 20
3.656536512
 30
0.0
 10
5.8586882795
 20
3.6337083819
 30
0.0
 10
5.84840021
 20
3.6109781264
 30
0.0
 10
5.8335854685
 20
3.5830713184
 30
0.0
 10
5.8128987981
 20
3.5507139216
 30
0.0
 10
5.789343925
 20
3.5194817441
 30
0.0
 10
5.7630320785
 20
3.4895036553
 30
0.0
 10
5.7340899784
 20
3.4608919281
 30
0.0
 10
5.7026453117
 20
3.4337598864
 30
0.0
 10
5.6688409673
 20
3.4082059405
 30
0.0
 10
5.6328184625
 20
3.3843293215
 30
0.0
 10
5.594729368
 20
3.3622164763
 30
0.0
 10
5.5547401851
 20
3.3419592418
 30
0.0
 10
5.5271409487
 20
3.3298314815
 30
0.0
 10
5.5130817659
 20
3.3240918441
 30
0.0
  0
SPLINE
  5
404
100
AcDbEntity
  8
ALL_ASSEMBLY_MEMBERS
100
AcDbSpline
 62
7
  6
CONTINUOUS
 70
0
 71
3
 72
25
 73
21
 74
0
 42
0.0000001
 43
0.0000001
 44
0.0000000001
 40
0.0
 40
0.0
 40
0.0
 40
0.0
 40
0.0562189653
 40
0.0843992902
 40
0.1126517259
 40
0.1694494838
 40
0.2268090847
 40
0.2557595294
 40
0.2849126277
 40
0.3438865326
 40
0.4038754347
 40
0.4649911252
 40
0.5273214039
 40
0.5909309942
 40
0.6558595387
 40
0.7221182697
 40
0.7896991014
 40
0.8585833531
 40
0.9287231909
 40
1.0
 40
1.0
 40
1.0
 40
1.0
 10
4.3917428317
 20
4.0165958619
 30
0.0
 10
4.3917428317
 20
4.0285734141
 30
0.0
 10
4.3925751152
 20
4.046569005
 30
0.0
 10
4.3953283195
 20
4.0704171095
 30
0.0
 10
4.3991858934
 20
4.0942385101
 30
0.0
 10
4.4060773916
 20
4.1238308512
 30
0.0
 10
4.4156138692
 20
4.1528339508
 30
0.0
 10
4.4247973839
 20
4.1756620809
 30
0.0
 10
4.4350854534
 20
4.1983923363
 30
0.0
 10
4.449900195
 20
4.2262991443
 30
0.0
 10
4.4705868653
 20
4.2586565412
 30
0.0
 10
4.4941417384
 20
4.2898887186
 30
0.0
 10
4.5204535849
 20
4.3198668074
 30
0.0
 10
4.5493956851
 20
4.3484785346
 30
0.0
 10
4.5808403517
 20
4.3756105764
 30
0.0
 10
4.6146446961
 20
4.4011645222
 30
0.0
 10
4.650667201
 20
4.4250411413
 30
0.0
 10
4.6887562954
 20
4.4471539865
 30
0.0
 10
4.7287454783
 20
4.467411221
 30
0.0
 10
4.7563447148
 20
4.4795389813
 30
0.0
 10
4.7704038975
 20
4.4852786186
 30
0.0
  0
SPLINE
  5
405
100
AcDbEntity
  8
ALL_ASSEMBLY_MEMBERS
100
AcDbSpline
 62
7
  6
CONTINUOUS
 70
0
 71
3
 72
9
 73
5
 74
0
 42
0.0000001
 43
0.0000001
 44
0.0000000001
 40
0.0
 40
0.0
 40
0.0
 40
0.0
 40
0.2452046431
 40
1.0
 40
1.0
 40
1.0
 40
1.0
 10
4.7704038975
 20
4.4852786186
 30
0.0
 10
4.7860983847
 20
4.4916858662
 30
0.0
 10
4.8508656414
 20
4.5159260674
 30
0.0
 10
4.918358573
 20
4.5327493198
 30
0.0
 10
4.9698150134
 20
4.5414211175
 30
0.0
  0
SPLINE
  5
406
100
AcDbEntity
  8
ALL_ASSEMBLY_MEMBERS
100
AcDbSpline
 62
7
  6
CONTINUOUS
 70
0
 71
3
 72
25
 73
21
 74
0
 42
0.0000001
 43
0.0000001
 44
0.0000000001
 40
0.0
 40
0.0
 40
0.0
 40
0.0
 40
0.1436391932
 40
0.2139687118
 40
0.2830381861
 40
0.3506997475
 40
0.4168392809
 40
0.48137949
 40
0.5442867599
 40
0.6055718674
 40
0.665294007
 40
0.7235610278
 40
0.7805292784
 40
0.8085967326
 40
0.8364176402
 40
0.8914246468
 40
0.9187005227
 40
0.9458651882
 40
0.9729532976
 40
1.0
 40
1.0
 40
1.0
 40
1.0
 10
5.3136086481
 20
4.5414312183
 30
0.0
 10
5.3535827279
 20
4.5346959409
 30
0.0
 10
5.4126225343
 20
4.5210555018
 30
0.0
 10
5.4883870809
 20
4.4956229668
 30
0.0
 10
5.5424710837
 20
4.4733673249
 30
0.0
 10
5.5938229288
 20
4.4479434994
 30
0.0
 10
5.6420984547
 20
4.4195086567
 30
0.0
 10
5.6869634763
 20
4.3882341075
 30
0.0
 10
5.7281088031
 20
4.3543134839
 30
0.0
 10
5.7652396477
 20
4.3179505235
 30
0.0
 10
5.7980832761
 20
4.2793685871
 30
0.0
 10
5.8263863198
 20
4.2388144236
 30
0.0
 10
5.84609251
 20
4.2034065213
 30
0.0
 10
5.8593098253
 20
4.1744128168
 30
0.0
 10
5.8707292841
 20
4.1452611642
 30
0.0
 10
5.8796491763
 20
4.1154135561
 30
0.0
 10
5.885917484
 20
4.0851546862
 30
0.0
 10
5.889274151
 20
4.0623779788
 30
0.0
 10
5.8912927527
 20
4.0395105425
 30
0.0
 10
5.8917428317
 20
4.0242289207
 30
0.0
 10
5.8917428317
 20
4.0165958619
 30
0.0
  0
SPLINE
  5
407
100
AcDbEntity
  8
ALL_ASSEMBLY_MEMBERS
100
AcDbSpline
 62
9
  6
CONTINUOUS
 70
0
 71
3
 72
43
 73
39
 74
0
 42
0.0000001
 43
0.0000001
 44
0.0000000001
 40
0.0
 40
0.0
 40
0.0
 40
0.0
 40
0.0658436245
 40
0.0973193082
 40
0.1126751219
 40
0.1277715226
 40
0.1571845733
 40
0.1856152342
 40
0.2131553715
 40
0.2399407003
 40
0.2531114244
 40
0.2661631447
 40
0.2791233369
 40
0.2920208375
 40
0.3177329981
 40
0.3435581533
 40
0.3565948803
 40
0.3697468512
 40
0.3830398231
 40
0.3964976068
 40
0.4239780843
 40
0.4523409875
 40
0.4816809093
 40
0.5120483424
 40
0.5434517925
 40
0.5758611638
 40
0.6092127698
 40
0.6434139687
 40
0.6783474512
 40
0.7138761072
 40
0.7498477361
 40
0.7860990078
 40
0.8224595418
 40
0.8587571818
 40
0.8948203321
 40
0.9304812841
 40
0.9655936608
 40
1.0
 40
1.0
 40
1.0
 40
1.0
 10
4.9260634864
 20
4.2968362449
 30
0.0
 10
4.9034475612
 20
4.2871907316
 30
0.0
 10
4.8710119359
 20
4.2703043238
 30
0.0
 10
4.8366105997
 20
4.2459930331
 30
0.0
 10
4.8187249671
 20
4.2313198461
 30
0.0
 10
4.8021545297
 20
4.2163043793
 30
0.0
 10
4.7833759262
 20
4.1965013261
 30
0.0
 10
4.7640459336
 20
4.1710614448
 30
0.0
 10
4.7483022823
 20
4.1443858188
 30
0.0
 10
4.7382474811
 20
4.1211925739
 30
0.0
 10
4.7321914529
 20
4.1023350897
 30
0.0
 10
4.7286498617
 20
4.0881272972
 30
0.0
 10
4.726092421
 20
4.0738130513
 30
0.0
 10
4.7240077095
 20
4.0546566736
 30
0.0
 10
4.7238838776
 20
4.0305142348
 30
0.0
 10
4.7271008304
 20
4.0065360226
 30
0.0
 10
4.7316187318
 20
3.987633771
 30
0.0
 10
4.7359969641
 20
3.973544204
 30
0.0
 10
4.7413411426
 20
3.9596240126
 30
0.0
 10
4.7497953178
 20
3.9412097393
 30
0.0
 10
4.7627864293
 20
3.918748449
 30
0.0
 10
4.781863835
 20
3.8932132685
 30
0.0
 10
4.8043522804
 20
3.8691325327
 30
0.0
 10
4.8300323245
 20
3.8467318414
 30
0.0
 10
4.8586587384
 20
3.8262171823
 30
0.0
 10
4.8899586373
 20
3.807777158
 30
0.0
 10
4.9236358014
 20
3.7915819527
 30
0.0
 10
4.9593725176
 20
3.7777825557
 30
0.0
 10
4.9968313626
 20
3.7665073785
 30
0.0
 10
5.0356585431
 20
3.7578608825
 30
0.0
 10
5.0754876609
 20
3.751924177
 30
0.0
 10
5.1159426265
 20
3.7487537513
 30
0.0
 10
5.1566413115
 20
3.7483782476
 30
0.0
 10
5.1971994089
 20
3.7508013563
 30
0.0
 10
5.2372327577
 20
3.7560009334
 30
0.0
 10
5.2763669139
 20
3.7639275675
 30
0.0
 10
5.3142254351
 20
3.7745081346
 30
0.0
 10
5.3386594713
 20
3.7833650318
 30
0.0
 10
5.3505542192
 20
3.7882210423
 30
0.0
  0
SPLINE
  5
408
100
AcDbEntity
  8
ALL_ASSEMBLY_MEMBERS
100
AcDbSpline
 62
9
  6
CONTINUOUS
 70
0
 71
3
 72
37
 73
33
 74
0
 42
0.0000001
 43
0.0000001
 44
0.0000000001
 40
0.0
 40
0.0
 40
0.0
 40
0.0
 40
0.0718688741
 40
0.1068178536
 40
0.1410528721
 40
0.1745500838
 40
0.2072982905
 40
0.239297801
 40
0.2705634355
 40
0.3011231247
 40
0.331020427
 40
0.3603126844
 40
0.3890725124
 40
0.4173852565
 40
0.4453489124
 40
0.4730707619
 40
0.500665507
 40
0.5282514106
 40
0.5559470632
 40
0.5838678833
 40
0.6121224372
 40
0.6408102718
 40
0.6700186918
 40
0.6998223554
 40
0.7302807162
 40
0.7614394426
 40
0.7933290205
 40
0.8259664679
 40
0.8593525278
 40
0.9282938686
 40
0.9638332932
 40
1.0
 40
1.0
 40
1.0
 40
1.0
 10
5.3574036686
 20
4.3079867324
 30
0.0
 10
5.3738609214
 20
4.3014186584
 30
0.0
 10
5.3978463051
 20
4.2903731931
 30
0.0
 10
5.4280849308
 20
4.2731668723
 30
0.0
 10
5.4493260505
 20
4.2593624823
 30
0.0
 10
5.4692401668
 20
4.2445988023
 30
0.0
 10
5.4877442797
 20
4.228940416
 30
0.0
 10
5.5047559202
 20
4.2124517649
 30
0.0
 10
5.5202033474
 20
4.1952053853
 30
0.0
 10
5.5340166123
 20
4.1772725421
 30
0.0
 10
5.5461375438
 20
4.158731978
 30
0.0
 10
5.5565094492
 20
4.1396612101
 30
0.0
 10
5.5650888827
 20
4.1201441641
 30
0.0
 10
5.5718335853
 20
4.1002639281
 30
0.0
 10
5.5767160667
 20
4.0801085123
 30
0.0
 10
5.5797099913
 20
4.0597655556
 30
0.0
 10
5.5808051049
 20
4.0393255017
 30
0.0
 10
5.5799924112
 20
4.0188787079
 30
0.0
 10
5.5772795961
 20
3.9985156434
 30
0.0
 10
5.5726755514
 20
3.9783268434
 30
0.0
 10
5.5662054491
 20
3.9584002144
 30
0.0
 10
5.5578954485
 20
3.9388240311
 30
0.0
 10
5.5477867816
 20
3.9196817196
 30
0.0
 10
5.5359216079
 20
3.9010576372
 30
0.0
 10
5.5223558398
 20
3.8830296499
 30
0.0
 10
5.5071463556
 20
3.8656769059
 30
0.0
 10
5.4903623245
 20
3.8490712433
 30
0.0
 10
5.4720736014
 20
3.8332853794
 30
0.0
 10
5.4455147144
 20
3.8132073108
 30
0.0
 10
5.4165150977
 20
3.7952898602
 30
0.0
 10
5.3855695754
 20
3.7796171253
 30
0.0
 10
5.3693733863
 20
3.7725009752
 30
0.0
 10
5.3611178317
 20
3.7691306592
 30
0.0
  0
SPLINE
  5
409
100
AcDbEntity
  8
ALL_ASSEMBLY_MEMBERS
100
AcDbSpline
 62
9
  6
CONTINUOUS
 70
0
 71
3
 72
44
 73
40
 74
0
 42
0.0000001
 43
0.0000001
 44
0.0000000001
 40
0.0
 40
0.0
 40
0.0
 40
0.0
 40
0.0335646962
 40
0.066210465
 40
0.0978523249
 40
0.1132905546
 40
0.1284678752
 40
0.1580348944
 40
0.1866032538
 40
0.2142584646
 40
0.2411310265
 40
0.2543336172
 40
0.2674089816
 40
0.2803843094
 40
0.2932885123
 40
0.3061516785
 40
0.319004508
 40
0.331877971
 40
0.3448025736
 40
0.3709081988
 40
0.3975564518
 40
0.4249339693
 40
0.4531862575
 40
0.4824138138
 40
0.5126716642
 40
0.5439718858
 40
0.5762873835
 40
0.6095562318
 40
0.6436863192
 40
0.6785605053
 40
0.7140413047
 40
0.7499752999
 40
0.7861976175
 40
0.8225362542
 40
0.8588167649
 40
0.8948659412
 40
0.9305137696
 40
0.9656104292
 40
1.0
 40
1.0
 40
1.0
 40
1.0
 10
4.9223678317
 20
4.3064874715
 30
0.0
 10
4.9100953698
 20
4.3014772599
 30
0.0
 10
4.8862604451
 20
4.2906405452
 30
0.0
 10
4.8524966832
 20
4.2717501627
 30
0.0
 10
4.8264459918
 20
4.2539786676
 30
0.0
 10
4.8071691121
 20
4.238702176
 30
0.0
 10
4.7892786519
 20
4.2230425585
 30
0.0
 10
4.7689486311
 20
4.2023474947
 30
0.0
 10
4.7479184088
 20
4.1756927787
 30
0.0
 10
4.7306723874
 20
4.1476823114
 30
0.0
 10
4.7195336515
 20
4.123275648
 30
0.0
 10
4.7127315913
 20
4.1034037817
 30
0.0
 10
4.7086926082
 20
4.0884243232
 30
0.0
 10
4.7056989844
 20
4.0733217957
 30
0.0
 10
4.7037588862
 20
4.0581323342
 30
0.0
 10
4.7028751338
 20
4.0428933311
 30
0.0
 10
4.703052041
 20
4.0276419831
 30
0.0
 10
4.7042885294
 20
4.0124149409
 30
0.0
 10
4.7073528205
 20
3.9921331294
 30
0.0
 10
4.7138661397
 20
3.966936564
 30
0.0
 10
4.7257959961
 20
3.9375321072
 30
0.0
 10
4.7417394448
 20
3.9091242458
 30
0.0
 10
4.7615305087
 20
3.8819882628
 30
0.0
 10
4.784970087
 20
3.856378734
 30
0.0
 10
4.8118264563
 20
3.8325346245
 30
0.0
 10
4.8418386896
 20
3.8106777446
 30
0.0
 10
4.8747180734
 20
3.791012075
 30
0.0
 10
4.9101498097
 20
3.7737220541
 30
0.0
 10
4.9477947844
 20
3.7589694438
 30
0.0
 10
4.9872932984
 20
3.7468929939
 30
0.0
 10
5.0282681277
 20
3.7376069055
 30
0.0
 10
5.0703278273
 20
3.7311995571
 30
0.0
 10
5.1130702238
 20
3.7277312326
 30
0.0
 10
5.1560867381
 20
3.7272344942
 30
0.0
 10
5.1989663431
 20
3.7297143635
 30
0.0
 10
5.2412978903
 20
3.7351481027
 30
0.0
 10
5.2826802229
 20
3.7434826204
 30
0.0
 10
5.3227111738
 20
3.7546404108
 30
0.0
 10
5.348543766
 20
3.7639973184
 30
0.0
 10
5.3611178317
 20
3.7691306592
 30
0.0
  0
SPLINE
  5
40A
100
AcDbEntity
  8
ALL_ASSEMBLY_MEMBERS
100
AcDbSpline
 62
9
  6
CONTINUOUS
 70
0
 71
3
 72
9
 73
5
 74
0
 42
0.0000001
 43
0.0000001
 44
0.0000000001
 40
0.0
 40
0.0
 40
0.0
 40
0.0
 40
0.2451756759
 40
1.0
 40
1.0
 40
1.0
 40
1.0
 10
4.7817428317
 20
4.4787172191
 30
0.0
 10
4.7957160786
 20
4.4844217732
 30
0.0
 10
4.8533342825
 20
4.5061384779
 30
0.0
 10
4.91321428
 20
4.5217538199
 30
0.0
 10
4.9589000059
 20
4.5302357312
 30
0.0
  0
SPLINE
  5
40B
100
AcDbEntity
  8
ALL_ASSEMBLY_MEMBERS
100
AcDbSpline
 62
9
  6
CONTINUOUS
 70
0
 71
3
 72
38
 73
34
 74
0
 42
0.0000001
 43
0.0000001
 44
0.0000000001
 40
0.0
 40
0.0
 40
0.0
 40
0.0
 40
0.0742296303
 40
0.110606897
 40
0.1463764159
 40
0.1814696738
 40
0.2158291845
 40
0.2494103601
 40
0.2821829449
 40
0.3141325006
 40
0.345262172
 40
0.3755939604
 40
0.4051695406
 40
0.4340509229
 40
0.4623204293
 40
0.4900794454
 40
0.5174463396
 40
0.5445533713
 40
0.5715423147
 40
0.5985593554
 40
0.6257496101
 40
0.6532517339
 40
0.6811931557
 40
0.7096861237
 40
0.7388247963
 40
0.7686837848
 40
0.7993174226
 40
0.8307595825
 40
0.8630251395
 40
0.8961101038
 40
0.9299926984
 40
0.9646426368
 40
1.0
 40
1.0
 40
1.0
 40
1.0
 10
5.324546475
 20
4.5302430757
 30
0.0
 10
5.3584110417
 20
4.5239573355
 30
0.0
 10
5.4084371716
 20
4.511892165
 30
0.0
 10
5.4728948025
 20
4.4904005048
 30
0.0
 10
5.5191323477
 20
4.4719273593
 30
0.0
 10
5.563322373
 20
4.4510954608
 30
0.0
 10
5.6052282568
 20
4.4280151972
 30
0.0
 10
5.6446221847
 20
4.4028110287
 30
0.0
 10
5.681290554
 20
4.3756178147
 30
0.0
 10
5.7150332975
 20
4.3465803733
 30
0.0
 10
5.7456662268
 20
4.3158540425
 30
0.0
 10
5.7730214249
 20
4.2836032882
 30
0.0
 10
5.7969470887
 20
4.250000438
 30
0.0
 10
5.8173089538
 20
4.2152259326
 30
0.0
 10
5.8339921235
 20
4.1794681745
 30
0.0
 10
5.8469003924
 20
4.1429219571
 30
0.0
 10
5.8559573088
 20
4.1057882078
 30
0.0
 10
5.8611096038
 20
4.0682734649
 30
0.0
 10
5.8623265481
 20
4.0305876106
 30
0.0
 10
5.8596000336
 20
3.9929423047
 30
0.0
 10
5.8529466465
 20
3.9555489355
 30
0.0
 10
5.8424069473
 20
3.9186161168
 30
0.0
 10
5.8280429321
 20
3.8823483258
 30
0.0
 10
5.80993778
 20
3.8469447107
 30
0.0
 10
5.7881959717
 20
3.812597286
 30
0.0
 10
5.7629401166
 20
3.7794911993
 30
0.0
 10
5.7343103901
 20
3.7478045645
 30
0.0
 10
5.7024652451
 20
3.7177063976
 30
0.0
 10
5.6675791922
 20
3.6893574489
 30
0.0
 10
5.6298428648
 20
3.6629098008
 30
0.0
 10
5.5894595842
 20
3.638502989
 30
0.0
 10
5.546651987
 20
3.6162713784
 30
0.0
 10
5.5169318601
 20
3.6031018066
 30
0.0
 10
5.5017428317
 20
3.5969009117
 30
0.0
  0
SPLINE
  5
40C
100
AcDbEntity
  8
ALL_ASSEMBLY_MEMBERS
100
AcDbSpline
 62
9
  6
CONTINUOUS
 70
0
 71
3
 72
22
 73
18
 74
0
 42
0.0000001
 43
0.0000001
 44
0.0000000001
 40
0.0
 40
0.0
 40
0.0
 40
0.0
 40
0.0719946258
 40
0.1428174587
 40
0.2804609955
 40
0.3472420514
 40
0.4126156274
 40
0.476576147
 40
0.5391429898
 40
0.6003617306
 40
0.6603014598
 40
0.7190569126
 40
0.7767459081
 40
0.8335118694
 40
0.889518246
 40
0.9449485735
 40
1.0
 40
1.0
 40
1.0
 40
1.0
 10
5.5167428317
 20
3.333495274
 30
0.0
 10
5.5301212765
 20
3.3389570013
 30
0.0
 10
5.5563958748
 20
3.350458737
 30
0.0
 10
5.6067391623
 20
3.3756820593
 30
0.0
 10
5.6541177446
 20
3.4043671418
 30
0.0
 10
5.6978145994
 20
3.4363964838
 30
0.0
 10
5.728113035
 20
3.4615667118
 30
0.0
 10
5.7561408446
 20
3.4880258127
 30
0.0
 10
5.7817881919
 20
3.5156741081
 30
0.0
 10
5.8049566885
 20
3.5444031589
 30
0.0
 10
5.8255519689
 20
3.5741055865
 30
0.0
 10
5.8434970737
 20
3.604663861
 30
0.0
 10
5.8587143934
 20
3.6359634683
 30
0.0
 10
5.8711488462
 20
3.6678794326
 30
0.0
 10
5.8807433651
 20
3.7002908164
 30
0.0
 10
5.8874640717
 20
3.7330649581
 30
0.0
 10
5.8900132092
 20
3.7551271271
 30
0.0
 10
5.8907964962
 20
3.7661489539
 30
0.0
  0
SPLINE
  5
40D
100
AcDbEntity
  8
ALL_ASSEMBLY_MEMBERS
100
AcDbSpline
 62
9
  6
CONTINUOUS
 70
0
 71
3
 72
33
 73
29
 74
0
 42
0.0000001
 43
0.0000001
 44
0.0000000001
 40
0.0
 40
0.0
 40
0.0
 40
0.0
 40
0.0248615923
 40
0.0498289754
 40
0.0750047735
 40
0.1004856438
 40
0.126359713
 40
0.1527045077
 40
0.1795858049
 40
0.2070565709
 40
0.2351566018
 40
0.2639128722
 40
0.2933395519
 40
0.3234387724
 40
0.354201568
 40
0.3856083303
 40
0.4502049285
 40
0.4833360439
 40
0.5169471746
 40
0.5853526242
 40
0.6549250056
 40
0.7250937988
 40
0.7602251988
 40
0.7952814591
 40
0.8648540486
 40
0.8992462898
 40
0.9332787218
 40
1.0
 40
1.0
 40
1.0
 40
1.0
 10
4.3917429949
 20
4.0165958619
 30
0.0
 10
4.3917431004
 20
4.00502173
 30
0.0
 10
4.3928192984
 20
3.9818099653
 30
0.0
 10
4.397653791
 20
3.947181176
 30
0.0
 10
4.405685392
 20
3.9128535337
 30
0.0
 10
4.4168777086
 20
3.8789804255
 30
0.0
 10
4.4311803519
 20
3.845707664
 30
0.0
 10
4.448527852
 20
3.8131780428
 30
0.0
 10
4.4688437505
 20
3.7815307192
 30
0.0
 10
4.4920387049
 20
3.7509003942
 30
0.0
 10
4.5180107501
 20
3.7214161297
 30
0.0
 10
4.5466480535
 20
3.6932031464
 30
0.0
 10
4.5778270225
 20
3.6663803034
 30
0.0
 10
4.6114129609
 20
3.6410604944
 30
0.0
 10
4.6472642562
 20
3.6173504999
 30
0.0
 10
4.6983477333
 20
3.5877461723
 30
0.0
 10
4.7528839437
 20
3.5621091381
 30
0.0
 10
4.8101058011
 20
3.5405080395
 30
0.0
 10
4.8700529977
 20
3.5213240428
 30
0.0
 10
4.947882981
 20
3.5027269795
 30
0.0
 10
5.043982113
 20
3.489269545
 30
0.0
 10
5.125433156
 20
3.4855103801
 30
0.0
 10
5.1907780288
 20
3.4870216952
 30
0.0
 10
5.2557036735
 20
3.4915380857
 30
0.0
 10
5.3199111939
 20
3.5005301341
 30
0.0
 10
5.382750564
 20
3.5139936989
 30
0.0
 10
5.4435713282
 20
3.5301614224
 30
0.0
 10
5.4879853766
 20
3.5455763533
 30
0.0
 10
5.5167428317
 20
3.5573165351
 30
0.0
  0
SPLINE
  5
40E
100
AcDbEntity
  8
ALL_ASSEMBLY_MEMBERS
100
AcDbSpline
 62
9
  6
CONTINUOUS
 70
0
 71
3
 72
35
 73
31
 74
0
 42
0.0000001
 43
0.0000001
 44
0.0000000001
 40
0.0
 40
0.0
 40
0.0
 40
0.0
 40
0.0714900892
 40
0.1062364421
 40
0.1402662449
 40
0.2060793529
 40
0.2378957348
 40
0.2689941819
 40
0.2994075179
 40
0.3291819849
 40
0.3583787447
 40
0.3870717924
 40
0.4153485423
 40
0.443306733
 40
0.4710534715
 40
0.498701477
 40
0.5263666078
 40
0.5541640867
 40
0.5822053377
 40
0.6105949027
 40
0.6394278091
 40
0.6687875064
 40
0.6987445111
 40
0.729355151
 40
0.7926557139
 40
0.8254275988
 40
0.858938711
 40
0.9281059592
 40
0.963744404
 40
1.0
 40
1.0
 40
1.0
 40
1.0
 10
5.357422188
 20
4.2968362662
 30
0.0
 10
5.3726072609
 20
4.2903608106
 30
0.0
 10
5.3947018865
 20
4.2795528144
 30
0.0
 10
5.4224805811
 20
4.2628672786
 30
0.0
 10
5.4481406389
 20
4.2453095082
 30
0.0
 10
5.4716341519
 20
4.2258540662
 30
0.0
 10
5.4924834338
 20
4.2046393381
 30
0.0
 10
5.5064760859
 20
4.1882231821
 30
0.0
 10
5.518937956
 20
4.1711972257
 30
0.0
 10
5.529813845
 20
4.1536295469
 30
0.0
 10
5.5390595724
 20
4.135595713
 30
0.0
 10
5.5466311822
 20
4.1171695129
 30
0.0
 10
5.5524990413
 20
4.0984304486
 30
0.0
 10
5.5566328079
 20
4.0794568701
 30
0.0
 10
5.5590179185
 20
4.0603309222
 30
0.0
 10
5.5596395025
 20
4.041134258
 30
0.0
 10
5.5584984544
 20
4.0219497887
 30
0.0
 10
5.5555966554
 20
4.0028602703
 30
0.0
 10
5.5509501161
 20
3.9839473198
 30
0.0
 10
5.5445775795
 20
3.9652921971
 30
0.0
 10
5.5365090047
 20
3.9469735507
 30
0.0
 10
5.5267792123
 20
3.9290692282
 30
0.0
 10
5.5154301231
 20
3.9116531738
 30
0.0
 10
5.4980170581
 20
3.888933531
 30
0.0
 10
5.4776838713
 20
3.867744095
 30
0.0
 10
5.4549239136
 20
3.8482960634
 30
0.0
 10
5.4298861596
 20
3.8295198286
 30
0.0
 10
5.4026004224
 20
3.812750821
 30
0.0
 10
5.3735158324
 20
3.7980621345
 30
0.0
 10
5.3583051415
 20
3.7913853431
 30
0.0
 10
5.3505542192
 20
3.7882210423
 30
0.0
  0
SPLINE
  5
40F
100
AcDbEntity
  8
ALL_ASSEMBLY_MEMBERS
100
AcDbSpline
 62
9
  6
CONTINUOUS
 70
0
 71
3
 72
47
 73
43
 74
0
 42
0.0000001
 43
0.0000001
 44
0.0000000001
 40
0.0
 40
0.0
 40
0.0
 40
0.0
 40
0.0335656213
 40
0.0662063613
 40
0.0978482051
 40
0.1284528957
 40
0.1580185124
 40
0.1865856922
 40
0.2005257757
 40
0.2142520192
 40
0.2277822547
 40
0.2411368586
 40
0.2543389128
 40
0.2674136426
 40
0.2803883944
 40
0.2932920103
 40
0.3061545855
 40
0.3190068384
 40
0.3318797039
 40
0.3448037373
 40
0.3578086792
 40
0.3709229043
 40
0.3841731128
 40
0.3975838139
 40
0.4249601293
 40
0.453211164
 40
0.4824373383
 40
0.512693801
 40
0.5439926605
 40
0.5763067235
 40
0.6095740043
 40
0.6437025291
 40
0.678575166
 40
0.7140543521
 40
0.7499866779
 40
0.78620732
 40
0.8225444031
 40
0.858823154
 40
0.8948704431
 40
0.9305181442
 40
0.9656096127
 40
1.0
 40
1.0
 40
1.0
 40
1.0
 10
4.7817428317
 20
4.4787172191
 30
0.0
 10
4.7616019311
 20
4.4704947308
 30
0.0
 10
4.7224888675
 20
4.4527129806
 30
0.0
 10
4.6670801537
 20
4.4217102745
 30
0.0
 10
4.6162052256
 20
4.3870053852
 30
0.0
 10
4.570356797
 20
4.3489238587
 30
0.0
 10
4.5299803235
 20
4.3078241946
 30
0.0
 10
4.5009796598
 20
4.271066176
 30
0.0
 10
4.4809903662
 20
4.2405688233
 30
0.0
 10
4.4677097161
 20
4.2173858862
 30
0.0
 10
4.4560527385
 20
4.1937679095
 30
0.0
 10
4.446049675
 20
4.1697700535
 30
0.0
 10
4.437723223
 20
4.1454514389
 30
0.0
 10
4.4310964624
 20
4.1208700676
 30
0.0
 10
4.4261836758
 20
4.0960863365
 30
0.0
 10
4.422999407
 20
4.071160108
 30
0.0
 10
4.4215497582
 20
4.0461525048
 30
0.0
 10
4.4218399909
 20
4.0211244709
 30
0.0
 10
4.4238681856
 20
3.9961372096
 30
0.0
 10
4.4276299374
 20
3.9712517592
 30
0.0
 10
4.4331155437
 20
3.9465287672
 30
0.0
 10
4.4403108502
 20
3.92202851
 30
0.0
 10
4.4491991107
 20
3.897809811
 30
0.0
 10
4.463369115
 20
3.8657593388
 30
0.0
 10
4.4853277925
 20
3.8266312347
 30
0.0
 10
4.5178044456
 20
3.7821040099
 30
0.0
 10
4.556269418
 20
3.740076877
 30
0.0
 10
4.6003411803
 20
3.7009481631
 30
0.0
 10
4.6495923029
 20
3.6650805859
 30
0.0
 10
4.7035484522
 20
3.6328090962
 30
0.0
 10
4.76169266
 20
3.6044353875
 30
0.0
 10
4.823468967
 20
3.5802257898
 30
0.0
 10
4.8882871566
 20
3.5604082524
 30
0.0
 10
4.955527991
 20
3.545169899
 30
0.0
 10
5.0245489488
 20
3.5346549404
 30
0.0
 10
5.0946903422
 20
3.5289630086
 30
0.0
 10
5.1652815581
 20
3.5281481671
 30
0.0
 10
5.2356478876
 20
3.5322180305
 30
0.0
 10
5.3051159282
 20
3.5411341431
 30
0.0
 10
5.373023695
 20
3.5548120473
 30
0.0
 10
5.4387161271
 20
3.5731207788
 30
0.0
 10
5.4811070339
 20
3.5884763825
 30
0.0
 10
5.5017428317
 20
3.5969009117
 30
0.0
  0
SPLINE
  5
410
100
AcDbEntity
  8
ALL_ASSEMBLY_MEMBERS
100
AcDbSpline
 62
9
  6
CONTINUOUS
 70
0
 71
3
 72
21
 73
17
 74
0
 42
0.0000001
 43
0.0000001
 44
0.0000000001
 40
0.0
 40
0.0
 40
0.0
 40
0.0
 40
0.0552266173
 40
0.1106882243
 40
0.1666128881
 40
0.2232151463
 40
0.2806907989
 40
0.3392122801
 40
0.3989253465
 40
0.4599478589
 40
0.5223684183
 40
0.586246363
 40
0.7184068566
 40
0.7867413563
 40
0.8565054174
 40
1.0
 40
1.0
 40
1.0
 40
1.0
 10
5.8917426685
 20
4.0165958619
 30
0.0
 10
5.891742774
 20
4.0050217341
 30
0.0
 10
5.8906659006
 20
3.9818100116
 30
0.0
 10
5.8858322847
 20
3.9471811171
 30
0.0
 10
5.8778001271
 20
3.9128535656
 30
0.0
 10
5.8666077857
 20
3.8789805116
 30
0.0
 10
5.8523056263
 20
3.8457075096
 30
0.0
 10
5.834957618
 20
3.813178179
 30
0.0
 10
5.8146418337
 20
3.7815307068
 30
0.0
 10
5.7914473921
 20
3.7509003985
 30
0.0
 10
5.7654738411
 20
3.721415623
 30
0.0
 10
5.7268627751
 20
3.6833751675
 30
0.0
 10
5.6834861126
 20
3.648608494
 30
0.0
 10
5.6362230853
 20
3.6173515853
 30
0.0
 10
5.5851394919
 20
3.5877463231
 30
0.0
 10
5.5445849287
 20
3.5686830237
 30
0.0
 10
5.5167428317
 20
3.5573165351
 30
0.0
  0
SPLINE
  5
411
100
AcDbEntity
  8
ALL_ASSEMBLY_MEMBERS
100
AcDbSpline
 62
9
  6
CONTINUOUS
 70
0
 71
3
 72
34
 73
30
 74
0
 42
0.0000001
 43
0.0000001
 44
0.0000000001
 40
0.0
 40
0.0
 40
0.0
 40
0.0
 40
0.0248612256
 40
0.0498283007
 40
0.0750037793
 40
0.1004845376
 40
0.1263582542
 40
0.1527028454
 40
0.1795837001
 40
0.2070543586
 40
0.2351540566
 40
0.263910095
 40
0.2933362687
 40
0.3234353906
 40
0.3855771068
 40
0.4501729682
 40
0.516892649
 40
0.5852972908
 40
0.6548690614
 40
0.6899250047
 40
0.7250558712
 40
0.7601868564
 40
0.7952431197
 40
0.8301501366
 40
0.8648336
 40
0.89922359
 40
0.9332593443
 40
0.9668778299
 40
1.0
 40
1.0
 40
1.0
 40
1.0
 10
4.3917433527
 20
3.7927746008
 30
0.0
 10
4.391743079
 20
3.7812005155
 30
0.0
 10
4.3928194429
 20
3.7579887772
 30
0.0
 10
4.3976544047
 20
3.7233602044
 30
0.0
 10
4.4056849085
 20
3.6890322214
 30
0.0
 10
4.4168788547
 20
3.6551596656
 30
0.0
 10
4.4311796343
 20
3.6218860147
 30
0.0
 10
4.4485288208
 20
3.5893573552
 30
0.0
 10
4.4688433099
 20
3.5577090848
 30
0.0
 10
4.4920394914
 20
3.5270796873
 30
0.0
 10
4.5180105108
 20
3.4975943126
 30
0.0
 10
4.5466487281
 20
3.4693826523
 30
0.0
 10
4.5778272662
 20
3.4425579677
 30
0.0
 10
4.6230837805
 20
3.4084426556
 30
0.0
 10
4.6853899281
 20
3.3700146509
 30
0.0
 10
4.7670531221
 20
3.3316278734
 30
0.0
 10
4.8550481134
 20
3.3010883901
 30
0.0
 10
4.9478771103
 20
3.278907043
 30
0.0
 10
5.0277817291
 20
3.2677170984
 30
0.0
 10
5.0927078528
 20
3.2632007056
 30
0.0
 10
5.1417436295
 20
3.2620661886
 30
0.0
 10
5.1907783437
 20
3.2632007584
 30
0.0
 10
5.2396044636
 20
3.2665967777
 30
0.0
 10
5.2880120931
 20
3.2722433935
 30
0.0
 10
5.335794718
 20
3.2801113112
 30
0.0
 10
5.3827497434
 20
3.2901723556
 30
0.0
 10
5.4286807242
 20
3.3023816938
 30
0.0
 10
5.4733818769
 20
3.3166893963
 30
0.0
 10
5.5024667333
 20
3.3276670813
 30
0.0
 10
5.5167428317
 20
3.333495274
 30
0.0
  0
ELLIPSE
  5
412
100
AcDbEntity
  8
ALL_ASSEMBLY_MEMBERS
100
AcDbEllipse
 62
7
  6
CONTINUOUS
 10
5.1417428317
 20
4.4944232693
 30
0.0
 11
0.1696112706
 21
0.0604484322
 31
0.0
 40
0.084133201
 41
4.9269927592
 42
5.4850315861
  0
ENDSEC
  0
SECTION
  2
OBJECTS
  0
DICTIONARY
  5
C
100
AcDbDictionary
280
0
281
1
  3
ACAD_GROUP
350
D
  3
ACAD_MLINESTYLE
350
17
  3
ACAD_LAYOUT
350
1A
  3
ACAD_PLOTSETTINGS
350
19
  3
ACAD_PLOTSTYLENAME
350
E
  0
DICTIONARY
  5
D
102
{ACAD_REACTORS
330
C
102
}
100
AcDbDictionary
280
0
281
1
  0
ACDBDICTIONARYWDFLT
  5
E
102
{ACAD_REACTORS
330
C
102
}
100
AcDbDictionary
281
1
  3
Normal
350
F
100
AcDbDictionaryWithDefault
340
F
  0
DICTIONARY
  5
17
102
{ACAD_REACTORS
330
C
102
}
100
AcDbDictionary
280
0
281
1
  3
Standard
350
18
  0
DICTIONARY
  5
19
102
{ACAD_REACTORS
330
C
102
}
100
AcDbDictionary
281
1
  0
DICTIONARY
  5
1A
102
{ACAD_REACTORS
330
C
102
}
100
AcDbDictionary
281
1
  3
Model
350
413
  3
Layout1
350
414
  0
ACDBPLACEHOLDER
  5
F
102
{ACAD_REACTORS
330
E
102
}
  0
MLINESTYLE
  5
18
102
{ACAD_REACTORS
330
17
102
}
100
AcDbMlineStyle
  2
STANDARD
 70
0
  3

 62
256
 51
90.0
 52
90.0
 71
2
 49
0.5
 62
256
  6
BYLAYER
 49
-0.5
 62
256
  6
BYLAYER
  0
LAYOUT
  5
413
102
{ACAD_REACTORS
330
1A
102
}
100
AcDbPlotSettings
  1

  2
none_device
  4
ANSI_A_(11.00_x_8.50_Inches)
  6

 40
0.0
 41
0.0
 42
0.0
 43
0.0
 44
279.4
 45
215.9
 46
0.0
 47
0.0
 48
0.0
 49
0.0
140
0.0
141
0.0
142
1.0
143
1.0
 70
1024
 72
0
 73
0
 74
0
  7

 75
0
147
1.0
148
0.0
149
0.0
100
AcDbLayout
  1
Model
 70
0
 71
0
 10
0.0
 20
0.0
 11
11.0
 21
8.5
 12
0.0
 22
0.0
 32
0.0
 14
0.0
 24
0.0
 34
0.0
 15
0.0
 25
0.0
 35
0.0
146
0.0
 13
0.0
 23
0.0
 33
0.0
 16
1.0
 26
0.0
 36
0.0
 17
0.0
 27
1.0
 37
0.0
 76
0
330
253
345
0
346
0
  0
LAYOUT
  5
414
102
{ACAD_REACTORS
330
1A
102
}
100
AcDbPlotSettings
  1

  2
none_device
  4
ANSI_A_(11.00_x_8.50_Inches)
  6

 40
0.0
 41
0.0
 42
0.0
 43
0.0
 44
279.4
 45
215.9
 46
0.0
 47
0.0
 48
0.0
 49
0.0
140
0.0
141
0.0
142
1.0
143
1.0
 70
0
 72
0
 73
0
 74
0
  7

 75
0
147
1.0
148
0.0
149
0.0
100
AcDbLayout
  1
Layout1
 70
0
 71
1
 10
0.0
 20
0.0
 11
11.0
 21
8.5
 12
0.0
 22
0.0
 32
0.0
 14
0.0
 24
0.0
 34
0.0
 15
0.0
 25
0.0
 35
0.0
146
0.0
 13
0.0
 23
0.0
 33
0.0
 16
1.0
 26
0.0
 36
0.0
 17
0.0
 27
1.0
 37
0.0
 76
0
330
254
345
0
346
0
  0
ENDSEC
  0
EOF
