999
DXF file: 3-1201_FRONT.dxf
999
Pro/ENGINEER 2018400 by Parametric Technology Corporation
  0
SECTION
  2
HEADER
  9
$ACADVER
  1
AC1027
  9
$DWGCODEPAGE
  3
ANSI_1252
  9
$EXTMAX
 10
11.0
 20
8.5
 30
0.0
  9
$EXTMIN
 10
0.0
 20
0.0
 30
0.0
  9
$LIMMIN
 10
0.0
 20
0.0
  9
$LIMMAX
 10
11.0
 20
8.5
  9
$VIEWCTR
 10
5.5
 20
4.25
  9
$VIEWSIZE
 40
8.5
  9
$CLAYER
  8
0
  9
$LTSCALE
 40
0.605
  9
$CELTYPE
  6
BYLAYER
  9
$DIMSCALE
 40
1.0
  9
$DIMASZ
 40
0.1
  9
$DIMEXO
 40
0.0625
  9
$DIMDLI
 40
0.418
  9
$DIMEXE
 40
0.125
  9
$DIMCEN
 40
0.099
  9
$DIMLFAC
 40
1.0
  9
$DIMBLK
  1
_FILLED
  9
$DIMALT
 70
1
  9
$DIMALTD
 70
2
  9
$DIMALTTD
 70
2
  9
$DIMALTF
 40
25.4
  9
$DIMTXT
 40
0.08
  9
$DIMTOL
 70
1
  9
$DIMLIM
 70
0
  9
$DIMTFAC
 40
1.0
  9
$DIMTP
 40
0.001
  9
$DIMTM
 40
0.001
  9
$DIMGAP
 40
0.09
  9
$DIMDSEP
 70
46
  9
$AUNITS
 70
0
  9
$PDMODE
 70
3
  9
$PDSIZE
 40
0.3125
  9
$HANDSEED
  5
2EA
  9
$TILEMODE
 70
1
  9
$MEASUREMENT
 70
0
  9
$INSUNITS
 70
1
  0
ENDSEC
  0
SECTION
  2
CLASSES
  0
CLASS
  1
ACDBDICTIONARYWDFLT
  2
AcDbDictionaryWithDefault
  3
AutoCAD 2000
 90
0
 91
1
280
0
281
0
  0
CLASS
  1
ACDBPLACEHOLDER
  2
AcDbPlaceHolder
  3
AutoCAD 2000
 90
0
 91
1
280
0
281
0
  0
CLASS
  1
LAYOUT
  2
AcDbLayout
  3
AutoCAD 2000
 90
0
 91
0
280
0
281
0
  0
ENDSEC
  0
SECTION
  2
TABLES
  0
TABLE
  2
VPORT
  5
8
100
AcDbSymbolTable
 70
2
  0
VPORT
  5
1F4
100
AcDbSymbolTableRecord
100
AcDbViewportTableRecord
  2
*ACTIVE
 70
0
 10
0.0
 20
0.0
 11
1.0
 21
1.0
 12
5.5
 22
4.25
 13
0.0
 23
0.0
 14
1.0
 24
1.0
 15
0.0
 25
0.0
 16
0.0
 26
0.0
 36
1.0
 17
0.0
 27
0.0
 37
0.0
 40
8.5
 41
1.2941176471
 42
50.0
 43
0.0
 44
0.0
 50
0.0
 51
0.0
 71
0
 72
100
 73
1
 74
1
 75
0
 76
0
 77
0
 78
0
  0
ENDTAB
  0
TABLE
  2
LTYPE
  5
5
100
AcDbSymbolTable
 70
6
  0
LTYPE
  5
14
100
AcDbSymbolTableRecord
100
AcDbLinetypeTableRecord
  2
BYBLOCK
 70
0
  3

 72
65
 73
0
 40
0.0
  0
LTYPE
  5
15
100
AcDbSymbolTableRecord
100
AcDbLinetypeTableRecord
  2
BYLAYER
 70
0
  3

 72
65
 73
0
 40
0.0
  0
LTYPE
  5
16
100
AcDbSymbolTableRecord
100
AcDbLinetypeTableRecord
  2
CONTINUOUS
 70
64
  3
Solid line
 72
65
 73
0
 40
0.0
  0
LTYPE
  5
1F5
100
AcDbSymbolTableRecord
100
AcDbLinetypeTableRecord
  2
CENTER
 70
64
  3
____ _ ____ _ ____ _ ____ _ ____ _ ____ _ ____
 72
65
 73
4
 40
0.6
 49
0.375
 74
0
 49
-0.075
 74
0
 49
0.075
 74
0
 49
-0.075
 74
0
  0
LTYPE
  5
1F6
100
AcDbSymbolTableRecord
100
AcDbLinetypeTableRecord
  2
HIDDEN
 70
64
  3
- - - - - - - - - - - - - - - - - - - -
 72
65
 73
2
 40
0.2
 49
0.1
 74
0
 49
-0.1
 74
0
  0
LTYPE
  5
1F7
100
AcDbSymbolTableRecord
100
AcDbLinetypeTableRecord
  2
PHANTOM
 70
64
  3
_____ _ _ _____ _ _ _____ _ _ _____
 72
65
 73
6
 40
0.8
 49
0.45
 74
0
 49
-0.05
 74
0
 49
0.1
 74
0
 49
-0.05
 74
0
 49
0.1
 74
0
 49
-0.05
 74
0
  0
LTYPE
  5
1F8
100
AcDbSymbolTableRecord
100
AcDbLinetypeTableRecord
  2
DOT
 70
64
  3
. . . . . . . . . . . . . . . . . . . .
 72
65
 73
2
 40
0.2
 49
0.1
 74
0
 49
-0.1
 74
0
  0
LTYPE
  5
1F9
100
AcDbSymbolTableRecord
100
AcDbLinetypeTableRecord
  2
DASHED
 70
64
  3
- - - - - - - - - - - - - - - - - - - -
 72
65
 73
2
 40
0.2
 49
0.1
 74
0
 49
-0.1
 74
0
  0
ENDTAB
  0
TABLE
  2
LAYER
  5
2
100
AcDbSymbolTable
 70
36
  0
LAYER
  5
10
100
AcDbSymbolTableRecord
100
AcDbLayerTableRecord
  2
0
 70
0
 62
7
  6
CONTINUOUS
370
-3
390
F
  0
LAYER
  5
1FA
100
AcDbSymbolTableRecord
100
AcDbLayerTableRecord
  2
DEFAULT_1
 70
0
 62
7
  6
CENTER
370
-3
390
F
  0
LAYER
  5
1FB
100
AcDbSymbolTableRecord
100
AcDbLayerTableRecord
  2
DEFAULT_2
 70
0
 62
8
  6
HIDDEN
370
-3
390
F
  0
LAYER
  5
1FC
100
AcDbSymbolTableRecord
100
AcDbLayerTableRecord
  2
DEFAULT_3
 70
0
 62
7
  6
PHANTOM
370
-3
390
F
  0
LAYER
  5
1FD
100
AcDbSymbolTableRecord
100
AcDbLayerTableRecord
  2
ALL_ASSEMBLY_MEMBERS
 70
0
 62
7
  6
CONTINUOUS
370
-3
390
F
  0
LAYER
  5
1FE
100
AcDbSymbolTableRecord
100
AcDbLayerTableRecord
  2
ALL_FEATURES
 70
0
 62
7
  6
CONTINUOUS
370
-3
390
F
  0
LAYER
  5
1FF
100
AcDbSymbolTableRecord
100
AcDbLayerTableRecord
  2
AXES_FEATURES
 70
0
 62
7
  6
CONTINUOUS
370
-3
390
F
  0
LAYER
  5
200
100
AcDbSymbolTableRecord
100
AcDbLayerTableRecord
  2
CHAMFER_FEATURES
 70
0
 62
7
  6
CONTINUOUS
370
-3
390
F
  0
LAYER
  5
201
100
AcDbSymbolTableRecord
100
AcDbLayerTableRecord
  2
COSMETIC
 70
0
 62
7
  6
CONTINUOUS
370
-3
390
F
  0
LAYER
  5
202
100
AcDbSymbolTableRecord
100
AcDbLayerTableRecord
  2
CURVE
 70
0
 62
7
  6
CONTINUOUS
370
-3
390
F
  0
LAYER
  5
203
100
AcDbSymbolTableRecord
100
AcDbLayerTableRecord
  2
CUT_FEATURES
 70
0
 62
7
  6
CONTINUOUS
370
-3
390
F
  0
LAYER
  5
204
100
AcDbSymbolTableRecord
100
AcDbLayerTableRecord
  2
DATUM_CURVES
 70
0
 62
7
  6
CONTINUOUS
370
-3
390
F
  0
LAYER
  5
205
100
AcDbSymbolTableRecord
100
AcDbLayerTableRecord
  2
DATUM_PLANES
 70
0
 62
7
  6
CONTINUOUS
370
-3
390
F
  0
LAYER
  5
206
100
AcDbSymbolTableRecord
100
AcDbLayerTableRecord
  2
DATUM_POINTS
 70
0
 62
7
  6
CONTINUOUS
370
-3
390
F
  0
LAYER
  5
207
100
AcDbSymbolTableRecord
100
AcDbLayerTableRecord
  2
DEFAULT_COORDINATE_SYSTEM
 70
0
 62
7
  6
CONTINUOUS
370
-3
390
F
  0
LAYER
  5
208
100
AcDbSymbolTableRecord
100
AcDbLayerTableRecord
  2
DEFAULT_DATUM_AXES
 70
0
 62
7
  6
CONTINUOUS
370
-3
390
F
  0
LAYER
  5
209
100
AcDbSymbolTableRecord
100
AcDbLayerTableRecord
  2
DEFAULT_DATUM_CURVES
 70
0
 62
7
  6
CONTINUOUS
370
-3
390
F
  0
LAYER
  5
20A
100
AcDbSymbolTableRecord
100
AcDbLayerTableRecord
  2
DEFAULT_DATUM_PLANES
 70
0
 62
7
  6
CONTINUOUS
370
-3
390
F
  0
LAYER
  5
20B
100
AcDbSymbolTableRecord
100
AcDbLayerTableRecord
  2
DEFAULT_SURFACES
 70
0
 62
7
  6
CONTINUOUS
370
-3
390
F
  0
LAYER
  5
20C
100
AcDbSymbolTableRecord
100
AcDbLayerTableRecord
  2
DIMENSIONS
 70
0
 62
7
  6
CONTINUOUS
370
-3
390
F
  0
LAYER
  5
20D
100
AcDbSymbolTableRecord
100
AcDbLayerTableRecord
  2
HOLE_FEATURES
 70
0
 62
7
  6
CONTINUOUS
370
-3
390
F
  0
LAYER
  5
20E
100
AcDbSymbolTableRecord
100
AcDbLayerTableRecord
  2
MAGENTA
 70
0
 62
7
  6
CONTINUOUS
370
-3
390
F
  0
LAYER
  5
20F
100
AcDbSymbolTableRecord
100
AcDbLayerTableRecord
  2
NOTES
 70
0
 62
7
  6
CONTINUOUS
370
-3
390
F
  0
LAYER
  5
210
100
AcDbSymbolTableRecord
100
AcDbLayerTableRecord
  2
POINTS
 70
0
 62
7
  6
CONTINUOUS
370
-3
390
F
  0
LAYER
  5
211
100
AcDbSymbolTableRecord
100
AcDbLayerTableRecord
  2
PROTRUSION_FEATURES
 70
0
 62
7
  6
CONTINUOUS
370
-3
390
F
  0
LAYER
  5
212
100
AcDbSymbolTableRecord
100
AcDbLayerTableRecord
  2
QUILT
 70
0
 62
7
  6
CONTINUOUS
370
-3
390
F
  0
LAYER
  5
213
100
AcDbSymbolTableRecord
100
AcDbLayerTableRecord
  2
WHITE
 70
0
 62
7
  6
CONTINUOUS
370
-3
390
F
  0
LAYER
  5
214
100
AcDbSymbolTableRecord
100
AcDbLayerTableRecord
  2
XSEC_DATUMS
 70
0
 62
7
  6
CONTINUOUS
370
-3
390
F
  0
ENDTAB
  0
TABLE
  2
STYLE
  5
3
100
AcDbSymbolTable
 70
1
  0
STYLE
  5
11
100
AcDbSymbolTableRecord
100
AcDbTextStyleTableRecord
  2
STANDARD
 70
0
 40
0.0
 41
0.8
 50
0.0
 71
0
 42
0.2
  3
txt
  4

  0
STYLE
  5
215
100
AcDbSymbolTableRecord
100
AcDbTextStyleTableRecord
  2
TEXTSTYLE_1
 70
0
 40
0.0
 41
0.8
 50
0.0
 71
0
 42
0.2
  3
gdt
  4

  0
ENDTAB
  0
TABLE
  2
VIEW
  5
6
100
AcDbSymbolTable
 70
0
  0
ENDTAB
  0
TABLE
  2
UCS
  5
7
100
AcDbSymbolTable
 70
0
  0
ENDTAB
  0
TABLE
  2
APPID
  5
9
100
AcDbSymbolTable
 70
1
  0
APPID
  5
216
100
AcDbSymbolTableRecord
100
AcDbRegAppTableRecord
  2
ACAD
 70
0
  0
ENDTAB
  0
TABLE
  2
BLOCK_RECORD
  5
1
100
AcDbSymbolTable
 70
0
  0
BLOCK_RECORD
  5
217
100
AcDbSymbolTableRecord
100
AcDbBlockTableRecord
  2
*Model_Space
  0
BLOCK_RECORD
  5
218
100
AcDbSymbolTableRecord
100
AcDbBlockTableRecord
  2
*Paper_Space
  0
BLOCK_RECORD
  5
219
100
AcDbSymbolTableRecord
100
AcDbBlockTableRecord
  2
_FILLED
  0
ENDTAB
  0
TABLE
  2
DIMSTYLE
  5
A
100
AcDbSymbolTable
 70
1
100
AcDbDimStyleTable
 71
0
  0
DIMSTYLE
105
21A
100
AcDbSymbolTableRecord
100
AcDbDimStyleTableRecord
  2
STANDARD
 70
0
  3

  4

 40
1.0
 41
0.1
 42
0.0625
 43
0.38
 44
0.125
 45
0.0
 46
0.0
 47
0.001
 48
0.001
140
0.08
141
0.09
142
0.0
143
25.4
144
1.0
145
0.0
146
1.0
147
0.09
 71
1.0
 72
0.0
 73
1
 74
1
 75
0
 76
0
 77
0
 78
4
 79
1
170
1
171
2
172
0
173
0
174
0
175
0
176
0
177
0
178
0
270
2
179
3
271
3
272
3
273
2
274
2
275
0
280
0
281
0
282
0
283
1
284
4
285
0
286
0
287
3
288
0
340
11
278
46
341
219
342
219
343
219
344
219
  0
ENDTAB
  0
ENDSEC
  0
SECTION
  2
BLOCKS
  0
BLOCK
  5
20
100
AcDbEntity
  8
0
100
AcDbBlockBegin
  2
*Model_Space
 70
0
 10
0.0
 20
0.0
 30
0.0
  3
*Model_Space
  1

  0
ENDBLK
  5
21
100
AcDbEntity
  8
0
100
AcDbBlockEnd
  0
BLOCK
  5
1C
100
AcDbEntity
  8
0
100
AcDbBlockBegin
  2
*Paper_Space
 70
0
 10
0.0
 20
0.0
 30
0.0
  3
*Paper_Space
  1

  0
ENDBLK
  5
1D
100
AcDbEntity
  8
0
100
AcDbBlockEnd
  0
BLOCK
  5
21B
100
AcDbEntity
  8
0
100
AcDbBlockBegin
  2
_FILLED
 70
64
 10
0.0
 20
0.0
  3
_FILLED
  1

  0
SOLID
  5
21C
100
AcDbEntity
  8
0
  6
BYBLOCK
 62
0
100
AcDbTrace
 10
0.0
 20
0.0
 11
-1.0
 21
0.2
 12
-1.0
 22
-0.2
 13
-1.0
 23
-0.2
  0
ENDBLK
  5
21D
100
AcDbEntity
  8
0
  6
BYBLOCK
 62
0
100
AcDbBlockEnd
  0
ENDSEC
  0
SECTION
  2
ENTITIES
  0
MTEXT
  5
21E
100
AcDbEntity
  8
0
100
AcDbMText
 62
2
  6
CONTINUOUS
  7
STANDARD
 71
3
 72
1
 10
3.7071622671
 20
2.5136560656
 30
0.0
 11
1.0
 21
0.0
 31
0.0
 73
2
 44
0.9
  1
SCALE  .500
 40
0.08
 41
0.704
  0
LINE
  5
21F
100
AcDbEntity
  8
0
100
AcDbLine
 62
7
  6
CONTINUOUS
 10
0.0
 20
0.0
 11
0.0
 21
8.5
  0
LINE
  5
220
100
AcDbEntity
  8
0
100
AcDbLine
 62
7
  6
CONTINUOUS
 10
0.0
 20
0.0
 11
11.0
 21
0.0
  0
LINE
  5
221
100
AcDbEntity
  8
0
100
AcDbLine
 62
7
  6
CONTINUOUS
 10
0.0
 20
8.5
 11
11.0
 21
8.5
  0
LINE
  5
222
100
AcDbEntity
  8
0
100
AcDbLine
 62
7
  6
CONTINUOUS
 10
11.0
 20
0.0
 11
11.0
 21
8.5
  0
LINE
  5
223
100
AcDbEntity
  8
0
100
AcDbLine
 62
7
  6
CONTINUOUS
 10
1.8464856313
 20
4.3754305604
 11
1.8464856313
 21
4.5595088613
  0
LINE
  5
224
100
AcDbEntity
  8
0
100
AcDbLine
 62
7
  6
CONTINUOUS
 10
1.8715852329
 20
4.6339697108
 11
1.8715852329
 21
4.3009697108
  0
LINE
  5
225
100
AcDbEntity
  8
0
100
AcDbLine
 62
7
  6
CONTINUOUS
 10
1.9030852329
 20
4.2694697108
 11
1.9030852329
 21
4.6654697108
  0
LINE
  5
226
100
AcDbEntity
  8
0
100
AcDbLine
 62
7
  6
CONTINUOUS
 10
1.9185513673
 20
4.2694697108
 11
1.9185513673
 21
4.6654697108
  0
LINE
  5
227
100
AcDbEntity
  8
0
100
AcDbLine
 62
7
  6
CONTINUOUS
 10
1.9253352329
 20
4.2812197108
 11
1.9253352329
 21
4.6537197108
  0
LINE
  5
228
100
AcDbEntity
  8
0
100
AcDbLine
 62
7
  6
CONTINUOUS
 10
1.9317159407
 20
4.2701680008
 11
1.9317159407
 21
4.6647714208
  0
LINE
  5
229
100
AcDbEntity
  8
0
100
AcDbLine
 62
7
  6
CONTINUOUS
 10
1.9253352329
 20
4.6537197108
 11
1.9317159407
 21
4.6647714208
  0
LINE
  5
22A
100
AcDbEntity
  8
0
100
AcDbLine
 62
7
  6
CONTINUOUS
 10
1.9185513673
 20
4.2694697108
 11
1.9253352329
 21
4.2812197108
  0
LINE
  5
22B
100
AcDbEntity
  8
0
100
AcDbLine
 62
7
  6
CONTINUOUS
 10
1.9253352329
 20
4.2812197108
 11
1.9317159407
 21
4.2701680008
  0
LINE
  5
22C
100
AcDbEntity
  8
0
100
AcDbLine
 62
7
  6
CONTINUOUS
 10
1.9185513673
 20
4.6654697108
 11
1.9253352329
 21
4.6537197108
  0
LINE
  5
22D
100
AcDbEntity
  8
ALL_FEATURES
100
AcDbLine
 62
7
  6
CONTINUOUS
 10
2.9615852329
 20
4.7598976222
 11
2.9615852329
 21
4.6095725509
  0
LINE
  5
22E
100
AcDbEntity
  8
ALL_FEATURES
100
AcDbLine
 62
7
  6
CONTINUOUS
 10
2.9615852329
 20
4.3253668708
 11
2.9615852329
 21
4.1750417995
  0
LINE
  5
22F
100
AcDbEntity
  8
0
100
AcDbLine
 62
7
  6
CONTINUOUS
 10
3.1360852329
 20
4.3347197108
 11
3.1360852329
 21
4.6002197108
  0
LINE
  5
230
100
AcDbEntity
  8
ALL_FEATURES
100
AcDbLine
 62
7
  6
CONTINUOUS
 10
3.1803302428
 20
4.6336051318
 11
3.1803302428
 21
4.6112350647
  0
LINE
  5
231
100
AcDbEntity
  8
ALL_FEATURES
100
AcDbLine
 62
7
  6
CONTINUOUS
 10
3.1803302428
 20
4.323704357
 11
3.1803302428
 21
4.3013342898
  0
LINE
  5
232
100
AcDbEntity
  8
0
100
AcDbLine
 62
7
  6
CONTINUOUS
 10
3.1830852329
 20
4.3347197108
 11
3.1830852329
 21
4.6002137461
  0
LINE
  5
233
100
AcDbEntity
  8
0
100
AcDbLine
 62
7
  6
CONTINUOUS
 10
3.2145852329
 20
4.3762197108
 11
3.2145852329
 21
4.5587197108
  0
LINE
  5
234
100
AcDbEntity
  8
0
100
AcDbLine
 62
7
  6
CONTINUOUS
 10
3.2180852329
 20
4.3231321435
 11
3.2180852329
 21
4.3762197108
  0
LINE
  5
235
100
AcDbEntity
  8
0
100
AcDbLine
 62
7
  6
CONTINUOUS
 10
3.2180852329
 20
4.5587197108
 11
3.2180852329
 21
4.6118072781
  0
LWPOLYLINE
  5
236
100
AcDbEntity
  8
ALL_FEATURES
100
AcDbPolyline
 62
7
  6
CONTINUOUS
 90
5
 70
0
 10
3.4680833335
 20
3.9530798403
 10
3.4680852329
 20
3.9363808571
 10
3.4680915634
 20
3.919065743
 10
3.4680932697
 20
3.9011404647
 10
3.4680852329
 20
3.8826138882
  0
LINE
  5
237
100
AcDbEntity
  8
ALL_FEATURES
100
AcDbLine
 62
7
  6
CONTINUOUS
 10
3.4680832307
 20
4.0397837088
 11
3.4680866438
 21
4.0134884996
  0
LINE
  5
238
100
AcDbEntity
  8
ALL_FEATURES
100
AcDbLine
 62
7
  6
CONTINUOUS
 10
3.4680841121
 20
3.999363208
 11
3.4680861555
 21
3.9691524723
  0
LINE
  5
239
100
AcDbEntity
  8
ALL_FEATURES
100
AcDbLine
 62
7
  6
CONTINUOUS
 10
3.4680852329
 20
4.1787945762
 11
3.4680852329
 21
3.8737197108
  0
LINE
  5
23A
100
AcDbEntity
  8
ALL_FEATURES
100
AcDbLine
 62
7
  6
CONTINUOUS
 10
3.4680852329
 20
4.7561448454
 11
3.4680852329
 21
5.0612197108
  0
LINE
  5
23B
100
AcDbEntity
  8
ALL_FEATURES
100
AcDbLine
 62
7
  6
CONTINUOUS
 10
3.4680863927
 20
4.8048811308
 11
3.4680862509
 21
4.8107372877
  0
LINE
  5
23C
100
AcDbEntity
  8
ALL_FEATURES
100
AcDbLine
 62
7
  6
CONTINUOUS
 10
3.4680856823
 20
4.860759804
 11
3.4680852329
 21
4.8715302811
  0
LINE
  5
23D
100
AcDbEntity
  8
ALL_FEATURES
100
AcDbLine
 62
7
  6
CONTINUOUS
 10
3.4680863538
 20
4.9355762137
 11
3.4680843103
 21
4.9657869494
  0
LINE
  5
23E
100
AcDbEntity
  8
ALL_FEATURES
100
AcDbLine
 62
7
  6
CONTINUOUS
 10
3.4680852329
 20
4.8412959443
 11
3.468084106
 21
4.8506831774
  0
LINE
  5
23F
100
AcDbEntity
  8
ALL_FEATURES
100
AcDbLine
 62
7
  6
CONTINUOUS
 10
3.4680852329
 20
4.907977696
 11
3.468083822
 21
4.9214509221
  0
LWPOLYLINE
  5
240
100
AcDbEntity
  8
ALL_FEATURES
100
AcDbPolyline
 62
7
  6
CONTINUOUS
 90
5
 70
0
 10
3.4680871323
 20
4.9818595814
 10
3.4680852329
 20
4.9985585646
 10
3.4680789024
 20
5.0158736787
 10
3.4680771961
 20
5.033798957
 10
3.4680852329
 20
5.0523255335
  0
LINE
  5
241
100
AcDbEntity
  8
ALL_FEATURES
100
AcDbLine
 62
7
  6
CONTINUOUS
 10
3.7180852329
 20
4.3231321435
 11
3.7180852329
 21
4.6118072781
  0
LINE
  5
242
100
AcDbEntity
  8
ALL_FEATURES
100
AcDbLine
 62
7
  6
CONTINUOUS
 10
3.755840223
 20
4.3013342898
 11
3.755840223
 21
4.6336051318
  0
LINE
  5
243
100
AcDbEntity
  8
ALL_FEATURES
100
AcDbLine
 62
7
  6
CONTINUOUS
 10
3.9745852329
 20
4.1750417995
 11
3.9745852329
 21
4.7598976222
  0
LINE
  5
244
100
AcDbEntity
  8
ALL_FEATURES
100
AcDbLine
 62
7
  6
CONTINUOUS
 10
3.4680852329
 20
5.0523255335
 11
2.9615852329
 21
4.7598976222
  0
LINE
  5
245
100
AcDbEntity
  8
ALL_FEATURES
100
AcDbLine
 62
7
  6
CONTINUOUS
 10
2.9615852329
 20
4.1750417995
 11
3.4680852329
 21
3.8826138882
  0
LINE
  5
246
100
AcDbEntity
  8
ALL_FEATURES
100
AcDbLine
 62
7
  6
CONTINUOUS
 10
3.4680852329
 20
4.7997405528
 11
3.1803302428
 21
4.6336051318
  0
LINE
  5
247
100
AcDbEntity
  8
ALL_FEATURES
100
AcDbLine
 62
7
  6
CONTINUOUS
 10
3.4680852329
 20
4.7561448454
 11
3.2180852329
 21
4.6118072781
  0
LINE
  5
248
100
AcDbEntity
  8
ALL_FEATURES
100
AcDbLine
 62
7
  6
CONTINUOUS
 10
3.1803302428
 20
4.3013342898
 11
3.4680852329
 21
4.1351988688
  0
LINE
  5
249
100
AcDbEntity
  8
ALL_FEATURES
100
AcDbLine
 62
7
  6
CONTINUOUS
 10
3.2180852329
 20
4.3231321435
 11
3.4680852329
 21
4.1787945762
  0
LWPOLYLINE
  5
24A
100
AcDbEntity
  8
ALL_FEATURES
100
AcDbPolyline
 62
7
  6
CONTINUOUS
 90
5
 70
0
 10
3.0226095879
 20
4.2102764205
 10
3.0081487939
 20
4.201925284
 10
2.9931566305
 20
4.1932622446
 10
2.9776337372
 20
4.1842981277
 10
2.9615852329
 20
4.1750417995
  0
LINE
  5
24B
100
AcDbEntity
  8
ALL_FEATURES
100
AcDbLine
 62
7
  6
CONTINUOUS
 10
3.0976972892
 20
4.2536284438
 11
3.0749266765
 21
4.2404778833
  0
LWPOLYLINE
  5
24C
100
AcDbEntity
  8
ALL_FEATURES
100
AcDbPolyline
 62
7
  6
CONTINUOUS
 90
3
 70
0
 10
3.0626925493
 20
4.2334174301
 10
3.0498941679
 20
4.2260269869
 10
3.0365303065
 20
4.2183102926
  0
LWPOLYLINE
  5
24D
100
AcDbEntity
  8
ALL_FEATURES
100
AcDbPolyline
 62
7
  6
CONTINUOUS
 90
5
 70
0
 10
3.913560878
 20
4.7246630012
 10
3.928021672
 20
4.7330141377
 10
3.9430138353
 20
4.7416771771
 10
3.9585367286
 20
4.750641294
 10
3.9745852329
 20
4.7598976222
  0
LINE
  5
24E
100
AcDbEntity
  8
ALL_FEATURES
100
AcDbLine
 62
7
  6
CONTINUOUS
 10
3.8384731767
 20
4.6813109779
 11
3.8612437893
 21
4.6944615383
  0
LWPOLYLINE
  5
24F
100
AcDbEntity
  8
ALL_FEATURES
100
AcDbPolyline
 62
7
  6
CONTINUOUS
 90
3
 70
0
 10
3.8734779165
 20
4.7015219916
 10
3.8862762979
 20
4.7089124348
 10
3.8996401594
 20
4.7166291291
  0
LINE
  5
250
100
AcDbEntity
  8
ALL_FEATURES
100
AcDbLine
 62
7
  6
CONTINUOUS
 10
3.2180852329
 20
4.3231321435
 11
2.9538826494
 21
4.1705947108
  0
LINE
  5
251
100
AcDbEntity
  8
ALL_FEATURES
100
AcDbLine
 62
7
  6
CONTINUOUS
 10
3.7180852329
 20
4.6118072781
 11
3.9822878164
 21
4.7643447108
  0
LINE
  5
252
100
AcDbEntity
  8
ALL_FEATURES
100
AcDbLine
 62
7
  6
CONTINUOUS
 10
3.2180852329
 20
4.6118072781
 11
2.9538826494
 21
4.7643447108
  0
LINE
  5
253
100
AcDbEntity
  8
ALL_FEATURES
100
AcDbLine
 62
7
  6
CONTINUOUS
 10
3.7180852329
 20
4.3231321435
 11
3.9822878164
 21
4.1705947108
  0
LINE
  5
254
100
AcDbEntity
  8
ALL_FEATURES
100
AcDbLine
 62
7
  6
CONTINUOUS
 10
3.7602915142
 20
4.2987629965
 11
3.7653631658
 21
4.2958350408
  0
LINE
  5
255
100
AcDbEntity
  8
ALL_FEATURES
100
AcDbLine
 62
7
  6
CONTINUOUS
 10
3.1758789516
 20
4.6361764252
 11
3.1708073
 21
4.6391043809
  0
LINE
  5
256
100
AcDbEntity
  8
ALL_FEATURES
100
AcDbLine
 62
7
  6
CONTINUOUS
 10
3.80868422
 20
4.2708242751
 11
3.8180119514
 21
4.2654394257
  0
LINE
  5
257
100
AcDbEntity
  8
ALL_FEATURES
100
AcDbLine
 62
7
  6
CONTINUOUS
 10
3.1274862459
 20
4.6641151466
 11
3.1181585144
 21
4.669499996
  0
LWPOLYLINE
  5
258
100
AcDbEntity
  8
ALL_FEATURES
100
AcDbPolyline
 62
7
  6
CONTINUOUS
 90
3
 70
0
 10
3.8734767957
 20
4.2334154887
 10
3.8862762979
 20
4.2260269869
 10
3.899641082
 20
4.2183118905
  0
LINE
  5
259
100
AcDbEntity
  8
ALL_FEATURES
100
AcDbLine
 62
7
  6
CONTINUOUS
 10
3.8495763386
 20
4.2472157183
 11
3.8612452002
 21
4.2404803271
  0
LWPOLYLINE
  5
25A
100
AcDbEntity
  8
ALL_FEATURES
100
AcDbPolyline
 62
7
  6
CONTINUOUS
 90
5
 70
0
 10
3.9135589786
 20
4.2102731307
 10
3.928021672
 20
4.201925284
 10
3.9430201658
 20
4.1932732093
 10
3.9585447654
 20
4.1843120478
 10
3.9745852329
 20
4.1750417995
  0
LINE
  5
25B
100
AcDbEntity
  8
ALL_FEATURES
100
AcDbLine
 62
7
  6
CONTINUOUS
 10
3.7918282477
 20
4.2805565941
 11
3.7999583935
 21
4.2758639535
  0
LWPOLYLINE
  5
25C
100
AcDbEntity
  8
ALL_FEATURES
100
AcDbPolyline
 62
7
  6
CONTINUOUS
 90
3
 70
0
 10
3.0626936702
 20
4.701523933
 10
3.0498941679
 20
4.7089124348
 10
3.0365293839
 20
4.7166275312
  0
LINE
  5
25D
100
AcDbEntity
  8
ALL_FEATURES
100
AcDbLine
 62
7
  6
CONTINUOUS
 10
3.0865941272
 20
4.6877237034
 11
3.0749252657
 21
4.6944590946
  0
LINE
  5
25E
100
AcDbEntity
  8
ALL_FEATURES
100
AcDbLine
 62
7
  6
CONTINUOUS
 10
3.1443422181
 20
4.6543828276
 11
3.1362120723
 21
4.6590754682
  0
LWPOLYLINE
  5
25F
100
AcDbEntity
  8
ALL_FEATURES
100
AcDbPolyline
 62
7
  6
CONTINUOUS
 90
5
 70
0
 10
3.0226114872
 20
4.724666291
 10
3.0081487939
 20
4.7330141377
 10
2.9931503
 20
4.7416662124
 10
2.9776257004
 20
4.7506273739
 10
2.9615852329
 20
4.7598976222
  0
LINE
  5
260
100
AcDbEntity
  8
ALL_FEATURES
100
AcDbLine
 62
7
  6
CONTINUOUS
 10
3.4680852329
 20
4.1787945762
 11
3.7180852329
 21
4.3231321435
  0
LINE
  5
261
100
AcDbEntity
  8
ALL_FEATURES
100
AcDbLine
 62
7
  6
CONTINUOUS
 10
3.7180852329
 20
4.6118072781
 11
3.4680852329
 21
4.7561448454
  0
LINE
  5
262
100
AcDbEntity
  8
ALL_FEATURES
100
AcDbLine
 62
7
  6
CONTINUOUS
 10
3.4680852329
 20
4.1351988688
 11
3.755840223
 21
4.3013342898
  0
LINE
  5
263
100
AcDbEntity
  8
ALL_FEATURES
100
AcDbLine
 62
7
  6
CONTINUOUS
 10
3.4680852329
 20
3.8826138882
 11
3.9745852329
 21
4.1750417995
  0
LINE
  5
264
100
AcDbEntity
  8
0
100
AcDbLine
 62
7
  6
CONTINUOUS
 10
5.6786856876
 20
3.8423128979
 11
5.1936857892
 21
3.8426267856
  0
LINE
  5
265
100
AcDbEntity
  8
ALL_FEATURES
100
AcDbLine
 62
7
  6
CONTINUOUS
 10
3.755840223
 20
4.6336051318
 11
3.4680852329
 21
4.7997405528
  0
LINE
  5
266
100
AcDbEntity
  8
ALL_FEATURES
100
AcDbLine
 62
7
  6
CONTINUOUS
 10
3.9745852329
 20
4.7598976222
 11
3.4680852329
 21
5.0523255335
  0
LINE
  5
267
100
AcDbEntity
  8
0
100
AcDbLine
 62
7
  6
CONTINUOUS
 10
5.1938237167
 20
4.0567977271
 11
5.1936857892
 21
3.8426267856
  0
LINE
  5
268
100
AcDbEntity
  8
0
100
AcDbLine
 62
7
  6
CONTINUOUS
 10
5.234744198
 20
4.8176004172
 11
5.0324451291
 21
4.4677312701
  0
LINE
  5
269
100
AcDbEntity
  8
0
100
AcDbLine
 62
7
  6
CONTINUOUS
 10
5.2924144937
 20
4.7175630725
 11
5.1479151588
 21
4.4676565389
  0
LINE
  5
26A
100
AcDbEntity
  8
0
100
AcDbLine
 62
7
  6
CONTINUOUS
 10
5.6788232157
 20
4.0548128533
 11
5.1938233173
 21
4.0551267411
  0
LINE
  5
26B
100
AcDbEntity
  8
0
100
AcDbLine
 62
7
  6
CONTINUOUS
 10
5.0324451291
 20
4.4677312701
 11
5.1895163289
 21
4.1952688949
  0
LINE
  5
26C
100
AcDbEntity
  8
0
100
AcDbLine
 62
7
  6
CONTINUOUS
 10
5.1479151588
 20
4.4676565389
 11
5.1546467531
 21
4.4559796294
  0
LINE
  5
26D
100
AcDbEntity
  8
0
100
AcDbLine
 62
7
  6
CONTINUOUS
 10
5.3150732919
 20
4.0550482692
 11
5.3149357638
 21
3.8425483137
  0
LINE
  5
26E
100
AcDbEntity
  8
0
100
AcDbLine
 62
7
  6
CONTINUOUS
 10
5.7337979582
 20
4.9814800517
 11
5.5810895678
 21
4.7173762445
  0
LINE
  5
26F
100
AcDbEntity
  8
0
100
AcDbLine
 62
7
  6
CONTINUOUS
 10
5.1393825077
 20
3.9534593699
 11
5.1938184489
 21
4.0476044219
  0
LINE
  5
270
100
AcDbEntity
  8
0
100
AcDbLine
 62
7
  6
CONTINUOUS
 10
1.9317159407
 20
4.2701680008
 11
3.1360852329
 21
4.3347197108
  0
LINE
  5
271
100
AcDbEntity
  8
0
100
AcDbLine
 62
7
  6
CONTINUOUS
 10
8.9414595252
 20
4.6647714208
 11
7.7370902329
 21
4.6002197108
  0
LINE
  5
272
100
AcDbEntity
  8
0
100
AcDbLine
 62
7
  6
CONTINUOUS
 10
8.9700902329
 20
4.2694697108
 11
8.9546240986
 21
4.2694697108
  0
LINE
  5
273
100
AcDbEntity
  8
0
100
AcDbLine
 62
7
  6
CONTINUOUS
 10
1.9030852329
 20
4.2694697108
 11
1.9185513673
 21
4.2694697108
  0
LINE
  5
274
100
AcDbEntity
  8
0
100
AcDbLine
 62
7
  6
CONTINUOUS
 10
7.6585902329
 20
4.3762197108
 11
7.6324623443
 21
4.3762197108
  0
LINE
  5
275
100
AcDbEntity
  8
0
100
AcDbLine
 62
7
  6
CONTINUOUS
 10
3.2145852329
 20
4.3762197108
 11
3.2407131216
 21
4.3762197108
  0
LINE
  5
276
100
AcDbEntity
  8
0
100
AcDbLine
 62
7
  6
CONTINUOUS
 10
6.0303401086
 20
4.467085441
 11
5.7252653071
 21
4.4672828828
  0
LINE
  5
277
100
AcDbEntity
  8
0
100
AcDbLine
 62
7
  6
CONTINUOUS
 10
4.8428403573
 20
4.4678539807
 11
5.1479151588
 21
4.4676565389
  0
LINE
  5
278
100
AcDbEntity
  8
0
100
AcDbLine
 62
7
  6
CONTINUOUS
 10
8.9414595252
 20
4.2701680008
 11
7.7370902329
 21
4.3347197108
  0
LINE
  5
279
100
AcDbEntity
  8
0
100
AcDbLine
 62
7
  6
CONTINUOUS
 10
1.9317159407
 20
4.6647714208
 11
3.1360852329
 21
4.6002197108
  0
LINE
  5
27A
100
AcDbEntity
  8
0
100
AcDbLine
 62
7
  6
CONTINUOUS
 10
5.1400480825
 20
4.9818643216
 11
5.2924144937
 21
4.7175630725
  0
LINE
  5
27B
100
AcDbEntity
  8
0
100
AcDbLine
 62
7
  6
CONTINUOUS
 10
5.7331323833
 20
3.9530751001
 11
5.6788183474
 21
4.0472905341
  0
LINE
  5
27C
100
AcDbEntity
  8
0
100
AcDbLine
 62
7
  6
CONTINUOUS
 10
5.5575732411
 20
4.0548913253
 11
5.557435713
 21
3.8423913698
  0
LINE
  5
27D
100
AcDbEntity
  8
0
100
AcDbLine
 62
7
  6
CONTINUOUS
 10
5.6788232157
 20
4.0548128533
 11
5.6786856876
 21
3.8423128979
  0
LINE
  5
27E
100
AcDbEntity
  8
0
100
AcDbLine
 62
7
  6
CONTINUOUS
 10
5.718518604
 20
4.4556146964
 11
5.7252653071
 21
4.4672828828
  0
LINE
  5
27F
100
AcDbEntity
  8
0
100
AcDbLine
 62
7
  6
CONTINUOUS
 10
7.6585902329
 20
4.5587197108
 11
7.6324623443
 21
4.5587197108
  0
LINE
  5
280
100
AcDbEntity
  8
0
100
AcDbLine
 62
7
  6
CONTINUOUS
 10
3.2145852329
 20
4.5587197108
 11
3.2407131216
 21
4.5587197108
  0
LINE
  5
281
100
AcDbEntity
  8
0
100
AcDbLine
 62
7
  6
CONTINUOUS
 10
8.9700902329
 20
4.6654697108
 11
8.9546240986
 21
4.6654697108
  0
LINE
  5
282
100
AcDbEntity
  8
0
100
AcDbLine
 62
7
  6
CONTINUOUS
 10
1.9030852329
 20
4.6654697108
 11
1.9185513673
 21
4.6654697108
  0
LINE
  5
283
100
AcDbEntity
  8
0
100
AcDbLine
 62
7
  6
CONTINUOUS
 10
5.5810895678
 20
4.7173762445
 11
5.2924144937
 21
4.7175630725
  0
LINE
  5
284
100
AcDbEntity
  8
0
100
AcDbLine
 62
7
  6
CONTINUOUS
 10
5.7252653071
 20
4.4672828828
 11
5.5810895678
 21
4.7173762445
  0
LINE
  5
285
100
AcDbEntity
  8
0
100
AcDbLine
 62
7
  6
CONTINUOUS
 10
5.6833115981
 20
4.1949493148
 11
5.8407353367
 21
4.4672081516
  0
LINE
  5
286
100
AcDbEntity
  8
ALL_FEATURES
100
AcDbLine
 62
7
  6
CONTINUOUS
 10
7.4050902329
 20
5.0523255335
 11
6.8985902329
 21
4.7598976222
  0
LINE
  5
287
100
AcDbEntity
  8
0
100
AcDbLine
 62
7
  6
CONTINUOUS
 10
5.6388893018
 20
4.8173388579
 11
5.234744198
 21
4.8176004172
  0
LINE
  5
288
100
AcDbEntity
  8
ALL_FEATURES
100
AcDbLine
 62
7
  6
CONTINUOUS
 10
6.8985902329
 20
4.1750417995
 11
7.4050902329
 21
3.8826138882
  0
LINE
  5
289
100
AcDbEntity
  8
0
100
AcDbLine
 62
7
  6
CONTINUOUS
 10
5.8407353367
 20
4.4672081516
 11
5.6388893018
 21
4.8173388579
  0
LINE
  5
28A
100
AcDbEntity
  8
ALL_FEATURES
100
AcDbLine
 62
7
  6
CONTINUOUS
 10
7.4050902329
 20
4.7997405528
 11
7.1173352428
 21
4.6336051318
  0
LINE
  5
28B
100
AcDbEntity
  8
ALL_FEATURES
100
AcDbLine
 62
7
  6
CONTINUOUS
 10
7.4050902329
 20
4.7561448454
 11
7.1550902329
 21
4.6118072781
  0
LINE
  5
28C
100
AcDbEntity
  8
ALL_FEATURES
100
AcDbLine
 62
7
  6
CONTINUOUS
 10
7.1173352428
 20
4.3013342898
 11
7.4050902329
 21
4.1351988688
  0
LINE
  5
28D
100
AcDbEntity
  8
ALL_FEATURES
100
AcDbLine
 62
7
  6
CONTINUOUS
 10
7.1550902329
 20
4.3231321435
 11
7.4050902329
 21
4.1787945762
  0
LINE
  5
28E
100
AcDbEntity
  8
ALL_FEATURES
100
AcDbLine
 62
7
  6
CONTINUOUS
 10
7.1550902329
 20
4.3231321435
 11
6.8908876494
 21
4.1705947108
  0
LINE
  5
28F
100
AcDbEntity
  8
ALL_FEATURES
100
AcDbLine
 62
7
  6
CONTINUOUS
 10
7.6550902329
 20
4.6118072781
 11
7.9192928164
 21
4.7643447108
  0
LINE
  5
290
100
AcDbEntity
  8
ALL_FEATURES
100
AcDbLine
 62
7
  6
CONTINUOUS
 10
7.1128827918
 20
4.2987650052
 11
7.107811282
 21
4.295836804
  0
LINE
  5
291
100
AcDbEntity
  8
ALL_FEATURES
100
AcDbLine
 62
7
  6
CONTINUOUS
 10
7.697297674
 20
4.6361744164
 11
7.7023691838
 21
4.6391026177
  0
LINE
  5
292
100
AcDbEntity
  8
ALL_FEATURES
100
AcDbLine
 62
7
  6
CONTINUOUS
 10
7.0644907965
 20
4.2708250534
 11
7.0551635144
 21
4.2654394257
  0
LINE
  5
293
100
AcDbEntity
  8
ALL_FEATURES
100
AcDbLine
 62
7
  6
CONTINUOUS
 10
7.7456896693
 20
4.6641143683
 11
7.7550169514
 21
4.669499996
  0
LWPOLYLINE
  5
294
100
AcDbEntity
  8
ALL_FEATURES
100
AcDbPolyline
 62
7
  6
CONTINUOUS
 90
3
 70
0
 10
6.9996975493
 20
4.2334174301
 10
6.9868991679
 20
4.2260269869
 10
6.9735353065
 20
4.2183102926
  0
LINE
  5
295
100
AcDbEntity
  8
ALL_FEATURES
100
AcDbLine
 62
7
  6
CONTINUOUS
 10
7.0235991272
 20
4.2472157183
 11
7.0119316765
 21
4.2404778833
  0
LWPOLYLINE
  5
296
100
AcDbEntity
  8
ALL_FEATURES
100
AcDbPolyline
 62
7
  6
CONTINUOUS
 90
5
 70
0
 10
6.9596145879
 20
4.2102764205
 10
6.9451537939
 20
4.201925284
 10
6.9301616305
 20
4.1932622446
 10
6.9146387372
 20
4.1842981277
 10
6.8985902329
 20
4.1750417995
  0
LINE
  5
297
100
AcDbEntity
  8
ALL_FEATURES
100
AcDbLine
 62
7
  6
CONTINUOUS
 10
7.0813472181
 20
4.2805565941
 11
7.0732181992
 21
4.2758620016
  0
LWPOLYLINE
  5
298
100
AcDbEntity
  8
ALL_FEATURES
100
AcDbPolyline
 62
7
  6
CONTINUOUS
 90
3
 70
0
 10
7.8104829165
 20
4.7015219916
 10
7.8232812979
 20
4.7089124348
 10
7.8366451594
 20
4.7166291291
  0
LINE
  5
299
100
AcDbEntity
  8
ALL_FEATURES
100
AcDbLine
 62
7
  6
CONTINUOUS
 10
7.7865813386
 20
4.6877237034
 11
7.7982487893
 21
4.6944615383
  0
LINE
  5
29A
100
AcDbEntity
  8
ALL_FEATURES
100
AcDbLine
 62
7
  6
CONTINUOUS
 10
7.7288332477
 20
4.6543828276
 11
7.7369622666
 21
4.6590774201
  0
LWPOLYLINE
  5
29B
100
AcDbEntity
  8
ALL_FEATURES
100
AcDbPolyline
 62
7
  6
CONTINUOUS
 90
5
 70
0
 10
7.850565878
 20
4.7246630012
 10
7.865026672
 20
4.7330141377
 10
7.8800188353
 20
4.7416771771
 10
7.8955417286
 20
4.750641294
 10
7.9115902329
 20
4.7598976222
  0
LWPOLYLINE
  5
29C
100
AcDbEntity
  8
ALL_FEATURES
100
AcDbPolyline
 62
7
  6
CONTINUOUS
 90
5
 70
0
 10
7.8505639786
 20
4.2102731307
 10
7.865026672
 20
4.201925284
 10
7.8800251658
 20
4.1932732093
 10
7.8955497654
 20
4.1843120478
 10
7.9115902329
 20
4.1750417995
  0
LINE
  5
29D
100
AcDbEntity
  8
ALL_FEATURES
100
AcDbLine
 62
7
  6
CONTINUOUS
 10
7.7754761744
 20
4.2536249758
 11
7.7982502002
 21
4.2404803271
  0
LWPOLYLINE
  5
29E
100
AcDbEntity
  8
ALL_FEATURES
100
AcDbPolyline
 62
7
  6
CONTINUOUS
 90
3
 70
0
 10
7.8104817957
 20
4.2334154887
 10
7.8232812979
 20
4.2260269869
 10
7.836646082
 20
4.2183118905
  0
LWPOLYLINE
  5
29F
100
AcDbEntity
  8
ALL_FEATURES
100
AcDbPolyline
 62
7
  6
CONTINUOUS
 90
5
 70
0
 10
6.9596164872
 20
4.724666291
 10
6.9451537939
 20
4.7330141377
 10
6.9301553
 20
4.7416662124
 10
6.9146307004
 20
4.7506273739
 10
6.8985902329
 20
4.7598976222
  0
LINE
  5
2A0
100
AcDbEntity
  8
ALL_FEATURES
100
AcDbLine
 62
7
  6
CONTINUOUS
 10
7.0347042914
 20
4.6813144459
 11
7.0119302657
 21
4.6944590946
  0
LWPOLYLINE
  5
2A1
100
AcDbEntity
  8
ALL_FEATURES
100
AcDbPolyline
 62
7
  6
CONTINUOUS
 90
3
 70
0
 10
6.9996986702
 20
4.701523933
 10
6.9868991679
 20
4.7089124348
 10
6.9735343839
 20
4.7166275312
  0
LINE
  5
2A2
100
AcDbEntity
  8
ALL_FEATURES
100
AcDbLine
 62
7
  6
CONTINUOUS
 10
7.1550902329
 20
4.6118072781
 11
6.8908876494
 21
4.7643447108
  0
LINE
  5
2A3
100
AcDbEntity
  8
ALL_FEATURES
100
AcDbLine
 62
7
  6
CONTINUOUS
 10
7.6550902329
 20
4.3231321435
 11
7.9192928164
 21
4.1705947108
  0
LINE
  5
2A4
100
AcDbEntity
  8
ALL_FEATURES
100
AcDbLine
 62
7
  6
CONTINUOUS
 10
7.4050902329
 20
4.1787945762
 11
7.6550902329
 21
4.3231321435
  0
LINE
  5
2A5
100
AcDbEntity
  8
ALL_FEATURES
100
AcDbLine
 62
7
  6
CONTINUOUS
 10
7.4050902329
 20
4.1351988688
 11
7.692845223
 21
4.3013342898
  0
LINE
  5
2A6
100
AcDbEntity
  8
ALL_FEATURES
100
AcDbLine
 62
7
  6
CONTINUOUS
 10
7.6550902329
 20
4.6118072781
 11
7.4050902329
 21
4.7561448454
  0
LINE
  5
2A7
100
AcDbEntity
  8
ALL_FEATURES
100
AcDbLine
 62
7
  6
CONTINUOUS
 10
6.8985902329
 20
4.7598976222
 11
6.8985902329
 21
4.1750417995
  0
LINE
  5
2A8
100
AcDbEntity
  8
ALL_FEATURES
100
AcDbLine
 62
7
  6
CONTINUOUS
 10
7.4050902329
 20
3.8826138882
 11
7.9115902329
 21
4.1750417995
  0
LINE
  5
2A9
100
AcDbEntity
  8
ALL_FEATURES
100
AcDbLine
 62
7
  6
CONTINUOUS
 10
7.692845223
 20
4.6336051318
 11
7.4050902329
 21
4.7997405528
  0
LINE
  5
2AA
100
AcDbEntity
  8
ALL_FEATURES
100
AcDbLine
 62
7
  6
CONTINUOUS
 10
7.9115902329
 20
4.7598976222
 11
7.4050902329
 21
5.0523255335
  0
LINE
  5
2AB
100
AcDbEntity
  8
ALL_FEATURES
100
AcDbLine
 62
7
  6
CONTINUOUS
 10
7.1173352428
 20
4.6336051318
 11
7.1173352428
 21
4.3013342898
  0
LINE
  5
2AC
100
AcDbEntity
  8
ALL_FEATURES
100
AcDbLine
 62
7
  6
CONTINUOUS
 10
7.1550902329
 20
4.6118072781
 11
7.1550902329
 21
4.3231321435
  0
LWPOLYLINE
  5
2AD
100
AcDbEntity
  8
ALL_FEATURES
100
AcDbPolyline
 62
7
  6
CONTINUOUS
 90
5
 70
0
 10
7.4050883335
 20
3.9530798403
 10
7.4050902329
 20
3.9363808571
 10
7.4050965634
 20
3.919065743
 10
7.4050982697
 20
3.9011404647
 10
7.4050902329
 20
3.8826138882
  0
LINE
  5
2AE
100
AcDbEntity
  8
ALL_FEATURES
100
AcDbLine
 62
7
  6
CONTINUOUS
 10
7.4050882307
 20
4.0397837088
 11
7.4050916438
 21
4.0134884996
  0
LINE
  5
2AF
100
AcDbEntity
  8
ALL_FEATURES
100
AcDbLine
 62
7
  6
CONTINUOUS
 10
7.4050891121
 20
3.999363208
 11
7.4050911555
 21
3.9691524723
  0
LINE
  5
2B0
100
AcDbEntity
  8
ALL_FEATURES
100
AcDbLine
 62
7
  6
CONTINUOUS
 10
7.4050902329
 20
4.1787945762
 11
7.4050902329
 21
3.8737197108
  0
LINE
  5
2B1
100
AcDbEntity
  8
ALL_FEATURES
100
AcDbLine
 62
7
  6
CONTINUOUS
 10
7.4050902329
 20
4.7561448454
 11
7.4050902329
 21
5.0612197108
  0
LINE
  5
2B2
100
AcDbEntity
  8
ALL_FEATURES
100
AcDbLine
 62
7
  6
CONTINUOUS
 10
7.4050913927
 20
4.8048811308
 11
7.4050912509
 21
4.8107372877
  0
LINE
  5
2B3
100
AcDbEntity
  8
ALL_FEATURES
100
AcDbLine
 62
7
  6
CONTINUOUS
 10
7.4050906823
 20
4.860759804
 11
7.4050902329
 21
4.8715302811
  0
LINE
  5
2B4
100
AcDbEntity
  8
ALL_FEATURES
100
AcDbLine
 62
7
  6
CONTINUOUS
 10
7.4050913538
 20
4.9355762137
 11
7.4050893103
 21
4.9657869494
  0
LINE
  5
2B5
100
AcDbEntity
  8
ALL_FEATURES
100
AcDbLine
 62
7
  6
CONTINUOUS
 10
7.4050902329
 20
4.8412959443
 11
7.405089106
 21
4.8506831774
  0
LINE
  5
2B6
100
AcDbEntity
  8
ALL_FEATURES
100
AcDbLine
 62
7
  6
CONTINUOUS
 10
7.4050902329
 20
4.907977696
 11
7.405088822
 21
4.9214509221
  0
LWPOLYLINE
  5
2B7
100
AcDbEntity
  8
ALL_FEATURES
100
AcDbPolyline
 62
7
  6
CONTINUOUS
 90
5
 70
0
 10
7.4050921323
 20
4.9818595814
 10
7.4050902329
 20
4.9985585646
 10
7.4050839024
 20
5.0158736787
 10
7.4050821961
 20
5.033798957
 10
7.4050902329
 20
5.0523255335
  0
LINE
  5
2B8
100
AcDbEntity
  8
0
100
AcDbLine
 62
7
  6
CONTINUOUS
 10
7.6550902329
 20
4.6118072781
 11
7.6550902329
 21
4.5587197108
  0
LINE
  5
2B9
100
AcDbEntity
  8
0
100
AcDbLine
 62
7
  6
CONTINUOUS
 10
7.6550902329
 20
4.3762197108
 11
7.6550902329
 21
4.3231321435
  0
LINE
  5
2BA
100
AcDbEntity
  8
0
100
AcDbLine
 62
7
  6
CONTINUOUS
 10
7.6585902329
 20
4.3762197108
 11
7.6585902329
 21
4.5587197108
  0
LINE
  5
2BB
100
AcDbEntity
  8
0
100
AcDbLine
 62
7
  6
CONTINUOUS
 10
7.6900902329
 20
4.3347256756
 11
7.6900902329
 21
4.6002197108
  0
LINE
  5
2BC
100
AcDbEntity
  8
ALL_FEATURES
100
AcDbLine
 62
7
  6
CONTINUOUS
 10
7.692845223
 20
4.3013342898
 11
7.692845223
 21
4.323704357
  0
LINE
  5
2BD
100
AcDbEntity
  8
ALL_FEATURES
100
AcDbLine
 62
7
  6
CONTINUOUS
 10
7.692845223
 20
4.6112350647
 11
7.692845223
 21
4.6336051318
  0
LINE
  5
2BE
100
AcDbEntity
  8
0
100
AcDbLine
 62
7
  6
CONTINUOUS
 10
7.7370902329
 20
4.3347197108
 11
7.7370902329
 21
4.6002197108
  0
LINE
  5
2BF
100
AcDbEntity
  8
ALL_FEATURES
100
AcDbLine
 62
7
  6
CONTINUOUS
 10
7.9115902329
 20
4.1750417995
 11
7.9115902329
 21
4.3253668708
  0
LINE
  5
2C0
100
AcDbEntity
  8
ALL_FEATURES
100
AcDbLine
 62
7
  6
CONTINUOUS
 10
7.9115902329
 20
4.6095725509
 11
7.9115902329
 21
4.7598976222
  0
LINE
  5
2C1
100
AcDbEntity
  8
0
100
AcDbLine
 62
7
  6
CONTINUOUS
 10
8.9546240986
 20
4.6654697108
 11
8.9478402329
 21
4.6537197108
  0
LINE
  5
2C2
100
AcDbEntity
  8
0
100
AcDbLine
 62
7
  6
CONTINUOUS
 10
8.9546240986
 20
4.2694697108
 11
8.9478402329
 21
4.2812197108
  0
LINE
  5
2C3
100
AcDbEntity
  8
0
100
AcDbLine
 62
7
  6
CONTINUOUS
 10
8.9478402329
 20
4.2812197108
 11
8.9414595252
 21
4.2701680008
  0
LINE
  5
2C4
100
AcDbEntity
  8
0
100
AcDbLine
 62
7
  6
CONTINUOUS
 10
8.9478402329
 20
4.6537197108
 11
8.9414595252
 21
4.6647714208
  0
LINE
  5
2C5
100
AcDbEntity
  8
0
100
AcDbLine
 62
7
  6
CONTINUOUS
 10
8.9414595252
 20
4.2701680008
 11
8.9414595252
 21
4.6647714208
  0
LINE
  5
2C6
100
AcDbEntity
  8
0
100
AcDbLine
 62
7
  6
CONTINUOUS
 10
8.9478402329
 20
4.2812197108
 11
8.9478402329
 21
4.6537197108
  0
LINE
  5
2C7
100
AcDbEntity
  8
0
100
AcDbLine
 62
7
  6
CONTINUOUS
 10
8.9546240986
 20
4.2694697108
 11
8.9546240986
 21
4.6654697108
  0
LINE
  5
2C8
100
AcDbEntity
  8
0
100
AcDbLine
 62
7
  6
CONTINUOUS
 10
8.9700902329
 20
4.2694697108
 11
8.9700902329
 21
4.6654697108
  0
LINE
  5
2C9
100
AcDbEntity
  8
0
100
AcDbLine
 62
7
  6
CONTINUOUS
 10
9.0015902329
 20
4.3009697108
 11
9.0015902329
 21
4.6339697108
  0
LINE
  5
2CA
100
AcDbEntity
  8
0
100
AcDbLine
 62
7
  6
CONTINUOUS
 10
9.0266898345
 20
4.3754305604
 11
9.0266898345
 21
4.5595088613
  0
ARC
  5
2CB
100
AcDbEntity
  8
0
100
AcDbCircle
 62
7
  6
CONTINUOUS
 10
1.8400852329
 20
4.3445876536
 40
0.0315
100
AcDbArc
 50
0.0
 51
78.2765970117
  0
ARC
  5
2CC
100
AcDbEntity
  8
0
100
AcDbCircle
 62
7
  6
CONTINUOUS
 10
1.9030852329
 20
4.3009697108
 40
0.0315
100
AcDbArc
 50
180.0
 51
270.0
  0
ARC
  5
2CD
100
AcDbEntity
  8
0
100
AcDbCircle
 62
7
  6
CONTINUOUS
 10
3.2145852329
 20
4.3447197108
 40
0.0315
100
AcDbArc
 50
90.0
 51
180.0
  0
ARC
  5
2CE
100
AcDbEntity
  8
0
100
AcDbCircle
 62
7
  6
CONTINUOUS
 10
3.1595852329
 20
4.3347197108
 40
0.0235
100
AcDbArc
 50
180.0
 51
360.0
  0
ARC
  5
2CF
100
AcDbEntity
  8
ALL_FEATURES
100
AcDbCircle
 62
7
  6
CONTINUOUS
 10
3.4680852329
 20
4.4674697108
 40
0.59375
100
AcDbArc
 50
194.2147781725
 51
165.7852220462
  0
CIRCLE
  5
2D0
100
AcDbEntity
  8
ALL_ASSEMBLY_MEMBERS
100
AcDbCircle
 62
7
  6
CONTINUOUS
 10
3.4680852329
 20
4.4674697108
 40
0.245
  0
ARC
  5
2D1
100
AcDbEntity
  8
0
100
AcDbCircle
 62
7
  6
CONTINUOUS
 10
1.8655852329
 20
4.4674697108
 40
0.094
100
AcDbArc
 50
101.7234029883
 51
258.2765970117
  0
ARC
  5
2D2
100
AcDbEntity
  8
0
100
AcDbCircle
 62
7
  6
CONTINUOUS
 10
3.2145852329
 20
4.5902197108
 40
0.0315
100
AcDbArc
 50
180.0
 51
270.0
  0
ARC
  5
2D3
100
AcDbEntity
  8
0
100
AcDbCircle
 62
7
  6
CONTINUOUS
 10
1.9030852329
 20
4.6339697108
 40
0.0315
100
AcDbArc
 50
90.0
 51
180.0
  0
ARC
  5
2D4
100
AcDbEntity
  8
0
100
AcDbCircle
 62
7
  6
CONTINUOUS
 10
1.8400852329
 20
4.5903517681
 40
0.0315
100
AcDbArc
 50
281.7234029883
 51
360.0
  0
ARC
  5
2D5
100
AcDbEntity
  8
0
100
AcDbCircle
 62
7
  6
CONTINUOUS
 10
3.1595852329
 20
4.6002197108
 40
0.0235
100
AcDbArc
 50
0.0
 51
180.0
  0
ARC
  5
2D6
100
AcDbEntity
  8
0
100
AcDbCircle
 62
7
  6
CONTINUOUS
 10
7.6585902329
 20
4.3447197108
 40
0.0315
100
AcDbArc
 50
0.0
 51
90.0
  0
ARC
  5
2D7
100
AcDbEntity
  8
0
100
AcDbCircle
 62
7
  6
CONTINUOUS
 10
8.9700902329
 20
4.3009697108
 40
0.0315
100
AcDbArc
 50
270.0
 51
360.0
  0
ARC
  5
2D8
100
AcDbEntity
  8
0
100
AcDbCircle
 62
7
  6
CONTINUOUS
 10
9.0330902329
 20
4.3445876536
 40
0.0315
100
AcDbArc
 50
101.7234029883
 51
180.0
  0
ARC
  5
2D9
100
AcDbEntity
  8
0
100
AcDbCircle
 62
7
  6
CONTINUOUS
 10
7.7135902329
 20
4.3347197108
 40
0.0235
100
AcDbArc
 50
180.0
 51
360.0
  0
ARC
  5
2DA
100
AcDbEntity
  8
ALL_FEATURES
100
AcDbCircle
 62
7
  6
CONTINUOUS
 10
7.4050902329
 20
4.4674697108
 40
0.59375
100
AcDbArc
 50
14.2147781725
 51
345.7852220462
  0
ARC
  5
2DB
100
AcDbEntity
  8
0
100
AcDbCircle
 62
7
  6
CONTINUOUS
 10
5.4365902329
 20
4.4674697108
 40
0.59375
100
AcDbArc
 50
294.0769172297
 51
245.8489625609
  0
CIRCLE
  5
2DC
100
AcDbEntity
  8
ALL_ASSEMBLY_MEMBERS
100
AcDbCircle
 62
7
  6
CONTINUOUS
 10
7.4050902329
 20
4.4674697108
 40
0.245
  0
ARC
  5
2DD
100
AcDbEntity
  8
0
100
AcDbCircle
 62
7
  6
CONTINUOUS
 10
9.0075902329
 20
4.4674697108
 40
0.094
100
AcDbArc
 50
281.7234029883
 51
78.2765970117
  0
ARC
  5
2DE
100
AcDbEntity
  8
0
100
AcDbCircle
 62
7
  6
CONTINUOUS
 10
9.0330902329
 20
4.5903517681
 40
0.0315
100
AcDbArc
 50
180.0
 51
258.2765970117
  0
ARC
  5
2DF
100
AcDbEntity
  8
0
100
AcDbCircle
 62
7
  6
CONTINUOUS
 10
8.9700902329
 20
4.6339697108
 40
0.0315
100
AcDbArc
 50
0.0
 51
90.0
  0
ARC
  5
2E0
100
AcDbEntity
  8
0
100
AcDbCircle
 62
7
  6
CONTINUOUS
 10
7.6585902329
 20
4.5902197108
 40
0.0315
100
AcDbArc
 50
270.0
 51
360.0
  0
ARC
  5
2E1
100
AcDbEntity
  8
0
100
AcDbCircle
 62
7
  6
CONTINUOUS
 10
7.7135902329
 20
4.6002197108
 40
0.0235
100
AcDbArc
 50
0.0
 51
180.0
  0
SPLINE
  5
2E2
100
AcDbEntity
  8
0
100
AcDbSpline
 62
7
  6
CONTINUOUS
 70
0
 71
3
 72
24
 73
20
 74
0
 42
0.0000001
 43
0.0000001
 44
0.0000000001
 40
0.0
 40
0.0
 40
0.0
 40
0.0
 40
0.0074814426
 40
0.0168765854
 40
0.0281925162
 40
0.0414198141
 40
0.0565422812
 40
0.0735372717
 40
0.1130059841
 40
0.1595294196
 40
0.2127449079
 40
0.2722401381
 40
0.3375478253
 40
0.4081605804
 40
0.4835239857
 40
0.6460998641
 40
0.8201185148
 40
0.9097261775
 40
1.0
 40
1.0
 40
1.0
 40
1.0
 10
5.7219682301
 20
4.4639451684
 30
0.0
 10
5.7214703489
 20
4.4630443412
 30
0.0
 10
5.7204778696
 20
4.4609407845
 30
0.0
 10
5.719068271
 20
4.4573260253
 30
0.0
 10
5.717581836
 20
4.4528982745
 30
0.0
 10
5.7160277894
 20
4.4476664366
 30
0.0
 10
5.7144152112
 20
4.4416394831
 30
0.0
 10
5.7120808554
 20
4.4320710308
 30
0.0
 10
5.7091127448
 20
4.4182141909
 30
0.0
 10
5.705600119
 20
4.3993860001
 30
0.0
 10
5.7020488032
 20
4.3777676024
 30
0.0
 10
5.6985240179
 20
4.3535304888
 30
0.0
 10
5.6950907251
 20
4.3268651956
 30
0.0
 10
5.6918137908
 20
4.2979820444
 30
0.0
 10
5.6876332543
 20
4.25573811
 30
0.0
 10
5.683253979
 20
4.1992247277
 30
0.0
 10
5.6803584141
 20
4.1406523711
 30
0.0
 10
5.6790726819
 20
4.0919798424
 30
0.0
 10
5.6788312535
 20
4.0672322742
 30
0.0
 10
5.6788232157
 20
4.0548128533
 30
0.0
  0
SPLINE
  5
2E3
100
AcDbEntity
  8
0
100
AcDbSpline
 62
7
  6
CONTINUOUS
 70
0
 71
3
 72
23
 73
19
 74
0
 42
0.0000001
 43
0.0000001
 44
0.0000000001
 40
0.0
 40
0.0
 40
0.0
 40
0.0
 40
0.0074891165
 40
0.0168888743
 40
0.028206414
 40
0.0414324139
 40
0.0565507909
 40
0.0735391323
 40
0.1129877963
 40
0.1594836002
 40
0.2126664259
 40
0.2721262503
 40
0.3373990385
 40
0.407980173
 40
0.4833189453
 40
0.6458809192
 40
0.8199567868
 40
1.0
 40
1.0
 40
1.0
 40
1.0
 10
5.1512086234
 20
4.4643132697
 30
0.0
 10
5.1517037708
 20
4.4634145037
 30
0.0
 10
5.1526905029
 20
4.4613168316
 30
0.0
 10
5.1540912682
 20
4.4577134844
 30
0.0
 10
5.1555674176
 20
4.4533015686
 30
0.0
 10
5.1571098166
 20
4.4480899188
 30
0.0
 10
5.1587094822
 20
4.442087431
 30
0.0
 10
5.1610239363
 20
4.4325596123
 30
0.0
 10
5.1639647716
 20
4.4187633653
 30
0.0
 10
5.1674425633
 20
4.4000189525
 30
0.0
 10
5.1709560752
 20
4.3784977448
 30
0.0
 10
5.1744409196
 20
4.354369532
 30
0.0
 10
5.1778328559
 20
4.3278230196
 30
0.0
 10
5.181067904
 20
4.2990664147
 30
0.0
 10
5.1851917843
 20
4.2569997266
 30
0.0
 10
5.1895048457
 20
4.2007089441
 30
0.0
 10
5.1929448768
 20
4.1299898501
 30
0.0
 10
5.1938195011
 20
4.0814666569
 30
0.0
 10
5.1938237148
 20
4.056797727
 30
0.0
  0
SPLINE
  5
2E4
100
AcDbEntity
  8
0
100
AcDbSpline
 62
7
  6
CONTINUOUS
 70
0
 71
3
 72
13
 73
9
 74
0
 42
0.0000001
 43
0.0000001
 44
0.0000000001
 40
0.0
 40
0.0
 40
0.0
 40
0.0
 40
0.0762542598
 40
0.160943432
 40
0.2581867902
 40
0.3707064546
 40
0.6476694641
 40
1.0
 40
1.0
 40
1.0
 40
1.0
 10
5.7252653071
 20
4.4672828828
 30
0.0
 10
5.7251417499
 20
4.4672829628
 30
0.0
 10
5.7248800572
 20
4.467242923
 30
0.0
 10
5.724492774
 20
4.46707651
 30
0.0
 10
5.724096548
 20
4.4668067789
 30
0.0
 10
5.7235137069
 20
4.4662725831
 30
0.0
 10
5.7227703749
 20
4.4653196312
 30
0.0
 10
5.7222443863
 20
4.4644448239
 30
0.0
 10
5.7219682301
 20
4.4639451684
 30
0.0
  0
SPLINE
  5
2E5
100
AcDbEntity
  8
0
100
AcDbSpline
 62
7
  6
CONTINUOUS
 70
0
 71
3
 72
30
 73
26
 74
0
 42
0.0000001
 43
0.0000001
 44
0.0000000001
 40
0.0
 40
0.0
 40
0.0
 40
0.0
 40
0.0015520342
 40
0.0036414851
 40
0.0062813919
 40
0.0094768671
 40
0.0132297381
 40
0.0175402428
 40
0.0278305509
 40
0.0403296886
 40
0.0550075541
 40
0.0718320015
 40
0.0907669879
 40
0.1117646755
 40
0.1347742423
 40
0.1866152431
 40
0.245793266
 40
0.3117545516
 40
0.3838722438
 40
0.4614782692
 40
0.5438544437
 40
0.6302439623
 40
0.7198515088
 40
0.8118925562
 40
1.0
 40
1.0
 40
1.0
 40
1.0
 10
5.5810895678
 20
4.7173762445
 30
0.0
 10
5.580917776
 20
4.7170791365
 30
0.0
 10
5.5805954709
 20
4.7163369829
 30
0.0
 10
5.5801680015
 20
4.7150151368
 30
0.0
 10
5.5797315453
 20
4.713316843
 30
0.0
 10
5.5792873
 20
4.7112434103
 30
0.0
 10
5.5788365851
 20
4.7087945843
 30
0.0
 10
5.5781893631
 20
4.7047877779
 30
0.0
 10
5.5773891918
 20
4.6988479653
 30
0.0
 10
5.5764572625
 20
4.6906151303
 30
0.0
 10
5.5755113812
 20
4.6809309206
 30
0.0
 10
5.5745550266
 20
4.6698186954
 30
0.0
 10
5.5735922632
 20
4.6573049161
 30
0.0
 10
5.5726261919
 20
4.6434200559
 30
0.0
 10
5.5712844355
 20
4.6222676769
 30
0.0
 10
5.5696449842
 20
4.5926750434
 30
0.0
 10
5.567784201
 20
4.5535836237
 30
0.0
 10
5.5659894961
 20
4.5100011436
 30
0.0
 10
5.564288811
 20
4.4623371546
 30
0.0
 10
5.5627115973
 20
4.41103729
 30
0.0
 10
5.5612873941
 20
4.3565759044
 30
0.0
 10
5.5600462786
 20
4.2994555102
 30
0.0
 10
5.5590182625
 20
4.2401933305
 30
0.0
 10
5.5579656817
 20
4.1584363363
 30
0.0
 10
5.5576001616
 20
4.0964872425
 30
0.0
 10
5.5575732411
 20
4.0548913253
 30
0.0
  0
SPLINE
  5
2E6
100
AcDbEntity
  8
0
100
AcDbSpline
 62
7
  6
CONTINUOUS
 70
0
 71
3
 72
30
 73
26
 74
0
 42
0.0000001
 43
0.0000001
 44
0.0000000001
 40
0.0
 40
0.0
 40
0.0
 40
0.0
 40
0.0015520342
 40
0.0036414851
 40
0.0062813919
 40
0.0094768671
 40
0.0132297381
 40
0.0175402428
 40
0.0278305509
 40
0.0403296886
 40
0.0550075541
 40
0.0718320015
 40
0.0907669879
 40
0.1117646755
 40
0.1347742423
 40
0.1866152431
 40
0.245793266
 40
0.3117545516
 40
0.3838722438
 40
0.4614782692
 40
0.5438544437
 40
0.6302439623
 40
0.7198515088
 40
0.8118925562
 40
1.0
 40
1.0
 40
1.0
 40
1.0
 10
5.2924144937
 20
4.7175630725
 30
0.0
 10
5.2925859008
 20
4.7172657424
 30
0.0
 10
5.292907245
 20
4.7165231723
 30
0.0
 10
5.293333003
 20
4.715200774
 30
0.0
 10
5.2937672607
 20
4.7135019166
 30
0.0
 10
5.2942088218
 20
4.7114279107
 30
0.0
 10
5.2946563666
 20
4.7089785032
 30
0.0
 10
5.2952984016
 20
4.7049708625
 30
0.0
 10
5.2960908839
 20
4.6990300191
 30
0.0
 10
5.297012156
 20
4.6907959847
 30
0.0
 10
5.2979455014
 20
4.6811105589
 30
0.0
 10
5.2988874718
 20
4.6699971051
 30
0.0
 10
5.2998340368
 20
4.6574820901
 30
0.0
 10
5.3007821349
 20
4.643595991
 30
0.0
 10
5.3020965109
 20
4.6224418931
 30
0.0
 10
5.3036976567
 20
4.5928471622
 30
0.0
 10
5.3055078391
 20
4.5537533668
 30
0.0
 10
5.3072461301
 20
4.5101686001
 30
0.0
 10
5.3088851184
 20
4.4625024496
 30
0.0
 10
5.3103959291
 20
4.4112005865
 30
0.0
 10
5.3117496372
 20
4.3567374031
 30
0.0
 10
5.312916816
 20
4.2996154503
 30
0.0
 10
5.3138681233
 20
4.2403519896
 30
0.0
 10
5.3148148785
 20
4.1585937014
 30
0.0
 10
5.3151002124
 20
4.0966441863
 30
0.0
 10
5.3150732919
 20
4.0550482692
 30
0.0
  0
SPLINE
  5
2E7
100
AcDbEntity
  8
0
100
AcDbSpline
 62
7
  6
CONTINUOUS
 70
0
 71
3
 72
13
 73
9
 74
0
 42
0.0000001
 43
0.0000001
 44
0.0000000001
 40
0.0
 40
0.0
 40
0.0
 40
0.0
 40
0.0762465054
 40
0.1609295582
 40
0.2581691331
 40
0.3706875409
 40
0.6476554392
 40
1.0
 40
1.0
 40
1.0
 40
1.0
 10
5.1479151588
 20
4.4676565389
 30
0.0
 10
5.1480387407
 20
4.4676564589
 30
0.0
 10
5.1483004381
 20
4.4676160633
 30
0.0
 10
5.1486875851
 20
4.4674490824
 30
0.0
 10
5.1490835437
 20
4.4671787336
 30
0.0
 10
5.1496658223
 20
4.4666435714
 30
0.0
 10
5.1504080837
 20
4.4656892864
 30
0.0
 10
5.1509330527
 20
4.4648134715
 30
0.0
 10
5.1512086234
 20
4.4643132697
 30
0.0
  0
ENDSEC
  0
SECTION
  2
OBJECTS
  0
DICTIONARY
  5
C
100
AcDbDictionary
280
0
281
1
  3
ACAD_GROUP
350
D
  3
ACAD_MLINESTYLE
350
17
  3
ACAD_LAYOUT
350
1A
  3
ACAD_PLOTSETTINGS
350
19
  3
ACAD_PLOTSTYLENAME
350
E
  0
DICTIONARY
  5
D
102
{ACAD_REACTORS
330
C
102
}
100
AcDbDictionary
280
0
281
1
  0
ACDBDICTIONARYWDFLT
  5
E
102
{ACAD_REACTORS
330
C
102
}
100
AcDbDictionary
281
1
  3
Normal
350
F
100
AcDbDictionaryWithDefault
340
F
  0
DICTIONARY
  5
17
102
{ACAD_REACTORS
330
C
102
}
100
AcDbDictionary
280
0
281
1
  3
Standard
350
18
  0
DICTIONARY
  5
19
102
{ACAD_REACTORS
330
C
102
}
100
AcDbDictionary
281
1
  0
DICTIONARY
  5
1A
102
{ACAD_REACTORS
330
C
102
}
100
AcDbDictionary
281
1
  3
Model
350
2E8
  3
Layout1
350
2E9
  0
ACDBPLACEHOLDER
  5
F
102
{ACAD_REACTORS
330
E
102
}
  0
MLINESTYLE
  5
18
102
{ACAD_REACTORS
330
17
102
}
100
AcDbMlineStyle
  2
STANDARD
 70
0
  3

 62
256
 51
90.0
 52
90.0
 71
2
 49
0.5
 62
256
  6
BYLAYER
 49
-0.5
 62
256
  6
BYLAYER
  0
LAYOUT
  5
2E8
102
{ACAD_REACTORS
330
1A
102
}
100
AcDbPlotSettings
  1

  2
none_device
  4
ANSI_A_(11.00_x_8.50_Inches)
  6

 40
0.0
 41
0.0
 42
0.0
 43
0.0
 44
279.4
 45
215.9
 46
0.0
 47
0.0
 48
0.0
 49
0.0
140
0.0
141
0.0
142
1.0
143
1.0
 70
1024
 72
0
 73
0
 74
0
  7

 75
0
147
1.0
148
0.0
149
0.0
100
AcDbLayout
  1
Model
 70
0
 71
0
 10
0.0
 20
0.0
 11
11.0
 21
8.5
 12
0.0
 22
0.0
 32
0.0
 14
0.0
 24
0.0
 34
0.0
 15
0.0
 25
0.0
 35
0.0
146
0.0
 13
0.0
 23
0.0
 33
0.0
 16
1.0
 26
0.0
 36
0.0
 17
0.0
 27
1.0
 37
0.0
 76
0
330
217
345
0
346
0
  0
LAYOUT
  5
2E9
102
{ACAD_REACTORS
330
1A
102
}
100
AcDbPlotSettings
  1

  2
none_device
  4
ANSI_A_(11.00_x_8.50_Inches)
  6

 40
0.0
 41
0.0
 42
0.0
 43
0.0
 44
279.4
 45
215.9
 46
0.0
 47
0.0
 48
0.0
 49
0.0
140
0.0
141
0.0
142
1.0
143
1.0
 70
0
 72
0
 73
0
 74
0
  7

 75
0
147
1.0
148
0.0
149
0.0
100
AcDbLayout
  1
Layout1
 70
0
 71
1
 10
0.0
 20
0.0
 11
11.0
 21
8.5
 12
0.0
 22
0.0
 32
0.0
 14
0.0
 24
0.0
 34
0.0
 15
0.0
 25
0.0
 35
0.0
146
0.0
 13
0.0
 23
0.0
 33
0.0
 16
1.0
 26
0.0
 36
0.0
 17
0.0
 27
1.0
 37
0.0
 76
0
330
218
345
0
346
0
  0
ENDSEC
  0
EOF
