999
DXF file: E:\BT Custom\CADOUTPUT\_TOP.dxf
999
Pro/ENGINEER 2018400 by Parametric Technology Corporation
  0
SECTION
  2
HEADER
  9
$ACADVER
  1
AC1018
  9
$DWGCODEPAGE
  3
ANSI_1252
  9
$EXTMAX
 10
22.0
 20
17.0
 30
0.0
  9
$EXTMIN
 10
0.0
 20
0.0
 30
0.0
  9
$LIMMIN
 10
0.0
 20
0.0
  9
$LIMMAX
 10
22.0
 20
17.0
  9
$VIEWCTR
 10
11.0
 20
8.5
  9
$VIEWSIZE
 40
17.0
  9
$CLAYER
  8
0
  9
$LTSCALE
 40
1.21
  9
$CELTYPE
  6
BYLAYER
  9
$DIMSCALE
 40
1.0
  9
$DIMASZ
 40
0.1
  9
$DIMEXO
 40
0.0625
  9
$DIMDLI
 40
0.836
  9
$DIMEXE
 40
0.125
  9
$DIMCEN
 40
0.198
  9
$DIMLFAC
 40
1.0
  9
$DIMBLK
  1
_FILLED
  9
$DIMALT
 70
1
  9
$DIMALTD
 70
2
  9
$DIMALTTD
 70
2
  9
$DIMALTF
 40
25.4
  9
$DIMTXT
 40
0.08
  9
$DIMTOL
 70
1
  9
$DIMLIM
 70
0
  9
$DIMTFAC
 40
1.0
  9
$DIMTP
 40
0.001
  9
$DIMTM
 40
0.001
  9
$DIMGAP
 40
0.09
  9
$DIMDSEP
 70
46
  9
$AUNITS
 70
0
  9
$PDMODE
 70
3
  9
$PDSIZE
 40
0.06
  9
$HANDSEED
  5
41E
  9
$TILEMODE
 70
1
  9
$MEASUREMENT
 70
0
  9
$INSUNITS
 70
1
  0
ENDSEC
  0
SECTION
  2
CLASSES
  0
CLASS
  1
ACDBDICTIONARYWDFLT
  2
AcDbDictionaryWithDefault
  3
AutoCAD 2000
 90
0
 91
1
280
0
281
0
  0
CLASS
  1
ACDBPLACEHOLDER
  2
AcDbPlaceHolder
  3
AutoCAD 2000
 90
0
 91
1
280
0
281
0
  0
CLASS
  1
LAYOUT
  2
AcDbLayout
  3
AutoCAD 2000
 90
0
 91
0
280
0
281
0
  0
ENDSEC
  0
SECTION
  2
TABLES
  0
TABLE
  2
VPORT
  5
8
100
AcDbSymbolTable
 70
2
  0
VPORT
  5
1F4
100
AcDbSymbolTableRecord
100
AcDbViewportTableRecord
  2
*ACTIVE
 70
0
 10
0.0
 20
0.0
 11
1.0
 21
1.0
 12
11.0
 22
8.5
 13
0.0
 23
0.0
 14
1.0
 24
1.0
 15
0.0
 25
0.0
 16
0.0
 26
0.0
 36
1.0
 17
0.0
 27
0.0
 37
0.0
 40
17.0
 41
1.2941176471
 42
50.0
 43
0.0
 44
0.0
 50
0.0
 51
0.0
 71
0
 72
100
 73
1
 74
1
 75
0
 76
0
 77
0
 78
0
  0
ENDTAB
  0
TABLE
  2
LTYPE
  5
5
100
AcDbSymbolTable
 70
6
  0
LTYPE
  5
14
100
AcDbSymbolTableRecord
100
AcDbLinetypeTableRecord
  2
BYBLOCK
 70
0
  3

 72
65
 73
0
 40
0.0
  0
LTYPE
  5
15
100
AcDbSymbolTableRecord
100
AcDbLinetypeTableRecord
  2
BYLAYER
 70
0
  3

 72
65
 73
0
 40
0.0
  0
LTYPE
  5
16
100
AcDbSymbolTableRecord
100
AcDbLinetypeTableRecord
  2
CONTINUOUS
 70
64
  3
Solid line
 72
65
 73
0
 40
0.0
  0
LTYPE
  5
1F5
100
AcDbSymbolTableRecord
100
AcDbLinetypeTableRecord
  2
CENTER
 70
64
  3
____ _ ____ _ ____ _ ____ _ ____ _ ____ _ ____
 72
65
 73
4
 40
0.6
 49
0.375
 74
0
 49
-0.075
 74
0
 49
0.075
 74
0
 49
-0.075
 74
0
  0
LTYPE
  5
1F6
100
AcDbSymbolTableRecord
100
AcDbLinetypeTableRecord
  2
HIDDEN
 70
64
  3
- - - - - - - - - - - - - - - - - - - -
 72
65
 73
2
 40
0.2
 49
0.1
 74
0
 49
-0.1
 74
0
  0
LTYPE
  5
1F7
100
AcDbSymbolTableRecord
100
AcDbLinetypeTableRecord
  2
PHANTOM
 70
64
  3
_____ _ _ _____ _ _ _____ _ _ _____
 72
65
 73
6
 40
0.8
 49
0.45
 74
0
 49
-0.05
 74
0
 49
0.1
 74
0
 49
-0.05
 74
0
 49
0.1
 74
0
 49
-0.05
 74
0
  0
LTYPE
  5
1F8
100
AcDbSymbolTableRecord
100
AcDbLinetypeTableRecord
  2
DOT
 70
64
  3
. . . . . . . . . . . . . . . . . . . .
 72
65
 73
2
 40
0.2
 49
0.1
 74
0
 49
-0.1
 74
0
  0
LTYPE
  5
1F9
100
AcDbSymbolTableRecord
100
AcDbLinetypeTableRecord
  2
DASHED
 70
64
  3
- - - - - - - - - - - - - - - - - - - -
 72
65
 73
2
 40
0.2
 49
0.1
 74
0
 49
-0.1
 74
0
  0
ENDTAB
  0
TABLE
  2
LAYER
  5
2
100
AcDbSymbolTable
 70
36
  0
LAYER
  5
10
100
AcDbSymbolTableRecord
100
AcDbLayerTableRecord
  2
0
 70
0
 62
7
  6
CONTINUOUS
370
-3
390
F
  0
LAYER
  5
1FA
100
AcDbSymbolTableRecord
100
AcDbLayerTableRecord
  2
DEFAULT_1
 70
0
 62
7
  6
CENTER
370
-3
390
F
  0
LAYER
  5
1FB
100
AcDbSymbolTableRecord
100
AcDbLayerTableRecord
  2
DEFAULT_2
 70
0
 62
8
  6
HIDDEN
370
-3
390
F
  0
LAYER
  5
1FC
100
AcDbSymbolTableRecord
100
AcDbLayerTableRecord
  2
DEFAULT_3
 70
0
 62
7
  6
PHANTOM
370
-3
390
F
  0
LAYER
  5
1FD
100
AcDbSymbolTableRecord
100
AcDbLayerTableRecord
  2
ALL_FEATURES
 70
0
 62
7
  6
CONTINUOUS
370
-3
390
F
  0
LAYER
  5
1FE
100
AcDbSymbolTableRecord
100
AcDbLayerTableRecord
  2
AXES_FEATURES
 70
0
 62
7
  6
CONTINUOUS
370
-3
390
F
  0
LAYER
  5
1FF
100
AcDbSymbolTableRecord
100
AcDbLayerTableRecord
  2
DIMENSIONS
 70
0
 62
7
  6
CONTINUOUS
370
-3
390
F
  0
ENDTAB
  0
TABLE
  2
STYLE
  5
3
100
AcDbSymbolTable
 70
1
  0
STYLE
  5
11
100
AcDbSymbolTableRecord
100
AcDbTextStyleTableRecord
  2
STANDARD
 70
0
 40
0.0
 41
0.8
 50
0.0
 71
0
 42
0.2
  3
txt
  4

  0
STYLE
  5
200
100
AcDbSymbolTableRecord
100
AcDbTextStyleTableRecord
  2
TEXTSTYLE_1
 70
0
 40
0.0
 41
0.8
 50
0.0
 71
0
 42
0.2
  3
gdt
  4

  0
ENDTAB
  0
TABLE
  2
VIEW
  5
6
100
AcDbSymbolTable
 70
0
  0
ENDTAB
  0
TABLE
  2
UCS
  5
7
100
AcDbSymbolTable
 70
0
  0
ENDTAB
  0
TABLE
  2
APPID
  5
9
100
AcDbSymbolTable
 70
1
  0
APPID
  5
201
100
AcDbSymbolTableRecord
100
AcDbRegAppTableRecord
  2
ACAD
 70
0
  0
ENDTAB
  0
TABLE
  2
BLOCK_RECORD
  5
1
100
AcDbSymbolTable
 70
0
  0
BLOCK_RECORD
  5
202
100
AcDbSymbolTableRecord
100
AcDbBlockTableRecord
  2
*Model_Space
  0
BLOCK_RECORD
  5
203
100
AcDbSymbolTableRecord
100
AcDbBlockTableRecord
  2
*Paper_Space
  0
BLOCK_RECORD
  5
204
100
AcDbSymbolTableRecord
100
AcDbBlockTableRecord
  2
_FILLED
  0
ENDTAB
  0
TABLE
  2
DIMSTYLE
  5
A
100
AcDbSymbolTable
 70
1
100
AcDbDimStyleTable
 71
0
  0
DIMSTYLE
105
205
100
AcDbSymbolTableRecord
100
AcDbDimStyleTableRecord
  2
STANDARD
 70
0
  3

  4

 40
1.0
 41
0.1
 42
0.0625
 43
0.38
 44
0.125
 45
0.0
 46
0.0
 47
0.001
 48
0.001
140
0.08
141
0.09
142
0.0
143
25.4
144
1.0
145
0.0
146
1.0
147
0.09
 71
1.0
 72
0.0
 73
1
 74
1
 75
0
 76
0
 77
0
 78
4
 79
1
170
1
171
2
172
0
173
0
174
0
175
0
176
0
177
0
178
0
270
2
179
3
271
3
272
3
273
2
274
2
275
0
280
0
281
0
282
0
283
1
284
4
285
0
286
0
287
3
288
0
340
11
278
46
341
204
342
204
343
204
344
204
  0
ENDTAB
  0
ENDSEC
  0
SECTION
  2
BLOCKS
  0
BLOCK
  5
20
100
AcDbEntity
  8
0
100
AcDbBlockBegin
  2
*Model_Space
 70
0
 10
0.0
 20
0.0
 30
0.0
  3
*Model_Space
  1

  0
ENDBLK
  5
21
100
AcDbEntity
  8
0
100
AcDbBlockEnd
  0
BLOCK
  5
1C
100
AcDbEntity
  8
0
100
AcDbBlockBegin
  2
*Paper_Space
 70
0
 10
0.0
 20
0.0
 30
0.0
  3
*Paper_Space
  1

  0
ENDBLK
  5
1D
100
AcDbEntity
  8
0
100
AcDbBlockEnd
  0
BLOCK
  5
206
100
AcDbEntity
  8
0
100
AcDbBlockBegin
  2
_FILLED
 70
64
 10
0.0
 20
0.0
  3
_FILLED
  1

  0
SOLID
  5
207
100
AcDbEntity
  8
0
  6
BYBLOCK
 62
0
100
AcDbTrace
 10
0.0
 20
0.0
 11
-1.0
 21
0.2
 12
-1.0
 22
-0.2
 13
-1.0
 23
-0.2
  0
ENDBLK
  5
208
100
AcDbEntity
  8
0
  6
BYBLOCK
 62
0
100
AcDbBlockEnd
  0
ENDSEC
  0
SECTION
  2
ENTITIES
  0
LINE
  5
209
100
AcDbEntity
  8
0
100
AcDbLine
 62
7
  6
CONTINUOUS
 10
8.8977728843
 20
4.8687466935
 11
8.9090707576
 21
4.7394498372
  0
LINE
  5
20A
100
AcDbEntity
  8
0
100
AcDbLine
 62
7
  6
CONTINUOUS
 10
9.1423183383
 20
5.3277727955
 11
9.1423183383
 21
5.1983377282
  0
LINE
  5
20B
100
AcDbEntity
  8
0
100
AcDbLine
 62
7
  6
CONTINUOUS
 10
8.8990731305
 20
4.9580646365
 11
8.8977728843
 21
4.8687466935
  0
LINE
  5
20C
100
AcDbEntity
  8
0
100
AcDbLine
 62
7
  6
CONTINUOUS
 10
9.4273183383
 20
5.4851551988
 11
9.4273183383
 21
5.4611217476
  0
LINE
  5
20D
100
AcDbEntity
  8
0
100
AcDbLine
 62
7
  6
CONTINUOUS
 10
12.0603183383
 20
10.5314730241
 11
12.2348183398
 21
10.7016201108
  0
LINE
  5
20E
100
AcDbEntity
  8
0
100
AcDbLine
 62
7
  6
CONTINUOUS
 10
9.8573183383
 20
11.3750679036
 11
9.8573183383
 21
11.6072411508
  0
LINE
  5
20F
100
AcDbEntity
  8
0
100
AcDbLine
 62
7
  6
CONTINUOUS
 10
9.8598183383
 20
10.8532411508
 11
9.8598183383
 21
10.7016201093
  0
LINE
  5
210
100
AcDbEntity
  8
0
100
AcDbLine
 62
7
  6
CONTINUOUS
 10
10.2973183383
 20
6.5826047489
 11
10.2973183383
 21
7.1072411508
  0
LINE
  5
211
100
AcDbEntity
  8
0
100
AcDbLine
 62
7
  6
CONTINUOUS
 10
10.4723183383
 20
6.6208629044
 11
10.4723183383
 21
5.9561825301
  0
LINE
  5
212
100
AcDbEntity
  8
0
100
AcDbLine
 62
7
  6
CONTINUOUS
 10
10.5573183383
 20
8.8962411508
 11
10.5573183383
 21
8.2712411508
  0
LINE
  5
213
100
AcDbEntity
  8
0
100
AcDbLine
 62
7
  6
CONTINUOUS
 10
10.5948183383
 20
7.1370508547
 11
10.5948183383
 21
6.9092720674
  0
LINE
  5
214
100
AcDbEntity
  8
0
100
AcDbLine
 62
7
  6
CONTINUOUS
 10
10.6173183383
 20
9.2062411508
 11
10.6173183383
 21
9.3262411508
  0
LINE
  5
215
100
AcDbEntity
  8
0
100
AcDbLine
 62
7
  6
CONTINUOUS
 10
10.6410683383
 20
11.1903840485
 11
10.6410683383
 21
7.3425014155
  0
LINE
  5
216
100
AcDbEntity
  8
0
100
AcDbLine
 62
7
  6
CONTINUOUS
 10
10.6410683383
 20
7.3116696777
 11
10.6410685839
 21
7.3119855325
  0
LINE
  5
217
100
AcDbEntity
  8
0
100
AcDbLine
 62
9
  6
CONTINUOUS
 10
11.7973183383
 20
7.1072411508
 11
11.4998183383
 21
7.1072411508
  0
LINE
  5
218
100
AcDbEntity
  8
0
100
AcDbLine
 62
9
  6
CONTINUOUS
 10
10.5948183383
 20
7.1072411508
 11
10.2973183383
 21
7.1072411508
  0
LINE
  5
219
100
AcDbEntity
  8
0
100
AcDbLine
 62
9
  6
CONTINUOUS
 10
10.6456162364
 20
7.3138385693
 11
10.6410685839
 21
7.3119855325
  0
LINE
  5
21A
100
AcDbEntity
  8
0
100
AcDbLine
 62
7
  6
CONTINUOUS
 10
10.4718083581
 20
9.7190493011
 11
10.5473183383
 21
9.3262411508
  0
LINE
  5
21B
100
AcDbEntity
  8
0
100
AcDbLine
 62
7
  6
CONTINUOUS
 10
11.1568904109
 20
6.7382191057
 11
11.1568904109
 21
6.598828666
  0
LINE
  5
21C
100
AcDbEntity
  8
0
100
AcDbLine
 62
7
  6
CONTINUOUS
 10
11.1770814628
 20
6.2247653587
 11
11.1770814628
 21
5.9772779853
  0
LINE
  5
21D
100
AcDbEntity
  8
0
100
AcDbLine
 62
7
  6
CONTINUOUS
 10
11.3727462656
 20
6.6869514497
 11
11.3727462656
 21
6.8263418894
  0
LINE
  5
21E
100
AcDbEntity
  8
0
100
AcDbLine
 62
7
  6
CONTINUOUS
 10
11.4675552138
 20
6.0958633975
 11
11.4675552138
 21
6.3433507709
  0
LINE
  5
21F
100
AcDbEntity
  8
0
100
AcDbLine
 62
7
  6
CONTINUOUS
 10
11.4535680927
 20
7.3421855607
 11
11.4535683383
 21
11.1903840485
  0
LINE
  5
220
100
AcDbEntity
  8
0
100
AcDbLine
 62
7
  6
CONTINUOUS
 10
11.6228283185
 20
9.7190493011
 11
11.5473183383
 21
9.3262411508
  0
LINE
  5
221
100
AcDbEntity
  8
0
100
AcDbLine
 62
9
  6
CONTINUOUS
 10
10.7147384214
 20
7.0357206463
 11
10.6953467171
 21
7.0186799396
  0
LINE
  5
222
100
AcDbEntity
  8
0
100
AcDbLine
 62
7
  6
CONTINUOUS
 10
11.4773183383
 20
9.2062411508
 11
11.4773183383
 21
9.3262411508
  0
LINE
  5
223
100
AcDbEntity
  8
0
100
AcDbLine
 62
7
  6
CONTINUOUS
 10
11.4998183383
 20
7.1370508547
 11
11.4998183383
 21
6.9092720674
  0
LINE
  5
224
100
AcDbEntity
  8
0
100
AcDbLine
 62
7
  6
CONTINUOUS
 10
11.5373183383
 20
8.8962411508
 11
11.5373183383
 21
8.2712411508
  0
LINE
  5
225
100
AcDbEntity
  8
0
100
AcDbLine
 62
7
  6
CONTINUOUS
 10
11.6223183383
 20
6.6208629044
 11
11.6223183383
 21
5.9561825301
  0
LINE
  5
226
100
AcDbEntity
  8
0
100
AcDbLine
 62
7
  6
CONTINUOUS
 10
11.7973183383
 20
6.5829859736
 11
11.7973183383
 21
7.1072411508
  0
LINE
  5
227
100
AcDbEntity
  8
0
100
AcDbLine
 62
7
  6
CONTINUOUS
 10
10.5573183383
 20
8.2712411508
 11
10.6410683383
 21
8.2712411508
  0
LINE
  5
228
100
AcDbEntity
  8
0
100
AcDbLine
 62
7
  6
CONTINUOUS
 10
11.4535683383
 20
8.2712411508
 11
11.5373183383
 21
8.2712411508
  0
LINE
  5
229
100
AcDbEntity
  8
0
100
AcDbLine
 62
9
  6
CONTINUOUS
 10
10.2348183383
 20
8.3572411508
 11
10.5573183383
 21
8.3572411508
  0
LINE
  5
22A
100
AcDbEntity
  8
0
100
AcDbLine
 62
9
  6
CONTINUOUS
 10
11.5373183383
 20
8.3572411508
 11
11.8598183383
 21
8.3572411508
  0
LINE
  5
22B
100
AcDbEntity
  8
0
100
AcDbLine
 62
7
  6
CONTINUOUS
 10
12.2348183383
 20
10.8532411508
 11
12.2348183383
 21
10.7016201093
  0
LINE
  5
22C
100
AcDbEntity
  8
0
100
AcDbLine
 62
7
  6
CONTINUOUS
 10
12.2373183383
 20
11.3750679036
 11
12.2373183383
 21
11.6072411508
  0
LINE
  5
22D
100
AcDbEntity
  8
0
100
AcDbLine
 62
7
  6
CONTINUOUS
 10
11.1770814628
 20
6.2247653587
 11
11.4675552138
 21
6.3433507709
  0
LINE
  5
22E
100
AcDbEntity
  8
0
100
AcDbLine
 62
7
  6
CONTINUOUS
 10
11.1770814628
 20
5.9772779853
 11
11.4675552138
 21
6.0958633975
  0
LINE
  5
22F
100
AcDbEntity
  8
0
100
AcDbLine
 62
7
  6
CONTINUOUS
 10
11.5373168526
 20
8.8962411508
 11
11.4535683383
 21
8.8962411508
  0
LINE
  5
230
100
AcDbEntity
  8
0
100
AcDbLine
 62
7
  6
CONTINUOUS
 10
10.6410683383
 20
8.8962411508
 11
10.5573198239
 21
8.8962411508
  0
LINE
  5
231
100
AcDbEntity
  8
0
100
AcDbLine
 62
7
  6
CONTINUOUS
 10
9.8598183367
 20
10.7016201108
 11
10.0343183383
 21
10.5314730241
  0
LINE
  5
232
100
AcDbEntity
  8
0
100
AcDbLine
 62
7
  6
CONTINUOUS
 10
12.6673183383
 20
5.4851551988
 11
12.6673183383
 21
5.4611217476
  0
LINE
  5
233
100
AcDbEntity
  8
0
100
AcDbLine
 62
7
  6
CONTINUOUS
 10
12.9523183383
 20
5.3277727955
 11
12.9523183383
 21
5.1983377282
  0
LINE
  5
234
100
AcDbEntity
  8
0
100
AcDbLine
 62
7
  6
CONTINUOUS
 10
10.6173489385
 20
9.2062411508
 11
10.6410683383
 21
9.2062411508
  0
LINE
  5
235
100
AcDbEntity
  8
0
100
AcDbLine
 62
7
  6
CONTINUOUS
 10
11.4535683383
 20
9.2062411508
 11
11.477287738
 21
9.2062411508
  0
LINE
  5
236
100
AcDbEntity
  8
0
100
AcDbLine
 62
7
  6
CONTINUOUS
 10
10.5473183383
 20
9.3262411508
 11
10.6410683383
 21
9.3262411508
  0
LINE
  5
237
100
AcDbEntity
  8
0
100
AcDbLine
 62
7
  6
CONTINUOUS
 10
11.4535683383
 20
9.3262411508
 11
11.5473183383
 21
9.3262411508
  0
LINE
  5
238
100
AcDbEntity
  8
0
100
AcDbLine
 62
9
  6
CONTINUOUS
 10
10.6410683383
 20
9.3572411508
 11
11.4535683383
 21
9.3572411508
  0
LINE
  5
239
100
AcDbEntity
  8
0
100
AcDbLine
 62
7
  6
CONTINUOUS
 10
13.1968009451
 20
4.86650551
 11
13.1955635461
 21
4.9580646365
  0
LINE
  5
23A
100
AcDbEntity
  8
0
100
AcDbLine
 62
9
  6
CONTINUOUS
 10
10.1098183383
 20
9.6072411508
 11
10.4933013724
 21
9.6072411508
  0
LINE
  5
23B
100
AcDbEntity
  8
0
100
AcDbLine
 62
9
  6
CONTINUOUS
 10
11.6013353041
 20
9.6072411508
 11
11.9848183383
 21
9.6072411508
  0
LINE
  5
23C
100
AcDbEntity
  8
0
100
AcDbLine
 62
9
  6
CONTINUOUS
 10
11.6228283185
 20
9.7190493011
 11
11.4535683383
 21
9.7190493011
  0
LINE
  5
23D
100
AcDbEntity
  8
0
100
AcDbLine
 62
9
  6
CONTINUOUS
 10
10.6410683383
 20
9.7190493011
 11
10.4718083581
 21
9.7190493011
  0
LINE
  5
23E
100
AcDbEntity
  8
0
100
AcDbLine
 62
7
  6
CONTINUOUS
 10
13.1856276461
 20
4.7398672466
 11
13.1968009451
 21
4.86650551
  0
LINE
  5
23F
100
AcDbEntity
  8
0
100
AcDbLine
 62
9
  6
CONTINUOUS
 10
9.8598183383
 20
10.3572411509
 11
9.8626887368
 21
10.3572411509
  0
LINE
  5
240
100
AcDbEntity
  8
0
100
AcDbLine
 62
9
  6
CONTINUOUS
 10
12.2319479392
 20
10.3572411509
 11
12.2348183383
 21
10.3572411509
  0
LINE
  5
241
100
AcDbEntity
  8
0
100
AcDbLine
 62
9
  6
CONTINUOUS
 10
10.0343183383
 20
10.5314730241
 11
10.6410683383
 21
10.5314730241
  0
LINE
  5
242
100
AcDbEntity
  8
0
100
AcDbLine
 62
9
  6
CONTINUOUS
 10
11.4535683383
 20
10.5314730241
 11
12.0603183383
 21
10.5314730241
  0
LINE
  5
243
100
AcDbEntity
  8
0
100
AcDbLine
 62
7
  6
CONTINUOUS
 10
8.2937401526
 20
10.8532411508
 11
10.6410683383
 21
10.8532411508
  0
LINE
  5
244
100
AcDbEntity
  8
0
100
AcDbLine
 62
7
  6
CONTINUOUS
 10
11.4535683383
 20
10.8532411508
 11
13.800896524
 21
10.8532411508
  0
LINE
  5
245
100
AcDbEntity
  8
0
100
AcDbLine
 62
7
  6
CONTINUOUS
 10
11.4945333056
 20
11.1903840485
 11
11.4978849088
 21
11.1905718571
  0
LINE
  5
246
100
AcDbEntity
  8
0
100
AcDbLine
 62
9
  6
CONTINUOUS
 10
8.0755292454
 20
10.9812411508
 11
10.6410683383
 21
10.9812411508
  0
LINE
  5
247
100
AcDbEntity
  8
0
100
AcDbLine
 62
9
  6
CONTINUOUS
 10
11.4535683383
 20
10.9812411508
 11
14.0191074311
 21
10.9812411508
  0
LINE
  5
248
100
AcDbEntity
  8
0
100
AcDbLine
 62
7
  6
CONTINUOUS
 10
7.8541822079
 20
11.1092313156
 11
10.6410683383
 21
11.1092313156
  0
LINE
  5
249
100
AcDbEntity
  8
0
100
AcDbLine
 62
7
  6
CONTINUOUS
 10
11.4535683383
 20
11.1092313156
 11
14.2404544687
 21
11.1092313156
  0
LINE
  5
24A
100
AcDbEntity
  8
0
100
AcDbLine
 62
7
  6
CONTINUOUS
 10
10.600103371
 20
11.1903840485
 11
11.4945333056
 21
11.1903840485
  0
LINE
  5
24B
100
AcDbEntity
  8
0
100
AcDbLine
 62
9
  6
CONTINUOUS
 10
11.4978849088
 20
11.1905718571
 11
10.5967716022
 21
11.1905718571
  0
LINE
  5
24C
100
AcDbEntity
  8
0
100
AcDbLine
 62
9
  6
CONTINUOUS
 10
7.6382455324
 20
11.2332389557
 11
10.310216365
 21
11.2332389557
  0
LINE
  5
24D
100
AcDbEntity
  8
0
100
AcDbLine
 62
9
  6
CONTINUOUS
 10
11.7844203116
 20
11.2332389557
 11
14.4563911441
 21
11.2332389557
  0
LINE
  5
24E
100
AcDbEntity
  8
0
100
AcDbLine
 62
7
  6
CONTINUOUS
 10
10.600103371
 20
11.1903840485
 11
10.5967517678
 21
11.1905718571
  0
LINE
  5
24F
100
AcDbEntity
  8
0
100
AcDbLine
 62
9
  6
CONTINUOUS
 10
9.8939231258
 20
11.3268956265
 11
12.2007135508
 21
11.3268956265
  0
LINE
  5
250
100
AcDbEntity
  8
0
100
AcDbLine
 62
7
  6
CONTINUOUS
 10
7.4223183383
 20
11.3572411508
 11
9.8609232215
 21
11.3572411508
  0
LINE
  5
251
100
AcDbEntity
  8
0
100
AcDbLine
 62
7
  6
CONTINUOUS
 10
12.233713455
 20
11.3572411508
 11
14.6723183383
 21
11.3572411508
  0
LINE
  5
252
100
AcDbEntity
  8
0
100
AcDbLine
 62
9
  6
CONTINUOUS
 10
9.8573183383
 20
11.3750679036
 11
12.2373183383
 21
11.3750679036
  0
LINE
  5
253
100
AcDbEntity
  8
0
100
AcDbLine
 62
7
  6
CONTINUOUS
 10
14.9223183383
 20
11.6072411508
 11
7.1723183383
 21
11.6072411508
  0
ARC
  5
254
100
AcDbEntity
  8
0
100
AcDbCircle
 62
7
  6
CONTINUOUS
 10
-14.8645899307
 20
7.7703562057
 40
25.5101072575
100
AcDbArc
 50
2.529775834
 51
3.4971121569
  0
ARC
  5
255
100
AcDbEntity
  8
0
100
AcDbCircle
 62
9
  6
CONTINUOUS
 10
10.435404838
 20
5.5344394564
 40
1.2901633196
100
AcDbArc
 50
218.2924089728
 51
219.2333925148
  0
ARC
  5
256
100
AcDbEntity
  8
0
100
AcDbCircle
 62
9
  6
CONTINUOUS
 10
10.4198357207
 20
5.5221850881
 40
1.2703500399
100
AcDbArc
 50
217.307013757
 51
218.2937552236
  0
ARC
  5
257
100
AcDbEntity
  8
0
100
AcDbCircle
 62
9
  6
CONTINUOUS
 10
10.3940555333
 20
5.5027547636
 40
1.2380680655
100
AcDbArc
 50
215.2332605633
 51
217.3148874826
  0
ARC
  5
258
100
AcDbEntity
  8
0
100
AcDbCircle
 62
9
  6
CONTINUOUS
 10
10.3762435617
 20
5.4901090009
 40
1.2162236441
100
AcDbArc
 50
214.7125289597
 51
215.2307475685
  0
ARC
  5
259
100
AcDbEntity
  8
0
100
AcDbCircle
 62
9
  6
CONTINUOUS
 10
10.3598907392
 20
5.4788639671
 40
1.1963777175
100
AcDbArc
 50
213.3160597626
 51
214.7158156852
  0
ARC
  5
25A
100
AcDbEntity
  8
0
100
AcDbCircle
 62
9
  6
CONTINUOUS
 10
10.3106467177
 20
5.4476766023
 40
1.1380973279
100
AcDbArc
 50
207.6638753704
 51
213.3656882818
  0
ARC
  5
25B
100
AcDbEntity
  8
0
100
AcDbCircle
 62
9
  6
CONTINUOUS
 10
10.4297268555
 20
5.5280111517
 40
1.0315102869
100
AcDbArc
 50
208.911017853
 51
216.2585669488
  0
ARC
  5
25C
100
AcDbEntity
  8
0
100
AcDbCircle
 62
9
  6
CONTINUOUS
 10
10.3810948491
 20
5.5000242589
 40
0.9754094272
100
AcDbArc
 50
207.2449961423
 51
208.8529970757
  0
ARC
  5
25D
100
AcDbEntity
  8
0
100
AcDbCircle
 62
9
  6
CONTINUOUS
 10
10.2920029149
 20
5.4353243264
 40
0.8780640097
100
AcDbArc
 50
159.485423548
 51
163.5018666914
  0
ARC
  5
25E
100
AcDbEntity
  8
0
100
AcDbCircle
 62
9
  6
CONTINUOUS
 10
10.2537832835
 20
5.4457610214
 40
0.8384544912
100
AcDbArc
 50
163.4440031998
 51
175.4847282067
  0
ARC
  5
25F
100
AcDbEntity
  8
0
100
AcDbCircle
 62
9
  6
CONTINUOUS
 10
10.2326811527
 20
5.4481964852
 40
0.8172264814
100
AcDbArc
 50
175.5384776312
 51
177.4264869082
  0
ARC
  5
260
100
AcDbEntity
  8
0
100
AcDbCircle
 62
9
  6
CONTINUOUS
 10
10.2319739275
 20
5.4482327099
 40
0.816518343
100
AcDbArc
 50
177.4267979729
 51
179.1134081487
  0
ARC
  5
261
100
AcDbEntity
  8
0
100
AcDbCircle
 62
9
  6
CONTINUOUS
 10
10.5798975988
 20
5.6699478467
 40
1.4884386432
100
AcDbArc
 50
226.9878475796
 51
227.3342533293
  0
ARC
  5
262
100
AcDbEntity
  8
0
100
AcDbCircle
 62
9
  6
CONTINUOUS
 10
10.5981613529
 20
5.7049133476
 40
1.2174026298
100
AcDbArc
 50
224.0363962721
 51
224.6205675654
  0
ARC
  5
263
100
AcDbEntity
  8
0
100
AcDbCircle
 62
9
  6
CONTINUOUS
 10
10.5911818358
 20
5.6981717031
 40
1.2076988357
100
AcDbArc
 50
223.6372697593
 51
223.9256735058
  0
ARC
  5
264
100
AcDbEntity
  8
0
100
AcDbCircle
 62
9
  6
CONTINUOUS
 10
10.5849066067
 20
5.692200592
 40
1.1990367006
100
AcDbArc
 50
223.1171898373
 51
223.6377019513
  0
ARC
  5
265
100
AcDbEntity
  8
0
100
AcDbCircle
 62
9
  6
CONTINUOUS
 10
10.5522677792
 20
5.6221390859
 40
1.1861372399
100
AcDbArc
 50
221.2095513643
 51
221.9016548486
  0
ARC
  5
266
100
AcDbEntity
  8
0
100
AcDbCircle
 62
9
  6
CONTINUOUS
 10
10.5398614625
 20
5.6112711124
 40
1.1696439221
100
AcDbArc
 50
220.0889293512
 51
221.2094256777
  0
ARC
  5
267
100
AcDbEntity
  8
0
100
AcDbCircle
 62
9
  6
CONTINUOUS
 10
10.5166625407
 20
5.5917983124
 40
1.139355511
100
AcDbArc
 50
217.9080218444
 51
219.9663060859
  0
ARC
  5
268
100
AcDbEntity
  8
0
100
AcDbCircle
 62
9
  6
CONTINUOUS
 10
10.4970515563
 20
5.5763205838
 40
1.1143730446
100
AcDbArc
 50
217.5431484649
 51
217.8996414639
  0
ARC
  5
269
100
AcDbEntity
  8
0
100
AcDbCircle
 62
9
  6
CONTINUOUS
 10
10.4867284269
 20
5.5684118811
 40
1.1013686537
100
AcDbArc
 50
216.1995177207
 51
217.5441743779
  0
ARC
  5
26A
100
AcDbEntity
  8
0
100
AcDbCircle
 62
7
  6
CONTINUOUS
 10
10.9322301053
 20
4.4890124236
 40
2.191391926
100
AcDbArc
 50
111.9077991453
 51
112.1448281861
  0
ARC
  5
26B
100
AcDbEntity
  8
0
100
AcDbCircle
 62
9
  6
CONTINUOUS
 10
10.9294227185
 20
4.5256747466
 40
2.1493021028
100
AcDbArc
 50
112.2075727476
 51
112.4544784126
  0
ARC
  5
26C
100
AcDbEntity
  8
0
100
AcDbCircle
 62
7
  6
CONTINUOUS
 10
10.9859245129
 20
4.6490658031
 40
1.9803568881
100
AcDbArc
 50
105.0533382219
 51
112.0078257294
  0
ARC
  5
26D
100
AcDbEntity
  8
0
100
AcDbCircle
 62
9
  6
CONTINUOUS
 10
10.9846083684
 20
4.6641159135
 40
1.9619663405
100
AcDbArc
 50
105.1472090412
 51
112.1412292628
  0
ARC
  5
26E
100
AcDbEntity
  8
0
100
AcDbCircle
 62
7
  6
CONTINUOUS
 10
10.9446821818
 20
4.7567630096
 40
1.8650536221
100
AcDbArc
 50
112.0729723658
 51
112.2076252165
  0
ARC
  5
26F
100
AcDbEntity
  8
0
100
AcDbCircle
 62
7
  6
CONTINUOUS
 10
10.9430089727
 20
4.7608614124
 40
1.8606268248
100
AcDbArc
 50
112.2076239164
 51
112.3784441742
  0
ARC
  5
270
100
AcDbEntity
  8
0
100
AcDbCircle
 62
9
  6
CONTINUOUS
 10
10.9459583235
 20
4.764802479
 40
1.854139032
100
AcDbArc
 50
112.2076042183
 51
112.401110754
  0
ARC
  5
271
100
AcDbEntity
  8
0
100
AcDbCircle
 62
7
  6
CONTINUOUS
 10
10.9392352225
 20
4.7699854763
 40
1.8507531486
100
AcDbArc
 50
112.3779547271
 51
112.9461306074
  0
ARC
  5
272
100
AcDbEntity
  8
0
100
AcDbCircle
 62
9
  6
CONTINUOUS
 10
11.0378936073
 20
6.3232631881
 40
2.7377371382
100
AcDbArc
 50
261.0112010311
 51
261.4796174239
  0
ARC
  5
273
100
AcDbEntity
  8
0
100
AcDbCircle
 62
9
  6
CONTINUOUS
 10
10.9741805762
 20
6.0620308573
 40
2.4685588439
100
AcDbArc
 50
251.6516395325
 51
252.3891221372
  0
ARC
  5
274
100
AcDbEntity
  8
0
100
AcDbCircle
 62
9
  6
CONTINUOUS
 10
11.0052454423
 20
6.4491545887
 40
2.3844082097
100
AcDbArc
 50
254.324258037
 51
255.5299619062
  0
ARC
  5
275
100
AcDbEntity
  8
0
100
AcDbCircle
 62
9
  6
CONTINUOUS
 10
10.9760420495
 20
6.2031591761
 40
2.3435027266
100
AcDbArc
 50
251.4924079982
 51
252.2808369291
  0
ARC
  5
276
100
AcDbEntity
  8
0
100
AcDbCircle
 62
9
  6
CONTINUOUS
 10
11.0471853328
 20
6.5967857279
 40
2.3024827669
100
AcDbArc
 50
266.3714594326
 51
268.0337993475
  0
ARC
  5
277
100
AcDbEntity
  8
0
100
AcDbCircle
 62
9
  6
CONTINUOUS
 10
11.0462451297
 20
6.5816831578
 40
2.2873509693
100
AcDbArc
 50
264.6525596655
 51
266.3710213783
  0
ARC
  5
278
100
AcDbEntity
  8
0
100
AcDbCircle
 62
9
  6
CONTINUOUS
 10
11.0449070274
 20
6.5665316018
 40
2.2721406518
100
AcDbArc
 50
264.3997690237
 51
264.650548117
  0
ARC
  5
279
100
AcDbEntity
  8
0
100
AcDbCircle
 62
9
  6
CONTINUOUS
 10
11.0471411706
 20
6.6273818156
 40
2.2628342048
100
AcDbArc
 50
266.7440064783
 51
267.8481719538
  0
ARC
  5
27A
100
AcDbEntity
  8
0
100
AcDbCircle
 62
9
  6
CONTINUOUS
 10
11.0444448022
 20
6.5912792347
 40
2.2266368493
100
AcDbArc
 50
261.5705237145
 51
266.7605132705
  0
ARC
  5
27B
100
AcDbEntity
  8
0
100
AcDbCircle
 62
9
  6
CONTINUOUS
 10
11.0405460033
 20
6.5634209118
 40
2.1985079576
100
AcDbArc
 50
261.3821984843
 51
261.5646045477
  0
ARC
  5
27C
100
AcDbEntity
  8
0
100
AcDbCircle
 62
9
  6
CONTINUOUS
 10
11.0299048482
 20
6.5014477038
 40
2.1356402943
100
AcDbArc
 50
256.2745590274
 51
261.4153259714
  0
ARC
  5
27D
100
AcDbEntity
  8
0
100
AcDbCircle
 62
9
  6
CONTINUOUS
 10
11.0183904882
 20
6.4525699664
 40
2.0854263503
100
AcDbArc
 50
255.9125476327
 51
256.2632493969
  0
ARC
  5
27E
100
AcDbEntity
  8
0
100
AcDbCircle
 62
9
  6
CONTINUOUS
 10
11.0101135908
 20
6.4205383462
 40
2.0523434648
100
AcDbArc
 50
253.7991980076
 51
255.9190074804
  0
ARC
  5
27F
100
AcDbEntity
  8
0
100
AcDbCircle
 62
9
  6
CONTINUOUS
 10
10.8518401602
 20
5.9076361709
 40
2.0226011324
100
AcDbArc
 50
242.5384218202
 51
243.1426192377
  0
ARC
  5
280
100
AcDbEntity
  8
0
100
AcDbCircle
 62
9
  6
CONTINUOUS
 10
10.9989416397
 20
6.3820519361
 40
2.0122683333
100
AcDbArc
 50
252.7017751893
 51
253.7989254354
  0
ARC
  5
281
100
AcDbEntity
  8
0
100
AcDbCircle
 62
9
  6
CONTINUOUS
 10
10.8400700356
 20
5.8850905173
 40
1.9971679845
100
AcDbArc
 50
241.8073524433
 51
242.4020798205
  0
ARC
  5
282
100
AcDbEntity
  8
0
100
AcDbCircle
 62
9
  6
CONTINUOUS
 10
10.825940721
 20
5.8589227985
 40
1.9674293618
100
AcDbArc
 50
240.7363963732
 51
241.7307594639
  0
ARC
  5
283
100
AcDbEntity
  8
0
100
AcDbCircle
 62
9
  6
CONTINUOUS
 10
10.8144695765
 20
5.838439459
 40
1.9439526857
100
AcDbArc
 50
240.2388201945
 51
240.7362301121
  0
ARC
  5
284
100
AcDbEntity
  8
0
100
AcDbCircle
 62
9
  6
CONTINUOUS
 10
10.9484205947
 20
6.2051778219
 40
1.8970156337
100
AcDbArc
 50
247.8784247348
 51
248.165137775
  0
ARC
  5
285
100
AcDbEntity
  8
0
100
AcDbCircle
 62
9
  6
CONTINUOUS
 10
10.9438467786
 20
6.1939410854
 40
1.884883692
100
AcDbArc
 50
247.2242562682
 51
247.8785970957
  0
ARC
  5
286
100
AcDbEntity
  8
0
100
AcDbCircle
 62
9
  6
CONTINUOUS
 10
10.7708801241
 20
5.7645432568
 40
1.8581664185
100
AcDbArc
 50
236.2716627745
 51
240.2745592242
  0
ARC
  5
287
100
AcDbEntity
  8
0
100
AcDbCircle
 62
9
  6
CONTINUOUS
 10
10.9303591986
 20
6.1620044354
 40
1.8502156876
100
AcDbArc
 50
245.5480213577
 51
247.1016279148
  0
ARC
  5
288
100
AcDbEntity
  8
0
100
AcDbCircle
 62
9
  6
CONTINUOUS
 10
10.7865334786
 20
5.9448372064
 40
1.8328940694
100
AcDbArc
 50
238.3487150333
 51
238.5861581894
  0
ARC
  5
289
100
AcDbEntity
  8
0
100
AcDbCircle
 62
9
  6
CONTINUOUS
 10
10.7828765106
 20
5.9389024784
 40
1.8259231002
100
AcDbArc
 50
238.1715745321
 51
238.3486768968
  0
ARC
  5
28A
100
AcDbEntity
  8
0
100
AcDbCircle
 62
9
  6
CONTINUOUS
 10
10.7366918759
 20
5.7126307372
 40
1.7960086533
100
AcDbArc
 50
236.0024382322
 51
236.2591872827
  0
ARC
  5
28B
100
AcDbEntity
  8
0
100
AcDbCircle
 62
9
  6
CONTINUOUS
 10
10.7289592356
 20
5.7011886117
 40
1.7821986643
100
AcDbArc
 50
235.5394036852
 51
236.002852361
  0
ARC
  5
28C
100
AcDbEntity
  8
0
100
AcDbCircle
 62
9
  6
CONTINUOUS
 10
10.7436881802
 20
5.8662022856
 40
1.4585457295
100
AcDbArc
 50
233.4369843555
 51
233.9880618539
  0
ARC
  5
28D
100
AcDbEntity
  8
0
100
AcDbCircle
 62
9
  6
CONTINUOUS
 10
10.748173046
 20
5.8784239888
 40
1.4470320866
100
AcDbArc
 50
233.6512775483
 51
234.1319675133
  0
ARC
  5
28E
100
AcDbEntity
  8
0
100
AcDbCircle
 62
7
  6
CONTINUOUS
 10
10.8847071854
 20
6.5402001719
 40
0.3074206732
100
AcDbArc
 50
140.8328249416
 51
146.5278757478
  0
ARC
  5
28F
100
AcDbEntity
  8
0
100
AcDbCircle
 62
7
  6
CONTINUOUS
 10
10.8657907474
 20
6.5525889758
 40
0.2848086511
100
AcDbArc
 50
146.5079933248
 51
151.2513919601
  0
ARC
  5
290
100
AcDbEntity
  8
0
100
AcDbCircle
 62
7
  6
CONTINUOUS
 10
10.8180240074
 20
6.57126402
 40
0.2332038848
100
AcDbArc
 50
171.3296324983
 51
177.0630809485
  0
ARC
  5
291
100
AcDbEntity
  8
0
100
AcDbCircle
 62
7
  6
CONTINUOUS
 10
10.8191717498
 20
6.5712890359
 40
0.2318111457
100
AcDbArc
 50
171.272634791
 51
180.6246032489
  0
ARC
  5
292
100
AcDbEntity
  8
0
100
AcDbCircle
 62
7
  6
CONTINUOUS
 10
8.9585149593
 20
9.4281471022
 40
1.541
100
AcDbArc
 50
10.8813003471
 51
45.7236108955
  0
ARC
  5
293
100
AcDbEntity
  8
0
100
AcDbCircle
 62
7
  6
CONTINUOUS
 10
10.9240981063
 20
7.2482624802
 40
0.3001641628
100
AcDbArc
 50
224.8450725103
 51
225.4209637164
  0
ARC
  5
294
100
AcDbEntity
  8
0
100
AcDbCircle
 62
7
  6
CONTINUOUS
 10
10.9211258299
 20
7.2453091143
 40
0.29597408
100
AcDbArc
 50
223.7691185289
 51
224.8454677715
  0
ARC
  5
295
100
AcDbEntity
  8
0
100
AcDbCircle
 62
7
  6
CONTINUOUS
 10
10.8774652836
 20
7.1138108792
 40
0.2878009987
100
AcDbArc
 50
145.5773295347
 51
148.1541618279
  0
ARC
  5
296
100
AcDbEntity
  8
0
100
AcDbCircle
 62
7
  6
CONTINUOUS
 10
10.9124318437
 20
7.2370348022
 40
0.2839720779
100
AcDbArc
 50
220.1410774873
 51
223.7769762778
  0
ARC
  5
297
100
AcDbEntity
  8
0
100
AcDbCircle
 62
7
  6
CONTINUOUS
 10
10.8679261672
 20
7.1196787732
 40
0.2766016922
100
AcDbArc
 50
148.1441004933
 51
150.9528402793
  0
ARC
  5
298
100
AcDbEntity
  8
0
100
AcDbCircle
 62
7
  6
CONTINUOUS
 10
10.8962255495
 20
7.1737094579
 40
0.2628098872
100
AcDbArc
 50
217.1237380838
 51
217.4982128665
  0
ARC
  5
299
100
AcDbEntity
  8
0
100
AcDbCircle
 62
7
  6
CONTINUOUS
 10
10.8952534153
 20
7.1873029958
 40
0.2615270981
100
AcDbArc
 50
213.4369528197
 51
220.1479254907
  0
ARC
  5
29A
100
AcDbEntity
  8
0
100
AcDbCircle
 62
7
  6
CONTINUOUS
 10
10.887721256
 20
7.1673928918
 40
0.2522168535
100
AcDbArc
 50
211.341610145
 51
217.1456041972
  0
ARC
  5
29B
100
AcDbEntity
  8
0
100
AcDbCircle
 62
7
  6
CONTINUOUS
 10
10.8748609533
 20
7.1592409599
 40
0.2369931251
100
AcDbArc
 50
209.8711203551
 51
211.2755461433
  0
ARC
  5
29C
100
AcDbEntity
  8
0
100
AcDbCircle
 62
7
  6
CONTINUOUS
 10
10.8715700432
 20
7.1573354158
 40
0.233190362
100
AcDbArc
 50
209.1925399335
 51
209.8678406197
  0
ARC
  5
29D
100
AcDbEntity
  8
0
100
AcDbCircle
 62
7
  6
CONTINUOUS
 10
10.8681281021
 20
7.254888724
 40
0.2292625189
100
AcDbArc
 50
206.7229235452
 51
209.1401520024
  0
ARC
  5
29E
100
AcDbEntity
  8
0
100
AcDbCircle
 62
7
  6
CONTINUOUS
 10
10.8618819716
 20
7.2517327688
 40
0.2222643696
100
AcDbArc
 50
203.1814453297
 51
206.7203109103
  0
ARC
  5
29F
100
AcDbEntity
  8
0
100
AcDbCircle
 62
7
  6
CONTINUOUS
 10
10.8407790425
 20
7.2103599281
 40
0.1998089355
100
AcDbArc
 50
189.8071211842
 51
198.2944469286
  0
ARC
  5
2A0
100
AcDbEntity
  8
0
100
AcDbCircle
 62
7
  6
CONTINUOUS
 10
10.8403954943
 20
7.1943440045
 40
0.1994143034
100
AcDbArc
 50
190.2052234326
 51
194.1962874603
  0
ARC
  5
2A1
100
AcDbEntity
  8
0
100
AcDbCircle
 62
7
  6
CONTINUOUS
 10
10.83971654
 20
7.2439351015
 40
0.1987237178
100
AcDbArc
 50
190.2491956287
 51
194.0089202361
  0
ARC
  5
2A2
100
AcDbEntity
  8
0
100
AcDbCircle
 62
7
  6
CONTINUOUS
 10
10.8373040617
 20
7.1937493751
 40
0.1962664294
100
AcDbArc
 50
189.0489966895
 51
190.1942763443
  0
ARC
  5
2A3
100
AcDbEntity
  8
0
100
AcDbCircle
 62
7
  6
CONTINUOUS
 10
10.8349125676
 20
7.2430592796
 40
0.1938405668
100
AcDbArc
 50
180.0196757917
 51
190.2471037896
  0
ARC
  5
2A4
100
AcDbEntity
  8
0
100
AcDbCircle
 62
7
  6
CONTINUOUS
 10
10.834181478
 20
7.1932885924
 40
0.1931102407
100
AcDbArc
 50
180.0039284271
 51
189.0596983763
  0
ARC
  5
2A5
100
AcDbEntity
  8
0
100
AcDbCircle
 62
7
  6
CONTINUOUS
 10
10.8339089273
 20
7.2091722474
 40
0.1928369152
100
AcDbArc
 50
180.0031896777
 51
189.8070841729
  0
ARC
  5
2A6
100
AcDbEntity
  8
0
100
AcDbCircle
 62
7
  6
CONTINUOUS
 10
10.8336275108
 20
7.1578136013
 40
0.1925562588
100
AcDbArc
 50
175.6028103238
 51
179.9863171797
  0
ARC
  5
2A7
100
AcDbEntity
  8
0
100
AcDbCircle
 62
7
  6
CONTINUOUS
 10
10.8336083486
 20
7.2091516836
 40
0.1925363364
100
AcDbArc
 50
174.9489283893
 51
179.9970751832
  0
ARC
  5
2A8
100
AcDbEntity
  8
0
100
AcDbCircle
 62
7
  6
CONTINUOUS
 10
10.8329608745
 20
7.1578239411
 40
0.1918896203
100
AcDbArc
 50
179.9893569575
 51
184.8225817235
  0
ARC
  5
2A9
100
AcDbEntity
  8
0
100
AcDbCircle
 62
7
  6
CONTINUOUS
 10
10.9388284909
 20
7.3135806601
 40
0.3216312975
100
AcDbArc
 50
226.1875638344
 51
231.0074468272
  0
ARC
  5
2AA
100
AcDbEntity
  8
0
100
AcDbCircle
 62
7
  6
CONTINUOUS
 10
10.9174028384
 20
7.257712025
 40
0.2907853188
100
AcDbArc
 50
222.6626181448
 51
225.1215040061
  0
ARC
  5
2AB
100
AcDbEntity
  8
0
100
AcDbCircle
 62
7
  6
CONTINUOUS
 10
10.8949749865
 20
7.3634432892
 40
0.2585550178
100
AcDbArc
 50
212.4814739543
 51
214.212715963
  0
ARC
  5
2AC
100
AcDbEntity
  8
0
100
AcDbCircle
 62
7
  6
CONTINUOUS
 10
10.8755848514
 20
7.3088488
 40
0.2378056933
100
AcDbArc
 50
208.7146827472
 51
213.7415618469
  0
ARC
  5
2AD
100
AcDbEntity
  8
0
100
AcDbCircle
 62
7
  6
CONTINUOUS
 10
10.8683543209
 20
7.3491058224
 40
0.2282806489
100
AcDbArc
 50
201.3930482817
 51
204.7648629732
  0
ARC
  5
2AE
100
AcDbEntity
  8
0
100
AcDbCircle
 62
7
  6
CONTINUOUS
 10
10.8667942788
 20
7.3039849285
 40
0.2277593236
100
AcDbArc
 50
206.7892073455
 51
208.7040385738
  0
ARC
  5
2AF
100
AcDbEntity
  8
0
100
AcDbCircle
 62
7
  6
CONTINUOUS
 10
10.8646614144
 20
7.3476388481
 40
0.224307085
100
AcDbArc
 50
200.8681140663
 51
201.3882304795
  0
ARC
  5
2B0
100
AcDbEntity
  8
0
100
AcDbCircle
 62
7
  6
CONTINUOUS
 10
10.8602505178
 20
7.3007605613
 40
0.2204646586
100
AcDbArc
 50
202.8355779246
 51
206.8076687414
  0
ARC
  5
2B1
100
AcDbEntity
  8
0
100
AcDbCircle
 62
7
  6
CONTINUOUS
 10
10.8604481576
 20
7.3460785754
 40
0.2198144127
100
AcDbArc
 50
197.8106195103
 51
200.8793000295
  0
ARC
  5
2B2
100
AcDbEntity
  8
0
100
AcDbCircle
 62
7
  6
CONTINUOUS
 10
10.8566089211
 20
7.2992002151
 40
0.2165029315
100
AcDbArc
 50
202.5199387143
 51
202.8290174115
  0
ARC
  5
2B3
100
AcDbEntity
  8
0
100
AcDbCircle
 62
7
  6
CONTINUOUS
 10
10.8551840533
 20
7.3444183575
 40
0.2142947909
100
AcDbArc
 50
193.667270994
 51
197.8185049444
  0
ARC
  5
2B4
100
AcDbEntity
  8
0
100
AcDbCircle
 62
7
  6
CONTINUOUS
 10
10.8513406566
 20
7.3125558185
 40
0.2103204556
100
AcDbArc
 50
185.2936811516
 51
197.8797404948
  0
ARC
  5
2B5
100
AcDbEntity
  8
0
100
AcDbCircle
 62
7
  6
CONTINUOUS
 10
10.8503217276
 20
7.343281691
 40
0.2093015752
100
AcDbArc
 50
188.4434547979
 51
193.6794266425
  0
ARC
  5
2B6
100
AcDbEntity
  8
0
100
AcDbCircle
 62
7
  6
CONTINUOUS
 10
10.8476176332
 20
7.2957766019
 40
0.206886193
100
AcDbArc
 50
194.0574751076
 51
202.5978034546
  0
ARC
  5
2B7
100
AcDbEntity
  8
0
100
AcDbCircle
 62
7
  6
CONTINUOUS
 10
10.8477100072
 20
7.3428781351
 40
0.2066589076
100
AcDbArc
 50
186.9138486608
 51
188.4391035602
  0
ARC
  5
2B8
100
AcDbEntity
  8
0
100
AcDbCircle
 62
7
  6
CONTINUOUS
 10
10.8443286687
 20
7.3117088991
 40
0.2032603321
100
AcDbArc
 50
180.0110558634
 51
185.2383260169
  0
ARC
  5
2B9
100
AcDbEntity
  8
0
100
AcDbCircle
 62
7
  6
CONTINUOUS
 10
10.8442402293
 20
7.3425252276
 40
0.2031718903
100
AcDbArc
 50
180.0067151738
 51
186.9328388425
  0
ARC
  5
2BA
100
AcDbEntity
  8
0
100
AcDbCircle
 62
7
  6
CONTINUOUS
 10
10.8410199938
 20
7.2616370342
 40
0.2000546812
100
AcDbArc
 50
189.8080011589
 51
198.6924756738
  0
ARC
  5
2BB
100
AcDbEntity
  8
0
100
AcDbCircle
 62
7
  6
CONTINUOUS
 10
10.8385247516
 20
7.2934709994
 40
0.1975056023
100
AcDbArc
 50
189.5737568471
 51
194.0493700236
  0
ARC
  5
2BC
100
AcDbEntity
  8
0
100
AcDbCircle
 62
7
  6
CONTINUOUS
 10
10.8342205494
 20
7.292792683
 40
0.1931485377
100
AcDbArc
 50
180.0029640666
 51
189.5876970338
  0
ARC
  5
2BD
100
AcDbEntity
  8
0
100
AcDbCircle
 62
7
  6
CONTINUOUS
 10
10.8339117269
 20
7.2604007776
 40
0.1928397153
100
AcDbArc
 50
180.003194651
 51
189.8058277712
  0
ARC
  5
2BE
100
AcDbEntity
  8
0
100
AcDbCircle
 62
7
  6
CONTINUOUS
 10
10.8335756837
 20
7.260381635
 40
0.1925036719
100
AcDbArc
 50
175.2747258565
 51
179.9975027187
  0
ARC
  5
2BF
100
AcDbEntity
  8
0
100
AcDbCircle
 62
7
  6
CONTINUOUS
 10
10.8326534095
 20
7.3116537113
 40
0.191585113
100
AcDbArc
 50
175.4079346256
 51
179.9007649075
  0
ARC
  5
2C0
100
AcDbEntity
  8
0
100
AcDbCircle
 62
7
  6
CONTINUOUS
 10
11.0473141343
 20
6.9599573424
 40
0.6802736899
100
AcDbArc
 50
264.0624009521
 51
272.0402174293
  0
ARC
  5
2C1
100
AcDbEntity
  8
0
100
AcDbCircle
 62
7
  6
CONTINUOUS
 10
11.0362128358
 20
7.438315103
 40
0.5697041415
100
AcDbArc
 50
271.1169634869
 51
271.2707298649
  0
ARC
  5
2C2
100
AcDbEntity
  8
0
100
AcDbCircle
 62
7
  6
CONTINUOUS
 10
11.0361827214
 20
7.4879416422
 40
0.5695226434
100
AcDbArc
 50
271.1203496727
 51
271.2907093152
  0
ARC
  5
2C3
100
AcDbEntity
  8
0
100
AcDbCircle
 62
7
  6
CONTINUOUS
 10
11.036255506
 20
7.5369088002
 40
0.5688410205
100
AcDbArc
 50
271.1143597917
 51
271.3016580873
  0
ARC
  5
2C4
100
AcDbEntity
  8
0
100
AcDbCircle
 62
7
  6
CONTINUOUS
 10
11.0361665075
 20
7.5536705651
 40
0.541367617
100
AcDbArc
 50
271.1524321732
 51
271.9892209286
  0
ARC
  5
2C5
100
AcDbEntity
  8
0
100
AcDbCircle
 62
7
  6
CONTINUOUS
 10
11.0362084586
 20
7.4483404993
 40
0.5342995584
100
AcDbArc
 50
269.0152366101
 51
271.2139101072
  0
ARC
  5
2C6
100
AcDbEntity
  8
0
100
AcDbCircle
 62
7
  6
CONTINUOUS
 10
10.9862933541
 20
7.4265849112
 40
0.36466105
100
AcDbArc
 50
234.4166444718
 51
239.3137724346
  0
ARC
  5
2C7
100
AcDbEntity
  8
0
100
AcDbCircle
 62
7
  6
CONTINUOUS
 10
10.9951444261
 20
15.6624005666
 40
4.5
100
AcDbArc
 50
276.4144817261
 51
285.5395954904
  0
ARC
  5
2C8
100
AcDbEntity
  8
0
100
AcDbCircle
 62
7
  6
CONTINUOUS
 10
10.6532509462
 20
10.8204874865
 40
1.0059326868
100
AcDbArc
 50
178.0082856706
 51
180.069931319
  0
ARC
  5
2C9
100
AcDbEntity
  8
0
100
AcDbCircle
 62
7
  6
CONTINUOUS
 10
7.8541822079
 20
11.359242293
 40
0.2500109774
100
AcDbArc
 50
210.2644101313
 51
270.0
  0
ARC
  5
2CA
100
AcDbEntity
  8
0
100
AcDbCircle
 62
7
  6
CONTINUOUS
 10
7.8573183383
 20
10.8592411508
 40
0.25
100
AcDbArc
 50
29.2092119337
 51
90.0
  0
ARC
  5
2CB
100
AcDbEntity
  8
0
100
AcDbCircle
 62
7
  6
CONTINUOUS
 10
8.2937401526
 20
11.1032411508
 40
0.25
100
AcDbArc
 50
209.2092119337
 51
270.0
  0
ARC
  5
2CC
100
AcDbEntity
  8
0
100
AcDbCircle
 62
7
  6
CONTINUOUS
 10
7.4223183383
 20
11.1072411508
 40
0.25
100
AcDbArc
 50
30.2644101313
 51
90.0
  0
ARC
  5
2CD
100
AcDbEntity
  8
0
100
AcDbCircle
 62
7
  6
CONTINUOUS
 10
7.4223183383
 20
11.6072411508
 40
0.25
100
AcDbArc
 50
180.0
 51
270.0
  0
ARC
  5
2CE
100
AcDbEntity
  8
0
100
AcDbCircle
 62
7
  6
CONTINUOUS
 10
9.9073183383
 20
11.3750679036
 40
0.05
100
AcDbArc
 50
180.0
 51
254.4604045098
  0
ARC
  5
2CF
100
AcDbEntity
  8
0
100
AcDbCircle
 62
7
  6
CONTINUOUS
 10
11.1772380209
 20
5.8394359535
 40
2.4633030784
100
AcDbArc
 50
292.2086861721
 51
292.734505639
  0
ARC
  5
2D0
100
AcDbEntity
  8
0
100
AcDbCircle
 62
9
  6
CONTINUOUS
 10
11.1019228382
 20
4.6371326057
 40
1.9901280175
100
AcDbArc
 50
70.7157439902
 51
74.7853256813
  0
ARC
  5
2D1
100
AcDbEntity
  8
0
100
AcDbCircle
 62
9
  6
CONTINUOUS
 10
11.2659958059
 20
5.8642517367
 40
1.9733975978
100
AcDbArc
 50
298.350827192
 51
299.2447484654
  0
ARC
  5
2D2
100
AcDbEntity
  8
0
100
AcDbCircle
 62
9
  6
CONTINUOUS
 10
11.2790560832
 20
5.8407981481
 40
1.9465529016
100
AcDbArc
 50
299.2465858049
 51
299.6491468702
  0
ARC
  5
2D3
100
AcDbEntity
  8
0
100
AcDbCircle
 62
9
  6
CONTINUOUS
 10
11.1213121393
 20
4.6935753873
 40
1.9304487577
100
AcDbArc
 50
70.2462116377
 51
70.7056791396
  0
ARC
  5
2D4
100
AcDbEntity
  8
0
100
AcDbCircle
 62
9
  6
CONTINUOUS
 10
11.3128584063
 20
5.7821872141
 40
1.8788942951
100
AcDbArc
 50
299.6374821876
 51
303.686463646
  0
ARC
  5
2D5
100
AcDbEntity
  8
0
100
AcDbCircle
 62
9
  6
CONTINUOUS
 10
11.3576718078
 20
5.7128980225
 40
1.7963844915
100
AcDbArc
 50
303.7229048443
 51
304.0058161734
  0
ARC
  5
2D6
100
AcDbEntity
  8
0
100
AcDbCircle
 62
9
  6
CONTINUOUS
 10
11.362665375
 20
5.7054954812
 40
1.7874551393
100
AcDbArc
 50
304.0058322053
 51
304.2692431172
  0
ARC
  5
2D7
100
AcDbEntity
  8
0
100
AcDbCircle
 62
9
  6
CONTINUOUS
 10
11.2136202009
 20
4.9048772989
 40
1.699690788
100
AcDbArc
 50
62.5323679542
 51
62.8337806081
  0
ARC
  5
2D8
100
AcDbEntity
  8
0
100
AcDbCircle
 62
9
  6
CONTINUOUS
 10
11.0473744913
 20
6.4014606696
 40
2.8164786435
100
AcDbArc
 50
261.5245672641
 51
278.3393181304
  0
ARC
  5
2D9
100
AcDbEntity
  8
0
100
AcDbCircle
 62
9
  6
CONTINUOUS
 10
11.0566876417
 20
6.3235271315
 40
2.7380084942
100
AcDbArc
 50
278.38302077
 51
278.5030514018
  0
ARC
  5
2DA
100
AcDbEntity
  8
0
100
AcDbCircle
 62
9
  6
CONTINUOUS
 10
11.057435018
 20
6.3185629526
 40
2.732988373
100
AcDbArc
 50
278.5029434916
 51
278.9683987374
  0
ARC
  5
2DB
100
AcDbEntity
  8
0
100
AcDbCircle
 62
9
  6
CONTINUOUS
 10
11.1186818468
 20
6.0674915964
 40
2.4742954867
100
AcDbArc
 50
287.5087155331
 51
288.3657419916
  0
ARC
  5
2DC
100
AcDbEntity
  8
0
100
AcDbCircle
 62
9
  6
CONTINUOUS
 10
11.1771415031
 20
5.9162973503
 40
2.4359969578
100
AcDbArc
 50
292.0044544243
 51
292.2075992257
  0
ARC
  5
2DD
100
AcDbEntity
  8
0
100
AcDbCircle
 62
9
  6
CONTINUOUS
 10
11.1494161821
 20
5.9784484977
 40
2.3801042719
100
AcDbArc
 50
288.3389483874
 51
291.9945883759
  0
ARC
  5
2DE
100
AcDbEntity
  8
0
100
AcDbCircle
 62
9
  6
CONTINUOUS
 10
11.1116510324
 20
6.2243723869
 40
2.3658184695
100
AcDbArc
 50
287.5968511209
 51
287.7330076456
  0
ARC
  5
2DF
100
AcDbEntity
  8
0
100
AcDbCircle
 62
9
  6
CONTINUOUS
 10
11.1156062446
 20
6.2120500622
 40
2.3528769399
100
AcDbArc
 50
287.7326635919
 51
288.5276865547
  0
ARC
  5
2E0
100
AcDbEntity
  8
0
100
AcDbCircle
 62
9
  6
CONTINUOUS
 10
11.1710338656
 20
5.923860978
 40
2.3213934746
100
AcDbArc
 50
292.0044544243
 51
292.2075992257
  0
ARC
  5
2E1
100
AcDbEntity
  8
0
100
AcDbCircle
 62
9
  6
CONTINUOUS
 10
11.1385966692
 20
6.1444340948
 40
2.2814600116
100
AcDbArc
 50
288.5198261827
 51
292.1781129756
  0
ARC
  5
2E2
100
AcDbEntity
  8
0
100
AcDbCircle
 62
9
  6
CONTINUOUS
 10
11.1680334808
 20
6.1986600695
 40
2.2007035499
100
AcDbArc
 50
292.2075727475
 51
292.4544784126
  0
ARC
  5
2E3
100
AcDbEntity
  8
0
100
AcDbCircle
 62
9
  6
CONTINUOUS
 10
11.1652139579
 20
6.2267669728
 40
2.149302103
100
AcDbArc
 50
292.2075727476
 51
292.4544784126
  0
ARC
  5
2E4
100
AcDbEntity
  8
0
100
AcDbCircle
 62
9
  6
CONTINUOUS
 10
11.0775744447
 20
6.4473722524
 40
2.0800633895
100
AcDbArc
 50
283.7048037177
 51
284.4261653329
  0
ARC
  5
2E5
100
AcDbEntity
  8
0
100
AcDbCircle
 62
9
  6
CONTINUOUS
 10
11.0818619639
 20
6.4306107582
 40
2.0627622349
100
AcDbArc
 50
284.4268179695
 51
284.844838706
  0
ARC
  5
2E6
100
AcDbEntity
  8
0
100
AcDbCircle
 62
9
  6
CONTINUOUS
 10
11.0861654422
 20
6.4144440603
 40
2.0460325689
100
AcDbArc
 50
284.8443375377
 51
286.1553806039
  0
ARC
  5
2E7
100
AcDbEntity
  8
0
100
AcDbCircle
 62
9
  6
CONTINUOUS
 10
11.0938170936
 20
6.3878314782
 40
2.0183418809
100
AcDbArc
 50
286.1569497786
 51
287.3097521715
  0
ARC
  5
2E8
100
AcDbEntity
  8
0
100
AcDbCircle
 62
9
  6
CONTINUOUS
 10
11.1165584751
 20
6.3163068078
 40
1.9432901874
100
AcDbArc
 50
287.2970692167
 51
292.157422887
  0
ARC
  5
2E9
100
AcDbEntity
  8
0
100
AcDbCircle
 62
9
  6
CONTINUOUS
 10
11.1450076394
 20
6.2084784009
 40
1.9005303374
100
AcDbArc
 50
291.5046661835
 51
291.786178963
  0
ARC
  5
2EA
100
AcDbEntity
  8
0
100
AcDbCircle
 62
9
  6
CONTINUOUS
 10
11.150155125
 20
6.195626313
 40
1.8866857473
100
AcDbArc
 50
291.7858796822
 51
292.207512026
  0
ARC
  5
2EB
100
AcDbEntity
  8
0
100
AcDbCircle
 62
9
  6
CONTINUOUS
 10
11.147166224
 20
6.2085957994
 40
1.8788924402
100
AcDbArc
 50
291.9603023301
 51
292.207572722
  0
ARC
  5
2EC
100
AcDbEntity
  8
0
100
AcDbCircle
 62
9
  6
CONTINUOUS
 10
11.1537004025
 20
6.1869356547
 40
1.8772997722
100
AcDbArc
 50
292.2075867268
 51
292.4588550909
  0
ARC
  5
2ED
100
AcDbEntity
  8
0
100
AcDbCircle
 62
9
  6
CONTINUOUS
 10
11.1555297713
 20
6.1825062684
 40
1.8725074814
100
AcDbArc
 50
292.4589008357
 51
292.6013164216
  0
ARC
  5
2EE
100
AcDbEntity
  8
0
100
AcDbCircle
 62
9
  6
CONTINUOUS
 10
11.1492255499
 20
6.2317912597
 40
1.8526962537
100
AcDbArc
 50
292.2075414518
 51
292.4979518709
  0
ARC
  5
2EF
100
AcDbEntity
  8
0
100
AcDbCircle
 62
9
  6
CONTINUOUS
 10
11.1668721881
 20
6.1896509085
 40
1.8070105848
100
AcDbArc
 50
292.4922893345
 51
295.64343271
  0
ARC
  5
2F0
100
AcDbEntity
  8
0
100
AcDbCircle
 62
7
  6
CONTINUOUS
 10
11.0473877276
 20
6.4539436896
 40
0.4890808593
100
AcDbArc
 50
144.9096582127
 51
151.3085194188
  0
ARC
  5
2F1
100
AcDbEntity
  8
0
100
AcDbCircle
 62
7
  6
CONTINUOUS
 10
11.047934461
 20
6.4543815495
 40
0.488267582
100
AcDbArc
 50
28.6843205755
 51
35.0686584884
  0
ARC
  5
2F2
100
AcDbEntity
  8
0
100
AcDbCircle
 62
9
  6
CONTINUOUS
 10
11.0474755447
 20
6.6655111576
 40
2.684776616
100
AcDbArc
 50
269.8059530545
 51
274.4686635122
  0
ARC
  5
2F3
100
AcDbEntity
  8
0
100
AcDbCircle
 62
9
  6
CONTINUOUS
 10
11.0484446812
 20
6.6521466626
 40
2.6713772397
100
AcDbArc
 50
274.4702740194
 51
274.8559657103
  0
ARC
  5
2F4
100
AcDbEntity
  8
0
100
AcDbCircle
 62
9
  6
CONTINUOUS
 10
11.0474035249
 20
6.6846918078
 40
2.6240463972
100
AcDbArc
 50
269.8385838172
 51
274.3004500976
  0
ARC
  5
2F5
100
AcDbEntity
  8
0
100
AcDbCircle
 62
9
  6
CONTINUOUS
 10
11.0496089741
 20
6.6551873506
 40
2.5944596295
100
AcDbArc
 50
274.3007415581
 51
277.6598644754
  0
ARC
  5
2F6
100
AcDbEntity
  8
0
100
AcDbCircle
 62
9
  6
CONTINUOUS
 10
11.0542974827
 20
6.6172389207
 40
2.5562249131
100
AcDbArc
 50
277.6690890209
 51
277.8860578973
  0
ARC
  5
2F7
100
AcDbEntity
  8
0
100
AcDbCircle
 62
9
  6
CONTINUOUS
 10
11.0551736248
 20
6.6109343739
 40
2.5498597794
100
AcDbArc
 50
277.8859938515
 51
278.5281293055
  0
ARC
  5
2F8
100
AcDbEntity
  8
0
100
AcDbCircle
 62
9
  6
CONTINUOUS
 10
11.0565587538
 20
6.6016368364
 40
2.5404596354
100
AcDbArc
 50
278.5283314716
 51
278.9674324639
  0
ARC
  5
2F9
100
AcDbEntity
  8
0
100
AcDbCircle
 62
9
  6
CONTINUOUS
 10
11.0581852943
 20
6.5913649295
 40
2.5300597473
100
AcDbArc
 50
278.9673068647
 51
279.8456134175
  0
ARC
  5
2FA
100
AcDbEntity
  8
0
100
AcDbCircle
 62
9
  6
CONTINUOUS
 10
11.0613729474
 20
6.5729033735
 40
2.5113250223
100
AcDbArc
 50
279.8459809303
 51
280.8584105045
  0
ARC
  5
2FB
100
AcDbEntity
  8
0
100
AcDbCircle
 62
9
  6
CONTINUOUS
 10
11.0473348095
 20
6.6006568499
 40
2.3063567383
100
AcDbArc
 50
268.0333876897
 51
271.9693700752
  0
ARC
  5
2FC
100
AcDbEntity
  8
0
100
AcDbCircle
 62
9
  6
CONTINUOUS
 10
11.047496534
 20
6.5939924133
 40
2.2996906815
100
AcDbArc
 50
271.9710492124
 51
273.6525116222
  0
ARC
  5
2FD
100
AcDbEntity
  8
0
100
AcDbCircle
 62
9
  6
CONTINUOUS
 10
11.0482659941
 20
6.5826688793
 40
2.2883411301
100
AcDbArc
 50
273.6513466167
 51
275.3532112497
  0
ARC
  5
2FE
100
AcDbEntity
  8
0
100
AcDbCircle
 62
9
  6
CONTINUOUS
 10
11.0473313099
 20
6.6319688615
 40
2.2674251554
100
AcDbArc
 50
267.8477228599
 51
272.1417663313
  0
ARC
  5
2FF
100
AcDbEntity
  8
0
100
AcDbCircle
 62
9
  6
CONTINUOUS
 10
11.0474320238
 20
6.6268230401
 40
2.2622791668
100
AcDbArc
 50
272.144087943
 51
272.8069845599
  0
ARC
  5
300
100
AcDbEntity
  8
0
100
AcDbCircle
 62
9
  6
CONTINUOUS
 10
11.0486024571
 20
6.6071204941
 40
2.2425429518
100
AcDbArc
 50
272.801768246
 51
278.3881744405
  0
ARC
  5
301
100
AcDbEntity
  8
0
100
AcDbCircle
 62
9
  6
CONTINUOUS
 10
11.0548189514
 20
6.5587280885
 40
2.1937615593
100
AcDbArc
 50
278.411926701
 51
278.6435074946
  0
ARC
  5
302
100
AcDbEntity
  8
0
100
AcDbCircle
 62
9
  6
CONTINUOUS
 10
11.0609569003
 20
6.5205741718
 40
2.1551185513
100
AcDbArc
 50
278.6346215892
 51
283.6729394738
  0
ARC
  5
303
100
AcDbEntity
  8
0
100
AcDbCircle
 62
7
  6
CONTINUOUS
 10
11.0473530137
 20
7.0956036863
 40
0.5613614165
100
AcDbArc
 50
269.4296843782
 51
269.9555358434
  0
ARC
  5
304
100
AcDbEntity
  8
0
100
AcDbCircle
 62
7
  6
CONTINUOUS
 10
11.0767792902
 20
6.8442343305
 40
0.5604022798
100
AcDbArc
 50
291.1981137449
 51
292.205102861
  0
ARC
  5
305
100
AcDbEntity
  8
0
100
AcDbCircle
 62
7
  6
CONTINUOUS
 10
11.075189089
 20
6.8217576636
 40
0.5381684643
100
AcDbArc
 50
291.0445037138
 51
292.2042837627
  0
ARC
  5
306
100
AcDbEntity
  8
0
100
AcDbCircle
 62
7
  6
CONTINUOUS
 10
11.0789932337
 20
6.8123699102
 40
0.528039261
100
AcDbArc
 50
292.2070710643
 51
293.2891991594
  0
ARC
  5
307
100
AcDbEntity
  8
0
100
AcDbCircle
 62
7
  6
CONTINUOUS
 10
11.1808961712
 20
5.8871867962
 40
2.4907391921
100
AcDbArc
 50
291.7480738816
 51
292.2071526863
  0
ARC
  5
308
100
AcDbEntity
  8
0
100
AcDbCircle
 62
9
  6
CONTINUOUS
 10
11.1918369822
 20
6.012070282
 40
2.1387917281
100
AcDbArc
 50
292.1959090283
 51
296.6385822771
  0
ARC
  5
309
100
AcDbEntity
  8
0
100
AcDbCircle
 62
9
  6
CONTINUOUS
 10
11.2392244647
 20
5.9146783382
 40
2.0304912251
100
AcDbArc
 50
296.929978296
 51
297.6101153238
  0
ARC
  5
30A
100
AcDbEntity
  8
0
100
AcDbCircle
 62
9
  6
CONTINUOUS
 10
11.2508675341
 20
5.8923626548
 40
2.0053208029
100
AcDbArc
 50
297.6108319523
 51
298.2746716598
  0
ARC
  5
30B
100
AcDbEntity
  8
0
100
AcDbCircle
 62
9
  6
CONTINUOUS
 10
11.3097164093
 20
5.9422340182
 40
1.8298352729
100
AcDbArc
 50
301.3494204673
 51
301.6133039865
  0
ARC
  5
30C
100
AcDbEntity
  8
0
100
AcDbCircle
 62
9
  6
CONTINUOUS
 10
11.3132173606
 20
5.9365424047
 40
1.8231531235
100
AcDbArc
 50
301.6133675389
 51
301.7727946706
  0
ARC
  5
30D
100
AcDbEntity
  8
0
100
AcDbCircle
 62
9
  6
CONTINUOUS
 10
11.196452396
 20
6.1268703091
 40
1.7376121687
100
AcDbArc
 50
295.7461898306
 51
297.0875996134
  0
ARC
  5
30E
100
AcDbEntity
  8
0
100
AcDbCircle
 62
9
  6
CONTINUOUS
 10
11.2145436834
 20
6.0913220174
 40
1.6977252141
100
AcDbArc
 50
297.090303373
 51
298.3510953293
  0
ARC
  5
30F
100
AcDbEntity
  8
0
100
AcDbCircle
 62
9
  6
CONTINUOUS
 10
11.2268449855
 20
6.0683004521
 40
1.6716234329
100
AcDbArc
 50
298.3547460834
 51
298.5348368254
  0
ARC
  5
310
100
AcDbEntity
  8
0
100
AcDbCircle
 62
9
  6
CONTINUOUS
 10
11.231072532
 20
6.0605403321
 40
1.662786483
100
AcDbArc
 50
298.6118233154
 51
298.8291898233
  0
ARC
  5
311
100
AcDbEntity
  8
0
100
AcDbCircle
 62
7
  6
CONTINUOUS
 10
11.2037840662
 20
6.5355641194
 40
0.3151162591
100
AcDbArc
 50
35.4383886171
 51
39.3898411908
  0
ARC
  5
312
100
AcDbEntity
  8
0
100
AcDbCircle
 62
7
  6
CONTINUOUS
 10
11.2206188786
 20
6.5475896745
 40
0.2944275311
100
AcDbArc
 50
29.3711116802
 51
35.4313026691
  0
ARC
  5
313
100
AcDbEntity
  8
0
100
AcDbCircle
 62
7
  6
CONTINUOUS
 10
11.2151829228
 20
7.1125510436
 40
0.290153919
100
AcDbArc
 50
32.9397900069
 51
33.9227193945
  0
ARC
  5
314
100
AcDbEntity
  8
0
100
AcDbCircle
 62
7
  6
CONTINUOUS
 10
11.2336231122
 20
6.5552641058
 40
0.2793309822
100
AcDbArc
 50
28.7013714526
 51
29.3075548234
  0
ARC
  5
315
100
AcDbEntity
  8
0
100
AcDbCircle
 62
7
  6
CONTINUOUS
 10
11.2245888581
 20
7.118543981
 40
0.2790013677
100
AcDbArc
 50
27.1941074047
 51
32.9572496331
  0
ARC
  5
316
100
AcDbEntity
  8
0
100
AcDbCircle
 62
7
  6
CONTINUOUS
 10
11.276289172
 20
6.5711837197
 40
0.2335361254
100
AcDbArc
 50
6.2749813034
 51
8.5181915835
  0
ARC
  5
317
100
AcDbEntity
  8
0
100
AcDbCircle
 62
7
  6
CONTINUOUS
 10
11.2750069232
 20
6.5711777377
 40
0.2322809566
100
AcDbArc
 50
5.8316735941
 51
8.4044192783
  0
ARC
  5
318
100
AcDbEntity
  8
0
100
AcDbCircle
 62
7
  6
CONTINUOUS
 10
11.2775563058
 20
6.5713312271
 40
0.2322604608
100
AcDbArc
 50
5.7605975639
 51
6.2729768263
  0
ARC
  5
319
100
AcDbEntity
  8
0
100
AcDbCircle
 62
7
  6
CONTINUOUS
 10
11.2768623191
 20
6.5713836824
 40
0.2304142383
100
AcDbArc
 50
356.1441672463
 51
5.8276056771
  0
ARC
  5
31A
100
AcDbEntity
  8
0
100
AcDbCircle
 62
9
  6
CONTINUOUS
 10
11.5154173764
 20
5.6690786924
 40
1.4873379033
100
AcDbArc
 50
312.752757691
 51
313.1118175234
  0
ARC
  5
31B
100
AcDbEntity
  8
0
100
AcDbCircle
 62
9
  6
CONTINUOUS
 10
11.6580619153
 20
5.5352962659
 40
1.2916142505
100
AcDbArc
 50
320.689026861
 51
321.78888861
  0
ARC
  5
31C
100
AcDbEntity
  8
0
100
AcDbCircle
 62
9
  6
CONTINUOUS
 10
11.6735718686
 20
5.5230364166
 40
1.2718440457
100
AcDbArc
 50
321.7906530902
 51
322.7060742155
  0
ARC
  5
31D
100
AcDbEntity
  8
0
100
AcDbCircle
 62
9
  6
CONTINUOUS
 10
11.6972049354
 20
5.5051002104
 40
1.2421754304
100
AcDbArc
 50
322.7037475328
 51
325.213953168
  0
ARC
  5
31E
100
AcDbEntity
  8
0
100
AcDbCircle
 62
9
  6
CONTINUOUS
 10
11.5014052712
 20
5.7002548045
 40
1.2106174054
100
AcDbArc
 50
316.0706920286
 51
316.31714691
  0
ARC
  5
31F
100
AcDbEntity
  8
0
100
AcDbCircle
 62
9
  6
CONTINUOUS
 10
11.7287686452
 20
5.4829113192
 40
1.2035934847
100
AcDbArc
 50
325.2242331816
 51
326.8084954479
  0
ARC
  5
320
100
AcDbEntity
  8
0
100
AcDbCircle
 62
9
  6
CONTINUOUS
 10
11.5068465487
 20
5.6950643369
 40
1.2030975361
100
AcDbArc
 50
316.3169328475
 51
316.7702006605
  0
ARC
  5
321
100
AcDbEntity
  8
0
100
AcDbCircle
 62
9
  6
CONTINUOUS
 10
11.5444265379
 20
5.6204290314
 40
1.1834647261
100
AcDbArc
 50
318.153534965
 51
318.6384814695
  0
ARC
  5
322
100
AcDbEntity
  8
0
100
AcDbCircle
 62
9
  6
CONTINUOUS
 10
11.5511303901
 20
5.6145224214
 40
1.1745299812
100
AcDbArc
 50
318.6386413463
 51
318.9982610504
  0
ARC
  5
323
100
AcDbEntity
  8
0
100
AcDbCircle
 62
9
  6
CONTINUOUS
 10
11.5607616288
 20
5.6061827112
 40
1.161789852
100
AcDbArc
 50
318.9970286931
 51
319.864499906
  0
ARC
  5
324
100
AcDbEntity
  8
0
100
AcDbCircle
 62
9
  6
CONTINUOUS
 10
11.7737240469
 20
5.4538057063
 40
1.1500392354
100
AcDbArc
 50
326.7958685956
 51
332.2222186884
  0
ARC
  5
325
100
AcDbEntity
  8
0
100
AcDbCircle
 62
9
  6
CONTINUOUS
 10
11.5826357144
 20
5.5879749318
 40
1.1333296486
100
AcDbArc
 50
319.9585584853
 51
321.9779285745
  0
ARC
  5
326
100
AcDbEntity
  8
0
100
AcDbCircle
 62
9
  6
CONTINUOUS
 10
11.9239654062
 20
4.9662891948
 40
1.1308070001
100
AcDbArc
 50
19.4360479541
 51
25.8033443238
  0
ARC
  5
327
100
AcDbEntity
  8
0
100
AcDbCircle
 62
9
  6
CONTINUOUS
 10
11.5962730151
 20
5.5772519883
 40
1.1159815873
100
AcDbArc
 50
321.9803493809
 51
322.3341844719
  0
ARC
  5
328
100
AcDbEntity
  8
0
100
AcDbCircle
 62
9
  6
CONTINUOUS
 10
11.677209112
 20
5.5641387456
 40
0.9877845841
100
AcDbArc
 50
329.0095342267
 51
329.7543660736
  0
ARC
  5
329
100
AcDbEntity
  8
0
100
AcDbCircle
 62
9
  6
CONTINUOUS
 10
11.6859830088
 20
5.5590095033
 40
0.9776214027
100
AcDbArc
 50
329.7550421211
 51
330.4775522283
  0
ARC
  5
32A
100
AcDbEntity
  8
0
100
AcDbCircle
 62
9
  6
CONTINUOUS
 10
11.8060072894
 20
5.4364535848
 40
0.8745036433
100
AcDbArc
 50
14.8332931595
 51
19.1838005343
  0
ARC
  5
32B
100
AcDbEntity
  8
0
100
AcDbCircle
 62
9
  6
CONTINUOUS
 10
11.8482790042
 20
5.4469991413
 40
0.8309411376
100
AcDbArc
 50
2.6553450411
 51
14.8765785308
  0
ARC
  5
32C
100
AcDbEntity
  8
0
100
AcDbCircle
 62
9
  6
CONTINUOUS
 10
11.8612562823
 20
5.4481367156
 40
0.8179252671
100
AcDbArc
 50
2.1222361049
 51
2.6178582309
  0
ARC
  5
32D
100
AcDbEntity
  8
0
100
AcDbCircle
 62
9
  6
CONTINUOUS
 10
11.8618695862
 20
5.4481586361
 40
0.817311572
100
AcDbArc
 50
0.9293159967
 51
2.122292617
  0
ARC
  5
32E
100
AcDbEntity
  8
0
100
AcDbCircle
 62
7
  6
CONTINUOUS
 10
11.0658280942
 20
7.3499212215
 40
0.4310794698
100
AcDbArc
 50
292.8828407881
 51
296.5628657962
  0
ARC
  5
32F
100
AcDbEntity
  8
0
100
AcDbCircle
 62
7
  6
CONTINUOUS
 10
11.0913432421
 20
7.2922386078
 40
0.4125378553
100
AcDbArc
 50
299.3772585485
 51
303.2983820076
  0
ARC
  5
330
100
AcDbEntity
  8
0
100
AcDbCircle
 62
7
  6
CONTINUOUS
 10
11.0833164696
 20
7.4200464538
 40
0.398652624
100
AcDbArc
 50
298.2945883311
 51
302.3561944606
  0
ARC
  5
331
100
AcDbEntity
  8
0
100
AcDbCircle
 62
7
  6
CONTINUOUS
 10
11.1049323218
 20
7.4318329078
 40
0.3709150945
100
AcDbArc
 50
300.6771127423
 51
305.3857021983
  0
ARC
  5
332
100
AcDbEntity
  8
0
100
AcDbCircle
 62
7
  6
CONTINUOUS
 10
11.1929294932
 20
7.3680348793
 40
0.2667040434
100
AcDbArc
 50
323.9693296379
 51
325.679093136
  0
ARC
  5
333
100
AcDbEntity
  8
0
100
AcDbCircle
 62
7
  6
CONTINUOUS
 10
11.1993686478
 20
7.2818567333
 40
0.2568713657
100
AcDbArc
 50
328.8418223324
 51
332.6955735674
  0
ARC
  5
334
100
AcDbEntity
  8
0
100
AcDbCircle
 62
7
  6
CONTINUOUS
 10
11.2013987673
 20
7.3622727994
 40
0.2564605142
100
AcDbArc
 50
325.6754403957
 51
329.8955815555
  0
ARC
  5
335
100
AcDbEntity
  8
0
100
AcDbCircle
 62
7
  6
CONTINUOUS
 10
11.2080023028
 20
7.2774090443
 40
0.2471594213
100
AcDbArc
 50
332.6936543011
 51
335.6258414185
  0
ARC
  5
336
100
AcDbEntity
  8
0
100
AcDbCircle
 62
7
  6
CONTINUOUS
 10
11.2116436787
 20
7.3562139501
 40
0.2445585502
100
AcDbArc
 50
329.9197058974
 51
333.0048454548
  0
ARC
  5
337
100
AcDbEntity
  8
0
100
AcDbCircle
 62
7
  6
CONTINUOUS
 10
11.2073312531
 20
7.3182898128
 40
0.240844738
100
AcDbArc
 50
330.8543080427
 51
337.7622281464
  0
ARC
  5
338
100
AcDbEntity
  8
0
100
AcDbCircle
 62
7
  6
CONTINUOUS
 10
11.2146973992
 20
7.2744218887
 40
0.2398282831
100
AcDbArc
 50
335.6157803093
 51
339.0741695932
  0
ARC
  5
339
100
AcDbEntity
  8
0
100
AcDbCircle
 62
7
  6
CONTINUOUS
 10
11.2168775754
 20
7.3534806119
 40
0.2386542171
100
AcDbArc
 50
333.0191978592
 51
333.4648238328
  0
ARC
  5
33A
100
AcDbEntity
  8
0
100
AcDbCircle
 62
7
  6
CONTINUOUS
 10
11.2180580792
 20
7.2731180762
 40
0.2362235937
100
AcDbArc
 50
339.0784190995
 51
339.6157360616
  0
ARC
  5
33B
100
AcDbEntity
  8
0
100
AcDbCircle
 62
7
  6
CONTINUOUS
 10
11.2245992476
 20
7.3497346245
 40
0.2300724556
100
AcDbArc
 50
333.4403565067
 51
340.7627183952
  0
ARC
  5
33C
100
AcDbEntity
  8
0
100
AcDbCircle
 62
7
  6
CONTINUOUS
 10
11.2261648917
 20
7.2206623966
 40
0.2276546799
100
AcDbArc
 50
339.2034193249
 51
347.290972375
  0
ARC
  5
33D
100
AcDbEntity
  8
0
100
AcDbCircle
 62
7
  6
CONTINUOUS
 10
11.2263868901
 20
7.2702666062
 40
0.227423258
100
AcDbArc
 50
339.5582591222
 51
347.3259960647
  0
ARC
  5
33E
100
AcDbEntity
  8
0
100
AcDbCircle
 62
7
  6
CONTINUOUS
 10
11.2200291413
 20
7.3128430695
 40
0.2270300991
100
AcDbArc
 50
337.821810936
 51
341.7527591307
  0
ARC
  5
33F
100
AcDbEntity
  8
0
100
AcDbCircle
 62
7
  6
CONTINUOUS
 10
11.2292060638
 20
7.2875795568
 40
0.2244972636
100
AcDbArc
 50
343.0240878866
 51
350.270975484
  0
ARC
  5
340
100
AcDbEntity
  8
0
100
AcDbCircle
 62
7
  6
CONTINUOUS
 10
11.229547603
 20
7.236242151
 40
0.2241481636
100
AcDbArc
 50
343.3707468761
 51
350.2699797668
  0
ARC
  5
341
100
AcDbEntity
  8
0
100
AcDbCircle
 62
7
  6
CONTINUOUS
 10
11.2341826519
 20
7.2684763631
 40
0.2194246635
100
AcDbArc
 50
347.3354497268
 51
350.7359102224
  0
ARC
  5
342
100
AcDbEntity
  8
0
100
AcDbCircle
 62
7
  6
CONTINUOUS
 10
11.2342619655
 20
7.2187943847
 40
0.2193450266
100
AcDbArc
 50
347.3016533282
 51
350.782154492
  0
ARC
  5
343
100
AcDbEntity
  8
0
100
AcDbCircle
 62
7
  6
CONTINUOUS
 10
11.2352781821
 20
7.3457190876
 40
0.2186669363
100
AcDbArc
 50
340.8342012455
 51
342.0463820008
  0
ARC
  5
344
100
AcDbEntity
  8
0
100
AcDbCircle
 62
7
  6
CONTINUOUS
 10
11.2283267508
 20
7.3100702881
 40
0.2182815364
100
AcDbArc
 50
341.7620034449
 51
346.8406124343
  0
ARC
  5
345
100
AcDbEntity
  8
0
100
AcDbCircle
 62
7
  6
CONTINUOUS
 10
11.2361266511
 20
7.2681483652
 40
0.2174532177
100
AcDbArc
 50
350.7387465147
 51
351.225040159
  0
ARC
  5
346
100
AcDbEntity
  8
0
100
AcDbCircle
 62
7
  6
CONTINUOUS
 10
11.2370051675
 20
7.1834875526
 40
0.216559503
100
AcDbArc
 50
350.309234673
 51
359.985011988
  0
ARC
  5
347
100
AcDbEntity
  8
0
100
AcDbCircle
 62
7
  6
CONTINUOUS
 10
11.2370492363
 20
7.2860912698
 40
0.2165154342
100
AcDbArc
 50
350.3084135646
 51
359.9849443521
  0
ARC
  5
348
100
AcDbEntity
  8
0
100
AcDbCircle
 62
7
  6
CONTINUOUS
 10
11.2370696135
 20
7.2348260158
 40
0.2164950575
100
AcDbArc
 50
350.3029290778
 51
359.9848989862
  0
ARC
  5
349
100
AcDbEntity
  8
0
100
AcDbCircle
 62
7
  6
CONTINUOUS
 10
11.2376807908
 20
7.3449416605
 40
0.2161416798
100
AcDbArc
 50
342.0461101364
 51
344.5275827651
  0
ARC
  5
34A
100
AcDbEntity
  8
0
100
AcDbCircle
 62
7
  6
CONTINUOUS
 10
11.237653985
 20
7.2860258817
 40
0.2159106783
100
AcDbArc
 50
0.0022540991
 51
9.2693196641
  0
ARC
  5
34B
100
AcDbEntity
  8
0
100
AcDbCircle
 62
7
  6
CONTINUOUS
 10
11.2379170209
 20
7.1834274222
 40
0.2156476422
100
AcDbArc
 50
0.0009247547
 51
4.6359037649
  0
ARC
  5
34C
100
AcDbEntity
  8
0
100
AcDbCircle
 62
7
  6
CONTINUOUS
 10
11.238010792
 20
7.2347664099
 40
0.2155538715
100
AcDbArc
 50
0.0006767339
 51
4.417681351
  0
ARC
  5
34D
100
AcDbEntity
  8
0
100
AcDbCircle
 62
7
  6
CONTINUOUS
 10
11.2380182188
 20
7.1684212461
 40
0.2155464441
100
AcDbArc
 50
350.7228970411
 51
359.9977168786
  0
ARC
  5
34E
100
AcDbEntity
  8
0
100
AcDbCircle
 62
7
  6
CONTINUOUS
 10
11.2380536932
 20
7.2679007992
 40
0.2155109698
100
AcDbArc
 50
351.2119306974
 51
359.9981433903
  0
ARC
  5
34F
100
AcDbEntity
  8
0
100
AcDbCircle
 62
7
  6
CONTINUOUS
 10
11.2380701596
 20
7.2182231161
 40
0.2154945042
100
AcDbArc
 50
350.7698873164
 51
359.9977546734
  0
ARC
  5
350
100
AcDbEntity
  8
0
100
AcDbCircle
 62
7
  6
CONTINUOUS
 10
11.2340714913
 20
7.3086309746
 40
0.2123599953
100
AcDbArc
 50
346.8658840215
 51
349.2390778597
  0
ARC
  5
351
100
AcDbEntity
  8
0
100
AcDbCircle
 62
7
  6
CONTINUOUS
 10
11.2425274751
 20
7.3436266093
 40
0.2111198237
100
AcDbArc
 50
344.5206408758
 51
351.8566065051
  0
ARC
  5
352
100
AcDbEntity
  8
0
100
AcDbCircle
 62
7
  6
CONTINUOUS
 10
11.2359629132
 20
7.3082657837
 40
0.2104336492
100
AcDbArc
 50
349.2406078061
 51
351.34720502
  0
ARC
  5
353
100
AcDbEntity
  8
0
100
AcDbCircle
 62
7
  6
CONTINUOUS
 10
11.2491533548
 20
7.3425986247
 40
0.2044151553
100
AcDbArc
 50
351.8787653783
 51
359.8842216781
  0
ARC
  5
354
100
AcDbEntity
  8
0
100
AcDbCircle
 62
7
  6
CONTINUOUS
 10
11.0473183383
 20
9.688950571
 40
1.5
100
AcDbArc
 50
250.9334198993
 51
254.2385329847
  0
ARC
  5
355
100
AcDbEntity
  8
0
100
AcDbCircle
 62
7
  6
CONTINUOUS
 10
11.0473183383
 20
9.688950571
 40
1.5
100
AcDbArc
 50
285.7614670153
 51
289.0665801007
  0
ARC
  5
356
100
AcDbEntity
  8
0
100
AcDbCircle
 62
7
  6
CONTINUOUS
 10
13.1361217173
 20
9.4281471022
 40
1.541
100
AcDbArc
 50
134.2763891045
 51
169.1186996529
  0
ARC
  5
357
100
AcDbEntity
  8
0
100
AcDbCircle
 62
7
  6
CONTINUOUS
 10
36.9592266073
 20
7.7703562057
 40
25.5101072576
100
AcDbArc
 50
176.5028878431
 51
177.470224166
  0
ARC
  5
358
100
AcDbEntity
  8
0
100
AcDbCircle
 62
7
  6
CONTINUOUS
 10
11.0994922504
 20
15.6624005666
 40
4.5
100
AcDbArc
 50
254.4604045096
 51
263.5855182739
  0
ARC
  5
359
100
AcDbEntity
  8
0
100
AcDbCircle
 62
7
  6
CONTINUOUS
 10
11.3930726766
 20
10.8196768639
 40
1.0542450738
100
AcDbArc
 50
359.977328865
 51
1.9446577552
  0
ARC
  5
35A
100
AcDbEntity
  8
0
100
AcDbCircle
 62
7
  6
CONTINUOUS
 10
14.2404544687
 20
11.359242293
 40
0.2500109774
100
AcDbArc
 50
270.0
 51
329.7355898687
  0
ARC
  5
35B
100
AcDbEntity
  8
0
100
AcDbCircle
 62
7
  6
CONTINUOUS
 10
14.2373183383
 20
10.8592411508
 40
0.25
100
AcDbArc
 50
90.0
 51
150.7907880663
  0
ARC
  5
35C
100
AcDbEntity
  8
0
100
AcDbCircle
 62
7
  6
CONTINUOUS
 10
13.800896524
 20
11.1032411508
 40
0.25
100
AcDbArc
 50
270.0
 51
330.7907880663
  0
ARC
  5
35D
100
AcDbEntity
  8
0
100
AcDbCircle
 62
7
  6
CONTINUOUS
 10
14.6723183383
 20
11.1072411508
 40
0.25
100
AcDbArc
 50
90.0
 51
149.7355898687
  0
ARC
  5
35E
100
AcDbEntity
  8
0
100
AcDbCircle
 62
7
  6
CONTINUOUS
 10
14.6723183383
 20
11.6072411508
 40
0.25
100
AcDbArc
 50
270.0
 51
360.0
  0
ARC
  5
35F
100
AcDbEntity
  8
0
100
AcDbCircle
 62
7
  6
CONTINUOUS
 10
12.1873183383
 20
11.3750679036
 40
0.05
100
AcDbArc
 50
285.5395954902
 51
360.0
  0
SPLINE
  5
360
100
AcDbEntity
  8
0
100
AcDbSpline
 62
7
  6
CONTINUOUS
 70
0
 71
3
 72
11
 73
7
 74
0
 42
0.0000001
 43
0.0000001
 44
0.0000000001
 40
0.0
 40
0.0
 40
0.0
 40
0.0
 40
0.2499930989
 40
0.5000010693
 40
0.7500082912
 40
1.0
 40
1.0
 40
1.0
 40
1.0
 10
12.4473176679
 20
10.819259714
 30
0.0
 10
12.4247899081
 20
10.7832348517
 30
0.0
 10
12.3819595395
 20
10.7097617442
 30
0.0
 10
12.3248381342
 20
10.5957107706
 30
0.0
 10
12.2752222633
 20
10.4781975645
 30
0.0
 10
12.2473755597
 20
10.3978316273
 30
0.0
 10
12.2348183383
 20
10.3572411509
 30
0.0
  0
SPLINE
  5
361
100
AcDbEntity
  8
0
100
AcDbSpline
 62
7
  6
CONTINUOUS
 70
0
 71
3
 72
15
 73
11
 74
0
 42
0.0000001
 43
0.0000001
 44
0.0000000001
 40
0.0
 40
0.0
 40
0.0
 40
0.0
 40
0.1222814272
 40
0.2458112505
 40
0.3706859775
 40
0.4966336529
 40
0.6231472447
 40
0.7496063709
 40
0.8753917583
 40
1.0
 40
1.0
 40
1.0
 40
1.0
 10
11.9848183383
 20
9.6072411508
 30
0.0
 10
11.9897262849
 20
9.6391428035
 30
0.0
 10
12.0025811298
 20
9.7028324354
 30
0.0
 10
12.0288815295
 20
9.7971351527
 30
0.0
 10
12.0604622487
 20
9.8907996159
 30
0.0
 10
12.0955412545
 20
9.9840284252
 30
0.0
 10
12.1323514608
 20
10.0770271927
 30
0.0
 10
12.1691313124
 20
10.1699927408
 30
0.0
 10
12.2041179495
 20
10.2631181372
 30
0.0
 10
12.2251853407
 20
10.3257922468
 30
0.0
 10
12.2348183383
 20
10.3572411509
 30
0.0
  0
SPLINE
  5
362
100
AcDbEntity
  8
0
100
AcDbSpline
 62
7
  6
CONTINUOUS
 70
0
 71
3
 72
11
 73
7
 74
0
 42
0.0000001
 43
0.0000001
 44
0.0000000001
 40
0.0
 40
0.0
 40
0.0
 40
0.0
 40
0.2486254788
 40
0.4968419466
 40
0.7466054902
 40
1.0
 40
1.0
 40
1.0
 40
1.0
 10
11.8598183383
 20
8.3572411508
 30
0.0
 10
11.866745779
 20
8.461152761
 30
0.0
 10
11.8811703515
 20
8.6687685892
 30
0.0
 10
11.9072053641
 20
8.9804324377
 30
0.0
 10
11.9403244496
 20
9.2934465761
 30
0.0
 10
11.9686790066
 20
9.5023354947
 30
0.0
 10
11.9848183383
 20
9.6072411508
 30
0.0
  0
SPLINE
  5
363
100
AcDbEntity
  8
0
100
AcDbSpline
 62
7
  6
CONTINUOUS
 70
0
 71
3
 72
11
 73
7
 74
0
 42
0.0000001
 43
0.0000001
 44
0.0000000001
 40
0.0
 40
0.0
 40
0.0
 40
0.0
 40
0.2499930989
 40
0.5000010693
 40
0.7500082912
 40
1.0
 40
1.0
 40
1.0
 40
1.0
 10
9.6473190087
 20
10.819259714
 30
0.0
 10
9.6698467685
 20
10.7832348517
 30
0.0
 10
9.712677137
 20
10.7097617442
 30
0.0
 10
9.7697985424
 20
10.5957107706
 30
0.0
 10
9.8194144133
 20
10.4781975645
 30
0.0
 10
9.8472611169
 20
10.3978316273
 30
0.0
 10
9.8598183383
 20
10.3572411509
 30
0.0
  0
SPLINE
  5
364
100
AcDbEntity
  8
0
100
AcDbSpline
 62
7
  6
CONTINUOUS
 70
0
 71
3
 72
10
 73
6
 74
0
 42
0.0000001
 43
0.0000001
 44
0.0000000001
 40
0.0
 40
0.0
 40
0.0
 40
0.0
 40
0.4999781634
 40
0.7499900469
 40
1.0
 40
1.0
 40
1.0
 40
1.0
 10
11.7973183383
 20
7.1072411508
 30
0.0
 10
11.7973183383
 20
7.3158546889
 30
0.0
 10
11.8103676101
 20
7.6287526728
 30
0.0
 10
11.8381380015
 20
8.0450400478
 30
0.0
 10
11.8528793759
 20
8.2531567156
 30
0.0
 10
11.8598183383
 20
8.3572411508
 30
0.0
  0
SPLINE
  5
365
100
AcDbEntity
  8
0
100
AcDbSpline
 62
7
  6
CONTINUOUS
 70
0
 71
3
 72
15
 73
11
 74
0
 42
0.0000001
 43
0.0000001
 44
0.0000000001
 40
0.0
 40
0.0
 40
0.0
 40
0.0
 40
0.1222814272
 40
0.2458112505
 40
0.3706859775
 40
0.4966336529
 40
0.6231472447
 40
0.7496063709
 40
0.8753917583
 40
1.0
 40
1.0
 40
1.0
 40
1.0
 10
10.1098183383
 20
9.6072411508
 30
0.0
 10
10.1049103917
 20
9.6391428035
 30
0.0
 10
10.0920555467
 20
9.7028324354
 30
0.0
 10
10.065755147
 20
9.7971351527
 30
0.0
 10
10.0341744278
 20
9.8907996159
 30
0.0
 10
9.9990954221
 20
9.9840284252
 30
0.0
 10
9.9622852158
 20
10.0770271927
 30
0.0
 10
9.9255053642
 20
10.1699927408
 30
0.0
 10
9.8905187271
 20
10.2631181372
 30
0.0
 10
9.8694513359
 20
10.3257922468
 30
0.0
 10
9.8598183383
 20
10.3572411509
 30
0.0
  0
SPLINE
  5
366
100
AcDbEntity
  8
0
100
AcDbSpline
 62
7
  6
CONTINUOUS
 70
0
 71
3
 72
11
 73
7
 74
0
 42
0.0000001
 43
0.0000001
 44
0.0000000001
 40
0.0
 40
0.0
 40
0.0
 40
0.0
 40
0.2486254788
 40
0.4968419466
 40
0.7466054902
 40
1.0
 40
1.0
 40
1.0
 40
1.0
 10
10.2348183383
 20
8.3572411508
 30
0.0
 10
10.2278908976
 20
8.461152761
 30
0.0
 10
10.213466325
 20
8.6687685892
 30
0.0
 10
10.1874313125
 20
8.9804324377
 30
0.0
 10
10.154312227
 20
9.2934465761
 30
0.0
 10
10.12595767
 20
9.5023354947
 30
0.0
 10
10.1098183383
 20
9.6072411508
 30
0.0
  0
SPLINE
  5
367
100
AcDbEntity
  8
0
100
AcDbSpline
 62
7
  6
CONTINUOUS
 70
0
 71
3
 72
10
 73
6
 74
0
 42
0.0000001
 43
0.0000001
 44
0.0000000001
 40
0.0
 40
0.0
 40
0.0
 40
0.0
 40
0.4999781634
 40
0.7499900469
 40
1.0
 40
1.0
 40
1.0
 40
1.0
 10
10.2973183383
 20
7.1072411508
 30
0.0
 10
10.2973183383
 20
7.3158546889
 30
0.0
 10
10.2842690665
 20
7.6287526728
 30
0.0
 10
10.256498675
 20
8.0450400478
 30
0.0
 10
10.2417573006
 20
8.2531567156
 30
0.0
 10
10.2348183383
 20
8.3572411508
 30
0.0
  0
SPLINE
  5
368
100
AcDbEntity
  8
0
100
AcDbSpline
 62
9
  6
CONTINUOUS
 70
0
 71
3
 72
11
 73
7
 74
0
 42
0.0000001
 43
0.0000001
 44
0.0000000001
 40
0.0
 40
0.0
 40
0.0
 40
0.0
 40
0.2493855191
 40
0.3743108108
 40
0.4993327325
 40
1.0
 40
1.0
 40
1.0
 40
1.0
 10
12.2319479391
 20
10.3572411505
 30
0.0
 10
12.2051657081
 20
10.3579328747
 30
0.0
 10
12.1649588451
 20
10.3586475402
 30
0.0
 10
12.1113191054
 20
10.3592044663
 30
0.0
 10
12.0306834657
 20
10.3597763909
 30
0.0
 10
11.9634658022
 20
10.3598852174
 30
0.0
 10
11.9096797984
 20
10.3598279375
 30
0.0
  0
SPLINE
  5
369
100
AcDbEntity
  8
0
100
AcDbSpline
 62
9
  6
CONTINUOUS
 70
0
 71
3
 72
11
 73
7
 74
0
 42
0.0000001
 43
0.0000001
 44
0.0000000001
 40
0.0
 40
0.0
 40
0.0
 40
0.0
 40
0.2494076681
 40
0.4991281053
 40
0.7493077903
 40
1.0
 40
1.0
 40
1.0
 40
1.0
 10
11.9053335117
 20
10.3546930684
 30
0.0
 10
11.9324883391
 20
10.3546620174
 30
0.0
 10
11.9868321397
 20
10.3546830919
 30
0.0
 10
12.0684146086
 20
10.3549311645
 30
0.0
 10
12.1501347559
 20
10.3556118627
 30
0.0
 10
12.2046615781
 20
10.3565660709
 30
0.0
 10
12.231947931
 20
10.3572411509
 30
0.0
  0
SPLINE
  5
36A
100
AcDbEntity
  8
0
100
AcDbSpline
 62
9
  6
CONTINUOUS
 70
0
 71
3
 72
11
 73
7
 74
0
 42
0.0000001
 43
0.0000001
 44
0.0000000001
 40
0.0
 40
0.0
 40
0.0
 40
0.0
 40
0.2506933407
 40
0.5008711181
 40
0.7505922439
 40
1.0
 40
1.0
 40
1.0
 40
1.0
 10
9.8626887449
 20
10.3572411509
 30
0.0
 10
9.8899752634
 20
10.3565635886
 30
0.0
 10
9.9445022677
 20
10.3556109498
 30
0.0
 10
10.0262227175
 20
10.3549325612
 30
0.0
 10
10.10780537
 20
10.3546828647
 30
0.0
 10
10.1621494625
 20
10.3546620934
 30
0.0
 10
10.1893044029
 20
10.3546930579
 30
0.0
  0
SPLINE
  5
36B
100
AcDbEntity
  8
0
100
AcDbSpline
 62
9
  6
CONTINUOUS
 70
0
 71
3
 72
11
 73
7
 74
0
 42
0.0000001
 43
0.0000001
 44
0.0000000001
 40
0.0
 40
0.0
 40
0.0
 40
0.0
 40
0.5006674394
 40
0.6256895284
 40
0.7506149534
 40
1.0
 40
1.0
 40
1.0
 40
1.0
 10
10.1849574289
 20
10.3598279261
 30
0.0
 10
10.1311713133
 20
10.3598852351
 30
0.0
 10
10.0639534981
 20
10.3597763451
 30
0.0
 10
9.9833176638
 20
10.3592049537
 30
0.0
 10
9.9296778465
 20
10.3586483622
 30
0.0
 10
9.8894709472
 20
10.3579335176
 30
0.0
 10
9.8626887369
 20
10.3572411505
 30
0.0
  0
SPLINE
  5
36C
100
AcDbEntity
  8
0
100
AcDbSpline
 62
7
  6
CONTINUOUS
 70
0
 71
3
 72
17
 73
13
 74
0
 42
0.0000001
 43
0.0000001
 44
0.0000000001
 40
0.0
 40
0.0
 40
0.0
 40
0.0
 40
0.1434870525
 40
0.2816459835
 40
0.4138396698
 40
0.5400917385
 40
0.6607820085
 40
0.7767124573
 40
0.8333318654
 40
0.889273897
 40
0.9447545692
 40
1.0
 40
1.0
 40
1.0
 40
1.0
 10
11.3348183383
 20
5.6040683796
 30
0.0
 10
11.3561556483
 20
5.6127793
 30
0.0
 10
11.39718778
 20
5.6320760662
 30
0.0
 10
11.4538964644
 20
5.6670356998
 30
0.0
 10
11.5037419397
 20
5.7069871251
 30
0.0
 10
11.5458453424
 20
5.7512650794
 30
0.0
 10
11.5794885336
 20
5.7991359759
 30
0.0
 10
11.6001000782
 20
5.8417596826
 30
0.0
 10
11.6116285675
 20
5.8766456295
 30
0.0
 10
11.6177823768
 20
5.9029652263
 30
0.0
 10
11.6214891377
 20
5.9295132118
 30
0.0
 10
11.6223173784
 20
5.9473089937
 30
0.0
 10
11.6223172864
 20
5.9561825296
 30
0.0
  0
SPLINE
  5
36D
100
AcDbEntity
  8
0
100
AcDbSpline
 62
7
  6
CONTINUOUS
 70
0
 71
3
 72
14
 73
10
 74
0
 42
0.0000001
 43
0.0000001
 44
0.0000000001
 40
0.0
 40
0.0
 40
0.0
 40
0.0
 40
0.2682839785
 40
0.3968250847
 40
0.5219770845
 40
0.6442156443
 40
0.7641510933
 40
0.8824856977
 40
1.0
 40
1.0
 40
1.0
 40
1.0
 10
11.4973486667
 20
6.8739376165
 30
0.0
 10
11.5167778192
 20
6.8566602495
 30
0.0
 10
11.5435051295
 20
6.828614846
 30
0.0
 10
11.5727114324
 20
6.7872333958
 30
0.0
 10
11.5906299677
 20
6.7554318379
 30
0.0
 10
11.60470296
 20
6.7226564233
 30
0.0
 10
11.6148365349
 20
6.6891405488
 30
0.0
 10
11.6209552116
 20
6.6551314326
 30
0.0
 10
11.6223147981
 20
6.6322514741
 30
0.0
 10
11.6223147078
 20
6.6208629057
 30
0.0
  0
SPLINE
  5
36E
100
AcDbEntity
  8
0
100
AcDbSpline
 62
7
  6
CONTINUOUS
 70
0
 71
3
 72
18
 73
14
 74
0
 42
0.0000001
 43
0.0000001
 44
0.0000000001
 40
0.0
 40
0.0
 40
0.0
 40
0.0
 40
0.1431823299
 40
0.2810191165
 40
0.4129612837
 40
0.4767688595
 40
0.5391611283
 40
0.6598868671
 40
0.7760105642
 40
0.8327761984
 40
0.8888887533
 40
0.9445566365
 40
1.0
 40
1.0
 40
1.0
 40
1.0
 10
11.2877653619
 20
6.3273547974
 30
0.0
 10
11.304320985
 20
6.3344816935
 30
0.0
 10
11.3361272091
 20
6.3501527587
 30
0.0
 10
11.3799987486
 20
6.3782444792
 30
0.0
 10
11.412441079
 20
6.4051075634
 30
0.0
 10
11.4352703031
 20
6.428266968
 30
0.0
 10
11.455505199
 20
6.4518907188
 30
0.0
 10
11.4768778545
 20
6.4830941444
 30
0.0
 10
11.4927279963
 20
6.5166874407
 30
0.0
 10
11.5015958338
 20
6.5441499835
 30
0.0
 10
11.5063339041
 20
6.5648613607
 30
0.0
 10
11.5091798571
 20
6.585745988
 30
0.0
 10
11.509815059
 20
6.599741298
 30
0.0
 10
11.5098157863
 20
6.6067207689
 30
0.0
  0
SPLINE
  5
36F
100
AcDbEntity
  8
0
100
AcDbSpline
 62
7
  6
CONTINUOUS
 70
0
 71
3
 72
11
 73
7
 74
0
 42
0.0000001
 43
0.0000001
 44
0.0000000001
 40
0.0
 40
0.0
 40
0.0
 40
0.0
 40
0.2560911606
 40
0.5070515705
 40
0.7544439651
 40
1.0
 40
1.0
 40
1.0
 40
1.0
 10
11.4727503574
 20
7.2460494063
 30
0.0
 10
11.4771622846
 20
7.2374417984
 30
0.0
 10
11.4849750648
 20
7.2199043918
 30
0.0
 10
11.4935091004
 20
7.192650673
 30
0.0
 10
11.498669063
 20
7.1649641352
 30
0.0
 10
11.4998153739
 20
7.1463253947
 30
0.0
 10
11.4998144809
 20
7.1370508654
 30
0.0
  0
SPLINE
  5
370
100
AcDbEntity
  8
0
100
AcDbSpline
 62
7
  6
CONTINUOUS
 70
0
 71
3
 72
13
 73
9
 74
0
 42
0.0000001
 43
0.0000001
 44
0.0000000001
 40
0.0
 40
0.0
 40
0.0
 40
0.0
 40
0.1322372687
 40
0.2638147577
 40
0.5213890274
 40
0.6463689424
 40
0.7681026615
 40
1.0
 40
1.0
 40
1.0
 40
1.0
 10
11.0473183383
 20
6.8687192141
 30
0.0
 10
11.0335309191
 20
6.8684504013
 30
0.0
 10
11.005992842
 20
6.8689121835
 30
0.0
 10
10.9518041777
 20
6.8737299826
 30
0.0
 10
10.8989967998
 20
6.8843239259
 30
0.0
 10
10.8489641107
 20
6.9006887626
 30
0.0
 10
10.8029250454
 20
6.9200462214
 30
0.0
 10
10.7707789305
 20
6.9386709543
 30
0.0
 10
10.7511955726
 20
6.9528590516
 30
0.0
  0
SPLINE
  5
371
100
AcDbEntity
  8
0
100
AcDbSpline
 62
7
  6
CONTINUOUS
 70
0
 71
3
 72
9
 73
5
 74
0
 42
0.0000001
 43
0.0000001
 44
0.0000000001
 40
0.0
 40
0.0
 40
0.0
 40
0.0
 40
0.5127282056
 40
1.0
 40
1.0
 40
1.0
 40
1.0
 10
10.7511955726
 20
6.9528590516
 30
0.0
 10
10.7389919453
 20
6.9617005512
 30
0.0
 10
10.7162511203
 20
6.9804791907
 30
0.0
 10
10.6964375376
 20
7.0023650049
 30
0.0
 10
10.6877194575
 20
7.0137274389
 30
0.0
  0
SPLINE
  5
372
100
AcDbEntity
  8
0
100
AcDbSpline
 62
7
  6
CONTINUOUS
 70
0
 71
3
 72
11
 73
7
 74
0
 42
0.0000001
 43
0.0000001
 44
0.0000000001
 40
0.0
 40
0.0
 40
0.0
 40
0.0
 40
0.2572533618
 40
0.5084186479
 40
0.7553064845
 40
1.0
 40
1.0
 40
1.0
 40
1.0
 10
10.6679982173
 20
7.0435977499
 30
0.0
 10
10.6636241701
 20
7.0514267203
 30
0.0
 10
10.6558679512
 20
7.0674188688
 30
0.0
 10
10.647356336
 20
7.0924074736
 30
0.0
 10
10.6422159704
 20
7.1178576645
 30
0.0
 10
10.6410716947
 20
7.1350159764
 30
0.0
 10
10.6410711786
 20
7.1435461351
 30
0.0
  0
SPLINE
  5
373
100
AcDbEntity
  8
0
100
AcDbSpline
 62
7
  6
CONTINUOUS
 70
0
 71
3
 72
11
 73
7
 74
0
 42
0.0000001
 43
0.0000001
 44
0.0000000001
 40
0.0
 40
0.0
 40
0.0
 40
0.0
 40
0.2610332344
 40
0.514655037
 40
0.760803448
 40
1.0
 40
1.0
 40
1.0
 40
1.0
 10
11.3431286756
 20
7.1147746463
 30
0.0
 10
11.3509086751
 20
7.121017951
 30
0.0
 10
11.3657373351
 20
7.1339824023
 30
0.0
 10
11.3858411774
 20
7.1550424999
 30
0.0
 10
11.4033085291
 20
7.1772881041
 30
0.0
 10
11.4132326343
 20
7.1930053987
 30
0.0
 10
11.417681219
 20
7.2009907094
 30
0.0
  0
SPLINE
  5
374
100
AcDbEntity
  8
0
100
AcDbSpline
 62
7
  6
CONTINUOUS
 70
0
 71
3
 72
15
 73
11
 74
0
 42
0.0000001
 43
0.0000001
 44
0.0000000001
 40
0.0
 40
0.0
 40
0.0
 40
0.0
 40
0.1308045238
 40
0.2612612002
 40
0.3905181493
 40
0.5179608014
 40
0.6430667174
 40
0.7653870293
 40
0.88451569
 40
1.0
 40
1.0
 40
1.0
 40
1.0
 10
11.0473183383
 20
7.0179529156
 30
0.0
 10
11.0611114722
 20
7.0182218565
 30
0.0
 10
11.0886517006
 20
7.0197556878
 30
0.0
 10
11.1295387261
 20
7.0249996792
 30
0.0
 10
11.1695850035
 20
7.0331681921
 30
0.0
 10
11.2083630732
 20
7.0441668841
 30
0.0
 10
11.2454812198
 20
7.0579033392
 30
0.0
 10
11.2805697176
 20
7.0742419678
 30
0.0
 10
11.3132422637
 20
7.0930337173
 30
0.0
 10
11.3335226047
 20
7.1072863409
 30
0.0
 10
11.3431286758
 20
7.1147746464
 30
0.0
  0
SPLINE
  5
375
100
AcDbEntity
  8
0
100
AcDbSpline
 62
7
  6
CONTINUOUS
 70
0
 71
3
 72
12
 73
8
 74
0
 42
0.0000001
 43
0.0000001
 44
0.0000000001
 40
0.0
 40
0.0
 40
0.0
 40
0.0
 40
0.1310309869
 40
0.261499699
 40
0.5178510178
 40
0.7650866644
 40
1.0
 40
1.0
 40
1.0
 40
1.0
 10
11.0473183383
 20
6.918527874
 30
0.0
 10
11.0348601127
 20
6.9182842404
 30
0.0
 10
11.0099723858
 20
6.9186108143
 30
0.0
 10
10.9608513
 20
6.9224545877
 30
0.0
 10
10.9012926939
 20
6.9330853225
 30
0.0
 10
10.834312028
 20
6.9549151913
 30
0.0
 10
10.7931270192
 20
6.9755931641
 30
0.0
 10
10.7741058725
 20
6.9873084505
 30
0.0
  0
SPLINE
  5
376
100
AcDbEntity
  8
0
100
AcDbSpline
 62
7
  6
CONTINUOUS
 70
0
 71
3
 72
9
 73
5
 74
0
 42
0.0000001
 43
0.0000001
 44
0.0000000001
 40
0.0
 40
0.0
 40
0.0
 40
0.0
 40
0.5103883547
 40
1.0
 40
1.0
 40
1.0
 40
1.0
 10
10.7741058725
 20
6.9873084505
 30
0.0
 10
10.7629550088
 20
6.9941763624
 30
0.0
 10
10.7417748293
 20
7.0087580765
 30
0.0
 10
10.7223635132
 20
7.025642674
 30
0.0
 10
10.713415136
 20
7.034460678
 30
0.0
  0
SPLINE
  5
377
100
AcDbEntity
  8
0
100
AcDbSpline
 62
7
  6
CONTINUOUS
 70
0
 71
3
 72
11
 73
7
 74
0
 42
0.0000001
 43
0.0000001
 44
0.0000000001
 40
0.0
 40
0.0
 40
0.0
 40
0.0
 40
0.2603060954
 40
0.5131886962
 40
0.7593487568
 40
1.0
 40
1.0
 40
1.0
 40
1.0
 10
10.6953467171
 20
7.0539659932
 30
0.0
 10
10.6895202107
 20
7.0608866853
 30
0.0
 10
10.6787048995
 20
7.0751159926
 30
0.0
 10
10.6650364693
 20
7.0977517086
 30
0.0
 10
10.6542978096
 20
7.121170576
 30
0.0
 10
10.649121636
 20
7.1373303185
 30
0.0
 10
10.6470710559
 20
7.1454387296
 30
0.0
  0
SPLINE
  5
378
100
AcDbEntity
  8
0
100
AcDbSpline
 62
7
  6
CONTINUOUS
 70
0
 71
3
 72
15
 73
11
 74
0
 42
0.0000001
 43
0.0000001
 44
0.0000000001
 40
0.0
 40
0.0
 40
0.0
 40
0.0
 40
0.1331102793
 40
0.2654479703
 40
0.3959862519
 40
0.523987536
 40
0.6488669697
 40
0.7701011606
 40
0.8872400918
 40
1.0
 40
1.0
 40
1.0
 40
1.0
 10
11.0473183383
 20
6.9681753649
 30
0.0
 10
11.0326109037
 20
6.9678892847
 30
0.0
 10
11.0032471877
 20
6.9684518035
 30
0.0
 10
10.9596452034
 20
6.9726427255
 30
0.0
 10
10.9170607415
 20
6.9801608684
 30
0.0
 10
10.8760201633
 20
6.9908918281
 30
0.0
 10
10.8369978174
 20
7.0047061002
 30
0.0
 10
10.8004406059
 20
7.0214286726
 30
0.0
 10
10.7667808333
 20
7.0408532741
 30
0.0
 10
10.7461345041
 20
7.05575583
 30
0.0
 10
10.7364518456
 20
7.0635998908
 30
0.0
  0
SPLINE
  5
379
100
AcDbEntity
  8
0
100
AcDbSpline
 62
7
  6
CONTINUOUS
 70
0
 71
3
 72
9
 73
5
 74
0
 42
0.0000001
 43
0.0000001
 44
0.0000000001
 40
0.0
 40
0.0
 40
0.0
 40
0.0
 40
0.5114595839
 40
1.0
 40
1.0
 40
1.0
 40
1.0
 10
10.7161632024
 20
7.0814883059
 30
0.0
 10
10.7065019858
 20
7.0907761987
 30
0.0
 10
10.6887877541
 20
7.1102130381
 30
0.0
 10
10.6741160036
 20
7.1320687206
 30
0.0
 10
10.6678830669
 20
7.1432498936
 30
0.0
  0
SPLINE
  5
37A
100
AcDbEntity
  8
0
100
AcDbSpline
 62
7
  6
CONTINUOUS
 70
0
 71
3
 72
9
 73
5
 74
0
 42
0.0000001
 43
0.0000001
 44
0.0000000001
 40
0.0
 40
0.0
 40
0.0
 40
0.0
 40
0.2526528858
 40
1.0
 40
1.0
 40
1.0
 40
1.0
 10
10.6575625903
 20
7.1642396808
 30
0.0
 10
10.6564573942
 20
7.1668226302
 30
0.0
 10
10.6522811885
 20
7.1771293354
 30
0.0
 10
10.6489143937
 20
7.187766094
 30
0.0
 10
10.6469032531
 20
7.1958294638
 30
0.0
  0
SPLINE
  5
37B
100
AcDbEntity
  8
0
100
AcDbSpline
 62
7
  6
CONTINUOUS
 70
0
 71
3
 72
12
 73
8
 74
0
 42
0.0000001
 43
0.0000001
 44
0.0000000001
 40
0.0
 40
0.0
 40
0.0
 40
0.0
 40
0.1308077794
 40
0.261202563
 40
0.5176109034
 40
0.7649640008
 40
1.0
 40
1.0
 40
1.0
 40
1.0
 10
11.0473183383
 20
7.0552392856
 30
0.0
 10
11.0602763694
 20
7.0552392856
 30
0.0
 10
11.0861614366
 20
7.0561210443
 30
0.0
 10
11.1372006656
 20
7.0613255664
 30
0.0
 10
11.1989407655
 20
7.0741157541
 30
0.0
 10
11.2679534462
 20
7.0992204006
 30
0.0
 10
11.3099721666
 20
7.1225408905
 30
0.0
 10
11.3292126198
 20
7.1356521557
 30
0.0
  0
SPLINE
  5
37C
100
AcDbEntity
  8
0
100
AcDbSpline
 62
7
  6
CONTINUOUS
 70
0
 71
3
 72
9
 73
5
 74
0
 42
0.0000001
 43
0.0000001
 44
0.0000000001
 40
0.0
 40
0.0
 40
0.0
 40
0.0
 40
0.5144464477
 40
1.0
 40
1.0
 40
1.0
 40
1.0
 10
11.3292126198
 20
7.1356521557
 30
0.0
 10
11.3447966222
 20
7.1462717595
 30
0.0
 10
11.3736189815
 20
7.1692010172
 30
0.0
 10
11.3981443331
 20
7.1967600825
 30
0.0
 10
11.4086136499
 20
7.2111546979
 30
0.0
  0
SPLINE
  5
37D
100
AcDbEntity
  8
0
100
AcDbSpline
 62
7
  6
CONTINUOUS
 70
0
 71
3
 72
9
 73
5
 74
0
 42
0.0000001
 43
0.0000001
 44
0.0000000001
 40
0.0
 40
0.0
 40
0.0
 40
0.0
 40
0.2471367009
 40
1.0
 40
1.0
 40
1.0
 40
1.0
 10
10.6610676069
 20
7.2534801309
 30
0.0
 10
10.6622036566
 20
7.2510158017
 30
0.0
 10
10.6669741481
 20
7.2411249992
 30
0.0
 10
10.6724278527
 20
7.2315657551
 30
0.0
 10
10.6768669887
 20
7.2245922953
 30
0.0
  0
SPLINE
  5
37E
100
AcDbEntity
  8
0
100
AcDbSpline
 62
7
  6
CONTINUOUS
 70
0
 71
3
 72
15
 73
11
 74
0
 42
0.0000001
 43
0.0000001
 44
0.0000000001
 40
0.0
 40
0.0
 40
0.0
 40
0.0
 40
0.1081354113
 40
0.2217409695
 40
0.3409513387
 40
0.4654821129
 40
0.5946620265
 40
0.7275789996
 40
0.8631882594
 40
1.0
 40
1.0
 40
1.0
 40
1.0
 10
10.6811614129
 20
7.2180663551
 30
0.0
 10
10.6895857216
 20
7.2056740079
 30
0.0
 10
10.7090647442
 20
7.1817091386
 30
0.0
 10
10.7441676266
 20
7.1498587545
 30
0.0
 10
10.785160992
 20
7.1218243453
 30
0.0
 10
10.8312306151
 20
7.098144171
 30
0.0
 10
10.8814767292
 20
7.0792358097
 30
0.0
 10
10.93494704
 20
7.0654680683
 30
0.0
 10
10.9905831441
 20
7.0571139807
 30
0.0
 10
11.0283599436
 20
7.0552392856
 30
0.0
 10
11.0473183383
 20
7.0552392856
 30
0.0
  0
SPLINE
  5
37F
100
AcDbEntity
  8
0
100
AcDbSpline
 62
7
  6
CONTINUOUS
 70
0
 71
3
 72
15
 73
11
 74
0
 42
0.0000001
 43
0.0000001
 44
0.0000000001
 40
0.0
 40
0.0
 40
0.0
 40
0.0
 40
0.1065779774
 40
0.2190202682
 40
0.3375358825
 40
0.4618706624
 40
0.5913281513
 40
0.7249857309
 40
0.8617449305
 40
1.0
 40
1.0
 40
1.0
 40
1.0
 10
10.6778371885
 20
7.1767601571
 30
0.0
 10
10.6860759066
 20
7.1644044165
 30
0.0
 10
10.7053115954
 20
7.1404940262
 30
0.0
 10
10.7403253495
 20
7.1088471516
 30
0.0
 10
10.7814942651
 20
7.0810768402
 30
0.0
 10
10.8279887458
 20
7.0577736517
 30
0.0
 10
10.8788667481
 20
7.0393735825
 30
0.0
 10
10.9331347283
 20
7.0262721241
 30
0.0
 10
10.9896785813
 20
7.0187661651
 30
0.0
 10
11.0280574849
 20
7.0175773642
 30
0.0
 10
11.0473183383
 20
7.0179529156
 30
0.0
  0
SPLINE
  5
380
100
AcDbEntity
  8
0
100
AcDbSpline
 62
7
  6
CONTINUOUS
 70
0
 71
3
 72
9
 73
5
 74
0
 42
0.0000001
 43
0.0000001
 44
0.0000000001
 40
0.0
 40
0.0
 40
0.0
 40
0.0
 40
0.4900129624
 40
1.0
 40
1.0
 40
1.0
 40
1.0
 10
11.419184305
 20
7.1489508442
 30
0.0
 10
11.4123239473
 20
7.1375930601
 30
0.0
 10
11.3965668584
 20
7.1154425557
 30
0.0
 10
11.3779553719
 20
7.0956568911
 30
0.0
 10
11.3678931673
 20
7.0861984615
 30
0.0
  0
SPLINE
  5
381
100
AcDbEntity
  8
0
100
AcDbSpline
 62
7
  6
CONTINUOUS
 70
0
 71
3
 72
15
 73
11
 74
0
 42
0.0000001
 43
0.0000001
 44
0.0000000001
 40
0.0
 40
0.0
 40
0.0
 40
0.0
 40
0.1136126354
 40
0.2313316799
 40
0.3529220496
 40
0.4779419511
 40
0.6058551642
 40
0.7360558132
 40
0.8677945243
 40
1.0
 40
1.0
 40
1.0
 40
1.0
 10
11.3678931673
 20
7.0861984615
 30
0.0
 10
11.3583148768
 20
7.0771949091
 30
0.0
 10
11.3377276081
 20
7.0599876114
 30
0.0
 10
11.3037327866
 20
7.0372416454
 30
0.0
 10
11.2664888843
 20
7.0173550524
 30
0.0
 10
11.2264812543
 20
7.0005510725
 30
0.0
 10
11.1842004515
 20
6.9870446813
 30
0.0
 10
11.1401764736
 20
6.9769753703
 30
0.0
 10
11.0949881174
 20
6.9704844835
 30
0.0
 10
11.0644704307
 20
6.9685620523
 30
0.0
 10
11.0491774495
 20
6.9682145677
 30
0.0
  0
SPLINE
  5
382
100
AcDbEntity
  8
0
100
AcDbSpline
 62
7
  6
CONTINUOUS
 70
0
 71
3
 72
17
 73
13
 74
0
 42
0.0000001
 43
0.0000001
 44
0.0000000001
 40
0.0
 40
0.0
 40
0.0
 40
0.0
 40
0.0526538883
 40
0.1064618505
 40
0.161595354
 40
0.2181778552
 40
0.3358806124
 40
0.4597940381
 40
0.5893787459
 40
0.7235787106
 40
0.8610816327
 40
1.0
 40
1.0
 40
1.0
 40
1.0
 10
11.438987156
 20
7.1398333354
 30
0.0
 10
11.4360446522
 20
7.1320600322
 30
0.0
 10
11.429260464
 20
7.1166462379
 30
0.0
 10
11.4166603042
 20
7.0944224651
 30
0.0
 10
11.4016351361
 20
7.072998038
 30
0.0
 10
11.3782082723
 20
7.04532634
 30
0.0
 10
11.343179453
 20
7.0135328863
 30
0.0
 10
11.2940883764
 20
6.9811758111
 30
0.0
 10
11.2386460123
 20
6.9548329363
 30
0.0
 10
11.1782714202
 20
6.9351306447
 30
0.0
 10
11.1145424703
 20
6.9225416471
 30
0.0
 10
11.0709345111
 20
6.9190574452
 30
0.0
 10
11.0490113454
 20
6.9185635009
 30
0.0
  0
SPLINE
  5
383
100
AcDbEntity
  8
0
100
AcDbSpline
 62
7
  6
CONTINUOUS
 70
0
 71
3
 72
15
 73
11
 74
0
 42
0.0000001
 43
0.0000001
 44
0.0000000001
 40
0.0
 40
0.0
 40
0.0
 40
0.0
 40
0.1148505677
 40
0.2315745322
 40
0.3508503421
 40
0.4732424955
 40
0.599152087
 40
0.7288546009
 40
0.862476167
 40
1.0
 40
1.0
 40
1.0
 40
1.0
 10
11.4507453627
 20
7.1336731262
 30
0.0
 10
11.4492950447
 20
7.1247791986
 30
0.0
 10
11.4452497943
 20
7.1070107892
 30
0.0
 10
11.4359556496
 20
7.0810349604
 30
0.0
 10
11.423469727
 20
7.0557709756
 30
0.0
 10
11.4078961172
 20
7.03143153
 30
0.0
 10
11.3893863296
 20
7.0081933949
 30
0.0
 10
11.3680785921
 20
6.9862499334
 30
0.0
 10
11.3441596359
 20
6.9657665539
 30
0.0
 10
11.3268437429
 20
6.9533559519
 30
0.0
 10
11.3178262008
 20
6.9474300357
 30
0.0
  0
SPLINE
  5
384
100
AcDbEntity
  8
0
100
AcDbSpline
 62
7
  6
CONTINUOUS
 70
0
 71
3
 72
10
 73
6
 74
0
 42
0.0000001
 43
0.0000001
 44
0.0000000001
 40
0.0
 40
0.0
 40
0.0
 40
0.0
 40
0.4878393792
 40
0.742618365
 40
1.0
 40
1.0
 40
1.0
 40
1.0
 10
11.2937169537
 20
6.9327495776
 30
0.0
 10
11.2575694037
 20
6.9123702861
 30
0.0
 10
11.1978402351
 20
6.8891367259
 30
0.0
 10
11.1142915634
 20
6.8727008208
 30
0.0
 10
11.0707349098
 20
6.8692365855
 30
0.0
 10
11.0488469378
 20
6.8687510695
 30
0.0
  0
SPLINE
  5
385
100
AcDbEntity
  8
0
100
AcDbSpline
 62
7
  6
CONTINUOUS
 70
0
 71
3
 72
16
 73
12
 74
0
 42
0.0000001
 43
0.0000001
 44
0.0000000001
 40
0.0
 40
0.0
 40
0.0
 40
0.0
 40
0.123133838
 40
0.1847013196
 40
0.2463281738
 40
0.3697421525
 40
0.493576778
 40
0.6181731127
 40
0.7439161467
 40
0.8711972119
 40
1.0
 40
1.0
 40
1.0
 40
1.0
 10
11.4998183383
 20
6.9092720674
 30
0.0
 10
11.4998183383
 20
6.8910528996
 30
0.0
 10
11.4974648901
 20
6.8636511113
 30
0.0
 10
11.4897655607
 20
6.8279950292
 30
0.0
 10
11.4790848441
 20
6.7930640944
 30
0.0
 10
11.4603661561
 20
6.7511326586
 30
0.0
 10
11.4301334907
 20
6.7049074054
 30
0.0
 10
11.3931273287
 20
6.6634659099
 30
0.0
 10
11.3502836818
 20
6.6273287149
 30
0.0
 10
11.3025575454
 20
6.5968229435
 30
0.0
 10
11.2682699005
 20
6.5804486107
 30
0.0
 10
11.2506256592
 20
6.5732453794
 30
0.0
  0
SPLINE
  5
386
100
AcDbEntity
  8
0
100
AcDbSpline
 62
7
  6
CONTINUOUS
 70
0
 71
3
 72
11
 73
7
 74
0
 42
0.0000001
 43
0.0000001
 44
0.0000000001
 40
0.0
 40
0.0
 40
0.0
 40
0.0
 40
0.2449058923
 40
0.4919159626
 40
0.7430305971
 40
1.0
 40
1.0
 40
1.0
 40
1.0
 10
10.5948221957
 20
7.1370508441
 30
0.0
 10
10.5948231568
 20
7.1470330821
 30
0.0
 10
10.5961546019
 20
7.1671079869
 30
0.0
 10
10.602126265
 20
7.1968831679
 30
0.0
 10
10.612015311
 20
7.2261116151
 30
0.0
 10
10.6210306884
 20
7.2448200586
 30
0.0
 10
10.6261153341
 20
7.2539770127
 30
0.0
  0
SPLINE
  5
387
100
AcDbEntity
  8
0
100
AcDbSpline
 62
7
  6
CONTINUOUS
 70
0
 71
3
 72
20
 73
16
 74
0
 42
0.0000001
 43
0.0000001
 44
0.0000000001
 40
0.0
 40
0.0
 40
0.0
 40
0.0
 40
0.1307117795
 40
0.2601202935
 40
0.3874018754
 40
0.4502153064
 40
0.5124800104
 40
0.5742492735
 40
0.6356164109
 40
0.6966794368
 40
0.7575251882
 40
0.8182469171
 40
0.878847923
 40
0.9393873647
 40
1.0
 40
1.0
 40
1.0
 40
1.0
 10
11.0417653787
 20
6.5342700794
 30
0.0
 10
11.0135966441
 20
6.5345504664
 30
0.0
 10
10.9574847927
 20
6.5393193096
 30
0.0
 10
10.8760400888
 20
6.5590674734
 30
0.0
 10
10.8122685375
 20
6.5859832994
 30
0.0
 10
10.7653207321
 20
6.6135632542
 30
0.0
 10
10.7325657523
 20
6.6370909809
 30
0.0
 10
10.7024497872
 20
6.6634474717
 30
0.0
 10
10.6753156754
 20
6.6925206257
 30
0.0
 10
10.651510394
 20
6.7241350353
 30
0.0
 10
10.6313914414
 20
6.7580607957
 30
0.0
 10
10.6153222125
 20
6.7939769215
 30
0.0
 10
10.6035685342
 20
6.8314651647
 30
0.0
 10
10.5964260737
 20
6.8700719312
 30
0.0
 10
10.5948183383
 20
6.8962092369
 30
0.0
 10
10.5948183383
 20
6.9092720674
 30
0.0
  0
SPLINE
  5
388
100
AcDbEntity
  8
0
100
AcDbSpline
 62
7
  6
CONTINUOUS
 70
0
 71
3
 72
10
 73
6
 74
0
 42
0.0000001
 43
0.0000001
 44
0.0000000001
 40
0.0
 40
0.0
 40
0.0
 40
0.0
 40
0.2469918001
 40
0.4967932059
 40
1.0
 40
1.0
 40
1.0
 40
1.0
 10
11.2506256592
 20
6.5732453794
 30
0.0
 10
11.2347344468
 20
6.5667578191
 30
0.0
 10
11.2020610439
 20
6.5553741499
 30
0.0
 10
11.1344337703
 20
6.5390718088
 30
0.0
 10
11.0819117962
 20
6.5342168257
 30
0.0
 10
11.0469419057
 20
6.5342424204
 30
0.0
  0
SPLINE
  5
389
100
AcDbEntity
  8
0
100
AcDbSpline
 62
7
  6
CONTINUOUS
 70
0
 71
3
 72
24
 73
20
 74
0
 42
0.0000001
 43
0.0000001
 44
0.0000000001
 40
0.0
 40
0.0
 40
0.0
 40
0.0
 40
0.0248869372
 40
0.0498772988
 40
0.1005151565
 40
0.1263922755
 40
0.1527317293
 40
0.2070004773
 40
0.2637401385
 40
0.3231184775
 40
0.3851250824
 40
0.4495794885
 40
0.5161715427
 40
0.5844807425
 40
0.7240581191
 40
0.794332799
 40
0.8641086177
 40
0.932862495
 40
1.0
 40
1.0
 40
1.0
 40
1.0
 10
10.5848208902
 20
6.6067207687
 30
0.0
 10
10.5848201554
 20
6.5996691906
 30
0.0
 10
10.5854658548
 20
6.5855268161
 30
0.0
 10
10.589361754
 20
6.5572844387
 30
0.0
 10
10.5971641866
 20
6.5294165728
 30
0.0
 10
10.6085605058
 20
6.5025662784
 30
0.0
 10
10.6226302562
 20
6.4758396331
 30
0.0
 10
10.6448771828
 20
6.4437034027
 30
0.0
 10
10.6779913517
 20
6.4083612689
 30
0.0
 10
10.7172044738
 20
6.3763672807
 30
0.0
 10
10.7618690282
 20
6.3482509176
 30
0.0
 10
10.81123505
 20
6.3244448021
 30
0.0
 10
10.8644976921
 20
6.3053303541
 30
0.0
 10
10.940027125
 20
6.2863938472
 30
0.0
 10
11.0189601762
 20
6.2782046955
 30
0.0
 10
11.0982278194
 20
6.2807574372
 30
0.0
 10
11.1570296274
 20
6.2880811184
 30
0.0
 10
11.2140064919
 20
6.3006949198
 30
0.0
 10
11.2506874978
 20
6.3126526918
 30
0.0
 10
11.2684416105
 20
6.319484074
 30
0.0
  0
SPLINE
  5
38A
100
AcDbEntity
  8
0
100
AcDbSpline
 62
7
  6
CONTINUOUS
 70
0
 71
3
 72
24
 73
20
 74
0
 42
0.0000001
 43
0.0000001
 44
0.0000000001
 40
0.0
 40
0.0
 40
0.0
 40
0.0
 40
0.0248713732
 40
0.0498488257
 40
0.0750343423
 40
0.1005254037
 40
0.1527189817
 40
0.2070520356
 40
0.2638941234
 40
0.323412623
 40
0.3855788043
 40
0.4501997543
 40
0.5169463728
 40
0.5853763297
 40
0.7250209202
 40
0.795214442
 40
0.864810541
 40
0.9332763538
 40
1.0
 40
1.0
 40
1.0
 40
1.0
 10
10.4723193902
 20
5.9561825306
 30
0.0
 10
10.4723194823
 20
5.9473090713
 30
0.0
 10
10.4731477291
 20
5.9295134012
 30
0.0
 10
10.4768541521
 20
5.9029653413
 30
0.0
 10
10.4830083113
 20
5.8766453616
 30
0.0
 10
10.494538537
 20
5.8417589606
 30
0.0
 10
10.5151501552
 20
5.7991352908
 30
0.0
 10
10.5487918984
 20
5.7512621679
 30
0.0
 10
10.5908999834
 20
5.7069847559
 30
0.0
 10
10.6407390646
 20
5.6670431279
 30
0.0
 10
10.6974460621
 20
5.6320725006
 30
0.0
 10
10.7600543226
 20
5.6026358989
 30
0.0
 10
10.8275218004
 20
5.5792266955
 30
0.0
 10
10.9230025646
 20
5.5564067743
 30
0.0
 10
11.0225618598
 20
5.547303864
 30
0.0
 10
11.1222517331
 20
5.5518972901
 30
0.0
 10
11.1959531315
 20
5.5622147573
 30
0.0
 10
11.2671153291
 20
5.5792308011
 30
0.0
 10
11.3127789481
 20
5.5950708363
 30
0.0
 10
11.3348183383
 20
5.6040683796
 30
0.0
  0
SPLINE
  5
38B
100
AcDbEntity
  8
0
100
AcDbSpline
 62
7
  6
CONTINUOUS
 70
0
 71
3
 72
14
 73
10
 74
0
 42
0.0000001
 43
0.0000001
 44
0.0000000001
 40
0.0
 40
0.0
 40
0.0
 40
0.0
 40
0.1175091119
 40
0.2358400084
 40
0.3557694861
 40
0.4779860496
 40
0.6031005817
 40
0.7316282835
 40
1.0
 40
1.0
 40
1.0
 40
1.0
 10
10.4723219687
 20
6.6208629032
 30
0.0
 10
10.472322059
 20
6.6322441817
 30
0.0
 10
10.4736799519
 20
6.6551095276
 30
0.0
 10
10.479789527
 20
6.68909794
 30
0.0
 10
10.4899134202
 20
6.7225915804
 30
0.0
 10
10.5039634886
 20
6.7553464762
 30
0.0
 10
10.5218554644
 20
6.7871299915
 30
0.0
 10
10.5510333216
 20
6.8284991817
 30
0.0
 10
10.5777426322
 20
6.8565394738
 30
0.0
 10
10.597159236
 20
6.8738204189
 30
0.0
  0
SPLINE
  5
38C
100
AcDbEntity
  8
0
100
AcDbSpline
 62
7
  6
CONTINUOUS
 70
0
 71
3
 72
20
 73
16
 74
0
 42
0.0000001
 43
0.0000001
 44
0.0000000001
 40
0.0
 40
0.0
 40
0.0
 40
0.0
 40
0.0556621022
 40
0.11157634
 40
0.1679191354
 40
0.2248732292
 40
0.282627401
 40
0.3413517654
 40
0.4621637953
 40
0.5245424302
 40
0.5882956405
 40
0.7199727002
 40
0.8573257535
 40
0.9280628692
 40
1.0
 40
1.0
 40
1.0
 40
1.0
 10
9.4273183383
 20
5.4851551988
 30
0.0
 10
9.4273183383
 20
5.5100347448
 30
0.0
 10
9.4296034523
 20
5.5599357605
 30
0.0
 10
9.4398181576
 20
5.6343903495
 30
0.0
 10
9.4567857473
 20
5.7081999003
 30
0.0
 10
9.480438964
 20
5.7810042522
 30
0.0
 10
9.5106360226
 20
5.8525048212
 30
0.0
 10
9.5598960932
 20
5.9465433305
 30
0.0
 10
9.6215331811
 20
6.0360017287
 30
0.0
 10
9.6937243278
 20
6.1195837469
 30
0.0
 10
9.7750211663
 20
6.2013761533
 30
0.0
 10
9.8903669881
 20
6.2959906115
 30
0.0
 10
10.0189739095
 20
6.3774427285
 30
0.0
 10
10.1299898789
 20
6.435352479
 30
0.0
 10
10.1880806843
 20
6.4617560268
 30
0.0
 10
10.2176904229
 20
6.4742918805
 30
0.0
  0
SPLINE
  5
38D
100
AcDbEntity
  8
0
100
AcDbSpline
 62
7
  6
CONTINUOUS
 70
0
 71
3
 72
23
 73
19
 74
0
 42
0.0000001
 43
0.0000001
 44
0.0000000001
 40
0.0
 40
0.0
 40
0.0
 40
0.0
 40
0.0728259855
 40
0.1445211914
 40
0.2149354481
 40
0.2839450977
 40
0.3514481319
 40
0.417374137
 40
0.481684205
 40
0.5443735804
 40
0.6054788397
 40
0.6650727974
 40
0.7232702487
 40
0.7802234794
 40
0.8361317089
 40
0.8912328133
 40
0.9457770895
 40
1.0
 40
1.0
 40
1.0
 40
1.0
 10
11.6229136379
 20
6.5615029404
 30
0.0
 10
11.6606441556
 20
6.551322371
 30
0.0
 10
11.7349657724
 20
6.5289923519
 30
0.0
 10
11.8433567159
 20
6.4893756905
 30
0.0
 10
11.9472695434
 20
6.4440603509
 30
0.0
 10
12.0461235675
 20
6.3933157859
 30
0.0
 10
12.1393588195
 20
6.3374035195
 30
0.0
 10
12.2264484821
 20
6.2766282112
 30
0.0
 10
12.3069060929
 20
6.2113257102
 30
0.0
 10
12.3802569251
 20
6.1418303133
 30
0.0
 10
12.4460965566
 20
6.0685374928
 30
0.0
 10
12.5040106157
 20
5.9918217897
 30
0.0
 10
12.5536741045
 20
5.9121271241
 30
0.0
 10
12.5947615711
 20
5.8298844267
 30
0.0
 10
12.6270150405
 20
5.7455612631
 30
0.0
 10
12.6502167735
 20
5.6596394067
 30
0.0
 10
12.6641883371
 20
5.5726652466
 30
0.0
 10
12.6673183383
 20
5.5142522866
 30
0.0
 10
12.6673183383
 20
5.4851551988
 30
0.0
  0
SPLINE
  5
38E
100
AcDbEntity
  8
0
100
AcDbSpline
 62
7
  6
CONTINUOUS
 70
0
 71
3
 72
22
 73
18
 74
0
 42
0.0000001
 43
0.0000001
 44
0.0000000001
 40
0.0
 40
0.0
 40
0.0
 40
0.0
 40
0.056206759
 40
0.1126167658
 40
0.1694076276
 40
0.2267610036
 40
0.2848467212
 40
0.343818504
 40
0.4038087479
 40
0.4649278507
 40
0.527265407
 40
0.5908857956
 40
0.6558248583
 40
0.7220946807
 40
0.8585460378
 40
0.9287104586
 40
1.0
 40
1.0
 40
1.0
 40
1.0
 10
9.1423183383
 20
5.3277727955
 30
0.0
 10
9.1423183383
 20
5.3581787331
 30
0.0
 10
9.1451394712
 20
5.4191371003
 30
0.0
 10
9.1577564813
 20
5.5100305943
 30
0.0
 10
9.178713071
 20
5.6000128449
 30
0.0
 10
9.2078570962
 20
5.6886333628
 30
0.0
 10
9.2450193967
 20
5.7754814005
 30
0.0
 10
9.2899888988
 20
5.8601667495
 30
0.0
 10
9.3425116343
 20
5.9423335675
 30
0.0
 10
9.4023334691
 20
6.0216334646
 30
0.0
 10
9.4691469159
 20
6.0977639027
 30
0.0
 10
9.5426535292
 20
6.1704144143
 30
0.0
 10
9.6225085485
 20
6.239322952
 30
0.0
 10
9.738080774
 20
6.3266814316
 30
0.0
 10
9.8640109273
 20
6.4045136343
 30
0.0
 10
9.9981666387
 20
6.4724688115
 30
0.0
 10
10.0682665582
 20
6.5032745818
 30
0.0
 10
10.1039710028
 20
6.5178508603
 30
0.0
  0
LINE
  5
38F
100
AcDbEntity
  8
0
100
AcDbLine
 62
7
  6
CONTINUOUS
 10
10.1039710028
 20
6.5178508603
 11
10.1061869713
 21
6.5187541102
  0
SPLINE
  5
390
100
AcDbEntity
  8
0
100
AcDbSpline
 62
7
  6
CONTINUOUS
 70
0
 71
3
 72
9
 73
5
 74
0
 42
0.0000001
 43
0.0000001
 44
0.0000000001
 40
0.0
 40
0.0
 40
0.0
 40
0.0
 40
0.4950954376
 40
1.0
 40
1.0
 40
1.0
 40
1.0
 10
10.1145909297
 20
6.5221540202
 30
0.0
 10
10.1714893448
 20
6.5450361328
 30
0.0
 10
10.2883853011
 20
6.5864703366
 30
0.0
 10
10.4081617925
 20
6.618583231
 30
0.0
 10
10.4691397687
 20
6.6324833979
 30
0.0
  0
LINE
  5
391
100
AcDbEntity
  8
0
100
AcDbLine
 62
7
  6
CONTINUOUS
 10
10.4691397687
 20
6.6324833979
 11
10.4714397677
 21
6.6330065422
  0
LINE
  5
392
100
AcDbEntity
  8
0
100
AcDbLine
 62
7
  6
CONTINUOUS
 10
11.6223694964
 20
6.6331931312
 11
11.6257995316
 21
6.6324132473
  0
SPLINE
  5
393
100
AcDbEntity
  8
0
100
AcDbSpline
 62
7
  6
CONTINUOUS
 70
0
 71
3
 72
24
 73
20
 74
0
 42
0.0000001
 43
0.0000001
 44
0.0000000001
 40
0.0
 40
0.0
 40
0.0
 40
0.0
 40
0.1433822789
 40
0.2134308482
 40
0.2821707307
 40
0.3494892445
 40
0.4153070164
 40
0.4795764106
 40
0.5422898134
 40
0.6034773123
 40
0.6632112924
 40
0.7216051971
 40
0.7503538031
 40
0.7788273712
 40
0.8350332899
 40
0.890461851
 40
0.9179722617
 40
0.9453816555
 40
1.0
 40
1.0
 40
1.0
 40
1.0
 10
11.6257995316
 20
6.6324132473
 30
0.0
 10
11.7192532857
 20
6.6110950756
 30
0.0
 10
11.8567459735
 20
6.5712666759
 30
0.0
 10
12.0322963272
 20
6.5019790521
 30
0.0
 10
12.1570301955
 20
6.4431894261
 30
0.0
 10
12.2750418885
 20
6.377496433
 30
0.0
 10
12.3856362214
 20
6.3052771014
 30
0.0
 10
12.4881192467
 20
6.2269030462
 30
0.0
 10
12.5818680248
 20
6.1428198642
 30
0.0
 10
12.6662653328
 20
6.0534623221
 30
0.0
 10
12.7407673929
 20
5.9593488701
 30
0.0
 10
12.7944422286
 20
5.8769356648
 30
0.0
 10
12.8318069832
 20
5.8092436117
 30
0.0
 10
12.8651324424
 20
5.741099727
 30
0.0
 10
12.8998586101
 20
5.6539207158
 30
0.0
 10
12.9250780775
 20
5.5641867127
 30
0.0
 10
12.9391924302
 20
5.491744343
 30
0.0
 10
12.949263294
 20
5.4191856834
 30
0.0
 10
12.9523183383
 20
5.3642864387
 30
0.0
 10
12.9523183383
 20
5.3277727955
 30
0.0
  0
SPLINE
  5
394
100
AcDbEntity
  8
0
100
AcDbSpline
 62
7
  6
CONTINUOUS
 70
0
 71
3
 72
30
 73
26
 74
0
 42
0.0000001
 43
0.0000001
 44
0.0000000001
 40
0.0
 40
0.0
 40
0.0
 40
0.0
 40
0.0252291998
 40
0.0507284391
 40
0.0765738771
 40
0.1028330255
 40
0.1295597064
 40
0.1567954187
 40
0.1845719061
 40
0.2129078202
 40
0.2712571441
 40
0.3318553498
 40
0.3945842722
 40
0.4266995165
 40
0.459263346
 40
0.5255552468
 40
0.5931106303
 40
0.6615080667
 40
0.6958897097
 40
0.7303089281
 40
0.7990037532
 40
0.8671308907
 40
0.9342643845
 40
0.9673407517
 40
1.0
 40
1.0
 40
1.0
 40
1.0
 10
8.9092982397
 20
4.7394666401
 30
0.0
 10
8.914031929
 20
4.7074963842
 30
0.0
 10
8.9263425505
 20
4.6435936668
 30
0.0
 10
8.9530262425
 20
4.5490878694
 30
0.0
 10
8.9878905207
 20
4.4558707863
 30
0.0
 10
9.03082718
 20
4.364353191
 30
0.0
 10
9.0816319166
 20
4.2749102946
 30
0.0
 10
9.1400826941
 20
4.1879214455
 30
0.0
 10
9.2059402869
 20
4.1037659992
 30
0.0
 10
9.3041278467
 20
3.9947377221
 30
0.0
 10
9.4442510702
 20
3.8675485604
 30
0.0
 10
9.6347041432
 20
3.7329249951
 30
0.0
 10
9.8095330648
 20
3.6367304569
 30
0.0
 10
9.9582681627
 20
3.5693937234
 30
0.0
 10
10.1144744164
 20
3.5079986841
 30
0.0
 10
10.3184589044
 20
3.4448527003
 30
0.0
 10
10.572364679
 20
3.3916360987
 30
0.0
 10
10.7894104288
 20
3.3663090512
 30
0.0
 10
10.964994651
 20
3.357584375
 30
0.0
 10
11.1411742997
 20
3.356623466
 30
0.0
 10
11.3604439471
 20
3.3699828146
 30
0.0
 10
11.619110964
 20
3.4090677987
 30
0.0
 10
11.8288327465
 20
3.4607255398
 30
0.0
 10
11.990798825
 20
3.5132131031
 30
0.0
 10
12.0695836559
 20
3.5430643523
 30
0.0
 10
12.1083173732
 20
3.5588761574
 30
0.0
  0
SPLINE
  5
395
100
AcDbEntity
  8
0
100
AcDbSpline
 62
7
  6
CONTINUOUS
 70
0
 71
3
 72
15
 73
11
 74
0
 42
0.0000001
 43
0.0000001
 44
0.0000000001
 40
0.0
 40
0.0
 40
0.0
 40
0.0
 40
0.1204379314
 40
0.2415272608
 40
0.3636068475
 40
0.4870242553
 40
0.6121047504
 40
0.7391376544
 40
0.8683685961
 40
1.0
 40
1.0
 40
1.0
 40
1.0
 10
8.8990731305
 20
4.9580646365
 30
0.0
 10
8.9009169377
 20
4.9909082008
 30
0.0
 10
8.9075387986
 20
5.0566446447
 30
0.0
 10
8.926101718
 20
5.1543274515
 30
0.0
 10
8.9532362772
 20
5.2508345908
 30
0.0
 10
8.9887730539
 20
5.3457309637
 30
0.0
 10
9.0325266352
 20
5.4386221997
 30
0.0
 10
9.0842785836
 20
5.5291342096
 30
0.0
 10
9.1437646148
 20
5.6169180158
 30
0.0
 10
9.1879917689
 20
5.6728705928
 30
0.0
 10
9.2112513104
 20
5.7002855547
 30
0.0
  0
SPLINE
  5
396
100
AcDbEntity
  8
0
100
AcDbSpline
 62
7
  6
CONTINUOUS
 70
0
 71
3
 72
15
 73
11
 74
0
 42
0.0000001
 43
0.0000001
 44
0.0000000001
 40
0.0
 40
0.0
 40
0.0
 40
0.0
 40
0.1317116888
 40
0.2609951101
 40
0.3880524084
 40
0.5131346703
 40
0.6365337597
 40
0.758581011
 40
0.8796231186
 40
1.0
 40
1.0
 40
1.0
 40
1.0
 10
12.8790616621
 20
5.7053598041
 30
0.0
 10
12.9026437612
 20
5.6778066613
 30
0.0
 10
12.947483386
 20
5.6215521541
 30
0.0
 10
13.0078067408
 20
5.5332420064
 30
0.0
 10
13.0602939438
 20
5.4421479849
 30
0.0
 10
13.1046592639
 20
5.3486186888
 30
0.0
 10
13.1406997163
 20
5.2530442821
 30
0.0
 10
13.1682024986
 20
5.1558201974
 30
0.0
 10
13.1870086465
 20
5.0573987285
 30
0.0
 10
13.1937056918
 20
4.9911584201
 30
0.0
 10
13.1955635461
 20
4.9580646365
 30
0.0
  0
SPLINE
  5
397
100
AcDbEntity
  8
0
100
AcDbSpline
 62
7
  6
CONTINUOUS
 70
0
 71
3
 72
20
 73
16
 74
0
 42
0.0000001
 43
0.0000001
 44
0.0000000001
 40
0.0
 40
0.0
 40
0.0
 40
0.0
 40
0.070600668
 40
0.1402438772
 40
0.2762761173
 40
0.4077617186
 40
0.5345633677
 40
0.596242137
 40
0.656780523
 40
0.7162190767
 40
0.7746238145
 40
0.8320800567
 40
0.8886953279
 40
0.9446147619
 40
1.0
 40
1.0
 40
1.0
 40
1.0
 10
12.1292099686
 20
3.5675179385
 30
0.0
 10
12.1649844983
 20
3.5825083996
 30
0.0
 10
12.2353573876
 20
3.6139772218
 30
0.0
 10
12.3707604395
 20
3.6826718289
 30
0.0
 10
12.5294797096
 20
3.7788962235
 30
0.0
 10
12.7017905593
 20
3.9109224364
 30
0.0
 10
12.8281834687
 20
4.0338044971
 30
0.0
 10
12.9166694228
 20
4.1382585892
 30
0.0
 10
12.976044696
 20
4.218575328
 30
0.0
 10
13.0287649169
 20
4.3012859357
 30
0.0
 10
13.0746317364
 20
4.3860696919
 30
0.0
 10
13.113481723
 20
4.4725962011
 30
0.0
 10
13.1451491826
 20
4.5605577652
 30
0.0
 10
13.1695453978
 20
4.6496240953
 30
0.0
 10
13.1809531588
 20
4.7097817995
 30
0.0
 10
13.1853988397
 20
4.7398841553
 30
0.0
  0
SPLINE
  5
398
100
AcDbEntity
  8
0
100
AcDbSpline
 62
7
  6
CONTINUOUS
 70
0
 71
3
 72
9
 73
5
 74
0
 42
0.0000001
 43
0.0000001
 44
0.0000000001
 40
0.0
 40
0.0
 40
0.0
 40
0.0
 40
0.5070575244
 40
1.0
 40
1.0
 40
1.0
 40
1.0
 10
10.6333375369
 20
6.7525331361
 30
0.0
 10
10.6268977429
 20
6.7433930078
 30
0.0
 10
10.6151796212
 20
6.7246492011
 30
0.0
 10
10.6057845348
 20
6.7046302141
 30
0.0
 10
10.6017991582
 20
6.6945175227
 30
0.0
  0
SPLINE
  5
399
100
AcDbEntity
  8
0
100
AcDbSpline
 62
7
  6
CONTINUOUS
 70
0
 71
3
 72
9
 73
5
 74
0
 42
0.0000001
 43
0.0000001
 44
0.0000000001
 40
0.0
 40
0.0
 40
0.0
 40
0.0
 40
0.5044446935
 40
1.0
 40
1.0
 40
1.0
 40
1.0
 10
10.6017991582
 20
6.6945175227
 30
0.0
 10
10.5962614603
 20
6.6804658945
 30
0.0
 10
10.5877252088
 20
6.6515680382
 30
0.0
 10
10.5848224365
 20
6.6215580687
 30
0.0
 10
10.5848208902
 20
6.6067207687
 30
0.0
  0
SPLINE
  5
39A
100
AcDbEntity
  8
0
100
AcDbSpline
 62
7
  6
CONTINUOUS
 70
0
 71
3
 72
9
 73
5
 74
0
 42
0.0000001
 43
0.0000001
 44
0.0000000001
 40
0.0
 40
0.0
 40
0.0
 40
0.0
 40
0.5070939665
 40
1.0
 40
1.0
 40
1.0
 40
1.0
 10
11.4786340007
 20
6.6894112718
 30
0.0
 10
11.4858375696
 20
6.6762542109
 30
0.0
 10
11.4979594432
 20
6.649095015
 30
0.0
 10
11.5050899062
 20
6.6201954258
 30
0.0
 10
11.5072491332
 20
6.6057758891
 30
0.0
  0
SPLINE
  5
39B
100
AcDbEntity
  8
0
100
AcDbSpline
 62
7
  6
CONTINUOUS
 70
0
 71
3
 72
9
 73
5
 74
0
 42
0.0000001
 43
0.0000001
 44
0.0000000001
 40
0.0
 40
0.0
 40
0.0
 40
0.0
 40
0.4928884829
 40
1.0
 40
1.0
 40
1.0
 40
1.0
 10
11.5047934291
 20
6.605127767
 30
0.0
 10
11.5026639531
 20
6.6195430597
 30
0.0
 10
11.4955804988
 20
6.6484394098
 30
0.0
 10
11.4834773756
 20
6.67559091
 30
0.0
 10
11.4762787901
 20
6.6887418422
 30
0.0
  0
SPLINE
  5
39C
100
AcDbEntity
  8
0
100
AcDbSpline
 62
9
  6
CONTINUOUS
 70
0
 71
3
 72
23
 73
19
 74
0
 42
0.0000001
 43
0.0000001
 44
0.0000000001
 40
0.0
 40
0.0
 40
0.0
 40
0.0
 40
0.0499650567
 40
0.1013944312
 40
0.1547745192
 40
0.2104314229
 40
0.2685299719
 40
0.3290761102
 40
0.3919430814
 40
0.4568822672
 40
0.5235548826
 40
0.5915497561
 40
0.660405867
 40
0.7296160611
 40
0.798660585
 40
0.8670664408
 40
0.9343664644
 40
1.0
 40
1.0
 40
1.0
 40
1.0
 10
10.7053657593
 20
6.6630931235
 30
0.0
 10
10.7074219651
 20
6.6531825292
 30
0.0
 10
10.7133349534
 20
6.6333954927
 30
0.0
 10
10.727072705
 20
6.6050777648
 30
0.0
 10
10.7455646519
 20
6.5782030918
 30
0.0
 10
10.7684948578
 20
6.5531578991
 30
0.0
 10
10.795526599
 20
6.5303058347
 30
0.0
 10
10.8262425827
 20
6.5099536651
 30
0.0
 10
10.860201344
 20
6.4924065015
 30
0.0
 10
10.8968946834
 20
6.4778943836
 30
0.0
 10
10.9357935513
 20
6.4666444589
 30
0.0
 10
10.976324333
 20
6.458798524
 30
0.0
 10
11.0178972026
 20
6.4544931812
 30
0.0
 10
11.0598978513
 20
6.4537639224
 30
0.0
 10
11.1017147579
 20
6.4566432996
 30
0.0
 10
11.1427453811
 20
6.4630764917
 30
0.0
 10
11.1823632111
 20
6.4729890829
 30
0.0
 10
11.2078185396
 20
6.4819229575
 30
0.0
 10
11.2201279562
 20
6.4869482557
 30
0.0
  0
SPLINE
  5
39D
100
AcDbEntity
  8
0
100
AcDbSpline
 62
9
  6
CONTINUOUS
 70
0
 71
3
 72
14
 73
10
 74
0
 42
0.0000001
 43
0.0000001
 44
0.0000000001
 40
0.0
 40
0.0
 40
0.0
 40
0.0
 40
0.1411947467
 40
0.2780995653
 40
0.5365056985
 40
0.6584382496
 40
0.7758542486
 40
0.8893930115
 40
1.0
 40
1.0
 40
1.0
 40
1.0
 10
11.2201279562
 20
6.4869482557
 30
0.0
 10
11.2311582061
 20
6.4914513364
 30
0.0
 10
11.252503742
 20
6.501308545
 30
0.0
 10
11.2916418605
 20
6.5241350035
 30
0.0
 10
11.3259311411
 20
6.5518422771
 30
0.0
 10
11.3532854275
 20
6.5838391206
 30
0.0
 10
11.3695861461
 20
6.6088709841
 30
0.0
 10
11.3818182792
 20
6.6350728673
 30
0.0
 10
11.387197975
 20
6.6532963572
 30
0.0
 10
11.3891313766
 20
6.6624269351
 30
0.0
  0
SPLINE
  5
39E
100
AcDbEntity
  8
0
100
AcDbSpline
 62
7
  6
CONTINUOUS
 70
0
 71
3
 72
20
 73
16
 74
0
 42
0.0000001
 43
0.0000001
 44
0.0000000001
 40
0.0
 40
0.0
 40
0.0
 40
0.0
 40
0.0551951814
 40
0.106606719
 40
0.1566872399
 40
0.2076195003
 40
0.2607471719
 40
0.3166453009
 40
0.3753967796
 40
0.4368689719
 40
0.5008358354
 40
0.5670428691
 40
0.7052354887
 40
0.8499602557
 40
1.0
 40
1.0
 40
1.0
 40
1.0
 10
11.1568904109
 20
6.598828666
 30
0.0
 10
11.1568904109
 20
6.596587059
 30
0.0
 10
11.157383288
 20
6.5922286349
 30
0.0
 10
11.1598363101
 20
6.5862656394
 30
0.0
 10
11.1637503261
 20
6.5813709343
 30
0.0
 10
11.1687963299
 20
6.5775764368
 30
0.0
 10
11.1746994233
 20
6.5747827545
 30
0.0
 10
11.1812628844
 20
6.5728721223
 30
0.0
 10
11.1883398825
 20
6.5717385847
 30
0.0
 10
11.1958169787
 20
6.5712938106
 30
0.0
 10
11.2036054785
 20
6.5714647512
 30
0.0
 10
11.2144669955
 20
6.5724440955
 30
0.0
 10
11.2284499878
 20
6.5749570549
 30
0.0
 10
11.2454242078
 20
6.5796105344
 30
0.0
 10
11.256706681
 20
6.5836493487
 30
0.0
 10
11.2623705052
 20
6.5858968945
 30
0.0
  0
LINE
  5
39F
100
AcDbEntity
  8
0
100
AcDbLine
 62
7
  6
CONTINUOUS
 10
11.2623705052
 20
6.5858968945
 11
11.2648183383
 21
6.5868822459
  0
SPLINE
  5
3A0
100
AcDbEntity
  8
0
100
AcDbSpline
 62
7
  6
CONTINUOUS
 70
0
 71
3
 72
24
 73
20
 74
0
 42
0.0000001
 43
0.0000001
 44
0.0000000001
 40
0.0
 40
0.0
 40
0.0
 40
0.0
 40
0.0667159128
 40
0.1351889047
 40
0.2047877545
 40
0.2749765548
 40
0.4146212761
 40
0.4830512523
 40
0.5497974623
 40
0.614420013
 40
0.6765886103
 40
0.7361068723
 40
0.7929518139
 40
0.8472843474
 40
0.8736403812
 40
0.8995244269
 40
0.95015131
 40
0.9751285806
 40
1.0
 40
1.0
 40
1.0
 40
1.0
 10
11.2735683383
 20
6.8599523276
 30
0.0
 10
11.2562264013
 20
6.8528725114
 30
0.0
 10
11.2202907924
 20
6.8404093972
 30
0.0
 10
11.1642898978
 20
6.8270145839
 30
0.0
 10
11.1062886823
 20
6.8188964975
 30
0.0
 10
11.0278380015
 20
6.815280803
 30
0.0
 10
10.9494916569
 20
6.8224475991
 30
0.0
 10
10.8743510626
 20
6.8403988348
 30
0.0
 10
10.8212591682
 20
6.8588270123
 30
0.0
 10
10.7719867788
 20
6.8819883163
 30
0.0
 10
10.7273591918
 20
6.9095077696
 30
0.0
 10
10.6881410759
 20
6.9409475319
 30
0.0
 10
10.6549975262
 20
6.9757779225
 30
0.0
 10
10.6327116025
 20
7.0075203546
 30
0.0
 10
10.6186136599
 20
7.033949259
 30
0.0
 10
10.60719594
 20
7.0605058819
 30
0.0
 10
10.5993740407
 20
7.0880936104
 30
0.0
 10
10.595468804
 20
7.1160620811
 30
0.0
 10
10.5948215233
 20
7.1300678426
 30
0.0
 10
10.5948221957
 20
7.1370508441
 30
0.0
  0
SPLINE
  5
3A1
100
AcDbEntity
  8
0
100
AcDbSpline
 62
9
  6
CONTINUOUS
 70
0
 71
3
 72
15
 73
11
 74
0
 42
0.0000001
 43
0.0000001
 44
0.0000000001
 40
0.0
 40
0.0
 40
0.0
 40
0.0
 40
0.138311166
 40
0.2722648288
 40
0.4017591041
 40
0.5270561943
 40
0.6487316359
 40
0.7675216763
 40
0.8842890863
 40
1.0
 40
1.0
 40
1.0
 40
1.0
 10
11.3727462656
 20
6.6869514497
 30
0.0
 10
11.3826324063
 20
6.6941870051
 30
0.0
 10
11.4014608069
 20
6.709323419
 30
0.0
 10
11.4269434402
 20
6.7342459106
 30
0.0
 10
11.4489540251
 20
6.760814982
 30
0.0
 10
11.4672574499
 20
6.788777219
 30
0.0
 10
11.4816942191
 20
6.8178713872
 30
0.0
 10
11.4921055489
 20
6.8478456638
 30
0.0
 10
11.4984116588
 20
6.8784033505
 30
0.0
 10
11.4998179095
 20
6.8990228295
 30
0.0
 10
11.4998165885
 20
6.9092720673
 30
0.0
  0
SPLINE
  5
3A2
100
AcDbEntity
  8
0
100
AcDbSpline
 62
7
  6
CONTINUOUS
 70
0
 71
3
 72
17
 73
13
 74
0
 42
0.0000001
 43
0.0000001
 44
0.0000000001
 40
0.0
 40
0.0
 40
0.0
 40
0.0
 40
0.1255370073
 40
0.254039664
 40
0.3848284582
 40
0.5170014666
 40
0.6489429565
 40
0.7139898164
 40
0.7776370314
 40
0.8390719786
 40
0.8972964507
 40
1.0
 40
1.0
 40
1.0
 40
1.0
 10
11.2648183383
 20
6.5868822459
 30
0.0
 10
11.2707525294
 20
6.5893048693
 30
0.0
 10
11.2825913013
 20
6.5946338261
 30
0.0
 10
11.299930346
 20
6.6039072806
 30
0.0
 10
11.3168558565
 20
6.6145744886
 30
0.0
 10
11.3330238166
 20
6.6266597839
 30
0.0
 10
11.3454975816
 20
6.6379788522
 30
0.0
 10
11.3544765496
 20
6.6478146962
 30
0.0
 10
11.3604734829
 20
6.6554592031
 30
0.0
 10
11.3655693637
 20
6.6633393007
 30
0.0
 10
11.3706146971
 20
6.6734985712
 30
0.0
 10
11.3727462656
 20
6.6817076197
 30
0.0
 10
11.3727462656
 20
6.6869514497
 30
0.0
  0
SPLINE
  5
3A3
100
AcDbEntity
  8
0
100
AcDbSpline
 62
7
  6
CONTINUOUS
 70
0
 71
3
 72
15
 73
11
 74
0
 42
0.0000001
 43
0.0000001
 44
0.0000000001
 40
0.0
 40
0.0
 40
0.0
 40
0.0
 40
0.2223360418
 40
0.2814986466
 40
0.3419765502
 40
0.4666295599
 40
0.5956849836
 40
0.7282832881
 40
0.8634907417
 40
1.0
 40
1.0
 40
1.0
 40
1.0
 10
10.6953467171
 20
7.0186799396
 30
0.0
 10
10.7139055153
 20
6.9966470198
 30
0.0
 10
10.7419350635
 20
6.9723341527
 30
0.0
 10
10.779335215
 20
6.9486017673
 30
0.0
 10
10.8070376903
 20
6.933242065
 30
0.0
 10
10.8442914934
 20
6.9166164916
 30
0.0
 10
10.891971515
 20
6.9011105406
 30
0.0
 10
10.942293112
 20
6.8901393606
 30
0.0
 10
10.9943815609
 20
6.8839102871
 30
0.0
 10
11.0296346647
 20
6.8829850906
 30
0.0
 10
11.0473183383
 20
6.88333912
 30
0.0
  0
SPLINE
  5
3A4
100
AcDbEntity
  8
0
100
AcDbSpline
 62
7
  6
CONTINUOUS
 70
0
 71
3
 72
11
 73
7
 74
0
 42
0.0000001
 43
0.0000001
 44
0.0000000001
 40
0.0
 40
0.0
 40
0.0
 40
0.0
 40
0.2589419269
 40
0.5108332528
 40
0.7571829307
 40
1.0
 40
1.0
 40
1.0
 40
1.0
 10
10.677010972
 20
7.0431965802
 30
0.0
 10
10.6719968674
 20
7.0508131683
 30
0.0
 10
10.6629242794
 20
7.0664016613
 30
0.0
 10
10.652334588
 20
7.0909452299
 30
0.0
 10
10.6450709222
 20
7.1160824345
 30
0.0
 10
10.6424694179
 20
7.1331709252
 30
0.0
 10
10.6417505814
 20
7.1416916694
 30
0.0
  0
SPLINE
  5
3A5
100
AcDbEntity
  8
0
100
AcDbSpline
 62
7
  6
CONTINUOUS
 70
0
 71
3
 72
21
 73
17
 74
0
 42
0.0000001
 43
0.0000001
 44
0.0000000001
 40
0.0
 40
0.0
 40
0.0
 40
0.0
 40
0.0707036471
 40
0.1413265779
 40
0.2807659305
 40
0.4161451824
 40
0.481853397
 40
0.5459835229
 40
0.6084105443
 40
0.6690769193
 40
0.7279718704
 40
0.7851488956
 40
0.8407282845
 40
0.894887101
 40
0.9478766314
 40
1.0
 40
1.0
 40
1.0
 40
1.0
 10
11.0473183383
 20
6.88333912
 30
0.0
 10
11.0595516192
 20
6.8835840319
 30
0.0
 10
11.0839964909
 20
6.8848612096
 30
0.0
 10
11.1322842153
 20
6.8904835648
 30
0.0
 10
11.190898056
 20
6.9031357286
 30
0.0
 10
11.246491603
 20
6.9233157747
 30
0.0
 10
11.2876679067
 20
6.9436772002
 30
0.0
 10
11.3163043376
 20
6.9606894698
 30
0.0
 10
11.3427466597
 20
6.9794784466
 30
0.0
 10
11.3667904189
 20
6.9998838919
 30
0.0
 10
11.3882356631
 20
7.0217559184
 30
0.0
 10
11.4068975463
 20
7.0449313761
 30
0.0
 10
11.4226359979
 20
7.069217584
 30
0.0
 10
11.4352984081
 20
7.0944389481
 30
0.0
 10
11.4447796539
 20
7.1203834858
 30
0.0
 10
11.448957269
 20
7.1381422052
 30
0.0
 10
11.450474499
 20
7.1470339819
 30
0.0
  0
SPLINE
  5
3A6
100
AcDbEntity
  8
0
100
AcDbSpline
 62
7
  6
CONTINUOUS
 70
0
 71
3
 72
13
 73
9
 74
0
 42
0.0000001
 43
0.0000001
 44
0.0000000001
 40
0.0
 40
0.0
 40
0.0
 40
0.0
 40
0.2373399455
 40
0.3601844063
 40
0.4853059322
 40
0.6123145033
 40
0.7407674184
 40
1.0
 40
1.0
 40
1.0
 40
1.0
 10
10.8001936135
 20
7.1129855363
 30
0.0
 10
10.8177426281
 20
7.1025486535
 30
0.0
 10
10.8456834345
 20
7.0888116722
 30
0.0
 10
10.8848826124
 20
7.0743882324
 30
0.0
 10
10.9158655635
 20
7.0653115045
 30
0.0
 10
10.9478469182
 20
7.0581891022
 30
0.0
 10
10.9916108295
 20
7.0513256571
 30
0.0
 10
11.0250137717
 20
7.0492756859
 30
0.0
 10
11.0473152082
 20
7.0492755146
 30
0.0
  0
SPLINE
  5
3A7
100
AcDbEntity
  8
0
100
AcDbSpline
 62
7
  6
CONTINUOUS
 70
0
 71
3
 72
13
 73
9
 74
0
 42
0.0000001
 43
0.0000001
 44
0.0000000001
 40
0.0
 40
0.0
 40
0.0
 40
0.0
 40
0.2592089448
 40
0.3876533977
 40
0.5146571901
 40
0.6397788458
 40
0.7626292
 40
1.0
 40
1.0
 40
1.0
 40
1.0
 10
11.0473152082
 20
7.0492755146
 30
0.0
 10
11.0695880541
 20
7.0492753435
 30
0.0
 10
11.1029483278
 20
7.0513199326
 30
0.0
 10
11.1466584269
 20
7.0581651122
 30
0.0
 10
11.178602691
 20
7.0652690961
 30
0.0
 10
11.20955232
 20
7.0743228683
 30
0.0
 10
11.2487150469
 20
7.0887103536
 30
0.0
 10
11.2766340301
 20
7.1024136965
 30
0.0
 10
11.2941729813
 20
7.1128251021
 30
0.0
  0
SPLINE
  5
3A8
100
AcDbEntity
  8
0
100
AcDbSpline
 62
7
  6
CONTINUOUS
 70
0
 71
3
 72
15
 73
11
 74
0
 42
0.0000001
 43
0.0000001
 44
0.0000000001
 40
0.0
 40
0.0
 40
0.0
 40
0.0
 40
0.1147473724
 40
0.2333570935
 40
0.3553767383
 40
0.4803943717
 40
0.6079547081
 40
0.7375288452
 40
0.8684968244
 40
1.0
 40
1.0
 40
1.0
 40
1.0
 10
11.3431286758
 20
7.1147746464
 30
0.0
 10
11.333512422
 20
7.1075510327
 30
0.0
 10
11.3132103259
 20
7.0938321716
 30
0.0
 10
11.2805373112
 20
7.0758502775
 30
0.0
 10
11.2454494382
 20
7.0603207213
 30
0.0
 10
11.2083320623
 20
7.0473921097
 30
0.0
 10
11.1695548447
 20
7.0372005625
 30
0.0
 10
11.1295091061
 20
7.0298391762
 30
0.0
 10
11.0886226047
 20
7.0254023956
 30
0.0
 10
11.0611017621
 20
7.0244075478
 30
0.0
 10
11.0473183383
 20
7.0244075478
 30
0.0
  0
SPLINE
  5
3A9
100
AcDbEntity
  8
0
100
AcDbSpline
 62
7
  6
CONTINUOUS
 70
0
 71
3
 72
16
 73
12
 74
0
 42
0.0000001
 43
0.0000001
 44
0.0000000001
 40
0.0
 40
0.0
 40
0.0
 40
0.0
 40
0.1382451021
 40
0.2750675617
 40
0.4088174462
 40
0.538321096
 40
0.6625716933
 40
0.7809317791
 40
0.8932439401
 40
0.947281418
 40
1.0
 40
1.0
 40
1.0
 40
1.0
 10
11.0473183383
 20
7.0244075478
 30
0.0
 10
11.0270707475
 20
7.0244075478
 30
0.0
 10
10.9867512954
 20
7.0265423927
 30
0.0
 10
10.9275235226
 20
7.03605843
 30
0.0
 10
10.8709252146
 20
7.0517103982
 30
0.0
 10
10.8182268827
 20
7.0731460893
 30
0.0
 10
10.7705702888
 20
7.0999111244
 30
0.0
 10
10.7290195039
 20
7.1314365853
 30
0.0
 10
10.6998833485
 20
7.1615491733
 30
0.0
 10
10.6806908572
 20
7.187303179
 30
0.0
 10
10.6724937003
 20
7.2006493329
 30
0.0
 10
10.6687685351
 20
7.2074125248
 30
0.0
  0
SPLINE
  5
3AA
100
AcDbEntity
  8
0
100
AcDbSpline
 62
7
  6
CONTINUOUS
 70
0
 71
3
 72
9
 73
5
 74
0
 42
0.0000001
 43
0.0000001
 44
0.0000000001
 40
0.0
 40
0.0
 40
0.0
 40
0.0
 40
0.2537743877
 40
1.0
 40
1.0
 40
1.0
 40
1.0
 10
10.6687685351
 20
7.2074125248
 30
0.0
 10
10.6669622892
 20
7.2106918391
 30
0.0
 10
10.6601418693
 20
7.2237746184
 30
0.0
 10
10.6545460955
 20
7.2375022491
 30
0.0
 10
10.6511780429
 20
7.247983207
 30
0.0
  0
SPLINE
  5
3AB
100
AcDbEntity
  8
0
100
AcDbSpline
 62
7
  6
CONTINUOUS
 70
0
 71
3
 72
19
 73
15
 74
0
 42
0.0000001
 43
0.0000001
 44
0.0000000001
 40
0.0
 40
0.0
 40
0.0
 40
0.0
 40
0.0715417387
 40
0.1419956331
 40
0.2791771191
 40
0.4111537846
 40
0.5378317938
 40
0.6593691317
 40
0.7183900825
 40
0.7763398714
 40
0.8333289223
 40
0.8894944308
 40
0.9449961272
 40
1.0
 40
1.0
 40
1.0
 40
1.0
 10
12.122286909
 20
3.5812021471
 30
0.0
 10
12.1585789876
 20
3.5960183262
 30
0.0
 10
12.2299293352
 20
3.6271391146
 30
0.0
 10
12.3670218465
 20
3.6951046148
 30
0.0
 10
12.5273637699
 20
3.7902621676
 30
0.0
 10
12.701097418
 20
3.9208698704
 30
0.0
 10
12.852083119
 20
4.0651357409
 30
0.0
 10
12.9582360698
 20
4.1965132621
 30
0.0
 10
13.0292385405
 20
4.3063429415
 30
0.0
 10
13.0751091825
 20
4.3899992939
 30
0.0
 10
13.1139283361
 20
4.475437333
 30
0.0
 10
13.1455594912
 20
4.5623700077
 30
0.0
 10
13.1698921377
 20
4.6504902987
 30
0.0
 10
13.1812190154
 20
4.7100526869
 30
0.0
 10
13.1856218025
 20
4.7398676781
 30
0.0
  0
SPLINE
  5
3AC
100
AcDbEntity
  8
0
100
AcDbSpline
 62
9
  6
CONTINUOUS
 70
0
 71
3
 72
32
 73
28
 74
0
 42
0.0000001
 43
0.0000001
 44
0.0000000001
 40
0.0
 40
0.0
 40
0.0
 40
0.0
 40
0.0618130957
 40
0.09202959
 40
0.1218270616
 40
0.1512505978
 40
0.1803496153
 40
0.2091783212
 40
0.2377957401
 40
0.2662635608
 40
0.2946458665
 40
0.3230085269
 40
0.3514172852
 40
0.3799373394
 40
0.4086323352
 40
0.4375625721
 40
0.4667851398
 40
0.5262851278
 40
0.5566802763
 40
0.5875472689
 40
0.6507882068
 40
0.7162084899
 40
0.7497718094
 40
0.7838996998
 40
0.8538203202
 40
0.9259263504
 40
1.0
 40
1.0
 40
1.0
 40
1.0
 10
12.8941764194
 20
5.6560460182
 30
0.0
 10
12.9258751034
 20
5.6147225393
 30
0.0
 10
12.9697642095
 20
5.5505240124
 30
0.0
 10
13.0199076546
 20
5.4609072314
 30
0.0
 10
13.0526430822
 20
5.3929757324
 30
0.0
 10
13.0807089863
 20
5.3240038169
 30
0.0
 10
13.1040396597
 20
5.2541464186
 30
0.0
 10
13.1225661071
 20
5.1835649876
 30
0.0
 10
13.1362554506
 20
5.1124286659
 30
0.0
 10
13.1450770936
 20
5.0409041386
 30
0.0
 10
13.1489959979
 20
4.9691586177
 30
0.0
 10
13.1480100576
 20
4.8973628515
 30
0.0
 10
13.142128981
 20
4.8256853608
 30
0.0
 10
13.1313554763
 20
4.7542955436
 30
0.0
 10
13.1157167056
 20
4.6833636448
 30
0.0
 10
13.0952592744
 20
4.6130498888
 30
0.0
 10
13.0614257836
 20
4.5198149107
 30
0.0
 10
13.018159879
 20
4.4289153877
 30
0.0
 10
12.9663450011
 20
4.3412976043
 30
0.0
 10
12.9077207135
 20
4.254240103
 30
0.0
 10
12.8232012262
 20
4.1493524829
 30
0.0
 10
12.7264630953
 20
4.0524390207
 30
0.0
 10
12.6415874156
 20
3.9790714646
 30
0.0
 10
12.5503081161
 20
3.9075132239
 30
0.0
 10
12.4271998717
 20
3.8242141281
 30
0.0
 10
12.267933358
 20
3.7355639744
 30
0.0
 10
12.1556412522
 20
3.6845907625
 30
0.0
 10
12.0978596417
 20
3.6610015188
 30
0.0
  0
SPLINE
  5
3AD
100
AcDbEntity
  8
0
100
AcDbSpline
 62
7
  6
CONTINUOUS
 70
0
 71
3
 72
18
 73
14
 74
0
 42
0.0000001
 43
0.0000001
 44
0.0000000001
 40
0.0
 40
0.0
 40
0.0
 40
0.0
 40
0.1397808522
 40
0.2780338364
 40
0.4127242943
 40
0.4783195628
 40
0.5425146432
 40
0.6661384587
 40
0.7832114863
 40
0.8394146994
 40
0.8941614781
 40
0.9476149802
 40
1.0
 40
1.0
 40
1.0
 40
1.0
 10
11.0473183383
 20
6.9347089158
 30
0.0
 10
11.0702403143
 20
6.9351702142
 30
0.0
 10
11.1158274354
 20
6.9388179008
 30
0.0
 10
11.182320636
 20
6.9523268537
 30
0.0
 10
11.2350767751
 20
6.9702043234
 30
0.0
 10
11.2745505805
 20
6.9882699362
 30
0.0
 10
11.3110594881
 20
7.008198174
 30
0.0
 10
11.3522325894
 20
7.0369444294
 30
0.0
 10
11.3872446995
 20
7.0711840915
 30
0.0
 10
11.4100750742
 20
7.1008710339
 30
0.0
 10
11.4243776795
 20
7.1237862703
 30
0.0
 10
11.4359578808
 20
7.1474946707
 30
0.0
 10
11.4418642961
 20
7.1638626052
 30
0.0
 10
11.4443211255
 20
7.1720959643
 30
0.0
  0
SPLINE
  5
3AE
100
AcDbEntity
  8
0
100
AcDbSpline
 62
9
  6
CONTINUOUS
 70
0
 71
3
 72
43
 73
39
 74
0
 42
0.0000001
 43
0.0000001
 44
0.0000000001
 40
0.0
 40
0.0
 40
0.0
 40
0.0
 40
0.0343573015
 40
0.0693260467
 40
0.1047822827
 40
0.1406262516
 40
0.1767562587
 40
0.2130563289
 40
0.2494076975
 40
0.2856926239
 40
0.321794717
 40
0.3575999182
 40
0.3929991663
 40
0.4278905243
 40
0.4621809459
 40
0.4957884836
 40
0.5286443606
 40
0.5606951611
 40
0.5919051894
 40
0.6222582772
 40
0.6517604278
 40
0.6804407267
 40
0.6944926853
 40
0.7083618266
 40
0.7220586503
 40
0.7355953627
 40
0.7622363638
 40
0.7753815256
 40
0.7884298404
 40
0.8143018544
 40
0.8271754397
 40
0.8400314621
 40
0.8657637681
 40
0.8916743426
 40
0.9179204482
 40
0.9446451808
 40
0.971971455
 40
1.0
 40
1.0
 40
1.0
 40
1.0
 10
12.0898576171
 20
3.6577512529
 30
0.0
 10
12.0403880896
 20
3.6377597374
 30
0.0
 10
11.939215732
 20
3.6006931394
 30
0.0
 10
11.7831359947
 20
3.5543232976
 30
0.0
 10
11.6222758521
 20
3.5169960941
 30
0.0
 10
11.4577191368
 20
3.488934658
 30
0.0
 10
11.2905100646
 20
3.4703300832
 30
0.0
 10
11.1217250745
 20
3.4612783797
 30
0.0
 10
10.9524582734
 20
3.4618666956
 30
0.0
 10
10.7838056582
 20
3.4720666866
 30
0.0
 10
10.6168577266
 20
3.4918331884
 30
0.0
 10
10.4526911111
 20
3.5210196556
 30
0.0
 10
10.2923704821
 20
3.5594570987
 30
0.0
 10
10.1369282688
 20
3.6068822296
 30
0.0
 10
9.9873730463
 20
3.6630051455
 30
0.0
 10
9.8446669214
 20
3.7274545116
 30
0.0
 10
9.7097366974
 20
3.7998282388
 30
0.0
 10
9.5834512331
 20
3.8796572791
 30
0.0
 10
9.4666323769
 20
3.9664379607
 30
0.0
 10
9.3600356431
 20
4.0596177318
 30
0.0
 10
9.2643634135
 20
4.1585982752
 30
0.0
 10
9.1937718952
 20
4.2460043392
 30
0.0
 10
9.1435259053
 20
4.3181636851
 30
0.0
 10
9.1091813384
 20
4.3729461178
 30
0.0
 10
9.0779863299
 20
4.4286690884
 30
0.0
 10
9.0408718634
 20
4.5036821403
 30
0.0
 10
9.0099418071
 20
4.5806980257
 30
0.0
 10
8.9856598446
 20
4.6591102655
 30
0.0
 10
8.9660156379
 20
4.7375778973
 30
0.0
 10
8.9530134923
 20
4.8171595466
 30
0.0
 10
8.9468825261
 20
4.8970965551
 30
0.0
 10
8.9453196103
 20
4.97703871
 30
0.0
 10
8.9519427646
 20
5.0772213363
 30
0.0
 10
8.9736021737
 20
5.1964803268
 30
0.0
 10
9.0087840772
 20
5.3140780146
 30
0.0
 10
9.0572695288
 20
5.4292198677
 30
0.0
 10
9.1186802103
 20
5.5411565379
 30
0.0
 10
9.167335203
 20
5.6122154096
 30
0.0
 10
9.1935517075
 20
5.6469626203
 30
0.0
  0
SPLINE
  5
3AF
100
AcDbEntity
  8
0
100
AcDbSpline
 62
7
  6
CONTINUOUS
 70
0
 71
3
 72
15
 73
11
 74
0
 42
0.0000001
 43
0.0000001
 44
0.0000000001
 40
0.0
 40
0.0
 40
0.0
 40
0.0
 40
0.1316244903
 40
0.2628824736
 40
0.3927549913
 40
0.5205134196
 40
0.6455838995
 40
0.7674536686
 40
0.885683053
 40
1.0
 40
1.0
 40
1.0
 40
1.0
 10
11.0473183383
 20
6.9859486629
 30
0.0
 10
11.0621239135
 20
6.9862448885
 30
0.0
 10
11.0916831116
 20
6.9879903615
 30
0.0
 10
11.1355038382
 20
6.9939936577
 30
0.0
 10
11.178291198
 20
7.003357045
 30
0.0
 10
11.2195123861
 20
7.015962456
 30
0.0
 10
11.2586846264
 20
7.0316818477
 30
0.0
 10
11.2953547376
 20
7.0503358396
 30
0.0
 10
11.3290829814
 20
7.0717157676
 30
0.0
 10
11.3496947301
 20
7.0879221832
 30
0.0
 10
11.359352558
 20
7.0964157303
 30
0.0
  0
SPLINE
  5
3B0
100
AcDbEntity
  8
0
100
AcDbSpline
 62
7
  6
CONTINUOUS
 70
0
 71
3
 72
9
 73
5
 74
0
 42
0.0000001
 43
0.0000001
 44
0.0000000001
 40
0.0
 40
0.0
 40
0.0
 40
0.0
 40
0.5132135989
 40
1.0
 40
1.0
 40
1.0
 40
1.0
 10
11.359352558
 20
7.0964157303
 30
0.0
 10
11.3732474952
 20
7.1086355902
 30
0.0
 10
11.3984854865
 20
7.1346570932
 30
0.0
 10
11.4186028311
 20
7.1648896115
 30
0.0
 10
11.4267605029
 20
7.1804296351
 30
0.0
  0
SPLINE
  5
3B1
100
AcDbEntity
  8
0
100
AcDbSpline
 62
7
  6
CONTINUOUS
 70
0
 71
3
 72
9
 73
5
 74
0
 42
0.0000001
 43
0.0000001
 44
0.0000000001
 40
0.0
 40
0.0
 40
0.0
 40
0.0
 40
0.2534729039
 40
1.0
 40
1.0
 40
1.0
 40
1.0
 10
11.4267605029
 20
7.1804296351
 30
0.0
 10
11.4285293013
 20
7.1837991221
 30
0.0
 10
11.4352070132
 20
7.1972474087
 30
0.0
 10
11.4406519846
 20
7.2113125933
 30
0.0
 10
11.4439214402
 20
7.2220331725
 30
0.0
  0
LINE
  5
3B2
100
AcDbEntity
  8
0
100
AcDbLine
 62
9
  6
CONTINUOUS
 10
11.8630757977
 20
3.7078272556
 11
11.8581132641
 21
3.7062673174
  0
SPLINE
  5
3B3
100
AcDbEntity
  8
0
100
AcDbSpline
 62
9
  6
CONTINUOUS
 70
0
 71
3
 72
9
 73
5
 74
0
 42
0.0000001
 43
0.0000001
 44
0.0000000001
 40
0.0
 40
0.0
 40
0.0
 40
0.0
 40
0.2471206899
 40
1.0
 40
1.0
 40
1.0
 40
1.0
 10
11.8581132641
 20
3.7062673174
 30
0.0
 10
11.8278598844
 20
3.6967920376
 30
0.0
 10
11.7047143297
 20
3.6607836956
 30
0.0
 10
11.5788838727
 20
3.6340436064
 30
0.0
 10
11.4834797163
 20
3.6189868077
 30
0.0
  0
SPLINE
  5
3B4
100
AcDbEntity
  8
0
100
AcDbSpline
 62
9
  6
CONTINUOUS
 70
0
 71
3
 72
10
 73
6
 74
0
 42
0.0000001
 43
0.0000001
 44
0.0000000001
 40
0.0
 40
0.0
 40
0.0
 40
0.0
 40
0.2528484617
 40
0.6288169406
 40
1.0
 40
1.0
 40
1.0
 40
1.0
 10
10.610145795
 20
3.6191484629
 30
0.0
 10
10.5773798587
 20
3.6243316018
 30
0.0
 10
10.4961216538
 20
3.6387068684
 30
0.0
 10
10.368056927
 20
3.6675189918
 30
0.0
 10
10.2737322566
 20
3.694431303
 30
0.0
 10
10.2273159927
 20
3.7091653576
 30
0.0
  0
SPLINE
  5
3B5
100
AcDbEntity
  8
0
100
AcDbSpline
 62
9
  6
CONTINUOUS
 70
0
 71
3
 72
26
 73
22
 74
0
 42
0.0000001
 43
0.0000001
 44
0.0000000001
 40
0.0
 40
0.0
 40
0.0
 40
0.0
 40
0.0746151582
 40
0.1475531775
 40
0.2186268671
 40
0.2876968441
 40
0.3546829107
 40
0.4195664038
 40
0.4824026516
 40
0.5433215778
 40
0.5731365223
 40
0.6025570154
 40
0.6603476468
 40
0.7170738657
 40
0.7731494444
 40
0.8290234414
 40
0.8570433602
 40
0.8851849957
 40
0.942023365
 40
0.970849354
 40
1.0
 40
1.0
 40
1.0
 40
1.0
 10
10.1970937892
 20
3.7189732627
 30
0.0
 10
10.1426555849
 20
3.7370288646
 30
0.0
 10
10.0362077329
 20
3.7765142981
 30
0.0
 10
9.8832363353
 20
3.8464597064
 30
0.0
 10
9.7398329609
 20
3.9259547433
 30
0.0
 10
9.6071946204
 20
4.0143622502
 30
0.0
 10
9.4864038602
 20
4.1109531435
 30
0.0
 10
9.378478702
 20
4.2149729289
 30
0.0
 10
9.2843112894
 20
4.3255537801
 30
0.0
 10
9.2174899541
 20
4.4231724151
 30
0.0
 10
9.1718910494
 20
4.5035418113
 30
0.0
 10
9.132045164
 20
4.5842358304
 30
0.0
 10
9.0918248383
 20
4.6876157694
 30
0.0
 10
9.0595843137
 20
4.8150689998
 30
0.0
 10
9.0438971125
 20
4.9441245533
 30
0.0
 10
9.0447857897
 20
5.0520345638
 30
0.0
 10
9.0537766969
 20
5.137733681
 30
0.0
 10
9.0683415241
 20
5.2234122809
 30
0.0
 10
9.0911989466
 20
5.308132388
 30
0.0
 10
9.1218827836
 20
5.3909201441
 30
0.0
 10
9.1398578947
 20
5.4317353762
 30
0.0
 10
9.1494802063
 20
5.4519713266
 30
0.0
  0
SPLINE
  5
3B6
100
AcDbEntity
  8
0
100
AcDbSpline
 62
9
  6
CONTINUOUS
 70
0
 71
3
 72
20
 73
16
 74
0
 42
0.0000001
 43
0.0000001
 44
0.0000000001
 40
0.0
 40
0.0
 40
0.0
 40
0.0
 40
0.0725934586
 40
0.1449590292
 40
0.2871524027
 40
0.424072558
 40
0.5538909654
 40
0.6158230782
 40
0.6756686794
 40
0.7334777068
 40
0.7893960363
 40
0.8436483943
 40
0.8965591484
 40
0.9485238707
 40
1.0
 40
1.0
 40
1.0
 40
1.0
 10
11.0473183383
 20
7.8325421539
 30
0.0
 10
11.0340506815
 20
7.8325421539
 30
0.0
 10
11.0075464234
 20
7.8334678452
 30
0.0
 10
10.9553179639
 20
7.838923077
 30
0.0
 10
10.8922390473
 20
7.8523151306
 30
0.0
 10
10.8219738422
 20
7.8785925288
 30
0.0
 10
10.7695646028
 20
7.9086337233
 30
0.0
 10
10.7332173117
 20
7.9369017091
 30
0.0
 10
10.7093746044
 20
7.9595447689
 30
0.0
 10
10.6887815186
 20
7.9837586144
 30
0.0
 10
10.6716191067
 20
8.0092996401
 30
0.0
 10
10.6580829442
 20
8.0359414937
 30
0.0
 10
10.6483050879
 20
8.0634214258
 30
0.0
 10
10.6423873945
 20
8.0914643325
 30
0.0
 10
10.6410720272
 20
8.1103961686
 30
0.0
 10
10.6410720272
 20
8.1198042837
 30
0.0
  0
LINE
  5
3B7
100
AcDbEntity
  8
0
100
AcDbLine
 62
9
  6
CONTINUOUS
 10
12.1507879916
 20
4.100305909
 11
12.1549398907
 21
4.1023979809
  0
LINE
  5
3B8
100
AcDbEntity
  8
0
100
AcDbLine
 62
9
  6
CONTINUOUS
 10
12.1549398907
 20
4.1023979809
 11
12.1588364861
 21
4.1043721913
  0
LINE
  5
3B9
100
AcDbEntity
  8
0
100
AcDbLine
 62
9
  6
CONTINUOUS
 10
12.2007858655
 20
4.1263030051
 11
12.2031013382
 21
4.127550467
  0
SPLINE
  5
3BA
100
AcDbEntity
  8
0
100
AcDbSpline
 62
9
  6
CONTINUOUS
 70
0
 71
3
 72
13
 73
9
 74
0
 42
0.0000001
 43
0.0000001
 44
0.0000000001
 40
0.0
 40
0.0
 40
0.0
 40
0.0
 40
0.267129558
 40
0.5222119918
 40
0.6454712271
 40
0.7660284215
 40
0.8841083824
 40
1.0
 40
1.0
 40
1.0
 40
1.0
 10
12.3691501029
 20
4.2283413364
 30
0.0
 10
12.4281821444
 20
4.2685640067
 30
0.0
 10
12.5390066075
 20
4.3542303321
 30
0.0
 10
12.6606298016
 20
4.4775719365
 30
0.0
 10
12.7431573582
 20
4.582537556
 30
0.0
 10
12.7969838847
 20
4.6630871725
 30
0.0
 10
12.8431693156
 20
4.745996266
 30
0.0
 10
12.8689579445
 20
4.8030997979
 30
0.0
 10
12.880464115
 20
4.8318750563
 30
0.0
  0
SPLINE
  5
3BB
100
AcDbEntity
  8
0
100
AcDbSpline
 62
9
  6
CONTINUOUS
 70
0
 71
3
 72
11
 73
7
 74
0
 42
0.0000001
 43
0.0000001
 44
0.0000000001
 40
0.0
 40
0.0
 40
0.0
 40
0.0
 40
0.2539436257
 40
0.5045429317
 40
0.7528540991
 40
1.0
 40
1.0
 40
1.0
 40
1.0
 10
12.880464115
 20
4.8318750563
 30
0.0
 10
12.8922677267
 20
4.8613941718
 30
0.0
 10
12.9130929312
 20
4.921138432
 30
0.0
 10
12.9356770047
 20
5.0127843566
 30
0.0
 10
12.9492897512
 20
5.1053279767
 30
0.0
 10
12.9523166018
 20
5.1673971827
 30
0.0
 10
12.9523153699
 20
5.1983377282
 30
0.0
  0
SPLINE
  5
3BC
100
AcDbEntity
  8
0
100
AcDbSpline
 62
9
  6
CONTINUOUS
 70
0
 71
3
 72
9
 73
5
 74
0
 42
0.0000001
 43
0.0000001
 44
0.0000000001
 40
0.0
 40
0.0
 40
0.0
 40
0.0
 40
0.5063062318
 40
1.0
 40
1.0
 40
1.0
 40
1.0
 10
11.9861383657
 20
4.240417898
 30
0.0
 10
12.0343213238
 20
4.2603311786
 30
0.0
 10
12.1280853698
 20
4.3031553171
 30
0.0
 10
12.2182837771
 20
4.3530873322
 30
0.0
 10
12.2616990643
 20
4.3795356627
 30
0.0
  0
SPLINE
  5
3BD
100
AcDbEntity
  8
0
100
AcDbSpline
 62
9
  6
CONTINUOUS
 70
0
 71
3
 72
9
 73
5
 74
0
 42
0.0000001
 43
0.0000001
 44
0.0000000001
 40
0.0
 40
0.0
 40
0.0
 40
0.0
 40
0.5084396718
 40
1.0
 40
1.0
 40
1.0
 40
1.0
 10
12.2732026266
 20
4.3866018895
 30
0.0
 10
12.3187421369
 20
4.4148076955
 30
0.0
 10
12.4059194539
 20
4.4742610675
 30
0.0
 10
12.4870483047
 20
4.5417855006
 30
0.0
 10
12.5250760206
 20
4.5769415852
 30
0.0
  0
SPLINE
  5
3BE
100
AcDbEntity
  8
0
100
AcDbSpline
 62
9
  6
CONTINUOUS
 70
0
 71
3
 72
9
 73
5
 74
0
 42
0.0000001
 43
0.0000001
 44
0.0000000001
 40
0.0
 40
0.0
 40
0.0
 40
0.0
 40
0.2540375637
 40
1.0
 40
1.0
 40
1.0
 40
1.0
 10
12.5319003289
 20
4.5832902941
 30
0.0
 10
12.5430265093
 20
4.5937063635
 30
0.0
 10
12.5861885133
 20
4.6353796616
 30
0.0
 10
12.6267452591
 20
4.6797688713
 30
0.0
 10
12.6551905388
 20
4.7143199608
 30
0.0
  0
LINE
  5
3BF
100
AcDbEntity
  8
0
100
AcDbLine
 62
9
  6
CONTINUOUS
 10
12.6551905388
 20
4.7143199608
 11
12.6574082622
 21
4.7170210976
  0
SPLINE
  5
3C0
100
AcDbEntity
  8
0
100
AcDbSpline
 62
9
  6
CONTINUOUS
 70
0
 71
3
 72
31
 73
27
 74
0
 42
0.0000001
 43
0.0000001
 44
0.0000000001
 40
0.0
 40
0.0
 40
0.0
 40
0.0
 40
0.0574333522
 40
0.0856474109
 40
0.113591113
 40
0.1413270553
 40
0.1689206264
 40
0.1964399487
 40
0.2239547083
 40
0.2515341669
 40
0.2792468676
 40
0.3071590516
 40
0.3353329649
 40
0.363827175
 40
0.3926952974
 40
0.4517067841
 40
0.5127034984
 40
0.5440236904
 40
0.5759064726
 40
0.608360161
 40
0.6413868202
 40
0.7091249838
 40
0.7790517166
 40
0.8510029597
 40
0.9247469033
 40
1.0
 40
1.0
 40
1.0
 40
1.0
 10
12.7912347946
 20
4.9178373105
 30
0.0
 10
12.8126840811
 20
4.9586436423
 30
0.0
 10
12.8409021101
 20
5.0216167381
 30
0.0
 10
12.8696113094
 20
5.1082084542
 30
0.0
 10
12.88639178
 20
5.1734826486
 30
0.0
 10
12.898504001
 20
5.2392716974
 30
0.0
 10
12.9059174046
 20
5.3054140726
 30
0.0
 10
12.9085975764
 20
5.3717391003
 30
0.0
 10
12.9065501966
 20
5.4380751009
 30
0.0
 10
12.8997842738
 20
5.504252756
 30
0.0
 10
12.8883038964
 20
5.5701004105
 30
0.0
 10
12.8721454449
 20
5.6354490844
 30
0.0
 10
12.8513606603
 20
5.7001338126
 30
0.0
 10
12.8259923966
 20
5.763989163
 30
0.0
 10
12.7858613023
 20
5.8484019202
 30
0.0
 10
12.7242487514
 20
5.9511801091
 30
0.0
 10
12.6495916796
 20
6.0473536631
 30
0.0
 10
12.5821215843
 20
6.1207982223
 30
0.0
 10
12.5271714327
 20
6.1744791492
 30
0.0
 10
12.4684773648
 20
6.2261312397
 30
0.0
 10
12.384732491
 20
6.2926826061
 30
0.0
 10
12.2713174949
 20
6.3699465639
 30
0.0
 10
12.1240809514
 20
6.4518051241
 30
0.0
 10
11.9660040797
 20
6.5227745883
 30
0.0
 10
11.7987061012
 20
6.5821594886
 30
0.0
 10
11.6831136019
 20
6.6133689246
 30
0.0
 10
11.6242554169
 20
6.626945101
 30
0.0
  0
LINE
  5
3C1
100
AcDbEntity
  8
0
100
AcDbLine
 62
9
  6
CONTINUOUS
 10
11.6242554169
 20
6.626945101
 11
11.6224733434
 21
6.6273554495
  0
SPLINE
  5
3C2
100
AcDbEntity
  8
0
100
AcDbSpline
 62
9
  6
CONTINUOUS
 70
0
 71
3
 72
9
 73
5
 74
0
 42
0.0000001
 43
0.0000001
 44
0.0000000001
 40
0.0
 40
0.0
 40
0.0
 40
0.0
 40
0.5054008038
 40
1.0
 40
1.0
 40
1.0
 40
1.0
 10
10.4702732286
 20
6.6269210354
 30
0.0
 10
10.4094287737
 20
6.6128854627
 30
0.0
 10
10.2900582748
 20
6.5804788744
 30
0.0
 10
10.1736405375
 20
6.5386395649
 30
0.0
 10
10.1170657142
 20
6.51554299
 30
0.0
  0
SPLINE
  5
3C3
100
AcDbEntity
  8
0
100
AcDbSpline
 62
9
  6
CONTINUOUS
 70
0
 71
3
 72
10
 73
6
 74
0
 42
0.0000001
 43
0.0000001
 44
0.0000000001
 40
0.0
 40
0.0
 40
0.0
 40
0.0
 40
0.2434967978
 40
0.6179687229
 40
1.0
 40
1.0
 40
1.0
 40
1.0
 10
11.9998183383
 20
4.1612033055
 30
0.0
 10
11.9436417408
 20
4.1382693056
 30
0.0
 10
11.7986201851
 20
4.0859405066
 30
0.0
 10
11.5565869974
 20
4.0244340728
 30
0.0
 10
11.3694376222
 20
3.9984167676
 30
0.0
 10
11.2745798725
 20
3.9903579347
 30
0.0
  0
SPLINE
  5
3C4
100
AcDbEntity
  8
0
100
AcDbSpline
 62
9
  6
CONTINUOUS
 70
0
 71
3
 72
26
 73
22
 74
0
 42
0.0000001
 43
0.0000001
 44
0.0000000001
 40
0.0
 40
0.0
 40
0.0
 40
0.0
 40
0.1448864042
 40
0.216491767
 40
0.2870754968
 40
0.3563437917
 40
0.4240366333
 40
0.4899378439
 40
0.5538858963
 40
0.6157797569
 40
0.6755936536
 40
0.7333801528
 40
0.7615656693
 40
0.7893044032
 40
0.8435500902
 40
0.8701623358
 40
0.8964872991
 40
0.9225768975
 40
0.9484862027
 40
0.9742737314
 40
1.0
 40
1.0
 40
1.0
 40
1.0
 10
11.0383828731
 20
3.9807499389
 30
0.0
 10
10.9145985442
 20
3.9811632562
 30
0.0
 10
10.7293244367
 20
3.9945141818
 30
0.0
 10
10.4877815939
 20
4.0379042135
 30
0.0
 10
10.3125670245
 20
4.0826384139
 30
0.0
 10
10.1443468601
 20
4.1392351064
 30
0.0
 10
9.984703132
 20
4.20718201
 30
0.0
 10
9.8351565356
 20
4.2858385762
 30
0.0
 10
9.6971230832
 20
4.3744628501
 30
0.0
 10
9.5719302236
 20
4.4722535473
 30
0.0
 10
9.4607686778
 20
4.5782702147
 30
0.0
 10
9.3800543256
 20
4.6734913381
 30
0.0
 10
9.323773945
 20
4.7527408718
 30
0.0
 10
9.2738457893
 20
4.8325793086
 30
0.0
 10
9.2317859607
 20
4.9155997316
 30
0.0
 10
9.1984565369
 20
5.0009467697
 30
0.0
 10
9.1780439659
 20
5.0653585465
 30
0.0
 10
9.1621096166
 20
5.1304014897
 30
0.0
 10
9.1506994198
 20
5.1959256225
 30
0.0
 10
9.1438482731
 20
5.2617670357
 30
0.0
 10
9.1423220379
 20
5.3057933237
 30
0.0
 10
9.1423210883
 20
5.3277727955
 30
0.0
  0
LINE
  5
3C5
100
AcDbEntity
  8
0
100
AcDbLine
 62
9
  6
CONTINUOUS
 10
10.1084983109
 20
6.5120238211
 11
10.1071164187
 21
6.5114521394
  0
SPLINE
  5
3C6
100
AcDbEntity
  8
0
100
AcDbSpline
 62
9
  6
CONTINUOUS
 70
0
 71
3
 72
26
 73
22
 74
0
 42
0.0000001
 43
0.0000001
 44
0.0000000001
 40
0.0
 40
0.0
 40
0.0
 40
0.0
 40
0.073977911
 40
0.1462008148
 40
0.2164621328
 40
0.2846944466
 40
0.3508881553
 40
0.4150770736
 40
0.4773622135
 40
0.5379203257
 40
0.5969974758
 40
0.6260876821
 40
0.6549286039
 40
0.7120296841
 40
0.7404175584
 40
0.7687588228
 40
0.8254897997
 40
0.8540128027
 40
0.8827012135
 40
0.9407425072
 40
1.0
 40
1.0
 40
1.0
 40
1.0
 10
10.1071164187
 20
6.5114521394
 30
0.0
 10
10.0609863874
 20
6.4923494558
 30
0.0
 10
9.9711064585
 20
6.4513874873
 30
0.0
 10
9.8428748844
 20
6.3811076597
 30
0.0
 10
9.7237436226
 20
6.3031529267
 30
0.0
 10
9.6146355715
 20
6.2181484836
 30
0.0
 10
9.5163720009
 20
6.1267038181
 30
0.0
 10
9.4296907968
 20
6.0295066562
 30
0.0
 10
9.3552845345
 20
5.9272625655
 30
0.0
 10
9.2937305774
 20
5.8207569548
 30
0.0
 10
9.2533484005
 20
5.7286032545
 30
0.0
 10
9.2280756572
 20
5.6537419621
 30
0.0
 10
9.2076260872
 20
5.5788098677
 30
0.0
 10
9.1940282308
 20
5.5026254942
 30
0.0
 10
9.1875562701
 20
5.4260321509
 30
0.0
 10
9.1858218299
 20
5.3494361497
 30
0.0
 10
9.1912015667
 20
5.2727273072
 30
0.0
 10
9.203602785
 20
5.1967946308
 30
0.0
 10
9.2207762903
 20
5.1208833786
 30
0.0
 10
9.2511366271
 20
5.026897656
 30
0.0
 10
9.2840912719
 20
4.9547040447
 30
0.0
 10
9.3026492449
 20
4.9192765431
 30
0.0
  0
LINE
  5
3C7
100
AcDbEntity
  8
0
100
AcDbLine
 62
9
  6
CONTINUOUS
 10
9.4360752887
 20
4.718435876
 11
9.4385279988
 21
4.7154410364
  0
SPLINE
  5
3C8
100
AcDbEntity
  8
0
100
AcDbSpline
 62
9
  6
CONTINUOUS
 70
0
 71
3
 72
9
 73
5
 74
0
 42
0.0000001
 43
0.0000001
 44
0.0000000001
 40
0.0
 40
0.0
 40
0.0
 40
0.0
 40
0.4946065179
 40
1.0
 40
1.0
 40
1.0
 40
1.0
 10
9.4385279988
 20
4.7154410364
 30
0.0
 10
9.4577782132
 20
4.69200694
 30
0.0
 10
9.4983595109
 20
4.6459713987
 30
0.0
 10
9.5418950781
 20
4.6027269957
 30
0.0
 10
9.5645540214
 20
4.581588065
 30
0.0
  0
SPLINE
  5
3C9
100
AcDbEntity
  8
0
100
AcDbSpline
 62
9
  6
CONTINUOUS
 70
0
 71
3
 72
9
 73
5
 74
0
 42
0.0000001
 43
0.0000001
 44
0.0000000001
 40
0.0
 40
0.0
 40
0.0
 40
0.0
 40
0.4916794067
 40
1.0
 40
1.0
 40
1.0
 40
1.0
 10
9.5711526754
 20
4.5754693069
 30
0.0
 10
9.6087680418
 20
4.5408002346
 30
0.0
 10
9.6889294513
 20
4.4741789182
 30
0.0
 10
9.7749918622
 20
4.4154325779
 30
0.0
 10
9.8199259741
 20
4.3875413237
 30
0.0
  0
SPLINE
  5
3CA
100
AcDbEntity
  8
0
100
AcDbSpline
 62
9
  6
CONTINUOUS
 70
0
 71
3
 72
9
 73
5
 74
0
 42
0.0000001
 43
0.0000001
 44
0.0000000001
 40
0.0
 40
0.0
 40
0.0
 40
0.0
 40
0.4893139642
 40
1.0
 40
1.0
 40
1.0
 40
1.0
 10
9.8312000899
 20
4.3805997609
 30
0.0
 10
9.9116277951
 20
4.3314796406
 30
0.0
 10
10.0838758966
 20
4.2436358509
 30
0.0
 10
10.2662966309
 20
4.1800081986
 30
0.0
 10
10.3609954288
 20
4.1534315151
 30
0.0
  0
SPLINE
  5
3CB
100
AcDbEntity
  8
0
100
AcDbSpline
 62
9
  6
CONTINUOUS
 70
0
 71
3
 72
9
 73
5
 74
0
 42
0.0000001
 43
0.0000001
 44
0.0000000001
 40
0.0
 40
0.0
 40
0.0
 40
0.0
 40
0.2469437713
 40
1.0
 40
1.0
 40
1.0
 40
1.0
 10
10.4094445582
 20
4.1403835267
 30
0.0
 10
10.4601767616
 20
4.1272895784
 30
0.0
 10
10.667308653
 20
4.0809944922
 30
0.0
 10
10.8802335929
 20
4.0611031047
 30
0.0
 10
11.0400109561
 20
4.0606558239
 30
0.0
  0
LINE
  5
3CC
100
AcDbEntity
  8
0
100
AcDbLine
 62
9
  6
CONTINUOUS
 10
11.534462923
 20
4.1065418342
 11
11.5373161948
 21
4.1070909188
  0
SPLINE
  5
3CD
100
AcDbEntity
  8
0
100
AcDbSpline
 62
9
  6
CONTINUOUS
 70
0
 71
3
 72
10
 73
6
 74
0
 42
0.0000001
 43
0.0000001
 44
0.0000000001
 40
0.0
 40
0.0
 40
0.0
 40
0.0
 40
0.5061432998
 40
0.754912926
 40
1.0
 40
1.0
 40
1.0
 40
1.0
 10
11.5373161948
 20
4.1070909188
 30
0.0
 10
11.6134547463
 20
4.1217889898
 30
0.0
 10
11.7261040706
 20
4.1490249358
 30
0.0
 10
11.8719924252
 20
4.1959424432
 30
0.0
 10
11.9428074877
 20
4.2227066
 30
0.0
 10
11.9775709624
 20
4.2368987291
 30
0.0
  0
SPLINE
  5
3CE
100
AcDbEntity
  8
0
100
AcDbSpline
 62
9
  6
CONTINUOUS
 70
0
 71
3
 72
20
 73
16
 74
0
 42
0.0000001
 43
0.0000001
 44
0.0000000001
 40
0.0
 40
0.0
 40
0.0
 40
0.0
 40
0.0514761293
 40
0.1034408516
 40
0.1563516057
 40
0.2106039637
 40
0.2665222932
 40
0.3243313206
 40
0.3841769218
 40
0.4461090346
 40
0.575927442
 40
0.7128475973
 40
0.8550409708
 40
0.9274065414
 40
1.0
 40
1.0
 40
1.0
 40
1.0
 10
11.4535646494
 20
8.1198042837
 30
0.0
 10
11.4535646494
 20
8.1103961686
 30
0.0
 10
11.4522492821
 20
8.0914643325
 30
0.0
 10
11.4463315886
 20
8.0634214258
 30
0.0
 10
11.4365537323
 20
8.0359414937
 30
0.0
 10
11.4230175698
 20
8.0092996401
 30
0.0
 10
11.405855158
 20
7.9837586144
 30
0.0
 10
11.3852620721
 20
7.9595447689
 30
0.0
 10
11.3614193648
 20
7.9369017091
 30
0.0
 10
11.3250720737
 20
7.9086337233
 30
0.0
 10
11.2726628344
 20
7.8785925288
 30
0.0
 10
11.2023976293
 20
7.8523151306
 30
0.0
 10
11.1393187126
 20
7.838923077
 30
0.0
 10
11.0870902532
 20
7.8334678452
 30
0.0
 10
11.060585995
 20
7.8325421539
 30
0.0
 10
11.0473183383
 20
7.8325421539
 30
0.0
  0
SPLINE
  5
3CF
100
AcDbEntity
  8
0
100
AcDbSpline
 62
7
  6
CONTINUOUS
 70
0
 71
3
 72
9
 73
5
 74
0
 42
0.0000001
 43
0.0000001
 44
0.0000000001
 40
0.0
 40
0.0
 40
0.0
 40
0.0
 40
0.2468137158
 40
1.0
 40
1.0
 40
1.0
 40
1.0
 10
10.6515177221
 20
7.1975217903
 30
0.0
 10
10.652528742
 20
7.194520942
 30
0.0
 10
10.6569016034
 20
7.1824570046
 30
0.0
 10
10.6623661045
 20
7.1707930219
 30
0.0
 10
10.6670086972
 20
7.1623180529
 30
0.0
  0
SPLINE
  5
3D0
100
AcDbEntity
  8
0
100
AcDbSpline
 62
7
  6
CONTINUOUS
 70
0
 71
3
 72
15
 73
11
 74
0
 42
0.0000001
 43
0.0000001
 44
0.0000000001
 40
0.0
 40
0.0
 40
0.0
 40
0.0
 40
0.1051572225
 40
0.2163350448
 40
0.334015127
 40
0.4580747656
 40
0.587849205
 40
0.7223284084
 40
0.8602980476
 40
1.0
 40
1.0
 40
1.0
 40
1.0
 10
10.6670086972
 20
7.1623180529
 30
0.0
 10
10.6743970022
 20
7.1488308357
 30
0.0
 10
10.6924103371
 20
7.12255958
 30
0.0
 10
10.7267835469
 20
7.0875620398
 30
0.0
 10
10.7683925636
 20
7.0567026452
 30
0.0
 10
10.8162747682
 20
7.0306925503
 30
0.0
 10
10.869340474
 20
7.0100802272
 30
0.0
 10
10.9264248085
 20
6.9953582212
 30
0.0
 10
10.9862165944
 20
6.9868954698
 30
0.0
 10
11.026892271
 20
6.9855399841
 30
0.0
 10
11.0473183383
 20
6.9859486629
 30
0.0
  0
SPLINE
  5
3D1
100
AcDbEntity
  8
0
100
AcDbSpline
 62
9
  6
CONTINUOUS
 70
0
 71
3
 72
10
 73
6
 74
0
 42
0.0000001
 43
0.0000001
 44
0.0000000001
 40
0.0
 40
0.0
 40
0.0
 40
0.0
 40
0.244016435
 40
0.618466124
 40
1.0
 40
1.0
 40
1.0
 40
1.0
 10
11.8416983469
 20
4.4402483194
 30
0.0
 10
11.7964902424
 20
4.4224360079
 30
0.0
 10
11.6801551253
 20
4.3816485066
 30
0.0
 10
11.4866938068
 20
4.3329426924
 30
0.0
 10
11.3374003126
 20
4.3113971477
 30
0.0
 10
11.2617574399
 20
4.3043083876
 30
0.0
  0
SPLINE
  5
3D2
100
AcDbEntity
  8
0
100
AcDbSpline
 62
9
  6
CONTINUOUS
 70
0
 71
3
 72
11
 73
7
 74
0
 42
0.0000001
 43
0.0000001
 44
0.0000000001
 40
0.0
 40
0.0
 40
0.0
 40
0.0
 40
0.2551418625
 40
0.5075297773
 40
0.756129927
 40
1.0
 40
1.0
 40
1.0
 40
1.0
 10
10.823175838
 20
4.3052358624
 30
0.0
 10
10.7725098002
 20
4.3102039491
 30
0.0
 10
10.6720225153
 20
4.3234747909
 30
0.0
 10
10.5240338363
 20
4.3534272807
 30
0.0
 10
10.3806788627
 20
4.3931024547
 30
0.0
 10
10.2880274535
 20
4.4261563664
 30
0.0
 10
10.2428584219
 20
4.4442546735
 30
0.0
  0
LINE
  5
3D3
100
AcDbEntity
  8
0
100
AcDbLine
 62
9
  6
CONTINUOUS
 10
10.2141606528
 20
4.4560271951
 11
10.2104443879
 21
4.4575922916
  0
SPLINE
  5
3D4
100
AcDbEntity
  8
0
100
AcDbSpline
 62
9
  6
CONTINUOUS
 70
0
 71
3
 72
13
 73
9
 74
0
 42
0.0000001
 43
0.0000001
 44
0.0000000001
 40
0.0
 40
0.0
 40
0.0
 40
0.0
 40
0.1326103233
 40
0.2631845068
 40
0.3916314014
 40
0.5178776312
 40
0.7634933511
 40
1.0
 40
1.0
 40
1.0
 40
1.0
 10
10.1644986225
 20
4.4777373341
 30
0.0
 10
10.1399892009
 20
4.4888847472
 30
0.0
 10
10.0918289077
 20
4.5120894618
 30
0.0
 10
10.0218367911
 20
4.5498844747
 30
0.0
 10
9.9548207753
 20
4.590296112
 30
0.0
 10
9.8704802841
 20
4.6469780159
 30
0.0
 10
9.7732813868
 20
4.7235794774
 30
0.0
 10
9.7033031126
 20
4.7923869405
 30
0.0
 10
9.6711555051
 20
4.8280592525
 30
0.0
  0
LINE
  5
3D5
100
AcDbEntity
  8
0
100
AcDbLine
 62
9
  6
CONTINUOUS
 10
9.6711555051
 20
4.8280592525
 11
9.6694350155
 21
4.829972523
  0
LINE
  5
3D6
100
AcDbEntity
  8
0
100
AcDbLine
 62
9
  6
CONTINUOUS
 10
9.6450302413
 20
4.8580487083
 11
9.6434350528
 21
4.8599480989
  0
SPLINE
  5
3D7
100
AcDbEntity
  8
0
100
AcDbSpline
 62
9
  6
CONTINUOUS
 70
0
 71
3
 72
11
 73
7
 74
0
 42
0.0000001
 43
0.0000001
 44
0.0000000001
 40
0.0
 40
0.0
 40
0.0
 40
0.0
 40
0.2562033107
 40
0.5071157796
 40
0.7544224647
 40
1.0
 40
1.0
 40
1.0
 40
1.0
 10
9.513900147
 20
5.0534854593
 30
0.0
 10
9.4973606558
 20
5.0856112004
 30
0.0
 10
9.46817238
 20
5.1511137888
 30
0.0
 10
9.4367233452
 20
5.2530278811
 30
0.0
 10
9.4183784329
 20
5.3565821708
 30
0.0
 10
9.4150174764
 20
5.4262363701
 30
0.0
 10
9.4155533374
 20
5.4608669672
 30
0.0
  0
SPLINE
  5
3D8
100
AcDbEntity
  8
0
100
AcDbSpline
 62
7
  6
CONTINUOUS
 70
0
 71
3
 72
10
 73
6
 74
0
 42
0.0000001
 43
0.0000001
 44
0.0000000001
 40
0.0
 40
0.0
 40
0.0
 40
0.0
 40
0.2402453283
 40
0.4863814579
 40
1.0
 40
1.0
 40
1.0
 40
1.0
 10
10.6510692687
 20
7.147639816
 30
0.0
 10
10.6536309684
 20
7.1398612358
 30
0.0
 10
10.6597572022
 20
7.1244052901
 30
0.0
 10
10.6758284743
 20
7.0942865488
 30
0.0
 10
10.6917077013
 20
7.0735283547
 30
0.0
 10
10.7035718493
 20
7.0606526184
 30
0.0
  0
SPLINE
  5
3D9
100
AcDbEntity
  8
0
100
AcDbSpline
 62
7
  6
CONTINUOUS
 70
0
 71
3
 72
14
 73
10
 74
0
 42
0.0000001
 43
0.0000001
 44
0.0000000001
 40
0.0
 40
0.0
 40
0.0
 40
0.0
 40
0.2255606885
 40
0.345940662
 40
0.4707423451
 40
0.5993521034
 40
0.7310644439
 40
0.8650265761
 40
1.0
 40
1.0
 40
1.0
 40
1.0
 10
10.7122230687
 20
7.0516601778
 30
0.0
 10
10.7316033594
 20
7.0323537725
 30
0.0
 10
10.7654901182
 20
7.0067268616
 30
0.0
 10
10.8160179033
 20
6.9800487399
 30
0.0
 10
10.8581272602
 20
6.9630275389
 30
0.0
 10
10.9029753588
 20
6.9497520511
 30
0.0
 10
10.949935295
 20
6.9403908048
 30
0.0
 10
10.9982976305
 20
6.9351276602
 30
0.0
 10
11.0309522699
 20
6.9343795532
 30
0.0
 10
11.0473183383
 20
6.9347089158
 30
0.0
  0
SPLINE
  5
3DA
100
AcDbEntity
  8
0
100
AcDbSpline
 62
7
  6
CONTINUOUS
 70
0
 71
3
 72
12
 73
8
 74
0
 42
0.0000001
 43
0.0000001
 44
0.0000000001
 40
0.0
 40
0.0
 40
0.0
 40
0.0
 40
0.2407899286
 40
0.3642867756
 40
0.4894411496
 40
0.7433737338
 40
1.0
 40
1.0
 40
1.0
 40
1.0
 10
11.2722798244
 20
7.069023997
 30
0.0
 10
11.2562864778
 20
7.0604022436
 30
0.0
 10
11.2311998941
 20
7.0489394975
 30
0.0
 10
11.1963636298
 20
7.0366374186
 30
0.0
 10
11.1599167688
 20
7.0260854251
 30
0.0
 10
11.1127719248
 20
7.0166934524
 30
0.0
 10
11.0743107248
 20
7.0133013085
 30
0.0
 10
11.0549581789
 20
7.0126291898
 30
0.0
  0
SPLINE
  5
3DB
100
AcDbEntity
  8
0
100
AcDbSpline
 62
7
  6
CONTINUOUS
 70
0
 71
3
 72
13
 73
9
 74
0
 42
0.0000001
 43
0.0000001
 44
0.0000000001
 40
0.0
 40
0.0
 40
0.0
 40
0.0
 40
0.2620422292
 40
0.5186563297
 40
0.6436609093
 40
0.7658036736
 40
0.8846860837
 40
1.0
 40
1.0
 40
1.0
 40
1.0
 10
11.0470546985
 20
7.0124124529
 30
0.0
 10
11.0230702034
 20
7.0119300266
 30
0.0
 10
10.9754784945
 20
7.0141448475
 30
0.0
 10
10.9173191364
 20
7.0247926162
 30
0.0
 10
10.873087416
 20
7.0379758886
 30
0.0
 10
10.841741386
 20
7.0499149148
 30
0.0
 10
10.8122241429
 20
7.0638822591
 30
0.0
 10
10.7936463759
 20
7.074647181
 30
0.0
 10
10.7847567229
 20
7.0803408907
 30
0.0
  0
SPLINE
  5
3DC
100
AcDbEntity
  8
0
100
AcDbSpline
 62
7
  6
CONTINUOUS
 70
0
 71
3
 72
12
 73
8
 74
0
 42
0.0000001
 43
0.0000001
 44
0.0000000001
 40
0.0
 40
0.0
 40
0.0
 40
0.0
 40
0.2388724002
 40
0.3620793324
 40
0.4873028247
 40
0.7421258456
 40
1.0
 40
1.0
 40
1.0
 40
1.0
 10
11.2895233034
 20
7.0300498251
 30
0.0
 10
11.2722554357
 20
7.0195289684
 30
0.0
 10
11.244799261
 20
7.0055929959
 30
0.0
 10
11.2062844703
 20
6.9907712218
 30
0.0
 10
11.1655730111
 20
6.9781241626
 30
0.0
 10
11.1125459271
 20
6.9671661065
 30
0.0
 10
11.0691675584
 20
6.9636233242
 30
0.0
 10
11.047343195
 20
6.9631749133
 30
0.0
  0
SPLINE
  5
3DD
100
AcDbEntity
  8
0
100
AcDbSpline
 62
7
  6
CONTINUOUS
 70
0
 71
3
 72
14
 73
10
 74
0
 42
0.0000001
 43
0.0000001
 44
0.0000000001
 40
0.0
 40
0.0
 40
0.0
 40
0.0
 40
0.1307612065
 40
0.2608245429
 40
0.4534516762
 40
0.5482680646
 40
0.6418194464
 40
0.8243690788
 40
1.0
 40
1.0
 40
1.0
 40
1.0
 10
11.047343195
 20
6.9631749133
 30
0.0
 10
11.0360771773
 20
6.9629434377
 30
0.0
 10
11.0135836379
 20
6.9631879272
 30
0.0
 10
10.9745924212
 20
6.9660615231
 30
0.0
 10
10.9389683539
 20
6.9715556191
 30
0.0
 10
10.9069719105
 20
6.978968432
 30
0.0
 10
10.8762236514
 20
6.9877434526
 30
0.0
 10
10.8396533245
 20
7.0013036224
 30
0.0
 10
10.8120092983
 20
7.0152144413
 30
0.0
 10
10.7989291832
 20
7.0228289419
 30
0.0
  0
SPLINE
  5
3DE
100
AcDbEntity
  8
0
100
AcDbSpline
 62
7
  6
CONTINUOUS
 70
0
 71
3
 72
11
 73
7
 74
0
 42
0.0000001
 43
0.0000001
 44
0.0000000001
 40
0.0
 40
0.0
 40
0.0
 40
0.0
 40
0.2438353845
 40
0.4930052462
 40
0.745724186
 40
1.0
 40
1.0
 40
1.0
 40
1.0
 10
11.2334525062
 20
6.9527668865
 30
0.0
 10
11.2191568847
 20
6.9467260596
 30
0.0
 10
11.1895988208
 20
6.9360110941
 30
0.0
 10
11.1435561419
 20
6.9242062276
 30
0.0
 10
11.0959572588
 20
6.9166560384
 30
0.0
 10
11.0637080942
 20
6.9145038094
 30
0.0
 10
11.0475276712
 20
6.9141608539
 30
0.0
  0
SPLINE
  5
3DF
100
AcDbEntity
  8
0
100
AcDbSpline
 62
7
  6
CONTINUOUS
 70
0
 71
3
 72
11
 73
7
 74
0
 42
0.0000001
 43
0.0000001
 44
0.0000000001
 40
0.0
 40
0.0
 40
0.0
 40
0.0
 40
0.258548512
 40
0.5129348312
 40
0.7607834175
 40
1.0
 40
1.0
 40
1.0
 40
1.0
 10
11.02702571
 20
6.9141198564
 30
0.0
 10
11.0091608197
 20
6.9144267807
 30
0.0
 10
10.9737219653
 20
6.9168047307
 30
0.0
 10
10.9218081442
 20
6.9256834485
 30
0.0
 10
10.8724057128
 20
6.9396389872
 30
0.0
 10
10.8411625377
 20
6.9524063997
 30
0.0
 10
10.8262756487
 20
6.9595947798
 30
0.0
  0
SPLINE
  5
3E0
100
AcDbEntity
  8
0
100
AcDbSpline
 62
9
  6
CONTINUOUS
 70
0
 71
3
 72
13
 73
9
 74
0
 42
0.0000001
 43
0.0000001
 44
0.0000000001
 40
0.0
 40
0.0
 40
0.0
 40
0.0
 40
0.1227195101
 40
0.2456252219
 40
0.4928588605
 40
0.6177803792
 40
0.7438298155
 40
1.0
 40
1.0
 40
1.0
 40
1.0
 10
12.679073653
 20
5.4614145412
 30
0.0
 10
12.6793554219
 20
5.4440418785
 30
0.0
 10
12.6788089019
 20
5.4092401739
 30
0.0
 10
12.6732572999
 20
5.3396465676
 30
0.0
 10
12.6609943474
 20
5.2704108761
 30
0.0
 10
12.6422870254
 20
5.2023630213
 30
0.0
 10
12.6190440157
 20
5.1343900639
 30
0.0
 10
12.5969134607
 20
5.0848276847
 30
0.0
 10
12.5802803145
 20
5.0525973214
 30
0.0
  0
SPLINE
  5
3E1
100
AcDbEntity
  8
0
100
AcDbSpline
 62
9
  6
CONTINUOUS
 70
0
 71
3
 72
9
 73
5
 74
0
 42
0.0000001
 43
0.0000001
 44
0.0000000001
 40
0.0
 40
0.0
 40
0.0
 40
0.0
 40
0.4939998053
 40
1.0
 40
1.0
 40
1.0
 40
1.0
 10
12.5802803145
 20
5.0525973214
 30
0.0
 10
12.5661670276
 20
5.0252497373
 30
0.0
 10
12.534925341
 20
4.9712352326
 30
0.0
 10
12.4989326332
 20
4.9202786475
 30
0.0
 10
12.4796709251
 20
4.895326013
 30
0.0
  0
LINE
  5
3E2
100
AcDbEntity
  8
0
100
AcDbLine
 62
9
  6
CONTINUOUS
 10
12.4502894565
 20
4.8588569193
 11
12.4489757151
 21
4.8572959393
  0
LINE
  5
3E3
100
AcDbEntity
  8
0
100
AcDbLine
 62
9
  6
CONTINUOUS
 10
12.4260310919
 20
4.8308961516
 11
12.4244354801
 21
4.8291180416
  0
SPLINE
  5
3E4
100
AcDbEntity
  8
0
100
AcDbSpline
 62
9
  6
CONTINUOUS
 70
0
 71
3
 72
12
 73
8
 74
0
 42
0.0000001
 43
0.0000001
 44
0.0000000001
 40
0.0
 40
0.0
 40
0.0
 40
0.0
 40
0.235430037
 40
0.4807469722
 40
0.7358508765
 40
0.8669039652
 40
1.0
 40
1.0
 40
1.0
 40
1.0
 10
12.4244354801
 20
4.8291180416
 30
0.0
 10
12.3892587219
 20
4.7899969919
 30
0.0
 10
12.3120744209
 20
4.7147950097
 30
0.0
 10
12.1812332983
 20
4.6146535498
 30
0.0
 10
12.0602012891
 20
4.5415373728
 30
0.0
 10
11.9565892576
 20
4.4892250173
 30
0.0
 10
11.9026235369
 20
4.4652352537
 30
0.0
 10
11.8751653567
 20
4.4538047637
 30
0.0
  0
SPLINE
  5
3E5
100
AcDbEntity
  8
0
100
AcDbSpline
 62
7
  6
CONTINUOUS
 70
0
 71
3
 72
15
 73
11
 74
0
 42
0.0000001
 43
0.0000001
 44
0.0000000001
 40
0.0
 40
0.0
 40
0.0
 40
0.0
 40
0.1106307488
 40
0.223104807
 40
0.3390626437
 40
0.4597828041
 40
0.5860567803
 40
0.7182893749
 40
0.8565007756
 40
1.0
 40
1.0
 40
1.0
 40
1.0
 10
11.4998144809
 20
7.1370508654
 30
0.0
 10
11.4998131348
 20
7.1230702431
 30
0.0
 10
11.4971797785
 20
7.0948080236
 30
0.0
 10
11.4854170911
 20
7.0533787054
 30
0.0
 10
11.4661141671
 20
7.0134675024
 30
0.0
 10
11.4396377282
 20
6.97579009
 30
0.0
 10
11.4065045337
 20
6.940946444
 30
0.0
 10
11.3672770735
 20
6.9095027303
 30
0.0
 10
11.3226465912
 20
6.8819945717
 30
0.0
 10
11.2903574149
 20
6.8668064394
 30
0.0
 10
11.2735683383
 20
6.8599523276
 30
0.0
  0
SPLINE
  5
3E6
100
AcDbEntity
  8
0
100
AcDbSpline
 62
9
  6
CONTINUOUS
 70
0
 71
3
 72
10
 73
6
 74
0
 42
0.0000001
 43
0.0000001
 44
0.0000000001
 40
0.0
 40
0.0
 40
0.0
 40
0.0
 40
0.2580943028
 40
0.5111888836
 40
1.0
 40
1.0
 40
1.0
 40
1.0
 10
11.8573183383
 20
4.4690784018
 30
0.0
 10
11.891442367
 20
4.4830094782
 30
0.0
 10
11.9582381076
 20
4.5126137698
 30
0.0
 10
12.0850309893
 20
4.5784287597
 30
0.0
 10
12.1743328015
 20
4.6362336767
 30
0.0
 10
12.2300329201
 20
4.6783104534
 30
0.0
  0
SPLINE
  5
3E7
100
AcDbEntity
  8
0
100
AcDbSpline
 62
9
  6
CONTINUOUS
 70
0
 71
3
 72
20
 73
16
 74
0
 42
0.0000001
 43
0.0000001
 44
0.0000000001
 40
0.0
 40
0.0
 40
0.0
 40
0.0
 40
0.1380463675
 40
0.205406257
 40
0.2716576264
 40
0.4008895945
 40
0.5261204514
 40
0.5874156051
 40
0.6479191259
 40
0.7077215646
 40
0.7669224599
 40
0.8256318763
 40
0.8839663192
 40
0.9420470099
 40
1.0
 40
1.0
 40
1.0
 40
1.0
 10
12.2300329201
 20
4.6783104534
 30
0.0
 10
12.2641664103
 20
4.7040954479
 30
0.0
 10
12.3132889158
 20
4.7447676626
 30
0.0
 10
12.3740568044
 20
4.8030625304
 30
0.0
 10
12.4299686331
 20
4.862332444
 30
0.0
 10
12.4925233209
 20
4.9398113275
 30
0.0
 10
12.5453622149
 20
5.0224386064
 30
0.0
 10
12.5807465785
 20
5.0903639368
 30
0.0
 10
12.6037132018
 20
5.1417782975
 30
0.0
 10
12.6232394848
 20
5.1939027465
 30
0.0
 10
12.6392722807
 20
5.2466263719
 30
0.0
 10
12.6517790521
 20
5.2998291439
 30
0.0
 10
12.6607375254
 20
5.3533924682
 30
0.0
 10
12.6661219652
 20
5.4071948945
 30
0.0
 10
12.6673164279
 20
5.4431631759
 30
0.0
 10
12.6673157523
 20
5.4611217476
 30
0.0
  0
SPLINE
  5
3E8
100
AcDbEntity
  8
0
100
AcDbSpline
 62
9
  6
CONTINUOUS
 70
0
 71
3
 72
23
 73
19
 74
0
 42
0.0000001
 43
0.0000001
 44
0.0000000001
 40
0.0
 40
0.0
 40
0.0
 40
0.0
 40
0.0504105563
 40
0.1014559897
 40
0.1537199377
 40
0.2076816322
 40
0.2637001048
 40
0.3219905472
 40
0.3826419856
 40
0.4456098024
 40
0.5107520415
 40
0.5778263023
 40
0.6465221099
 40
0.7164520197
 40
0.7872048065
 40
0.8583715221
 40
0.9294996321
 40
1.0
 40
1.0
 40
1.0
 40
1.0
 10
10.5948200881
 20
6.9092720675
 30
0.0
 10
10.5948216494
 20
6.8971579052
 30
0.0
 10
10.5967922561
 20
6.8727328231
 30
0.0
 10
10.6056058907
 20
6.8367108073
 30
0.0
 10
10.6201397158
 20
6.8016694605
 30
0.0
 10
10.6401755535
 20
6.7680751252
 30
0.0
 10
10.6654372333
 20
6.7363550834
 30
0.0
 10
10.6955749524
 20
6.7068951047
 30
0.0
 10
10.7302028896
 20
6.6800691913
 30
0.0
 10
10.7688642529
 20
6.6561920789
 30
0.0
 10
10.8110751196
 20
6.635576639
 30
0.0
 10
10.8562902292
 20
6.6184596947
 30
0.0
 10
10.9039394929
 20
6.6050783454
 30
0.0
 10
10.9534075122
 20
6.5955712107
 30
0.0
 10
11.0040763336
 20
6.5900841441
 30
0.0
 10
11.0553100491
 20
6.588668932
 30
0.0
 10
11.1064275706
 20
6.5913680028
 30
0.0
 10
11.140206279
 20
6.595884305
 30
0.0
 10
11.1568904109
 20
6.598828666
 30
0.0
  0
SPLINE
  5
3E9
100
AcDbEntity
  8
0
100
AcDbSpline
 62
7
  6
CONTINUOUS
 70
0
 71
3
 72
10
 73
6
 74
0
 42
0.0000001
 43
0.0000001
 44
0.0000000001
 40
0.0
 40
0.0
 40
0.0
 40
0.0
 40
0.5068064136
 40
0.754730593
 40
1.0
 40
1.0
 40
1.0
 40
1.0
 10
10.6183578415
 20
6.6887479456
 30
0.0
 10
10.6112694734
 20
6.6757964289
 30
0.0
 10
10.6022437889
 20
6.6555933429
 30
0.0
 10
10.5939608236
 20
6.6276363653
 30
0.0
 10
10.5911277789
 20
6.6135250741
 30
0.0
 10
10.5900446226
 20
6.6064624181
 30
0.0
  0
SPLINE
  5
3EA
100
AcDbEntity
  8
0
100
AcDbSpline
 62
7
  6
CONTINUOUS
 70
0
 71
3
 72
11
 73
7
 74
0
 42
0.0000001
 43
0.0000001
 44
0.0000000001
 40
0.0
 40
0.0
 40
0.0
 40
0.0
 40
0.246657344
 40
0.4946848836
 40
0.7453969689
 40
1.0
 40
1.0
 40
1.0
 40
1.0
 10
11.5098157863
 20
6.6067207689
 30
0.0
 10
11.5098166365
 20
6.6148785997
 30
0.0
 10
11.5089514058
 20
6.6312528657
 30
0.0
 10
11.5050494044
 20
6.6556390766
 30
0.0
 10
11.4985821816
 20
6.6797442881
 30
0.0
 10
11.4926376641
 20
6.6953983678
 30
0.0
 10
11.489270761
 20
6.7031165833
 30
0.0
  0
SPLINE
  5
3EB
100
AcDbEntity
  8
0
100
AcDbSpline
 62
7
  6
CONTINUOUS
 70
0
 71
3
 72
9
 73
5
 74
0
 42
0.0000001
 43
0.0000001
 44
0.0000000001
 40
0.0
 40
0.0
 40
0.0
 40
0.0
 40
0.4938142924
 40
1.0
 40
1.0
 40
1.0
 40
1.0
 10
11.489270761
 20
6.7031165833
 30
0.0
 10
11.4855130124
 20
6.7117307642
 30
0.0
 10
11.4769551186
 20
6.7287738723
 30
0.0
 10
11.466716429
 20
6.7448574389
 30
0.0
 10
11.4611630907
 20
6.7527293013
 30
0.0
  0
SPLINE
  5
3EC
100
AcDbEntity
  8
0
100
AcDbSpline
 62
7
  6
CONTINUOUS
 70
0
 71
3
 72
10
 73
6
 74
0
 42
0.0000001
 43
0.0000001
 44
0.0000000001
 40
0.0
 40
0.0
 40
0.0
 40
0.0
 40
0.2452481842
 40
0.4931604729
 40
1.0
 40
1.0
 40
1.0
 40
1.0
 10
10.5874851803
 20
6.6064194045
 30
0.0
 10
10.5885724287
 20
6.6135571008
 30
0.0
 10
10.5914245977
 20
6.6278187772
 30
0.0
 10
10.5997859045
 20
6.6560737949
 30
0.0
 10
10.6089145615
 20
6.6764889774
 30
0.0
 10
10.6160880547
 20
6.689572672
 30
0.0
  0
SPLINE
  5
3ED
100
AcDbEntity
  8
0
100
AcDbSpline
 62
7
  6
CONTINUOUS
 70
0
 71
3
 72
15
 73
11
 74
0
 42
0.0000001
 43
0.0000001
 44
0.0000000001
 40
0.0
 40
0.0
 40
0.0
 40
0.0
 40
0.1160231712
 40
0.2330594491
 40
0.3520496089
 40
0.4738155752
 40
0.5990669391
 40
0.7283688935
 40
0.8620329854
 40
1.0
 40
1.0
 40
1.0
 40
1.0
 10
11.6223147078
 20
6.6208629057
 30
0.0
 10
11.6223146068
 20
6.6081269146
 30
0.0
 10
11.620611118
 20
6.582511176
 30
0.0
 10
11.6129514804
 20
6.5445260433
 30
0.0
 10
11.6002893106
 20
6.5072365468
 30
0.0
 10
11.5827392762
 20
6.4709874648
 30
0.0
 10
11.5604657015
 20
6.4360922345
 30
0.0
 10
11.5336708109
 20
6.4028496377
 30
0.0
 10
11.5026109314
 20
6.3715702617
 30
0.0
 10
11.479629479
 20
6.3524928063
 30
0.0
 10
11.4675552138
 20
6.3433507709
 30
0.0
  0
SPLINE
  5
3EE
100
AcDbEntity
  8
0
100
AcDbSpline
 62
9
  6
CONTINUOUS
 70
0
 71
3
 72
20
 73
16
 74
0
 42
0.0000001
 43
0.0000001
 44
0.0000000001
 40
0.0
 40
0.0
 40
0.0
 40
0.0
 40
0.0578623837
 40
0.1158555863
 40
0.1741085849
 40
0.232745382
 40
0.2918851347
 40
0.3516399546
 40
0.41211106
 40
0.4733905406
 40
0.5986425055
 40
0.7279677595
 40
0.7942915969
 40
0.8617389028
 40
1.0
 40
1.0
 40
1.0
 40
1.0
 10
12.667315814
 20
5.4851551987
 30
0.0
 10
12.6673165382
 20
5.4669659599
 30
0.0
 10
12.6660910751
 20
5.4305343359
 30
0.0
 10
12.6605668855
 20
5.3760428476
 30
0.0
 10
12.6513772182
 20
5.3217997923
 30
0.0
 10
12.6385483567
 20
5.2679313662
 30
0.0
 10
12.6221028459
 20
5.2145611562
 30
0.0
 10
12.6020770123
 20
5.1618132661
 30
0.0
 10
12.5785261643
 20
5.109802817
 30
0.0
 10
12.5422404
 20
5.0411109179
 30
0.0
 10
12.4880668468
 20
4.9576175895
 30
0.0
 10
12.4239761168
 20
4.8794559657
 30
0.0
 10
12.3667138939
 20
4.8197373227
 30
0.0
 10
12.3044831753
 20
4.7610456967
 30
0.0
 10
12.2542060005
 20
4.7201772878
 30
0.0
 10
12.2192844278
 20
4.6943025296
 30
0.0
  0
SPLINE
  5
3EF
100
AcDbEntity
  8
0
100
AcDbSpline
 62
9
  6
CONTINUOUS
 70
0
 71
3
 72
10
 73
6
 74
0
 42
0.0000001
 43
0.0000001
 44
0.0000000001
 40
0.0
 40
0.0
 40
0.0
 40
0.0
 40
0.4892468379
 40
0.7422200428
 40
1.0
 40
1.0
 40
1.0
 40
1.0
 10
12.2192844278
 20
4.6943025296
 30
0.0
 10
12.1649025604
 20
4.6540088784
 30
0.0
 10
12.0780262195
 20
4.5985608626
 30
0.0
 10
11.9550091017
 20
4.5351807834
 30
0.0
 10
11.8903344748
 20
4.5065906342
 30
0.0
 10
11.8573183383
 20
4.4931118529
 30
0.0
  0
SPLINE
  5
3F0
100
AcDbEntity
  8
0
100
AcDbSpline
 62
9
  6
CONTINUOUS
 70
0
 71
3
 72
17
 73
13
 74
0
 42
0.0000001
 43
0.0000001
 44
0.0000000001
 40
0.0
 40
0.0
 40
0.0
 40
0.0
 40
0.1160346856
 40
0.2330753227
 40
0.3520668989
 40
0.4738455314
 40
0.5360248359
 40
0.5991437544
 40
0.6632609373
 40
0.7284222269
 40
0.8619725457
 40
1.0
 40
1.0
 40
1.0
 40
1.0
 10
9.4273209243
 20
5.4611217478
 30
0.0
 10
9.427322272
 20
5.425297518
 30
0.0
 10
9.4321139209
 20
5.353248388
 30
0.0
 10
9.4536113269
 20
5.2463986042
 30
0.0
 10
9.489169355
 20
5.1415003796
 30
0.0
 10
9.5299902823
 20
5.0570775088
 30
0.0
 10
9.5690526925
 20
4.9915179212
 30
0.0
 10
9.6018102182
 20
4.9430350579
 30
0.0
 10
9.6377427573
 20
4.8956987867
 30
0.0
 10
9.6901952345
 20
4.8337421046
 30
0.0
 10
9.7634838196
 20
4.759744752
 30
0.0
 10
9.828057867
 20
4.7060464635
 30
0.0
 10
9.8620012944
 20
4.6802818519
 30
0.0
  0
SPLINE
  5
3F1
100
AcDbEntity
  8
0
100
AcDbSpline
 62
9
  6
CONTINUOUS
 70
0
 71
3
 72
23
 73
19
 74
0
 42
0.0000001
 43
0.0000001
 44
0.0000000001
 40
0.0
 40
0.0
 40
0.0
 40
0.0
 40
0.0564870414
 40
0.1145125167
 40
0.1739930177
 40
0.2348100115
 40
0.2968181217
 40
0.3598462833
 40
0.4237050607
 40
0.4881881484
 40
0.5530787449
 40
0.6181535374
 40
0.6831855974
 40
0.7479447297
 40
0.8122066168
 40
0.8757743342
 40
0.9384527008
 40
1.0
 40
1.0
 40
1.0
 40
1.0
 10
9.8620012944
 20
4.6802818519
 30
0.0
 10
9.8932336312
 20
4.6565750819
 30
0.0
 10
9.9585463121
 20
4.6110970244
 30
0.0
 10
10.0627209946
 20
4.549776901
 30
0.0
 10
10.1737621707
 20
4.4948390132
 30
0.0
 10
10.2908774547
 20
4.4466448899
 30
0.0
 10
10.4132629117
 20
4.4055469333
 30
0.0
 10
10.5400589992
 20
4.3718060907
 30
0.0
 10
10.6703893026
 20
4.3456790473
 30
0.0
 10
10.8033416835
 20
4.3273219765
 30
0.0
 10
10.9379941856
 20
4.3168860901
 30
0.0
 10
11.0734084792
 20
4.3144198632
 30
0.0
 10
11.208640347
 20
4.3199668344
 30
0.0
 10
11.3427457189
 20
4.3334585365
 30
0.0
 10
11.4747953723
 20
4.3548264231
 30
0.0
 10
11.6038872213
 20
4.3839107279
 30
0.0
 10
11.7290830272
 20
4.4205266613
 30
0.0
 10
11.8101812535
 20
4.4500528316
 30
0.0
 10
11.8498045435
 20
4.4660298196
 30
0.0
  0
LINE
  5
3F2
100
AcDbEntity
  8
0
100
AcDbLine
 62
9
  6
CONTINUOUS
 10
11.9488908093
 20
4.5606223239
 11
11.9512456834
 21
4.5617558908
  0
LINE
  5
3F3
100
AcDbEntity
  8
0
100
AcDbLine
 62
9
  6
CONTINUOUS
 10
12.0253678114
 20
4.5997344175
 11
12.0273361244
 21
4.6008063908
  0
LINE
  5
3F4
100
AcDbEntity
  8
0
100
AcDbLine
 62
9
  6
CONTINUOUS
 10
12.032868263
 20
4.6038377222
 11
12.0345382172
 21
4.6047581495
  0
SPLINE
  5
3F5
100
AcDbEntity
  8
0
100
AcDbSpline
 62
9
  6
CONTINUOUS
 70
0
 71
3
 72
9
 73
5
 74
0
 42
0.0000001
 43
0.0000001
 44
0.0000000001
 40
0.0
 40
0.0
 40
0.0
 40
0.0
 40
0.2544287115
 40
1.0
 40
1.0
 40
1.0
 40
1.0
 10
12.0345382172
 20
4.6047581495
 30
0.0
 10
12.04962614
 20
4.6130854645
 30
0.0
 10
12.1084117169
 20
4.6467367674
 30
0.0
 10
12.1650707218
 20
4.6841322945
 30
0.0
 10
12.2057045366
 20
4.7141184577
 30
0.0
  0
LINE
  5
3F6
100
AcDbEntity
  8
0
100
AcDbLine
 62
9
  6
CONTINUOUS
 10
12.2057045366
 20
4.7141184577
 11
12.2078874264
 21
4.7157325215
  0
SPLINE
  5
3F7
100
AcDbEntity
  8
0
100
AcDbSpline
 62
9
  6
CONTINUOUS
 70
0
 71
3
 72
9
 73
5
 74
0
 42
0.0000001
 43
0.0000001
 44
0.0000000001
 40
0.0
 40
0.0
 40
0.0
 40
0.0
 40
0.5071150722
 40
1.0
 40
1.0
 40
1.0
 40
1.0
 10
12.2078874264
 20
4.7157325215
 30
0.0
 10
12.237585244
 20
4.7377348732
 30
0.0
 10
12.2945018996
 20
4.7833979671
 30
0.0
 10
12.347465128
 20
4.8336129607
 30
0.0
 10
12.3724143048
 20
4.8594588873
 30
0.0
  0
LINE
  5
3F8
100
AcDbEntity
  8
0
100
AcDbLine
 62
9
  6
CONTINUOUS
 10
12.3724143048
 20
4.8594588873
 11
12.3732874813
 21
4.8603643867
  0
SPLINE
  5
3F9
100
AcDbEntity
  8
0
100
AcDbSpline
 62
9
  6
CONTINUOUS
 70
0
 71
3
 72
9
 73
5
 74
0
 42
0.0000001
 43
0.0000001
 44
0.0000000001
 40
0.0
 40
0.0
 40
0.0
 40
0.0
 40
0.5078192114
 40
1.0
 40
1.0
 40
1.0
 40
1.0
 10
12.3834384501
 20
4.8710313765
 30
0.0
 10
12.410190792
 20
4.8994903563
 30
0.0
 10
12.4601644223
 20
4.9581549152
 30
0.0
 10
12.5036614855
 20
5.021802156
 30
0.0
 10
12.5232031374
 20
5.0542245156
 30
0.0
  0
LINE
  5
3FA
100
AcDbEntity
  8
0
100
AcDbLine
 62
9
  6
CONTINUOUS
 10
12.5232031374
 20
5.0542245156
 11
12.5239904032
 21
5.0555329755
  0
SPLINE
  5
3FB
100
AcDbEntity
  8
0
100
AcDbSpline
 62
9
  6
CONTINUOUS
 70
0
 71
3
 72
23
 73
19
 74
0
 42
0.0000001
 43
0.0000001
 44
0.0000000001
 40
0.0
 40
0.0
 40
0.0
 40
0.0
 40
0.0606410974
 40
0.1200075796
 40
0.1784047169
 40
0.2361824595
 40
0.2937175848
 40
0.3513986994
 40
0.4096078673
 40
0.4687017826
 40
0.5290000478
 40
0.5907695177
 40
0.6542233309
 40
0.7195108694
 40
0.7867256509
 40
0.8558993752
 40
0.9270144187
 40
1.0
 40
1.0
 40
1.0
 40
1.0
 10
12.5366726918
 20
5.0772723652
 30
0.0
 10
12.5528429196
 20
5.1058280986
 30
0.0
 10
12.5820044111
 20
5.1640117113
 30
0.0
 10
12.6158463262
 20
5.2546284962
 30
0.0
 10
12.6390001719
 20
5.3469704026
 30
0.0
 10
12.6513198451
 20
5.4403752087
 30
0.0
 10
12.6526764151
 20
5.5341950646
 30
0.0
 10
12.6430955008
 20
5.6277671221
 30
0.0
 10
12.6226146378
 20
5.7204297517
 30
0.0
 10
12.5914246826
 20
5.8115450548
 30
0.0
 10
12.5497240845
 20
5.9004741845
 30
0.0
 10
12.4978478665
 20
5.9866284423
 30
0.0
 10
12.43613628
 20
6.0694110819
 30
0.0
 10
12.3650473531
 20
6.1482911078
 30
0.0
 10
12.2850481326
 20
6.2227227091
 30
0.0
 10
12.1967046905
 20
6.2922376256
 30
0.0
 10
12.1006049755
 20
6.3563472939
 30
0.0
 10
12.0326423349
 20
6.394746814
 30
0.0
 10
11.9975982305
 20
6.4129645721
 30
0.0
  0
SPLINE
  5
3FC
100
AcDbEntity
  8
0
100
AcDbSpline
 62
9
  6
CONTINUOUS
 70
0
 71
3
 72
9
 73
5
 74
0
 42
0.0000001
 43
0.0000001
 44
0.0000000001
 40
0.0
 40
0.0
 40
0.0
 40
0.0
 40
0.2461926633
 40
1.0
 40
1.0
 40
1.0
 40
1.0
 10
11.98965391
 20
6.4170679142
 30
0.0
 10
11.9724740613
 20
6.4258844087
 30
0.0
 10
11.9020868864
 20
6.4605083138
 30
0.0
 10
11.829408505
 20
6.4904413139
 30
0.0
 10
11.7737631782
 20
6.5104243211
 30
0.0
  0
SPLINE
  5
3FD
100
AcDbEntity
  8
0
100
AcDbSpline
 62
9
  6
CONTINUOUS
 70
0
 71
3
 72
20
 73
16
 74
0
 42
0.0000001
 43
0.0000001
 44
0.0000000001
 40
0.0
 40
0.0
 40
0.0
 40
0.0
 40
0.0552781657
 40
0.1107894687
 40
0.1667593329
 40
0.223401143
 40
0.2809091615
 40
0.3394536019
 40
0.3991815804
 40
0.4602094932
 40
0.5864182057
 40
0.7185257195
 40
0.8565294327
 40
0.9276512979
 40
1.0
 40
1.0
 40
1.0
 40
1.0
 10
12.9523155882
 20
5.3277727954
 30
0.0
 10
12.9523168519
 20
5.2985242151
 30
0.0
 10
12.9496133095
 20
5.2398676847
 30
0.0
 10
12.937451998
 20
5.1523568922
 30
0.0
 10
12.9172653905
 20
5.0655965252
 30
0.0
 10
12.8891195451
 20
4.9799755927
 30
0.0
 10
12.8531544159
 20
4.89585595
 30
0.0
 10
12.8095358831
 20
4.8135924321
 30
0.0
 10
12.7584338907
 20
4.7335409309
 30
0.0
 10
12.6797931239
 20
4.6290447142
 30
0.0
 10
12.5633072539
 20
4.5057820777
 30
0.0
 10
12.3997364623
 20
4.3736970421
 30
0.0
 10
12.2460435636
 20
4.2780821092
 30
0.0
 10
12.1133834941
 20
4.2102725569
 30
0.0
 10
12.043969163
 20
4.1794280422
 30
0.0
 10
12.0085906346
 20
4.1648066368
 30
0.0
  0
SPLINE
  5
3FE
100
AcDbEntity
  8
0
100
AcDbSpline
 62
9
  6
CONTINUOUS
 70
0
 71
3
 72
21
 73
17
 74
0
 42
0.0000001
 43
0.0000001
 44
0.0000000001
 40
0.0
 40
0.0
 40
0.0
 40
0.0
 40
0.0574990394
 40
0.1151410558
 40
0.1730673258
 40
0.2314139232
 40
0.2903088586
 40
0.3498727207
 40
0.4102154835
 40
0.4714333097
 40
0.5336114336
 40
0.5968230338
 40
0.7265102851
 40
0.7931134672
 40
0.8609013452
 40
1.0
 40
1.0
 40
1.0
 40
1.0
 10
9.1423213067
 20
5.1983377283
 30
0.0
 10
9.1423222012
 20
5.1758735789
 30
0.0
 10
9.1439162602
 20
5.1308734022
 30
0.0
 10
9.1510732774
 20
5.0635845252
 30
0.0
 10
9.1629931267
 20
4.9966350567
 30
0.0
 10
9.1796350984
 20
4.9301983525
 30
0.0
 10
9.20094946
 20
4.8644383473
 30
0.0
 10
9.2268923431
 20
4.7995241934
 30
0.0
 10
9.2573964825
 20
4.735619544
 30
0.0
 10
9.2923724672
 20
4.6728798502
 30
0.0
 10
9.3317393893
 20
4.6114614726
 30
0.0
 10
9.3904440764
 20
4.53087516
 30
0.0
 10
9.4571850211
 20
4.4542266616
 30
0.0
 10
9.5309509672
 20
4.3820442168
 30
0.0
 10
9.6111074402
 20
4.311335752
 30
0.0
 10
9.6757136823
 20
4.2624883044
 30
0.0
 10
9.7205211346
 20
4.2317381445
 30
0.0
  0
LINE
  5
3FF
100
AcDbEntity
  8
0
100
AcDbLine
 62
9
  6
CONTINUOUS
 10
9.8941357726
 20
4.126145308
 11
9.8965326498
 21
4.1248583849
  0
LINE
  5
400
100
AcDbEntity
  8
0
100
AcDbLine
 62
9
  6
CONTINUOUS
 10
9.9148542743
 20
4.1151595149
 11
9.919110182
 21
4.1129411749
  0
LINE
  5
401
100
AcDbEntity
  8
0
100
AcDbLine
 62
9
  6
CONTINUOUS
 10
9.9380871706
 20
4.1032052869
 11
9.9401028334
 21
4.1021859326
  0
LINE
  5
402
100
AcDbEntity
  8
0
100
AcDbLine
 62
9
  6
CONTINUOUS
 10
9.9401028334
 20
4.1021859326
 11
9.9441629259
 21
4.1001411742
  0
SPLINE
  5
403
100
AcDbEntity
  8
0
100
AcDbSpline
 62
9
  6
CONTINUOUS
 70
0
 71
3
 72
9
 73
5
 74
0
 42
0.0000001
 43
0.0000001
 44
0.0000000001
 40
0.0
 40
0.0
 40
0.0
 40
0.0
 40
0.2458919999
 40
1.0
 40
1.0
 40
1.0
 40
1.0
 10
9.9441629259
 20
4.1001411742
 30
0.0
 10
9.9670049449
 20
4.0886692517
 30
0.0
 10
10.0607690048
 20
4.043759859
 30
0.0
 10
10.1578066508
 20
4.00574286
 30
0.0
 10
10.2321432486
 20
3.9808586555
 30
0.0
  0
LINE
  5
404
100
AcDbEntity
  8
0
100
AcDbLine
 62
9
  6
CONTINUOUS
 10
10.2627930814
 20
3.9708328247
 11
10.2674088128
 21
3.9693631682
  0
SPLINE
  5
405
100
AcDbEntity
  8
0
100
AcDbSpline
 62
9
  6
CONTINUOUS
 70
0
 71
3
 72
13
 73
9
 74
0
 42
0.0000001
 43
0.0000001
 44
0.0000000001
 40
0.0
 40
0.0
 40
0.0
 40
0.0
 40
0.2471501552
 40
0.3732141791
 40
0.4999805098
 40
0.6267499719
 40
0.752812946
 40
1.0
 40
1.0
 40
1.0
 40
1.0
 10
10.2674088128
 20
3.9693631682
 30
0.0
 10
10.3916682181
 20
3.9299390312
 30
0.0
 10
10.5845995864
 20
3.885783347
 30
0.0
 10
10.8468192263
 20
3.8562814222
 30
0.0
 10
11.0471067569
 20
3.848808618
 30
0.0
 10
11.2473943372
 20
3.8562554628
 30
0.0
 10
11.5096405022
 20
3.8857041553
 30
0.0
 10
11.7025973185
 20
3.9298398685
 30
0.0
 10
11.8268793683
 20
3.9692569889
 30
0.0
  0
SPLINE
  5
406
100
AcDbEntity
  8
0
100
AcDbSpline
 62
7
  6
CONTINUOUS
 70
0
 71
3
 72
31
 73
27
 74
0
 42
0.0000001
 43
0.0000001
 44
0.0000000001
 40
0.0
 40
0.0
 40
0.0
 40
0.0
 40
0.0248230096
 40
0.0498867848
 40
0.0752717254
 40
0.10105597
 40
0.1273072611
 40
0.1540783462
 40
0.2093078712
 40
0.2669979347
 40
0.3271989897
 40
0.3582270718
 40
0.3898336988
 40
0.4219874557
 40
0.4546490251
 40
0.5212934455
 40
0.5893732023
 40
0.6238136957
 40
0.6584314019
 40
0.6931616752
 40
0.727938662
 40
0.7973504176
 40
0.8661503548
 40
0.9338529922
 40
0.9671583388
 40
1.0
 40
1.0
 40
1.0
 40
1.0
 10
8.909079023
 20
4.7394504492
 30
0.0
 10
8.9137146118
 20
4.7081454339
 30
0.0
 10
8.9257661829
 20
4.6456033689
 30
0.0
 10
8.9519307197
 20
4.5531640154
 30
0.0
 10
8.9861320231
 20
4.4620741805
 30
0.0
 10
9.0282278418
 20
4.3726850957
 30
0.0
 10
9.0780662482
 20
4.285331617
 30
0.0
 10
9.155327824
 20
4.1708453782
 30
0.0
 10
9.2709266582
 20
4.0345373455
 30
0.0
 10
9.4350982702
 20
3.8861898566
 30
0.0
 10
9.5907162062
 20
3.7766227308
 30
0.0
 10
9.7258567514
 20
3.6973807989
 30
0.0
 10
9.8332913415
 20
3.6419226107
 30
0.0
 10
9.9453614803
 20
3.5912811148
 30
0.0
 10
10.1014184562
 20
3.5300073997
 30
0.0
 10
10.3055888985
 20
3.4667517008
 30
0.0
 10
10.5169246259
 20
3.4222130114
 30
0.0
 10
10.6900777232
 20
3.3976835418
 30
0.0
 10
10.8218251031
 20
3.3849378526
 30
0.0
 10
10.9544338457
 20
3.377982353
 30
0.0
 10
11.1315779335
 20
3.3764384429
 30
0.0
 10
11.3520719691
 20
3.3889813229
 30
0.0
 10
11.6121624806
 20
3.4269254087
 30
0.0
 10
11.8230168586
 20
3.4774657754
 30
0.0
 10
11.9857657605
 20
3.5289342121
 30
0.0
 10
12.0648913515
 20
3.5582196698
 30
0.0
 10
12.1037803327
 20
3.5737334149
 30
0.0
  0
SPLINE
  5
407
100
AcDbEntity
  8
0
100
AcDbSpline
 62
9
  6
CONTINUOUS
 70
0
 71
3
 72
23
 73
19
 74
0
 42
0.0000001
 43
0.0000001
 44
0.0000000001
 40
0.0
 40
0.0
 40
0.0
 40
0.0
 40
0.0613649264
 40
0.1238593827
 40
0.1872481475
 40
0.2513411666
 40
0.3159484188
 40
0.3808528692
 40
0.4458302149
 40
0.5106591284
 40
0.5751211963
 40
0.6390040619
 40
0.7021040881
 40
0.7642338628
 40
0.8252219943
 40
0.8849219547
 40
0.9432108639
 40
1.0
 40
1.0
 40
1.0
 40
1.0
 10
11.8573183383
 20
4.4931118529
 30
0.0
 10
11.8182969527
 20
4.477181439
 30
0.0
 10
11.738426798
 20
4.4476820867
 30
0.0
 10
11.6151022729
 20
4.4109091538
 30
0.0
 10
11.4878984526
 20
4.3814665949
 30
0.0
 10
11.3577192195
 20
4.3595373524
 30
0.0
 10
11.2254321874
 20
4.3452822092
 30
0.0
 10
11.0919316891
 20
4.3387709842
 30
0.0
 10
10.9581268388
 20
4.3400790161
 30
0.0
 10
10.824928826
 20
4.3491698827
 30
0.0
 10
10.6932435076
 20
4.3660076903
 30
0.0
 10
10.5639620146
 20
4.3904520238
 30
0.0
 10
10.4379677024
 20
4.4223652683
 30
0.0
 10
10.3161100993
 20
4.4615051756
 30
0.0
 10
10.1992253887
 20
4.5076346177
 30
0.0
 10
10.0880954394
 20
4.5604182006
 30
0.0
 10
9.9834952691
 20
4.6195226326
 30
0.0
 10
9.9176815721
 20
4.6634593569
 30
0.0
 10
9.886130667
 20
4.6863926584
 30
0.0
  0
SPLINE
  5
408
100
AcDbEntity
  8
0
100
AcDbSpline
 62
9
  6
CONTINUOUS
 70
0
 71
3
 72
18
 73
14
 74
0
 42
0.0000001
 43
0.0000001
 44
0.0000000001
 40
0.0
 40
0.0
 40
0.0
 40
0.0
 40
0.1382776769
 40
0.2057290985
 40
0.2720541792
 40
0.4013901541
 40
0.5266556962
 40
0.5879443594
 40
0.6484248001
 40
0.7081882841
 40
0.7673383248
 40
0.8841865191
 40
1.0
 40
1.0
 40
1.0
 40
1.0
 10
9.8748229604
 20
4.6946951901
 30
0.0
 10
9.8399384865
 20
4.7205683796
 30
0.0
 10
9.789716593
 20
4.7614295263
 30
0.0
 10
9.7275518474
 20
4.820098281
 30
0.0
 10
9.6703647091
 20
4.8798010194
 30
0.0
 10
9.6063444495
 20
4.9579224077
 30
0.0
 10
9.5522447509
 20
5.0413780248
 30
0.0
 10
9.5160003778
 20
5.110030346
 30
0.0
 10
9.4924738023
 20
5.1620089635
 30
0.0
 10
9.4724790046
 20
5.214730198
 30
0.0
 10
9.4506725367
 20
5.2855423266
 30
0.0
 10
9.4322623797
 20
5.3756121422
 30
0.0
 10
9.427322311
 20
5.4487789426
 30
0.0
 10
9.4273208626
 20
5.4851551988
 30
0.0
  0
SPLINE
  5
409
100
AcDbEntity
  8
0
100
AcDbSpline
 62
9
  6
CONTINUOUS
 70
0
 71
3
 72
25
 73
21
 74
0
 42
0.0000001
 43
0.0000001
 44
0.0000000001
 40
0.0
 40
0.0
 40
0.0
 40
0.0
 40
0.057483467
 40
0.1142493758
 40
0.1424819482
 40
0.1706667781
 40
0.2270535019
 40
0.2553690968
 40
0.2838181867
 40
0.3412637176
 40
0.3997300917
 40
0.4594921158
 40
0.5207755955
 40
0.5837516457
 40
0.6485378271
 40
0.7151900581
 40
0.7837164663
 40
0.8540938811
 40
0.9262508618
 40
1.0
 40
1.0
 40
1.0
 40
1.0
 10
12.9903316622
 20
5.3425703125
 30
0.0
 10
13.0032226731
 20
5.3059335451
 30
0.0
 10
13.0249578801
 20
5.2316788049
 30
0.0
 10
13.0415935698
 20
5.1366445639
 30
0.0
 10
13.0483204687
 20
5.060430908
 30
0.0
 10
13.0506837465
 20
4.9842189991
 30
0.0
 10
13.0465040837
 20
4.9078651106
 30
0.0
 10
13.0358447313
 20
4.8321290545
 30
0.0
 10
13.0207988301
 20
4.7564073099
 30
0.0
 10
12.9937952586
 20
4.6624598039
 30
0.0
 10
12.9487813045
 20
4.5523983033
 30
0.0
 10
12.8913868059
 20
4.4453130553
 30
0.0
 10
12.8219863959
 20
4.3419190023
 30
0.0
 10
12.7410685256
 20
4.2428625146
 30
0.0
 10
12.6491514303
 20
4.1487969288
 30
0.0
 10
12.5468667074
 20
4.0602999029
 30
0.0
 10
12.4348612431
 20
3.9779503641
 30
0.0
 10
12.3138585755
 20
3.9022505228
 30
0.0
 10
12.1846625139
 20
3.8337256338
 30
0.0
 10
12.0945681701
 20
3.793500751
 30
0.0
 10
12.0484360611
 20
3.7746673964
 30
0.0
  0
LINE
  5
40A
100
AcDbEntity
  8
0
100
AcDbLine
 62
9
  6
CONTINUOUS
 10
10.2393676321
 20
6.4790256689
 11
10.2364761519
 21
6.4778309573
  0
SPLINE
  5
40B
100
AcDbEntity
  8
0
100
AcDbSpline
 62
9
  6
CONTINUOUS
 70
0
 71
3
 72
25
 73
21
 74
0
 42
0.0000001
 43
0.0000001
 44
0.0000000001
 40
0.0
 40
0.0
 40
0.0
 40
0.0
 40
0.0740330263
 40
0.1462415371
 40
0.2164121604
 40
0.2844795835
 40
0.3504390344
 40
0.4143356002
 40
0.4455565862
 40
0.4763157942
 40
0.5066407273
 40
0.5365643263
 40
0.5953373114
 40
0.6530079343
 40
0.7099846491
 40
0.7667123125
 40
0.8236499975
 40
0.8812456751
 40
0.9399100118
 40
1.0
 40
1.0
 40
1.0
 40
1.0
 10
10.2364761519
 20
6.4778309573
 30
0.0
 10
10.1953718037
 20
6.460806605
 30
0.0
 10
10.1153582966
 20
6.4242228632
 30
0.0
 10
10.0014397126
 20
6.3612155807
 30
0.0
 10
9.8959629179
 20
6.2911710179
 30
0.0
 10
9.7998004546
 20
6.2146801279
 30
0.0
 10
9.7137273055
 20
6.1323434772
 30
0.0
 10
9.6504920489
 20
6.0588149216
 30
0.0
 10
9.605795608
 20
5.9977483323
 30
0.0
 10
9.5754516956
 20
5.9512794857
 30
0.0
 10
9.5481011558
 20
5.9038834403
 30
0.0
 10
9.5159026879
 20
5.8399798591
 30
0.0
 10
9.4831717244
 20
5.7580950438
 30
0.0
 10
9.4564632256
 20
5.6570880396
 30
0.0
 10
9.4427504498
 20
5.5547366502
 30
0.0
 10
9.4422006839
 20
5.4519101807
 30
0.0
 10
9.4547842621
 20
5.3494842239
 30
0.0
 10
9.4804146264
 20
5.2483271005
 30
0.0
 10
9.5188222205
 20
5.1492941313
 30
0.0
 10
9.5522946248
 20
5.0860603392
 30
0.0
 10
9.5709009839
 20
5.0551115361
 30
0.0
  0
LINE
  5
40C
100
AcDbEntity
  8
0
100
AcDbLine
 62
9
  6
CONTINUOUS
 10
9.5709009839
 20
5.0551115361
 11
9.5721750791
 21
5.0529982197
  0
SPLINE
  5
40D
100
AcDbEntity
  8
0
100
AcDbSpline
 62
9
  6
CONTINUOUS
 70
0
 71
3
 72
9
 73
5
 74
0
 42
0.0000001
 43
0.0000001
 44
0.0000000001
 40
0.0
 40
0.0
 40
0.0
 40
0.0
 40
0.4923091235
 40
1.0
 40
1.0
 40
1.0
 40
1.0
 10
9.5721750791
 20
5.0529982197
 30
0.0
 10
9.5914541634
 20
5.0211099068
 30
0.0
 10
9.6342884437
 20
4.9585023532
 30
0.0
 10
9.6833962616
 20
4.9007181314
 30
0.0
 10
9.7096610759
 20
4.8726676334
 30
0.0
  0
LINE
  5
40E
100
AcDbEntity
  8
0
100
AcDbLine
 62
9
  6
CONTINUOUS
 10
9.7213484219
 20
4.8603612771
 11
9.7229725696
 21
4.8586782995
  0
SPLINE
  5
40F
100
AcDbEntity
  8
0
100
AcDbSpline
 62
9
  6
CONTINUOUS
 70
0
 71
3
 72
9
 73
5
 74
0
 42
0.0000001
 43
0.0000001
 44
0.0000000001
 40
0.0
 40
0.0
 40
0.0
 40
0.0
 40
0.2450594584
 40
1.0
 40
1.0
 40
1.0
 40
1.0
 10
9.731645878
 20
4.8497992646
 30
0.0
 10
9.7435017618
 20
4.8377850177
 30
0.0
 10
9.7928919922
 20
4.7897624549
 30
0.0
 10
9.846145873
 20
4.7457498603
 30
0.0
 10
9.8879584458
 20
4.71483788
 30
0.0
  0
LINE
  5
410
100
AcDbEntity
  8
0
100
AcDbLine
 62
9
  6
CONTINUOUS
 10
9.8879584458
 20
4.71483788
 11
9.8905195887
 21
4.7129488038
  0
SPLINE
  5
411
100
AcDbEntity
  8
0
100
AcDbSpline
 62
9
  6
CONTINUOUS
 70
0
 71
3
 72
11
 73
7
 74
0
 42
0.0000001
 43
0.0000001
 44
0.0000000001
 40
0.0
 40
0.0
 40
0.0
 40
0.0
 40
0.2397749584
 40
0.4867656928
 40
0.7404235346
 40
1.0
 40
1.0
 40
1.0
 40
1.0
 10
9.900327554
 20
4.7057945156
 30
0.0
 10
9.9365535658
 20
4.6796015732
 30
0.0
 10
10.012578798
 20
4.6297891208
 30
0.0
 10
10.1341804771
 20
4.5641361165
 30
0.0
 10
10.264033355
 20
4.5069758528
 30
0.0
 10
10.3543970376
 20
4.4751891183
 30
0.0
 10
10.4006031232
 20
4.4607984742
 30
0.0
  0
SPLINE
  5
412
100
AcDbEntity
  8
0
100
AcDbSpline
 62
7
  6
CONTINUOUS
 70
0
 71
3
 72
9
 73
5
 74
0
 42
0.0000001
 43
0.0000001
 44
0.0000000001
 40
0.0
 40
0.0
 40
0.0
 40
0.0
 40
0.244834258
 40
1.0
 40
1.0
 40
1.0
 40
1.0
 10
11.3348183383
 20
6.0212613805
 30
0.0
 10
11.3224306293
 20
6.0162041195
 30
0.0
 10
11.2712186602
 20
5.9970759723
 30
0.0
 10
11.2178087027
 20
5.9839491878
 30
0.0
 10
11.1770814628
 20
5.9772779853
 30
0.0
  0
SPLINE
  5
413
100
AcDbEntity
  8
0
100
AcDbSpline
 62
7
  6
CONTINUOUS
 70
0
 71
3
 72
9
 73
5
 74
0
 42
0.0000001
 43
0.0000001
 44
0.0000000001
 40
0.0
 40
0.0
 40
0.0
 40
0.0
 40
0.4888533476
 40
1.0
 40
1.0
 40
1.0
 40
1.0
 10
11.4675552138
 20
6.0958633975
 30
0.0
 10
11.447732189
 20
6.0808543853
 30
0.0
 10
11.40490438
 20
6.0530853268
 30
0.0
 10
11.3588877806
 20
6.0310876892
 30
0.0
 10
11.3348183383
 20
6.0212613805
 30
0.0
  0
SPLINE
  5
414
100
AcDbEntity
  8
0
100
AcDbSpline
 62
7
  6
CONTINUOUS
 70
0
 71
3
 72
25
 73
21
 74
0
 42
0.0000001
 43
0.0000001
 44
0.0000000001
 40
0.0
 40
0.0
 40
0.0
 40
0.0
 40
0.0706965942
 40
0.1419305341
 40
0.2131403072
 40
0.2838972839
 40
0.3537947407
 40
0.4224205494
 40
0.4894074807
 40
0.5544539538
 40
0.6173331994
 40
0.677905097
 40
0.7361402319
 40
0.7921258057
 40
0.846085559
 40
0.898370452
 40
0.9240494561
 40
0.9494974643
 40
0.9747881991
 40
1.0
 40
1.0
 40
1.0
 40
1.0
 10
11.1770814628
 20
6.2247653587
 30
0.0
 10
11.1559985769
 20
6.2213119402
 30
0.0
 10
11.113368911
 20
6.2161180339
 30
0.0
 10
11.0489521923
 20
6.2134211613
 30
0.0
 10
10.9845018044
 20
6.2158525861
 30
0.0
 10
10.920850756
 20
6.2233583028
 30
0.0
 10
10.8587822803
 20
6.2358555027
 30
0.0
 10
10.7990648679
 20
6.2531771616
 30
0.0
 10
10.742452042
 20
6.2751261317
 30
0.0
 10
10.6896478162
 20
6.3014219724
 30
0.0
 10
10.6413133544
 20
6.3317485657
 30
0.0
 10
10.5980555454
 20
6.3657383051
 30
0.0
 10
10.5604193032
 20
6.4029762513
 30
0.0
 10
10.5288962184
 20
6.4430213966
 30
0.0
 10
10.5038936909
 20
6.4853683664
 30
0.0
 10
10.488696592
 20
6.5223977238
 30
0.0
 10
10.4802019106
 20
6.5524980238
 30
0.0
 10
10.4756569785
 20
6.5751642211
 30
0.0
 10
10.4729282163
 20
6.5979757674
 30
0.0
 10
10.4723219083
 20
6.6132441319
 30
0.0
 10
10.4723219687
 20
6.6208629032
 30
0.0
  0
SPLINE
  5
415
100
AcDbEntity
  8
0
100
AcDbSpline
 62
7
  6
CONTINUOUS
 70
0
 71
3
 72
23
 73
19
 74
0
 42
0.0000001
 43
0.0000001
 44
0.0000000001
 40
0.0
 40
0.0
 40
0.0
 40
0.0
 40
0.0740505937
 40
0.1462091293
 40
0.2161953343
 40
0.2839016351
 40
0.3493495525
 40
0.4126326014
 40
0.4739168467
 40
0.5334573517
 40
0.5916164676
 40
0.6488281041
 40
0.7055872639
 40
0.762411601
 40
0.8198196918
 40
0.8782885141
 40
0.9382385238
 40
1.0
 40
1.0
 40
1.0
 40
1.0
 10
11.2885683383
 20
6.3253932042
 30
0.0
 10
11.3017999674
 20
6.3307949942
 30
0.0
 10
11.3275255876
 20
6.3424760046
 30
0.0
 10
11.3640331051
 20
6.362777544
 30
0.0
 10
11.3976359537
 20
6.385485362
 30
0.0
 10
11.4280013637
 20
6.4103795043
 30
0.0
 10
11.4548564767
 20
6.4372343152
 30
0.0
 10
11.4779485713
 20
6.4658175574
 30
0.0
 10
11.4970737123
 20
6.4958603114
 30
0.0
 10
11.5120151426
 20
6.5271036625
 30
0.0
 10
11.5226468898
 20
6.5592435501
 30
0.0
 10
11.5288358337
 20
6.5919851225
 30
0.0
 10
11.5305301505
 20
6.6250072649
 30
0.0
 10
11.5277072982
 20
6.6579906884
 30
0.0
 10
11.5203881878
 20
6.6906094751
 30
0.0
 10
11.5086718043
 20
6.7225577997
 30
0.0
 10
11.4926573425
 20
6.7535193784
 30
0.0
 10
11.4794460573
 20
6.773015391
 30
0.0
 10
11.4722294124
 20
6.7825025488
 30
0.0
  0
SPLINE
  5
416
100
AcDbEntity
  8
0
100
AcDbSpline
 62
7
  6
CONTINUOUS
 70
0
 71
3
 72
13
 73
9
 74
0
 42
0.0000001
 43
0.0000001
 44
0.0000000001
 40
0.0
 40
0.0
 40
0.0
 40
0.0
 40
0.2615413519
 40
0.5127462844
 40
0.6357059321
 40
0.7575142366
 40
0.8787490219
 40
1.0
 40
1.0
 40
1.0
 40
1.0
 10
10.6216298008
 20
6.7814718717
 30
0.0
 10
10.6112354389
 20
6.76769678
 30
0.0
 10
10.5929551301
 20
6.7390080061
 30
0.0
 10
10.5769855948
 20
6.6999455683
 30
0.0
 10
10.5690716622
 20
6.6681456546
 30
0.0
 10
10.5655547639
 20
6.644212603
 30
0.0
 10
10.5644245152
 20
6.6201654241
 30
0.0
 10
10.5652662616
 20
6.6041567968
 30
0.0
 10
10.566082048
 20
6.5961982356
 30
0.0
  0
SPLINE
  5
417
100
AcDbEntity
  8
0
100
AcDbSpline
 62
7
  6
CONTINUOUS
 70
0
 71
3
 72
20
 73
16
 74
0
 42
0.0000001
 43
0.0000001
 44
0.0000000001
 40
0.0
 40
0.0
 40
0.0
 40
0.0
 40
0.0521603316
 40
0.1049868833
 40
0.1587990254
 40
0.2138757795
 40
0.270435684
 40
0.3286474848
 40
0.3886174112
 40
0.4503917437
 40
0.5139722731
 40
0.5793018038
 40
0.714705106
 40
0.8554870211
 40
1.0
 40
1.0
 40
1.0
 40
1.0
 10
10.566082048
 20
6.5961982356
 30
0.0
 10
10.5670681139
 20
6.5865784806
 30
0.0
 10
10.5702188679
 20
6.5673169642
 30
0.0
 10
10.5783387109
 20
6.5389546072
 30
0.0
 10
10.5898187204
 20
6.5111907004
 30
0.0
 10
10.6045752859
 20
6.4842355991
 30
0.0
 10
10.6224802494
 20
6.4582687328
 30
0.0
 10
10.6434174682
 20
6.4334840723
 30
0.0
 10
10.6672253533
 20
6.4100493749
 30
0.0
 10
10.6937292656
 20
6.388122772
 30
0.0
 10
10.7227511814
 20
6.367870285
 30
0.0
 10
10.7650054819
 20
6.3429769059
 30
0.0
 10
10.8229910485
 20
6.3169826793
 30
0.0
 10
10.8979543245
 20
6.2947483626
 30
0.0
 10
10.950295645
 20
6.2861101323
 30
0.0
 10
10.9769430418
 20
6.2833332204
 30
0.0
  0
SPLINE
  5
418
100
AcDbEntity
  8
0
100
AcDbSpline
 62
7
  6
CONTINUOUS
 70
0
 71
3
 72
11
 73
7
 74
0
 42
0.0000001
 43
0.0000001
 44
0.0000000001
 40
0.0
 40
0.0
 40
0.0
 40
0.0
 40
0.2549423861
 40
0.6325287439
 40
0.8179290489
 40
1.0
 40
1.0
 40
1.0
 40
1.0
 10
11.0715325491
 20
6.2801148889
 30
0.0
 10
11.0896148751
 20
6.2807557872
 30
0.0
 10
11.1344253574
 20
6.2841379672
 30
0.0
 10
11.1917489835
 20
6.2943153981
 30
0.0
 10
11.2427237228
 20
6.3084779898
 30
0.0
 10
11.2673698657
 20
6.3170786296
 30
0.0
 10
11.279417323
 20
6.3217512754
 30
0.0
  0
ELLIPSE
  5
419
100
AcDbEntity
  8
0
100
AcDbEllipse
 62
7
  6
CONTINUOUS
 10
11.0473183383
 20
9.5437423804
 30
0.0
 11
1.0411369379
 21
0.9898582626
 31
0.0
 40
0.5769821704
 41
0.021858488
 42
0.7197662968
  0
ELLIPSE
  5
41A
100
AcDbEntity
  8
0
100
AcDbEllipse
 62
7
  6
CONTINUOUS
 10
11.0473183383
 20
9.5437423804
 30
0.0
 11
-1.0411369379
 21
0.9898582626
 31
0.0
 40
0.5769821704
 41
-0.7197663623
 42
-0.021858488
  0
ELLIPSE
  5
41B
100
AcDbEntity
  8
0
100
AcDbEllipse
 62
7
  6
CONTINUOUS
 10
11.0473183383
 20
6.7410710572
 30
0.0
 11
0.4522967215
 21
0.1611958191
 31
0.0
 40
0.084133201
 41
4.9269927592
 42
5.4850315861
  0
ENDSEC
  0
SECTION
  2
OBJECTS
  0
DICTIONARY
  5
C
100
AcDbDictionary
280
0
281
1
  3
ACAD_GROUP
350
D
  3
ACAD_MLINESTYLE
350
17
  3
ACAD_LAYOUT
350
1A
  3
ACAD_PLOTSETTINGS
350
19
  3
ACAD_PLOTSTYLENAME
350
E
  0
DICTIONARY
  5
D
102
{ACAD_REACTORS
330
C
102
}
100
AcDbDictionary
280
0
281
1
  0
ACDBDICTIONARYWDFLT
  5
E
102
{ACAD_REACTORS
330
C
102
}
100
AcDbDictionary
281
1
  3
Normal
350
F
100
AcDbDictionaryWithDefault
340
F
  0
DICTIONARY
  5
17
102
{ACAD_REACTORS
330
C
102
}
100
AcDbDictionary
280
0
281
1
  3
Standard
350
18
  0
DICTIONARY
  5
19
102
{ACAD_REACTORS
330
C
102
}
100
AcDbDictionary
281
1
  0
DICTIONARY
  5
1A
102
{ACAD_REACTORS
330
C
102
}
100
AcDbDictionary
281
1
  3
Model
350
41C
  3
Layout1
350
41D
  0
ACDBPLACEHOLDER
  5
F
102
{ACAD_REACTORS
330
E
102
}
  0
MLINESTYLE
  5
18
102
{ACAD_REACTORS
330
17
102
}
100
AcDbMlineStyle
  2
STANDARD
 70
0
  3

 62
256
 51
90.0
 52
90.0
 71
2
 49
0.5
 62
256
  6
BYLAYER
 49
-0.5
 62
256
  6
BYLAYER
  0
LAYOUT
  5
41C
102
{ACAD_REACTORS
330
1A
102
}
100
AcDbPlotSettings
  1

  2
none_device
  4
ANSI_C_(22.00_x_17.00_Inches)
  6

 40
0.0
 41
0.0
 42
0.0
 43
0.0
 44
558.8
 45
431.8
 46
0.0
 47
0.0
 48
0.0
 49
0.0
140
0.0
141
0.0
142
1.0
143
1.0
 70
1024
 72
0
 73
0
 74
0
  7

 75
0
147
1.0
148
0.0
149
0.0
100
AcDbLayout
  1
Model
 70
0
 71
0
 10
0.0
 20
0.0
 11
22.0
 21
17.0
 12
0.0
 22
0.0
 32
0.0
 14
0.0
 24
0.0
 34
0.0
 15
0.0
 25
0.0
 35
0.0
146
0.0
 13
0.0
 23
0.0
 33
0.0
 16
1.0
 26
0.0
 36
0.0
 17
0.0
 27
1.0
 37
0.0
 76
0
330
202
345
0
346
0
  0
LAYOUT
  5
41D
102
{ACAD_REACTORS
330
1A
102
}
100
AcDbPlotSettings
  1

  2
none_device
  4
ANSI_C_(22.00_x_17.00_Inches)
  6

 40
0.0
 41
0.0
 42
0.0
 43
0.0
 44
558.8
 45
431.8
 46
0.0
 47
0.0
 48
0.0
 49
0.0
140
0.0
141
0.0
142
1.0
143
1.0
 70
0
 72
0
 73
0
 74
0
  7

 75
0
147
1.0
148
0.0
149
0.0
100
AcDbLayout
  1
Layout1
 70
0
 71
1
 10
0.0
 20
0.0
 11
22.0
 21
17.0
 12
0.0
 22
0.0
 32
0.0
 14
0.0
 24
0.0
 34
0.0
 15
0.0
 25
0.0
 35
0.0
146
0.0
 13
0.0
 23
0.0
 33
0.0
 16
1.0
 26
0.0
 36
0.0
 17
0.0
 27
1.0
 37
0.0
 76
0
330
203
345
0
346
0
  0
ENDSEC
  0
EOF
