999
DXF file: 3-1204tr_RIGHT.dxf
999
Pro/ENGINEER 2018400 by Parametric Technology Corporation
  0
SECTION
  2
HEADER
  9
$ACADVER
  1
AC1027
  9
$DWGCODEPAGE
  3
ANSI_1252
  9
$EXTMAX
 10
11.0
 20
8.5
 30
0.0
  9
$EXTMIN
 10
0.0
 20
0.0
 30
0.0
  9
$LIMMIN
 10
0.0
 20
0.0
  9
$LIMMAX
 10
11.0
 20
8.5
  9
$VIEWCTR
 10
5.5
 20
4.25
  9
$VIEWSIZE
 40
8.5
  9
$CLAYER
  8
0
  9
$LTSCALE
 40
0.605
  9
$CELTYPE
  6
BYLAYER
  9
$DIMSCALE
 40
1.0
  9
$DIMASZ
 40
0.1
  9
$DIMEXO
 40
0.0625
  9
$DIMDLI
 40
0.418
  9
$DIMEXE
 40
0.125
  9
$DIMCEN
 40
0.099
  9
$DIMLFAC
 40
1.0
  9
$DIMBLK
  1
_FILLED
  9
$DIMALT
 70
1
  9
$DIMALTD
 70
2
  9
$DIMALTTD
 70
2
  9
$DIMALTF
 40
25.4
  9
$DIMTXT
 40
0.08
  9
$DIMTOL
 70
1
  9
$DIMLIM
 70
0
  9
$DIMTFAC
 40
1.0
  9
$DIMTP
 40
0.001
  9
$DIMTM
 40
0.001
  9
$DIMGAP
 40
0.09
  9
$DIMDSEP
 70
46
  9
$AUNITS
 70
0
  9
$PDMODE
 70
3
  9
$PDSIZE
 40
0.3125
  9
$HANDSEED
  5
435
  9
$TILEMODE
 70
1
  9
$MEASUREMENT
 70
0
  9
$INSUNITS
 70
1
  0
ENDSEC
  0
SECTION
  2
CLASSES
  0
CLASS
  1
ACDBDICTIONARYWDFLT
  2
AcDbDictionaryWithDefault
  3
AutoCAD 2000
 90
0
 91
1
280
0
281
0
  0
CLASS
  1
ACDBPLACEHOLDER
  2
AcDbPlaceHolder
  3
AutoCAD 2000
 90
0
 91
1
280
0
281
0
  0
CLASS
  1
LAYOUT
  2
AcDbLayout
  3
AutoCAD 2000
 90
0
 91
0
280
0
281
0
  0
ENDSEC
  0
SECTION
  2
TABLES
  0
TABLE
  2
VPORT
  5
8
100
AcDbSymbolTable
 70
2
  0
VPORT
  5
1F4
100
AcDbSymbolTableRecord
100
AcDbViewportTableRecord
  2
*ACTIVE
 70
0
 10
0.0
 20
0.0
 11
1.0
 21
1.0
 12
5.5
 22
4.25
 13
0.0
 23
0.0
 14
1.0
 24
1.0
 15
0.0
 25
0.0
 16
0.0
 26
0.0
 36
1.0
 17
0.0
 27
0.0
 37
0.0
 40
8.5
 41
1.2941176471
 42
50.0
 43
0.0
 44
0.0
 50
0.0
 51
0.0
 71
0
 72
100
 73
1
 74
1
 75
0
 76
0
 77
0
 78
0
  0
ENDTAB
  0
TABLE
  2
LTYPE
  5
5
100
AcDbSymbolTable
 70
6
  0
LTYPE
  5
14
100
AcDbSymbolTableRecord
100
AcDbLinetypeTableRecord
  2
BYBLOCK
 70
0
  3

 72
65
 73
0
 40
0.0
  0
LTYPE
  5
15
100
AcDbSymbolTableRecord
100
AcDbLinetypeTableRecord
  2
BYLAYER
 70
0
  3

 72
65
 73
0
 40
0.0
  0
LTYPE
  5
16
100
AcDbSymbolTableRecord
100
AcDbLinetypeTableRecord
  2
CONTINUOUS
 70
64
  3
Solid line
 72
65
 73
0
 40
0.0
  0
LTYPE
  5
1F5
100
AcDbSymbolTableRecord
100
AcDbLinetypeTableRecord
  2
CENTER
 70
64
  3
____ _ ____ _ ____ _ ____ _ ____ _ ____ _ ____
 72
65
 73
4
 40
0.6
 49
0.375
 74
0
 49
-0.075
 74
0
 49
0.075
 74
0
 49
-0.075
 74
0
  0
LTYPE
  5
1F6
100
AcDbSymbolTableRecord
100
AcDbLinetypeTableRecord
  2
HIDDEN
 70
64
  3
- - - - - - - - - - - - - - - - - - - -
 72
65
 73
2
 40
0.2
 49
0.1
 74
0
 49
-0.1
 74
0
  0
LTYPE
  5
1F7
100
AcDbSymbolTableRecord
100
AcDbLinetypeTableRecord
  2
PHANTOM
 70
64
  3
_____ _ _ _____ _ _ _____ _ _ _____
 72
65
 73
6
 40
0.8
 49
0.45
 74
0
 49
-0.05
 74
0
 49
0.1
 74
0
 49
-0.05
 74
0
 49
0.1
 74
0
 49
-0.05
 74
0
  0
LTYPE
  5
1F8
100
AcDbSymbolTableRecord
100
AcDbLinetypeTableRecord
  2
DOT
 70
64
  3
. . . . . . . . . . . . . . . . . . . .
 72
65
 73
2
 40
0.2
 49
0.1
 74
0
 49
-0.1
 74
0
  0
LTYPE
  5
1F9
100
AcDbSymbolTableRecord
100
AcDbLinetypeTableRecord
  2
DASHED
 70
64
  3
- - - - - - - - - - - - - - - - - - - -
 72
65
 73
2
 40
0.2
 49
0.1
 74
0
 49
-0.1
 74
0
  0
ENDTAB
  0
TABLE
  2
LAYER
  5
2
100
AcDbSymbolTable
 70
36
  0
LAYER
  5
10
100
AcDbSymbolTableRecord
100
AcDbLayerTableRecord
  2
0
 70
0
 62
7
  6
CONTINUOUS
370
-3
390
F
  0
LAYER
  5
1FA
100
AcDbSymbolTableRecord
100
AcDbLayerTableRecord
  2
DEFAULT_1
 70
0
 62
7
  6
CENTER
370
-3
390
F
  0
LAYER
  5
1FB
100
AcDbSymbolTableRecord
100
AcDbLayerTableRecord
  2
DEFAULT_2
 70
0
 62
8
  6
HIDDEN
370
-3
390
F
  0
LAYER
  5
1FC
100
AcDbSymbolTableRecord
100
AcDbLayerTableRecord
  2
DEFAULT_3
 70
0
 62
7
  6
PHANTOM
370
-3
390
F
  0
LAYER
  5
1FD
100
AcDbSymbolTableRecord
100
AcDbLayerTableRecord
  2
11030
 70
0
 62
7
  6
CONTINUOUS
370
-3
390
F
  0
LAYER
  5
1FE
100
AcDbSymbolTableRecord
100
AcDbLayerTableRecord
  2
1_PLATE
 70
0
 62
7
  6
CONTINUOUS
370
-3
390
F
  0
LAYER
  5
1FF
100
AcDbSymbolTableRecord
100
AcDbLayerTableRecord
  2
2-265_ASSY_PLANES
 70
0
 62
7
  6
CONTINUOUS
370
-3
390
F
  0
LAYER
  5
200
100
AcDbSymbolTableRecord
100
AcDbLayerTableRecord
  2
ALL_ASSEMBLY_MEMBERS
 70
0
 62
7
  6
CONTINUOUS
370
-3
390
F
  0
LAYER
  5
201
100
AcDbSymbolTableRecord
100
AcDbLayerTableRecord
  2
ALL_FEATURES
 70
0
 62
7
  6
CONTINUOUS
370
-3
390
F
  0
LAYER
  5
202
100
AcDbSymbolTableRecord
100
AcDbLayerTableRecord
  2
AXES_FEATURES
 70
0
 62
7
  6
CONTINUOUS
370
-3
390
F
  0
LAYER
  5
203
100
AcDbSymbolTableRecord
100
AcDbLayerTableRecord
  2
CHAMFER_FEATURES
 70
0
 62
7
  6
CONTINUOUS
370
-3
390
F
  0
LAYER
  5
204
100
AcDbSymbolTableRecord
100
AcDbLayerTableRecord
  2
COSMETIC
 70
0
 62
7
  6
CONTINUOUS
370
-3
390
F
  0
LAYER
  5
205
100
AcDbSymbolTableRecord
100
AcDbLayerTableRecord
  2
CUT_FEATURES
 70
0
 62
7
  6
CONTINUOUS
370
-3
390
F
  0
LAYER
  5
206
100
AcDbSymbolTableRecord
100
AcDbLayerTableRecord
  2
DATUM_CURVES
 70
0
 62
7
  6
CONTINUOUS
370
-3
390
F
  0
LAYER
  5
207
100
AcDbSymbolTableRecord
100
AcDbLayerTableRecord
  2
DATUM_PLANES
 70
0
 62
7
  6
CONTINUOUS
370
-3
390
F
  0
LAYER
  5
208
100
AcDbSymbolTableRecord
100
AcDbLayerTableRecord
  2
DATUM_POINTS
 70
0
 62
7
  6
CONTINUOUS
370
-3
390
F
  0
LAYER
  5
209
100
AcDbSymbolTableRecord
100
AcDbLayerTableRecord
  2
DEFAULT_COORDINATE_SYSTEM
 70
0
 62
7
  6
CONTINUOUS
370
-3
390
F
  0
LAYER
  5
20A
100
AcDbSymbolTableRecord
100
AcDbLayerTableRecord
  2
DEFAULT_DATUM_AXES
 70
0
 62
7
  6
CONTINUOUS
370
-3
390
F
  0
LAYER
  5
20B
100
AcDbSymbolTableRecord
100
AcDbLayerTableRecord
  2
DEFAULT_DATUM_CURVES
 70
0
 62
7
  6
CONTINUOUS
370
-3
390
F
  0
LAYER
  5
20C
100
AcDbSymbolTableRecord
100
AcDbLayerTableRecord
  2
DEFAULT_DATUM_PLANES
 70
0
 62
7
  6
CONTINUOUS
370
-3
390
F
  0
LAYER
  5
20D
100
AcDbSymbolTableRecord
100
AcDbLayerTableRecord
  2
DEFAULT_SURFACES
 70
0
 62
7
  6
CONTINUOUS
370
-3
390
F
  0
LAYER
  5
20E
100
AcDbSymbolTableRecord
100
AcDbLayerTableRecord
  2
DIMENSIONS
 70
0
 62
7
  6
CONTINUOUS
370
-3
390
F
  0
LAYER
  5
20F
100
AcDbSymbolTableRecord
100
AcDbLayerTableRecord
  2
HOLE_FEATURES
 70
0
 62
7
  6
CONTINUOUS
370
-3
390
F
  0
LAYER
  5
210
100
AcDbSymbolTableRecord
100
AcDbLayerTableRecord
  2
NOTES
 70
0
 62
7
  6
CONTINUOUS
370
-3
390
F
  0
LAYER
  5
211
100
AcDbSymbolTableRecord
100
AcDbLayerTableRecord
  2
PART_REFERENCE_DIMENSIONS
 70
0
 62
7
  6
CONTINUOUS
370
-3
390
F
  0
LAYER
  5
212
100
AcDbSymbolTableRecord
100
AcDbLayerTableRecord
  2
PLATED_SURFACE_AREA
 70
0
 62
7
  6
CONTINUOUS
370
-3
390
F
  0
LAYER
  5
213
100
AcDbSymbolTableRecord
100
AcDbLayerTableRecord
  2
POINTS
 70
0
 62
7
  6
CONTINUOUS
370
-3
390
F
  0
LAYER
  5
214
100
AcDbSymbolTableRecord
100
AcDbLayerTableRecord
  2
PROTRUSION
 70
0
 62
7
  6
CONTINUOUS
370
-3
390
F
  0
LAYER
  5
215
100
AcDbSymbolTableRecord
100
AcDbLayerTableRecord
  2
PROTRUSION_FEATURES
 70
0
 62
7
  6
CONTINUOUS
370
-3
390
F
  0
LAYER
  5
216
100
AcDbSymbolTableRecord
100
AcDbLayerTableRecord
  2
QUILT
 70
0
 62
7
  6
CONTINUOUS
370
-3
390
F
  0
LAYER
  5
217
100
AcDbSymbolTableRecord
100
AcDbLayerTableRecord
  2
QUILTS
 70
0
 62
7
  6
CONTINUOUS
370
-3
390
F
  0
LAYER
  5
218
100
AcDbSymbolTableRecord
100
AcDbLayerTableRecord
  2
REFERENCE_DIMENSIONS
 70
0
 62
7
  6
CONTINUOUS
370
-3
390
F
  0
LAYER
  5
219
100
AcDbSymbolTableRecord
100
AcDbLayerTableRecord
  2
ROUND_FEATURES
 70
0
 62
7
  6
CONTINUOUS
370
-3
390
F
  0
LAYER
  5
21A
100
AcDbSymbolTableRecord
100
AcDbLayerTableRecord
  2
SHELL_FEATURES
 70
0
 62
7
  6
CONTINUOUS
370
-3
390
F
  0
LAYER
  5
21B
100
AcDbSymbolTableRecord
100
AcDbLayerTableRecord
  2
XSEC_DATUMS
 70
0
 62
7
  6
CONTINUOUS
370
-3
390
F
  0
ENDTAB
  0
TABLE
  2
STYLE
  5
3
100
AcDbSymbolTable
 70
1
  0
STYLE
  5
11
100
AcDbSymbolTableRecord
100
AcDbTextStyleTableRecord
  2
STANDARD
 70
0
 40
0.0
 41
0.8
 50
0.0
 71
0
 42
0.2
  3
txt
  4

  0
STYLE
  5
21C
100
AcDbSymbolTableRecord
100
AcDbTextStyleTableRecord
  2
TEXTSTYLE_1
 70
0
 40
0.0
 41
0.8
 50
0.0
 71
0
 42
0.2
  3
gdt
  4

  0
ENDTAB
  0
TABLE
  2
VIEW
  5
6
100
AcDbSymbolTable
 70
0
  0
ENDTAB
  0
TABLE
  2
UCS
  5
7
100
AcDbSymbolTable
 70
0
  0
ENDTAB
  0
TABLE
  2
APPID
  5
9
100
AcDbSymbolTable
 70
1
  0
APPID
  5
21D
100
AcDbSymbolTableRecord
100
AcDbRegAppTableRecord
  2
ACAD
 70
0
  0
ENDTAB
  0
TABLE
  2
BLOCK_RECORD
  5
1
100
AcDbSymbolTable
 70
0
  0
BLOCK_RECORD
  5
21E
100
AcDbSymbolTableRecord
100
AcDbBlockTableRecord
  2
*Model_Space
  0
BLOCK_RECORD
  5
21F
100
AcDbSymbolTableRecord
100
AcDbBlockTableRecord
  2
*Paper_Space
  0
BLOCK_RECORD
  5
220
100
AcDbSymbolTableRecord
100
AcDbBlockTableRecord
  2
_FILLED
  0
ENDTAB
  0
TABLE
  2
DIMSTYLE
  5
A
100
AcDbSymbolTable
 70
1
100
AcDbDimStyleTable
 71
0
  0
DIMSTYLE
105
221
100
AcDbSymbolTableRecord
100
AcDbDimStyleTableRecord
  2
STANDARD
 70
0
  3

  4

 40
1.0
 41
0.1
 42
0.0625
 43
0.38
 44
0.125
 45
0.0
 46
0.0
 47
0.001
 48
0.001
140
0.08
141
0.09
142
0.0
143
25.4
144
1.0
145
0.0
146
1.0
147
0.09
 71
1.0
 72
0.0
 73
1
 74
1
 75
0
 76
0
 77
0
 78
4
 79
1
170
1
171
2
172
0
173
0
174
0
175
0
176
0
177
0
178
0
270
2
179
3
271
3
272
3
273
2
274
2
275
0
280
0
281
0
282
0
283
1
284
4
285
0
286
0
287
3
288
0
340
11
278
46
341
220
342
220
343
220
344
220
  0
ENDTAB
  0
ENDSEC
  0
SECTION
  2
BLOCKS
  0
BLOCK
  5
20
100
AcDbEntity
  8
0
100
AcDbBlockBegin
  2
*Model_Space
 70
0
 10
0.0
 20
0.0
 30
0.0
  3
*Model_Space
  1

  0
ENDBLK
  5
21
100
AcDbEntity
  8
0
100
AcDbBlockEnd
  0
BLOCK
  5
1C
100
AcDbEntity
  8
0
100
AcDbBlockBegin
  2
*Paper_Space
 70
0
 10
0.0
 20
0.0
 30
0.0
  3
*Paper_Space
  1

  0
ENDBLK
  5
1D
100
AcDbEntity
  8
0
100
AcDbBlockEnd
  0
BLOCK
  5
222
100
AcDbEntity
  8
0
100
AcDbBlockBegin
  2
_FILLED
 70
64
 10
0.0
 20
0.0
  3
_FILLED
  1

  0
SOLID
  5
223
100
AcDbEntity
  8
0
  6
BYBLOCK
 62
0
100
AcDbTrace
 10
0.0
 20
0.0
 11
-1.0
 21
0.2
 12
-1.0
 22
-0.2
 13
-1.0
 23
-0.2
  0
ENDBLK
  5
224
100
AcDbEntity
  8
0
  6
BYBLOCK
 62
0
100
AcDbBlockEnd
  0
ENDSEC
  0
SECTION
  2
ENTITIES
  0
MTEXT
  5
225
100
AcDbEntity
  8
0
100
AcDbMText
 62
2
  6
CONTINUOUS
  7
STANDARD
 71
3
 72
1
 10
5.0849378882
 20
2.4375362922
 30
0.0
 11
1.0
 21
0.0
 31
0.0
 73
2
 44
0.9
  1
SCALE  .500
 40
0.08
 41
0.704
  0
LINE
  5
226
100
AcDbEntity
  8
0
100
AcDbLine
 62
7
  6
CONTINUOUS
 10
0.0
 20
0.0
 11
0.0
 21
8.5
  0
LINE
  5
227
100
AcDbEntity
  8
0
100
AcDbLine
 62
7
  6
CONTINUOUS
 10
0.0
 20
0.0
 11
11.0
 21
0.0
  0
LINE
  5
228
100
AcDbEntity
  8
0
100
AcDbLine
 62
7
  6
CONTINUOUS
 10
0.0
 20
8.5
 11
11.0
 21
8.5
  0
LINE
  5
229
100
AcDbEntity
  8
0
100
AcDbLine
 62
7
  6
CONTINUOUS
 10
11.0
 20
0.0
 11
11.0
 21
8.5
  0
LINE
  5
22A
100
AcDbEntity
  8
1_PLATE
100
AcDbLine
 62
7
  6
CONTINUOUS
 10
5.83203573
 20
2.5306482919
 11
5.90753573
 21
2.5306482919
  0
LINE
  5
22B
100
AcDbEntity
  8
ALL_ASSEMBLY_MEMBERS
100
AcDbLine
 62
7
  6
CONTINUOUS
 10
4.0793353363
 20
4.6506482919
 11
4.0793353363
 21
4.1606482919
  0
LINE
  5
22C
100
AcDbEntity
  8
ALL_ASSEMBLY_MEMBERS
100
AcDbLine
 62
7
  6
CONTINUOUS
 10
4.1440853363
 20
4.1516482919
 11
4.1440853363
 21
4.1625689708
  0
LINE
  5
22D
100
AcDbEntity
  8
ALL_ASSEMBLY_MEMBERS
100
AcDbLine
 62
7
  6
CONTINUOUS
 10
4.0419355701
 20
3.6703325275
 11
4.1025853363
 21
4.0736482919
  0
LINE
  5
22E
100
AcDbEntity
  8
ALL_ASSEMBLY_MEMBERS
100
AcDbLine
 62
7
  6
CONTINUOUS
 10
4.3265853363
 20
4.1516482919
 11
4.3265853363
 21
4.1625689709
  0
LINE
  5
22F
100
AcDbEntity
  8
ALL_ASSEMBLY_MEMBERS
100
AcDbLine
 62
7
  6
CONTINUOUS
 10
4.1382467786
 20
3.6101939193
 11
4.332423894
 21
3.6101939193
  0
LINE
  5
230
100
AcDbEntity
  8
ALL_ASSEMBLY_MEMBERS
100
AcDbLine
 62
7
  6
CONTINUOUS
 10
4.0730853363
 20
3.6341482919
 11
4.3975853363
 21
3.6341482919
  0
LINE
  5
231
100
AcDbEntity
  8
ALL_ASSEMBLY_MEMBERS
100
AcDbLine
 62
7
  6
CONTINUOUS
 10
4.0419355701
 20
3.6703325275
 11
4.4287351026
 21
3.6703325275
  0
LINE
  5
232
100
AcDbEntity
  8
ALL_ASSEMBLY_MEMBERS
100
AcDbLine
 62
7
  6
CONTINUOUS
 10
4.4287351026
 20
3.6703325275
 11
4.3680853363
 21
4.0736482919
  0
LINE
  5
233
100
AcDbEntity
  8
ALL_ASSEMBLY_MEMBERS
100
AcDbLine
 62
7
  6
CONTINUOUS
 10
4.3918353363
 20
4.6506482919
 11
4.3918353363
 21
4.1606482919
  0
LINE
  5
234
100
AcDbEntity
  8
ALL_ASSEMBLY_MEMBERS
100
AcDbLine
 62
7
  6
CONTINUOUS
 10
4.4367903364
 20
4.5293846231
 11
4.4367903364
 21
4.5289897985
  0
LINE
  5
235
100
AcDbEntity
  8
ALL_ASSEMBLY_MEMBERS
100
AcDbLine
 62
7
  6
CONTINUOUS
 10
4.4493353363
 20
4.5413256052
 11
4.4493353363
 21
4.5297785998
  0
LINE
  5
236
100
AcDbEntity
  8
ALL_ASSEMBLY_MEMBERS
100
AcDbLine
 62
7
  6
CONTINUOUS
 10
4.4693353363
 20
4.5470991079
 11
4.4693353363
 21
4.5240050971
  0
LINE
  5
237
100
AcDbEntity
  8
ALL_ASSEMBLY_MEMBERS
100
AcDbLine
 62
7
  6
CONTINUOUS
 10
4.4893353363
 20
4.5297785998
 11
4.4893353363
 21
4.5413256052
  0
LINE
  5
238
100
AcDbEntity
  8
ALL_ASSEMBLY_MEMBERS
100
AcDbLine
 62
7
  6
CONTINUOUS
 10
4.5468353363
 20
4.5618982919
 11
4.5468353363
 21
4.2493982919
  0
LINE
  5
239
100
AcDbEntity
  8
ALL_ASSEMBLY_MEMBERS
100
AcDbLine
 62
7
  6
CONTINUOUS
 10
4.5548353363
 20
4.5806700129
 11
4.5548353363
 21
4.2306265709
  0
LINE
  5
23A
100
AcDbEntity
  8
ALL_ASSEMBLY_MEMBERS
100
AcDbLine
 62
7
  6
CONTINUOUS
 10
4.5771678816
 20
4.6118982919
 11
4.5771678816
 21
4.1993982919
  0
LINE
  5
23B
100
AcDbEntity
  8
ALL_ASSEMBLY_MEMBERS
100
AcDbLine
 62
7
  6
CONTINUOUS
 10
4.4440239423
 20
4.5445010317
 11
4.4408688992
 21
4.5422700793
  0
LINE
  5
23C
100
AcDbEntity
  8
ALL_ASSEMBLY_MEMBERS
100
AcDbLine
 62
7
  6
CONTINUOUS
 10
5.50168573
 20
3.9131482919
 11
5.6293855759
 21
3.9131482919
  0
LINE
  5
23D
100
AcDbEntity
  8
ALL_ASSEMBLY_MEMBERS
100
AcDbLine
 62
7
  6
CONTINUOUS
 10
5.3048353363
 20
3.9206482919
 11
4.877371411
 21
3.9206482919
  0
LINE
  5
23E
100
AcDbEntity
  8
ALL_ASSEMBLY_MEMBERS
100
AcDbLine
 62
7
  6
CONTINUOUS
 10
5.4496188009
 20
3.9208982919
 11
5.438674758
 21
3.9208982919
  0
LINE
  5
23F
100
AcDbEntity
  8
ALL_ASSEMBLY_MEMBERS
100
AcDbLine
 62
7
  6
CONTINUOUS
 10
5.4149626598
 20
3.9209262411
 11
5.4040186169
 21
3.9209262411
  0
LINE
  5
240
100
AcDbEntity
  8
ALL_ASSEMBLY_MEMBERS
100
AcDbLine
 62
7
  6
CONTINUOUS
 10
5.438674758
 20
3.9226319993
 11
5.4149626598
 21
3.9226319993
  0
LINE
  5
241
100
AcDbEntity
  8
ALL_ASSEMBLY_MEMBERS
100
AcDbLine
 62
7
  6
CONTINUOUS
 10
5.4040186169
 20
3.9226319993
 11
5.3638904544
 21
3.9226319993
  0
LINE
  5
242
100
AcDbEntity
  8
ALL_ASSEMBLY_MEMBERS
100
AcDbLine
 62
7
  6
CONTINUOUS
 10
5.3048353363
 20
3.9233648274
 11
5.3638904544
 21
3.9233648274
  0
LINE
  5
243
100
AcDbEntity
  8
ALL_ASSEMBLY_MEMBERS
100
AcDbLine
 62
7
  6
CONTINUOUS
 10
5.4496188009
 20
3.9233648274
 11
5.50168573
 21
3.9233648274
  0
LINE
  5
244
100
AcDbEntity
  8
ALL_ASSEMBLY_MEMBERS
100
AcDbLine
 62
7
  6
CONTINUOUS
 10
5.4496188009
 20
3.923402833
 11
5.3638904544
 21
3.923402833
  0
LINE
  5
245
100
AcDbEntity
  8
ALL_ASSEMBLY_MEMBERS
100
AcDbLine
 62
7
  6
CONTINUOUS
 10
5.4219215009
 20
3.9258822444
 11
5.3638904544
 21
3.9258822444
  0
LINE
  5
246
100
AcDbEntity
  8
ALL_ASSEMBLY_MEMBERS
100
AcDbLine
 62
7
  6
CONTINUOUS
 10
4.3315694341
 20
4.1606545405
 11
4.3315853363
 21
4.1606482919
  0
LINE
  5
247
100
AcDbEntity
  8
ALL_ASSEMBLY_MEMBERS
100
AcDbLine
 62
7
  6
CONTINUOUS
 10
4.6798353363
 20
4.7289195027
 11
4.6798353363
 21
4.0823770811
  0
LINE
  5
248
100
AcDbEntity
  8
ALL_ASSEMBLY_MEMBERS
100
AcDbLine
 62
7
  6
CONTINUOUS
 10
4.4693353363
 20
4.5470991079
 11
4.4493353363
 21
4.5413256052
  0
LINE
  5
249
100
AcDbEntity
  8
ALL_ASSEMBLY_MEMBERS
100
AcDbLine
 62
7
  6
CONTINUOUS
 10
4.4693353363
 20
4.5240050971
 11
4.4893353363
 21
4.5297785998
  0
LINE
  5
24A
100
AcDbEntity
  8
ALL_ASSEMBLY_MEMBERS
100
AcDbLine
 62
7
  6
CONTINUOUS
 10
4.3683346679
 20
4.073646955
 11
4.1023360048
 21
4.073646955
  0
LINE
  5
24B
100
AcDbEntity
  8
ALL_ASSEMBLY_MEMBERS
100
AcDbLine
 62
7
  6
CONTINUOUS
 10
4.1023360048
 20
4.1201482919
 11
4.3683346679
 21
4.1201482919
  0
LINE
  5
24C
100
AcDbEntity
  8
ALL_ASSEMBLY_MEMBERS
100
AcDbLine
 62
7
  6
CONTINUOUS
 10
4.877371411
 20
4.8906482919
 11
4.877371411
 21
3.9206482919
  0
LINE
  5
24D
100
AcDbEntity
  8
ALL_ASSEMBLY_MEMBERS
100
AcDbLine
 62
7
  6
CONTINUOUS
 10
4.9118353363
 20
4.8876369732
 11
4.9118353363
 21
5.00143156
  0
LINE
  5
24E
100
AcDbEntity
  8
ALL_ASSEMBLY_MEMBERS
100
AcDbLine
 62
7
  6
CONTINUOUS
 10
4.1440853363
 20
4.1516482919
 11
4.3265853363
 21
4.1516482919
  0
LINE
  5
24F
100
AcDbEntity
  8
ALL_ASSEMBLY_MEMBERS
100
AcDbLine
 62
7
  6
CONTINUOUS
 10
4.0793353363
 20
4.1606482919
 11
4.1390853363
 21
4.1606482919
  0
LINE
  5
250
100
AcDbEntity
  8
ALL_ASSEMBLY_MEMBERS
100
AcDbLine
 62
7
  6
CONTINUOUS
 10
4.3315853363
 20
4.1606482919
 11
4.3918353363
 21
4.1606482919
  0
LINE
  5
251
100
AcDbEntity
  8
ALL_ASSEMBLY_MEMBERS
100
AcDbLine
 62
7
  6
CONTINUOUS
 10
5.4149626598
 20
4.1770374862
 11
5.3985465955
 21
4.1770374862
  0
LINE
  5
252
100
AcDbEntity
  8
ALL_ASSEMBLY_MEMBERS
100
AcDbLine
 62
7
  6
CONTINUOUS
 10
5.4131386527
 20
4.1831797679
 11
5.4003706026
 21
4.1831797679
  0
LINE
  5
253
100
AcDbEntity
  8
ALL_ASSEMBLY_MEMBERS
100
AcDbLine
 62
7
  6
CONTINUOUS
 10
5.4131386527
 20
4.1840303373
 11
5.4003706026
 21
4.1840303373
  0
LINE
  5
254
100
AcDbEntity
  8
ALL_ASSEMBLY_MEMBERS
100
AcDbLine
 62
7
  6
CONTINUOUS
 10
5.4131386527
 20
4.215667188
 11
5.4003706026
 21
4.215667188
  0
LINE
  5
255
100
AcDbEntity
  8
ALL_ASSEMBLY_MEMBERS
100
AcDbLine
 62
7
  6
CONTINUOUS
 10
5.4149626598
 20
4.2220190854
 11
5.3985465955
 21
4.2220190854
  0
LINE
  5
256
100
AcDbEntity
  8
ALL_ASSEMBLY_MEMBERS
100
AcDbLine
 62
7
  6
CONTINUOUS
 10
5.4149626598
 20
4.2228633503
 11
5.3985465955
 21
4.2228633503
  0
LINE
  5
257
100
AcDbEntity
  8
ALL_ASSEMBLY_MEMBERS
100
AcDbLine
 62
7
  6
CONTINUOUS
 10
5.4295547222
 20
4.2322516637
 11
5.4259067028
 21
4.2322516637
  0
LINE
  5
258
100
AcDbEntity
  8
ALL_ASSEMBLY_MEMBERS
100
AcDbLine
 62
7
  6
CONTINUOUS
 10
5.3730104915
 20
4.2322516637
 11
5.3638904544
 21
4.2322516637
  0
LINE
  5
259
100
AcDbEntity
  8
ALL_ASSEMBLY_MEMBERS
100
AcDbLine
 62
7
  6
CONTINUOUS
 10
5.4295547222
 20
4.2399821729
 11
5.4259067028
 21
4.2399821729
  0
LINE
  5
25A
100
AcDbEntity
  8
ALL_ASSEMBLY_MEMBERS
100
AcDbLine
 62
7
  6
CONTINUOUS
 10
5.4295547222
 20
4.2408257777
 11
5.4259067028
 21
4.2408257777
  0
LINE
  5
25B
100
AcDbEntity
  8
ALL_ASSEMBLY_MEMBERS
100
AcDbLine
 62
7
  6
CONTINUOUS
 10
4.3918353363
 20
4.2493982919
 11
4.5468353363
 21
4.2493982919
  0
LINE
  5
25C
100
AcDbEntity
  8
ALL_ASSEMBLY_MEMBERS
100
AcDbLine
 62
7
  6
CONTINUOUS
 10
5.3730104915
 20
4.2793563996
 11
5.3638904544
 21
4.2793563996
  0
LINE
  5
25D
100
AcDbEntity
  8
ALL_ASSEMBLY_MEMBERS
100
AcDbLine
 62
7
  6
CONTINUOUS
 10
5.3730104915
 20
4.2802031128
 11
5.3638904544
 21
4.2802031128
  0
LINE
  5
25E
100
AcDbEntity
  8
ALL_ASSEMBLY_MEMBERS
100
AcDbLine
 62
7
  6
CONTINUOUS
 10
4.4946467303
 20
4.5445010317
 11
4.5002612571
 21
4.5405309617
  0
LINE
  5
25F
100
AcDbEntity
  8
ALL_ASSEMBLY_MEMBERS
100
AcDbLine
 62
7
  6
CONTINUOUS
 10
5.0418353363
 20
4.8876374479
 11
5.0418353363
 21
5.00143156
  0
LINE
  5
260
100
AcDbEntity
  8
ALL_ASSEMBLY_MEMBERS
100
AcDbLine
 62
7
  6
CONTINUOUS
 10
4.1390853363
 20
4.1606482919
 11
4.1391011675
 21
4.1606545368
  0
LINE
  5
261
100
AcDbEntity
  8
ALL_ASSEMBLY_MEMBERS
100
AcDbLine
 62
7
  6
CONTINUOUS
 10
5.4496188009
 20
4.2900604644
 11
5.3638904544
 21
4.2900604644
  0
LINE
  5
262
100
AcDbEntity
  8
ALL_ASSEMBLY_MEMBERS
100
AcDbLine
 62
7
  6
CONTINUOUS
 10
5.4350267436
 20
4.2981455254
 11
5.3638904544
 21
4.2981455254
  0
LINE
  5
263
100
AcDbEntity
  8
ALL_ASSEMBLY_MEMBERS
100
AcDbLine
 62
7
  6
CONTINUOUS
 10
5.4336886473
 20
4.2989958454
 11
5.3638904544
 21
4.2989958454
  0
LINE
  5
264
100
AcDbEntity
  8
ALL_ASSEMBLY_MEMBERS
100
AcDbLine
 62
7
  6
CONTINUOUS
 10
5.4368507508
 20
4.3062797786
 11
5.4222586885
 21
4.3062797786
  0
LINE
  5
265
100
AcDbEntity
  8
ALL_ASSEMBLY_MEMBERS
100
AcDbLine
 62
7
  6
CONTINUOUS
 10
5.4368507508
 20
4.3071320804
 11
5.4222586885
 21
4.3071320804
  0
LINE
  5
266
100
AcDbEntity
  8
ALL_ASSEMBLY_MEMBERS
100
AcDbLine
 62
7
  6
CONTINUOUS
 10
4.5548353363
 20
4.3137737285
 11
4.5468353363
 21
4.3137737285
  0
LINE
  5
267
100
AcDbEntity
  8
ALL_ASSEMBLY_MEMBERS
100
AcDbLine
 62
7
  6
CONTINUOUS
 10
4.5548353363
 20
4.3166578313
 11
4.5468353363
 21
4.3166578313
  0
LINE
  5
268
100
AcDbEntity
  8
ALL_ASSEMBLY_MEMBERS
100
AcDbLine
 62
7
  6
CONTINUOUS
 10
4.5548353363
 20
4.324876695
 11
4.5468353363
 21
4.324876695
  0
LINE
  5
269
100
AcDbEntity
  8
ALL_ASSEMBLY_MEMBERS
100
AcDbLine
 62
7
  6
CONTINUOUS
 10
4.5548353363
 20
4.3330899251
 11
4.5468353363
 21
4.3330899251
  0
LINE
  5
26A
100
AcDbEntity
  8
ALL_ASSEMBLY_MEMBERS
100
AcDbLine
 62
7
  6
CONTINUOUS
 10
4.5468353363
 20
4.3445404547
 11
4.5548353363
 21
4.3445404547
  0
LINE
  5
26B
100
AcDbEntity
  8
ALL_ASSEMBLY_MEMBERS
100
AcDbLine
 62
7
  6
CONTINUOUS
 10
4.5548353363
 20
4.3482764051
 11
4.5468353363
 21
4.3482764051
  0
LINE
  5
26C
100
AcDbEntity
  8
ALL_ASSEMBLY_MEMBERS
100
AcDbLine
 62
7
  6
CONTINUOUS
 10
4.5548353363
 20
4.3605683725
 11
4.5468353363
 21
4.3605683725
  0
LINE
  5
26D
100
AcDbEntity
  8
ALL_ASSEMBLY_MEMBERS
100
AcDbLine
 62
7
  6
CONTINUOUS
 10
4.5468353363
 20
4.3699731484
 11
4.5548353363
 21
4.3699731484
  0
LINE
  5
26E
100
AcDbEntity
  8
ALL_ASSEMBLY_MEMBERS
100
AcDbLine
 62
7
  6
CONTINUOUS
 10
4.5468353363
 20
4.3788631472
 11
4.5548353363
 21
4.3788631472
  0
LINE
  5
26F
100
AcDbEntity
  8
ALL_ASSEMBLY_MEMBERS
100
AcDbLine
 62
7
  6
CONTINUOUS
 10
4.5548353363
 20
4.3804104648
 11
4.5468353363
 21
4.3804104648
  0
LINE
  5
270
100
AcDbEntity
  8
ALL_ASSEMBLY_MEMBERS
100
AcDbLine
 62
7
  6
CONTINUOUS
 10
5.4524731316
 20
4.3928530163
 11
5.3638904544
 21
4.3928530163
  0
LINE
  5
271
100
AcDbEntity
  8
ALL_ASSEMBLY_MEMBERS
100
AcDbLine
 62
7
  6
CONTINUOUS
 10
4.5548353363
 20
4.3949098289
 11
4.5468353363
 21
4.3949098289
  0
LINE
  5
272
100
AcDbEntity
  8
ALL_ASSEMBLY_MEMBERS
100
AcDbLine
 62
7
  6
CONTINUOUS
 10
4.5468353363
 20
4.4008370592
 11
4.5548353363
 21
4.4008370592
  0
LINE
  5
273
100
AcDbEntity
  8
ALL_ASSEMBLY_MEMBERS
100
AcDbLine
 62
7
  6
CONTINUOUS
 10
4.5468353363
 20
4.4104595246
 11
4.5548353363
 21
4.4104595246
  0
LINE
  5
274
100
AcDbEntity
  8
ALL_ASSEMBLY_MEMBERS
100
AcDbLine
 62
7
  6
CONTINUOUS
 10
4.5548353363
 20
4.4163867549
 11
4.5468353363
 21
4.4163867549
  0
LINE
  5
275
100
AcDbEntity
  8
ALL_ASSEMBLY_MEMBERS
100
AcDbLine
 62
7
  6
CONTINUOUS
 10
5.4524731316
 20
4.4184435675
 11
5.3638904544
 21
4.4184435675
  0
LINE
  5
276
100
AcDbEntity
  8
ALL_ASSEMBLY_MEMBERS
100
AcDbLine
 62
7
  6
CONTINUOUS
 10
4.4493353363
 20
4.5297785998
 11
4.4693353363
 21
4.5240050971
  0
LINE
  5
277
100
AcDbEntity
  8
ALL_ASSEMBLY_MEMBERS
100
AcDbLine
 62
7
  6
CONTINUOUS
 10
4.4893353363
 20
4.5413256052
 11
4.4693353363
 21
4.5470991079
  0
LINE
  5
278
100
AcDbEntity
  8
ALL_ASSEMBLY_MEMBERS
100
AcDbLine
 62
7
  6
CONTINUOUS
 10
4.5548353363
 20
4.4308861191
 11
4.5468353363
 21
4.4308861191
  0
LINE
  5
279
100
AcDbEntity
  8
ALL_ASSEMBLY_MEMBERS
100
AcDbLine
 62
7
  6
CONTINUOUS
 10
4.5468353363
 20
4.4324334367
 11
4.5548353363
 21
4.4324334367
  0
LINE
  5
27A
100
AcDbEntity
  8
ALL_ASSEMBLY_MEMBERS
100
AcDbLine
 62
7
  6
CONTINUOUS
 10
4.5468353363
 20
4.4413234355
 11
4.5548353363
 21
4.4413234355
  0
LINE
  5
27B
100
AcDbEntity
  8
ALL_ASSEMBLY_MEMBERS
100
AcDbLine
 62
7
  6
CONTINUOUS
 10
4.5548353363
 20
4.4507282114
 11
4.5468353363
 21
4.4507282114
  0
LINE
  5
27C
100
AcDbEntity
  8
ALL_ASSEMBLY_MEMBERS
100
AcDbLine
 62
7
  6
CONTINUOUS
 10
4.5548353363
 20
4.4630201788
 11
4.5468353363
 21
4.4630201788
  0
LINE
  5
27D
100
AcDbEntity
  8
ALL_ASSEMBLY_MEMBERS
100
AcDbLine
 62
7
  6
CONTINUOUS
 10
4.5468353363
 20
4.4667561291
 11
4.5548353363
 21
4.4667561291
  0
LINE
  5
27E
100
AcDbEntity
  8
ALL_ASSEMBLY_MEMBERS
100
AcDbLine
 62
7
  6
CONTINUOUS
 10
4.5548353363
 20
4.4782066588
 11
4.5468353363
 21
4.4782066588
  0
LINE
  5
27F
100
AcDbEntity
  8
ALL_ASSEMBLY_MEMBERS
100
AcDbLine
 62
7
  6
CONTINUOUS
 10
4.5548353363
 20
4.4864198888
 11
4.5468353363
 21
4.4864198888
  0
LINE
  5
280
100
AcDbEntity
  8
ALL_ASSEMBLY_MEMBERS
100
AcDbLine
 62
7
  6
CONTINUOUS
 10
4.5548353363
 20
4.4946387525
 11
4.5468353363
 21
4.4946387525
  0
LINE
  5
281
100
AcDbEntity
  8
ALL_ASSEMBLY_MEMBERS
100
AcDbLine
 62
7
  6
CONTINUOUS
 10
4.5548353363
 20
4.4975228554
 11
4.5468353363
 21
4.4975228554
  0
LINE
  5
282
100
AcDbEntity
  8
ALL_ASSEMBLY_MEMBERS
100
AcDbLine
 62
7
  6
CONTINUOUS
 10
5.3948985786
 20
4.5061991534
 11
5.38760255
 21
4.5061991534
  0
LINE
  5
283
100
AcDbEntity
  8
ALL_ASSEMBLY_MEMBERS
100
AcDbLine
 62
7
  6
CONTINUOUS
 10
5.3948985786
 20
4.5070509358
 11
5.38760255
 21
4.5070509358
  0
LINE
  5
284
100
AcDbEntity
  8
ALL_ASSEMBLY_MEMBERS
100
AcDbLine
 62
7
  6
CONTINUOUS
 10
5.4496188009
 20
4.5097220661
 11
5.4404987651
 21
4.5097220661
  0
LINE
  5
285
100
AcDbEntity
  8
ALL_ASSEMBLY_MEMBERS
100
AcDbLine
 62
7
  6
CONTINUOUS
 10
5.4496188009
 20
4.5105729868
 11
5.4404987651
 21
4.5105729868
  0
LINE
  5
286
100
AcDbEntity
  8
ALL_ASSEMBLY_MEMBERS
100
AcDbLine
 62
7
  6
CONTINUOUS
 10
5.3930745714
 20
4.5158387409
 11
5.3894265571
 21
4.5158387409
  0
LINE
  5
287
100
AcDbEntity
  8
ALL_ASSEMBLY_MEMBERS
100
AcDbLine
 62
7
  6
CONTINUOUS
 10
5.4404987651
 20
4.5597714744
 11
5.411859905
 21
4.5597714744
  0
LINE
  5
288
100
AcDbEntity
  8
ALL_ASSEMBLY_MEMBERS
100
AcDbLine
 62
7
  6
CONTINUOUS
 10
5.4404987651
 20
4.5606153168
 11
5.4113146455
 21
4.5606153168
  0
LINE
  5
289
100
AcDbEntity
  8
ALL_ASSEMBLY_MEMBERS
100
AcDbLine
 62
7
  6
CONTINUOUS
 10
4.3918353363
 20
4.5618982919
 11
4.5468353363
 21
4.5618982919
  0
LINE
  5
28A
100
AcDbEntity
  8
ALL_ASSEMBLY_MEMBERS
100
AcDbLine
 62
7
  6
CONTINUOUS
 10
5.3048353363
 20
4.8906482919
 11
5.3048353363
 21
3.9206482919
  0
LINE
  5
28B
100
AcDbEntity
  8
ALL_ASSEMBLY_MEMBERS
100
AcDbLine
 62
7
  6
CONTINUOUS
 10
5.3638904544
 20
4.8901126394
 11
5.3638904544
 21
4.8859322577
  0
LINE
  5
28C
100
AcDbEntity
  8
ALL_ASSEMBLY_MEMBERS
100
AcDbLine
 62
7
  6
CONTINUOUS
 10
5.3638904544
 20
3.9226319993
 11
5.3638904544
 21
3.9258822444
  0
LINE
  5
28D
100
AcDbEntity
  8
ALL_ASSEMBLY_MEMBERS
100
AcDbLine
 62
7
  6
CONTINUOUS
 10
5.3638904544
 20
4.2322516637
 11
5.3638904544
 21
4.2802031128
  0
LINE
  5
28E
100
AcDbEntity
  8
ALL_ASSEMBLY_MEMBERS
100
AcDbLine
 62
7
  6
CONTINUOUS
 10
5.3638904544
 20
4.2900604644
 11
5.3638904544
 21
4.2989958454
  0
LINE
  5
28F
100
AcDbEntity
  8
ALL_ASSEMBLY_MEMBERS
100
AcDbLine
 62
7
  6
CONTINUOUS
 10
5.3638904544
 20
4.3928530163
 11
5.3638904544
 21
4.4184435675
  0
LINE
  5
290
100
AcDbEntity
  8
ALL_ASSEMBLY_MEMBERS
100
AcDbLine
 62
7
  6
CONTINUOUS
 10
5.3638904544
 20
4.533242194
 11
5.3638904544
 21
4.5435749618
  0
LINE
  5
291
100
AcDbEntity
  8
ALL_ASSEMBLY_MEMBERS
100
AcDbLine
 62
7
  6
CONTINUOUS
 10
5.3638904544
 20
4.5815870984
 11
5.3638904544
 21
4.5923713348
  0
LINE
  5
292
100
AcDbEntity
  8
ALL_ASSEMBLY_MEMBERS
100
AcDbLine
 62
7
  6
CONTINUOUS
 10
5.3638904544
 20
4.6144011654
 11
5.3638904544
 21
4.6249168447
  0
LINE
  5
293
100
AcDbEntity
  8
ALL_ASSEMBLY_MEMBERS
100
AcDbLine
 62
7
  6
CONTINUOUS
 10
5.3638904544
 20
4.7932336475
 11
5.3638904544
 21
4.80993296
  0
LINE
  5
294
100
AcDbEntity
  8
ALL_ASSEMBLY_MEMBERS
100
AcDbLine
 62
7
  6
CONTINUOUS
 10
5.3657144617
 20
4.8903257195
 11
5.3657144617
 21
4.8890878571
  0
LINE
  5
295
100
AcDbEntity
  8
ALL_ASSEMBLY_MEMBERS
100
AcDbLine
 62
7
  6
CONTINUOUS
 10
5.3657144617
 20
4.8875879534
 11
5.3657144617
 21
4.8851069606
  0
LINE
  5
296
100
AcDbEntity
  8
ALL_ASSEMBLY_MEMBERS
100
AcDbLine
 62
7
  6
CONTINUOUS
 10
5.3657144617
 20
4.524569039
 11
5.3657144617
 21
4.5237210724
  0
LINE
  5
297
100
AcDbEntity
  8
ALL_ASSEMBLY_MEMBERS
100
AcDbLine
 62
7
  6
CONTINUOUS
 10
5.3657144617
 20
4.2068308345
 11
5.3657144617
 21
4.2076767377
  0
LINE
  5
298
100
AcDbEntity
  8
ALL_ASSEMBLY_MEMBERS
100
AcDbLine
 62
7
  6
CONTINUOUS
 10
5.3711864837
 20
4.8903959352
 11
5.3711864837
 21
4.8895453687
  0
LINE
  5
299
100
AcDbEntity
  8
ALL_ASSEMBLY_MEMBERS
100
AcDbLine
 62
7
  6
CONTINUOUS
 10
5.3711864837
 20
4.8867945883
 11
5.3711864837
 21
4.8843094834
  0
LINE
  5
29A
100
AcDbEntity
  8
ALL_ASSEMBLY_MEMBERS
100
AcDbLine
 62
7
  6
CONTINUOUS
 10
5.3711864837
 20
4.5158387409
 11
5.3711864837
 21
4.5149890199
  0
LINE
  5
29B
100
AcDbEntity
  8
ALL_ASSEMBLY_MEMBERS
100
AcDbLine
 62
7
  6
CONTINUOUS
 10
5.3711864837
 20
4.2131358077
 11
5.3711864837
 21
4.2139809071
  0
LINE
  5
29C
100
AcDbEntity
  8
ALL_ASSEMBLY_MEMBERS
100
AcDbLine
 62
7
  6
CONTINUOUS
 10
5.3730104915
 20
4.2322516637
 11
5.3730104915
 21
4.2687386897
  0
LINE
  5
29D
100
AcDbEntity
  8
ALL_ASSEMBLY_MEMBERS
100
AcDbLine
 62
7
  6
CONTINUOUS
 10
5.3730104915
 20
4.2793563996
 11
5.3730104915
 21
4.2802031128
  0
LINE
  5
29E
100
AcDbEntity
  8
ALL_ASSEMBLY_MEMBERS
100
AcDbLine
 62
7
  6
CONTINUOUS
 10
5.3730104915
 20
4.533242194
 11
5.3730104915
 21
4.5435749618
  0
LINE
  5
29F
100
AcDbEntity
  8
ALL_ASSEMBLY_MEMBERS
100
AcDbLine
 62
7
  6
CONTINUOUS
 10
5.3748344986
 20
4.8889845648
 11
5.3748344986
 21
4.8877347011
  0
LINE
  5
2A0
100
AcDbEntity
  8
ALL_ASSEMBLY_MEMBERS
100
AcDbLine
 62
7
  6
CONTINUOUS
 10
5.3748344986
 20
4.5504181916
 11
5.3748344986
 21
4.5495736971
  0
LINE
  5
2A1
100
AcDbEntity
  8
ALL_ASSEMBLY_MEMBERS
100
AcDbLine
 62
7
  6
CONTINUOUS
 10
5.3748344986
 20
4.1930784611
 11
5.3748344986
 21
4.193926751
  0
LINE
  5
2A2
100
AcDbEntity
  8
ALL_ASSEMBLY_MEMBERS
100
AcDbLine
 62
7
  6
CONTINUOUS
 10
5.3766585058
 20
4.8903912434
 11
5.3766585058
 21
4.8897727919
  0
LINE
  5
2A3
100
AcDbEntity
  8
ALL_ASSEMBLY_MEMBERS
100
AcDbLine
 62
7
  6
CONTINUOUS
 10
5.3766585058
 20
4.8862707229
 11
5.3766585058
 21
4.8837828952
  0
LINE
  5
2A4
100
AcDbEntity
  8
ALL_ASSEMBLY_MEMBERS
100
AcDbLine
 62
7
  6
CONTINUOUS
 10
5.3766585058
 20
4.2169348924
 11
5.3766585058
 21
4.2177795927
  0
LINE
  5
2A5
100
AcDbEntity
  8
ALL_ASSEMBLY_MEMBERS
100
AcDbLine
 62
7
  6
CONTINUOUS
 10
5.3784825129
 20
4.8892826455
 11
5.3784825129
 21
4.8872825447
  0
LINE
  5
2A6
100
AcDbEntity
  8
ALL_ASSEMBLY_MEMBERS
100
AcDbLine
 62
7
  6
CONTINUOUS
 10
5.3784825129
 20
4.5555269006
 11
5.3784825129
 21
4.5546827842
  0
LINE
  5
2A7
100
AcDbEntity
  8
ALL_ASSEMBLY_MEMBERS
100
AcDbLine
 62
7
  6
CONTINUOUS
 10
5.3784825129
 20
4.5105729868
 11
5.3784825129
 21
4.5097220661
  0
LINE
  5
2A8
100
AcDbEntity
  8
ALL_ASSEMBLY_MEMBERS
100
AcDbLine
 62
7
  6
CONTINUOUS
 10
5.3784825129
 20
4.1893562398
 11
5.3784825129
 21
4.1902053302
  0
LINE
  5
2A9
100
AcDbEntity
  8
ALL_ASSEMBLY_MEMBERS
100
AcDbLine
 62
7
  6
CONTINUOUS
 10
5.3839545357
 20
4.8903686074
 11
5.3839545357
 21
4.889904821
  0
LINE
  5
2AA
100
AcDbEntity
  8
ALL_ASSEMBLY_MEMBERS
100
AcDbLine
 62
7
  6
CONTINUOUS
 10
5.3839545357
 20
4.8859014714
 11
5.3839545357
 21
4.883411721
  0
LINE
  5
2AB
100
AcDbEntity
  8
ALL_ASSEMBLY_MEMBERS
100
AcDbLine
 62
7
  6
CONTINUOUS
 10
5.3839545357
 20
4.2194743119
 11
5.3839545357
 21
4.2203187808
  0
LINE
  5
2AC
100
AcDbEntity
  8
ALL_ASSEMBLY_MEMBERS
100
AcDbLine
 62
7
  6
CONTINUOUS
 10
5.3857785428
 20
4.5580775109
 11
5.3857785428
 21
4.5690509669
  0
LINE
  5
2AD
100
AcDbEntity
  8
ALL_ASSEMBLY_MEMBERS
100
AcDbLine
 62
7
  6
CONTINUOUS
 10
5.38760255
 20
4.5070509358
 11
5.38760255
 21
4.5061991534
  0
LINE
  5
2AE
100
AcDbEntity
  8
ALL_ASSEMBLY_MEMBERS
100
AcDbLine
 62
7
  6
CONTINUOUS
 10
5.3894265571
 20
4.8903514361
 11
5.3894265571
 21
4.8899649648
  0
LINE
  5
2AF
100
AcDbEntity
  8
ALL_ASSEMBLY_MEMBERS
100
AcDbLine
 62
7
  6
CONTINUOUS
 10
5.3894265571
 20
4.8896250958
 11
5.3894265571
 21
4.8871545996
  0
LINE
  5
2B0
100
AcDbEntity
  8
ALL_ASSEMBLY_MEMBERS
100
AcDbLine
 62
7
  6
CONTINUOUS
 10
5.3894265571
 20
4.8857108309
 11
5.3894265571
 21
4.8832200866
  0
LINE
  5
2B1
100
AcDbEntity
  8
ALL_ASSEMBLY_MEMBERS
100
AcDbLine
 62
7
  6
CONTINUOUS
 10
5.3894265571
 20
4.1844123288
 11
5.3894265571
 21
4.1852625878
  0
LINE
  5
2B2
100
AcDbEntity
  8
ALL_ASSEMBLY_MEMBERS
100
AcDbLine
 62
7
  6
CONTINUOUS
 10
5.3894265571
 20
4.2207460333
 11
5.3894265571
 21
4.2215903968
  0
LINE
  5
2B3
100
AcDbEntity
  8
ALL_ASSEMBLY_MEMBERS
100
AcDbLine
 62
7
  6
CONTINUOUS
 10
5.4496188009
 20
4.5690509669
 11
5.4021946098
 21
4.5690509669
  0
LINE
  5
2B4
100
AcDbEntity
  8
ALL_ASSEMBLY_MEMBERS
100
AcDbLine
 62
7
  6
CONTINUOUS
 10
5.4496188009
 20
4.5815870984
 11
5.3638904544
 21
4.5815870984
  0
LINE
  5
2B5
100
AcDbEntity
  8
ALL_ASSEMBLY_MEMBERS
100
AcDbLine
 62
7
  6
CONTINUOUS
 10
5.4496188009
 20
4.5824309522
 11
5.3638904544
 21
4.5824309522
  0
LINE
  5
2B6
100
AcDbEntity
  8
ALL_ASSEMBLY_MEMBERS
100
AcDbLine
 62
7
  6
CONTINUOUS
 10
5.4350267436
 20
4.5923713348
 11
5.3638904544
 21
4.5923713348
  0
LINE
  5
2B7
100
AcDbEntity
  8
ALL_ASSEMBLY_MEMBERS
100
AcDbLine
 62
7
  6
CONTINUOUS
 10
5.4368507508
 20
4.602230426
 11
5.4222586885
 21
4.602230426
  0
LINE
  5
2B8
100
AcDbEntity
  8
ALL_ASSEMBLY_MEMBERS
100
AcDbLine
 62
7
  6
CONTINUOUS
 10
5.4496188009
 20
4.6144011654
 11
5.3638904544
 21
4.6144011654
  0
LINE
  5
2B9
100
AcDbEntity
  8
ALL_ASSEMBLY_MEMBERS
100
AcDbLine
 62
7
  6
CONTINUOUS
 10
5.4496188009
 20
4.6152488647
 11
5.3638904544
 21
4.6152488647
  0
LINE
  5
2BA
100
AcDbEntity
  8
ALL_ASSEMBLY_MEMBERS
100
AcDbLine
 62
7
  6
CONTINUOUS
 10
5.4350267436
 20
4.6249168447
 11
5.3638904544
 21
4.6249168447
  0
LINE
  5
2BB
100
AcDbEntity
  8
ALL_ASSEMBLY_MEMBERS
100
AcDbLine
 62
7
  6
CONTINUOUS
 10
5.4368507508
 20
4.6345020089
 11
5.4222586885
 21
4.6345020089
  0
LINE
  5
2BC
100
AcDbEntity
  8
ALL_ASSEMBLY_MEMBERS
100
AcDbLine
 62
7
  6
CONTINUOUS
 10
4.0793353363
 20
4.6506482919
 11
4.3918353363
 21
4.6506482919
  0
LINE
  5
2BD
100
AcDbEntity
  8
ALL_ASSEMBLY_MEMBERS
100
AcDbLine
 62
7
  6
CONTINUOUS
 10
5.3948985786
 20
4.5070509358
 11
5.3948985786
 21
4.5061991534
  0
LINE
  5
2BE
100
AcDbEntity
  8
ALL_ASSEMBLY_MEMBERS
100
AcDbLine
 62
7
  6
CONTINUOUS
 10
5.3985465955
 20
4.8903303624
 11
5.3985465955
 21
4.8900211962
  0
LINE
  5
2BF
100
AcDbEntity
  8
ALL_ASSEMBLY_MEMBERS
100
AcDbLine
 62
7
  6
CONTINUOUS
 10
5.3985465955
 20
4.8855161736
 11
5.3985465955
 21
4.8830244136
  0
LINE
  5
2C0
100
AcDbEntity
  8
ALL_ASSEMBLY_MEMBERS
100
AcDbLine
 62
7
  6
CONTINUOUS
 10
5.3985465955
 20
4.2220190854
 11
5.3985465955
 21
4.2228633503
  0
LINE
  5
2C1
100
AcDbEntity
  8
ALL_ASSEMBLY_MEMBERS
100
AcDbLine
 62
7
  6
CONTINUOUS
 10
5.4003706026
 20
4.889700903
 11
5.4003706026
 21
4.8872307958
  0
LINE
  5
2C2
100
AcDbEntity
  8
ALL_ASSEMBLY_MEMBERS
100
AcDbLine
 62
7
  6
CONTINUOUS
 10
5.4003706026
 20
4.1831797679
 11
5.4003706026
 21
4.1840303373
  0
LINE
  5
2C3
100
AcDbEntity
  8
ALL_ASSEMBLY_MEMBERS
100
AcDbLine
 62
7
  6
CONTINUOUS
 10
5.4021946098
 20
4.5563812779
 11
5.4021946098
 21
4.5690509669
  0
LINE
  5
2C4
100
AcDbEntity
  8
ALL_ASSEMBLY_MEMBERS
100
AcDbLine
 62
7
  6
CONTINUOUS
 10
5.4040186169
 20
4.5105729868
 11
5.4040186169
 21
4.5097220661
  0
LINE
  5
2C5
100
AcDbEntity
  8
ALL_ASSEMBLY_MEMBERS
100
AcDbLine
 62
7
  6
CONTINUOUS
 10
5.4040186169
 20
3.9209262411
 11
5.4040186169
 21
3.9226319993
  0
LINE
  5
2C6
100
AcDbEntity
  8
ALL_ASSEMBLY_MEMBERS
100
AcDbLine
 62
7
  6
CONTINUOUS
 10
5.4076666312
 20
4.5504181916
 11
5.4076666312
 21
4.5495736971
  0
LINE
  5
2C7
100
AcDbEntity
  8
ALL_ASSEMBLY_MEMBERS
100
AcDbLine
 62
7
  6
CONTINUOUS
 10
5.4094906384
 20
4.533242194
 11
5.4094906384
 21
4.5435749618
  0
LINE
  5
2C8
100
AcDbEntity
  8
ALL_ASSEMBLY_MEMBERS
100
AcDbLine
 62
7
  6
CONTINUOUS
 10
5.4113146455
 20
4.5158387409
 11
5.4113146455
 21
4.5149890199
  0
LINE
  5
2C9
100
AcDbEntity
  8
ALL_ASSEMBLY_MEMBERS
100
AcDbLine
 62
7
  6
CONTINUOUS
 10
5.4131386527
 20
4.889700903
 11
5.4131386527
 21
4.8872307958
  0
LINE
  5
2CA
100
AcDbEntity
  8
ALL_ASSEMBLY_MEMBERS
100
AcDbLine
 62
7
  6
CONTINUOUS
 10
5.4131386527
 20
4.1831797679
 11
5.4131386527
 21
4.1840303373
  0
LINE
  5
2CB
100
AcDbEntity
  8
ALL_ASSEMBLY_MEMBERS
100
AcDbLine
 62
7
  6
CONTINUOUS
 10
5.4149626598
 20
4.8903303624
 11
5.4149626598
 21
4.8900211962
  0
LINE
  5
2CC
100
AcDbEntity
  8
ALL_ASSEMBLY_MEMBERS
100
AcDbLine
 62
7
  6
CONTINUOUS
 10
5.4149626598
 20
4.8855161736
 11
5.4149626598
 21
4.8830244136
  0
LINE
  5
2CD
100
AcDbEntity
  8
ALL_ASSEMBLY_MEMBERS
100
AcDbLine
 62
7
  6
CONTINUOUS
 10
5.4149626598
 20
3.9209262411
 11
5.4149626598
 21
3.9226319993
  0
LINE
  5
2CE
100
AcDbEntity
  8
ALL_ASSEMBLY_MEMBERS
100
AcDbLine
 62
7
  6
CONTINUOUS
 10
5.4149626598
 20
4.2220190854
 11
5.4149626598
 21
4.2228633503
  0
LINE
  5
2CF
100
AcDbEntity
  8
ALL_ASSEMBLY_MEMBERS
100
AcDbLine
 62
7
  6
CONTINUOUS
 10
5.416786667
 20
4.524569039
 11
5.416786667
 21
4.5237210724
  0
LINE
  5
2D0
100
AcDbEntity
  8
ALL_ASSEMBLY_MEMBERS
100
AcDbLine
 62
7
  6
CONTINUOUS
 10
5.4186106741
 20
4.2425696824
 11
5.4186106741
 21
4.2434133023
  0
LINE
  5
2D1
100
AcDbEntity
  8
ALL_ASSEMBLY_MEMBERS
100
AcDbLine
 62
7
  6
CONTINUOUS
 10
5.4186106741
 20
4.533242194
 11
5.4186106741
 21
4.5435749618
  0
LINE
  5
2D2
100
AcDbEntity
  8
ALL_ASSEMBLY_MEMBERS
100
AcDbLine
 62
7
  6
CONTINUOUS
 10
5.4190085647
 20
3.9298360098
 11
5.4190085647
 21
3.927336103
  0
LINE
  5
2D3
100
AcDbEntity
  8
ALL_ASSEMBLY_MEMBERS
100
AcDbLine
 62
7
  6
CONTINUOUS
 10
5.4222586885
 20
4.6345020089
 11
5.4222586885
 21
4.6336497071
  0
LINE
  5
2D4
100
AcDbEntity
  8
ALL_ASSEMBLY_MEMBERS
100
AcDbLine
 62
7
  6
CONTINUOUS
 10
5.4222586885
 20
4.602230426
 11
5.4222586885
 21
4.6013848282
  0
LINE
  5
2D5
100
AcDbEntity
  8
ALL_ASSEMBLY_MEMBERS
100
AcDbLine
 62
7
  6
CONTINUOUS
 10
5.4222586885
 20
4.3062797786
 11
5.4222586885
 21
4.3071320804
  0
LINE
  5
2D6
100
AcDbEntity
  8
ALL_ASSEMBLY_MEMBERS
100
AcDbLine
 62
7
  6
CONTINUOUS
 10
5.4240826956
 20
4.8903514361
 11
5.4240826956
 21
4.8899649648
  0
LINE
  5
2D7
100
AcDbEntity
  8
ALL_ASSEMBLY_MEMBERS
100
AcDbLine
 62
7
  6
CONTINUOUS
 10
5.4240826956
 20
4.8896250958
 11
5.4240826956
 21
4.8871545996
  0
LINE
  5
2D8
100
AcDbEntity
  8
ALL_ASSEMBLY_MEMBERS
100
AcDbLine
 62
7
  6
CONTINUOUS
 10
5.4240826956
 20
4.8857108309
 11
5.4240826956
 21
4.8832200866
  0
LINE
  5
2D9
100
AcDbEntity
  8
ALL_ASSEMBLY_MEMBERS
100
AcDbLine
 62
7
  6
CONTINUOUS
 10
5.4240826956
 20
4.1844123288
 11
5.4240826956
 21
4.1852625878
  0
LINE
  5
2DA
100
AcDbEntity
  8
ALL_ASSEMBLY_MEMBERS
100
AcDbLine
 62
7
  6
CONTINUOUS
 10
5.4240826956
 20
4.2207460333
 11
5.4240826956
 21
4.2215903968
  0
LINE
  5
2DB
100
AcDbEntity
  8
ALL_ASSEMBLY_MEMBERS
100
AcDbLine
 62
7
  6
CONTINUOUS
 10
5.4259067028
 20
4.2399821729
 11
5.4259067028
 21
4.2408257777
  0
LINE
  5
2DC
100
AcDbEntity
  8
ALL_ASSEMBLY_MEMBERS
100
AcDbLine
 62
7
  6
CONTINUOUS
 10
5.4295547222
 20
4.8903686074
 11
5.4295547222
 21
4.889904821
  0
LINE
  5
2DD
100
AcDbEntity
  8
ALL_ASSEMBLY_MEMBERS
100
AcDbLine
 62
7
  6
CONTINUOUS
 10
5.4295547222
 20
4.8859014714
 11
5.4295547222
 21
4.883411721
  0
LINE
  5
2DE
100
AcDbEntity
  8
ALL_ASSEMBLY_MEMBERS
100
AcDbLine
 62
7
  6
CONTINUOUS
 10
5.4295547222
 20
4.2194743119
 11
5.4295547222
 21
4.2203187808
  0
LINE
  5
2DF
100
AcDbEntity
  8
ALL_ASSEMBLY_MEMBERS
100
AcDbLine
 62
7
  6
CONTINUOUS
 10
5.4295547222
 20
4.2399821729
 11
5.4295547222
 21
4.2408257777
  0
LINE
  5
2E0
100
AcDbEntity
  8
ALL_ASSEMBLY_MEMBERS
100
AcDbLine
 62
7
  6
CONTINUOUS
 10
5.4295547222
 20
4.2713850453
 11
5.4295547222
 21
4.2788709819
  0
LINE
  5
2E1
100
AcDbEntity
  8
ALL_ASSEMBLY_MEMBERS
100
AcDbLine
 62
7
  6
CONTINUOUS
 10
5.4350267436
 20
4.8892826455
 11
5.4350267436
 21
4.8872825447
  0
LINE
  5
2E2
100
AcDbEntity
  8
ALL_ASSEMBLY_MEMBERS
100
AcDbLine
 62
7
  6
CONTINUOUS
 10
5.4350267436
 20
4.1893562398
 11
5.4350267436
 21
4.1902053302
  0
LINE
  5
2E3
100
AcDbEntity
  8
ALL_ASSEMBLY_MEMBERS
100
AcDbLine
 62
7
  6
CONTINUOUS
 10
5.4350267436
 20
4.2425696824
 11
5.4350267436
 21
4.2434133023
  0
LINE
  5
2E4
100
AcDbEntity
  8
ALL_ASSEMBLY_MEMBERS
100
AcDbLine
 62
7
  6
CONTINUOUS
 10
5.4368507508
 20
4.8903912434
 11
5.4368507508
 21
4.8897727919
  0
LINE
  5
2E5
100
AcDbEntity
  8
ALL_ASSEMBLY_MEMBERS
100
AcDbLine
 62
7
  6
CONTINUOUS
 10
5.4368507508
 20
4.8862707229
 11
5.4368507508
 21
4.8837828952
  0
LINE
  5
2E6
100
AcDbEntity
  8
ALL_ASSEMBLY_MEMBERS
100
AcDbLine
 62
7
  6
CONTINUOUS
 10
5.4368507508
 20
4.2169348924
 11
5.4368507508
 21
4.2177795927
  0
LINE
  5
2E7
100
AcDbEntity
  8
ALL_ASSEMBLY_MEMBERS
100
AcDbLine
 62
7
  6
CONTINUOUS
 10
5.4368507508
 20
4.2766938943
 11
5.4368507508
 21
4.2775402062
  0
LINE
  5
2E8
100
AcDbEntity
  8
ALL_ASSEMBLY_MEMBERS
100
AcDbLine
 62
7
  6
CONTINUOUS
 10
5.4368507508
 20
4.3062797786
 11
5.4368507508
 21
4.3071320804
  0
LINE
  5
2E9
100
AcDbEntity
  8
ALL_ASSEMBLY_MEMBERS
100
AcDbLine
 62
7
  6
CONTINUOUS
 10
5.438674758
 20
4.8889845648
 11
5.438674758
 21
4.8877347011
  0
LINE
  5
2EA
100
AcDbEntity
  8
ALL_ASSEMBLY_MEMBERS
100
AcDbLine
 62
7
  6
CONTINUOUS
 10
5.438674758
 20
3.9208982974
 11
5.438674758
 21
3.9226319993
  0
LINE
  5
2EB
100
AcDbEntity
  8
ALL_ASSEMBLY_MEMBERS
100
AcDbLine
 62
7
  6
CONTINUOUS
 10
5.438674758
 20
4.1930784611
 11
5.438674758
 21
4.193926751
  0
LINE
  5
2EC
100
AcDbEntity
  8
ALL_ASSEMBLY_MEMBERS
100
AcDbLine
 62
7
  6
CONTINUOUS
 10
5.438674758
 20
4.2464609592
 11
5.438674758
 21
4.2473046528
  0
LINE
  5
2ED
100
AcDbEntity
  8
ALL_ASSEMBLY_MEMBERS
100
AcDbLine
 62
7
  6
CONTINUOUS
 10
5.4404987651
 20
4.2529731212
 11
5.4404987651
 21
4.2582068961
  0
LINE
  5
2EE
100
AcDbEntity
  8
ALL_ASSEMBLY_MEMBERS
100
AcDbLine
 62
7
  6
CONTINUOUS
 10
5.4404987651
 20
4.5097220661
 11
5.4404987651
 21
4.5606153168
  0
LINE
  5
2EF
100
AcDbEntity
  8
ALL_ASSEMBLY_MEMBERS
100
AcDbLine
 62
7
  6
CONTINUOUS
 10
5.4423227723
 20
4.8903959352
 11
5.4423227723
 21
4.8895453687
  0
LINE
  5
2F0
100
AcDbEntity
  8
ALL_ASSEMBLY_MEMBERS
100
AcDbLine
 62
7
  6
CONTINUOUS
 10
5.4423227723
 20
4.8867945883
 11
5.4423227723
 21
4.8843094834
  0
LINE
  5
2F1
100
AcDbEntity
  8
ALL_ASSEMBLY_MEMBERS
100
AcDbLine
 62
7
  6
CONTINUOUS
 10
5.4423227723
 20
4.2131358077
 11
5.4423227723
 21
4.2139809071
  0
LINE
  5
2F2
100
AcDbEntity
  8
ALL_ASSEMBLY_MEMBERS
100
AcDbLine
 62
7
  6
CONTINUOUS
 10
5.4441467794
 20
4.2713850453
 11
5.4441467794
 21
4.2722306388
  0
LINE
  5
2F3
100
AcDbEntity
  8
ALL_ASSEMBLY_MEMBERS
100
AcDbLine
 62
7
  6
CONTINUOUS
 10
5.4477947937
 20
4.8903257195
 11
5.4477947937
 21
4.8890878571
  0
LINE
  5
2F4
100
AcDbEntity
  8
ALL_ASSEMBLY_MEMBERS
100
AcDbLine
 62
7
  6
CONTINUOUS
 10
5.4477947937
 20
4.8875879534
 11
5.4477947937
 21
4.8851069606
  0
LINE
  5
2F5
100
AcDbEntity
  8
ALL_ASSEMBLY_MEMBERS
100
AcDbLine
 62
7
  6
CONTINUOUS
 10
5.4477947937
 20
4.2068308345
 11
5.4477947937
 21
4.2076767377
  0
LINE
  5
2F6
100
AcDbEntity
  8
ALL_ASSEMBLY_MEMBERS
100
AcDbLine
 62
7
  6
CONTINUOUS
 10
5.4477947937
 20
4.2660976996
 11
5.4477947937
 21
4.2669426862
  0
LINE
  5
2F7
100
AcDbEntity
  8
ALL_ASSEMBLY_MEMBERS
100
AcDbLine
 62
7
  6
CONTINUOUS
 10
5.4496188009
 20
4.8901126394
 11
5.4496188009
 21
4.8859322577
  0
LINE
  5
2F8
100
AcDbEntity
  8
ALL_ASSEMBLY_MEMBERS
100
AcDbLine
 62
7
  6
CONTINUOUS
 10
5.4496188009
 20
3.9208983015
 11
5.4496188009
 21
3.9258822444
  0
LINE
  5
2F9
100
AcDbEntity
  8
ALL_ASSEMBLY_MEMBERS
100
AcDbLine
 62
7
  6
CONTINUOUS
 10
5.4496188009
 20
4.2516680156
 11
5.4496188009
 21
4.2568964479
  0
LINE
  5
2FA
100
AcDbEntity
  8
ALL_ASSEMBLY_MEMBERS
100
AcDbLine
 62
7
  6
CONTINUOUS
 10
5.4496188009
 20
4.2900604644
 11
5.4496188009
 21
4.2989958454
  0
LINE
  5
2FB
100
AcDbEntity
  8
ALL_ASSEMBLY_MEMBERS
100
AcDbLine
 62
7
  6
CONTINUOUS
 10
5.4496188009
 20
4.5097220661
 11
5.4496188009
 21
4.5690509669
  0
LINE
  5
2FC
100
AcDbEntity
  8
ALL_ASSEMBLY_MEMBERS
100
AcDbLine
 62
7
  6
CONTINUOUS
 10
5.4496188009
 20
4.5815870984
 11
5.4496188009
 21
4.5923713348
  0
LINE
  5
2FD
100
AcDbEntity
  8
ALL_ASSEMBLY_MEMBERS
100
AcDbLine
 62
7
  6
CONTINUOUS
 10
5.4496188009
 20
4.6144011654
 11
5.4496188009
 21
4.6249168447
  0
LINE
  5
2FE
100
AcDbEntity
  8
ALL_ASSEMBLY_MEMBERS
100
AcDbLine
 62
7
  6
CONTINUOUS
 10
5.4524731316
 20
3.9298360098
 11
5.4524731316
 21
3.927336103
  0
LINE
  5
2FF
100
AcDbEntity
  8
ALL_ASSEMBLY_MEMBERS
100
AcDbLine
 62
7
  6
CONTINUOUS
 10
5.4524731316
 20
4.3928530163
 11
5.4524731316
 21
4.4184435675
  0
LINE
  5
300
100
AcDbEntity
  8
ALL_ASSEMBLY_MEMBERS
100
AcDbLine
 62
7
  6
CONTINUOUS
 10
5.4524731316
 20
4.7932336475
 11
5.4524731316
 21
4.80993296
  0
LINE
  5
301
100
AcDbEntity
  8
ALL_ASSEMBLY_MEMBERS
100
AcDbLine
 62
7
  6
CONTINUOUS
 10
5.50168573
 20
4.8981482919
 11
5.50168573
 21
3.9131482919
  0
LINE
  5
302
100
AcDbEntity
  8
ALL_ASSEMBLY_MEMBERS
100
AcDbLine
 62
7
  6
CONTINUOUS
 10
5.4524731316
 20
4.7932336475
 11
5.3638904544
 21
4.7932336475
  0
LINE
  5
303
100
AcDbEntity
  8
ALL_ASSEMBLY_MEMBERS
100
AcDbLine
 62
7
  6
CONTINUOUS
 10
5.4524731316
 20
4.7952548228
 11
5.3638904544
 21
4.7952548228
  0
LINE
  5
304
100
AcDbEntity
  8
ALL_ASSEMBLY_MEMBERS
100
AcDbLine
 62
7
  6
CONTINUOUS
 10
5.4524731316
 20
4.80993296
 11
5.3638904544
 21
4.80993296
  0
LINE
  5
305
100
AcDbEntity
  8
1_PLATE
100
AcDbLine
 62
7
  6
CONTINUOUS
 10
5.6293855759
 20
5.5931482919
 11
5.6293855759
 21
3.2181482919
  0
LINE
  5
306
100
AcDbEntity
  8
1_PLATE
100
AcDbLine
 62
7
  6
CONTINUOUS
 10
5.660619185
 20
5.8999538313
 11
5.660619185
 21
2.9096482919
  0
LINE
  5
307
100
AcDbEntity
  8
ALL_ASSEMBLY_MEMBERS
100
AcDbLine
 62
7
  6
CONTINUOUS
 10
5.4149626598
 20
4.8830244136
 11
5.3985465955
 21
4.8830244136
  0
LINE
  5
308
100
AcDbEntity
  8
ALL_ASSEMBLY_MEMBERS
100
AcDbLine
 62
7
  6
CONTINUOUS
 10
5.4149626598
 20
4.8855161736
 11
5.3985465955
 21
4.8855161736
  0
LINE
  5
309
100
AcDbEntity
  8
ALL_ASSEMBLY_MEMBERS
100
AcDbLine
 62
7
  6
CONTINUOUS
 10
5.4131386527
 20
4.886449342
 11
5.4003706026
 21
4.886449342
  0
LINE
  5
30A
100
AcDbEntity
  8
ALL_ASSEMBLY_MEMBERS
100
AcDbLine
 62
7
  6
CONTINUOUS
 10
5.4131386527
 20
4.8872307958
 11
5.4003706026
 21
4.8872307958
  0
LINE
  5
30B
100
AcDbEntity
  8
ALL_ASSEMBLY_MEMBERS
100
AcDbLine
 62
7
  6
CONTINUOUS
 10
5.3048353363
 20
4.8879317565
 11
5.3638904544
 21
4.8879317565
  0
LINE
  5
30C
100
AcDbEntity
  8
ALL_ASSEMBLY_MEMBERS
100
AcDbLine
 62
7
  6
CONTINUOUS
 10
5.4496188009
 20
4.8879317565
 11
5.50168573
 21
4.8879317565
  0
LINE
  5
30D
100
AcDbEntity
  8
ALL_ASSEMBLY_MEMBERS
100
AcDbLine
 62
7
  6
CONTINUOUS
 10
5.4131386527
 20
4.889700903
 11
5.4003706026
 21
4.889700903
  0
LINE
  5
30E
100
AcDbEntity
  8
ALL_ASSEMBLY_MEMBERS
100
AcDbLine
 62
7
  6
CONTINUOUS
 10
5.4149626598
 20
4.8900211962
 11
5.3985465955
 21
4.8900211962
  0
LINE
  5
30F
100
AcDbEntity
  8
ALL_ASSEMBLY_MEMBERS
100
AcDbLine
 62
7
  6
CONTINUOUS
 10
5.4149626598
 20
4.8903303624
 11
5.3985465955
 21
4.8903303624
  0
LINE
  5
310
100
AcDbEntity
  8
ALL_ASSEMBLY_MEMBERS
100
AcDbLine
 62
7
  6
CONTINUOUS
 10
5.3048353363
 20
4.8906482919
 11
5.0643353363
 21
4.8906482919
  0
LINE
  5
311
100
AcDbEntity
  8
ALL_ASSEMBLY_MEMBERS
100
AcDbLine
 62
7
  6
CONTINUOUS
 10
4.8893353363
 20
4.8906482919
 11
4.877371411
 21
4.8906482919
  0
LINE
  5
312
100
AcDbEntity
  8
ALL_ASSEMBLY_MEMBERS
100
AcDbLine
 62
7
  6
CONTINUOUS
 10
5.6293855759
 20
4.8980467691
 11
5.55668573
 21
4.8980467691
  0
LINE
  5
313
100
AcDbEntity
  8
ALL_ASSEMBLY_MEMBERS
100
AcDbLine
 62
7
  6
CONTINUOUS
 10
5.50168573
 20
4.8981482919
 11
5.54668573
 21
4.8981482919
  0
LINE
  5
314
100
AcDbEntity
  8
ALL_ASSEMBLY_MEMBERS
100
AcDbLine
 62
7
  6
CONTINUOUS
 10
5.5466760143
 20
4.8981482919
 11
5.5470456765
 21
4.8981411313
  0
LINE
  5
315
100
AcDbEntity
  8
ALL_ASSEMBLY_MEMBERS
100
AcDbLine
 62
7
  6
CONTINUOUS
 10
5.5470512993
 20
4.8981410077
 11
5.5466760121
 21
4.8981482919
  0
LINE
  5
316
100
AcDbEntity
  8
1_PLATE
100
AcDbLine
 62
7
  6
CONTINUOUS
 10
5.6918831536
 20
2.8269842844
 11
5.6918831536
 21
5.9843122994
  0
LINE
  5
317
100
AcDbEntity
  8
1_PLATE
100
AcDbLine
 62
7
  6
CONTINUOUS
 10
5.70703573
 20
6.1556482919
 11
5.70703573
 21
2.6556482919
  0
LINE
  5
318
100
AcDbEntity
  8
ALL_ASSEMBLY_MEMBERS
100
AcDbLine
 62
7
  6
CONTINUOUS
 10
4.9118353363
 20
5.00143156
 11
5.0418353363
 21
5.00143156
  0
LINE
  5
319
100
AcDbEntity
  8
ALL_ASSEMBLY_MEMBERS
100
AcDbLine
 62
7
  6
CONTINUOUS
 10
5.0213807909
 20
5.0298724513
 11
4.9322898818
 21
5.0298724513
  0
LINE
  5
31A
100
AcDbEntity
  8
1_PLATE
100
AcDbLine
 62
7
  6
CONTINUOUS
 10
5.83203573
 20
2.5306482919
 11
5.83203573
 21
6.2806482919
  0
LINE
  5
31B
100
AcDbEntity
  8
1_PLATE
100
AcDbLine
 62
7
  6
CONTINUOUS
 10
5.90753573
 20
2.5306511426
 11
5.90753573
 21
6.2806454412
  0
LINE
  5
31C
100
AcDbEntity
  8
1_PLATE
100
AcDbLine
 62
7
  6
CONTINUOUS
 10
5.83203573
 20
6.2806482919
 11
5.90753573
 21
6.2806482919
  0
ARC
  5
31D
100
AcDbEntity
  8
ALL_ASSEMBLY_MEMBERS
100
AcDbCircle
 62
7
  6
CONTINUOUS
 10
4.877371411
 20
4.1221482919
 40
0.2015
100
AcDbArc
 50
191.3835410059
 51
270.0
  0
ARC
  5
31E
100
AcDbEntity
  8
ALL_ASSEMBLY_MEMBERS
100
AcDbCircle
 62
7
  6
CONTINUOUS
 10
4.5266590998
 20
4.0515371224
 40
0.15625
100
AcDbArc
 50
11.3835410059
 51
71.1400389567
  0
ARC
  5
31F
100
AcDbEntity
  8
ALL_ASSEMBLY_MEMBERS
100
AcDbCircle
 62
7
  6
CONTINUOUS
 10
4.2353353363
 20
3.6341482919
 40
0.1
100
AcDbArc
 50
193.8596122896
 51
346.1403877104
  0
ARC
  5
320
100
AcDbEntity
  8
ALL_ASSEMBLY_MEMBERS
100
AcDbCircle
 62
7
  6
CONTINUOUS
 10
4.5878353363
 20
4.2306265709
 40
0.033
100
AcDbArc
 50
180.0
 51
251.1400389567
  0
ARC
  5
321
100
AcDbEntity
  8
ALL_ASSEMBLY_MEMBERS
100
AcDbCircle
 62
7
  6
CONTINUOUS
 10
4.107663883
 20
3.6026482919
 40
0.0315
100
AcDbArc
 50
13.8596122896
 51
90.0
  0
ARC
  5
322
100
AcDbEntity
  8
ALL_ASSEMBLY_MEMBERS
100
AcDbCircle
 62
7
  6
CONTINUOUS
 10
4.3630067897
 20
3.6026482919
 40
0.0315
100
AcDbArc
 50
90.0
 51
166.1403877104
  0
ARC
  5
323
100
AcDbEntity
  8
ALL_ASSEMBLY_MEMBERS
100
AcDbCircle
 62
7
  6
CONTINUOUS
 10
4.0730853363
 20
3.6656482919
 40
0.0315
100
AcDbArc
 50
171.4480615315
 51
270.0
  0
ARC
  5
324
100
AcDbEntity
  8
ALL_ASSEMBLY_MEMBERS
100
AcDbCircle
 62
7
  6
CONTINUOUS
 10
4.3975853363
 20
3.6656482919
 40
0.0315
100
AcDbArc
 50
270.0
 51
8.5519384685
  0
ARC
  5
325
100
AcDbEntity
  8
ALL_ASSEMBLY_MEMBERS
100
AcDbCircle
 62
7
  6
CONTINUOUS
 10
4.1125853363
 20
4.1516482919
 40
0.0315
100
AcDbArc
 50
270.0
 51
360.0
  0
ARC
  5
326
100
AcDbEntity
  8
ALL_ASSEMBLY_MEMBERS
100
AcDbCircle
 62
7
  6
CONTINUOUS
 10
4.3580853363
 20
4.1516482919
 40
0.0315
100
AcDbArc
 50
180.0
 51
270.0
  0
ARC
  5
327
100
AcDbEntity
  8
ALL_ASSEMBLY_MEMBERS
100
AcDbCircle
 62
7
  6
CONTINUOUS
 10
4.3683346679
 20
4.0968976235
 40
0.0232506685
100
AcDbArc
 50
270.0
 51
90.0
  0
ARC
  5
328
100
AcDbEntity
  8
ALL_ASSEMBLY_MEMBERS
100
AcDbCircle
 62
7
  6
CONTINUOUS
 10
4.1023360048
 20
4.0968976235
 40
0.0232506685
100
AcDbArc
 50
90.0
 51
270.0
  0
ARC
  5
329
100
AcDbEntity
  8
ALL_ASSEMBLY_MEMBERS
100
AcDbCircle
 62
7
  6
CONTINUOUS
 10
4.7881900464
 20
4.4056482919
 40
0.75
100
AcDbArc
 50
160.9334198993
 51
199.0665801007
  0
ARC
  5
32A
100
AcDbEntity
  8
ALL_ASSEMBLY_MEMBERS
100
AcDbCircle
 62
7
  6
CONTINUOUS
 10
4.877371411
 20
4.6891482919
 40
0.2015
100
AcDbArc
 50
90.0
 51
168.6164589941
  0
ARC
  5
32B
100
AcDbEntity
  8
ALL_ASSEMBLY_MEMBERS
100
AcDbCircle
 62
7
  6
CONTINUOUS
 10
4.5266590998
 20
4.7597594615
 40
0.15625
100
AcDbArc
 50
288.8599610433
 51
348.6164589941
  0
ARC
  5
32C
100
AcDbEntity
  8
ALL_ASSEMBLY_MEMBERS
100
AcDbCircle
 62
7
  6
CONTINUOUS
 10
4.4602887637
 20
4.5655976556
 40
0.0484772442
100
AcDbArc
 50
234.8093071872
 51
240.0079618259
  0
ARC
  5
32D
100
AcDbEntity
  8
ALL_ASSEMBLY_MEMBERS
100
AcDbCircle
 62
7
  6
CONTINUOUS
 10
4.4791634323
 20
4.5644340608
 40
0.0470759288
100
AcDbArc
 50
302.3356668156
 51
305.2295036406
  0
ARC
  5
32E
100
AcDbEntity
  8
ALL_ASSEMBLY_MEMBERS
100
AcDbCircle
 62
7
  6
CONTINUOUS
 10
4.5878353363
 20
4.5806700129
 40
0.033
100
AcDbArc
 50
108.8599610433
 51
180.0
  0
ARC
  5
32F
100
AcDbEntity
  8
ALL_ASSEMBLY_MEMBERS
100
AcDbCircle
 62
7
  6
CONTINUOUS
 10
4.9418353363
 20
5.00143156
 40
0.03
100
AcDbArc
 50
108.553004535
 51
180.0
  0
ARC
  5
330
100
AcDbEntity
  8
ALL_ASSEMBLY_MEMBERS
100
AcDbCircle
 62
7
  6
CONTINUOUS
 10
4.4519803288
 20
4.5320870205
 40
0.0146857788
100
AcDbArc
 50
136.6032721661
 51
137.5389471173
  0
ARC
  5
331
100
AcDbEntity
  8
ALL_ASSEMBLY_MEMBERS
100
AcDbCircle
 62
7
  6
CONTINUOUS
 10
4.4456223322
 20
4.5350940107
 40
0.0105218023
100
AcDbArc
 50
212.8678611455
 51
214.6359984172
  0
ARC
  5
332
100
AcDbEntity
  8
1_PLATE
100
AcDbCircle
 62
7
  6
CONTINUOUS
 10
5.81703573
 20
3.2181482919
 40
0.1876501541
100
AcDbArc
 50
180.0
 51
213.4957955632
  0
ARC
  5
333
100
AcDbEntity
  8
1_PLATE
100
AcDbCircle
 62
7
  6
CONTINUOUS
 10
5.59803573
 20
2.7441482919
 40
0.1251764377
100
AcDbArc
 50
29.3590794693
 51
41.4337707006
  0
ARC
  5
334
100
AcDbEntity
  8
1_PLATE
100
AcDbCircle
 62
7
  6
CONTINUOUS
 10
5.83203573
 20
2.6556482919
 40
0.125
100
AcDbArc
 50
180.0
 51
270.0
  0
ARC
  5
335
100
AcDbEntity
  8
1_PLATE
100
AcDbCircle
 62
7
  6
CONTINUOUS
 10
5.78553573
 20
2.9096482919
 40
0.124916545
100
AcDbArc
 50
180.0
 51
221.4337707006
  0
ARC
  5
336
100
AcDbEntity
  8
ALL_ASSEMBLY_MEMBERS
100
AcDbCircle
 62
7
  6
CONTINUOUS
 10
5.4357407377
 20
3.9716769296
 40
0.0454241773
100
AcDbArc
 50
270.0001392818
 51
270.9972673083
  0
ARC
  5
337
100
AcDbEntity
  8
ALL_ASSEMBLY_MEMBERS
100
AcDbCircle
 62
7
  6
CONTINUOUS
 10
5.5566790613
 20
5.3898273269
 40
0.4917805579
100
AcDbArc
 50
268.8775733666
 51
270.0007769503
  0
ARC
  5
338
100
AcDbEntity
  8
1_PLATE
100
AcDbCircle
 62
7
  6
CONTINUOUS
 10
5.81703573
 20
5.5931482919
 40
0.1876501541
100
AcDbArc
 50
146.5042044368
 51
180.0
  0
ARC
  5
339
100
AcDbEntity
  8
ALL_ASSEMBLY_MEMBERS
100
AcDbCircle
 62
7
  6
CONTINUOUS
 10
4.9768353363
 20
4.8971482919
 40
0.14
100
AcDbArc
 50
71.446995465
 51
108.553004535
  0
ARC
  5
33A
100
AcDbEntity
  8
1_PLATE
100
AcDbCircle
 62
7
  6
CONTINUOUS
 10
5.59803573
 20
6.0671482919
 40
0.1251764377
100
AcDbArc
 50
318.5662292994
 51
330.6409205307
  0
ARC
  5
33B
100
AcDbEntity
  8
1_PLATE
100
AcDbCircle
 62
7
  6
CONTINUOUS
 10
5.83203573
 20
6.1556482919
 40
0.125
100
AcDbArc
 50
90.0
 51
180.0
  0
ARC
  5
33C
100
AcDbEntity
  8
1_PLATE
100
AcDbCircle
 62
7
  6
CONTINUOUS
 10
5.78553573
 20
5.9016482919
 40
0.124916545
100
AcDbArc
 50
138.5662292994
 51
180.0
  0
ARC
  5
33D
100
AcDbEntity
  8
ALL_ASSEMBLY_MEMBERS
100
AcDbCircle
 62
7
  6
CONTINUOUS
 10
5.0118353363
 20
5.00143156
 40
0.03
100
AcDbArc
 50
0.0
 51
71.446995465
  0
SPLINE
  5
33E
100
AcDbEntity
  8
ALL_ASSEMBLY_MEMBERS
100
AcDbSpline
 62
7
  6
CONTINUOUS
 70
0
 71
3
 72
21
 73
17
 74
0
 42
0.0000001
 43
0.0000001
 44
0.0000000001
 40
0.0
 40
0.0
 40
0.0
 40
0.0
 40
0.0697308383
 40
0.1393243434
 40
0.2771865865
 40
0.4120853488
 40
0.4780180745
 40
0.5427142836
 40
0.6060179606
 40
0.6677893778
 40
0.7278972869
 40
0.7862254717
 40
0.8426740382
 40
0.8971565679
 40
0.9496121506
 40
1.0
 40
1.0
 40
1.0
 40
1.0
 10
4.4693353363
 20
4.5510521025
 30
0.0
 10
4.4699517298
 20
4.5510521025
 30
0.0
 10
4.4711833924
 20
4.5510336774
 30
0.0
 10
4.4736314399
 20
4.5509239598
 30
0.0
 10
4.4766475044
 20
4.5506524268
 30
0.0
 10
4.4796091547
 20
4.5501993059
 30
0.0
 10
4.4819092715
 20
4.5497298316
 30
0.0
 10
4.4835766591
 20
4.5493300512
 30
0.0
 10
4.485193376
 20
4.5488811971
 30
0.0
 10
4.4867537386
 20
4.5483850601
 30
0.0
 10
4.4882521979
 20
4.5478432832
 30
0.0
 10
4.489683442
 20
4.5472577634
 30
0.0
 10
4.4910424592
 20
4.546630721
 30
0.0
 10
4.4923243695
 20
4.5459641382
 30
0.0
 10
4.4935246477
 20
4.5452605412
 30
0.0
 10
4.494283057
 20
4.5447581949
 30
0.0
 10
4.4946467266
 20
4.5445010304
 30
0.0
  0
SPLINE
  5
33F
100
AcDbEntity
  8
ALL_ASSEMBLY_MEMBERS
100
AcDbSpline
 62
7
  6
CONTINUOUS
 70
0
 71
3
 72
21
 73
17
 74
0
 42
0.0000001
 43
0.0000001
 44
0.0000000001
 40
0.0
 40
0.0
 40
0.0
 40
0.0
 40
0.0503878494
 40
0.1028434321
 40
0.1573259618
 40
0.2137745283
 40
0.2721027131
 40
0.3322106222
 40
0.3939820394
 40
0.4572857164
 40
0.5219819255
 40
0.5879146512
 40
0.7228134135
 40
0.8606756566
 40
0.9302691617
 40
1.0
 40
1.0
 40
1.0
 40
1.0
 10
4.444023946
 20
4.5445010304
 30
0.0
 10
4.4443876157
 20
4.5447581949
 30
0.0
 10
4.4451460249
 20
4.5452605412
 30
0.0
 10
4.4463463031
 20
4.5459641382
 30
0.0
 10
4.4476282134
 20
4.546630721
 30
0.0
 10
4.4489872306
 20
4.5472577634
 30
0.0
 10
4.4504184747
 20
4.5478432832
 30
0.0
 10
4.451916934
 20
4.5483850601
 30
0.0
 10
4.4534772966
 20
4.5488811971
 30
0.0
 10
4.4550940135
 20
4.5493300512
 30
0.0
 10
4.4567614011
 20
4.5497298316
 30
0.0
 10
4.4590615179
 20
4.5501993059
 30
0.0
 10
4.4620231682
 20
4.5506524268
 30
0.0
 10
4.4650392328
 20
4.5509239598
 30
0.0
 10
4.4674872802
 20
4.5510336774
 30
0.0
 10
4.4687189428
 20
4.5510521025
 30
0.0
 10
4.4693353363
 20
4.5510521025
 30
0.0
  0
LINE
  5
340
100
AcDbEntity
  8
ALL_ASSEMBLY_MEMBERS
100
AcDbLine
 62
7
  6
CONTINUOUS
 10
4.4408689168
 20
4.5422700735
 11
4.4392942445
 21
4.5410343121
  0
SPLINE
  5
341
100
AcDbEntity
  8
ALL_ASSEMBLY_MEMBERS
100
AcDbSpline
 62
7
  6
CONTINUOUS
 70
0
 71
3
 72
23
 73
19
 74
0
 42
0.0000001
 43
0.0000001
 44
0.0000000001
 40
0.0
 40
0.0
 40
0.0
 40
0.0
 40
0.074727561
 40
0.1465271027
 40
0.2155311032
 40
0.2819211613
 40
0.345923314
 40
0.4078142146
 40
0.4679254708
 40
0.5266350981
 40
0.5843650919
 40
0.6415723157
 40
0.698732868
 40
0.7563291612
 40
0.8148299629
 40
0.8746788638
 40
0.9362835231
 40
1.0
 40
1.0
 40
1.0
 40
1.0
 10
4.4392942445
 20
4.5410343121
 30
0.0
 10
4.4390476792
 20
4.5408184154
 30
0.0
 10
4.4385760926
 20
4.5403812117
 30
0.0
 10
4.4379241939
 20
4.5396958368
 30
0.0
 10
4.4373438114
 20
4.5389956608
 30
0.0
 10
4.4368363639
 20
4.5382824251
 30
0.0
 10
4.4364032351
 20
4.5375577508
 30
0.0
 10
4.4360458143
 20
4.5368232861
 30
0.0
 10
4.435765066
 20
4.5360808944
 30
0.0
 10
4.4355619738
 20
4.5353324048
 30
0.0
 10
4.4354374909
 20
4.5345797407
 30
0.0
 10
4.4353920083
 20
4.5338249763
 30
0.0
 10
4.4354258923
 20
4.5330701732
 30
0.0
 10
4.4355393686
 20
4.5323174686
 30
0.0
 10
4.435732054
 20
4.5315689363
 30
0.0
 10
4.4360036005
 20
4.5308265901
 30
0.0
 10
4.4363534572
 20
4.5300925268
 30
0.0
 10
4.4366331741
 20
4.5296185072
 30
0.0
 10
4.4367848135
 20
4.5293837929
 30
0.0
  0
SPLINE
  5
342
100
AcDbEntity
  8
ALL_ASSEMBLY_MEMBERS
100
AcDbSpline
 62
7
  6
CONTINUOUS
 70
0
 71
3
 72
15
 73
11
 74
0
 42
0.0000001
 43
0.0000001
 44
0.0000000001
 40
0.0
 40
0.0
 40
0.0
 40
0.0
 40
0.1006428617
 40
0.2076929173
 40
0.3216744901
 40
0.442878316
 40
0.5714189859
 40
0.7072720442
 40
0.850274985
 40
1.0
 40
1.0
 40
1.0
 40
1.0
 10
4.4369652096
 20
4.5291138307
 30
0.0
 10
4.4372200377
 20
4.5287448087
 30
0.0
 10
4.437793863
 20
4.5280156255
 30
0.0
 10
4.4387978947
 20
4.5269894745
 30
0.0
 10
4.4399652838
 20
4.5260049977
 30
0.0
 10
4.441289748
 20
4.5250678989
 30
0.0
 10
4.442764801
 20
4.5241838787
 30
0.0
 10
4.4443829406
 20
4.523358226
 30
0.0
 10
4.4461354053
 20
4.5225966507
 30
0.0
 10
4.4473597917
 20
4.5221447332
 30
0.0
 10
4.4479913949
 20
4.521929823
 30
0.0
  0
SPLINE
  5
343
100
AcDbEntity
  8
ALL_ASSEMBLY_MEMBERS
100
AcDbSpline
 62
7
  6
CONTINUOUS
 70
0
 71
3
 72
38
 73
34
 74
0
 42
0.0000001
 43
0.0000001
 44
0.0000000001
 40
0.0
 40
0.0
 40
0.0
 40
0.0
 40
0.0432674032
 40
0.0864385822
 40
0.1718770178
 40
0.2553094381
 40
0.2959981939
 40
0.3358496956
 40
0.3747619144
 40
0.4126424478
 40
0.4494056532
 40
0.4849786932
 40
0.519297932
 40
0.5523143106
 40
0.5839955934
 40
0.6143244353
 40
0.6433074194
 40
0.6709716922
 40
0.6973714329
 40
0.7101257797
 40
0.7225981343
 40
0.7467525685
 40
0.7699919655
 40
0.7924982398
 40
0.8144840944
 40
0.8361861417
 40
0.857854267
 40
0.879740329
 40
0.9020852877
 40
0.9251094947
 40
0.9490029735
 40
0.9739252797
 40
1.0
 40
1.0
 40
1.0
 40
1.0
 10
4.4693353363
 20
4.5200521025
 30
0.0
 10
4.4686901543
 20
4.5200521025
 30
0.0
 10
4.4674011225
 20
4.5200722836
 30
0.0
 10
4.46484067
 20
4.5201924088
 30
0.0
 10
4.461690501
 20
4.5204894317
 30
0.0
 10
4.4586026497
 20
4.5209851444
 30
0.0
 10
4.4562116141
 20
4.5214984926
 30
0.0
 10
4.454484295
 20
4.52193505
 30
0.0
 10
4.4528148422
 20
4.522424667
 30
0.0
 10
4.4512096768
 20
4.5229652833
 30
0.0
 10
4.4496750842
 20
4.5235550254
 30
0.0
 10
4.4482169468
 20
4.5241914062
 30
0.0
 10
4.4468409419
 20
4.5248720738
 30
0.0
 10
4.445552432
 20
4.5255944646
 30
0.0
 10
4.4443562964
 20
4.5263556386
 30
0.0
 10
4.443257305
 20
4.5271529538
 30
0.0
 10
4.4422595714
 20
4.5279832125
 30
0.0
 10
4.4413670743
 20
4.5288433598
 30
0.0
 10
4.4407064873
 20
4.5295909865
 30
0.0
 10
4.4402361502
 20
4.5302007361
 30
0.0
 10
4.439813593
 20
4.5308040322
 30
0.0
 10
4.4393542295
 20
4.5315713388
 30
0.0
 10
4.4389142219
 20
4.5325184475
 30
0.0
 10
4.4385934746
 20
4.5334785446
 30
0.0
 10
4.4383938244
 20
4.5344476789
 30
0.0
 10
4.4383160542
 20
4.5354216749
 30
0.0
 10
4.4383610353
 20
4.5363962613
 30
0.0
 10
4.4385281662
 20
4.5373671011
 30
0.0
 10
4.4388166204
 20
4.5383300235
 30
0.0
 10
4.4392249712
 20
4.5392809683
 30
0.0
 10
4.4397509547
 20
4.540216364
 30
0.0
 10
4.4403924453
 20
4.5411324106
 30
0.0
 10
4.4408836171
 20
4.5417143799
 30
0.0
 10
4.4411460952
 20
4.5420012265
 30
0.0
  0
LINE
  5
344
100
AcDbEntity
  8
ALL_ASSEMBLY_MEMBERS
100
AcDbLine
 62
7
  6
CONTINUOUS
 10
4.4413094377
 20
4.5421768263
 11
4.444023946
 21
4.5445010304
  0
SPLINE
  5
345
100
AcDbEntity
  8
ALL_ASSEMBLY_MEMBERS
100
AcDbSpline
 62
7
  6
CONTINUOUS
 70
0
 71
3
 72
15
 73
11
 74
0
 42
0.0000001
 43
0.0000001
 44
0.0000000001
 40
0.0
 40
0.0
 40
0.0
 40
0.0
 40
0.1121665338
 40
0.2292643196
 40
0.3507151327
 40
0.4759214496
 40
0.6041974547
 40
0.7348077954
 40
0.8670170328
 40
1.0
 40
1.0
 40
1.0
 40
1.0
 10
4.4479913949
 20
4.521929823
 30
0.0
 10
4.4487409162
 20
4.5216042494
 30
0.0
 10
4.4502956695
 20
4.5209902575
 30
0.0
 10
4.4527253563
 20
4.5201953481
 30
0.0
 10
4.455287105
 20
4.5195117425
 30
0.0
 10
4.4579603392
 20
4.5189448273
 30
0.0
 10
4.4607239811
 20
4.5184991791
 30
0.0
 10
4.4635561735
 20
4.5181782397
 30
0.0
 10
4.4664341898
 20
4.5179847051
 30
0.0
 10
4.4683665019
 20
4.5179415933
 30
0.0
 10
4.4693353363
 20
4.5179415933
 30
0.0
  0
SPLINE
  5
346
100
AcDbEntity
  8
ALL_ASSEMBLY_MEMBERS
100
AcDbSpline
 62
7
  6
CONTINUOUS
 70
0
 71
3
 72
12
 73
8
 74
0
 42
0.0000001
 43
0.0000001
 44
0.0000000001
 40
0.0
 40
0.0
 40
0.0
 40
0.0
 40
0.2651583944
 40
0.3941333112
 40
0.5205828766
 40
0.7656434023
 40
1.0
 40
1.0
 40
1.0
 40
1.0
 10
4.4855451661
 20
4.5169823166
 30
0.0
 10
4.4863653854
 20
4.5174459855
 30
0.0
 10
4.4875626018
 20
4.5181756463
 30
0.0
 10
4.4890858599
 20
4.5192258237
 30
0.0
 10
4.4905096131
 20
4.5202921775
 30
0.0
 10
4.4921520654
 20
4.5216882126
 30
0.0
 10
4.4933443152
 20
4.5229096316
 30
0.0
 10
4.4938931404
 20
4.5235359464
 30
0.0
  0
SPLINE
  5
347
100
AcDbEntity
  8
ALL_ASSEMBLY_MEMBERS
100
AcDbSpline
 62
7
  6
CONTINUOUS
 70
0
 71
3
 72
18
 73
14
 74
0
 42
0.0000001
 43
0.0000001
 44
0.0000000001
 40
0.0
 40
0.0
 40
0.0
 40
0.0
 40
0.136454386
 40
0.2717543332
 40
0.4047383481
 40
0.5343241107
 40
0.6594861088
 40
0.7201250916
 40
0.7793211774
 40
0.8369835643
 40
0.8930359242
 40
0.9474020501
 40
1.0
 40
1.0
 40
1.0
 40
1.0
 10
4.4693353363
 20
4.5179415933
 30
0.0
 10
4.4704929449
 20
4.5179415933
 30
0.0
 10
4.47279885
 20
4.5180030081
 30
0.0
 10
4.4762229675
 20
4.5182786296
 30
0.0
 10
4.4795691821
 20
4.518734595
 30
0.0
 10
4.4827992868
 20
4.5193655686
 30
0.0
 10
4.4853909742
 20
4.5200383156
 30
0.0
 10
4.4873743848
 20
4.5206607159
 30
0.0
 10
4.4887949125
 20
4.5211612275
 30
0.0
 10
4.4901600526
 20
4.5216989448
 30
0.0
 10
4.491465995
 20
4.5222723784
 30
0.0
 10
4.4927088091
 20
4.5228798454
 30
0.0
 10
4.4935063073
 20
4.5233135349
 30
0.0
 10
4.4938931404
 20
4.5235359464
 30
0.0
  0
SPLINE
  5
348
100
AcDbEntity
  8
ALL_ASSEMBLY_MEMBERS
100
AcDbSpline
 62
7
  6
CONTINUOUS
 70
0
 71
3
 72
41
 73
37
 74
0
 42
0.0000001
 43
0.0000001
 44
0.0000000001
 40
0.0
 40
0.0
 40
0.0
 40
0.0
 40
0.0300946741
 40
0.0587163514
 40
0.0859100308
 40
0.0990001432
 40
0.111768357
 40
0.1363989401
 40
0.1599776261
 40
0.1827161092
 40
0.2048663743
 40
0.226712658
 40
0.2485563091
 40
0.2706988519
 40
0.2934249288
 40
0.3169872071
 40
0.341598068
 40
0.3543554505
 40
0.3674342045
 40
0.3946038685
 40
0.4232004219
 40
0.4532694596
 40
0.4848279254
 40
0.5178620231
 40
0.5523354606
 40
0.5881908435
 40
0.6253515206
 40
0.6637278982
 40
0.7032148418
 40
0.7436983711
 40
0.7850505203
 40
0.8271362901
 40
0.8698205342
 40
0.912967591
 40
0.9564227488
 40
1.0
 40
1.0
 40
1.0
 40
1.0
 10
4.4946467266
 20
4.5445010304
 30
0.0
 10
4.4950444
 20
4.5442198205
 30
0.0
 10
4.4958023687
 20
4.5436450831
 30
0.0
 10
4.4968451293
 20
4.5427233863
 30
0.0
 10
4.4976173591
 20
4.5419166356
 30
0.0
 10
4.4981663655
 20
4.5412561005
 30
0.0
 10
4.4986577184
 20
4.5406028932
 30
0.0
 10
4.499190665
 20
4.5397699122
 30
0.0
 10
4.4996984998
 20
4.5387372226
 30
0.0
 10
4.500064142
 20
4.5376880785
 30
0.0
 10
4.5002849346
 20
4.5366275903
 30
0.0
 10
4.5003597274
 20
4.5355613122
 30
0.0
 10
4.5002874674
 20
4.5344949832
 30
0.0
 10
4.5000691846
 20
4.5334343483
 30
0.0
 10
4.4997060256
 20
4.5323849622
 30
0.0
 10
4.4992006186
 20
4.5313519505
 30
0.0
 10
4.4986696233
 20
4.5305186194
 30
0.0
 10
4.4981798012
 20
4.5298651103
 30
0.0
 10
4.4976323508
 20
4.5292042529
 30
0.0
 10
4.4968620286
 20
4.5283970441
 30
0.0
 10
4.4958213842
 20
4.5274746958
 30
0.0
 10
4.4946579535
 20
4.5265902259
 30
0.0
 10
4.493376985
 20
4.5257479166
 30
0.0
 10
4.4919845097
 20
4.5249513102
 30
0.0
 10
4.4904868749
 20
4.5242041498
 30
0.0
 10
4.4888910114
 20
4.5235098435
 30
0.0
 10
4.4872043257
 20
4.522871469
 30
0.0
 10
4.485434561
 20
4.5222921762
 30
0.0
 10
4.4835899647
 20
4.5217743922
 30
0.0
 10
4.481679048
 20
4.521320806
 30
0.0
 10
4.479710799
 20
4.5209332697
 30
0.0
 10
4.477694328
 20
4.5206137272
 30
0.0
 10
4.4756388285
 20
4.5203636187
 30
0.0
 10
4.473553722
 20
4.5201841352
 30
0.0
 10
4.4714492549
 20
4.5200762071
 30
0.0
 10
4.4700405954
 20
4.5200521025
 30
0.0
 10
4.4693353363
 20
4.5200521025
 30
0.0
  0
SPLINE
  5
349
100
AcDbEntity
  8
ALL_ASSEMBLY_MEMBERS
100
AcDbSpline
 62
7
  6
CONTINUOUS
 70
0
 71
3
 72
44
 73
40
 74
0
 42
0.0000001
 43
0.0000001
 44
0.0000000001
 40
0.0
 40
0.0
 40
0.0
 40
0.0
 40
0.0312532697
 40
0.0637710178
 40
0.0974612966
 40
0.1322367854
 40
0.1679986199
 40
0.2046243525
 40
0.2419800386
 40
0.2799219822
 40
0.318299551
 40
0.3569543762
 40
0.3957241632
 40
0.434443459
 40
0.472945862
 40
0.5110654511
 40
0.5486382945
 40
0.5855047071
 40
0.6215101222
 40
0.6565080439
 40
0.6903606752
 40
0.7229425251
 40
0.7541412575
 40
0.7838620266
 40
0.8120292361
 40
0.8385919421
 40
0.8512654836
 40
0.8635326084
 40
0.8868538494
 40
0.8979277641
 40
0.9086231698
 40
0.9289316911
 40
0.947953048
 40
0.9570575937
 40
0.9659334632
 40
0.9746207306
 40
0.9831629226
 40
0.991606431
 40
1.0
 40
1.0
 40
1.0
 40
1.0
 10
4.4938931404
 20
4.5235359464
 30
0.0
 10
4.4933424449
 20
4.5231637877
 30
0.0
 10
4.4921927479
 20
4.5224423722
 30
0.0
 10
4.490372664
 20
4.521448464
 30
0.0
 10
4.4884321296
 20
4.520525944
 30
0.0
 10
4.486382724
 20
4.5196790244
 30
0.0
 10
4.4842358947
 20
4.5189116523
 30
0.0
 10
4.48200389
 20
4.5182269883
 30
0.0
 10
4.4796994209
 20
4.5176283183
 30
0.0
 10
4.4773357369
 20
4.5171178691
 30
0.0
 10
4.4749263049
 20
4.5166978505
 30
0.0
 10
4.4724849389
 20
4.516369502
 30
0.0
 10
4.4700255915
 20
4.5161339932
 30
0.0
 10
4.4675623615
 20
4.5159915209
 30
0.0
 10
4.4651093407
 20
4.5159421639
 30
0.0
 10
4.4626805783
 20
4.5159850699
 30
0.0
 10
4.4602899774
 20
4.5161192368
 30
0.0
 10
4.4579512125
 20
4.5163427745
 30
0.0
 10
4.4556776695
 20
4.5166536269
 30
0.0
 10
4.4534823256
 20
4.5170489088
 30
0.0
 10
4.4513777327
 20
4.5175255672
 30
0.0
 10
4.4493758593
 20
4.5180797944
 30
0.0
 10
4.4474881267
 20
4.5187076263
 30
0.0
 10
4.4457251846
 20
4.5194044489
 30
0.0
 10
4.4440971151
 20
4.5201655003
 30
0.0
 10
4.4428412336
 20
4.5208593622
 30
0.0
 10
4.4419145116
 20
4.5214437503
 30
0.0
 10
4.4410690081
 20
4.5220259397
 30
0.0
 10
4.4402876204
 20
4.5226403718
 30
0.0
 10
4.4395799473
 20
4.5232880451
 30
0.0
 10
4.4389521825
 20
4.5239262404
 30
0.0
 10
4.4382696529
 20
4.5247456915
 30
0.0
 10
4.4377152029
 20
4.5256179723
 30
0.0
 10
4.4373683298
 20
4.5263250333
 30
0.0
 10
4.4371579782
 20
4.5268523563
 30
0.0
 10
4.4369939787
 20
4.5273833952
 30
0.0
 10
4.4368765737
 20
4.527917277
 30
0.0
 10
4.4368060193
 20
4.5284530265
 30
0.0
 10
4.4367903524
 20
4.5288112942
 30
0.0
 10
4.4367903627
 20
4.5289897983
 30
0.0
  0
SPLINE
  5
34A
100
AcDbEntity
  8
ALL_ASSEMBLY_MEMBERS
100
AcDbSpline
 62
7
  6
CONTINUOUS
 70
0
 71
3
 72
35
 73
31
 74
0
 42
0.0000001
 43
0.0000001
 44
0.0000000001
 40
0.0
 40
0.0
 40
0.0
 40
0.0
 40
0.0034406999
 40
0.0118400422
 40
0.0250483776
 40
0.042844492
 40
0.0910715288
 40
0.1540326093
 40
0.1902264867
 40
0.2291293202
 40
0.2704148678
 40
0.3137465995
 40
0.3587685843
 40
0.4050978784
 40
0.4523214755
 40
0.4999999916
 40
0.5476785079
 40
0.5949021053
 40
0.6412313998
 40
0.6862533851
 40
0.7295851175
 40
0.7708706658
 40
0.8097735003
 40
0.8459673786
 40
0.9089284615
 40
0.9571555012
 40
0.9749516172
 40
0.9881599543
 40
0.9965592984
 40
1.0
 40
1.0
 40
1.0
 40
1.0
 10
4.1391012385
 20
4.1606545405
 30
0.0
 10
4.139312198
 20
4.1607374175
 30
0.0
 10
4.140038439
 20
4.1610218657
 30
0.0
 10
4.1415767877
 20
4.1616186743
 30
0.0
 10
4.1440024441
 20
4.1625428232
 30
0.0
 10
4.1488961314
 20
4.164357814
 30
0.0
 10
4.156919499
 20
4.1671580037
 30
0.0
 10
4.1661952719
 20
4.1700354975
 30
0.0
 10
4.1749687552
 20
4.1724337573
 30
0.0
 10
4.1824168271
 20
4.1742558495
 30
0.0
 10
4.1903764302
 20
4.1759514126
 30
0.0
 10
4.1987849131
 20
4.1774537979
 30
0.0
 10
4.2075711883
 20
4.1787002527
 30
0.0
 10
4.2166541116
 20
4.1796354461
 30
0.0
 10
4.2259421972
 20
4.1802155297
 30
0.0
 10
4.2353353346
 20
4.1804121654
 30
0.0
 10
4.2447284721
 20
4.1802155299
 30
0.0
 10
4.2540165578
 20
4.1796354464
 30
0.0
 10
4.2630994811
 20
4.178700253
 30
0.0
 10
4.2718857565
 20
4.1774537984
 30
0.0
 10
4.2802942395
 20
4.1759514132
 30
0.0
 10
4.2882538427
 20
4.1742558502
 30
0.0
 10
4.2957019149
 20
4.172433758
 30
0.0
 10
4.3044753985
 20
4.1700354982
 30
0.0
 10
4.3137511718
 20
4.1671580043
 30
0.0
 10
4.3217745399
 20
4.1643578145
 30
0.0
 10
4.3266682275
 20
4.1625428236
 30
0.0
 10
4.3290938843
 20
4.1616186745
 30
0.0
 10
4.3306322332
 20
4.1610218659
 30
0.0
 10
4.3313584745
 20
4.1607374175
 30
0.0
 10
4.3315694341
 20
4.1606545405
 30
0.0
  0
SPLINE
  5
34B
100
AcDbEntity
  8
ALL_ASSEMBLY_MEMBERS
100
AcDbSpline
 62
7
  6
CONTINUOUS
 70
0
 71
3
 72
18
 73
14
 74
0
 42
0.0000001
 43
0.0000001
 44
0.0000000001
 40
0.0
 40
0.0
 40
0.0
 40
0.0
 40
0.1313540398
 40
0.2621352075
 40
0.3917643492
 40
0.5196365035
 40
0.6451121167
 40
0.7067476863
 40
0.7675210456
 40
0.8273359149
 40
0.8860915779
 40
0.9436828169
 40
1.0
 40
1.0
 40
1.0
 40
1.0
 10
4.4693353363
 20
4.5151298626
 30
0.0
 10
4.4709441168
 20
4.5151298626
 30
0.0
 10
4.4741557048
 20
4.5152373036
 30
0.0
 10
4.4789331435
 20
4.5157184818
 30
0.0
 10
4.4836257805
 20
4.516511764
 30
0.0
 10
4.4881908771
 20
4.5176045027
 30
0.0
 10
4.4918758931
 20
4.51875749
 30
0.0
 10
4.494722073
 20
4.5198156949
 30
0.0
 10
4.4967854659
 20
4.520667544
 30
0.0
 10
4.4987844764
 20
4.5215790823
 30
0.0
 10
4.500713353
 20
4.5225469701
 30
0.0
 10
4.5025660785
 20
4.5235675834
 30
0.0
 10
4.5037606089
 20
4.5242891947
 30
0.0
 10
4.504343331
 20
4.5246582417
 30
0.0
  0
SPLINE
  5
34C
100
AcDbEntity
  8
ALL_ASSEMBLY_MEMBERS
100
AcDbSpline
 62
7
  6
CONTINUOUS
 70
0
 71
3
 72
24
 73
20
 74
0
 42
0.0000001
 43
0.0000001
 44
0.0000000001
 40
0.0
 40
0.0
 40
0.0
 40
0.0
 40
0.0618541405
 40
0.1220142421
 40
0.1808077311
 40
0.2386143094
 40
0.295842883
 40
0.3529259211
 40
0.410303482
 40
0.4684079856
 40
0.5276499576
 40
0.5884059441
 40
0.6510096089
 40
0.7157464086
 40
0.7489962457
 40
0.782863314
 40
0.8525217994
 40
0.9248703188
 40
1.0
 40
1.0
 40
1.0
 40
1.0
 10
4.5095306861
 20
4.5434286823
 30
0.0
 10
4.5097463637
 20
4.5430439226
 30
0.0
 10
4.5101407915
 20
4.5422669442
 30
0.0
 10
4.5106204545
 20
4.5410682686
 30
0.0
 10
4.5109772834
 20
4.5398572917
 30
0.0
 10
4.5112097162
 20
4.5386376
 30
0.0
 10
4.5113166171
 20
4.5374127305
 30
0.0
 10
4.5112973113
 20
4.5361863919
 30
0.0
 10
4.5111516117
 20
4.5349623214
 30
0.0
 10
4.5108798141
 20
4.5337442442
 30
0.0
 10
4.510482679
 20
4.5325358196
 30
0.0
 10
4.5099613776
 20
4.5313405964
 30
0.0
 10
4.5093175004
 20
4.5301620588
 30
0.0
 10
4.5086859934
 20
4.5292051492
 30
0.0
 10
4.5081235337
 20
4.5284514483
 30
0.0
 10
4.5075111739
 20
4.5276920214
 30
0.0
 10
4.5066709827
 20
4.5267593652
 30
0.0
 10
4.5055591838
 20
4.5256802096
 30
0.0
 10
4.5047599529
 20
4.5249955055
 30
0.0
 10
4.5043433933
 20
4.5246585912
 30
0.0
  0
SPLINE
  5
34D
100
AcDbEntity
  8
ALL_ASSEMBLY_MEMBERS
100
AcDbSpline
 62
7
  6
CONTINUOUS
 70
0
 71
3
 72
30
 73
26
 74
0
 42
0.0000001
 43
0.0000001
 44
0.0000000001
 40
0.0
 40
0.0
 40
0.0
 40
0.0
 40
0.0789985184
 40
0.1537417973
 40
0.2243421265
 40
0.2910123618
 40
0.3540791085
 40
0.4139937643
 40
0.4429605372
 40
0.4713681142
 40
0.4993080785
 40
0.5268786894
 40
0.5541831535
 40
0.581328646
 40
0.6084243443
 40
0.6355798561
 40
0.6629033056
 40
0.6904996951
 40
0.7184692823
 40
0.7469064497
 40
0.7758984688
 40
0.8055251837
 40
0.8669368945
 40
0.9316451341
 40
1.0
 40
1.0
 40
1.0
 40
1.0
 10
4.4392963083
 20
4.5410340141
 30
0.0
 10
4.4388203877
 20
4.5407381823
 30
0.0
 10
4.437912656
 20
4.5401318254
 30
0.0
 10
4.4366576859
 20
4.5391507518
 30
0.0
 10
4.4355523247
 20
4.5381281433
 30
0.0
 10
4.4346014481
 20
4.5370689827
 30
0.0
 10
4.4338093182
 20
4.5359784682
 30
0.0
 10
4.4332785536
 20
4.5350370466
 30
0.0
 10
4.4329407166
 20
4.5342761929
 30
0.0
 10
4.4327316585
 20
4.533707785
 30
0.0
 10
4.4325643757
 20
4.5331360183
 30
0.0
 10
4.4324389861
 20
4.5325616125
 30
0.0
 10
4.4323556269
 20
4.531985301
 30
0.0
 10
4.4323143248
 20
4.5314078285
 30
0.0
 10
4.4323150936
 20
4.5308299365
 30
0.0
 10
4.4323578594
 20
4.5302523678
 30
0.0
 10
4.4324425068
 20
4.5296758579
 30
0.0
 10
4.4325688669
 20
4.5291011356
 30
0.0
 10
4.4327367025
 20
4.5285289108
 30
0.0
 10
4.4329457555
 20
4.5279598952
 30
0.0
 10
4.4331956951
 20
4.5273947501
 30
0.0
 10
4.4335876189
 20
4.5266383772
 30
0.0
 10
4.4341827908
 20
4.5257045404
 30
0.0
 10
4.4350448329
 20
4.5246248046
 30
0.0
 10
4.435702245
 20
4.5239454194
 30
0.0
 10
4.4360535516
 20
4.5236112273
 30
0.0
  0
SPLINE
  5
34E
100
AcDbEntity
  8
ALL_ASSEMBLY_MEMBERS
100
AcDbSpline
 62
7
  6
CONTINUOUS
 70
0
 71
3
 72
17
 73
13
 74
0
 42
0.0000001
 43
0.0000001
 44
0.0000000001
 40
0.0
 40
0.0
 40
0.0
 40
0.0
 40
0.0571577108
 40
0.1154101181
 40
0.1746646638
 40
0.2348324174
 40
0.3575532802
 40
0.482950553
 40
0.6104336221
 40
0.739450354
 40
0.8694742064
 40
1.0
 40
1.0
 40
1.0
 40
1.0
 10
4.4360559757
 20
4.5236117628
 30
0.0
 10
4.4366285593
 20
4.5232804015
 30
0.0
 10
4.4377974819
 20
4.5226331912
 30
0.0
 10
4.4396007242
 20
4.5217184273
 30
0.0
 10
4.4414666138
 20
4.5208528766
 30
0.0
 10
4.4440483179
 20
4.5197611233
 30
0.0
 10
4.447403481
 20
4.5185384446
 30
0.0
 10
4.4515788978
 20
4.5173177637
 30
0.0
 10
4.4558949198
 20
4.5163502629
 30
0.0
 10
4.4603163911
 20
4.515649282
 30
0.0
 10
4.4648081011
 20
4.5152246248
 30
0.0
 10
4.4678246088
 20
4.5151298626
 30
0.0
 10
4.4693353363
 20
4.5151298626
 30
0.0
  0
SPLINE
  5
34F
100
AcDbEntity
  8
ALL_ASSEMBLY_MEMBERS
100
AcDbSpline
 62
7
  6
CONTINUOUS
 70
0
 71
3
 72
14
 73
10
 74
0
 42
0.0000001
 43
0.0000001
 44
0.0000000001
 40
0.0
 40
0.0
 40
0.0
 40
0.0
 40
0.255830067
 40
0.3829630392
 40
0.5092049003
 40
0.6342837037
 40
0.7579376897
 40
0.8799253329
 40
1.0
 40
1.0
 40
1.0
 40
1.0
 10
4.4696638289
 20
4.5571011506
 30
0.0
 10
4.4709901551
 20
4.5570985284
 30
0.0
 10
4.4729756592
 20
4.5570709452
 30
0.0
 10
4.475614257
 20
4.5569856663
 30
0.0
 10
4.4775743942
 20
4.5568975131
 30
0.0
 10
4.4795151996
 20
4.5567847187
 30
0.0
 10
4.4814322829
 20
4.556646868
 30
0.0
 10
4.4833213197
 20
4.5564834695
 30
0.0
 10
4.4845698501
 20
4.5563560582
 30
0.0
 10
4.485188603
 20
4.5562877072
 30
0.0
  0
SPLINE
  5
350
100
AcDbEntity
  8
ALL_ASSEMBLY_MEMBERS
100
AcDbSpline
 62
7
  6
CONTINUOUS
 70
0
 71
3
 72
22
 73
18
 74
0
 42
0.0000001
 43
0.0000001
 44
0.0000000001
 40
0.0
 40
0.0
 40
0.0
 40
0.0
 40
0.1289121265
 40
0.1938615418
 40
0.2589512502
 40
0.3240377364
 40
0.3889778706
 40
0.4536279227
 40
0.5178448131
 40
0.5814872305
 40
0.6444167206
 40
0.7064990222
 40
0.7676055285
 40
0.8276149758
 40
0.8864153375
 40
0.9439059617
 40
1.0
 40
1.0
 40
1.0
 40
1.0
 10
4.4579377742
 20
4.556608977
 30
0.0
 10
4.4594329212
 20
4.5565299316
 30
0.0
 10
4.461678748
 20
4.5563492673
 30
0.0
 10
4.4646643276
 20
4.5559841539
 30
0.0
 10
4.466905536
 20
4.5556458768
 30
0.0
 10
4.4691360096
 20
4.5552435631
 30
0.0
 10
4.4713487574
 20
4.5547770807
 30
0.0
 10
4.4735366414
 20
4.5542464958
 30
0.0
 10
4.4756924436
 20
4.5536520721
 30
0.0
 10
4.4778088733
 20
4.5529942807
 30
0.0
 10
4.4798785926
 20
4.552273804
 30
0.0
 10
4.4818942374
 20
4.5514915435
 30
0.0
 10
4.4838484454
 20
4.5506486246
 30
0.0
 10
4.4857338744
 20
4.5497464053
 30
0.0
 10
4.4875432559
 20
4.5487864611
 30
0.0
 10
4.4892693286
 20
4.5477706508
 30
0.0
 10
4.490373954
 20
4.547048298
 30
0.0
 10
4.4909098847
 20
4.5466778556
 30
0.0
  0
SPLINE
  5
351
100
AcDbEntity
  8
ALL_ASSEMBLY_MEMBERS
100
AcDbSpline
 62
7
  6
CONTINUOUS
 70
0
 71
3
 72
32
 73
28
 74
0
 42
0.0000001
 43
0.0000001
 44
0.0000000001
 40
0.0
 40
0.0
 40
0.0
 40
0.0
 40
0.0761316766
 40
0.1519546614
 40
0.2270409314
 40
0.3009737347
 40
0.3733582786
 40
0.443827082
 40
0.512047575
 40
0.5452261659
 40
0.5777382163
 40
0.6095557281
 40
0.640654744
 40
0.6710154476
 40
0.7006227473
 40
0.729466683
 40
0.7575426962
 40
0.7848523942
 40
0.8114038077
 40
0.8372119551
 40
0.8622994884
 40
0.8866969021
 40
0.9104431653
 40
0.9335859196
 40
0.9561815141
 40
0.9782950918
 40
1.0
 40
1.0
 40
1.0
 40
1.0
 10
4.4696638289
 20
4.5571011506
 30
0.0
 10
4.470908106
 20
4.5570332159
 30
0.0
 10
4.4733889959
 20
4.5568431894
 30
0.0
 10
4.4770793492
 20
4.5563955283
 30
0.0
 10
4.4807103009
 20
4.555787257
 30
0.0
 10
4.484253851
 20
4.5550215884
 30
0.0
 10
4.4876828152
 20
4.5541029429
 30
0.0
 10
4.4909707836
 20
4.553036934
 30
0.0
 10
4.4935963514
 20
4.5520220929
 30
0.0
 10
4.4956032141
 20
4.5511399957
 30
0.0
 10
4.4970437856
 20
4.5504522915
 30
0.0
 10
4.4984308832
 20
4.5497335024
 30
0.0
 10
4.4997618512
 20
4.548984828
 30
0.0
 10
4.5010341187
 20
4.5482075142
 30
0.0
 10
4.5022452364
 20
4.5474028674
 30
0.0
 10
4.5033928754
 20
4.5465722499
 30
0.0
 10
4.5044748154
 20
4.5457170514
 30
0.0
 10
4.5054889761
 20
4.5448387284
 30
0.0
 10
4.5064333957
 20
4.5439387645
 30
0.0
 10
4.5073062372
 20
4.5430186792
 30
0.0
 10
4.5081058125
 20
4.5420800444
 30
0.0
 10
4.5088305438
 20
4.5411244458
 30
0.0
 10
4.5094790031
 20
4.5401535156
 30
0.0
 10
4.5100498985
 20
4.5391689262
 30
0.0
 10
4.5105420611
 20
4.5381723448
 30
0.0
 10
4.5109544703
 20
4.5371655943
 30
0.0
 10
4.5111775095
 20
4.5364831075
 30
0.0
 10
4.5112749511
 20
4.5361414638
 30
0.0
  0
LINE
  5
352
100
AcDbEntity
  8
ALL_ASSEMBLY_MEMBERS
100
AcDbLine
 62
7
  6
CONTINUOUS
 10
4.4340324693
 20
4.5362650554
 11
4.4365142578
 21
4.5377271663
  0
SPLINE
  5
353
100
AcDbEntity
  8
ALL_ASSEMBLY_MEMBERS
100
AcDbSpline
 62
7
  6
CONTINUOUS
 70
0
 71
3
 72
46
 73
42
 74
0
 42
0.0000001
 43
0.0000001
 44
0.0000000001
 40
0.0
 40
0.0
 40
0.0
 40
0.0
 40
0.0369386283
 40
0.0726425409
 40
0.1070228913
 40
0.1399991947
 40
0.17150562
 40
0.20149917
 40
0.2299697794
 40
0.2569520261
 40
0.282537475
 40
0.2948591102
 40
0.3068975619
 40
0.3186843761
 40
0.3302556269
 40
0.3416515303
 40
0.3529158338
 40
0.364095012
 40
0.3752372562
 40
0.3863913831
 40
0.3976056721
 40
0.4089267926
 40
0.4203988199
 40
0.4320624845
 40
0.4439545827
 40
0.4685398668
 40
0.494374698
 40
0.5216005366
 40
0.5503010661
 40
0.5805130346
 40
0.6122367821
 40
0.6454453047
 40
0.6800915508
 40
0.7161139673
 40
0.7534405571
 40
0.7919916843
 40
0.8316821766
 40
0.8724227121
 40
0.9141195777
 40
0.9566794769
 40
1.0
 40
1.0
 40
1.0
 40
1.0
 10
4.5063193239
 20
4.5259801841
 30
0.0
 10
4.5068913051
 20
4.5263846362
 30
0.0
 10
4.5079976204
 20
4.5272067029
 30
0.0
 10
4.509563346
 20
4.5284996637
 30
0.0
 10
4.5110000778
 20
4.5298263946
 30
0.0
 10
4.5122990515
 20
4.5311801487
 30
0.0
 10
4.5134516402
 20
4.5325538559
 30
0.0
 10
4.5144494446
 20
4.5339401031
 30
0.0
 10
4.5152845263
 20
4.5353313166
 30
0.0
 10
4.5159495345
 20
4.5367195637
 30
0.0
 10
4.5163617175
 20
4.5378821659
 30
0.0
 10
4.5165965733
 20
4.5388003318
 30
0.0
 10
4.5167246105
 20
4.5394742773
 30
0.0
 10
4.516806363
 20
4.5401410717
 30
0.0
 10
4.5168415828
 20
4.5407997672
 30
0.0
 10
4.5168301512
 20
4.5414494188
 30
0.0
 10
4.516772058
 20
4.5420891224
 30
0.0
 10
4.5166674455
 20
4.5427180173
 30
0.0
 10
4.5165165622
 20
4.5433352929
 30
0.0
 10
4.5163198131
 20
4.5439402075
 30
0.0
 10
4.5160776942
 20
4.5445320821
 30
0.0
 10
4.5157908461
 20
4.5451103309
 30
0.0
 10
4.5154599742
 20
4.5456744282
 30
0.0
 10
4.5150858917
 20
4.5462239717
 30
0.0
 10
4.5145245461
 20
4.5469446591
 30
0.0
 10
4.5137137936
 20
4.5478083654
 30
0.0
 10
4.5125950739
 20
4.5487694803
 30
0.0
 10
4.5113283442
 20
4.5496671407
 30
0.0
 10
4.5099224271
 20
4.5505019801
 30
0.0
 10
4.5083859833
 20
4.5512753045
 30
0.0
 10
4.5067276112
 20
4.5519887276
 30
0.0
 10
4.5049557348
 20
4.5526441554
 30
0.0
 10
4.5030785663
 20
4.5532436888
 30
0.0
 10
4.5011040682
 20
4.5537895565
 30
0.0
 10
4.4990399459
 20
4.5542840481
 30
0.0
 10
4.4968936557
 20
4.5547294595
 30
0.0
 10
4.4946724247
 20
4.5551280454
 30
0.0
 10
4.4923833001
 20
4.555481972
 30
0.0
 10
4.4900331221
 20
4.5557933005
 30
0.0
 10
4.4876286982
 20
4.5560639146
 30
0.0
 10
4.4860071263
 20
4.5562171105
 30
0.0
 10
4.485188603
 20
4.5562877072
 30
0.0
  0
SPLINE
  5
354
100
AcDbEntity
  8
ALL_ASSEMBLY_MEMBERS
100
AcDbSpline
 62
7
  6
CONTINUOUS
 70
0
 71
3
 72
22
 73
18
 74
0
 42
0.0000001
 43
0.0000001
 44
0.0000000001
 40
0.0
 40
0.0
 40
0.0
 40
0.0
 40
0.0761137383
 40
0.1508841938
 40
0.2241648541
 40
0.2958268095
 40
0.3657465114
 40
0.4338137086
 40
0.4999308113
 40
0.5640149574
 40
0.625999777
 40
0.6858374268
 40
0.7435009409
 40
0.7989868295
 40
0.8523181171
 40
0.9035461465
 40
1.0
 40
1.0
 40
1.0
 40
1.0
 10
4.485188603
 20
4.5562877072
 30
0.0
 10
4.4858887702
 20
4.5561467875
 30
0.0
 10
4.4872726898
 20
4.5558467583
 30
0.0
 10
4.4893138882
 20
4.5553374945
 30
0.0
 10
4.4912974823
 20
4.5547741576
 30
0.0
 10
4.4932177105
 20
4.5541583991
 30
0.0
 10
4.4950690695
 20
4.5534919732
 30
0.0
 10
4.4968462226
 20
4.5527768017
 30
0.0
 10
4.4985440634
 20
4.552014934
 30
0.0
 10
4.5001577139
 20
4.5512085521
 30
0.0
 10
4.5016825421
 20
4.5503599568
 30
0.0
 10
4.5031141676
 20
4.5494715663
 30
0.0
 10
4.5044484952
 20
4.5485458788
 30
0.0
 10
4.5056816448
 20
4.5475855625
 30
0.0
 10
4.5068102396
 20
4.5465930988
 30
0.0
 10
4.5081438224
 20
4.5452582805
 30
0.0
 10
4.509021769
 20
4.5441771143
 30
0.0
 10
4.5095306861
 20
4.5434286823
 30
0.0
  0
LINE
  5
355
100
AcDbEntity
  8
ALL_ASSEMBLY_MEMBERS
100
AcDbLine
 62
7
  6
CONTINUOUS
 10
4.4579377742
 20
4.556608977
 11
4.4696638289
 21
4.5571011506
  0
SPLINE
  5
356
100
AcDbEntity
  8
ALL_ASSEMBLY_MEMBERS
100
AcDbSpline
 62
7
  6
CONTINUOUS
 70
0
 71
3
 72
56
 73
52
 74
0
 42
0.0000001
 43
0.0000001
 44
0.0000000001
 40
0.0
 40
0.0
 40
0.0
 40
0.0
 40
0.0434609913
 40
0.0863164521
 40
0.128451433
 40
0.1697592096
 40
0.2101327906
 40
0.2494693759
 40
0.2876695586
 40
0.3246383695
 40
0.3602866499
 40
0.3945331055
 40
0.4111093645
 40
0.4273100189
 40
0.4431288622
 40
0.4585608506
 40
0.4736027529
 40
0.4882530342
 40
0.5025125265
 40
0.5163845185
 40
0.5298753259
 40
0.542994607
 40
0.5557558199
 40
0.5681766532
 40
0.5920798054
 40
0.6036326951
 40
0.6149639761
 40
0.6261155991
 40
0.6371337931
 40
0.6480682133
 40
0.6589708908
 40
0.6698949865
 40
0.6808933352
 40
0.692017223
 40
0.7033149155
 40
0.7148309223
 40
0.7266048494
 40
0.7386713537
 40
0.7510594405
 40
0.7768804974
 40
0.7903556522
 40
0.8042176767
 40
0.8184719217
 40
0.8331200959
 40
0.8481609672
 40
0.8635906769
 40
0.8794031993
 40
0.8955907884
 40
0.9290490351
 40
0.9638841975
 40
1.0
 40
1.0
 40
1.0
 40
1.0
 10
4.4579377742
 20
4.556608977
 30
0.0
 10
4.4570503165
 20
4.5565569129
 30
0.0
 10
4.4552885178
 20
4.5564400905
 30
0.0
 10
4.4526699199
 20
4.5562232084
 30
0.0
 10
4.4500993984
 20
4.5559640886
 30
0.0
 10
4.4475848072
 20
4.55566085
 30
0.0
 10
4.4451339952
 20
4.555311359
 30
0.0
 10
4.4427549784
 20
4.5549132994
 30
0.0
 10
4.440455931
 20
4.5544641812
 30
0.0
 10
4.438245236
 20
4.5539613922
 30
0.0
 10
4.4361315935
 20
4.5534022492
 30
0.0
 10
4.4344405795
 20
4.5528815768
 30
0.0
 10
4.4331451821
 20
4.5524323975
 30
0.0
 10
4.4322143386
 20
4.5520833704
 30
0.0
 10
4.4313148857
 20
4.5517182576
 30
0.0
 10
4.4304480653
 20
4.5513367807
 30
0.0
 10
4.4296151518
 20
4.5509386725
 30
0.0
 10
4.4288174173
 20
4.5505237153
 30
0.0
 10
4.4280561628
 20
4.550091694
 30
0.0
 10
4.4273326762
 20
4.5496424622
 30
0.0
 10
4.4266482621
 20
4.549175879
 30
0.0
 10
4.4260042164
 20
4.548691898
 30
0.0
 10
4.425401781
 20
4.5481904321
 30
0.0
 10
4.4246653264
 20
4.547507554
 30
0.0
 10
4.4240044297
 20
4.5467808732
 30
0.0
 10
4.4234333287
 20
4.5460121709
 30
0.0
 10
4.4230572988
 20
4.5454255505
 30
0.0
 10
4.4227298515
 20
4.5448228899
 30
0.0
 10
4.4224518628
 20
4.5442047223
 30
0.0
 10
4.4222241472
 20
4.5435717061
 30
0.0
 10
4.4220473475
 20
4.542924605
 30
0.0
 10
4.4219220028
 20
4.5422642682
 30
0.0
 10
4.421848437
 20
4.5415916369
 30
0.0
 10
4.4218268767
 20
4.5409077143
 30
0.0
 10
4.4218573058
 20
4.5402135614
 30
0.0
 10
4.421939637
 20
4.5395102844
 30
0.0
 10
4.4220735368
 20
4.5387990209
 30
0.0
 10
4.422258636
 20
4.5380809177
 30
0.0
 10
4.4225772424
 20
4.5371025775
 30
0.0
 10
4.4229942786
 20
4.5361282777
 30
0.0
 10
4.4234978033
 20
4.5351642409
 30
0.0
 10
4.4239281726
 20
4.5344299722
 30
0.0
 10
4.4244047797
 20
4.5336961516
 30
0.0
 10
4.42492651
 20
4.5329638938
 30
0.0
 10
4.4254922072
 20
4.5322344036
 30
0.0
 10
4.4261006342
 20
4.5315088118
 30
0.0
 10
4.426750562
 20
4.5307882476
 30
0.0
 10
4.4276809638
 20
4.5298250888
 30
0.0
 10
4.4289420971
 20
4.5286419007
 30
0.0
 10
4.4305837551
 20
4.5272742483
 30
0.0
 10
4.4317481707
 20
4.5264066961
 30
0.0
 10
4.4323513486
 20
4.5259801841
 30
0.0
  0
SPLINE
  5
357
100
AcDbEntity
  8
ALL_ASSEMBLY_MEMBERS
100
AcDbSpline
 62
7
  6
CONTINUOUS
 70
0
 71
3
 72
20
 73
16
 74
0
 42
0.0000001
 43
0.0000001
 44
0.0000000001
 40
0.0
 40
0.0
 40
0.0
 40
0.0
 40
0.0161728331
 40
0.0258036186
 40
0.0369209756
 40
0.0643334836
 40
0.0992315881
 40
0.1417947005
 40
0.1919721843
 40
0.2494665808
 40
0.313814204
 40
0.4610154349
 40
0.6286948361
 40
0.8109417894
 40
1.0
 40
1.0
 40
1.0
 40
1.0
 10
5.4426303416
 20
3.9273361203
 30
0.0
 10
5.44263034
 20
3.9273746726
 30
0.0
 10
5.4426094544
 20
3.9274364479
 30
0.0
 10
5.4425560784
 20
3.9275065117
 30
0.0
 10
5.4424725051
 20
3.9275859643
 30
0.0
 10
5.4423239748
 20
3.9276807729
 30
0.0
 10
5.4420968316
 20
3.9277859408
 30
0.0
 10
5.4418098891
 20
3.9278881782
 30
0.0
 10
5.4414652902
 20
3.9279862656
 30
0.0
 10
5.4410657577
 20
3.9280791538
 30
0.0
 10
5.4404358184
 20
3.9282001742
 30
0.0
 10
5.4395401794
 20
3.9283266453
 30
0.0
 10
5.4383599943
 20
3.9284372744
 30
0.0
 10
5.4370766985
 20
3.9285056857
 30
0.0
 10
5.4361915192
 20
3.9285213915
 30
0.0
 10
5.4357408481
 20
3.9285213915
 30
0.0
  0
SPLINE
  5
358
100
AcDbEntity
  8
ALL_ASSEMBLY_MEMBERS
100
AcDbSpline
 62
7
  6
CONTINUOUS
 70
0
 71
3
 72
23
 73
19
 74
0
 42
0.0000001
 43
0.0000001
 44
0.0000000001
 40
0.0
 40
0.0
 40
0.0
 40
0.0
 40
0.0078034152
 40
0.0161641464
 40
0.0256081261
 40
0.0365034451
 40
0.0490751587
 40
0.0634558353
 40
0.0979038589
 40
0.1401458142
 40
0.1900907423
 40
0.247437934
 40
0.3118120388
 40
0.3826710245
 40
0.459367591
 40
0.6275128975
 40
0.8101911166
 40
1.0
 40
1.0
 40
1.0
 40
1.0
 10
5.4524729084
 20
3.9273361437
 30
0.0
 10
5.4524729103
 20
3.9272911867
 30
0.0
 10
5.4524585728
 20
3.9271975499
 30
0.0
 10
5.4523954364
 20
3.9270624869
 30
0.0
 10
5.4522926217
 20
3.9269315926
 30
0.0
 10
5.4521511204
 20
3.9268043753
 30
0.0
 10
5.4519713933
 20
3.9266801396
 30
0.0
 10
5.4516619515
 20
3.9265078952
 30
0.0
 10
5.4511758266
 20
3.9263066119
 30
0.0
 10
5.4504785503
 20
3.9260902305
 30
0.0
 10
5.4496405853
 20
3.9258882083
 30
0.0
 10
5.4486690733
 20
3.9257016818
 30
0.0
 10
5.4475723612
 20
3.9255324464
 30
0.0
 10
5.4463606527
 20
3.9253812507
 30
0.0
 10
5.4445508419
 20
3.9251991295
 30
0.0
 10
5.4420931528
 20
3.9250283153
 30
0.0
 10
5.4389804615
 20
3.9249074741
 30
0.0
 10
5.4368343743
 20
3.924880587
 30
0.0
 10
5.4357408481
 20
3.924880587
 30
0.0
  0
SPLINE
  5
359
100
AcDbEntity
  8
ALL_ASSEMBLY_MEMBERS
100
AcDbSpline
 62
7
  6
CONTINUOUS
 70
0
 71
3
 72
20
 73
16
 74
0
 42
0.0000001
 43
0.0000001
 44
0.0000000001
 40
0.0
 40
0.0
 40
0.0
 40
0.0
 40
0.189057575
 40
0.3713042276
 40
0.5389848736
 40
0.6861864316
 40
0.7505333508
 40
0.8080268943
 40
0.8582038084
 40
0.9007670648
 40
0.9356657355
 40
0.9630788201
 40
0.9741963456
 40
0.9838271894
 40
1.0
 40
1.0
 40
1.0
 40
1.0
 10
5.4357408481
 20
3.9285213915
 30
0.0
 10
5.4352901785
 20
3.9285213915
 30
0.0
 10
5.4344050015
 20
3.9285056865
 30
0.0
 10
5.4331217049
 20
3.9284372745
 30
0.0
 10
5.4319415169
 20
3.9283266438
 30
0.0
 10
5.4310458756
 20
3.9282001747
 30
0.0
 10
5.4304159391
 20
3.9280791554
 30
0.0
 10
5.4300164116
 20
3.9279862681
 30
0.0
 10
5.4296718159
 20
3.9278881804
 30
0.0
 10
5.4293848733
 20
3.9277859426
 30
0.0
 10
5.429157727
 20
3.9276807741
 30
0.0
 10
5.4290091932
 20
3.9275859652
 30
0.0
 10
5.4289256177
 20
3.9275065121
 30
0.0
 10
5.428872241
 20
3.9274364482
 30
0.0
 10
5.4288513558
 20
3.9273746725
 30
0.0
 10
5.4288513545
 20
3.9273361203
 30
0.0
  0
SPLINE
  5
35A
100
AcDbEntity
  8
ALL_ASSEMBLY_MEMBERS
100
AcDbSpline
 62
7
  6
CONTINUOUS
 70
0
 71
3
 72
23
 73
19
 74
0
 42
0.0000001
 43
0.0000001
 44
0.0000000001
 40
0.0
 40
0.0
 40
0.0
 40
0.0
 40
0.1898090382
 40
0.3724871401
 40
0.5406320978
 40
0.6173287805
 40
0.6881879839
 40
0.752562232
 40
0.8099093563
 40
0.859854115
 40
0.9020959549
 40
0.9365440101
 40
0.9509247321
 40
0.9634964936
 40
0.9743918508
 40
0.9838358491
 40
0.9921965845
 40
1.0
 40
1.0
 40
1.0
 40
1.0
 10
5.4357408481
 20
3.924880587
 30
0.0
 10
5.4346473211
 20
3.924880587
 30
0.0
 10
5.4325012337
 20
3.9249074745
 30
0.0
 10
5.4293885441
 20
3.9250283149
 30
0.0
 10
5.426930857
 20
3.9251991292
 30
0.0
 10
5.4251210464
 20
3.9253812509
 30
0.0
 10
5.4239093352
 20
3.9255324469
 30
0.0
 10
5.4228126213
 20
3.9257016818
 30
0.0
 10
5.4218411097
 20
3.9258882079
 30
0.0
 10
5.4210031467
 20
3.9260902298
 30
0.0
 10
5.4203058721
 20
3.9263066114
 30
0.0
 10
5.4198197474
 20
3.9265078947
 30
0.0
 10
5.4195103049
 20
3.9266801391
 30
0.0
 10
5.4193305769
 20
3.9268043749
 30
0.0
 10
5.4191890748
 20
3.9269315923
 30
0.0
 10
5.4190862597
 20
3.9270624867
 30
0.0
 10
5.4190231233
 20
3.9271975499
 30
0.0
 10
5.4190087859
 20
3.9272911867
 30
0.0
 10
5.4190087878
 20
3.9273361438
 30
0.0
  0
LINE
  5
35B
100
AcDbEntity
  8
ALL_ASSEMBLY_MEMBERS
100
AcDbLine
 62
7
  6
CONTINUOUS
 10
5.4357408481
 20
3.9303930179
 11
5.4433511195
 21
3.9300288687
  0
SPLINE
  5
35C
100
AcDbEntity
  8
ALL_ASSEMBLY_MEMBERS
100
AcDbSpline
 62
7
  6
CONTINUOUS
 70
0
 71
3
 72
19
 73
15
 74
0
 42
0.0000001
 43
0.0000001
 44
0.0000000001
 40
0.0
 40
0.0
 40
0.0
 40
0.0
 40
0.20355588
 40
0.388916636
 40
0.5529760947
 40
0.6930837406
 40
0.7535900277
 40
0.8074763989
 40
0.8546516999
 40
0.8951680966
 40
0.9292150896
 40
0.95723513
 40
0.9801956094
 40
1.0
 40
1.0
 40
1.0
 40
1.0
 10
5.4433511195
 20
3.9300288687
 30
0.0
 10
5.4440119697
 20
3.9299624314
 30
0.0
 10
5.4452727438
 20
3.9298157266
 30
0.0
 10
5.4470565649
 20
3.9295414602
 30
0.0
 10
5.4486238297
 20
3.9292305526
 30
0.0
 10
5.4497775451
 20
3.9289353605
 30
0.0
 10
5.4505685515
 20
3.9286818127
 30
0.0
 10
5.4510625632
 20
3.9284970639
 30
0.0
 10
5.4514850547
 20
3.9283093651
 30
0.0
 10
5.4518347271
 20
3.9281197854
 30
0.0
 10
5.4521108999
 20
3.9279291002
 30
0.0
 10
5.452313255
 20
3.9277369937
 30
0.0
 10
5.4524412357
 20
3.9275410754
 30
0.0
 10
5.4524729058
 20
3.9274007634
 30
0.0
 10
5.4524729084
 20
3.9273361437
 30
0.0
  0
SPLINE
  5
35D
100
AcDbEntity
  8
ALL_ASSEMBLY_MEMBERS
100
AcDbSpline
 62
7
  6
CONTINUOUS
 70
0
 71
3
 72
18
 73
14
 74
0
 42
0.0000001
 43
0.0000001
 44
0.0000000001
 40
0.0
 40
0.0
 40
0.0
 40
0.0
 40
0.0196331412
 40
0.0421488034
 40
0.0696179638
 40
0.1031481057
 40
0.143227933
 40
0.1900563012
 40
0.3040558468
 40
0.4444578624
 40
0.6090795544
 40
0.7953332078
 40
1.0
 40
1.0
 40
1.0
 40
1.0
 10
5.4288513545
 20
3.9273361203
 30
0.0
 10
5.4288513537
 20
3.9273095983
 30
0.0
 10
5.4288643025
 20
3.9272522565
 30
0.0
 10
5.4289178355
 20
3.9271732302
 30
0.0
 10
5.4290025186
 20
3.9270976075
 30
0.0
 10
5.4291181209
 20
3.9270242007
 30
0.0
 10
5.4292644718
 20
3.9269525985
 30
0.0
 10
5.429517261
 20
3.9268532418
 30
0.0
 10
5.4299089516
 20
3.9267402483
 30
0.0
 10
5.4304629307
 20
3.9266228516
 30
0.0
 10
5.4311185597
 20
3.9265183761
 30
0.0
 10
5.4318638413
 20
3.9264291491
 30
0.0
 10
5.432389967
 20
3.9263827042
 30
0.0
 10
5.4326656615
 20
3.9263618748
 30
0.0
  0
LINE
  5
35E
100
AcDbEntity
  8
ALL_ASSEMBLY_MEMBERS
100
AcDbLine
 62
7
  6
CONTINUOUS
 10
5.4326656615
 20
3.9263618748
 11
5.4357408481
 21
3.9262527523
  0
SPLINE
  5
35F
100
AcDbEntity
  8
ALL_ASSEMBLY_MEMBERS
100
AcDbSpline
 62
7
  6
CONTINUOUS
 70
0
 71
3
 72
23
 73
19
 74
0
 42
0.0000001
 43
0.0000001
 44
0.0000000001
 40
0.0
 40
0.0
 40
0.0
 40
0.0
 40
0.0078812127
 40
0.0164536615
 40
0.0261985843
 40
0.0374419714
 40
0.0503770288
 40
0.0651150352
 40
0.1002079959
 40
0.1429471231
 40
0.1932146859
 40
0.2507048315
 40
0.3150490248
 40
0.385731092
 40
0.4621336633
 40
0.6294611839
 40
0.8111746924
 40
1.0
 40
1.0
 40
1.0
 40
1.0
 10
5.4524729062
 20
3.9298360512
 30
0.0
 10
5.4524729038
 20
3.9298818081
 30
0.0
 10
5.4524581336
 20
3.9299777706
 30
0.0
 10
5.4523948344
 20
3.9301176244
 30
0.0
 10
5.4522920315
 20
3.9302562806
 30
0.0
 10
5.4521505252
 20
3.9303941435
 30
0.0
 10
5.451970754
 20
3.9305316724
 30
0.0
 10
5.4516619596
 20
3.9307258822
 30
0.0
 10
5.451177001
 20
3.9309607754
 30
0.0
 10
5.4504807039
 20
3.9312236346
 30
0.0
 10
5.4496443887
 20
3.9314784273
 30
0.0
 10
5.4486750365
 20
3.9317220418
 30
0.0
 10
5.4475807137
 20
3.9319507496
 30
0.0
 10
5.4463712436
 20
3.9321616052
 30
0.0
 10
5.4445644117
 20
3.9324228869
 30
0.0
 10
5.4421065989
 20
3.9326789465
 30
0.0
 10
5.4389886796
 20
3.9328664796
 30
0.0
 10
5.4368371324
 20
3.9329090898
 30
0.0
 10
5.4357408481
 20
3.9329090898
 30
0.0
  0
SPLINE
  5
360
100
AcDbEntity
  8
ALL_ASSEMBLY_MEMBERS
100
AcDbSpline
 62
7
  6
CONTINUOUS
 70
0
 71
3
 72
19
 73
15
 74
0
 42
0.0000001
 43
0.0000001
 44
0.0000000001
 40
0.0
 40
0.0
 40
0.0
 40
0.0
 40
0.0198049523
 40
0.0427658196
 40
0.0707860016
 40
0.1048329554
 40
0.1453492186
 40
0.1925243779
 40
0.2464106673
 40
0.3069168988
 40
0.4470242174
 40
0.6110828505
 40
0.7964431978
 40
1.0
 40
1.0
 40
1.0
 40
1.0
 10
5.4190087878
 20
3.9273361438
 30
0.0
 10
5.4190087906
 20
3.9274007605
 30
0.0
 10
5.4190404576
 20
3.9275410654
 30
0.0
 10
5.4191684266
 20
3.9277369752
 30
0.0
 10
5.4193707636
 20
3.9279290737
 30
0.0
 10
5.4196469121
 20
3.9281197508
 30
0.0
 10
5.4199965547
 20
3.9283093227
 30
0.0
 10
5.4204190113
 20
3.9284970141
 30
0.0
 10
5.4209129836
 20
3.9286817563
 30
0.0
 10
5.4217039275
 20
3.9289352958
 30
0.0
 10
5.4228575513
 20
3.9292304802
 30
0.0
 10
5.4244246932
 20
3.9295413832
 30
0.0
 10
5.4262083804
 20
3.9298156489
 30
0.0
 10
5.4274690628
 20
3.9299623568
 30
0.0
 10
5.4281298671
 20
3.9300287971
 30
0.0
  0
LINE
  5
361
100
AcDbEntity
  8
ALL_ASSEMBLY_MEMBERS
100
AcDbLine
 62
7
  6
CONTINUOUS
 10
5.4281298671
 20
3.9300287971
 11
5.4357408481
 21
3.9303930179
  0
LINE
  5
362
100
AcDbEntity
  8
ALL_ASSEMBLY_MEMBERS
100
AcDbLine
 62
7
  6
CONTINUOUS
 10
5.4365313327
 20
3.9262596329
 11
5.4388159605
 21
3.9263618698
  0
SPLINE
  5
363
100
AcDbEntity
  8
ALL_ASSEMBLY_MEMBERS
100
AcDbSpline
 62
7
  6
CONTINUOUS
 70
0
 71
3
 72
18
 73
14
 74
0
 42
0.0000001
 43
0.0000001
 44
0.0000000001
 40
0.0
 40
0.0
 40
0.0
 40
0.0
 40
0.2046682898
 40
0.3909226323
 40
0.5555427642
 40
0.6959425846
 40
0.8099416072
 40
0.856770528
 40
0.8968510988
 40
0.9303819048
 40
0.9578513979
 40
0.9803670226
 40
1.0
 40
1.0
 40
1.0
 40
1.0
 10
5.4388159605
 20
3.9263618698
 30
0.0
 10
5.4390916621
 20
3.9263826994
 30
0.0
 10
5.4396178004
 20
3.9264291444
 30
0.0
 10
5.4403630969
 20
3.92651837
 30
0.0
 10
5.4410187342
 20
3.9266228441
 30
0.0
 10
5.4415727181
 20
3.9267402408
 30
0.0
 10
5.4419644129
 20
3.9268532358
 30
0.0
 10
5.4422172083
 20
3.9269525933
 30
0.0
 10
5.442363565
 20
3.9270241964
 30
0.0
 10
5.4424791724
 20
3.9270976042
 30
0.0
 10
5.4425638594
 20
3.9271732276
 30
0.0
 10
5.4426173941
 20
3.9272522553
 30
0.0
 10
5.4426303427
 20
3.927309598
 30
0.0
 10
5.4426303416
 20
3.9273361203
 30
0.0
  0
SPLINE
  5
364
100
AcDbEntity
  8
ALL_ASSEMBLY_MEMBERS
100
AcDbSpline
 62
7
  6
CONTINUOUS
 70
0
 71
3
 72
23
 73
19
 74
0
 42
0.0000001
 43
0.0000001
 44
0.0000000001
 40
0.0
 40
0.0
 40
0.0
 40
0.0
 40
0.1888229036
 40
0.3705327349
 40
0.5378605567
 40
0.6142646738
 40
0.6849485675
 40
0.7492938873
 40
0.8067841067
 40
0.8570512933
 40
0.899790283
 40
0.9348837029
 40
0.9496220702
 40
0.9625575115
 40
0.9738012536
 40
0.9835463683
 40
0.9921188286
 40
1.0
 40
1.0
 40
1.0
 40
1.0
 10
5.4357408481
 20
3.9329090898
 30
0.0
 10
5.4346445778
 20
3.9329090898
 30
0.0
 10
5.4324930658
 20
3.9328664843
 30
0.0
 10
5.4293751803
 20
3.9326789517
 30
0.0
 10
5.4269173775
 20
3.9324228987
 30
0.0
 10
5.4251105246
 20
3.9321616133
 30
0.0
 10
5.4239010283
 20
3.9319507564
 30
0.0
 10
5.4228066874
 20
3.9317220493
 30
0.0
 10
5.4218373298
 20
3.9314784366
 30
0.0
 10
5.4210010168
 20
3.9312236453
 30
0.0
 10
5.4203047205
 20
3.9309607846
 30
0.0
 10
5.4198197585
 20
3.9307258895
 30
0.0
 10
5.4195109573
 20
3.9305316776
 30
0.0
 10
5.4193311797
 20
3.9303941467
 30
0.0
 10
5.419189667
 20
3.9302562827
 30
0.0
 10
5.4190868596
 20
3.9301176256
 30
0.0
 10
5.4190235603
 20
3.9299777705
 30
0.0
 10
5.4190087918
 20
3.9298818078
 30
0.0
 10
5.4190087902
 20
3.9298360512
 30
0.0
  0
SPLINE
  5
365
100
AcDbEntity
  8
ALL_ASSEMBLY_MEMBERS
100
AcDbSpline
 62
7
  6
CONTINUOUS
 70
0
 71
3
 72
15
 73
11
 74
0
 42
0.0000001
 43
0.0000001
 44
0.0000000001
 40
0.0
 40
0.0
 40
0.0
 40
0.0
 40
0.0414433687
 40
0.1545443019
 40
0.3155767614
 40
0.4999968917
 40
0.6844178382
 40
0.8454508257
 40
0.9585536103
 40
1.0
 40
1.0
 40
1.0
 40
1.0
 10
5.0643353363
 20
4.8906482919
 30
0.0
 10
5.0619363598
 20
4.8902816195
 30
0.0
 10
5.0529822824
 20
4.8889667375
 30
0.0
 10
5.0346402314
 20
4.8866878495
 30
0.0
 10
5.0078688556
 20
4.8844698163
 30
0.0
 10
4.9768358348
 20
4.883567646
 30
0.0
 10
4.945802781
 20
4.8844697562
 30
0.0
 10
4.9190312149
 20
4.8866877621
 30
0.0
 10
4.9006888477
 20
4.8889666715
 30
0.0
 10
4.8917344876
 20
4.8902815925
 30
0.0
 10
4.8893353363
 20
4.8906482919
 30
0.0
  0
ELLIPSE
  5
366
100
AcDbEntity
  8
ALL_ASSEMBLY_MEMBERS
100
AcDbEllipse
 62
7
  6
CONTINUOUS
 10
5.3675686119
 20
4.4056482919
 30
0.0
 11
-0.0
 21
0.48475
 31
0.0
 40
0.2210555332
 41
6.3004893413
 42
6.3175170955
  0
ELLIPSE
  5
367
100
AcDbEntity
  8
ALL_ASSEMBLY_MEMBERS
100
AcDbEllipse
 62
7
  6
CONTINUOUS
 10
5.3723894009
 20
4.4056482919
 30
0.0
 11
0.0
 21
0.48475
 31
0.0
 40
0.7957997678
 41
6.2863035852
 42
6.3004893413
  0
ELLIPSE
  5
368
100
AcDbEntity
  8
ALL_ASSEMBLY_MEMBERS
100
AcDbEllipse
 62
7
  6
CONTINUOUS
 10
5.4411198551
 20
4.4056482919
 30
0.0
 11
0.0
 21
0.48475
 31
0.0
 40
0.7957996981
 41
-0.0173040341
 42
-0.0031182781
  0
ELLIPSE
  5
369
100
AcDbEntity
  8
ALL_ASSEMBLY_MEMBERS
100
AcDbEllipse
 62
7
  6
CONTINUOUS
 10
5.4459406437
 20
4.4056482919
 30
0.0
 11
0.0
 21
0.48475
 31
0.0
 40
0.2210555139
 41
-0.0343317884
 42
-0.0173040341
  0
ELLIPSE
  5
36A
100
AcDbEntity
  8
ALL_ASSEMBLY_MEMBERS
100
AcDbEllipse
 62
7
  6
CONTINUOUS
 10
5.5253233395
 20
4.4056482919
 30
0.0
 11
3.2147129739
 21
-0.0
 31
0.0
 40
0.1507910672
 41
1.6102429677
 42
1.6130823074
  0
ELLIPSE
  5
36B
100
AcDbEntity
  8
ALL_ASSEMBLY_MEMBERS
100
AcDbEllipse
 62
7
  6
CONTINUOUS
 10
5.4709641371
 20
4.4056482919
 30
0.0
 11
1.9288162072
 21
-0.0
 31
0.0
 40
0.2513199538
 41
1.6130823074
 42
1.6159220045
  0
ELLIPSE
  5
36C
100
AcDbEntity
  8
ALL_ASSEMBLY_MEMBERS
100
AcDbEllipse
 62
7
  6
CONTINUOUS
 10
5.4419611128
 20
4.4056482919
 30
0.0
 11
1.2858813755
 21
0.0
 31
0.0
 40
0.3769787861
 41
1.6159220045
 42
1.621602498
  0
ELLIPSE
  5
36D
100
AcDbEntity
  8
ALL_ASSEMBLY_MEMBERS
100
AcDbEllipse
 62
7
  6
CONTINUOUS
 10
5.4093097762
 20
4.4056482919
 30
0.0
 11
0.6429400371
 21
0.0
 31
0.0
 40
0.7539583352
 41
1.621602498
 42
1.6301263818
  0
ELLIPSE
  5
36E
100
AcDbEntity
  8
ALL_ASSEMBLY_MEMBERS
100
AcDbEllipse
 62
7
  6
CONTINUOUS
 10
5.3940604411
 20
4.4056482919
 30
0.0
 11
0.0
 21
0.48475
 31
0.0
 40
0.7957993124
 41
0.059330055
 42
0.0735464445
  0
ELLIPSE
  5
36F
100
AcDbEntity
  8
ALL_ASSEMBLY_MEMBERS
100
AcDbEllipse
 62
7
  6
CONTINUOUS
 10
5.3735883509
 20
4.4056482919
 30
0.0
 11
-0.0
 21
0.48475
 31
0.0
 40
0.2210555332
 41
0.0735464445
 42
0.0906260353
  0
ELLIPSE
  5
370
100
AcDbEntity
  8
ALL_ASSEMBLY_MEMBERS
100
AcDbEllipse
 62
7
  6
CONTINUOUS
 10
5.4399209053
 20
4.4056482919
 30
0.0
 11
0.0
 21
0.48475
 31
0.0
 40
0.2210555139
 41
-0.0906260353
 42
-0.0735464445
  0
ELLIPSE
  5
371
100
AcDbEntity
  8
ALL_ASSEMBLY_MEMBERS
100
AcDbEllipse
 62
7
  6
CONTINUOUS
 10
5.4194488169
 20
4.4056482919
 30
0.0
 11
0.0
 21
0.48475
 31
0.0
 40
0.7957992427
 41
-0.0735464445
 42
-0.059330055
  0
ELLIPSE
  5
372
100
AcDbEntity
  8
ALL_ASSEMBLY_MEMBERS
100
AcDbEllipse
 62
7
  6
CONTINUOUS
 10
5.4041994842
 20
4.4056482919
 30
0.0
 11
0.642939962
 21
0.0
 31
0.0
 40
0.7539584232
 41
7.794651579
 42
7.8031754627
  0
ELLIPSE
  5
373
100
AcDbEntity
  8
ALL_ASSEMBLY_MEMBERS
100
AcDbEllipse
 62
7
  6
CONTINUOUS
 10
5.3715481553
 20
4.4056482919
 30
0.0
 11
1.2858811504
 21
-0.0
 31
0.0
 40
0.3769788521
 41
1.5199901556
 42
1.5256706491
  0
ELLIPSE
  5
374
100
AcDbEntity
  8
ALL_ASSEMBLY_MEMBERS
100
AcDbEllipse
 62
7
  6
CONTINUOUS
 10
5.3425450395
 20
4.4056482919
 30
0.0
 11
1.9288180083
 21
0.0
 31
0.0
 40
0.2513197191
 41
1.5256706491
 42
1.5285103462
  0
ELLIPSE
  5
375
100
AcDbEntity
  8
ALL_ASSEMBLY_MEMBERS
100
AcDbEllipse
 62
7
  6
CONTINUOUS
 10
5.2881859513
 20
4.4056482919
 30
0.0
 11
3.2147120734
 21
0.0
 31
0.0
 40
0.1507911094
 41
1.5285103462
 42
1.5313496859
  0
ELLIPSE
  5
376
100
AcDbEntity
  8
ALL_ASSEMBLY_MEMBERS
100
AcDbEllipse
 62
7
  6
CONTINUOUS
 10
5.4521362443
 20
4.4056482919
 30
0.0
 11
0.0
 21
0.48475
 31
0.0
 40
0.2652667178
 41
0.0906260353
 42
0.1048790886
  0
ELLIPSE
  5
377
100
AcDbEntity
  8
ALL_ASSEMBLY_MEMBERS
100
AcDbEllipse
 62
7
  6
CONTINUOUS
 10
5.483546362
 20
4.4056482919
 30
0.0
 11
0.0
 21
0.48475
 31
0.0
 40
0.8842220554
 41
0.1048790886
 42
0.1134410125
  0
ELLIPSE
  5
378
100
AcDbEntity
  8
ALL_ASSEMBLY_MEMBERS
100
AcDbEllipse
 62
7
  6
CONTINUOUS
 10
5.5441958838
 20
4.4056482919
 30
0.0
 11
0.9644099335
 21
0.0
 31
0.0
 40
0.5026389538
 41
1.6842373393
 42
1.6956663613
  0
ELLIPSE
  5
379
100
AcDbEntity
  8
ALL_ASSEMBLY_MEMBERS
100
AcDbEllipse
 62
7
  6
CONTINUOUS
 10
5.904537286
 20
4.4056482919
 30
0.0
 11
3.857654488
 21
0.0
 31
0.0
 40
0.1256592578
 41
1.6956663613
 42
1.6985261089
  0
ELLIPSE
  5
37A
100
AcDbEntity
  8
ALL_ASSEMBLY_MEMBERS
100
AcDbEllipse
 62
7
  6
CONTINUOUS
 10
4.9089718546
 20
4.4056482919
 30
0.0
 11
3.8576553886
 21
0.0
 31
0.0
 40
0.1256592285
 41
1.4430665446
 42
1.4459262923
  0
ELLIPSE
  5
37B
100
AcDbEntity
  8
ALL_ASSEMBLY_MEMBERS
100
AcDbEllipse
 62
7
  6
CONTINUOUS
 10
5.269313411
 20
4.4056482919
 30
0.0
 11
0.9644095958
 21
0.0
 31
0.0
 40
0.5026391298
 41
1.4459262923
 42
1.4573553143
  0
ELLIPSE
  5
37C
100
AcDbEntity
  8
ALL_ASSEMBLY_MEMBERS
100
AcDbEllipse
 62
7
  6
CONTINUOUS
 10
5.3299628946
 20
4.4056482919
 30
0.0
 11
-0.0
 21
0.48475
 31
0.0
 40
0.8842220554
 41
-0.1134410125
 42
-0.1048790886
  0
ELLIPSE
  5
37D
100
AcDbEntity
  8
ALL_ASSEMBLY_MEMBERS
100
AcDbEllipse
 62
7
  6
CONTINUOUS
 10
5.3613730123
 20
4.4056482919
 30
0.0
 11
-0.0
 21
0.48475
 31
0.0
 40
0.2652667178
 41
-0.1048790886
 42
-0.0906260353
  0
ELLIPSE
  5
37E
100
AcDbEntity
  8
ALL_ASSEMBLY_MEMBERS
100
AcDbEllipse
 62
7
  6
CONTINUOUS
 10
5.5189415435
 20
4.4056482919
 30
0.0
 11
0.5716780154
 21
-0.4744956074
 31
0.0
 40
0.1734875795
 41
1.8341228243
 42
1.8564220296
  0
ELLIPSE
  5
37F
100
AcDbEntity
  8
ALL_ASSEMBLY_MEMBERS
100
AcDbEllipse
 62
7
  6
CONTINUOUS
 10
5.4763813682
 20
4.4056482919
 30
0.0
 11
0.5716778757
 21
-0.4744956116
 31
0.0
 40
0.1734875871
 41
1.7601616376
 42
1.7823049235
  0
ELLIPSE
  5
380
100
AcDbEntity
  8
ALL_ASSEMBLY_MEMBERS
100
AcDbEllipse
 62
7
  6
CONTINUOUS
 10
5.4197158739
 20
4.4056482919
 30
0.0
 11
0.117123106
 21
0.4846535957
 31
0.0
 40
0.0825387411
 41
1.3243861563
 42
1.3391838673
  0
ELLIPSE
  5
381
100
AcDbEntity
  8
ALL_ASSEMBLY_MEMBERS
100
AcDbEllipse
 62
7
  6
CONTINUOUS
 10
5.4397979145
 20
4.4056482919
 30
0.0
 11
0.3205164298
 21
0.4819141273
 31
0.0
 40
0.1633544133
 41
1.4274608739
 42
1.438573063
  0
ELLIPSE
  5
382
100
AcDbEntity
  8
ALL_ASSEMBLY_MEMBERS
100
AcDbEllipse
 62
7
  6
CONTINUOUS
 10
5.484521883
 20
4.4056482919
 30
0.0
 11
0.7387483593
 21
0.4700085841
 31
0.0
 40
0.1605905019
 41
1.5775999118
 42
1.5850154544
  0
ELLIPSE
  5
383
100
AcDbEntity
  8
ALL_ASSEMBLY_MEMBERS
100
AcDbEllipse
 62
7
  6
CONTINUOUS
 10
5.5704982347
 20
4.4056482919
 30
0.0
 11
1.4844556253
 21
0.4605286781
 31
0.0
 40
0.1019322549
 41
1.6552211679
 42
1.6589312972
  0
ELLIPSE
  5
384
100
AcDbEntity
  8
ALL_ASSEMBLY_MEMBERS
100
AcDbEllipse
 62
7
  6
CONTINUOUS
 10
5.2120029767
 20
4.4056482919
 30
0.0
 11
1.4844549309
 21
-0.4605286823
 31
0.0
 40
0.1019322941
 41
1.4826613836
 42
1.4863715129
  0
ELLIPSE
  5
385
100
AcDbEntity
  8
ALL_ASSEMBLY_MEMBERS
100
AcDbEllipse
 62
7
  6
CONTINUOUS
 10
5.2979792281
 20
4.4056482919
 30
0.0
 11
0.7387485344
 21
-0.47000858
 31
0.0
 40
0.1605904861
 41
1.5565771643
 42
1.5639927069
  0
ELLIPSE
  5
386
100
AcDbEntity
  8
ALL_ASSEMBLY_MEMBERS
100
AcDbEllipse
 62
7
  6
CONTINUOUS
 10
5.3427032153
 20
4.4056482919
 30
0.0
 11
-0.3205164298
 21
0.4819141273
 31
0.0
 40
0.1633544133
 41
-1.438573063
 42
-1.4274608739
  0
ELLIPSE
  5
387
100
AcDbEntity
  8
ALL_ASSEMBLY_MEMBERS
100
AcDbEllipse
 62
7
  6
CONTINUOUS
 10
5.60722192
 20
4.4056482919
 30
0.0
 11
3.8575848219
 21
0.456341581
 31
0.0
 40
0.0423861521
 41
-1.6322987713
 42
-1.629457479
  0
ELLIPSE
  5
388
100
AcDbEntity
  8
ALL_ASSEMBLY_MEMBERS
100
AcDbEllipse
 62
7
  6
CONTINUOUS
 10
5.3627852559
 20
4.4056482919
 30
0.0
 11
-0.117123106
 21
0.4846535957
 31
0.0
 40
0.0825387411
 41
-1.3391838673
 42
-1.3243861563
  0
ELLIPSE
  5
389
100
AcDbEntity
  8
ALL_ASSEMBLY_MEMBERS
100
AcDbEllipse
 62
7
  6
CONTINUOUS
 10
5.4438755473
 20
4.4056482919
 30
0.0
 11
0.9622071635
 21
0.4656770005
 31
0.0
 40
0.1399266045
 41
-1.7062712763
 42
-1.6949013418
  0
ELLIPSE
  5
38A
100
AcDbEntity
  8
ALL_ASSEMBLY_MEMBERS
100
AcDbEllipse
 62
7
  6
CONTINUOUS
 10
5.4075460526
 20
4.4056482919
 30
0.0
 11
0.4203531079
 21
0.479141308
 31
0.0
 40
0.1749164141
 41
-1.8439863269
 42
-1.8354531791
  0
ELLIPSE
  5
38B
100
AcDbEntity
  8
ALL_ASSEMBLY_MEMBERS
100
AcDbEllipse
 62
7
  6
CONTINUOUS
 10
5.3846479573
 20
4.4056482919
 30
0.0
 11
0.1217484006
 21
0.4846385345
 31
0.0
 40
0.0853799597
 41
-1.9890427863
 42
-1.9748081556
  0
ELLIPSE
  5
38C
100
AcDbEntity
  8
ALL_ASSEMBLY_MEMBERS
100
AcDbEllipse
 62
7
  6
CONTINUOUS
 10
5.3909720369
 20
4.4056482919
 30
0.0
 11
0.9880542361
 21
0.465285186
 31
0.0
 40
0.1376303424
 41
1.5113205669
 42
1.5186896574
  0
ELLIPSE
  5
38D
100
AcDbEntity
  8
ALL_ASSEMBLY_MEMBERS
100
AcDbEllipse
 62
7
  6
CONTINUOUS
 10
5.3868088655
 20
4.4056482919
 30
0.0
 11
0.6553159276
 21
0.4721187462
 31
0.0
 40
0.1677639688
 41
1.4631295299
 42
1.4741845703
  0
ELLIPSE
  5
38E
100
AcDbEntity
  8
ALL_ASSEMBLY_MEMBERS
100
AcDbEllipse
 62
7
  6
CONTINUOUS
 10
5.3782165582
 20
4.4056482919
 30
0.0
 11
0.2873264341
 21
0.4826711449
 31
0.0
 40
0.1560789432
 41
1.3380452399
 42
1.356477401
  0
ELLIPSE
  5
38F
100
AcDbEntity
  8
ALL_ASSEMBLY_MEMBERS
100
AcDbEllipse
 62
7
  6
CONTINUOUS
 10
5.3698818224
 20
4.4056482919
 30
0.0
 11
0.0934735408
 21
0.4847090996
 31
0.0
 40
0.0673658948
 41
1.2768224913
 42
1.2952689988
  0
ELLIPSE
  5
390
100
AcDbEntity
  8
ALL_ASSEMBLY_MEMBERS
100
AcDbEllipse
 62
7
  6
CONTINUOUS
 10
5.4126193066
 20
4.4056482919
 30
0.0
 11
-0.0934735326
 21
0.4847090996
 31
0.0
 40
0.0673658893
 41
-1.2952689966
 42
-1.2768224891
  0
ELLIPSE
  5
391
100
AcDbEntity
  8
ALL_ASSEMBLY_MEMBERS
100
AcDbEllipse
 62
7
  6
CONTINUOUS
 10
5.4042845717
 20
4.4056482919
 30
0.0
 11
-0.287326408
 21
0.4826711454
 31
0.0
 40
0.1560789367
 41
-1.3564773887
 42
-1.3380452276
  0
ELLIPSE
  5
392
100
AcDbEntity
  8
ALL_ASSEMBLY_MEMBERS
100
AcDbEllipse
 62
7
  6
CONTINUOUS
 10
5.4288612992
 20
4.4056482919
 30
0.0
 11
-0.1217484006
 21
0.4846385345
 31
0.0
 40
0.0853799597
 41
-4.3083771516
 42
-4.2941425209
  0
ELLIPSE
  5
393
100
AcDbEntity
  8
ALL_ASSEMBLY_MEMBERS
100
AcDbEllipse
 62
7
  6
CONTINUOUS
 10
5.4059632039
 20
4.4056482919
 30
0.0
 11
-0.4203531079
 21
0.479141308
 31
0.0
 40
0.1749164141
 41
-4.4477321281
 42
-4.4391989803
  0
ELLIPSE
  5
394
100
AcDbEntity
  8
ALL_ASSEMBLY_MEMBERS
100
AcDbEllipse
 62
7
  6
CONTINUOUS
 10
5.3696336864
 20
4.4056482919
 30
0.0
 11
0.962207503
 21
-0.4656769952
 31
0.0
 40
0.1399265741
 41
-1.4466913509
 42
-1.4353214165
  0
ELLIPSE
  5
395
100
AcDbEntity
  8
ALL_ASSEMBLY_MEMBERS
100
AcDbEllipse
 62
7
  6
CONTINUOUS
 10
5.2062873836
 20
4.4056482919
 30
0.0
 11
3.8575839213
 21
-0.4563415814
 31
0.0
 40
0.0423861617
 41
-1.5121351722
 42
-1.5092938799
  0
ELLIPSE
  5
396
100
AcDbEntity
  8
ALL_ASSEMBLY_MEMBERS
100
AcDbEllipse
 62
7
  6
CONTINUOUS
 10
5.5288701502
 20
4.4056482919
 30
0.0
 11
0.7463252756
 21
-0.4698307894
 31
0.0
 40
0.1599009769
 41
-1.6130857077
 42
-1.5959095904
  0
ELLIPSE
  5
397
100
AcDbEntity
  8
ALL_ASSEMBLY_MEMBERS
100
AcDbEllipse
 62
7
  6
CONTINUOUS
 10
5.4084824319
 20
4.4056482919
 30
0.0
 11
0.5597140252
 21
-0.4748533936
 31
0.0
 40
0.1741096516
 41
-1.4868806225
 42
-1.4159149133
  0
ELLIPSE
  5
398
100
AcDbEntity
  8
ALL_ASSEMBLY_MEMBERS
100
AcDbEllipse
 62
7
  6
CONTINUOUS
 10
5.4052019288
 20
4.4056482919
 30
0.0
 11
0.9622042765
 21
-0.4656770454
 31
0.0
 40
0.139926863
 41
-1.4949495759
 42
-1.489275252
  0
ELLIPSE
  5
399
100
AcDbEntity
  8
ALL_ASSEMBLY_MEMBERS
100
AcDbEllipse
 62
7
  6
CONTINUOUS
 10
5.3828538154
 20
4.4056482919
 30
0.0
 11
2.5716108227
 21
-0.4573304865
 31
0.0
 40
0.0624983615
 41
-1.5457781432
 42
-1.5429408411
  0
ELLIPSE
  5
39A
100
AcDbEntity
  8
ALL_ASSEMBLY_MEMBERS
100
AcDbEllipse
 62
7
  6
CONTINUOUS
 10
5.4726076096
 20
4.4056482919
 30
0.0
 11
2.5716108227
 21
0.4573304865
 31
0.0
 40
0.0624983615
 41
-1.5986518125
 42
-1.5958145104
  0
ELLIPSE
  5
39B
100
AcDbEntity
  8
ALL_ASSEMBLY_MEMBERS
100
AcDbEllipse
 62
7
  6
CONTINUOUS
 10
5.4457899271
 20
4.4056482919
 30
0.0
 11
0.6379530235
 21
0.4725921354
 31
0.0
 40
0.1691116546
 41
-1.7093280947
 42
-1.6979797282
  0
ELLIPSE
  5
39C
100
AcDbEntity
  8
ALL_ASSEMBLY_MEMBERS
100
AcDbEllipse
 62
7
  6
CONTINUOUS
 10
5.4593166965
 20
4.4056482919
 30
0.0
 11
0.10123742
 21
0.4846944896
 31
0.0
 40
0.0724615456
 41
-2.012460577
 42
-1.9953544323
  0
ELLIPSE
  5
39D
100
AcDbEntity
  8
ALL_ASSEMBLY_MEMBERS
100
AcDbEllipse
 62
7
  6
CONTINUOUS
 10
5.4892736595
 20
4.4056482919
 30
0.0
 11
0.3768576551
 21
0.4804196369
 31
0.0
 40
0.1715483869
 41
-1.9081086021
 42
-1.8938294856
  0
ELLIPSE
  5
39E
100
AcDbEntity
  8
ALL_ASSEMBLY_MEMBERS
100
AcDbEllipse
 62
7
  6
CONTINUOUS
 10
5.4449683539
 20
4.4056482919
 30
0.0
 11
0.3118799231
 21
0.4821211713
 31
0.0
 40
0.1616508637
 41
-1.8182260229
 42
-1.8068779936
  0
ELLIPSE
  5
39F
100
AcDbEntity
  8
ALL_ASSEMBLY_MEMBERS
100
AcDbEllipse
 62
7
  6
CONTINUOUS
 10
5.5205742212
 20
4.4056482919
 30
0.0
 11
0.6379533341
 21
0.4725921268
 31
0.0
 40
0.1691116311
 41
-1.8260145634
 42
-1.8174352631
  0
ELLIPSE
  5
3A0
100
AcDbEntity
  8
ALL_ASSEMBLY_MEMBERS
100
AcDbEllipse
 62
7
  6
CONTINUOUS
 10
5.6042973723
 20
4.4056482919
 30
0.0
 11
1.2847916974
 21
0.4619431809
 31
0.0
 40
0.1143679302
 41
-1.7482093125
 42
-1.7424844324
  0
ELLIPSE
  5
3A1
100
AcDbEntity
  8
ALL_ASSEMBLY_MEMBERS
100
AcDbEllipse
 62
7
  6
CONTINUOUS
 10
5.4468526473
 20
4.4056482919
 30
0.0
 11
0.10123742
 21
0.4846944896
 31
0.0
 40
0.0724615456
 41
-1.89593605
 42
-1.8789114217
  0
ELLIPSE
  5
3A2
100
AcDbEntity
  8
ALL_ASSEMBLY_MEMBERS
100
AcDbEllipse
 62
7
  6
CONTINUOUS
 10
5.6916704419
 20
4.4056482919
 30
0.0
 11
1.9284678459
 21
0.4586391126
 31
0.0
 40
0.0813849018
 41
-1.7293289027
 42
-1.7264648042
  0
ELLIPSE
  5
3A3
100
AcDbEntity
  8
ALL_ASSEMBLY_MEMBERS
100
AcDbEllipse
 62
7
  6
CONTINUOUS
 10
5.8700618563
 20
4.4056482919
 30
0.0
 11
3.2146291591
 21
0.4566950122
 31
0.0
 40
0.0505558762
 41
-1.7200233845
 42
-1.7171581365
  0
ELLIPSE
  5
3A4
100
AcDbEntity
  8
ALL_ASSEMBLY_MEMBERS
100
AcDbEllipse
 62
7
  6
CONTINUOUS
 10
4.9434472715
 20
4.4056482919
 30
0.0
 11
3.2146300597
 21
-0.4566950116
 31
0.0
 40
0.0505558626
 41
-1.4244345211
 42
-1.421569273
  0
ELLIPSE
  5
3A5
100
AcDbEntity
  8
ALL_ASSEMBLY_MEMBERS
100
AcDbEllipse
 62
7
  6
CONTINUOUS
 10
5.1218390607
 20
4.4056482919
 30
0.0
 11
1.9284660439
 21
-0.458639118
 31
0.0
 40
0.0813849697
 41
-1.4151278149
 42
-1.4122637165
  0
ELLIPSE
  5
3A6
100
AcDbEntity
  8
ALL_ASSEMBLY_MEMBERS
100
AcDbEllipse
 62
7
  6
CONTINUOUS
 10
5.495490328
 20
4.4056482919
 30
0.0
 11
0.9622070503
 21
-0.4656770023
 31
0.0
 40
0.1399266146
 41
-1.5716017881
 42
-1.5659156053
  0
ELLIPSE
  5
3A7
100
AcDbEntity
  8
ALL_ASSEMBLY_MEMBERS
100
AcDbEllipse
 62
7
  6
CONTINUOUS
 10
5.209211855
 20
4.4056482919
 30
0.0
 11
1.2847919231
 21
-0.461943179
 31
0.0
 40
0.1143679148
 41
-1.3991082341
 42
-1.393383354
  0
ELLIPSE
  5
3A8
100
AcDbEntity
  8
ALL_ASSEMBLY_MEMBERS
100
AcDbEllipse
 62
7
  6
CONTINUOUS
 10
5.2929350256
 20
4.4056482919
 30
0.0
 11
0.6379534101
 21
-0.4725921247
 31
0.0
 40
0.1691116253
 41
-1.3241574099
 42
-1.3155781096
  0
ELLIPSE
  5
3A9
100
AcDbEntity
  8
ALL_ASSEMBLY_MEMBERS
100
AcDbEllipse
 62
7
  6
CONTINUOUS
 10
5.4618994222
 20
4.4056482919
 30
0.0
 11
-0.4203531079
 21
0.479141308
 31
0.0
 40
0.1749164141
 41
-4.5783263692
 42
-4.5698008357
  0
ELLIPSE
  5
3AA
100
AcDbEntity
  8
ALL_ASSEMBLY_MEMBERS
100
AcDbEllipse
 62
7
  6
CONTINUOUS
 10
5.3242355923
 20
4.4056482919
 30
0.0
 11
-0.3768576893
 21
0.480419636
 31
0.0
 40
0.1715483905
 41
-4.3893558366
 42
-4.3750767201
  0
ELLIPSE
  5
3AB
100
AcDbEntity
  8
ALL_ASSEMBLY_MEMBERS
100
AcDbEllipse
 62
7
  6
CONTINUOUS
 10
5.4456421559
 20
4.4056482919
 30
0.0
 11
-0.1217484712
 21
0.4846385342
 31
0.0
 40
0.0853800028
 41
-4.4389790303
 42
-4.4247782581
  0
ELLIPSE
  5
3AC
100
AcDbEntity
  8
ALL_ASSEMBLY_MEMBERS
100
AcDbEllipse
 62
7
  6
CONTINUOUS
 10
5.3541925579
 20
4.4056482919
 30
0.0
 11
-0.101237429
 21
0.4846944896
 31
0.0
 40
0.0724615514
 41
-4.2878308774
 42
-4.2707247327
  0
ELLIPSE
  5
3AD
100
AcDbEntity
  8
ALL_ASSEMBLY_MEMBERS
100
AcDbEllipse
 62
7
  6
CONTINUOUS
 10
5.3626090665
 20
4.4056482919
 30
0.0
 11
1.9288162072
 21
0.0
 31
0.0
 40
0.2513199538
 41
7.8400775852
 42
7.8429147916
  0
ELLIPSE
  5
3AE
100
AcDbEntity
  8
ALL_ASSEMBLY_MEMBERS
100
AcDbEllipse
 62
7
  6
CONTINUOUS
 10
5.3447304711
 20
4.4056482919
 30
0.0
 11
3.2147129739
 21
0.0
 31
0.0
 40
0.1507910672
 41
7.837240283
 42
7.8400775852
  0
ELLIPSE
  5
3AF
100
AcDbEntity
  8
ALL_ASSEMBLY_MEMBERS
100
AcDbEllipse
 62
7
  6
CONTINUOUS
 10
5.4687787691
 20
4.4056482919
 30
0.0
 11
3.2147120734
 21
-0.0
 31
0.0
 40
0.1507911094
 41
1.5847003756
 42
1.5875376778
  0
ELLIPSE
  5
3B0
100
AcDbEntity
  8
ALL_ASSEMBLY_MEMBERS
100
AcDbEllipse
 62
7
  6
CONTINUOUS
 10
5.3846479573
 20
4.4056482919
 30
0.0
 11
-0.0
 21
0.48475
 31
0.0
 40
0.2652664142
 41
0.0763914046
 42
0.0906260353
  0
ELLIPSE
  5
3B1
100
AcDbEntity
  8
ALL_ASSEMBLY_MEMBERS
100
AcDbEllipse
 62
7
  6
CONTINUOUS
 10
5.4075460526
 20
4.4056482919
 30
0.0
 11
0.0
 21
0.48475
 31
0.0
 40
0.8842220554
 41
0.0678582568
 42
0.0763914046
  0
ELLIPSE
  5
3B2
100
AcDbEntity
  8
ALL_ASSEMBLY_MEMBERS
100
AcDbEllipse
 62
7
  6
CONTINUOUS
 10
5.4438755473
 20
4.4056482919
 30
0.0
 11
0.9644109754
 21
-0.0
 31
0.0
 40
0.5026384108
 41
1.6272846492
 42
1.6386545836
  0
ELLIPSE
  5
3B3
100
AcDbEntity
  8
ALL_ASSEMBLY_MEMBERS
100
AcDbEllipse
 62
7
  6
CONTINUOUS
 10
5.4438755473
 20
4.4056482919
 30
0.0
 11
0.9595037988
 21
-0.0
 31
0.0
 40
0.5026384108
 41
1.6275738566
 42
1.6336193552
  0
ELLIPSE
  5
3B4
100
AcDbEntity
  8
ALL_ASSEMBLY_MEMBERS
100
AcDbEllipse
 62
7
  6
CONTINUOUS
 10
5.60722192
 20
4.4056482919
 30
0.0
 11
3.857633315
 21
-0.0
 31
0.0
 40
0.1256599475
 41
1.6244433569
 42
1.6272846492
  0
ELLIPSE
  5
3B5
100
AcDbEntity
  8
ALL_ASSEMBLY_MEMBERS
100
AcDbEllipse
 62
7
  6
CONTINUOUS
 10
5.60722192
 20
4.4056482919
 30
0.0
 11
3.8380046625
 21
-0.0
 31
0.0
 40
0.1256599475
 41
1.6247179887
 42
1.6275738566
  0
ELLIPSE
  5
3B6
100
AcDbEntity
  8
ALL_ASSEMBLY_MEMBERS
100
AcDbEllipse
 62
7
  6
CONTINUOUS
 10
5.4509002113
 20
4.4056482919
 30
0.0
 11
1.9288180083
 21
-0.0
 31
0.0
 40
0.2513197191
 41
1.5818631691
 42
1.5847003756
  0
ELLIPSE
  5
3B7
100
AcDbEntity
  8
ALL_ASSEMBLY_MEMBERS
100
AcDbEllipse
 62
7
  6
CONTINUOUS
 10
5.4437850757
 20
4.4056482919
 30
0.0
 11
1.2858811504
 21
0.0
 31
0.0
 40
0.3769788521
 41
1.5761890168
 42
1.5818631691
  0
ELLIPSE
  5
3B8
100
AcDbEntity
  8
ALL_ASSEMBLY_MEMBERS
100
AcDbEllipse
 62
7
  6
CONTINUOUS
 10
5.504349514
 20
4.4056482919
 30
0.0
 11
0.57167825
 21
-0.4744956005
 31
0.0
 40
0.1734875667
 41
1.8341227539
 42
1.8564219592
  0
ELLIPSE
  5
3B9
100
AcDbEntity
  8
ALL_ASSEMBLY_MEMBERS
100
AcDbEllipse
 62
7
  6
CONTINUOUS
 10
5.504349514
 20
4.4056482919
 30
0.0
 11
0.5687694008
 21
-0.4720812421
 31
0.0
 40
0.1734875667
 41
8.1199044316
 42
8.140341655
  0
ELLIPSE
  5
3BA
100
AcDbEntity
  8
ALL_ASSEMBLY_MEMBERS
100
AcDbEllipse
 62
7
  6
CONTINUOUS
 10
5.4403179099
 20
4.4056482919
 30
0.0
 11
0.642939962
 21
0.0
 31
0.0
 40
0.7539584232
 41
7.8508633559
 42
7.859374324
  0
ELLIPSE
  5
3BB
100
AcDbEntity
  8
ALL_ASSEMBLY_MEMBERS
100
AcDbEllipse
 62
7
  6
CONTINUOUS
 10
5.4617893216
 20
4.4056482919
 30
0.0
 11
0.5716781103
 21
-0.4744956046
 31
0.0
 40
0.1734875743
 41
1.7601615672
 42
1.7823048532
  0
ELLIPSE
  5
3BC
100
AcDbEntity
  8
ALL_ASSEMBLY_MEMBERS
100
AcDbEllipse
 62
7
  6
CONTINUOUS
 10
5.4617893216
 20
4.4056482919
 30
0.0
 11
0.5687692618
 21
-0.4720812463
 31
0.0
 40
0.1734875743
 41
8.0454832217
 42
8.0658410218
  0
ELLIPSE
  5
3BD
100
AcDbEntity
  8
ALL_ASSEMBLY_MEMBERS
100
AcDbEllipse
 62
7
  6
CONTINUOUS
 10
5.390671006
 20
4.4056482919
 30
0.0
 11
-0.3622025764
 21
0.4808294012
 31
0.0
 40
0.1698707729
 41
-1.3947898515
 42
-1.3800412872
  0
ELLIPSE
  5
3BE
100
AcDbEntity
  8
ALL_ASSEMBLY_MEMBERS
100
AcDbEllipse
 62
7
  6
CONTINUOUS
 10
5.390671006
 20
4.4056482919
 30
0.0
 11
-0.3603595945
 21
0.4783828148
 31
0.0
 40
0.1698707729
 41
-1.3950241974
 42
-1.3802000911
  0
ELLIPSE
  5
3BF
100
AcDbEntity
  8
ALL_ASSEMBLY_MEMBERS
100
AcDbEllipse
 62
7
  6
CONTINUOUS
 10
5.4020014269
 20
4.4056482919
 30
0.0
 11
-0.1171229363
 21
0.4846535963
 31
0.0
 40
0.082538636
 41
-1.3022224851
 42
-1.2874639355
  0
ELLIPSE
  5
3C0
100
AcDbEntity
  8
ALL_ASSEMBLY_MEMBERS
100
AcDbEllipse
 62
7
  6
CONTINUOUS
 10
5.4020014269
 20
4.4056482919
 30
0.0
 11
-0.116526984
 21
0.4821875514
 31
0.0
 40
0.082538636
 41
4.9806527798
 42
4.9954870257
  0
ELLIPSE
  5
3C1
100
AcDbEntity
  8
ALL_ASSEMBLY_MEMBERS
100
AcDbEllipse
 62
7
  6
CONTINUOUS
 10
5.3541925579
 20
4.4056482919
 30
0.0
 11
0.0
 21
0.48475
 31
0.0
 40
0.2210555332
 41
-0.10773218
 42
-0.0906260353
  0
ELLIPSE
  5
3C2
100
AcDbEntity
  8
ALL_ASSEMBLY_MEMBERS
100
AcDbEllipse
 62
7
  6
CONTINUOUS
 10
5.3541925579
 20
4.4056482919
 30
0.0
 11
0.0
 21
0.4822834646
 31
0.0
 40
0.2210555332
 41
-0.1082853113
 42
-0.0910908057
  0
ELLIPSE
  5
3C3
100
AcDbEntity
  8
ALL_ASSEMBLY_MEMBERS
100
AcDbEllipse
 62
7
  6
CONTINUOUS
 10
5.3242355923
 20
4.4056482919
 30
0.0
 11
0.0
 21
0.48475
 31
0.0
 40
0.7958002231
 41
-0.1220112966
 42
-0.10773218
  0
ELLIPSE
  5
3C4
100
AcDbEntity
  8
ALL_ASSEMBLY_MEMBERS
100
AcDbEllipse
 62
7
  6
CONTINUOUS
 10
5.3242355923
 20
4.4056482919
 30
0.0
 11
0.0
 21
0.4822834646
 31
0.0
 40
0.7958002231
 41
-0.1226384364
 42
-0.1082853113
  0
ELLIPSE
  5
3C5
100
AcDbEntity
  8
ALL_ASSEMBLY_MEMBERS
100
AcDbEllipse
 62
7
  6
CONTINUOUS
 10
5.2929350256
 20
4.4056482919
 30
0.0
 11
0.6429400371
 21
0.0
 31
0.0
 40
0.7539583352
 41
1.4402057299
 42
1.4487850302
  0
ELLIPSE
  5
3C6
100
AcDbEntity
  8
ALL_ASSEMBLY_MEMBERS
100
AcDbEllipse
 62
7
  6
CONTINUOUS
 10
5.2929350256
 20
4.4056482919
 30
0.0
 11
0.6396685892
 21
-0.0
 31
0.0
 40
0.7539583352
 41
1.4395339999
 42
1.4481578904
  0
ELLIPSE
  5
3C7
100
AcDbEntity
  8
ALL_ASSEMBLY_MEMBERS
100
AcDbEllipse
 62
7
  6
CONTINUOUS
 10
5.380499703
 20
4.4056482919
 30
0.0
 11
0.1171229363
 21
0.4846535963
 31
0.0
 40
0.082538636
 41
1.2874639355
 42
1.3022224851
  0
ELLIPSE
  5
3C8
100
AcDbEntity
  8
ALL_ASSEMBLY_MEMBERS
100
AcDbEllipse
 62
7
  6
CONTINUOUS
 10
5.380499703
 20
4.4056482919
 30
0.0
 11
0.116526984
 21
0.4821875514
 31
0.0
 40
0.082538636
 41
1.2876982814
 42
1.3025325273
  0
ELLIPSE
  5
3C9
100
AcDbEntity
  8
ALL_ASSEMBLY_MEMBERS
100
AcDbEllipse
 62
7
  6
CONTINUOUS
 10
5.3613730123
 20
4.4056482919
 30
0.0
 11
-0.1211290532
 21
0.4821725657
 31
0.0
 40
0.0853800458
 41
-4.2918879649
 42
-4.2793511418
  0
ELLIPSE
  5
3CA
100
AcDbEntity
  8
ALL_ASSEMBLY_MEMBERS
100
AcDbEllipse
 62
7
  6
CONTINUOUS
 10
5.3899417175
 20
4.4056482919
 30
0.0
 11
0.3205164298
 21
0.4819141273
 31
0.0
 40
0.1633544133
 41
1.364678812
 42
1.3757409965
  0
ELLIPSE
  5
3CB
100
AcDbEntity
  8
ALL_ASSEMBLY_MEMBERS
100
AcDbEllipse
 62
7
  6
CONTINUOUS
 10
5.3899417175
 20
4.4056482919
 30
0.0
 11
0.318885558
 21
0.4794620215
 31
0.0
 40
0.1633544133
 41
1.3648564897
 42
1.3759753424
  0
ELLIPSE
  5
3CC
100
AcDbEntity
  8
ALL_ASSEMBLY_MEMBERS
100
AcDbEllipse
 62
7
  6
CONTINUOUS
 10
5.4128601161
 20
4.4056482919
 30
0.0
 11
0.9880542361
 21
0.465285186
 31
0.0
 40
0.1376303424
 41
1.533430284
 42
1.5408026323
  0
ELLIPSE
  5
3CD
100
AcDbEntity
  8
ALL_ASSEMBLY_MEMBERS
100
AcDbEllipse
 62
7
  6
CONTINUOUS
 10
5.4128601161
 20
4.4056482919
 30
0.0
 11
0.9830267564
 21
0.4629176926
 31
0.0
 40
0.1376303424
 41
1.5335702205
 42
1.5409803099
  0
ELLIPSE
  5
3CE
100
AcDbEntity
  8
ALL_ASSEMBLY_MEMBERS
100
AcDbEllipse
 62
7
  6
CONTINUOUS
 10
5.3613730123
 20
4.4056482919
 30
0.0
 11
-0.1217485418
 21
0.484638534
 31
0.0
 40
0.0853800458
 41
-4.2941425674
 42
-4.2798895141
  0
ELLIPSE
  5
3CF
100
AcDbEntity
  8
ALL_ASSEMBLY_MEMBERS
100
AcDbEllipse
 62
7
  6
CONTINUOUS
 10
5.209211855
 20
4.4056482919
 30
0.0
 11
1.2858776966
 21
0.0
 31
0.0
 40
0.3769798646
 41
7.7176661569
 42
7.7233910371
  0
ELLIPSE
  5
3D0
100
AcDbEntity
  8
ALL_ASSEMBLY_MEMBERS
100
AcDbEllipse
 62
7
  6
CONTINUOUS
 10
5.209211855
 20
4.4056482919
 30
0.0
 11
1.2793348128
 21
-0.0
 31
0.0
 40
0.3769798646
 41
1.4337793091
 42
1.4395339999
  0
ELLIPSE
  5
3D1
100
AcDbEntity
  8
ALL_ASSEMBLY_MEMBERS
100
AcDbEllipse
 62
7
  6
CONTINUOUS
 10
5.3299628946
 20
4.4056482919
 30
0.0
 11
-0.4182142408
 21
0.4767033111
 31
0.0
 40
0.1749164141
 41
-4.4101729241
 42
-4.4015666817
  0
ELLIPSE
  5
3D2
100
AcDbEntity
  8
ALL_ASSEMBLY_MEMBERS
100
AcDbEllipse
 62
7
  6
CONTINUOUS
 10
5.3299628946
 20
4.4056482919
 30
0.0
 11
-0.4203531079
 21
0.479141308
 31
0.0
 40
0.1749164141
 41
-4.4107112963
 42
-4.4021493725
  0
ELLIPSE
  5
3D3
100
AcDbEntity
  8
ALL_ASSEMBLY_MEMBERS
100
AcDbEllipse
 62
7
  6
CONTINUOUS
 10
5.1218390607
 20
4.4056482919
 30
0.0
 11
1.928827244
 21
0.0
 31
0.0
 40
0.2513185157
 41
1.4316167513
 42
1.4344808497
  0
ELLIPSE
  5
3D4
100
AcDbEntity
  8
ALL_ASSEMBLY_MEMBERS
100
AcDbEllipse
 62
7
  6
CONTINUOUS
 10
5.269313411
 20
4.4056482919
 30
0.0
 11
0.9573098206
 21
-0.463307535
 31
0.0
 40
0.1399267287
 41
-1.3891557708
 42
-1.3776674525
  0
ELLIPSE
  5
3D5
100
AcDbEntity
  8
ALL_ASSEMBLY_MEMBERS
100
AcDbEllipse
 62
7
  6
CONTINUOUS
 10
5.269313411
 20
4.4056482919
 30
0.0
 11
0.9622057766
 21
-0.4656770221
 31
0.0
 40
0.1399267287
 41
-1.3897384615
 42
-1.3783094395
  0
ELLIPSE
  5
3D6
100
AcDbEntity
  8
ALL_ASSEMBLY_MEMBERS
100
AcDbEllipse
 62
7
  6
CONTINUOUS
 10
5.1218390607
 20
4.4056482919
 30
0.0
 11
1.9190128639
 21
-0.0
 31
0.0
 40
0.2513185157
 41
1.4309002792
 42
1.4337793091
  0
ELLIPSE
  5
3D7
100
AcDbEntity
  8
ALL_ASSEMBLY_MEMBERS
100
AcDbEllipse
 62
7
  6
CONTINUOUS
 10
4.9089718546
 20
4.4056482919
 30
0.0
 11
3.8379783783
 21
-0.4540195858
 31
0.0
 40
0.0423859163
 41
-1.4402702398
 42
-1.4373956289
  0
ELLIPSE
  5
3D8
100
AcDbEntity
  8
ALL_ASSEMBLY_MEMBERS
100
AcDbEllipse
 62
7
  6
CONTINUOUS
 10
4.9089718546
 20
4.4056482919
 30
0.0
 11
3.8576068963
 21
-0.4563415717
 31
0.0
 40
0.0423859163
 41
-1.4409122269
 42
-1.4380524792
  0
ELLIPSE
  5
3D9
100
AcDbEntity
  8
ALL_ASSEMBLY_MEMBERS
100
AcDbEllipse
 62
7
  6
CONTINUOUS
 10
5.3557102699
 20
4.4056482919
 30
0.0
 11
-0.0934736487
 21
0.4847090994
 31
0.0
 40
0.0673659664
 41
-1.3359330152
 42
-1.3174326445
  0
ELLIPSE
  5
3DA
100
AcDbEntity
  8
ALL_ASSEMBLY_MEMBERS
100
AcDbEllipse
 62
7
  6
CONTINUOUS
 10
5.3557102699
 20
4.4056482919
 30
0.0
 11
-0.0929980302
 21
0.4822427721
 31
0.0
 40
0.0673659664
 41
-1.3364524313
 42
-1.3178566306
  0
ELLIPSE
  5
3DB
100
AcDbEntity
  8
ALL_ASSEMBLY_MEMBERS
100
AcDbEllipse
 62
7
  6
CONTINUOUS
 10
4.9434472715
 20
4.4056482919
 30
0.0
 11
3.2147129739
 21
-0.0
 31
0.0
 40
0.1507910672
 41
1.4287515033
 42
1.4316167513
  0
ELLIPSE
  5
3DC
100
AcDbEntity
  8
ALL_ASSEMBLY_MEMBERS
100
AcDbEllipse
 62
7
  6
CONTINUOUS
 10
5.3357018863
 20
4.4056482919
 30
0.0
 11
-0.2873264341
 21
0.4826711449
 31
0.0
 40
0.1560789432
 41
-1.4341230973
 42
-1.4155878961
  0
ELLIPSE
  5
3DD
100
AcDbEntity
  8
ALL_ASSEMBLY_MEMBERS
100
AcDbEllipse
 62
7
  6
CONTINUOUS
 10
5.3357018863
 20
4.4056482919
 30
0.0
 11
-0.2858644416
 21
0.4802151872
 31
0.0
 40
0.1560789432
 41
-1.4347384861
 42
-1.4161073122
  0
ELLIPSE
  5
3DE
100
AcDbEntity
  8
ALL_ASSEMBLY_MEMBERS
100
AcDbEllipse
 62
7
  6
CONTINUOUS
 10
5.292331853
 20
4.4056482919
 30
0.0
 11
0.6553159276
 21
-0.4721187462
 31
0.0
 40
0.1677639688
 41
1.5601896397
 42
1.5713302259
  0
ELLIPSE
  5
3DF
100
AcDbEntity
  8
ALL_ASSEMBLY_MEMBERS
100
AcDbEllipse
 62
7
  6
CONTINUOUS
 10
5.292331853
 20
4.4056482919
 30
0.0
 11
0.6519815079
 21
-0.4697164819
 31
0.0
 40
0.1677639688
 41
1.5595163628
 42
1.5707148371
  0
ELLIPSE
  5
3E0
100
AcDbEntity
  8
ALL_ASSEMBLY_MEMBERS
100
AcDbEllipse
 62
7
  6
CONTINUOUS
 10
5.2169503251
 20
4.4056482919
 30
0.0
 11
1.2364591409
 21
-0.462368365
 31
0.0
 40
0.1177519922
 41
1.4764767822
 42
1.4839128544
  0
ELLIPSE
  5
3E1
100
AcDbEntity
  8
ALL_ASSEMBLY_MEMBERS
100
AcDbEllipse
 62
7
  6
CONTINUOUS
 10
5.2169503251
 20
4.4056482919
 30
0.0
 11
1.2301677117
 21
-0.4600157132
 31
0.0
 40
0.1177519922
 41
1.475764772
 42
1.4832395775
  0
ELLIPSE
  5
3E2
100
AcDbEntity
  8
ALL_ASSEMBLY_MEMBERS
100
AcDbEllipse
 62
7
  6
CONTINUOUS
 10
5.5655508274
 20
4.4056482919
 30
0.0
 11
1.2364593147
 21
0.4623683634
 31
0.0
 40
0.1177519797
 41
1.6576798102
 42
1.6651158823
  0
ELLIPSE
  5
3E3
100
AcDbEntity
  8
ALL_ASSEMBLY_MEMBERS
100
AcDbEllipse
 62
7
  6
CONTINUOUS
 10
5.5655508274
 20
4.4056482919
 30
0.0
 11
1.2301678846
 21
0.4600157117
 31
0.0
 40
0.1177519797
 41
1.6583530871
 42
1.6658278925
  0
ELLIPSE
  5
3E4
100
AcDbEntity
  8
ALL_ASSEMBLY_MEMBERS
100
AcDbEllipse
 62
7
  6
CONTINUOUS
 10
5.4901692693
 20
4.4056482919
 30
0.0
 11
0.6553158691
 21
0.4721187478
 31
0.0
 40
0.1677639734
 41
1.5702624133
 42
1.5814029995
  0
ELLIPSE
  5
3E5
100
AcDbEntity
  8
ALL_ASSEMBLY_MEMBERS
100
AcDbEllipse
 62
7
  6
CONTINUOUS
 10
5.4901692693
 20
4.4056482919
 30
0.0
 11
0.6519814497
 21
0.4697164835
 31
0.0
 40
0.1677639734
 41
1.5708778021
 42
1.5820762764
  0
ELLIPSE
  5
3E6
100
AcDbEntity
  8
ALL_ASSEMBLY_MEMBERS
100
AcDbEllipse
 62
7
  6
CONTINUOUS
 10
5.4467992398
 20
4.4056482919
 30
0.0
 11
0.287326408
 21
0.4826711454
 31
0.0
 40
0.1560789367
 41
1.4155878838
 42
1.434123085
  0
ELLIPSE
  5
3E7
100
AcDbEntity
  8
ALL_ASSEMBLY_MEMBERS
100
AcDbEllipse
 62
7
  6
CONTINUOUS
 10
5.4467992398
 20
4.4056482919
 30
0.0
 11
0.2858644157
 21
0.4802151878
 31
0.0
 40
0.1560789367
 41
1.4161072999
 42
1.4347384738
  0
ELLIPSE
  5
3E8
100
AcDbEntity
  8
ALL_ASSEMBLY_MEMBERS
100
AcDbEllipse
 62
7
  6
CONTINUOUS
 10
5.4267908579
 20
4.4056482919
 30
0.0
 11
0.0934736405
 21
0.4847090994
 31
0.0
 40
0.0673659609
 41
1.3174326423
 42
1.335933013
  0
ELLIPSE
  5
3E9
100
AcDbEntity
  8
ALL_ASSEMBLY_MEMBERS
100
AcDbEllipse
 62
7
  6
CONTINUOUS
 10
5.4267908579
 20
4.4056482919
 30
0.0
 11
0.092998022
 21
0.4822427721
 31
0.0
 40
0.0673659609
 41
1.3178566284
 42
1.3364524291
  0
ELLIPSE
  5
3EA
100
AcDbEntity
  8
ALL_ASSEMBLY_MEMBERS
100
AcDbEllipse
 62
7
  6
CONTINUOUS
 10
4.9434472715
 20
4.4056482919
 30
0.0
 11
3.1983556692
 21
0.0
 31
0.0
 40
0.1507910672
 41
1.4280200816
 42
1.4309002792
  0
ELLIPSE
  5
3EB
100
AcDbEntity
  8
ALL_ASSEMBLY_MEMBERS
100
AcDbEllipse
 62
7
  6
CONTINUOUS
 10
5.904537286
 20
4.4056482919
 30
0.0
 11
3.8379774823
 21
0.4540195862
 31
0.0
 40
0.0423859259
 41
-1.704197027
 42
-1.7013224161
  0
ELLIPSE
  5
3EC
100
AcDbEntity
  8
ALL_ASSEMBLY_MEMBERS
100
AcDbEllipse
 62
7
  6
CONTINUOUS
 10
5.904537286
 20
4.4056482919
 30
0.0
 11
3.8576059957
 21
0.4563415721
 31
0.0
 40
0.0423859259
 41
-1.7035401767
 42
-1.700680429
  0
ELLIPSE
  5
3ED
100
AcDbEntity
  8
ALL_ASSEMBLY_MEMBERS
100
AcDbEllipse
 62
7
  6
CONTINUOUS
 10
5.5441958838
 20
4.4056482919
 30
0.0
 11
0.9573101584
 21
0.4633075297
 31
0.0
 40
0.1399266983
 41
-1.7639251619
 42
-1.7524368436
  0
ELLIPSE
  5
3EE
100
AcDbEntity
  8
ALL_ASSEMBLY_MEMBERS
100
AcDbEllipse
 62
7
  6
CONTINUOUS
 10
5.5441958838
 20
4.4056482919
 30
0.0
 11
0.9622061161
 21
0.4656770168
 31
0.0
 40
0.1399266983
 41
-1.7632831748
 42
-1.7518541529
  0
ELLIPSE
  5
3EF
100
AcDbEntity
  8
ALL_ASSEMBLY_MEMBERS
100
AcDbEllipse
 62
7
  6
CONTINUOUS
 10
5.8700618563
 20
4.4056482919
 30
0.0
 11
3.2147120734
 21
0.0
 31
0.0
 40
0.1507911094
 41
1.7099759023
 42
1.7128411503
  0
ELLIPSE
  5
3F0
100
AcDbEntity
  8
ALL_ASSEMBLY_MEMBERS
100
AcDbEllipse
 62
7
  6
CONTINUOUS
 10
5.8700618563
 20
4.4056482919
 30
0.0
 11
3.1983547732
 21
-0.0
 31
0.0
 40
0.1507911094
 41
1.7106923744
 42
1.713572572
  0
ELLIPSE
  5
3F1
100
AcDbEntity
  8
ALL_ASSEMBLY_MEMBERS
100
AcDbEllipse
 62
7
  6
CONTINUOUS
 10
5.6916704419
 20
4.4056482919
 30
0.0
 11
1.9288290452
 21
-0.0
 31
0.0
 40
0.251318281
 41
1.7071118038
 42
1.7099759023
  0
ELLIPSE
  5
3F2
100
AcDbEntity
  8
ALL_ASSEMBLY_MEMBERS
100
AcDbEllipse
 62
7
  6
CONTINUOUS
 10
5.483546362
 20
4.4056482919
 30
0.0
 11
0.4182142408
 21
0.4767033111
 31
0.0
 40
0.1749164141
 41
-1.8816186254
 42
-1.8730123831
  0
ELLIPSE
  5
3F3
100
AcDbEntity
  8
ALL_ASSEMBLY_MEMBERS
100
AcDbEllipse
 62
7
  6
CONTINUOUS
 10
5.483546362
 20
4.4056482919
 30
0.0
 11
0.4203531079
 21
0.479141308
 31
0.0
 40
0.1749164141
 41
-1.8810359347
 42
-1.8724740109
  0
ELLIPSE
  5
3F4
100
AcDbEntity
  8
ALL_ASSEMBLY_MEMBERS
100
AcDbEllipse
 62
7
  6
CONTINUOUS
 10
5.6916704419
 20
4.4056482919
 30
0.0
 11
1.9190146559
 21
-0.0
 31
0.0
 40
0.251318281
 41
1.7078133445
 42
1.7106923744
  0
ELLIPSE
  5
3F5
100
AcDbEntity
  8
ALL_ASSEMBLY_MEMBERS
100
AcDbEllipse
 62
7
  6
CONTINUOUS
 10
5.4521362443
 20
4.4056482919
 30
0.0
 11
0.1211290532
 21
0.4821725657
 31
0.0
 40
0.0853800458
 41
-2.0038341653
 42
-1.9912973423
  0
ELLIPSE
  5
3F6
100
AcDbEntity
  8
ALL_ASSEMBLY_MEMBERS
100
AcDbEllipse
 62
7
  6
CONTINUOUS
 10
5.4521362443
 20
4.4056482919
 30
0.0
 11
0.1217485418
 21
0.484638534
 31
0.0
 40
0.0853800458
 41
-2.0032957931
 42
-1.9890427398
  0
ELLIPSE
  5
3F7
100
AcDbEntity
  8
ALL_ASSEMBLY_MEMBERS
100
AcDbEllipse
 62
7
  6
CONTINUOUS
 10
5.6042973723
 20
4.4056482919
 30
0.0
 11
1.2858774715
 21
-0.0
 31
0.0
 40
0.3769799306
 41
1.7013869237
 42
1.7071118038
  0
ELLIPSE
  5
3F8
100
AcDbEntity
  8
ALL_ASSEMBLY_MEMBERS
100
AcDbEllipse
 62
7
  6
CONTINUOUS
 10
5.6042973723
 20
4.4056482919
 30
0.0
 11
1.2793345889
 21
0.0
 31
0.0
 40
0.3769799306
 41
1.7020586537
 42
1.7078133445
  0
ELLIPSE
  5
3F9
100
AcDbEntity
  8
ALL_ASSEMBLY_MEMBERS
100
AcDbEllipse
 62
7
  6
CONTINUOUS
 10
5.5205742212
 20
4.4056482919
 30
0.0
 11
0.642939962
 21
0.0
 31
0.0
 40
0.7539584232
 41
1.6928076234
 42
1.7013869237
  0
ELLIPSE
  5
3FA
100
AcDbEntity
  8
ALL_ASSEMBLY_MEMBERS
100
AcDbEllipse
 62
7
  6
CONTINUOUS
 10
5.5205742212
 20
4.4056482919
 30
0.0
 11
0.6396685145
 21
0.0
 31
0.0
 40
0.7539584232
 41
1.6934347632
 42
1.7020586537
  0
ELLIPSE
  5
3FB
100
AcDbEntity
  8
ALL_ASSEMBLY_MEMBERS
100
AcDbEllipse
 62
7
  6
CONTINUOUS
 10
5.5434621699
 20
4.4056482919
 30
0.0
 11
0.7463249724
 21
-0.4698307965
 31
0.0
 40
0.1599010046
 41
-1.6130856485
 42
-1.5959095311
  0
ELLIPSE
  5
3FC
100
AcDbEntity
  8
ALL_ASSEMBLY_MEMBERS
100
AcDbEllipse
 62
7
  6
CONTINUOUS
 10
5.5434621699
 20
4.4056482919
 30
0.0
 11
0.7425274748
 21
-0.4674401739
 31
0.0
 40
0.1599010046
 41
-1.6138200371
 42
-1.5965544644
  0
ELLIPSE
  5
3FD
100
AcDbEntity
  8
ALL_ASSEMBLY_MEMBERS
100
AcDbEllipse
 62
7
  6
CONTINUOUS
 10
5.4892736595
 20
4.4056482919
 30
0.0
 11
-0.0
 21
0.48475
 31
0.0
 40
0.7958001534
 41
0.10773218
 42
0.1220112966
  0
ELLIPSE
  5
3FE
100
AcDbEntity
  8
ALL_ASSEMBLY_MEMBERS
100
AcDbEllipse
 62
7
  6
CONTINUOUS
 10
5.4892736595
 20
4.4056482919
 30
0.0
 11
0.0
 21
0.4822834646
 31
0.0
 40
0.7958001534
 41
0.1082853113
 42
0.1226384364
  0
ELLIPSE
  5
3FF
100
AcDbEntity
  8
ALL_ASSEMBLY_MEMBERS
100
AcDbEllipse
 62
7
  6
CONTINUOUS
 10
5.2881859513
 20
4.4056482919
 30
0.0
 11
3.1982722808
 21
-0.4543712279
 31
0.0
 40
0.0505558762
 41
-1.5239656048
 42
-1.5211117194
  0
ELLIPSE
  5
400
100
AcDbEntity
  8
ALL_ASSEMBLY_MEMBERS
100
AcDbEllipse
 62
7
  6
CONTINUOUS
 10
5.2881859513
 20
4.4056482919
 30
0.0
 11
3.2146291591
 21
-0.4566950122
 31
0.0
 40
0.0505558762
 41
-1.5241674517
 42
-1.521328112
  0
ELLIPSE
  5
401
100
AcDbEntity
  8
ALL_ASSEMBLY_MEMBERS
100
AcDbEllipse
 62
7
  6
CONTINUOUS
 10
5.4593166965
 20
4.4056482919
 30
0.0
 11
-0.0
 21
0.48475
 31
0.0
 40
0.2210555139
 41
0.0906260353
 42
0.10773218
  0
ELLIPSE
  5
402
100
AcDbEntity
  8
ALL_ASSEMBLY_MEMBERS
100
AcDbEllipse
 62
7
  6
CONTINUOUS
 10
5.4593166965
 20
4.4056482919
 30
0.0
 11
-0.0
 21
0.4822834646
 31
0.0
 40
0.2210555139
 41
0.0910908057
 42
0.1082853113
  0
ELLIPSE
  5
403
100
AcDbEntity
  8
ALL_ASSEMBLY_MEMBERS
100
AcDbEllipse
 62
7
  6
CONTINUOUS
 10
5.3425450395
 20
4.4056482919
 30
0.0
 11
1.9186443081
 21
-0.4563054692
 31
0.0
 40
0.0813853176
 41
-1.5089407422
 42
-1.5060864941
  0
ELLIPSE
  5
404
100
AcDbEntity
  8
ALL_ASSEMBLY_MEMBERS
100
AcDbEllipse
 62
7
  6
CONTINUOUS
 10
5.3425450395
 20
4.4056482919
 30
0.0
 11
1.9284568033
 21
-0.4586391457
 31
0.0
 40
0.0813853176
 41
-1.5091571348
 42
-1.5063174377
  0
ELLIPSE
  5
405
100
AcDbEntity
  8
ALL_ASSEMBLY_MEMBERS
100
AcDbEllipse
 62
7
  6
CONTINUOUS
 10
5.3715481553
 20
4.4056482919
 30
0.0
 11
1.2782580077
 21
-0.4595926617
 31
0.0
 40
0.114367678
 41
-1.484342408
 42
-1.4786327952
  0
ELLIPSE
  5
406
100
AcDbEntity
  8
ALL_ASSEMBLY_MEMBERS
100
AcDbEllipse
 62
7
  6
CONTINUOUS
 10
5.3715481553
 20
4.4056482919
 30
0.0
 11
1.2847953844
 21
-0.4619431499
 31
0.0
 40
0.114367678
 41
-1.4845733516
 42
-1.478892858
  0
ELLIPSE
  5
407
100
AcDbEntity
  8
ALL_ASSEMBLY_MEMBERS
100
AcDbEllipse
 62
7
  6
CONTINUOUS
 10
5.4041994842
 20
4.4056482919
 30
0.0
 11
0.6347072598
 21
-0.4701874538
 31
0.0
 40
0.1691116311
 41
-1.3951024531
 42
-1.386534842
  0
ELLIPSE
  5
408
100
AcDbEntity
  8
ALL_ASSEMBLY_MEMBERS
100
AcDbEllipse
 62
7
  6
CONTINUOUS
 10
5.4041994842
 20
4.4056482919
 30
0.0
 11
0.6379533341
 21
-0.4725921268
 31
0.0
 40
0.1691116311
 41
-1.3953625159
 42
-1.3868386321
  0
ELLIPSE
  5
409
100
AcDbEntity
  8
ALL_ASSEMBLY_MEMBERS
100
AcDbEllipse
 62
7
  6
CONTINUOUS
 10
5.4194488169
 20
4.4056482919
 30
0.0
 11
-0.3749396591
 21
0.4779751482
 31
0.0
 40
0.1715483401
 41
-4.4374539601
 42
-4.4231645383
  0
ELLIPSE
  5
40A
100
AcDbEntity
  8
ALL_ASSEMBLY_MEMBERS
100
AcDbEllipse
 62
7
  6
CONTINUOUS
 10
5.4194488169
 20
4.4056482919
 30
0.0
 11
-0.3768572076
 21
0.4804196496
 31
0.0
 40
0.1715483401
 41
-4.4377577502
 42
-4.4235413607
  0
ELLIPSE
  5
40B
100
AcDbEntity
  8
ALL_ASSEMBLY_MEMBERS
100
AcDbEllipse
 62
7
  6
CONTINUOUS
 10
5.4399209053
 20
4.4056482919
 30
0.0
 11
-0.1007222974
 21
0.4822282366
 31
0.0
 40
0.0724615456
 41
-4.3045336433
 42
-4.2873661045
  0
ELLIPSE
  5
40C
100
AcDbEntity
  8
ALL_ASSEMBLY_MEMBERS
100
AcDbEllipse
 62
7
  6
CONTINUOUS
 10
5.4399209053
 20
4.4056482919
 30
0.0
 11
-0.10123742
 21
0.4846944896
 31
0.0
 40
0.0724615456
 41
-4.3049104657
 42
-4.2878308749
  0
ELLIPSE
  5
40D
100
AcDbEntity
  8
ALL_ASSEMBLY_MEMBERS
100
AcDbEllipse
 62
7
  6
CONTINUOUS
 10
5.3731913462
 20
4.4056482919
 30
0.0
 11
0.6429400371
 21
0.0
 31
0.0
 40
0.7539583352
 41
7.8485889439
 42
7.857099912
  0
ELLIPSE
  5
40E
100
AcDbEntity
  8
ALL_ASSEMBLY_MEMBERS
100
AcDbEllipse
 62
7
  6
CONTINUOUS
 10
5.2062873836
 20
4.4056482919
 30
0.0
 11
3.8576324144
 21
0.0
 31
0.0
 40
0.1256599769
 41
1.5143080044
 42
1.5171492967
  0
ELLIPSE
  5
40F
100
AcDbEntity
  8
ALL_ASSEMBLY_MEMBERS
100
AcDbEllipse
 62
7
  6
CONTINUOUS
 10
5.2062873836
 20
4.4056482919
 30
0.0
 11
3.8380037666
 21
0.0
 31
0.0
 40
0.1256599769
 41
7.7972041041
 42
7.8000599721
  0
ELLIPSE
  5
410
100
AcDbEntity
  8
ALL_ASSEMBLY_MEMBERS
100
AcDbEllipse
 62
7
  6
CONTINUOUS
 10
5.4530320804
 20
4.4056482919
 30
0.0
 11
-0.0866566919
 21
0.4847194462
 31
0.0
 40
0.0628055002
 41
-4.4316026612
 42
-4.4117214252
  0
ELLIPSE
  5
411
100
AcDbEntity
  8
ALL_ASSEMBLY_MEMBERS
100
AcDbEllipse
 62
7
  6
CONTINUOUS
 10
5.4530320804
 20
4.4056482919
 30
0.0
 11
-0.0862157599
 21
0.4822530662
 31
0.0
 40
0.0628055002
 41
-4.4318947599
 42
-4.4119116145
  0
ELLIPSE
  5
412
100
AcDbEntity
  8
ALL_ASSEMBLY_MEMBERS
100
AcDbEllipse
 62
7
  6
CONTINUOUS
 10
5.466125299
 20
4.4056482919
 30
0.0
 11
-0.3118799231
 21
0.4821211713
 31
0.0
 40
0.1616508637
 41
-4.5359371337
 42
-4.5245667903
  0
ELLIPSE
  5
413
100
AcDbEntity
  8
ALL_ASSEMBLY_MEMBERS
100
AcDbEllipse
 62
7
  6
CONTINUOUS
 10
5.466125299
 20
4.4056482919
 30
0.0
 11
-0.310292996
 21
0.4796680121
 31
0.0
 40
0.1616508637
 41
-4.5362876155
 42
-4.524858889
  0
ELLIPSE
  5
414
100
AcDbEntity
  8
ALL_ASSEMBLY_MEMBERS
100
AcDbEllipse
 62
7
  6
CONTINUOUS
 10
5.4881038028
 20
4.4056482919
 30
0.0
 11
0.6379532564
 21
-0.4725921289
 31
0.0
 40
0.169111637
 41
-1.525970049
 42
-1.5145908343
  0
ELLIPSE
  5
415
100
AcDbEntity
  8
ALL_ASSEMBLY_MEMBERS
100
AcDbEllipse
 62
7
  6
CONTINUOUS
 10
5.4881038028
 20
4.4056482919
 30
0.0
 11
0.6347071826
 21
-0.470187456
 31
0.0
 40
0.169111637
 41
-1.5263790513
 42
-1.5149413162
  0
ELLIPSE
  5
416
100
AcDbEntity
  8
ALL_ASSEMBLY_MEMBERS
100
AcDbEllipse
 62
7
  6
CONTINUOUS
 10
5.6418628854
 20
4.4056482919
 30
0.0
 11
2.5715997839
 21
-0.4573305014
 31
0.0
 40
0.0624986133
 41
-1.6423298464
 42
-1.639483481
  0
ELLIPSE
  5
417
100
AcDbEntity
  8
ALL_ASSEMBLY_MEMBERS
100
AcDbEllipse
 62
7
  6
CONTINUOUS
 10
5.6418628854
 20
4.4056482919
 30
0.0
 11
2.5585148082
 21
-0.4550034836
 31
0.0
 40
0.0624986133
 41
-1.6427535031
 42
-1.6398924833
  0
ELLIPSE
  5
418
100
AcDbEntity
  8
ALL_ASSEMBLY_MEMBERS
100
AcDbEllipse
 62
7
  6
CONTINUOUS
 10
5.3696336864
 20
4.4056482919
 30
0.0
 11
0.9644113131
 21
0.0
 31
0.0
 40
0.5026382348
 41
7.7861233771
 42
7.7974933116
  0
ELLIPSE
  5
419
100
AcDbEntity
  8
ALL_ASSEMBLY_MEMBERS
100
AcDbEllipse
 62
7
  6
CONTINUOUS
 10
5.3696336864
 20
4.4056482919
 30
0.0
 11
0.9595041348
 21
-0.0
 31
0.0
 40
0.5026382348
 41
7.7911586055
 42
7.7972041041
  0
ELLIPSE
  5
41A
100
AcDbEntity
  8
ALL_ASSEMBLY_MEMBERS
100
AcDbEllipse
 62
7
  6
CONTINUOUS
 10
5.4059632039
 20
4.4056482919
 30
0.0
 11
-0.0
 21
0.48475
 31
0.0
 40
0.8842220554
 41
6.2067939025
 42
6.2153270503
  0
ELLIPSE
  5
41B
100
AcDbEntity
  8
ALL_ASSEMBLY_MEMBERS
100
AcDbEllipse
 62
7
  6
CONTINUOUS
 10
5.4288612992
 20
4.4056482919
 30
0.0
 11
-0.0
 21
0.48475
 31
0.0
 40
0.2652664142
 41
6.1925592719
 42
6.2067939025
  0
ELLIPSE
  5
41C
100
AcDbEntity
  8
ALL_ASSEMBLY_MEMBERS
100
AcDbEllipse
 62
7
  6
CONTINUOUS
 10
5.3697241797
 20
4.4056482919
 30
0.0
 11
1.2858813755
 21
-0.0
 31
0.0
 40
0.3769787861
 41
7.8429147916
 42
7.8485889439
  0
ELLIPSE
  5
41D
100
AcDbEntity
  8
ALL_ASSEMBLY_MEMBERS
100
AcDbEllipse
 62
7
  6
CONTINUOUS
 10
5.3735883509
 20
4.4056482919
 30
0.0
 11
0.1007223063
 21
0.4822282366
 31
0.0
 40
0.0724615514
 41
-1.9958192001
 42
-1.9786516613
  0
ELLIPSE
  5
41E
100
AcDbEntity
  8
ALL_ASSEMBLY_MEMBERS
100
AcDbEllipse
 62
7
  6
CONTINUOUS
 10
5.3735883509
 20
4.4056482919
 30
0.0
 11
0.101237429
 21
0.4846944896
 31
0.0
 40
0.0724615514
 41
-1.9953544298
 42
-1.9782748389
  0
ELLIPSE
  5
41F
100
AcDbEntity
  8
ALL_ASSEMBLY_MEMBERS
100
AcDbEllipse
 62
7
  6
CONTINUOUS
 10
5.4368145794
 20
4.4056482919
 30
0.0
 11
0.1217484712
 21
0.4846385342
 31
0.0
 40
0.0853800028
 41
-1.8839500288
 42
-1.8697617145
  0
ELLIPSE
  5
420
100
AcDbEntity
  8
ALL_ASSEMBLY_MEMBERS
100
AcDbEllipse
 62
7
  6
CONTINUOUS
 10
5.4368145794
 20
4.4056482919
 30
0.0
 11
0.121128983
 21
0.482172566
 31
0.0
 40
0.0853800028
 41
-1.8838760368
 42
-1.8713258838
  0
ELLIPSE
  5
421
100
AcDbEntity
  8
ALL_ASSEMBLY_MEMBERS
100
AcDbEllipse
 62
7
  6
CONTINUOUS
 10
5.4324741617
 20
4.4056482919
 30
0.0
 11
0.4203531079
 21
0.479141308
 31
0.0
 40
0.1749164141
 41
-1.7616396296
 42
-1.7531282233
  0
ELLIPSE
  5
422
100
AcDbEntity
  8
ALL_ASSEMBLY_MEMBERS
100
AcDbEllipse
 62
7
  6
CONTINUOUS
 10
5.4324741617
 20
4.4056482919
 30
0.0
 11
0.4182142408
 21
0.4767033111
 31
0.0
 40
0.1749164141
 41
-1.7616091722
 42
-1.7530542313
  0
ELLIPSE
  5
423
100
AcDbEntity
  8
ALL_ASSEMBLY_MEMBERS
100
AcDbEllipse
 62
7
  6
CONTINUOUS
 10
5.4292834287
 20
4.4056482919
 30
0.0
 11
0.9622070503
 21
0.4656770023
 31
0.0
 40
0.1399266146
 41
-1.6381317277
 42
-1.6324577399
  0
ELLIPSE
  5
424
100
AcDbEntity
  8
ALL_ASSEMBLY_MEMBERS
100
AcDbEllipse
 62
7
  6
CONTINUOUS
 10
5.4292834287
 20
4.4056482919
 30
0.0
 11
0.9573110879
 21
0.4633075153
 31
0.0
 40
0.1399266146
 41
-1.638130289
 42
-1.6324272825
  0
ELLIPSE
  5
425
100
AcDbEntity
  8
ALL_ASSEMBLY_MEMBERS
100
AcDbEllipse
 62
7
  6
CONTINUOUS
 10
5.4262684274
 20
4.4056482919
 30
0.0
 11
1.2847953844
 21
-0.4619431499
 31
0.0
 40
0.114367678
 41
-1.5356543218
 42
-1.5299803341
  0
ELLIPSE
  5
426
100
AcDbEntity
  8
ALL_ASSEMBLY_MEMBERS
100
AcDbEllipse
 62
7
  6
CONTINUOUS
 10
5.4262684274
 20
4.4056482919
 30
0.0
 11
1.2782580077
 21
-0.4595926617
 31
0.0
 40
0.114367678
 41
-1.5356847793
 42
-1.5299817728
  0
ELLIPSE
  5
427
100
AcDbEntity
  8
ALL_ASSEMBLY_MEMBERS
100
AcDbEllipse
 62
7
  6
CONTINUOUS
 10
5.422029311
 20
4.4056482919
 30
0.0
 11
0.5681047491
 21
-0.4746020763
 31
0.0
 40
0.1736797508
 41
-1.5122023158
 42
-1.4326628245
  0
ELLIPSE
  5
428
100
AcDbEntity
  8
ALL_ASSEMBLY_MEMBERS
100
AcDbEllipse
 62
7
  6
CONTINUOUS
 10
5.422029311
 20
4.4056482919
 30
0.0
 11
0.5652140828
 21
-0.4721871761
 31
0.0
 40
0.1736797508
 41
-1.5126406373
 42
-1.4326932819
  0
ELLIPSE
  5
429
100
AcDbEntity
  8
ALL_ASSEMBLY_MEMBERS
100
AcDbEllipse
 62
7
  6
CONTINUOUS
 10
5.5253233395
 20
4.4056482919
 30
0.0
 11
3.2146300597
 21
0.4566950116
 31
0.0
 40
0.0505558626
 41
-1.6202645376
 42
-1.6174251979
  0
ELLIPSE
  5
42A
100
AcDbEntity
  8
ALL_ASSEMBLY_MEMBERS
100
AcDbEllipse
 62
7
  6
CONTINUOUS
 10
5.5253233395
 20
4.4056482919
 30
0.0
 11
3.1982731769
 21
0.4543712273
 31
0.0
 40
0.0505558626
 41
-1.6204809302
 42
-1.6176270448
  0
ELLIPSE
  5
42B
100
AcDbEntity
  8
ALL_ASSEMBLY_MEMBERS
100
AcDbEllipse
 62
7
  6
CONTINUOUS
 10
5.4709641371
 20
4.4056482919
 30
0.0
 11
1.9284550012
 21
0.4586391511
 31
0.0
 40
0.0813853855
 41
-1.6352752504
 42
-1.6324355533
  0
ELLIPSE
  5
42C
100
AcDbEntity
  8
ALL_ASSEMBLY_MEMBERS
100
AcDbEllipse
 62
7
  6
CONTINUOUS
 10
5.4709641371
 20
4.4056482919
 30
0.0
 11
1.9186425152
 21
0.4563054746
 31
0.0
 40
0.0813853855
 41
-1.635506194
 42
-1.6326519458
  0
ELLIPSE
  5
42D
100
AcDbEntity
  8
ALL_ASSEMBLY_MEMBERS
100
AcDbEllipse
 62
7
  6
CONTINUOUS
 10
5.4419611128
 20
4.4056482919
 30
0.0
 11
1.28479561
 21
0.461943148
 31
0.0
 40
0.1143676625
 41
-1.6626997827
 42
-1.6570192891
  0
ELLIPSE
  5
42E
100
AcDbEntity
  8
ALL_ASSEMBLY_MEMBERS
100
AcDbEllipse
 62
7
  6
CONTINUOUS
 10
5.4419611128
 20
4.4056482919
 30
0.0
 11
1.2782582322
 21
0.4595926598
 31
0.0
 40
0.1143676625
 41
-1.6629598455
 42
-1.6572502327
  0
ELLIPSE
  5
42F
100
AcDbEntity
  8
ALL_ASSEMBLY_MEMBERS
100
AcDbEllipse
 62
7
  6
CONTINUOUS
 10
5.4093097762
 20
4.4056482919
 30
0.0
 11
0.6379534101
 21
0.4725921247
 31
0.0
 40
0.1691116253
 41
-1.754754002
 42
-1.7462301183
  0
ELLIPSE
  5
430
100
AcDbEntity
  8
ALL_ASSEMBLY_MEMBERS
100
AcDbEllipse
 62
7
  6
CONTINUOUS
 10
5.4093097762
 20
4.4056482919
 30
0.0
 11
0.6347073354
 21
0.4701874517
 31
0.0
 40
0.1691116253
 41
-1.7550577922
 42
-1.7464901811
  0
ELLIPSE
  5
431
100
AcDbEntity
  8
ALL_ASSEMBLY_MEMBERS
100
AcDbEllipse
 62
7
  6
CONTINUOUS
 10
5.3940604411
 20
4.4056482919
 30
0.0
 11
0.3768572419
 21
0.4804196487
 31
0.0
 40
0.1715483437
 41
-1.8596439314
 42
-1.8454275419
  0
ELLIPSE
  5
432
100
AcDbEntity
  8
ALL_ASSEMBLY_MEMBERS
100
AcDbEllipse
 62
7
  6
CONTINUOUS
 10
5.3940604411
 20
4.4056482919
 30
0.0
 11
0.3749396931
 21
0.4779751472
 31
0.0
 40
0.1715483437
 41
-1.8600207538
 42
-1.8457313321
  0
ENDSEC
  0
SECTION
  2
OBJECTS
  0
DICTIONARY
  5
C
100
AcDbDictionary
280
0
281
1
  3
ACAD_GROUP
350
D
  3
ACAD_MLINESTYLE
350
17
  3
ACAD_LAYOUT
350
1A
  3
ACAD_PLOTSETTINGS
350
19
  3
ACAD_PLOTSTYLENAME
350
E
  0
DICTIONARY
  5
D
102
{ACAD_REACTORS
330
C
102
}
100
AcDbDictionary
280
0
281
1
  0
ACDBDICTIONARYWDFLT
  5
E
102
{ACAD_REACTORS
330
C
102
}
100
AcDbDictionary
281
1
  3
Normal
350
F
100
AcDbDictionaryWithDefault
340
F
  0
DICTIONARY
  5
17
102
{ACAD_REACTORS
330
C
102
}
100
AcDbDictionary
280
0
281
1
  3
Standard
350
18
  0
DICTIONARY
  5
19
102
{ACAD_REACTORS
330
C
102
}
100
AcDbDictionary
281
1
  0
DICTIONARY
  5
1A
102
{ACAD_REACTORS
330
C
102
}
100
AcDbDictionary
281
1
  3
Model
350
433
  3
Layout1
350
434
  0
ACDBPLACEHOLDER
  5
F
102
{ACAD_REACTORS
330
E
102
}
  0
MLINESTYLE
  5
18
102
{ACAD_REACTORS
330
17
102
}
100
AcDbMlineStyle
  2
STANDARD
 70
0
  3

 62
256
 51
90.0
 52
90.0
 71
2
 49
0.5
 62
256
  6
BYLAYER
 49
-0.5
 62
256
  6
BYLAYER
  0
LAYOUT
  5
433
102
{ACAD_REACTORS
330
1A
102
}
100
AcDbPlotSettings
  1

  2
none_device
  4
ANSI_A_(11.00_x_8.50_Inches)
  6

 40
0.0
 41
0.0
 42
0.0
 43
0.0
 44
279.4
 45
215.9
 46
0.0
 47
0.0
 48
0.0
 49
0.0
140
0.0
141
0.0
142
1.0
143
1.0
 70
1024
 72
0
 73
0
 74
0
  7

 75
0
147
1.0
148
0.0
149
0.0
100
AcDbLayout
  1
Model
 70
0
 71
0
 10
0.0
 20
0.0
 11
11.0
 21
8.5
 12
0.0
 22
0.0
 32
0.0
 14
0.0
 24
0.0
 34
0.0
 15
0.0
 25
0.0
 35
0.0
146
0.0
 13
0.0
 23
0.0
 33
0.0
 16
1.0
 26
0.0
 36
0.0
 17
0.0
 27
1.0
 37
0.0
 76
0
330
21E
345
0
346
0
  0
LAYOUT
  5
434
102
{ACAD_REACTORS
330
1A
102
}
100
AcDbPlotSettings
  1

  2
none_device
  4
ANSI_A_(11.00_x_8.50_Inches)
  6

 40
0.0
 41
0.0
 42
0.0
 43
0.0
 44
279.4
 45
215.9
 46
0.0
 47
0.0
 48
0.0
 49
0.0
140
0.0
141
0.0
142
1.0
143
1.0
 70
0
 72
0
 73
0
 74
0
  7

 75
0
147
1.0
148
0.0
149
0.0
100
AcDbLayout
  1
Layout1
 70
0
 71
1
 10
0.0
 20
0.0
 11
11.0
 21
8.5
 12
0.0
 22
0.0
 32
0.0
 14
0.0
 24
0.0
 34
0.0
 15
0.0
 25
0.0
 35
0.0
146
0.0
 13
0.0
 23
0.0
 33
0.0
 16
1.0
 26
0.0
 36
0.0
 17
0.0
 27
1.0
 37
0.0
 76
0
330
21F
345
0
346
0
  0
ENDSEC
  0
EOF
