999
DXF file: 3-1225_FRONT.dxf
999
Pro/ENGINEER 2018400 by Parametric Technology Corporation
  0
SECTION
  2
HEADER
  9
$ACADVER
  1
AC1027
  9
$DWGCODEPAGE
  3
ANSI_1252
  9
$EXTMAX
 10
11.0
 20
8.5
 30
0.0
  9
$EXTMIN
 10
0.0
 20
0.0
 30
0.0
  9
$LIMMIN
 10
0.0
 20
0.0
  9
$LIMMAX
 10
11.0
 20
8.5
  9
$VIEWCTR
 10
5.5
 20
4.25
  9
$VIEWSIZE
 40
8.5
  9
$CLAYER
  8
0
  9
$LTSCALE
 40
0.605
  9
$CELTYPE
  6
BYLAYER
  9
$DIMSCALE
 40
1.0
  9
$DIMASZ
 40
0.1
  9
$DIMEXO
 40
0.0625
  9
$DIMDLI
 40
0.418
  9
$DIMEXE
 40
0.125
  9
$DIMCEN
 40
0.099
  9
$DIMLFAC
 40
1.0
  9
$DIMBLK
  1
_FILLED
  9
$DIMALT
 70
1
  9
$DIMALTD
 70
2
  9
$DIMALTTD
 70
2
  9
$DIMALTF
 40
25.4
  9
$DIMTXT
 40
0.08
  9
$DIMTOL
 70
1
  9
$DIMLIM
 70
0
  9
$DIMTFAC
 40
1.0
  9
$DIMTP
 40
0.001
  9
$DIMTM
 40
0.001
  9
$DIMGAP
 40
0.09
  9
$DIMDSEP
 70
46
  9
$AUNITS
 70
0
  9
$PDMODE
 70
3
  9
$PDSIZE
 40
0.3125
  9
$HANDSEED
  5
3CB
  9
$TILEMODE
 70
1
  9
$MEASUREMENT
 70
0
  9
$INSUNITS
 70
1
  0
ENDSEC
  0
SECTION
  2
CLASSES
  0
CLASS
  1
ACDBDICTIONARYWDFLT
  2
AcDbDictionaryWithDefault
  3
AutoCAD 2000
 90
0
 91
1
280
0
281
0
  0
CLASS
  1
ACDBPLACEHOLDER
  2
AcDbPlaceHolder
  3
AutoCAD 2000
 90
0
 91
1
280
0
281
0
  0
CLASS
  1
LAYOUT
  2
AcDbLayout
  3
AutoCAD 2000
 90
0
 91
0
280
0
281
0
  0
ENDSEC
  0
SECTION
  2
TABLES
  0
TABLE
  2
VPORT
  5
8
100
AcDbSymbolTable
 70
2
  0
VPORT
  5
1F4
100
AcDbSymbolTableRecord
100
AcDbViewportTableRecord
  2
*ACTIVE
 70
0
 10
0.0
 20
0.0
 11
1.0
 21
1.0
 12
5.5
 22
4.25
 13
0.0
 23
0.0
 14
1.0
 24
1.0
 15
0.0
 25
0.0
 16
0.0
 26
0.0
 36
1.0
 17
0.0
 27
0.0
 37
0.0
 40
8.5
 41
1.2941176471
 42
50.0
 43
0.0
 44
0.0
 50
0.0
 51
0.0
 71
0
 72
100
 73
1
 74
1
 75
0
 76
0
 77
0
 78
0
  0
ENDTAB
  0
TABLE
  2
LTYPE
  5
5
100
AcDbSymbolTable
 70
6
  0
LTYPE
  5
14
100
AcDbSymbolTableRecord
100
AcDbLinetypeTableRecord
  2
BYBLOCK
 70
0
  3

 72
65
 73
0
 40
0.0
  0
LTYPE
  5
15
100
AcDbSymbolTableRecord
100
AcDbLinetypeTableRecord
  2
BYLAYER
 70
0
  3

 72
65
 73
0
 40
0.0
  0
LTYPE
  5
16
100
AcDbSymbolTableRecord
100
AcDbLinetypeTableRecord
  2
CONTINUOUS
 70
64
  3
Solid line
 72
65
 73
0
 40
0.0
  0
LTYPE
  5
1F5
100
AcDbSymbolTableRecord
100
AcDbLinetypeTableRecord
  2
CENTER
 70
64
  3
____ _ ____ _ ____ _ ____ _ ____ _ ____ _ ____
 72
65
 73
4
 40
0.6
 49
0.375
 74
0
 49
-0.075
 74
0
 49
0.075
 74
0
 49
-0.075
 74
0
  0
LTYPE
  5
1F6
100
AcDbSymbolTableRecord
100
AcDbLinetypeTableRecord
  2
HIDDEN
 70
64
  3
- - - - - - - - - - - - - - - - - - - -
 72
65
 73
2
 40
0.2
 49
0.1
 74
0
 49
-0.1
 74
0
  0
LTYPE
  5
1F7
100
AcDbSymbolTableRecord
100
AcDbLinetypeTableRecord
  2
PHANTOM
 70
64
  3
_____ _ _ _____ _ _ _____ _ _ _____
 72
65
 73
6
 40
0.8
 49
0.45
 74
0
 49
-0.05
 74
0
 49
0.1
 74
0
 49
-0.05
 74
0
 49
0.1
 74
0
 49
-0.05
 74
0
  0
LTYPE
  5
1F8
100
AcDbSymbolTableRecord
100
AcDbLinetypeTableRecord
  2
DOT
 70
64
  3
. . . . . . . . . . . . . . . . . . . .
 72
65
 73
2
 40
0.2
 49
0.1
 74
0
 49
-0.1
 74
0
  0
LTYPE
  5
1F9
100
AcDbSymbolTableRecord
100
AcDbLinetypeTableRecord
  2
DASHED
 70
64
  3
- - - - - - - - - - - - - - - - - - - -
 72
65
 73
2
 40
0.2
 49
0.1
 74
0
 49
-0.1
 74
0
  0
ENDTAB
  0
TABLE
  2
LAYER
  5
2
100
AcDbSymbolTable
 70
36
  0
LAYER
  5
10
100
AcDbSymbolTableRecord
100
AcDbLayerTableRecord
  2
0
 70
0
 62
7
  6
CONTINUOUS
370
-3
390
F
  0
LAYER
  5
1FA
100
AcDbSymbolTableRecord
100
AcDbLayerTableRecord
  2
DEFAULT_1
 70
0
 62
7
  6
CENTER
370
-3
390
F
  0
LAYER
  5
1FB
100
AcDbSymbolTableRecord
100
AcDbLayerTableRecord
  2
DEFAULT_2
 70
0
 62
8
  6
HIDDEN
370
-3
390
F
  0
LAYER
  5
1FC
100
AcDbSymbolTableRecord
100
AcDbLayerTableRecord
  2
DEFAULT_3
 70
0
 62
7
  6
PHANTOM
370
-3
390
F
  0
LAYER
  5
1FD
100
AcDbSymbolTableRecord
100
AcDbLayerTableRecord
  2
_  SHELL
 70
0
 62
7
  6
CONTINUOUS
370
-3
390
F
  0
LAYER
  5
1FE
100
AcDbSymbolTableRecord
100
AcDbLayerTableRecord
  2
06___PRT_ALL_SURFS
 70
0
 62
7
  6
CONTINUOUS
370
-3
390
F
  0
LAYER
  5
1FF
100
AcDbSymbolTableRecord
100
AcDbLayerTableRecord
  2
2-141_ASSY_DATUMS
 70
0
 62
7
  6
CONTINUOUS
370
-3
390
F
  0
LAYER
  5
200
100
AcDbSymbolTableRecord
100
AcDbLayerTableRecord
  2
2-142_ASSY_DATUMS
 70
0
 62
7
  6
CONTINUOUS
370
-3
390
F
  0
LAYER
  5
201
100
AcDbSymbolTableRecord
100
AcDbLayerTableRecord
  2
2-144_ASSY_PLANES
 70
0
 62
7
  6
CONTINUOUS
370
-3
390
F
  0
LAYER
  5
202
100
AcDbSymbolTableRecord
100
AcDbLayerTableRecord
  2
ALL_ASSEMBLY_MEMBERS
 70
0
 62
7
  6
CONTINUOUS
370
-3
390
F
  0
LAYER
  5
203
100
AcDbSymbolTableRecord
100
AcDbLayerTableRecord
  2
ALL_FEATURES
 70
0
 62
7
  6
CONTINUOUS
370
-3
390
F
  0
LAYER
  5
204
100
AcDbSymbolTableRecord
100
AcDbLayerTableRecord
  2
AXES_FEATURES
 70
0
 62
7
  6
CONTINUOUS
370
-3
390
F
  0
LAYER
  5
205
100
AcDbSymbolTableRecord
100
AcDbLayerTableRecord
  2
CHAMFER_FEATURES
 70
0
 62
7
  6
CONTINUOUS
370
-3
390
F
  0
LAYER
  5
206
100
AcDbSymbolTableRecord
100
AcDbLayerTableRecord
  2
CURVES
 70
0
 62
7
  6
CONTINUOUS
370
-3
390
F
  0
LAYER
  5
207
100
AcDbSymbolTableRecord
100
AcDbLayerTableRecord
  2
CUT_FEATURES
 70
0
 62
7
  6
CONTINUOUS
370
-3
390
F
  0
LAYER
  5
208
100
AcDbSymbolTableRecord
100
AcDbLayerTableRecord
  2
DATUM_CURVES
 70
0
 62
7
  6
CONTINUOUS
370
-3
390
F
  0
LAYER
  5
209
100
AcDbSymbolTableRecord
100
AcDbLayerTableRecord
  2
DATUM_PLANES
 70
0
 62
7
  6
CONTINUOUS
370
-3
390
F
  0
LAYER
  5
20A
100
AcDbSymbolTableRecord
100
AcDbLayerTableRecord
  2
DATUM_SHAPER
 70
0
 62
7
  6
CONTINUOUS
370
-3
390
F
  0
LAYER
  5
20B
100
AcDbSymbolTableRecord
100
AcDbLayerTableRecord
  2
DEFAULT_COORDINATE_SYSTEM
 70
0
 62
7
  6
CONTINUOUS
370
-3
390
F
  0
LAYER
  5
20C
100
AcDbSymbolTableRecord
100
AcDbLayerTableRecord
  2
DEFAULT_DATUM_AXES
 70
0
 62
7
  6
CONTINUOUS
370
-3
390
F
  0
LAYER
  5
20D
100
AcDbSymbolTableRecord
100
AcDbLayerTableRecord
  2
DEFAULT_DATUM_CURVES
 70
0
 62
7
  6
CONTINUOUS
370
-3
390
F
  0
LAYER
  5
20E
100
AcDbSymbolTableRecord
100
AcDbLayerTableRecord
  2
DEFAULT_DATUM_PLANES
 70
0
 62
7
  6
CONTINUOUS
370
-3
390
F
  0
LAYER
  5
20F
100
AcDbSymbolTableRecord
100
AcDbLayerTableRecord
  2
DEFAULT_SURFACES
 70
0
 62
7
  6
CONTINUOUS
370
-3
390
F
  0
LAYER
  5
210
100
AcDbSymbolTableRecord
100
AcDbLayerTableRecord
  2
DIMENSIONS
 70
0
 62
7
  6
CONTINUOUS
370
-3
390
F
  0
LAYER
  5
211
100
AcDbSymbolTableRecord
100
AcDbLayerTableRecord
  2
HOLE_FEATURES
 70
0
 62
7
  6
CONTINUOUS
370
-3
390
F
  0
LAYER
  5
212
100
AcDbSymbolTableRecord
100
AcDbLayerTableRecord
  2
INTF_BLANK
 70
0
 62
7
  6
CONTINUOUS
370
-3
390
F
  0
LAYER
  5
213
100
AcDbSymbolTableRecord
100
AcDbLayerTableRecord
  2
LAY0001
 70
0
 62
7
  6
CONTINUOUS
370
-3
390
F
  0
LAYER
  5
214
100
AcDbSymbolTableRecord
100
AcDbLayerTableRecord
  2
NOTES
 70
0
 62
7
  6
CONTINUOUS
370
-3
390
F
  0
LAYER
  5
215
100
AcDbSymbolTableRecord
100
AcDbLayerTableRecord
  2
PART_REFERENCE_DIMENSIONS
 70
0
 62
7
  6
CONTINUOUS
370
-3
390
F
  0
LAYER
  5
216
100
AcDbSymbolTableRecord
100
AcDbLayerTableRecord
  2
PLATEDSURFAREA
 70
0
 62
7
  6
CONTINUOUS
370
-3
390
F
  0
LAYER
  5
217
100
AcDbSymbolTableRecord
100
AcDbLayerTableRecord
  2
PLATED_SURAFCE
 70
0
 62
7
  6
CONTINUOUS
370
-3
390
F
  0
LAYER
  5
218
100
AcDbSymbolTableRecord
100
AcDbLayerTableRecord
  2
PROTRUSION_FEATURES
 70
0
 62
7
  6
CONTINUOUS
370
-3
390
F
  0
LAYER
  5
219
100
AcDbSymbolTableRecord
100
AcDbLayerTableRecord
  2
QUILT
 70
0
 62
7
  6
CONTINUOUS
370
-3
390
F
  0
LAYER
  5
21A
100
AcDbSymbolTableRecord
100
AcDbLayerTableRecord
  2
QUILTS
 70
0
 62
7
  6
CONTINUOUS
370
-3
390
F
  0
LAYER
  5
21B
100
AcDbSymbolTableRecord
100
AcDbLayerTableRecord
  2
REFERENCE_DIMENSIONS
 70
0
 62
7
  6
CONTINUOUS
370
-3
390
F
  0
LAYER
  5
21C
100
AcDbSymbolTableRecord
100
AcDbLayerTableRecord
  2
ROUND_FEATURES
 70
0
 62
7
  6
CONTINUOUS
370
-3
390
F
  0
LAYER
  5
21D
100
AcDbSymbolTableRecord
100
AcDbLayerTableRecord
  2
SHELL
 70
0
 62
7
  6
CONTINUOUS
370
-3
390
F
  0
LAYER
  5
21E
100
AcDbSymbolTableRecord
100
AcDbLayerTableRecord
  2
XSEC_DATUMS
 70
0
 62
7
  6
CONTINUOUS
370
-3
390
F
  0
LAYER
  5
21F
100
AcDbSymbolTableRecord
100
AcDbLayerTableRecord
  2
___SHELL
 70
0
 62
7
  6
CONTINUOUS
370
-3
390
F
  0
ENDTAB
  0
TABLE
  2
STYLE
  5
3
100
AcDbSymbolTable
 70
1
  0
STYLE
  5
11
100
AcDbSymbolTableRecord
100
AcDbTextStyleTableRecord
  2
STANDARD
 70
0
 40
0.0
 41
0.8
 50
0.0
 71
0
 42
0.2
  3
txt
  4

  0
STYLE
  5
220
100
AcDbSymbolTableRecord
100
AcDbTextStyleTableRecord
  2
TEXTSTYLE_1
 70
0
 40
0.0
 41
0.8
 50
0.0
 71
0
 42
0.2
  3
gdt
  4

  0
ENDTAB
  0
TABLE
  2
VIEW
  5
6
100
AcDbSymbolTable
 70
0
  0
ENDTAB
  0
TABLE
  2
UCS
  5
7
100
AcDbSymbolTable
 70
0
  0
ENDTAB
  0
TABLE
  2
APPID
  5
9
100
AcDbSymbolTable
 70
1
  0
APPID
  5
221
100
AcDbSymbolTableRecord
100
AcDbRegAppTableRecord
  2
ACAD
 70
0
  0
ENDTAB
  0
TABLE
  2
BLOCK_RECORD
  5
1
100
AcDbSymbolTable
 70
0
  0
BLOCK_RECORD
  5
222
100
AcDbSymbolTableRecord
100
AcDbBlockTableRecord
  2
*Model_Space
  0
BLOCK_RECORD
  5
223
100
AcDbSymbolTableRecord
100
AcDbBlockTableRecord
  2
*Paper_Space
  0
BLOCK_RECORD
  5
224
100
AcDbSymbolTableRecord
100
AcDbBlockTableRecord
  2
_FILLED
  0
ENDTAB
  0
TABLE
  2
DIMSTYLE
  5
A
100
AcDbSymbolTable
 70
1
100
AcDbDimStyleTable
 71
0
  0
DIMSTYLE
105
225
100
AcDbSymbolTableRecord
100
AcDbDimStyleTableRecord
  2
STANDARD
 70
0
  3

  4

 40
1.0
 41
0.1
 42
0.0625
 43
0.38
 44
0.125
 45
0.0
 46
0.0
 47
0.001
 48
0.001
140
0.08
141
0.09
142
0.0
143
25.4
144
1.0
145
0.0
146
1.0
147
0.09
 71
1.0
 72
0.0
 73
1
 74
1
 75
0
 76
0
 77
0
 78
4
 79
1
170
1
171
2
172
0
173
0
174
0
175
0
176
0
177
0
178
0
270
2
179
3
271
3
272
3
273
2
274
2
275
0
280
0
281
0
282
0
283
1
284
4
285
0
286
0
287
3
288
0
340
11
278
46
341
224
342
224
343
224
344
224
  0
ENDTAB
  0
ENDSEC
  0
SECTION
  2
BLOCKS
  0
BLOCK
  5
20
100
AcDbEntity
  8
0
100
AcDbBlockBegin
  2
*Model_Space
 70
0
 10
0.0
 20
0.0
 30
0.0
  3
*Model_Space
  1

  0
ENDBLK
  5
21
100
AcDbEntity
  8
0
100
AcDbBlockEnd
  0
BLOCK
  5
1C
100
AcDbEntity
  8
0
100
AcDbBlockBegin
  2
*Paper_Space
 70
0
 10
0.0
 20
0.0
 30
0.0
  3
*Paper_Space
  1

  0
ENDBLK
  5
1D
100
AcDbEntity
  8
0
100
AcDbBlockEnd
  0
BLOCK
  5
226
100
AcDbEntity
  8
0
100
AcDbBlockBegin
  2
_FILLED
 70
64
 10
0.0
 20
0.0
  3
_FILLED
  1

  0
SOLID
  5
227
100
AcDbEntity
  8
0
  6
BYBLOCK
 62
0
100
AcDbTrace
 10
0.0
 20
0.0
 11
-1.0
 21
0.2
 12
-1.0
 22
-0.2
 13
-1.0
 23
-0.2
  0
ENDBLK
  5
228
100
AcDbEntity
  8
0
  6
BYBLOCK
 62
0
100
AcDbBlockEnd
  0
ENDSEC
  0
SECTION
  2
ENTITIES
  0
MTEXT
  5
229
100
AcDbEntity
  8
0
100
AcDbMText
 62
2
  6
CONTINUOUS
  7
STANDARD
 71
3
 72
1
 10
3.4650427019
 20
1.712197205
 30
0.0
 11
1.0
 21
0.0
 31
0.0
 73
2
 44
0.9
  1
SCALE  .500
 40
0.08
 41
0.704
  0
LINE
  5
22A
100
AcDbEntity
  8
0
100
AcDbLine
 62
7
  6
CONTINUOUS
 10
0.0
 20
0.0
 11
0.0
 21
8.5
  0
LINE
  5
22B
100
AcDbEntity
  8
0
100
AcDbLine
 62
7
  6
CONTINUOUS
 10
0.0
 20
0.0
 11
11.0
 21
0.0
  0
LINE
  5
22C
100
AcDbEntity
  8
0
100
AcDbLine
 62
7
  6
CONTINUOUS
 10
0.0
 20
8.5
 11
11.0
 21
8.5
  0
LINE
  5
22D
100
AcDbEntity
  8
0
100
AcDbLine
 62
7
  6
CONTINUOUS
 10
11.0
 20
0.0
 11
11.0
 21
8.5
  0
LINE
  5
22E
100
AcDbEntity
  8
ALL_FEATURES
100
AcDbLine
 62
7
  6
CONTINUOUS
 10
3.2827114915
 20
6.9430010894
 11
2.8924107143
 21
6.7176608306
  0
LINE
  5
22F
100
AcDbEntity
  8
ALL_ASSEMBLY_MEMBERS
100
AcDbLine
 62
7
  6
CONTINUOUS
 10
3.4828043621
 20
6.8965715307
 11
3.5115441204
 21
6.9376161593
  0
LINE
  5
230
100
AcDbEntity
  8
ALL_ASSEMBLY_MEMBERS
100
AcDbLine
 62
7
  6
CONTINUOUS
 10
2.8865274743
 20
6.3125995132
 11
2.9275721028
 21
6.3413392715
  0
LINE
  5
231
100
AcDbEntity
  8
ALL_FEATURES
100
AcDbLine
 62
7
  6
CONTINUOUS
 10
3.3244895993
 20
6.7145367105
 11
3.1111557242
 21
6.5913683403
  0
LINE
  5
232
100
AcDbEntity
  8
ALL_FEATURES
100
AcDbLine
 62
7
  6
CONTINUOUS
 10
3.1672810406
 20
6.5801765994
 11
3.1489107143
 21
6.5695704866
  0
LINE
  5
233
100
AcDbEntity
  8
ALL_ASSEMBLY_MEMBERS
100
AcDbLine
 62
7
  6
CONTINUOUS
 10
2.8865274743
 20
6.3125995132
 11
2.8865274743
 21
6.5378663253
  0
LINE
  5
234
100
AcDbEntity
  8
ALL_FEATURES
100
AcDbLine
 62
7
  6
CONTINUOUS
 10
2.8924107143
 20
6.7176608306
 11
2.8924107143
 21
6.5337468363
  0
LINE
  5
235
100
AcDbEntity
  8
ALL_FEATURES
100
AcDbLine
 62
7
  6
CONTINUOUS
 10
2.8924107143
 20
6.3167190022
 11
2.8924107143
 21
6.1328050079
  0
LINE
  5
236
100
AcDbEntity
  8
ALL_ASSEMBLY_MEMBERS
100
AcDbLine
 62
7
  6
CONTINUOUS
 10
2.9275721028
 20
6.3413392715
 11
2.9275721028
 21
6.5091265671
  0
LINE
  5
237
100
AcDbEntity
  8
ALL_ASSEMBLY_MEMBERS
100
AcDbLine
 62
7
  6
CONTINUOUS
 10
2.9401607143
 20
6.3306874744
 11
2.9401607143
 21
6.5197783641
  0
LINE
  5
238
100
AcDbEntity
  8
ALL_ASSEMBLY_MEMBERS
100
AcDbLine
 62
7
  6
CONTINUOUS
 10
2.9525922936
 20
6.3297742726
 11
2.9525922936
 21
6.5206915659
  0
LINE
  5
239
100
AcDbEntity
  8
ALL_ASSEMBLY_MEMBERS
100
AcDbLine
 62
7
  6
CONTINUOUS
 10
3.4439107143
 20
6.4564755599
 11
3.4484107143
 21
6.4672329193
  0
LINE
  5
23A
100
AcDbEntity
  8
ALL_ASSEMBLY_MEMBERS
100
AcDbLine
 62
7
  6
CONTINUOUS
 10
3.5284107143
 20
6.4564755599
 11
3.5241680736
 21
6.4522329193
  0
LINE
  5
23B
100
AcDbEntity
  8
ALL_FEATURES
100
AcDbLine
 62
7
  6
CONTINUOUS
 10
2.9534350692
 20
6.1680396289
 11
2.9239821119
 21
6.151025453
  0
LWPOLYLINE
  5
23C
100
AcDbEntity
  8
ALL_FEATURES
100
AcDbPolyline
 62
7
  6
CONTINUOUS
 90
3
 70
0
 10
2.9239821119
 20
6.151025453
 10
2.9084592186
 20
6.1420613361
 10
2.8924107143
 20
6.1328050079
  0
LINE
  5
23D
100
AcDbEntity
  8
ALL_FEATURES
100
AcDbLine
 62
7
  6
CONTINUOUS
 10
3.8443863593
 20
6.6824262096
 11
3.8738393167
 21
6.6994403855
  0
LWPOLYLINE
  5
23E
100
AcDbEntity
  8
ALL_FEATURES
100
AcDbPolyline
 62
7
  6
CONTINUOUS
 90
3
 70
0
 10
3.8738393167
 20
6.6994403855
 10
3.88936221
 20
6.7084045024
 10
3.9054107143
 20
6.7176608306
  0
LINE
  5
23F
100
AcDbEntity
  8
ALL_FEATURES
100
AcDbLine
 62
7
  6
CONTINUOUS
 10
3.1489107143
 20
6.280895352
 11
2.8847081308
 21
6.1283579193
  0
LINE
  5
240
100
AcDbEntity
  8
ALL_FEATURES
100
AcDbLine
 62
7
  6
CONTINUOUS
 10
3.6489107143
 20
6.5695704866
 11
3.9131132978
 21
6.7221079193
  0
LINE
  5
241
100
AcDbEntity
  8
ALL_FEATURES
100
AcDbLine
 62
7
  6
CONTINUOUS
 10
3.1111557242
 20
6.5913683403
 11
3.1111557242
 21
6.5006120678
  0
LINE
  5
242
100
AcDbEntity
  8
ALL_FEATURES
100
AcDbLine
 62
7
  6
CONTINUOUS
 10
3.1111557242
 20
6.3498537707
 11
3.1111557242
 21
6.2590974983
  0
LINE
  5
243
100
AcDbEntity
  8
ALL_ASSEMBLY_MEMBERS
100
AcDbLine
 62
7
  6
CONTINUOUS
 10
3.1333277094
 20
6.5185718872
 11
3.1333277058
 21
6.5096334408
  0
LINE
  5
244
100
AcDbEntity
  8
ALL_ASSEMBLY_MEMBERS
100
AcDbLine
 62
7
  6
CONTINUOUS
 10
3.1333277055
 20
6.3408324012
 11
3.1333277094
 21
6.3318939513
  0
LINE
  5
245
100
AcDbEntity
  8
ALL_FEATURES
100
AcDbLine
 62
7
  6
CONTINUOUS
 10
3.1489107143
 20
6.5695704866
 11
3.1489107143
 21
6.5483582551
  0
LINE
  5
246
100
AcDbEntity
  8
ALL_FEATURES
100
AcDbLine
 62
7
  6
CONTINUOUS
 10
3.1489107143
 20
6.3020882841
 11
3.1489107143
 21
6.280895352
  0
LINE
  5
247
100
AcDbEntity
  8
ALL_ASSEMBLY_MEMBERS
100
AcDbLine
 62
7
  6
CONTINUOUS
 10
3.2664107143
 20
6.3827329193
 11
3.2664107143
 21
6.3947329193
  0
LINE
  5
248
100
AcDbEntity
  8
ALL_ASSEMBLY_MEMBERS
100
AcDbLine
 62
7
  6
CONTINUOUS
 10
3.2664107143
 20
6.4582329193
 11
3.2664107143
 21
6.4672329193
  0
LINE
  5
249
100
AcDbEntity
  8
ALL_ASSEMBLY_MEMBERS
100
AcDbLine
 62
7
  6
CONTINUOUS
 10
3.2746607143
 20
6.4061319324
 11
3.2746607143
 21
6.4468339061
  0
LINE
  5
24A
100
AcDbEntity
  8
ALL_ASSEMBLY_MEMBERS
100
AcDbLine
 62
7
  6
CONTINUOUS
 10
3.3150170665
 20
5.9538943078
 11
3.2862773082
 21
5.9128496793
  0
LINE
  5
24B
100
AcDbEntity
  8
ALL_ASSEMBLY_MEMBERS
100
AcDbLine
 62
7
  6
CONTINUOUS
 10
3.9112939543
 20
6.5378663253
 11
3.8702493258
 21
6.5091265671
  0
LINE
  5
24C
100
AcDbEntity
  8
ALL_ASSEMBLY_MEMBERS
100
AcDbLine
 62
7
  6
CONTINUOUS
 10
5.7349107143
 20
2.6027329193
 11
4.9999107143
 21
2.6027329193
  0
LINE
  5
24D
100
AcDbEntity
  8
ALL_ASSEMBLY_MEMBERS
100
AcDbLine
 62
7
  6
CONTINUOUS
 10
3.2946607143
 20
6.4202329193
 11
3.2946607143
 21
6.4061319324
  0
LINE
  5
24E
100
AcDbEntity
  8
ALL_ASSEMBLY_MEMBERS
100
AcDbLine
 62
7
  6
CONTINUOUS
 10
3.2951607143
 20
6.4470107314
 11
3.2951607143
 21
6.4350107314
  0
LINE
  5
24F
100
AcDbEntity
  8
ALL_ASSEMBLY_MEMBERS
100
AcDbLine
 62
7
  6
CONTINUOUS
 10
3.3029107143
 20
6.4672329193
 11
3.3029107143
 21
6.4582329193
  0
LINE
  5
250
100
AcDbEntity
  8
ALL_ASSEMBLY_MEMBERS
100
AcDbLine
 62
7
  6
CONTINUOUS
 10
3.3029107143
 20
6.3947329193
 11
3.3029107143
 21
6.3827329193
  0
LINE
  5
251
100
AcDbEntity
  8
ALL_ASSEMBLY_MEMBERS
100
AcDbLine
 62
7
  6
CONTINUOUS
 10
3.3114107143
 20
6.3827329193
 11
3.3114107143
 21
6.3947329193
  0
LINE
  5
252
100
AcDbEntity
  8
ALL_ASSEMBLY_MEMBERS
100
AcDbLine
 62
7
  6
CONTINUOUS
 10
3.3114107143
 20
6.4582329193
 11
3.3114107143
 21
6.4672329193
  0
LINE
  5
253
100
AcDbEntity
  8
ALL_ASSEMBLY_MEMBERS
100
AcDbLine
 62
7
  6
CONTINUOUS
 10
3.3191607143
 20
6.4350107314
 11
3.3191607143
 21
6.4470107314
  0
LINE
  5
254
100
AcDbEntity
  8
ALL_ASSEMBLY_MEMBERS
100
AcDbLine
 62
7
  6
CONTINUOUS
 10
3.3196607143
 20
6.4061319324
 11
3.3196607143
 21
6.4202329193
  0
LINE
  5
255
100
AcDbEntity
  8
ALL_ASSEMBLY_MEMBERS
100
AcDbLine
 62
7
  6
CONTINUOUS
 10
3.3396607143
 20
6.4468339061
 11
3.3396607143
 21
6.4061319324
  0
LINE
  5
256
100
AcDbEntity
  8
ALL_ASSEMBLY_MEMBERS
100
AcDbLine
 62
7
  6
CONTINUOUS
 10
3.3479107143
 20
6.4672329193
 11
3.3479107143
 21
6.4582329193
  0
LINE
  5
257
100
AcDbEntity
  8
ALL_ASSEMBLY_MEMBERS
100
AcDbLine
 62
7
  6
CONTINUOUS
 10
3.3479107143
 20
6.3947329193
 11
3.3479107143
 21
6.3827329193
  0
LINE
  5
258
100
AcDbEntity
  8
ALL_ASSEMBLY_MEMBERS
100
AcDbLine
 62
7
  6
CONTINUOUS
 10
3.4679107143
 20
6.3827329193
 11
3.4679107143
 21
6.3947329193
  0
LINE
  5
259
100
AcDbEntity
  8
ALL_ASSEMBLY_MEMBERS
100
AcDbLine
 62
7
  6
CONTINUOUS
 10
3.4771607143
 20
6.4104630655
 11
3.4771607143
 21
6.4567829193
  0
LINE
  5
25A
100
AcDbEntity
  8
ALL_ASSEMBLY_MEMBERS
100
AcDbLine
 62
7
  6
CONTINUOUS
 10
3.4951607143
 20
6.4567829193
 11
3.4951607143
 21
6.4104630655
  0
LINE
  5
25B
100
AcDbEntity
  8
ALL_ASSEMBLY_MEMBERS
100
AcDbLine
 62
7
  6
CONTINUOUS
 10
3.5044107143
 20
6.3947329193
 11
3.5044107143
 21
6.3827329193
  0
LINE
  5
25C
100
AcDbEntity
  8
ALL_FEATURES
100
AcDbLine
 62
7
  6
CONTINUOUS
 10
3.6305570972
 20
6.2702988862
 11
3.6489107143
 21
6.280895352
  0
LINE
  5
25D
100
AcDbEntity
  8
ALL_FEATURES
100
AcDbLine
 62
7
  6
CONTINUOUS
 10
3.4733318293
 20
6.135929128
 11
3.6866657044
 21
6.2590974983
  0
LINE
  5
25E
100
AcDbEntity
  8
ALL_ASSEMBLY_MEMBERS
100
AcDbLine
 62
7
  6
CONTINUOUS
 10
5.7349107143
 20
2.9252329193
 11
4.9999107143
 21
2.9252329193
  0
LINE
  5
25F
100
AcDbEntity
  8
0
100
AcDbLine
 62
7
  6
CONTINUOUS
 10
3.6489107143
 20
6.5695704866
 11
3.6489107143
 21
6.5483582618
  0
LINE
  5
260
100
AcDbEntity
  8
0
100
AcDbLine
 62
7
  6
CONTINUOUS
 10
3.6489107143
 20
6.3020882834
 11
3.6489107143
 21
6.280895352
  0
LINE
  5
261
100
AcDbEntity
  8
ALL_ASSEMBLY_MEMBERS
100
AcDbLine
 62
7
  6
CONTINUOUS
 10
3.6644937192
 20
6.3318939513
 11
3.6644937228
 21
6.3406287546
  0
LINE
  5
262
100
AcDbEntity
  8
ALL_ASSEMBLY_MEMBERS
100
AcDbLine
 62
7
  6
CONTINUOUS
 10
3.6644937231
 20
6.5096334372
 11
3.6644937192
 21
6.5185718872
  0
LINE
  5
263
100
AcDbEntity
  8
ALL_FEATURES
100
AcDbLine
 62
7
  6
CONTINUOUS
 10
3.6866657044
 20
6.2590974983
 11
3.6866657044
 21
6.3498537707
  0
LINE
  5
264
100
AcDbEntity
  8
ALL_FEATURES
100
AcDbLine
 62
7
  6
CONTINUOUS
 10
3.6866657044
 20
6.5006120678
 11
3.6866657044
 21
6.5913683403
  0
LINE
  5
265
100
AcDbEntity
  8
ALL_FEATURES
100
AcDbLine
 62
7
  6
CONTINUOUS
 10
3.5151099371
 20
5.9074647491
 11
3.9054107143
 21
6.1328050079
  0
LINE
  5
266
100
AcDbEntity
  8
ALL_ASSEMBLY_MEMBERS
100
AcDbLine
 62
7
  6
CONTINUOUS
 10
3.845229135
 20
6.5206915659
 11
3.845229135
 21
6.3297742726
  0
LINE
  5
267
100
AcDbEntity
  8
ALL_ASSEMBLY_MEMBERS
100
AcDbLine
 62
7
  6
CONTINUOUS
 10
3.8576607143
 20
6.5197783641
 11
3.8576607143
 21
6.3306874744
  0
LINE
  5
268
100
AcDbEntity
  8
ALL_ASSEMBLY_MEMBERS
100
AcDbLine
 62
7
  6
CONTINUOUS
 10
3.8702493258
 20
6.5091265671
 11
3.8702493258
 21
6.3413392715
  0
LINE
  5
269
100
AcDbEntity
  8
ALL_FEATURES
100
AcDbLine
 62
7
  6
CONTINUOUS
 10
3.9054107143
 20
6.1328050079
 11
3.9054107143
 21
6.3167190022
  0
LINE
  5
26A
100
AcDbEntity
  8
ALL_FEATURES
100
AcDbLine
 62
7
  6
CONTINUOUS
 10
3.9054107143
 20
6.5337468363
 11
3.9054107143
 21
6.7176608306
  0
LINE
  5
26B
100
AcDbEntity
  8
ALL_ASSEMBLY_MEMBERS
100
AcDbLine
 62
7
  6
CONTINUOUS
 10
3.9112939543
 20
6.5378663253
 11
3.9112939543
 21
6.3125995132
  0
LINE
  5
26C
100
AcDbEntity
  8
ALL_ASSEMBLY_MEMBERS
100
AcDbLine
 62
7
  6
CONTINUOUS
 10
6.0246414247
 20
3.4252324144
 11
6.0451073895
 21
3.4252329141
  0
LINE
  5
26D
100
AcDbEntity
  8
ALL_ASSEMBLY_MEMBERS
100
AcDbLine
 62
7
  6
CONTINUOUS
 10
4.6674110495
 20
3.4252329193
 11
4.9924107143
 21
3.4252329193
  0
LINE
  5
26E
100
AcDbEntity
  8
ALL_ASSEMBLY_MEMBERS
100
AcDbLine
 62
7
  6
CONTINUOUS
 10
5.7424107143
 20
3.4252329193
 11
6.0674103791
 21
3.4252329193
  0
LWPOLYLINE
  5
26F
100
AcDbEntity
  8
ALL_ASSEMBLY_MEMBERS
100
AcDbPolyline
 62
7
  6
CONTINUOUS
 90
3
 70
0
 10
4.7605428745
 20
3.4252304621
 10
4.7455930962
 20
3.4252314339
 10
4.6897140279
 20
3.4252329236
  0
LWPOLYLINE
  5
270
100
AcDbEntity
  8
ALL_ASSEMBLY_MEMBERS
100
AcDbPolyline
 62
7
  6
CONTINUOUS
 90
3
 70
0
 10
5.9742785458
 20
3.4252353772
 10
5.989228318
 20
3.4252344053
 10
6.0246414247
 20
3.4252324144
  0
LINE
  5
271
100
AcDbEntity
  8
ALL_ASSEMBLY_MEMBERS
100
AcDbLine
 62
7
  6
CONTINUOUS
 10
4.7750959234
 20
3.422747064
 11
4.7736607143
 21
3.4252329193
  0
LINE
  5
272
100
AcDbEntity
  8
ALL_ASSEMBLY_MEMBERS
100
AcDbLine
 62
7
  6
CONTINUOUS
 10
7.2454107143
 20
6.4392029664
 11
7.2367563011
 21
6.4367329193
  0
LINE
  5
273
100
AcDbEntity
  8
ALL_ASSEMBLY_MEMBERS
100
AcDbLine
 62
7
  6
CONTINUOUS
 10
5.5549107143
 20
3.7499924457
 11
5.1799107143
 21
3.7499924457
  0
LINE
  5
274
100
AcDbEntity
  8
ALL_ASSEMBLY_MEMBERS
100
AcDbLine
 62
7
  6
CONTINUOUS
 10
5.5705357143
 20
3.7770557395
 11
5.1642857143
 21
3.7770557395
  0
LINE
  5
275
100
AcDbEntity
  8
ALL_ASSEMBLY_MEMBERS
100
AcDbLine
 62
7
  6
CONTINUOUS
 10
5.6017857143
 20
3.8311823273
 11
5.1330357143
 21
3.8311823273
  0
LINE
  5
276
100
AcDbEntity
  8
ALL_ASSEMBLY_MEMBERS
100
AcDbLine
 62
7
  6
CONTINUOUS
 10
5.0734061323
 20
3.9394355028
 11
5.0705357143
 21
3.9394355028
  0
LINE
  5
277
100
AcDbEntity
  8
ALL_ASSEMBLY_MEMBERS
100
AcDbLine
 62
7
  6
CONTINUOUS
 10
5.661415296
 20
3.9394355028
 11
5.6642857143
 21
3.9394355028
  0
LINE
  5
278
100
AcDbEntity
  8
ALL_ASSEMBLY_MEMBERS
100
AcDbLine
 62
7
  6
CONTINUOUS
 10
3.4828043621
 20
5.9538943078
 11
3.5115441204
 21
5.9128496793
  0
LINE
  5
279
100
AcDbEntity
  8
ALL_ASSEMBLY_MEMBERS
100
AcDbLine
 62
7
  6
CONTINUOUS
 10
4.8986607143
 20
3.4252329193
 11
4.9966125553
 21
3.2555753539
  0
LINE
  5
27A
100
AcDbEntity
  8
ALL_ASSEMBLY_MEMBERS
100
AcDbLine
 62
7
  6
CONTINUOUS
 10
4.9611607143
 20
3.4252329193
 11
4.994096363
 21
3.3681867024
  0
LINE
  5
27B
100
AcDbEntity
  8
ALL_ASSEMBLY_MEMBERS
100
AcDbLine
 62
7
  6
CONTINUOUS
 10
3.5239107143
 20
6.4672329193
 11
3.5284107143
 21
6.4564755599
  0
LINE
  5
27C
100
AcDbEntity
  8
ALL_FEATURES
100
AcDbLine
 62
7
  6
CONTINUOUS
 10
7.2197114915
 20
6.9430010894
 11
6.8294107143
 21
6.7176608306
  0
LINE
  5
27D
100
AcDbEntity
  8
ALL_ASSEMBLY_MEMBERS
100
AcDbLine
 62
7
  6
CONTINUOUS
 10
5.0174108819
 20
4.0314504116
 11
5.1799107143
 21
3.7499924457
  0
LWPOLYLINE
  5
27E
100
AcDbEntity
  8
ALL_ASSEMBLY_MEMBERS
100
AcDbPolyline
 62
7
  6
CONTINUOUS
 90
4
 70
0
 10
5.0285623674
 20
4.0121354636
 10
5.0387949141
 20
3.994411173
 10
5.0481085222
 20
3.9782805389
 10
5.0565031916
 20
3.9637435157
  0
LINE
  5
27F
100
AcDbEntity
  8
ALL_FEATURES
100
AcDbLine
 62
7
  6
CONTINUOUS
 10
7.2614895993
 20
6.7145367105
 11
7.0481557242
 21
6.5913683403
  0
LINE
  5
280
100
AcDbEntity
  8
ALL_FEATURES
100
AcDbLine
 62
7
  6
CONTINUOUS
 10
7.1042810406
 20
6.5801765994
 11
7.0859107143
 21
6.5695704866
  0
LINE
  5
281
100
AcDbEntity
  8
ALL_ASSEMBLY_MEMBERS
100
AcDbLine
 62
7
  6
CONTINUOUS
 10
3.3150170665
 20
6.8965715307
 11
3.2862773082
 21
6.9376161593
  0
LINE
  5
282
100
AcDbEntity
  8
ALL_ASSEMBLY_MEMBERS
100
AcDbLine
 62
7
  6
CONTINUOUS
 10
4.9999100334
 20
2.9295615801
 11
4.9999107143
 21
2.6027329193
  0
LINE
  5
283
100
AcDbEntity
  8
ALL_ASSEMBLY_MEMBERS
100
AcDbLine
 62
7
  6
CONTINUOUS
 10
6.8235274743
 20
6.3125995132
 11
6.8645721028
 21
6.3413392715
  0
LINE
  5
284
100
AcDbEntity
  8
ALL_FEATURES
100
AcDbLine
 62
7
  6
CONTINUOUS
 10
7.0859107143
 20
6.280895352
 11
6.8217081308
 21
6.1283579193
  0
LINE
  5
285
100
AcDbEntity
  8
ALL_FEATURES
100
AcDbLine
 62
7
  6
CONTINUOUS
 10
7.5859107143
 20
6.5695704866
 11
7.8501132978
 21
6.7221079193
  0
LINE
  5
286
100
AcDbEntity
  8
ALL_FEATURES
100
AcDbLine
 62
7
  6
CONTINUOUS
 10
7.0437032732
 20
6.2565282137
 11
7.0386317634
 21
6.2536000124
  0
LINE
  5
287
100
AcDbEntity
  8
ALL_FEATURES
100
AcDbLine
 62
7
  6
CONTINUOUS
 10
7.6281181554
 20
6.5939376248
 11
7.6331896652
 21
6.5968658261
  0
LINE
  5
288
100
AcDbEntity
  8
ALL_FEATURES
100
AcDbLine
 62
7
  6
CONTINUOUS
 10
6.9953112779
 20
6.2285882618
 11
6.9859839958
 21
6.2232026341
  0
LINE
  5
289
100
AcDbEntity
  8
ALL_FEATURES
100
AcDbLine
 62
7
  6
CONTINUOUS
 10
7.6765101507
 20
6.6218775767
 11
7.6858374328
 21
6.6272632044
  0
LWPOLYLINE
  5
28A
100
AcDbEntity
  8
ALL_FEATURES
100
AcDbPolyline
 62
7
  6
CONTINUOUS
 90
3
 70
0
 10
6.9305180307
 20
6.1911806385
 10
6.9177196493
 20
6.1837901953
 10
6.9043557878
 20
6.176073501
  0
LWPOLYLINE
  5
28B
100
AcDbEntity
  8
ALL_FEATURES
100
AcDbPolyline
 62
7
  6
CONTINUOUS
 90
3
 70
0
 10
6.8609821119
 20
6.151025453
 10
6.8454592186
 20
6.1420613361
 10
6.8294107143
 20
6.1328050079
  0
LINE
  5
28C
100
AcDbEntity
  8
ALL_FEATURES
100
AcDbLine
 62
7
  6
CONTINUOUS
 10
6.9544196086
 20
6.2049789267
 11
6.9427521579
 21
6.1982410918
  0
LINE
  5
28D
100
AcDbEntity
  8
ALL_FEATURES
100
AcDbLine
 62
7
  6
CONTINUOUS
 10
6.8904350692
 20
6.1680396289
 11
6.8609821119
 21
6.151025453
  0
LWPOLYLINE
  5
28E
100
AcDbEntity
  8
ALL_FEATURES
100
AcDbPolyline
 62
7
  6
CONTINUOUS
 90
3
 70
0
 10
7.7413033979
 20
6.6592852
 10
7.7541017793
 20
6.6666756432
 10
7.7674656408
 20
6.6743923375
  0
LINE
  5
28F
100
AcDbEntity
  8
ALL_FEATURES
100
AcDbLine
 62
7
  6
CONTINUOUS
 10
7.0121676995
 20
6.2383198025
 11
7.0040386806
 21
6.23362521
  0
LWPOLYLINE
  5
290
100
AcDbEntity
  8
ALL_FEATURES
100
AcDbPolyline
 62
7
  6
CONTINUOUS
 90
3
 70
0
 10
7.8108393167
 20
6.6994403855
 10
7.82636221
 20
6.7084045024
 10
7.8424107143
 20
6.7176608306
  0
LINE
  5
291
100
AcDbEntity
  8
ALL_FEATURES
100
AcDbLine
 62
7
  6
CONTINUOUS
 10
7.71740182
 20
6.6454869118
 11
7.7290692707
 21
6.6522247467
  0
LINE
  5
292
100
AcDbEntity
  8
ALL_FEATURES
100
AcDbLine
 62
7
  6
CONTINUOUS
 10
7.7813863593
 20
6.6824262096
 11
7.8108393167
 21
6.6994403855
  0
LINE
  5
293
100
AcDbEntity
  8
ALL_FEATURES
100
AcDbLine
 62
7
  6
CONTINUOUS
 10
7.6596537291
 20
6.612146036
 11
7.667782748
 21
6.6168406285
  0
LINE
  5
294
100
AcDbEntity
  8
ALL_ASSEMBLY_MEMBERS
100
AcDbLine
 62
7
  6
CONTINUOUS
 10
3.448153355
 20
6.4522329193
 11
3.4439107143
 21
6.4564755599
  0
LINE
  5
295
100
AcDbEntity
  8
ALL_ASSEMBLY_MEMBERS
100
AcDbLine
 62
7
  6
CONTINUOUS
 10
5.7424107143
 20
3.4252329193
 11
5.5549107143
 21
3.7499924457
  0
LINE
  5
296
100
AcDbEntity
  8
ALL_ASSEMBLY_MEMBERS
100
AcDbLine
 62
7
  6
CONTINUOUS
 10
5.7736607143
 20
3.4252329193
 11
5.5705357143
 21
3.7770557395
  0
LINE
  5
297
100
AcDbEntity
  8
ALL_ASSEMBLY_MEMBERS
100
AcDbLine
 62
7
  6
CONTINUOUS
 10
5.8361607143
 20
3.4252329193
 11
5.6017857143
 21
3.8311823273
  0
LINE
  5
298
100
AcDbEntity
  8
ALL_ASSEMBLY_MEMBERS
100
AcDbLine
 62
7
  6
CONTINUOUS
 10
5.6657209233
 20
3.9369496478
 11
5.6642857143
 21
3.9394355028
  0
LINE
  5
299
100
AcDbEntity
  8
ALL_ASSEMBLY_MEMBERS
100
AcDbLine
 62
7
  6
CONTINUOUS
 10
5.9597255052
 20
3.4277187745
 11
5.9611607143
 21
3.4252329193
  0
LINE
  5
29A
100
AcDbEntity
  8
ALL_ASSEMBLY_MEMBERS
100
AcDbLine
 62
7
  6
CONTINUOUS
 10
5.1836607143
 20
2.9252329193
 11
5.1836607143
 21
2.6027329193
  0
LINE
  5
29B
100
AcDbEntity
  8
ALL_FEATURES
100
AcDbLine
 62
7
  6
CONTINUOUS
 10
7.5675570972
 20
6.2702988862
 11
7.5859107143
 21
6.280895352
  0
LINE
  5
29C
100
AcDbEntity
  8
ALL_FEATURES
100
AcDbLine
 62
7
  6
CONTINUOUS
 10
7.4103318293
 20
6.135929128
 11
7.6236657044
 21
6.2590974983
  0
LINE
  5
29D
100
AcDbEntity
  8
ALL_FEATURES
100
AcDbLine
 62
7
  6
CONTINUOUS
 10
2.8924107143
 20
6.1328050079
 11
3.2827114915
 21
5.9074647491
  0
LINE
  5
29E
100
AcDbEntity
  8
ALL_ASSEMBLY_MEMBERS
100
AcDbLine
 62
7
  6
CONTINUOUS
 10
2.8865274743
 20
6.5378663253
 11
2.9275721028
 21
6.5091265671
  0
LINE
  5
29F
100
AcDbEntity
  8
ALL_ASSEMBLY_MEMBERS
100
AcDbLine
 62
7
  6
CONTINUOUS
 10
5.5511607143
 20
2.9252329193
 11
5.5511607143
 21
2.6027329193
  0
LINE
  5
2A0
100
AcDbEntity
  8
ALL_ASSEMBLY_MEMBERS
100
AcDbLine
 62
7
  6
CONTINUOUS
 10
4.7750959233
 20
3.4277187742
 11
4.7736607143
 21
3.4252329193
  0
LINE
  5
2A1
100
AcDbEntity
  8
ALL_ASSEMBLY_MEMBERS
100
AcDbLine
 62
7
  6
CONTINUOUS
 10
5.0691005051
 20
3.9369496476
 11
5.0705357143
 21
3.9394355028
  0
LINE
  5
2A2
100
AcDbEntity
  8
ALL_ASSEMBLY_MEMBERS
100
AcDbLine
 62
7
  6
CONTINUOUS
 10
7.8482939543
 20
6.5378663253
 11
7.8072493258
 21
6.5091265671
  0
LINE
  5
2A3
100
AcDbEntity
  8
ALL_FEATURES
100
AcDbLine
 62
7
  6
CONTINUOUS
 10
7.4521099371
 20
5.9074647491
 11
7.8424107143
 21
6.1328050079
  0
LINE
  5
2A4
100
AcDbEntity
  8
ALL_FEATURES
100
AcDbLine
 62
7
  6
CONTINUOUS
 10
3.1111557242
 20
6.2590974983
 11
3.3244895993
 21
6.135929128
  0
LINE
  5
2A5
100
AcDbEntity
  8
ALL_FEATURES
100
AcDbLine
 62
7
  6
CONTINUOUS
 10
3.1489107143
 20
6.280895352
 11
3.1672643308
 21
6.2702988865
  0
LINE
  5
2A6
100
AcDbEntity
  8
ALL_ASSEMBLY_MEMBERS
100
AcDbLine
 62
7
  6
CONTINUOUS
 10
5.734911317
 20
2.9293050658
 11
5.7349107143
 21
2.6027329193
  0
LINE
  5
2A7
100
AcDbEntity
  8
ALL_ASSEMBLY_MEMBERS
100
AcDbLine
 62
7
  6
CONTINUOUS
 10
5.1330357143
 20
3.8311823273
 11
4.8986607143
 21
3.4252329193
  0
LINE
  5
2A8
100
AcDbEntity
  8
ALL_ASSEMBLY_MEMBERS
100
AcDbLine
 62
7
  6
CONTINUOUS
 10
5.1642857143
 20
3.7770557395
 11
4.9611607143
 21
3.4252329193
  0
LINE
  5
2A9
100
AcDbEntity
  8
ALL_ASSEMBLY_MEMBERS
100
AcDbLine
 62
7
  6
CONTINUOUS
 10
5.1799107143
 20
3.7499924457
 11
4.9924107143
 21
3.4252329193
  0
LINE
  5
2AA
100
AcDbEntity
  8
ALL_FEATURES
100
AcDbLine
 62
7
  6
CONTINUOUS
 10
3.6489107143
 20
6.280895352
 11
3.9131132978
 21
6.1283579193
  0
LINE
  5
2AB
100
AcDbEntity
  8
ALL_FEATURES
100
AcDbLine
 62
7
  6
CONTINUOUS
 10
3.1489107143
 20
6.5695704866
 11
2.8847081308
 21
6.7221079193
  0
LINE
  5
2AC
100
AcDbEntity
  8
ALL_FEATURES
100
AcDbLine
 62
7
  6
CONTINUOUS
 10
3.6911169956
 20
6.2565262049
 11
3.6961886472
 21
6.2535982492
  0
LINE
  5
2AD
100
AcDbEntity
  8
ALL_FEATURES
100
AcDbLine
 62
7
  6
CONTINUOUS
 10
3.106704433
 20
6.5939396336
 11
3.1016327814
 21
6.5968675893
  0
LINE
  5
2AE
100
AcDbEntity
  8
ALL_FEATURES
100
AcDbLine
 62
7
  6
CONTINUOUS
 10
3.7395097014
 20
6.2285874835
 11
3.7488374328
 21
6.2232026341
  0
LINE
  5
2AF
100
AcDbEntity
  8
ALL_FEATURES
100
AcDbLine
 62
7
  6
CONTINUOUS
 10
3.0583117272
 20
6.621878355
 11
3.0489839958
 21
6.6272632044
  0
LWPOLYLINE
  5
2B0
100
AcDbEntity
  8
ALL_FEATURES
100
AcDbPolyline
 62
7
  6
CONTINUOUS
 90
3
 70
0
 10
3.804302277
 20
6.1911786971
 10
3.8171017793
 20
6.1837901953
 10
3.8304665633
 20
6.1760750989
  0
LWPOLYLINE
  5
2B1
100
AcDbEntity
  8
ALL_FEATURES
100
AcDbPolyline
 62
7
  6
CONTINUOUS
 90
3
 70
0
 10
3.8738456472
 20
6.1510364177
 10
3.8893702468
 20
6.1420752562
 10
3.9054107143
 20
6.1328050079
  0
LINE
  5
2B2
100
AcDbEntity
  8
ALL_FEATURES
100
AcDbLine
 62
7
  6
CONTINUOUS
 10
3.78040182
 20
6.2049789267
 11
3.7920706815
 21
6.1982435355
  0
LINE
  5
2B3
100
AcDbEntity
  8
ALL_FEATURES
100
AcDbLine
 62
7
  6
CONTINUOUS
 10
3.84438446
 20
6.1680363391
 11
3.8738456472
 21
6.1510364177
  0
LWPOLYLINE
  5
2B4
100
AcDbEntity
  8
ALL_FEATURES
100
AcDbPolyline
 62
7
  6
CONTINUOUS
 90
3
 70
0
 10
2.9935191515
 20
6.6592871414
 10
2.9807196493
 20
6.6666756432
 10
2.9673548652
 20
6.6743907396
  0
LINE
  5
2B5
100
AcDbEntity
  8
ALL_FEATURES
100
AcDbLine
 62
7
  6
CONTINUOUS
 10
3.7226537291
 20
6.2383198025
 11
3.7307838749
 21
6.2336271619
  0
LWPOLYLINE
  5
2B6
100
AcDbEntity
  8
ALL_FEATURES
100
AcDbPolyline
 62
7
  6
CONTINUOUS
 90
3
 70
0
 10
2.9239757814
 20
6.6994294208
 10
2.9084511818
 20
6.7083905823
 10
2.8924107143
 20
6.7176608306
  0
LINE
  5
2B7
100
AcDbEntity
  8
ALL_FEATURES
100
AcDbLine
 62
7
  6
CONTINUOUS
 10
3.0174196086
 20
6.6454869118
 11
3.005750747
 21
6.652222303
  0
LINE
  5
2B8
100
AcDbEntity
  8
ALL_FEATURES
100
AcDbLine
 62
7
  6
CONTINUOUS
 10
2.9534369686
 20
6.6824294994
 11
2.9239757814
 21
6.6994294208
  0
LINE
  5
2B9
100
AcDbEntity
  8
ALL_FEATURES
100
AcDbLine
 62
7
  6
CONTINUOUS
 10
3.0751676995
 20
6.612146036
 11
3.0670375537
 21
6.6168386766
  0
LINE
  5
2BA
100
AcDbEntity
  8
ALL_ASSEMBLY_MEMBERS
100
AcDbLine
 62
7
  6
CONTINUOUS
 10
3.9112939543
 20
6.3125995132
 11
3.8702493258
 21
6.3413392715
  0
LINE
  5
2BB
100
AcDbEntity
  8
ALL_ASSEMBLY_MEMBERS
100
AcDbLine
 62
7
  6
CONTINUOUS
 10
5.6960264934
 20
3.9944111329
 11
5.7062590481
 21
4.0121354363
  0
LINE
  5
2BC
100
AcDbEntity
  8
ALL_ASSEMBLY_MEMBERS
100
AcDbLine
 62
7
  6
CONTINUOUS
 10
5.5549107143
 20
3.7499924457
 11
5.7174105467
 21
4.0314504116
  0
LWPOLYLINE
  5
2BD
100
AcDbEntity
  8
ALL_ASSEMBLY_MEMBERS
100
AcDbPolyline
 62
7
  6
CONTINUOUS
 90
3
 70
0
 10
5.6708424931
 20
3.9507970956
 10
5.6783182159
 20
3.9637434829
 10
5.6960264934
 20
3.9944111329
  0
LINE
  5
2BE
100
AcDbEntity
  8
ALL_ASSEMBLY_MEMBERS
100
AcDbLine
 62
7
  6
CONTINUOUS
 10
7.4198043621
 20
6.8965715307
 11
7.4485441204
 21
6.9376161593
  0
LINE
  5
2BF
100
AcDbEntity
  8
ALL_FEATURES
100
AcDbLine
 62
7
  6
CONTINUOUS
 10
3.6489107143
 20
6.5695704866
 11
3.6305403822
 21
6.5801766027
  0
LINE
  5
2C0
100
AcDbEntity
  8
ALL_FEATURES
100
AcDbLine
 62
7
  6
CONTINUOUS
 10
3.6866657044
 20
6.5913683403
 11
3.4733318293
 21
6.7145367105
  0
LINE
  5
2C1
100
AcDbEntity
  8
ALL_ASSEMBLY_MEMBERS
100
AcDbLine
 62
7
  6
CONTINUOUS
 10
7.4094933093
 20
6.4013513564
 11
7.4161331826
 21
6.412321881
  0
LINE
  5
2C2
100
AcDbEntity
  8
ALL_ASSEMBLY_MEMBERS
100
AcDbLine
 62
7
  6
CONTINUOUS
 10
7.2520170665
 20
5.9538943078
 11
7.2232773082
 21
5.9128496793
  0
LINE
  5
2C3
100
AcDbEntity
  8
ALL_FEATURES
100
AcDbLine
 62
7
  6
CONTINUOUS
 10
3.9054107143
 20
6.7176608306
 11
3.5151099371
 21
6.9430010894
  0
LINE
  5
2C4
100
AcDbEntity
  8
ALL_ASSEMBLY_MEMBERS
100
AcDbLine
 62
7
  6
CONTINUOUS
 10
5.7407250656
 20
3.3681867024
 11
5.7736607143
 21
3.4252329193
  0
LINE
  5
2C5
100
AcDbEntity
  8
ALL_ASSEMBLY_MEMBERS
100
AcDbLine
 62
7
  6
CONTINUOUS
 10
5.7382088732
 20
3.2555753539
 11
5.8361607143
 21
3.4252329193
  0
LINE
  5
2C6
100
AcDbEntity
  8
ALL_ASSEMBLY_MEMBERS
100
AcDbLine
 62
7
  6
CONTINUOUS
 10
3.2862773082
 20
5.9128496793
 11
3.5115441204
 21
5.9128496793
  0
LINE
  5
2C7
100
AcDbEntity
  8
ALL_ASSEMBLY_MEMBERS
100
AcDbLine
 62
7
  6
CONTINUOUS
 10
7.2232773082
 20
5.9128496793
 11
7.4485441204
 21
5.9128496793
  0
LINE
  5
2C8
100
AcDbEntity
  8
ALL_ASSEMBLY_MEMBERS
100
AcDbLine
 62
7
  6
CONTINUOUS
 10
3.3150170665
 20
5.9538943078
 11
3.4828043621
 21
5.9538943078
  0
LINE
  5
2C9
100
AcDbEntity
  8
ALL_ASSEMBLY_MEMBERS
100
AcDbLine
 62
7
  6
CONTINUOUS
 10
7.2520170665
 20
5.9538943078
 11
7.4198043621
 21
5.9538943078
  0
LINE
  5
2CA
100
AcDbEntity
  8
ALL_ASSEMBLY_MEMBERS
100
AcDbLine
 62
7
  6
CONTINUOUS
 10
3.3043652694
 20
5.9664829193
 11
3.4934561591
 21
5.9664829193
  0
LINE
  5
2CB
100
AcDbEntity
  8
ALL_ASSEMBLY_MEMBERS
100
AcDbLine
 62
7
  6
CONTINUOUS
 10
7.2413652694
 20
5.9664829193
 11
7.4304561591
 21
5.9664829193
  0
LINE
  5
2CC
100
AcDbEntity
  8
ALL_ASSEMBLY_MEMBERS
100
AcDbLine
 62
7
  6
CONTINUOUS
 10
3.3034520677
 20
5.9789144985
 11
3.4943693609
 21
5.9789144985
  0
LINE
  5
2CD
100
AcDbEntity
  8
ALL_ASSEMBLY_MEMBERS
100
AcDbLine
 62
7
  6
CONTINUOUS
 10
7.2404520677
 20
5.9789144985
 11
7.4313693609
 21
5.9789144985
  0
LINE
  5
2CE
100
AcDbEntity
  8
ALL_ASSEMBLY_MEMBERS
100
AcDbLine
 62
7
  6
CONTINUOUS
 10
5.9597255053
 20
3.4227470643
 11
5.9611607143
 21
3.4252329193
  0
LINE
  5
2CF
100
AcDbEntity
  8
ALL_ASSEMBLY_MEMBERS
100
AcDbLine
 62
7
  6
CONTINUOUS
 10
3.3055717469
 20
6.1596499138
 11
3.3145101931
 21
6.1596499102
  0
LINE
  5
2D0
100
AcDbEntity
  8
ALL_ASSEMBLY_MEMBERS
100
AcDbLine
 62
7
  6
CONTINUOUS
 10
7.420514869
 20
6.1596499137
 11
7.4292496817
 21
6.1596499138
  0
LINE
  5
2D1
100
AcDbEntity
  8
ALL_ASSEMBLY_MEMBERS
100
AcDbLine
 62
7
  6
CONTINUOUS
 10
3.483514869
 20
6.1596499137
 11
3.4922496817
 21
6.1596499138
  0
LINE
  5
2D2
100
AcDbEntity
  8
ALL_ASSEMBLY_MEMBERS
100
AcDbLine
 62
7
  6
CONTINUOUS
 10
7.2425717469
 20
6.1596499138
 11
7.2515101931
 21
6.1596499102
  0
LINE
  5
2D3
100
AcDbEntity
  8
ALL_ASSEMBLY_MEMBERS
100
AcDbLine
 62
7
  6
CONTINUOUS
 10
6.8235274743
 20
6.3125995132
 11
6.8235274743
 21
6.5378663253
  0
LINE
  5
2D4
100
AcDbEntity
  8
ALL_FEATURES
100
AcDbLine
 62
7
  6
CONTINUOUS
 10
6.8294107143
 20
6.7176608306
 11
6.8294107143
 21
6.5337468363
  0
LINE
  5
2D5
100
AcDbEntity
  8
ALL_FEATURES
100
AcDbLine
 62
7
  6
CONTINUOUS
 10
6.8294107143
 20
6.3167190022
 11
6.8294107143
 21
6.1328050079
  0
LINE
  5
2D6
100
AcDbEntity
  8
ALL_ASSEMBLY_MEMBERS
100
AcDbLine
 62
7
  6
CONTINUOUS
 10
6.8645721028
 20
6.3413392715
 11
6.8645721028
 21
6.5091265671
  0
LINE
  5
2D7
100
AcDbEntity
  8
ALL_ASSEMBLY_MEMBERS
100
AcDbLine
 62
7
  6
CONTINUOUS
 10
6.8771607143
 20
6.3306874744
 11
6.8771607143
 21
6.5197783641
  0
LINE
  5
2D8
100
AcDbEntity
  8
ALL_ASSEMBLY_MEMBERS
100
AcDbLine
 62
7
  6
CONTINUOUS
 10
6.8895922936
 20
6.3297742726
 11
6.8895922936
 21
6.5206915659
  0
LINE
  5
2D9
100
AcDbEntity
  8
ALL_ASSEMBLY_MEMBERS
100
AcDbLine
 62
7
  6
CONTINUOUS
 10
7.4731607143
 20
6.3827329193
 11
7.4309107143
 21
6.3827329193
  0
LINE
  5
2DA
100
AcDbEntity
  8
ALL_ASSEMBLY_MEMBERS
100
AcDbLine
 62
7
  6
CONTINUOUS
 10
7.4156498858
 20
6.3827329193
 11
7.3409107143
 21
6.3827329193
  0
LINE
  5
2DB
100
AcDbEntity
  8
ALL_ASSEMBLY_MEMBERS
100
AcDbLine
 62
7
  6
CONTINUOUS
 10
3.5044107143
 20
6.3827329193
 11
3.4679107143
 21
6.3827329193
  0
LINE
  5
2DC
100
AcDbEntity
  8
ALL_ASSEMBLY_MEMBERS
100
AcDbLine
 62
7
  6
CONTINUOUS
 10
3.3479107143
 20
6.3827329193
 11
3.3114107143
 21
6.3827329193
  0
LINE
  5
2DD
100
AcDbEntity
  8
ALL_ASSEMBLY_MEMBERS
100
AcDbLine
 62
7
  6
CONTINUOUS
 10
3.3029107143
 20
6.3827329193
 11
3.2664107143
 21
6.3827329193
  0
LINE
  5
2DE
100
AcDbEntity
  8
ALL_ASSEMBLY_MEMBERS
100
AcDbLine
 62
7
  6
CONTINUOUS
 10
7.3846607143
 20
6.3941182416
 11
7.3966607143
 21
6.3941182416
  0
LINE
  5
2DF
100
AcDbEntity
  8
ALL_ASSEMBLY_MEMBERS
100
AcDbLine
 62
7
  6
CONTINUOUS
 10
7.4570516544
 20
6.3947329193
 11
7.4709831084
 21
6.3947329193
  0
LINE
  5
2E0
100
AcDbEntity
  8
ALL_ASSEMBLY_MEMBERS
100
AcDbLine
 62
7
  6
CONTINUOUS
 10
3.3166607143
 20
6.4232329193
 11
3.2976607143
 21
6.4232329193
  0
LINE
  5
2E1
100
AcDbEntity
  8
ALL_ASSEMBLY_MEMBERS
100
AcDbLine
 62
7
  6
CONTINUOUS
 10
3.2981607143
 20
6.4320107314
 11
3.3161607143
 21
6.4320107314
  0
LINE
  5
2E2
100
AcDbEntity
  8
ALL_ASSEMBLY_MEMBERS
100
AcDbLine
 62
7
  6
CONTINUOUS
 10
7.4709831084
 20
6.4582329193
 11
7.4570516544
 21
6.4582329193
  0
LINE
  5
2E3
100
AcDbEntity
  8
ALL_ASSEMBLY_MEMBERS
100
AcDbLine
 62
7
  6
CONTINUOUS
 10
3.5095620815
 20
6.4582829193
 11
3.4966607143
 21
6.4582829193
  0
LINE
  5
2E4
100
AcDbEntity
  8
ALL_ASSEMBLY_MEMBERS
100
AcDbLine
 62
7
  6
CONTINUOUS
 10
3.4756607143
 20
6.4582829193
 11
3.462759347
 21
6.4582829193
  0
LINE
  5
2E5
100
AcDbEntity
  8
ALL_ASSEMBLY_MEMBERS
100
AcDbLine
 62
7
  6
CONTINUOUS
 10
3.2664107143
 20
6.4672329193
 11
3.3029107143
 21
6.4672329193
  0
LINE
  5
2E6
100
AcDbEntity
  8
ALL_ASSEMBLY_MEMBERS
100
AcDbLine
 62
7
  6
CONTINUOUS
 10
3.3114107143
 20
6.4672329193
 11
3.3479107143
 21
6.4672329193
  0
LINE
  5
2E7
100
AcDbEntity
  8
ALL_ASSEMBLY_MEMBERS
100
AcDbLine
 62
7
  6
CONTINUOUS
 10
3.4484107143
 20
6.4672329193
 11
3.5239107143
 21
6.4672329193
  0
LINE
  5
2E8
100
AcDbEntity
  8
ALL_ASSEMBLY_MEMBERS
100
AcDbLine
 62
7
  6
CONTINUOUS
 10
7.2284107143
 20
6.4672329193
 11
7.2374107143
 21
6.4672329193
  0
LINE
  5
2E9
100
AcDbEntity
  8
ALL_ASSEMBLY_MEMBERS
100
AcDbLine
 62
7
  6
CONTINUOUS
 10
7.3409107143
 20
6.4672329193
 11
7.3804107143
 21
6.4672329193
  0
LINE
  5
2EA
100
AcDbEntity
  8
ALL_ASSEMBLY_MEMBERS
100
AcDbLine
 62
7
  6
CONTINUOUS
 10
7.4309107143
 20
6.4672329193
 11
7.4731607143
 21
6.4672329193
  0
LINE
  5
2EB
100
AcDbEntity
  8
ALL_FEATURES
100
AcDbLine
 62
7
  6
CONTINUOUS
 10
7.0481557242
 20
6.5913683403
 11
7.0481557242
 21
6.5006120678
  0
LINE
  5
2EC
100
AcDbEntity
  8
ALL_FEATURES
100
AcDbLine
 62
7
  6
CONTINUOUS
 10
7.0481557242
 20
6.3498537707
 11
7.0481557242
 21
6.2590974983
  0
LINE
  5
2ED
100
AcDbEntity
  8
ALL_ASSEMBLY_MEMBERS
100
AcDbLine
 62
7
  6
CONTINUOUS
 10
7.0703277094
 20
6.5185718872
 11
7.0703277058
 21
6.5096334408
  0
LINE
  5
2EE
100
AcDbEntity
  8
ALL_ASSEMBLY_MEMBERS
100
AcDbLine
 62
7
  6
CONTINUOUS
 10
7.0703277055
 20
6.3408324012
 11
7.0703277094
 21
6.3318939513
  0
LINE
  5
2EF
100
AcDbEntity
  8
ALL_FEATURES
100
AcDbLine
 62
7
  6
CONTINUOUS
 10
7.0859107143
 20
6.5695704866
 11
7.0859107143
 21
6.5483582551
  0
LINE
  5
2F0
100
AcDbEntity
  8
ALL_FEATURES
100
AcDbLine
 62
7
  6
CONTINUOUS
 10
7.0859107143
 20
6.3020882841
 11
7.0859107143
 21
6.280895352
  0
LINE
  5
2F1
100
AcDbEntity
  8
ALL_ASSEMBLY_MEMBERS
100
AcDbLine
 62
7
  6
CONTINUOUS
 10
7.4204107143
 20
6.4097329193
 11
7.4156498858
 21
6.3827329193
  0
LINE
  5
2F2
100
AcDbEntity
  8
ALL_ASSEMBLY_MEMBERS
100
AcDbLine
 62
7
  6
CONTINUOUS
 10
3.4922496817
 20
6.6908159247
 11
3.4833112356
 21
6.6908159283
  0
LINE
  5
2F3
100
AcDbEntity
  8
ALL_ASSEMBLY_MEMBERS
100
AcDbLine
 62
7
  6
CONTINUOUS
 10
7.2515101861
 20
6.6908159248
 11
7.2425717469
 21
6.6908159247
  0
LINE
  5
2F4
100
AcDbEntity
  8
ALL_ASSEMBLY_MEMBERS
100
AcDbLine
 62
7
  6
CONTINUOUS
 10
3.3145101861
 20
6.6908159248
 11
3.3055717469
 21
6.6908159247
  0
LINE
  5
2F5
100
AcDbEntity
  8
ALL_ASSEMBLY_MEMBERS
100
AcDbLine
 62
7
  6
CONTINUOUS
 10
7.4292496817
 20
6.6908159247
 11
7.4203112356
 21
6.6908159283
  0
LINE
  5
2F6
100
AcDbEntity
  8
ALL_FEATURES
100
AcDbLine
 62
7
  6
CONTINUOUS
 10
6.8294107143
 20
6.1328050079
 11
7.2197114915
 21
5.9074647491
  0
LINE
  5
2F7
100
AcDbEntity
  8
ALL_ASSEMBLY_MEMBERS
100
AcDbLine
 62
7
  6
CONTINUOUS
 10
7.3409107143
 20
6.3827329193
 11
7.3409107143
 21
6.3947329193
  0
LINE
  5
2F8
100
AcDbEntity
  8
ALL_ASSEMBLY_MEMBERS
100
AcDbLine
 62
7
  6
CONTINUOUS
 10
7.3409107143
 20
6.4582329193
 11
7.3409107143
 21
6.4672329193
  0
LINE
  5
2F9
100
AcDbEntity
  8
ALL_ASSEMBLY_MEMBERS
100
AcDbLine
 62
7
  6
CONTINUOUS
 10
7.3516607143
 20
6.4091182416
 11
7.3516607143
 21
6.4438475969
  0
LINE
  5
2FA
100
AcDbEntity
  8
ALL_ASSEMBLY_MEMBERS
100
AcDbLine
 62
7
  6
CONTINUOUS
 10
7.3696607143
 20
6.4438475969
 11
7.3696607143
 21
6.4091182416
  0
LINE
  5
2FB
100
AcDbEntity
  8
ALL_ASSEMBLY_MEMBERS
100
AcDbLine
 62
7
  6
CONTINUOUS
 10
7.3804107143
 20
6.4672329193
 11
7.3804107143
 21
6.4582329193
  0
LINE
  5
2FC
100
AcDbEntity
  8
ALL_ASSEMBLY_MEMBERS
100
AcDbLine
 62
7
  6
CONTINUOUS
 10
7.4309107143
 20
6.3827329193
 11
7.4309107143
 21
6.3947329193
  0
LINE
  5
2FD
100
AcDbEntity
  8
ALL_ASSEMBLY_MEMBERS
100
AcDbLine
 62
7
  6
CONTINUOUS
 10
7.4309107143
 20
6.4582329193
 11
7.4309107143
 21
6.4672329193
  0
LINE
  5
2FE
100
AcDbEntity
  8
ALL_ASSEMBLY_MEMBERS
100
AcDbLine
 62
7
  6
CONTINUOUS
 10
7.4359107143
 20
6.402795177
 11
7.4359107143
 21
6.4501706615
  0
LINE
  5
2FF
100
AcDbEntity
  8
ALL_ASSEMBLY_MEMBERS
100
AcDbLine
 62
7
  6
CONTINUOUS
 10
7.4540516544
 20
6.3977329193
 11
7.4540516544
 21
6.4552329193
  0
LINE
  5
300
100
AcDbEntity
  8
ALL_ASSEMBLY_MEMBERS
100
AcDbLine
 62
7
  6
CONTINUOUS
 10
3.3034520677
 20
6.87155134
 11
3.4943693609
 21
6.87155134
  0
LINE
  5
301
100
AcDbEntity
  8
ALL_ASSEMBLY_MEMBERS
100
AcDbLine
 62
7
  6
CONTINUOUS
 10
7.2404520677
 20
6.87155134
 11
7.4313693609
 21
6.87155134
  0
LINE
  5
302
100
AcDbEntity
  8
ALL_ASSEMBLY_MEMBERS
100
AcDbLine
 62
7
  6
CONTINUOUS
 10
3.3043652694
 20
6.8839829193
 11
3.4934561591
 21
6.8839829193
  0
LINE
  5
303
100
AcDbEntity
  8
ALL_ASSEMBLY_MEMBERS
100
AcDbLine
 62
7
  6
CONTINUOUS
 10
7.2413652694
 20
6.8839829193
 11
7.4304561591
 21
6.8839829193
  0
LINE
  5
304
100
AcDbEntity
  8
ALL_ASSEMBLY_MEMBERS
100
AcDbLine
 62
7
  6
CONTINUOUS
 10
3.3150170665
 20
6.8965715307
 11
3.4828043621
 21
6.8965715307
  0
LINE
  5
305
100
AcDbEntity
  8
ALL_ASSEMBLY_MEMBERS
100
AcDbLine
 62
7
  6
CONTINUOUS
 10
7.2520170665
 20
6.8965715307
 11
7.4198043621
 21
6.8965715307
  0
LINE
  5
306
100
AcDbEntity
  8
ALL_ASSEMBLY_MEMBERS
100
AcDbLine
 62
7
  6
CONTINUOUS
 10
3.2862773082
 20
6.9376161593
 11
3.5115441204
 21
6.9376161593
  0
LINE
  5
307
100
AcDbEntity
  8
ALL_ASSEMBLY_MEMBERS
100
AcDbLine
 62
7
  6
CONTINUOUS
 10
7.2232773082
 20
6.9376161593
 11
7.4485441204
 21
6.9376161593
  0
LINE
  5
308
100
AcDbEntity
  8
ALL_ASSEMBLY_MEMBERS
100
AcDbLine
 62
7
  6
CONTINUOUS
 10
7.2371356585
 20
6.4132329193
 11
7.2454107143
 21
6.4096940703
  0
LINE
  5
309
100
AcDbEntity
  8
ALL_FEATURES
100
AcDbLine
 62
7
  6
CONTINUOUS
 10
7.0481557242
 20
6.2590974983
 11
7.2614895993
 21
6.135929128
  0
LINE
  5
30A
100
AcDbEntity
  8
ALL_FEATURES
100
AcDbLine
 62
7
  6
CONTINUOUS
 10
7.0859107143
 20
6.280895352
 11
7.1042643308
 21
6.2702988865
  0
LINE
  5
30B
100
AcDbEntity
  8
0
100
AcDbLine
 62
7
  6
CONTINUOUS
 10
7.5859107143
 20
6.5695704866
 11
7.5859107143
 21
6.5483582618
  0
LINE
  5
30C
100
AcDbEntity
  8
0
100
AcDbLine
 62
7
  6
CONTINUOUS
 10
7.5859107143
 20
6.3020882834
 11
7.5859107143
 21
6.280895352
  0
LINE
  5
30D
100
AcDbEntity
  8
ALL_ASSEMBLY_MEMBERS
100
AcDbLine
 62
7
  6
CONTINUOUS
 10
7.6014937192
 20
6.3318939513
 11
7.6014937228
 21
6.3406287546
  0
LINE
  5
30E
100
AcDbEntity
  8
ALL_ASSEMBLY_MEMBERS
100
AcDbLine
 62
7
  6
CONTINUOUS
 10
7.6014937231
 20
6.5096334372
 11
7.6014937192
 21
6.5185718872
  0
LINE
  5
30F
100
AcDbEntity
  8
ALL_FEATURES
100
AcDbLine
 62
7
  6
CONTINUOUS
 10
7.6236657044
 20
6.2590974983
 11
7.6236657044
 21
6.3498537707
  0
LINE
  5
310
100
AcDbEntity
  8
ALL_FEATURES
100
AcDbLine
 62
7
  6
CONTINUOUS
 10
7.6236657044
 20
6.5006120678
 11
7.6236657044
 21
6.5913683403
  0
LINE
  5
311
100
AcDbEntity
  8
ALL_FEATURES
100
AcDbLine
 62
7
  6
CONTINUOUS
 10
7.78138446
 20
6.1680363391
 11
7.8108456472
 21
6.1510364177
  0
LWPOLYLINE
  5
312
100
AcDbEntity
  8
ALL_FEATURES
100
AcDbPolyline
 62
7
  6
CONTINUOUS
 90
3
 70
0
 10
7.8108456472
 20
6.1510364177
 10
7.8263702468
 20
6.1420752562
 10
7.8424107143
 20
6.1328050079
  0
LINE
  5
313
100
AcDbEntity
  8
ALL_FEATURES
100
AcDbLine
 62
7
  6
CONTINUOUS
 10
6.8904369686
 20
6.6824294994
 11
6.8609757814
 21
6.6994294208
  0
LWPOLYLINE
  5
314
100
AcDbEntity
  8
ALL_FEATURES
100
AcDbPolyline
 62
7
  6
CONTINUOUS
 90
3
 70
0
 10
6.8609757814
 20
6.6994294208
 10
6.8454511818
 20
6.7083905823
 10
6.8294107143
 20
6.7176608306
  0
LINE
  5
315
100
AcDbEntity
  8
ALL_FEATURES
100
AcDbLine
 62
7
  6
CONTINUOUS
 10
7.0859107143
 20
6.5695704866
 11
6.8217081308
 21
6.7221079193
  0
LINE
  5
316
100
AcDbEntity
  8
ALL_FEATURES
100
AcDbLine
 62
7
  6
CONTINUOUS
 10
7.5859107143
 20
6.280895352
 11
7.8501132978
 21
6.1283579193
  0
LINE
  5
317
100
AcDbEntity
  8
ALL_ASSEMBLY_MEMBERS
100
AcDbLine
 62
7
  6
CONTINUOUS
 10
7.4161331826
 20
6.412321881
 11
7.4204107143
 21
6.4097329193
  0
LINE
  5
318
100
AcDbEntity
  8
ALL_ASSEMBLY_MEMBERS
100
AcDbLine
 62
7
  6
CONTINUOUS
 10
6.8235274743
 20
6.5378663253
 11
6.8645721028
 21
6.5091265671
  0
LINE
  5
319
100
AcDbEntity
  8
ALL_ASSEMBLY_MEMBERS
100
AcDbLine
 62
7
  6
CONTINUOUS
 10
7.4198043621
 20
5.9538943078
 11
7.4485441204
 21
5.9128496793
  0
LINE
  5
31A
100
AcDbEntity
  8
ALL_ASSEMBLY_MEMBERS
100
AcDbLine
 62
7
  6
CONTINUOUS
 10
7.2374107143
 20
6.4672329193
 11
7.2454107143
 21
6.4392029664
  0
LINE
  5
31B
100
AcDbEntity
  8
ALL_ASSEMBLY_MEMBERS
100
AcDbLine
 62
7
  6
CONTINUOUS
 10
7.782229135
 20
6.5206915659
 11
7.782229135
 21
6.3297742726
  0
LINE
  5
31C
100
AcDbEntity
  8
ALL_ASSEMBLY_MEMBERS
100
AcDbLine
 62
7
  6
CONTINUOUS
 10
7.7946607143
 20
6.5197783641
 11
7.7946607143
 21
6.3306874744
  0
LINE
  5
31D
100
AcDbEntity
  8
ALL_ASSEMBLY_MEMBERS
100
AcDbLine
 62
7
  6
CONTINUOUS
 10
7.8072493258
 20
6.5091265671
 11
7.8072493258
 21
6.3413392715
  0
LINE
  5
31E
100
AcDbEntity
  8
ALL_FEATURES
100
AcDbLine
 62
7
  6
CONTINUOUS
 10
7.8424107143
 20
6.1328050079
 11
7.8424107143
 21
6.3167190022
  0
LINE
  5
31F
100
AcDbEntity
  8
ALL_FEATURES
100
AcDbLine
 62
7
  6
CONTINUOUS
 10
7.8424107143
 20
6.5337468363
 11
7.8424107143
 21
6.7176608306
  0
LINE
  5
320
100
AcDbEntity
  8
ALL_ASSEMBLY_MEMBERS
100
AcDbLine
 62
7
  6
CONTINUOUS
 10
7.8482939543
 20
6.5378663253
 11
7.8482939543
 21
6.3125995132
  0
LINE
  5
321
100
AcDbEntity
  8
ALL_FEATURES
100
AcDbLine
 62
7
  6
CONTINUOUS
 10
7.5859107143
 20
6.5695704866
 11
7.5675403822
 21
6.5801766027
  0
LINE
  5
322
100
AcDbEntity
  8
ALL_FEATURES
100
AcDbLine
 62
7
  6
CONTINUOUS
 10
7.6236657044
 20
6.5913683403
 11
7.4103318293
 21
6.7145367105
  0
LINE
  5
323
100
AcDbEntity
  8
ALL_ASSEMBLY_MEMBERS
100
AcDbLine
 62
7
  6
CONTINUOUS
 10
7.8482939543
 20
6.3125995132
 11
7.8072493258
 21
6.3413392715
  0
LINE
  5
324
100
AcDbEntity
  8
ALL_FEATURES
100
AcDbLine
 62
7
  6
CONTINUOUS
 10
7.8424107143
 20
6.7176608306
 11
7.4521099371
 21
6.9430010894
  0
LINE
  5
325
100
AcDbEntity
  8
ALL_ASSEMBLY_MEMBERS
100
AcDbLine
 62
7
  6
CONTINUOUS
 10
7.2520170665
 20
6.8965715307
 11
7.2232773082
 21
6.9376161593
  0
ARC
  5
326
100
AcDbEntity
  8
ALL_ASSEMBLY_MEMBERS
100
AcDbCircle
 62
7
  6
CONTINUOUS
 10
-79.090666001
 20
2.9201233093
 40
84.2743268702
100
AcDbArc
 50
0.0034738822
 51
0.1206690895
  0
ARC
  5
327
100
AcDbEntity
  8
ALL_ASSEMBLY_MEMBERS
100
AcDbCircle
 62
7
  6
CONTINUOUS
 10
3.0439727348
 20
6.2444829193
 40
0.125
100
AcDbArc
 50
44.3699285546
 51
136.9739483152
  0
ARC
  5
328
100
AcDbEntity
  8
ALL_ASSEMBLY_MEMBERS
100
AcDbCircle
 62
7
  6
CONTINUOUS
 10
3.2181607143
 20
6.0702949398
 40
0.125
100
AcDbArc
 50
313.0260516848
 51
45.6300714454
  0
ARC
  5
329
100
AcDbEntity
  8
ALL_ASSEMBLY_MEMBERS
100
AcDbCircle
 62
7
  6
CONTINUOUS
 10
3.1444077262
 20
6.3427329193
 40
0.0155
100
AcDbArc
 50
224.3699285546
 51
243.1436647045
  0
ARC
  5
32A
100
AcDbEntity
  8
ALL_ASSEMBLY_MEMBERS
100
AcDbCircle
 62
7
  6
CONTINUOUS
 10
3.3164107143
 20
6.1707299312
 40
0.0155
100
AcDbArc
 50
206.8563505138
 51
225.6300714454
  0
ARC
  5
32B
100
AcDbEntity
  8
ALL_ASSEMBLY_MEMBERS
100
AcDbCircle
 62
7
  6
CONTINUOUS
 10
3.3516607143
 20
6.4061319324
 40
0.012
100
AcDbArc
 50
180.0
 51
251.7900431357
  0
ARC
  5
32C
100
AcDbEntity
  8
ALL_ASSEMBLY_MEMBERS
100
AcDbCircle
 62
7
  6
CONTINUOUS
 10
3.3076607143
 20
6.4061319324
 40
0.012
100
AcDbArc
 50
288.2099568643
 51
360.0
  0
ARC
  5
32D
100
AcDbEntity
  8
ALL_ASSEMBLY_MEMBERS
100
AcDbCircle
 62
7
  6
CONTINUOUS
 10
3.3066607143
 20
6.4061319324
 40
0.012
100
AcDbArc
 50
180.0
 51
251.7900431357
  0
ARC
  5
32E
100
AcDbEntity
  8
ALL_ASSEMBLY_MEMBERS
100
AcDbCircle
 62
7
  6
CONTINUOUS
 10
3.2626607143
 20
6.4061319324
 40
0.012
100
AcDbArc
 50
288.2099568643
 51
360.0
  0
ARC
  5
32F
100
AcDbEntity
  8
ALL_ASSEMBLY_MEMBERS
100
AcDbCircle
 62
7
  6
CONTINUOUS
 10
2.9467439453
 20
6.3352329193
 40
0.008
100
AcDbArc
 50
214.6234510997
 51
316.9739483152
  0
ARC
  5
330
100
AcDbEntity
  8
ALL_ASSEMBLY_MEMBERS
100
AcDbCircle
 62
7
  6
CONTINUOUS
 10
2.9321607143
 20
6.3347860551
 40
0.008
100
AcDbArc
 50
0.0
 51
125.0
  0
ARC
  5
331
100
AcDbEntity
  8
ALL_ASSEMBLY_MEMBERS
100
AcDbCircle
 62
7
  6
CONTINUOUS
 10
3.3089107143
 20
5.9730661503
 40
0.008
100
AcDbArc
 50
133.0260516848
 51
235.3765489003
  0
ARC
  5
332
100
AcDbEntity
  8
ALL_ASSEMBLY_MEMBERS
100
AcDbCircle
 62
7
  6
CONTINUOUS
 10
3.3084638501
 20
5.9584829193
 40
0.008
100
AcDbArc
 50
325.0
 51
90.0
  0
ARC
  5
333
100
AcDbEntity
  8
ALL_ASSEMBLY_MEMBERS
100
AcDbCircle
 62
7
  6
CONTINUOUS
 10
3.3166607143
 20
6.4202329193
 40
0.003
100
AcDbArc
 50
0.0
 51
90.0
  0
ARC
  5
334
100
AcDbEntity
  8
ALL_ASSEMBLY_MEMBERS
100
AcDbCircle
 62
7
  6
CONTINUOUS
 10
3.2976607143
 20
6.4202329193
 40
0.003
100
AcDbArc
 50
90.0
 51
180.0
  0
ARC
  5
335
100
AcDbEntity
  8
ALL_ASSEMBLY_MEMBERS
100
AcDbCircle
 62
7
  6
CONTINUOUS
 10
2.8076607143
 20
6.4252329193
 40
0.1375
100
AcDbArc
 50
55.0
 51
305.0
  0
ARC
  5
336
100
AcDbEntity
  8
ALL_ASSEMBLY_MEMBERS
100
AcDbCircle
 62
7
  6
CONTINUOUS
 10
3.0439727348
 20
6.6059829193
 40
0.125
100
AcDbArc
 50
223.0260516848
 51
315.6300714454
  0
ARC
  5
337
100
AcDbEntity
  8
ALL_ASSEMBLY_MEMBERS
100
AcDbCircle
 62
7
  6
CONTINUOUS
 10
3.2181607143
 20
6.7801708987
 40
0.125
100
AcDbArc
 50
314.3699285546
 51
46.9739483152
  0
ARC
  5
338
100
AcDbEntity
  8
ALL_ASSEMBLY_MEMBERS
100
AcDbCircle
 62
7
  6
CONTINUOUS
 10
3.1444077262
 20
6.5077329193
 40
0.0155
100
AcDbArc
 50
116.8563471109
 51
135.6300714454
  0
ARC
  5
339
100
AcDbEntity
  8
ALL_ASSEMBLY_MEMBERS
100
AcDbCircle
 62
7
  6
CONTINUOUS
 10
3.3164107143
 20
6.6797359073
 40
0.0155
100
AcDbArc
 50
134.3699285546
 51
153.1436644189
  0
ARC
  5
33A
100
AcDbEntity
  8
ALL_ASSEMBLY_MEMBERS
100
AcDbCircle
 62
7
  6
CONTINUOUS
 10
3.2626607143
 20
6.4468339061
 40
0.012
100
AcDbArc
 50
0.0
 51
71.7900431357
  0
ARC
  5
33B
100
AcDbEntity
  8
ALL_ASSEMBLY_MEMBERS
100
AcDbCircle
 62
7
  6
CONTINUOUS
 10
3.3071607143
 20
6.4470107314
 40
0.012
100
AcDbArc
 50
110.7423799545
 51
180.0
  0
ARC
  5
33C
100
AcDbEntity
  8
ALL_ASSEMBLY_MEMBERS
100
AcDbCircle
 62
7
  6
CONTINUOUS
 10
3.3071607143
 20
6.4470107314
 40
0.012
100
AcDbArc
 50
0.0
 51
69.2576200455
  0
ARC
  5
33D
100
AcDbEntity
  8
ALL_ASSEMBLY_MEMBERS
100
AcDbCircle
 62
7
  6
CONTINUOUS
 10
3.3516607143
 20
6.4468339061
 40
0.012
100
AcDbArc
 50
108.2099568643
 51
180.0
  0
ARC
  5
33E
100
AcDbEntity
  8
ALL_ASSEMBLY_MEMBERS
100
AcDbCircle
 62
7
  6
CONTINUOUS
 10
2.9467439453
 20
6.5152329193
 40
0.008
100
AcDbArc
 50
43.0260516848
 51
145.3765489003
  0
ARC
  5
33F
100
AcDbEntity
  8
ALL_ASSEMBLY_MEMBERS
100
AcDbCircle
 62
7
  6
CONTINUOUS
 10
2.9321607143
 20
6.5156797834
 40
0.008
100
AcDbArc
 50
235.0
 51
360.0
  0
ARC
  5
340
100
AcDbEntity
  8
ALL_ASSEMBLY_MEMBERS
100
AcDbCircle
 62
7
  6
CONTINUOUS
 10
3.3089107143
 20
6.8773996882
 40
0.008
100
AcDbArc
 50
124.6234510997
 51
226.9739483152
  0
ARC
  5
341
100
AcDbEntity
  8
ALL_ASSEMBLY_MEMBERS
100
AcDbCircle
 62
7
  6
CONTINUOUS
 10
3.3084638501
 20
6.8919829193
 40
0.008
100
AcDbArc
 50
270.0
 51
35.0
  0
ARC
  5
342
100
AcDbEntity
  8
ALL_ASSEMBLY_MEMBERS
100
AcDbCircle
 62
7
  6
CONTINUOUS
 10
3.2981607143
 20
6.4350107314
 40
0.003
100
AcDbArc
 50
180.0
 51
270.0
  0
ARC
  5
343
100
AcDbEntity
  8
ALL_ASSEMBLY_MEMBERS
100
AcDbCircle
 62
7
  6
CONTINUOUS
 10
3.3161607143
 20
6.4350107314
 40
0.003
100
AcDbArc
 50
270.0
 51
360.0
  0
ARC
  5
344
100
AcDbEntity
  8
ALL_ASSEMBLY_MEMBERS
100
AcDbCircle
 62
7
  6
CONTINUOUS
 10
3.3989107143
 20
5.8339829193
 40
0.1375
100
AcDbArc
 50
145.0
 51
35.0
  0
ARC
  5
345
100
AcDbEntity
  8
ALL_ASSEMBLY_MEMBERS
100
AcDbCircle
 62
7
  6
CONTINUOUS
 10
3.7538486938
 20
6.2444829193
 40
0.125
100
AcDbArc
 50
43.0260516848
 51
135.6300714454
  0
ARC
  5
346
100
AcDbEntity
  8
ALL_ASSEMBLY_MEMBERS
100
AcDbCircle
 62
7
  6
CONTINUOUS
 10
3.5796607143
 20
6.0702949398
 40
0.125
100
AcDbArc
 50
134.3699285546
 51
226.9739483152
  0
ARC
  5
347
100
AcDbEntity
  8
ALL_ASSEMBLY_MEMBERS
100
AcDbCircle
 62
7
  6
CONTINUOUS
 10
3.5131607143
 20
6.4104630655
 40
0.018
100
AcDbArc
 50
180.0
 51
240.9147049393
  0
ARC
  5
348
100
AcDbEntity
  8
ALL_ASSEMBLY_MEMBERS
100
AcDbCircle
 62
7
  6
CONTINUOUS
 10
3.4591607143
 20
6.4104630655
 40
0.018
100
AcDbArc
 50
299.0852950607
 51
360.0
  0
ARC
  5
349
100
AcDbEntity
  8
ALL_ASSEMBLY_MEMBERS
100
AcDbCircle
 62
7
  6
CONTINUOUS
 10
3.6534137024
 20
6.3427329193
 40
0.0155
100
AcDbArc
 50
297.1688835585
 51
315.6300714454
  0
ARC
  5
34A
100
AcDbEntity
  8
ALL_ASSEMBLY_MEMBERS
100
AcDbCircle
 62
7
  6
CONTINUOUS
 10
3.4814107143
 20
6.1707299312
 40
0.0155
100
AcDbArc
 50
314.3699285546
 51
332.8311494163
  0
ARC
  5
34B
100
AcDbEntity
  8
ALL_ASSEMBLY_MEMBERS
100
AcDbCircle
 62
7
  6
CONTINUOUS
 10
3.8510774832
 20
6.3352329193
 40
0.008
100
AcDbArc
 50
223.0260516848
 51
325.3765489003
  0
ARC
  5
34C
100
AcDbEntity
  8
ALL_ASSEMBLY_MEMBERS
100
AcDbCircle
 62
7
  6
CONTINUOUS
 10
3.8656607143
 20
6.3347860551
 40
0.008
100
AcDbArc
 50
55.0
 51
180.0
  0
ARC
  5
34D
100
AcDbEntity
  8
ALL_ASSEMBLY_MEMBERS
100
AcDbCircle
 62
7
  6
CONTINUOUS
 10
3.4889107143
 20
5.9730661503
 40
0.008
100
AcDbArc
 50
304.6234510997
 51
46.9739483152
  0
ARC
  5
34E
100
AcDbEntity
  8
ALL_ASSEMBLY_MEMBERS
100
AcDbCircle
 62
7
  6
CONTINUOUS
 10
3.4893575784
 20
5.9584829193
 40
0.008
100
AcDbArc
 50
90.0
 51
215.0
  0
ARC
  5
34F
100
AcDbEntity
  8
ALL_FEATURES
100
AcDbCircle
 62
7
  6
CONTINUOUS
 10
3.3989107143
 20
6.4252329193
 40
0.59375
100
AcDbArc
 50
193.3205379776
 51
256.6743405685
  0
ARC
  5
350
100
AcDbEntity
  8
ALL_FEATURES
100
AcDbCircle
 62
7
  6
CONTINUOUS
 10
3.3989107143
 20
6.4252329193
 40
0.59375
100
AcDbArc
 50
103.3256547763
 51
166.6794623302
  0
ARC
  5
351
100
AcDbEntity
  8
ALL_FEATURES
100
AcDbCircle
 62
7
  6
CONTINUOUS
 10
3.3989107143
 20
6.4252329193
 40
0.59375
100
AcDbArc
 50
283.3256547763
 51
346.6794623302
  0
ARC
  5
352
100
AcDbEntity
  8
ALL_FEATURES
100
AcDbCircle
 62
7
  6
CONTINUOUS
 10
3.3989107143
 20
6.4252329193
 40
0.59375
100
AcDbArc
 50
13.3205379776
 51
76.6743405685
  0
CIRCLE
  5
353
100
AcDbEntity
  8
ALL_ASSEMBLY_MEMBERS
100
AcDbCircle
 62
7
  6
CONTINUOUS
 10
3.3989107143
 20
6.4252329193
 40
0.27875
  0
CIRCLE
  5
354
100
AcDbEntity
  8
ALL_ASSEMBLY_MEMBERS
100
AcDbCircle
 62
7
  6
CONTINUOUS
 10
3.3989107143
 20
6.4252329193
 40
0.26375
  0
CIRCLE
  5
355
100
AcDbEntity
  8
ALL_ASSEMBLY_MEMBERS
100
AcDbCircle
 62
7
  6
CONTINUOUS
 10
3.3989107143
 20
6.4252329193
 40
0.2566170761
  0
CIRCLE
  5
356
100
AcDbEntity
  8
ALL_ASSEMBLY_MEMBERS
100
AcDbCircle
 62
7
  6
CONTINUOUS
 10
3.3989107143
 20
6.4252329193
 40
0.2272549781
  0
CIRCLE
  5
357
100
AcDbEntity
  8
ALL_ASSEMBLY_MEMBERS
100
AcDbCircle
 62
7
  6
CONTINUOUS
 10
3.3989107143
 20
6.4252329193
 40
0.21375
  0
CIRCLE
  5
358
100
AcDbEntity
  8
ALL_ASSEMBLY_MEMBERS
100
AcDbCircle
 62
7
  6
CONTINUOUS
 10
3.3989107143
 20
6.4252329193
 40
0.20875
  0
CIRCLE
  5
359
100
AcDbEntity
  8
ALL_ASSEMBLY_MEMBERS
100
AcDbCircle
 62
7
  6
CONTINUOUS
 10
3.3989107143
 20
6.4252329193
 40
0.1975723198
  0
ARC
  5
35A
100
AcDbEntity
  8
ALL_ASSEMBLY_MEMBERS
100
AcDbCircle
 62
7
  6
CONTINUOUS
 10
3.462759347
 20
6.4376269272
 40
0.0206559921
100
AcDbArc
 50
90.0
 51
135.0
  0
ARC
  5
35B
100
AcDbEntity
  8
ALL_ASSEMBLY_MEMBERS
100
AcDbCircle
 62
7
  6
CONTINUOUS
 10
3.5095620815
 20
6.4376269272
 40
0.0206559921
100
AcDbArc
 50
45.0
 51
90.0
  0
ARC
  5
35C
100
AcDbEntity
  8
ALL_ASSEMBLY_MEMBERS
100
AcDbCircle
 62
7
  6
CONTINUOUS
 10
3.6534137024
 20
6.5077329193
 40
0.0155
100
AcDbArc
 50
44.3699285546
 51
63.1436650029
  0
ARC
  5
35D
100
AcDbEntity
  8
ALL_ASSEMBLY_MEMBERS
100
AcDbCircle
 62
7
  6
CONTINUOUS
 10
3.4814107143
 20
6.6797359073
 40
0.0155
100
AcDbArc
 50
26.8563510653
 51
45.6300714454
  0
ARC
  5
35E
100
AcDbEntity
  8
ALL_ASSEMBLY_MEMBERS
100
AcDbCircle
 62
7
  6
CONTINUOUS
 10
3.4756607143
 20
6.4567829193
 40
0.0015
100
AcDbArc
 50
0.0
 51
90.0
  0
ARC
  5
35F
100
AcDbEntity
  8
ALL_ASSEMBLY_MEMBERS
100
AcDbCircle
 62
7
  6
CONTINUOUS
 10
3.4966607143
 20
6.4567829193
 40
0.0015
100
AcDbArc
 50
90.0
 51
180.0
  0
ARC
  5
360
100
AcDbEntity
  8
ALL_ASSEMBLY_MEMBERS
100
AcDbCircle
 62
7
  6
CONTINUOUS
 10
3.3989107143
 20
7.0164829193
 40
0.1375
100
AcDbArc
 50
325.0
 51
215.0
  0
ARC
  5
361
100
AcDbEntity
  8
ALL_ASSEMBLY_MEMBERS
100
AcDbCircle
 62
7
  6
CONTINUOUS
 10
3.5796607143
 20
6.7801708987
 40
0.125
100
AcDbArc
 50
133.0260516848
 51
225.6300714454
  0
ARC
  5
362
100
AcDbEntity
  8
ALL_ASSEMBLY_MEMBERS
100
AcDbCircle
 62
7
  6
CONTINUOUS
 10
3.4889107143
 20
6.8773996882
 40
0.008
100
AcDbArc
 50
313.0260516848
 51
55.3765489003
  0
ARC
  5
363
100
AcDbEntity
  8
ALL_ASSEMBLY_MEMBERS
100
AcDbCircle
 62
7
  6
CONTINUOUS
 10
3.4893575784
 20
6.8919829193
 40
0.008
100
AcDbArc
 50
145.0
 51
270.0
  0
ARC
  5
364
100
AcDbEntity
  8
ALL_ASSEMBLY_MEMBERS
100
AcDbCircle
 62
7
  6
CONTINUOUS
 10
3.9901607143
 20
6.4252329193
 40
0.1375
100
AcDbArc
 50
235.0
 51
125.0
  0
ARC
  5
365
100
AcDbEntity
  8
ALL_ASSEMBLY_MEMBERS
100
AcDbCircle
 62
7
  6
CONTINUOUS
 10
3.7538486938
 20
6.6059829193
 40
0.125
100
AcDbArc
 50
224.3699285546
 51
316.9739483152
  0
ARC
  5
366
100
AcDbEntity
  8
ALL_ASSEMBLY_MEMBERS
100
AcDbCircle
 62
7
  6
CONTINUOUS
 10
3.8510774832
 20
6.5152329193
 40
0.008
100
AcDbArc
 50
34.6234510997
 51
136.9739483152
  0
ARC
  5
367
100
AcDbEntity
  8
ALL_ASSEMBLY_MEMBERS
100
AcDbCircle
 62
7
  6
CONTINUOUS
 10
3.8656607143
 20
6.5156797834
 40
0.008
100
AcDbArc
 50
180.0
 51
305.0
  0
ARC
  5
368
100
AcDbEntity
  8
ALL_ASSEMBLY_MEMBERS
100
AcDbCircle
 62
7
  6
CONTINUOUS
 10
89.8254874312
 20
2.9201233093
 40
84.2743268718
100
AcDbArc
 50
179.8793309105
 51
179.9965261178
  0
ARC
  5
369
100
AcDbEntity
  8
ALL_ASSEMBLY_MEMBERS
100
AcDbCircle
 62
7
  6
CONTINUOUS
 10
5.3674107143
 20
3.4252329193
 40
0.6999996648
100
AcDbArc
 50
301.668195884
 51
238.3317540389
  0
ARC
  5
36A
100
AcDbEntity
  8
ALL_ASSEMBLY_MEMBERS
100
AcDbCircle
 62
7
  6
CONTINUOUS
 10
6.9809727348
 20
6.2444829193
 40
0.125
100
AcDbArc
 50
44.3699285546
 51
136.9739483152
  0
ARC
  5
36B
100
AcDbEntity
  8
ALL_ASSEMBLY_MEMBERS
100
AcDbCircle
 62
7
  6
CONTINUOUS
 10
7.1551607143
 20
6.0702949398
 40
0.125
100
AcDbArc
 50
313.0260516848
 51
45.6300714454
  0
ARC
  5
36C
100
AcDbEntity
  8
ALL_ASSEMBLY_MEMBERS
100
AcDbCircle
 62
7
  6
CONTINUOUS
 10
7.2061234128
 20
6.4067329193
 40
0.0605
100
AcDbArc
 50
72.3178031512
 51
100.863388708
  0
ARC
  5
36D
100
AcDbEntity
  8
ALL_ASSEMBLY_MEMBERS
100
AcDbCircle
 62
7
  6
CONTINUOUS
 10
7.3128842486
 20
6.425184753
 40
0.0569735547
100
AcDbArc
 50
179.9515613656
 51
187.0787597455
  0
ARC
  5
36E
100
AcDbEntity
  8
ALL_ASSEMBLY_MEMBERS
100
AcDbCircle
 62
7
  6
CONTINUOUS
 10
7.2072098534
 20
6.4187329193
 40
0.024
100
AcDbArc
 50
201.6000344342
 51
256.3709027892
  0
ARC
  5
36F
100
AcDbEntity
  8
ALL_ASSEMBLY_MEMBERS
100
AcDbCircle
 62
7
  6
CONTINUOUS
 10
7.0814077262
 20
6.3427329193
 40
0.0155
100
AcDbArc
 50
224.3699285546
 51
243.1436647045
  0
ARC
  5
370
100
AcDbEntity
  8
ALL_ASSEMBLY_MEMBERS
100
AcDbCircle
 62
7
  6
CONTINUOUS
 10
7.2534107143
 20
6.1707299312
 40
0.0155
100
AcDbArc
 50
206.8563505138
 51
225.6300714454
  0
ARC
  5
371
100
AcDbEntity
  8
ALL_ASSEMBLY_MEMBERS
100
AcDbCircle
 62
7
  6
CONTINUOUS
 10
6.8837439453
 20
6.3352329193
 40
0.008
100
AcDbArc
 50
214.6234510997
 51
316.9739483152
  0
ARC
  5
372
100
AcDbEntity
  8
ALL_ASSEMBLY_MEMBERS
100
AcDbCircle
 62
7
  6
CONTINUOUS
 10
6.8691607143
 20
6.3347860551
 40
0.008
100
AcDbArc
 50
0.0
 51
125.0
  0
ARC
  5
373
100
AcDbEntity
  8
ALL_ASSEMBLY_MEMBERS
100
AcDbCircle
 62
7
  6
CONTINUOUS
 10
7.2459107143
 20
5.9730661503
 40
0.008
100
AcDbArc
 50
133.0260516848
 51
235.3765489003
  0
ARC
  5
374
100
AcDbEntity
  8
ALL_ASSEMBLY_MEMBERS
100
AcDbCircle
 62
7
  6
CONTINUOUS
 10
7.2454638501
 20
5.9584829193
 40
0.008
100
AcDbArc
 50
325.0
 51
90.0
  0
ARC
  5
375
100
AcDbEntity
  8
ALL_ASSEMBLY_MEMBERS
100
AcDbCircle
 62
7
  6
CONTINUOUS
 10
6.7446607143
 20
6.4252329193
 40
0.1375
100
AcDbArc
 50
55.0
 51
305.0
  0
ARC
  5
376
100
AcDbEntity
  8
ALL_ASSEMBLY_MEMBERS
100
AcDbCircle
 62
7
  6
CONTINUOUS
 10
6.9809727348
 20
6.6059829193
 40
0.125
100
AcDbArc
 50
223.0260516848
 51
315.6300714454
  0
ARC
  5
377
100
AcDbEntity
  8
ALL_ASSEMBLY_MEMBERS
100
AcDbCircle
 62
7
  6
CONTINUOUS
 10
7.1551607143
 20
6.7801708987
 40
0.125
100
AcDbArc
 50
314.3699285546
 51
46.9739483152
  0
ARC
  5
378
100
AcDbEntity
  8
ALL_ASSEMBLY_MEMBERS
100
AcDbCircle
 62
7
  6
CONTINUOUS
 10
7.2778981826
 20
6.4252349481
 40
0.0565125317
100
AcDbArc
 50
359.9979430712
 51
2.4505484091
  0
ARC
  5
379
100
AcDbEntity
  8
ALL_ASSEMBLY_MEMBERS
100
AcDbCircle
 62
7
  6
CONTINUOUS
 10
7.2045576
 20
6.4271650099
 40
0.0444320906
100
AcDbArc
 50
224.2338173193
 51
336.8459014309
  0
ARC
  5
37A
100
AcDbEntity
  8
ALL_ASSEMBLY_MEMBERS
100
AcDbCircle
 62
7
  6
CONTINUOUS
 10
7.2244107143
 20
6.4255432338
 40
0.0425
100
AcDbArc
 50
158.3999655658
 51
201.6000344342
  0
ARC
  5
37B
100
AcDbEntity
  8
ALL_ASSEMBLY_MEMBERS
100
AcDbCircle
 62
7
  6
CONTINUOUS
 10
7.2025731324
 20
6.4252329193
 40
0.0416624181
100
AcDbArc
 50
100.863388708
 51
224.2338173193
  0
ARC
  5
37C
100
AcDbEntity
  8
ALL_ASSEMBLY_MEMBERS
100
AcDbCircle
 62
7
  6
CONTINUOUS
 10
7.203232795
 20
6.4271650099
 40
0.0348621622
100
AcDbArc
 50
15.9292215989
 51
31.2636680057
  0
ARC
  5
37D
100
AcDbEntity
  8
ALL_ASSEMBLY_MEMBERS
100
AcDbCircle
 62
7
  6
CONTINUOUS
 10
7.2088130742
 20
6.4253451454
 40
0.0308038115
100
AcDbArc
 50
256.3709027892
 51
336.8459014309
  0
ARC
  5
37E
100
AcDbEntity
  8
ALL_ASSEMBLY_MEMBERS
100
AcDbCircle
 62
7
  6
CONTINUOUS
 10
7.2099752654
 20
6.4312586424
 40
0.0269742769
100
AcDbArc
 50
31.2636680057
 51
158.3999655658
  0
ARC
  5
37F
100
AcDbEntity
  8
ALL_ASSEMBLY_MEMBERS
100
AcDbCircle
 62
7
  6
CONTINUOUS
 10
7.0814077262
 20
6.5077329193
 40
0.0155
100
AcDbArc
 50
116.8563471109
 51
135.6300714454
  0
ARC
  5
380
100
AcDbEntity
  8
ALL_ASSEMBLY_MEMBERS
100
AcDbCircle
 62
7
  6
CONTINUOUS
 10
7.2534107143
 20
6.6797359073
 40
0.0155
100
AcDbArc
 50
134.3699285546
 51
153.1436644189
  0
ARC
  5
381
100
AcDbEntity
  8
ALL_ASSEMBLY_MEMBERS
100
AcDbCircle
 62
7
  6
CONTINUOUS
 10
6.8837439453
 20
6.5152329193
 40
0.008
100
AcDbArc
 50
43.0260516848
 51
145.3765489003
  0
ARC
  5
382
100
AcDbEntity
  8
ALL_ASSEMBLY_MEMBERS
100
AcDbCircle
 62
7
  6
CONTINUOUS
 10
6.8691607143
 20
6.5156797834
 40
0.008
100
AcDbArc
 50
235.0
 51
360.0
  0
ARC
  5
383
100
AcDbEntity
  8
ALL_ASSEMBLY_MEMBERS
100
AcDbCircle
 62
7
  6
CONTINUOUS
 10
7.2459107143
 20
6.8773996882
 40
0.008
100
AcDbArc
 50
124.6234510997
 51
226.9739483152
  0
ARC
  5
384
100
AcDbEntity
  8
ALL_ASSEMBLY_MEMBERS
100
AcDbCircle
 62
7
  6
CONTINUOUS
 10
7.2454638501
 20
6.8919829193
 40
0.008
100
AcDbArc
 50
270.0
 51
35.0
  0
ARC
  5
385
100
AcDbEntity
  8
ALL_ASSEMBLY_MEMBERS
100
AcDbCircle
 62
7
  6
CONTINUOUS
 10
7.2254107143
 20
6.4672329193
 40
0.003
100
AcDbArc
 50
252.3178031513
 51
360.0
  0
ARC
  5
386
100
AcDbEntity
  8
ALL_ASSEMBLY_MEMBERS
100
AcDbCircle
 62
7
  6
CONTINUOUS
 10
7.3359107143
 20
5.8339829193
 40
0.1375
100
AcDbArc
 50
145.0
 51
35.0
  0
ARC
  5
387
100
AcDbEntity
  8
ALL_ASSEMBLY_MEMBERS
100
AcDbCircle
 62
7
  6
CONTINUOUS
 10
7.6908486938
 20
6.2444829193
 40
0.125
100
AcDbArc
 50
43.0260516848
 51
135.6300714454
  0
ARC
  5
388
100
AcDbEntity
  8
ALL_ASSEMBLY_MEMBERS
100
AcDbCircle
 62
7
  6
CONTINUOUS
 10
7.5166607143
 20
6.0702949398
 40
0.125
100
AcDbArc
 50
134.3699285546
 51
226.9739483152
  0
ARC
  5
389
100
AcDbEntity
  8
ALL_ASSEMBLY_MEMBERS
100
AcDbCircle
 62
7
  6
CONTINUOUS
 10
7.4731607143
 20
6.4249829193
 40
0.04225
100
AcDbArc
 50
270.0
 51
90.0
  0
ARC
  5
38A
100
AcDbEntity
  8
ALL_ASSEMBLY_MEMBERS
100
AcDbCircle
 62
7
  6
CONTINUOUS
 10
7.4709831084
 20
6.4187329193
 40
0.024
100
AcDbArc
 50
270.0
 51
341.5590861804
  0
ARC
  5
38B
100
AcDbEntity
  8
ALL_ASSEMBLY_MEMBERS
100
AcDbCircle
 62
7
  6
CONTINUOUS
 10
7.5904137024
 20
6.3427329193
 40
0.0155
100
AcDbArc
 50
297.1688835585
 51
315.6300714454
  0
ARC
  5
38C
100
AcDbEntity
  8
ALL_ASSEMBLY_MEMBERS
100
AcDbCircle
 62
7
  6
CONTINUOUS
 10
7.4184107143
 20
6.1707299312
 40
0.0155
100
AcDbArc
 50
314.3699285546
 51
332.8311494163
  0
ARC
  5
38D
100
AcDbEntity
  8
ALL_ASSEMBLY_MEMBERS
100
AcDbCircle
 62
7
  6
CONTINUOUS
 10
7.3366607143
 20
6.4091182416
 40
0.015
100
AcDbArc
 50
286.4592496283
 51
360.0
  0
ARC
  5
38E
100
AcDbEntity
  8
ALL_ASSEMBLY_MEMBERS
100
AcDbCircle
 62
7
  6
CONTINUOUS
 10
7.3966607143
 20
6.4091182416
 40
0.015
100
AcDbArc
 50
270.0
 51
328.815717175
  0
ARC
  5
38F
100
AcDbEntity
  8
ALL_ASSEMBLY_MEMBERS
100
AcDbCircle
 62
7
  6
CONTINUOUS
 10
7.3846607143
 20
6.4091182416
 40
0.015
100
AcDbArc
 50
180.0
 51
270.0
  0
ARC
  5
390
100
AcDbEntity
  8
ALL_ASSEMBLY_MEMBERS
100
AcDbCircle
 62
7
  6
CONTINUOUS
 10
7.4269107143
 20
6.402795177
 40
0.009
100
AcDbArc
 50
296.3877999613
 51
360.0
  0
ARC
  5
391
100
AcDbEntity
  8
ALL_ASSEMBLY_MEMBERS
100
AcDbCircle
 62
7
  6
CONTINUOUS
 10
7.7880774832
 20
6.3352329193
 40
0.008
100
AcDbArc
 50
223.0260516848
 51
325.3765489003
  0
ARC
  5
392
100
AcDbEntity
  8
ALL_ASSEMBLY_MEMBERS
100
AcDbCircle
 62
7
  6
CONTINUOUS
 10
7.8026607143
 20
6.3347860551
 40
0.008
100
AcDbArc
 50
55.0
 51
180.0
  0
ARC
  5
393
100
AcDbEntity
  8
ALL_ASSEMBLY_MEMBERS
100
AcDbCircle
 62
7
  6
CONTINUOUS
 10
7.4259107143
 20
5.9730661503
 40
0.008
100
AcDbArc
 50
304.6234510997
 51
46.9739483152
  0
ARC
  5
394
100
AcDbEntity
  8
ALL_ASSEMBLY_MEMBERS
100
AcDbCircle
 62
7
  6
CONTINUOUS
 10
7.4263575784
 20
5.9584829193
 40
0.008
100
AcDbArc
 50
90.0
 51
215.0
  0
ARC
  5
395
100
AcDbEntity
  8
ALL_ASSEMBLY_MEMBERS
100
AcDbCircle
 62
7
  6
CONTINUOUS
 10
7.4570516544
 20
6.3977329193
 40
0.003
100
AcDbArc
 50
180.0
 51
270.0
  0
ARC
  5
396
100
AcDbEntity
  8
ALL_FEATURES
100
AcDbCircle
 62
7
  6
CONTINUOUS
 10
7.3359107143
 20
6.4252329193
 40
0.59375
100
AcDbArc
 50
193.3205379776
 51
256.6743405685
  0
ARC
  5
397
100
AcDbEntity
  8
ALL_FEATURES
100
AcDbCircle
 62
7
  6
CONTINUOUS
 10
7.3359107143
 20
6.4252329193
 40
0.59375
100
AcDbArc
 50
103.3256547763
 51
166.6794623302
  0
ARC
  5
398
100
AcDbEntity
  8
ALL_FEATURES
100
AcDbCircle
 62
7
  6
CONTINUOUS
 10
7.3359107143
 20
6.4252329193
 40
0.59375
100
AcDbArc
 50
283.3256547763
 51
346.6794623302
  0
ARC
  5
399
100
AcDbEntity
  8
ALL_FEATURES
100
AcDbCircle
 62
7
  6
CONTINUOUS
 10
7.3359107143
 20
6.4252329193
 40
0.59375
100
AcDbArc
 50
13.3205379776
 51
76.6743405685
  0
CIRCLE
  5
39A
100
AcDbEntity
  8
ALL_ASSEMBLY_MEMBERS
100
AcDbCircle
 62
7
  6
CONTINUOUS
 10
7.3359107143
 20
6.4252329193
 40
0.27875
  0
CIRCLE
  5
39B
100
AcDbEntity
  8
ALL_ASSEMBLY_MEMBERS
100
AcDbCircle
 62
7
  6
CONTINUOUS
 10
7.3359107143
 20
6.4252329193
 40
0.26375
  0
CIRCLE
  5
39C
100
AcDbEntity
  8
ALL_ASSEMBLY_MEMBERS
100
AcDbCircle
 62
7
  6
CONTINUOUS
 10
7.3359107143
 20
6.4252329193
 40
0.2566170761
  0
CIRCLE
  5
39D
100
AcDbEntity
  8
ALL_ASSEMBLY_MEMBERS
100
AcDbCircle
 62
7
  6
CONTINUOUS
 10
7.3359107143
 20
6.4252329193
 40
0.2272549781
  0
CIRCLE
  5
39E
100
AcDbEntity
  8
ALL_ASSEMBLY_MEMBERS
100
AcDbCircle
 62
7
  6
CONTINUOUS
 10
7.3359107143
 20
6.4252329193
 40
0.21375
  0
CIRCLE
  5
39F
100
AcDbEntity
  8
ALL_ASSEMBLY_MEMBERS
100
AcDbCircle
 62
7
  6
CONTINUOUS
 10
7.3359107143
 20
6.4252329193
 40
0.20875
  0
CIRCLE
  5
3A0
100
AcDbEntity
  8
ALL_ASSEMBLY_MEMBERS
100
AcDbCircle
 62
7
  6
CONTINUOUS
 10
7.3359107143
 20
6.4252329193
 40
0.1975723283
  0
ARC
  5
3A1
100
AcDbEntity
  8
ALL_ASSEMBLY_MEMBERS
100
AcDbCircle
 62
7
  6
CONTINUOUS
 10
7.4477411743
 20
6.4264829193
 40
0.0485
100
AcDbArc
 50
341.5590861804
 51
18.4409138196
  0
ARC
  5
3A2
100
AcDbEntity
  8
ALL_ASSEMBLY_MEMBERS
100
AcDbCircle
 62
7
  6
CONTINUOUS
 10
7.4709831084
 20
6.4342329193
 40
0.024
100
AcDbArc
 50
18.4409138196
 51
90.0
  0
ARC
  5
3A3
100
AcDbEntity
  8
ALL_ASSEMBLY_MEMBERS
100
AcDbCircle
 62
7
  6
CONTINUOUS
 10
7.5904137024
 20
6.5077329193
 40
0.0155
100
AcDbArc
 50
44.3699285546
 51
63.1436650029
  0
ARC
  5
3A4
100
AcDbEntity
  8
ALL_ASSEMBLY_MEMBERS
100
AcDbCircle
 62
7
  6
CONTINUOUS
 10
7.4184107143
 20
6.6797359073
 40
0.0155
100
AcDbArc
 50
26.8563510653
 51
45.6300714454
  0
ARC
  5
3A5
100
AcDbEntity
  8
ALL_ASSEMBLY_MEMBERS
100
AcDbCircle
 62
7
  6
CONTINUOUS
 10
7.3846607143
 20
6.4438475969
 40
0.015
100
AcDbArc
 50
106.4592496283
 51
180.0
  0
ARC
  5
3A6
100
AcDbEntity
  8
ALL_ASSEMBLY_MEMBERS
100
AcDbCircle
 62
7
  6
CONTINUOUS
 10
7.3366607143
 20
6.4438475969
 40
0.015
100
AcDbArc
 50
0.0
 51
73.5407503717
  0
ARC
  5
3A7
100
AcDbEntity
  8
ALL_ASSEMBLY_MEMBERS
100
AcDbCircle
 62
7
  6
CONTINUOUS
 10
7.4269107143
 20
6.4501706615
 40
0.009
100
AcDbArc
 50
0.0
 51
63.6122000388
  0
ARC
  5
3A8
100
AcDbEntity
  8
ALL_ASSEMBLY_MEMBERS
100
AcDbCircle
 62
7
  6
CONTINUOUS
 10
7.4570516544
 20
6.4552329193
 40
0.003
100
AcDbArc
 50
90.0
 51
180.0
  0
ARC
  5
3A9
100
AcDbEntity
  8
ALL_ASSEMBLY_MEMBERS
100
AcDbCircle
 62
7
  6
CONTINUOUS
 10
7.3359107143
 20
7.0164829193
 40
0.1375
100
AcDbArc
 50
325.0
 51
215.0
  0
ARC
  5
3AA
100
AcDbEntity
  8
ALL_ASSEMBLY_MEMBERS
100
AcDbCircle
 62
7
  6
CONTINUOUS
 10
7.5166607143
 20
6.7801708987
 40
0.125
100
AcDbArc
 50
133.0260516848
 51
225.6300714454
  0
ARC
  5
3AB
100
AcDbEntity
  8
ALL_ASSEMBLY_MEMBERS
100
AcDbCircle
 62
7
  6
CONTINUOUS
 10
7.4259107143
 20
6.8773996882
 40
0.008
100
AcDbArc
 50
313.0260516848
 51
55.3765489003
  0
ARC
  5
3AC
100
AcDbEntity
  8
ALL_ASSEMBLY_MEMBERS
100
AcDbCircle
 62
7
  6
CONTINUOUS
 10
7.4263575784
 20
6.8919829193
 40
0.008
100
AcDbArc
 50
145.0
 51
270.0
  0
ARC
  5
3AD
100
AcDbEntity
  8
ALL_ASSEMBLY_MEMBERS
100
AcDbCircle
 62
7
  6
CONTINUOUS
 10
7.9271607143
 20
6.4252329193
 40
0.1375
100
AcDbArc
 50
235.0
 51
125.0
  0
ARC
  5
3AE
100
AcDbEntity
  8
ALL_ASSEMBLY_MEMBERS
100
AcDbCircle
 62
7
  6
CONTINUOUS
 10
7.6908486938
 20
6.6059829193
 40
0.125
100
AcDbArc
 50
224.3699285546
 51
316.9739483152
  0
ARC
  5
3AF
100
AcDbEntity
  8
ALL_ASSEMBLY_MEMBERS
100
AcDbCircle
 62
7
  6
CONTINUOUS
 10
7.7880774832
 20
6.5152329193
 40
0.008
100
AcDbArc
 50
34.6234510997
 51
136.9739483152
  0
ARC
  5
3B0
100
AcDbEntity
  8
ALL_ASSEMBLY_MEMBERS
100
AcDbCircle
 62
7
  6
CONTINUOUS
 10
7.8026607143
 20
6.5156797834
 40
0.008
100
AcDbArc
 50
180.0
 51
305.0
  0
SPLINE
  5
3B1
100
AcDbEntity
  8
ALL_ASSEMBLY_MEMBERS
100
AcDbSpline
 62
7
  6
CONTINUOUS
 70
0
 71
3
 72
11
 73
7
 74
0
 42
0.0000001
 43
0.0000001
 44
0.0000000001
 40
0.0
 40
0.0
 40
0.0
 40
0.0
 40
0.2730385444
 40
0.4996896654
 40
0.7263920674
 40
1.0
 40
1.0
 40
1.0
 40
1.0
 10
3.3589107143
 20
6.4252329193
 30
0.0
 10
3.3589103456
 20
6.4371282932
 30
0.0
 10
3.3654565139
 20
6.4588980862
 30
0.0
 10
3.3980824511
 20
6.4713803326
 30
0.0
 10
3.4306092858
 20
6.4588740391
 30
0.0
 10
3.4374103132
 20
6.4371262482
 30
0.0
 10
3.4374107143
 20
6.4252329193
 30
0.0
  0
SPLINE
  5
3B2
100
AcDbEntity
  8
ALL_ASSEMBLY_MEMBERS
100
AcDbSpline
 62
7
  6
CONTINUOUS
 70
0
 71
3
 72
11
 73
7
 74
0
 42
0.0000001
 43
0.0000001
 44
0.0000000001
 40
0.0
 40
0.0
 40
0.0
 40
0.0
 40
0.2911005069
 40
0.5007865867
 40
0.7104726666
 40
1.0
 40
1.0
 40
1.0
 40
1.0
 10
3.4195607143
 20
6.4252329193
 30
0.0
 10
3.4195607143
 20
6.4335888359
 30
0.0
 10
3.417620094
 20
6.4479637025
 30
0.0
 10
3.3980978035
 20
6.4586259986
 30
0.0
 10
3.3783679605
 20
6.4480126562
 30
0.0
 10
3.3770607143
 20
6.4335948005
 30
0.0
 10
3.3770607143
 20
6.4252329193
 30
0.0
  0
SPLINE
  5
3B3
100
AcDbEntity
  8
ALL_ASSEMBLY_MEMBERS
100
AcDbSpline
 62
7
  6
CONTINUOUS
 70
0
 71
3
 72
11
 73
7
 74
0
 42
0.0000001
 43
0.0000001
 44
0.0000000001
 40
0.0
 40
0.0
 40
0.0
 40
0.0
 40
0.2736088651
 40
0.5002793729
 40
0.726960525
 40
1.0
 40
1.0
 40
1.0
 40
1.0
 10
3.4374107143
 20
6.4252329193
 30
0.0
 10
3.4374111154
 20
6.4133395903
 30
0.0
 10
3.4306119987
 20
6.3915933123
 30
0.0
 10
3.3980772356
 20
6.3790854721
 30
0.0
 10
3.3654590108
 20
6.3915664567
 30
0.0
 10
3.358911083
 20
6.4133375453
 30
0.0
 10
3.3589107143
 20
6.4252329193
 30
0.0
  0
SPLINE
  5
3B4
100
AcDbEntity
  8
ALL_ASSEMBLY_MEMBERS
100
AcDbSpline
 62
7
  6
CONTINUOUS
 70
0
 71
3
 72
11
 73
7
 74
0
 42
0.0000001
 43
0.0000001
 44
0.0000000001
 40
0.0
 40
0.0
 40
0.0
 40
0.0
 40
0.2895273334
 40
0.4992134133
 40
0.7088994931
 40
1.0
 40
1.0
 40
1.0
 40
1.0
 10
3.3770607143
 20
6.4252329193
 30
0.0
 10
3.3770607143
 20
6.416871038
 30
0.0
 10
3.3783679605
 20
6.4024531823
 30
0.0
 10
3.3980978035
 20
6.3918398399
 30
0.0
 10
3.417620094
 20
6.402502136
 30
0.0
 10
3.4195607143
 20
6.4168770026
 30
0.0
 10
3.4195607143
 20
6.4252329193
 30
0.0
  0
SPLINE
  5
3B5
100
AcDbEntity
  8
ALL_ASSEMBLY_MEMBERS
100
AcDbSpline
 62
7
  6
CONTINUOUS
 70
0
 71
3
 72
11
 73
7
 74
0
 42
0.0000001
 43
0.0000001
 44
0.0000000001
 40
0.0
 40
0.0
 40
0.0
 40
0.0
 40
0.2893264667
 40
0.529018178
 40
0.7687211451
 40
1.0
 40
1.0
 40
1.0
 40
1.0
 10
7.3344107143
 20
6.4252329193
 30
0.0
 10
7.3344111154
 20
6.4133395903
 30
0.0
 10
7.3276119987
 20
6.3915933123
 30
0.0
 10
7.2950772356
 20
6.3790854721
 30
0.0
 10
7.2648984382
 20
6.3906330381
 30
0.0
 10
7.2575225458
 20
6.4087598777
 30
0.0
 10
7.256344964
 20
6.4181636969
 30
0.0
  0
SPLINE
  5
3B6
100
AcDbEntity
  8
ALL_ASSEMBLY_MEMBERS
100
AcDbSpline
 62
7
  6
CONTINUOUS
 70
0
 71
3
 72
11
 73
7
 74
0
 42
0.0000001
 43
0.0000001
 44
0.0000000001
 40
0.0
 40
0.0
 40
0.0
 40
0.0
 40
0.2895273334
 40
0.4992134133
 40
0.7088994931
 40
1.0
 40
1.0
 40
1.0
 40
1.0
 10
7.2740607143
 20
6.4252329193
 30
0.0
 10
7.2740607143
 20
6.416871038
 30
0.0
 10
7.2753679605
 20
6.4024531823
 30
0.0
 10
7.2950978035
 20
6.3918398399
 30
0.0
 10
7.314620094
 20
6.402502136
 30
0.0
 10
7.3165607143
 20
6.4168770026
 30
0.0
 10
7.3165607143
 20
6.4252329193
 30
0.0
  0
SPLINE
  5
3B7
100
AcDbEntity
  8
ALL_ASSEMBLY_MEMBERS
100
AcDbSpline
 62
7
  6
CONTINUOUS
 70
0
 71
3
 72
11
 73
7
 74
0
 42
0.0000001
 43
0.0000001
 44
0.0000000001
 40
0.0
 40
0.0
 40
0.0
 40
0.0
 40
0.2911005069
 40
0.5007865867
 40
0.7104726666
 40
1.0
 40
1.0
 40
1.0
 40
1.0
 10
7.3165607143
 20
6.4252329193
 30
0.0
 10
7.3165607143
 20
6.4335888359
 30
0.0
 10
7.314620094
 20
6.4479637025
 30
0.0
 10
7.2950978035
 20
6.4586259986
 30
0.0
 10
7.2753679605
 20
6.4480126562
 30
0.0
 10
7.2740607143
 20
6.4335948005
 30
0.0
 10
7.2740607143
 20
6.4252329193
 30
0.0
  0
SPLINE
  5
3B8
100
AcDbEntity
  8
ALL_ASSEMBLY_MEMBERS
100
AcDbSpline
 62
7
  6
CONTINUOUS
 70
0
 71
3
 72
11
 73
7
 74
0
 42
0.0000001
 43
0.0000001
 44
0.0000000001
 40
0.0
 40
0.0
 40
0.0
 40
0.0
 40
0.2782003197
 40
0.5091362648
 40
0.7401244605
 40
1.0
 40
1.0
 40
1.0
 40
1.0
 10
7.2559107143
 20
6.4252329193
 30
0.0
 10
7.2559103456
 20
6.4371282932
 30
0.0
 10
7.2624565139
 20
6.4588980862
 30
0.0
 10
7.2950824511
 20
6.4713803326
 30
0.0
 10
7.3267791065
 20
6.459193236
 30
0.0
 10
7.3338844428
 20
6.438721223
 30
0.0
 10
7.3343590334
 20
6.42765126
 30
0.0
  0
SPLINE
  5
3B9
100
AcDbEntity
  8
ALL_ASSEMBLY_MEMBERS
100
AcDbSpline
 62
7
  6
CONTINUOUS
 70
0
 71
3
 72
17
 73
13
 74
0
 42
0.0000001
 43
0.0000001
 44
0.0000000001
 40
0.0
 40
0.0
 40
0.0
 40
0.0
 40
0.0048096997
 40
0.01918271
 40
0.0429880657
 40
0.0759918178
 40
0.1682543028
 40
0.2924541722
 40
0.4438649622
 40
0.6167363835
 40
0.8044808234
 40
1.0
 40
1.0
 40
1.0
 40
1.0
 10
5.7424107143
 20
3.4252329193
 30
0.0
 10
5.7423824334
 20
3.424438215
 30
0.0
 10
5.7422716938
 20
3.4212685942
 30
0.0
 10
5.7420389122
 20
3.4141650098
 30
0.0
 10
5.7416748538
 20
3.402401811
 30
0.0
 10
5.7409617263
 20
3.3777655076
 30
0.0
 10
5.7398977761
 20
3.3365338859
 30
0.0
 10
5.7385547018
 20
3.2757266311
 30
0.0
 10
5.7372047109
 20
3.2015893756
 30
0.0
 10
5.7360166593
 20
3.1169420046
 30
0.0
 10
5.7351590302
 20
3.0249976067
 30
0.0
 10
5.7349208931
 20
2.9616310352
 30
0.0
 10
5.7349113184
 20
2.9293050651
 30
0.0
  0
SPLINE
  5
3BA
100
AcDbEntity
  8
ALL_ASSEMBLY_MEMBERS
100
AcDbSpline
 62
7
  6
CONTINUOUS
 70
0
 71
3
 72
17
 73
13
 74
0
 42
0.0000001
 43
0.0000001
 44
0.0000000001
 40
0.0
 40
0.0
 40
0.0
 40
0.0
 40
0.0048090304
 40
0.0191800613
 40
0.0429822521
 40
0.0759818091
 40
0.1682339249
 40
0.2924231068
 40
0.4438263859
 40
0.6166975296
 40
0.8044531391
 40
1.0
 40
1.0
 40
1.0
 40
1.0
 10
4.9924107143
 20
3.4252329193
 30
0.0
 10
4.9924389768
 20
3.4244387365
 30
0.0
 10
4.9925496453
 20
3.4212711924
 30
0.0
 10
4.9927822837
 20
3.4141722422
 30
0.0
 10
4.993146126
 20
3.40241667
 30
0.0
 10
4.9938588577
 20
3.3777960378
 30
0.0
 10
4.994922284
 20
3.3365899145
 30
0.0
 10
4.996264832
 20
3.2758188327
 30
0.0
 10
4.9976145124
 20
3.201722979
 30
0.0
 10
4.9988026318
 20
3.1171188355
 30
0.0
 10
4.9996608729
 20
3.0252156231
 30
0.0
 10
4.9998998612
 20
2.9618754062
 30
0.0
 10
4.9999100318
 20
2.9295615794
 30
0.0
  0
SPLINE
  5
3BB
100
AcDbEntity
  8
ALL_ASSEMBLY_MEMBERS
100
AcDbSpline
 62
7
  6
CONTINUOUS
 70
0
 71
3
 72
13
 73
9
 74
0
 42
0.0000001
 43
0.0000001
 44
0.0000000001
 40
0.0
 40
0.0
 40
0.0
 40
0.0
 40
0.1249962009
 40
0.2499966271
 40
0.4999999933
 40
0.7500033587
 40
0.8750038007
 40
1.0
 40
1.0
 40
1.0
 40
1.0
 10
5.0691005051
 20
3.9369496476
 30
0.0
 10
5.0567777677
 20
3.9157745755
 30
0.0
 10
5.03217534
 20
3.8733984222
 30
0.0
 10
4.9830675897
 20
3.7885883381
 30
0.0
 10
4.9217821302
 20
3.6825167068
 30
0.0
 10
4.8605640619
 20
3.5764061633
 30
0.0
 10
4.8116703319
 20
3.4914725119
 30
0.0
 10
4.787272637
 20
3.4489781524
 30
0.0
 10
4.7750959233
 20
3.4277187742
 30
0.0
  0
SPLINE
  5
3BC
100
AcDbEntity
  8
ALL_ASSEMBLY_MEMBERS
100
AcDbSpline
 62
7
  6
CONTINUOUS
 70
0
 71
3
 72
15
 73
11
 74
0
 42
0.0000001
 43
0.0000001
 44
0.0000000001
 40
0.0
 40
0.0
 40
0.0
 40
0.0
 40
0.1249961551
 40
0.2499965901
 40
0.3749981458
 40
0.4999999914
 40
0.6250018359
 40
0.7500034009
 40
0.8750038409
 40
1.0
 40
1.0
 40
1.0
 40
1.0
 10
5.6614153104
 20
3.9394355027
 30
0.0
 10
5.6369157807
 20
3.9393515458
 30
0.0
 10
5.5879158345
 20
3.9391953817
 30
0.0
 10
5.5144150356
 20
3.9390534949
 30
0.0
 10
5.44091303
 20
3.9389824246
 30
0.0
 10
5.3674107192
 20
3.9389591542
 30
0.0
 10
5.2939084068
 20
3.9389824926
 30
0.0
 10
5.2204063981
 20
3.9390532108
 30
0.0
 10
5.1469055966
 20
3.9391956058
 30
0.0
 10
5.0979056484
 20
3.9393516278
 30
0.0
 10
5.0734061176
 20
3.9394355027
 30
0.0
  0
SPLINE
  5
3BD
100
AcDbEntity
  8
ALL_ASSEMBLY_MEMBERS
100
AcDbSpline
 62
7
  6
CONTINUOUS
 70
0
 71
3
 72
13
 73
9
 74
0
 42
0.0000001
 43
0.0000001
 44
0.0000000001
 40
0.0
 40
0.0
 40
0.0
 40
0.0
 40
0.1249962009
 40
0.2499966271
 40
0.4999999933
 40
0.7500033587
 40
0.8750038007
 40
1.0
 40
1.0
 40
1.0
 40
1.0
 10
5.661415296
 20
3.9394355028
 30
0.0
 10
5.6369157769
 20
3.9395197704
 30
0.0
 10
5.5879157377
 20
3.9396380211
 30
0.0
 10
5.4899141753
 20
3.9397615383
 30
0.0
 10
5.3674107182
 20
3.9398004874
 30
0.0
 10
5.2449072578
 20
3.9397616181
 30
0.0
 10
5.146905693
 20
3.9396380046
 30
0.0
 10
5.0979056508
 20
3.9395198484
 30
0.0
 10
5.0734061323
 20
3.9394355028
 30
0.0
  0
SPLINE
  5
3BE
100
AcDbEntity
  8
ALL_ASSEMBLY_MEMBERS
100
AcDbSpline
 62
7
  6
CONTINUOUS
 70
0
 71
3
 72
15
 73
11
 74
0
 42
0.0000001
 43
0.0000001
 44
0.0000000001
 40
0.0
 40
0.0
 40
0.0
 40
0.0
 40
0.1249961551
 40
0.2499965901
 40
0.3749981458
 40
0.4999999914
 40
0.6250018359
 40
0.7500034009
 40
0.8750038409
 40
1.0
 40
1.0
 40
1.0
 40
1.0
 10
5.9597255123
 20
3.427718762
 30
0.0
 10
5.9474030386
 20
3.4488939986
 30
0.0
 10
5.9227678235
 20
3.4912511147
 30
0.0
 10
5.8858945464
 20
3.5548337303
 30
0.0
 10
5.849081995
 20
3.6184527993
 30
0.0
 10
5.8123106868
 20
3.6820960324
 30
0.0
 10
5.7755797423
 20
3.7457625714
 30
0.0
 10
5.7388899816
 20
3.8094525373
 30
0.0
 10
5.7022628986
 20
3.8731772961
 30
0.0
 10
5.6778980435
 20
3.915690507
 30
0.0
 10
5.6657209159
 20
3.9369496605
 30
0.0
  0
SPLINE
  5
3BF
100
AcDbEntity
  8
ALL_ASSEMBLY_MEMBERS
100
AcDbSpline
 62
7
  6
CONTINUOUS
 70
0
 71
3
 72
13
 73
9
 74
0
 42
0.0000001
 43
0.0000001
 44
0.0000000001
 40
0.0
 40
0.0
 40
0.0
 40
0.0
 40
0.1249962009
 40
0.2499966271
 40
0.4999999933
 40
0.7500033587
 40
0.8750038007
 40
1.0
 40
1.0
 40
1.0
 40
1.0
 10
5.9597255052
 20
3.4277187745
 30
0.0
 10
5.9475487235
 20
3.4489781142
 30
0.0
 10
5.923151112
 20
3.4914725182
 30
0.0
 10
5.8742572999
 20
3.5764061195
 30
0.0
 10
5.8130393023
 20
3.6825166999
 30
0.0
 10
5.7517539102
 20
3.788588374
 30
0.0
 10
5.7026460754
 20
3.873398412
 30
0.0
 10
5.678043728
 20
3.9157746153
 30
0.0
 10
5.6657209233
 20
3.9369496478
 30
0.0
  0
SPLINE
  5
3C0
100
AcDbEntity
  8
ALL_ASSEMBLY_MEMBERS
100
AcDbSpline
 62
7
  6
CONTINUOUS
 70
0
 71
3
 72
13
 73
9
 74
0
 42
0.0000001
 43
0.0000001
 44
0.0000000001
 40
0.0
 40
0.0
 40
0.0
 40
0.0
 40
0.2500020386
 40
0.5000045959
 40
0.6250056765
 40
0.7500061741
 40
0.8750052473
 40
1.0
 40
1.0
 40
1.0
 40
1.0
 10
5.7353167755
 20
3.0347789028
 30
0.0
 10
5.753942327
 20
3.0671533441
 30
0.0
 10
5.7912386761
 20
3.1318762864
 30
0.0
 10
5.8379348851
 20
3.2127362289
 30
0.0
 10
5.8753409992
 20
3.2773956973
 30
0.0
 10
5.903425028
 20
3.3258728348
 30
0.0
 10
5.9315543039
 20
3.3743226409
 30
0.0
 10
5.9503331928
 20
3.4066069635
 30
0.0
 10
5.9597255126
 20
3.422747077
 30
0.0
  0
SPLINE
  5
3C1
100
AcDbEntity
  8
ALL_ASSEMBLY_MEMBERS
100
AcDbSpline
 62
7
  6
CONTINUOUS
 70
0
 71
3
 72
11
 73
7
 74
0
 42
0.0000001
 43
0.0000001
 44
0.0000000001
 40
0.0
 40
0.0
 40
0.0
 40
0.0
 40
0.2500019675
 40
0.5000046051
 40
0.7500060844
 40
1.0
 40
1.0
 40
1.0
 40
1.0
 10
5.735309989
 20
3.0334892939
 30
0.0
 10
5.7540645855
 20
3.0658970162
 30
0.0
 10
5.7915406395
 20
3.1307317531
 30
0.0
 10
5.8476995373
 20
3.2280155863
 30
0.0
 10
5.9037974033
 20
3.3253332218
 30
0.0
 10
5.941116238
 20
3.3902570625
 30
0.0
 10
5.9597255053
 20
3.4227470643
 30
0.0
  0
SPLINE
  5
3C2
100
AcDbEntity
  8
ALL_ASSEMBLY_MEMBERS
100
AcDbSpline
 62
7
  6
CONTINUOUS
 70
0
 71
3
 72
13
 73
9
 74
0
 42
0.0000001
 43
0.0000001
 44
0.0000000001
 40
0.0
 40
0.0
 40
0.0
 40
0.0
 40
0.1249947493
 40
0.2499938182
 40
0.3749943143
 40
0.4999953857
 40
0.7499979458
 40
1.0
 40
1.0
 40
1.0
 40
1.0
 10
4.7750959163
 20
3.4227470766
 30
0.0
 10
4.7844883187
 20
3.4066069452
 30
0.0
 10
4.8032673877
 20
3.3743225957
 30
0.0
 10
4.8313965062
 20
3.3258725005
 30
0.0
 10
4.8594805172
 20
3.2773951562
 30
0.0
 10
4.896887017
 20
3.2127356467
 30
0.0
 10
4.9435831742
 20
3.131875341
 30
0.0
 10
4.9808799023
 20
3.0671523488
 30
0.0
 10
4.999505454
 20
3.0347777723
 30
0.0
  0
SPLINE
  5
3C3
100
AcDbEntity
  8
ALL_ASSEMBLY_MEMBERS
100
AcDbSpline
 62
7
  6
CONTINUOUS
 70
0
 71
3
 72
11
 73
7
 74
0
 42
0.0000001
 43
0.0000001
 44
0.0000000001
 40
0.0
 40
0.0
 40
0.0
 40
0.0
 40
0.2499939066
 40
0.4999953816
 40
0.7499980258
 40
1.0
 40
1.0
 40
1.0
 40
1.0
 10
4.7750959234
 20
3.422747064
 30
0.0
 10
4.7937052679
 20
3.3902571675
 30
0.0
 10
4.8310238987
 20
3.3253333314
 30
0.0
 10
4.8871217522
 20
3.2280158685
 30
0.0
 10
4.9432805387
 20
3.1307321486
 30
0.0
 10
4.980756489
 20
3.0658974688
 30
0.0
 10
4.9995111009
 20
3.0334898139
 30
0.0
  0
SPLINE
  5
3C4
100
AcDbEntity
  8
ALL_ASSEMBLY_MEMBERS
100
AcDbSpline
 62
7
  6
CONTINUOUS
 70
0
 71
3
 72
14
 73
10
 74
0
 42
0.0000001
 43
0.0000001
 44
0.0000000001
 40
0.0
 40
0.0
 40
0.0
 40
0.0
 40
0.0183732792
 40
0.0728644788
 40
0.1617632232
 40
0.2823882068
 40
0.431172873
 40
0.6037746093
 40
1.0
 40
1.0
 40
1.0
 40
1.0
 10
5.5549107143
 20
3.7499924457
 30
0.0
 10
5.5548692813
 20
3.7460148052
 30
0.0
 10
5.5547100752
 20
3.7302402866
 30
0.0
 10
5.5543941151
 20
3.6952196051
 30
0.0
 10
5.5539275292
 20
3.6380616846
 30
0.0
 10
5.5533697493
 20
3.5604891122
 30
0.0
 10
5.5527735252
 20
3.4647945036
 30
0.0
 10
5.5519650613
 20
3.3094320437
 30
0.0
 10
5.5515354731
 20
3.1862802755
 30
0.0
 10
5.5513535355
 20
3.1004967899
 30
0.0
  0
LINE
  5
3C5
100
AcDbEntity
  8
ALL_ASSEMBLY_MEMBERS
100
AcDbLine
 62
7
  6
CONTINUOUS
 10
5.5513535355
 20
3.1004967899
 11
5.5513474605
 21
3.0976110555
  0
SPLINE
  5
3C6
100
AcDbEntity
  8
ALL_ASSEMBLY_MEMBERS
100
AcDbSpline
 62
7
  6
CONTINUOUS
 70
0
 71
3
 72
14
 73
10
 74
0
 42
0.0000001
 43
0.0000001
 44
0.0000000001
 40
0.0
 40
0.0
 40
0.0
 40
0.0
 40
0.0183732792
 40
0.0728644788
 40
0.1617632232
 40
0.2823882068
 40
0.431172873
 40
0.6037746093
 40
1.0
 40
1.0
 40
1.0
 40
1.0
 10
5.1799107143
 20
3.7499924457
 30
0.0
 10
5.1799521472
 20
3.7460148052
 30
0.0
 10
5.1801113534
 20
3.7302402866
 30
0.0
 10
5.1804273135
 20
3.6952196051
 30
0.0
 10
5.1808938994
 20
3.6380616846
 30
0.0
 10
5.1814516793
 20
3.5604891122
 30
0.0
 10
5.1820479034
 20
3.4647945036
 30
0.0
 10
5.1828563673
 20
3.3094320437
 30
0.0
 10
5.1832859555
 20
3.1862802755
 30
0.0
 10
5.1834678931
 20
3.1004967899
 30
0.0
  0
LINE
  5
3C7
100
AcDbEntity
  8
ALL_ASSEMBLY_MEMBERS
100
AcDbLine
 62
7
  6
CONTINUOUS
 10
5.1834678931
 20
3.1004967899
 11
5.183473968
 21
3.0976110555
  0
SPLINE
  5
3C8
100
AcDbEntity
  8
ALL_ASSEMBLY_MEMBERS
100
AcDbSpline
 62
7
  6
CONTINUOUS
 70
0
 71
3
 72
15
 73
11
 74
0
 42
0.0000001
 43
0.0000001
 44
0.0000000001
 40
0.0
 40
0.0
 40
0.0
 40
0.0
 40
0.1249961551
 40
0.2499965901
 40
0.3749981458
 40
0.4999999914
 40
0.6250018359
 40
0.7500034009
 40
0.8750038409
 40
1.0
 40
1.0
 40
1.0
 40
1.0
 10
5.0691005123
 20
3.93694966
 30
0.0
 10
5.0569234563
 20
3.9156904665
 30
0.0
 10
5.0325587254
 20
3.8731771863
 30
0.0
 10
4.9959312035
 20
3.8094526838
 30
0.0
 10
4.9592417493
 20
3.7457625446
 30
0.0
 10
4.9225107467
 20
3.682096041
 30
0.0
 10
4.8857393788
 20
3.6184528405
 30
0.0
 10
4.8489271308
 20
3.5548335927
 30
0.0
 10
4.8120534123
 20
3.4912512289
 30
0.0
 10
4.7874183192
 20
3.44889404
 30
0.0
 10
4.775095916
 20
3.4277187615
 30
0.0
  0
ENDSEC
  0
SECTION
  2
OBJECTS
  0
DICTIONARY
  5
C
100
AcDbDictionary
280
0
281
1
  3
ACAD_GROUP
350
D
  3
ACAD_MLINESTYLE
350
17
  3
ACAD_LAYOUT
350
1A
  3
ACAD_PLOTSETTINGS
350
19
  3
ACAD_PLOTSTYLENAME
350
E
  0
DICTIONARY
  5
D
102
{ACAD_REACTORS
330
C
102
}
100
AcDbDictionary
280
0
281
1
  0
ACDBDICTIONARYWDFLT
  5
E
102
{ACAD_REACTORS
330
C
102
}
100
AcDbDictionary
281
1
  3
Normal
350
F
100
AcDbDictionaryWithDefault
340
F
  0
DICTIONARY
  5
17
102
{ACAD_REACTORS
330
C
102
}
100
AcDbDictionary
280
0
281
1
  3
Standard
350
18
  0
DICTIONARY
  5
19
102
{ACAD_REACTORS
330
C
102
}
100
AcDbDictionary
281
1
  0
DICTIONARY
  5
1A
102
{ACAD_REACTORS
330
C
102
}
100
AcDbDictionary
281
1
  3
Model
350
3C9
  3
Layout1
350
3CA
  0
ACDBPLACEHOLDER
  5
F
102
{ACAD_REACTORS
330
E
102
}
  0
MLINESTYLE
  5
18
102
{ACAD_REACTORS
330
17
102
}
100
AcDbMlineStyle
  2
STANDARD
 70
0
  3

 62
256
 51
90.0
 52
90.0
 71
2
 49
0.5
 62
256
  6
BYLAYER
 49
-0.5
 62
256
  6
BYLAYER
  0
LAYOUT
  5
3C9
102
{ACAD_REACTORS
330
1A
102
}
100
AcDbPlotSettings
  1

  2
none_device
  4
ANSI_A_(11.00_x_8.50_Inches)
  6

 40
0.0
 41
0.0
 42
0.0
 43
0.0
 44
279.4
 45
215.9
 46
0.0
 47
0.0
 48
0.0
 49
0.0
140
0.0
141
0.0
142
1.0
143
1.0
 70
1024
 72
0
 73
0
 74
0
  7

 75
0
147
1.0
148
0.0
149
0.0
100
AcDbLayout
  1
Model
 70
0
 71
0
 10
0.0
 20
0.0
 11
11.0
 21
8.5
 12
0.0
 22
0.0
 32
0.0
 14
0.0
 24
0.0
 34
0.0
 15
0.0
 25
0.0
 35
0.0
146
0.0
 13
0.0
 23
0.0
 33
0.0
 16
1.0
 26
0.0
 36
0.0
 17
0.0
 27
1.0
 37
0.0
 76
0
330
222
345
0
346
0
  0
LAYOUT
  5
3CA
102
{ACAD_REACTORS
330
1A
102
}
100
AcDbPlotSettings
  1

  2
none_device
  4
ANSI_A_(11.00_x_8.50_Inches)
  6

 40
0.0
 41
0.0
 42
0.0
 43
0.0
 44
279.4
 45
215.9
 46
0.0
 47
0.0
 48
0.0
 49
0.0
140
0.0
141
0.0
142
1.0
143
1.0
 70
0
 72
0
 73
0
 74
0
  7

 75
0
147
1.0
148
0.0
149
0.0
100
AcDbLayout
  1
Layout1
 70
0
 71
1
 10
0.0
 20
0.0
 11
11.0
 21
8.5
 12
0.0
 22
0.0
 32
0.0
 14
0.0
 24
0.0
 34
0.0
 15
0.0
 25
0.0
 35
0.0
146
0.0
 13
0.0
 23
0.0
 33
0.0
 16
1.0
 26
0.0
 36
0.0
 17
0.0
 27
1.0
 37
0.0
 76
0
330
223
345
0
346
0
  0
ENDSEC
  0
EOF
