999
DXF file: 3-1235_FRONT.dxf
999
Pro/ENGINEER 2018400 by Parametric Technology Corporation
  0
SECTION
  2
HEADER
  9
$ACADVER
  1
AC1027
  9
$DWGCODEPAGE
  3
ANSI_1252
  9
$EXTMAX
 10
11.0
 20
8.5
 30
0.0
  9
$EXTMIN
 10
0.0
 20
0.0
 30
0.0
  9
$LIMMIN
 10
0.0
 20
0.0
  9
$LIMMAX
 10
11.0
 20
8.5
  9
$VIEWCTR
 10
5.5
 20
4.25
  9
$VIEWSIZE
 40
8.5
  9
$CLAYER
  8
0
  9
$LTSCALE
 40
0.605
  9
$CELTYPE
  6
BYLAYER
  9
$DIMSCALE
 40
1.0
  9
$DIMASZ
 40
0.1
  9
$DIMEXO
 40
0.0625
  9
$DIMDLI
 40
0.418
  9
$DIMEXE
 40
0.125
  9
$DIMCEN
 40
0.099
  9
$DIMLFAC
 40
1.0
  9
$DIMBLK
  1
_FILLED
  9
$DIMALT
 70
1
  9
$DIMALTD
 70
2
  9
$DIMALTTD
 70
2
  9
$DIMALTF
 40
25.4
  9
$DIMTXT
 40
0.08
  9
$DIMTOL
 70
1
  9
$DIMLIM
 70
0
  9
$DIMTFAC
 40
1.0
  9
$DIMTP
 40
0.001
  9
$DIMTM
 40
0.001
  9
$DIMGAP
 40
0.09
  9
$DIMDSEP
 70
46
  9
$AUNITS
 70
0
  9
$PDMODE
 70
3
  9
$PDSIZE
 40
0.3125
  9
$HANDSEED
  5
375
  9
$TILEMODE
 70
1
  9
$MEASUREMENT
 70
0
  9
$INSUNITS
 70
1
  0
ENDSEC
  0
SECTION
  2
CLASSES
  0
CLASS
  1
ACDBDICTIONARYWDFLT
  2
AcDbDictionaryWithDefault
  3
AutoCAD 2000
 90
0
 91
1
280
0
281
0
  0
CLASS
  1
ACDBPLACEHOLDER
  2
AcDbPlaceHolder
  3
AutoCAD 2000
 90
0
 91
1
280
0
281
0
  0
CLASS
  1
LAYOUT
  2
AcDbLayout
  3
AutoCAD 2000
 90
0
 91
0
280
0
281
0
  0
ENDSEC
  0
SECTION
  2
TABLES
  0
TABLE
  2
VPORT
  5
8
100
AcDbSymbolTable
 70
2
  0
VPORT
  5
1F4
100
AcDbSymbolTableRecord
100
AcDbViewportTableRecord
  2
*ACTIVE
 70
0
 10
0.0
 20
0.0
 11
1.0
 21
1.0
 12
5.5
 22
4.25
 13
0.0
 23
0.0
 14
1.0
 24
1.0
 15
0.0
 25
0.0
 16
0.0
 26
0.0
 36
1.0
 17
0.0
 27
0.0
 37
0.0
 40
8.5
 41
1.2941176471
 42
50.0
 43
0.0
 44
0.0
 50
0.0
 51
0.0
 71
0
 72
100
 73
1
 74
1
 75
0
 76
0
 77
0
 78
0
  0
ENDTAB
  0
TABLE
  2
LTYPE
  5
5
100
AcDbSymbolTable
 70
6
  0
LTYPE
  5
14
100
AcDbSymbolTableRecord
100
AcDbLinetypeTableRecord
  2
BYBLOCK
 70
0
  3

 72
65
 73
0
 40
0.0
  0
LTYPE
  5
15
100
AcDbSymbolTableRecord
100
AcDbLinetypeTableRecord
  2
BYLAYER
 70
0
  3

 72
65
 73
0
 40
0.0
  0
LTYPE
  5
16
100
AcDbSymbolTableRecord
100
AcDbLinetypeTableRecord
  2
CONTINUOUS
 70
64
  3
Solid line
 72
65
 73
0
 40
0.0
  0
LTYPE
  5
1F5
100
AcDbSymbolTableRecord
100
AcDbLinetypeTableRecord
  2
CENTER
 70
64
  3
____ _ ____ _ ____ _ ____ _ ____ _ ____ _ ____
 72
65
 73
4
 40
0.6
 49
0.375
 74
0
 49
-0.075
 74
0
 49
0.075
 74
0
 49
-0.075
 74
0
  0
LTYPE
  5
1F6
100
AcDbSymbolTableRecord
100
AcDbLinetypeTableRecord
  2
HIDDEN
 70
64
  3
- - - - - - - - - - - - - - - - - - - -
 72
65
 73
2
 40
0.2
 49
0.1
 74
0
 49
-0.1
 74
0
  0
LTYPE
  5
1F7
100
AcDbSymbolTableRecord
100
AcDbLinetypeTableRecord
  2
PHANTOM
 70
64
  3
_____ _ _ _____ _ _ _____ _ _ _____
 72
65
 73
6
 40
0.8
 49
0.45
 74
0
 49
-0.05
 74
0
 49
0.1
 74
0
 49
-0.05
 74
0
 49
0.1
 74
0
 49
-0.05
 74
0
  0
LTYPE
  5
1F8
100
AcDbSymbolTableRecord
100
AcDbLinetypeTableRecord
  2
DOT
 70
64
  3
. . . . . . . . . . . . . . . . . . . .
 72
65
 73
2
 40
0.2
 49
0.1
 74
0
 49
-0.1
 74
0
  0
LTYPE
  5
1F9
100
AcDbSymbolTableRecord
100
AcDbLinetypeTableRecord
  2
DASHED
 70
64
  3
- - - - - - - - - - - - - - - - - - - -
 72
65
 73
2
 40
0.2
 49
0.1
 74
0
 49
-0.1
 74
0
  0
ENDTAB
  0
TABLE
  2
LAYER
  5
2
100
AcDbSymbolTable
 70
36
  0
LAYER
  5
10
100
AcDbSymbolTableRecord
100
AcDbLayerTableRecord
  2
0
 70
0
 62
7
  6
CONTINUOUS
370
-3
390
F
  0
LAYER
  5
1FA
100
AcDbSymbolTableRecord
100
AcDbLayerTableRecord
  2
DEFAULT_1
 70
0
 62
7
  6
CENTER
370
-3
390
F
  0
LAYER
  5
1FB
100
AcDbSymbolTableRecord
100
AcDbLayerTableRecord
  2
DEFAULT_2
 70
0
 62
8
  6
HIDDEN
370
-3
390
F
  0
LAYER
  5
1FC
100
AcDbSymbolTableRecord
100
AcDbLayerTableRecord
  2
DEFAULT_3
 70
0
 62
7
  6
PHANTOM
370
-3
390
F
  0
LAYER
  5
1FD
100
AcDbSymbolTableRecord
100
AcDbLayerTableRecord
  2
_  SHELL
 70
0
 62
7
  6
CONTINUOUS
370
-3
390
F
  0
LAYER
  5
1FE
100
AcDbSymbolTableRecord
100
AcDbLayerTableRecord
  2
06___PRT_ALL_SURFS
 70
0
 62
7
  6
CONTINUOUS
370
-3
390
F
  0
LAYER
  5
1FF
100
AcDbSymbolTableRecord
100
AcDbLayerTableRecord
  2
2-144_ASSY_PLANES
 70
0
 62
7
  6
CONTINUOUS
370
-3
390
F
  0
LAYER
  5
200
100
AcDbSymbolTableRecord
100
AcDbLayerTableRecord
  2
ALL_ASSEMBLY_MEMBERS
 70
0
 62
7
  6
CONTINUOUS
370
-3
390
F
  0
LAYER
  5
201
100
AcDbSymbolTableRecord
100
AcDbLayerTableRecord
  2
ALL_FEATURES
 70
0
 62
7
  6
CONTINUOUS
370
-3
390
F
  0
LAYER
  5
202
100
AcDbSymbolTableRecord
100
AcDbLayerTableRecord
  2
AXES_FEATURES
 70
0
 62
7
  6
CONTINUOUS
370
-3
390
F
  0
LAYER
  5
203
100
AcDbSymbolTableRecord
100
AcDbLayerTableRecord
  2
CHAMFER_FEATURES
 70
0
 62
7
  6
CONTINUOUS
370
-3
390
F
  0
LAYER
  5
204
100
AcDbSymbolTableRecord
100
AcDbLayerTableRecord
  2
COSMETIC
 70
0
 62
7
  6
CONTINUOUS
370
-3
390
F
  0
LAYER
  5
205
100
AcDbSymbolTableRecord
100
AcDbLayerTableRecord
  2
CURVES
 70
0
 62
7
  6
CONTINUOUS
370
-3
390
F
  0
LAYER
  5
206
100
AcDbSymbolTableRecord
100
AcDbLayerTableRecord
  2
CUT_FEATURES
 70
0
 62
7
  6
CONTINUOUS
370
-3
390
F
  0
LAYER
  5
207
100
AcDbSymbolTableRecord
100
AcDbLayerTableRecord
  2
DATUM_PLANES
 70
0
 62
7
  6
CONTINUOUS
370
-3
390
F
  0
LAYER
  5
208
100
AcDbSymbolTableRecord
100
AcDbLayerTableRecord
  2
DATUM_POINTS
 70
0
 62
7
  6
CONTINUOUS
370
-3
390
F
  0
LAYER
  5
209
100
AcDbSymbolTableRecord
100
AcDbLayerTableRecord
  2
DEFAULT_COORDINATE_SYSTEM
 70
0
 62
7
  6
CONTINUOUS
370
-3
390
F
  0
LAYER
  5
20A
100
AcDbSymbolTableRecord
100
AcDbLayerTableRecord
  2
DEFAULT_DATUM_AXES
 70
0
 62
7
  6
CONTINUOUS
370
-3
390
F
  0
LAYER
  5
20B
100
AcDbSymbolTableRecord
100
AcDbLayerTableRecord
  2
DEFAULT_DATUM_CURVES
 70
0
 62
7
  6
CONTINUOUS
370
-3
390
F
  0
LAYER
  5
20C
100
AcDbSymbolTableRecord
100
AcDbLayerTableRecord
  2
DEFAULT_DATUM_PLANES
 70
0
 62
7
  6
CONTINUOUS
370
-3
390
F
  0
LAYER
  5
20D
100
AcDbSymbolTableRecord
100
AcDbLayerTableRecord
  2
DEFAULT_SURFACES
 70
0
 62
7
  6
CONTINUOUS
370
-3
390
F
  0
LAYER
  5
20E
100
AcDbSymbolTableRecord
100
AcDbLayerTableRecord
  2
DIMENSIONS
 70
0
 62
7
  6
CONTINUOUS
370
-3
390
F
  0
LAYER
  5
20F
100
AcDbSymbolTableRecord
100
AcDbLayerTableRecord
  2
HOLE_FEATURES
 70
0
 62
7
  6
CONTINUOUS
370
-3
390
F
  0
LAYER
  5
210
100
AcDbSymbolTableRecord
100
AcDbLayerTableRecord
  2
INTF_BLANK
 70
0
 62
7
  6
CONTINUOUS
370
-3
390
F
  0
LAYER
  5
211
100
AcDbSymbolTableRecord
100
AcDbLayerTableRecord
  2
MAGENTA
 70
0
 62
7
  6
CONTINUOUS
370
-3
390
F
  0
LAYER
  5
212
100
AcDbSymbolTableRecord
100
AcDbLayerTableRecord
  2
NOTES
 70
0
 62
7
  6
CONTINUOUS
370
-3
390
F
  0
LAYER
  5
213
100
AcDbSymbolTableRecord
100
AcDbLayerTableRecord
  2
PART_REFERENCE_DIMENSIONS
 70
0
 62
7
  6
CONTINUOUS
370
-3
390
F
  0
LAYER
  5
214
100
AcDbSymbolTableRecord
100
AcDbLayerTableRecord
  2
PLATEDSURFAREA
 70
0
 62
7
  6
CONTINUOUS
370
-3
390
F
  0
LAYER
  5
215
100
AcDbSymbolTableRecord
100
AcDbLayerTableRecord
  2
POINTS
 70
0
 62
7
  6
CONTINUOUS
370
-3
390
F
  0
LAYER
  5
216
100
AcDbSymbolTableRecord
100
AcDbLayerTableRecord
  2
PROTRUSION_FEATURES
 70
0
 62
7
  6
CONTINUOUS
370
-3
390
F
  0
LAYER
  5
217
100
AcDbSymbolTableRecord
100
AcDbLayerTableRecord
  2
QUILT
 70
0
 62
7
  6
CONTINUOUS
370
-3
390
F
  0
LAYER
  5
218
100
AcDbSymbolTableRecord
100
AcDbLayerTableRecord
  2
REFERENCE_DIMENSIONS
 70
0
 62
7
  6
CONTINUOUS
370
-3
390
F
  0
LAYER
  5
219
100
AcDbSymbolTableRecord
100
AcDbLayerTableRecord
  2
SHELL
 70
0
 62
7
  6
CONTINUOUS
370
-3
390
F
  0
LAYER
  5
21A
100
AcDbSymbolTableRecord
100
AcDbLayerTableRecord
  2
WHITE
 70
0
 62
7
  6
CONTINUOUS
370
-3
390
F
  0
LAYER
  5
21B
100
AcDbSymbolTableRecord
100
AcDbLayerTableRecord
  2
XSEC_DATUMS
 70
0
 62
7
  6
CONTINUOUS
370
-3
390
F
  0
LAYER
  5
21C
100
AcDbSymbolTableRecord
100
AcDbLayerTableRecord
  2
___SHELL
 70
0
 62
7
  6
CONTINUOUS
370
-3
390
F
  0
ENDTAB
  0
TABLE
  2
STYLE
  5
3
100
AcDbSymbolTable
 70
1
  0
STYLE
  5
11
100
AcDbSymbolTableRecord
100
AcDbTextStyleTableRecord
  2
STANDARD
 70
0
 40
0.0
 41
0.8
 50
0.0
 71
0
 42
0.2
  3
txt
  4

  0
STYLE
  5
21D
100
AcDbSymbolTableRecord
100
AcDbTextStyleTableRecord
  2
TEXTSTYLE_1
 70
0
 40
0.0
 41
0.8
 50
0.0
 71
0
 42
0.2
  3
gdt
  4

  0
ENDTAB
  0
TABLE
  2
VIEW
  5
6
100
AcDbSymbolTable
 70
0
  0
ENDTAB
  0
TABLE
  2
UCS
  5
7
100
AcDbSymbolTable
 70
0
  0
ENDTAB
  0
TABLE
  2
APPID
  5
9
100
AcDbSymbolTable
 70
1
  0
APPID
  5
21E
100
AcDbSymbolTableRecord
100
AcDbRegAppTableRecord
  2
ACAD
 70
0
  0
ENDTAB
  0
TABLE
  2
BLOCK_RECORD
  5
1
100
AcDbSymbolTable
 70
0
  0
BLOCK_RECORD
  5
21F
100
AcDbSymbolTableRecord
100
AcDbBlockTableRecord
  2
*Model_Space
  0
BLOCK_RECORD
  5
220
100
AcDbSymbolTableRecord
100
AcDbBlockTableRecord
  2
*Paper_Space
  0
BLOCK_RECORD
  5
221
100
AcDbSymbolTableRecord
100
AcDbBlockTableRecord
  2
_FILLED
  0
ENDTAB
  0
TABLE
  2
DIMSTYLE
  5
A
100
AcDbSymbolTable
 70
1
100
AcDbDimStyleTable
 71
0
  0
DIMSTYLE
105
222
100
AcDbSymbolTableRecord
100
AcDbDimStyleTableRecord
  2
STANDARD
 70
0
  3

  4

 40
1.0
 41
0.1
 42
0.0625
 43
0.38
 44
0.125
 45
0.0
 46
0.0
 47
0.001
 48
0.001
140
0.08
141
0.09
142
0.0
143
25.4
144
1.0
145
0.0
146
1.0
147
0.09
 71
1.0
 72
0.0
 73
1
 74
1
 75
0
 76
0
 77
0
 78
4
 79
1
170
1
171
2
172
0
173
0
174
0
175
0
176
0
177
0
178
0
270
2
179
3
271
3
272
3
273
2
274
2
275
0
280
0
281
0
282
0
283
1
284
4
285
0
286
0
287
3
288
0
340
11
278
46
341
221
342
221
343
221
344
221
  0
ENDTAB
  0
ENDSEC
  0
SECTION
  2
BLOCKS
  0
BLOCK
  5
20
100
AcDbEntity
  8
0
100
AcDbBlockBegin
  2
*Model_Space
 70
0
 10
0.0
 20
0.0
 30
0.0
  3
*Model_Space
  1

  0
ENDBLK
  5
21
100
AcDbEntity
  8
0
100
AcDbBlockEnd
  0
BLOCK
  5
1C
100
AcDbEntity
  8
0
100
AcDbBlockBegin
  2
*Paper_Space
 70
0
 10
0.0
 20
0.0
 30
0.0
  3
*Paper_Space
  1

  0
ENDBLK
  5
1D
100
AcDbEntity
  8
0
100
AcDbBlockEnd
  0
BLOCK
  5
223
100
AcDbEntity
  8
0
100
AcDbBlockBegin
  2
_FILLED
 70
64
 10
0.0
 20
0.0
  3
_FILLED
  1

  0
SOLID
  5
224
100
AcDbEntity
  8
0
  6
BYBLOCK
 62
0
100
AcDbTrace
 10
0.0
 20
0.0
 11
-1.0
 21
0.2
 12
-1.0
 22
-0.2
 13
-1.0
 23
-0.2
  0
ENDBLK
  5
225
100
AcDbEntity
  8
0
  6
BYBLOCK
 62
0
100
AcDbBlockEnd
  0
ENDSEC
  0
SECTION
  2
ENTITIES
  0
MTEXT
  5
226
100
AcDbEntity
  8
0
100
AcDbMText
 62
2
  6
CONTINUOUS
  7
STANDARD
 71
3
 72
1
 10
3.1940993789
 20
1.5260481366
 30
0.0
 11
1.0
 21
0.0
 31
0.0
 73
2
 44
0.9
  1
SCALE  .500
 40
0.08
 41
0.704
  0
LINE
  5
227
100
AcDbEntity
  8
0
100
AcDbLine
 62
7
  6
CONTINUOUS
 10
0.0
 20
0.0
 11
0.0
 21
8.5
  0
LINE
  5
228
100
AcDbEntity
  8
0
100
AcDbLine
 62
7
  6
CONTINUOUS
 10
0.0
 20
0.0
 11
11.0
 21
0.0
  0
LINE
  5
229
100
AcDbEntity
  8
0
100
AcDbLine
 62
7
  6
CONTINUOUS
 10
0.0
 20
8.5
 11
11.0
 21
8.5
  0
LINE
  5
22A
100
AcDbEntity
  8
0
100
AcDbLine
 62
7
  6
CONTINUOUS
 10
11.0
 20
0.0
 11
11.0
 21
8.5
  0
LINE
  5
22B
100
AcDbEntity
  8
ALL_ASSEMBLY_MEMBERS
100
AcDbLine
 62
7
  6
CONTINUOUS
 10
1.568226001
 20
6.1521146777
 11
1.637601001
 21
6.3371146777
  0
LINE
  5
22C
100
AcDbEntity
  8
ALL_ASSEMBLY_MEMBERS
100
AcDbLine
 62
7
  6
CONTINUOUS
 10
1.568226001
 20
6.1505720526
 11
1.637601001
 21
6.3355720526
  0
LINE
  5
22D
100
AcDbEntity
  8
ALL_ASSEMBLY_MEMBERS
100
AcDbLine
 62
7
  6
CONTINUOUS
 10
1.7312509317
 20
6.2493656828
 11
1.741214747
 21
6.2631738903
  0
LINE
  5
22E
100
AcDbEntity
  8
ALL_ASSEMBLY_MEMBERS
100
AcDbLine
 62
7
  6
CONTINUOUS
 10
1.751214747
 20
6.2528024334
 11
1.741214747
 21
6.2389879967
  0
LINE
  5
22F
100
AcDbEntity
  8
ALL_ASSEMBLY_MEMBERS
100
AcDbLine
 62
7
  6
CONTINUOUS
 10
1.568226001
 20
6.1505720526
 11
1.637601001
 21
6.2272015616
  0
LINE
  5
230
100
AcDbEntity
  8
ALL_ASSEMBLY_MEMBERS
100
AcDbLine
 62
7
  6
CONTINUOUS
 10
1.568226001
 20
6.1468478261
 11
1.637601001
 21
6.2234773351
  0
LINE
  5
231
100
AcDbEntity
  8
ALL_ASSEMBLY_MEMBERS
100
AcDbLine
 62
7
  6
CONTINUOUS
 10
1.7312509317
 20
6.3943478261
 11
1.741214747
 21
6.4034978943
  0
LINE
  5
232
100
AcDbEntity
  8
ALL_ASSEMBLY_MEMBERS
100
AcDbLine
 62
7
  6
CONTINUOUS
 10
1.741214747
 20
6.3934797692
 11
1.751214747
 21
6.402644876
  0
LINE
  5
233
100
AcDbEntity
  8
ALL_ASSEMBLY_MEMBERS
100
AcDbLine
 62
7
  6
CONTINUOUS
 10
1.637601001
 20
5.9581235996
 11
1.637601001
 21
6.0664940905
  0
LINE
  5
234
100
AcDbEntity
  8
ALL_ASSEMBLY_MEMBERS
100
AcDbLine
 62
7
  6
CONTINUOUS
 10
1.637601001
 20
6.070218317
 11
1.637601001
 21
6.2234773351
  0
LINE
  5
235
100
AcDbEntity
  8
ALL_ASSEMBLY_MEMBERS
100
AcDbLine
 62
7
  6
CONTINUOUS
 10
1.637601001
 20
6.2272015616
 11
1.637601001
 21
6.3355720526
  0
LINE
  5
236
100
AcDbEntity
  8
ALL_ASSEMBLY_MEMBERS
100
AcDbLine
 62
7
  6
CONTINUOUS
 10
1.6516459387
 20
5.9468478261
 11
1.6516459387
 21
6.3468478261
  0
LINE
  5
237
100
AcDbEntity
  8
ALL_ASSEMBLY_MEMBERS
100
AcDbLine
 62
7
  6
CONTINUOUS
 10
1.6812509317
 20
6.3768478261
 11
1.6812509317
 21
5.9168478261
  0
LINE
  5
238
100
AcDbEntity
  8
ALL_ASSEMBLY_MEMBERS
100
AcDbLine
 62
7
  6
CONTINUOUS
 10
1.6962509317
 20
6.3918478261
 11
1.6962509317
 21
5.9018478261
  0
LINE
  5
239
100
AcDbEntity
  8
ALL_ASSEMBLY_MEMBERS
100
AcDbLine
 62
7
  6
CONTINUOUS
 10
1.7312509317
 20
5.8993478261
 11
1.7312509317
 21
6.3943478261
  0
LINE
  5
23A
100
AcDbEntity
  8
ALL_ASSEMBLY_MEMBERS
100
AcDbLine
 62
7
  6
CONTINUOUS
 10
1.741214747
 20
5.900215883
 11
1.741214747
 21
6.0305217619
  0
LINE
  5
23B
100
AcDbEntity
  8
ALL_ASSEMBLY_MEMBERS
100
AcDbLine
 62
7
  6
CONTINUOUS
 10
1.741214747
 20
6.0547076555
 11
1.741214747
 21
6.2389879967
  0
LINE
  5
23C
100
AcDbEntity
  8
ALL_ASSEMBLY_MEMBERS
100
AcDbLine
 62
7
  6
CONTINUOUS
 10
1.741214747
 20
6.2631738903
 11
1.741214747
 21
6.3934797692
  0
LINE
  5
23D
100
AcDbEntity
  8
ALL_ASSEMBLY_MEMBERS
100
AcDbLine
 62
7
  6
CONTINUOUS
 10
1.7312509317
 20
6.0443299694
 11
1.741214747
 21
6.0547076555
  0
LINE
  5
23E
100
AcDbEntity
  8
ALL_ASSEMBLY_MEMBERS
100
AcDbLine
 62
7
  6
CONTINUOUS
 10
1.741214747
 20
6.0305217619
 11
1.751214747
 21
6.0408932188
  0
LINE
  5
23F
100
AcDbEntity
  8
ALL_ASSEMBLY_MEMBERS
100
AcDbLine
 62
7
  6
CONTINUOUS
 10
3.2463509317
 20
6.7317036488
 11
2.7398509317
 21
6.4392757374
  0
LINE
  5
240
100
AcDbEntity
  8
ALL_ASSEMBLY_MEMBERS
100
AcDbLine
 62
7
  6
CONTINUOUS
 10
1.568226001
 20
6.1415809745
 11
1.637601001
 21
5.9565809745
  0
LINE
  5
241
100
AcDbEntity
  8
ALL_ASSEMBLY_MEMBERS
100
AcDbLine
 62
7
  6
CONTINUOUS
 10
1.568226001
 20
6.1431235996
 11
1.637601001
 21
5.9581235996
  0
LINE
  5
242
100
AcDbEntity
  8
ALL_ASSEMBLY_MEMBERS
100
AcDbLine
 62
7
  6
CONTINUOUS
 10
2.9032008634
 20
5.9893173085
 11
2.9123509317
 21
5.9992811238
  0
LINE
  5
243
100
AcDbEntity
  8
ALL_ASSEMBLY_MEMBERS
100
AcDbLine
 62
7
  6
CONTINUOUS
 10
3.2463509317
 20
6.4791186681
 11
2.9585959416
 21
6.3129832471
  0
LINE
  5
244
100
AcDbEntity
  8
ALL_ASSEMBLY_MEMBERS
100
AcDbLine
 62
7
  6
CONTINUOUS
 10
3.2463509317
 20
6.4355229607
 11
2.9963509317
 21
6.2911853934
  0
LINE
  5
245
100
AcDbEntity
  8
ALL_ASSEMBLY_MEMBERS
100
AcDbLine
 62
7
  6
CONTINUOUS
 10
2.7398509317
 20
6.4392757374
 11
2.7398509317
 21
6.318312393
  0
LINE
  5
246
100
AcDbEntity
  8
ALL_ASSEMBLY_MEMBERS
100
AcDbLine
 62
7
  6
CONTINUOUS
 10
2.7398509317
 20
5.9753832592
 11
2.7398509317
 21
5.8544199147
  0
LINE
  5
247
100
AcDbEntity
  8
ALL_ASSEMBLY_MEMBERS
100
AcDbLine
 62
7
  6
CONTINUOUS
 10
2.9032008634
 20
6.3043783437
 11
2.9032008634
 21
5.9893173085
  0
LINE
  5
248
100
AcDbEntity
  8
ALL_ASSEMBLY_MEMBERS
100
AcDbLine
 62
7
  6
CONTINUOUS
 10
2.9123509317
 20
6.2944145284
 11
2.9123509317
 21
5.9992811238
  0
LINE
  5
249
100
AcDbEntity
  8
ALL_ASSEMBLY_MEMBERS
100
AcDbLine
 62
7
  6
CONTINUOUS
 10
2.9585959416
 20
6.3129832471
 11
2.9585959416
 21
6.2999933749
  0
LINE
  5
24A
100
AcDbEntity
  8
ALL_ASSEMBLY_MEMBERS
100
AcDbLine
 62
7
  6
CONTINUOUS
 10
2.9585959416
 20
5.9937022773
 11
2.9585959416
 21
5.9807124051
  0
LINE
  5
24B
100
AcDbEntity
  8
ALL_ASSEMBLY_MEMBERS
100
AcDbLine
 62
7
  6
CONTINUOUS
 10
2.9623509317
 20
6.0068486432
 11
2.9623509317
 21
6.2868470089
  0
LINE
  5
24C
100
AcDbEntity
  8
ALL_ASSEMBLY_MEMBERS
100
AcDbLine
 62
7
  6
CONTINUOUS
 10
2.9873509317
 20
6.0555978261
 11
2.9873509317
 21
6.2380978261
  0
LWPOLYLINE
  5
24D
100
AcDbEntity
  8
ALL_ASSEMBLY_MEMBERS
100
AcDbPolyline
 62
7
  6
CONTINUOUS
 90
5
 70
0
 10
2.8008752866
 20
5.8896545357
 10
2.7864144926
 20
5.8813033992
 10
2.7714223293
 20
5.8726403598
 10
2.755899436
 20
5.8636762429
 10
2.7398509317
 20
5.8544199147
  0
LINE
  5
24E
100
AcDbEntity
  8
ALL_ASSEMBLY_MEMBERS
100
AcDbLine
 62
7
  6
CONTINUOUS
 10
2.8759629879
 20
5.933006559
 11
2.8531923753
 21
5.9198559986
  0
LWPOLYLINE
  5
24F
100
AcDbEntity
  8
ALL_ASSEMBLY_MEMBERS
100
AcDbPolyline
 62
7
  6
CONTINUOUS
 90
3
 70
0
 10
2.8409582481
 20
5.9127955453
 10
2.8281598667
 20
5.9054051021
 10
2.8147960052
 20
5.8976884078
  0
LINE
  5
250
100
AcDbEntity
  8
ALL_ASSEMBLY_MEMBERS
100
AcDbLine
 62
7
  6
CONTINUOUS
 10
3.6167388754
 20
6.3606890931
 11
3.6395094881
 21
6.3738396536
  0
LWPOLYLINE
  5
251
100
AcDbEntity
  8
ALL_ASSEMBLY_MEMBERS
100
AcDbPolyline
 62
7
  6
CONTINUOUS
 90
5
 70
0
 10
3.6918265767
 20
6.4040411165
 10
3.7062873707
 20
6.412392253
 10
3.7212795341
 20
6.4210552924
 10
3.7368024274
 20
6.4300194092
 10
3.7528509317
 20
6.4392757374
  0
LINE
  5
252
100
AcDbEntity
  8
ALL_ASSEMBLY_MEMBERS
100
AcDbLine
 62
7
  6
CONTINUOUS
 10
3.6517436153
 20
6.3809001068
 11
3.6779058581
 21
6.3960072443
  0
LINE
  5
253
100
AcDbEntity
  8
ALL_ASSEMBLY_MEMBERS
100
AcDbLine
 62
7
  6
CONTINUOUS
 10
2.9963509317
 20
6.0025102588
 11
2.7321483482
 21
5.8499728261
  0
LINE
  5
254
100
AcDbEntity
  8
ALL_ASSEMBLY_MEMBERS
100
AcDbLine
 62
7
  6
CONTINUOUS
 10
3.4963509317
 20
6.2911853934
 11
3.7605535152
 21
6.4437228261
  0
LINE
  5
255
100
AcDbEntity
  8
ALL_ASSEMBLY_MEMBERS
100
AcDbLine
 62
7
  6
CONTINUOUS
 10
2.9032008634
 20
6.0815965492
 11
2.9123509317
 21
6.0857236966
  0
LINE
  5
256
100
AcDbEntity
  8
ALL_ASSEMBLY_MEMBERS
100
AcDbLine
 62
7
  6
CONTINUOUS
 10
2.9963509317
 20
6.2911853934
 11
2.9963509317
 21
6.2380978261
  0
LINE
  5
257
100
AcDbEntity
  8
ALL_ASSEMBLY_MEMBERS
100
AcDbLine
 62
7
  6
CONTINUOUS
 10
2.9963509317
 20
6.0555978261
 11
2.9963509317
 21
6.0025102588
  0
LINE
  5
258
100
AcDbEntity
  8
ALL_ASSEMBLY_MEMBERS
100
AcDbLine
 62
7
  6
CONTINUOUS
 10
3.2463509317
 20
5.8581726915
 11
3.2463509317
 21
5.5530978261
  0
LINE
  5
259
100
AcDbEntity
  8
ALL_ASSEMBLY_MEMBERS
100
AcDbLine
 62
7
  6
CONTINUOUS
 10
3.2463509317
 20
6.4355229607
 11
3.2463509317
 21
6.7405978261
  0
LINE
  5
25A
100
AcDbEntity
  8
ALL_ASSEMBLY_MEMBERS
100
AcDbLine
 62
7
  6
CONTINUOUS
 10
3.2463497719
 20
5.8094364061
 11
3.2463499137
 21
5.8035802492
  0
LINE
  5
25B
100
AcDbEntity
  8
ALL_ASSEMBLY_MEMBERS
100
AcDbLine
 62
7
  6
CONTINUOUS
 10
3.2463520914
 20
6.484259246
 11
3.2463519497
 21
6.490115403
  0
LINE
  5
25C
100
AcDbEntity
  8
ALL_ASSEMBLY_MEMBERS
100
AcDbLine
 62
7
  6
CONTINUOUS
 10
3.2463504823
 20
5.7535577329
 11
3.2463509317
 21
5.7427872558
  0
LINE
  5
25D
100
AcDbEntity
  8
ALL_ASSEMBLY_MEMBERS
100
AcDbLine
 62
7
  6
CONTINUOUS
 10
3.246351381
 20
6.5401379193
 11
3.2463509317
 21
6.5509083963
  0
LWPOLYLINE
  5
25E
100
AcDbEntity
  8
ALL_ASSEMBLY_MEMBERS
100
AcDbPolyline
 62
7
  6
CONTINUOUS
 90
3
 70
0
 10
3.2463498108
 20
5.6787413232
 10
3.2463509317
 20
5.6639623782
 10
3.2463518542
 20
5.6485305875
  0
LINE
  5
25F
100
AcDbEntity
  8
ALL_ASSEMBLY_MEMBERS
100
AcDbLine
 62
7
  6
CONTINUOUS
 10
3.2463509317
 20
5.706339841
 11
3.2463523426
 21
5.6928666148
  0
LWPOLYLINE
  5
260
100
AcDbEntity
  8
ALL_ASSEMBLY_MEMBERS
100
AcDbPolyline
 62
7
  6
CONTINUOUS
 90
5
 70
0
 10
3.2463490323
 20
5.6324579555
 10
3.2463509317
 20
5.6157589723
 10
3.2463572622
 20
5.5984438583
 10
3.2463589685
 20
5.5805185799
 10
3.2463509317
 20
5.5619920034
  0
LINE
  5
261
100
AcDbEntity
  8
ALL_ASSEMBLY_MEMBERS
100
AcDbLine
 62
7
  6
CONTINUOUS
 10
3.2463509317
 20
5.7730215926
 11
3.2463520586
 21
5.7636343595
  0
LWPOLYLINE
  5
262
100
AcDbEntity
  8
ALL_ASSEMBLY_MEMBERS
100
AcDbPolyline
 62
7
  6
CONTINUOUS
 90
3
 70
0
 10
3.2463520525
 20
6.614954329
 10
3.2463509317
 20
6.629733274
 10
3.2463500091
 20
6.6451650647
  0
LINE
  5
263
100
AcDbEntity
  8
ALL_ASSEMBLY_MEMBERS
100
AcDbLine
 62
7
  6
CONTINUOUS
 10
3.2463509317
 20
6.5873558112
 11
3.2463495208
 21
6.6008290374
  0
LINE
  5
264
100
AcDbEntity
  8
ALL_ASSEMBLY_MEMBERS
100
AcDbLine
 62
7
  6
CONTINUOUS
 10
3.2463509317
 20
6.5206740596
 11
3.2463498048
 21
6.5300612927
  0
LWPOLYLINE
  5
265
100
AcDbEntity
  8
ALL_ASSEMBLY_MEMBERS
100
AcDbPolyline
 62
7
  6
CONTINUOUS
 90
5
 70
0
 10
3.246352831
 20
6.6612376966
 10
3.2463509317
 20
6.6779366799
 10
3.2463446012
 20
6.6952517939
 10
3.2463428949
 20
6.7131770723
 10
3.2463509317
 20
6.7317036488
  0
LINE
  5
266
100
AcDbEntity
  8
ALL_ASSEMBLY_MEMBERS
100
AcDbLine
 62
7
  6
CONTINUOUS
 10
3.2463509317
 20
5.8581726915
 11
3.4963509317
 21
6.0025102588
  0
LINE
  5
267
100
AcDbEntity
  8
ALL_ASSEMBLY_MEMBERS
100
AcDbLine
 62
7
  6
CONTINUOUS
 10
3.2463509317
 20
5.8145769841
 11
3.5341059218
 21
5.9807124051
  0
LINE
  5
268
100
AcDbEntity
  8
ALL_ASSEMBLY_MEMBERS
100
AcDbLine
 62
7
  6
CONTINUOUS
 10
5.6138509317
 20
2.3243478261
 11
4.8788509317
 21
2.3243478261
  0
LINE
  5
269
100
AcDbEntity
  8
ALL_ASSEMBLY_MEMBERS
100
AcDbLine
 62
7
  6
CONTINUOUS
 10
1.7312509317
 20
6.0443299694
 11
1.741214747
 21
6.0305217619
  0
LINE
  5
26A
100
AcDbEntity
  8
ALL_ASSEMBLY_MEMBERS
100
AcDbLine
 62
7
  6
CONTINUOUS
 10
3.4963509317
 20
6.2911853934
 11
3.4963509317
 21
6.0025102588
  0
LINE
  5
26B
100
AcDbEntity
  8
ALL_ASSEMBLY_MEMBERS
100
AcDbLine
 62
7
  6
CONTINUOUS
 10
3.5341059218
 20
5.9807124051
 11
3.5341059218
 21
6.3129832471
  0
LINE
  5
26C
100
AcDbEntity
  8
ALL_ASSEMBLY_MEMBERS
100
AcDbLine
 62
7
  6
CONTINUOUS
 10
3.2463509317
 20
5.5619920034
 11
3.7528509317
 21
5.8544199147
  0
LINE
  5
26D
100
AcDbEntity
  8
ALL_ASSEMBLY_MEMBERS
100
AcDbLine
 62
7
  6
CONTINUOUS
 10
5.6138509317
 20
2.6468478261
 11
4.8788509317
 21
2.6468478261
  0
LINE
  5
26E
100
AcDbEntity
  8
ALL_ASSEMBLY_MEMBERS
100
AcDbLine
 62
7
  6
CONTINUOUS
 10
1.751214747
 20
6.0408932188
 11
1.741214747
 21
6.0547076555
  0
LINE
  5
26F
100
AcDbEntity
  8
ALL_ASSEMBLY_MEMBERS
100
AcDbLine
 62
7
  6
CONTINUOUS
 10
3.7528509317
 20
5.8544199147
 11
3.7528509317
 21
6.4392757374
  0
LINE
  5
270
100
AcDbEntity
  8
ALL_ASSEMBLY_MEMBERS
100
AcDbLine
 62
7
  6
CONTINUOUS
 10
1.568226001
 20
6.1431235996
 11
1.637601001
 21
6.0664940905
  0
LINE
  5
271
100
AcDbEntity
  8
ALL_ASSEMBLY_MEMBERS
100
AcDbLine
 62
7
  6
CONTINUOUS
 10
1.568226001
 20
6.1468478261
 11
1.637601001
 21
6.070218317
  0
LINE
  5
272
100
AcDbEntity
  8
ALL_ASSEMBLY_MEMBERS
100
AcDbLine
 62
7
  6
CONTINUOUS
 10
5.9035816421
 20
3.1468473213
 11
5.9240476069
 21
3.146847821
  0
LINE
  5
273
100
AcDbEntity
  8
ALL_ASSEMBLY_MEMBERS
100
AcDbLine
 62
7
  6
CONTINUOUS
 10
4.5463512669
 20
3.1468478261
 11
4.8713509317
 21
3.1468478261
  0
LINE
  5
274
100
AcDbEntity
  8
ALL_ASSEMBLY_MEMBERS
100
AcDbLine
 62
7
  6
CONTINUOUS
 10
5.6213509317
 20
3.1468478261
 11
5.9463505965
 21
3.1468478261
  0
LWPOLYLINE
  5
275
100
AcDbEntity
  8
ALL_ASSEMBLY_MEMBERS
100
AcDbPolyline
 62
7
  6
CONTINUOUS
 90
3
 70
0
 10
4.6394830919
 20
3.146845369
 10
4.6245333136
 20
3.1468463407
 10
4.5686542453
 20
3.1468478304
  0
LWPOLYLINE
  5
276
100
AcDbEntity
  8
ALL_ASSEMBLY_MEMBERS
100
AcDbPolyline
 62
7
  6
CONTINUOUS
 90
3
 70
0
 10
5.8532187632
 20
3.146850284
 10
5.8681685354
 20
3.1468493121
 10
5.9035816421
 20
3.1468473213
  0
LINE
  5
277
100
AcDbEntity
  8
ALL_ASSEMBLY_MEMBERS
100
AcDbLine
 62
7
  6
CONTINUOUS
 10
1.741214747
 20
5.900215883
 11
1.751214747
 21
5.8910507762
  0
LINE
  5
278
100
AcDbEntity
  8
ALL_ASSEMBLY_MEMBERS
100
AcDbLine
 62
7
  6
CONTINUOUS
 10
1.7312509317
 20
5.8993478261
 11
1.741214747
 21
5.8901977578
  0
LINE
  5
279
100
AcDbEntity
  8
ALL_ASSEMBLY_MEMBERS
100
AcDbLine
 62
7
  6
CONTINUOUS
 10
1.741214747
 20
6.2631738903
 11
1.751214747
 21
6.2528024334
  0
LINE
  5
27A
100
AcDbEntity
  8
ALL_ASSEMBLY_MEMBERS
100
AcDbLine
 62
7
  6
CONTINUOUS
 10
1.7312509317
 20
6.2493656828
 11
1.741214747
 21
6.2389879967
  0
LINE
  5
27B
100
AcDbEntity
  8
ALL_ASSEMBLY_MEMBERS
100
AcDbLine
 62
7
  6
CONTINUOUS
 10
4.6540361408
 20
3.1443619709
 11
4.6526009317
 21
3.1468478261
  0
LINE
  5
27C
100
AcDbEntity
  8
ALL_ASSEMBLY_MEMBERS
100
AcDbLine
 62
7
  6
CONTINUOUS
 10
7.2463509317
 20
6.7317036488
 11
6.7398509317
 21
6.4392757374
  0
LINE
  5
27D
100
AcDbEntity
  8
ALL_ASSEMBLY_MEMBERS
100
AcDbLine
 62
7
  6
CONTINUOUS
 10
5.4338509317
 20
3.4716073525
 11
5.0588509317
 21
3.4716073525
  0
LINE
  5
27E
100
AcDbEntity
  8
ALL_ASSEMBLY_MEMBERS
100
AcDbLine
 62
7
  6
CONTINUOUS
 10
5.4494759317
 20
3.4986706464
 11
5.0432259317
 21
3.4986706464
  0
LINE
  5
27F
100
AcDbEntity
  8
ALL_ASSEMBLY_MEMBERS
100
AcDbLine
 62
7
  6
CONTINUOUS
 10
5.4807259317
 20
3.5527972341
 11
5.0119759317
 21
3.5527972341
  0
LINE
  5
280
100
AcDbEntity
  8
ALL_ASSEMBLY_MEMBERS
100
AcDbLine
 62
7
  6
CONTINUOUS
 10
4.9523463497
 20
3.6610504096
 11
4.9494759317
 21
3.6610504096
  0
LINE
  5
281
100
AcDbEntity
  8
ALL_ASSEMBLY_MEMBERS
100
AcDbLine
 62
7
  6
CONTINUOUS
 10
5.5403555133
 20
3.6610504096
 11
5.5432259317
 21
3.6610504096
  0
LINE
  5
282
100
AcDbEntity
  8
ALL_ASSEMBLY_MEMBERS
100
AcDbLine
 62
7
  6
CONTINUOUS
 10
4.7776009317
 20
3.1468478261
 11
4.8755527727
 21
2.9771902607
  0
LINE
  5
283
100
AcDbEntity
  8
ALL_ASSEMBLY_MEMBERS
100
AcDbLine
 62
7
  6
CONTINUOUS
 10
4.8401009317
 20
3.1468478261
 11
4.8730365804
 21
3.0898016092
  0
LINE
  5
284
100
AcDbEntity
  8
ALL_ASSEMBLY_MEMBERS
100
AcDbLine
 62
7
  6
CONTINUOUS
 10
7.2463509317
 20
6.4791186681
 11
6.9585959416
 21
6.3129832471
  0
LINE
  5
285
100
AcDbEntity
  8
ALL_ASSEMBLY_MEMBERS
100
AcDbLine
 62
7
  6
CONTINUOUS
 10
7.2463509317
 20
6.4355229607
 11
6.9963509317
 21
6.2911853934
  0
LINE
  5
286
100
AcDbEntity
  8
ALL_ASSEMBLY_MEMBERS
100
AcDbLine
 62
7
  6
CONTINUOUS
 10
7.5895009999
 20
6.212099103
 11
7.5803509317
 21
6.2079719555
  0
LINE
  5
287
100
AcDbEntity
  8
ALL_ASSEMBLY_MEMBERS
100
AcDbLine
 62
7
  6
CONTINUOUS
 10
4.8963510993
 20
3.7530653185
 11
5.0588509317
 21
3.4716073525
  0
LWPOLYLINE
  5
288
100
AcDbEntity
  8
ALL_ASSEMBLY_MEMBERS
100
AcDbPolyline
 62
7
  6
CONTINUOUS
 90
5
 70
0
 10
4.9075025848
 20
3.7337503704
 10
4.9177351315
 20
3.7160260798
 10
4.9270487396
 20
3.6998954457
 10
4.935443409
 20
3.6853584226
 10
4.9429191397
 20
3.6724120207
  0
LINE
  5
289
100
AcDbEntity
  8
ALL_ASSEMBLY_MEMBERS
100
AcDbLine
 62
7
  6
CONTINUOUS
 10
4.8788502507
 20
2.651176487
 11
4.8788509317
 21
2.3243478261
  0
LINE
  5
28A
100
AcDbEntity
  8
ALL_ASSEMBLY_MEMBERS
100
AcDbLine
 62
7
  6
CONTINUOUS
 10
6.9963509317
 20
6.0025102588
 11
6.7321483482
 21
5.8499728261
  0
LINE
  5
28B
100
AcDbEntity
  8
ALL_ASSEMBLY_MEMBERS
100
AcDbLine
 62
7
  6
CONTINUOUS
 10
7.4963509317
 20
6.2911853934
 11
7.7605535152
 21
6.4437228261
  0
LINE
  5
28C
100
AcDbEntity
  8
ALL_ASSEMBLY_MEMBERS
100
AcDbLine
 62
7
  6
CONTINUOUS
 10
6.9541434906
 20
5.9781431205
 11
6.9490719808
 21
5.9752149193
  0
LINE
  5
28D
100
AcDbEntity
  8
ALL_ASSEMBLY_MEMBERS
100
AcDbLine
 62
7
  6
CONTINUOUS
 10
7.5385583727
 20
6.3155525317
 11
7.5436298826
 21
6.3184807329
  0
LINE
  5
28E
100
AcDbEntity
  8
ALL_ASSEMBLY_MEMBERS
100
AcDbLine
 62
7
  6
CONTINUOUS
 10
6.9057514953
 20
5.9502031687
 11
6.8964242132
 21
5.944817541
  0
LINE
  5
28F
100
AcDbEntity
  8
ALL_ASSEMBLY_MEMBERS
100
AcDbLine
 62
7
  6
CONTINUOUS
 10
7.5869503681
 20
6.3434924835
 11
7.5962776502
 21
6.3488781112
  0
LWPOLYLINE
  5
290
100
AcDbEntity
  8
ALL_ASSEMBLY_MEMBERS
100
AcDbPolyline
 62
7
  6
CONTINUOUS
 90
3
 70
0
 10
6.8409582481
 20
5.9127955453
 10
6.8281598667
 20
5.9054051021
 10
6.8147960052
 20
5.8976884078
  0
LINE
  5
291
100
AcDbEntity
  8
ALL_ASSEMBLY_MEMBERS
100
AcDbLine
 62
7
  6
CONTINUOUS
 10
6.864859826
 20
5.9265938335
 11
6.8531923753
 21
5.9198559986
  0
LWPOLYLINE
  5
292
100
AcDbEntity
  8
ALL_ASSEMBLY_MEMBERS
100
AcDbPolyline
 62
7
  6
CONTINUOUS
 90
5
 70
0
 10
6.8008752866
 20
5.8896545357
 10
6.7864144926
 20
5.8813033992
 10
6.7714223293
 20
5.8726403598
 10
6.755899436
 20
5.8636762429
 10
6.7398509317
 20
5.8544199147
  0
LWPOLYLINE
  5
293
100
AcDbEntity
  8
ALL_ASSEMBLY_MEMBERS
100
AcDbPolyline
 62
7
  6
CONTINUOUS
 90
3
 70
0
 10
7.6517436153
 20
6.3809001068
 10
7.6645419967
 20
6.38829055
 10
7.6779058581
 20
6.3960072443
  0
LINE
  5
294
100
AcDbEntity
  8
ALL_ASSEMBLY_MEMBERS
100
AcDbLine
 62
7
  6
CONTINUOUS
 10
6.9226079169
 20
5.9599347093
 11
6.914478898
 21
5.9552401169
  0
LINE
  5
295
100
AcDbEntity
  8
ALL_ASSEMBLY_MEMBERS
100
AcDbLine
 62
7
  6
CONTINUOUS
 10
7.6278420374
 20
6.3671018186
 11
7.6395094881
 21
6.3738396536
  0
LWPOLYLINE
  5
296
100
AcDbEntity
  8
ALL_ASSEMBLY_MEMBERS
100
AcDbPolyline
 62
7
  6
CONTINUOUS
 90
5
 70
0
 10
7.6918265767
 20
6.4040411165
 10
7.7062873707
 20
6.412392253
 10
7.7212795341
 20
6.4210552924
 10
7.7368024274
 20
6.4300194092
 10
7.7528509317
 20
6.4392757374
  0
LINE
  5
297
100
AcDbEntity
  8
ALL_ASSEMBLY_MEMBERS
100
AcDbLine
 62
7
  6
CONTINUOUS
 10
7.5700939465
 20
6.3337609428
 11
7.5782229654
 21
6.3384555353
  0
LINE
  5
298
100
AcDbEntity
  8
ALL_ASSEMBLY_MEMBERS
100
AcDbLine
 62
7
  6
CONTINUOUS
 10
2.9032008634
 20
6.3043783437
 11
2.9123509317
 21
6.2944145284
  0
LINE
  5
299
100
AcDbEntity
  8
ALL_ASSEMBLY_MEMBERS
100
AcDbLine
 62
7
  6
CONTINUOUS
 10
5.6213509317
 20
3.1468478261
 11
5.4338509317
 21
3.4716073525
  0
LINE
  5
29A
100
AcDbEntity
  8
ALL_ASSEMBLY_MEMBERS
100
AcDbLine
 62
7
  6
CONTINUOUS
 10
5.6526009317
 20
3.1468478261
 11
5.4494759317
 21
3.4986706464
  0
LINE
  5
29B
100
AcDbEntity
  8
ALL_ASSEMBLY_MEMBERS
100
AcDbLine
 62
7
  6
CONTINUOUS
 10
5.7151009317
 20
3.1468478261
 11
5.4807259317
 21
3.5527972341
  0
LINE
  5
29C
100
AcDbEntity
  8
ALL_ASSEMBLY_MEMBERS
100
AcDbLine
 62
7
  6
CONTINUOUS
 10
5.0626009317
 20
2.6468478261
 11
5.0626009317
 21
2.3243478261
  0
LINE
  5
29D
100
AcDbEntity
  8
ALL_ASSEMBLY_MEMBERS
100
AcDbLine
 62
7
  6
CONTINUOUS
 10
7.2463509317
 20
5.8581726915
 11
7.4963509317
 21
6.0025102588
  0
LINE
  5
29E
100
AcDbEntity
  8
ALL_ASSEMBLY_MEMBERS
100
AcDbLine
 62
7
  6
CONTINUOUS
 10
7.2463509317
 20
5.8145769841
 11
7.5341059218
 21
5.9807124051
  0
LINE
  5
29F
100
AcDbEntity
  8
ALL_ASSEMBLY_MEMBERS
100
AcDbLine
 62
7
  6
CONTINUOUS
 10
2.7398509317
 20
5.8544199147
 11
3.2463509317
 21
5.5619920034
  0
LINE
  5
2A0
100
AcDbEntity
  8
ALL_ASSEMBLY_MEMBERS
100
AcDbLine
 62
7
  6
CONTINUOUS
 10
5.5446611407
 20
3.6585645547
 11
5.5432259317
 21
3.6610504096
  0
LINE
  5
2A1
100
AcDbEntity
  8
ALL_ASSEMBLY_MEMBERS
100
AcDbLine
 62
7
  6
CONTINUOUS
 10
5.8386657225
 20
3.1493336813
 11
5.8401009317
 21
3.1468478261
  0
LINE
  5
2A2
100
AcDbEntity
  8
ALL_ASSEMBLY_MEMBERS
100
AcDbLine
 62
7
  6
CONTINUOUS
 10
5.4301009317
 20
2.6468478261
 11
5.4301009317
 21
2.3243478261
  0
LINE
  5
2A3
100
AcDbEntity
  8
ALL_ASSEMBLY_MEMBERS
100
AcDbLine
 62
7
  6
CONTINUOUS
 10
4.6540361407
 20
3.149333681
 11
4.6526009317
 21
3.1468478261
  0
LINE
  5
2A4
100
AcDbEntity
  8
ALL_ASSEMBLY_MEMBERS
100
AcDbLine
 62
7
  6
CONTINUOUS
 10
4.9480407225
 20
3.6585645544
 11
4.9494759317
 21
3.6610504096
  0
LINE
  5
2A5
100
AcDbEntity
  8
ALL_ASSEMBLY_MEMBERS
100
AcDbLine
 62
7
  6
CONTINUOUS
 10
5.0119759317
 20
3.5527972341
 11
4.7776009317
 21
3.1468478261
  0
LINE
  5
2A6
100
AcDbEntity
  8
ALL_ASSEMBLY_MEMBERS
100
AcDbLine
 62
7
  6
CONTINUOUS
 10
7.2463509317
 20
5.5619920034
 11
7.7528509317
 21
5.8544199147
  0
LINE
  5
2A7
100
AcDbEntity
  8
ALL_ASSEMBLY_MEMBERS
100
AcDbLine
 62
7
  6
CONTINUOUS
 10
2.9585959416
 20
5.9807124051
 11
3.2463509317
 21
5.8145769841
  0
LINE
  5
2A8
100
AcDbEntity
  8
ALL_ASSEMBLY_MEMBERS
100
AcDbLine
 62
7
  6
CONTINUOUS
 10
2.9963509317
 20
6.0025102588
 11
3.2463509317
 21
5.8581726915
  0
LINE
  5
2A9
100
AcDbEntity
  8
ALL_ASSEMBLY_MEMBERS
100
AcDbLine
 62
7
  6
CONTINUOUS
 10
5.6138515344
 20
2.6509199726
 11
5.6138509317
 21
2.3243478261
  0
LINE
  5
2AA
100
AcDbEntity
  8
ALL_ASSEMBLY_MEMBERS
100
AcDbLine
 62
7
  6
CONTINUOUS
 10
5.0432259317
 20
3.4986706464
 11
4.8401009317
 21
3.1468478261
  0
LINE
  5
2AB
100
AcDbEntity
  8
ALL_ASSEMBLY_MEMBERS
100
AcDbLine
 62
7
  6
CONTINUOUS
 10
5.0588509317
 20
3.4716073525
 11
4.8713509317
 21
3.1468478261
  0
LINE
  5
2AC
100
AcDbEntity
  8
ALL_ASSEMBLY_MEMBERS
100
AcDbLine
 62
7
  6
CONTINUOUS
 10
7.5895009999
 20
6.3043783437
 11
7.5803509317
 21
6.2944145284
  0
LINE
  5
2AD
100
AcDbEntity
  8
ALL_ASSEMBLY_MEMBERS
100
AcDbLine
 62
7
  6
CONTINUOUS
 10
2.9032008634
 20
6.212099103
 11
2.9123509317
 21
6.2079719555
  0
LINE
  5
2AE
100
AcDbEntity
  8
ALL_ASSEMBLY_MEMBERS
100
AcDbLine
 62
7
  6
CONTINUOUS
 10
3.4963509317
 20
6.0025102588
 11
3.7605535152
 21
5.8499728261
  0
LINE
  5
2AF
100
AcDbEntity
  8
ALL_ASSEMBLY_MEMBERS
100
AcDbLine
 62
7
  6
CONTINUOUS
 10
2.9963509317
 20
6.2911853934
 11
2.7321483482
 21
6.4437228261
  0
LINE
  5
2B0
100
AcDbEntity
  8
ALL_ASSEMBLY_MEMBERS
100
AcDbLine
 62
7
  6
CONTINUOUS
 10
3.538557213
 20
5.9781411117
 11
3.5436288645
 21
5.975213156
  0
LINE
  5
2B1
100
AcDbEntity
  8
ALL_ASSEMBLY_MEMBERS
100
AcDbLine
 62
7
  6
CONTINUOUS
 10
2.9541446504
 20
6.3155545404
 11
2.9490729988
 21
6.3184824962
  0
LINE
  5
2B2
100
AcDbEntity
  8
ALL_ASSEMBLY_MEMBERS
100
AcDbLine
 62
7
  6
CONTINUOUS
 10
3.5869499187
 20
5.9502023903
 11
3.5962776502
 21
5.944817541
  0
LINE
  5
2B3
100
AcDbEntity
  8
ALL_ASSEMBLY_MEMBERS
100
AcDbLine
 62
7
  6
CONTINUOUS
 10
2.9057519446
 20
6.3434932618
 11
2.8964242132
 21
6.3488781112
  0
LWPOLYLINE
  5
2B4
100
AcDbEntity
  8
ALL_ASSEMBLY_MEMBERS
100
AcDbPolyline
 62
7
  6
CONTINUOUS
 90
3
 70
0
 10
3.6517424944
 20
5.912793604
 10
3.6645419967
 20
5.9054051021
 10
3.6779067807
 20
5.8976900058
  0
LINE
  5
2B5
100
AcDbEntity
  8
ALL_ASSEMBLY_MEMBERS
100
AcDbLine
 62
7
  6
CONTINUOUS
 10
3.6278420374
 20
5.9265938335
 11
3.6395108989
 21
5.9198584423
  0
LWPOLYLINE
  5
2B6
100
AcDbEntity
  8
ALL_ASSEMBLY_MEMBERS
100
AcDbPolyline
 62
7
  6
CONTINUOUS
 90
5
 70
0
 10
3.6918246773
 20
5.8896512459
 10
3.7062873707
 20
5.8813033992
 10
3.7212858646
 20
5.8726513246
 10
3.7368104642
 20
5.8636901631
 10
3.7528509317
 20
5.8544199147
  0
LWPOLYLINE
  5
2B7
100
AcDbEntity
  8
ALL_ASSEMBLY_MEMBERS
100
AcDbPolyline
 62
7
  6
CONTINUOUS
 90
3
 70
0
 10
2.8409593689
 20
6.3809020482
 10
2.8281598667
 20
6.38829055
 10
2.8147950826
 20
6.3960056464
  0
LINE
  5
2B8
100
AcDbEntity
  8
ALL_ASSEMBLY_MEMBERS
100
AcDbLine
 62
7
  6
CONTINUOUS
 10
3.5700939465
 20
5.9599347093
 11
3.5782240923
 21
5.9552420687
  0
LINE
  5
2B9
100
AcDbEntity
  8
ALL_ASSEMBLY_MEMBERS
100
AcDbLine
 62
7
  6
CONTINUOUS
 10
2.864859826
 20
6.3671018186
 11
2.8531909644
 21
6.3738372099
  0
LWPOLYLINE
  5
2BA
100
AcDbEntity
  8
ALL_ASSEMBLY_MEMBERS
100
AcDbPolyline
 62
7
  6
CONTINUOUS
 90
5
 70
0
 10
2.800877186
 20
6.4040444063
 10
2.7864144926
 20
6.412392253
 10
2.7714159987
 20
6.4210443276
 10
2.7558913992
 20
6.4300054891
 10
2.7398509317
 20
6.4392757374
  0
LINE
  5
2BB
100
AcDbEntity
  8
ALL_ASSEMBLY_MEMBERS
100
AcDbLine
 62
7
  6
CONTINUOUS
 10
2.9226079169
 20
6.3337609428
 11
2.9144777711
 21
6.3384535835
  0
LINE
  5
2BC
100
AcDbEntity
  8
ALL_ASSEMBLY_MEMBERS
100
AcDbLine
 62
7
  6
CONTINUOUS
 10
5.5749667108
 20
3.7160260398
 11
5.5851992654
 21
3.7337503432
  0
LINE
  5
2BD
100
AcDbEntity
  8
ALL_ASSEMBLY_MEMBERS
100
AcDbLine
 62
7
  6
CONTINUOUS
 10
5.4338509317
 20
3.4716073525
 11
5.5963507641
 21
3.7530653185
  0
LWPOLYLINE
  5
2BE
100
AcDbEntity
  8
ALL_ASSEMBLY_MEMBERS
100
AcDbPolyline
 62
7
  6
CONTINUOUS
 90
3
 70
0
 10
5.5497827105
 20
3.6724120024
 10
5.5572584333
 20
3.6853583897
 10
5.5749667108
 20
3.7160260398
  0
LINE
  5
2BF
100
AcDbEntity
  8
ALL_ASSEMBLY_MEMBERS
100
AcDbLine
 62
7
  6
CONTINUOUS
 10
3.4963509317
 20
6.2911853934
 11
3.2463509317
 21
6.4355229607
  0
LINE
  5
2C0
100
AcDbEntity
  8
ALL_ASSEMBLY_MEMBERS
100
AcDbLine
 62
7
  6
CONTINUOUS
 10
3.5341059218
 20
6.3129832471
 11
3.2463509317
 21
6.4791186681
  0
LINE
  5
2C1
100
AcDbEntity
  8
ALL_ASSEMBLY_MEMBERS
100
AcDbLine
 62
7
  6
CONTINUOUS
 10
5.619665283
 20
3.0898016092
 11
5.6526009317
 21
3.1468478261
  0
LINE
  5
2C2
100
AcDbEntity
  8
ALL_ASSEMBLY_MEMBERS
100
AcDbLine
 62
7
  6
CONTINUOUS
 10
5.6171490906
 20
2.9771902607
 11
5.7151009317
 21
3.1468478261
  0
LINE
  5
2C3
100
AcDbEntity
  8
ALL_ASSEMBLY_MEMBERS
100
AcDbLine
 62
7
  6
CONTINUOUS
 10
3.7528509317
 20
6.4392757374
 11
3.2463509317
 21
6.7317036488
  0
LINE
  5
2C4
100
AcDbEntity
  8
ALL_ASSEMBLY_MEMBERS
100
AcDbLine
 62
7
  6
CONTINUOUS
 10
5.8386657227
 20
3.1443619711
 11
5.8401009317
 21
3.1468478261
  0
LINE
  5
2C5
100
AcDbEntity
  8
ALL_ASSEMBLY_MEMBERS
100
AcDbLine
 62
7
  6
CONTINUOUS
 10
8.7614509317
 20
6.2493656828
 11
8.7514871163
 21
6.2389879967
  0
LINE
  5
2C6
100
AcDbEntity
  8
ALL_ASSEMBLY_MEMBERS
100
AcDbLine
 62
7
  6
CONTINUOUS
 10
8.7514871163
 20
6.2631738903
 11
8.7414871163
 21
6.2528024334
  0
LINE
  5
2C7
100
AcDbEntity
  8
ALL_ASSEMBLY_MEMBERS
100
AcDbLine
 62
7
  6
CONTINUOUS
 10
8.7614509317
 20
5.8993478261
 11
8.7514871163
 21
5.8901977578
  0
LINE
  5
2C8
100
AcDbEntity
  8
ALL_ASSEMBLY_MEMBERS
100
AcDbLine
 62
7
  6
CONTINUOUS
 10
8.7514871163
 20
5.900215883
 11
8.7414871163
 21
5.8910507762
  0
LINE
  5
2C9
100
AcDbEntity
  8
ALL_ASSEMBLY_MEMBERS
100
AcDbLine
 62
7
  6
CONTINUOUS
 10
8.7964509317
 20
5.9018478261
 11
8.7614509317
 21
5.9018478261
  0
LINE
  5
2CA
100
AcDbEntity
  8
ALL_ASSEMBLY_MEMBERS
100
AcDbLine
 62
7
  6
CONTINUOUS
 10
1.6962509317
 20
5.9018478261
 11
1.7312509317
 21
5.9018478261
  0
LINE
  5
2CB
100
AcDbEntity
  8
ALL_ASSEMBLY_MEMBERS
100
AcDbLine
 62
7
  6
CONTINUOUS
 10
8.8410559247
 20
5.9468478261
 11
8.8114509317
 21
5.9468478261
  0
LINE
  5
2CC
100
AcDbEntity
  8
ALL_ASSEMBLY_MEMBERS
100
AcDbLine
 62
7
  6
CONTINUOUS
 10
1.6516459387
 20
5.9468478261
 11
1.6812509317
 21
5.9468478261
  0
LINE
  5
2CD
100
AcDbEntity
  8
ALL_ASSEMBLY_MEMBERS
100
AcDbLine
 62
7
  6
CONTINUOUS
 10
8.8410559247
 20
5.9512412244
 11
8.8114509317
 21
5.9512412244
  0
LINE
  5
2CE
100
AcDbEntity
  8
ALL_ASSEMBLY_MEMBERS
100
AcDbLine
 62
7
  6
CONTINUOUS
 10
1.6516459387
 20
5.9512412244
 11
1.6812509317
 21
5.9512412244
  0
LINE
  5
2CF
100
AcDbEntity
  8
ALL_ASSEMBLY_MEMBERS
100
AcDbLine
 62
7
  6
CONTINUOUS
 10
6.7398509317
 20
6.4392757374
 11
6.7398509317
 21
5.8544199147
  0
LINE
  5
2D0
100
AcDbEntity
  8
ALL_ASSEMBLY_MEMBERS
100
AcDbLine
 62
7
  6
CONTINUOUS
 10
6.9585959416
 20
6.3129832471
 11
6.9585959416
 21
5.9807124051
  0
LINE
  5
2D1
100
AcDbEntity
  8
ALL_ASSEMBLY_MEMBERS
100
AcDbLine
 62
7
  6
CONTINUOUS
 10
6.9963509317
 20
6.2911853934
 11
6.9963509317
 21
6.0025102588
  0
LINE
  5
2D2
100
AcDbEntity
  8
ALL_ASSEMBLY_MEMBERS
100
AcDbLine
 62
7
  6
CONTINUOUS
 10
8.9244758623
 20
6.1468478261
 11
8.8551008623
 21
6.070218317
  0
LINE
  5
2D3
100
AcDbEntity
  8
ALL_ASSEMBLY_MEMBERS
100
AcDbLine
 62
7
  6
CONTINUOUS
 10
8.9244758623
 20
6.1431235996
 11
8.8551008623
 21
6.0664940905
  0
LINE
  5
2D4
100
AcDbEntity
  8
ALL_ASSEMBLY_MEMBERS
100
AcDbLine
 62
7
  6
CONTINUOUS
 10
8.7614509317
 20
6.3943478261
 11
8.7514871163
 21
6.3934797692
  0
LINE
  5
2D5
100
AcDbEntity
  8
ALL_ASSEMBLY_MEMBERS
100
AcDbLine
 62
7
  6
CONTINUOUS
 10
1.7312509317
 20
5.8993478261
 11
1.741214747
 21
5.900215883
  0
LINE
  5
2D6
100
AcDbEntity
  8
ALL_ASSEMBLY_MEMBERS
100
AcDbLine
 62
7
  6
CONTINUOUS
 10
7.5895009999
 20
6.3043783437
 11
8.7514871163
 21
6.4034978943
  0
LINE
  5
2D7
100
AcDbEntity
  8
ALL_ASSEMBLY_MEMBERS
100
AcDbLine
 62
7
  6
CONTINUOUS
 10
1.741214747
 20
5.8901977578
 11
2.9032008634
 21
5.9893173085
  0
LINE
  5
2D8
100
AcDbEntity
  8
ALL_ASSEMBLY_MEMBERS
100
AcDbLine
 62
7
  6
CONTINUOUS
 10
7.5895009999
 20
6.212099103
 11
8.7414871163
 21
6.2528024334
  0
LINE
  5
2D9
100
AcDbEntity
  8
ALL_ASSEMBLY_MEMBERS
100
AcDbLine
 62
7
  6
CONTINUOUS
 10
2.9032008634
 20
6.0815965492
 11
1.751214747
 21
6.0408932188
  0
LINE
  5
2DA
100
AcDbEntity
  8
ALL_ASSEMBLY_MEMBERS
100
AcDbLine
 62
7
  6
CONTINUOUS
 10
7.5053509317
 20
6.0555978261
 11
7.473723043
 21
6.0555978261
  0
LINE
  5
2DB
100
AcDbEntity
  8
ALL_ASSEMBLY_MEMBERS
100
AcDbLine
 62
7
  6
CONTINUOUS
 10
2.9873509317
 20
6.0555978261
 11
3.0189788203
 21
6.0555978261
  0
LINE
  5
2DC
100
AcDbEntity
  8
ALL_ASSEMBLY_MEMBERS
100
AcDbLine
 62
7
  6
CONTINUOUS
 10
8.8410559247
 20
6.0596117153
 11
8.8114509317
 21
6.0596117153
  0
LINE
  5
2DD
100
AcDbEntity
  8
ALL_ASSEMBLY_MEMBERS
100
AcDbLine
 62
7
  6
CONTINUOUS
 10
1.6516459387
 20
6.0596117153
 11
1.6812509317
 21
6.0596117153
  0
LINE
  5
2DE
100
AcDbEntity
  8
ALL_ASSEMBLY_MEMBERS
100
AcDbLine
 62
7
  6
CONTINUOUS
 10
8.8551008623
 20
6.070218317
 11
8.8114509317
 21
6.070218317
  0
LINE
  5
2DF
100
AcDbEntity
  8
ALL_ASSEMBLY_MEMBERS
100
AcDbLine
 62
7
  6
CONTINUOUS
 10
1.637601001
 20
6.070218317
 11
1.6812509317
 21
6.070218317
  0
LINE
  5
2E0
100
AcDbEntity
  8
ALL_ASSEMBLY_MEMBERS
100
AcDbLine
 62
7
  6
CONTINUOUS
 10
8.8551008623
 20
6.2234773351
 11
8.8114509317
 21
6.2234773351
  0
LINE
  5
2E1
100
AcDbEntity
  8
ALL_ASSEMBLY_MEMBERS
100
AcDbLine
 62
7
  6
CONTINUOUS
 10
1.637601001
 20
6.2234773351
 11
1.6812509317
 21
6.2234773351
  0
LINE
  5
2E2
100
AcDbEntity
  8
ALL_ASSEMBLY_MEMBERS
100
AcDbLine
 62
7
  6
CONTINUOUS
 10
8.8410559247
 20
6.2340839368
 11
8.8114509317
 21
6.2340839368
  0
LINE
  5
2E3
100
AcDbEntity
  8
ALL_ASSEMBLY_MEMBERS
100
AcDbLine
 62
7
  6
CONTINUOUS
 10
1.6516459387
 20
6.2340839368
 11
1.6812509317
 21
6.2340839368
  0
LINE
  5
2E4
100
AcDbEntity
  8
ALL_ASSEMBLY_MEMBERS
100
AcDbLine
 62
7
  6
CONTINUOUS
 10
7.5053509317
 20
6.2380978261
 11
7.473723043
 21
6.2380978261
  0
LINE
  5
2E5
100
AcDbEntity
  8
ALL_ASSEMBLY_MEMBERS
100
AcDbLine
 62
7
  6
CONTINUOUS
 10
2.9873509317
 20
6.2380978261
 11
3.0189788203
 21
6.2380978261
  0
LINE
  5
2E6
100
AcDbEntity
  8
ALL_ASSEMBLY_MEMBERS
100
AcDbLine
 62
7
  6
CONTINUOUS
 10
2.9032008634
 20
6.212099103
 11
1.751214747
 21
6.2528024334
  0
LINE
  5
2E7
100
AcDbEntity
  8
ALL_ASSEMBLY_MEMBERS
100
AcDbLine
 62
7
  6
CONTINUOUS
 10
7.5895009999
 20
6.0815965492
 11
8.7414871163
 21
6.0408932188
  0
LINE
  5
2E8
100
AcDbEntity
  8
ALL_ASSEMBLY_MEMBERS
100
AcDbLine
 62
7
  6
CONTINUOUS
 10
1.741214747
 20
6.4034978943
 11
2.9032008634
 21
6.3043783437
  0
LINE
  5
2E9
100
AcDbEntity
  8
ALL_ASSEMBLY_MEMBERS
100
AcDbLine
 62
7
  6
CONTINUOUS
 10
7.5895009999
 20
5.9893173085
 11
8.7514871163
 21
5.8901977578
  0
LINE
  5
2EA
100
AcDbEntity
  8
ALL_ASSEMBLY_MEMBERS
100
AcDbLine
 62
7
  6
CONTINUOUS
 10
1.7312509317
 20
6.3943478261
 11
1.741214747
 21
6.3934797692
  0
LINE
  5
2EB
100
AcDbEntity
  8
ALL_ASSEMBLY_MEMBERS
100
AcDbLine
 62
7
  6
CONTINUOUS
 10
8.7614509317
 20
5.8993478261
 11
8.7514871163
 21
5.900215883
  0
LINE
  5
2EC
100
AcDbEntity
  8
ALL_ASSEMBLY_MEMBERS
100
AcDbLine
 62
7
  6
CONTINUOUS
 10
7.2463509317
 20
5.8581726915
 11
7.2463509317
 21
5.5530978261
  0
LINE
  5
2ED
100
AcDbEntity
  8
ALL_ASSEMBLY_MEMBERS
100
AcDbLine
 62
7
  6
CONTINUOUS
 10
7.2463509317
 20
6.4355229607
 11
7.2463509317
 21
6.7405978261
  0
LINE
  5
2EE
100
AcDbEntity
  8
ALL_ASSEMBLY_MEMBERS
100
AcDbLine
 62
7
  6
CONTINUOUS
 10
7.2463497719
 20
5.8094364061
 11
7.2463499137
 21
5.8035802492
  0
LINE
  5
2EF
100
AcDbEntity
  8
ALL_ASSEMBLY_MEMBERS
100
AcDbLine
 62
7
  6
CONTINUOUS
 10
7.2463520914
 20
6.484259246
 11
7.2463519497
 21
6.490115403
  0
LINE
  5
2F0
100
AcDbEntity
  8
ALL_ASSEMBLY_MEMBERS
100
AcDbLine
 62
7
  6
CONTINUOUS
 10
7.2463504823
 20
5.7535577329
 11
7.2463509317
 21
5.7427872558
  0
LINE
  5
2F1
100
AcDbEntity
  8
ALL_ASSEMBLY_MEMBERS
100
AcDbLine
 62
7
  6
CONTINUOUS
 10
7.246351381
 20
6.5401379193
 11
7.2463509317
 21
6.5509083963
  0
LWPOLYLINE
  5
2F2
100
AcDbEntity
  8
ALL_ASSEMBLY_MEMBERS
100
AcDbPolyline
 62
7
  6
CONTINUOUS
 90
3
 70
0
 10
7.2463498108
 20
5.6787413232
 10
7.2463509317
 20
5.6639623782
 10
7.2463518542
 20
5.6485305875
  0
LINE
  5
2F3
100
AcDbEntity
  8
ALL_ASSEMBLY_MEMBERS
100
AcDbLine
 62
7
  6
CONTINUOUS
 10
7.2463509317
 20
5.706339841
 11
7.2463523426
 21
5.6928666148
  0
LWPOLYLINE
  5
2F4
100
AcDbEntity
  8
ALL_ASSEMBLY_MEMBERS
100
AcDbPolyline
 62
7
  6
CONTINUOUS
 90
5
 70
0
 10
7.2463490323
 20
5.6324579555
 10
7.2463509317
 20
5.6157589723
 10
7.2463572622
 20
5.5984438583
 10
7.2463589685
 20
5.5805185799
 10
7.2463509317
 20
5.5619920034
  0
LINE
  5
2F5
100
AcDbEntity
  8
ALL_ASSEMBLY_MEMBERS
100
AcDbLine
 62
7
  6
CONTINUOUS
 10
7.2463509317
 20
5.7730215926
 11
7.2463520586
 21
5.7636343595
  0
LWPOLYLINE
  5
2F6
100
AcDbEntity
  8
ALL_ASSEMBLY_MEMBERS
100
AcDbPolyline
 62
7
  6
CONTINUOUS
 90
3
 70
0
 10
7.2463520525
 20
6.614954329
 10
7.2463509317
 20
6.629733274
 10
7.2463500091
 20
6.6451650647
  0
LINE
  5
2F7
100
AcDbEntity
  8
ALL_ASSEMBLY_MEMBERS
100
AcDbLine
 62
7
  6
CONTINUOUS
 10
7.2463509317
 20
6.5873558112
 11
7.2463495208
 21
6.6008290374
  0
LINE
  5
2F8
100
AcDbEntity
  8
ALL_ASSEMBLY_MEMBERS
100
AcDbLine
 62
7
  6
CONTINUOUS
 10
7.2463509317
 20
6.5206740596
 11
7.2463498048
 21
6.5300612927
  0
LWPOLYLINE
  5
2F9
100
AcDbEntity
  8
ALL_ASSEMBLY_MEMBERS
100
AcDbPolyline
 62
7
  6
CONTINUOUS
 90
5
 70
0
 10
7.246352831
 20
6.6612376966
 10
7.2463509317
 20
6.6779366799
 10
7.2463446012
 20
6.6952517939
 10
7.2463428949
 20
6.7131770723
 10
7.2463509317
 20
6.7317036488
  0
LINE
  5
2FA
100
AcDbEntity
  8
ALL_ASSEMBLY_MEMBERS
100
AcDbLine
 62
7
  6
CONTINUOUS
 10
8.7614509317
 20
6.0443299694
 11
8.7514871163
 21
6.0305217619
  0
LINE
  5
2FB
100
AcDbEntity
  8
ALL_ASSEMBLY_MEMBERS
100
AcDbLine
 62
7
  6
CONTINUOUS
 10
8.7414871163
 20
6.0408932188
 11
8.7514871163
 21
6.0547076555
  0
LINE
  5
2FC
100
AcDbEntity
  8
ALL_ASSEMBLY_MEMBERS
100
AcDbLine
 62
7
  6
CONTINUOUS
 10
8.8410559247
 20
6.3424544278
 11
8.8114509317
 21
6.3424544278
  0
LINE
  5
2FD
100
AcDbEntity
  8
ALL_ASSEMBLY_MEMBERS
100
AcDbLine
 62
7
  6
CONTINUOUS
 10
1.6516459387
 20
6.3424544278
 11
1.6812509317
 21
6.3424544278
  0
LINE
  5
2FE
100
AcDbEntity
  8
ALL_ASSEMBLY_MEMBERS
100
AcDbLine
 62
7
  6
CONTINUOUS
 10
8.8410559247
 20
6.3468478261
 11
8.8114509317
 21
6.3468478261
  0
LINE
  5
2FF
100
AcDbEntity
  8
ALL_ASSEMBLY_MEMBERS
100
AcDbLine
 62
7
  6
CONTINUOUS
 10
1.6516459387
 20
6.3468478261
 11
1.6812509317
 21
6.3468478261
  0
LINE
  5
300
100
AcDbEntity
  8
ALL_ASSEMBLY_MEMBERS
100
AcDbLine
 62
7
  6
CONTINUOUS
 10
8.7964509317
 20
6.3918478261
 11
8.7614509317
 21
6.3918478261
  0
LINE
  5
301
100
AcDbEntity
  8
ALL_ASSEMBLY_MEMBERS
100
AcDbLine
 62
7
  6
CONTINUOUS
 10
1.6962509317
 20
6.3918478261
 11
1.7312509317
 21
6.3918478261
  0
LINE
  5
302
100
AcDbEntity
  8
ALL_ASSEMBLY_MEMBERS
100
AcDbLine
 62
7
  6
CONTINUOUS
 10
6.7398509317
 20
5.8544199147
 11
7.2463509317
 21
5.5619920034
  0
LINE
  5
303
100
AcDbEntity
  8
ALL_ASSEMBLY_MEMBERS
100
AcDbLine
 62
7
  6
CONTINUOUS
 10
7.4963509317
 20
6.2911853934
 11
7.4963509317
 21
6.2380978261
  0
LINE
  5
304
100
AcDbEntity
  8
ALL_ASSEMBLY_MEMBERS
100
AcDbLine
 62
7
  6
CONTINUOUS
 10
7.4963509317
 20
6.0555978261
 11
7.4963509317
 21
6.0025102588
  0
LINE
  5
305
100
AcDbEntity
  8
ALL_ASSEMBLY_MEMBERS
100
AcDbLine
 62
7
  6
CONTINUOUS
 10
7.5053509317
 20
6.0555978261
 11
7.5053509317
 21
6.2380978261
  0
LINE
  5
306
100
AcDbEntity
  8
ALL_ASSEMBLY_MEMBERS
100
AcDbLine
 62
7
  6
CONTINUOUS
 10
7.5303509317
 20
6.0068486432
 11
7.5303509317
 21
6.2868470089
  0
LINE
  5
307
100
AcDbEntity
  8
ALL_ASSEMBLY_MEMBERS
100
AcDbLine
 62
7
  6
CONTINUOUS
 10
7.5341059218
 20
5.9807124051
 11
7.5341059218
 21
5.9937022773
  0
LINE
  5
308
100
AcDbEntity
  8
ALL_ASSEMBLY_MEMBERS
100
AcDbLine
 62
7
  6
CONTINUOUS
 10
7.5341059218
 20
6.2999933749
 11
7.5341059218
 21
6.3129832471
  0
LINE
  5
309
100
AcDbEntity
  8
ALL_ASSEMBLY_MEMBERS
100
AcDbLine
 62
7
  6
CONTINUOUS
 10
6.9585959416
 20
5.9807124051
 11
7.2463509317
 21
5.8145769841
  0
LINE
  5
30A
100
AcDbEntity
  8
ALL_ASSEMBLY_MEMBERS
100
AcDbLine
 62
7
  6
CONTINUOUS
 10
6.9963509317
 20
6.0025102588
 11
7.2463509317
 21
5.8581726915
  0
LINE
  5
30B
100
AcDbEntity
  8
ALL_ASSEMBLY_MEMBERS
100
AcDbLine
 62
7
  6
CONTINUOUS
 10
7.5803509317
 20
5.9992811238
 11
7.5803509317
 21
6.2944145284
  0
LINE
  5
30C
100
AcDbEntity
  8
ALL_ASSEMBLY_MEMBERS
100
AcDbLine
 62
7
  6
CONTINUOUS
 10
7.5895009999
 20
5.9893173085
 11
7.5895009999
 21
6.3043783437
  0
LINE
  5
30D
100
AcDbEntity
  8
ALL_ASSEMBLY_MEMBERS
100
AcDbLine
 62
7
  6
CONTINUOUS
 10
7.7528509317
 20
5.8544199147
 11
7.7528509317
 21
5.9753832592
  0
LINE
  5
30E
100
AcDbEntity
  8
ALL_ASSEMBLY_MEMBERS
100
AcDbLine
 62
7
  6
CONTINUOUS
 10
7.7528509317
 20
6.318312393
 11
7.7528509317
 21
6.4392757374
  0
LINE
  5
30F
100
AcDbEntity
  8
ALL_ASSEMBLY_MEMBERS
100
AcDbLine
 62
7
  6
CONTINUOUS
 10
7.5895009999
 20
6.0815965492
 11
7.5803509317
 21
6.0857236966
  0
LWPOLYLINE
  5
310
100
AcDbEntity
  8
ALL_ASSEMBLY_MEMBERS
100
AcDbPolyline
 62
7
  6
CONTINUOUS
 90
5
 70
0
 10
7.6918246773
 20
5.8896512459
 10
7.7062873707
 20
5.8813033992
 10
7.7212858646
 20
5.8726513246
 10
7.7368104642
 20
5.8636901631
 10
7.7528509317
 20
5.8544199147
  0
LINE
  5
311
100
AcDbEntity
  8
ALL_ASSEMBLY_MEMBERS
100
AcDbLine
 62
7
  6
CONTINUOUS
 10
7.6167368732
 20
5.9330030911
 11
7.6395108989
 21
5.9198584423
  0
LWPOLYLINE
  5
312
100
AcDbEntity
  8
ALL_ASSEMBLY_MEMBERS
100
AcDbPolyline
 62
7
  6
CONTINUOUS
 90
3
 70
0
 10
7.6517424944
 20
5.912793604
 10
7.6645419967
 20
5.9054051021
 10
7.6779067807
 20
5.8976900058
  0
LINE
  5
313
100
AcDbEntity
  8
ALL_ASSEMBLY_MEMBERS
100
AcDbLine
 62
7
  6
CONTINUOUS
 10
6.8759649902
 20
6.3606925611
 11
6.8531909644
 21
6.3738372099
  0
LWPOLYLINE
  5
314
100
AcDbEntity
  8
ALL_ASSEMBLY_MEMBERS
100
AcDbPolyline
 62
7
  6
CONTINUOUS
 90
5
 70
0
 10
6.800877186
 20
6.4040444063
 10
6.7864144926
 20
6.412392253
 10
6.7714159987
 20
6.4210443276
 10
6.7558913992
 20
6.4300054891
 10
6.7398509317
 20
6.4392757374
  0
LINE
  5
315
100
AcDbEntity
  8
ALL_ASSEMBLY_MEMBERS
100
AcDbLine
 62
7
  6
CONTINUOUS
 10
6.8409593689
 20
6.3809020482
 11
6.8147950826
 21
6.3960056464
  0
LINE
  5
316
100
AcDbEntity
  8
ALL_ASSEMBLY_MEMBERS
100
AcDbLine
 62
7
  6
CONTINUOUS
 10
6.9963509317
 20
6.2911853934
 11
6.7321483482
 21
6.4437228261
  0
LINE
  5
317
100
AcDbEntity
  8
ALL_ASSEMBLY_MEMBERS
100
AcDbLine
 62
7
  6
CONTINUOUS
 10
7.4963509317
 20
6.0025102588
 11
7.7605535152
 21
5.8499728261
  0
LINE
  5
318
100
AcDbEntity
  8
ALL_ASSEMBLY_MEMBERS
100
AcDbLine
 62
7
  6
CONTINUOUS
 10
8.9244758623
 20
6.1431235996
 11
8.8551008623
 21
5.9581235996
  0
LINE
  5
319
100
AcDbEntity
  8
ALL_ASSEMBLY_MEMBERS
100
AcDbLine
 62
7
  6
CONTINUOUS
 10
8.9244758623
 20
6.1415809745
 11
8.8551008623
 21
5.9565809745
  0
LINE
  5
31A
100
AcDbEntity
  8
ALL_ASSEMBLY_MEMBERS
100
AcDbLine
 62
7
  6
CONTINUOUS
 10
7.4963509317
 20
6.2911853934
 11
7.2463509317
 21
6.4355229607
  0
LINE
  5
31B
100
AcDbEntity
  8
ALL_ASSEMBLY_MEMBERS
100
AcDbLine
 62
7
  6
CONTINUOUS
 10
7.5341059218
 20
6.3129832471
 11
7.2463509317
 21
6.4791186681
  0
LINE
  5
31C
100
AcDbEntity
  8
ALL_ASSEMBLY_MEMBERS
100
AcDbLine
 62
7
  6
CONTINUOUS
 10
7.5895009999
 20
5.9893173085
 11
7.5803509317
 21
5.9992811238
  0
LINE
  5
31D
100
AcDbEntity
  8
ALL_ASSEMBLY_MEMBERS
100
AcDbLine
 62
7
  6
CONTINUOUS
 10
7.7528509317
 20
6.4392757374
 11
7.2463509317
 21
6.7317036488
  0
LINE
  5
31E
100
AcDbEntity
  8
ALL_ASSEMBLY_MEMBERS
100
AcDbLine
 62
7
  6
CONTINUOUS
 10
8.7514871163
 20
6.3934797692
 11
8.7514871163
 21
6.2631738903
  0
LINE
  5
31F
100
AcDbEntity
  8
ALL_ASSEMBLY_MEMBERS
100
AcDbLine
 62
7
  6
CONTINUOUS
 10
8.7514871163
 20
6.2389879967
 11
8.7514871163
 21
6.0547076555
  0
LINE
  5
320
100
AcDbEntity
  8
ALL_ASSEMBLY_MEMBERS
100
AcDbLine
 62
7
  6
CONTINUOUS
 10
8.7514871163
 20
6.0305217619
 11
8.7514871163
 21
5.900215883
  0
LINE
  5
321
100
AcDbEntity
  8
ALL_ASSEMBLY_MEMBERS
100
AcDbLine
 62
7
  6
CONTINUOUS
 10
8.7614509317
 20
6.3943478261
 11
8.7614509317
 21
5.8993478261
  0
LINE
  5
322
100
AcDbEntity
  8
ALL_ASSEMBLY_MEMBERS
100
AcDbLine
 62
7
  6
CONTINUOUS
 10
8.7964509317
 20
5.9018478261
 11
8.7964509317
 21
6.3918478261
  0
LINE
  5
323
100
AcDbEntity
  8
ALL_ASSEMBLY_MEMBERS
100
AcDbLine
 62
7
  6
CONTINUOUS
 10
8.8114509317
 20
5.9168478261
 11
8.8114509317
 21
6.3768478261
  0
LINE
  5
324
100
AcDbEntity
  8
ALL_ASSEMBLY_MEMBERS
100
AcDbLine
 62
7
  6
CONTINUOUS
 10
8.8410559247
 20
6.3468478261
 11
8.8410559247
 21
5.9468478261
  0
LINE
  5
325
100
AcDbEntity
  8
ALL_ASSEMBLY_MEMBERS
100
AcDbLine
 62
7
  6
CONTINUOUS
 10
8.8551008623
 20
6.3355720526
 11
8.8551008623
 21
6.2272015616
  0
LINE
  5
326
100
AcDbEntity
  8
ALL_ASSEMBLY_MEMBERS
100
AcDbLine
 62
7
  6
CONTINUOUS
 10
8.8551008623
 20
6.2234773351
 11
8.8551008623
 21
6.070218317
  0
LINE
  5
327
100
AcDbEntity
  8
ALL_ASSEMBLY_MEMBERS
100
AcDbLine
 62
7
  6
CONTINUOUS
 10
8.8551008623
 20
6.0664940905
 11
8.8551008623
 21
5.9581235996
  0
LINE
  5
328
100
AcDbEntity
  8
ALL_ASSEMBLY_MEMBERS
100
AcDbLine
 62
7
  6
CONTINUOUS
 10
8.7514871163
 20
6.3934797692
 11
8.7414871163
 21
6.402644876
  0
LINE
  5
329
100
AcDbEntity
  8
ALL_ASSEMBLY_MEMBERS
100
AcDbLine
 62
7
  6
CONTINUOUS
 10
8.7614509317
 20
6.3943478261
 11
8.7514871163
 21
6.4034978943
  0
LINE
  5
32A
100
AcDbEntity
  8
ALL_ASSEMBLY_MEMBERS
100
AcDbLine
 62
7
  6
CONTINUOUS
 10
8.7514871163
 20
6.0305217619
 11
8.7414871163
 21
6.0408932188
  0
LINE
  5
32B
100
AcDbEntity
  8
ALL_ASSEMBLY_MEMBERS
100
AcDbLine
 62
7
  6
CONTINUOUS
 10
8.7614509317
 20
6.0443299694
 11
8.7514871163
 21
6.0547076555
  0
LINE
  5
32C
100
AcDbEntity
  8
ALL_ASSEMBLY_MEMBERS
100
AcDbLine
 62
7
  6
CONTINUOUS
 10
8.9244758623
 20
6.1468478261
 11
8.8551008623
 21
6.2234773351
  0
LINE
  5
32D
100
AcDbEntity
  8
ALL_ASSEMBLY_MEMBERS
100
AcDbLine
 62
7
  6
CONTINUOUS
 10
8.9244758623
 20
6.1505720526
 11
8.8551008623
 21
6.2272015616
  0
LINE
  5
32E
100
AcDbEntity
  8
ALL_ASSEMBLY_MEMBERS
100
AcDbLine
 62
7
  6
CONTINUOUS
 10
8.7414871163
 20
6.2528024334
 11
8.7514871163
 21
6.2389879967
  0
LINE
  5
32F
100
AcDbEntity
  8
ALL_ASSEMBLY_MEMBERS
100
AcDbLine
 62
7
  6
CONTINUOUS
 10
8.7614509317
 20
6.2493656828
 11
8.7514871163
 21
6.2631738903
  0
LINE
  5
330
100
AcDbEntity
  8
ALL_ASSEMBLY_MEMBERS
100
AcDbLine
 62
7
  6
CONTINUOUS
 10
8.9244758623
 20
6.1505720526
 11
8.8551008623
 21
6.3355720526
  0
LINE
  5
331
100
AcDbEntity
  8
ALL_ASSEMBLY_MEMBERS
100
AcDbLine
 62
7
  6
CONTINUOUS
 10
8.9244758623
 20
6.1521146777
 11
8.8551008623
 21
6.3371146777
  0
ARC
  5
332
100
AcDbEntity
  8
ALL_ASSEMBLY_MEMBERS
100
AcDbCircle
 62
7
  6
CONTINUOUS
 10
3.2463509317
 20
6.1468478261
 40
0.59375
100
AcDbArc
 50
197.3039194107
 51
162.6960834893
  0
CIRCLE
  5
333
100
AcDbEntity
  8
ALL_ASSEMBLY_MEMBERS
100
AcDbCircle
 62
7
  6
CONTINUOUS
 10
3.2463509317
 20
6.1468478261
 40
0.245
  0
ARC
  5
334
100
AcDbEntity
  8
ALL_ASSEMBLY_MEMBERS
100
AcDbCircle
 62
7
  6
CONTINUOUS
 10
2.9373509317
 20
6.0068478261
 40
0.025
100
AcDbArc
 50
192.8571428571
 51
360.0
  0
ARC
  5
335
100
AcDbEntity
  8
ALL_ASSEMBLY_MEMBERS
100
AcDbCircle
 62
7
  6
CONTINUOUS
 10
2.9873509317
 20
6.0305978261
 40
0.025
100
AcDbArc
 50
90.0
 51
180.0
  0
ARC
  5
336
100
AcDbEntity
  8
ALL_ASSEMBLY_MEMBERS
100
AcDbCircle
 62
7
  6
CONTINUOUS
 10
2.9373509317
 20
6.2868478261
 40
0.025
100
AcDbArc
 50
0.0
 51
167.1428571429
  0
ARC
  5
337
100
AcDbEntity
  8
ALL_ASSEMBLY_MEMBERS
100
AcDbCircle
 62
7
  6
CONTINUOUS
 10
2.9873509317
 20
6.2630978261
 40
0.025
100
AcDbArc
 50
180.0
 51
270.0
  0
ARC
  5
338
100
AcDbEntity
  8
ALL_ASSEMBLY_MEMBERS
100
AcDbCircle
 62
7
  6
CONTINUOUS
 10
1.5822709387
 20
6.1468478261
 40
0.015
100
AcDbArc
 50
159.4439547804
 51
200.5560452196
  0
ARC
  5
339
100
AcDbEntity
  8
ALL_ASSEMBLY_MEMBERS
100
AcDbCircle
 62
7
  6
CONTINUOUS
 10
1.6516459387
 20
5.9618478261
 40
0.015
100
AcDbArc
 50
200.5560452196
 51
269.9999999717
  0
ARC
  5
33A
100
AcDbEntity
  8
ALL_ASSEMBLY_MEMBERS
100
AcDbCircle
 62
7
  6
CONTINUOUS
 10
1.6962509317
 20
6.3768478261
 40
0.015
100
AcDbArc
 50
90.0
 51
180.0
  0
ARC
  5
33B
100
AcDbEntity
  8
ALL_ASSEMBLY_MEMBERS
100
AcDbCircle
 62
7
  6
CONTINUOUS
 10
1.6962509317
 20
5.9168478261
 40
0.015
100
AcDbArc
 50
180.0
 51
270.0
  0
ARC
  5
33C
100
AcDbEntity
  8
ALL_ASSEMBLY_MEMBERS
100
AcDbCircle
 62
7
  6
CONTINUOUS
 10
1.6516459387
 20
6.3318478261
 40
0.015
100
AcDbArc
 50
90.0000000283
 51
159.4439547804
  0
ARC
  5
33D
100
AcDbEntity
  8
ALL_ASSEMBLY_MEMBERS
100
AcDbCircle
 62
7
  6
CONTINUOUS
 10
5.2463509317
 20
3.1468478261
 40
0.6999996648
100
AcDbArc
 50
301.668195884
 51
238.3317540389
  0
ARC
  5
33E
100
AcDbEntity
  8
ALL_ASSEMBLY_MEMBERS
100
AcDbCircle
 62
7
  6
CONTINUOUS
 10
7.2463509317
 20
6.1468478261
 40
0.59375
100
AcDbArc
 50
17.3039194107
 51
342.6960834893
  0
CIRCLE
  5
33F
100
AcDbEntity
  8
ALL_ASSEMBLY_MEMBERS
100
AcDbCircle
 62
7
  6
CONTINUOUS
 10
7.2463509317
 20
6.1468478261
 40
0.245
  0
ARC
  5
340
100
AcDbEntity
  8
ALL_ASSEMBLY_MEMBERS
100
AcDbCircle
 62
7
  6
CONTINUOUS
 10
7.5553509317
 20
6.2868478261
 40
0.025
100
AcDbArc
 50
12.8571428571
 51
180.0
  0
ARC
  5
341
100
AcDbEntity
  8
ALL_ASSEMBLY_MEMBERS
100
AcDbCircle
 62
7
  6
CONTINUOUS
 10
7.5053509317
 20
6.2630978261
 40
0.025
100
AcDbArc
 50
270.0
 51
360.0
  0
ARC
  5
342
100
AcDbEntity
  8
ALL_ASSEMBLY_MEMBERS
100
AcDbCircle
 62
7
  6
CONTINUOUS
 10
7.5553509317
 20
6.0068478261
 40
0.025
100
AcDbArc
 50
180.0
 51
347.1428571429
  0
ARC
  5
343
100
AcDbEntity
  8
ALL_ASSEMBLY_MEMBERS
100
AcDbCircle
 62
7
  6
CONTINUOUS
 10
7.5053509317
 20
6.0305978261
 40
0.025
100
AcDbArc
 50
0.0
 51
90.0
  0
ARC
  5
344
100
AcDbEntity
  8
ALL_ASSEMBLY_MEMBERS
100
AcDbCircle
 62
7
  6
CONTINUOUS
 10
8.9104309247
 20
6.1468478261
 40
0.015
100
AcDbArc
 50
339.4439547804
 51
20.5560452196
  0
ARC
  5
345
100
AcDbEntity
  8
ALL_ASSEMBLY_MEMBERS
100
AcDbCircle
 62
7
  6
CONTINUOUS
 10
8.8410559247
 20
6.3318478261
 40
0.015
100
AcDbArc
 50
20.5560452196
 51
89.9999999717
  0
ARC
  5
346
100
AcDbEntity
  8
ALL_ASSEMBLY_MEMBERS
100
AcDbCircle
 62
7
  6
CONTINUOUS
 10
8.7964509317
 20
5.9168478261
 40
0.015
100
AcDbArc
 50
270.0
 51
360.0
  0
ARC
  5
347
100
AcDbEntity
  8
ALL_ASSEMBLY_MEMBERS
100
AcDbCircle
 62
7
  6
CONTINUOUS
 10
8.7964509317
 20
6.3768478261
 40
0.015
100
AcDbArc
 50
0.0
 51
90.0
  0
ARC
  5
348
100
AcDbEntity
  8
ALL_ASSEMBLY_MEMBERS
100
AcDbCircle
 62
7
  6
CONTINUOUS
 10
8.8410559247
 20
5.9618478261
 40
0.015
100
AcDbArc
 50
270.0
 51
339.4439547804
  0
SPLINE
  5
349
100
AcDbEntity
  8
ALL_ASSEMBLY_MEMBERS
100
AcDbSpline
 62
7
  6
CONTINUOUS
 70
0
 71
3
 72
9
 73
5
 74
0
 42
0.0000001
 43
0.0000001
 44
0.0000000001
 40
0.0
 40
0.0
 40
0.0
 40
0.0
 40
0.5045542061
 40
1.0
 40
1.0
 40
1.0
 40
1.0
 10
1.568226001
 20
6.1468478261
 30
0.0
 10
1.5681412827
 20
6.1462257194
 30
0.0
 10
1.5680544165
 20
6.1449801518
 30
0.0
 10
1.5681397555
 20
6.1437340517
 30
0.0
 10
1.568226001
 20
6.1431235996
 30
0.0
  0
SPLINE
  5
34A
100
AcDbEntity
  8
ALL_ASSEMBLY_MEMBERS
100
AcDbSpline
 62
7
  6
CONTINUOUS
 70
0
 71
3
 72
11
 73
7
 74
0
 42
0.0000001
 43
0.0000001
 44
0.0000000001
 40
0.0
 40
0.0
 40
0.0
 40
0.0
 40
0.2718775796
 40
0.525603703
 40
0.7662474692
 40
1.0
 40
1.0
 40
1.0
 40
1.0
 10
1.568226001
 20
6.1431235996
 30
0.0
 10
1.5681848369
 20
6.1429874768
 30
0.0
 10
1.5681211341
 20
6.14271902
 30
0.0
 10
1.5680866162
 20
6.1423180744
 30
0.0
 10
1.5681177684
 20
6.141936607
 30
0.0
 10
1.5681830696
 20
6.1416954583
 30
0.0
 10
1.568226001
 20
6.1415809745
 30
0.0
  0
SPLINE
  5
34B
100
AcDbEntity
  8
ALL_ASSEMBLY_MEMBERS
100
AcDbSpline
 62
7
  6
CONTINUOUS
 70
0
 71
3
 72
11
 73
7
 74
0
 42
0.0000001
 43
0.0000001
 44
0.0000000001
 40
0.0
 40
0.0
 40
0.0
 40
0.0
 40
0.2337525309
 40
0.474396298
 40
0.728122421
 40
1.0
 40
1.0
 40
1.0
 40
1.0
 10
1.568226001
 20
6.1521146777
 30
0.0
 10
1.5681830696
 20
6.1520001939
 30
0.0
 10
1.5681177683
 20
6.1517590451
 30
0.0
 10
1.5680866162
 20
6.1513775778
 30
0.0
 10
1.5681211341
 20
6.1509766321
 30
0.0
 10
1.5681848369
 20
6.1507081754
 30
0.0
 10
1.568226001
 20
6.1505720526
 30
0.0
  0
SPLINE
  5
34C
100
AcDbEntity
  8
ALL_ASSEMBLY_MEMBERS
100
AcDbSpline
 62
7
  6
CONTINUOUS
 70
0
 71
3
 72
9
 73
5
 74
0
 42
0.0000001
 43
0.0000001
 44
0.0000000001
 40
0.0
 40
0.0
 40
0.0
 40
0.0
 40
0.4954457948
 40
1.0
 40
1.0
 40
1.0
 40
1.0
 10
1.568226001
 20
6.1505720526
 30
0.0
 10
1.5681397555
 20
6.1499616005
 30
0.0
 10
1.5680544165
 20
6.1487155003
 30
0.0
 10
1.5681412827
 20
6.1474699327
 30
0.0
 10
1.568226001
 20
6.1468478261
 30
0.0
  0
SPLINE
  5
34D
100
AcDbEntity
  8
ALL_ASSEMBLY_MEMBERS
100
AcDbSpline
 62
7
  6
CONTINUOUS
 70
0
 71
3
 72
11
 73
7
 74
0
 42
0.0000001
 43
0.0000001
 44
0.0000000001
 40
0.0
 40
0.0
 40
0.0
 40
0.0
 40
0.2718775795
 40
0.525603703
 40
0.7662474693
 40
1.0
 40
1.0
 40
1.0
 40
1.0
 10
1.637601001
 20
5.9581235996
 30
0.0
 10
1.6375598369
 20
5.9579874768
 30
0.0
 10
1.6374961341
 20
5.95771902
 30
0.0
 10
1.6374616162
 20
5.9573180744
 30
0.0
 10
1.6374927684
 20
5.956936607
 30
0.0
 10
1.6375580696
 20
5.9566954583
 30
0.0
 10
1.637601001
 20
5.9565809745
 30
0.0
  0
SPLINE
  5
34E
100
AcDbEntity
  8
ALL_ASSEMBLY_MEMBERS
100
AcDbSpline
 62
7
  6
CONTINUOUS
 70
0
 71
3
 72
14
 73
10
 74
0
 42
0.0000001
 43
0.0000001
 44
0.0000000001
 40
0.0
 40
0.0
 40
0.0
 40
0.0
 40
0.1064470759
 40
0.2186739866
 40
0.3369443883
 40
0.4612114757
 40
0.724333886
 40
0.861457983
 40
1.0
 40
1.0
 40
1.0
 40
1.0
 10
1.637601001
 20
5.9581235996
 30
0.0
 10
1.6378729072
 20
5.9576108884
 30
0.0
 10
1.6385361906
 20
5.9566107592
 30
0.0
 10
1.6398042633
 20
5.9552711285
 30
0.0
 10
1.6413411023
 20
5.9540846523
 30
0.0
 10
1.643742677
 20
5.9527169768
 30
0.0
 10
1.6464833039
 20
5.951792914
 30
0.0
 10
1.6493860486
 20
5.9513219009
 30
0.0
 10
1.6508906074
 20
5.9512412244
 30
0.0
 10
1.6516459387
 20
5.9512412244
 30
0.0
  0
SPLINE
  5
34F
100
AcDbEntity
  8
ALL_ASSEMBLY_MEMBERS
100
AcDbSpline
 62
7
  6
CONTINUOUS
 70
0
 71
3
 72
9
 73
5
 74
0
 42
0.0000001
 43
0.0000001
 44
0.0000000001
 40
0.0
 40
0.0
 40
0.0
 40
0.0
 40
0.5045542052
 40
1.0
 40
1.0
 40
1.0
 40
1.0
 10
1.637601001
 20
6.070218317
 30
0.0
 10
1.6375162827
 20
6.0695962104
 30
0.0
 10
1.6374294165
 20
6.0683506428
 30
0.0
 10
1.6375147555
 20
6.0671045427
 30
0.0
 10
1.637601001
 20
6.0664940905
 30
0.0
  0
SPLINE
  5
350
100
AcDbEntity
  8
ALL_ASSEMBLY_MEMBERS
100
AcDbSpline
 62
7
  6
CONTINUOUS
 70
0
 71
3
 72
14
 73
10
 74
0
 42
0.0000001
 43
0.0000001
 44
0.0000000001
 40
0.0
 40
0.0
 40
0.0
 40
0.0
 40
0.1064471009
 40
0.218674106
 40
0.336944638
 40
0.4612118846
 40
0.7243345428
 40
0.8614582317
 40
1.0
 40
1.0
 40
1.0
 40
1.0
 10
1.637601001
 20
6.0664940905
 30
0.0
 10
1.6378729073
 20
6.0659813792
 30
0.0
 10
1.6385361912
 20
6.0649812497
 30
0.0
 10
1.6398042648
 20
6.063641618
 30
0.0
 10
1.6413411058
 20
6.0624551408
 30
0.0
 10
1.6437426837
 20
6.0610874648
 30
0.0
 10
1.6464833112
 20
6.0601634043
 30
0.0
 10
1.6493860534
 20
6.0596923902
 30
0.0
 10
1.6508906087
 20
6.0596117153
 30
0.0
 10
1.6516459387
 20
6.0596117153
 30
0.0
  0
SPLINE
  5
351
100
AcDbEntity
  8
ALL_ASSEMBLY_MEMBERS
100
AcDbSpline
 62
7
  6
CONTINUOUS
 70
0
 71
3
 72
9
 73
5
 74
0
 42
0.0000001
 43
0.0000001
 44
0.0000000001
 40
0.0
 40
0.0
 40
0.0
 40
0.0
 40
0.4954457948
 40
1.0
 40
1.0
 40
1.0
 40
1.0
 10
1.637601001
 20
6.2272015616
 30
0.0
 10
1.6375147555
 20
6.2265911095
 30
0.0
 10
1.6374294165
 20
6.2253450094
 30
0.0
 10
1.6375162827
 20
6.2240994418
 30
0.0
 10
1.637601001
 20
6.2234773351
 30
0.0
  0
SPLINE
  5
352
100
AcDbEntity
  8
ALL_ASSEMBLY_MEMBERS
100
AcDbSpline
 62
7
  6
CONTINUOUS
 70
0
 71
3
 72
14
 73
10
 74
0
 42
0.0000001
 43
0.0000001
 44
0.0000000001
 40
0.0
 40
0.0
 40
0.0
 40
0.0
 40
0.1064470759
 40
0.2186739866
 40
0.3369443883
 40
0.4612114757
 40
0.724333886
 40
0.861457983
 40
1.0
 40
1.0
 40
1.0
 40
1.0
 10
1.637601001
 20
6.2272015616
 30
0.0
 10
1.6378729072
 20
6.2277142728
 30
0.0
 10
1.6385361906
 20
6.228714402
 30
0.0
 10
1.6398042633
 20
6.2300540327
 30
0.0
 10
1.6413411023
 20
6.2312405089
 30
0.0
 10
1.643742677
 20
6.2326081844
 30
0.0
 10
1.6464833039
 20
6.2335322472
 30
0.0
 10
1.6493860486
 20
6.2340032603
 30
0.0
 10
1.6508906074
 20
6.2340839368
 30
0.0
 10
1.6516459387
 20
6.2340839368
 30
0.0
  0
SPLINE
  5
353
100
AcDbEntity
  8
ALL_ASSEMBLY_MEMBERS
100
AcDbSpline
 62
7
  6
CONTINUOUS
 70
0
 71
3
 72
11
 73
7
 74
0
 42
0.0000001
 43
0.0000001
 44
0.0000000001
 40
0.0
 40
0.0
 40
0.0
 40
0.0
 40
0.2337525308
 40
0.474396297
 40
0.7281224204
 40
1.0
 40
1.0
 40
1.0
 40
1.0
 10
1.637601001
 20
6.3371146777
 30
0.0
 10
1.6375580696
 20
6.3370001939
 30
0.0
 10
1.6374927684
 20
6.3367590451
 30
0.0
 10
1.6374616162
 20
6.3363775778
 30
0.0
 10
1.6374961341
 20
6.3359766321
 30
0.0
 10
1.6375598369
 20
6.3357081754
 30
0.0
 10
1.637601001
 20
6.3355720526
 30
0.0
  0
SPLINE
  5
354
100
AcDbEntity
  8
ALL_ASSEMBLY_MEMBERS
100
AcDbSpline
 62
7
  6
CONTINUOUS
 70
0
 71
3
 72
14
 73
10
 74
0
 42
0.0000001
 43
0.0000001
 44
0.0000000001
 40
0.0
 40
0.0
 40
0.0
 40
0.0
 40
0.1064471009
 40
0.218674106
 40
0.336944638
 40
0.4612118846
 40
0.7243345428
 40
0.8614582317
 40
1.0
 40
1.0
 40
1.0
 40
1.0
 10
1.637601001
 20
6.3355720526
 30
0.0
 10
1.6378729073
 20
6.3360847639
 30
0.0
 10
1.6385361912
 20
6.3370848935
 30
0.0
 10
1.6398042648
 20
6.3384245252
 30
0.0
 10
1.6413411058
 20
6.3396110023
 30
0.0
 10
1.6437426837
 20
6.3409786783
 30
0.0
 10
1.6464833112
 20
6.3419027388
 30
0.0
 10
1.6493860534
 20
6.342373753
 30
0.0
 10
1.6508906087
 20
6.3424544278
 30
0.0
 10
1.6516459387
 20
6.3424544278
 30
0.0
  0
SPLINE
  5
355
100
AcDbEntity
  8
ALL_ASSEMBLY_MEMBERS
100
AcDbSpline
 62
7
  6
CONTINUOUS
 70
0
 71
3
 72
9
 73
5
 74
0
 42
0.0000001
 43
0.0000001
 44
0.0000000001
 40
0.0
 40
0.0
 40
0.0
 40
0.0
 40
0.5045542061
 40
1.0
 40
1.0
 40
1.0
 40
1.0
 10
8.9244758623
 20
6.1468478261
 30
0.0
 10
8.9245605807
 20
6.1474699327
 30
0.0
 10
8.9246474469
 20
6.1487155003
 30
0.0
 10
8.9245621079
 20
6.1499616005
 30
0.0
 10
8.9244758623
 20
6.1505720526
 30
0.0
  0
SPLINE
  5
356
100
AcDbEntity
  8
ALL_ASSEMBLY_MEMBERS
100
AcDbSpline
 62
7
  6
CONTINUOUS
 70
0
 71
3
 72
11
 73
7
 74
0
 42
0.0000001
 43
0.0000001
 44
0.0000000001
 40
0.0
 40
0.0
 40
0.0
 40
0.0
 40
0.2718775796
 40
0.525603703
 40
0.7662474692
 40
1.0
 40
1.0
 40
1.0
 40
1.0
 10
8.9244758623
 20
6.1505720526
 30
0.0
 10
8.9245170264
 20
6.1507081754
 30
0.0
 10
8.9245807292
 20
6.1509766321
 30
0.0
 10
8.9246152472
 20
6.1513775778
 30
0.0
 10
8.924584095
 20
6.1517590451
 30
0.0
 10
8.9245187937
 20
6.1520001939
 30
0.0
 10
8.9244758623
 20
6.1521146777
 30
0.0
  0
SPLINE
  5
357
100
AcDbEntity
  8
ALL_ASSEMBLY_MEMBERS
100
AcDbSpline
 62
7
  6
CONTINUOUS
 70
0
 71
3
 72
11
 73
7
 74
0
 42
0.0000001
 43
0.0000001
 44
0.0000000001
 40
0.0
 40
0.0
 40
0.0
 40
0.0
 40
0.2337525309
 40
0.474396298
 40
0.728122421
 40
1.0
 40
1.0
 40
1.0
 40
1.0
 10
8.9244758623
 20
6.1415809745
 30
0.0
 10
8.9245187937
 20
6.1416954583
 30
0.0
 10
8.924584095
 20
6.141936607
 30
0.0
 10
8.9246152472
 20
6.1423180744
 30
0.0
 10
8.9245807292
 20
6.14271902
 30
0.0
 10
8.9245170264
 20
6.1429874768
 30
0.0
 10
8.9244758623
 20
6.1431235996
 30
0.0
  0
SPLINE
  5
358
100
AcDbEntity
  8
ALL_ASSEMBLY_MEMBERS
100
AcDbSpline
 62
7
  6
CONTINUOUS
 70
0
 71
3
 72
9
 73
5
 74
0
 42
0.0000001
 43
0.0000001
 44
0.0000000001
 40
0.0
 40
0.0
 40
0.0
 40
0.0
 40
0.4954457948
 40
1.0
 40
1.0
 40
1.0
 40
1.0
 10
8.9244758623
 20
6.1431235996
 30
0.0
 10
8.9245621079
 20
6.1437340517
 30
0.0
 10
8.9246474469
 20
6.1449801518
 30
0.0
 10
8.9245605807
 20
6.1462257194
 30
0.0
 10
8.9244758623
 20
6.1468478261
 30
0.0
  0
SPLINE
  5
359
100
AcDbEntity
  8
ALL_ASSEMBLY_MEMBERS
100
AcDbSpline
 62
7
  6
CONTINUOUS
 70
0
 71
3
 72
11
 73
7
 74
0
 42
0.0000001
 43
0.0000001
 44
0.0000000001
 40
0.0
 40
0.0
 40
0.0
 40
0.0
 40
0.2718775795
 40
0.525603703
 40
0.7662474693
 40
1.0
 40
1.0
 40
1.0
 40
1.0
 10
8.8551008623
 20
6.3355720526
 30
0.0
 10
8.8551420264
 20
6.3357081754
 30
0.0
 10
8.8552057292
 20
6.3359766321
 30
0.0
 10
8.8552402472
 20
6.3363775778
 30
0.0
 10
8.855209095
 20
6.3367590451
 30
0.0
 10
8.8551437937
 20
6.3370001939
 30
0.0
 10
8.8551008623
 20
6.3371146777
 30
0.0
  0
SPLINE
  5
35A
100
AcDbEntity
  8
ALL_ASSEMBLY_MEMBERS
100
AcDbSpline
 62
7
  6
CONTINUOUS
 70
0
 71
3
 72
14
 73
10
 74
0
 42
0.0000001
 43
0.0000001
 44
0.0000000001
 40
0.0
 40
0.0
 40
0.0
 40
0.0
 40
0.1064470759
 40
0.2186739866
 40
0.3369443883
 40
0.4612114757
 40
0.724333886
 40
0.861457983
 40
1.0
 40
1.0
 40
1.0
 40
1.0
 10
8.8551008623
 20
6.3355720526
 30
0.0
 10
8.8548289562
 20
6.3360847638
 30
0.0
 10
8.8541656728
 20
6.3370848929
 30
0.0
 10
8.8528976001
 20
6.3384245236
 30
0.0
 10
8.8513607611
 20
6.3396109999
 30
0.0
 10
8.8489591864
 20
6.3409786754
 30
0.0
 10
8.8462185595
 20
6.3419027382
 30
0.0
 10
8.8433158148
 20
6.3423737513
 30
0.0
 10
8.841811256
 20
6.3424544278
 30
0.0
 10
8.8410559247
 20
6.3424544278
 30
0.0
  0
SPLINE
  5
35B
100
AcDbEntity
  8
ALL_ASSEMBLY_MEMBERS
100
AcDbSpline
 62
7
  6
CONTINUOUS
 70
0
 71
3
 72
9
 73
5
 74
0
 42
0.0000001
 43
0.0000001
 44
0.0000000001
 40
0.0
 40
0.0
 40
0.0
 40
0.0
 40
0.5045542052
 40
1.0
 40
1.0
 40
1.0
 40
1.0
 10
8.8551008623
 20
6.2234773351
 30
0.0
 10
8.8551855807
 20
6.2240994418
 30
0.0
 10
8.8552724469
 20
6.2253450094
 30
0.0
 10
8.8551871079
 20
6.2265911095
 30
0.0
 10
8.8551008623
 20
6.2272015616
 30
0.0
  0
SPLINE
  5
35C
100
AcDbEntity
  8
ALL_ASSEMBLY_MEMBERS
100
AcDbSpline
 62
7
  6
CONTINUOUS
 70
0
 71
3
 72
14
 73
10
 74
0
 42
0.0000001
 43
0.0000001
 44
0.0000000001
 40
0.0
 40
0.0
 40
0.0
 40
0.0
 40
0.1064471009
 40
0.218674106
 40
0.336944638
 40
0.4612118846
 40
0.7243345428
 40
0.8614582317
 40
1.0
 40
1.0
 40
1.0
 40
1.0
 10
8.8551008623
 20
6.2272015616
 30
0.0
 10
8.8548289561
 20
6.2277142729
 30
0.0
 10
8.8541656722
 20
6.2287144025
 30
0.0
 10
8.8528975986
 20
6.2300540342
 30
0.0
 10
8.8513607576
 20
6.2312405114
 30
0.0
 10
8.8489591797
 20
6.2326081874
 30
0.0
 10
8.8462185522
 20
6.2335322478
 30
0.0
 10
8.84331581
 20
6.234003262
 30
0.0
 10
8.8418112546
 20
6.2340839368
 30
0.0
 10
8.8410559247
 20
6.2340839368
 30
0.0
  0
SPLINE
  5
35D
100
AcDbEntity
  8
ALL_ASSEMBLY_MEMBERS
100
AcDbSpline
 62
7
  6
CONTINUOUS
 70
0
 71
3
 72
9
 73
5
 74
0
 42
0.0000001
 43
0.0000001
 44
0.0000000001
 40
0.0
 40
0.0
 40
0.0
 40
0.0
 40
0.4954457948
 40
1.0
 40
1.0
 40
1.0
 40
1.0
 10
8.8551008623
 20
6.0664940905
 30
0.0
 10
8.8551871079
 20
6.0671045427
 30
0.0
 10
8.8552724469
 20
6.0683506428
 30
0.0
 10
8.8551855807
 20
6.0695962104
 30
0.0
 10
8.8551008623
 20
6.070218317
 30
0.0
  0
SPLINE
  5
35E
100
AcDbEntity
  8
ALL_ASSEMBLY_MEMBERS
100
AcDbSpline
 62
7
  6
CONTINUOUS
 70
0
 71
3
 72
14
 73
10
 74
0
 42
0.0000001
 43
0.0000001
 44
0.0000000001
 40
0.0
 40
0.0
 40
0.0
 40
0.0
 40
0.1064470759
 40
0.2186739866
 40
0.3369443883
 40
0.4612114757
 40
0.724333886
 40
0.861457983
 40
1.0
 40
1.0
 40
1.0
 40
1.0
 10
8.8551008623
 20
6.0664940905
 30
0.0
 10
8.8548289562
 20
6.0659813794
 30
0.0
 10
8.8541656728
 20
6.0649812502
 30
0.0
 10
8.8528976001
 20
6.0636416195
 30
0.0
 10
8.8513607611
 20
6.0624551433
 30
0.0
 10
8.8489591864
 20
6.0610874678
 30
0.0
 10
8.8462185595
 20
6.0601634049
 30
0.0
 10
8.8433158148
 20
6.0596923919
 30
0.0
 10
8.841811256
 20
6.0596117153
 30
0.0
 10
8.8410559247
 20
6.0596117153
 30
0.0
  0
SPLINE
  5
35F
100
AcDbEntity
  8
ALL_ASSEMBLY_MEMBERS
100
AcDbSpline
 62
7
  6
CONTINUOUS
 70
0
 71
3
 72
11
 73
7
 74
0
 42
0.0000001
 43
0.0000001
 44
0.0000000001
 40
0.0
 40
0.0
 40
0.0
 40
0.0
 40
0.2337525308
 40
0.474396297
 40
0.7281224204
 40
1.0
 40
1.0
 40
1.0
 40
1.0
 10
8.8551008623
 20
5.9565809745
 30
0.0
 10
8.8551437937
 20
5.9566954583
 30
0.0
 10
8.855209095
 20
5.956936607
 30
0.0
 10
8.8552402472
 20
5.9573180744
 30
0.0
 10
8.8552057292
 20
5.95771902
 30
0.0
 10
8.8551420264
 20
5.9579874768
 30
0.0
 10
8.8551008623
 20
5.9581235996
 30
0.0
  0
SPLINE
  5
360
100
AcDbEntity
  8
ALL_ASSEMBLY_MEMBERS
100
AcDbSpline
 62
7
  6
CONTINUOUS
 70
0
 71
3
 72
14
 73
10
 74
0
 42
0.0000001
 43
0.0000001
 44
0.0000000001
 40
0.0
 40
0.0
 40
0.0
 40
0.0
 40
0.1064471009
 40
0.218674106
 40
0.336944638
 40
0.4612118846
 40
0.7243345428
 40
0.8614582317
 40
1.0
 40
1.0
 40
1.0
 40
1.0
 10
8.8551008623
 20
5.9581235996
 30
0.0
 10
8.8548289561
 20
5.9576108883
 30
0.0
 10
8.8541656722
 20
5.9566107587
 30
0.0
 10
8.8528975986
 20
5.955271127
 30
0.0
 10
8.8513607576
 20
5.9540846498
 30
0.0
 10
8.8489591797
 20
5.9527169739
 30
0.0
 10
8.8462185522
 20
5.9517929134
 30
0.0
 10
8.84331581
 20
5.9513218992
 30
0.0
 10
8.8418112546
 20
5.9512412244
 30
0.0
 10
8.8410559247
 20
5.9512412244
 30
0.0
  0
SPLINE
  5
361
100
AcDbEntity
  8
ALL_ASSEMBLY_MEMBERS
100
AcDbSpline
 62
7
  6
CONTINUOUS
 70
0
 71
3
 72
17
 73
13
 74
0
 42
0.0000001
 43
0.0000001
 44
0.0000000001
 40
0.0
 40
0.0
 40
0.0
 40
0.0
 40
0.0048096997
 40
0.01918271
 40
0.0429880657
 40
0.0759918178
 40
0.1682543028
 40
0.2924541722
 40
0.4438649622
 40
0.6167363835
 40
0.8044808234
 40
1.0
 40
1.0
 40
1.0
 40
1.0
 10
5.6213509317
 20
3.1468478261
 30
0.0
 10
5.6213226508
 20
3.1460531218
 30
0.0
 10
5.6212119112
 20
3.142883501
 30
0.0
 10
5.6209791296
 20
3.1357799167
 30
0.0
 10
5.6206150712
 20
3.1240167178
 30
0.0
 10
5.6199019437
 20
3.0993804144
 30
0.0
 10
5.6188379935
 20
3.0581487928
 30
0.0
 10
5.6174949192
 20
2.997341538
 30
0.0
 10
5.6161449283
 20
2.9232042824
 30
0.0
 10
5.6149568767
 20
2.8385569114
 30
0.0
 10
5.6140992476
 20
2.7466125135
 30
0.0
 10
5.6138611105
 20
2.683245942
 30
0.0
 10
5.6138515358
 20
2.650919972
 30
0.0
  0
SPLINE
  5
362
100
AcDbEntity
  8
ALL_ASSEMBLY_MEMBERS
100
AcDbSpline
 62
7
  6
CONTINUOUS
 70
0
 71
3
 72
17
 73
13
 74
0
 42
0.0000001
 43
0.0000001
 44
0.0000000001
 40
0.0
 40
0.0
 40
0.0
 40
0.0
 40
0.0048090304
 40
0.0191800613
 40
0.0429822521
 40
0.0759818091
 40
0.1682339249
 40
0.2924231068
 40
0.4438263859
 40
0.6166975296
 40
0.8044531391
 40
1.0
 40
1.0
 40
1.0
 40
1.0
 10
4.8713509317
 20
3.1468478261
 30
0.0
 10
4.8713791942
 20
3.1460536433
 30
0.0
 10
4.8714898627
 20
3.1428860992
 30
0.0
 10
4.8717225011
 20
3.1357871491
 30
0.0
 10
4.8720863434
 20
3.1240315769
 30
0.0
 10
4.872799075
 20
3.0994109446
 30
0.0
 10
4.8738625014
 20
3.0582048214
 30
0.0
 10
4.8752050493
 20
2.9974337395
 30
0.0
 10
4.8765547298
 20
2.9233378858
 30
0.0
 10
4.8777428492
 20
2.8387337423
 30
0.0
 10
4.8786010903
 20
2.7468305299
 30
0.0
 10
4.8788400786
 20
2.6834903131
 30
0.0
 10
4.8788502492
 20
2.6511764862
 30
0.0
  0
SPLINE
  5
363
100
AcDbEntity
  8
ALL_ASSEMBLY_MEMBERS
100
AcDbSpline
 62
7
  6
CONTINUOUS
 70
0
 71
3
 72
13
 73
9
 74
0
 42
0.0000001
 43
0.0000001
 44
0.0000000001
 40
0.0
 40
0.0
 40
0.0
 40
0.0
 40
0.1249962009
 40
0.2499966271
 40
0.4999999933
 40
0.7500033587
 40
0.8750038007
 40
1.0
 40
1.0
 40
1.0
 40
1.0
 10
4.9480407225
 20
3.6585645544
 30
0.0
 10
4.935717985
 20
3.6373894824
 30
0.0
 10
4.9111155574
 20
3.595013329
 30
0.0
 10
4.8620078071
 20
3.510203245
 30
0.0
 10
4.8007223476
 20
3.4041316136
 30
0.0
 10
4.7395042793
 20
3.2980210702
 30
0.0
 10
4.6906105493
 20
3.2130874187
 30
0.0
 10
4.6662128544
 20
3.1705930592
 30
0.0
 10
4.6540361407
 20
3.149333681
 30
0.0
  0
SPLINE
  5
364
100
AcDbEntity
  8
ALL_ASSEMBLY_MEMBERS
100
AcDbSpline
 62
7
  6
CONTINUOUS
 70
0
 71
3
 72
15
 73
11
 74
0
 42
0.0000001
 43
0.0000001
 44
0.0000000001
 40
0.0
 40
0.0
 40
0.0
 40
0.0
 40
0.1249961551
 40
0.2499965901
 40
0.3749981458
 40
0.4999999914
 40
0.6250018359
 40
0.7500034009
 40
0.8750038409
 40
1.0
 40
1.0
 40
1.0
 40
1.0
 10
5.5403555278
 20
3.6610504096
 30
0.0
 10
5.5158559981
 20
3.6609664526
 30
0.0
 10
5.4668560519
 20
3.6608102885
 30
0.0
 10
5.393355253
 20
3.6606684017
 30
0.0
 10
5.3198532474
 20
3.6605973315
 30
0.0
 10
5.2463509366
 20
3.660574061
 30
0.0
 10
5.1728486242
 20
3.6605973995
 30
0.0
 10
5.0993466155
 20
3.6606681176
 30
0.0
 10
5.0258458139
 20
3.6608105126
 30
0.0
 10
4.9768458658
 20
3.6609665346
 30
0.0
 10
4.952346335
 20
3.6610504096
 30
0.0
  0
SPLINE
  5
365
100
AcDbEntity
  8
ALL_ASSEMBLY_MEMBERS
100
AcDbSpline
 62
7
  6
CONTINUOUS
 70
0
 71
3
 72
13
 73
9
 74
0
 42
0.0000001
 43
0.0000001
 44
0.0000000001
 40
0.0
 40
0.0
 40
0.0
 40
0.0
 40
0.1249962009
 40
0.2499966271
 40
0.4999999933
 40
0.7500033587
 40
0.8750038007
 40
1.0
 40
1.0
 40
1.0
 40
1.0
 10
5.5403555133
 20
3.6610504096
 30
0.0
 10
5.5158559943
 20
3.6611346773
 30
0.0
 10
5.4668559551
 20
3.6612529279
 30
0.0
 10
5.3688543927
 20
3.6613764452
 30
0.0
 10
5.2463509356
 20
3.6614153943
 30
0.0
 10
5.1238474752
 20
3.6613765249
 30
0.0
 10
5.0258459104
 20
3.6612529115
 30
0.0
 10
4.9768458682
 20
3.6611347553
 30
0.0
 10
4.9523463497
 20
3.6610504096
 30
0.0
  0
SPLINE
  5
366
100
AcDbEntity
  8
ALL_ASSEMBLY_MEMBERS
100
AcDbSpline
 62
7
  6
CONTINUOUS
 70
0
 71
3
 72
15
 73
11
 74
0
 42
0.0000001
 43
0.0000001
 44
0.0000000001
 40
0.0
 40
0.0
 40
0.0
 40
0.0
 40
0.1249961551
 40
0.2499965901
 40
0.3749981458
 40
0.4999999914
 40
0.6250018359
 40
0.7500034009
 40
0.8750038409
 40
1.0
 40
1.0
 40
1.0
 40
1.0
 10
5.8386657297
 20
3.1493336688
 30
0.0
 10
5.826343256
 20
3.1705089054
 30
0.0
 10
5.8017080409
 20
3.2128660215
 30
0.0
 10
5.7648347638
 20
3.2764486372
 30
0.0
 10
5.7280222123
 20
3.3400677062
 30
0.0
 10
5.6912509042
 20
3.4037109393
 30
0.0
 10
5.6545199597
 20
3.4673774783
 30
0.0
 10
5.617830199
 20
3.5310674441
 30
0.0
 10
5.581203116
 20
3.594792203
 30
0.0
 10
5.5568382609
 20
3.6373054139
 30
0.0
 10
5.5446611333
 20
3.6585645674
 30
0.0
  0
SPLINE
  5
367
100
AcDbEntity
  8
ALL_ASSEMBLY_MEMBERS
100
AcDbSpline
 62
7
  6
CONTINUOUS
 70
0
 71
3
 72
13
 73
9
 74
0
 42
0.0000001
 43
0.0000001
 44
0.0000000001
 40
0.0
 40
0.0
 40
0.0
 40
0.0
 40
0.1249962009
 40
0.2499966271
 40
0.4999999933
 40
0.7500033587
 40
0.8750038007
 40
1.0
 40
1.0
 40
1.0
 40
1.0
 10
5.8386657225
 20
3.1493336813
 30
0.0
 10
5.8264889409
 20
3.170593021
 30
0.0
 10
5.8020913294
 20
3.213087425
 30
0.0
 10
5.7531975173
 20
3.2980210263
 30
0.0
 10
5.6919795197
 20
3.4041316068
 30
0.0
 10
5.6306941276
 20
3.5102032808
 30
0.0
 10
5.5815862928
 20
3.5950133188
 30
0.0
 10
5.5569839454
 20
3.6373895221
 30
0.0
 10
5.5446611407
 20
3.6585645547
 30
0.0
  0
SPLINE
  5
368
100
AcDbEntity
  8
ALL_ASSEMBLY_MEMBERS
100
AcDbSpline
 62
7
  6
CONTINUOUS
 70
0
 71
3
 72
13
 73
9
 74
0
 42
0.0000001
 43
0.0000001
 44
0.0000000001
 40
0.0
 40
0.0
 40
0.0
 40
0.0
 40
0.2500020386
 40
0.5000045959
 40
0.6250056765
 40
0.7500061741
 40
0.8750052473
 40
1.0
 40
1.0
 40
1.0
 40
1.0
 10
5.6142569929
 20
2.7563938096
 30
0.0
 10
5.6328825444
 20
2.788768251
 30
0.0
 10
5.6701788935
 20
2.8534911932
 30
0.0
 10
5.7168751025
 20
2.9343511357
 30
0.0
 10
5.7542812166
 20
2.9990106042
 30
0.0
 10
5.7823652454
 20
3.0474877417
 30
0.0
 10
5.8104945213
 20
3.0959375477
 30
0.0
 10
5.8292734102
 20
3.1282218703
 30
0.0
 10
5.83866573
 20
3.1443619839
 30
0.0
  0
SPLINE
  5
369
100
AcDbEntity
  8
ALL_ASSEMBLY_MEMBERS
100
AcDbSpline
 62
7
  6
CONTINUOUS
 70
0
 71
3
 72
11
 73
7
 74
0
 42
0.0000001
 43
0.0000001
 44
0.0000000001
 40
0.0
 40
0.0
 40
0.0
 40
0.0
 40
0.2500019675
 40
0.5000046051
 40
0.7500060844
 40
1.0
 40
1.0
 40
1.0
 40
1.0
 10
5.6142502063
 20
2.7551042008
 30
0.0
 10
5.6330048029
 20
2.7875119231
 30
0.0
 10
5.6704808569
 20
2.8523466599
 30
0.0
 10
5.7266397547
 20
2.9496304931
 30
0.0
 10
5.7827376207
 20
3.0469481286
 30
0.0
 10
5.8200564554
 20
3.1118719693
 30
0.0
 10
5.8386657227
 20
3.1443619711
 30
0.0
  0
SPLINE
  5
36A
100
AcDbEntity
  8
ALL_ASSEMBLY_MEMBERS
100
AcDbSpline
 62
7
  6
CONTINUOUS
 70
0
 71
3
 72
13
 73
9
 74
0
 42
0.0000001
 43
0.0000001
 44
0.0000000001
 40
0.0
 40
0.0
 40
0.0
 40
0.0
 40
0.1249947493
 40
0.2499938182
 40
0.3749943143
 40
0.4999953857
 40
0.7499979458
 40
1.0
 40
1.0
 40
1.0
 40
1.0
 10
4.6540361337
 20
3.1443619834
 30
0.0
 10
4.6634285361
 20
3.128221852
 30
0.0
 10
4.6822076051
 20
3.0959375026
 30
0.0
 10
4.7103367236
 20
3.0474874073
 30
0.0
 10
4.7384207346
 20
2.999010063
 30
0.0
 10
4.7758272344
 20
2.9343505536
 30
0.0
 10
4.8225233916
 20
2.8534902478
 30
0.0
 10
4.8598201197
 20
2.7887672556
 30
0.0
 10
4.8784456714
 20
2.7563926791
 30
0.0
  0
SPLINE
  5
36B
100
AcDbEntity
  8
ALL_ASSEMBLY_MEMBERS
100
AcDbSpline
 62
7
  6
CONTINUOUS
 70
0
 71
3
 72
11
 73
7
 74
0
 42
0.0000001
 43
0.0000001
 44
0.0000000001
 40
0.0
 40
0.0
 40
0.0
 40
0.0
 40
0.2499939066
 40
0.4999953816
 40
0.7499980258
 40
1.0
 40
1.0
 40
1.0
 40
1.0
 10
4.6540361408
 20
3.1443619709
 30
0.0
 10
4.6726454852
 20
3.1118720743
 30
0.0
 10
4.7099641161
 20
3.0469482383
 30
0.0
 10
4.7660619696
 20
2.9496307754
 30
0.0
 10
4.8222207561
 20
2.8523470554
 30
0.0
 10
4.8596967064
 20
2.7875123756
 30
0.0
 10
4.8784513183
 20
2.7551047207
 30
0.0
  0
SPLINE
  5
36C
100
AcDbEntity
  8
ALL_ASSEMBLY_MEMBERS
100
AcDbSpline
 62
7
  6
CONTINUOUS
 70
0
 71
3
 72
14
 73
10
 74
0
 42
0.0000001
 43
0.0000001
 44
0.0000000001
 40
0.0
 40
0.0
 40
0.0
 40
0.0
 40
0.0183732792
 40
0.0728644788
 40
0.1617632232
 40
0.2823882068
 40
0.431172873
 40
0.6037746093
 40
1.0
 40
1.0
 40
1.0
 40
1.0
 10
5.4338509317
 20
3.4716073525
 30
0.0
 10
5.4338094987
 20
3.467629712
 30
0.0
 10
5.4336502925
 20
3.4518551935
 30
0.0
 10
5.4333343325
 20
3.416834512
 30
0.0
 10
5.4328677466
 20
3.3596765914
 30
0.0
 10
5.4323099667
 20
3.282104019
 30
0.0
 10
5.4317137426
 20
3.1864094104
 30
0.0
 10
5.4309052787
 20
3.0310469505
 30
0.0
 10
5.4304756905
 20
2.9078951824
 30
0.0
 10
5.4302937529
 20
2.8221116967
 30
0.0
  0
LINE
  5
36D
100
AcDbEntity
  8
ALL_ASSEMBLY_MEMBERS
100
AcDbLine
 62
7
  6
CONTINUOUS
 10
5.4302937529
 20
2.8221116967
 11
5.4302876779
 21
2.8192259623
  0
LINE
  5
36E
100
AcDbEntity
  8
ALL_ASSEMBLY_MEMBERS
100
AcDbLine
 62
7
  6
CONTINUOUS
 10
5.4302876779
 20
2.8192259623
 11
5.4301009317
 21
2.6468478261
  0
SPLINE
  5
36F
100
AcDbEntity
  8
ALL_ASSEMBLY_MEMBERS
100
AcDbSpline
 62
7
  6
CONTINUOUS
 70
0
 71
3
 72
14
 73
10
 74
0
 42
0.0000001
 43
0.0000001
 44
0.0000000001
 40
0.0
 40
0.0
 40
0.0
 40
0.0
 40
0.0183732792
 40
0.0728644788
 40
0.1617632232
 40
0.2823882068
 40
0.431172873
 40
0.6037746093
 40
1.0
 40
1.0
 40
1.0
 40
1.0
 10
5.0588509317
 20
3.4716073525
 30
0.0
 10
5.0588923646
 20
3.467629712
 30
0.0
 10
5.0590515708
 20
3.4518551935
 30
0.0
 10
5.0593675309
 20
3.416834512
 30
0.0
 10
5.0598341167
 20
3.3596765914
 30
0.0
 10
5.0603918967
 20
3.282104019
 30
0.0
 10
5.0609881208
 20
3.1864094104
 30
0.0
 10
5.0617965847
 20
3.0310469505
 30
0.0
 10
5.0622261729
 20
2.9078951824
 30
0.0
 10
5.0624081105
 20
2.8221116967
 30
0.0
  0
LINE
  5
370
100
AcDbEntity
  8
ALL_ASSEMBLY_MEMBERS
100
AcDbLine
 62
7
  6
CONTINUOUS
 10
5.0624081105
 20
2.8221116967
 11
5.0624141854
 21
2.8192259623
  0
LINE
  5
371
100
AcDbEntity
  8
ALL_ASSEMBLY_MEMBERS
100
AcDbLine
 62
7
  6
CONTINUOUS
 10
5.0624141854
 20
2.8192259623
 11
5.0626009317
 21
2.6468478261
  0
SPLINE
  5
372
100
AcDbEntity
  8
ALL_ASSEMBLY_MEMBERS
100
AcDbSpline
 62
7
  6
CONTINUOUS
 70
0
 71
3
 72
15
 73
11
 74
0
 42
0.0000001
 43
0.0000001
 44
0.0000000001
 40
0.0
 40
0.0
 40
0.0
 40
0.0
 40
0.1249961551
 40
0.2499965901
 40
0.3749981458
 40
0.4999999914
 40
0.6250018359
 40
0.7500034009
 40
0.8750038409
 40
1.0
 40
1.0
 40
1.0
 40
1.0
 10
4.9480407297
 20
3.6585645669
 30
0.0
 10
4.9358636737
 20
3.6373053733
 30
0.0
 10
4.9114989427
 20
3.5947920931
 30
0.0
 10
4.8748714209
 20
3.5310675906
 30
0.0
 10
4.8381819667
 20
3.4673774514
 30
0.0
 10
4.8014509641
 20
3.4037109478
 30
0.0
 10
4.7646795962
 20
3.3400677473
 30
0.0
 10
4.7278673482
 20
3.2764484996
 30
0.0
 10
4.6909936297
 20
3.2128661357
 30
0.0
 10
4.6663585366
 20
3.1705089468
 30
0.0
 10
4.6540361334
 20
3.1493336683
 30
0.0
  0
ENDSEC
  0
SECTION
  2
OBJECTS
  0
DICTIONARY
  5
C
100
AcDbDictionary
280
0
281
1
  3
ACAD_GROUP
350
D
  3
ACAD_MLINESTYLE
350
17
  3
ACAD_LAYOUT
350
1A
  3
ACAD_PLOTSETTINGS
350
19
  3
ACAD_PLOTSTYLENAME
350
E
  0
DICTIONARY
  5
D
102
{ACAD_REACTORS
330
C
102
}
100
AcDbDictionary
280
0
281
1
  0
ACDBDICTIONARYWDFLT
  5
E
102
{ACAD_REACTORS
330
C
102
}
100
AcDbDictionary
281
1
  3
Normal
350
F
100
AcDbDictionaryWithDefault
340
F
  0
DICTIONARY
  5
17
102
{ACAD_REACTORS
330
C
102
}
100
AcDbDictionary
280
0
281
1
  3
Standard
350
18
  0
DICTIONARY
  5
19
102
{ACAD_REACTORS
330
C
102
}
100
AcDbDictionary
281
1
  0
DICTIONARY
  5
1A
102
{ACAD_REACTORS
330
C
102
}
100
AcDbDictionary
281
1
  3
Model
350
373
  3
Layout1
350
374
  0
ACDBPLACEHOLDER
  5
F
102
{ACAD_REACTORS
330
E
102
}
  0
MLINESTYLE
  5
18
102
{ACAD_REACTORS
330
17
102
}
100
AcDbMlineStyle
  2
STANDARD
 70
0
  3

 62
256
 51
90.0
 52
90.0
 71
2
 49
0.5
 62
256
  6
BYLAYER
 49
-0.5
 62
256
  6
BYLAYER
  0
LAYOUT
  5
373
102
{ACAD_REACTORS
330
1A
102
}
100
AcDbPlotSettings
  1

  2
none_device
  4
ANSI_A_(11.00_x_8.50_Inches)
  6

 40
0.0
 41
0.0
 42
0.0
 43
0.0
 44
279.4
 45
215.9
 46
0.0
 47
0.0
 48
0.0
 49
0.0
140
0.0
141
0.0
142
1.0
143
1.0
 70
1024
 72
0
 73
0
 74
0
  7

 75
0
147
1.0
148
0.0
149
0.0
100
AcDbLayout
  1
Model
 70
0
 71
0
 10
0.0
 20
0.0
 11
11.0
 21
8.5
 12
0.0
 22
0.0
 32
0.0
 14
0.0
 24
0.0
 34
0.0
 15
0.0
 25
0.0
 35
0.0
146
0.0
 13
0.0
 23
0.0
 33
0.0
 16
1.0
 26
0.0
 36
0.0
 17
0.0
 27
1.0
 37
0.0
 76
0
330
21F
345
0
346
0
  0
LAYOUT
  5
374
102
{ACAD_REACTORS
330
1A
102
}
100
AcDbPlotSettings
  1

  2
none_device
  4
ANSI_A_(11.00_x_8.50_Inches)
  6

 40
0.0
 41
0.0
 42
0.0
 43
0.0
 44
279.4
 45
215.9
 46
0.0
 47
0.0
 48
0.0
 49
0.0
140
0.0
141
0.0
142
1.0
143
1.0
 70
0
 72
0
 73
0
 74
0
  7

 75
0
147
1.0
148
0.0
149
0.0
100
AcDbLayout
  1
Layout1
 70
0
 71
1
 10
0.0
 20
0.0
 11
11.0
 21
8.5
 12
0.0
 22
0.0
 32
0.0
 14
0.0
 24
0.0
 34
0.0
 15
0.0
 25
0.0
 35
0.0
146
0.0
 13
0.0
 23
0.0
 33
0.0
 16
1.0
 26
0.0
 36
0.0
 17
0.0
 27
1.0
 37
0.0
 76
0
330
220
345
0
346
0
  0
ENDSEC
  0
EOF
