999
DXF file: 3-1235_RIGHT.dxf
999
Pro/ENGINEER 2018400 by Parametric Technology Corporation
  0
SECTION
  2
HEADER
  9
$ACADVER
  1
AC1027
  9
$DWGCODEPAGE
  3
ANSI_1252
  9
$EXTMAX
 10
11.0
 20
8.5
 30
0.0
  9
$EXTMIN
 10
0.0
 20
0.0
 30
0.0
  9
$LIMMIN
 10
0.0
 20
0.0
  9
$LIMMAX
 10
11.0
 20
8.5
  9
$VIEWCTR
 10
5.5
 20
4.25
  9
$VIEWSIZE
 40
8.5
  9
$CLAYER
  8
0
  9
$LTSCALE
 40
0.605
  9
$CELTYPE
  6
BYLAYER
  9
$DIMSCALE
 40
1.0
  9
$DIMASZ
 40
0.1
  9
$DIMEXO
 40
0.0625
  9
$DIMDLI
 40
0.418
  9
$DIMEXE
 40
0.125
  9
$DIMCEN
 40
0.099
  9
$DIMLFAC
 40
1.0
  9
$DIMBLK
  1
_FILLED
  9
$DIMALT
 70
1
  9
$DIMALTD
 70
2
  9
$DIMALTTD
 70
2
  9
$DIMALTF
 40
25.4
  9
$DIMTXT
 40
0.08
  9
$DIMTOL
 70
1
  9
$DIMLIM
 70
0
  9
$DIMTFAC
 40
1.0
  9
$DIMTP
 40
0.001
  9
$DIMTM
 40
0.001
  9
$DIMGAP
 40
0.09
  9
$DIMDSEP
 70
46
  9
$AUNITS
 70
0
  9
$PDMODE
 70
3
  9
$PDSIZE
 40
0.3125
  9
$HANDSEED
  5
2FE
  9
$TILEMODE
 70
1
  9
$MEASUREMENT
 70
0
  9
$INSUNITS
 70
1
  0
ENDSEC
  0
SECTION
  2
CLASSES
  0
CLASS
  1
ACDBDICTIONARYWDFLT
  2
AcDbDictionaryWithDefault
  3
AutoCAD 2000
 90
0
 91
1
280
0
281
0
  0
CLASS
  1
ACDBPLACEHOLDER
  2
AcDbPlaceHolder
  3
AutoCAD 2000
 90
0
 91
1
280
0
281
0
  0
CLASS
  1
LAYOUT
  2
AcDbLayout
  3
AutoCAD 2000
 90
0
 91
0
280
0
281
0
  0
ENDSEC
  0
SECTION
  2
TABLES
  0
TABLE
  2
VPORT
  5
8
100
AcDbSymbolTable
 70
2
  0
VPORT
  5
1F4
100
AcDbSymbolTableRecord
100
AcDbViewportTableRecord
  2
*ACTIVE
 70
0
 10
0.0
 20
0.0
 11
1.0
 21
1.0
 12
5.5
 22
4.25
 13
0.0
 23
0.0
 14
1.0
 24
1.0
 15
0.0
 25
0.0
 16
0.0
 26
0.0
 36
1.0
 17
0.0
 27
0.0
 37
0.0
 40
8.5
 41
1.2941176471
 42
50.0
 43
0.0
 44
0.0
 50
0.0
 51
0.0
 71
0
 72
100
 73
1
 74
1
 75
0
 76
0
 77
0
 78
0
  0
ENDTAB
  0
TABLE
  2
LTYPE
  5
5
100
AcDbSymbolTable
 70
6
  0
LTYPE
  5
14
100
AcDbSymbolTableRecord
100
AcDbLinetypeTableRecord
  2
BYBLOCK
 70
0
  3

 72
65
 73
0
 40
0.0
  0
LTYPE
  5
15
100
AcDbSymbolTableRecord
100
AcDbLinetypeTableRecord
  2
BYLAYER
 70
0
  3

 72
65
 73
0
 40
0.0
  0
LTYPE
  5
16
100
AcDbSymbolTableRecord
100
AcDbLinetypeTableRecord
  2
CONTINUOUS
 70
64
  3
Solid line
 72
65
 73
0
 40
0.0
  0
LTYPE
  5
1F5
100
AcDbSymbolTableRecord
100
AcDbLinetypeTableRecord
  2
CENTER
 70
64
  3
____ _ ____ _ ____ _ ____ _ ____ _ ____ _ ____
 72
65
 73
4
 40
0.6
 49
0.375
 74
0
 49
-0.075
 74
0
 49
0.075
 74
0
 49
-0.075
 74
0
  0
LTYPE
  5
1F6
100
AcDbSymbolTableRecord
100
AcDbLinetypeTableRecord
  2
HIDDEN
 70
64
  3
- - - - - - - - - - - - - - - - - - - -
 72
65
 73
2
 40
0.2
 49
0.1
 74
0
 49
-0.1
 74
0
  0
LTYPE
  5
1F7
100
AcDbSymbolTableRecord
100
AcDbLinetypeTableRecord
  2
PHANTOM
 70
64
  3
_____ _ _ _____ _ _ _____ _ _ _____
 72
65
 73
6
 40
0.8
 49
0.45
 74
0
 49
-0.05
 74
0
 49
0.1
 74
0
 49
-0.05
 74
0
 49
0.1
 74
0
 49
-0.05
 74
0
  0
LTYPE
  5
1F8
100
AcDbSymbolTableRecord
100
AcDbLinetypeTableRecord
  2
DOT
 70
64
  3
. . . . . . . . . . . . . . . . . . . .
 72
65
 73
2
 40
0.2
 49
0.1
 74
0
 49
-0.1
 74
0
  0
LTYPE
  5
1F9
100
AcDbSymbolTableRecord
100
AcDbLinetypeTableRecord
  2
DASHED
 70
64
  3
- - - - - - - - - - - - - - - - - - - -
 72
65
 73
2
 40
0.2
 49
0.1
 74
0
 49
-0.1
 74
0
  0
ENDTAB
  0
TABLE
  2
LAYER
  5
2
100
AcDbSymbolTable
 70
36
  0
LAYER
  5
10
100
AcDbSymbolTableRecord
100
AcDbLayerTableRecord
  2
0
 70
0
 62
7
  6
CONTINUOUS
370
-3
390
F
  0
LAYER
  5
1FA
100
AcDbSymbolTableRecord
100
AcDbLayerTableRecord
  2
DEFAULT_1
 70
0
 62
7
  6
CENTER
370
-3
390
F
  0
LAYER
  5
1FB
100
AcDbSymbolTableRecord
100
AcDbLayerTableRecord
  2
DEFAULT_2
 70
0
 62
8
  6
HIDDEN
370
-3
390
F
  0
LAYER
  5
1FC
100
AcDbSymbolTableRecord
100
AcDbLayerTableRecord
  2
DEFAULT_3
 70
0
 62
7
  6
PHANTOM
370
-3
390
F
  0
LAYER
  5
1FD
100
AcDbSymbolTableRecord
100
AcDbLayerTableRecord
  2
_  SHELL
 70
0
 62
7
  6
CONTINUOUS
370
-3
390
F
  0
LAYER
  5
1FE
100
AcDbSymbolTableRecord
100
AcDbLayerTableRecord
  2
06___PRT_ALL_SURFS
 70
0
 62
7
  6
CONTINUOUS
370
-3
390
F
  0
LAYER
  5
1FF
100
AcDbSymbolTableRecord
100
AcDbLayerTableRecord
  2
2-144_ASSY_PLANES
 70
0
 62
7
  6
CONTINUOUS
370
-3
390
F
  0
LAYER
  5
200
100
AcDbSymbolTableRecord
100
AcDbLayerTableRecord
  2
ALL_ASSEMBLY_MEMBERS
 70
0
 62
7
  6
CONTINUOUS
370
-3
390
F
  0
LAYER
  5
201
100
AcDbSymbolTableRecord
100
AcDbLayerTableRecord
  2
ALL_FEATURES
 70
0
 62
7
  6
CONTINUOUS
370
-3
390
F
  0
LAYER
  5
202
100
AcDbSymbolTableRecord
100
AcDbLayerTableRecord
  2
AXES_FEATURES
 70
0
 62
7
  6
CONTINUOUS
370
-3
390
F
  0
LAYER
  5
203
100
AcDbSymbolTableRecord
100
AcDbLayerTableRecord
  2
CHAMFER_FEATURES
 70
0
 62
7
  6
CONTINUOUS
370
-3
390
F
  0
LAYER
  5
204
100
AcDbSymbolTableRecord
100
AcDbLayerTableRecord
  2
COSMETIC
 70
0
 62
7
  6
CONTINUOUS
370
-3
390
F
  0
LAYER
  5
205
100
AcDbSymbolTableRecord
100
AcDbLayerTableRecord
  2
CURVES
 70
0
 62
7
  6
CONTINUOUS
370
-3
390
F
  0
LAYER
  5
206
100
AcDbSymbolTableRecord
100
AcDbLayerTableRecord
  2
CUT_FEATURES
 70
0
 62
7
  6
CONTINUOUS
370
-3
390
F
  0
LAYER
  5
207
100
AcDbSymbolTableRecord
100
AcDbLayerTableRecord
  2
DATUM_PLANES
 70
0
 62
7
  6
CONTINUOUS
370
-3
390
F
  0
LAYER
  5
208
100
AcDbSymbolTableRecord
100
AcDbLayerTableRecord
  2
DATUM_POINTS
 70
0
 62
7
  6
CONTINUOUS
370
-3
390
F
  0
LAYER
  5
209
100
AcDbSymbolTableRecord
100
AcDbLayerTableRecord
  2
DEFAULT_COORDINATE_SYSTEM
 70
0
 62
7
  6
CONTINUOUS
370
-3
390
F
  0
LAYER
  5
20A
100
AcDbSymbolTableRecord
100
AcDbLayerTableRecord
  2
DEFAULT_DATUM_AXES
 70
0
 62
7
  6
CONTINUOUS
370
-3
390
F
  0
LAYER
  5
20B
100
AcDbSymbolTableRecord
100
AcDbLayerTableRecord
  2
DEFAULT_DATUM_CURVES
 70
0
 62
7
  6
CONTINUOUS
370
-3
390
F
  0
LAYER
  5
20C
100
AcDbSymbolTableRecord
100
AcDbLayerTableRecord
  2
DEFAULT_DATUM_PLANES
 70
0
 62
7
  6
CONTINUOUS
370
-3
390
F
  0
LAYER
  5
20D
100
AcDbSymbolTableRecord
100
AcDbLayerTableRecord
  2
DEFAULT_SURFACES
 70
0
 62
7
  6
CONTINUOUS
370
-3
390
F
  0
LAYER
  5
20E
100
AcDbSymbolTableRecord
100
AcDbLayerTableRecord
  2
DIMENSIONS
 70
0
 62
7
  6
CONTINUOUS
370
-3
390
F
  0
LAYER
  5
20F
100
AcDbSymbolTableRecord
100
AcDbLayerTableRecord
  2
HOLE_FEATURES
 70
0
 62
7
  6
CONTINUOUS
370
-3
390
F
  0
LAYER
  5
210
100
AcDbSymbolTableRecord
100
AcDbLayerTableRecord
  2
INTF_BLANK
 70
0
 62
7
  6
CONTINUOUS
370
-3
390
F
  0
LAYER
  5
211
100
AcDbSymbolTableRecord
100
AcDbLayerTableRecord
  2
MAGENTA
 70
0
 62
7
  6
CONTINUOUS
370
-3
390
F
  0
LAYER
  5
212
100
AcDbSymbolTableRecord
100
AcDbLayerTableRecord
  2
NOTES
 70
0
 62
7
  6
CONTINUOUS
370
-3
390
F
  0
LAYER
  5
213
100
AcDbSymbolTableRecord
100
AcDbLayerTableRecord
  2
PART_REFERENCE_DIMENSIONS
 70
0
 62
7
  6
CONTINUOUS
370
-3
390
F
  0
LAYER
  5
214
100
AcDbSymbolTableRecord
100
AcDbLayerTableRecord
  2
PLATEDSURFAREA
 70
0
 62
7
  6
CONTINUOUS
370
-3
390
F
  0
LAYER
  5
215
100
AcDbSymbolTableRecord
100
AcDbLayerTableRecord
  2
POINTS
 70
0
 62
7
  6
CONTINUOUS
370
-3
390
F
  0
LAYER
  5
216
100
AcDbSymbolTableRecord
100
AcDbLayerTableRecord
  2
PROTRUSION_FEATURES
 70
0
 62
7
  6
CONTINUOUS
370
-3
390
F
  0
LAYER
  5
217
100
AcDbSymbolTableRecord
100
AcDbLayerTableRecord
  2
QUILT
 70
0
 62
7
  6
CONTINUOUS
370
-3
390
F
  0
LAYER
  5
218
100
AcDbSymbolTableRecord
100
AcDbLayerTableRecord
  2
REFERENCE_DIMENSIONS
 70
0
 62
7
  6
CONTINUOUS
370
-3
390
F
  0
LAYER
  5
219
100
AcDbSymbolTableRecord
100
AcDbLayerTableRecord
  2
SHELL
 70
0
 62
7
  6
CONTINUOUS
370
-3
390
F
  0
LAYER
  5
21A
100
AcDbSymbolTableRecord
100
AcDbLayerTableRecord
  2
WHITE
 70
0
 62
7
  6
CONTINUOUS
370
-3
390
F
  0
LAYER
  5
21B
100
AcDbSymbolTableRecord
100
AcDbLayerTableRecord
  2
XSEC_DATUMS
 70
0
 62
7
  6
CONTINUOUS
370
-3
390
F
  0
LAYER
  5
21C
100
AcDbSymbolTableRecord
100
AcDbLayerTableRecord
  2
___SHELL
 70
0
 62
7
  6
CONTINUOUS
370
-3
390
F
  0
ENDTAB
  0
TABLE
  2
STYLE
  5
3
100
AcDbSymbolTable
 70
1
  0
STYLE
  5
11
100
AcDbSymbolTableRecord
100
AcDbTextStyleTableRecord
  2
STANDARD
 70
0
 40
0.0
 41
0.8
 50
0.0
 71
0
 42
0.2
  3
txt
  4

  0
STYLE
  5
21D
100
AcDbSymbolTableRecord
100
AcDbTextStyleTableRecord
  2
TEXTSTYLE_1
 70
0
 40
0.0
 41
0.8
 50
0.0
 71
0
 42
0.2
  3
gdt
  4

  0
ENDTAB
  0
TABLE
  2
VIEW
  5
6
100
AcDbSymbolTable
 70
0
  0
ENDTAB
  0
TABLE
  2
UCS
  5
7
100
AcDbSymbolTable
 70
0
  0
ENDTAB
  0
TABLE
  2
APPID
  5
9
100
AcDbSymbolTable
 70
1
  0
APPID
  5
21E
100
AcDbSymbolTableRecord
100
AcDbRegAppTableRecord
  2
ACAD
 70
0
  0
ENDTAB
  0
TABLE
  2
BLOCK_RECORD
  5
1
100
AcDbSymbolTable
 70
0
  0
BLOCK_RECORD
  5
21F
100
AcDbSymbolTableRecord
100
AcDbBlockTableRecord
  2
*Model_Space
  0
BLOCK_RECORD
  5
220
100
AcDbSymbolTableRecord
100
AcDbBlockTableRecord
  2
*Paper_Space
  0
BLOCK_RECORD
  5
221
100
AcDbSymbolTableRecord
100
AcDbBlockTableRecord
  2
_FILLED
  0
ENDTAB
  0
TABLE
  2
DIMSTYLE
  5
A
100
AcDbSymbolTable
 70
1
100
AcDbDimStyleTable
 71
0
  0
DIMSTYLE
105
222
100
AcDbSymbolTableRecord
100
AcDbDimStyleTableRecord
  2
STANDARD
 70
0
  3

  4

 40
1.0
 41
0.1
 42
0.0625
 43
0.38
 44
0.125
 45
0.0
 46
0.0
 47
0.001
 48
0.001
140
0.08
141
0.09
142
0.0
143
25.4
144
1.0
145
0.0
146
1.0
147
0.09
 71
1.0
 72
0.0
 73
1
 74
1
 75
0
 76
0
 77
0
 78
4
 79
1
170
1
171
2
172
0
173
0
174
0
175
0
176
0
177
0
178
0
270
2
179
3
271
3
272
3
273
2
274
2
275
0
280
0
281
0
282
0
283
1
284
4
285
0
286
0
287
3
288
0
340
11
278
46
341
221
342
221
343
221
344
221
  0
ENDTAB
  0
ENDSEC
  0
SECTION
  2
BLOCKS
  0
BLOCK
  5
20
100
AcDbEntity
  8
0
100
AcDbBlockBegin
  2
*Model_Space
 70
0
 10
0.0
 20
0.0
 30
0.0
  3
*Model_Space
  1

  0
ENDBLK
  5
21
100
AcDbEntity
  8
0
100
AcDbBlockEnd
  0
BLOCK
  5
1C
100
AcDbEntity
  8
0
100
AcDbBlockBegin
  2
*Paper_Space
 70
0
 10
0.0
 20
0.0
 30
0.0
  3
*Paper_Space
  1

  0
ENDBLK
  5
1D
100
AcDbEntity
  8
0
100
AcDbBlockEnd
  0
BLOCK
  5
223
100
AcDbEntity
  8
0
100
AcDbBlockBegin
  2
_FILLED
 70
64
 10
0.0
 20
0.0
  3
_FILLED
  1

  0
SOLID
  5
224
100
AcDbEntity
  8
0
  6
BYBLOCK
 62
0
100
AcDbTrace
 10
0.0
 20
0.0
 11
-1.0
 21
0.2
 12
-1.0
 22
-0.2
 13
-1.0
 23
-0.2
  0
ENDBLK
  5
225
100
AcDbEntity
  8
0
  6
BYBLOCK
 62
0
100
AcDbBlockEnd
  0
ENDSEC
  0
SECTION
  2
ENTITIES
  0
MTEXT
  5
226
100
AcDbEntity
  8
0
100
AcDbMText
 62
2
  6
CONTINUOUS
  7
STANDARD
 71
3
 72
1
 10
4.1926525009
 20
1.5260481366
 30
0.0
 11
1.0
 21
0.0
 31
0.0
 73
2
 44
0.9
  1
SCALE  .500
 40
0.08
 41
0.704
  0
LINE
  5
227
100
AcDbEntity
  8
0
100
AcDbLine
 62
7
  6
CONTINUOUS
 10
0.0
 20
0.0
 11
0.0
 21
8.5
  0
LINE
  5
228
100
AcDbEntity
  8
0
100
AcDbLine
 62
7
  6
CONTINUOUS
 10
0.0
 20
0.0
 11
11.0
 21
0.0
  0
LINE
  5
229
100
AcDbEntity
  8
0
100
AcDbLine
 62
7
  6
CONTINUOUS
 10
0.0
 20
8.5
 11
11.0
 21
8.5
  0
LINE
  5
22A
100
AcDbEntity
  8
0
100
AcDbLine
 62
7
  6
CONTINUOUS
 10
11.0
 20
0.0
 11
11.0
 21
8.5
  0
LINE
  5
22B
100
AcDbEntity
  8
ALL_ASSEMBLY_MEMBERS
100
AcDbLine
 62
7
  6
CONTINUOUS
 10
4.0898275637
 20
2.3243478261
 11
3.3548609348
 21
2.3243478261
  0
LINE
  5
22C
100
AcDbEntity
  8
ALL_ASSEMBLY_MEMBERS
100
AcDbLine
 62
7
  6
CONTINUOUS
 10
6.8858442493
 20
2.4468481613
 11
7.1358442493
 21
2.4468481613
  0
LINE
  5
22D
100
AcDbEntity
  8
ALL_ASSEMBLY_MEMBERS
100
AcDbLine
 62
7
  6
CONTINUOUS
 10
7.1358442493
 20
2.5406300434
 11
6.8858442493
 21
2.5406300434
  0
LINE
  5
22E
100
AcDbEntity
  8
ALL_ASSEMBLY_MEMBERS
100
AcDbLine
 62
7
  6
CONTINUOUS
 10
3.3548444252
 20
2.6468478261
 11
3.3548444252
 21
2.3243478261
  0
LINE
  5
22F
100
AcDbEntity
  8
ALL_ASSEMBLY_MEMBERS
100
AcDbLine
 62
7
  6
CONTINUOUS
 10
3.4040799134
 20
2.6468478261
 11
3.4040799134
 21
2.3243478261
  0
LINE
  5
230
100
AcDbEntity
  8
ALL_ASSEMBLY_MEMBERS
100
AcDbLine
 62
7
  6
CONTINUOUS
 10
4.0898440733
 20
2.6468478261
 11
3.3548444252
 21
2.6468478261
  0
LINE
  5
231
100
AcDbEntity
  8
ALL_ASSEMBLY_MEMBERS
100
AcDbLine
 62
7
  6
CONTINUOUS
 10
3.7223442493
 20
2.6468478261
 11
3.7223442493
 21
2.3243478261
  0
LINE
  5
232
100
AcDbEntity
  8
ALL_ASSEMBLY_MEMBERS
100
AcDbLine
 62
7
  6
CONTINUOUS
 10
4.8858442493
 20
2.8220882997
 11
4.2223442493
 21
2.8220882997
  0
LWPOLYLINE
  5
233
100
AcDbEntity
  8
ALL_ASSEMBLY_MEMBERS
100
AcDbPolyline
 62
7
  6
CONTINUOUS
 90
6
 70
0
 10
6.5108442493
 20
3.1468478261
 10
6.55020019
 20
3.146850284
 10
6.5893050659
 20
3.1468493121
 10
6.6280917247
 20
3.1468478261
 10
6.666491813
 20
3.1468473213
 10
6.7044358874
 20
3.146847821
  0
LINE
  5
234
100
AcDbEntity
  8
ALL_ASSEMBLY_MEMBERS
100
AcDbLine
 62
7
  6
CONTINUOUS
 10
7.1358442493
 20
3.1468478261
 11
6.8858442493
 21
3.1468478261
  0
LINE
  5
235
100
AcDbEntity
  8
ALL_ASSEMBLY_MEMBERS
100
AcDbLine
 62
7
  6
CONTINUOUS
 10
4.2223442493
 20
3.1468478261
 11
6.7418535308
 21
3.1468478261
  0
LINE
  5
236
100
AcDbEntity
  8
ALL_ASSEMBLY_MEMBERS
100
AcDbLine
 62
7
  6
CONTINUOUS
 10
6.5108442493
 20
2.6326452426
 11
6.5095251484
 21
2.6329961039
  0
LINE
  5
237
100
AcDbEntity
  8
ALL_ASSEMBLY_MEMBERS
100
AcDbLine
 62
7
  6
CONTINUOUS
 10
6.5108442493
 20
2.6326452426
 11
6.509532815
 21
2.6330176636
  0
LINE
  5
238
100
AcDbEntity
  8
ALL_ASSEMBLY_MEMBERS
100
AcDbLine
 62
7
  6
CONTINUOUS
 10
4.0406085852
 20
2.6468478261
 11
4.0406085852
 21
2.3243478261
  0
LINE
  5
239
100
AcDbEntity
  8
ALL_ASSEMBLY_MEMBERS
100
AcDbLine
 62
7
  6
CONTINUOUS
 10
4.0898440733
 20
2.3243478261
 11
4.0898440733
 21
2.6468478261
  0
LWPOLYLINE
  5
23A
100
AcDbEntity
  8
ALL_ASSEMBLY_MEMBERS
100
AcDbPolyline
 62
7
  6
CONTINUOUS
 90
25
 70
0
 10
4.0898440733
 20
2.6468478261
 10
4.0899001011
 20
2.6547601042
 10
4.0902930186
 20
2.6677295343
 10
4.0911576395
 20
2.680404344
 10
4.0925949891
 20
2.6928122025
 10
4.0946808089
 20
2.7049234306
 10
4.0974563924
 20
2.7166673532
 10
4.1009126768
 20
2.7279157583
 10
4.1050327282
 20
2.7386298955
 10
4.10982822
 20
2.7488586103
 10
4.1152585359
 20
2.758532675
 10
4.1212537616
 20
2.7675716437
 10
4.127809291
 20
2.7760084969
 10
4.1348636107
 20
2.7837932287
 10
4.142335263
 20
2.7908745082
 10
4.1502173224
 20
2.7972774929
 10
4.1584454461
 20
2.8029717572
 10
4.1669381498
 20
2.8079271736
 10
4.1756831862
 20
2.8121579264
 10
4.18461362
 20
2.8156462701
 10
4.1936547326
 20
2.8183801809
 10
4.2027946761
 20
2.8203682713
 10
4.2119853782
 20
2.8216041963
 10
4.2211382445
 20
2.8220816991
 10
4.2223442493
 20
2.8220882997
  0
LINE
  5
23B
100
AcDbEntity
  8
ALL_ASSEMBLY_MEMBERS
100
AcDbLine
 62
7
  6
CONTINUOUS
 10
5.9855773976
 20
6.1468478261
 11
5.8005773976
 21
6.070218317
  0
LINE
  5
23C
100
AcDbEntity
  8
ALL_ASSEMBLY_MEMBERS
100
AcDbLine
 62
7
  6
CONTINUOUS
 10
5.9945684758
 20
6.1505720526
 11
6.1795684758
 21
6.2272015616
  0
LINE
  5
23D
100
AcDbEntity
  8
ALL_ASSEMBLY_MEMBERS
100
AcDbLine
 62
7
  6
CONTINUOUS
 10
5.9871200228
 20
6.1431235996
 11
5.8021200228
 21
6.0664940905
  0
LINE
  5
23E
100
AcDbEntity
  8
ALL_ASSEMBLY_MEMBERS
100
AcDbLine
 62
7
  6
CONTINUOUS
 10
5.9961111009
 20
6.1468478261
 11
6.1811111009
 21
6.2234773351
  0
LINE
  5
23F
100
AcDbEntity
  8
ALL_ASSEMBLY_MEMBERS
100
AcDbLine
 62
7
  6
CONTINUOUS
 10
6.5108442493
 20
3.6610504096
 11
6.5095328041
 21
3.6606779855
  0
LINE
  5
240
100
AcDbEntity
  8
ALL_ASSEMBLY_MEMBERS
100
AcDbLine
 62
7
  6
CONTINUOUS
 10
6.5108442493
 20
3.6610504096
 11
6.5095251375
 21
3.6606995453
  0
LINE
  5
241
100
AcDbEntity
  8
ALL_ASSEMBLY_MEMBERS
100
AcDbLine
 62
7
  6
CONTINUOUS
 10
4.2223442493
 20
2.8220882997
 11
4.2223442493
 21
3.4716073525
  0
LINE
  5
242
100
AcDbEntity
  8
ALL_ASSEMBLY_MEMBERS
100
AcDbLine
 62
7
  6
CONTINUOUS
 10
5.8745181851
 20
6.3934797692
 11
5.884889642
 21
6.402644876
  0
LINE
  5
243
100
AcDbEntity
  8
ALL_ASSEMBLY_MEMBERS
100
AcDbLine
 62
7
  6
CONTINUOUS
 10
5.8883263926
 20
6.3943478261
 11
5.8987040786
 21
6.4034978943
  0
LWPOLYLINE
  5
244
100
AcDbEntity
  8
ALL_ASSEMBLY_MEMBERS
100
AcDbPolyline
 62
7
  6
CONTINUOUS
 90
31
 70
0
 10
4.2223442493
 20
3.4716073525
 10
4.1808847745
 20
3.470693212
 10
4.1329490765
 20
3.4673349294
 10
4.0855834502
 20
3.4615428972
 10
4.0388927925
 20
3.4533569201
 10
3.9929857315
 20
3.4428220564
 10
3.9479739554
 20
3.4299899187
 10
3.9039713509
 20
3.4149198583
 10
3.861074677
 20
3.3976720965
 10
3.8193688813
 20
3.3783060156
 10
3.7789591126
 20
3.3568950781
 10
3.7399404519
 20
3.3335153638
 10
3.702381861
 20
3.308231948
 10
3.6663764558
 20
3.2811296755
 10
3.6320147726
 20
3.2523006206
 10
3.5993606992
 20
3.2218215001
 10
3.5684947666
 20
3.1897894327
 10
3.539496234
 20
3.1563111774
 10
3.5124239304
 20
3.1214800621
 10
3.4873446079
 20
3.085408098
 10
3.4643189022
 20
3.0482125113
 10
3.4433913184
 20
3.0099970889
 10
3.4246113138
 20
2.9708867276
 10
3.4080186081
 20
2.9310052293
 10
3.3936381559
 20
2.8904559877
 10
3.3814992671
 20
2.8493690151
 10
3.3716226416
 20
2.8078744524
 10
3.3640166639
 20
2.7660757635
 10
3.3586895616
 20
2.7240955804
 10
3.3556442643
 20
2.6820764264
 10
3.3548444252
 20
2.6468478261
  0
LINE
  5
245
100
AcDbEntity
  8
ALL_ASSEMBLY_MEMBERS
100
AcDbLine
 62
7
  6
CONTINUOUS
 10
4.8858442493
 20
3.4716073525
 11
4.2223442493
 21
3.4716073525
  0
LINE
  5
246
100
AcDbEntity
  8
ALL_ASSEMBLY_MEMBERS
100
AcDbLine
 62
7
  6
CONTINUOUS
 10
5.7433442493
 20
6.2493656828
 11
5.734194181
 21
6.2389879967
  0
LINE
  5
247
100
AcDbEntity
  8
ALL_ASSEMBLY_MEMBERS
100
AcDbLine
 62
7
  6
CONTINUOUS
 10
5.7442123061
 20
6.2631738903
 11
5.7350471994
 21
6.2528024334
  0
LINE
  5
248
100
AcDbEntity
  8
ALL_ASSEMBLY_MEMBERS
100
AcDbLine
 62
7
  6
CONTINUOUS
 10
5.8745181851
 20
6.3934797692
 11
5.7442123061
 21
6.2631738903
  0
LINE
  5
249
100
AcDbEntity
  8
ALL_ASSEMBLY_MEMBERS
100
AcDbLine
 62
7
  6
CONTINUOUS
 10
5.8883263926
 20
6.3943478261
 11
5.7433442493
 21
6.2493656828
  0
LINE
  5
24A
100
AcDbEntity
  8
ALL_ASSEMBLY_MEMBERS
100
AcDbLine
 62
7
  6
CONTINUOUS
 10
5.9036081385
 20
6.3424544278
 11
5.7952376475
 21
6.2340839368
  0
LINE
  5
24B
100
AcDbEntity
  8
ALL_ASSEMBLY_MEMBERS
100
AcDbLine
 62
7
  6
CONTINUOUS
 10
5.9104905137
 20
6.3355720526
 11
5.8021200228
 21
6.2272015616
  0
LINE
  5
24C
100
AcDbEntity
  8
ALL_ASSEMBLY_MEMBERS
100
AcDbLine
 62
7
  6
CONTINUOUS
 10
6.9749601859
 20
6.4392757374
 11
6.9824706279
 21
6.4437228261
  0
LINE
  5
24D
100
AcDbEntity
  8
ALL_ASSEMBLY_MEMBERS
100
AcDbLine
 62
7
  6
CONTINUOUS
 10
7.1358442493
 20
3.7530656087
 11
6.8858442493
 21
3.7530656087
  0
LINE
  5
24E
100
AcDbEntity
  8
ALL_ASSEMBLY_MEMBERS
100
AcDbLine
 62
7
  6
CONTINUOUS
 10
5.8021200228
 20
6.0664940905
 11
5.7952376475
 21
6.0596117153
  0
LINE
  5
24F
100
AcDbEntity
  8
ALL_ASSEMBLY_MEMBERS
100
AcDbLine
 62
7
  6
CONTINUOUS
 10
6.0711979848
 20
6.3355720526
 11
6.07808036
 21
6.3424544278
  0
LINE
  5
250
100
AcDbEntity
  8
ALL_ASSEMBLY_MEMBERS
100
AcDbLine
 62
7
  6
CONTINUOUS
 10
7.1358442493
 20
3.8468474909
 11
6.8858442493
 21
3.8468474909
  0
LINE
  5
251
100
AcDbEntity
  8
ALL_ASSEMBLY_MEMBERS
100
AcDbLine
 62
7
  6
CONTINUOUS
 10
5.9104905137
 20
5.9581235996
 11
5.9036081385
 21
5.9512412244
  0
LINE
  5
252
100
AcDbEntity
  8
ALL_ASSEMBLY_MEMBERS
100
AcDbLine
 62
7
  6
CONTINUOUS
 10
6.1795684758
 20
6.2272015616
 11
6.186450851
 21
6.2340839368
  0
LINE
  5
253
100
AcDbEntity
  8
ALL_ASSEMBLY_MEMBERS
100
AcDbLine
 62
7
  6
CONTINUOUS
 10
6.0711979848
 20
5.9581235996
 11
6.1795684758
 21
6.0664940905
  0
LINE
  5
254
100
AcDbEntity
  8
ALL_ASSEMBLY_MEMBERS
100
AcDbLine
 62
7
  6
CONTINUOUS
 10
6.07808036
 20
5.9512412244
 11
6.186450851
 21
6.0596117153
  0
LINE
  5
255
100
AcDbEntity
  8
ALL_ASSEMBLY_MEMBERS
100
AcDbLine
 62
7
  6
CONTINUOUS
 10
6.093362106
 20
5.8993478261
 11
6.2383442493
 21
6.0443299694
  0
LINE
  5
256
100
AcDbEntity
  8
ALL_ASSEMBLY_MEMBERS
100
AcDbLine
 62
7
  6
CONTINUOUS
 10
6.1071703134
 20
5.900215883
 11
6.0967988565
 21
5.8910507762
  0
LINE
  5
257
100
AcDbEntity
  8
ALL_ASSEMBLY_MEMBERS
100
AcDbLine
 62
7
  6
CONTINUOUS
 10
6.093362106
 20
5.8993478261
 11
6.0829844199
 21
5.8901977578
  0
LINE
  5
258
100
AcDbEntity
  8
ALL_ASSEMBLY_MEMBERS
100
AcDbLine
 62
7
  6
CONTINUOUS
 10
4.8858442493
 20
2.8220882997
 11
4.8858442493
 21
3.4716073525
  0
LINE
  5
259
100
AcDbEntity
  8
ALL_ASSEMBLY_MEMBERS
100
AcDbLine
 62
7
  6
CONTINUOUS
 10
6.2383442493
 20
6.0443299694
 11
6.2474943175
 21
6.0547076555
  0
LINE
  5
25A
100
AcDbEntity
  8
ALL_ASSEMBLY_MEMBERS
100
AcDbLine
 62
7
  6
CONTINUOUS
 10
6.2374761924
 20
6.0305217619
 11
6.2466412991
 21
6.0408932188
  0
LINE
  5
25B
100
AcDbEntity
  8
ALL_ASSEMBLY_MEMBERS
100
AcDbLine
 62
7
  6
CONTINUOUS
 10
6.1071703134
 20
5.900215883
 11
6.2374761924
 21
6.0305217619
  0
LINE
  5
25C
100
AcDbEntity
  8
ALL_ASSEMBLY_MEMBERS
100
AcDbLine
 62
7
  6
CONTINUOUS
 10
6.9749601859
 20
6.7317036488
 11
6.9824706279
 21
6.7405978261
  0
LINE
  5
25D
100
AcDbEntity
  8
ALL_ASSEMBLY_MEMBERS
100
AcDbLine
 62
7
  6
CONTINUOUS
 10
5.9871200228
 20
6.1431235996
 11
5.9104905137
 21
5.9581235996
  0
LINE
  5
25E
100
AcDbEntity
  8
ALL_ASSEMBLY_MEMBERS
100
AcDbLine
 62
7
  6
CONTINUOUS
 10
5.9908442493
 20
6.1521146777
 11
6.0674737583
 21
6.3371146777
  0
LINE
  5
25F
100
AcDbEntity
  8
ALL_ASSEMBLY_MEMBERS
100
AcDbLine
 62
7
  6
CONTINUOUS
 10
5.9908442493
 20
6.1415809745
 11
5.9142147402
 21
5.9565809745
  0
LINE
  5
260
100
AcDbEntity
  8
ALL_ASSEMBLY_MEMBERS
100
AcDbLine
 62
7
  6
CONTINUOUS
 10
5.9945684758
 20
6.1505720526
 11
6.0711979848
 21
6.3355720526
  0
LINE
  5
261
100
AcDbEntity
  8
ALL_ASSEMBLY_MEMBERS
100
AcDbLine
 62
7
  6
CONTINUOUS
 10
5.5108442493
 20
2.7950250058
 11
5.5108442493
 21
3.4986706464
  0
LINE
  5
262
100
AcDbEntity
  8
ALL_ASSEMBLY_MEMBERS
100
AcDbLine
 62
7
  6
CONTINUOUS
 10
5.7350471994
 20
6.2528024334
 11
5.734194181
 21
6.2389879967
  0
LINE
  5
263
100
AcDbEntity
  8
ALL_ASSEMBLY_MEMBERS
100
AcDbLine
 62
7
  6
CONTINUOUS
 10
5.7433442493
 20
6.2493656828
 11
5.7442123061
 21
6.2631738903
  0
LINE
  5
264
100
AcDbEntity
  8
ALL_ASSEMBLY_MEMBERS
100
AcDbLine
 62
7
  6
CONTINUOUS
 10
5.7433442493
 20
6.0443299694
 11
5.7442123061
 21
6.0305217619
  0
LINE
  5
265
100
AcDbEntity
  8
ALL_ASSEMBLY_MEMBERS
100
AcDbLine
 62
7
  6
CONTINUOUS
 10
5.7350471994
 20
6.0408932188
 11
5.734194181
 21
6.0547076555
  0
LINE
  5
266
100
AcDbEntity
  8
ALL_ASSEMBLY_MEMBERS
100
AcDbLine
 62
7
  6
CONTINUOUS
 10
5.734194181
 20
6.2389879967
 11
5.734194181
 21
6.0547076555
  0
LINE
  5
267
100
AcDbEntity
  8
ALL_ASSEMBLY_MEMBERS
100
AcDbLine
 62
7
  6
CONTINUOUS
 10
5.7433442493
 20
6.2493656828
 11
5.7433442493
 21
6.0443299694
  0
LINE
  5
268
100
AcDbEntity
  8
ALL_ASSEMBLY_MEMBERS
100
AcDbLine
 62
7
  6
CONTINUOUS
 10
5.7908442493
 20
6.2234773351
 11
5.7908442493
 21
6.070218317
  0
LINE
  5
269
100
AcDbEntity
  8
ALL_ASSEMBLY_MEMBERS
100
AcDbLine
 62
7
  6
CONTINUOUS
 10
5.8005773976
 20
6.2234773351
 11
5.8005773976
 21
6.070218317
  0
LINE
  5
26A
100
AcDbEntity
  8
ALL_ASSEMBLY_MEMBERS
100
AcDbLine
 62
7
  6
CONTINUOUS
 10
5.8348442493
 20
6.3918478261
 11
5.8348442493
 21
6.3538058334
  0
LINE
  5
26B
100
AcDbEntity
  8
ALL_ASSEMBLY_MEMBERS
100
AcDbLine
 62
7
  6
CONTINUOUS
 10
5.8348442493
 20
5.9018478261
 11
5.8348442493
 21
5.9398898188
  0
LINE
  5
26C
100
AcDbEntity
  8
ALL_ASSEMBLY_MEMBERS
100
AcDbLine
 62
7
  6
CONTINUOUS
 10
5.9142147402
 20
5.9565809745
 11
5.9142147402
 21
5.9468478261
  0
LINE
  5
26D
100
AcDbEntity
  8
ALL_ASSEMBLY_MEMBERS
100
AcDbLine
 62
7
  6
CONTINUOUS
 10
5.9142147402
 20
6.3371146777
 11
5.9142147402
 21
6.3468478261
  0
LINE
  5
26E
100
AcDbEntity
  8
ALL_ASSEMBLY_MEMBERS
100
AcDbLine
 62
7
  6
CONTINUOUS
 10
6.0674737583
 20
5.9565809745
 11
6.0674737583
 21
5.9468478261
  0
LINE
  5
26F
100
AcDbEntity
  8
ALL_ASSEMBLY_MEMBERS
100
AcDbLine
 62
7
  6
CONTINUOUS
 10
6.0674737583
 20
6.3371146777
 11
6.0674737583
 21
6.3468478261
  0
LINE
  5
270
100
AcDbEntity
  8
ALL_ASSEMBLY_MEMBERS
100
AcDbLine
 62
7
  6
CONTINUOUS
 10
6.1358442493
 20
2.7408984181
 11
6.1358442493
 21
3.5527972341
  0
LINE
  5
271
100
AcDbEntity
  8
ALL_ASSEMBLY_MEMBERS
100
AcDbLine
 62
7
  6
CONTINUOUS
 10
6.1473442493
 20
6.3918478261
 11
6.1473442493
 21
6.3533058334
  0
LINE
  5
272
100
AcDbEntity
  8
ALL_ASSEMBLY_MEMBERS
100
AcDbLine
 62
7
  6
CONTINUOUS
 10
6.1473442493
 20
5.9018478261
 11
6.1473442493
 21
5.9403898188
  0
LINE
  5
273
100
AcDbEntity
  8
ALL_ASSEMBLY_MEMBERS
100
AcDbLine
 62
7
  6
CONTINUOUS
 10
6.1811111009
 20
6.070218317
 11
6.1811111009
 21
6.2234773351
  0
LINE
  5
274
100
AcDbEntity
  8
ALL_ASSEMBLY_MEMBERS
100
AcDbLine
 62
7
  6
CONTINUOUS
 10
6.1908442493
 20
6.070218317
 11
6.1908442493
 21
6.2234773351
  0
LINE
  5
275
100
AcDbEntity
  8
ALL_ASSEMBLY_MEMBERS
100
AcDbLine
 62
7
  6
CONTINUOUS
 10
6.2383442493
 20
6.0443299694
 11
6.2383442493
 21
6.2493656828
  0
LINE
  5
276
100
AcDbEntity
  8
ALL_ASSEMBLY_MEMBERS
100
AcDbLine
 62
7
  6
CONTINUOUS
 10
6.2466412991
 20
6.0408932188
 11
6.2474943175
 21
6.0547076555
  0
LINE
  5
277
100
AcDbEntity
  8
ALL_ASSEMBLY_MEMBERS
100
AcDbLine
 62
7
  6
CONTINUOUS
 10
6.2383442493
 20
6.0443299694
 11
6.2374761924
 21
6.0305217619
  0
LINE
  5
278
100
AcDbEntity
  8
ALL_ASSEMBLY_MEMBERS
100
AcDbLine
 62
7
  6
CONTINUOUS
 10
6.2383442493
 20
6.2493656828
 11
6.2374761924
 21
6.2631738903
  0
LINE
  5
279
100
AcDbEntity
  8
ALL_ASSEMBLY_MEMBERS
100
AcDbLine
 62
7
  6
CONTINUOUS
 10
6.2466412991
 20
6.2528024334
 11
6.2474943175
 21
6.2389879967
  0
LINE
  5
27A
100
AcDbEntity
  8
ALL_ASSEMBLY_MEMBERS
100
AcDbLine
 62
7
  6
CONTINUOUS
 10
6.2474943175
 20
6.0547076555
 11
6.2474943175
 21
6.2389879967
  0
LINE
  5
27B
100
AcDbEntity
  8
ALL_ASSEMBLY_MEMBERS
100
AcDbLine
 62
7
  6
CONTINUOUS
 10
6.3023442493
 20
5.9905978261
 11
6.3023442493
 21
6.3030978261
  0
LINE
  5
27C
100
AcDbEntity
  8
ALL_ASSEMBLY_MEMBERS
100
AcDbLine
 62
7
  6
CONTINUOUS
 10
6.3123442493
 20
6.3618478261
 11
6.3123442493
 21
5.9318478261
  0
LINE
  5
27D
100
AcDbEntity
  8
ALL_ASSEMBLY_MEMBERS
100
AcDbLine
 62
7
  6
CONTINUOUS
 10
6.3723442493
 20
5.8581726915
 11
6.3723442493
 21
6.4355229607
  0
LINE
  5
27E
100
AcDbEntity
  8
ALL_ASSEMBLY_MEMBERS
100
AcDbLine
 62
7
  6
CONTINUOUS
 10
6.9824706279
 20
5.5530978261
 11
7.1358442493
 21
5.5530978261
  0
LINE
  5
27F
100
AcDbEntity
  8
ALL_ASSEMBLY_MEMBERS
100
AcDbLine
 62
7
  6
CONTINUOUS
 10
6.5108442494
 20
3.6585645547
 11
6.5108442493
 21
3.6610504096
  0
LINE
  5
280
100
AcDbEntity
  8
ALL_ASSEMBLY_MEMBERS
100
AcDbLine
 62
7
  6
CONTINUOUS
 10
6.5108442494
 20
3.1493336813
 11
6.5108442494
 21
3.1443619711
  0
LINE
  5
281
100
AcDbEntity
  8
ALL_ASSEMBLY_MEMBERS
100
AcDbLine
 62
7
  6
CONTINUOUS
 10
6.5108442494
 20
2.6351310978
 11
6.5108442493
 21
2.6326452426
  0
LINE
  5
282
100
AcDbEntity
  8
ALL_ASSEMBLY_MEMBERS
100
AcDbLine
 62
7
  6
CONTINUOUS
 10
6.5687483244
 20
5.8145769841
 11
6.5687483244
 21
6.4791186681
  0
LINE
  5
283
100
AcDbEntity
  8
ALL_ASSEMBLY_MEMBERS
100
AcDbLine
 62
7
  6
CONTINUOUS
 10
6.093362106
 20
5.8993478261
 11
6.1071703134
 21
5.900215883
  0
LINE
  5
284
100
AcDbEntity
  8
ALL_ASSEMBLY_MEMBERS
100
AcDbLine
 62
7
  6
CONTINUOUS
 10
6.0829844199
 20
5.8901977578
 11
6.0967988565
 21
5.8910507762
  0
LINE
  5
285
100
AcDbEntity
  8
ALL_ASSEMBLY_MEMBERS
100
AcDbLine
 62
7
  6
CONTINUOUS
 10
5.8987040786
 20
5.8901977578
 11
6.0829844199
 21
5.8901977578
  0
LINE
  5
286
100
AcDbEntity
  8
ALL_ASSEMBLY_MEMBERS
100
AcDbLine
 62
7
  6
CONTINUOUS
 10
5.8883263926
 20
5.8993478261
 11
6.093362106
 21
5.8993478261
  0
LINE
  5
287
100
AcDbEntity
  8
ALL_ASSEMBLY_MEMBERS
100
AcDbLine
 62
7
  6
CONTINUOUS
 10
6.1473442493
 20
5.9018478261
 11
6.1088022566
 21
5.9018478261
  0
LINE
  5
288
100
AcDbEntity
  8
ALL_ASSEMBLY_MEMBERS
100
AcDbLine
 62
7
  6
CONTINUOUS
 10
5.872886242
 20
5.9018478261
 11
5.8348442493
 21
5.9018478261
  0
LINE
  5
289
100
AcDbEntity
  8
ALL_ASSEMBLY_MEMBERS
100
AcDbLine
 62
7
  6
CONTINUOUS
 10
5.7442123061
 20
6.0305217619
 11
5.7350471994
 21
6.0408932188
  0
LINE
  5
28A
100
AcDbEntity
  8
ALL_ASSEMBLY_MEMBERS
100
AcDbLine
 62
7
  6
CONTINUOUS
 10
5.7433442493
 20
6.0443299694
 11
5.734194181
 21
6.0547076555
  0
LINE
  5
28B
100
AcDbEntity
  8
ALL_ASSEMBLY_MEMBERS
100
AcDbLine
 62
7
  6
CONTINUOUS
 10
5.9908442493
 20
6.1415809745
 11
6.0674737583
 21
5.9565809745
  0
LINE
  5
28C
100
AcDbEntity
  8
ALL_ASSEMBLY_MEMBERS
100
AcDbLine
 62
7
  6
CONTINUOUS
 10
5.9871200228
 20
6.1505720526
 11
5.9104905137
 21
6.3355720526
  0
LINE
  5
28D
100
AcDbEntity
  8
ALL_ASSEMBLY_MEMBERS
100
AcDbLine
 62
7
  6
CONTINUOUS
 10
5.9945684758
 20
6.1431235996
 11
6.0711979848
 21
5.9581235996
  0
LINE
  5
28E
100
AcDbEntity
  8
ALL_ASSEMBLY_MEMBERS
100
AcDbLine
 62
7
  6
CONTINUOUS
 10
5.9908442493
 20
6.1521146777
 11
5.9142147402
 21
6.3371146777
  0
LINE
  5
28F
100
AcDbEntity
  8
ALL_ASSEMBLY_MEMBERS
100
AcDbLine
 62
7
  6
CONTINUOUS
 10
6.3723442493
 20
5.9318478261
 11
6.3123442493
 21
5.9318478261
  0
LINE
  5
290
100
AcDbEntity
  8
ALL_ASSEMBLY_MEMBERS
100
AcDbLine
 62
7
  6
CONTINUOUS
 10
5.9142147402
 20
5.9468478261
 11
6.0674737583
 21
5.9468478261
  0
LINE
  5
291
100
AcDbEntity
  8
ALL_ASSEMBLY_MEMBERS
100
AcDbLine
 62
7
  6
CONTINUOUS
 10
5.9142147402
 20
5.9565809745
 11
6.0674737583
 21
5.9565809745
  0
LINE
  5
292
100
AcDbEntity
  8
ALL_ASSEMBLY_MEMBERS
100
AcDbLine
 62
7
  6
CONTINUOUS
 10
6.3023442493
 20
5.9905978261
 11
6.1975522566
 21
5.9905978261
  0
LINE
  5
293
100
AcDbEntity
  8
ALL_ASSEMBLY_MEMBERS
100
AcDbLine
 62
7
  6
CONTINUOUS
 10
5.8005773976
 20
6.070218317
 11
5.7908442493
 21
6.070218317
  0
LINE
  5
294
100
AcDbEntity
  8
ALL_ASSEMBLY_MEMBERS
100
AcDbLine
 62
7
  6
CONTINUOUS
 10
6.1811111009
 20
6.070218317
 11
6.1908442493
 21
6.070218317
  0
LINE
  5
295
100
AcDbEntity
  8
ALL_ASSEMBLY_MEMBERS
100
AcDbLine
 62
7
  6
CONTINUOUS
 10
5.8987040786
 20
5.8901977578
 11
5.884889642
 21
5.8910507762
  0
LINE
  5
296
100
AcDbEntity
  8
ALL_ASSEMBLY_MEMBERS
100
AcDbLine
 62
7
  6
CONTINUOUS
 10
5.8883263926
 20
5.8993478261
 11
5.8745181851
 21
5.900215883
  0
LINE
  5
297
100
AcDbEntity
  8
ALL_ASSEMBLY_MEMBERS
100
AcDbLine
 62
7
  6
CONTINUOUS
 10
6.3723442493
 20
5.8581726915
 11
6.5687483244
 21
5.8145769841
  0
LINE
  5
298
100
AcDbEntity
  8
ALL_ASSEMBLY_MEMBERS
100
AcDbLine
 62
7
  6
CONTINUOUS
 10
5.8883263926
 20
5.8993478261
 11
5.8987040786
 21
5.8901977578
  0
LINE
  5
299
100
AcDbEntity
  8
ALL_ASSEMBLY_MEMBERS
100
AcDbLine
 62
7
  6
CONTINUOUS
 10
5.8745181851
 20
5.900215883
 11
5.884889642
 21
5.8910507762
  0
LINE
  5
29A
100
AcDbEntity
  8
ALL_ASSEMBLY_MEMBERS
100
AcDbLine
 62
7
  6
CONTINUOUS
 10
5.7442123061
 20
6.0305217619
 11
5.8745181851
 21
5.900215883
  0
LINE
  5
29B
100
AcDbEntity
  8
ALL_ASSEMBLY_MEMBERS
100
AcDbLine
 62
7
  6
CONTINUOUS
 10
5.7433442493
 20
6.0443299694
 11
5.8883263926
 21
5.8993478261
  0
LINE
  5
29C
100
AcDbEntity
  8
ALL_ASSEMBLY_MEMBERS
100
AcDbLine
 62
7
  6
CONTINUOUS
 10
5.7952376475
 20
6.0596117153
 11
5.9036081385
 21
5.9512412244
  0
LINE
  5
29D
100
AcDbEntity
  8
ALL_ASSEMBLY_MEMBERS
100
AcDbLine
 62
7
  6
CONTINUOUS
 10
5.8021200228
 20
6.0664940905
 11
5.9104905137
 21
5.9581235996
  0
LINE
  5
29E
100
AcDbEntity
  8
ALL_ASSEMBLY_MEMBERS
100
AcDbLine
 62
7
  6
CONTINUOUS
 10
6.8858442493
 20
2.4468481613
 11
6.8858442493
 21
3.8468474909
  0
LINE
  5
29F
100
AcDbEntity
  8
ALL_ASSEMBLY_MEMBERS
100
AcDbLine
 62
7
  6
CONTINUOUS
 10
6.9749601859
 20
5.5619920034
 11
6.9749601859
 21
6.7317036488
  0
LINE
  5
2A0
100
AcDbEntity
  8
ALL_ASSEMBLY_MEMBERS
100
AcDbLine
 62
7
  6
CONTINUOUS
 10
6.3723442493
 20
6.4355229607
 11
6.5687483244
 21
6.4791186681
  0
LINE
  5
2A1
100
AcDbEntity
  8
ALL_ASSEMBLY_MEMBERS
100
AcDbLine
 62
7
  6
CONTINUOUS
 10
6.3723442493
 20
6.2911853934
 11
6.5687483244
 21
6.3129832471
  0
LINE
  5
2A2
100
AcDbEntity
  8
ALL_ASSEMBLY_MEMBERS
100
AcDbLine
 62
7
  6
CONTINUOUS
 10
5.8005773976
 20
6.2234773351
 11
5.7908442493
 21
6.2234773351
  0
LINE
  5
2A3
100
AcDbEntity
  8
ALL_ASSEMBLY_MEMBERS
100
AcDbLine
 62
7
  6
CONTINUOUS
 10
6.1811111009
 20
6.2234773351
 11
6.1908442493
 21
6.2234773351
  0
LINE
  5
2A4
100
AcDbEntity
  8
ALL_ASSEMBLY_MEMBERS
100
AcDbLine
 62
7
  6
CONTINUOUS
 10
6.3723442493
 20
6.0025102588
 11
6.5687483244
 21
5.9807124051
  0
LINE
  5
2A5
100
AcDbEntity
  8
ALL_ASSEMBLY_MEMBERS
100
AcDbLine
 62
7
  6
CONTINUOUS
 10
6.0711979848
 20
5.9581235996
 11
6.07808036
 21
5.9512412244
  0
LINE
  5
2A6
100
AcDbEntity
  8
ALL_ASSEMBLY_MEMBERS
100
AcDbLine
 62
7
  6
CONTINUOUS
 10
5.8021200228
 20
6.2272015616
 11
5.7952376475
 21
6.2340839368
  0
LINE
  5
2A7
100
AcDbEntity
  8
ALL_ASSEMBLY_MEMBERS
100
AcDbLine
 62
7
  6
CONTINUOUS
 10
6.1795684758
 20
6.0664940905
 11
6.186450851
 21
6.0596117153
  0
LINE
  5
2A8
100
AcDbEntity
  8
ALL_ASSEMBLY_MEMBERS
100
AcDbLine
 62
7
  6
CONTINUOUS
 10
5.9104905137
 20
6.3355720526
 11
5.9036081385
 21
6.3424544278
  0
LINE
  5
2A9
100
AcDbEntity
  8
ALL_ASSEMBLY_MEMBERS
100
AcDbLine
 62
7
  6
CONTINUOUS
 10
7.1358442493
 20
6.740597345
 11
7.1358442493
 21
5.5530990666
  0
LINE
  5
2AA
100
AcDbEntity
  8
ALL_ASSEMBLY_MEMBERS
100
AcDbLine
 62
7
  6
CONTINUOUS
 10
7.1358442493
 20
2.4468481613
 11
7.1358442493
 21
3.8468474909
  0
LINE
  5
2AB
100
AcDbEntity
  8
ALL_ASSEMBLY_MEMBERS
100
AcDbLine
 62
7
  6
CONTINUOUS
 10
5.8883263926
 20
6.3943478261
 11
5.8745181851
 21
6.3934797692
  0
LINE
  5
2AC
100
AcDbEntity
  8
ALL_ASSEMBLY_MEMBERS
100
AcDbLine
 62
7
  6
CONTINUOUS
 10
5.8987040786
 20
6.4034978943
 11
5.884889642
 21
6.402644876
  0
LINE
  5
2AD
100
AcDbEntity
  8
ALL_ASSEMBLY_MEMBERS
100
AcDbLine
 62
7
  6
CONTINUOUS
 10
6.3023442493
 20
6.3030978261
 11
6.1975522566
 21
6.3030978261
  0
LINE
  5
2AE
100
AcDbEntity
  8
ALL_ASSEMBLY_MEMBERS
100
AcDbLine
 62
7
  6
CONTINUOUS
 10
6.0674737583
 20
6.3371146777
 11
5.9142147402
 21
6.3371146777
  0
LINE
  5
2AF
100
AcDbEntity
  8
ALL_ASSEMBLY_MEMBERS
100
AcDbLine
 62
7
  6
CONTINUOUS
 10
6.0674737583
 20
6.3468478261
 11
5.9142147402
 21
6.3468478261
  0
LINE
  5
2B0
100
AcDbEntity
  8
ALL_ASSEMBLY_MEMBERS
100
AcDbLine
 62
7
  6
CONTINUOUS
 10
6.3723442493
 20
6.3618478261
 11
6.3123442493
 21
6.3618478261
  0
LINE
  5
2B1
100
AcDbEntity
  8
ALL_ASSEMBLY_MEMBERS
100
AcDbLine
 62
7
  6
CONTINUOUS
 10
6.1473442493
 20
6.3918478261
 11
6.1088022566
 21
6.3918478261
  0
LINE
  5
2B2
100
AcDbEntity
  8
ALL_ASSEMBLY_MEMBERS
100
AcDbLine
 62
7
  6
CONTINUOUS
 10
5.872886242
 20
6.3918478261
 11
5.8348442493
 21
6.3918478261
  0
LINE
  5
2B3
100
AcDbEntity
  8
ALL_ASSEMBLY_MEMBERS
100
AcDbLine
 62
7
  6
CONTINUOUS
 10
6.093362106
 20
6.3943478261
 11
5.8883263926
 21
6.3943478261
  0
LINE
  5
2B4
100
AcDbEntity
  8
ALL_ASSEMBLY_MEMBERS
100
AcDbLine
 62
7
  6
CONTINUOUS
 10
6.0829844199
 20
6.4034978943
 11
5.8987040786
 21
6.4034978943
  0
LINE
  5
2B5
100
AcDbEntity
  8
ALL_ASSEMBLY_MEMBERS
100
AcDbLine
 62
7
  6
CONTINUOUS
 10
6.0829844199
 20
6.4034978943
 11
6.0967988565
 21
6.402644876
  0
LINE
  5
2B6
100
AcDbEntity
  8
ALL_ASSEMBLY_MEMBERS
100
AcDbLine
 62
7
  6
CONTINUOUS
 10
6.093362106
 20
6.3943478261
 11
6.1071703134
 21
6.3934797692
  0
LINE
  5
2B7
100
AcDbEntity
  8
ALL_ASSEMBLY_MEMBERS
100
AcDbLine
 62
7
  6
CONTINUOUS
 10
5.9855773976
 20
6.1468478261
 11
5.8005773976
 21
6.2234773351
  0
LINE
  5
2B8
100
AcDbEntity
  8
ALL_ASSEMBLY_MEMBERS
100
AcDbLine
 62
7
  6
CONTINUOUS
 10
5.9945684758
 20
6.1431235996
 11
6.1795684758
 21
6.0664940905
  0
LINE
  5
2B9
100
AcDbEntity
  8
ALL_ASSEMBLY_MEMBERS
100
AcDbLine
 62
7
  6
CONTINUOUS
 10
5.9871200228
 20
6.1505720526
 11
5.8021200228
 21
6.2272015616
  0
LINE
  5
2BA
100
AcDbEntity
  8
ALL_ASSEMBLY_MEMBERS
100
AcDbLine
 62
7
  6
CONTINUOUS
 10
5.9961111009
 20
6.1468478261
 11
6.1811111009
 21
6.070218317
  0
LINE
  5
2BB
100
AcDbEntity
  8
ALL_ASSEMBLY_MEMBERS
100
AcDbLine
 62
7
  6
CONTINUOUS
 10
6.093362106
 20
6.3943478261
 11
6.0829844199
 21
6.4034978943
  0
LINE
  5
2BC
100
AcDbEntity
  8
ALL_ASSEMBLY_MEMBERS
100
AcDbLine
 62
7
  6
CONTINUOUS
 10
6.1795684758
 20
6.2272015616
 11
6.0711979848
 21
6.3355720526
  0
LINE
  5
2BD
100
AcDbEntity
  8
ALL_ASSEMBLY_MEMBERS
100
AcDbLine
 62
7
  6
CONTINUOUS
 10
6.186450851
 20
6.2340839368
 11
6.07808036
 21
6.3424544278
  0
LINE
  5
2BE
100
AcDbEntity
  8
ALL_ASSEMBLY_MEMBERS
100
AcDbLine
 62
7
  6
CONTINUOUS
 10
6.2383442493
 20
6.2493656828
 11
6.093362106
 21
6.3943478261
  0
LINE
  5
2BF
100
AcDbEntity
  8
ALL_ASSEMBLY_MEMBERS
100
AcDbLine
 62
7
  6
CONTINUOUS
 10
6.2374761924
 20
6.2631738903
 11
6.1071703134
 21
6.3934797692
  0
LINE
  5
2C0
100
AcDbEntity
  8
ALL_ASSEMBLY_MEMBERS
100
AcDbLine
 62
7
  6
CONTINUOUS
 10
6.2374761924
 20
6.2631738903
 11
6.2466412991
 21
6.2528024334
  0
LINE
  5
2C1
100
AcDbEntity
  8
ALL_ASSEMBLY_MEMBERS
100
AcDbLine
 62
7
  6
CONTINUOUS
 10
6.2383442493
 20
6.2493656828
 11
6.2474943175
 21
6.2389879967
  0
LINE
  5
2C2
100
AcDbEntity
  8
ALL_ASSEMBLY_MEMBERS
100
AcDbLine
 62
7
  6
CONTINUOUS
 10
6.9749601859
 20
5.8544199147
 11
6.9824706279
 21
5.8499728261
  0
LINE
  5
2C3
100
AcDbEntity
  8
ALL_ASSEMBLY_MEMBERS
100
AcDbLine
 62
7
  6
CONTINUOUS
 10
6.1071703134
 20
6.3934797692
 11
6.0967988565
 21
6.402644876
  0
LINE
  5
2C4
100
AcDbEntity
  8
ALL_ASSEMBLY_MEMBERS
100
AcDbLine
 62
7
  6
CONTINUOUS
 10
6.9749601859
 20
5.5619920034
 11
6.9824706279
 21
5.5530978261
  0
LINE
  5
2C5
100
AcDbEntity
  8
ALL_ASSEMBLY_MEMBERS
100
AcDbLine
 62
7
  6
CONTINUOUS
 10
6.9824706279
 20
6.7405978261
 11
7.1358442493
 21
6.7405978261
  0
ARC
  5
2C6
100
AcDbEntity
  8
ALL_ASSEMBLY_MEMBERS
100
AcDbCircle
 62
7
  6
CONTINUOUS
 10
6.235879981
 20
4.6873548971
 40
1.0625
100
AcDbArc
 50
284.998271183
 51
307.7147815403
  0
ARC
  5
2C7
100
AcDbEntity
  8
ALL_ASSEMBLY_MEMBERS
100
AcDbCircle
 62
7
  6
CONTINUOUS
 10
6.235879981
 20
1.606340755
 40
1.0625
100
AcDbArc
 50
52.2852184348
 51
75.001728817
  0
ARC
  5
2C8
100
AcDbEntity
  8
ALL_ASSEMBLY_MEMBERS
100
AcDbCircle
 62
7
  6
CONTINUOUS
 10
6.5436989593
 20
6.1468478261
 40
0.75
100
AcDbArc
 50
160.9334198993
 51
165.2941125357
  0
ARC
  5
2C9
100
AcDbEntity
  8
ALL_ASSEMBLY_MEMBERS
100
AcDbCircle
 62
7
  6
CONTINUOUS
 10
6.5436989593
 20
6.1468478261
 40
0.75
100
AcDbArc
 50
194.7058874643
 51
199.0665801007
  0
CIRCLE
  5
2CA
100
AcDbEntity
  8
ALL_ASSEMBLY_MEMBERS
100
AcDbCircle
 62
7
  6
CONTINUOUS
 10
5.9908442493
 20
6.1468478261
 40
0.245
  0
CIRCLE
  5
2CB
100
AcDbEntity
  8
ALL_ASSEMBLY_MEMBERS
100
AcDbCircle
 62
7
  6
CONTINUOUS
 10
5.9908442493
 20
6.1468478261
 40
0.23
  0
ARC
  5
2CC
100
AcDbEntity
  8
ALL_ASSEMBLY_MEMBERS
100
AcDbCircle
 62
7
  6
CONTINUOUS
 10
6.0518894841
 20
6.2942240599
 40
0.0456341396
100
AcDbArc
 50
64.9685764769
 51
70.0314235231
  0
ARC
  5
2CD
100
AcDbEntity
  8
ALL_ASSEMBLY_MEMBERS
100
AcDbCircle
 62
7
  6
CONTINUOUS
 10
5.9752599754
 20
6.1092240608
 40
0.0456341387
100
AcDbArc
 50
64.9685764258
 51
70.0314235741
  0
ARC
  5
2CE
100
AcDbEntity
  8
ALL_ASSEMBLY_MEMBERS
100
AcDbCircle
 62
7
  6
CONTINUOUS
 10
6.0284680146
 20
6.1312635522
 40
0.0456341387
100
AcDbArc
 50
154.9685764258
 51
160.0314235741
  0
ARC
  5
2CF
100
AcDbEntity
  8
ALL_ASSEMBLY_MEMBERS
100
AcDbCircle
 62
7
  6
CONTINUOUS
 10
6.0064285231
 20
6.1844715914
 40
0.0456341387
100
AcDbArc
 50
244.9685764259
 51
250.0314235741
  0
ARC
  5
2D0
100
AcDbEntity
  8
ALL_ASSEMBLY_MEMBERS
100
AcDbCircle
 62
7
  6
CONTINUOUS
 10
5.953220484
 20
6.1624320999
 40
0.0456341387
100
AcDbArc
 50
334.9685764259
 51
340.0314235741
  0
ARC
  5
2D1
100
AcDbEntity
  8
ALL_ASSEMBLY_MEMBERS
100
AcDbCircle
 62
7
  6
CONTINUOUS
 10
5.8434680145
 20
6.2078930613
 40
0.0456341386
100
AcDbArc
 50
154.9685764234
 51
160.0314235765
  0
ARC
  5
2D2
100
AcDbEntity
  8
ALL_ASSEMBLY_MEMBERS
100
AcDbCircle
 62
7
  6
CONTINUOUS
 10
5.8434680145
 20
6.0858025909
 40
0.0456341386
100
AcDbArc
 50
199.9685764234
 51
205.0314235766
  0
ARC
  5
2D3
100
AcDbEntity
  8
ALL_ASSEMBLY_MEMBERS
100
AcDbCircle
 62
7
  6
CONTINUOUS
 10
5.953220484
 20
6.1312635522
 40
0.0456341386
100
AcDbArc
 50
19.9685764237
 51
25.0314235763
  0
ARC
  5
2D4
100
AcDbEntity
  8
ALL_ASSEMBLY_MEMBERS
100
AcDbCircle
 62
7
  6
CONTINUOUS
 10
5.9297990141
 20
5.9994715913
 40
0.0456341386
100
AcDbArc
 50
244.9685764234
 51
250.0314235766
  0
ARC
  5
2D5
100
AcDbEntity
  8
ALL_ASSEMBLY_MEMBERS
100
AcDbCircle
 62
7
  6
CONTINUOUS
 10
6.0284680145
 20
6.1624320999
 40
0.0456341386
100
AcDbArc
 50
199.9685764237
 51
205.0314235763
  0
ARC
  5
2D6
100
AcDbEntity
  8
ALL_ASSEMBLY_MEMBERS
100
AcDbCircle
 62
7
  6
CONTINUOUS
 10
6.0064285231
 20
6.1092240608
 40
0.0456341386
100
AcDbArc
 50
109.9685764238
 51
115.0314235762
  0
ARC
  5
2D7
100
AcDbEntity
  8
ALL_ASSEMBLY_MEMBERS
100
AcDbCircle
 62
7
  6
CONTINUOUS
 10
6.0518894845
 20
5.9994715913
 40
0.0456341386
100
AcDbArc
 50
289.9685764234
 51
295.0314235766
  0
ARC
  5
2D8
100
AcDbEntity
  8
ALL_ASSEMBLY_MEMBERS
100
AcDbCircle
 62
7
  6
CONTINUOUS
 10
6.138220484
 20
6.0858025909
 40
0.0456341386
100
AcDbArc
 50
334.9685764234
 51
340.0314235766
  0
ARC
  5
2D9
100
AcDbEntity
  8
ALL_ASSEMBLY_MEMBERS
100
AcDbCircle
 62
7
  6
CONTINUOUS
 10
6.138220484
 20
6.2078930613
 40
0.0456341386
100
AcDbArc
 50
19.9685764234
 51
25.0314235766
  0
ARC
  5
2DA
100
AcDbEntity
  8
ALL_ASSEMBLY_MEMBERS
100
AcDbCircle
 62
7
  6
CONTINUOUS
 10
5.9297990141
 20
6.2942240608
 40
0.0456341386
100
AcDbArc
 50
109.9685764234
 51
115.0314235766
  0
ARC
  5
2DB
100
AcDbEntity
  8
ALL_ASSEMBLY_MEMBERS
100
AcDbCircle
 62
7
  6
CONTINUOUS
 10
5.9752599754
 20
6.1844715913
 40
0.0456341386
100
AcDbArc
 50
289.9685764238
 51
295.0314235762
  0
ARC
  5
2DC
100
AcDbEntity
  8
ALL_ASSEMBLY_MEMBERS
100
AcDbCircle
 62
7
  6
CONTINUOUS
 10
5.9142147402
 20
5.9618478261
 40
0.015
100
AcDbArc
 50
225.0
 51
270.0
  0
ARC
  5
2DD
100
AcDbEntity
  8
ALL_ASSEMBLY_MEMBERS
100
AcDbCircle
 62
7
  6
CONTINUOUS
 10
6.0674737583
 20
5.9618478261
 40
0.015
100
AcDbArc
 50
270.0
 51
315.0
  0
ARC
  5
2DE
100
AcDbEntity
  8
ALL_ASSEMBLY_MEMBERS
100
AcDbCircle
 62
7
  6
CONTINUOUS
 10
6.1758442493
 20
6.070218317
 40
0.015
100
AcDbArc
 50
315.0
 51
360.0
  0
ARC
  5
2DF
100
AcDbEntity
  8
ALL_ASSEMBLY_MEMBERS
100
AcDbCircle
 62
7
  6
CONTINUOUS
 10
6.1758442493
 20
6.2234773351
 40
0.015
100
AcDbArc
 50
0.0
 51
45.0
  0
ARC
  5
2E0
100
AcDbEntity
  8
ALL_ASSEMBLY_MEMBERS
100
AcDbCircle
 62
7
  6
CONTINUOUS
 10
6.0674737583
 20
6.3318478261
 40
0.015
100
AcDbArc
 50
45.0
 51
90.0
  0
ARC
  5
2E1
100
AcDbEntity
  8
ALL_ASSEMBLY_MEMBERS
100
AcDbCircle
 62
7
  6
CONTINUOUS
 10
5.9142147402
 20
6.3318478261
 40
0.015
100
AcDbArc
 50
90.0
 51
135.0
  0
ARC
  5
2E2
100
AcDbEntity
  8
ALL_ASSEMBLY_MEMBERS
100
AcDbCircle
 62
7
  6
CONTINUOUS
 10
5.8058442493
 20
6.2234773351
 40
0.015
100
AcDbArc
 50
135.0
 51
180.0
  0
ARC
  5
2E3
100
AcDbEntity
  8
ALL_ASSEMBLY_MEMBERS
100
AcDbCircle
 62
7
  6
CONTINUOUS
 10
5.8058442493
 20
6.070218317
 40
0.015
100
AcDbArc
 50
180.0
 51
225.0
  0
SPLINE
  5
2E4
100
AcDbEntity
  8
ALL_ASSEMBLY_MEMBERS
100
AcDbSpline
 62
7
  6
CONTINUOUS
 70
0
 71
3
 72
18
 73
14
 74
0
 42
0.0000001
 43
0.0000001
 44
0.0000000001
 40
0.0
 40
0.0
 40
0.0
 40
0.0
 40
0.1249864211
 40
0.1874992904
 40
0.250006938
 40
0.3749947586
 40
0.4999848898
 40
0.5624932629
 40
0.625001107
 40
0.6875087646
 40
0.750014252
 40
0.8750101518
 40
1.0
 40
1.0
 40
1.0
 40
1.0
 10
6.5687483244
 20
6.4791186681
 30
0.0
 10
6.5885487108
 20
6.4835137493
 30
0.0
 10
6.6179780148
 20
6.4914454866
 30
0.0
 10
6.6563759078
 20
6.5045705797
 30
0.0
 10
6.6941684193
 20
6.5193571594
 30
0.0
 10
6.7401578286
 20
6.5408745383
 30
0.0
 10
6.7841748248
 20
6.5661758046
 30
0.0
 10
6.8180526673
 20
6.5885132717
 30
0.0
 10
6.8427703963
 20
6.6062775478
 30
0.0
 10
6.866765162
 20
6.625005426
 30
0.0
 10
6.897756921
 20
6.6512005908
 30
0.0
 10
6.9345758965
 20
6.6861432768
 30
0.0
 10
6.9618742706
 20
6.7162067645
 30
0.0
 10
6.9749601859
 20
6.7317036488
 30
0.0
  0
SPLINE
  5
2E5
100
AcDbEntity
  8
ALL_ASSEMBLY_MEMBERS
100
AcDbSpline
 62
7
  6
CONTINUOUS
 70
0
 71
3
 72
18
 73
14
 74
0
 42
0.0000001
 43
0.0000001
 44
0.0000000001
 40
0.0
 40
0.0
 40
0.0
 40
0.0
 40
0.1249864211
 40
0.1874992904
 40
0.250006938
 40
0.3749947586
 40
0.4999848898
 40
0.5624932629
 40
0.625001107
 40
0.6875087646
 40
0.750014252
 40
0.8750101518
 40
1.0
 40
1.0
 40
1.0
 40
1.0
 10
6.5687483244
 20
5.8145769841
 30
0.0
 10
6.5885487108
 20
5.8101819029
 30
0.0
 10
6.6179780148
 20
5.8022501656
 30
0.0
 10
6.6563759078
 20
5.7891250725
 30
0.0
 10
6.6941684193
 20
5.7743384928
 30
0.0
 10
6.7401578286
 20
5.7528211139
 30
0.0
 10
6.7841748248
 20
5.7275198476
 30
0.0
 10
6.8180526673
 20
5.7051823805
 30
0.0
 10
6.8427703963
 20
5.6874181044
 30
0.0
 10
6.866765162
 20
5.6686902262
 30
0.0
 10
6.897756921
 20
5.6424950614
 30
0.0
 10
6.9345758965
 20
5.6075523754
 30
0.0
 10
6.9618742706
 20
5.5774888877
 30
0.0
 10
6.9749601859
 20
5.5619920034
 30
0.0
  0
SPLINE
  5
2E6
100
AcDbEntity
  8
ALL_ASSEMBLY_MEMBERS
100
AcDbSpline
 62
7
  6
CONTINUOUS
 70
0
 71
3
 72
15
 73
11
 74
0
 42
0.0000001
 43
0.0000001
 44
0.0000000001
 40
0.0
 40
0.0
 40
0.0
 40
0.0
 40
0.1383734478
 40
0.2739530449
 40
0.4060795075
 40
0.5342169768
 40
0.6579363348
 40
0.7769230932
 40
0.890981171
 40
1.0
 40
1.0
 40
1.0
 40
1.0
 10
6.5687483244
 20
6.3129832471
 30
0.0
 10
6.5883892664
 20
6.3151630918
 30
0.0
 10
6.6271817334
 20
6.3203743046
 30
0.0
 10
6.6842512728
 20
6.3308026249
 30
0.0
 10
6.7393279347
 20
6.3436472357
 30
0.0
 10
6.7920677607
 20
6.3587562895
 30
0.0
 10
6.8421807072
 20
6.375966671
 30
0.0
 10
6.8894279925
 20
6.3951072853
 30
0.0
 10
6.9336126496
 20
6.4160047528
 30
0.0
 10
6.9615632659
 20
6.431343143
 30
0.0
 10
6.9749601859
 20
6.4392757374
 30
0.0
  0
SPLINE
  5
2E7
100
AcDbEntity
  8
ALL_ASSEMBLY_MEMBERS
100
AcDbSpline
 62
7
  6
CONTINUOUS
 70
0
 71
3
 72
15
 73
11
 74
0
 42
0.0000001
 43
0.0000001
 44
0.0000000001
 40
0.0
 40
0.0
 40
0.0
 40
0.0
 40
0.1383734478
 40
0.2739530449
 40
0.4060795075
 40
0.5342169768
 40
0.6579363348
 40
0.7769230932
 40
0.890981171
 40
1.0
 40
1.0
 40
1.0
 40
1.0
 10
6.5687483244
 20
5.9807124051
 30
0.0
 10
6.5883892664
 20
5.9785325604
 30
0.0
 10
6.6271817334
 20
5.9733213475
 30
0.0
 10
6.6842512728
 20
5.9628930273
 30
0.0
 10
6.7393279347
 20
5.9500484164
 30
0.0
 10
6.7920677607
 20
5.9349393627
 30
0.0
 10
6.8421807072
 20
5.9177289812
 30
0.0
 10
6.8894279925
 20
5.8985883668
 30
0.0
 10
6.9336126496
 20
5.8776908994
 30
0.0
 10
6.9615632659
 20
5.8623525092
 30
0.0
 10
6.9749601859
 20
5.8544199147
 30
0.0
  0
SPLINE
  5
2E8
100
AcDbEntity
  8
ALL_ASSEMBLY_MEMBERS
100
AcDbSpline
 62
7
  6
CONTINUOUS
 70
0
 71
3
 72
14
 73
10
 74
0
 42
0.0000001
 43
0.0000001
 44
0.0000000001
 40
0.0
 40
0.0
 40
0.0
 40
0.0
 40
0.1246803269
 40
0.2501716417
 40
0.5021432992
 40
0.6277686127
 40
0.7526744533
 40
0.8767080784
 40
1.0
 40
1.0
 40
1.0
 40
1.0
 10
6.5095251484
 20
2.6329961039
 30
0.0
 10
6.4938861228
 20
2.6371670202
 30
0.0
 10
6.4627027333
 20
2.6462768997
 30
0.0
 10
6.400720388
 20
2.6664772103
 30
0.0
 10
6.3390984071
 20
2.6881241059
 30
0.0
 10
6.2770633423
 20
2.7083164808
 30
0.0
 10
6.2303696001
 20
2.7219295068
 30
0.0
 10
6.1833721613
 20
2.7332594922
 30
0.0
 10
6.1517094764
 20
2.7387846196
 30
0.0
 10
6.1358442493
 20
2.7408984181
 30
0.0
  0
SPLINE
  5
2E9
100
AcDbEntity
  8
ALL_ASSEMBLY_MEMBERS
100
AcDbSpline
 62
7
  6
CONTINUOUS
 70
0
 71
3
 72
14
 73
10
 74
0
 42
0.0000001
 43
0.0000001
 44
0.0000000001
 40
0.0
 40
0.0
 40
0.0
 40
0.0
 40
0.124680327
 40
0.250171642
 40
0.5021432994
 40
0.6277686129
 40
0.7526744534
 40
0.8767080784
 40
1.0
 40
1.0
 40
1.0
 40
1.0
 10
6.5095251375
 20
3.6606995453
 30
0.0
 10
6.4938861124
 20
3.656528629
 30
0.0
 10
6.4627027238
 20
3.6474187495
 30
0.0
 10
6.4007203804
 20
3.6272184393
 30
0.0
 10
6.3390984013
 20
3.6055715443
 30
0.0
 10
6.2770633383
 20
3.5853791702
 30
0.0
 10
6.2303695974
 20
3.5717661447
 30
0.0
 10
6.1833721599
 20
3.5604361597
 30
0.0
 10
6.1517094759
 20
3.5549110325
 30
0.0
 10
6.1358442493
 20
3.5527972341
 30
0.0
  0
SPLINE
  5
2EA
100
AcDbEntity
  8
ALL_ASSEMBLY_MEMBERS
100
AcDbSpline
 62
7
  6
CONTINUOUS
 70
0
 71
3
 72
11
 73
7
 74
0
 42
0.0000001
 43
0.0000001
 44
0.0000000001
 40
0.0
 40
0.0
 40
0.0
 40
0.0
 40
0.2531450581
 40
0.5028827946
 40
0.7512032553
 40
1.0
 40
1.0
 40
1.0
 40
1.0
 10
6.1358442493
 20
2.7408984181
 30
0.0
 10
6.0833599548
 20
2.7478911461
 30
0.0
 10
5.9788784486
 20
2.7601717311
 30
0.0
 10
5.8223995755
 20
2.7745089855
 30
0.0
 10
5.6665873268
 20
2.785780613
 30
0.0
 10
5.562796319
 20
2.7920255517
 30
0.0
 10
5.5108442493
 20
2.7950250058
 30
0.0
  0
SPLINE
  5
2EB
100
AcDbEntity
  8
ALL_ASSEMBLY_MEMBERS
100
AcDbSpline
 62
7
  6
CONTINUOUS
 70
0
 71
3
 72
11
 73
7
 74
0
 42
0.0000001
 43
0.0000001
 44
0.0000000001
 40
0.0
 40
0.0
 40
0.0
 40
0.0
 40
0.2531450581
 40
0.5028827946
 40
0.7512032553
 40
1.0
 40
1.0
 40
1.0
 40
1.0
 10
6.1358442493
 20
3.5527972341
 30
0.0
 10
6.0833599548
 20
3.5458045061
 30
0.0
 10
5.9788784486
 20
3.533523921
 30
0.0
 10
5.8223995755
 20
3.5191866667
 30
0.0
 10
5.6665873268
 20
3.5079150391
 30
0.0
 10
5.562796319
 20
3.5016701005
 30
0.0
 10
5.5108442493
 20
3.4986706464
 30
0.0
  0
SPLINE
  5
2EC
100
AcDbEntity
  8
ALL_ASSEMBLY_MEMBERS
100
AcDbSpline
 62
7
  6
CONTINUOUS
 70
0
 71
3
 72
10
 73
6
 74
0
 42
0.0000001
 43
0.0000001
 44
0.0000000001
 40
0.0
 40
0.0
 40
0.0
 40
0.0
 40
0.2502732893
 40
0.6252867533
 40
1.0
 40
1.0
 40
1.0
 40
1.0
 10
5.5108442493
 20
2.7950250058
 30
0.0
 10
5.4587352835
 20
2.7980335183
 30
0.0
 10
5.3285731361
 20
2.8060187552
 30
0.0
 10
5.1203527847
 20
2.8178588407
 30
0.0
 10
4.9639925644
 20
2.8220882997
 30
0.0
 10
4.8858442493
 20
2.8220882997
 30
0.0
  0
SPLINE
  5
2ED
100
AcDbEntity
  8
ALL_ASSEMBLY_MEMBERS
100
AcDbSpline
 62
7
  6
CONTINUOUS
 70
0
 71
3
 72
10
 73
6
 74
0
 42
0.0000001
 43
0.0000001
 44
0.0000000001
 40
0.0
 40
0.0
 40
0.0
 40
0.0
 40
0.2502732893
 40
0.6252867533
 40
1.0
 40
1.0
 40
1.0
 40
1.0
 10
5.5108442493
 20
3.4986706464
 30
0.0
 10
5.4587352835
 20
3.4956621338
 30
0.0
 10
5.3285731361
 20
3.4876768969
 30
0.0
 10
5.1203527847
 20
3.4758368115
 30
0.0
 10
4.9639925644
 20
3.4716073525
 30
0.0
 10
4.8858442493
 20
3.4716073525
 30
0.0
  0
SPLINE
  5
2EE
100
AcDbEntity
  8
ALL_ASSEMBLY_MEMBERS
100
AcDbSpline
 62
7
  6
CONTINUOUS
 70
0
 71
3
 72
22
 73
18
 74
0
 42
0.0000001
 43
0.0000001
 44
0.0000000001
 40
0.0
 40
0.0
 40
0.0
 40
0.0
 40
0.0624669016
 40
0.1250162593
 40
0.1875575814
 40
0.2500669613
 40
0.3125650217
 40
0.3750709245
 40
0.4375763264
 40
0.5000813152
 40
0.5625853062
 40
0.6250927775
 40
0.6876013075
 40
0.7501018384
 40
0.812605495
 40
0.8751398795
 40
1.0
 40
1.0
 40
1.0
 40
1.0
 10
4.2223442493
 20
2.8220882997
 30
0.0
 10
4.2165078062
 20
2.8220882997
 30
0.0
 10
4.2048202592
 20
2.8215525349
 30
0.0
 10
4.1874379586
 20
2.8191485848
 30
0.0
 10
4.1703491101
 20
2.8151338901
 30
0.0
 10
4.1537189765
 20
2.8095290997
 30
0.0
 10
4.1376978611
 20
2.8023731329
 30
0.0
 10
4.1224379067
 20
2.7937120688
 30
0.0
 10
4.1080813309
 20
2.7836218865
 30
0.0
 10
4.0947800245
 20
2.7721759801
 30
0.0
 10
4.0826626366
 20
2.7594826201
 30
0.0
 10
4.0718630996
 20
2.7456496061
 30
0.0
 10
4.062493669
 20
2.7308104867
 30
0.0
 10
4.0546591585
 20
2.715107522
 30
0.0
 10
4.0484535267
 20
2.6986856802
 30
0.0
 10
4.0424597561
 20
2.6760916207
 30
0.0
 10
4.0406085852
 20
2.6585138278
 30
0.0
 10
4.0406085852
 20
2.6468478261
 30
0.0
  0
SPLINE
  5
2EF
100
AcDbEntity
  8
ALL_ASSEMBLY_MEMBERS
100
AcDbSpline
 62
7
  6
CONTINUOUS
 70
0
 71
3
 72
27
 73
23
 74
0
 42
0.0000001
 43
0.0000001
 44
0.0000000001
 40
0.0
 40
0.0
 40
0.0
 40
0.0
 40
0.0624783385
 40
0.1250000378
 40
0.1874973765
 40
0.2499876976
 40
0.2812446129
 40
0.3125020229
 40
0.3437589188
 40
0.3750151601
 40
0.4375076955
 40
0.4999999872
 40
0.5624922791
 40
0.6249848158
 40
0.6562410581
 40
0.6874979553
 40
0.7187553666
 40
0.750012283
 40
0.8125026068
 40
0.8749999515
 40
0.9375216585
 40
1.0
 40
1.0
 40
1.0
 40
1.0
 10
4.2223442493
 20
3.1468478261
 30
0.0
 10
4.2059928189
 20
3.1468478261
 30
0.0
 10
4.1732563829
 20
3.1452352963
 30
0.0
 10
4.1246412247
 20
3.1380306737
 30
0.0
 10
4.0769628066
 20
3.1260854812
 30
0.0
 10
4.0383951709
 20
3.112283921
 30
0.0
 10
4.008477418
 20
3.0990199244
 30
0.0
 10
3.9865468768
 20
3.0879826629
 30
0.0
 10
3.9651848372
 20
3.0758818756
 30
0.0
 10
3.9375369086
 20
3.0583715161
 30
0.0
 10
3.904633927
 20
3.0339731416
 30
0.0
 10
3.8682245051
 20
3.0009675845
 30
0.0
 10
3.8352189465
 20
2.9645581636
 30
0.0
 10
3.8108205701
 20
2.9316551825
 30
0.0
 10
3.7933102088
 20
2.904007254
 30
0.0
 10
3.7812094212
 20
2.8826452134
 30
0.0
 10
3.7701721581
 20
2.860714672
 30
0.0
 10
3.7569081593
 20
2.8307969185
 30
0.0
 10
3.7431065979
 20
2.7922292806
 30
0.0
 10
3.7311614028
 20
2.7445508587
 30
0.0
 10
3.7239567802
 20
2.695935696
 30
0.0
 10
3.7223442493
 20
2.6631992572
 30
0.0
 10
3.7223442493
 20
2.6468478261
 30
0.0
  0
SPLINE
  5
2F0
100
AcDbEntity
  8
ALL_ASSEMBLY_MEMBERS
100
AcDbSpline
 62
7
  6
CONTINUOUS
 70
0
 71
3
 72
28
 73
24
 74
0
 42
0.0000001
 43
0.0000001
 44
0.0000000001
 40
0.0
 40
0.0
 40
0.0
 40
0.0
 40
0.062481283
 40
0.0937491134
 40
0.1250114227
 40
0.1875022331
 40
0.2499940862
 40
0.2812512802
 40
0.3125082063
 40
0.3750021494
 40
0.4062583853
 40
0.4375147236
 40
0.5000088023
 40
0.5625027704
 40
0.5937590426
 40
0.6250151081
 40
0.6875092866
 40
0.7500047146
 40
0.8124968578
 40
0.8749886233
 40
0.9062512177
 40
0.9375185378
 40
1.0
 40
1.0
 40
1.0
 40
1.0
 10
4.2223442493
 20
3.4716073525
 30
0.0
 10
4.1954762546
 20
3.4716073525
 30
0.0
 10
4.1551254111
 20
3.4695901307
 30
0.0
 10
4.1017677635
 20
3.4629225695
 30
0.0
 10
4.048799082
 20
3.4536082345
 30
0.0
 10
3.9835612388
 20
3.4370567416
 30
0.0
 10
3.9202846982
 20
3.414129661
 30
0.0
 10
3.8712200248
 20
3.392122476
 30
0.0
 10
3.8233029587
 20
3.3677199171
 30
0.0
 10
3.7772491472
 20
3.3397946108
 30
0.0
 10
3.7334519776
 20
3.308597709
 30
0.0
 10
3.6912424608
 20
3.2752804918
 30
0.0
 10
3.6416250843
 20
3.2298079897
 30
0.0
 10
3.596712495
 20
3.1796836318
 30
0.0
 10
3.5638608916
 20
3.1371116086
 30
0.0
 10
3.5331359646
 20
3.0929804831
 30
0.0
 10
3.4988279672
 20
3.035076547
 30
0.0
 10
3.4646487121
 20
2.9619211188
 30
0.0
 10
3.4377433284
 20
2.8857909289
 30
0.0
 10
3.4215937777
 20
2.8204540214
 30
0.0
 10
3.412522238
 20
2.767444184
 30
0.0
 10
3.4060364112
 20
2.7140647627
 30
0.0
 10
3.4040799134
 20
2.6737158979
 30
0.0
 10
3.4040799134
 20
2.6468478261
 30
0.0
  0
SPLINE
  5
2F1
100
AcDbEntity
  8
ALL_ASSEMBLY_MEMBERS
100
AcDbSpline
 62
7
  6
CONTINUOUS
 70
0
 71
3
 72
19
 73
15
 74
0
 42
0.0000001
 43
0.0000001
 44
0.0000000001
 40
0.0
 40
0.0
 40
0.0
 40
0.0
 40
0.1232365985
 40
0.1836503394
 40
0.2434732976
 40
0.3029345748
 40
0.3622930507
 40
0.4218256639
 40
0.4817922415
 40
0.5424276259
 40
0.6039590252
 40
0.7303832601
 40
0.8622931511
 40
1.0
 40
1.0
 40
1.0
 40
1.0
 10
6.7418535308
 20
3.7530653185
 30
0.0
 10
6.7530526606
 20
3.7470003215
 30
0.0
 10
6.7692628712
 20
3.7370079569
 30
0.0
 10
6.7892914333
 20
3.7217527807
 30
0.0
 10
6.8032613436
 20
3.7094916375
 30
0.0
 10
6.8162327745
 20
3.6963316125
 30
0.0
 10
6.8281758538
 20
3.682269693
 30
0.0
 10
6.8390536871
 20
3.6673033273
 30
0.0
 10
6.8488412976
 20
3.6514475574
 30
0.0
 10
6.8575212249
 20
3.6347259087
 30
0.0
 10
6.8676743312
 20
3.6111056831
 30
0.0
 10
6.8774519678
 20
3.5794097734
 30
0.0
 10
6.8843771459
 20
3.5389735142
 30
0.0
 10
6.8858442326
 20
3.5110795304
 30
0.0
 10
6.8858442493
 20
3.4968481329
 30
0.0
  0
SPLINE
  5
2F2
100
AcDbEntity
  8
ALL_ASSEMBLY_MEMBERS
100
AcDbSpline
 62
7
  6
CONTINUOUS
 70
0
 71
3
 72
13
 73
9
 74
0
 42
0.0000001
 43
0.0000001
 44
0.0000000001
 40
0.0
 40
0.0
 40
0.0
 40
0.0
 40
0.2599118988
 40
0.5167447607
 40
0.6425699243
 40
0.7655341079
 40
0.8849264958
 40
1.0
 40
1.0
 40
1.0
 40
1.0
 10
6.7418535308
 20
3.1468478261
 30
0.0
 10
6.7645800226
 20
3.1222323236
 30
0.0
 10
6.8054796687
 20
3.069136045
 30
0.0
 10
6.8436511481
 20
2.9950984545
 30
0.0
 10
6.8654191433
 20
2.9335858381
 30
0.0
 10
6.877109915
 20
2.887515672
 30
0.0
 10
6.8841880863
 20
2.8419227966
 30
0.0
 10
6.8858442288
 20
2.811681457
 30
0.0
 10
6.8858442493
 20
2.7968485533
 30
0.0
  0
SPLINE
  5
2F3
100
AcDbEntity
  8
ALL_ASSEMBLY_MEMBERS
100
AcDbSpline
 62
7
  6
CONTINUOUS
 70
0
 71
3
 72
16
 73
12
 74
0
 42
0.0000001
 43
0.0000001
 44
0.0000000001
 40
0.0
 40
0.0
 40
0.0
 40
0.0
 40
0.1150240187
 40
0.234329402
 40
0.3572276863
 40
0.4829847037
 40
0.6107994032
 40
0.739934296
 40
0.804833127
 40
0.8698599083
 40
1.0
 40
1.0
 40
1.0
 40
1.0
 10
6.8858442493
 20
3.496847668
 30
0.0
 10
6.8858442496
 20
3.48201284
 30
0.0
 10
6.8841896846
 20
3.4517721928
 30
0.0
 10
6.8771090248
 20
3.406179258
 30
0.0
 10
6.8654191246
 20
3.3601136772
 30
0.0
 10
6.8492020811
 20
3.3142772085
 30
0.0
 10
6.828578484
 20
3.269361709
 30
0.0
 10
6.807899319
 20
3.2332998805
 30
0.0
 10
6.7893564248
 20
3.2054939997
 30
0.0
 10
6.7694986042
 20
3.1784528892
 30
0.0
 10
6.7532392505
 20
3.1591799191
 30
0.0
 10
6.7418535308
 20
3.1468478261
 30
0.0
  0
SPLINE
  5
2F4
100
AcDbEntity
  8
ALL_ASSEMBLY_MEMBERS
100
AcDbSpline
 62
7
  6
CONTINUOUS
 70
0
 71
3
 72
20
 73
16
 74
0
 42
0.0000001
 43
0.0000001
 44
0.0000000001
 40
0.0
 40
0.0
 40
0.0
 40
0.0
 40
0.1377118482
 40
0.2695557548
 40
0.3334139477
 40
0.3960267819
 40
0.4575574534
 40
0.5181941951
 40
0.5781551255
 40
0.6376910974
 40
0.697055447
 40
0.7565151146
 40
0.8163326438
 40
0.8767430953
 40
1.0
 40
1.0
 40
1.0
 40
1.0
 10
6.8858442493
 20
2.7968479934
 30
0.0
 10
6.8858442493
 20
2.782615006
 30
0.0
 10
6.8843813194
 20
2.7547284321
 30
0.0
 10
6.8785432812
 20
2.7206719183
 30
0.0
 10
6.8714755085
 20
2.6949085058
 30
0.0
 10
6.8650736142
 20
2.6765460524
 30
0.0
 10
6.8575285498
 20
2.6589844035
 30
0.0
 10
6.8488528025
 20
2.6422600201
 30
0.0
 10
6.8390612987
 20
2.6264048591
 30
0.0
 10
6.8281833736
 20
2.6114366288
 30
0.0
 10
6.8162411769
 20
2.5973709704
 30
0.0
 10
6.8032675797
 20
2.5842112697
 30
0.0
 10
6.7892989085
 20
2.5719483493
 30
0.0
 10
6.7692694912
 20
2.5566890194
 30
0.0
 10
6.7530553506
 20
2.5466967875
 30
0.0
 10
6.7418535308
 20
2.5406303337
 30
0.0
  0
SPLINE
  5
2F5
100
AcDbEntity
  8
ALL_ASSEMBLY_MEMBERS
100
AcDbSpline
 62
7
  6
CONTINUOUS
 70
0
 71
3
 72
17
 73
13
 74
0
 42
0.0000001
 43
0.0000001
 44
0.0000000001
 40
0.0
 40
0.0
 40
0.0
 40
0.0
 40
0.1247802803
 40
0.2496373345
 40
0.3120934804
 40
0.3745634113
 40
0.4995399302
 40
0.6245625322
 40
0.6870921152
 40
0.7496355746
 40
0.8747785536
 40
1.0
 40
1.0
 40
1.0
 40
1.0
 10
6.5108442492
 20
3.1493336688
 30
0.0
 10
6.5105307984
 20
3.1705124381
 30
0.0
 10
6.5100840198
 20
3.2128857034
 30
0.0
 10
6.5098026536
 20
3.2658620106
 30
0.0
 10
6.5096720386
 20
3.3082617754
 30
0.0
 10
6.5095835596
 20
3.3506819261
 30
0.0
 10
6.5095439322
 20
3.4037226462
 30
0.0
 10
6.5095838885
 20
3.4567734911
 30
0.0
 10
6.5096716963
 20
3.4992264126
 30
0.0
 10
6.5098021252
 20
3.5416996606
 30
0.0
 10
6.510084766
 20
3.594814206
 30
0.0
 10
6.510531237
 20
3.6373108967
 30
0.0
 10
6.5108442492
 20
3.6585645674
 30
0.0
  0
SPLINE
  5
2F6
100
AcDbEntity
  8
ALL_ASSEMBLY_MEMBERS
100
AcDbSpline
 62
7
  6
CONTINUOUS
 70
0
 71
3
 72
15
 73
11
 74
0
 42
0.0000001
 43
0.0000001
 44
0.0000000001
 40
0.0
 40
0.0
 40
0.0
 40
0.0
 40
0.1251859395
 40
0.2502831919
 40
0.3753295636
 40
0.5003430594
 40
0.6253285435
 40
0.7502812922
 40
0.8751840065
 40
1.0
 40
1.0
 40
1.0
 40
1.0
 10
6.5108442494
 20
3.1493336813
 30
0.0
 10
6.511158576
 20
3.1705813063
 30
0.0
 10
6.511598686
 20
3.2130642863
 30
0.0
 10
6.5119447896
 20
3.2767745297
 30
0.0
 10
6.512111578
 20
3.3404562056
 30
0.0
 10
6.5121619707
 20
3.4041190703
 30
0.0
 10
6.5121115234
 20
3.4677660421
 30
0.0
 10
6.5119451564
 20
3.5313940506
 30
0.0
 10
6.5115988972
 20
3.5949925778
 30
0.0
 10
6.5111591855
 20
3.6373797429
 30
0.0
 10
6.5108442494
 20
3.6585645547
 30
0.0
  0
SPLINE
  5
2F7
100
AcDbEntity
  8
ALL_ASSEMBLY_MEMBERS
100
AcDbSpline
 62
7
  6
CONTINUOUS
 70
0
 71
3
 72
17
 73
13
 74
0
 42
0.0000001
 43
0.0000001
 44
0.0000000001
 40
0.0
 40
0.0
 40
0.0
 40
0.0
 40
0.125221548
 40
0.2503642754
 40
0.3129077789
 40
0.3754374469
 40
0.500460052
 40
0.6254365718
 40
0.6879065958
 40
0.7503627919
 40
0.8752196173
 40
1.0
 40
1.0
 40
1.0
 40
1.0
 10
6.5108442492
 20
2.6351310853
 30
0.0
 10
6.5105309319
 20
2.6563847687
 30
0.0
 10
6.510084344
 20
2.6988814359
 30
0.0
 10
6.5098027255
 20
2.7519959681
 30
0.0
 10
6.5096720567
 20
2.7944691942
 30
0.0
 10
6.5095835842
 20
2.8369221368
 30
0.0
 10
6.509543932
 20
2.8899729978
 30
0.0
 10
6.5095838642
 20
2.9430137335
 30
0.0
 10
6.5096716783
 20
2.9854339099
 30
0.0
 10
6.5098020525
 20
3.0278336613
 30
0.0
 10
6.5100844428
 20
3.0808099508
 30
0.0
 10
6.5105311043
 20
3.1231831926
 30
0.0
 10
6.5108442492
 20
3.1443619839
 30
0.0
  0
SPLINE
  5
2F8
100
AcDbEntity
  8
ALL_ASSEMBLY_MEMBERS
100
AcDbSpline
 62
7
  6
CONTINUOUS
 70
0
 71
3
 72
15
 73
11
 74
0
 42
0.0000001
 43
0.0000001
 44
0.0000000001
 40
0.0
 40
0.0
 40
0.0
 40
0.0
 40
0.1248160125
 40
0.2497187328
 40
0.3746714363
 40
0.4996569257
 40
0.6246704192
 40
0.7497167499
 40
0.8748140418
 40
1.0
 40
1.0
 40
1.0
 40
1.0
 10
6.5108442494
 20
2.6351310978
 30
0.0
 10
6.5111588941
 20
2.6563159171
 30
0.0
 10
6.5115989771
 20
2.698703081
 30
0.0
 10
6.5119448793
 20
2.762301608
 30
0.0
 10
6.5121116019
 20
2.8259296091
 30
0.0
 10
6.5121619706
 20
2.8895765743
 30
0.0
 10
6.5121114997
 20
2.953239432
 30
0.0
 10
6.5119450663
 20
3.0169211089
 30
0.0
 10
6.5115986068
 20
3.080631352
 30
0.0
 10
6.5111588661
 20
3.1231143473
 30
0.0
 10
6.5108442494
 20
3.1443619711
 30
0.0
  0
ELLIPSE
  5
2F9
100
AcDbEntity
  8
ALL_ASSEMBLY_MEMBERS
100
AcDbEllipse
 62
7
  6
CONTINUOUS
 10
6.4810948641
 20
6.1468478261
 30
0.0
 11
0.0
 21
0.59375
 31
0.0
 40
0.9750549296
 41
-2.0943951024
 42
-1.0471975512
  0
ELLIPSE
  5
2FA
100
AcDbEntity
  8
ALL_ASSEMBLY_MEMBERS
100
AcDbEllipse
 62
7
  6
CONTINUOUS
 10
6.4810948641
 20
6.1468478261
 30
0.0
 11
0.5581047699
 21
0.5746235355
 31
0.0
 40
0.2678505055
 41
-0.7926884546
 42
0.2545090966
  0
ELLIPSE
  5
2FB
100
AcDbEntity
  8
ALL_ASSEMBLY_MEMBERS
100
AcDbEllipse
 62
7
  6
CONTINUOUS
 10
6.4810948641
 20
6.1468478261
 30
0.0
 11
0.5581047699
 21
-0.5746235355
 31
0.0
 40
0.2678505055
 41
-0.2545090966
 42
0.7926884546
  0
ENDSEC
  0
SECTION
  2
OBJECTS
  0
DICTIONARY
  5
C
100
AcDbDictionary
280
0
281
1
  3
ACAD_GROUP
350
D
  3
ACAD_MLINESTYLE
350
17
  3
ACAD_LAYOUT
350
1A
  3
ACAD_PLOTSETTINGS
350
19
  3
ACAD_PLOTSTYLENAME
350
E
  0
DICTIONARY
  5
D
102
{ACAD_REACTORS
330
C
102
}
100
AcDbDictionary
280
0
281
1
  0
ACDBDICTIONARYWDFLT
  5
E
102
{ACAD_REACTORS
330
C
102
}
100
AcDbDictionary
281
1
  3
Normal
350
F
100
AcDbDictionaryWithDefault
340
F
  0
DICTIONARY
  5
17
102
{ACAD_REACTORS
330
C
102
}
100
AcDbDictionary
280
0
281
1
  3
Standard
350
18
  0
DICTIONARY
  5
19
102
{ACAD_REACTORS
330
C
102
}
100
AcDbDictionary
281
1
  0
DICTIONARY
  5
1A
102
{ACAD_REACTORS
330
C
102
}
100
AcDbDictionary
281
1
  3
Model
350
2FC
  3
Layout1
350
2FD
  0
ACDBPLACEHOLDER
  5
F
102
{ACAD_REACTORS
330
E
102
}
  0
MLINESTYLE
  5
18
102
{ACAD_REACTORS
330
17
102
}
100
AcDbMlineStyle
  2
STANDARD
 70
0
  3

 62
256
 51
90.0
 52
90.0
 71
2
 49
0.5
 62
256
  6
BYLAYER
 49
-0.5
 62
256
  6
BYLAYER
  0
LAYOUT
  5
2FC
102
{ACAD_REACTORS
330
1A
102
}
100
AcDbPlotSettings
  1

  2
none_device
  4
ANSI_A_(11.00_x_8.50_Inches)
  6

 40
0.0
 41
0.0
 42
0.0
 43
0.0
 44
279.4
 45
215.9
 46
0.0
 47
0.0
 48
0.0
 49
0.0
140
0.0
141
0.0
142
1.0
143
1.0
 70
1024
 72
0
 73
0
 74
0
  7

 75
0
147
1.0
148
0.0
149
0.0
100
AcDbLayout
  1
Model
 70
0
 71
0
 10
0.0
 20
0.0
 11
11.0
 21
8.5
 12
0.0
 22
0.0
 32
0.0
 14
0.0
 24
0.0
 34
0.0
 15
0.0
 25
0.0
 35
0.0
146
0.0
 13
0.0
 23
0.0
 33
0.0
 16
1.0
 26
0.0
 36
0.0
 17
0.0
 27
1.0
 37
0.0
 76
0
330
21F
345
0
346
0
  0
LAYOUT
  5
2FD
102
{ACAD_REACTORS
330
1A
102
}
100
AcDbPlotSettings
  1

  2
none_device
  4
ANSI_A_(11.00_x_8.50_Inches)
  6

 40
0.0
 41
0.0
 42
0.0
 43
0.0
 44
279.4
 45
215.9
 46
0.0
 47
0.0
 48
0.0
 49
0.0
140
0.0
141
0.0
142
1.0
143
1.0
 70
0
 72
0
 73
0
 74
0
  7

 75
0
147
1.0
148
0.0
149
0.0
100
AcDbLayout
  1
Layout1
 70
0
 71
1
 10
0.0
 20
0.0
 11
11.0
 21
8.5
 12
0.0
 22
0.0
 32
0.0
 14
0.0
 24
0.0
 34
0.0
 15
0.0
 25
0.0
 35
0.0
146
0.0
 13
0.0
 23
0.0
 33
0.0
 16
1.0
 26
0.0
 36
0.0
 17
0.0
 27
1.0
 37
0.0
 76
0
330
220
345
0
346
0
  0
ENDSEC
  0
EOF
