999
DXF file: 3-1235_TOP.dxf
999
Pro/ENGINEER 2018400 by Parametric Technology Corporation
  0
SECTION
  2
HEADER
  9
$ACADVER
  1
AC1027
  9
$DWGCODEPAGE
  3
ANSI_1252
  9
$EXTMAX
 10
11.0
 20
8.5
 30
0.0
  9
$EXTMIN
 10
0.0
 20
0.0
 30
0.0
  9
$LIMMIN
 10
0.0
 20
0.0
  9
$LIMMAX
 10
11.0
 20
8.5
  9
$VIEWCTR
 10
5.5
 20
4.25
  9
$VIEWSIZE
 40
8.5
  9
$CLAYER
  8
0
  9
$LTSCALE
 40
0.605
  9
$CELTYPE
  6
BYLAYER
  9
$DIMSCALE
 40
1.0
  9
$DIMASZ
 40
0.1
  9
$DIMEXO
 40
0.0625
  9
$DIMDLI
 40
0.418
  9
$DIMEXE
 40
0.125
  9
$DIMCEN
 40
0.099
  9
$DIMLFAC
 40
1.0
  9
$DIMBLK
  1
_FILLED
  9
$DIMALT
 70
1
  9
$DIMALTD
 70
2
  9
$DIMALTTD
 70
2
  9
$DIMALTF
 40
25.4
  9
$DIMTXT
 40
0.08
  9
$DIMTOL
 70
1
  9
$DIMLIM
 70
0
  9
$DIMTFAC
 40
1.0
  9
$DIMTP
 40
0.001
  9
$DIMTM
 40
0.001
  9
$DIMGAP
 40
0.09
  9
$DIMDSEP
 70
46
  9
$AUNITS
 70
0
  9
$PDMODE
 70
3
  9
$PDSIZE
 40
0.3125
  9
$HANDSEED
  5
39B
  9
$TILEMODE
 70
1
  9
$MEASUREMENT
 70
0
  9
$INSUNITS
 70
1
  0
ENDSEC
  0
SECTION
  2
CLASSES
  0
CLASS
  1
ACDBDICTIONARYWDFLT
  2
AcDbDictionaryWithDefault
  3
AutoCAD 2000
 90
0
 91
1
280
0
281
0
  0
CLASS
  1
ACDBPLACEHOLDER
  2
AcDbPlaceHolder
  3
AutoCAD 2000
 90
0
 91
1
280
0
281
0
  0
CLASS
  1
LAYOUT
  2
AcDbLayout
  3
AutoCAD 2000
 90
0
 91
0
280
0
281
0
  0
ENDSEC
  0
SECTION
  2
TABLES
  0
TABLE
  2
VPORT
  5
8
100
AcDbSymbolTable
 70
2
  0
VPORT
  5
1F4
100
AcDbSymbolTableRecord
100
AcDbViewportTableRecord
  2
*ACTIVE
 70
0
 10
0.0
 20
0.0
 11
1.0
 21
1.0
 12
5.5
 22
4.25
 13
0.0
 23
0.0
 14
1.0
 24
1.0
 15
0.0
 25
0.0
 16
0.0
 26
0.0
 36
1.0
 17
0.0
 27
0.0
 37
0.0
 40
8.5
 41
1.2941176471
 42
50.0
 43
0.0
 44
0.0
 50
0.0
 51
0.0
 71
0
 72
100
 73
1
 74
1
 75
0
 76
0
 77
0
 78
0
  0
ENDTAB
  0
TABLE
  2
LTYPE
  5
5
100
AcDbSymbolTable
 70
6
  0
LTYPE
  5
14
100
AcDbSymbolTableRecord
100
AcDbLinetypeTableRecord
  2
BYBLOCK
 70
0
  3

 72
65
 73
0
 40
0.0
  0
LTYPE
  5
15
100
AcDbSymbolTableRecord
100
AcDbLinetypeTableRecord
  2
BYLAYER
 70
0
  3

 72
65
 73
0
 40
0.0
  0
LTYPE
  5
16
100
AcDbSymbolTableRecord
100
AcDbLinetypeTableRecord
  2
CONTINUOUS
 70
64
  3
Solid line
 72
65
 73
0
 40
0.0
  0
LTYPE
  5
1F5
100
AcDbSymbolTableRecord
100
AcDbLinetypeTableRecord
  2
CENTER
 70
64
  3
____ _ ____ _ ____ _ ____ _ ____ _ ____ _ ____
 72
65
 73
4
 40
0.6
 49
0.375
 74
0
 49
-0.075
 74
0
 49
0.075
 74
0
 49
-0.075
 74
0
  0
LTYPE
  5
1F6
100
AcDbSymbolTableRecord
100
AcDbLinetypeTableRecord
  2
HIDDEN
 70
64
  3
- - - - - - - - - - - - - - - - - - - -
 72
65
 73
2
 40
0.2
 49
0.1
 74
0
 49
-0.1
 74
0
  0
LTYPE
  5
1F7
100
AcDbSymbolTableRecord
100
AcDbLinetypeTableRecord
  2
PHANTOM
 70
64
  3
_____ _ _ _____ _ _ _____ _ _ _____
 72
65
 73
6
 40
0.8
 49
0.45
 74
0
 49
-0.05
 74
0
 49
0.1
 74
0
 49
-0.05
 74
0
 49
0.1
 74
0
 49
-0.05
 74
0
  0
LTYPE
  5
1F8
100
AcDbSymbolTableRecord
100
AcDbLinetypeTableRecord
  2
DOT
 70
64
  3
. . . . . . . . . . . . . . . . . . . .
 72
65
 73
2
 40
0.2
 49
0.1
 74
0
 49
-0.1
 74
0
  0
LTYPE
  5
1F9
100
AcDbSymbolTableRecord
100
AcDbLinetypeTableRecord
  2
DASHED
 70
64
  3
- - - - - - - - - - - - - - - - - - - -
 72
65
 73
2
 40
0.2
 49
0.1
 74
0
 49
-0.1
 74
0
  0
ENDTAB
  0
TABLE
  2
LAYER
  5
2
100
AcDbSymbolTable
 70
36
  0
LAYER
  5
10
100
AcDbSymbolTableRecord
100
AcDbLayerTableRecord
  2
0
 70
0
 62
7
  6
CONTINUOUS
370
-3
390
F
  0
LAYER
  5
1FA
100
AcDbSymbolTableRecord
100
AcDbLayerTableRecord
  2
DEFAULT_1
 70
0
 62
7
  6
CENTER
370
-3
390
F
  0
LAYER
  5
1FB
100
AcDbSymbolTableRecord
100
AcDbLayerTableRecord
  2
DEFAULT_2
 70
0
 62
8
  6
HIDDEN
370
-3
390
F
  0
LAYER
  5
1FC
100
AcDbSymbolTableRecord
100
AcDbLayerTableRecord
  2
DEFAULT_3
 70
0
 62
7
  6
PHANTOM
370
-3
390
F
  0
LAYER
  5
1FD
100
AcDbSymbolTableRecord
100
AcDbLayerTableRecord
  2
_  SHELL
 70
0
 62
7
  6
CONTINUOUS
370
-3
390
F
  0
LAYER
  5
1FE
100
AcDbSymbolTableRecord
100
AcDbLayerTableRecord
  2
06___PRT_ALL_SURFS
 70
0
 62
7
  6
CONTINUOUS
370
-3
390
F
  0
LAYER
  5
1FF
100
AcDbSymbolTableRecord
100
AcDbLayerTableRecord
  2
2-144_ASSY_PLANES
 70
0
 62
7
  6
CONTINUOUS
370
-3
390
F
  0
LAYER
  5
200
100
AcDbSymbolTableRecord
100
AcDbLayerTableRecord
  2
ALL_ASSEMBLY_MEMBERS
 70
0
 62
7
  6
CONTINUOUS
370
-3
390
F
  0
LAYER
  5
201
100
AcDbSymbolTableRecord
100
AcDbLayerTableRecord
  2
ALL_FEATURES
 70
0
 62
7
  6
CONTINUOUS
370
-3
390
F
  0
LAYER
  5
202
100
AcDbSymbolTableRecord
100
AcDbLayerTableRecord
  2
AXES_FEATURES
 70
0
 62
7
  6
CONTINUOUS
370
-3
390
F
  0
LAYER
  5
203
100
AcDbSymbolTableRecord
100
AcDbLayerTableRecord
  2
CHAMFER_FEATURES
 70
0
 62
7
  6
CONTINUOUS
370
-3
390
F
  0
LAYER
  5
204
100
AcDbSymbolTableRecord
100
AcDbLayerTableRecord
  2
COSMETIC
 70
0
 62
7
  6
CONTINUOUS
370
-3
390
F
  0
LAYER
  5
205
100
AcDbSymbolTableRecord
100
AcDbLayerTableRecord
  2
CURVES
 70
0
 62
7
  6
CONTINUOUS
370
-3
390
F
  0
LAYER
  5
206
100
AcDbSymbolTableRecord
100
AcDbLayerTableRecord
  2
CUT_FEATURES
 70
0
 62
7
  6
CONTINUOUS
370
-3
390
F
  0
LAYER
  5
207
100
AcDbSymbolTableRecord
100
AcDbLayerTableRecord
  2
DATUM_PLANES
 70
0
 62
7
  6
CONTINUOUS
370
-3
390
F
  0
LAYER
  5
208
100
AcDbSymbolTableRecord
100
AcDbLayerTableRecord
  2
DATUM_POINTS
 70
0
 62
7
  6
CONTINUOUS
370
-3
390
F
  0
LAYER
  5
209
100
AcDbSymbolTableRecord
100
AcDbLayerTableRecord
  2
DEFAULT_COORDINATE_SYSTEM
 70
0
 62
7
  6
CONTINUOUS
370
-3
390
F
  0
LAYER
  5
20A
100
AcDbSymbolTableRecord
100
AcDbLayerTableRecord
  2
DEFAULT_DATUM_AXES
 70
0
 62
7
  6
CONTINUOUS
370
-3
390
F
  0
LAYER
  5
20B
100
AcDbSymbolTableRecord
100
AcDbLayerTableRecord
  2
DEFAULT_DATUM_CURVES
 70
0
 62
7
  6
CONTINUOUS
370
-3
390
F
  0
LAYER
  5
20C
100
AcDbSymbolTableRecord
100
AcDbLayerTableRecord
  2
DEFAULT_DATUM_PLANES
 70
0
 62
7
  6
CONTINUOUS
370
-3
390
F
  0
LAYER
  5
20D
100
AcDbSymbolTableRecord
100
AcDbLayerTableRecord
  2
DEFAULT_SURFACES
 70
0
 62
7
  6
CONTINUOUS
370
-3
390
F
  0
LAYER
  5
20E
100
AcDbSymbolTableRecord
100
AcDbLayerTableRecord
  2
DIMENSIONS
 70
0
 62
7
  6
CONTINUOUS
370
-3
390
F
  0
LAYER
  5
20F
100
AcDbSymbolTableRecord
100
AcDbLayerTableRecord
  2
HOLE_FEATURES
 70
0
 62
7
  6
CONTINUOUS
370
-3
390
F
  0
LAYER
  5
210
100
AcDbSymbolTableRecord
100
AcDbLayerTableRecord
  2
INTF_BLANK
 70
0
 62
7
  6
CONTINUOUS
370
-3
390
F
  0
LAYER
  5
211
100
AcDbSymbolTableRecord
100
AcDbLayerTableRecord
  2
MAGENTA
 70
0
 62
7
  6
CONTINUOUS
370
-3
390
F
  0
LAYER
  5
212
100
AcDbSymbolTableRecord
100
AcDbLayerTableRecord
  2
NOTES
 70
0
 62
7
  6
CONTINUOUS
370
-3
390
F
  0
LAYER
  5
213
100
AcDbSymbolTableRecord
100
AcDbLayerTableRecord
  2
PART_REFERENCE_DIMENSIONS
 70
0
 62
7
  6
CONTINUOUS
370
-3
390
F
  0
LAYER
  5
214
100
AcDbSymbolTableRecord
100
AcDbLayerTableRecord
  2
PLATEDSURFAREA
 70
0
 62
7
  6
CONTINUOUS
370
-3
390
F
  0
LAYER
  5
215
100
AcDbSymbolTableRecord
100
AcDbLayerTableRecord
  2
POINTS
 70
0
 62
7
  6
CONTINUOUS
370
-3
390
F
  0
LAYER
  5
216
100
AcDbSymbolTableRecord
100
AcDbLayerTableRecord
  2
PROTRUSION_FEATURES
 70
0
 62
7
  6
CONTINUOUS
370
-3
390
F
  0
LAYER
  5
217
100
AcDbSymbolTableRecord
100
AcDbLayerTableRecord
  2
QUILT
 70
0
 62
7
  6
CONTINUOUS
370
-3
390
F
  0
LAYER
  5
218
100
AcDbSymbolTableRecord
100
AcDbLayerTableRecord
  2
REFERENCE_DIMENSIONS
 70
0
 62
7
  6
CONTINUOUS
370
-3
390
F
  0
LAYER
  5
219
100
AcDbSymbolTableRecord
100
AcDbLayerTableRecord
  2
SHELL
 70
0
 62
7
  6
CONTINUOUS
370
-3
390
F
  0
LAYER
  5
21A
100
AcDbSymbolTableRecord
100
AcDbLayerTableRecord
  2
WHITE
 70
0
 62
7
  6
CONTINUOUS
370
-3
390
F
  0
LAYER
  5
21B
100
AcDbSymbolTableRecord
100
AcDbLayerTableRecord
  2
XSEC_DATUMS
 70
0
 62
7
  6
CONTINUOUS
370
-3
390
F
  0
LAYER
  5
21C
100
AcDbSymbolTableRecord
100
AcDbLayerTableRecord
  2
___SHELL
 70
0
 62
7
  6
CONTINUOUS
370
-3
390
F
  0
ENDTAB
  0
TABLE
  2
STYLE
  5
3
100
AcDbSymbolTable
 70
1
  0
STYLE
  5
11
100
AcDbSymbolTableRecord
100
AcDbTextStyleTableRecord
  2
STANDARD
 70
0
 40
0.0
 41
0.8
 50
0.0
 71
0
 42
0.2
  3
txt
  4

  0
STYLE
  5
21D
100
AcDbSymbolTableRecord
100
AcDbTextStyleTableRecord
  2
TEXTSTYLE_1
 70
0
 40
0.0
 41
0.8
 50
0.0
 71
0
 42
0.2
  3
gdt
  4

  0
ENDTAB
  0
TABLE
  2
VIEW
  5
6
100
AcDbSymbolTable
 70
0
  0
ENDTAB
  0
TABLE
  2
UCS
  5
7
100
AcDbSymbolTable
 70
0
  0
ENDTAB
  0
TABLE
  2
APPID
  5
9
100
AcDbSymbolTable
 70
1
  0
APPID
  5
21E
100
AcDbSymbolTableRecord
100
AcDbRegAppTableRecord
  2
ACAD
 70
0
  0
ENDTAB
  0
TABLE
  2
BLOCK_RECORD
  5
1
100
AcDbSymbolTable
 70
0
  0
BLOCK_RECORD
  5
21F
100
AcDbSymbolTableRecord
100
AcDbBlockTableRecord
  2
*Model_Space
  0
BLOCK_RECORD
  5
220
100
AcDbSymbolTableRecord
100
AcDbBlockTableRecord
  2
*Paper_Space
  0
BLOCK_RECORD
  5
221
100
AcDbSymbolTableRecord
100
AcDbBlockTableRecord
  2
_FILLED
  0
ENDTAB
  0
TABLE
  2
DIMSTYLE
  5
A
100
AcDbSymbolTable
 70
1
100
AcDbDimStyleTable
 71
0
  0
DIMSTYLE
105
222
100
AcDbSymbolTableRecord
100
AcDbDimStyleTableRecord
  2
STANDARD
 70
0
  3

  4

 40
1.0
 41
0.1
 42
0.0625
 43
0.38
 44
0.125
 45
0.0
 46
0.0
 47
0.001
 48
0.001
140
0.08
141
0.09
142
0.0
143
25.4
144
1.0
145
0.0
146
1.0
147
0.09
 71
1.0
 72
0.0
 73
1
 74
1
 75
0
 76
0
 77
0
 78
4
 79
1
170
1
171
2
172
0
173
0
174
0
175
0
176
0
177
0
178
0
270
2
179
3
271
3
272
3
273
2
274
2
275
0
280
0
281
0
282
0
283
1
284
4
285
0
286
0
287
3
288
0
340
11
278
46
341
221
342
221
343
221
344
221
  0
ENDTAB
  0
ENDSEC
  0
SECTION
  2
BLOCKS
  0
BLOCK
  5
20
100
AcDbEntity
  8
0
100
AcDbBlockBegin
  2
*Model_Space
 70
0
 10
0.0
 20
0.0
 30
0.0
  3
*Model_Space
  1

  0
ENDBLK
  5
21
100
AcDbEntity
  8
0
100
AcDbBlockEnd
  0
BLOCK
  5
1C
100
AcDbEntity
  8
0
100
AcDbBlockBegin
  2
*Paper_Space
 70
0
 10
0.0
 20
0.0
 30
0.0
  3
*Paper_Space
  1

  0
ENDBLK
  5
1D
100
AcDbEntity
  8
0
100
AcDbBlockEnd
  0
BLOCK
  5
223
100
AcDbEntity
  8
0
100
AcDbBlockBegin
  2
_FILLED
 70
64
 10
0.0
 20
0.0
  3
_FILLED
  1

  0
SOLID
  5
224
100
AcDbEntity
  8
0
  6
BYBLOCK
 62
0
100
AcDbTrace
 10
0.0
 20
0.0
 11
-1.0
 21
0.2
 12
-1.0
 22
-0.2
 13
-1.0
 23
-0.2
  0
ENDBLK
  5
225
100
AcDbEntity
  8
0
  6
BYBLOCK
 62
0
100
AcDbBlockEnd
  0
ENDSEC
  0
SECTION
  2
ENTITIES
  0
MTEXT
  5
226
100
AcDbEntity
  8
0
100
AcDbMText
 62
2
  6
CONTINUOUS
  7
STANDARD
 71
3
 72
1
 10
3.1940993789
 20
1.8446798191
 30
0.0
 11
1.0
 21
0.0
 31
0.0
 73
2
 44
0.9
  1
SCALE  .500
 40
0.08
 41
0.704
  0
LINE
  5
227
100
AcDbEntity
  8
0
100
AcDbLine
 62
7
  6
CONTINUOUS
 10
0.0
 20
0.0
 11
0.0
 21
8.5
  0
LINE
  5
228
100
AcDbEntity
  8
0
100
AcDbLine
 62
7
  6
CONTINUOUS
 10
0.0
 20
0.0
 11
11.0
 21
0.0
  0
LINE
  5
229
100
AcDbEntity
  8
0
100
AcDbLine
 62
7
  6
CONTINUOUS
 10
0.0
 20
8.5
 11
11.0
 21
8.5
  0
LINE
  5
22A
100
AcDbEntity
  8
0
100
AcDbLine
 62
7
  6
CONTINUOUS
 10
11.0
 20
0.0
 11
11.0
 21
8.5
  0
LINE
  5
22B
100
AcDbEntity
  8
ALL_ASSEMBLY_MEMBERS
100
AcDbLine
 62
7
  6
CONTINUOUS
 10
1.637601001
 20
5.0882419172
 11
1.637601001
 21
5.1966124081
  0
LINE
  5
22C
100
AcDbEntity
  8
ALL_ASSEMBLY_MEMBERS
100
AcDbLine
 62
7
  6
CONTINUOUS
 10
1.637601001
 20
5.2003366346
 11
1.637601001
 21
5.3535956527
  0
LINE
  5
22D
100
AcDbEntity
  8
ALL_ASSEMBLY_MEMBERS
100
AcDbLine
 62
7
  6
CONTINUOUS
 10
1.637601001
 20
5.3573198792
 11
1.637601001
 21
5.4656903702
  0
LINE
  5
22E
100
AcDbEntity
  8
ALL_ASSEMBLY_MEMBERS
100
AcDbLine
 62
7
  6
CONTINUOUS
 10
1.6516459387
 20
5.0769661437
 11
1.6516459387
 21
5.4769661437
  0
LINE
  5
22F
100
AcDbEntity
  8
ALL_ASSEMBLY_MEMBERS
100
AcDbLine
 62
7
  6
CONTINUOUS
 10
1.6812509317
 20
5.5069642695
 11
1.6812509317
 21
5.0469680179
  0
LINE
  5
230
100
AcDbEntity
  8
ALL_ASSEMBLY_MEMBERS
100
AcDbLine
 62
7
  6
CONTINUOUS
 10
1.6962509317
 20
5.5219661437
 11
1.6962509317
 21
5.0319661437
  0
LINE
  5
231
100
AcDbEntity
  8
ALL_ASSEMBLY_MEMBERS
100
AcDbLine
 62
7
  6
CONTINUOUS
 10
1.568226001
 20
5.2822329953
 11
1.637601001
 21
5.4672329953
  0
LINE
  5
232
100
AcDbEntity
  8
ALL_ASSEMBLY_MEMBERS
100
AcDbLine
 62
7
  6
CONTINUOUS
 10
1.568226001
 20
5.2806903702
 11
1.637601001
 21
5.4656903702
  0
LINE
  5
233
100
AcDbEntity
  8
ALL_ASSEMBLY_MEMBERS
100
AcDbLine
 62
7
  6
CONTINUOUS
 10
1.7312509317
 20
5.0294661437
 11
1.7312509317
 21
5.5244661437
  0
LINE
  5
234
100
AcDbEntity
  8
ALL_ASSEMBLY_MEMBERS
100
AcDbLine
 62
7
  6
CONTINUOUS
 10
1.741214747
 20
5.0303342006
 11
1.741214747
 21
5.1606400795
  0
LINE
  5
235
100
AcDbEntity
  8
ALL_ASSEMBLY_MEMBERS
100
AcDbLine
 62
7
  6
CONTINUOUS
 10
1.741214747
 20
5.184825973
 11
1.741214747
 21
5.3691063143
  0
LINE
  5
236
100
AcDbEntity
  8
ALL_ASSEMBLY_MEMBERS
100
AcDbLine
 62
7
  6
CONTINUOUS
 10
1.741214747
 20
5.3932922079
 11
1.741214747
 21
5.5235980868
  0
LINE
  5
237
100
AcDbEntity
  8
ALL_ASSEMBLY_MEMBERS
100
AcDbLine
 62
7
  6
CONTINUOUS
 10
1.7312509317
 20
5.3794840004
 11
1.741214747
 21
5.3932922079
  0
LINE
  5
238
100
AcDbEntity
  8
ALL_ASSEMBLY_MEMBERS
100
AcDbLine
 62
7
  6
CONTINUOUS
 10
1.741214747
 20
5.3691063143
 11
1.751214747
 21
5.3829207509
  0
LINE
  5
239
100
AcDbEntity
  8
ALL_ASSEMBLY_MEMBERS
100
AcDbLine
 62
7
  6
CONTINUOUS
 10
1.568226001
 20
5.2806903702
 11
1.637601001
 21
5.3573198792
  0
LINE
  5
23A
100
AcDbEntity
  8
ALL_ASSEMBLY_MEMBERS
100
AcDbLine
 62
7
  6
CONTINUOUS
 10
1.568226001
 20
5.2769661437
 11
1.637601001
 21
5.3535956527
  0
LINE
  5
23B
100
AcDbEntity
  8
ALL_ASSEMBLY_MEMBERS
100
AcDbLine
 62
7
  6
CONTINUOUS
 10
1.7312509317
 20
5.5244661437
 11
1.741214747
 21
5.5336162119
  0
LINE
  5
23C
100
AcDbEntity
  8
ALL_ASSEMBLY_MEMBERS
100
AcDbLine
 62
7
  6
CONTINUOUS
 10
1.741214747
 20
5.5235980868
 11
1.751214747
 21
5.5327631936
  0
LINE
  5
23D
100
AcDbEntity
  8
ALL_ASSEMBLY_MEMBERS
100
AcDbLine
 62
7
  6
CONTINUOUS
 10
1.568226001
 20
5.2716992921
 11
1.637601001
 21
5.0866992921
  0
LINE
  5
23E
100
AcDbEntity
  8
ALL_ASSEMBLY_MEMBERS
100
AcDbLine
 62
7
  6
CONTINUOUS
 10
1.568226001
 20
5.2732419172
 11
1.637601001
 21
5.0882419172
  0
LINE
  5
23F
100
AcDbEntity
  8
ALL_ASSEMBLY_MEMBERS
100
AcDbLine
 62
7
  6
CONTINUOUS
 10
1.7312509317
 20
5.174448287
 11
1.741214747
 21
5.184825973
  0
LINE
  5
240
100
AcDbEntity
  8
ALL_ASSEMBLY_MEMBERS
100
AcDbLine
 62
7
  6
CONTINUOUS
 10
1.741214747
 20
5.1606400795
 11
1.751214747
 21
5.1710115364
  0
LINE
  5
241
100
AcDbEntity
  8
ALL_ASSEMBLY_MEMBERS
100
AcDbLine
 62
7
  6
CONTINUOUS
 10
2.6526009317
 20
6.4219661437
 11
2.6526009317
 21
6.3461556229
  0
LINE
  5
242
100
AcDbEntity
  8
ALL_ASSEMBLY_MEMBERS
100
AcDbLine
 62
7
  6
CONTINUOUS
 10
1.741214747
 20
5.184825973
 11
1.751214747
 21
5.1710115364
  0
LINE
  5
243
100
AcDbEntity
  8
ALL_ASSEMBLY_MEMBERS
100
AcDbLine
 62
7
  6
CONTINUOUS
 10
1.7312509317
 20
5.174448287
 11
1.741214747
 21
5.1606400795
  0
LINE
  5
244
100
AcDbEntity
  8
ALL_ASSEMBLY_MEMBERS
100
AcDbLine
 62
7
  6
CONTINUOUS
 10
2.9032008634
 20
5.4344966613
 11
2.9032008634
 21
5.119435626
  0
LINE
  5
245
100
AcDbEntity
  8
ALL_ASSEMBLY_MEMBERS
100
AcDbLine
 62
7
  6
CONTINUOUS
 10
2.9123509317
 20
5.424532846
 11
2.9123509317
 21
5.1293994414
  0
LINE
  5
246
100
AcDbEntity
  8
ALL_ASSEMBLY_MEMBERS
100
AcDbLine
 62
7
  6
CONTINUOUS
 10
2.9623509317
 20
5.1369661437
 11
2.9623509317
 21
5.4169661437
  0
LINE
  5
247
100
AcDbEntity
  8
ALL_ASSEMBLY_MEMBERS
100
AcDbLine
 62
7
  6
CONTINUOUS
 10
2.9873509317
 20
5.1857161437
 11
2.9873509317
 21
5.3682161437
  0
LINE
  5
248
100
AcDbEntity
  8
ALL_ASSEMBLY_MEMBERS
100
AcDbLine
 62
7
  6
CONTINUOUS
 10
3.0013509317
 20
5.1209661437
 11
3.0013509317
 21
5.1807161437
  0
LINE
  5
249
100
AcDbEntity
  8
ALL_ASSEMBLY_MEMBERS
100
AcDbLine
 62
7
  6
CONTINUOUS
 10
3.0013509317
 20
5.3732161437
 11
3.0013509317
 21
5.4334661437
  0
LINE
  5
24A
100
AcDbEntity
  8
ALL_ASSEMBLY_MEMBERS
100
AcDbLine
 62
7
  6
CONTINUOUS
 10
3.0313509317
 20
5.5984661437
 11
3.0313509317
 21
5.6584661437
  0
LINE
  5
24B
100
AcDbEntity
  8
ALL_ASSEMBLY_MEMBERS
100
AcDbLine
 62
7
  6
CONTINUOUS
 10
3.0013571803
 20
5.1807320459
 11
3.0013509317
 21
5.1807161437
  0
LINE
  5
24C
100
AcDbEntity
  8
ALL_ASSEMBLY_MEMBERS
100
AcDbLine
 62
7
  6
CONTINUOUS
 10
3.7528509317
 20
6.2610820803
 11
3.8401085791
 21
6.3461630796
  0
LINE
  5
24D
100
AcDbEntity
  8
ALL_ASSEMBLY_MEMBERS
100
AcDbLine
 62
7
  6
CONTINUOUS
 10
1.568226001
 20
5.2732419172
 11
1.637601001
 21
5.1966124081
  0
LINE
  5
24E
100
AcDbEntity
  8
ALL_ASSEMBLY_MEMBERS
100
AcDbLine
 62
7
  6
CONTINUOUS
 10
1.568226001
 20
5.2769661437
 11
1.637601001
 21
5.2003366346
  0
LINE
  5
24F
100
AcDbEntity
  8
ALL_ASSEMBLY_MEMBERS
100
AcDbLine
 62
7
  6
CONTINUOUS
 10
3.0901009317
 20
5.4334661437
 11
3.0901009317
 21
5.5884661437
  0
LINE
  5
250
100
AcDbEntity
  8
ALL_ASSEMBLY_MEMBERS
100
AcDbLine
 62
7
  6
CONTINUOUS
 10
3.2463509317
 20
5.6584661437
 11
3.2463509317
 21
6.2685925223
  0
LWPOLYLINE
  5
251
100
AcDbEntity
  8
ALL_ASSEMBLY_MEMBERS
100
AcDbPolyline
 62
7
  6
CONTINUOUS
 90
3
 70
0
 10
3.2463520914
 20
5.8763691656
 10
3.2463519497
 20
5.8977707647
 10
3.2463509317
 20
5.9190567993
  0
LINE
  5
252
100
AcDbEntity
  8
ALL_ASSEMBLY_MEMBERS
100
AcDbLine
 62
7
  6
CONTINUOUS
 10
3.246351381
 20
6.0229984651
 11
3.2463509317
 21
6.0431476987
  0
LWPOLYLINE
  5
253
100
AcDbEntity
  8
ALL_ASSEMBLY_MEMBERS
100
AcDbPolyline
 62
7
  6
CONTINUOUS
 90
3
 70
0
 10
3.2463520525
 20
6.1399261552
 10
3.2463509317
 20
6.1583406089
 10
3.2463500091
 20
6.1764204318
  0
LWPOLYLINE
  5
254
100
AcDbEntity
  8
ALL_ASSEMBLY_MEMBERS
100
AcDbPolyline
 62
7
  6
CONTINUOUS
 90
3
 70
0
 10
3.2463525602
 20
5.9612223971
 10
3.2463509317
 20
5.9820384962
 10
3.2463498048
 20
6.0026312363
  0
LWPOLYLINE
  5
255
100
AcDbEntity
  8
ALL_ASSEMBLY_MEMBERS
100
AcDbPolyline
 62
7
  6
CONTINUOUS
 90
3
 70
0
 10
3.2463529339
 20
6.0827460826
 10
3.2463509317
 20
6.1021274181
 10
3.2463495208
 20
6.1211890421
  0
LWPOLYLINE
  5
256
100
AcDbEntity
  8
ALL_ASSEMBLY_MEMBERS
100
AcDbPolyline
 62
7
  6
CONTINUOUS
 90
5
 70
0
 10
3.246352831
 20
6.194141275
 10
3.2463509317
 20
6.2114854706
 10
3.2463446012
 20
6.228435365
 10
3.2463428949
 20
6.2449733526
 10
3.2463509317
 20
6.2610820803
  0
LINE
  5
257
100
AcDbEntity
  8
ALL_ASSEMBLY_MEMBERS
100
AcDbLine
 62
7
  6
CONTINUOUS
 10
3.4963509317
 20
5.6584661437
 11
3.5341059218
 21
5.8548702188
  0
LINE
  5
258
100
AcDbEntity
  8
ALL_ASSEMBLY_MEMBERS
100
AcDbLine
 62
7
  6
CONTINUOUS
 10
3.3704812396
 20
5.5309661437
 11
3.3647077369
 21
5.5109661437
  0
LINE
  5
259
100
AcDbEntity
  8
ALL_ASSEMBLY_MEMBERS
100
AcDbLine
 62
7
  6
CONTINUOUS
 10
3.3820282449
 20
5.4909661437
 11
3.3878017476
 21
5.5109661437
  0
LINE
  5
25A
100
AcDbEntity
  8
ALL_ASSEMBLY_MEMBERS
100
AcDbLine
 62
7
  6
CONTINUOUS
 10
3.3852036714
 20
5.4856547497
 11
3.3840931763
 21
5.4840842724
  0
LINE
  5
25B
100
AcDbEntity
  8
ALL_ASSEMBLY_MEMBERS
100
AcDbLine
 62
7
  6
CONTINUOUS
 10
3.3840226785
 20
5.4841417934
 11
3.3840040114
 21
5.484118915
  0
LINE
  5
25C
100
AcDbEntity
  8
ALL_ASSEMBLY_MEMBERS
100
AcDbLine
 62
7
  6
CONTINUOUS
 10
3.3840230358
 20
5.4841405595
 11
3.3840040888
 21
5.484118647
  0
LINE
  5
25D
100
AcDbEntity
  8
ALL_ASSEMBLY_MEMBERS
100
AcDbLine
 62
7
  6
CONTINUOUS
 10
2.9032008634
 20
5.119435626
 11
2.9123509317
 21
5.1293994414
  0
LINE
  5
25E
100
AcDbEntity
  8
ALL_ASSEMBLY_MEMBERS
100
AcDbLine
 62
7
  6
CONTINUOUS
 10
1.741214747
 20
5.0303342006
 11
1.751214747
 21
5.0211690938
  0
LINE
  5
25F
100
AcDbEntity
  8
ALL_ASSEMBLY_MEMBERS
100
AcDbLine
 62
7
  6
CONTINUOUS
 10
1.7312509317
 20
5.0294661437
 11
1.741214747
 21
5.0203160754
  0
LINE
  5
260
100
AcDbEntity
  8
ALL_ASSEMBLY_MEMBERS
100
AcDbLine
 62
7
  6
CONTINUOUS
 10
1.741214747
 20
5.3932922079
 11
1.751214747
 21
5.3829207509
  0
LINE
  5
261
100
AcDbEntity
  8
ALL_ASSEMBLY_MEMBERS
100
AcDbLine
 62
7
  6
CONTINUOUS
 10
1.7312509317
 20
5.3794840004
 11
1.741214747
 21
5.3691063143
  0
LINE
  5
262
100
AcDbEntity
  8
ALL_ASSEMBLY_MEMBERS
100
AcDbLine
 62
7
  6
CONTINUOUS
 10
2.9963509317
 20
5.6584661437
 11
2.9585959416
 21
5.8548702188
  0
LINE
  5
263
100
AcDbEntity
  8
ALL_ASSEMBLY_MEMBERS
100
AcDbLine
 62
7
  6
CONTINUOUS
 10
3.4026009317
 20
5.4334661437
 11
3.4026009317
 21
5.5884661437
  0
LINE
  5
264
100
AcDbEntity
  8
ALL_ASSEMBLY_MEMBERS
100
AcDbLine
 62
7
  6
CONTINUOUS
 10
3.4613509317
 20
5.5984661437
 11
3.4613509317
 21
5.6584661437
  0
LINE
  5
265
100
AcDbEntity
  8
ALL_ASSEMBLY_MEMBERS
100
AcDbLine
 62
7
  6
CONTINUOUS
 10
3.4913509317
 20
5.1209661437
 11
3.4913509317
 21
5.4334661437
  0
LINE
  5
266
100
AcDbEntity
  8
ALL_ASSEMBLY_MEMBERS
100
AcDbLine
 62
7
  6
CONTINUOUS
 10
3.0013509317
 20
5.3732161437
 11
3.0013571765
 21
5.3732003124
  0
LINE
  5
267
100
AcDbEntity
  8
ALL_ASSEMBLY_MEMBERS
100
AcDbLine
 62
7
  6
CONTINUOUS
 10
3.8401009317
 20
6.4219661437
 11
3.8401009317
 21
6.3461556229
  0
LINE
  5
268
100
AcDbEntity
  8
ALL_ASSEMBLY_MEMBERS
100
AcDbLine
 62
7
  6
CONTINUOUS
 10
2.9032008634
 20
5.2117148668
 11
2.9123509317
 21
5.2158420142
  0
LINE
  5
269
100
AcDbEntity
  8
ALL_ASSEMBLY_MEMBERS
100
AcDbLine
 62
7
  6
CONTINUOUS
 10
3.3647077369
 20
5.5109661437
 11
3.3704812396
 21
5.4909661437
  0
LINE
  5
26A
100
AcDbEntity
  8
ALL_ASSEMBLY_MEMBERS
100
AcDbLine
 62
7
  6
CONTINUOUS
 10
3.3878017476
 20
5.5109661437
 11
3.3820282449
 21
5.5309661437
  0
LINE
  5
26B
100
AcDbEntity
  8
ALL_ASSEMBLY_MEMBERS
100
AcDbLine
 62
7
  6
CONTINUOUS
 10
2.9032008634
 20
5.4344966613
 11
2.9123509317
 21
5.424532846
  0
LINE
  5
26C
100
AcDbEntity
  8
ALL_ASSEMBLY_MEMBERS
100
AcDbLine
 62
7
  6
CONTINUOUS
 10
5.6213509317
 20
3.5084661437
 11
4.8713509317
 21
3.5084661437
  0
LINE
  5
26D
100
AcDbEntity
  8
ALL_ASSEMBLY_MEMBERS
100
AcDbLine
 62
7
  6
CONTINUOUS
 10
3.3852036714
 20
5.5362775377
 11
3.380113144
 21
5.5434766306
  0
LINE
  5
26E
100
AcDbEntity
  8
ALL_ASSEMBLY_MEMBERS
100
AcDbLine
 62
7
  6
CONTINUOUS
 10
4.5463509317
 20
6.4219661437
 11
4.5463512669
 21
6.0279754253
  0
LWPOLYLINE
  5
26F
100
AcDbEntity
  8
ALL_ASSEMBLY_MEMBERS
100
AcDbPolyline
 62
7
  6
CONTINUOUS
 90
3
 70
0
 10
4.8783882088
 20
3.022508527
 10
4.8784679911
 20
3.0198903948
 10
4.8786227834
 20
3.0143807822
  0
LWPOLYLINE
  5
270
100
AcDbEntity
  8
ALL_ASSEMBLY_MEMBERS
100
AcDbPolyline
 62
7
  6
CONTINUOUS
 90
3
 70
0
 10
4.8786227834
 20
3.0143807822
 10
4.8787377913
 20
3.0098127413
 10
4.8788203169
 20
3.0061998779
  0
LINE
  5
271
100
AcDbEntity
  8
ALL_ASSEMBLY_MEMBERS
100
AcDbLine
 62
7
  6
CONTINUOUS
 10
4.8788203169
 20
3.0061998779
 11
4.8789205965
 21
3.0013136115
  0
LINE
  5
272
100
AcDbEntity
  8
ALL_ASSEMBLY_MEMBERS
100
AcDbLine
 62
7
  6
CONTINUOUS
 10
4.8713509317
 20
4.1719661437
 11
4.8713509317
 21
3.5084661437
  0
LINE
  5
273
100
AcDbEntity
  8
ALL_ASSEMBLY_MEMBERS
100
AcDbLine
 62
7
  6
CONTINUOUS
 10
4.8963509317
 20
6.4219661437
 11
4.8963509317
 21
6.1719661437
  0
LINE
  5
274
100
AcDbEntity
  8
ALL_ASSEMBLY_MEMBERS
100
AcDbLine
 62
7
  6
CONTINUOUS
 10
5.6213509317
 20
4.1719661437
 11
4.8713509317
 21
4.1719661437
  0
LINE
  5
275
100
AcDbEntity
  8
ALL_ASSEMBLY_MEMBERS
100
AcDbLine
 62
7
  6
CONTINUOUS
 10
2.7398509317
 20
6.2610820803
 11
2.6525932842
 21
6.3461630796
  0
LINE
  5
276
100
AcDbEntity
  8
ALL_ASSEMBLY_MEMBERS
100
AcDbLine
 62
7
  6
CONTINUOUS
 10
5.0588509317
 20
4.1719661437
 11
5.0588509317
 21
3.5084661437
  0
LINE
  5
277
100
AcDbEntity
  8
ALL_ASSEMBLY_MEMBERS
100
AcDbLine
 62
7
  6
CONTINUOUS
 10
2.9032008634
 20
5.3422174206
 11
2.9123509317
 21
5.3380902731
  0
LINE
  5
278
100
AcDbEntity
  8
ALL_ASSEMBLY_MEMBERS
100
AcDbLine
 62
7
  6
CONTINUOUS
 10
5.4338509317
 20
4.1719661437
 11
5.4338509317
 21
3.5084661437
  0
LINE
  5
279
100
AcDbEntity
  8
ALL_ASSEMBLY_MEMBERS
100
AcDbLine
 62
7
  6
CONTINUOUS
 10
7.5895009999
 20
5.3422174206
 11
7.5803509317
 21
5.3380902731
  0
LINE
  5
27A
100
AcDbEntity
  8
ALL_ASSEMBLY_MEMBERS
100
AcDbLine
 62
7
  6
CONTINUOUS
 10
5.6526009317
 20
4.7969661437
 11
4.8401009317
 21
4.7969661437
  0
LINE
  5
27B
100
AcDbEntity
  8
ALL_ASSEMBLY_MEMBERS
100
AcDbLine
 62
7
  6
CONTINUOUS
 10
5.5963509317
 20
6.4219661437
 11
5.5963509317
 21
6.1719661437
  0
LINE
  5
27C
100
AcDbEntity
  8
ALL_ASSEMBLY_MEMBERS
100
AcDbLine
 62
7
  6
CONTINUOUS
 10
5.6213509317
 20
4.1719661437
 11
5.6213509317
 21
3.5084661437
  0
LWPOLYLINE
  5
27D
100
AcDbEntity
  8
ALL_ASSEMBLY_MEMBERS
100
AcDbPolyline
 62
7
  6
CONTINUOUS
 90
4
 70
0
 10
5.613781209
 20
3.0013106408
 10
5.6138278721
 20
3.003659333
 10
5.6138861781
 20
3.0064115162
 10
5.6139728837
 20
3.010180331
  0
LINE
  5
27E
100
AcDbEntity
  8
ALL_ASSEMBLY_MEMBERS
100
AcDbLine
 62
7
  6
CONTINUOUS
 10
5.6139728837
 20
3.010180331
 11
5.6140940681
 21
3.0149430667
  0
LWPOLYLINE
  5
27F
100
AcDbEntity
  8
ALL_ASSEMBLY_MEMBERS
100
AcDbPolyline
 62
7
  6
CONTINUOUS
 90
3
 70
0
 10
5.6140940681
 20
3.0149430667
 10
5.614257662
 20
3.0206850601
 10
5.614313741
 20
3.0225112952
  0
LINE
  5
280
100
AcDbEntity
  8
ALL_ASSEMBLY_MEMBERS
100
AcDbLine
 62
7
  6
CONTINUOUS
 10
7.7528509317
 20
6.2610820803
 11
7.8401085791
 21
6.3461630796
  0
LINE
  5
281
100
AcDbEntity
  8
ALL_ASSEMBLY_MEMBERS
100
AcDbLine
 62
7
  6
CONTINUOUS
 10
8.7964509317
 20
5.0319661437
 11
8.7614509317
 21
5.0319661437
  0
LINE
  5
282
100
AcDbEntity
  8
ALL_ASSEMBLY_MEMBERS
100
AcDbLine
 62
7
  6
CONTINUOUS
 10
1.6962509317
 20
5.0319661437
 11
1.7312509317
 21
5.0319661437
  0
LINE
  5
283
100
AcDbEntity
  8
ALL_ASSEMBLY_MEMBERS
100
AcDbLine
 62
7
  6
CONTINUOUS
 10
8.8410559247
 20
5.0769661437
 11
8.8114509317
 21
5.0769661437
  0
LINE
  5
284
100
AcDbEntity
  8
ALL_ASSEMBLY_MEMBERS
100
AcDbLine
 62
7
  6
CONTINUOUS
 10
1.6516459387
 20
5.0769661437
 11
1.6812509317
 21
5.0769661437
  0
LINE
  5
285
100
AcDbEntity
  8
ALL_ASSEMBLY_MEMBERS
100
AcDbLine
 62
7
  6
CONTINUOUS
 10
8.8410559247
 20
5.081359542
 11
8.8114509317
 21
5.081359542
  0
LINE
  5
286
100
AcDbEntity
  8
ALL_ASSEMBLY_MEMBERS
100
AcDbLine
 62
7
  6
CONTINUOUS
 10
1.6516459387
 20
5.081359542
 11
1.6812509317
 21
5.081359542
  0
LINE
  5
287
100
AcDbEntity
  8
ALL_ASSEMBLY_MEMBERS
100
AcDbLine
 62
7
  6
CONTINUOUS
 10
3.4913509317
 20
5.1209661437
 11
3.0013509317
 21
5.1209661437
  0
LINE
  5
288
100
AcDbEntity
  8
ALL_ASSEMBLY_MEMBERS
100
AcDbLine
 62
7
  6
CONTINUOUS
 10
7.0013509317
 20
5.1209661437
 11
7.4913509317
 21
5.1209661437
  0
LINE
  5
289
100
AcDbEntity
  8
ALL_ASSEMBLY_MEMBERS
100
AcDbLine
 62
7
  6
CONTINUOUS
 10
5.9463509317
 20
6.4219661437
 11
5.9463505965
 21
6.0279754253
  0
LINE
  5
28A
100
AcDbEntity
  8
ALL_ASSEMBLY_MEMBERS
100
AcDbLine
 62
7
  6
CONTINUOUS
 10
8.7614509317
 20
5.5244661437
 11
8.7514871163
 21
5.5235980868
  0
LINE
  5
28B
100
AcDbEntity
  8
ALL_ASSEMBLY_MEMBERS
100
AcDbLine
 62
7
  6
CONTINUOUS
 10
1.7312509317
 20
5.0294661437
 11
1.741214747
 21
5.0303342006
  0
LINE
  5
28C
100
AcDbEntity
  8
ALL_ASSEMBLY_MEMBERS
100
AcDbLine
 62
7
  6
CONTINUOUS
 10
7.5895009999
 20
5.4344966613
 11
8.7514871163
 21
5.5336162119
  0
LINE
  5
28D
100
AcDbEntity
  8
ALL_ASSEMBLY_MEMBERS
100
AcDbLine
 62
7
  6
CONTINUOUS
 10
2.9032008634
 20
5.119435626
 11
1.741214747
 21
5.0203160754
  0
LINE
  5
28E
100
AcDbEntity
  8
ALL_ASSEMBLY_MEMBERS
100
AcDbLine
 62
7
  6
CONTINUOUS
 10
7.5895009999
 20
5.3422174206
 11
8.7414871163
 21
5.3829207509
  0
LINE
  5
28F
100
AcDbEntity
  8
ALL_ASSEMBLY_MEMBERS
100
AcDbLine
 62
7
  6
CONTINUOUS
 10
2.9032008634
 20
5.2117148668
 11
1.751214747
 21
5.1710115364
  0
LINE
  5
290
100
AcDbEntity
  8
ALL_ASSEMBLY_MEMBERS
100
AcDbLine
 62
7
  6
CONTINUOUS
 10
7.5053509317
 20
5.1857161437
 11
7.4894302528
 21
5.1857161437
  0
LINE
  5
291
100
AcDbEntity
  8
ALL_ASSEMBLY_MEMBERS
100
AcDbLine
 62
7
  6
CONTINUOUS
 10
2.9873509317
 20
5.1857161437
 11
3.0032716107
 21
5.1857161437
  0
LINE
  5
292
100
AcDbEntity
  8
ALL_ASSEMBLY_MEMBERS
100
AcDbLine
 62
7
  6
CONTINUOUS
 10
8.8410559247
 20
5.1897300329
 11
8.8114509317
 21
5.1897300329
  0
LINE
  5
293
100
AcDbEntity
  8
ALL_ASSEMBLY_MEMBERS
100
AcDbLine
 62
7
  6
CONTINUOUS
 10
1.6516459387
 20
5.1897300329
 11
1.6812509317
 21
5.1897300329
  0
LINE
  5
294
100
AcDbEntity
  8
ALL_ASSEMBLY_MEMBERS
100
AcDbLine
 62
7
  6
CONTINUOUS
 10
8.8551008623
 20
5.2003366346
 11
8.8114509317
 21
5.2003366346
  0
LINE
  5
295
100
AcDbEntity
  8
ALL_ASSEMBLY_MEMBERS
100
AcDbLine
 62
7
  6
CONTINUOUS
 10
1.637601001
 20
5.2003366346
 11
1.6812509317
 21
5.2003366346
  0
LINE
  5
296
100
AcDbEntity
  8
ALL_ASSEMBLY_MEMBERS
100
AcDbLine
 62
7
  6
CONTINUOUS
 10
8.8551008623
 20
5.3535956527
 11
8.8114509317
 21
5.3535956527
  0
LINE
  5
297
100
AcDbEntity
  8
ALL_ASSEMBLY_MEMBERS
100
AcDbLine
 62
7
  6
CONTINUOUS
 10
1.637601001
 20
5.3535956527
 11
1.6812509317
 21
5.3535956527
  0
LINE
  5
298
100
AcDbEntity
  8
ALL_ASSEMBLY_MEMBERS
100
AcDbLine
 62
7
  6
CONTINUOUS
 10
8.8410559247
 20
5.3642022544
 11
8.8114509317
 21
5.3642022544
  0
LINE
  5
299
100
AcDbEntity
  8
ALL_ASSEMBLY_MEMBERS
100
AcDbLine
 62
7
  6
CONTINUOUS
 10
1.6516459387
 20
5.3642022544
 11
1.6812509317
 21
5.3642022544
  0
LINE
  5
29A
100
AcDbEntity
  8
ALL_ASSEMBLY_MEMBERS
100
AcDbLine
 62
7
  6
CONTINUOUS
 10
7.5053509317
 20
5.3682161437
 11
7.4894302527
 21
5.3682161437
  0
LINE
  5
29B
100
AcDbEntity
  8
ALL_ASSEMBLY_MEMBERS
100
AcDbLine
 62
7
  6
CONTINUOUS
 10
2.9873509317
 20
5.3682161437
 11
3.0032716106
 21
5.3682161437
  0
LINE
  5
29C
100
AcDbEntity
  8
ALL_ASSEMBLY_MEMBERS
100
AcDbLine
 62
7
  6
CONTINUOUS
 10
2.9032008634
 20
5.3422174206
 11
1.751214747
 21
5.3829207509
  0
LINE
  5
29D
100
AcDbEntity
  8
ALL_ASSEMBLY_MEMBERS
100
AcDbLine
 62
7
  6
CONTINUOUS
 10
7.5895009999
 20
5.2117148668
 11
8.7414871163
 21
5.1710115364
  0
LINE
  5
29E
100
AcDbEntity
  8
ALL_ASSEMBLY_MEMBERS
100
AcDbLine
 62
7
  6
CONTINUOUS
 10
2.9032008634
 20
5.4344966613
 11
1.741214747
 21
5.5336162119
  0
LINE
  5
29F
100
AcDbEntity
  8
ALL_ASSEMBLY_MEMBERS
100
AcDbLine
 62
7
  6
CONTINUOUS
 10
7.5895009999
 20
5.119435626
 11
8.7514871163
 21
5.0203160754
  0
LINE
  5
2A0
100
AcDbEntity
  8
ALL_ASSEMBLY_MEMBERS
100
AcDbLine
 62
7
  6
CONTINUOUS
 10
1.7312509317
 20
5.5244661437
 11
1.741214747
 21
5.5235980868
  0
LINE
  5
2A1
100
AcDbEntity
  8
ALL_ASSEMBLY_MEMBERS
100
AcDbLine
 62
7
  6
CONTINUOUS
 10
8.7614509317
 20
5.0294661437
 11
8.7514871163
 21
5.0303342006
  0
LINE
  5
2A2
100
AcDbEntity
  8
ALL_ASSEMBLY_MEMBERS
100
AcDbLine
 62
7
  6
CONTINUOUS
 10
7.1074981919
 20
5.5362775377
 11
7.1114682619
 21
5.5418920644
  0
LINE
  5
2A3
100
AcDbEntity
  8
ALL_ASSEMBLY_MEMBERS
100
AcDbLine
 62
7
  6
CONTINUOUS
 10
7.5895009999
 20
5.4344966613
 11
7.5803509317
 21
5.424532846
  0
LINE
  5
2A4
100
AcDbEntity
  8
ALL_ASSEMBLY_MEMBERS
100
AcDbLine
 62
7
  6
CONTINUOUS
 10
5.7151009317
 20
5.4219661437
 11
4.7776009317
 21
5.4219661437
  0
LINE
  5
2A5
100
AcDbEntity
  8
ALL_ASSEMBLY_MEMBERS
100
AcDbLine
 62
7
  6
CONTINUOUS
 10
3.4913509317
 20
5.4334661437
 11
3.0013509317
 21
5.4334661437
  0
LINE
  5
2A6
100
AcDbEntity
  8
ALL_ASSEMBLY_MEMBERS
100
AcDbLine
 62
7
  6
CONTINUOUS
 10
7.0013509317
 20
5.4334661437
 11
7.4913509317
 21
5.4334661437
  0
LINE
  5
2A7
100
AcDbEntity
  8
ALL_ASSEMBLY_MEMBERS
100
AcDbLine
 62
7
  6
CONTINUOUS
 10
8.8410559247
 20
5.4725727454
 11
8.8114509317
 21
5.4725727454
  0
LINE
  5
2A8
100
AcDbEntity
  8
ALL_ASSEMBLY_MEMBERS
100
AcDbLine
 62
7
  6
CONTINUOUS
 10
1.6516459387
 20
5.4725727454
 11
1.6812509317
 21
5.4725727454
  0
LINE
  5
2A9
100
AcDbEntity
  8
ALL_ASSEMBLY_MEMBERS
100
AcDbLine
 62
7
  6
CONTINUOUS
 10
8.8410559247
 20
5.4769661437
 11
8.8114509317
 21
5.4769661437
  0
LINE
  5
2AA
100
AcDbEntity
  8
ALL_ASSEMBLY_MEMBERS
100
AcDbLine
 62
7
  6
CONTINUOUS
 10
1.6516459387
 20
5.4769661437
 11
1.6812509317
 21
5.4769661437
  0
LINE
  5
2AB
100
AcDbEntity
  8
ALL_ASSEMBLY_MEMBERS
100
AcDbLine
 62
7
  6
CONTINUOUS
 10
7.1226146005
 20
5.4784211438
 11
7.1230094251
 21
5.4784211438
  0
LINE
  5
2AC
100
AcDbEntity
  8
ALL_ASSEMBLY_MEMBERS
100
AcDbLine
 62
7
  6
CONTINUOUS
 10
3.3704812396
 20
5.4909661437
 11
3.3820282449
 21
5.4909661437
  0
LINE
  5
2AD
100
AcDbEntity
  8
ALL_ASSEMBLY_MEMBERS
100
AcDbLine
 62
7
  6
CONTINUOUS
 10
7.1106736184
 20
5.4909661437
 11
7.1222206238
 21
5.4909661437
  0
LINE
  5
2AE
100
AcDbEntity
  8
ALL_ASSEMBLY_MEMBERS
100
AcDbLine
 62
7
  6
CONTINUOUS
 10
3.3878017476
 20
5.5109661437
 11
3.3647077369
 21
5.5109661437
  0
LINE
  5
2AF
100
AcDbEntity
  8
ALL_ASSEMBLY_MEMBERS
100
AcDbLine
 62
7
  6
CONTINUOUS
 10
7.1049001157
 20
5.5109661437
 11
7.1279941265
 21
5.5109661437
  0
LINE
  5
2B0
100
AcDbEntity
  8
ALL_ASSEMBLY_MEMBERS
100
AcDbLine
 62
7
  6
CONTINUOUS
 10
8.7964509317
 20
5.5219661437
 11
8.7614509317
 21
5.5219661437
  0
LINE
  5
2B1
100
AcDbEntity
  8
ALL_ASSEMBLY_MEMBERS
100
AcDbLine
 62
7
  6
CONTINUOUS
 10
1.6962509317
 20
5.5219661437
 11
1.7312509317
 21
5.5219661437
  0
LINE
  5
2B2
100
AcDbEntity
  8
ALL_ASSEMBLY_MEMBERS
100
AcDbLine
 62
7
  6
CONTINUOUS
 10
7.1222206238
 20
5.5309661437
 11
7.1106736184
 21
5.5309661437
  0
LINE
  5
2B3
100
AcDbEntity
  8
ALL_ASSEMBLY_MEMBERS
100
AcDbLine
 62
7
  6
CONTINUOUS
 10
3.3820282449
 20
5.5309661437
 11
3.3704812396
 21
5.5309661437
  0
LINE
  5
2B4
100
AcDbEntity
  8
ALL_ASSEMBLY_MEMBERS
100
AcDbLine
 62
7
  6
CONTINUOUS
 10
3.4026009317
 20
5.5884661437
 11
3.0901009317
 21
5.5884661437
  0
LINE
  5
2B5
100
AcDbEntity
  8
ALL_ASSEMBLY_MEMBERS
100
AcDbLine
 62
7
  6
CONTINUOUS
 10
7.0901009317
 20
5.5884661437
 11
7.4026009317
 21
5.5884661437
  0
LINE
  5
2B6
100
AcDbEntity
  8
ALL_ASSEMBLY_MEMBERS
100
AcDbLine
 62
7
  6
CONTINUOUS
 10
3.0313567919
 20
5.5984661437
 11
3.4613450714
 21
5.5984661437
  0
LINE
  5
2B7
100
AcDbEntity
  8
ALL_ASSEMBLY_MEMBERS
100
AcDbLine
 62
7
  6
CONTINUOUS
 10
7.0313567919
 20
5.5984661437
 11
7.4613450714
 21
5.5984661437
  0
LINE
  5
2B8
100
AcDbEntity
  8
ALL_ASSEMBLY_MEMBERS
100
AcDbLine
 62
7
  6
CONTINUOUS
 10
7.4963509317
 20
5.6584661437
 11
6.9963509317
 21
5.6584661437
  0
LINE
  5
2B9
100
AcDbEntity
  8
ALL_ASSEMBLY_MEMBERS
100
AcDbLine
 62
7
  6
CONTINUOUS
 10
3.4963509317
 20
5.6584661437
 11
2.9963509317
 21
5.6584661437
  0
LINE
  5
2BA
100
AcDbEntity
  8
ALL_ASSEMBLY_MEMBERS
100
AcDbLine
 62
7
  6
CONTINUOUS
 10
6.6526009317
 20
6.4219661437
 11
6.6526009317
 21
6.3461556229
  0
LINE
  5
2BB
100
AcDbEntity
  8
ALL_ASSEMBLY_MEMBERS
100
AcDbLine
 62
7
  6
CONTINUOUS
 10
4.732141989
 20
5.798069282
 11
4.731554847
 21
5.7980655488
  0
LINE
  5
2BC
100
AcDbEntity
  8
ALL_ASSEMBLY_MEMBERS
100
AcDbLine
 62
7
  6
CONTINUOUS
 10
5.7624567923
 20
5.7958844012
 11
5.7605585774
 21
5.7958727107
  0
LINE
  5
2BD
100
AcDbEntity
  8
ALL_ASSEMBLY_MEMBERS
100
AcDbLine
 62
7
  6
CONTINUOUS
 10
4.9523463497
 20
5.7969661438
 11
4.9480407225
 21
5.7969661438
  0
LINE
  5
2BE
100
AcDbEntity
  8
ALL_ASSEMBLY_MEMBERS
100
AcDbLine
 62
7
  6
CONTINUOUS
 10
4.6540361407
 20
5.7969661438
 11
4.6526009317
 21
5.7969661437
  0
LINE
  5
2BF
100
AcDbEntity
  8
ALL_ASSEMBLY_MEMBERS
100
AcDbLine
 62
7
  6
CONTINUOUS
 10
5.5403555133
 20
5.7969661438
 11
5.5446611407
 21
5.7969661438
  0
LINE
  5
2C0
100
AcDbEntity
  8
ALL_ASSEMBLY_MEMBERS
100
AcDbLine
 62
7
  6
CONTINUOUS
 10
5.8386657225
 20
5.7969661438
 11
5.8401009317
 21
5.7969661437
  0
LINE
  5
2C1
100
AcDbEntity
  8
ALL_ASSEMBLY_MEMBERS
100
AcDbLine
 62
7
  6
CONTINUOUS
 10
7.5341059218
 20
5.8548702188
 11
6.9585959416
 21
5.8548702188
  0
LINE
  5
2C2
100
AcDbEntity
  8
ALL_ASSEMBLY_MEMBERS
100
AcDbLine
 62
7
  6
CONTINUOUS
 10
3.5341059218
 20
5.8548702188
 11
2.9585959416
 21
5.8548702188
  0
LINE
  5
2C3
100
AcDbEntity
  8
ALL_ASSEMBLY_MEMBERS
100
AcDbLine
 62
7
  6
CONTINUOUS
 10
5.7630399322
 20
5.7980529743
 11
5.7605597063
 21
5.7980669238
  0
LINE
  5
2C4
100
AcDbEntity
  8
ALL_ASSEMBLY_MEMBERS
100
AcDbLine
 62
7
  6
CONTINUOUS
 10
7.1106736184
 20
5.5309661437
 11
7.1049001157
 21
5.5109661437
  0
LINE
  5
2C5
100
AcDbEntity
  8
ALL_ASSEMBLY_MEMBERS
100
AcDbLine
 62
7
  6
CONTINUOUS
 10
7.1222206238
 20
5.4909661437
 11
7.1279941265
 21
5.5109661437
  0
LINE
  5
2C6
100
AcDbEntity
  8
ALL_ASSEMBLY_MEMBERS
100
AcDbLine
 62
7
  6
CONTINUOUS
 10
5.9463505965
 20
6.1719661437
 11
4.5463512669
 21
6.1719661437
  0
LINE
  5
2C7
100
AcDbEntity
  8
ALL_ASSEMBLY_MEMBERS
100
AcDbLine
 62
7
  6
CONTINUOUS
 10
7.5895009999
 20
5.2117148668
 11
7.5803509317
 21
5.2158420142
  0
LINE
  5
2C8
100
AcDbEntity
  8
ALL_ASSEMBLY_MEMBERS
100
AcDbLine
 62
7
  6
CONTINUOUS
 10
7.0013509317
 20
5.1209661437
 11
7.0013509317
 21
5.4334661437
  0
LINE
  5
2C9
100
AcDbEntity
  8
ALL_ASSEMBLY_MEMBERS
100
AcDbLine
 62
7
  6
CONTINUOUS
 10
7.0313509317
 20
5.5984661437
 11
7.0313509317
 21
5.6584661437
  0
LINE
  5
2CA
100
AcDbEntity
  8
ALL_ASSEMBLY_MEMBERS
100
AcDbLine
 62
7
  6
CONTINUOUS
 10
7.0901009317
 20
5.4334661437
 11
7.0901009317
 21
5.5884661437
  0
LINE
  5
2CB
100
AcDbEntity
  8
ALL_ASSEMBLY_MEMBERS
100
AcDbLine
 62
7
  6
CONTINUOUS
 10
7.4913446831
 20
5.3732002415
 11
7.4913509317
 21
5.3732161437
  0
LINE
  5
2CC
100
AcDbEntity
  8
ALL_ASSEMBLY_MEMBERS
100
AcDbLine
 62
7
  6
CONTINUOUS
 10
8.7614509317
 20
5.3794840004
 11
8.7514871163
 21
5.3691063143
  0
LINE
  5
2CD
100
AcDbEntity
  8
ALL_ASSEMBLY_MEMBERS
100
AcDbLine
 62
7
  6
CONTINUOUS
 10
8.7514871163
 20
5.3932922079
 11
8.7414871163
 21
5.3829207509
  0
LINE
  5
2CE
100
AcDbEntity
  8
ALL_ASSEMBLY_MEMBERS
100
AcDbLine
 62
7
  6
CONTINUOUS
 10
7.7528509317
 20
6.2610820803
 11
6.7398509317
 21
6.2610820803
  0
LINE
  5
2CF
100
AcDbEntity
  8
ALL_ASSEMBLY_MEMBERS
100
AcDbLine
 62
7
  6
CONTINUOUS
 10
3.7528509317
 20
6.2610820803
 11
2.7398509317
 21
6.2610820803
  0
LINE
  5
2D0
100
AcDbEntity
  8
ALL_ASSEMBLY_MEMBERS
100
AcDbLine
 62
7
  6
CONTINUOUS
 10
5.9463509317
 20
6.4219661437
 11
4.5463509317
 21
6.4219661437
  0
LINE
  5
2D1
100
AcDbEntity
  8
ALL_ASSEMBLY_MEMBERS
100
AcDbLine
 62
7
  6
CONTINUOUS
 10
2.6526009317
 20
6.4219661437
 11
3.8400957304
 21
6.4219661437
  0
LINE
  5
2D2
100
AcDbEntity
  8
ALL_ASSEMBLY_MEMBERS
100
AcDbLine
 62
7
  6
CONTINUOUS
 10
6.6526009317
 20
6.4219661437
 11
7.8400957304
 21
6.4219661437
  0
LINE
  5
2D3
100
AcDbEntity
  8
ALL_ASSEMBLY_MEMBERS
100
AcDbLine
 62
7
  6
CONTINUOUS
 10
6.9963509317
 20
5.6584661437
 11
6.9585959416
 21
5.8548702188
  0
LINE
  5
2D4
100
AcDbEntity
  8
ALL_ASSEMBLY_MEMBERS
100
AcDbLine
 62
7
  6
CONTINUOUS
 10
7.2463509317
 20
5.6584661437
 11
7.2463509317
 21
6.2685925223
  0
LWPOLYLINE
  5
2D5
100
AcDbEntity
  8
ALL_ASSEMBLY_MEMBERS
100
AcDbPolyline
 62
7
  6
CONTINUOUS
 90
3
 70
0
 10
7.2463520914
 20
5.8763691656
 10
7.2463519497
 20
5.8977707647
 10
7.2463509317
 20
5.9190567993
  0
LINE
  5
2D6
100
AcDbEntity
  8
ALL_ASSEMBLY_MEMBERS
100
AcDbLine
 62
7
  6
CONTINUOUS
 10
7.246351381
 20
6.0229984651
 11
7.2463509317
 21
6.0431476987
  0
LWPOLYLINE
  5
2D7
100
AcDbEntity
  8
ALL_ASSEMBLY_MEMBERS
100
AcDbPolyline
 62
7
  6
CONTINUOUS
 90
3
 70
0
 10
7.2463520525
 20
6.1399261552
 10
7.2463509317
 20
6.1583406089
 10
7.2463500091
 20
6.1764204318
  0
LWPOLYLINE
  5
2D8
100
AcDbEntity
  8
ALL_ASSEMBLY_MEMBERS
100
AcDbPolyline
 62
7
  6
CONTINUOUS
 90
3
 70
0
 10
7.2463525602
 20
5.9612223971
 10
7.2463509317
 20
5.9820384962
 10
7.2463498048
 20
6.0026312363
  0
LWPOLYLINE
  5
2D9
100
AcDbEntity
  8
ALL_ASSEMBLY_MEMBERS
100
AcDbPolyline
 62
7
  6
CONTINUOUS
 90
3
 70
0
 10
7.2463529339
 20
6.0827460826
 10
7.2463509317
 20
6.1021274181
 10
7.2463495208
 20
6.1211890421
  0
LWPOLYLINE
  5
2DA
100
AcDbEntity
  8
ALL_ASSEMBLY_MEMBERS
100
AcDbPolyline
 62
7
  6
CONTINUOUS
 90
5
 70
0
 10
7.246352831
 20
6.194141275
 10
7.2463509317
 20
6.2114854706
 10
7.2463446012
 20
6.228435365
 10
7.2463428949
 20
6.2449733526
 10
7.2463509317
 20
6.2610820803
  0
LINE
  5
2DB
100
AcDbEntity
  8
ALL_ASSEMBLY_MEMBERS
100
AcDbLine
 62
7
  6
CONTINUOUS
 10
7.4026009317
 20
5.4334661437
 11
7.4026009317
 21
5.5884661437
  0
LINE
  5
2DC
100
AcDbEntity
  8
ALL_ASSEMBLY_MEMBERS
100
AcDbLine
 62
7
  6
CONTINUOUS
 10
7.4613509317
 20
5.5984661437
 11
7.4613509317
 21
5.6584661437
  0
LINE
  5
2DD
100
AcDbEntity
  8
ALL_ASSEMBLY_MEMBERS
100
AcDbLine
 62
7
  6
CONTINUOUS
 10
7.4963509317
 20
5.6584661437
 11
7.5341059218
 21
5.8548702188
  0
LINE
  5
2DE
100
AcDbEntity
  8
ALL_ASSEMBLY_MEMBERS
100
AcDbLine
 62
7
  6
CONTINUOUS
 10
8.9244758623
 20
5.2769661437
 11
8.8551008623
 21
5.2003366346
  0
LINE
  5
2DF
100
AcDbEntity
  8
ALL_ASSEMBLY_MEMBERS
100
AcDbLine
 62
7
  6
CONTINUOUS
 10
8.9244758623
 20
5.2732419172
 11
8.8551008623
 21
5.1966124081
  0
LINE
  5
2E0
100
AcDbEntity
  8
ALL_ASSEMBLY_MEMBERS
100
AcDbLine
 62
7
  6
CONTINUOUS
 10
8.7614509317
 20
5.0294661437
 11
8.7514871163
 21
5.0203160754
  0
LINE
  5
2E1
100
AcDbEntity
  8
ALL_ASSEMBLY_MEMBERS
100
AcDbLine
 62
7
  6
CONTINUOUS
 10
8.7514871163
 20
5.0303342006
 11
8.7414871163
 21
5.0211690938
  0
LINE
  5
2E2
100
AcDbEntity
  8
ALL_ASSEMBLY_MEMBERS
100
AcDbLine
 62
7
  6
CONTINUOUS
 10
7.5895009999
 20
5.119435626
 11
7.5803509317
 21
5.1293994414
  0
LINE
  5
2E3
100
AcDbEntity
  8
ALL_ASSEMBLY_MEMBERS
100
AcDbLine
 62
7
  6
CONTINUOUS
 10
7.1074981919
 20
5.4856547497
 11
7.1097291443
 21
5.4824997066
  0
LINE
  5
2E4
100
AcDbEntity
  8
ALL_ASSEMBLY_MEMBERS
100
AcDbLine
 62
7
  6
CONTINUOUS
 10
7.1049001157
 20
5.5109661437
 11
7.1106736184
 21
5.4909661437
  0
LINE
  5
2E5
100
AcDbEntity
  8
ALL_ASSEMBLY_MEMBERS
100
AcDbLine
 62
7
  6
CONTINUOUS
 10
7.1279941265
 20
5.5109661437
 11
7.1222206238
 21
5.5309661437
  0
LINE
  5
2E6
100
AcDbEntity
  8
ALL_ASSEMBLY_MEMBERS
100
AcDbLine
 62
7
  6
CONTINUOUS
 10
7.4913509317
 20
5.1209661437
 11
7.4913509317
 21
5.1807161437
  0
LINE
  5
2E7
100
AcDbEntity
  8
ALL_ASSEMBLY_MEMBERS
100
AcDbLine
 62
7
  6
CONTINUOUS
 10
7.4913509317
 20
5.3732161437
 11
7.4913509317
 21
5.4334661437
  0
LINE
  5
2E8
100
AcDbEntity
  8
ALL_ASSEMBLY_MEMBERS
100
AcDbLine
 62
7
  6
CONTINUOUS
 10
7.5053509317
 20
5.1857161437
 11
7.5053509317
 21
5.3682161437
  0
LINE
  5
2E9
100
AcDbEntity
  8
ALL_ASSEMBLY_MEMBERS
100
AcDbLine
 62
7
  6
CONTINUOUS
 10
7.5303509317
 20
5.1369661437
 11
7.5303509317
 21
5.4169661437
  0
LINE
  5
2EA
100
AcDbEntity
  8
ALL_ASSEMBLY_MEMBERS
100
AcDbLine
 62
7
  6
CONTINUOUS
 10
7.5803509317
 20
5.1293994414
 11
7.5803509317
 21
5.424532846
  0
LINE
  5
2EB
100
AcDbEntity
  8
ALL_ASSEMBLY_MEMBERS
100
AcDbLine
 62
7
  6
CONTINUOUS
 10
7.5895009999
 20
5.119435626
 11
7.5895009999
 21
5.4344966613
  0
LINE
  5
2EC
100
AcDbEntity
  8
ALL_ASSEMBLY_MEMBERS
100
AcDbLine
 62
7
  6
CONTINUOUS
 10
8.7614509317
 20
5.174448287
 11
8.7514871163
 21
5.1606400795
  0
LINE
  5
2ED
100
AcDbEntity
  8
ALL_ASSEMBLY_MEMBERS
100
AcDbLine
 62
7
  6
CONTINUOUS
 10
8.7514871163
 20
5.184825973
 11
8.7414871163
 21
5.1710115364
  0
LINE
  5
2EE
100
AcDbEntity
  8
ALL_ASSEMBLY_MEMBERS
100
AcDbLine
 62
7
  6
CONTINUOUS
 10
6.7398509317
 20
6.2610820803
 11
6.6525932842
 21
6.3461630796
  0
LINE
  5
2EF
100
AcDbEntity
  8
ALL_ASSEMBLY_MEMBERS
100
AcDbLine
 62
7
  6
CONTINUOUS
 10
7.4913509317
 20
5.1807161437
 11
7.4913446868
 21
5.1807319749
  0
LINE
  5
2F0
100
AcDbEntity
  8
ALL_ASSEMBLY_MEMBERS
100
AcDbLine
 62
7
  6
CONTINUOUS
 10
7.8401009317
 20
6.4219661437
 11
7.8401009317
 21
6.3461556229
  0
LINE
  5
2F1
100
AcDbEntity
  8
ALL_ASSEMBLY_MEMBERS
100
AcDbLine
 62
7
  6
CONTINUOUS
 10
8.7514871163
 20
5.1606400795
 11
8.7414871163
 21
5.1710115364
  0
LINE
  5
2F2
100
AcDbEntity
  8
ALL_ASSEMBLY_MEMBERS
100
AcDbLine
 62
7
  6
CONTINUOUS
 10
8.7614509317
 20
5.174448287
 11
8.7514871163
 21
5.184825973
  0
LINE
  5
2F3
100
AcDbEntity
  8
ALL_ASSEMBLY_MEMBERS
100
AcDbLine
 62
7
  6
CONTINUOUS
 10
8.9244758623
 20
5.2732419172
 11
8.8551008623
 21
5.0882419172
  0
LINE
  5
2F4
100
AcDbEntity
  8
ALL_ASSEMBLY_MEMBERS
100
AcDbLine
 62
7
  6
CONTINUOUS
 10
8.9244758623
 20
5.2716992921
 11
8.8551008623
 21
5.0866992921
  0
LINE
  5
2F5
100
AcDbEntity
  8
ALL_ASSEMBLY_MEMBERS
100
AcDbLine
 62
7
  6
CONTINUOUS
 10
8.7514871163
 20
5.5235980868
 11
8.7414871163
 21
5.5327631936
  0
LINE
  5
2F6
100
AcDbEntity
  8
ALL_ASSEMBLY_MEMBERS
100
AcDbLine
 62
7
  6
CONTINUOUS
 10
8.7614509317
 20
5.5244661437
 11
8.7514871163
 21
5.5336162119
  0
LINE
  5
2F7
100
AcDbEntity
  8
ALL_ASSEMBLY_MEMBERS
100
AcDbLine
 62
7
  6
CONTINUOUS
 10
8.9244758623
 20
5.2769661437
 11
8.8551008623
 21
5.3535956527
  0
LINE
  5
2F8
100
AcDbEntity
  8
ALL_ASSEMBLY_MEMBERS
100
AcDbLine
 62
7
  6
CONTINUOUS
 10
8.9244758623
 20
5.2806903702
 11
8.8551008623
 21
5.3573198792
  0
LINE
  5
2F9
100
AcDbEntity
  8
ALL_ASSEMBLY_MEMBERS
100
AcDbLine
 62
7
  6
CONTINUOUS
 10
8.7514871163
 20
5.3691063143
 11
8.7414871163
 21
5.3829207509
  0
LINE
  5
2FA
100
AcDbEntity
  8
ALL_ASSEMBLY_MEMBERS
100
AcDbLine
 62
7
  6
CONTINUOUS
 10
8.7614509317
 20
5.3794840004
 11
8.7514871163
 21
5.3932922079
  0
LINE
  5
2FB
100
AcDbEntity
  8
ALL_ASSEMBLY_MEMBERS
100
AcDbLine
 62
7
  6
CONTINUOUS
 10
8.7514871163
 20
5.5235980868
 11
8.7514871163
 21
5.3932922079
  0
LINE
  5
2FC
100
AcDbEntity
  8
ALL_ASSEMBLY_MEMBERS
100
AcDbLine
 62
7
  6
CONTINUOUS
 10
8.7514871163
 20
5.3691063143
 11
8.7514871163
 21
5.184825973
  0
LINE
  5
2FD
100
AcDbEntity
  8
ALL_ASSEMBLY_MEMBERS
100
AcDbLine
 62
7
  6
CONTINUOUS
 10
8.7514871163
 20
5.1606400795
 11
8.7514871163
 21
5.0303342006
  0
LINE
  5
2FE
100
AcDbEntity
  8
ALL_ASSEMBLY_MEMBERS
100
AcDbLine
 62
7
  6
CONTINUOUS
 10
8.7614509317
 20
5.5244661437
 11
8.7614509317
 21
5.0294661437
  0
LINE
  5
2FF
100
AcDbEntity
  8
ALL_ASSEMBLY_MEMBERS
100
AcDbLine
 62
7
  6
CONTINUOUS
 10
8.7964509317
 20
5.0319661437
 11
8.7964509317
 21
5.5219661437
  0
LINE
  5
300
100
AcDbEntity
  8
ALL_ASSEMBLY_MEMBERS
100
AcDbLine
 62
7
  6
CONTINUOUS
 10
8.8114509317
 20
5.0469680179
 11
8.8114509317
 21
5.5069642695
  0
LINE
  5
301
100
AcDbEntity
  8
ALL_ASSEMBLY_MEMBERS
100
AcDbLine
 62
7
  6
CONTINUOUS
 10
8.8410559247
 20
5.4769661437
 11
8.8410559247
 21
5.0769661437
  0
LINE
  5
302
100
AcDbEntity
  8
ALL_ASSEMBLY_MEMBERS
100
AcDbLine
 62
7
  6
CONTINUOUS
 10
8.8551008623
 20
5.4656903702
 11
8.8551008623
 21
5.3573198792
  0
LINE
  5
303
100
AcDbEntity
  8
ALL_ASSEMBLY_MEMBERS
100
AcDbLine
 62
7
  6
CONTINUOUS
 10
8.8551008623
 20
5.3535956527
 11
8.8551008623
 21
5.2003366346
  0
LINE
  5
304
100
AcDbEntity
  8
ALL_ASSEMBLY_MEMBERS
100
AcDbLine
 62
7
  6
CONTINUOUS
 10
8.8551008623
 20
5.1966124081
 11
8.8551008623
 21
5.0882419172
  0
LINE
  5
305
100
AcDbEntity
  8
ALL_ASSEMBLY_MEMBERS
100
AcDbLine
 62
7
  6
CONTINUOUS
 10
8.9244758623
 20
5.2806903702
 11
8.8551008623
 21
5.4656903702
  0
LINE
  5
306
100
AcDbEntity
  8
ALL_ASSEMBLY_MEMBERS
100
AcDbLine
 62
7
  6
CONTINUOUS
 10
8.9244758623
 20
5.2822329953
 11
8.8551008623
 21
5.4672329953
  0
ARC
  5
307
100
AcDbEntity
  8
ALL_ASSEMBLY_MEMBERS
100
AcDbCircle
 62
7
  6
CONTINUOUS
 10
5.2463499768
 20
3.008466643
 40
0.3675009099
100
AcDbArc
 50
300.0000900008
 51
358.8842622479
  0
ARC
  5
308
100
AcDbEntity
  8
ALL_ASSEMBLY_MEMBERS
100
AcDbCircle
 62
7
  6
CONTINUOUS
 10
4.2907526212
 20
5.7094191194
 40
0.7705
100
AcDbArc
 50
134.2763891045
 51
169.1186996529
  0
ARC
  5
309
100
AcDbEntity
  8
ALL_ASSEMBLY_MEMBERS
100
AcDbCircle
 62
7
  6
CONTINUOUS
 10
2.2019492422
 20
5.7094191194
 40
0.7705
100
AcDbArc
 50
10.8813003471
 51
45.7236108955
  0
ARC
  5
30A
100
AcDbEntity
  8
ALL_ASSEMBLY_MEMBERS
100
AcDbCircle
 62
7
  6
CONTINUOUS
 10
3.2463509317
 20
5.8298208538
 40
0.75
100
AcDbArc
 50
250.9334198993
 51
289.0665801007
  0
ARC
  5
30B
100
AcDbEntity
  8
ALL_ASSEMBLY_MEMBERS
100
AcDbCircle
 62
7
  6
CONTINUOUS
 10
3.4045249612
 20
5.5212034943
 40
0.0463401548
100
AcDbArc
 50
144.747517653
 51
147.6873118913
  0
ARC
  5
30C
100
AcDbEntity
  8
ALL_ASSEMBLY_MEMBERS
100
AcDbCircle
 62
7
  6
CONTINUOUS
 10
2.9373509317
 20
5.1369661437
 40
0.025
100
AcDbArc
 50
180.0
 51
360.0
  0
ARC
  5
30D
100
AcDbEntity
  8
ALL_ASSEMBLY_MEMBERS
100
AcDbCircle
 62
7
  6
CONTINUOUS
 10
2.9373509317
 20
5.4169661437
 40
0.025
100
AcDbArc
 50
0.0
 51
180.0
  0
ARC
  5
30E
100
AcDbEntity
  8
ALL_ASSEMBLY_MEMBERS
100
AcDbCircle
 62
7
  6
CONTINUOUS
 10
2.9873509317
 20
5.1607161437
 40
0.025
100
AcDbArc
 50
90.0
 51
180.0
  0
ARC
  5
30F
100
AcDbEntity
  8
ALL_ASSEMBLY_MEMBERS
100
AcDbCircle
 62
7
  6
CONTINUOUS
 10
2.9873509317
 20
5.3932161437
 40
0.025
100
AcDbArc
 50
180.0
 51
270.0
  0
ARC
  5
310
100
AcDbEntity
  8
ALL_ASSEMBLY_MEMBERS
100
AcDbCircle
 62
7
  6
CONTINUOUS
 10
3.3667295325
 20
5.5232171707
 40
0.0226244745
100
AcDbArc
 50
33.1317531744
 51
35.2585488325
  0
ARC
  5
311
100
AcDbEntity
  8
ALL_ASSEMBLY_MEMBERS
100
AcDbCircle
 62
7
  6
CONTINUOUS
 10
1.5822709387
 20
5.2769661437
 40
0.015
100
AcDbArc
 50
159.4439547804
 51
200.5462405231
  0
ARC
  5
312
100
AcDbEntity
  8
ALL_ASSEMBLY_MEMBERS
100
AcDbCircle
 62
7
  6
CONTINUOUS
 10
1.6962509317
 20
5.5069661437
 40
0.015
100
AcDbArc
 50
90.0
 51
180.0
  0
ARC
  5
313
100
AcDbEntity
  8
ALL_ASSEMBLY_MEMBERS
100
AcDbCircle
 62
7
  6
CONTINUOUS
 10
1.6962509317
 20
5.0469661437
 40
0.015
100
AcDbArc
 50
180.0
 51
270.0
  0
ARC
  5
314
100
AcDbEntity
  8
ALL_ASSEMBLY_MEMBERS
100
AcDbCircle
 62
7
  6
CONTINUOUS
 10
1.6516459387
 20
5.0919661437
 40
0.015
100
AcDbArc
 50
200.5560452196
 51
270.0
  0
ARC
  5
315
100
AcDbEntity
  8
ALL_ASSEMBLY_MEMBERS
100
AcDbCircle
 62
7
  6
CONTINUOUS
 10
1.6516459387
 20
5.4619661437
 40
0.015
100
AcDbArc
 50
90.0
 51
159.4439547804
  0
ARC
  5
316
100
AcDbEntity
  8
ALL_ASSEMBLY_MEMBERS
100
AcDbCircle
 62
7
  6
CONTINUOUS
 10
5.2463518867
 20
3.0084666431
 40
0.36750091
100
AcDbArc
 50
181.1152745276
 51
299.9998976083
  0
ARC
  5
317
100
AcDbEntity
  8
ALL_ASSEMBLY_MEMBERS
100
AcDbCircle
 62
7
  6
CONTINUOUS
 10
8.2907526212
 20
5.7094191194
 40
0.7705
100
AcDbArc
 50
134.2763891045
 51
169.1186996529
  0
ARC
  5
318
100
AcDbEntity
  8
ALL_ASSEMBLY_MEMBERS
100
AcDbCircle
 62
7
  6
CONTINUOUS
 10
6.2019492422
 20
5.7094191194
 40
0.7705
100
AcDbArc
 50
10.8813003471
 51
45.7236108955
  0
ARC
  5
319
100
AcDbEntity
  8
ALL_ASSEMBLY_MEMBERS
100
AcDbCircle
 62
7
  6
CONTINUOUS
 10
7.2463509317
 20
5.8298208538
 40
0.75
100
AcDbArc
 50
250.9334198993
 51
289.0665801007
  0
ARC
  5
31A
100
AcDbEntity
  8
ALL_ASSEMBLY_MEMBERS
100
AcDbCircle
 62
7
  6
CONTINUOUS
 10
7.0875651628
 20
5.5207942397
 40
0.0470759288
100
AcDbArc
 50
32.3356668155
 51
35.2295036407
  0
ARC
  5
31B
100
AcDbEntity
  8
ALL_ASSEMBLY_MEMBERS
100
AcDbCircle
 62
7
  6
CONTINUOUS
 10
7.5553509317
 20
5.1369661437
 40
0.025
100
AcDbArc
 50
180.0
 51
360.0
  0
ARC
  5
31C
100
AcDbEntity
  8
ALL_ASSEMBLY_MEMBERS
100
AcDbCircle
 62
7
  6
CONTINUOUS
 10
7.5553509317
 20
5.4169661437
 40
0.025
100
AcDbArc
 50
0.0
 51
180.0
  0
ARC
  5
31D
100
AcDbEntity
  8
ALL_ASSEMBLY_MEMBERS
100
AcDbCircle
 62
7
  6
CONTINUOUS
 10
7.5053509317
 20
5.1607161437
 40
0.025
100
AcDbArc
 50
0.0
 51
90.0
  0
ARC
  5
31E
100
AcDbEntity
  8
ALL_ASSEMBLY_MEMBERS
100
AcDbCircle
 62
7
  6
CONTINUOUS
 10
7.5053509317
 20
5.3932161437
 40
0.025
100
AcDbArc
 50
270.0
 51
360.0
  0
ARC
  5
31F
100
AcDbEntity
  8
ALL_ASSEMBLY_MEMBERS
100
AcDbCircle
 62
7
  6
CONTINUOUS
 10
8.9104309247
 20
5.2769661437
 40
0.015
100
AcDbArc
 50
339.4537594769
 51
20.5560452196
  0
ARC
  5
320
100
AcDbEntity
  8
ALL_ASSEMBLY_MEMBERS
100
AcDbCircle
 62
7
  6
CONTINUOUS
 10
8.7964509317
 20
5.5069661437
 40
0.015
100
AcDbArc
 50
0.0
 51
90.0
  0
ARC
  5
321
100
AcDbEntity
  8
ALL_ASSEMBLY_MEMBERS
100
AcDbCircle
 62
7
  6
CONTINUOUS
 10
8.7964509317
 20
5.0469661437
 40
0.015
100
AcDbArc
 50
270.0
 51
360.0
  0
ARC
  5
322
100
AcDbEntity
  8
ALL_ASSEMBLY_MEMBERS
100
AcDbCircle
 62
7
  6
CONTINUOUS
 10
8.8410559247
 20
5.0919661437
 40
0.015
100
AcDbArc
 50
270.0
 51
339.4439547804
  0
ARC
  5
323
100
AcDbEntity
  8
ALL_ASSEMBLY_MEMBERS
100
AcDbCircle
 62
7
  6
CONTINUOUS
 10
8.8410559247
 20
5.4619661437
 40
0.015
100
AcDbArc
 50
20.5560452196
 51
89.9999999717
  0
ARC
  5
324
100
AcDbEntity
  8
ALL_ASSEMBLY_MEMBERS
100
AcDbCircle
 62
7
  6
CONTINUOUS
 10
7.1199122031
 20
5.4936111362
 40
0.0146857788
100
AcDbArc
 50
226.6032721652
 51
227.5389471184
  0
ARC
  5
325
100
AcDbEntity
  8
ALL_ASSEMBLY_MEMBERS
100
AcDbCircle
 62
7
  6
CONTINUOUS
 10
7.1169052129
 20
5.4872531395
 40
0.0105218023
100
AcDbArc
 50
302.8678611458
 51
304.6359984168
  0
SPLINE
  5
326
100
AcDbEntity
  8
ALL_ASSEMBLY_MEMBERS
100
AcDbSpline
 62
7
  6
CONTINUOUS
 70
0
 71
3
 72
10
 73
6
 74
0
 42
0.0000001
 43
0.0000001
 44
0.0000000001
 40
0.0
 40
0.0
 40
0.0
 40
0.0
 40
0.2602978022
 40
0.5137677782
 40
1.0
 40
1.0
 40
1.0
 40
1.0
 10
3.3805133046
 20
5.4801119247
 30
0.0
 10
3.3802548637
 20
5.4797150235
 30
0.0
 10
3.3797295676
 20
5.4789413269
 30
0.0
 10
3.3786462622
 20
5.4774790781
 30
0.0
 10
3.3777754802
 20
5.4764494719
 30
0.0
 10
3.3771708991
 20
5.4758035431
 30
0.0
  0
SPLINE
  5
327
100
AcDbEntity
  8
ALL_ASSEMBLY_MEMBERS
100
AcDbSpline
 62
7
  6
CONTINUOUS
 70
0
 71
3
 72
30
 73
26
 74
0
 42
0.0000001
 43
0.0000001
 44
0.0000000001
 40
0.0
 40
0.0
 40
0.0
 40
0.0
 40
0.0773016358
 40
0.1509552671
 40
0.2209675017
 40
0.2546463522
 40
0.2874649714
 40
0.3506315926
 40
0.4108418923
 40
0.440001513
 40
0.468619142
 40
0.4967784154
 40
0.5245700372
 40
0.5520915599
 40
0.5794460856
 40
0.6067398824
 40
0.6340811624
 40
0.6615780639
 40
0.6893358417
 40
0.7174560645
 40
0.7460355223
 40
0.8048882336
 40
0.8665412165
 40
0.9314673904
 40
1.0
 40
1.0
 40
1.0
 40
1.0
 10
3.3604310349
 20
5.4858367658
 30
0.0
 10
3.3607937033
 20
5.4852508046
 30
0.0
 10
3.361539416
 20
5.4841290469
 30
0.0
 10
3.362748577
 20
5.482571694
 30
0.0
 10
3.3638182902
 20
5.4814045952
 30
0.0
 10
3.3647010641
 20
5.4805663452
 30
0.0
 10
3.3655769522
 20
5.47981149
 30
0.0
 10
3.3666995006
 20
5.4789830016
 30
0.0
 10
3.3678809494
 20
5.4783026581
 30
0.0
 10
3.368838559
 20
5.4778660446
 30
0.0
 10
3.3695553672
 20
5.4775940745
 30
0.0
 10
3.3702772426
 20
5.4773746587
 30
0.0
 10
3.3710031704
 20
5.4772082896
 30
0.0
 10
3.3717320849
 20
5.4770954668
 30
0.0
 10
3.3724628691
 20
5.477036384
 30
0.0
 10
3.3731944209
 20
5.4770312153
 30
0.0
 10
3.3739256245
 20
5.4770801587
 30
0.0
 10
3.3746553457
 20
5.4771832477
 30
0.0
 10
3.3753824671
 20
5.4773402862
 30
0.0
 10
3.37610591
 20
5.4775511281
 30
0.0
 10
3.3770732814
 20
5.4779071235
 30
0.0
 10
3.3782715678
 20
5.4784912271
 30
0.0
 10
3.3796606124
 20
5.4793941374
 30
0.0
 10
3.3810073791
 20
5.4804997916
 30
0.0
 10
3.3818484056
 20
5.4813442223
 30
0.0
 10
3.382260287
 20
5.4817954473
 30
0.0
  0
LINE
  5
328
100
AcDbEntity
  8
ALL_ASSEMBLY_MEMBERS
100
AcDbLine
 62
7
  6
CONTINUOUS
 10
3.382260287
 20
5.4817954473
 11
3.3840931759
 21
5.4840842725
  0
SPLINE
  5
329
100
AcDbEntity
  8
ALL_ASSEMBLY_MEMBERS
100
AcDbSpline
 62
7
  6
CONTINUOUS
 70
0
 71
3
 72
21
 73
17
 74
0
 42
0.0000001
 43
0.0000001
 44
0.0000000001
 40
0.0
 40
0.0
 40
0.0
 40
0.0
 40
0.0697308383
 40
0.1393243434
 40
0.2771865865
 40
0.4120853488
 40
0.4780180745
 40
0.5427142836
 40
0.6060179606
 40
0.6677893778
 40
0.7278972869
 40
0.7862254717
 40
0.8426740382
 40
0.8971565679
 40
0.9496121506
 40
1.0
 40
1.0
 40
1.0
 40
1.0
 10
3.3917547422
 20
5.5109661437
 30
0.0
 10
3.3917547422
 20
5.5103497501
 30
0.0
 10
3.3917363172
 20
5.5091180876
 30
0.0
 10
3.3916265995
 20
5.5066700401
 30
0.0
 10
3.3913550665
 20
5.5036539756
 30
0.0
 10
3.3909019457
 20
5.5006923252
 30
0.0
 10
3.3904324714
 20
5.4983922084
 30
0.0
 10
3.3900326909
 20
5.4967248209
 30
0.0
 10
3.3895838369
 20
5.495108104
 30
0.0
 10
3.3890876998
 20
5.4935477414
 30
0.0
 10
3.388545923
 20
5.4920492821
 30
0.0
 10
3.3879604032
 20
5.490618038
 30
0.0
 10
3.3873333607
 20
5.4892590207
 30
0.0
 10
3.3866667779
 20
5.4879771105
 30
0.0
 10
3.3859631809
 20
5.4867768323
 30
0.0
 10
3.3854608346
 20
5.486018423
 30
0.0
 10
3.3852036701
 20
5.4856547534
 30
0.0
  0
SPLINE
  5
32A
100
AcDbEntity
  8
ALL_ASSEMBLY_MEMBERS
100
AcDbSpline
 62
7
  6
CONTINUOUS
 70
0
 71
3
 72
21
 73
17
 74
0
 42
0.0000001
 43
0.0000001
 44
0.0000000001
 40
0.0
 40
0.0
 40
0.0
 40
0.0
 40
0.0512381848
 40
0.1044250032
 40
0.1595137161
 40
0.2164352173
 40
0.2751033436
 40
0.3354211718
 40
0.3972751437
 40
0.460542547
 40
0.5250911937
 40
0.5907747068
 40
0.7249257436
 40
0.8617983556
 40
0.9308381316
 40
1.0
 40
1.0
 40
1.0
 40
1.0
 10
3.3856756281
 20
5.5355829424
 30
0.0
 10
3.3859154817
 20
5.5352157508
 30
0.0
 10
3.3863836665
 20
5.5344537466
 30
0.0
 10
3.3870394067
 20
5.5332555407
 30
0.0
 10
3.3876596719
 20
5.5319842409
 30
0.0
 10
3.3882425088
 20
5.5306440926
 30
0.0
 10
3.3887860949
 20
5.5292394782
 30
0.0
 10
3.3892884814
 20
5.5277749315
 30
0.0
 10
3.3897481905
 20
5.526255283
 30
0.0
 10
3.3901636695
 20
5.5246854836
 30
0.0
 10
3.3905334581
 20
5.5230706582
 30
0.0
 10
3.390967208
 20
5.5208492142
 30
0.0
 10
3.391385684
 20
5.5179956686
 30
0.0
 10
3.3916364765
 20
5.5150938609
 30
0.0
 10
3.3917377427
 20
5.5127412107
 30
0.0
 10
3.3917547422
 20
5.5115581547
 30
0.0
 10
3.3917547422
 20
5.5109661437
 30
0.0
  0
SPLINE
  5
32B
100
AcDbEntity
  8
ALL_ASSEMBLY_MEMBERS
100
AcDbSpline
 62
7
  6
CONTINUOUS
 70
0
 71
3
 72
41
 73
37
 74
0
 42
0.0000001
 43
0.0000001
 44
0.0000000001
 40
0.0
 40
0.0
 40
0.0
 40
0.0
 40
0.0435772512
 40
0.087032409
 40
0.1301794658
 40
0.1728637099
 40
0.2149494797
 40
0.2563016289
 40
0.2967851582
 40
0.3362721018
 40
0.3746484794
 40
0.4118091565
 40
0.4476645394
 40
0.4821379769
 40
0.5151720746
 40
0.5467305404
 40
0.5767995781
 40
0.6053961315
 40
0.6325657955
 40
0.6456445495
 40
0.658401932
 40
0.6830127929
 40
0.7065750712
 40
0.7293011481
 40
0.7514436909
 40
0.773287342
 40
0.7951336257
 40
0.8172838908
 40
0.8400223739
 40
0.8636010599
 40
0.888231643
 40
0.9009998568
 40
0.9140899692
 40
0.9412836486
 40
0.9699053259
 40
1.0
 40
1.0
 40
1.0
 40
1.0
 10
3.3607547422
 20
5.5109661437
 30
0.0
 10
3.3607547422
 20
5.5116714028
 30
0.0
 10
3.3607788468
 20
5.5130800623
 30
0.0
 10
3.3608867749
 20
5.5151845294
 30
0.0
 10
3.3610662584
 20
5.5172696359
 30
0.0
 10
3.3613163669
 20
5.5193251354
 30
0.0
 10
3.3616359094
 20
5.5213416064
 30
0.0
 10
3.3620234458
 20
5.5233098554
 30
0.0
 10
3.362477032
 20
5.5252207721
 30
0.0
 10
3.362994816
 20
5.5270653684
 30
0.0
 10
3.3635741087
 20
5.5288351331
 30
0.0
 10
3.3642124832
 20
5.5305218188
 30
0.0
 10
3.3649067896
 20
5.5321176823
 30
0.0
 10
3.36565395
 20
5.5336153171
 30
0.0
 10
3.3664505563
 20
5.5350077924
 30
0.0
 10
3.3672928657
 20
5.5362887608
 30
0.0
 10
3.3681773355
 20
5.5374521916
 30
0.0
 10
3.3690996838
 20
5.538492836
 30
0.0
 10
3.3699068927
 20
5.5392631582
 30
0.0
 10
3.3705677501
 20
5.5398106085
 30
0.0
 10
3.3712212592
 20
5.5403004307
 30
0.0
 10
3.3720545903
 20
5.5408314259
 30
0.0
 10
3.373087602
 20
5.541336833
 30
0.0
 10
3.3741369881
 20
5.541699992
 30
0.0
 10
3.3751976229
 20
5.5419182748
 30
0.0
 10
3.376263952
 20
5.5419905348
 30
0.0
 10
3.3773302301
 20
5.5419157419
 30
0.0
 10
3.3783907182
 20
5.5416949494
 30
0.0
 10
3.3794398624
 20
5.5413293071
 30
0.0
 10
3.380472552
 20
5.5408214724
 30
0.0
 10
3.3813055329
 20
5.5402885258
 30
0.0
 10
3.3819587403
 20
5.5397971729
 30
0.0
 10
3.3826192753
 20
5.5392481664
 30
0.0
 10
3.383426026
 20
5.5384759367
 30
0.0
 10
3.3843477228
 20
5.5374331761
 30
0.0
 10
3.3849224603
 20
5.5366752074
 30
0.0
 10
3.3852036701
 20
5.536277534
 30
0.0
  0
LINE
  5
32C
100
AcDbEntity
  8
ALL_ASSEMBLY_MEMBERS
100
AcDbLine
 62
7
  6
CONTINUOUS
 10
3.3852036701
 20
5.4856547534
 11
3.3840230358
 21
5.4841405595
  0
LINE
  5
32D
100
AcDbEntity
  8
ALL_ASSEMBLY_MEMBERS
100
AcDbLine
 62
7
  6
CONTINUOUS
 10
3.3840040888
 20
5.484118647
 11
3.382879466
 21
5.482940245
  0
SPLINE
  5
32E
100
AcDbEntity
  8
ALL_ASSEMBLY_MEMBERS
100
AcDbSpline
 62
7
  6
CONTINUOUS
 70
0
 71
3
 72
38
 73
34
 74
0
 42
0.0000001
 43
0.0000001
 44
0.0000000001
 40
0.0
 40
0.0
 40
0.0
 40
0.0
 40
0.0263364599
 40
0.051492173
 40
0.0755855099
 40
0.0987719392
 40
0.1212385506
 40
0.1432037492
 40
0.1649090741
 40
0.1866086709
 40
0.2085570228
 40
0.2309964113
 40
0.2541465486
 40
0.2781958993
 40
0.2906118884
 40
0.30330837
 40
0.3295901324
 40
0.3571372303
 40
0.3860081732
 40
0.4162327227
 40
0.447819797
 40
0.4807537335
 40
0.5150029734
 40
0.5505193181
 40
0.5872389872
 40
0.6250889212
 40
0.6639829838
 40
0.7038278363
 40
0.7445206631
 40
0.8279878238
 40
0.9134867428
 40
0.9566944207
 40
1.0
 40
1.0
 40
1.0
 40
1.0
 10
3.382879466
 20
5.482940245
 30
0.0
 10
3.3825925693
 20
5.4826690017
 30
0.0
 10
3.382010268
 20
5.4821605833
 30
0.0
 10
3.3810925683
 20
5.4814931983
 30
0.0
 10
3.380154598
 20
5.4809422772
 30
0.0
 10
3.3792001938
 20
5.4805100988
 30
0.0
 10
3.3782329942
 20
5.4801989222
 30
0.0
 10
3.3772570446
 20
5.480010464
 30
0.0
 10
3.3762766092
 20
5.4799455337
 30
0.0
 10
3.3752960726
 20
5.4800049322
 30
0.0
 10
3.3743198352
 20
5.4801879036
 30
0.0
 10
3.3733521478
 20
5.4804936375
 30
0.0
 10
3.3723971221
 20
5.4809204612
 30
0.0
 10
3.3716230109
 20
5.4813704134
 30
0.0
 10
3.3710142676
 20
5.4817862642
 30
0.0
 10
3.3703989199
 20
5.4822503362
 30
0.0
 10
3.3696441616
 20
5.4829042757
 30
0.0
 10
3.3687755281
 20
5.4837905737
 30
0.0
 10
3.3679368576
 20
5.4847838445
 30
0.0
 10
3.3671312172
 20
5.4858800272
 30
0.0
 10
3.3663618973
 20
5.4870749901
 30
0.0
 10
3.3656316106
 20
5.4883639076
 30
0.0
 10
3.3649433249
 20
5.4897418234
 30
0.0
 10
3.3642997114
 20
5.4912033221
 30
0.0
 10
3.3637031412
 20
5.4927426274
 30
0.0
 10
3.3631561744
 20
5.4943537719
 30
0.0
 10
3.3626607386
 20
5.4960303685
 30
0.0
 10
3.3622189201
 20
5.4977658855
 30
0.0
 10
3.3616992863
 20
5.5001694683
 30
0.0
 10
3.3611974697
 20
5.5032748513
 30
0.0
 10
3.3608967939
 20
5.5064437147
 30
0.0
 10
3.3607751754
 20
5.5090198756
 30
0.0
 10
3.3607547422
 20
5.5103169333
 30
0.0
 10
3.3607547422
 20
5.5109661437
 30
0.0
  0
SPLINE
  5
32F
100
AcDbEntity
  8
ALL_ASSEMBLY_MEMBERS
100
AcDbSpline
 62
7
  6
CONTINUOUS
 70
0
 71
3
 72
11
 73
7
 74
0
 42
0.0000001
 43
0.0000001
 44
0.0000000001
 40
0.0
 40
0.0
 40
0.0
 40
0.0
 40
0.2390829693
 40
0.4844255123
 40
0.7376273762
 40
1.0
 40
1.0
 40
1.0
 40
1.0
 10
3.3671612925
 20
5.4787294512
 30
0.0
 10
3.3667655388
 20
5.4788262635
 30
0.0
 10
3.3659739051
 20
5.479066799
 30
0.0
 10
3.3648138259
 20
5.4795560944
 30
0.0
 10
3.3636725474
 20
5.4801756122
 30
0.0
 10
3.3629407107
 20
5.4806641383
 30
0.0
 10
3.362579461
 20
5.4809275907
 30
0.0
  0
SPLINE
  5
330
100
AcDbEntity
  8
ALL_ASSEMBLY_MEMBERS
100
AcDbSpline
 62
7
  6
CONTINUOUS
 70
0
 71
3
 72
21
 73
17
 74
0
 42
0.0000001
 43
0.0000001
 44
0.0000000001
 40
0.0
 40
0.0
 40
0.0
 40
0.0
 40
0.0697308383
 40
0.1393243434
 40
0.2771865865
 40
0.4120853488
 40
0.4780180745
 40
0.5427142836
 40
0.6060179606
 40
0.6677893778
 40
0.7278972869
 40
0.7862254717
 40
0.8426740382
 40
0.8971565679
 40
0.9496121506
 40
1.0
 40
1.0
 40
1.0
 40
1.0
 10
7.1009471211
 20
5.5109661437
 30
0.0
 10
7.1009471211
 20
5.5115825372
 30
0.0
 10
7.1009655462
 20
5.5128141998
 30
0.0
 10
7.1010752638
 20
5.5152622472
 30
0.0
 10
7.1013467968
 20
5.5182783118
 30
0.0
 10
7.1017999177
 20
5.5212399621
 30
0.0
 10
7.102269392
 20
5.5235400789
 30
0.0
 10
7.1026691725
 20
5.5252074664
 30
0.0
 10
7.1031180265
 20
5.5268241834
 30
0.0
 10
7.1036141635
 20
5.528384546
 30
0.0
 10
7.1041559404
 20
5.5298830053
 30
0.0
 10
7.1047414602
 20
5.5313142494
 30
0.0
 10
7.1053685026
 20
5.5326732666
 30
0.0
 10
7.1060350854
 20
5.5339551769
 30
0.0
 10
7.1067386824
 20
5.5351554551
 30
0.0
 10
7.1072410287
 20
5.5359138643
 30
0.0
 10
7.1074981932
 20
5.536277534
 30
0.0
  0
SPLINE
  5
331
100
AcDbEntity
  8
ALL_ASSEMBLY_MEMBERS
100
AcDbSpline
 62
7
  6
CONTINUOUS
 70
0
 71
3
 72
21
 73
17
 74
0
 42
0.0000001
 43
0.0000001
 44
0.0000000001
 40
0.0
 40
0.0
 40
0.0
 40
0.0
 40
0.0503878494
 40
0.1028434321
 40
0.1573259618
 40
0.2137745283
 40
0.2721027131
 40
0.3322106222
 40
0.3939820394
 40
0.4572857164
 40
0.5219819255
 40
0.5879146512
 40
0.7228134135
 40
0.8606756566
 40
0.9302691617
 40
1.0
 40
1.0
 40
1.0
 40
1.0
 10
7.1074981932
 20
5.4856547534
 30
0.0
 10
7.1072410287
 20
5.486018423
 30
0.0
 10
7.1067386824
 20
5.4867768323
 30
0.0
 10
7.1060350854
 20
5.4879771105
 30
0.0
 10
7.1053685026
 20
5.4892590207
 30
0.0
 10
7.1047414602
 20
5.490618038
 30
0.0
 10
7.1041559404
 20
5.4920492821
 30
0.0
 10
7.1036141635
 20
5.4935477414
 30
0.0
 10
7.1031180265
 20
5.495108104
 30
0.0
 10
7.1026691725
 20
5.4967248209
 30
0.0
 10
7.102269392
 20
5.4983922084
 30
0.0
 10
7.1017999177
 20
5.5006923252
 30
0.0
 10
7.1013467968
 20
5.5036539756
 30
0.0
 10
7.1010752638
 20
5.5066700401
 30
0.0
 10
7.1009655462
 20
5.5091180876
 30
0.0
 10
7.1009471211
 20
5.5103497501
 30
0.0
 10
7.1009471211
 20
5.5109661437
 30
0.0
  0
LINE
  5
332
100
AcDbEntity
  8
ALL_ASSEMBLY_MEMBERS
100
AcDbLine
 62
7
  6
CONTINUOUS
 10
7.1097291501
 20
5.4824997241
 11
7.1109649115
 21
5.4809250518
  0
SPLINE
  5
333
100
AcDbEntity
  8
ALL_ASSEMBLY_MEMBERS
100
AcDbSpline
 62
7
  6
CONTINUOUS
 70
0
 71
3
 72
23
 73
19
 74
0
 42
0.0000001
 43
0.0000001
 44
0.0000000001
 40
0.0
 40
0.0
 40
0.0
 40
0.0
 40
0.074727561
 40
0.1465271027
 40
0.2155311032
 40
0.2819211613
 40
0.345923314
 40
0.4078142146
 40
0.4679254708
 40
0.5266350981
 40
0.5843650919
 40
0.6415723157
 40
0.698732868
 40
0.7563291612
 40
0.8148299629
 40
0.8746788638
 40
0.9362835231
 40
1.0
 40
1.0
 40
1.0
 40
1.0
 10
7.1109649115
 20
5.4809250518
 30
0.0
 10
7.1111808082
 20
5.4806784866
 30
0.0
 10
7.1116180119
 20
5.4802068999
 30
0.0
 10
7.1123033868
 20
5.4795550012
 30
0.0
 10
7.1130035628
 20
5.4789746188
 30
0.0
 10
7.1137167985
 20
5.4784671713
 30
0.0
 10
7.1144414728
 20
5.4780340425
 30
0.0
 10
7.1151759375
 20
5.4776766217
 30
0.0
 10
7.1159183292
 20
5.4773958734
 30
0.0
 10
7.1166668188
 20
5.4771927811
 30
0.0
 10
7.1174194829
 20
5.4770682982
 30
0.0
 10
7.1181742473
 20
5.4770228157
 30
0.0
 10
7.1189290504
 20
5.4770566996
 30
0.0
 10
7.119681755
 20
5.477170176
 30
0.0
 10
7.1204302873
 20
5.4773628614
 30
0.0
 10
7.1211726335
 20
5.4776344078
 30
0.0
 10
7.1219066968
 20
5.4779842646
 30
0.0
 10
7.1223807164
 20
5.4782639814
 30
0.0
 10
7.1226154307
 20
5.4784156209
 30
0.0
  0
SPLINE
  5
334
100
AcDbEntity
  8
ALL_ASSEMBLY_MEMBERS
100
AcDbSpline
 62
7
  6
CONTINUOUS
 70
0
 71
3
 72
15
 73
11
 74
0
 42
0.0000001
 43
0.0000001
 44
0.0000000001
 40
0.0
 40
0.0
 40
0.0
 40
0.0
 40
0.1006428617
 40
0.2076929173
 40
0.3216744901
 40
0.442878316
 40
0.5714189859
 40
0.7072720442
 40
0.850274985
 40
1.0
 40
1.0
 40
1.0
 40
1.0
 10
7.1228853929
 20
5.4785960169
 30
0.0
 10
7.1232544149
 20
5.478850845
 30
0.0
 10
7.1239835981
 20
5.4794246704
 30
0.0
 10
7.1250097491
 20
5.4804287021
 30
0.0
 10
7.1259942259
 20
5.4815960912
 30
0.0
 10
7.1269313247
 20
5.4829205553
 30
0.0
 10
7.1278153449
 20
5.4843956084
 30
0.0
 10
7.1286409976
 20
5.4860137479
 30
0.0
 10
7.1294025729
 20
5.4877662127
 30
0.0
 10
7.1298544904
 20
5.488990599
 30
0.0
 10
7.1300694006
 20
5.4896222022
 30
0.0
  0
SPLINE
  5
335
100
AcDbEntity
  8
ALL_ASSEMBLY_MEMBERS
100
AcDbSpline
 62
7
  6
CONTINUOUS
 70
0
 71
3
 72
38
 73
34
 74
0
 42
0.0000001
 43
0.0000001
 44
0.0000000001
 40
0.0
 40
0.0
 40
0.0
 40
0.0
 40
0.0432674032
 40
0.0864385822
 40
0.1718770178
 40
0.2553094381
 40
0.2959981939
 40
0.3358496956
 40
0.3747619144
 40
0.4126424478
 40
0.4494056532
 40
0.4849786932
 40
0.519297932
 40
0.5523143106
 40
0.5839955934
 40
0.6143244353
 40
0.6433074194
 40
0.6709716922
 40
0.6973714329
 40
0.7101257797
 40
0.7225981343
 40
0.7467525685
 40
0.7699919655
 40
0.7924982398
 40
0.8144840944
 40
0.8361861417
 40
0.857854267
 40
0.879740329
 40
0.9020852877
 40
0.9251094947
 40
0.9490029735
 40
0.9739252797
 40
1.0
 40
1.0
 40
1.0
 40
1.0
 10
7.1319471211
 20
5.5109661437
 30
0.0
 10
7.1319471211
 20
5.5103209617
 30
0.0
 10
7.13192694
 20
5.5090319299
 30
0.0
 10
7.1318068148
 20
5.5064714774
 30
0.0
 10
7.1315097919
 20
5.5033213083
 30
0.0
 10
7.1310140792
 20
5.5002334571
 30
0.0
 10
7.130500731
 20
5.4978424215
 30
0.0
 10
7.1300641736
 20
5.4961151023
 30
0.0
 10
7.1295745566
 20
5.4944456495
 30
0.0
 10
7.1290339403
 20
5.4928404842
 30
0.0
 10
7.1284441982
 20
5.4913058916
 30
0.0
 10
7.1278078174
 20
5.4898477542
 30
0.0
 10
7.1271271498
 20
5.4884717493
 30
0.0
 10
7.126404759
 20
5.4871832394
 30
0.0
 10
7.125643585
 20
5.4859871037
 30
0.0
 10
7.1248462698
 20
5.4848881123
 30
0.0
 10
7.1240160111
 20
5.4838903787
 30
0.0
 10
7.1231558638
 20
5.4829978816
 30
0.0
 10
7.1224082371
 20
5.4823372947
 30
0.0
 10
7.1217984875
 20
5.4818669576
 30
0.0
 10
7.1211951914
 20
5.4814444004
 30
0.0
 10
7.1204278848
 20
5.4809850369
 30
0.0
 10
7.1194807761
 20
5.4805450293
 30
0.0
 10
7.1185206791
 20
5.4802242819
 30
0.0
 10
7.1175515447
 20
5.4800246318
 30
0.0
 10
7.1165775487
 20
5.4799468616
 30
0.0
 10
7.1156029623
 20
5.4799918427
 30
0.0
 10
7.1146321225
 20
5.4801589736
 30
0.0
 10
7.1136692001
 20
5.4804474278
 30
0.0
 10
7.1127182553
 20
5.4808557786
 30
0.0
 10
7.1117828596
 20
5.4813817621
 30
0.0
 10
7.110866813
 20
5.4820232527
 30
0.0
 10
7.1102848437
 20
5.4825144244
 30
0.0
 10
7.1099979971
 20
5.4827769026
 30
0.0
  0
LINE
  5
336
100
AcDbEntity
  8
ALL_ASSEMBLY_MEMBERS
100
AcDbLine
 62
7
  6
CONTINUOUS
 10
7.1098223973
 20
5.482940245
 11
7.1074981932
 21
5.4856547534
  0
SPLINE
  5
337
100
AcDbEntity
  8
ALL_ASSEMBLY_MEMBERS
100
AcDbSpline
 62
7
  6
CONTINUOUS
 70
0
 71
3
 72
15
 73
11
 74
0
 42
0.0000001
 43
0.0000001
 44
0.0000000001
 40
0.0
 40
0.0
 40
0.0
 40
0.0
 40
0.1121665338
 40
0.2292643196
 40
0.3507151327
 40
0.4759214496
 40
0.6041974547
 40
0.7348077954
 40
0.8670170328
 40
1.0
 40
1.0
 40
1.0
 40
1.0
 10
7.1300694006
 20
5.4896222022
 30
0.0
 10
7.1303949742
 20
5.4903717236
 30
0.0
 10
7.1310089661
 20
5.4919264769
 30
0.0
 10
7.1318038755
 20
5.4943561636
 30
0.0
 10
7.1324874811
 20
5.4969179123
 30
0.0
 10
7.1330543963
 20
5.4995911465
 30
0.0
 10
7.1335000445
 20
5.5023547885
 30
0.0
 10
7.1338209839
 20
5.5051869809
 30
0.0
 10
7.1340145185
 20
5.5080649971
 30
0.0
 10
7.1340576303
 20
5.5099973092
 30
0.0
 10
7.1340576303
 20
5.5109661437
 30
0.0
  0
SPLINE
  5
338
100
AcDbEntity
  8
ALL_ASSEMBLY_MEMBERS
100
AcDbSpline
 62
7
  6
CONTINUOUS
 70
0
 71
3
 72
12
 73
8
 74
0
 42
0.0000001
 43
0.0000001
 44
0.0000000001
 40
0.0
 40
0.0
 40
0.0
 40
0.0
 40
0.2651583944
 40
0.3941333112
 40
0.5205828766
 40
0.7656434023
 40
1.0
 40
1.0
 40
1.0
 40
1.0
 10
7.135016907
 20
5.5271759735
 30
0.0
 10
7.1345532381
 20
5.5279961927
 30
0.0
 10
7.1338235773
 20
5.5291934092
 30
0.0
 10
7.1327733999
 20
5.5307166673
 30
0.0
 10
7.1317070461
 20
5.5321404205
 30
0.0
 10
7.130311011
 20
5.5337828727
 30
0.0
 10
7.129089592
 20
5.5349751226
 30
0.0
 10
7.1284632772
 20
5.5355239478
 30
0.0
  0
SPLINE
  5
339
100
AcDbEntity
  8
ALL_ASSEMBLY_MEMBERS
100
AcDbSpline
 62
7
  6
CONTINUOUS
 70
0
 71
3
 72
18
 73
14
 74
0
 42
0.0000001
 43
0.0000001
 44
0.0000000001
 40
0.0
 40
0.0
 40
0.0
 40
0.0
 40
0.136454386
 40
0.2717543332
 40
0.4047383481
 40
0.5343241107
 40
0.6594861088
 40
0.7201250916
 40
0.7793211774
 40
0.8369835643
 40
0.8930359242
 40
0.9474020501
 40
1.0
 40
1.0
 40
1.0
 40
1.0
 10
7.1340576303
 20
5.5109661437
 30
0.0
 10
7.1340576303
 20
5.5121237522
 30
0.0
 10
7.1339962155
 20
5.5144296574
 30
0.0
 10
7.133720594
 20
5.5178537749
 30
0.0
 10
7.1332646286
 20
5.5211999895
 30
0.0
 10
7.132633655
 20
5.5244300941
 30
0.0
 10
7.131960908
 20
5.5270217816
 30
0.0
 10
7.1313385077
 20
5.5290051922
 30
0.0
 10
7.1308379961
 20
5.5304257198
 30
0.0
 10
7.1303002788
 20
5.5317908599
 30
0.0
 10
7.1297268452
 20
5.5330968024
 30
0.0
 10
7.1291193782
 20
5.5343396165
 30
0.0
 10
7.1286856887
 20
5.5351371146
 30
0.0
 10
7.1284632772
 20
5.5355239478
 30
0.0
  0
SPLINE
  5
33A
100
AcDbEntity
  8
ALL_ASSEMBLY_MEMBERS
100
AcDbSpline
 62
7
  6
CONTINUOUS
 70
0
 71
3
 72
41
 73
37
 74
0
 42
0.0000001
 43
0.0000001
 44
0.0000000001
 40
0.0
 40
0.0
 40
0.0
 40
0.0
 40
0.0300946741
 40
0.0587163514
 40
0.0859100308
 40
0.0990001432
 40
0.111768357
 40
0.1363989401
 40
0.1599776261
 40
0.1827161092
 40
0.2048663743
 40
0.226712658
 40
0.2485563091
 40
0.2706988519
 40
0.2934249288
 40
0.3169872071
 40
0.341598068
 40
0.3543554505
 40
0.3674342045
 40
0.3946038685
 40
0.4232004219
 40
0.4532694596
 40
0.4848279254
 40
0.5178620231
 40
0.5523354606
 40
0.5881908435
 40
0.6253515206
 40
0.6637278982
 40
0.7032148418
 40
0.7436983711
 40
0.7850505203
 40
0.8271362901
 40
0.8698205342
 40
0.912967591
 40
0.9564227488
 40
1.0
 40
1.0
 40
1.0
 40
1.0
 10
7.1074981932
 20
5.536277534
 30
0.0
 10
7.1077794031
 20
5.5366752074
 30
0.0
 10
7.1083541405
 20
5.5374331761
 30
0.0
 10
7.1092758373
 20
5.5384759367
 30
0.0
 10
7.110082588
 20
5.5392481664
 30
0.0
 10
7.1107431231
 20
5.5397971729
 30
0.0
 10
7.1113963304
 20
5.5402885258
 30
0.0
 10
7.1122293114
 20
5.5408214724
 30
0.0
 10
7.113262001
 20
5.5413293071
 30
0.0
 10
7.1143111451
 20
5.5416949494
 30
0.0
 10
7.1153716333
 20
5.5419157419
 30
0.0
 10
7.1164379114
 20
5.5419905348
 30
0.0
 10
7.1175042404
 20
5.5419182748
 30
0.0
 10
7.1185648753
 20
5.541699992
 30
0.0
 10
7.1196142614
 20
5.541336833
 30
0.0
 10
7.1206472731
 20
5.5408314259
 30
0.0
 10
7.1214806042
 20
5.5403004307
 30
0.0
 10
7.1221341133
 20
5.5398106085
 30
0.0
 10
7.1227949707
 20
5.5392631582
 30
0.0
 10
7.1236021795
 20
5.538492836
 30
0.0
 10
7.1245245278
 20
5.5374521916
 30
0.0
 10
7.1254089977
 20
5.5362887608
 30
0.0
 10
7.126251307
 20
5.5350077924
 30
0.0
 10
7.1270479134
 20
5.5336153171
 30
0.0
 10
7.1277950738
 20
5.5321176823
 30
0.0
 10
7.1284893801
 20
5.5305218188
 30
0.0
 10
7.1291277546
 20
5.5288351331
 30
0.0
 10
7.1297070474
 20
5.5270653684
 30
0.0
 10
7.1302248314
 20
5.5252207721
 30
0.0
 10
7.1306784176
 20
5.5233098554
 30
0.0
 10
7.1310659539
 20
5.5213416064
 30
0.0
 10
7.1313854964
 20
5.5193251354
 30
0.0
 10
7.1316356049
 20
5.5172696359
 30
0.0
 10
7.1318150884
 20
5.5151845294
 30
0.0
 10
7.1319230165
 20
5.5130800623
 30
0.0
 10
7.1319471211
 20
5.5116714028
 30
0.0
 10
7.1319471211
 20
5.5109661437
 30
0.0
  0
SPLINE
  5
33B
100
AcDbEntity
  8
ALL_ASSEMBLY_MEMBERS
100
AcDbSpline
 62
7
  6
CONTINUOUS
 70
0
 71
3
 72
44
 73
40
 74
0
 42
0.0000001
 43
0.0000001
 44
0.0000000001
 40
0.0
 40
0.0
 40
0.0
 40
0.0
 40
0.0312532697
 40
0.0637710178
 40
0.0974612966
 40
0.1322367854
 40
0.1679986199
 40
0.2046243525
 40
0.2419800386
 40
0.2799219822
 40
0.318299551
 40
0.3569543762
 40
0.3957241632
 40
0.434443459
 40
0.472945862
 40
0.5110654511
 40
0.5486382945
 40
0.5855047071
 40
0.6215101222
 40
0.6565080439
 40
0.6903606752
 40
0.7229425251
 40
0.7541412575
 40
0.7838620266
 40
0.8120292361
 40
0.8385919421
 40
0.8512654836
 40
0.8635326084
 40
0.8868538494
 40
0.8979277641
 40
0.9086231698
 40
0.9289316911
 40
0.947953048
 40
0.9570575937
 40
0.9659334632
 40
0.9746207306
 40
0.9831629226
 40
0.991606431
 40
1.0
 40
1.0
 40
1.0
 40
1.0
 10
7.1284632772
 20
5.5355239478
 30
0.0
 10
7.1288354359
 20
5.5349732522
 30
0.0
 10
7.1295568514
 20
5.5338235553
 30
0.0
 10
7.1305507596
 20
5.5320034714
 30
0.0
 10
7.1314732796
 20
5.530062937
 30
0.0
 10
7.1323201992
 20
5.5280135314
 30
0.0
 10
7.1330875713
 20
5.525866702
 30
0.0
 10
7.1337722353
 20
5.5236346973
 30
0.0
 10
7.1343709053
 20
5.5213302283
 30
0.0
 10
7.1348813545
 20
5.5189665443
 30
0.0
 10
7.1353013731
 20
5.5165571122
 30
0.0
 10
7.1356297216
 20
5.5141157463
 30
0.0
 10
7.1358652304
 20
5.5116563988
 30
0.0
 10
7.1360077027
 20
5.5091931689
 30
0.0
 10
7.1360570597
 20
5.5067401481
 30
0.0
 10
7.1360141537
 20
5.5043113856
 30
0.0
 10
7.1358799868
 20
5.5019207848
 30
0.0
 10
7.1356564491
 20
5.4995820199
 30
0.0
 10
7.1353455967
 20
5.4973084769
 30
0.0
 10
7.1349503148
 20
5.495113133
 30
0.0
 10
7.1344736564
 20
5.4930085401
 30
0.0
 10
7.1339194292
 20
5.4910066666
 30
0.0
 10
7.1332915973
 20
5.4891189341
 30
0.0
 10
7.1325947747
 20
5.487355992
 30
0.0
 10
7.1318337233
 20
5.4857279224
 30
0.0
 10
7.1311398614
 20
5.484472041
 30
0.0
 10
7.1305554733
 20
5.483545319
 30
0.0
 10
7.1299732839
 20
5.4826998155
 30
0.0
 10
7.1293588518
 20
5.4819184278
 30
0.0
 10
7.1287111785
 20
5.4812107547
 30
0.0
 10
7.1280729832
 20
5.4805829899
 30
0.0
 10
7.1272535321
 20
5.4799004603
 30
0.0
 10
7.1263812513
 20
5.4793460103
 30
0.0
 10
7.1256741903
 20
5.4789991372
 30
0.0
 10
7.1251468673
 20
5.4787887856
 30
0.0
 10
7.1246158284
 20
5.4786247861
 30
0.0
 10
7.1240819466
 20
5.4785073811
 30
0.0
 10
7.1235461971
 20
5.4784368266
 30
0.0
 10
7.1231879294
 20
5.4784211598
 30
0.0
 10
7.1230094253
 20
5.4784211701
 30
0.0
  0
SPLINE
  5
33C
100
AcDbEntity
  8
ALL_ASSEMBLY_MEMBERS
100
AcDbSpline
 62
7
  6
CONTINUOUS
 70
0
 71
3
 72
11
 73
7
 74
0
 42
0.0000001
 43
0.0000001
 44
0.0000000001
 40
0.0
 40
0.0
 40
0.0
 40
0.0
 40
0.2337525309
 40
0.474396298
 40
0.728122421
 40
1.0
 40
1.0
 40
1.0
 40
1.0
 10
1.568226001
 20
5.2822329953
 30
0.0
 10
1.5681830696
 20
5.2821185115
 30
0.0
 10
1.5681177683
 20
5.2818773627
 30
0.0
 10
1.5680866162
 20
5.2814958954
 30
0.0
 10
1.5681211341
 20
5.2810949497
 30
0.0
 10
1.5681848369
 20
5.280826493
 30
0.0
 10
1.568226001
 20
5.2806903702
 30
0.0
  0
SPLINE
  5
33D
100
AcDbEntity
  8
ALL_ASSEMBLY_MEMBERS
100
AcDbSpline
 62
7
  6
CONTINUOUS
 70
0
 71
3
 72
9
 73
5
 74
0
 42
0.0000001
 43
0.0000001
 44
0.0000000001
 40
0.0
 40
0.0
 40
0.0
 40
0.0
 40
0.4954457948
 40
1.0
 40
1.0
 40
1.0
 40
1.0
 10
1.568226001
 20
5.2806903702
 30
0.0
 10
1.5681397555
 20
5.2800799181
 30
0.0
 10
1.5680544165
 20
5.2788338179
 30
0.0
 10
1.5681412827
 20
5.2775882503
 30
0.0
 10
1.568226001
 20
5.2769661437
 30
0.0
  0
SPLINE
  5
33E
100
AcDbEntity
  8
ALL_ASSEMBLY_MEMBERS
100
AcDbSpline
 62
7
  6
CONTINUOUS
 70
0
 71
3
 72
9
 73
5
 74
0
 42
0.0000001
 43
0.0000001
 44
0.0000000001
 40
0.0
 40
0.0
 40
0.0
 40
0.0
 40
0.5045542061
 40
1.0
 40
1.0
 40
1.0
 40
1.0
 10
1.568226001
 20
5.2769661437
 30
0.0
 10
1.5681412827
 20
5.276344037
 30
0.0
 10
1.5680544165
 20
5.2750984694
 30
0.0
 10
1.5681397555
 20
5.2738523693
 30
0.0
 10
1.568226001
 20
5.2732419172
 30
0.0
  0
SPLINE
  5
33F
100
AcDbEntity
  8
ALL_ASSEMBLY_MEMBERS
100
AcDbSpline
 62
7
  6
CONTINUOUS
 70
0
 71
3
 72
11
 73
7
 74
0
 42
0.0000001
 43
0.0000001
 44
0.0000000001
 40
0.0
 40
0.0
 40
0.0
 40
0.0
 40
0.2718775796
 40
0.525603703
 40
0.7662474692
 40
1.0
 40
1.0
 40
1.0
 40
1.0
 10
1.568226001
 20
5.2732419172
 30
0.0
 10
1.5681848369
 20
5.2731057944
 30
0.0
 10
1.5681211341
 20
5.2728373376
 30
0.0
 10
1.5680866162
 20
5.272436392
 30
0.0
 10
1.5681177684
 20
5.2720549246
 30
0.0
 10
1.5681830696
 20
5.2718137758
 30
0.0
 10
1.568226001
 20
5.2716992921
 30
0.0
  0
SPLINE
  5
340
100
AcDbEntity
  8
ALL_ASSEMBLY_MEMBERS
100
AcDbSpline
 62
7
  6
CONTINUOUS
 70
0
 71
3
 72
14
 73
10
 74
0
 42
0.0000001
 43
0.0000001
 44
0.0000000001
 40
0.0
 40
0.0
 40
0.0
 40
0.0
 40
0.1064471009
 40
0.218674106
 40
0.336944638
 40
0.4612118846
 40
0.7243345428
 40
0.8614582317
 40
1.0
 40
1.0
 40
1.0
 40
1.0
 10
1.637601001
 20
5.4656903702
 30
0.0
 10
1.6378729073
 20
5.4662030815
 30
0.0
 10
1.6385361912
 20
5.4672032111
 30
0.0
 10
1.6398042648
 20
5.4685428428
 30
0.0
 10
1.6413411058
 20
5.4697293199
 30
0.0
 10
1.6437426837
 20
5.4710969959
 30
0.0
 10
1.6464833112
 20
5.4720210564
 30
0.0
 10
1.6493860534
 20
5.4724920706
 30
0.0
 10
1.6508906087
 20
5.4725727454
 30
0.0
 10
1.6516459387
 20
5.4725727454
 30
0.0
  0
SPLINE
  5
341
100
AcDbEntity
  8
ALL_ASSEMBLY_MEMBERS
100
AcDbSpline
 62
7
  6
CONTINUOUS
 70
0
 71
3
 72
11
 73
7
 74
0
 42
0.0000001
 43
0.0000001
 44
0.0000000001
 40
0.0
 40
0.0
 40
0.0
 40
0.0
 40
0.2337525308
 40
0.474396297
 40
0.7281224204
 40
1.0
 40
1.0
 40
1.0
 40
1.0
 10
1.637601001
 20
5.4672329953
 30
0.0
 10
1.6375580696
 20
5.4671185115
 30
0.0
 10
1.6374927684
 20
5.4668773627
 30
0.0
 10
1.6374616162
 20
5.4664958954
 30
0.0
 10
1.6374961341
 20
5.4660949497
 30
0.0
 10
1.6375598369
 20
5.465826493
 30
0.0
 10
1.637601001
 20
5.4656903702
 30
0.0
  0
SPLINE
  5
342
100
AcDbEntity
  8
ALL_ASSEMBLY_MEMBERS
100
AcDbSpline
 62
7
  6
CONTINUOUS
 70
0
 71
3
 72
14
 73
10
 74
0
 42
0.0000001
 43
0.0000001
 44
0.0000000001
 40
0.0
 40
0.0
 40
0.0
 40
0.0
 40
0.1064470759
 40
0.2186739866
 40
0.3369443883
 40
0.4612114757
 40
0.724333886
 40
0.861457983
 40
1.0
 40
1.0
 40
1.0
 40
1.0
 10
1.637601001
 20
5.3573198792
 30
0.0
 10
1.6378729072
 20
5.3578325904
 30
0.0
 10
1.6385361906
 20
5.3588327196
 30
0.0
 10
1.6398042633
 20
5.3601723503
 30
0.0
 10
1.6413411023
 20
5.3613588265
 30
0.0
 10
1.643742677
 20
5.362726502
 30
0.0
 10
1.6464833039
 20
5.3636505648
 30
0.0
 10
1.6493860486
 20
5.3641215779
 30
0.0
 10
1.6508906074
 20
5.3642022544
 30
0.0
 10
1.6516459387
 20
5.3642022544
 30
0.0
  0
SPLINE
  5
343
100
AcDbEntity
  8
ALL_ASSEMBLY_MEMBERS
100
AcDbSpline
 62
7
  6
CONTINUOUS
 70
0
 71
3
 72
9
 73
5
 74
0
 42
0.0000001
 43
0.0000001
 44
0.0000000001
 40
0.0
 40
0.0
 40
0.0
 40
0.0
 40
0.4954457948
 40
1.0
 40
1.0
 40
1.0
 40
1.0
 10
1.637601001
 20
5.3573198792
 30
0.0
 10
1.6375147555
 20
5.3567094271
 30
0.0
 10
1.6374294165
 20
5.355463327
 30
0.0
 10
1.6375162827
 20
5.3542177594
 30
0.0
 10
1.637601001
 20
5.3535956527
 30
0.0
  0
SPLINE
  5
344
100
AcDbEntity
  8
ALL_ASSEMBLY_MEMBERS
100
AcDbSpline
 62
7
  6
CONTINUOUS
 70
0
 71
3
 72
14
 73
10
 74
0
 42
0.0000001
 43
0.0000001
 44
0.0000000001
 40
0.0
 40
0.0
 40
0.0
 40
0.0
 40
0.1064471009
 40
0.218674106
 40
0.336944638
 40
0.4612118846
 40
0.7243345428
 40
0.8614582317
 40
1.0
 40
1.0
 40
1.0
 40
1.0
 10
1.637601001
 20
5.1966124081
 30
0.0
 10
1.6378729073
 20
5.1960996968
 30
0.0
 10
1.6385361912
 20
5.1950995672
 30
0.0
 10
1.6398042648
 20
5.1937599355
 30
0.0
 10
1.6413411058
 20
5.1925734584
 30
0.0
 10
1.6437426837
 20
5.1912057824
 30
0.0
 10
1.6464833112
 20
5.1902817219
 30
0.0
 10
1.6493860534
 20
5.1898107078
 30
0.0
 10
1.6508906087
 20
5.1897300329
 30
0.0
 10
1.6516459387
 20
5.1897300329
 30
0.0
  0
SPLINE
  5
345
100
AcDbEntity
  8
ALL_ASSEMBLY_MEMBERS
100
AcDbSpline
 62
7
  6
CONTINUOUS
 70
0
 71
3
 72
9
 73
5
 74
0
 42
0.0000001
 43
0.0000001
 44
0.0000000001
 40
0.0
 40
0.0
 40
0.0
 40
0.0
 40
0.5045542052
 40
1.0
 40
1.0
 40
1.0
 40
1.0
 10
1.637601001
 20
5.2003366346
 30
0.0
 10
1.6375162827
 20
5.199714528
 30
0.0
 10
1.6374294165
 20
5.1984689604
 30
0.0
 10
1.6375147555
 20
5.1972228602
 30
0.0
 10
1.637601001
 20
5.1966124081
 30
0.0
  0
SPLINE
  5
346
100
AcDbEntity
  8
ALL_ASSEMBLY_MEMBERS
100
AcDbSpline
 62
7
  6
CONTINUOUS
 70
0
 71
3
 72
14
 73
10
 74
0
 42
0.0000001
 43
0.0000001
 44
0.0000000001
 40
0.0
 40
0.0
 40
0.0
 40
0.0
 40
0.1064470759
 40
0.2186739866
 40
0.3369443883
 40
0.4612114757
 40
0.724333886
 40
0.861457983
 40
1.0
 40
1.0
 40
1.0
 40
1.0
 10
1.637601001
 20
5.0882419172
 30
0.0
 10
1.6378729072
 20
5.087729206
 30
0.0
 10
1.6385361906
 20
5.0867290768
 30
0.0
 10
1.6398042633
 20
5.0853894461
 30
0.0
 10
1.6413411023
 20
5.0842029699
 30
0.0
 10
1.643742677
 20
5.0828352944
 30
0.0
 10
1.6464833039
 20
5.0819112316
 30
0.0
 10
1.6493860486
 20
5.0814402185
 30
0.0
 10
1.6508906074
 20
5.081359542
 30
0.0
 10
1.6516459387
 20
5.081359542
 30
0.0
  0
SPLINE
  5
347
100
AcDbEntity
  8
ALL_ASSEMBLY_MEMBERS
100
AcDbSpline
 62
7
  6
CONTINUOUS
 70
0
 71
3
 72
11
 73
7
 74
0
 42
0.0000001
 43
0.0000001
 44
0.0000000001
 40
0.0
 40
0.0
 40
0.0
 40
0.0
 40
0.2718775795
 40
0.525603703
 40
0.7662474693
 40
1.0
 40
1.0
 40
1.0
 40
1.0
 10
1.637601001
 20
5.0882419172
 30
0.0
 10
1.6375598369
 20
5.0881057944
 30
0.0
 10
1.6374961341
 20
5.0878373376
 30
0.0
 10
1.6374616162
 20
5.087436392
 30
0.0
 10
1.6374927684
 20
5.0870549246
 30
0.0
 10
1.6375580696
 20
5.0868137758
 30
0.0
 10
1.637601001
 20
5.0866992921
 30
0.0
  0
SPLINE
  5
348
100
AcDbEntity
  8
ALL_ASSEMBLY_MEMBERS
100
AcDbSpline
 62
7
  6
CONTINUOUS
 70
0
 71
3
 72
11
 73
7
 74
0
 42
0.0000001
 43
0.0000001
 44
0.0000000001
 40
0.0
 40
0.0
 40
0.0
 40
0.0
 40
0.2337525309
 40
0.474396298
 40
0.728122421
 40
1.0
 40
1.0
 40
1.0
 40
1.0
 10
8.9244758623
 20
5.2716992921
 30
0.0
 10
8.9245187937
 20
5.2718137758
 30
0.0
 10
8.924584095
 20
5.2720549246
 30
0.0
 10
8.9246152472
 20
5.272436392
 30
0.0
 10
8.9245807292
 20
5.2728373376
 30
0.0
 10
8.9245170264
 20
5.2731057944
 30
0.0
 10
8.9244758623
 20
5.2732419172
 30
0.0
  0
SPLINE
  5
349
100
AcDbEntity
  8
ALL_ASSEMBLY_MEMBERS
100
AcDbSpline
 62
7
  6
CONTINUOUS
 70
0
 71
3
 72
9
 73
5
 74
0
 42
0.0000001
 43
0.0000001
 44
0.0000000001
 40
0.0
 40
0.0
 40
0.0
 40
0.0
 40
0.4954457948
 40
1.0
 40
1.0
 40
1.0
 40
1.0
 10
8.9244758623
 20
5.2732419172
 30
0.0
 10
8.9245621079
 20
5.2738523693
 30
0.0
 10
8.9246474469
 20
5.2750984694
 30
0.0
 10
8.9245605807
 20
5.276344037
 30
0.0
 10
8.9244758623
 20
5.2769661437
 30
0.0
  0
SPLINE
  5
34A
100
AcDbEntity
  8
ALL_ASSEMBLY_MEMBERS
100
AcDbSpline
 62
7
  6
CONTINUOUS
 70
0
 71
3
 72
11
 73
7
 74
0
 42
0.0000001
 43
0.0000001
 44
0.0000000001
 40
0.0
 40
0.0
 40
0.0
 40
0.0
 40
0.2718775796
 40
0.525603703
 40
0.7662474692
 40
1.0
 40
1.0
 40
1.0
 40
1.0
 10
8.9244758623
 20
5.2806903702
 30
0.0
 10
8.9245170264
 20
5.280826493
 30
0.0
 10
8.9245807292
 20
5.2810949497
 30
0.0
 10
8.9246152472
 20
5.2814958954
 30
0.0
 10
8.924584095
 20
5.2818773627
 30
0.0
 10
8.9245187937
 20
5.2821185115
 30
0.0
 10
8.9244758623
 20
5.2822329953
 30
0.0
  0
SPLINE
  5
34B
100
AcDbEntity
  8
ALL_ASSEMBLY_MEMBERS
100
AcDbSpline
 62
7
  6
CONTINUOUS
 70
0
 71
3
 72
9
 73
5
 74
0
 42
0.0000001
 43
0.0000001
 44
0.0000000001
 40
0.0
 40
0.0
 40
0.0
 40
0.0
 40
0.5045542061
 40
1.0
 40
1.0
 40
1.0
 40
1.0
 10
8.9244758623
 20
5.2769661437
 30
0.0
 10
8.9245605807
 20
5.2775882503
 30
0.0
 10
8.9246474469
 20
5.2788338179
 30
0.0
 10
8.9245621079
 20
5.2800799181
 30
0.0
 10
8.9244758623
 20
5.2806903702
 30
0.0
  0
SPLINE
  5
34C
100
AcDbEntity
  8
ALL_ASSEMBLY_MEMBERS
100
AcDbSpline
 62
7
  6
CONTINUOUS
 70
0
 71
3
 72
14
 73
10
 74
0
 42
0.0000001
 43
0.0000001
 44
0.0000000001
 40
0.0
 40
0.0
 40
0.0
 40
0.0
 40
0.1064471009
 40
0.218674106
 40
0.336944638
 40
0.4612118846
 40
0.7243345428
 40
0.8614582317
 40
1.0
 40
1.0
 40
1.0
 40
1.0
 10
8.8551008623
 20
5.0882419172
 30
0.0
 10
8.8548289561
 20
5.0877292059
 30
0.0
 10
8.8541656722
 20
5.0867290763
 30
0.0
 10
8.8528975986
 20
5.0853894446
 30
0.0
 10
8.8513607576
 20
5.0842029674
 30
0.0
 10
8.8489591797
 20
5.0828352914
 30
0.0
 10
8.8462185522
 20
5.081911231
 30
0.0
 10
8.84331581
 20
5.0814402168
 30
0.0
 10
8.8418112546
 20
5.081359542
 30
0.0
 10
8.8410559247
 20
5.081359542
 30
0.0
  0
SPLINE
  5
34D
100
AcDbEntity
  8
ALL_ASSEMBLY_MEMBERS
100
AcDbSpline
 62
7
  6
CONTINUOUS
 70
0
 71
3
 72
11
 73
7
 74
0
 42
0.0000001
 43
0.0000001
 44
0.0000000001
 40
0.0
 40
0.0
 40
0.0
 40
0.0
 40
0.2337525308
 40
0.474396297
 40
0.7281224204
 40
1.0
 40
1.0
 40
1.0
 40
1.0
 10
8.8551008623
 20
5.0866992921
 30
0.0
 10
8.8551437937
 20
5.0868137758
 30
0.0
 10
8.855209095
 20
5.0870549246
 30
0.0
 10
8.8552402472
 20
5.087436392
 30
0.0
 10
8.8552057292
 20
5.0878373376
 30
0.0
 10
8.8551420264
 20
5.0881057944
 30
0.0
 10
8.8551008623
 20
5.0882419172
 30
0.0
  0
SPLINE
  5
34E
100
AcDbEntity
  8
ALL_ASSEMBLY_MEMBERS
100
AcDbSpline
 62
7
  6
CONTINUOUS
 70
0
 71
3
 72
14
 73
10
 74
0
 42
0.0000001
 43
0.0000001
 44
0.0000000001
 40
0.0
 40
0.0
 40
0.0
 40
0.0
 40
0.1064470759
 40
0.2186739866
 40
0.3369443883
 40
0.4612114757
 40
0.724333886
 40
0.861457983
 40
1.0
 40
1.0
 40
1.0
 40
1.0
 10
8.8551008623
 20
5.1966124081
 30
0.0
 10
8.8548289562
 20
5.196099697
 30
0.0
 10
8.8541656728
 20
5.1950995678
 30
0.0
 10
8.8528976001
 20
5.1937599371
 30
0.0
 10
8.8513607611
 20
5.1925734609
 30
0.0
 10
8.8489591864
 20
5.1912057854
 30
0.0
 10
8.8462185595
 20
5.1902817225
 30
0.0
 10
8.8433158148
 20
5.1898107095
 30
0.0
 10
8.841811256
 20
5.1897300329
 30
0.0
 10
8.8410559247
 20
5.1897300329
 30
0.0
  0
SPLINE
  5
34F
100
AcDbEntity
  8
ALL_ASSEMBLY_MEMBERS
100
AcDbSpline
 62
7
  6
CONTINUOUS
 70
0
 71
3
 72
9
 73
5
 74
0
 42
0.0000001
 43
0.0000001
 44
0.0000000001
 40
0.0
 40
0.0
 40
0.0
 40
0.0
 40
0.4954457948
 40
1.0
 40
1.0
 40
1.0
 40
1.0
 10
8.8551008623
 20
5.1966124081
 30
0.0
 10
8.8551871079
 20
5.1972228602
 30
0.0
 10
8.8552724469
 20
5.1984689604
 30
0.0
 10
8.8551855807
 20
5.199714528
 30
0.0
 10
8.8551008623
 20
5.2003366346
 30
0.0
  0
SPLINE
  5
350
100
AcDbEntity
  8
ALL_ASSEMBLY_MEMBERS
100
AcDbSpline
 62
7
  6
CONTINUOUS
 70
0
 71
3
 72
14
 73
10
 74
0
 42
0.0000001
 43
0.0000001
 44
0.0000000001
 40
0.0
 40
0.0
 40
0.0
 40
0.0
 40
0.1064470759
 40
0.2186739866
 40
0.3369443883
 40
0.4612114757
 40
0.724333886
 40
0.861457983
 40
1.0
 40
1.0
 40
1.0
 40
1.0
 10
8.8551008623
 20
5.4656903702
 30
0.0
 10
8.8548289562
 20
5.4662030814
 30
0.0
 10
8.8541656728
 20
5.4672032105
 30
0.0
 10
8.8528976001
 20
5.4685428412
 30
0.0
 10
8.8513607611
 20
5.4697293175
 30
0.0
 10
8.8489591864
 20
5.4710969929
 30
0.0
 10
8.8462185595
 20
5.4720210558
 30
0.0
 10
8.8433158148
 20
5.4724920689
 30
0.0
 10
8.841811256
 20
5.4725727454
 30
0.0
 10
8.8410559247
 20
5.4725727454
 30
0.0
  0
SPLINE
  5
351
100
AcDbEntity
  8
ALL_ASSEMBLY_MEMBERS
100
AcDbSpline
 62
7
  6
CONTINUOUS
 70
0
 71
3
 72
11
 73
7
 74
0
 42
0.0000001
 43
0.0000001
 44
0.0000000001
 40
0.0
 40
0.0
 40
0.0
 40
0.0
 40
0.2718775795
 40
0.525603703
 40
0.7662474693
 40
1.0
 40
1.0
 40
1.0
 40
1.0
 10
8.8551008623
 20
5.4656903702
 30
0.0
 10
8.8551420264
 20
5.465826493
 30
0.0
 10
8.8552057292
 20
5.4660949497
 30
0.0
 10
8.8552402472
 20
5.4664958954
 30
0.0
 10
8.855209095
 20
5.4668773627
 30
0.0
 10
8.8551437937
 20
5.4671185115
 30
0.0
 10
8.8551008623
 20
5.4672329953
 30
0.0
  0
SPLINE
  5
352
100
AcDbEntity
  8
ALL_ASSEMBLY_MEMBERS
100
AcDbSpline
 62
7
  6
CONTINUOUS
 70
0
 71
3
 72
14
 73
10
 74
0
 42
0.0000001
 43
0.0000001
 44
0.0000000001
 40
0.0
 40
0.0
 40
0.0
 40
0.0
 40
0.1064470569
 40
0.2186739238
 40
0.3369442837
 40
0.4612113046
 40
0.7243334057
 40
0.861457773
 40
1.0
 40
1.0
 40
1.0
 40
1.0
 10
8.8551008623
 20
5.3573198792
 30
0.0
 10
8.8548289562
 20
5.3578325903
 30
0.0
 10
8.8541656731
 20
5.3588327193
 30
0.0
 10
8.8528976008
 20
5.3601723495
 30
0.0
 10
8.8513607626
 20
5.3613588255
 30
0.0
 10
8.84895919
 20
5.3627265
 30
0.0
 10
8.8462185643
 20
5.3636505648
 30
0.0
 10
8.8433158185
 20
5.3641215764
 30
0.0
 10
8.8418112571
 20
5.3642022544
 30
0.0
 10
8.8410559247
 20
5.3642022544
 30
0.0
  0
SPLINE
  5
353
100
AcDbEntity
  8
ALL_ASSEMBLY_MEMBERS
100
AcDbSpline
 62
7
  6
CONTINUOUS
 70
0
 71
3
 72
9
 73
5
 74
0
 42
0.0000001
 43
0.0000001
 44
0.0000000001
 40
0.0
 40
0.0
 40
0.0
 40
0.0
 40
0.5045541733
 40
1.0
 40
1.0
 40
1.0
 40
1.0
 10
8.8551008623
 20
5.3535956527
 30
0.0
 10
8.8551855807
 20
5.3542177593
 30
0.0
 10
8.8552724469
 20
5.3554633269
 30
0.0
 10
8.8551871079
 20
5.3567094271
 30
0.0
 10
8.8551008623
 20
5.3573198792
 30
0.0
  0
SPLINE
  5
354
100
AcDbEntity
  8
ALL_ASSEMBLY_MEMBERS
100
AcDbSpline
 62
7
  6
CONTINUOUS
 70
0
 71
3
 72
35
 73
31
 74
0
 42
0.0000001
 43
0.0000001
 44
0.0000000001
 40
0.0
 40
0.0
 40
0.0
 40
0.0
 40
0.0034406993
 40
0.0118400412
 40
0.0250483762
 40
0.0428444902
 40
0.0910715263
 40
0.1540326064
 40
0.1902264837
 40
0.2291293171
 40
0.2704148647
 40
0.3137465964
 40
0.3587685811
 40
0.4050978753
 40
0.4523214726
 40
0.4999999888
 40
0.5476785052
 40
0.5949021028
 40
0.6412313974
 40
0.6862533829
 40
0.7295851155
 40
0.7708706641
 40
0.8097734988
 40
0.8459673773
 40
0.9089284607
 40
0.9571555007
 40
0.9749516168
 40
0.9881599541
 40
0.9965592983
 40
1.0
 40
1.0
 40
1.0
 40
1.0
 10
3.0013571802
 20
5.3732002416
 30
0.0
 10
3.0014400572
 20
5.3729892821
 30
0.0
 10
3.0017245054
 20
5.3722630411
 30
0.0
 10
3.0023213139
 20
5.3707246925
 30
0.0
 10
3.0032454629
 20
5.3682990362
 30
0.0
 10
3.0050604536
 20
5.363405349
 30
0.0
 10
3.0078606433
 20
5.3553819815
 30
0.0
 10
3.0107381371
 20
5.3461062086
 30
0.0
 10
3.0131363969
 20
5.3373327254
 30
0.0
 10
3.0149584891
 20
5.3298846534
 30
0.0
 10
3.0166540522
 20
5.3219250504
 30
0.0
 10
3.0181564376
 20
5.3135165675
 30
0.0
 10
3.0194028923
 20
5.3047302923
 30
0.0
 10
3.0203380858
 20
5.295647369
 30
0.0
 10
3.0209181695
 20
5.2863592834
 30
0.0
 10
3.0211148052
 20
5.2769661459
 30
0.0
 10
3.0209181697
 20
5.2675730085
 30
0.0
 10
3.0203380862
 20
5.2582849227
 30
0.0
 10
3.0194028929
 20
5.2492019993
 30
0.0
 10
3.0181564383
 20
5.240415724
 30
0.0
 10
3.016654053
 20
5.2320072409
 30
0.0
 10
3.01495849
 20
5.2240476376
 30
0.0
 10
3.0131363978
 20
5.2165995654
 30
0.0
 10
3.010738138
 20
5.2078260818
 30
0.0
 10
3.0078606441
 20
5.1985503084
 30
0.0
 10
3.0050604543
 20
5.1905269402
 30
0.0
 10
3.0032454634
 20
5.1856332525
 30
0.0
 10
3.0023213143
 20
5.1832075958
 30
0.0
 10
3.0017245056
 20
5.1816692468
 30
0.0
 10
3.0014400573
 20
5.1809430055
 30
0.0
 10
3.0013571803
 20
5.1807320459
 30
0.0
  0
SPLINE
  5
355
100
AcDbEntity
  8
ALL_ASSEMBLY_MEMBERS
100
AcDbSpline
 62
7
  6
CONTINUOUS
 70
0
 71
3
 72
13
 73
9
 74
0
 42
0.0000001
 43
0.0000001
 44
0.0000000001
 40
0.0
 40
0.0
 40
0.0
 40
0.0
 40
0.2552283207
 40
0.5083961584
 40
0.6335792675
 40
0.757437876
 40
0.8796804682
 40
1.0
 40
1.0
 40
1.0
 40
1.0
 10
3.3558325024
 20
5.5109661437
 30
0.0
 10
3.3558325024
 20
5.5087811235
 30
0.0
 10
3.3560303402
 20
5.5044262962
 30
0.0
 10
3.3567687311
 20
5.4990447581
 30
0.0
 10
3.3576452087
 20
5.494834288
 30
0.0
 10
3.3584359743
 20
5.491754409
 30
0.0
 10
3.3593568904
 20
5.4887545631
 30
0.0
 10
3.3600596294
 20
5.4867995053
 30
0.0
 10
3.3604315257
 20
5.4858389233
 30
0.0
  0
SPLINE
  5
356
100
AcDbEntity
  8
ALL_ASSEMBLY_MEMBERS
100
AcDbSpline
 62
7
  6
CONTINUOUS
 70
0
 71
3
 72
14
 73
10
 74
0
 42
0.0000001
 43
0.0000001
 44
0.0000000001
 40
0.0
 40
0.0
 40
0.0
 40
0.0
 40
0.2613494654
 40
0.3895463717
 40
0.515901113
 40
0.6402723247
 40
0.7625129562
 40
0.8824733742
 40
1.0
 40
1.0
 40
1.0
 40
1.0
 10
3.3604315257
 20
5.4858389233
 30
0.0
 10
3.3608541345
 20
5.4847473545
 30
0.0
 10
3.3615292138
 20
5.4831372117
 30
0.0
 10
3.3625148738
 20
5.4810471389
 30
0.0
 10
3.363283968
 20
5.4795340013
 30
0.0
 10
3.3640858099
 20
5.4780683141
 30
0.0
 10
3.3649185411
 20
5.4766530558
 30
0.0
 10
3.3657801785
 20
5.4752913593
 30
0.0
 10
3.3663789215
 20
5.4744119379
 30
0.0
 10
3.3666828238
 20
5.473982156
 30
0.0
  0
SPLINE
  5
357
100
AcDbEntity
  8
ALL_ASSEMBLY_MEMBERS
100
AcDbSpline
 62
7
  6
CONTINUOUS
 70
0
 71
3
 72
23
 73
19
 74
0
 42
0.0000001
 43
0.0000001
 44
0.0000000001
 40
0.0
 40
0.0
 40
0.0
 40
0.0
 40
0.0731561749
 40
0.1434740347
 40
0.2111169869
 40
0.2762957544
 40
0.3392709774
 40
0.400354176
 40
0.4599069587
 40
0.5183361431
 40
0.5760853812
 40
0.6336231864
 40
0.6914280019
 40
0.7499722709
 40
0.8097069082
 40
0.8710488419
 40
0.9343717363
 40
1.0
 40
1.0
 40
1.0
 40
1.0
 10
3.364313867
 20
5.477684359
 30
0.0
 10
3.3645554879
 20
5.4774303643
 30
0.0
 10
3.3650444593
 20
5.4769462741
 30
0.0
 10
3.365809516
 20
5.4762831638
 30
0.0
 10
3.3665896401
 20
5.4756994159
 30
0.0
 10
3.3673829887
 20
5.4751966119
 30
0.0
 10
3.3681877087
 20
5.4747761477
 30
0.0
 10
3.3690018789
 20
5.4744393068
 30
0.0
 10
3.3698234848
 20
5.4741871883
 30
0.0
 10
3.3706504224
 20
5.4740207113
 30
0.0
 10
3.3714804962
 20
5.4739405944
 30
0.0
 10
3.3723114313
 20
5.4739472696
 30
0.0
 10
3.3731409205
 20
5.4740409007
 30
0.0
 10
3.3739666611
 20
5.4742213804
 30
0.0
 10
3.3747863981
 20
5.4744883019
 30
0.0
 10
3.3755979628
 20
5.4748410541
 30
0.0
 10
3.3763991776
 20
5.4752787771
 30
0.0
 10
3.3769152591
 20
5.4756200759
 30
0.0
 10
3.3771707091
 20
5.4758035112
 30
0.0
  0
SPLINE
  5
358
100
AcDbEntity
  8
ALL_ASSEMBLY_MEMBERS
100
AcDbSpline
 62
7
  6
CONTINUOUS
 70
0
 71
3
 72
14
 73
10
 74
0
 42
0.0000001
 43
0.0000001
 44
0.0000000001
 40
0.0
 40
0.0
 40
0.0
 40
0.0
 40
0.2235566914
 40
0.3416150684
 40
0.4640796522
 40
0.5910823551
 40
0.7227114763
 40
0.8590142335
 40
1.0
 40
1.0
 40
1.0
 40
1.0
 10
3.3771707091
 20
5.4758035112
 30
0.0
 10
3.3776503401
 20
5.4761479281
 30
0.0
 10
3.3783460703
 20
5.4767277432
 30
0.0
 10
3.3792140039
 20
5.477593807
 30
0.0
 10
3.3798615726
 20
5.4783177541
 30
0.0
 10
3.3804923058
 20
5.4791027639
 30
0.0
 10
3.3811049673
 20
5.479947537
 30
0.0
 10
3.3816982082
 20
5.4808505172
 30
0.0
 10
3.3820736223
 20
5.4814796836
 30
0.0
 10
3.3822579959
 20
5.4818032238
 30
0.0
  0
SPLINE
  5
359
100
AcDbEntity
  8
ALL_ASSEMBLY_MEMBERS
100
AcDbSpline
 62
7
  6
CONTINUOUS
 70
0
 71
3
 72
24
 73
20
 74
0
 42
0.0000001
 43
0.0000001
 44
0.0000000001
 40
0.0
 40
0.0
 40
0.0
 40
0.0
 40
0.0751296812
 40
0.1474782006
 40
0.217136686
 40
0.2510037544
 40
0.2842535914
 40
0.3489903911
 40
0.4115940559
 40
0.4723500424
 40
0.5315920144
 40
0.589696518
 40
0.6470740789
 40
0.704157117
 40
0.7613856906
 40
0.8191922689
 40
0.8779857579
 40
0.9381458595
 40
1.0
 40
1.0
 40
1.0
 40
1.0
 10
3.3653612309
 20
5.5459742007
 30
0.0
 10
3.3656981453
 20
5.5463907603
 30
0.0
 10
3.3663828494
 20
5.5471899911
 30
0.0
 10
3.367462005
 20
5.5483017901
 30
0.0
 10
3.3683946612
 20
5.5491419813
 30
0.0
 10
3.369154088
 20
5.5497543411
 30
0.0
 10
3.3699077889
 20
5.5503168008
 30
0.0
 10
3.3708646985
 20
5.5509483077
 30
0.0
 10
3.3720432362
 20
5.551592185
 30
0.0
 10
3.3732384594
 20
5.5521134863
 30
0.0
 10
3.374446884
 20
5.5525106214
 30
0.0
 10
3.3756649611
 20
5.5527824191
 30
0.0
 10
3.3768890317
 20
5.5529281187
 30
0.0
 10
3.3781153702
 20
5.5529474244
 30
0.0
 10
3.3793402397
 20
5.5528405235
 30
0.0
 10
3.3805599315
 20
5.5526080908
 30
0.0
 10
3.3817709084
 20
5.5522512619
 30
0.0
 10
3.3829695839
 20
5.5517715988
 30
0.0
 10
3.3837465623
 20
5.5513771711
 30
0.0
 10
3.384131322
 20
5.5511614935
 30
0.0
  0
SPLINE
  5
35A
100
AcDbEntity
  8
ALL_ASSEMBLY_MEMBERS
100
AcDbSpline
 62
7
  6
CONTINUOUS
 70
0
 71
3
 72
18
 73
14
 74
0
 42
0.0000001
 43
0.0000001
 44
0.0000000001
 40
0.0
 40
0.0
 40
0.0
 40
0.0
 40
0.0563171831
 40
0.1139084221
 40
0.1726640851
 40
0.2324789544
 40
0.2932523137
 40
0.3548878833
 40
0.4803634965
 40
0.6082356508
 40
0.7378647925
 40
0.8686459602
 40
1.0
 40
1.0
 40
1.0
 40
1.0
 10
3.3653608815
 20
5.5459741383
 30
0.0
 10
3.3649918345
 20
5.5453914163
 30
0.0
 10
3.3642702231
 20
5.5441968858
 30
0.0
 10
3.3632496098
 20
5.5423441603
 30
0.0
 10
3.3622817221
 20
5.5404152838
 30
0.0
 10
3.3613701838
 20
5.5384162733
 30
0.0
 10
3.3605183346
 20
5.5363528804
 30
0.0
 10
3.3594601298
 20
5.5335067005
 30
0.0
 10
3.3583071425
 20
5.5298216845
 30
0.0
 10
3.3572144038
 20
5.5252565879
 30
0.0
 10
3.3564211216
 20
5.5205639508
 30
0.0
 10
3.3559399434
 20
5.5157865122
 30
0.0
 10
3.3558325024
 20
5.5125749241
 30
0.0
 10
3.3558325024
 20
5.5109661437
 30
0.0
  0
LINE
  5
35B
100
AcDbEntity
  8
ALL_ASSEMBLY_MEMBERS
100
AcDbLine
 62
7
  6
CONTINUOUS
 10
3.3978037904
 20
5.5112946362
 11
3.3973116167
 21
5.4995685816
  0
SPLINE
  5
35C
100
AcDbEntity
  8
ALL_ASSEMBLY_MEMBERS
100
AcDbSpline
 62
7
  6
CONTINUOUS
 70
0
 71
3
 72
22
 73
18
 74
0
 42
0.0000001
 43
0.0000001
 44
0.0000000001
 40
0.0
 40
0.0
 40
0.0
 40
0.0
 40
0.0964538535
 40
0.1476818829
 40
0.2010131705
 40
0.2564990591
 40
0.3141625732
 40
0.374000223
 40
0.4359850426
 40
0.5000691887
 40
0.5661862914
 40
0.6342534886
 40
0.7041731905
 40
0.7758351459
 40
0.8491158062
 40
0.9238862617
 40
1.0
 40
1.0
 40
1.0
 40
1.0
 10
3.384131322
 20
5.5511614935
 30
0.0
 10
3.3848797541
 20
5.5506525764
 30
0.0
 10
3.3859609203
 20
5.5497746298
 30
0.0
 10
3.3872957385
 20
5.548441047
 30
0.0
 10
3.3882882023
 20
5.5473124522
 30
0.0
 10
3.3892485185
 20
5.5460793026
 30
0.0
 10
3.3901742061
 20
5.5447449749
 30
0.0
 10
3.3910625966
 20
5.5433133495
 30
0.0
 10
3.3919111919
 20
5.5417885212
 30
0.0
 10
3.3927175737
 20
5.5401748708
 30
0.0
 10
3.3934794414
 20
5.5384770299
 30
0.0
 10
3.3941946129
 20
5.5366998768
 30
0.0
 10
3.3948610389
 20
5.5348485178
 30
0.0
 10
3.3954767973
 20
5.5329282897
 30
0.0
 10
3.3960401343
 20
5.5309446956
 30
0.0
 10
3.396549398
 20
5.5289034972
 30
0.0
 10
3.3968494272
 20
5.5275195775
 30
0.0
 10
3.3969903469
 20
5.5268194104
 30
0.0
  0
SPLINE
  5
35D
100
AcDbEntity
  8
ALL_ASSEMBLY_MEMBERS
100
AcDbSpline
 62
7
  6
CONTINUOUS
 70
0
 71
3
 72
14
 73
10
 74
0
 42
0.0000001
 43
0.0000001
 44
0.0000000001
 40
0.0
 40
0.0
 40
0.0
 40
0.0
 40
0.1200746671
 40
0.2420623103
 40
0.3657162963
 40
0.4907950997
 40
0.6170369608
 40
0.744169933
 40
1.0
 40
1.0
 40
1.0
 40
1.0
 10
3.3969903469
 20
5.5268194104
 30
0.0
 10
3.3970586979
 20
5.5262006575
 30
0.0
 10
3.3971861093
 20
5.5249521271
 30
0.0
 10
3.3973495077
 20
5.5230630902
 30
0.0
 10
3.3974873584
 20
5.521146007
 30
0.0
 10
3.3976001528
 20
5.5192052015
 30
0.0
 10
3.397688306
 20
5.5172450644
 30
0.0
 10
3.397773585
 20
5.5146064665
 30
0.0
 10
3.3978011682
 20
5.5126209625
 30
0.0
 10
3.3978037904
 20
5.5112946362
 30
0.0
  0
SPLINE
  5
35E
100
AcDbEntity
  8
ALL_ASSEMBLY_MEMBERS
100
AcDbSpline
 62
7
  6
CONTINUOUS
 70
0
 71
3
 72
22
 73
18
 74
0
 42
0.0000001
 43
0.0000001
 44
0.0000000001
 40
0.0
 40
0.0
 40
0.0
 40
0.0
 40
0.0560940383
 40
0.1135846625
 40
0.1723850242
 40
0.2323944715
 40
0.2935009778
 40
0.3555832794
 40
0.4185127695
 40
0.4821551869
 40
0.5463720773
 40
0.6110221294
 40
0.6759622636
 40
0.7410487498
 40
0.8061384582
 40
0.8710878735
 40
1.0
 40
1.0
 40
1.0
 40
1.0
 10
3.3873804954
 20
5.5325406921
 30
0.0
 10
3.3877509378
 20
5.5320047614
 30
0.0
 10
3.3884732906
 20
5.530900136
 30
0.0
 10
3.3894891008
 20
5.5291740633
 30
0.0
 10
3.3904490451
 20
5.5273646817
 30
0.0
 10
3.3913512644
 20
5.5254792527
 30
0.0
 10
3.3921941832
 20
5.5235250447
 30
0.0
 10
3.3929764438
 20
5.5215094
 30
0.0
 10
3.3936969205
 20
5.5194396807
 30
0.0
 10
3.3943547119
 20
5.517323251
 30
0.0
 10
3.3949491355
 20
5.5151674487
 30
0.0
 10
3.3954797204
 20
5.5129795648
 30
0.0
 10
3.3959462029
 20
5.510766817
 30
0.0
 10
3.3963485166
 20
5.5085363434
 30
0.0
 10
3.3966867936
 20
5.506295135
 30
0.0
 10
3.3970519071
 20
5.5033095554
 30
0.0
 10
3.3972325714
 20
5.5010637285
 30
0.0
 10
3.3973116167
 20
5.4995685816
 30
0.0
  0
SPLINE
  5
35F
100
AcDbEntity
  8
ALL_ASSEMBLY_MEMBERS
100
AcDbSpline
 62
7
  6
CONTINUOUS
 70
0
 71
3
 72
32
 73
28
 74
0
 42
0.0000001
 43
0.0000001
 44
0.0000000001
 40
0.0
 40
0.0
 40
0.0
 40
0.0
 40
0.0761316766
 40
0.1519546614
 40
0.2270409314
 40
0.3009737347
 40
0.3733582786
 40
0.443827082
 40
0.512047575
 40
0.5452261659
 40
0.5777382163
 40
0.6095557281
 40
0.640654744
 40
0.6710154476
 40
0.7006227473
 40
0.729466683
 40
0.7575426962
 40
0.7848523942
 40
0.8114038077
 40
0.8372119551
 40
0.8622994884
 40
0.8866969021
 40
0.9104431653
 40
0.9335859196
 40
0.9561815141
 40
0.9782950918
 40
1.0
 40
1.0
 40
1.0
 40
1.0
 10
3.3978037904
 20
5.5112946362
 30
0.0
 10
3.3977358556
 20
5.5125389134
 30
0.0
 10
3.3975458292
 20
5.5150198032
 30
0.0
 10
3.3970981681
 20
5.5187101565
 30
0.0
 10
3.3964898968
 20
5.5223411082
 30
0.0
 10
3.3957242281
 20
5.5258846584
 30
0.0
 10
3.3948055827
 20
5.5293136225
 30
0.0
 10
3.3937395737
 20
5.532601591
 30
0.0
 10
3.3927247326
 20
5.5352271588
 30
0.0
 10
3.3918426355
 20
5.5372340215
 30
0.0
 10
3.3911549313
 20
5.538674593
 30
0.0
 10
3.3904361421
 20
5.5400616905
 30
0.0
 10
3.3896874677
 20
5.5413926586
 30
0.0
 10
3.388910154
 20
5.5426649261
 30
0.0
 10
3.3881055071
 20
5.5438760437
 30
0.0
 10
3.3872748896
 20
5.5450236827
 30
0.0
 10
3.3864196911
 20
5.5461056227
 30
0.0
 10
3.3855413681
 20
5.5471197835
 30
0.0
 10
3.3846414043
 20
5.5480642031
 30
0.0
 10
3.3837213189
 20
5.5489370446
 30
0.0
 10
3.3827826841
 20
5.5497366199
 30
0.0
 10
3.3818270856
 20
5.5504613512
 30
0.0
 10
3.3808561554
 20
5.5511098105
 30
0.0
 10
3.379871566
 20
5.5516807059
 30
0.0
 10
3.3788749845
 20
5.5521728685
 30
0.0
 10
3.377868234
 20
5.5525852777
 30
0.0
 10
3.3771857473
 20
5.5528083169
 30
0.0
 10
3.3768441035
 20
5.5529057585
 30
0.0
  0
SPLINE
  5
360
100
AcDbEntity
  8
ALL_ASSEMBLY_MEMBERS
100
AcDbSpline
 62
7
  6
CONTINUOUS
 70
0
 71
3
 72
46
 73
42
 74
0
 42
0.0000001
 43
0.0000001
 44
0.0000000001
 40
0.0
 40
0.0
 40
0.0
 40
0.0
 40
0.0433205231
 40
0.0858804223
 40
0.1275772879
 40
0.1683178234
 40
0.2080083157
 40
0.2465594429
 40
0.2838860327
 40
0.3199084492
 40
0.3545546953
 40
0.3877632179
 40
0.4194869654
 40
0.4496989339
 40
0.4783994634
 40
0.505625302
 40
0.5314601332
 40
0.5560454173
 40
0.5679375155
 40
0.5796011801
 40
0.5910732074
 40
0.6023943279
 40
0.6136086169
 40
0.6247627438
 40
0.635904988
 40
0.6470841662
 40
0.6583484697
 40
0.6697443731
 40
0.6813156239
 40
0.6931024381
 40
0.7051408898
 40
0.717462525
 40
0.7430479739
 40
0.7700302206
 40
0.79850083
 40
0.82849438
 40
0.8600008053
 40
0.8929771087
 40
0.9273574591
 40
0.9630613717
 40
1.0
 40
1.0
 40
1.0
 40
1.0
 10
3.3969903469
 20
5.5268194104
 30
0.0
 10
3.3969197502
 20
5.5276379337
 30
0.0
 10
3.3967665543
 20
5.5292595056
 30
0.0
 10
3.3964959402
 20
5.5316639295
 30
0.0
 10
3.3961846118
 20
5.5340141075
 30
0.0
 10
3.3958306852
 20
5.5363032321
 30
0.0
 10
3.3954320993
 20
5.5385244631
 30
0.0
 10
3.3949866878
 20
5.5406707533
 30
0.0
 10
3.3944921963
 20
5.5427348755
 30
0.0
 10
3.3939463285
 20
5.5447093736
 30
0.0
 10
3.3933467952
 20
5.5465865422
 30
0.0
 10
3.3926913674
 20
5.5483584185
 30
0.0
 10
3.3919779443
 20
5.5500167907
 30
0.0
 10
3.3912046199
 20
5.5515532345
 30
0.0
 10
3.3903697804
 20
5.5529591516
 30
0.0
 10
3.38947212
 20
5.5542258813
 30
0.0
 10
3.3885110052
 20
5.555344601
 30
0.0
 10
3.3876472989
 20
5.5561553535
 30
0.0
 10
3.3869266114
 20
5.5567166991
 30
0.0
 10
3.3863770679
 20
5.5570907815
 30
0.0
 10
3.3858129706
 20
5.5574216535
 30
0.0
 10
3.3852347219
 20
5.5577085016
 30
0.0
 10
3.3846428473
 20
5.5579506205
 30
0.0
 10
3.3840379327
 20
5.5581473695
 30
0.0
 10
3.3834206571
 20
5.5582982529
 30
0.0
 10
3.3827917621
 20
5.5584028654
 30
0.0
 10
3.3821520585
 20
5.5584609585
 30
0.0
 10
3.381502407
 20
5.5584723901
 30
0.0
 10
3.3808437115
 20
5.5584371704
 30
0.0
 10
3.3801769171
 20
5.5583554179
 30
0.0
 10
3.3795029715
 20
5.5582273807
 30
0.0
 10
3.3785848057
 20
5.5579925249
 30
0.0
 10
3.3774222034
 20
5.5575803419
 30
0.0
 10
3.3760339563
 20
5.5569153337
 30
0.0
 10
3.3746427428
 20
5.556080252
 30
0.0
 10
3.3732564957
 20
5.5550824475
 30
0.0
 10
3.3718827884
 20
5.5539298589
 30
0.0
 10
3.3705290344
 20
5.5526308851
 30
0.0
 10
3.3692023035
 20
5.5511941534
 30
0.0
 10
3.3679093426
 20
5.5496284278
 30
0.0
 10
3.3670872759
 20
5.5485221124
 30
0.0
 10
3.3666828239
 20
5.5479501313
 30
0.0
  0
SPLINE
  5
361
100
AcDbEntity
  8
ALL_ASSEMBLY_MEMBERS
100
AcDbSpline
 62
7
  6
CONTINUOUS
 70
0
 71
3
 72
56
 73
52
 74
0
 42
0.0000001
 43
0.0000001
 44
0.0000000001
 40
0.0
 40
0.0
 40
0.0
 40
0.0
 40
0.0361158025
 40
0.0709509649
 40
0.1044092116
 40
0.1205968007
 40
0.1364093231
 40
0.1518390328
 40
0.1668799041
 40
0.1815280783
 40
0.1957823233
 40
0.2096443478
 40
0.2231195026
 40
0.2489405595
 40
0.2613286463
 40
0.2733951506
 40
0.2851690777
 40
0.2966850845
 40
0.307982777
 40
0.3191066648
 40
0.3301050135
 40
0.3410291092
 40
0.3519317867
 40
0.3628662069
 40
0.3738844009
 40
0.3850360239
 40
0.3963673049
 40
0.4079201946
 40
0.4318233468
 40
0.4442441801
 40
0.457005393
 40
0.4701246741
 40
0.4836154815
 40
0.4974874735
 40
0.5117469658
 40
0.5263972471
 40
0.5414391494
 40
0.5568711378
 40
0.5726899811
 40
0.5888906355
 40
0.6054668945
 40
0.6397133501
 40
0.6753616305
 40
0.7123304414
 40
0.7505306241
 40
0.7898672094
 40
0.8302407904
 40
0.871548567
 40
0.9136835479
 40
0.9565390087
 40
1.0
 40
1.0
 40
1.0
 40
1.0
 10
3.3666828238
 20
5.473982156
 30
0.0
 10
3.3671093358
 20
5.473378978
 30
0.0
 10
3.3679768881
 20
5.4722145624
 30
0.0
 10
3.3693445405
 20
5.4705729045
 30
0.0
 10
3.3705277285
 20
5.4693117712
 30
0.0
 10
3.3714908873
 20
5.4683813694
 30
0.0
 10
3.3722114515
 20
5.4677314416
 30
0.0
 10
3.3729370434
 20
5.4671230146
 30
0.0
 10
3.3736665336
 20
5.4665573173
 30
0.0
 10
3.3743987914
 20
5.466035587
 30
0.0
 10
3.3751326119
 20
5.46555898
 30
0.0
 10
3.3758668807
 20
5.4651286106
 30
0.0
 10
3.3768309174
 20
5.464625086
 30
0.0
 10
3.3778052172
 20
5.4642080498
 30
0.0
 10
3.3787835574
 20
5.4638894434
 30
0.0
 10
3.3795016606
 20
5.4637043442
 30
0.0
 10
3.3802129242
 20
5.4635704444
 30
0.0
 10
3.3809162011
 20
5.4634881132
 30
0.0
 10
3.381610354
 20
5.4634576841
 30
0.0
 10
3.3822942766
 20
5.4634792443
 30
0.0
 10
3.382966908
 20
5.4635528101
 30
0.0
 10
3.3836272448
 20
5.4636781548
 30
0.0
 10
3.3842743459
 20
5.4638549546
 30
0.0
 10
3.3849073621
 20
5.4640826701
 30
0.0
 10
3.3855255297
 20
5.4643606589
 30
0.0
 10
3.3861281902
 20
5.4646881062
 30
0.0
 10
3.3867148106
 20
5.465064136
 30
0.0
 10
3.387483513
 20
5.465635237
 30
0.0
 10
3.3882101937
 20
5.4662961338
 30
0.0
 10
3.3888930719
 20
5.4670325884
 30
0.0
 10
3.3893945378
 20
5.4676350237
 30
0.0
 10
3.3898785187
 20
5.4682790694
 30
0.0
 10
3.390345102
 20
5.4689634836
 30
0.0
 10
3.3907943337
 20
5.4696869701
 30
0.0
 10
3.3912263551
 20
5.4704482247
 30
0.0
 10
3.3916413122
 20
5.4712459591
 30
0.0
 10
3.3920394205
 20
5.4720788726
 30
0.0
 10
3.3924208973
 20
5.472945693
 30
0.0
 10
3.3927860101
 20
5.4738451459
 30
0.0
 10
3.3931350372
 20
5.4747759894
 30
0.0
 10
3.3935842165
 20
5.4760713869
 30
0.0
 10
3.3941048889
 20
5.4777624008
 30
0.0
 10
3.394664032
 20
5.4798760434
 30
0.0
 10
3.3951668209
 20
5.4820867384
 30
0.0
 10
3.3956159391
 20
5.4843857858
 30
0.0
 10
3.3960139988
 20
5.4867648025
 30
0.0
 10
3.3963634898
 20
5.4892156146
 30
0.0
 10
3.3966667284
 20
5.4917302057
 30
0.0
 10
3.3969258481
 20
5.4943007273
 30
0.0
 10
3.3971427303
 20
5.4969193252
 30
0.0
 10
3.3972595526
 20
5.4986811239
 30
0.0
 10
3.3973116167
 20
5.4995685816
 30
0.0
  0
SPLINE
  5
362
100
AcDbEntity
  8
ALL_ASSEMBLY_MEMBERS
100
AcDbSpline
 62
7
  6
CONTINUOUS
 70
0
 71
3
 72
35
 73
31
 74
0
 42
0.0000001
 43
0.0000001
 44
0.0000000001
 40
0.0
 40
0.0
 40
0.0
 40
0.0
 40
0.0034406999
 40
0.0118400422
 40
0.0250483776
 40
0.042844492
 40
0.0910715288
 40
0.1540326093
 40
0.1902264867
 40
0.2291293202
 40
0.2704148678
 40
0.3137465995
 40
0.3587685843
 40
0.4050978784
 40
0.4523214755
 40
0.4999999916
 40
0.5476785079
 40
0.5949021053
 40
0.6412313998
 40
0.6862533851
 40
0.7295851175
 40
0.7708706658
 40
0.8097735003
 40
0.8459673786
 40
0.9089284615
 40
0.9571555012
 40
0.9749516172
 40
0.9881599543
 40
0.9965592984
 40
1.0
 40
1.0
 40
1.0
 40
1.0
 10
7.4913446831
 20
5.1807320458
 30
0.0
 10
7.4912618061
 20
5.1809430053
 30
0.0
 10
7.4909773579
 20
5.1816692464
 30
0.0
 10
7.4903805493
 20
5.183207595
 30
0.0
 10
7.4894564004
 20
5.1856332515
 30
0.0
 10
7.4876414096
 20
5.1905269387
 30
0.0
 10
7.4848412199
 20
5.1985503063
 30
0.0
 10
7.4819637261
 20
5.2078260793
 30
0.0
 10
7.4795654663
 20
5.2165995625
 30
0.0
 10
7.4777433741
 20
5.2240476345
 30
0.0
 10
7.476047811
 20
5.2320072376
 30
0.0
 10
7.4745454257
 20
5.2404157205
 30
0.0
 10
7.4732989709
 20
5.2492019957
 30
0.0
 10
7.4723637775
 20
5.2582849189
 30
0.0
 10
7.4717836939
 20
5.2675730046
 30
0.0
 10
7.4715870582
 20
5.276966142
 30
0.0
 10
7.4717836937
 20
5.2863592794
 30
0.0
 10
7.4723637772
 20
5.2956473652
 30
0.0
 10
7.4732989706
 20
5.3047302885
 30
0.0
 10
7.4745454252
 20
5.3135165638
 30
0.0
 10
7.4760478104
 20
5.3219250469
 30
0.0
 10
7.4777433734
 20
5.3298846501
 30
0.0
 10
7.4795654656
 20
5.3373327223
 30
0.0
 10
7.4819637254
 20
5.3461062058
 30
0.0
 10
7.4848412193
 20
5.3553819792
 30
0.0
 10
7.4876414091
 20
5.3634053472
 30
0.0
 10
7.4894564
 20
5.3682990349
 30
0.0
 10
7.4903805491
 20
5.3707246916
 30
0.0
 10
7.4909773577
 20
5.3722630406
 30
0.0
 10
7.4912618061
 20
5.3729892819
 30
0.0
 10
7.4913446831
 20
5.3732002415
 30
0.0
  0
SPLINE
  5
363
100
AcDbEntity
  8
ALL_ASSEMBLY_MEMBERS
100
AcDbSpline
 62
7
  6
CONTINUOUS
 70
0
 71
3
 72
18
 73
14
 74
0
 42
0.0000001
 43
0.0000001
 44
0.0000000001
 40
0.0
 40
0.0
 40
0.0
 40
0.0
 40
0.1313540398
 40
0.2621352075
 40
0.3917643492
 40
0.5196365035
 40
0.6451121167
 40
0.7067476863
 40
0.7675210456
 40
0.8273359149
 40
0.8860915779
 40
0.9436828169
 40
1.0
 40
1.0
 40
1.0
 40
1.0
 10
7.136869361
 20
5.5109661437
 30
0.0
 10
7.136869361
 20
5.5125749241
 30
0.0
 10
7.13676192
 20
5.5157865122
 30
0.0
 10
7.1362807418
 20
5.5205639508
 30
0.0
 10
7.1354874596
 20
5.5252565879
 30
0.0
 10
7.1343947209
 20
5.5298216845
 30
0.0
 10
7.1332417336
 20
5.5335067005
 30
0.0
 10
7.1321835287
 20
5.5363528804
 30
0.0
 10
7.1313316796
 20
5.5384162733
 30
0.0
 10
7.1304201413
 20
5.5404152838
 30
0.0
 10
7.1294522536
 20
5.5423441603
 30
0.0
 10
7.1284316402
 20
5.5441968858
 30
0.0
 10
7.1277100289
 20
5.5453914163
 30
0.0
 10
7.1273409819
 20
5.5459741383
 30
0.0
  0
SPLINE
  5
364
100
AcDbEntity
  8
ALL_ASSEMBLY_MEMBERS
100
AcDbSpline
 62
7
  6
CONTINUOUS
 70
0
 71
3
 72
24
 73
20
 74
0
 42
0.0000001
 43
0.0000001
 44
0.0000000001
 40
0.0
 40
0.0
 40
0.0
 40
0.0
 40
0.0618541405
 40
0.1220142421
 40
0.1808077311
 40
0.2386143094
 40
0.295842883
 40
0.3529259211
 40
0.410303482
 40
0.4684079856
 40
0.5276499576
 40
0.5884059441
 40
0.6510096089
 40
0.7157464086
 40
0.7489962457
 40
0.782863314
 40
0.8525217994
 40
0.9248703188
 40
1.0
 40
1.0
 40
1.0
 40
1.0
 10
7.1085705413
 20
5.5511614935
 30
0.0
 10
7.108955301
 20
5.5513771711
 30
0.0
 10
7.1097322794
 20
5.5517715988
 30
0.0
 10
7.110930955
 20
5.5522512619
 30
0.0
 10
7.1121419319
 20
5.5526080908
 30
0.0
 10
7.1133616236
 20
5.5528405235
 30
0.0
 10
7.1145864931
 20
5.5529474244
 30
0.0
 10
7.1158128317
 20
5.5529281187
 30
0.0
 10
7.1170369022
 20
5.5527824191
 30
0.0
 10
7.1182549794
 20
5.5525106214
 30
0.0
 10
7.119463404
 20
5.5521134863
 30
0.0
 10
7.1206586272
 20
5.551592185
 30
0.0
 10
7.1218371648
 20
5.5509483077
 30
0.0
 10
7.1227940744
 20
5.5503168008
 30
0.0
 10
7.1235477753
 20
5.5497543411
 30
0.0
 10
7.1243072022
 20
5.5491419813
 30
0.0
 10
7.1252398584
 20
5.5483017901
 30
0.0
 10
7.126319014
 20
5.5471899911
 30
0.0
 10
7.1270037181
 20
5.5463907603
 30
0.0
 10
7.1273406324
 20
5.5459742007
 30
0.0
  0
SPLINE
  5
365
100
AcDbEntity
  8
ALL_ASSEMBLY_MEMBERS
100
AcDbSpline
 62
7
  6
CONTINUOUS
 70
0
 71
3
 72
30
 73
26
 74
0
 42
0.0000001
 43
0.0000001
 44
0.0000000001
 40
0.0
 40
0.0
 40
0.0
 40
0.0
 40
0.0789985184
 40
0.1537417973
 40
0.2243421265
 40
0.2910123618
 40
0.3540791085
 40
0.4139937643
 40
0.4429605372
 40
0.4713681142
 40
0.4993080785
 40
0.5268786894
 40
0.5541831535
 40
0.581328646
 40
0.6084243443
 40
0.6355798561
 40
0.6629033056
 40
0.6904996951
 40
0.7184692823
 40
0.7469064497
 40
0.7758984688
 40
0.8055251837
 40
0.8669368945
 40
0.9316451341
 40
1.0
 40
1.0
 40
1.0
 40
1.0
 10
7.1109652095
 20
5.4809271157
 30
0.0
 10
7.1112610413
 20
5.4804511951
 30
0.0
 10
7.1118673982
 20
5.4795434634
 30
0.0
 10
7.1128484718
 20
5.4782884932
 30
0.0
 10
7.1138710803
 20
5.4771831321
 30
0.0
 10
7.1149302409
 20
5.4762322555
 30
0.0
 10
7.1160207554
 20
5.4754401255
 30
0.0
 10
7.116962177
 20
5.474909361
 30
0.0
 10
7.1177230307
 20
5.474571524
 30
0.0
 10
7.1182914386
 20
5.4743624659
 30
0.0
 10
7.1188632053
 20
5.4741951831
 30
0.0
 10
7.1194376111
 20
5.4740697934
 30
0.0
 10
7.1200139226
 20
5.4739864342
 30
0.0
 10
7.1205913951
 20
5.4739451322
 30
0.0
 10
7.1211692871
 20
5.4739459009
 30
0.0
 10
7.1217468558
 20
5.4739886668
 30
0.0
 10
7.1223233657
 20
5.4740733142
 30
0.0
 10
7.122898088
 20
5.4741996743
 30
0.0
 10
7.1234703128
 20
5.4743675099
 30
0.0
 10
7.1240393284
 20
5.4745765629
 30
0.0
 10
7.1246044735
 20
5.4748265025
 30
0.0
 10
7.1253608464
 20
5.4752184262
 30
0.0
 10
7.1262946832
 20
5.4758135982
 30
0.0
 10
7.127374419
 20
5.4766756402
 30
0.0
 10
7.1280538042
 20
5.4773330524
 30
0.0
 10
7.1283879963
 20
5.477684359
 30
0.0
  0
SPLINE
  5
366
100
AcDbEntity
  8
ALL_ASSEMBLY_MEMBERS
100
AcDbSpline
 62
7
  6
CONTINUOUS
 70
0
 71
3
 72
19
 73
15
 74
0
 42
0.0000001
 43
0.0000001
 44
0.0000000001
 40
0.0
 40
0.0
 40
0.0
 40
0.0
 40
0.0551874821
 40
0.1118904969
 40
0.169977399
 40
0.2293207675
 40
0.2897985319
 40
0.3512943877
 40
0.4136976225
 40
0.4769028012
 40
0.6052994888
 40
0.7357489733
 40
0.8675414063
 40
1.0
 40
1.0
 40
1.0
 40
1.0
 10
7.1260190395
 20
5.473982156
 30
0.0
 10
7.1264345294
 20
5.4745697462
 30
0.0
 10
7.1272481673
 20
5.4757816327
 30
0.0
 10
7.1283998989
 20
5.477676212
 30
0.0
 10
7.1294954514
 20
5.4796659293
 30
0.0
 10
7.1305300313
 20
5.4817431048
 30
0.0
 10
7.1314992187
 20
5.4839003919
 30
0.0
 10
7.1323988849
 20
5.486130639
 30
0.0
 10
7.1332252194
 20
5.4884269378
 30
0.0
 10
7.1342296554
 20
5.4915838802
 30
0.0
 10
7.1352795149
 20
5.4956543364
 30
0.0
 10
7.1361914476
 20
5.5006704449
 30
0.0
 10
7.1367455475
 20
5.5057917409
 30
0.0
 10
7.136869361
 20
5.5092388746
 30
0.0
 10
7.136869361
 20
5.5109661437
 30
0.0
  0
SPLINE
  5
367
100
AcDbEntity
  8
ALL_ASSEMBLY_MEMBERS
100
AcDbSpline
 62
7
  6
CONTINUOUS
 70
0
 71
3
 72
14
 73
10
 74
0
 42
0.0000001
 43
0.0000001
 44
0.0000000001
 40
0.0
 40
0.0
 40
0.0
 40
0.0
 40
0.255830067
 40
0.3829630392
 40
0.5092049003
 40
0.6342837037
 40
0.7579376897
 40
0.8799253329
 40
1.0
 40
1.0
 40
1.0
 40
1.0
 10
7.094898073
 20
5.5112946362
 30
0.0
 10
7.0949006952
 20
5.5126209625
 30
0.0
 10
7.0949282784
 20
5.5146064665
 30
0.0
 10
7.0950135573
 20
5.5172450644
 30
0.0
 10
7.0951017105
 20
5.5192052015
 30
0.0
 10
7.0952145049
 20
5.521146007
 30
0.0
 10
7.0953523556
 20
5.5230630902
 30
0.0
 10
7.0955157541
 20
5.5249521271
 30
0.0
 10
7.0956431654
 20
5.5262006575
 30
0.0
 10
7.0957115164
 20
5.5268194104
 30
0.0
  0
SPLINE
  5
368
100
AcDbEntity
  8
ALL_ASSEMBLY_MEMBERS
100
AcDbSpline
 62
7
  6
CONTINUOUS
 70
0
 71
3
 72
22
 73
18
 74
0
 42
0.0000001
 43
0.0000001
 44
0.0000000001
 40
0.0
 40
0.0
 40
0.0
 40
0.0
 40
0.1289121265
 40
0.1938615418
 40
0.2589512502
 40
0.3240377364
 40
0.3889778706
 40
0.4536279227
 40
0.5178448131
 40
0.5814872305
 40
0.6444167206
 40
0.7064990222
 40
0.7676055285
 40
0.8276149758
 40
0.8864153375
 40
0.9439059617
 40
1.0
 40
1.0
 40
1.0
 40
1.0
 10
7.0953902466
 20
5.4995685816
 30
0.0
 10
7.095469292
 20
5.5010637285
 30
0.0
 10
7.0956499563
 20
5.5033095554
 30
0.0
 10
7.0960150697
 20
5.506295135
 30
0.0
 10
7.0963533468
 20
5.5085363434
 30
0.0
 10
7.0967556605
 20
5.510766817
 30
0.0
 10
7.0972221429
 20
5.5129795648
 30
0.0
 10
7.0977527278
 20
5.5151674487
 30
0.0
 10
7.0983471515
 20
5.517323251
 30
0.0
 10
7.0990049429
 20
5.5194396807
 30
0.0
 10
7.0997254196
 20
5.5215094
 30
0.0
 10
7.1005076801
 20
5.5235250447
 30
0.0
 10
7.101350599
 20
5.5254792527
 30
0.0
 10
7.1022528183
 20
5.5273646817
 30
0.0
 10
7.1032127625
 20
5.5291740633
 30
0.0
 10
7.1042285728
 20
5.530900136
 30
0.0
 10
7.1049509256
 20
5.5320047614
 30
0.0
 10
7.105321368
 20
5.5325406921
 30
0.0
  0
SPLINE
  5
369
100
AcDbEntity
  8
ALL_ASSEMBLY_MEMBERS
100
AcDbSpline
 62
7
  6
CONTINUOUS
 70
0
 71
3
 72
32
 73
28
 74
0
 42
0.0000001
 43
0.0000001
 44
0.0000000001
 40
0.0
 40
0.0
 40
0.0
 40
0.0
 40
0.0761316766
 40
0.1519546614
 40
0.2270409314
 40
0.3009737347
 40
0.3733582786
 40
0.443827082
 40
0.512047575
 40
0.5452261659
 40
0.5777382163
 40
0.6095557281
 40
0.640654744
 40
0.6710154476
 40
0.7006227473
 40
0.729466683
 40
0.7575426962
 40
0.7848523942
 40
0.8114038077
 40
0.8372119551
 40
0.8622994884
 40
0.8866969021
 40
0.9104431653
 40
0.9335859196
 40
0.9561815141
 40
0.9782950918
 40
1.0
 40
1.0
 40
1.0
 40
1.0
 10
7.094898073
 20
5.5112946362
 30
0.0
 10
7.0949660077
 20
5.5125389134
 30
0.0
 10
7.0951560342
 20
5.5150198032
 30
0.0
 10
7.0956036953
 20
5.5187101565
 30
0.0
 10
7.0962119666
 20
5.5223411082
 30
0.0
 10
7.0969776352
 20
5.5258846584
 30
0.0
 10
7.0978962807
 20
5.5293136225
 30
0.0
 10
7.0989622896
 20
5.532601591
 30
0.0
 10
7.0999771307
 20
5.5352271588
 30
0.0
 10
7.1008592279
 20
5.5372340215
 30
0.0
 10
7.1015469321
 20
5.538674593
 30
0.0
 10
7.1022657212
 20
5.5400616905
 30
0.0
 10
7.1030143956
 20
5.5413926586
 30
0.0
 10
7.1037917094
 20
5.5426649261
 30
0.0
 10
7.1045963562
 20
5.5438760437
 30
0.0
 10
7.1054269737
 20
5.5450236827
 30
0.0
 10
7.1062821722
 20
5.5461056227
 30
0.0
 10
7.1071604952
 20
5.5471197835
 30
0.0
 10
7.1080604591
 20
5.5480642031
 30
0.0
 10
7.1089805444
 20
5.5489370446
 30
0.0
 10
7.1099191792
 20
5.5497366199
 30
0.0
 10
7.1108747778
 20
5.5504613512
 30
0.0
 10
7.111845708
 20
5.5511098105
 30
0.0
 10
7.1128302974
 20
5.5516807059
 30
0.0
 10
7.1138268788
 20
5.5521728685
 30
0.0
 10
7.1148336293
 20
5.5525852777
 30
0.0
 10
7.1155161161
 20
5.5528083169
 30
0.0
 10
7.1158577598
 20
5.5529057585
 30
0.0
  0
LINE
  5
36A
100
AcDbEntity
  8
ALL_ASSEMBLY_MEMBERS
100
AcDbLine
 62
7
  6
CONTINUOUS
 10
7.1157341682
 20
5.4756632766
 11
7.1142720573
 21
5.4781450652
  0
SPLINE
  5
36B
100
AcDbEntity
  8
ALL_ASSEMBLY_MEMBERS
100
AcDbSpline
 62
7
  6
CONTINUOUS
 70
0
 71
3
 72
46
 73
42
 74
0
 42
0.0000001
 43
0.0000001
 44
0.0000000001
 40
0.0
 40
0.0
 40
0.0
 40
0.0
 40
0.0369386283
 40
0.0726425409
 40
0.1070228913
 40
0.1399991947
 40
0.17150562
 40
0.20149917
 40
0.2299697794
 40
0.2569520261
 40
0.282537475
 40
0.2948591102
 40
0.3068975619
 40
0.3186843761
 40
0.3302556269
 40
0.3416515303
 40
0.3529158338
 40
0.364095012
 40
0.3752372562
 40
0.3863913831
 40
0.3976056721
 40
0.4089267926
 40
0.4203988199
 40
0.4320624845
 40
0.4439545827
 40
0.4685398668
 40
0.494374698
 40
0.5216005366
 40
0.5503010661
 40
0.5805130346
 40
0.6122367821
 40
0.6454453047
 40
0.6800915508
 40
0.7161139673
 40
0.7534405571
 40
0.7919916843
 40
0.8316821766
 40
0.8724227121
 40
0.9141195777
 40
0.9566794769
 40
1.0
 40
1.0
 40
1.0
 40
1.0
 10
7.1260190395
 20
5.5479501313
 30
0.0
 10
7.1256145874
 20
5.5485221124
 30
0.0
 10
7.1247925207
 20
5.5496284278
 30
0.0
 10
7.1234995599
 20
5.5511941534
 30
0.0
 10
7.122172829
 20
5.5526308851
 30
0.0
 10
7.1208190749
 20
5.5539298589
 30
0.0
 10
7.1194453677
 20
5.5550824475
 30
0.0
 10
7.1180591205
 20
5.556080252
 30
0.0
 10
7.116667907
 20
5.5569153337
 30
0.0
 10
7.1152796599
 20
5.5575803419
 30
0.0
 10
7.1141170577
 20
5.5579925249
 30
0.0
 10
7.1131988918
 20
5.5582273807
 30
0.0
 10
7.1125249463
 20
5.5583554179
 30
0.0
 10
7.1118581519
 20
5.5584371704
 30
0.0
 10
7.1111994564
 20
5.5584723901
 30
0.0
 10
7.1105498048
 20
5.5584609585
 30
0.0
 10
7.1099101012
 20
5.5584028654
 30
0.0
 10
7.1092812063
 20
5.5582982529
 30
0.0
 10
7.1086639307
 20
5.5581473695
 30
0.0
 10
7.1080590161
 20
5.5579506205
 30
0.0
 10
7.1074671415
 20
5.5577085016
 30
0.0
 10
7.1068888928
 20
5.5574216535
 30
0.0
 10
7.1063247954
 20
5.5570907815
 30
0.0
 10
7.105775252
 20
5.5567166991
 30
0.0
 10
7.1050545645
 20
5.5561553535
 30
0.0
 10
7.1041908582
 20
5.555344601
 30
0.0
 10
7.1032297433
 20
5.5542258813
 30
0.0
 10
7.1023320829
 20
5.5529591516
 30
0.0
 10
7.1014972435
 20
5.5515532345
 30
0.0
 10
7.1007239191
 20
5.5500167907
 30
0.0
 10
7.100010496
 20
5.5483584185
 30
0.0
 10
7.0993550682
 20
5.5465865422
 30
0.0
 10
7.0987555348
 20
5.5447093736
 30
0.0
 10
7.0982096671
 20
5.5427348755
 30
0.0
 10
7.0977151755
 20
5.5406707533
 30
0.0
 10
7.0972697641
 20
5.5385244631
 30
0.0
 10
7.0968711782
 20
5.5363032321
 30
0.0
 10
7.0965172516
 20
5.5340141075
 30
0.0
 10
7.0962059231
 20
5.5316639295
 30
0.0
 10
7.095935309
 20
5.5292595056
 30
0.0
 10
7.0957821131
 20
5.5276379337
 30
0.0
 10
7.0957115164
 20
5.5268194104
 30
0.0
  0
SPLINE
  5
36C
100
AcDbEntity
  8
ALL_ASSEMBLY_MEMBERS
100
AcDbSpline
 62
7
  6
CONTINUOUS
 70
0
 71
3
 72
22
 73
18
 74
0
 42
0.0000001
 43
0.0000001
 44
0.0000000001
 40
0.0
 40
0.0
 40
0.0
 40
0.0
 40
0.0761137383
 40
0.1508841938
 40
0.2241648541
 40
0.2958268095
 40
0.3657465114
 40
0.4338137086
 40
0.4999308113
 40
0.5640149574
 40
0.625999777
 40
0.6858374268
 40
0.7435009409
 40
0.7989868295
 40
0.8523181171
 40
0.9035461465
 40
1.0
 40
1.0
 40
1.0
 40
1.0
 10
7.0957115164
 20
5.5268194104
 30
0.0
 10
7.0958524361
 20
5.5275195775
 30
0.0
 10
7.0961524653
 20
5.5289034972
 30
0.0
 10
7.0966617291
 20
5.5309446956
 30
0.0
 10
7.097225066
 20
5.5329282897
 30
0.0
 10
7.0978408245
 20
5.5348485178
 30
0.0
 10
7.0985072504
 20
5.5366998768
 30
0.0
 10
7.0992224219
 20
5.5384770299
 30
0.0
 10
7.0999842896
 20
5.5401748708
 30
0.0
 10
7.1007906715
 20
5.5417885212
 30
0.0
 10
7.1016392668
 20
5.5433133495
 30
0.0
 10
7.1025276573
 20
5.5447449749
 30
0.0
 10
7.1034533448
 20
5.5460793026
 30
0.0
 10
7.1044136611
 20
5.5473124522
 30
0.0
 10
7.1054061248
 20
5.548441047
 30
0.0
 10
7.1067409431
 20
5.5497746298
 30
0.0
 10
7.1078221093
 20
5.5506525764
 30
0.0
 10
7.1085705413
 20
5.5511614935
 30
0.0
  0
LINE
  5
36D
100
AcDbEntity
  8
ALL_ASSEMBLY_MEMBERS
100
AcDbLine
 62
7
  6
CONTINUOUS
 10
7.0953902466
 20
5.4995685816
 11
7.094898073
 21
5.5112946362
  0
SPLINE
  5
36E
100
AcDbEntity
  8
ALL_ASSEMBLY_MEMBERS
100
AcDbSpline
 62
7
  6
CONTINUOUS
 70
0
 71
3
 72
56
 73
52
 74
0
 42
0.0000001
 43
0.0000001
 44
0.0000000001
 40
0.0
 40
0.0
 40
0.0
 40
0.0
 40
0.0434609913
 40
0.0863164521
 40
0.128451433
 40
0.1697592096
 40
0.2101327906
 40
0.2494693759
 40
0.2876695586
 40
0.3246383695
 40
0.3602866499
 40
0.3945331055
 40
0.4111093645
 40
0.4273100189
 40
0.4431288622
 40
0.4585608506
 40
0.4736027529
 40
0.4882530342
 40
0.5025125265
 40
0.5163845185
 40
0.5298753259
 40
0.542994607
 40
0.5557558199
 40
0.5681766532
 40
0.5920798054
 40
0.6036326951
 40
0.6149639761
 40
0.6261155991
 40
0.6371337931
 40
0.6480682133
 40
0.6589708908
 40
0.6698949865
 40
0.6808933352
 40
0.692017223
 40
0.7033149155
 40
0.7148309223
 40
0.7266048494
 40
0.7386713537
 40
0.7510594405
 40
0.7768804974
 40
0.7903556522
 40
0.8042176767
 40
0.8184719217
 40
0.8331200959
 40
0.8481609672
 40
0.8635906769
 40
0.8794031993
 40
0.8955907884
 40
0.9290490351
 40
0.9638841975
 40
1.0
 40
1.0
 40
1.0
 40
1.0
 10
7.0953902466
 20
5.4995685816
 30
0.0
 10
7.0954423107
 20
5.4986811239
 30
0.0
 10
7.0955591331
 20
5.4969193252
 30
0.0
 10
7.0957760152
 20
5.4943007273
 30
0.0
 10
7.096035135
 20
5.4917302057
 30
0.0
 10
7.0963383736
 20
5.4892156146
 30
0.0
 10
7.0966878646
 20
5.4867648025
 30
0.0
 10
7.0970859242
 20
5.4843857858
 30
0.0
 10
7.0975350424
 20
5.4820867384
 30
0.0
 10
7.0980378314
 20
5.4798760434
 30
0.0
 10
7.0985969744
 20
5.4777624008
 30
0.0
 10
7.0991176468
 20
5.4760713869
 30
0.0
 10
7.0995668261
 20
5.4747759894
 30
0.0
 10
7.0999158532
 20
5.4738451459
 30
0.0
 10
7.100280966
 20
5.472945693
 30
0.0
 10
7.1006624429
 20
5.4720788726
 30
0.0
 10
7.1010605511
 20
5.4712459591
 30
0.0
 10
7.1014755083
 20
5.4704482247
 30
0.0
 10
7.1019075296
 20
5.4696869701
 30
0.0
 10
7.1023567614
 20
5.4689634836
 30
0.0
 10
7.1028233446
 20
5.4682790694
 30
0.0
 10
7.1033073256
 20
5.4676350237
 30
0.0
 10
7.1038087915
 20
5.4670325884
 30
0.0
 10
7.1044916696
 20
5.4662961338
 30
0.0
 10
7.1052183504
 20
5.465635237
 30
0.0
 10
7.1059870527
 20
5.465064136
 30
0.0
 10
7.1065736731
 20
5.4646881062
 30
0.0
 10
7.1071763337
 20
5.4643606589
 30
0.0
 10
7.1077945013
 20
5.4640826701
 30
0.0
 10
7.1084275175
 20
5.4638549546
 30
0.0
 10
7.1090746186
 20
5.4636781548
 30
0.0
 10
7.1097349554
 20
5.4635528101
 30
0.0
 10
7.1104075868
 20
5.4634792443
 30
0.0
 10
7.1110915093
 20
5.4634576841
 30
0.0
 10
7.1117856622
 20
5.4634881132
 30
0.0
 10
7.1124889392
 20
5.4635704444
 30
0.0
 10
7.1132002027
 20
5.4637043442
 30
0.0
 10
7.1139183059
 20
5.4638894434
 30
0.0
 10
7.1148966462
 20
5.4642080498
 30
0.0
 10
7.1158709459
 20
5.464625086
 30
0.0
 10
7.1168349827
 20
5.4651286106
 30
0.0
 10
7.1175692514
 20
5.46555898
 30
0.0
 10
7.118303072
 20
5.466035587
 30
0.0
 10
7.1190353298
 20
5.4665573173
 30
0.0
 10
7.11976482
 20
5.4671230146
 30
0.0
 10
7.1204904119
 20
5.4677314416
 30
0.0
 10
7.121210976
 20
5.4683813694
 30
0.0
 10
7.1221741348
 20
5.4693117712
 30
0.0
 10
7.1233573229
 20
5.4705729045
 30
0.0
 10
7.1247249753
 20
5.4722145624
 30
0.0
 10
7.1255925275
 20
5.473378978
 30
0.0
 10
7.1260190395
 20
5.473982156
 30
0.0
  0
SPLINE
  5
36F
100
AcDbEntity
  8
ALL_ASSEMBLY_MEMBERS
100
AcDbSpline
 62
7
  6
CONTINUOUS
 70
0
 71
3
 72
15
 73
11
 74
0
 42
0.0000001
 43
0.0000001
 44
0.0000000001
 40
0.0
 40
0.0
 40
0.0
 40
0.0
 40
0.1246082417
 40
0.2503936291
 40
0.3768527553
 40
0.5033663471
 40
0.6293140225
 40
0.7541887495
 40
0.8777185728
 40
1.0
 40
1.0
 40
1.0
 40
1.0
 10
5.8401009317
 20
5.7969661437
 30
0.0
 10
5.8352844329
 20
5.7812416916
 30
0.0
 10
5.8247507373
 20
5.7499046369
 30
0.0
 10
5.8072574187
 20
5.7033419386
 30
0.0
 10
5.7888674929
 20
5.6568591646
 30
0.0
 10
5.7704623898
 20
5.6103597809
 30
0.0
 10
5.7529228869
 20
5.5637453762
 30
0.0
 10
5.7371325273
 20
5.5169131446
 30
0.0
 10
5.7239823275
 20
5.469761786
 30
0.0
 10
5.717554905
 20
5.43791697
 30
0.0
 10
5.7151009317
 20
5.4219661437
 30
0.0
  0
SPLINE
  5
370
100
AcDbEntity
  8
ALL_ASSEMBLY_MEMBERS
100
AcDbSpline
 62
7
  6
CONTINUOUS
 70
0
 71
3
 72
15
 73
11
 74
0
 42
0.0000001
 43
0.0000001
 44
0.0000000001
 40
0.0
 40
0.0
 40
0.0
 40
0.0
 40
0.1246082417
 40
0.2503936291
 40
0.3768527553
 40
0.5033663471
 40
0.6293140225
 40
0.7541887495
 40
0.8777185728
 40
1.0
 40
1.0
 40
1.0
 40
1.0
 10
4.6526009317
 20
5.7969661437
 30
0.0
 10
4.6574174305
 20
5.7812416916
 30
0.0
 10
4.6679511261
 20
5.7499046369
 30
0.0
 10
4.6854444446
 20
5.7033419386
 30
0.0
 10
4.7038343704
 20
5.6568591646
 30
0.0
 10
4.7222394736
 20
5.6103597809
 30
0.0
 10
4.7397789764
 20
5.5637453762
 30
0.0
 10
4.7555693361
 20
5.5169131446
 30
0.0
 10
4.7687195359
 20
5.469761786
 30
0.0
 10
4.7751469584
 20
5.43791697
 30
0.0
 10
4.7776009317
 20
5.4219661437
 30
0.0
  0
SPLINE
  5
371
100
AcDbEntity
  8
ALL_ASSEMBLY_MEMBERS
100
AcDbSpline
 62
7
  6
CONTINUOUS
 70
0
 71
3
 72
11
 73
7
 74
0
 42
0.0000001
 43
0.0000001
 44
0.0000000001
 40
0.0
 40
0.0
 40
0.0
 40
0.0
 40
0.2533945098
 40
0.5031580534
 40
0.7513745212
 40
1.0
 40
1.0
 40
1.0
 40
1.0
 10
5.7151009317
 20
5.4219661437
 30
0.0
 10
5.7070312658
 20
5.3695133156
 30
0.0
 10
5.6928539873
 20
5.2650688563
 30
0.0
 10
5.6762944446
 20
5.1085617871
 30
0.0
 10
5.6632769383
 20
4.9527298629
 30
0.0
 10
5.656064652
 20
4.8489219488
 30
0.0
 10
5.6526009317
 20
4.7969661437
 30
0.0
  0
SPLINE
  5
372
100
AcDbEntity
  8
ALL_ASSEMBLY_MEMBERS
100
AcDbSpline
 62
7
  6
CONTINUOUS
 70
0
 71
3
 72
11
 73
7
 74
0
 42
0.0000001
 43
0.0000001
 44
0.0000000001
 40
0.0
 40
0.0
 40
0.0
 40
0.0
 40
0.2533945098
 40
0.5031580534
 40
0.7513745212
 40
1.0
 40
1.0
 40
1.0
 40
1.0
 10
4.7776009317
 20
5.4219661437
 30
0.0
 10
4.7856705975
 20
5.3695133156
 30
0.0
 10
4.799847876
 20
5.2650688563
 30
0.0
 10
4.8164074188
 20
5.1085617871
 30
0.0
 10
4.829424925
 20
4.9527298629
 30
0.0
 10
4.8366372113
 20
4.8489219488
 30
0.0
 10
4.8401009317
 20
4.7969661437
 30
0.0
  0
SPLINE
  5
373
100
AcDbEntity
  8
ALL_ASSEMBLY_MEMBERS
100
AcDbSpline
 62
7
  6
CONTINUOUS
 70
0
 71
3
 72
11
 73
7
 74
0
 42
0.0000001
 43
0.0000001
 44
0.0000000001
 40
0.0
 40
0.0
 40
0.0
 40
0.0
 40
0.2503260878
 40
0.5004235954
 40
0.7502703597
 40
1.0
 40
1.0
 40
1.0
 40
1.0
 10
5.6526009317
 20
4.7969661437
 30
0.0
 10
5.6491268787
 20
4.7448553487
 30
0.0
 10
5.641749131
 20
4.6407112276
 30
0.0
 10
5.6313334242
 20
4.4845238362
 30
0.0
 10
5.6235205192
 20
4.3283010653
 30
0.0
 10
5.6213509317
 20
4.224068173
 30
0.0
 10
5.6213509317
 20
4.1719661437
 30
0.0
  0
SPLINE
  5
374
100
AcDbEntity
  8
ALL_ASSEMBLY_MEMBERS
100
AcDbSpline
 62
7
  6
CONTINUOUS
 70
0
 71
3
 72
11
 73
7
 74
0
 42
0.0000001
 43
0.0000001
 44
0.0000000001
 40
0.0
 40
0.0
 40
0.0
 40
0.0
 40
0.2503260878
 40
0.5004235954
 40
0.7502703597
 40
1.0
 40
1.0
 40
1.0
 40
1.0
 10
4.8401009317
 20
4.7969661437
 30
0.0
 10
4.8435749847
 20
4.7448553487
 30
0.0
 10
4.8509527323
 20
4.6407112276
 30
0.0
 10
4.8613684391
 20
4.4845238362
 30
0.0
 10
4.8691813441
 20
4.3283010653
 30
0.0
 10
4.8713509317
 20
4.224068173
 30
0.0
 10
4.8713509317
 20
4.1719661437
 30
0.0
  0
SPLINE
  5
375
100
AcDbEntity
  8
ALL_ASSEMBLY_MEMBERS
100
AcDbSpline
 62
7
  6
CONTINUOUS
 70
0
 71
3
 72
15
 73
11
 74
0
 42
0.0000001
 43
0.0000001
 44
0.0000000001
 40
0.0
 40
0.0
 40
0.0
 40
0.0
 40
0.170661003
 40
0.3366004574
 40
0.4932071603
 40
0.6361542659
 40
0.7614787828
 40
0.8657110063
 40
0.9459607323
 40
1.0
 40
1.0
 40
1.0
 40
1.0
 10
5.6213509317
 20
3.5084661437
 30
0.0
 10
5.6213509317
 20
3.4808178282
 30
0.0
 10
5.6211872601
 20
3.426286036
 30
0.0
 10
5.6205518611
 20
3.3463851878
 30
0.0
 10
5.6196320865
 20
3.2709773196
 30
0.0
 10
5.6185334109
 20
3.2021525821
 30
0.0
 10
5.6173612603
 20
3.1418155386
 30
0.0
 10
5.6162216434
 20
3.0916375007
 30
0.0
 10
5.6152200121
 20
3.0530082633
 30
0.0
 10
5.6145871392
 20
3.0312616345
 30
0.0
 10
5.6143137055
 20
3.0225111538
 30
0.0
  0
SPLINE
  5
376
100
AcDbEntity
  8
ALL_ASSEMBLY_MEMBERS
100
AcDbSpline
 62
7
  6
CONTINUOUS
 70
0
 71
3
 72
15
 73
11
 74
0
 42
0.0000001
 43
0.0000001
 44
0.0000000001
 40
0.0
 40
0.0
 40
0.0
 40
0.0
 40
0.1706630148
 40
0.3366042559
 40
0.4932123148
 40
0.6361601514
 40
0.7614846165
 40
0.8657158838
 40
0.9459636735
 40
1.0
 40
1.0
 40
1.0
 40
1.0
 10
4.8713509317
 20
3.5084661437
 30
0.0
 10
4.8713509317
 20
3.4808173447
 30
0.0
 10
4.8715146089
 20
3.4262846263
 30
0.0
 10
4.8721500278
 20
3.3463824879
 30
0.0
 10
4.8730698285
 20
3.2709735626
 30
0.0
 10
4.8741685308
 20
3.2021481035
 30
0.0
 10
4.875340703
 20
3.1418107613
 30
0.0
 10
4.876480331
 20
3.0916329147
 30
0.0
 10
4.8774819574
 20
3.0530044022
 30
0.0
 10
4.8781148197
 20
3.0312584397
 30
0.0
 10
4.8783882444
 20
3.0225083855
 30
0.0
  0
SPLINE
  5
377
100
AcDbEntity
  8
ALL_ASSEMBLY_MEMBERS
100
AcDbSpline
 62
7
  6
CONTINUOUS
 70
0
 71
3
 72
9
 73
5
 74
0
 42
0.0000001
 43
0.0000001
 44
0.0000000001
 40
0.0
 40
0.0
 40
0.0
 40
0.0
 40
0.4999922199
 40
1.0
 40
1.0
 40
1.0
 40
1.0
 10
4.6526009317
 20
5.7969661437
 30
0.0
 10
4.6400500629
 20
5.8375360857
 30
0.0
 10
4.6094701056
 20
5.9170766237
 30
0.0
 10
4.5688682056
 20
5.9919678674
 30
0.0
 10
4.5463512669
 20
6.0279754253
 30
0.0
  0
SPLINE
  5
378
100
AcDbEntity
  8
ALL_ASSEMBLY_MEMBERS
100
AcDbSpline
 62
7
  6
CONTINUOUS
 70
0
 71
3
 72
9
 73
5
 74
0
 42
0.0000001
 43
0.0000001
 44
0.0000000001
 40
0.0
 40
0.0
 40
0.0
 40
0.0
 40
0.4999922197
 40
1.0
 40
1.0
 40
1.0
 40
1.0
 10
5.8401009317
 20
5.7969661437
 30
0.0
 10
5.8526518004
 20
5.8375360856
 30
0.0
 10
5.8832317578
 20
5.9170766237
 30
0.0
 10
5.9238336578
 20
5.9919678674
 30
0.0
 10
5.9463505965
 20
6.0279754253
 30
0.0
  0
SPLINE
  5
379
100
AcDbEntity
  8
ALL_ASSEMBLY_MEMBERS
100
AcDbSpline
 62
7
  6
CONTINUOUS
 70
0
 71
3
 72
11
 73
7
 74
0
 42
0.0000001
 43
0.0000001
 44
0.0000000001
 40
0.0
 40
0.0
 40
0.0
 40
0.0
 40
0.2526417621
 40
0.5023277779
 40
0.7508580524
 40
1.0
 40
1.0
 40
1.0
 40
1.0
 10
5.4807259317
 20
5.4219661437
 30
0.0
 10
5.4766837563
 20
5.3694178639
 30
0.0
 10
5.4695904424
 20
5.2648619198
 30
0.0
 10
5.4613171853
 20
5.1084403177
 30
0.0
 10
5.4548116771
 20
4.9526677687
 30
0.0
 10
5.4512074175
 20
4.8489107172
 30
0.0
 10
5.4494759317
 20
4.7969661437
 30
0.0
  0
SPLINE
  5
37A
100
AcDbEntity
  8
ALL_ASSEMBLY_MEMBERS
100
AcDbSpline
 62
7
  6
CONTINUOUS
 70
0
 71
3
 72
11
 73
7
 74
0
 42
0.0000001
 43
0.0000001
 44
0.0000000001
 40
0.0
 40
0.0
 40
0.0
 40
0.0
 40
0.2526417621
 40
0.5023277779
 40
0.7508580524
 40
1.0
 40
1.0
 40
1.0
 40
1.0
 10
5.0119759317
 20
5.4219661437
 30
0.0
 10
5.016018107
 20
5.3694178639
 30
0.0
 10
5.023111421
 20
5.2648619198
 30
0.0
 10
5.0313846781
 20
5.1084403177
 30
0.0
 10
5.0378901862
 20
4.9526677687
 30
0.0
 10
5.0414944459
 20
4.8489107172
 30
0.0
 10
5.0432259317
 20
4.7969661437
 30
0.0
  0
SPLINE
  5
37B
100
AcDbEntity
  8
ALL_ASSEMBLY_MEMBERS
100
AcDbSpline
 62
7
  6
CONTINUOUS
 70
0
 71
3
 72
9
 73
5
 74
0
 42
0.0000001
 43
0.0000001
 44
0.0000000001
 40
0.0
 40
0.0
 40
0.0
 40
0.0
 40
0.5001379753
 40
1.0
 40
1.0
 40
1.0
 40
1.0
 10
5.4494759317
 20
4.7969661437
 30
0.0
 10
5.4460034741
 20
4.692792415
 30
0.0
 10
5.4381900196
 20
4.4845386808
 30
0.0
 10
5.4338509317
 20
4.276140221
 30
0.0
 10
5.4338509317
 20
4.1719661437
 30
0.0
  0
SPLINE
  5
37C
100
AcDbEntity
  8
ALL_ASSEMBLY_MEMBERS
100
AcDbSpline
 62
7
  6
CONTINUOUS
 70
0
 71
3
 72
9
 73
5
 74
0
 42
0.0000001
 43
0.0000001
 44
0.0000000001
 40
0.0
 40
0.0
 40
0.0
 40
0.0
 40
0.5001379753
 40
1.0
 40
1.0
 40
1.0
 40
1.0
 10
5.0432259317
 20
4.7969661437
 30
0.0
 10
5.0466983893
 20
4.692792415
 30
0.0
 10
5.0545118438
 20
4.4845386808
 30
0.0
 10
5.0588509317
 20
4.276140221
 30
0.0
 10
5.0588509317
 20
4.1719661437
 30
0.0
  0
SPLINE
  5
37D
100
AcDbEntity
  8
ALL_ASSEMBLY_MEMBERS
100
AcDbSpline
 62
7
  6
CONTINUOUS
 70
0
 71
3
 72
17
 73
13
 74
0
 42
0.0000001
 43
0.0000001
 44
0.0000000001
 40
0.0
 40
0.0
 40
0.0
 40
0.0
 40
0.1249996347
 40
0.2499996566
 40
0.312499721
 40
0.3749998036
 40
0.4999999912
 40
0.6250001777
 40
0.6875002648
 40
0.7500003324
 40
0.8750003639
 40
1.0
 40
1.0
 40
1.0
 40
1.0
 10
5.5403555278
 20
5.7969661436
 30
0.0
 10
5.515856847
 20
5.7966527559
 30
0.0
 10
5.4668570824
 20
5.7962060747
 30
0.0
 10
5.4056058092
 20
5.7959245837
 30
0.0
 10
5.3566044302
 20
5.795793942
 30
0.0
 10
5.307602926
 20
5.7957054663
 30
0.0
 10
5.2463509365
 20
5.7956658265
 30
0.0
 10
5.1850989469
 20
5.7957057707
 30
0.0
 10
5.1360974403
 20
5.7957935817
 30
0.0
 10
5.0870960569
 20
5.795923983
 30
0.0
 10
5.0258447851
 20
5.7962064972
 30
0.0
 10
4.97684502
 20
5.7966530615
 30
0.0
 10
4.952346335
 20
5.7969661436
 30
0.0
  0
SPLINE
  5
37E
100
AcDbEntity
  8
ALL_ASSEMBLY_MEMBERS
100
AcDbSpline
 62
7
  6
CONTINUOUS
 70
0
 71
3
 72
15
 73
11
 74
0
 42
0.0000001
 43
0.0000001
 44
0.0000000001
 40
0.0
 40
0.0
 40
0.0
 40
0.0
 40
0.1249997138
 40
0.2499998158
 40
0.3749998716
 40
0.4999999928
 40
0.62500011
 40
0.7500001682
 40
0.8750002868
 40
1.0
 40
1.0
 40
1.0
 40
1.0
 10
5.5403555133
 20
5.7969661438
 30
0.0
 10
5.5158568301
 20
5.797280633
 30
0.0
 10
5.4668569664
 20
5.7977207276
 30
0.0
 10
5.3933554641
 20
5.7980667292
 30
0.0
 10
5.3198532713
 20
5.7982334844
 30
0.0
 10
5.2463509361
 20
5.7982838651
 30
0.0
 10
5.1728486009
 20
5.798233406
 30
0.0
 10
5.0993464037
 20
5.7980670061
 30
0.0
 10
5.0258449006
 20
5.797720648
 30
0.0
 10
4.9768450291
 20
5.7972809237
 30
0.0
 10
4.9523463497
 20
5.7969661438
 30
0.0
  0
SPLINE
  5
37F
100
AcDbEntity
  8
ALL_ASSEMBLY_MEMBERS
100
AcDbSpline
 62
7
  6
CONTINUOUS
 70
0
 71
3
 72
9
 73
5
 74
0
 42
0.0000001
 43
0.0000001
 44
0.0000000001
 40
0.0
 40
0.0
 40
0.0
 40
0.0
 40
0.5005059225
 40
1.0
 40
1.0
 40
1.0
 40
1.0
 10
5.8386657297
 20
5.7969661436
 30
0.0
 10
5.825954077
 20
5.796642847
 30
0.0
 10
5.8005515732
 20
5.7961878429
 30
0.0
 10
5.7751465981
 20
5.7959641584
 30
0.0
 10
5.7624567923
 20
5.7958844012
 30
0.0
  0
SPLINE
  5
380
100
AcDbEntity
  8
ALL_ASSEMBLY_MEMBERS
100
AcDbSpline
 62
7
  6
CONTINUOUS
 70
0
 71
3
 72
13
 73
9
 74
0
 42
0.0000001
 43
0.0000001
 44
0.0000000001
 40
0.0
 40
0.0
 40
0.0
 40
0.0
 40
0.1254112253
 40
0.2507083334
 40
0.5009939877
 40
0.625975445
 40
0.7508182922
 40
1.0
 40
1.0
 40
1.0
 40
1.0
 10
5.7605585774
 20
5.7958727107
 30
0.0
 10
5.7515330424
 20
5.795818253
 30
0.0
 10
5.7334900035
 20
5.7957388489
 30
0.0
 10
5.6974341156
 20
5.7956618798
 30
0.0
 10
5.6614090111
 20
5.7956926484
 30
0.0
 10
5.6254168904
 20
5.7958380752
 30
0.0
 10
5.5895050971
 20
5.7961013587
 30
0.0
 10
5.5625885248
 20
5.7965052025
 30
0.0
 10
5.5446611333
 20
5.7969661436
 30
0.0
  0
SPLINE
  5
381
100
AcDbEntity
  8
ALL_ASSEMBLY_MEMBERS
100
AcDbSpline
 62
7
  6
CONTINUOUS
 70
0
 71
3
 72
9
 73
5
 74
0
 42
0.0000001
 43
0.0000001
 44
0.0000000001
 40
0.0
 40
0.0
 40
0.0
 40
0.0
 40
0.4994883933
 40
1.0
 40
1.0
 40
1.0
 40
1.0
 10
5.8386657225
 20
5.7969661438
 30
0.0
 10
5.8260770851
 20
5.7972912811
 30
0.0
 10
5.8008688097
 20
5.7977393022
 30
0.0
 10
5.7756582964
 20
5.7979691643
 30
0.0
 10
5.7630399429
 20
5.7980530244
 30
0.0
  0
SPLINE
  5
382
100
AcDbEntity
  8
ALL_ASSEMBLY_MEMBERS
100
AcDbSpline
 62
7
  6
CONTINUOUS
 70
0
 71
3
 72
12
 73
8
 74
0
 42
0.0000001
 43
0.0000001
 44
0.0000000001
 40
0.0
 40
0.0
 40
0.0
 40
0.0
 40
0.2494912617
 40
0.4992429288
 40
0.7493037276
 40
0.8745342877
 40
1.0
 40
1.0
 40
1.0
 40
1.0
 10
5.7605602137
 20
5.798069092
 30
0.0
 10
5.7426048157
 20
5.798182489
 30
0.0
 10
5.7066745366
 20
5.7982948919
 30
0.0
 10
5.6527475111
 20
5.7982474004
 30
0.0
 10
5.6077637395
 20
5.7980030402
 30
0.0
 10
5.5717271152
 20
5.7975565855
 30
0.0
 10
5.5536878978
 20
5.7971967357
 30
0.0
 10
5.5446611407
 20
5.7969661438
 30
0.0
  0
SPLINE
  5
383
100
AcDbEntity
  8
ALL_ASSEMBLY_MEMBERS
100
AcDbSpline
 62
7
  6
CONTINUOUS
 70
0
 71
3
 72
13
 73
9
 74
0
 42
0.0000001
 43
0.0000001
 44
0.0000000001
 40
0.0
 40
0.0
 40
0.0
 40
0.0
 40
0.2491819847
 40
0.3740253321
 40
0.4990063101
 40
0.7492920159
 40
0.8745892365
 40
1.0
 40
1.0
 40
1.0
 40
1.0
 10
4.9480407297
 20
5.7969661436
 30
0.0
 10
4.9301135013
 20
5.796504754
 30
0.0
 10
4.9031971171
 20
5.796101155
 30
0.0
 10
4.8672856414
 20
5.7958388436
 30
0.0
 10
4.8312938651
 20
5.7956921419
 30
0.0
 10
4.7952691244
 20
5.7956617683
 30
0.0
 10
4.7592136048
 20
5.7957391014
 30
0.0
 10
4.7411707598
 20
5.7958177315
 30
0.0
 10
4.7321453445
 20
5.7958722167
 30
0.0
  0
SPLINE
  5
384
100
AcDbEntity
  8
ALL_ASSEMBLY_MEMBERS
100
AcDbSpline
 62
7
  6
CONTINUOUS
 70
0
 71
3
 72
9
 73
5
 74
0
 42
0.0000001
 43
0.0000001
 44
0.0000000001
 40
0.0
 40
0.0
 40
0.0
 40
0.0
 40
0.4994829261
 40
1.0
 40
1.0
 40
1.0
 40
1.0
 10
4.7321453445
 20
5.7958722167
 30
0.0
 10
4.71913942
 20
5.7959507318
 30
0.0
 10
4.693100983
 20
5.7961736284
 30
0.0
 10
4.6670650183
 20
5.7966351001
 30
0.0
 10
4.6540361334
 20
5.7969661436
 30
0.0
  0
SPLINE
  5
385
100
AcDbEntity
  8
ALL_ASSEMBLY_MEMBERS
100
AcDbSpline
 62
7
  6
CONTINUOUS
 70
0
 71
3
 72
12
 73
8
 74
0
 42
0.0000001
 43
0.0000001
 44
0.0000000001
 40
0.0
 40
0.0
 40
0.0
 40
0.0
 40
0.1254655181
 40
0.2506962183
 40
0.5007569688
 40
0.7505087244
 40
1.0
 40
1.0
 40
1.0
 40
1.0
 10
4.9480407225
 20
5.7969661438
 30
0.0
 10
4.9390139882
 20
5.7971965234
 30
0.0
 10
4.9209748057
 20
5.7975563998
 30
0.0
 10
4.8849382485
 20
5.7980031599
 30
0.0
 10
4.8399545334
 20
5.7982473499
 30
0.0
 10
4.7860275901
 20
5.7982950219
 30
0.0
 10
4.7500973592
 20
5.79818275
 30
0.0
 10
4.732141989
 20
5.798069282
 30
0.0
  0
SPLINE
  5
386
100
AcDbEntity
  8
ALL_ASSEMBLY_MEMBERS
100
AcDbSpline
 62
7
  6
CONTINUOUS
 70
0
 71
3
 72
9
 73
5
 74
0
 42
0.0000001
 43
0.0000001
 44
0.0000000001
 40
0.0
 40
0.0
 40
0.0
 40
0.0
 40
0.5005175995
 40
1.0
 40
1.0
 40
1.0
 40
1.0
 10
4.731554847
 20
5.7980655488
 30
0.0
 10
4.7186205099
 20
5.7979828074
 30
0.0
 10
4.6927789888
 20
5.7977534848
 30
0.0
 10
4.6669396792
 20
5.7972997243
 30
0.0
 10
4.6540361407
 20
5.7969661438
 30
0.0
  0
SPLINE
  5
387
100
AcDbEntity
  8
ALL_ASSEMBLY_MEMBERS
100
AcDbSpline
 62
7
  6
CONTINUOUS
 70
0
 71
3
 72
12
 73
8
 74
0
 42
0.0000001
 43
0.0000001
 44
0.0000000001
 40
0.0
 40
0.0
 40
0.0
 40
0.0
 40
0.2495869832
 40
0.4994048298
 40
0.7493735101
 40
0.8745247246
 40
1.0
 40
1.0
 40
1.0
 40
1.0
 10
5.5432259317
 20
5.7969661437
 30
0.0
 10
5.5384355647
 20
5.7656878651
 30
0.0
 10
5.5270463541
 20
5.7033840516
 30
0.0
 10
5.5081618207
 20
5.6102829285
 30
0.0
 10
5.4938822259
 20
5.5323246049
 30
0.0
 10
5.4851294309
 20
5.4694538037
 30
0.0
 10
5.4819460141
 20
5.4378272153
 30
0.0
 10
5.4807259317
 20
5.4219661437
 30
0.0
  0
LINE
  5
388
100
AcDbEntity
  8
ALL_ASSEMBLY_MEMBERS
100
AcDbLine
 62
7
  6
CONTINUOUS
 10
5.4338509317
 20
3.5084661437
 11
5.4336468106
 21
3.3266692098
  0
SPLINE
  5
389
100
AcDbEntity
  8
ALL_ASSEMBLY_MEMBERS
100
AcDbSpline
 62
7
  6
CONTINUOUS
 70
0
 71
3
 72
15
 73
11
 74
0
 42
0.0000001
 43
0.0000001
 44
0.0000000001
 40
0.0
 40
0.0
 40
0.0
 40
0.0
 40
0.2067378982
 40
0.3993070031
 40
0.5722291762
 40
0.7206515784
 40
0.8404502992
 40
0.9283456573
 40
0.9819847703
 40
1.0
 40
1.0
 40
1.0
 40
1.0
 10
5.4336468106
 20
3.3266692098
 30
0.0
 10
5.4335517931
 20
3.2828078897
 30
0.0
 10
5.43330861
 20
3.1980914069
 30
0.0
 10
5.4328080261
 20
3.0766885183
 30
0.0
 10
5.4322345364
 20
2.9676582997
 30
0.0
 10
5.431642006
 20
2.8740673885
 30
0.0
 10
5.4310860783
 20
2.7985158996
 30
0.0
 10
5.4306194923
 20
2.7430735196
 30
0.0
 10
5.4303027138
 20
2.7092249958
 30
0.0
 10
5.4301425553
 20
2.694023685
 30
0.0
 10
5.4301009317
 20
2.6902018078
 30
0.0
  0
LINE
  5
38A
100
AcDbEntity
  8
ALL_ASSEMBLY_MEMBERS
100
AcDbLine
 62
7
  6
CONTINUOUS
 10
5.0588509317
 20
3.5084661437
 11
5.0590550527
 21
3.3266692098
  0
SPLINE
  5
38B
100
AcDbEntity
  8
ALL_ASSEMBLY_MEMBERS
100
AcDbSpline
 62
7
  6
CONTINUOUS
 70
0
 71
3
 72
15
 73
11
 74
0
 42
0.0000001
 43
0.0000001
 44
0.0000000001
 40
0.0
 40
0.0
 40
0.0
 40
0.0
 40
0.2067378982
 40
0.3993070031
 40
0.5722291762
 40
0.7206515784
 40
0.8404502992
 40
0.9283456573
 40
0.9819847703
 40
1.0
 40
1.0
 40
1.0
 40
1.0
 10
5.0590550527
 20
3.3266692098
 30
0.0
 10
5.0591500703
 20
3.2828078897
 30
0.0
 10
5.0593932533
 20
3.1980914069
 30
0.0
 10
5.0598938373
 20
3.0766885183
 30
0.0
 10
5.0604673269
 20
2.9676582997
 30
0.0
 10
5.0610598574
 20
2.8740673885
 30
0.0
 10
5.0616157851
 20
2.7985158996
 30
0.0
 10
5.0620823711
 20
2.7430735196
 30
0.0
 10
5.0623991496
 20
2.7092249958
 30
0.0
 10
5.0625593081
 20
2.694023685
 30
0.0
 10
5.0626009317
 20
2.6902018078
 30
0.0
  0
SPLINE
  5
38C
100
AcDbEntity
  8
ALL_ASSEMBLY_MEMBERS
100
AcDbSpline
 62
7
  6
CONTINUOUS
 70
0
 71
3
 72
11
 73
7
 74
0
 42
0.0000001
 43
0.0000001
 44
0.0000000001
 40
0.0
 40
0.0
 40
0.0
 40
0.0
 40
0.2575626437
 40
0.5105934824
 40
0.7582902576
 40
1.0
 40
1.0
 40
1.0
 40
1.0
 10
5.5432259317
 20
5.7969661437
 30
0.0
 10
5.5463395426
 20
5.8170952706
 30
0.0
 10
5.5532233222
 20
5.8568932679
 30
0.0
 10
5.5655889447
 20
5.9155848698
 30
0.0
 10
5.5798321574
 20
5.9725580696
 30
0.0
 10
5.590646467
 20
6.0097315769
 30
0.0
 10
5.5963507641
 20
6.0279754253
 30
0.0
  0
SPLINE
  5
38D
100
AcDbEntity
  8
ALL_ASSEMBLY_MEMBERS
100
AcDbSpline
 62
7
  6
CONTINUOUS
 70
0
 71
3
 72
11
 73
7
 74
0
 42
0.0000001
 43
0.0000001
 44
0.0000000001
 40
0.0
 40
0.0
 40
0.0
 40
0.0
 40
0.2417097421
 40
0.4894065172
 40
0.7424373561
 40
1.0
 40
1.0
 40
1.0
 40
1.0
 10
4.8963510993
 20
6.0279754253
 30
0.0
 10
4.9020553964
 20
6.0097315769
 30
0.0
 10
4.912869706
 20
5.9725580696
 30
0.0
 10
4.9271129186
 20
5.9155848699
 30
0.0
 10
4.9394785411
 20
5.856893268
 30
0.0
 10
4.9463623207
 20
5.8170952706
 30
0.0
 10
4.9494759317
 20
5.7969661437
 30
0.0
  0
SPLINE
  5
38E
100
AcDbEntity
  8
ALL_ASSEMBLY_MEMBERS
100
AcDbSpline
 62
7
  6
CONTINUOUS
 70
0
 71
3
 72
12
 73
8
 74
0
 42
0.0000001
 43
0.0000001
 44
0.0000000001
 40
0.0
 40
0.0
 40
0.0
 40
0.0
 40
0.2495869832
 40
0.4994048298
 40
0.7493735101
 40
0.8745247246
 40
1.0
 40
1.0
 40
1.0
 40
1.0
 10
4.9494759317
 20
5.7969661437
 30
0.0
 10
4.9542662987
 20
5.7656878651
 30
0.0
 10
4.9656555093
 20
5.7033840516
 30
0.0
 10
4.9845400427
 20
5.6102829285
 30
0.0
 10
4.9988196374
 20
5.5323246049
 30
0.0
 10
5.0075724325
 20
5.4694538037
 30
0.0
 10
5.0107558492
 20
5.4378272153
 30
0.0
 10
5.0119759317
 20
5.4219661437
 30
0.0
  0
SPLINE
  5
38F
100
AcDbEntity
  8
ALL_ASSEMBLY_MEMBERS
100
AcDbSpline
 62
7
  6
CONTINUOUS
 70
0
 71
3
 72
23
 73
19
 74
0
 42
0.0000001
 43
0.0000001
 44
0.0000000001
 40
0.0
 40
0.0
 40
0.0
 40
0.0
 40
0.0622073012
 40
0.1208766345
 40
0.1765322075
 40
0.2298974282
 40
0.2818830221
 40
0.3334848398
 40
0.3857438771
 40
0.439641505
 40
0.4960409954
 40
0.5556455161
 40
0.6189863535
 40
0.6864333188
 40
0.7582139266
 40
0.8344379586
 40
0.9150733331
 40
1.0
 40
1.0
 40
1.0
 40
1.0
 10
5.8525684185
 20
6.1719661437
 30
0.0
 10
5.8566374535
 20
6.1719661438
 30
0.0
 10
5.864551051
 20
6.1716092945
 30
0.0
 10
5.8759911434
 20
6.1698792496
 30
0.0
 10
5.8865951174
 20
6.166963942
 30
0.0
 10
5.8963281785
 20
6.1628572081
 30
0.0
 10
5.9051663688
 20
6.1575645631
 30
0.0
 10
5.9130884785
 20
6.1510923049
 30
0.0
 10
5.9200900243
 20
6.143466338
 30
0.0
 10
5.9261778798
 20
6.134712577
 30
0.0
 10
5.9313715246
 20
6.1248599182
 30
0.0
 10
5.9357128133
 20
6.113941113
 30
0.0
 10
5.9392380933
 20
6.1019814153
 30
0.0
 10
5.9419964257
 20
6.0890104663
 30
0.0
 10
5.9440415501
 20
6.0750587586
 30
0.0
 10
5.9454227695
 20
6.0601613668
 30
0.0
 10
5.9461998504
 20
6.0443611541
 30
0.0
 10
5.9463505965
 20
6.0335305541
 30
0.0
 10
5.9463505965
 20
6.0279754253
 30
0.0
  0
SPLINE
  5
390
100
AcDbEntity
  8
ALL_ASSEMBLY_MEMBERS
100
AcDbSpline
 62
7
  6
CONTINUOUS
 70
0
 71
3
 72
15
 73
11
 74
0
 42
0.0000001
 43
0.0000001
 44
0.0000000001
 40
0.0
 40
0.0
 40
0.0
 40
0.0
 40
0.1293344228
 40
0.2580291702
 40
0.3855100424
 40
0.5114088397
 40
0.6355793551
 40
0.7581362359
 40
0.8794477088
 40
1.0
 40
1.0
 40
1.0
 40
1.0
 10
5.2463509375
 20
6.1719661437
 30
0.0
 10
5.2631286194
 20
6.1719661435
 30
0.0
 10
5.2966221533
 20
6.1704105353
 30
0.0
 10
5.3462122856
 20
6.163415626
 30
0.0
 10
5.3944760075
 20
6.1517900366
 30
0.0
 10
5.4407904568
 20
6.1356027847
 30
0.0
 10
5.4846024631
 20
6.1149676743
 30
0.0
 10
5.5254486379
 20
6.090066464
 30
0.0
 10
5.5629651928
 20
6.0611559475
 30
0.0
 10
5.5856519064
 20
6.0393813492
 30
0.0
 10
5.5963507641
 20
6.0279754253
 30
0.0
  0
SPLINE
  5
391
100
AcDbEntity
  8
ALL_ASSEMBLY_MEMBERS
100
AcDbSpline
 62
7
  6
CONTINUOUS
 70
0
 71
3
 72
20
 73
16
 74
0
 42
0.0000001
 43
0.0000001
 44
0.0000000001
 40
0.0
 40
0.0
 40
0.0
 40
0.0
 40
0.1534126034
 40
0.3013802289
 40
0.3728487345
 40
0.4423981419
 40
0.5750224991
 40
0.6377928616
 40
0.6979755678
 40
0.755443546
 40
0.8101103686
 40
0.8619071431
 40
0.9107996134
 40
0.9568089061
 40
1.0
 40
1.0
 40
1.0
 40
1.0
 10
5.5963507641
 20
6.0279754253
 30
0.0
 10
5.6068732088
 20
6.0391932775
 30
0.0
 10
5.6283594665
 20
6.0604828181
 30
0.0
 10
5.6568438294
 20
6.0847482982
 30
0.0
 10
5.6799829641
 20
6.1021959682
 30
0.0
 10
5.70253448
 20
6.1178276564
 30
0.0
 10
5.7252763245
 20
6.1316274917
 30
0.0
 10
5.7480373045
 20
6.1434115337
 30
0.0
 10
5.7644800527
 20
6.1509673809
 30
0.0
 10
5.7805268561
 20
6.157387881
 30
0.0
 10
5.7961016183
 20
6.162663126
 30
0.0
 10
5.8111321683
 20
6.1667841738
 30
0.0
 10
5.8255509813
 20
6.1697431219
 30
0.0
 10
5.8392916958
 20
6.1715366101
 30
0.0
 10
5.8482379726
 20
6.1719661349
 30
0.0
 10
5.8525681501
 20
6.1719661437
 30
0.0
  0
SPLINE
  5
392
100
AcDbEntity
  8
ALL_ASSEMBLY_MEMBERS
100
AcDbSpline
 62
7
  6
CONTINUOUS
 70
0
 71
3
 72
23
 73
19
 74
0
 42
0.0000001
 43
0.0000001
 44
0.0000000001
 40
0.0
 40
0.0
 40
0.0
 40
0.0
 40
0.084900419
 40
0.1655284185
 40
0.241766455
 40
0.3135667412
 40
0.3810186824
 40
0.4443593111
 40
0.5039608051
 40
0.5603590415
 40
0.614255389
 40
0.6665109236
 40
0.71811608
 40
0.7700990563
 40
0.8234719033
 40
0.8791476285
 40
0.9378133706
 40
1.0
 40
1.0
 40
1.0
 40
1.0
 10
4.5463512669
 20
6.0279754253
 30
0.0
 10
4.5463512669
 20
6.0335288076
 30
0.0
 10
4.5465022115
 20
6.0443571524
 30
0.0
 10
4.5472797421
 20
6.060155966
 30
0.0
 10
4.5486601245
 20
6.075055048
 30
0.0
 10
4.5507044084
 20
6.0890094255
 30
0.0
 10
4.5534657102
 20
6.1019813272
 30
0.0
 10
4.5569896584
 20
6.1139412685
 30
0.0
 10
4.5613282187
 20
6.1248610535
 30
0.0
 10
4.5665275607
 20
6.1347102643
 30
0.0
 10
4.5726130556
 20
6.1434645974
 30
0.0
 10
4.5796113281
 20
6.1510937534
 30
0.0
 10
4.5875354931
 20
6.1575632323
 30
0.0
 10
4.5963730288
 20
6.1628575912
 30
0.0
 10
4.606107977
 20
6.1669644501
 30
0.0
 10
4.6167139246
 20
6.1698780824
 30
0.0
 10
4.6281534621
 20
6.1716090641
 30
0.0
 10
4.636065455
 20
6.171966134
 30
0.0
 10
4.6401331161
 20
6.1719661437
 30
0.0
  0
SPLINE
  5
393
100
AcDbEntity
  8
ALL_ASSEMBLY_MEMBERS
100
AcDbSpline
 62
7
  6
CONTINUOUS
 70
0
 71
3
 72
20
 73
16
 74
0
 42
0.0000001
 43
0.0000001
 44
0.0000000001
 40
0.0
 40
0.0
 40
0.0
 40
0.0
 40
0.0431889091
 40
0.0891921363
 40
0.1380760145
 40
0.1898615158
 40
0.2445158408
 40
0.3019762744
 40
0.3621582478
 40
0.4249264955
 40
0.5575529567
 40
0.6271096422
 40
0.6985883467
 40
0.8465783225
 40
1.0
 40
1.0
 40
1.0
 40
1.0
 10
4.6401334344
 20
6.1719661437
 30
0.0
 10
4.6444633964
 20
6.1719661438
 30
0.0
 10
4.6534088555
 20
6.1715368023
 30
0.0
 10
4.6671479436
 20
6.1697438055
 30
0.0
 10
4.681564259
 20
6.1667855702
 30
0.0
 10
4.6965917868
 20
6.1626657509
 30
0.0
 10
4.7121637765
 20
6.1573920677
 30
0.0
 10
4.7282087982
 20
6.1509726725
 30
0.0
 10
4.7446508259
 20
6.1434177536
 30
0.0
 10
4.76741271
 20
6.1316355561
 30
0.0
 10
4.790155115
 20
6.1178351225
 30
0.0
 10
4.8127088197
 20
6.1022031455
 30
0.0
 10
4.8358518127
 20
6.0847538818
 30
0.0
 10
4.8643387377
 20
6.0604849194
 30
0.0
 10
4.8858280235
 20
6.0391939502
 30
0.0
 10
4.8963510993
 20
6.0279754253
 30
0.0
  0
SPLINE
  5
394
100
AcDbEntity
  8
ALL_ASSEMBLY_MEMBERS
100
AcDbSpline
 62
7
  6
CONTINUOUS
 70
0
 71
3
 72
17
 73
13
 74
0
 42
0.0000001
 43
0.0000001
 44
0.0000000001
 40
0.0
 40
0.0
 40
0.0
 40
0.0
 40
0.1205309259
 40
0.1810869786
 40
0.2418913206
 40
0.3030031613
 40
0.3644822992
 40
0.4886456298
 40
0.6145354785
 40
0.7419966404
 40
0.8706879
 40
1.0
 40
1.0
 40
1.0
 40
1.0
 10
4.8963510993
 20
6.0279754253
 30
0.0
 10
4.9070489503
 20
6.039380276
 30
0.0
 10
4.9240429069
 20
6.0556864805
 30
0.0
 10
4.9483749824
 20
6.0755213459
 30
0.0
 10
4.9675223987
 20
6.089463214
 30
0.0
 10
4.9874983337
 20
6.1024099233
 30
0.0
 10
5.0152766235
 20
6.1183473301
 30
0.0
 10
5.0519146979
 20
6.1356049821
 30
0.0
 10
5.098226952
 20
6.1517894807
 30
0.0
 10
5.1464909581
 20
6.1634163212
 30
0.0
 10
5.1960793827
 20
6.1704097729
 30
0.0
 10
5.2295723164
 20
6.1719660682
 30
0.0
 10
5.2463484974
 20
6.1719661437
 30
0.0
  0
ELLIPSE
  5
395
100
AcDbEntity
  8
ALL_ASSEMBLY_MEMBERS
100
AcDbEllipse
 62
7
  6
CONTINUOUS
 10
3.2463509317
 20
5.7672167585
 30
0.0
 11
0.5205684689
 21
0.4949291313
 31
0.0
 40
0.5769821704
 41
0.021858488
 42
1.0690560392
  0
ELLIPSE
  5
396
100
AcDbEntity
  8
ALL_ASSEMBLY_MEMBERS
100
AcDbEllipse
 62
7
  6
CONTINUOUS
 10
3.2463509317
 20
5.7672167585
 30
0.0
 11
-0.5205684689
 21
0.4949291313
 31
0.0
 40
0.5769821704
 41
-1.0690560392
 42
-0.021858488
  0
ELLIPSE
  5
397
100
AcDbEntity
  8
ALL_ASSEMBLY_MEMBERS
100
AcDbEllipse
 62
7
  6
CONTINUOUS
 10
7.2463509317
 20
5.7672167585
 30
0.0
 11
0.5205684689
 21
0.4949291313
 31
0.0
 40
0.5769821704
 41
0.021858488
 42
1.0690560392
  0
ELLIPSE
  5
398
100
AcDbEntity
  8
ALL_ASSEMBLY_MEMBERS
100
AcDbEllipse
 62
7
  6
CONTINUOUS
 10
7.2463509317
 20
5.7672167585
 30
0.0
 11
-0.5205684689
 21
0.4949291313
 31
0.0
 40
0.5769821704
 41
-1.0690560392
 42
-0.021858488
  0
ENDSEC
  0
SECTION
  2
OBJECTS
  0
DICTIONARY
  5
C
100
AcDbDictionary
280
0
281
1
  3
ACAD_GROUP
350
D
  3
ACAD_MLINESTYLE
350
17
  3
ACAD_LAYOUT
350
1A
  3
ACAD_PLOTSETTINGS
350
19
  3
ACAD_PLOTSTYLENAME
350
E
  0
DICTIONARY
  5
D
102
{ACAD_REACTORS
330
C
102
}
100
AcDbDictionary
280
0
281
1
  0
ACDBDICTIONARYWDFLT
  5
E
102
{ACAD_REACTORS
330
C
102
}
100
AcDbDictionary
281
1
  3
Normal
350
F
100
AcDbDictionaryWithDefault
340
F
  0
DICTIONARY
  5
17
102
{ACAD_REACTORS
330
C
102
}
100
AcDbDictionary
280
0
281
1
  3
Standard
350
18
  0
DICTIONARY
  5
19
102
{ACAD_REACTORS
330
C
102
}
100
AcDbDictionary
281
1
  0
DICTIONARY
  5
1A
102
{ACAD_REACTORS
330
C
102
}
100
AcDbDictionary
281
1
  3
Model
350
399
  3
Layout1
350
39A
  0
ACDBPLACEHOLDER
  5
F
102
{ACAD_REACTORS
330
E
102
}
  0
MLINESTYLE
  5
18
102
{ACAD_REACTORS
330
17
102
}
100
AcDbMlineStyle
  2
STANDARD
 70
0
  3

 62
256
 51
90.0
 52
90.0
 71
2
 49
0.5
 62
256
  6
BYLAYER
 49
-0.5
 62
256
  6
BYLAYER
  0
LAYOUT
  5
399
102
{ACAD_REACTORS
330
1A
102
}
100
AcDbPlotSettings
  1

  2
none_device
  4
ANSI_A_(11.00_x_8.50_Inches)
  6

 40
0.0
 41
0.0
 42
0.0
 43
0.0
 44
279.4
 45
215.9
 46
0.0
 47
0.0
 48
0.0
 49
0.0
140
0.0
141
0.0
142
1.0
143
1.0
 70
1024
 72
0
 73
0
 74
0
  7

 75
0
147
1.0
148
0.0
149
0.0
100
AcDbLayout
  1
Model
 70
0
 71
0
 10
0.0
 20
0.0
 11
11.0
 21
8.5
 12
0.0
 22
0.0
 32
0.0
 14
0.0
 24
0.0
 34
0.0
 15
0.0
 25
0.0
 35
0.0
146
0.0
 13
0.0
 23
0.0
 33
0.0
 16
1.0
 26
0.0
 36
0.0
 17
0.0
 27
1.0
 37
0.0
 76
0
330
21F
345
0
346
0
  0
LAYOUT
  5
39A
102
{ACAD_REACTORS
330
1A
102
}
100
AcDbPlotSettings
  1

  2
none_device
  4
ANSI_A_(11.00_x_8.50_Inches)
  6

 40
0.0
 41
0.0
 42
0.0
 43
0.0
 44
279.4
 45
215.9
 46
0.0
 47
0.0
 48
0.0
 49
0.0
140
0.0
141
0.0
142
1.0
143
1.0
 70
0
 72
0
 73
0
 74
0
  7

 75
0
147
1.0
148
0.0
149
0.0
100
AcDbLayout
  1
Layout1
 70
0
 71
1
 10
0.0
 20
0.0
 11
11.0
 21
8.5
 12
0.0
 22
0.0
 32
0.0
 14
0.0
 24
0.0
 34
0.0
 15
0.0
 25
0.0
 35
0.0
146
0.0
 13
0.0
 23
0.0
 33
0.0
 16
1.0
 26
0.0
 36
0.0
 17
0.0
 27
1.0
 37
0.0
 76
0
330
220
345
0
346
0
  0
ENDSEC
  0
EOF
