999
DXF file: E:\BT Custom\CADOUTPUT\_TOP.dxf
999
Pro/ENGINEER 2018400 by Parametric Technology Corporation
  0
SECTION
  2
HEADER
  9
$ACADVER
  1
AC1018
  9
$DWGCODEPAGE
  3
ANSI_1252
  9
$EXTMAX
 10
22.0
 20
17.0
 30
0.0
  9
$EXTMIN
 10
0.0
 20
0.0
 30
0.0
  9
$LIMMIN
 10
0.0
 20
0.0
  9
$LIMMAX
 10
22.0
 20
17.0
  9
$VIEWCTR
 10
11.0
 20
8.5
  9
$VIEWSIZE
 40
17.0
  9
$CLAYER
  8
0
  9
$LTSCALE
 40
1.21
  9
$CELTYPE
  6
BYLAYER
  9
$DIMSCALE
 40
1.0
  9
$DIMASZ
 40
0.1
  9
$DIMEXO
 40
0.0625
  9
$DIMDLI
 40
0.836
  9
$DIMEXE
 40
0.125
  9
$DIMCEN
 40
0.198
  9
$DIMLFAC
 40
1.0
  9
$DIMBLK
  1
_FILLED
  9
$DIMALT
 70
1
  9
$DIMALTD
 70
2
  9
$DIMALTTD
 70
2
  9
$DIMALTF
 40
25.4
  9
$DIMTXT
 40
0.08
  9
$DIMTOL
 70
1
  9
$DIMLIM
 70
0
  9
$DIMTFAC
 40
1.0
  9
$DIMTP
 40
0.001
  9
$DIMTM
 40
0.001
  9
$DIMGAP
 40
0.09
  9
$DIMDSEP
 70
46
  9
$AUNITS
 70
0
  9
$PDMODE
 70
3
  9
$PDSIZE
 40
0.06
  9
$HANDSEED
  5
35F
  9
$TILEMODE
 70
1
  9
$MEASUREMENT
 70
0
  9
$INSUNITS
 70
1
  0
ENDSEC
  0
SECTION
  2
CLASSES
  0
CLASS
  1
ACDBDICTIONARYWDFLT
  2
AcDbDictionaryWithDefault
  3
AutoCAD 2000
 90
0
 91
1
280
0
281
0
  0
CLASS
  1
ACDBPLACEHOLDER
  2
AcDbPlaceHolder
  3
AutoCAD 2000
 90
0
 91
1
280
0
281
0
  0
CLASS
  1
LAYOUT
  2
AcDbLayout
  3
AutoCAD 2000
 90
0
 91
0
280
0
281
0
  0
ENDSEC
  0
SECTION
  2
TABLES
  0
TABLE
  2
VPORT
  5
8
100
AcDbSymbolTable
 70
2
  0
VPORT
  5
1F4
100
AcDbSymbolTableRecord
100
AcDbViewportTableRecord
  2
*ACTIVE
 70
0
 10
0.0
 20
0.0
 11
1.0
 21
1.0
 12
11.0
 22
8.5
 13
0.0
 23
0.0
 14
1.0
 24
1.0
 15
0.0
 25
0.0
 16
0.0
 26
0.0
 36
1.0
 17
0.0
 27
0.0
 37
0.0
 40
17.0
 41
1.2941176471
 42
50.0
 43
0.0
 44
0.0
 50
0.0
 51
0.0
 71
0
 72
100
 73
1
 74
1
 75
0
 76
0
 77
0
 78
0
  0
ENDTAB
  0
TABLE
  2
LTYPE
  5
5
100
AcDbSymbolTable
 70
6
  0
LTYPE
  5
14
100
AcDbSymbolTableRecord
100
AcDbLinetypeTableRecord
  2
BYBLOCK
 70
0
  3

 72
65
 73
0
 40
0.0
  0
LTYPE
  5
15
100
AcDbSymbolTableRecord
100
AcDbLinetypeTableRecord
  2
BYLAYER
 70
0
  3

 72
65
 73
0
 40
0.0
  0
LTYPE
  5
16
100
AcDbSymbolTableRecord
100
AcDbLinetypeTableRecord
  2
CONTINUOUS
 70
64
  3
Solid line
 72
65
 73
0
 40
0.0
  0
LTYPE
  5
1F5
100
AcDbSymbolTableRecord
100
AcDbLinetypeTableRecord
  2
CENTER
 70
64
  3
____ _ ____ _ ____ _ ____ _ ____ _ ____ _ ____
 72
65
 73
4
 40
0.6
 49
0.375
 74
0
 49
-0.075
 74
0
 49
0.075
 74
0
 49
-0.075
 74
0
  0
LTYPE
  5
1F6
100
AcDbSymbolTableRecord
100
AcDbLinetypeTableRecord
  2
HIDDEN
 70
64
  3
- - - - - - - - - - - - - - - - - - - -
 72
65
 73
2
 40
0.2
 49
0.1
 74
0
 49
-0.1
 74
0
  0
LTYPE
  5
1F7
100
AcDbSymbolTableRecord
100
AcDbLinetypeTableRecord
  2
PHANTOM
 70
64
  3
_____ _ _ _____ _ _ _____ _ _ _____
 72
65
 73
6
 40
0.8
 49
0.45
 74
0
 49
-0.05
 74
0
 49
0.1
 74
0
 49
-0.05
 74
0
 49
0.1
 74
0
 49
-0.05
 74
0
  0
LTYPE
  5
1F8
100
AcDbSymbolTableRecord
100
AcDbLinetypeTableRecord
  2
DOT
 70
64
  3
. . . . . . . . . . . . . . . . . . . .
 72
65
 73
2
 40
0.2
 49
0.1
 74
0
 49
-0.1
 74
0
  0
LTYPE
  5
1F9
100
AcDbSymbolTableRecord
100
AcDbLinetypeTableRecord
  2
DASHED
 70
64
  3
- - - - - - - - - - - - - - - - - - - -
 72
65
 73
2
 40
0.2
 49
0.1
 74
0
 49
-0.1
 74
0
  0
ENDTAB
  0
TABLE
  2
LAYER
  5
2
100
AcDbSymbolTable
 70
36
  0
LAYER
  5
10
100
AcDbSymbolTableRecord
100
AcDbLayerTableRecord
  2
0
 70
0
 62
7
  6
CONTINUOUS
370
-3
390
F
  0
LAYER
  5
1FA
100
AcDbSymbolTableRecord
100
AcDbLayerTableRecord
  2
DEFAULT_1
 70
0
 62
7
  6
CENTER
370
-3
390
F
  0
LAYER
  5
1FB
100
AcDbSymbolTableRecord
100
AcDbLayerTableRecord
  2
DEFAULT_2
 70
0
 62
8
  6
HIDDEN
370
-3
390
F
  0
LAYER
  5
1FC
100
AcDbSymbolTableRecord
100
AcDbLayerTableRecord
  2
DEFAULT_3
 70
0
 62
7
  6
PHANTOM
370
-3
390
F
  0
LAYER
  5
1FD
100
AcDbSymbolTableRecord
100
AcDbLayerTableRecord
  2
ALL_FEATURES
 70
0
 62
7
  6
CONTINUOUS
370
-3
390
F
  0
LAYER
  5
1FE
100
AcDbSymbolTableRecord
100
AcDbLayerTableRecord
  2
AXES_FEATURES
 70
0
 62
7
  6
CONTINUOUS
370
-3
390
F
  0
LAYER
  5
1FF
100
AcDbSymbolTableRecord
100
AcDbLayerTableRecord
  2
DIMENSIONS
 70
0
 62
7
  6
CONTINUOUS
370
-3
390
F
  0
ENDTAB
  0
TABLE
  2
STYLE
  5
3
100
AcDbSymbolTable
 70
1
  0
STYLE
  5
11
100
AcDbSymbolTableRecord
100
AcDbTextStyleTableRecord
  2
STANDARD
 70
0
 40
0.0
 41
0.8
 50
0.0
 71
0
 42
0.2
  3
txt
  4

  0
STYLE
  5
200
100
AcDbSymbolTableRecord
100
AcDbTextStyleTableRecord
  2
TEXTSTYLE_1
 70
0
 40
0.0
 41
0.8
 50
0.0
 71
0
 42
0.2
  3
gdt
  4

  0
ENDTAB
  0
TABLE
  2
VIEW
  5
6
100
AcDbSymbolTable
 70
0
  0
ENDTAB
  0
TABLE
  2
UCS
  5
7
100
AcDbSymbolTable
 70
0
  0
ENDTAB
  0
TABLE
  2
APPID
  5
9
100
AcDbSymbolTable
 70
1
  0
APPID
  5
201
100
AcDbSymbolTableRecord
100
AcDbRegAppTableRecord
  2
ACAD
 70
0
  0
ENDTAB
  0
TABLE
  2
BLOCK_RECORD
  5
1
100
AcDbSymbolTable
 70
0
  0
BLOCK_RECORD
  5
202
100
AcDbSymbolTableRecord
100
AcDbBlockTableRecord
  2
*Model_Space
  0
BLOCK_RECORD
  5
203
100
AcDbSymbolTableRecord
100
AcDbBlockTableRecord
  2
*Paper_Space
  0
BLOCK_RECORD
  5
204
100
AcDbSymbolTableRecord
100
AcDbBlockTableRecord
  2
_FILLED
  0
ENDTAB
  0
TABLE
  2
DIMSTYLE
  5
A
100
AcDbSymbolTable
 70
1
100
AcDbDimStyleTable
 71
0
  0
DIMSTYLE
105
205
100
AcDbSymbolTableRecord
100
AcDbDimStyleTableRecord
  2
STANDARD
 70
0
  3

  4

 40
1.0
 41
0.1
 42
0.0625
 43
0.38
 44
0.125
 45
0.0
 46
0.0
 47
0.001
 48
0.001
140
0.08
141
0.09
142
0.0
143
25.4
144
1.0
145
0.0
146
1.0
147
0.09
 71
1.0
 72
0.0
 73
1
 74
1
 75
0
 76
0
 77
0
 78
4
 79
1
170
1
171
2
172
0
173
0
174
0
175
0
176
0
177
0
178
0
270
2
179
3
271
3
272
3
273
2
274
2
275
0
280
0
281
0
282
0
283
1
284
4
285
0
286
0
287
3
288
0
340
11
278
46
341
204
342
204
343
204
344
204
  0
ENDTAB
  0
ENDSEC
  0
SECTION
  2
BLOCKS
  0
BLOCK
  5
20
100
AcDbEntity
  8
0
100
AcDbBlockBegin
  2
*Model_Space
 70
0
 10
0.0
 20
0.0
 30
0.0
  3
*Model_Space
  1

  0
ENDBLK
  5
21
100
AcDbEntity
  8
0
100
AcDbBlockEnd
  0
BLOCK
  5
1C
100
AcDbEntity
  8
0
100
AcDbBlockBegin
  2
*Paper_Space
 70
0
 10
0.0
 20
0.0
 30
0.0
  3
*Paper_Space
  1

  0
ENDBLK
  5
1D
100
AcDbEntity
  8
0
100
AcDbBlockEnd
  0
BLOCK
  5
206
100
AcDbEntity
  8
0
100
AcDbBlockBegin
  2
_FILLED
 70
64
 10
0.0
 20
0.0
  3
_FILLED
  1

  0
SOLID
  5
207
100
AcDbEntity
  8
0
  6
BYBLOCK
 62
0
100
AcDbTrace
 10
0.0
 20
0.0
 11
-1.0
 21
0.2
 12
-1.0
 22
-0.2
 13
-1.0
 23
-0.2
  0
ENDBLK
  5
208
100
AcDbEntity
  8
0
  6
BYBLOCK
 62
0
100
AcDbBlockEnd
  0
ENDSEC
  0
SECTION
  2
ENTITIES
  0
LINE
  5
209
100
AcDbEntity
  8
0
100
AcDbLine
 62
7
  6
CONTINUOUS
 10
3.829818477
 20
12.1098514032
 11
3.691068477
 21
11.7398514032
  0
LINE
  5
20A
100
AcDbEntity
  8
0
100
AcDbLine
 62
9
  6
CONTINUOUS
 10
3.691068477
 20
11.7367661529
 11
3.829818477
 21
12.1067661529
  0
LINE
  5
20B
100
AcDbEntity
  8
0
100
AcDbLine
 62
7
  6
CONTINUOUS
 10
4.037045969
 20
11.9619698283
 11
4.0171183383
 21
11.9343534133
  0
LINE
  5
20C
100
AcDbEntity
  8
0
100
AcDbLine
 62
7
  6
CONTINUOUS
 10
4.037045969
 20
11.9135980412
 11
4.057045969
 21
11.9412269145
  0
LINE
  5
20D
100
AcDbEntity
  8
0
100
AcDbLine
 62
9
  6
CONTINUOUS
 10
3.829818477
 20
11.890025171
 11
3.691068477
 21
11.7367661529
  0
LINE
  5
20E
100
AcDbEntity
  8
0
100
AcDbLine
 62
9
  6
CONTINUOUS
 10
3.691068477
 20
11.7293176999
 11
3.829818477
 21
11.882576718
  0
LINE
  5
20F
100
AcDbEntity
  8
0
100
AcDbLine
 62
7
  6
CONTINUOUS
 10
4.037045969
 20
12.2426178364
 11
4.0171183383
 21
12.2243176999
  0
LINE
  5
210
100
AcDbEntity
  8
0
100
AcDbLine
 62
7
  6
CONTINUOUS
 10
4.057045969
 20
12.2409117997
 11
4.037045969
 21
12.2225815862
  0
LINE
  5
211
100
AcDbEntity
  8
0
100
AcDbLine
 62
7
  6
CONTINUOUS
 10
4.037045969
 20
11.5450373587
 11
4.0171183383
 21
11.5242819866
  0
LINE
  5
212
100
AcDbEntity
  8
0
100
AcDbLine
 62
7
  6
CONTINUOUS
 10
4.057045969
 20
11.5174084854
 11
4.037045969
 21
11.4966655716
  0
LINE
  5
213
100
AcDbEntity
  8
0
100
AcDbLine
 62
9
  6
CONTINUOUS
 10
3.829818477
 20
11.3518692469
 11
3.829818477
 21
11.5686102289
  0
LINE
  5
214
100
AcDbEntity
  8
0
100
AcDbLine
 62
9
  6
CONTINUOUS
 10
3.829818477
 20
11.5760586819
 11
3.829818477
 21
11.882576718
  0
LINE
  5
215
100
AcDbEntity
  8
0
100
AcDbLine
 62
9
  6
CONTINUOUS
 10
3.829818477
 20
11.890025171
 11
3.829818477
 21
12.1067661529
  0
LINE
  5
216
100
AcDbEntity
  8
0
100
AcDbLine
 62
9
  6
CONTINUOUS
 10
3.8579083523
 20
12.1293176999
 11
3.8579083523
 21
11.3293176999
  0
LINE
  5
217
100
AcDbEntity
  8
0
100
AcDbLine
 62
7
  6
CONTINUOUS
 10
3.9171183383
 20
12.1893176999
 11
3.9171183383
 21
11.2693227784
  0
LINE
  5
218
100
AcDbEntity
  8
0
100
AcDbLine
 62
9
  6
CONTINUOUS
 10
3.9471183383
 20
12.2193176999
 11
3.9471183383
 21
11.2393176999
  0
LINE
  5
219
100
AcDbEntity
  8
0
100
AcDbLine
 62
7
  6
CONTINUOUS
 10
4.0171183383
 20
12.2243176999
 11
4.0171183383
 21
11.2343176999
  0
LINE
  5
21A
100
AcDbEntity
  8
0
100
AcDbLine
 62
7
  6
CONTINUOUS
 10
4.037045969
 20
12.2225815862
 11
4.037045969
 21
11.9619698283
  0
LINE
  5
21B
100
AcDbEntity
  8
0
100
AcDbLine
 62
7
  6
CONTINUOUS
 10
4.037045969
 20
11.9135980412
 11
4.037045969
 21
11.5450373587
  0
LINE
  5
21C
100
AcDbEntity
  8
0
100
AcDbLine
 62
7
  6
CONTINUOUS
 10
4.037045969
 20
11.4966655716
 11
4.037045969
 21
11.2360538137
  0
LINE
  5
21D
100
AcDbEntity
  8
0
100
AcDbLine
 62
9
  6
CONTINUOUS
 10
6.0343183383
 20
12.3141735226
 11
7.0473183383
 21
12.8990293453
  0
LINE
  5
21E
100
AcDbEntity
  8
0
100
AcDbLine
 62
9
  6
CONTINUOUS
 10
7.0473183383
 20
12.3938593839
 11
6.4718083581
 21
12.0615885419
  0
LINE
  5
21F
100
AcDbEntity
  8
0
100
AcDbLine
 62
7
  6
CONTINUOUS
 10
6.5473183383
 20
12.0179928345
 11
7.0473183383
 21
12.3066679691
  0
LINE
  5
220
100
AcDbEntity
  8
0
100
AcDbLine
 62
7
  6
CONTINUOUS
 10
6.3793183383
 20
11.4341842953
 11
6.3610182018
 21
11.4142566647
  0
LINE
  5
221
100
AcDbEntity
  8
0
100
AcDbLine
 62
7
  6
CONTINUOUS
 10
8.0757235053
 20
12.3230676999
 11
8.0603183383
 21
12.3141735226
  0
LINE
  5
222
100
AcDbEntity
  8
0
100
AcDbLine
 62
7
  6
CONTINUOUS
 10
7.6228283185
 20
12.0615885419
 11
7.5473183383
 21
12.0179928345
  0
LINE
  5
223
100
AcDbEntity
  8
0
100
AcDbLine
 62
7
  6
CONTINUOUS
 10
6.0189131713
 20
11.1355676999
 11
6.0343183383
 21
11.1444618773
  0
LINE
  5
224
100
AcDbEntity
  8
0
100
AcDbLine
 62
7
  6
CONTINUOUS
 10
6.4718083581
 20
11.3970468579
 11
6.5473183383
 21
11.4406425653
  0
LINE
  5
225
100
AcDbEntity
  8
0
100
AcDbLine
 62
7
  6
CONTINUOUS
 10
6.3793183383
 20
11.607069441
 11
6.3610182018
 21
11.5988151462
  0
LINE
  5
226
100
AcDbEntity
  8
0
100
AcDbLine
 62
9
  6
CONTINUOUS
 10
6.0343183383
 20
11.1444618773
 11
6.0343183383
 21
11.3863885661
  0
LINE
  5
227
100
AcDbEntity
  8
0
100
AcDbLine
 62
9
  6
CONTINUOUS
 10
6.0343183383
 20
12.0722468338
 11
6.0343183383
 21
12.3141735226
  0
LINE
  5
228
100
AcDbEntity
  8
0
100
AcDbLine
 62
7
  6
CONTINUOUS
 10
7.5473183383
 20
11.4406425653
 11
7.0473183383
 21
11.1519674307
  0
LINE
  5
229
100
AcDbEntity
  8
0
100
AcDbLine
 62
9
  6
CONTINUOUS
 10
7.0473183383
 20
11.0647760159
 11
7.6228283185
 21
11.3970468579
  0
LINE
  5
22A
100
AcDbEntity
  8
0
100
AcDbLine
 62
7
  6
CONTINUOUS
 10
3.691068477
 20
11.7187839967
 11
3.829818477
 21
11.3487839967
  0
LINE
  5
22B
100
AcDbEntity
  8
0
100
AcDbLine
 62
9
  6
CONTINUOUS
 10
3.829818477
 20
11.3518692469
 11
3.691068477
 21
11.7218692469
  0
LINE
  5
22C
100
AcDbEntity
  8
0
100
AcDbLine
 62
7
  6
CONTINUOUS
 10
6.3610182018
 20
11.4142566647
 11
6.3610182018
 21
12.0443787352
  0
LINE
  5
22D
100
AcDbEntity
  8
0
100
AcDbLine
 62
7
  6
CONTINUOUS
 10
6.3793183383
 20
11.4341842953
 11
6.3793183383
 21
12.0244511045
  0
LINE
  5
22E
100
AcDbEntity
  8
0
100
AcDbLine
 62
9
  6
CONTINUOUS
 10
6.4718083581
 20
12.0615885419
 11
6.4718083581
 21
12.0342036022
  0
LINE
  5
22F
100
AcDbEntity
  8
0
100
AcDbLine
 62
9
  6
CONTINUOUS
 10
6.4718083581
 20
11.4244317977
 11
6.4718083581
 21
11.3970468579
  0
LINE
  5
230
100
AcDbEntity
  8
0
100
AcDbLine
 62
7
  6
CONTINUOUS
 10
6.4793183383
 20
12.0093176999
 11
6.4793183383
 21
11.4493176999
  0
LINE
  5
231
100
AcDbEntity
  8
0
100
AcDbLine
 62
9
  6
CONTINUOUS
 10
6.5293183383
 20
11.9118176999
 11
6.5293183383
 21
11.5468176999
  0
LINE
  5
232
100
AcDbEntity
  8
0
100
AcDbLine
 62
7
  6
CONTINUOUS
 10
6.5473183383
 20
11.4406425653
 11
6.5473183383
 21
11.5468176999
  0
LINE
  5
233
100
AcDbEntity
  8
0
100
AcDbLine
 62
7
  6
CONTINUOUS
 10
6.5473183383
 20
11.9118176999
 11
6.5473183383
 21
12.0179928345
  0
LINE
  5
234
100
AcDbEntity
  8
0
100
AcDbLine
 62
9
  6
CONTINUOUS
 10
8.0603183383
 20
11.1444618773
 11
7.0473183383
 21
10.5596060546
  0
LINE
  5
235
100
AcDbEntity
  8
0
100
AcDbLine
 62
7
  6
CONTINUOUS
 10
7.0473183383
 20
12.9168176999
 11
7.0473183383
 21
12.8990293453
  0
LINE
  5
236
100
AcDbEntity
  8
0
100
AcDbLine
 62
7
  6
CONTINUOUS
 10
7.0473183383
 20
12.3938593839
 11
7.0473183383
 21
12.3066679691
  0
LINE
  5
237
100
AcDbEntity
  8
0
100
AcDbLine
 62
7
  6
CONTINUOUS
 10
7.0473183383
 20
10.5418176999
 11
7.0473183383
 21
10.5596060546
  0
LINE
  5
238
100
AcDbEntity
  8
0
100
AcDbLine
 62
7
  6
CONTINUOUS
 10
7.0473183383
 20
11.0647760159
 11
7.0473183383
 21
11.1519674307
  0
LINE
  5
239
100
AcDbEntity
  8
0
100
AcDbLine
 62
7
  6
CONTINUOUS
 10
7.5473183383
 20
11.4406425653
 11
7.5473183383
 21
12.0179928345
  0
LINE
  5
23A
100
AcDbEntity
  8
0
100
AcDbLine
 62
9
  6
CONTINUOUS
 10
7.6228283185
 20
11.3970468579
 11
7.6228283185
 21
12.0615885419
  0
LINE
  5
23B
100
AcDbEntity
  8
0
100
AcDbLine
 62
9
  6
CONTINUOUS
 10
11.4223183291
 20
4.4195850906
 11
10.6723183383
 21
4.4196010475
  0
LINE
  5
23C
100
AcDbEntity
  8
0
100
AcDbLine
 62
7
  6
CONTINUOUS
 10
4.037045969
 20
11.5450373587
 11
4.057045969
 21
11.5174084854
  0
LINE
  5
23D
100
AcDbEntity
  8
0
100
AcDbLine
 62
7
  6
CONTINUOUS
 10
4.037045969
 20
11.4966655716
 11
4.0171183383
 21
11.5242819866
  0
LINE
  5
23E
100
AcDbEntity
  8
0
100
AcDbLine
 62
9
  6
CONTINUOUS
 10
8.0603183383
 20
12.3141735226
 11
8.0603183383
 21
11.1444618773
  0
LINE
  5
23F
100
AcDbEntity
  8
0
100
AcDbLine
 62
7
  6
CONTINUOUS
 10
10.2390279614
 20
11.7293176999
 11
10.6431731499
 21
12.4293176999
  0
LINE
  5
240
100
AcDbEntity
  8
0
100
AcDbLine
 62
9
  6
CONTINUOUS
 10
14.0343183383
 20
12.3141735226
 11
15.0473183383
 21
12.8990293453
  0
LINE
  5
241
100
AcDbEntity
  8
0
100
AcDbLine
 62
9
  6
CONTINUOUS
 10
3.691068477
 20
11.7218692469
 11
3.829818477
 21
11.5686102289
  0
LINE
  5
242
100
AcDbEntity
  8
0
100
AcDbLine
 62
9
  6
CONTINUOUS
 10
3.829818477
 20
11.5760586819
 11
3.691068477
 21
11.7293176999
  0
LINE
  5
243
100
AcDbEntity
  8
0
100
AcDbLine
 62
9
  6
CONTINUOUS
 10
15.0473183383
 20
12.3938593839
 11
14.4718083581
 21
12.0615885419
  0
LINE
  5
244
100
AcDbEntity
  8
0
100
AcDbLine
 62
7
  6
CONTINUOUS
 10
14.5473183383
 20
12.0179928345
 11
15.0473183383
 21
12.3066679691
  0
LINE
  5
245
100
AcDbEntity
  8
0
100
AcDbLine
 62
7
  6
CONTINUOUS
 10
15.7153183383
 20
11.8515659588
 11
15.7336184748
 21
11.8598202537
  0
LINE
  5
246
100
AcDbEntity
  8
0
100
AcDbLine
 62
9
  6
CONTINUOUS
 10
11.7148298249
 20
4.1810613176
 11
11.422318256
 21
4.4196010283
  0
LINE
  5
247
100
AcDbEntity
  8
0
100
AcDbLine
 62
7
  6
CONTINUOUS
 10
4.057045969
 20
11.2177236002
 11
4.037045969
 21
11.2360538137
  0
LINE
  5
248
100
AcDbEntity
  8
0
100
AcDbLine
 62
7
  6
CONTINUOUS
 10
4.037045969
 20
11.2160175634
 11
4.0171183383
 21
11.2343176999
  0
LINE
  5
249
100
AcDbEntity
  8
0
100
AcDbLine
 62
7
  6
CONTINUOUS
 10
4.057045969
 20
11.9412269145
 11
4.037045969
 21
11.9619698283
  0
LINE
  5
24A
100
AcDbEntity
  8
0
100
AcDbLine
 62
7
  6
CONTINUOUS
 10
4.037045969
 20
11.9135980412
 11
4.0171183383
 21
11.9343534133
  0
LINE
  5
24B
100
AcDbEntity
  8
0
100
AcDbLine
 62
7
  6
CONTINUOUS
 10
11.8556087151
 20
11.7293176999
 11
11.5629919145
 21
11.2224907595
  0
LINE
  5
24C
100
AcDbEntity
  8
0
100
AcDbLine
 62
7
  6
CONTINUOUS
 10
16.0757235053
 20
12.3230676999
 11
16.0603183383
 21
12.3141735226
  0
LINE
  5
24D
100
AcDbEntity
  8
0
100
AcDbLine
 62
7
  6
CONTINUOUS
 10
15.6228283185
 20
12.0615885419
 11
15.5473183383
 21
12.0179928345
  0
LINE
  5
24E
100
AcDbEntity
  8
0
100
AcDbLine
 62
7
  6
CONTINUOUS
 10
14.0189131713
 20
11.1355676999
 11
14.0343183383
 21
11.1444618773
  0
LINE
  5
24F
100
AcDbEntity
  8
0
100
AcDbLine
 62
7
  6
CONTINUOUS
 10
14.4718083581
 20
11.3970468579
 11
14.5473183383
 21
11.4406425653
  0
LINE
  5
250
100
AcDbEntity
  8
0
100
AcDbLine
 62
7
  6
CONTINUOUS
 10
15.5473183383
 20
11.4406425653
 11
15.0473183383
 21
11.1519674307
  0
LINE
  5
251
100
AcDbEntity
  8
0
100
AcDbLine
 62
7
  6
CONTINUOUS
 10
10.3771943906
 20
4.0963322587
 11
10.3798183383
 21
4.1810578782
  0
LINE
  5
252
100
AcDbEntity
  8
0
100
AcDbLine
 62
7
  6
CONTINUOUS
 10
12.2547546849
 20
11.3396613594
 11
12.3435501683
 21
11.4996215023
  0
LINE
  5
253
100
AcDbEntity
  8
0
100
AcDbLine
 62
7
  6
CONTINUOUS
 10
12.5423183383
 20
11.7293176999
 11
12.1246412218
 21
11.005879713
  0
LINE
  5
254
100
AcDbEntity
  8
0
100
AcDbLine
 62
9
  6
CONTINUOUS
 10
15.0473183383
 20
11.0647760159
 11
15.6228283185
 21
11.3970468579
  0
LINE
  5
255
100
AcDbEntity
  8
0
100
AcDbLine
 62
9
  6
CONTINUOUS
 10
16.0603183383
 20
11.1444618773
 11
15.0473183383
 21
10.5596060546
  0
LINE
  5
256
100
AcDbEntity
  8
0
100
AcDbLine
 62
9
  6
CONTINUOUS
 10
11.0473183379
 20
1.7403460209
 11
11.047318344
 21
4.419610987
  0
LINE
  5
257
100
AcDbEntity
  8
0
100
AcDbLine
 62
7
  6
CONTINUOUS
 10
10.6723026717
 20
4.2928889212
 11
10.6723092605
 21
10.6976558933
  0
LINE
  5
258
100
AcDbEntity
  8
0
100
AcDbLine
 62
9
  6
CONTINUOUS
 10
10.6617409969
 20
1.8483742735
 11
10.6635749116
 21
1.9107295328
  0
LINE
  5
259
100
AcDbEntity
  8
0
100
AcDbLine
 62
7
  6
CONTINUOUS
 10
10.3221966687
 20
2.5133975536
 11
10.3233226786
 21
2.522567865
  0
LINE
  5
25A
100
AcDbEntity
  8
0
100
AcDbLine
 62
7
  6
CONTINUOUS
 10
6.3793183383
 20
12.0244511045
 11
6.3610182018
 21
12.0443787352
  0
LINE
  5
25B
100
AcDbEntity
  8
0
100
AcDbLine
 62
7
  6
CONTINUOUS
 10
11.7174349455
 20
4.0963274095
 11
11.7148110224
 21
4.1810517587
  0
LINE
  5
25C
100
AcDbEntity
  8
0
100
AcDbLine
 62
9
  6
CONTINUOUS
 10
11.4328961777
 20
1.8483745771
 11
11.431061391
 21
1.9107293012
  0
LINE
  5
25D
100
AcDbEntity
  8
0
100
AcDbLine
 62
7
  6
CONTINUOUS
 10
11.4223374988
 20
4.2929048039
 11
11.4223274161
 21
10.6976558936
  0
LINE
  5
25E
100
AcDbEntity
  8
0
100
AcDbLine
 62
7
  6
CONTINUOUS
 10
15.7153183383
 20
12.0244511045
 11
15.7336184748
 21
12.0443787352
  0
LINE
  5
25F
100
AcDbEntity
  8
0
100
AcDbLine
 62
9
  6
CONTINUOUS
 10
7.0473183383
 20
10.5596060546
 11
6.0343183383
 21
11.1444618773
  0
LINE
  5
260
100
AcDbEntity
  8
0
100
AcDbLine
 62
7
  6
CONTINUOUS
 10
11.7724400079
 20
2.5133975536
 11
11.7713153736
 21
2.5225555684
  0
LINE
  5
261
100
AcDbEntity
  8
0
100
AcDbLine
 62
9
  6
CONTINUOUS
 10
6.4718083581
 20
11.3970468579
 11
7.0473183383
 21
11.0647760159
  0
LINE
  5
262
100
AcDbEntity
  8
0
100
AcDbLine
 62
7
  6
CONTINUOUS
 10
7.0473183383
 20
11.1519674307
 11
6.5473183383
 21
11.4406425653
  0
LINE
  5
263
100
AcDbEntity
  8
0
100
AcDbLine
 62
7
  6
CONTINUOUS
 10
9.9699974206
 20
11.0058763081
 11
9.5523183383
 21
11.7293176999
  0
LINE
  5
264
100
AcDbEntity
  8
0
100
AcDbLine
 62
7
  6
CONTINUOUS
 10
9.7510865083
 20
11.4996215023
 11
9.8398819917
 21
11.3396613594
  0
LINE
  5
265
100
AcDbEntity
  8
0
100
AcDbLine
 62
7
  6
CONTINUOUS
 10
18.0375907076
 20
11.9412269145
 11
18.0575907076
 21
11.9619698283
  0
LINE
  5
266
100
AcDbEntity
  8
0
100
AcDbLine
 62
7
  6
CONTINUOUS
 10
6.0189131713
 20
12.3230676999
 11
6.0343183383
 21
12.3141735226
  0
LINE
  5
267
100
AcDbEntity
  8
0
100
AcDbLine
 62
7
  6
CONTINUOUS
 10
8.0757235053
 20
11.1355676999
 11
8.0603183383
 21
11.1444618773
  0
LINE
  5
268
100
AcDbEntity
  8
0
100
AcDbLine
 62
7
  6
CONTINUOUS
 10
6.4718083581
 20
12.0615885419
 11
6.5473183383
 21
12.0179928345
  0
LINE
  5
269
100
AcDbEntity
  8
0
100
AcDbLine
 62
7
  6
CONTINUOUS
 10
7.6228283185
 20
11.3970468579
 11
7.5473183383
 21
11.4406425653
  0
LINE
  5
26A
100
AcDbEntity
  8
0
100
AcDbLine
 62
7
  6
CONTINUOUS
 10
10.531644762
 20
11.2224907595
 11
10.2390279614
 21
11.7293176999
  0
LINE
  5
26B
100
AcDbEntity
  8
0
100
AcDbLine
 62
7
  6
CONTINUOUS
 10
18.0575907076
 20
11.9135980412
 11
18.0775183383
 21
11.9343534133
  0
LINE
  5
26C
100
AcDbEntity
  8
0
100
AcDbLine
 62
7
  6
CONTINUOUS
 10
18.0575907076
 20
11.2160175634
 11
18.0775183383
 21
11.2343176999
  0
LINE
  5
26D
100
AcDbEntity
  8
0
100
AcDbLine
 62
7
  6
CONTINUOUS
 10
18.0375907076
 20
11.2177236002
 11
18.0575907076
 21
11.2360538137
  0
LINE
  5
26E
100
AcDbEntity
  8
0
100
AcDbLine
 62
9
  6
CONTINUOUS
 10
10.6723181426
 20
4.4196008016
 11
10.3798058742
 21
4.1810604487
  0
LINE
  5
26F
100
AcDbEntity
  8
0
100
AcDbLine
 62
7
  6
CONTINUOUS
 10
6.3793183383
 20
11.8515659588
 11
6.3610182018
 21
11.8598202537
  0
LINE
  5
270
100
AcDbEntity
  8
0
100
AcDbLine
 62
7
  6
CONTINUOUS
 10
7.0473183383
 20
12.3066679691
 11
7.5473183383
 21
12.0179928345
  0
LINE
  5
271
100
AcDbEntity
  8
0
100
AcDbLine
 62
9
  6
CONTINUOUS
 10
7.6228283185
 20
12.0615885419
 11
7.0473183383
 21
12.3938593839
  0
LINE
  5
272
100
AcDbEntity
  8
0
100
AcDbLine
 62
9
  6
CONTINUOUS
 10
14.0343183383
 20
11.1444618773
 11
14.0343183383
 21
12.3141735226
  0
LINE
  5
273
100
AcDbEntity
  8
0
100
AcDbLine
 62
9
  6
CONTINUOUS
 10
18.4035681996
 20
11.7293176999
 11
18.2648181996
 21
11.5760586819
  0
LINE
  5
274
100
AcDbEntity
  8
0
100
AcDbLine
 62
9
  6
CONTINUOUS
 10
18.2648181996
 20
11.5686102289
 11
18.4035681996
 21
11.7218692469
  0
LINE
  5
275
100
AcDbEntity
  8
0
100
AcDbLine
 62
9
  6
CONTINUOUS
 10
10.6723182523
 20
10.0670215857
 11
11.4223184243
 21
10.0670215857
  0
LINE
  5
276
100
AcDbEntity
  8
0
100
AcDbLine
 62
9
  6
CONTINUOUS
 10
7.0473183383
 20
12.8990293453
 11
8.0603183383
 21
12.3141735226
  0
LINE
  5
277
100
AcDbEntity
  8
0
100
AcDbLine
 62
7
  6
CONTINUOUS
 10
11.4514635267
 20
12.4293176999
 11
11.8556087151
 21
11.7293176999
  0
LINE
  5
278
100
AcDbEntity
  8
0
100
AcDbLine
 62
9
  6
CONTINUOUS
 10
14.4718083581
 20
12.0615885419
 11
14.4718083581
 21
11.3970468579
  0
LINE
  5
279
100
AcDbEntity
  8
0
100
AcDbLine
 62
7
  6
CONTINUOUS
 10
14.5473183383
 20
11.4406425653
 11
14.5473183383
 21
12.0179928345
  0
LINE
  5
27A
100
AcDbEntity
  8
0
100
AcDbLine
 62
7
  6
CONTINUOUS
 10
18.0575907076
 20
11.4966655716
 11
18.0775183383
 21
11.5242819866
  0
LINE
  5
27B
100
AcDbEntity
  8
0
100
AcDbLine
 62
7
  6
CONTINUOUS
 10
18.0575907076
 20
11.5450373587
 11
18.0375907076
 21
11.5174084854
  0
LINE
  5
27C
100
AcDbEntity
  8
0
100
AcDbLine
 62
7
  6
CONTINUOUS
 10
10.6185062871
 20
11.0293177435
 11
11.4761303895
 21
11.0293177435
  0
LINE
  5
27D
100
AcDbEntity
  8
0
100
AcDbLine
 62
7
  6
CONTINUOUS
 10
4.0171183383
 20
11.2393176999
 11
3.9471183383
 21
11.2393176999
  0
LINE
  5
27E
100
AcDbEntity
  8
0
100
AcDbLine
 62
7
  6
CONTINUOUS
 10
18.0775183383
 20
11.2393176999
 11
18.1475183383
 21
11.2393176999
  0
LINE
  5
27F
100
AcDbEntity
  8
0
100
AcDbLine
 62
7
  6
CONTINUOUS
 10
15.0473183383
 20
12.9168176999
 11
15.0473183383
 21
12.8990293453
  0
LINE
  5
280
100
AcDbEntity
  8
0
100
AcDbLine
 62
7
  6
CONTINUOUS
 10
15.0473183383
 20
12.3938593839
 11
15.0473183383
 21
12.3066679691
  0
LINE
  5
281
100
AcDbEntity
  8
0
100
AcDbLine
 62
7
  6
CONTINUOUS
 10
15.0473183383
 20
10.5418176999
 11
15.0473183383
 21
10.5596060546
  0
LINE
  5
282
100
AcDbEntity
  8
0
100
AcDbLine
 62
7
  6
CONTINUOUS
 10
15.0473183383
 20
11.0647760159
 11
15.0473183383
 21
11.1519674307
  0
LINE
  5
283
100
AcDbEntity
  8
0
100
AcDbLine
 62
7
  6
CONTINUOUS
 10
18.0575907076
 20
12.2225815862
 11
18.0775183383
 21
12.2243176999
  0
LINE
  5
284
100
AcDbEntity
  8
0
100
AcDbLine
 62
7
  6
CONTINUOUS
 10
4.037045969
 20
11.2360538137
 11
4.0171183383
 21
11.2343176999
  0
LINE
  5
285
100
AcDbEntity
  8
0
100
AcDbLine
 62
7
  6
CONTINUOUS
 10
15.7336184748
 20
12.0443787352
 11
18.0575907076
 21
12.2426178364
  0
LINE
  5
286
100
AcDbEntity
  8
0
100
AcDbLine
 62
7
  6
CONTINUOUS
 10
4.037045969
 20
11.2160175634
 11
6.3610182018
 21
11.4142566647
  0
LINE
  5
287
100
AcDbEntity
  8
0
100
AcDbLine
 62
7
  6
CONTINUOUS
 10
18.0375907076
 20
11.9412269145
 11
15.7336184748
 21
11.8598202537
  0
LINE
  5
288
100
AcDbEntity
  8
0
100
AcDbLine
 62
7
  6
CONTINUOUS
 10
4.057045969
 20
11.5174084854
 11
6.3610182018
 21
11.5988151462
  0
LINE
  5
289
100
AcDbEntity
  8
0
100
AcDbLine
 62
7
  6
CONTINUOUS
 10
18.2367283242
 20
11.3293176999
 11
18.1775183383
 21
11.3293176999
  0
LINE
  5
28A
100
AcDbEntity
  8
0
100
AcDbLine
 62
7
  6
CONTINUOUS
 10
3.9171183383
 20
11.3293176999
 11
3.8579083523
 21
11.3293176999
  0
LINE
  5
28B
100
AcDbEntity
  8
0
100
AcDbLine
 62
9
  6
CONTINUOUS
 10
3.8579083523
 20
11.3381044965
 11
3.9171183383
 21
11.3381044965
  0
LINE
  5
28C
100
AcDbEntity
  8
0
100
AcDbLine
 62
9
  6
CONTINUOUS
 10
18.1775183383
 20
11.3381044965
 11
18.2367283242
 21
11.3381044965
  0
LINE
  5
28D
100
AcDbEntity
  8
0
100
AcDbLine
 62
7
  6
CONTINUOUS
 10
15.5653183383
 20
11.5468176999
 11
15.501540557
 21
11.5468176999
  0
LINE
  5
28E
100
AcDbEntity
  8
0
100
AcDbLine
 62
7
  6
CONTINUOUS
 10
6.5293183383
 20
11.5468176999
 11
6.5930961196
 21
11.5468176999
  0
LINE
  5
28F
100
AcDbEntity
  8
0
100
AcDbLine
 62
9
  6
CONTINUOUS
 10
18.2367283242
 20
11.5548454784
 11
18.1775183383
 21
11.5548454784
  0
LINE
  5
290
100
AcDbEntity
  8
0
100
AcDbLine
 62
9
  6
CONTINUOUS
 10
3.9171183383
 20
11.5548454784
 11
3.8579083523
 21
11.5548454784
  0
LINE
  5
291
100
AcDbEntity
  8
0
100
AcDbLine
 62
9
  6
CONTINUOUS
 10
3.829818477
 20
11.5760586819
 11
3.9171183383
 21
11.5760586819
  0
LINE
  5
292
100
AcDbEntity
  8
0
100
AcDbLine
 62
9
  6
CONTINUOUS
 10
18.1775183383
 20
11.5760586819
 11
18.2648181996
 21
11.5760586819
  0
LINE
  5
293
100
AcDbEntity
  8
0
100
AcDbLine
 62
9
  6
CONTINUOUS
 10
18.2648181996
 20
11.882576718
 11
18.1775183383
 21
11.882576718
  0
LINE
  5
294
100
AcDbEntity
  8
0
100
AcDbLine
 62
9
  6
CONTINUOUS
 10
3.9171183383
 20
11.882576718
 11
3.829818477
 21
11.882576718
  0
LINE
  5
295
100
AcDbEntity
  8
0
100
AcDbLine
 62
9
  6
CONTINUOUS
 10
3.8579083523
 20
11.9037899215
 11
3.9171183383
 21
11.9037899215
  0
LINE
  5
296
100
AcDbEntity
  8
0
100
AcDbLine
 62
9
  6
CONTINUOUS
 10
18.1775183383
 20
11.9037899215
 11
18.2367283242
 21
11.9037899214
  0
LINE
  5
297
100
AcDbEntity
  8
0
100
AcDbLine
 62
7
  6
CONTINUOUS
 10
15.5653183383
 20
11.9118176999
 11
15.501540557
 21
11.9118176999
  0
LINE
  5
298
100
AcDbEntity
  8
0
100
AcDbLine
 62
7
  6
CONTINUOUS
 10
6.5293183383
 20
11.9118176999
 11
6.5930961196
 21
11.9118176999
  0
LINE
  5
299
100
AcDbEntity
  8
0
100
AcDbLine
 62
7
  6
CONTINUOUS
 10
12.5423183369
 20
11.7293177357
 11
11.8556087151
 21
11.7293176999
  0
LINE
  5
29A
100
AcDbEntity
  8
0
100
AcDbLine
 62
7
  6
CONTINUOUS
 10
10.2390279614
 20
11.7293176999
 11
9.5523183383
 21
11.7293176999
  0
LINE
  5
29B
100
AcDbEntity
  8
0
100
AcDbLine
 62
7
  6
CONTINUOUS
 10
4.057045969
 20
11.9412269145
 11
6.3610182018
 21
11.8598202537
  0
LINE
  5
29C
100
AcDbEntity
  8
0
100
AcDbLine
 62
7
  6
CONTINUOUS
 10
18.0375907076
 20
11.5174084854
 11
15.7336184748
 21
11.5988151462
  0
LINE
  5
29D
100
AcDbEntity
  8
0
100
AcDbLine
 62
7
  6
CONTINUOUS
 10
4.037045969
 20
12.2426178364
 11
6.3610182018
 21
12.0443787352
  0
LINE
  5
29E
100
AcDbEntity
  8
0
100
AcDbLine
 62
7
  6
CONTINUOUS
 10
15.7336184748
 20
11.4142566647
 11
18.0575907076
 21
11.2160175634
  0
LINE
  5
29F
100
AcDbEntity
  8
0
100
AcDbLine
 62
7
  6
CONTINUOUS
 10
4.037045969
 20
12.2225815862
 11
4.0171183383
 21
12.2243176999
  0
LINE
  5
2A0
100
AcDbEntity
  8
0
100
AcDbLine
 62
7
  6
CONTINUOUS
 10
18.0575907076
 20
11.2360538137
 11
18.0775183383
 21
11.2343176999
  0
LINE
  5
2A1
100
AcDbEntity
  8
0
100
AcDbLine
 62
7
  6
CONTINUOUS
 10
15.5473183383
 20
11.4406425653
 11
15.5473183383
 21
11.5468176999
  0
LINE
  5
2A2
100
AcDbEntity
  8
0
100
AcDbLine
 62
7
  6
CONTINUOUS
 10
15.5473183383
 20
11.9118176999
 11
15.5473183383
 21
12.0179928345
  0
LINE
  5
2A3
100
AcDbEntity
  8
0
100
AcDbLine
 62
9
  6
CONTINUOUS
 10
15.5653183383
 20
11.5468176999
 11
15.5653183383
 21
11.9118176999
  0
LINE
  5
2A4
100
AcDbEntity
  8
0
100
AcDbLine
 62
7
  6
CONTINUOUS
 10
15.6153183383
 20
12.009316848
 11
15.6153183383
 21
11.4493185519
  0
LINE
  5
2A5
100
AcDbEntity
  8
0
100
AcDbLine
 62
9
  6
CONTINUOUS
 10
15.6228283185
 20
11.3970468579
 11
15.6228283185
 21
11.4244317977
  0
LINE
  5
2A6
100
AcDbEntity
  8
0
100
AcDbLine
 62
9
  6
CONTINUOUS
 10
15.6228283185
 20
12.0342036022
 11
15.6228283185
 21
12.0615885419
  0
LINE
  5
2A7
100
AcDbEntity
  8
0
100
AcDbLine
 62
7
  6
CONTINUOUS
 10
15.7153183383
 20
12.0244511045
 11
15.7153183383
 21
11.4341842953
  0
LINE
  5
2A8
100
AcDbEntity
  8
0
100
AcDbLine
 62
7
  6
CONTINUOUS
 10
15.7336184748
 20
12.0443787352
 11
15.7336184748
 21
11.4142566647
  0
LINE
  5
2A9
100
AcDbEntity
  8
0
100
AcDbLine
 62
9
  6
CONTINUOUS
 10
16.0603183383
 20
12.3141735226
 11
16.0603183383
 21
12.0722468338
  0
LINE
  5
2AA
100
AcDbEntity
  8
0
100
AcDbLine
 62
9
  6
CONTINUOUS
 10
16.0603183383
 20
11.3863885661
 11
16.0603183383
 21
11.1444618773
  0
LINE
  5
2AB
100
AcDbEntity
  8
0
100
AcDbLine
 62
9
  6
CONTINUOUS
 10
18.2367283242
 20
12.1205309033
 11
18.1775183383
 21
12.1205309034
  0
LINE
  5
2AC
100
AcDbEntity
  8
0
100
AcDbLine
 62
9
  6
CONTINUOUS
 10
3.9171183383
 20
12.1205309034
 11
3.8579083523
 21
12.1205309034
  0
LINE
  5
2AD
100
AcDbEntity
  8
0
100
AcDbLine
 62
7
  6
CONTINUOUS
 10
3.8579083523
 20
12.1293176999
 11
3.9171183383
 21
12.1293176999
  0
LINE
  5
2AE
100
AcDbEntity
  8
0
100
AcDbLine
 62
7
  6
CONTINUOUS
 10
18.1775183383
 20
12.1293176999
 11
18.2367283242
 21
12.1293176999
  0
LINE
  5
2AF
100
AcDbEntity
  8
0
100
AcDbLine
 62
7
  6
CONTINUOUS
 10
4.0171183383
 20
12.2193176999
 11
3.9471183383
 21
12.2193176999
  0
LINE
  5
2B0
100
AcDbEntity
  8
0
100
AcDbLine
 62
7
  6
CONTINUOUS
 10
18.0775183383
 20
12.2193176999
 11
18.1475183383
 21
12.2193176999
  0
LINE
  5
2B1
100
AcDbEntity
  8
0
100
AcDbLine
 62
7
  6
CONTINUOUS
 10
11.4514635267
 20
12.4293176999
 11
10.6431731499
 21
12.4293176999
  0
LINE
  5
2B2
100
AcDbEntity
  8
0
100
AcDbLine
 62
9
  6
CONTINUOUS
 10
15.0473183383
 20
10.5596060546
 11
14.0343183383
 21
11.1444618773
  0
LINE
  5
2B3
100
AcDbEntity
  8
0
100
AcDbLine
 62
9
  6
CONTINUOUS
 10
18.4035681996
 20
11.7218692469
 11
18.2648181996
 21
11.3518692469
  0
LINE
  5
2B4
100
AcDbEntity
  8
0
100
AcDbLine
 62
7
  6
CONTINUOUS
 10
18.2648181996
 20
11.3487839967
 11
18.4035681996
 21
11.7187839967
  0
LINE
  5
2B5
100
AcDbEntity
  8
0
100
AcDbLine
 62
7
  6
CONTINUOUS
 10
15.7153183383
 20
11.607069441
 11
15.7336184748
 21
11.5988151462
  0
LINE
  5
2B6
100
AcDbEntity
  8
0
100
AcDbLine
 62
9
  6
CONTINUOUS
 10
14.4718083581
 20
11.3970468579
 11
15.0473183383
 21
11.0647760159
  0
LINE
  5
2B7
100
AcDbEntity
  8
0
100
AcDbLine
 62
7
  6
CONTINUOUS
 10
15.0473183383
 20
11.1519674307
 11
14.5473183383
 21
11.4406425653
  0
LINE
  5
2B8
100
AcDbEntity
  8
0
100
AcDbLine
 62
7
  6
CONTINUOUS
 10
16.0757235053
 20
11.1355676999
 11
16.0603183383
 21
11.1444618773
  0
LINE
  5
2B9
100
AcDbEntity
  8
0
100
AcDbLine
 62
7
  6
CONTINUOUS
 10
15.6228283185
 20
11.3970468579
 11
15.5473183383
 21
11.4406425653
  0
LINE
  5
2BA
100
AcDbEntity
  8
0
100
AcDbLine
 62
7
  6
CONTINUOUS
 10
14.0189131713
 20
12.3230676999
 11
14.0343183383
 21
12.3141735226
  0
LINE
  5
2BB
100
AcDbEntity
  8
0
100
AcDbLine
 62
7
  6
CONTINUOUS
 10
14.4718083581
 20
12.0615885419
 11
14.5473183383
 21
12.0179928345
  0
LINE
  5
2BC
100
AcDbEntity
  8
0
100
AcDbLine
 62
7
  6
CONTINUOUS
 10
15.0473183383
 20
12.3066679691
 11
15.5473183383
 21
12.0179928345
  0
LINE
  5
2BD
100
AcDbEntity
  8
0
100
AcDbLine
 62
9
  6
CONTINUOUS
 10
15.6228283185
 20
12.0615885419
 11
15.0473183383
 21
12.3938593839
  0
LINE
  5
2BE
100
AcDbEntity
  8
0
100
AcDbLine
 62
7
  6
CONTINUOUS
 10
15.7153183383
 20
11.4341842953
 11
15.7336184748
 21
11.4142566647
  0
LINE
  5
2BF
100
AcDbEntity
  8
0
100
AcDbLine
 62
9
  6
CONTINUOUS
 10
15.0473183383
 20
12.8990293453
 11
16.0603183383
 21
12.3141735226
  0
LINE
  5
2C0
100
AcDbEntity
  8
0
100
AcDbLine
 62
7
  6
CONTINUOUS
 10
18.0575907076
 20
11.2360538137
 11
18.0575907076
 21
11.4966655716
  0
LINE
  5
2C1
100
AcDbEntity
  8
0
100
AcDbLine
 62
7
  6
CONTINUOUS
 10
18.0575907076
 20
11.5450373587
 11
18.0575907076
 21
11.9135980412
  0
LINE
  5
2C2
100
AcDbEntity
  8
0
100
AcDbLine
 62
7
  6
CONTINUOUS
 10
18.0575907076
 20
11.9619698283
 11
18.0575907076
 21
12.2225815862
  0
LINE
  5
2C3
100
AcDbEntity
  8
0
100
AcDbLine
 62
7
  6
CONTINUOUS
 10
18.0775183383
 20
11.2343176999
 11
18.0775183383
 21
12.2243176999
  0
LINE
  5
2C4
100
AcDbEntity
  8
0
100
AcDbLine
 62
9
  6
CONTINUOUS
 10
18.1475183383
 20
11.2393176999
 11
18.1475183383
 21
12.2193176999
  0
LINE
  5
2C5
100
AcDbEntity
  8
0
100
AcDbLine
 62
7
  6
CONTINUOUS
 10
18.1775183383
 20
11.2693176999
 11
18.1775183383
 21
12.1893126215
  0
LINE
  5
2C6
100
AcDbEntity
  8
0
100
AcDbLine
 62
9
  6
CONTINUOUS
 10
18.2367283242
 20
11.3293176999
 11
18.2367283242
 21
12.1293176999
  0
LINE
  5
2C7
100
AcDbEntity
  8
0
100
AcDbLine
 62
9
  6
CONTINUOUS
 10
18.2648181996
 20
12.1067661529
 11
18.2648181996
 21
11.890025171
  0
LINE
  5
2C8
100
AcDbEntity
  8
0
100
AcDbLine
 62
9
  6
CONTINUOUS
 10
18.2648181996
 20
11.882576718
 11
18.2648181996
 21
11.5760586819
  0
LINE
  5
2C9
100
AcDbEntity
  8
0
100
AcDbLine
 62
9
  6
CONTINUOUS
 10
18.2648181996
 20
11.5686102289
 11
18.2648181996
 21
11.3518692469
  0
LINE
  5
2CA
100
AcDbEntity
  8
0
100
AcDbLine
 62
7
  6
CONTINUOUS
 10
18.0375907076
 20
11.5174084854
 11
18.0575907076
 21
11.4966655716
  0
LINE
  5
2CB
100
AcDbEntity
  8
0
100
AcDbLine
 62
7
  6
CONTINUOUS
 10
18.0575907076
 20
11.5450373587
 11
18.0775183383
 21
11.5242819866
  0
LINE
  5
2CC
100
AcDbEntity
  8
0
100
AcDbLine
 62
7
  6
CONTINUOUS
 10
18.0375907076
 20
12.2409117997
 11
18.0575907076
 21
12.2225815862
  0
LINE
  5
2CD
100
AcDbEntity
  8
0
100
AcDbLine
 62
7
  6
CONTINUOUS
 10
18.0575907076
 20
12.2426178364
 11
18.0775183383
 21
12.2243176999
  0
LINE
  5
2CE
100
AcDbEntity
  8
0
100
AcDbLine
 62
9
  6
CONTINUOUS
 10
18.2648181996
 20
11.882576718
 11
18.4035681996
 21
11.7293176999
  0
LINE
  5
2CF
100
AcDbEntity
  8
0
100
AcDbLine
 62
9
  6
CONTINUOUS
 10
18.4035681996
 20
11.7367661529
 11
18.2648181996
 21
11.890025171
  0
LINE
  5
2D0
100
AcDbEntity
  8
0
100
AcDbLine
 62
7
  6
CONTINUOUS
 10
18.0575907076
 20
11.9135980412
 11
18.0375907076
 21
11.9412269145
  0
LINE
  5
2D1
100
AcDbEntity
  8
0
100
AcDbLine
 62
7
  6
CONTINUOUS
 10
18.0575907076
 20
11.9619698283
 11
18.0775183383
 21
11.9343534133
  0
LINE
  5
2D2
100
AcDbEntity
  8
0
100
AcDbLine
 62
9
  6
CONTINUOUS
 10
18.2648181996
 20
12.1067661529
 11
18.4035681996
 21
11.7367661529
  0
LINE
  5
2D3
100
AcDbEntity
  8
0
100
AcDbLine
 62
7
  6
CONTINUOUS
 10
18.4035681996
 20
11.7398514032
 11
18.2648181996
 21
12.1098514032
  0
ARC
  5
2D4
100
AcDbEntity
  8
0
100
AcDbCircle
 62
7
  6
CONTINUOUS
 10
-33.4191627407
 20
5.5431402197
 40
43.820140102
100
AcDbArc
 50
358.2187615392
 51
5.5071681513
  0
ARC
  5
2D5
100
AcDbEntity
  8
0
100
AcDbCircle
 62
7
  6
CONTINUOUS
 10
8.8825773485
 20
2.7091562991
 40
1.4528679476
100
AcDbArc
 50
351.7612632872
 51
352.2564415345
  0
ARC
  5
2D6
100
AcDbEntity
  8
0
100
AcDbCircle
 62
7
  6
CONTINUOUS
 10
7.0473183383
 20
11.7293176999
 40
1.1875
100
AcDbArc
 50
197.281023749
 51
162.7015223529
  0
ARC
  5
2D7
100
AcDbEntity
  8
0
100
AcDbCircle
 62
7
  6
CONTINUOUS
 10
9.6193691583
 20
10.6970184471
 40
1.0529383573
100
AcDbArc
 50
0.0345273274
 51
18.3964448097
  0
ARC
  5
2D8
100
AcDbEntity
  8
0
100
AcDbCircle
 62
7
  6
CONTINUOUS
 10
9.621502913
 20
10.6971240737
 40
1.0508892937
100
AcDbArc
 50
18.4276667802
 51
29.9950915419
  0
CIRCLE
  5
2D9
100
AcDbEntity
  8
0
100
AcDbCircle
 62
7
  6
CONTINUOUS
 10
7.0473183383
 20
11.7293176999
 40
0.49
  0
ARC
  5
2DA
100
AcDbEntity
  8
0
100
AcDbCircle
 62
7
  6
CONTINUOUS
 10
6.5293183383
 20
11.9618176999
 40
0.05
100
AcDbArc
 50
180.0
 51
270.0
  0
ARC
  5
2DB
100
AcDbEntity
  8
0
100
AcDbCircle
 62
7
  6
CONTINUOUS
 10
6.5293183383
 20
11.4968176999
 40
0.05
100
AcDbArc
 50
90.0
 51
180.0
  0
ARC
  5
2DC
100
AcDbEntity
  8
0
100
AcDbCircle
 62
7
  6
CONTINUOUS
 10
6.4293183383
 20
12.0093176999
 40
0.05
100
AcDbArc
 50
0.0
 51
180.0
  0
ARC
  5
2DD
100
AcDbEntity
  8
0
100
AcDbCircle
 62
7
  6
CONTINUOUS
 10
6.4293183383
 20
11.4493176999
 40
0.05
100
AcDbArc
 50
180.0
 51
360.0
  0
ARC
  5
2DE
100
AcDbEntity
  8
0
100
AcDbCircle
 62
7
  6
CONTINUOUS
 10
3.9471183383
 20
12.1893176999
 40
0.03
100
AcDbArc
 50
90.0
 51
180.0
  0
ARC
  5
2DF
100
AcDbEntity
  8
0
100
AcDbCircle
 62
7
  6
CONTINUOUS
 10
3.8579083523
 20
11.3593176999
 40
0.03
100
AcDbArc
 50
200.5560452196
 51
269.9999999932
  0
ARC
  5
2E0
100
AcDbEntity
  8
0
100
AcDbCircle
 62
7
  6
CONTINUOUS
 10
3.8579083523
 20
12.0993176999
 40
0.03
100
AcDbArc
 50
90.0000000068
 51
159.4439547804
  0
ARC
  5
2E1
100
AcDbEntity
  8
0
100
AcDbCircle
 62
7
  6
CONTINUOUS
 10
3.9471183383
 20
11.2693176999
 40
0.03
100
AcDbArc
 50
180.0
 51
270.0
  0
ARC
  5
2E2
100
AcDbEntity
  8
0
100
AcDbCircle
 62
7
  6
CONTINUOUS
 10
3.7191583492
 20
11.7293177
 40
0.0299999969
100
AcDbArc
 50
159.4500113165
 51
200.5469892986
  0
ARC
  5
2E3
100
AcDbEntity
  8
0
100
AcDbCircle
 62
9
  6
CONTINUOUS
 10
3.7188490248
 20
11.7331118798
 40
0.0280384493
100
AcDbArc
 50
182.6255926491
 51
187.7771591201
  0
ARC
  5
2E4
100
AcDbEntity
  8
0
100
AcDbCircle
 62
9
  6
CONTINUOUS
 10
3.7178241259
 20
11.7330722172
 40
0.0270128104
100
AcDbArc
 50
177.3588624665
 51
182.6411375335
  0
ARC
  5
2E5
100
AcDbEntity
  8
0
100
AcDbCircle
 62
9
  6
CONTINUOUS
 10
3.7168865148
 20
11.7331225221
 40
0.0260738781
100
AcDbArc
 50
171.9670497161
 51
177.3743461148
  0
ARC
  5
2E6
100
AcDbEntity
  8
0
100
AcDbCircle
 62
9
  6
CONTINUOUS
 10
-99.430306079
 20
173.3045742155
 40
196.8986647551
100
AcDbArc
 50
303.8333291588
 51
303.9993991475
  0
ARC
  5
2E7
100
AcDbEntity
  8
0
100
AcDbCircle
 62
9
  6
CONTINUOUS
 10
11.0459729864
 20
6.0485986234
 40
2.2338006591
100
AcDbArc
 50
260.3624208693
 51
270.0345074982
  0
ARC
  5
2E8
100
AcDbEntity
  8
0
100
AcDbCircle
 62
7
  6
CONTINUOUS
 10
13.2120592914
 20
2.7091562974
 40
1.4528679112
100
AcDbArc
 50
187.7435585901
 51
188.23873685
  0
ARC
  5
2E9
100
AcDbEntity
  8
0
100
AcDbCircle
 62
9
  6
CONTINUOUS
 10
11.0736599401
 20
2.4445979735
 40
0.75531491
100
AcDbArc
 50
174.0668175262
 51
175.7203411397
  0
ARC
  5
2EA
100
AcDbEntity
  8
0
100
AcDbCircle
 62
9
  6
CONTINUOUS
 10
11.020979262
 20
2.4445981874
 40
0.7553123756
100
AcDbArc
 50
4.2796569764
 51
5.9320967635
  0
ARC
  5
2EB
100
AcDbEntity
  8
0
100
AcDbCircle
 62
7
  6
CONTINUOUS
 10
11.0272168702
 20
2.4607758405
 40
0.7124345451
100
AcDbArc
 50
169.0311875079
 51
174.9811999919
  0
ARC
  5
2EC
100
AcDbEntity
  8
0
100
AcDbCircle
 62
7
  6
CONTINUOUS
 10
11.0674208299
 20
2.4607759922
 40
0.7124335114
100
AcDbArc
 50
5.0177951094
 51
10.9688162026
  0
ARC
  5
2ED
100
AcDbEntity
  8
0
100
AcDbCircle
 62
7
  6
CONTINUOUS
 10
11.0180436406
 20
2.4615861708
 40
0.7032255954
100
AcDbArc
 50
174.9815850015
 51
179.9894413253
  0
ARC
  5
2EE
100
AcDbEntity
  8
0
100
AcDbCircle
 62
7
  6
CONTINUOUS
 10
11.0785710985
 20
2.4616730102
 40
0.7012475222
100
AcDbArc
 50
0.0034932066
 51
5.0244687723
  0
ARC
  5
2EF
100
AcDbEntity
  8
0
100
AcDbCircle
 62
7
  6
CONTINUOUS
 10
11.0473183383
 20
11.7293176999
 40
1.495
100
AcDbArc
 50
310.6670085627
 51
229.329341773
  0
ARC
  5
2F0
100
AcDbEntity
  8
0
100
AcDbCircle
 62
7
  6
CONTINUOUS
 10
12.4752675182
 20
10.6970184471
 40
1.0529383573
100
AcDbArc
 50
161.6035551904
 51
179.9654726609
  0
ARC
  5
2F1
100
AcDbEntity
  8
0
100
AcDbCircle
 62
7
  6
CONTINUOUS
 10
12.4731337636
 20
10.6971240737
 40
1.0508892937
100
AcDbArc
 50
150.0049084561
 51
161.5723332199
  0
CIRCLE
  5
2F2
100
AcDbEntity
  8
0
100
AcDbCircle
 62
7
  6
CONTINUOUS
 10
11.0473183383
 20
11.7293176999
 40
0.58
  0
ARC
  5
2F3
100
AcDbEntity
  8
0
100
AcDbCircle
 62
9
  6
CONTINUOUS
 10
11.0450994186
 20
13.8420239802
 40
9.5564094491
100
AcDbArc
 50
267.7643170651
 51
270.0133036086
  0
ARC
  5
2F4
100
AcDbEntity
  8
0
100
AcDbCircle
 62
7
  6
CONTINUOUS
 10
15.5653183383
 20
11.4968176999
 40
0.05
100
AcDbArc
 50
0.0
 51
90.0
  0
ARC
  5
2F5
100
AcDbEntity
  8
0
100
AcDbCircle
 62
7
  6
CONTINUOUS
 10
15.6653183383
 20
11.4493176999
 40
0.05
100
AcDbArc
 50
180.0
 51
360.0
  0
ARC
  5
2F6
100
AcDbEntity
  8
0
100
AcDbCircle
 62
7
  6
CONTINUOUS
 10
15.0473183383
 20
11.7293176999
 40
1.1875
100
AcDbArc
 50
17.281023749
 51
342.7015223529
  0
CIRCLE
  5
2F7
100
AcDbEntity
  8
0
100
AcDbCircle
 62
7
  6
CONTINUOUS
 10
15.0473183383
 20
11.7293176999
 40
0.49
  0
ARC
  5
2F8
100
AcDbEntity
  8
0
100
AcDbCircle
 62
7
  6
CONTINUOUS
 10
15.5653183383
 20
11.9618176999
 40
0.05
100
AcDbArc
 50
270.0
 51
360.0
  0
ARC
  5
2F9
100
AcDbEntity
  8
0
100
AcDbCircle
 62
7
  6
CONTINUOUS
 10
15.6653183383
 20
12.0093176999
 40
0.05
100
AcDbArc
 50
0.0
 51
180.0
  0
ARC
  5
2FA
100
AcDbEntity
  8
0
100
AcDbCircle
 62
7
  6
CONTINUOUS
 10
18.3754281949
 20
11.7293042401
 40
0.030051664
100
AcDbArc
 50
9.512085705
 51
20.5469892614
  0
ARC
  5
2FB
100
AcDbEntity
  8
0
100
AcDbCircle
 62
7
  6
CONTINUOUS
 10
18.1475183383
 20
11.2693176999
 40
0.03
100
AcDbArc
 50
270.0
 51
360.0
  0
ARC
  5
2FC
100
AcDbEntity
  8
0
100
AcDbCircle
 62
7
  6
CONTINUOUS
 10
18.2367283242
 20
11.3593176999
 40
0.03
100
AcDbArc
 50
270.0000000068
 51
339.4439547804
  0
ARC
  5
2FD
100
AcDbEntity
  8
0
100
AcDbCircle
 62
9
  6
CONTINUOUS
 10
18.3757876517
 20
11.7255235201
 40
0.0280384493
100
AcDbArc
 50
2.6255926491
 51
7.77715912
  0
ARC
  5
2FE
100
AcDbEntity
  8
0
100
AcDbCircle
 62
9
  6
CONTINUOUS
 10
18.3768125506
 20
11.7255631827
 40
0.0270128104
100
AcDbArc
 50
357.3588624668
 51
2.6411375333
  0
ARC
  5
2FF
100
AcDbEntity
  8
0
100
AcDbCircle
 62
9
  6
CONTINUOUS
 10
18.3777501618
 20
11.7255128777
 40
0.0260738781
100
AcDbArc
 50
351.9670497165
 51
357.3743461144
  0
ARC
  5
300
100
AcDbEntity
  8
0
100
AcDbCircle
 62
7
  6
CONTINUOUS
 10
18.2367283242
 20
12.0993176999
 40
0.03
100
AcDbArc
 50
20.5560452196
 51
89.9999999932
  0
ARC
  5
301
100
AcDbEntity
  8
0
100
AcDbCircle
 62
7
  6
CONTINUOUS
 10
18.1475183383
 20
12.1893176999
 40
0.03
100
AcDbArc
 50
0.0
 51
90.0
  0
ARC
  5
302
100
AcDbEntity
  8
0
100
AcDbCircle
 62
7
  6
CONTINUOUS
 10
18.3754783274
 20
11.7293176999
 40
0.0299999969
100
AcDbArc
 50
339.4500113166
 51
9.5025553961
  0
ARC
  5
303
100
AcDbEntity
  8
0
100
AcDbCircle
 62
7
  6
CONTINUOUS
 10
55.5137994176
 20
5.543140221
 40
43.8201401022
100
AcDbArc
 50
174.4928318505
 51
181.7812383324
  0
ARC
  5
304
100
AcDbEntity
  8
0
100
AcDbCircle
 62
9
  6
CONTINUOUS
 10
121.449476592
 20
173.192337974
 40
196.7634165488
100
AcDbArc
 50
236.0005437771
 51
236.1667279165
  0
SPLINE
  5
305
100
AcDbEntity
  8
0
100
AcDbSpline
 62
9
  6
CONTINUOUS
 70
0
 71
3
 72
9
 73
5
 74
0
 42
0.0000001
 43
0.0000001
 44
0.0000000001
 40
0.0
 40
0.0
 40
0.0
 40
0.0
 40
0.4740522587
 40
1.0
 40
1.0
 40
1.0
 40
1.0
 10
18.2648181996
 20
12.1098514032
 30
0.0
 10
18.2649917476
 20
12.1093886085
 30
0.0
 10
18.2651659266
 20
12.1083334249
 30
0.0
 10
18.2649769309
 20
12.1072910506
 30
0.0
 10
18.2648181996
 20
12.1067661529
 30
0.0
  0
SPLINE
  5
306
100
AcDbEntity
  8
0
100
AcDbSpline
 62
9
  6
CONTINUOUS
 70
0
 71
3
 72
9
 73
5
 74
0
 42
0.0000001
 43
0.0000001
 44
0.0000000001
 40
0.0
 40
0.0
 40
0.0
 40
0.0
 40
0.4740522916
 40
1.0
 40
1.0
 40
1.0
 40
1.0
 10
18.4035681996
 20
11.7187839967
 30
0.0
 10
18.4037417511
 20
11.7192467901
 30
0.0
 10
18.4039159241
 20
11.7203019758
 30
0.0
 10
18.4037269308
 20
11.7213443493
 30
0.0
 10
18.4035681996
 20
11.7218692469
 30
0.0
  0
SPLINE
  5
307
100
AcDbEntity
  8
0
100
AcDbSpline
 62
9
  6
CONTINUOUS
 70
0
 71
3
 72
9
 73
5
 74
0
 42
0.0000001
 43
0.0000001
 44
0.0000000001
 40
0.0
 40
0.0
 40
0.0
 40
0.0
 40
0.2469049499
 40
1.0
 40
1.0
 40
1.0
 40
1.0
 10
18.2648181996
 20
11.890025171
 30
0.0
 10
18.2649041107
 20
11.889417086
 30
0.0
 10
18.2651639557
 20
11.886942336
 30
0.0
 10
18.2650709539
 20
11.8844327517
 30
0.0
 10
18.2648181996
 20
11.882576718
 30
0.0
  0
SPLINE
  5
308
100
AcDbEntity
  8
0
100
AcDbSpline
 62
9
  6
CONTINUOUS
 70
0
 71
3
 72
13
 73
9
 74
0
 42
0.0000001
 43
0.0000001
 44
0.0000000001
 40
0.0
 40
0.0
 40
0.0
 40
0.0
 40
0.1385548611
 40
0.2758697494
 40
0.5392316747
 40
0.663555307
 40
0.7819783949
 40
1.0
 40
1.0
 40
1.0
 40
1.0
 10
18.2367283242
 20
11.9037899215
 30
0.0
 10
18.2382378941
 20
11.9037899215
 30
0.0
 10
18.241246684
 20
11.9036277135
 30
0.0
 10
18.2470525267
 20
11.9026870761
 30
0.0
 10
18.2525340169
 20
11.9008405396
 30
0.0
 10
18.2573386593
 20
11.8981011149
 30
0.0
 10
18.2613210754
 20
11.8950318442
 30
0.0
 10
18.2637052889
 20
11.8921236955
 30
0.0
 10
18.2648181996
 20
11.890025171
 30
0.0
  0
SPLINE
  5
309
100
AcDbEntity
  8
0
100
AcDbSpline
 62
9
  6
CONTINUOUS
 70
0
 71
3
 72
9
 73
5
 74
0
 42
0.0000001
 43
0.0000001
 44
0.0000000001
 40
0.0
 40
0.0
 40
0.0
 40
0.0
 40
0.2537319493
 40
1.0
 40
1.0
 40
1.0
 40
1.0
 10
18.4035681996
 20
11.7293176999
 30
0.0
 10
18.4036533545
 20
11.7299430124
 30
0.0
 10
18.403907709
 20
11.7324176482
 30
0.0
 10
18.4038278568
 20
11.7349282812
 30
0.0
 10
18.4035681996
 20
11.7367661529
 30
0.0
  0
SPLINE
  5
30A
100
AcDbEntity
  8
0
100
AcDbSpline
 62
9
  6
CONTINUOUS
 70
0
 71
3
 72
9
 73
5
 74
0
 42
0.0000001
 43
0.0000001
 44
0.0000000001
 40
0.0
 40
0.0
 40
0.0
 40
0.0
 40
0.5259477413
 40
1.0
 40
1.0
 40
1.0
 40
1.0
 10
18.4035681996
 20
11.7367661529
 30
0.0
 10
18.4037269309
 20
11.7372910506
 30
0.0
 10
18.4039159266
 20
11.7383334249
 30
0.0
 10
18.4037417476
 20
11.7393886085
 30
0.0
 10
18.4035681996
 20
11.7398514032
 30
0.0
  0
SPLINE
  5
30B
100
AcDbEntity
  8
0
100
AcDbSpline
 62
9
  6
CONTINUOUS
 70
0
 71
3
 72
9
 73
5
 74
0
 42
0.0000001
 43
0.0000001
 44
0.0000000001
 40
0.0
 40
0.0
 40
0.0
 40
0.0
 40
0.2537249589
 40
1.0
 40
1.0
 40
1.0
 40
1.0
 10
18.2648181996
 20
11.5760586819
 30
0.0
 10
18.2649033521
 20
11.5754333866
 30
0.0
 10
18.2651577195
 20
11.5729587521
 30
0.0
 10
18.2650778593
 20
11.5704481179
 30
0.0
 10
18.2648181996
 20
11.5686102289
 30
0.0
  0
SPLINE
  5
30C
100
AcDbEntity
  8
0
100
AcDbSpline
 62
9
  6
CONTINUOUS
 70
0
 71
3
 72
14
 73
10
 74
0
 42
0.0000001
 43
0.0000001
 44
0.0000000001
 40
0.0
 40
0.0
 40
0.0
 40
0.0
 40
0.1063741494
 40
0.2184677082
 40
0.336660545
 40
0.4608828154
 40
0.7240568891
 40
0.8613838382
 40
1.0
 40
1.0
 40
1.0
 40
1.0
 10
18.2648181996
 20
11.5686102289
 30
0.0
 10
18.2642747601
 20
11.5675855097
 30
0.0
 10
18.2629501375
 20
11.5655866854
 30
0.0
 10
18.2604160681
 20
11.5629097028
 30
0.0
 10
18.2573453198
 20
11.5605376609
 30
0.0
 10
18.2525441567
 20
11.5578004301
 30
0.0
 10
18.2470609799
 20
11.5559499455
 30
0.0
 10
18.2412518521
 20
11.5550082867
 30
0.0
 10
18.2382397944
 20
11.5548454784
 30
0.0
 10
18.2367283242
 20
11.5548454784
 30
0.0
  0
SPLINE
  5
30D
100
AcDbEntity
  8
0
100
AcDbSpline
 62
9
  6
CONTINUOUS
 70
0
 71
3
 72
9
 73
5
 74
0
 42
0.0000001
 43
0.0000001
 44
0.0000000001
 40
0.0
 40
0.0
 40
0.0
 40
0.0
 40
0.2575776285
 40
1.0
 40
1.0
 40
1.0
 40
1.0
 10
18.2367283242
 20
11.3381044965
 30
0.0
 10
18.2382378941
 20
11.3381044965
 30
0.0
 10
18.2440901246
 20
11.338417765
 30
0.0
 10
18.2499089892
 20
11.3399674074
 30
0.0
 10
18.2538161694
 20
11.3418820246
 30
0.0
  0
SPLINE
  5
30E
100
AcDbEntity
  8
0
100
AcDbSpline
 62
9
  6
CONTINUOUS
 70
0
 71
3
 72
9
 73
5
 74
0
 42
0.0000001
 43
0.0000001
 44
0.0000000001
 40
0.0
 40
0.0
 40
0.0
 40
0.0
 40
0.5213391543
 40
1.0
 40
1.0
 40
1.0
 40
1.0
 10
18.2538161694
 20
11.3418820246
 30
0.0
 10
18.2558022007
 20
11.3428552303
 30
0.0
 10
18.2594394683
 20
11.3451136753
 30
0.0
 10
18.2624230771
 20
11.3482150727
 30
0.0
 10
18.2635915876
 20
11.3498757825
 30
0.0
  0
LINE
  5
30F
100
AcDbEntity
  8
0
100
AcDbLine
 62
9
  6
CONTINUOUS
 10
18.2635915876
 20
11.3498757825
 11
18.2648181996
 21
11.3518692469
  0
SPLINE
  5
310
100
AcDbEntity
  8
0
100
AcDbSpline
 62
9
  6
CONTINUOUS
 70
0
 71
3
 72
9
 73
5
 74
0
 42
0.0000001
 43
0.0000001
 44
0.0000000001
 40
0.0
 40
0.0
 40
0.0
 40
0.0
 40
0.5259477413
 40
1.0
 40
1.0
 40
1.0
 40
1.0
 10
18.2648181996
 20
11.3518692469
 30
0.0
 10
18.2649769309
 20
11.3513443493
 30
0.0
 10
18.2651659266
 20
11.350301975
 30
0.0
 10
18.2649917476
 20
11.3492467914
 30
0.0
 10
18.2648181996
 20
11.3487839967
 30
0.0
  0
LINE
  5
311
100
AcDbEntity
  8
0
100
AcDbLine
 62
7
  6
CONTINUOUS
 10
16.0603183383
 20
11.1444618773
 11
15.6228283185
 21
11.3970468579
  0
SPLINE
  5
312
100
AcDbEntity
  8
0
100
AcDbSpline
 62
9
  6
CONTINUOUS
 70
0
 71
3
 72
9
 73
5
 74
0
 42
0.0000001
 43
0.0000001
 44
0.0000000001
 40
0.0
 40
0.0
 40
0.0
 40
0.0
 40
0.2439007334
 40
1.0
 40
1.0
 40
1.0
 40
1.0
 10
18.2648181996
 20
12.1067661529
 30
0.0
 10
18.264641682
 20
12.1070989977
 30
0.0
 10
18.2638746376
 20
12.1084404843
 30
0.0
 10
18.2629418413
 20
12.1096852881
 30
0.0
 10
18.2621684441
 20
12.1105604821
 30
0.0
  0
SPLINE
  5
313
100
AcDbEntity
  8
0
100
AcDbSpline
 62
9
  6
CONTINUOUS
 70
0
 71
3
 72
9
 73
5
 74
0
 42
0.0000001
 43
0.0000001
 44
0.0000000001
 40
0.0
 40
0.0
 40
0.0
 40
0.0
 40
0.4812312177
 40
1.0
 40
1.0
 40
1.0
 40
1.0
 10
18.2621684441
 20
12.1105604821
 30
0.0
 10
18.2609282879
 20
12.1119638712
 30
0.0
 10
18.2579685856
 20
12.1145521164
 30
0.0
 10
18.2545430791
 20
12.1164548758
 30
0.0
 10
18.2526984115
 20
12.1172753767
 30
0.0
  0
SPLINE
  5
314
100
AcDbEntity
  8
0
100
AcDbSpline
 62
9
  6
CONTINUOUS
 70
0
 71
3
 72
10
 73
6
 74
0
 42
0.0000001
 43
0.0000001
 44
0.0000000001
 40
0.0
 40
0.0
 40
0.0
 40
0.0
 40
0.2415837694
 40
0.6167623707
 40
1.0
 40
1.0
 40
1.0
 40
1.0
 10
18.2526984115
 20
12.1172753767
 30
0.0
 10
18.2514916104
 20
12.1178121572
 30
0.0
 10
18.2483283309
 20
12.1190025766
 30
0.0
 10
18.2429763637
 20
12.1202226043
 30
0.0
 10
18.2388235757
 20
12.1205309034
 30
0.0
 10
18.2367283242
 20
12.1205309034
 30
0.0
  0
LINE
  5
315
100
AcDbEntity
  8
0
100
AcDbLine
 62
7
  6
CONTINUOUS
 10
16.0603183383
 20
12.3141735226
 11
15.6228283185
 21
12.0615885419
  0
LINE
  5
316
100
AcDbEntity
  8
0
100
AcDbLine
 62
7
  6
CONTINUOUS
 10
15.0473183383
 20
12.8990293453
 11
15.0473183383
 21
12.3938593839
  0
LINE
  5
317
100
AcDbEntity
  8
0
100
AcDbLine
 62
7
  6
CONTINUOUS
 10
14.0343183383
 20
12.3141735226
 11
14.4718083581
 21
12.0615885419
  0
LINE
  5
318
100
AcDbEntity
  8
0
100
AcDbLine
 62
7
  6
CONTINUOUS
 10
14.0343183383
 20
11.1444618773
 11
14.4718083581
 21
11.3970468579
  0
LINE
  5
319
100
AcDbEntity
  8
0
100
AcDbLine
 62
7
  6
CONTINUOUS
 10
15.0473183383
 20
10.5596060546
 11
15.0473183383
 21
11.0647760159
  0
SPLINE
  5
31A
100
AcDbEntity
  8
0
100
AcDbSpline
 62
9
  6
CONTINUOUS
 70
0
 71
3
 72
9
 73
5
 74
0
 42
0.0000001
 43
0.0000001
 44
0.0000000001
 40
0.0
 40
0.0
 40
0.0
 40
0.0
 40
0.4740522587
 40
1.0
 40
1.0
 40
1.0
 40
1.0
 10
3.829818477
 20
11.3487839967
 30
0.0
 10
3.829644929
 20
11.3492467914
 30
0.0
 10
3.8294707499
 20
11.350301975
 30
0.0
 10
3.8296597457
 20
11.3513443493
 30
0.0
 10
3.829818477
 20
11.3518692469
 30
0.0
  0
SPLINE
  5
31B
100
AcDbEntity
  8
0
100
AcDbSpline
 62
9
  6
CONTINUOUS
 70
0
 71
3
 72
9
 73
5
 74
0
 42
0.0000001
 43
0.0000001
 44
0.0000000001
 40
0.0
 40
0.0
 40
0.0
 40
0.0
 40
0.4740522916
 40
1.0
 40
1.0
 40
1.0
 40
1.0
 10
3.691068477
 20
11.7398514032
 30
0.0
 10
3.6908949254
 20
11.7393886098
 30
0.0
 10
3.6907207525
 20
11.7383334241
 30
0.0
 10
3.6909097457
 20
11.7372910505
 30
0.0
 10
3.691068477
 20
11.7367661529
 30
0.0
  0
SPLINE
  5
31C
100
AcDbEntity
  8
0
100
AcDbSpline
 62
9
  6
CONTINUOUS
 70
0
 71
3
 72
9
 73
5
 74
0
 42
0.0000001
 43
0.0000001
 44
0.0000000001
 40
0.0
 40
0.0
 40
0.0
 40
0.0
 40
0.2469049499
 40
1.0
 40
1.0
 40
1.0
 40
1.0
 10
3.829818477
 20
11.5686102289
 30
0.0
 10
3.8297325658
 20
11.5692183139
 30
0.0
 10
3.8294727209
 20
11.5716930639
 30
0.0
 10
3.8295657227
 20
11.5742026482
 30
0.0
 10
3.829818477
 20
11.5760586819
 30
0.0
  0
SPLINE
  5
31D
100
AcDbEntity
  8
0
100
AcDbSpline
 62
9
  6
CONTINUOUS
 70
0
 71
3
 72
13
 73
9
 74
0
 42
0.0000001
 43
0.0000001
 44
0.0000000001
 40
0.0
 40
0.0
 40
0.0
 40
0.0
 40
0.1385548611
 40
0.2758697494
 40
0.5392316747
 40
0.663555307
 40
0.7819783949
 40
1.0
 40
1.0
 40
1.0
 40
1.0
 10
3.8579083523
 20
11.5548454784
 30
0.0
 10
3.8563987824
 20
11.5548454784
 30
0.0
 10
3.8533899925
 20
11.5550076864
 30
0.0
 10
3.8475841498
 20
11.5559483238
 30
0.0
 10
3.8421026596
 20
11.5577948603
 30
0.0
 10
3.8372980173
 20
11.560534285
 30
0.0
 10
3.8333156012
 20
11.5636035557
 30
0.0
 10
3.8309313877
 20
11.5665117043
 30
0.0
 10
3.829818477
 20
11.5686102289
 30
0.0
  0
SPLINE
  5
31E
100
AcDbEntity
  8
0
100
AcDbSpline
 62
9
  6
CONTINUOUS
 70
0
 71
3
 72
9
 73
5
 74
0
 42
0.0000001
 43
0.0000001
 44
0.0000000001
 40
0.0
 40
0.0
 40
0.0
 40
0.0
 40
0.2537319493
 40
1.0
 40
1.0
 40
1.0
 40
1.0
 10
3.691068477
 20
11.7293176999
 30
0.0
 10
3.6909833221
 20
11.7286923875
 30
0.0
 10
3.6907289676
 20
11.7262177517
 30
0.0
 10
3.6908088197
 20
11.7237071187
 30
0.0
 10
3.691068477
 20
11.7218692469
 30
0.0
  0
SPLINE
  5
31F
100
AcDbEntity
  8
0
100
AcDbSpline
 62
9
  6
CONTINUOUS
 70
0
 71
3
 72
9
 73
5
 74
0
 42
0.0000001
 43
0.0000001
 44
0.0000000001
 40
0.0
 40
0.0
 40
0.0
 40
0.0
 40
0.5259477413
 40
1.0
 40
1.0
 40
1.0
 40
1.0
 10
3.691068477
 20
11.7218692469
 30
0.0
 10
3.6909097457
 20
11.7213443493
 30
0.0
 10
3.6907207499
 20
11.720301975
 30
0.0
 10
3.690894929
 20
11.7192467914
 30
0.0
 10
3.691068477
 20
11.7187839967
 30
0.0
  0
SPLINE
  5
320
100
AcDbEntity
  8
0
100
AcDbSpline
 62
9
  6
CONTINUOUS
 70
0
 71
3
 72
9
 73
5
 74
0
 42
0.0000001
 43
0.0000001
 44
0.0000000001
 40
0.0
 40
0.0
 40
0.0
 40
0.0
 40
0.2537249589
 40
1.0
 40
1.0
 40
1.0
 40
1.0
 10
3.829818477
 20
11.882576718
 30
0.0
 10
3.8297333244
 20
11.8832020133
 30
0.0
 10
3.8294789571
 20
11.8856766478
 30
0.0
 10
3.8295588173
 20
11.888187282
 30
0.0
 10
3.829818477
 20
11.890025171
 30
0.0
  0
SPLINE
  5
321
100
AcDbEntity
  8
0
100
AcDbSpline
 62
9
  6
CONTINUOUS
 70
0
 71
3
 72
14
 73
10
 74
0
 42
0.0000001
 43
0.0000001
 44
0.0000000001
 40
0.0
 40
0.0
 40
0.0
 40
0.0
 40
0.1063741494
 40
0.2184677082
 40
0.336660545
 40
0.4608828154
 40
0.7240568891
 40
0.8613838382
 40
1.0
 40
1.0
 40
1.0
 40
1.0
 10
3.829818477
 20
11.890025171
 30
0.0
 10
3.8303619164
 20
11.8910498902
 30
0.0
 10
3.8316865391
 20
11.8930487145
 30
0.0
 10
3.8342206085
 20
11.895725697
 30
0.0
 10
3.8372913568
 20
11.898097739
 30
0.0
 10
3.8420925199
 20
11.9008349697
 30
0.0
 10
3.8475756967
 20
11.9026854543
 30
0.0
 10
3.8533848244
 20
11.9036271132
 30
0.0
 10
3.8563968822
 20
11.9037899215
 30
0.0
 10
3.8579083523
 20
11.9037899215
 30
0.0
  0
SPLINE
  5
322
100
AcDbEntity
  8
0
100
AcDbSpline
 62
9
  6
CONTINUOUS
 70
0
 71
3
 72
9
 73
5
 74
0
 42
0.0000001
 43
0.0000001
 44
0.0000000001
 40
0.0
 40
0.0
 40
0.0
 40
0.0
 40
0.2575776285
 40
1.0
 40
1.0
 40
1.0
 40
1.0
 10
3.8579083523
 20
12.1205309034
 30
0.0
 10
3.8563987824
 20
12.1205309034
 30
0.0
 10
3.850546552
 20
12.1202176349
 30
0.0
 10
3.8447276873
 20
12.1186679925
 30
0.0
 10
3.8408205072
 20
12.1167533753
 30
0.0
  0
SPLINE
  5
323
100
AcDbEntity
  8
0
100
AcDbSpline
 62
9
  6
CONTINUOUS
 70
0
 71
3
 72
9
 73
5
 74
0
 42
0.0000001
 43
0.0000001
 44
0.0000000001
 40
0.0
 40
0.0
 40
0.0
 40
0.0
 40
0.5213391543
 40
1.0
 40
1.0
 40
1.0
 40
1.0
 10
3.8408205072
 20
12.1167533753
 30
0.0
 10
3.8388344759
 20
12.1157801696
 30
0.0
 10
3.8351972083
 20
12.1135217245
 30
0.0
 10
3.8322135995
 20
12.1104203272
 30
0.0
 10
3.831045089
 20
12.1087596173
 30
0.0
  0
LINE
  5
324
100
AcDbEntity
  8
0
100
AcDbLine
 62
9
  6
CONTINUOUS
 10
3.831045089
 20
12.1087596173
 11
3.829818477
 21
12.1067661529
  0
SPLINE
  5
325
100
AcDbEntity
  8
0
100
AcDbSpline
 62
9
  6
CONTINUOUS
 70
0
 71
3
 72
9
 73
5
 74
0
 42
0.0000001
 43
0.0000001
 44
0.0000000001
 40
0.0
 40
0.0
 40
0.0
 40
0.0
 40
0.5259477413
 40
1.0
 40
1.0
 40
1.0
 40
1.0
 10
3.829818477
 20
12.1067661529
 30
0.0
 10
3.8296597457
 20
12.1072910506
 30
0.0
 10
3.8294707499
 20
12.1083334249
 30
0.0
 10
3.829644929
 20
12.1093886085
 30
0.0
 10
3.829818477
 20
12.1098514032
 30
0.0
  0
LINE
  5
326
100
AcDbEntity
  8
0
100
AcDbLine
 62
7
  6
CONTINUOUS
 10
8.0603183383
 20
11.1444618773
 11
7.6228283185
 21
11.3970468579
  0
SPLINE
  5
327
100
AcDbEntity
  8
0
100
AcDbSpline
 62
9
  6
CONTINUOUS
 70
0
 71
3
 72
9
 73
5
 74
0
 42
0.0000001
 43
0.0000001
 44
0.0000000001
 40
0.0
 40
0.0
 40
0.0
 40
0.0
 40
0.2439007334
 40
1.0
 40
1.0
 40
1.0
 40
1.0
 10
3.829818477
 20
11.3518692469
 30
0.0
 10
3.8299949946
 20
11.3515364022
 30
0.0
 10
3.830762039
 20
11.3501949156
 30
0.0
 10
3.8316948352
 20
11.3489501118
 30
0.0
 10
3.8324682325
 20
11.3480749177
 30
0.0
  0
SPLINE
  5
328
100
AcDbEntity
  8
0
100
AcDbSpline
 62
9
  6
CONTINUOUS
 70
0
 71
3
 72
9
 73
5
 74
0
 42
0.0000001
 43
0.0000001
 44
0.0000000001
 40
0.0
 40
0.0
 40
0.0
 40
0.0
 40
0.4812312177
 40
1.0
 40
1.0
 40
1.0
 40
1.0
 10
3.8324682325
 20
11.3480749177
 30
0.0
 10
3.8337083887
 20
11.3466715286
 30
0.0
 10
3.8366680909
 20
11.3440832835
 30
0.0
 10
3.8400935975
 20
11.342180524
 30
0.0
 10
3.8419382651
 20
11.3413600231
 30
0.0
  0
SPLINE
  5
329
100
AcDbEntity
  8
0
100
AcDbSpline
 62
9
  6
CONTINUOUS
 70
0
 71
3
 72
10
 73
6
 74
0
 42
0.0000001
 43
0.0000001
 44
0.0000000001
 40
0.0
 40
0.0
 40
0.0
 40
0.0
 40
0.2415837694
 40
0.6167623707
 40
1.0
 40
1.0
 40
1.0
 40
1.0
 10
3.8419382651
 20
11.3413600231
 30
0.0
 10
3.8431450662
 20
11.3408232427
 30
0.0
 10
3.8463083456
 20
11.3396328233
 30
0.0
 10
3.8516603129
 20
11.3384127956
 30
0.0
 10
3.8558131009
 20
11.3381044965
 30
0.0
 10
3.8579083523
 20
11.3381044965
 30
0.0
  0
LINE
  5
32A
100
AcDbEntity
  8
0
100
AcDbLine
 62
7
  6
CONTINUOUS
 10
8.0603183383
 20
12.3141735226
 11
7.6228283185
 21
12.0615885419
  0
LINE
  5
32B
100
AcDbEntity
  8
0
100
AcDbLine
 62
7
  6
CONTINUOUS
 10
7.0473183383
 20
12.8990293453
 11
7.0473183383
 21
12.3938593839
  0
LINE
  5
32C
100
AcDbEntity
  8
0
100
AcDbLine
 62
7
  6
CONTINUOUS
 10
6.0343183383
 20
12.3141735226
 11
6.4718083581
 21
12.0615885419
  0
LINE
  5
32D
100
AcDbEntity
  8
0
100
AcDbLine
 62
7
  6
CONTINUOUS
 10
6.0343183383
 20
11.1444618773
 11
6.4718083581
 21
11.3970468579
  0
LINE
  5
32E
100
AcDbEntity
  8
0
100
AcDbLine
 62
7
  6
CONTINUOUS
 10
7.0473183383
 20
10.5596060546
 11
7.0473183383
 21
11.0647760159
  0
SPLINE
  5
32F
100
AcDbEntity
  8
0
100
AcDbSpline
 62
7
  6
CONTINUOUS
 70
0
 71
3
 72
9
 73
5
 74
0
 42
0.0000001
 43
0.0000001
 44
0.0000000001
 40
0.0
 40
0.0
 40
0.0
 40
0.0
 40
0.4847213729
 40
1.0
 40
1.0
 40
1.0
 40
1.0
 10
9.8398819917
 20
11.3396613594
 30
0.0
 10
9.855508762
 20
11.3074363304
 30
0.0
 10
9.8858389699
 20
11.2400192737
 30
0.0
 10
9.9128057182
 20
11.1711997441
 30
0.0
 10
9.9259418439
 20
11.135465914
 30
0.0
  0
SPLINE
  5
330
100
AcDbEntity
  8
0
100
AcDbSpline
 62
7
  6
CONTINUOUS
 70
0
 71
3
 72
11
 73
7
 74
0
 42
0.0000001
 43
0.0000001
 44
0.0000000001
 40
0.0
 40
0.0
 40
0.0
 40
0.0
 40
0.2331563393
 40
0.4773961783
 40
0.7329450922
 40
1.0
 40
1.0
 40
1.0
 40
1.0
 10
9.9259418439
 20
11.135465914
 30
0.0
 10
9.9369848479
 20
11.1054259434
 30
0.0
 10
9.9584997398
 20
11.0435107662
 30
0.0
 10
9.988497376
 20
10.9474600622
 30
0.0
 10
10.0169604071
 20
10.8461026687
 30
0.0
 10
10.03452254
 20
10.7765384039
 30
0.0
 10
10.0430730721
 20
10.7408908427
 30
0.0
  0
SPLINE
  5
331
100
AcDbEntity
  8
0
100
AcDbSpline
 62
7
  6
CONTINUOUS
 70
0
 71
3
 72
11
 73
7
 74
0
 42
0.0000001
 43
0.0000001
 44
0.0000000001
 40
0.0
 40
0.0
 40
0.0
 40
0.0
 40
0.2227837011
 40
0.4635041
 40
0.7224886082
 40
1.0
 40
1.0
 40
1.0
 40
1.0
 10
10.0430730721
 20
10.7408908427
 30
0.0
 10
10.0604845645
 20
10.6683015306
 30
0.0
 10
10.0930773853
 20
10.5163947286
 30
0.0
 10
10.1345020291
 20
10.277830459
 30
0.0
 10
10.1703287782
 20
10.0198406907
 30
0.0
 10
10.1898016821
 20
9.8411081658
 30
0.0
 10
10.1987203391
 20
9.7485509216
 30
0.0
  0
SPLINE
  5
332
100
AcDbEntity
  8
0
100
AcDbSpline
 62
7
  6
CONTINUOUS
 70
0
 71
3
 72
20
 73
16
 74
0
 42
0.0000001
 43
0.0000001
 44
0.0000000001
 40
0.0
 40
0.0
 40
0.0
 40
0.0
 40
0.0105273014
 40
0.0230295723
 40
0.0537995859
 40
0.0919853886
 40
0.1372547446
 40
0.189165725
 40
0.2470992754
 40
0.3104194029
 40
0.3784894601
 40
0.5259982652
 40
0.6832127827
 40
0.8434876872
 40
1.0
 40
1.0
 40
1.0
 40
1.0
 10
11.7713153736
 20
2.5225555684
 30
0.0
 10
11.7708186046
 20
2.5269955855
 30
0.0
 10
11.7698514579
 20
2.5367219463
 30
0.0
 10
11.7679354579
 20
2.5594740879
 30
0.0
 10
11.7656149319
 20
2.5939684375
 30
0.0
 10
11.7629410106
 20
2.642371508
 30
0.0
 10
11.7602443389
 20
2.6997572802
 30
0.0
 10
11.7575272658
 20
2.7655307505
 30
0.0
 10
11.754789823
 20
2.8389699043
 30
0.0
 10
11.7520344913
 20
2.9192705416
 30
0.0
 10
11.7482392218
 20
3.0375727449
 30
0.0
 10
11.7435605592
 20
3.1957149149
 30
0.0
 10
11.7380161398
 20
3.3929793566
 30
0.0
 10
11.732422553
 20
3.594064943
 30
0.0
 10
11.7285670388
 20
3.7284522384
 30
0.0
 10
11.7265850309
 20
3.7948455104
 30
0.0
  0
SPLINE
  5
333
100
AcDbEntity
  8
0
100
AcDbSpline
 62
7
  6
CONTINUOUS
 70
0
 71
3
 72
20
 73
16
 74
0
 42
0.0000001
 43
0.0000001
 44
0.0000000001
 40
0.0
 40
0.0
 40
0.0
 40
0.0
 40
0.0105290705
 40
0.0230329654
 40
0.0538058012
 40
0.0919938787
 40
0.1372649835
 40
0.1891771394
 40
0.247111317
 40
0.3104315779
 40
0.3785013283
 40
0.5260083331
 40
0.6832198956
 40
0.8434912513
 40
1.0
 40
1.0
 40
1.0
 40
1.0
 10
10.3233226786
 20
2.522567865
 30
0.0
 10
10.3238194204
 20
2.5270085969
 30
0.0
 10
10.3247865266
 20
2.5367363129
 30
0.0
 10
10.326702452
 20
2.5594908849
 30
0.0
 10
10.329022912
 20
2.59398776
 30
0.0
 10
10.3316967648
 20
2.6423932721
 30
0.0
 10
10.3343933614
 20
2.6997806975
 30
0.0
 10
10.3371103578
 20
2.7655550392
 30
0.0
 10
10.3398477214
 20
2.8389943036
 30
0.0
 10
10.3426029718
 20
2.9192943551
 30
0.0
 10
10.3463981167
 20
3.0375945735
 30
0.0
 10
10.3510766342
 20
3.1957330602
 30
0.0
 10
10.356620889
 20
3.3929920625
 30
0.0
 10
10.3622143072
 20
3.5940714235
 30
0.0
 10
10.3660697022
 20
3.7284543955
 30
0.0
 10
10.3680516456
 20
3.7948455104
 30
0.0
  0
LINE
  5
334
100
AcDbEntity
  8
0
100
AcDbLine
 62
7
  6
CONTINUOUS
 10
11.7265848598
 20
3.7948454988
 11
11.7174421122
 21
4.096332144
  0
LINE
  5
335
100
AcDbEntity
  8
0
100
AcDbLine
 62
7
  6
CONTINUOUS
 10
10.368051479
 20
3.7948455008
 11
10.3771942177
 21
4.0963321469
  0
SPLINE
  5
336
100
AcDbEntity
  8
0
100
AcDbSpline
 62
7
  6
CONTINUOUS
 70
0
 71
3
 72
9
 73
5
 74
0
 42
0.0000001
 43
0.0000001
 44
0.0000000001
 40
0.0
 40
0.0
 40
0.0
 40
0.0
 40
0.5152786271
 40
1.0
 40
1.0
 40
1.0
 40
1.0
 10
12.1686948327
 20
11.135465914
 30
0.0
 10
12.1818309583
 20
11.1711997441
 30
0.0
 10
12.2087977066
 20
11.2400192737
 30
0.0
 10
12.2391279146
 20
11.3074363304
 30
0.0
 10
12.2547546849
 20
11.3396613594
 30
0.0
  0
SPLINE
  5
337
100
AcDbEntity
  8
0
100
AcDbSpline
 62
7
  6
CONTINUOUS
 70
0
 71
3
 72
11
 73
7
 74
0
 42
0.0000001
 43
0.0000001
 44
0.0000000001
 40
0.0
 40
0.0
 40
0.0
 40
0.0
 40
0.2670549078
 40
0.5226038217
 40
0.7668436607
 40
1.0
 40
1.0
 40
1.0
 40
1.0
 10
12.0515636045
 20
10.7408908427
 30
0.0
 10
12.0601141365
 20
10.7765384039
 30
0.0
 10
12.0776762694
 20
10.8461026687
 30
0.0
 10
12.1061393006
 20
10.9474600622
 30
0.0
 10
12.1361369368
 20
11.0435107662
 30
0.0
 10
12.1576518287
 20
11.1054259434
 30
0.0
 10
12.1686948327
 20
11.135465914
 30
0.0
  0
SPLINE
  5
338
100
AcDbEntity
  8
0
100
AcDbSpline
 62
7
  6
CONTINUOUS
 70
0
 71
3
 72
11
 73
7
 74
0
 42
0.0000001
 43
0.0000001
 44
0.0000000001
 40
0.0
 40
0.0
 40
0.0
 40
0.0
 40
0.2775113918
 40
0.5364959
 40
0.7772162989
 40
1.0
 40
1.0
 40
1.0
 40
1.0
 10
11.8959163375
 20
9.7485509216
 30
0.0
 10
11.9048349945
 20
9.8411081658
 30
0.0
 10
11.9243078983
 20
10.0198406907
 30
0.0
 10
11.9601346474
 20
10.277830459
 30
0.0
 10
12.0015592912
 20
10.5163947286
 30
0.0
 10
12.0341521121
 20
10.6683015306
 30
0.0
 10
12.0515636045
 20
10.7408908427
 30
0.0
  0
SPLINE
  5
339
100
AcDbEntity
  8
0
100
AcDbSpline
 62
7
  6
CONTINUOUS
 70
0
 71
3
 72
11
 73
7
 74
0
 42
0.0000001
 43
0.0000001
 44
0.0000000001
 40
0.0
 40
0.0
 40
0.0
 40
0.0
 40
0.2503407101
 40
0.5005717613
 40
0.7505136691
 40
1.0
 40
1.0
 40
1.0
 40
1.0
 10
11.0473183379
 20
1.7403460209
 30
0.0
 10
11.0811224906
 20
1.7403460208
 30
0.0
 10
11.1488033877
 20
1.745078918
 30
0.0
 10
11.2482978363
 20
1.7658515233
 30
0.0
 10
11.3439949698
 20
1.7997541655
 30
0.0
 10
11.4041315089
 20
1.8308369801
 30
0.0
 10
11.4328956793
 20
1.8483742732
 30
0.0
  0
SPLINE
  5
33A
100
AcDbEntity
  8
0
100
AcDbSpline
 62
7
  6
CONTINUOUS
 70
0
 71
3
 72
17
 73
13
 74
0
 42
0.0000001
 43
0.0000001
 44
0.0000000001
 40
0.0
 40
0.0
 40
0.0
 40
0.0
 40
0.1258056697
 40
0.2514396035
 40
0.3768262486
 40
0.4394353864
 40
0.5019657609
 40
0.6267714885
 40
0.7513803757
 40
0.8136386856
 40
0.8758390936
 40
1.0
 40
1.0
 40
1.0
 40
1.0
 10
11.4328957202
 20
1.8483732626
 30
0.0
 10
11.4592459746
 20
1.8644388041
 30
0.0
 10
11.5098961071
 20
1.8999885532
 30
0.0
 10
11.5784361382
 20
1.9623498164
 30
0.0
 10
11.6285595099
 20
2.0210158923
 30
0.0
 10
11.6638656776
 20
2.0713632765
 30
0.0
 10
11.6957842078
 20
2.1237597772
 30
0.0
 10
11.7290961941
 20
2.192906087
 30
0.0
 10
11.7532827038
 20
2.2656661257
 30
0.0
 10
11.7669611164
 20
2.3252534441
 30
0.0
 10
11.7768013959
 20
2.3854726496
 30
0.0
 10
11.7798184644
 20
2.4312589662
 30
0.0
 10
11.7798184293
 20
2.4617170734
 30
0.0
  0
SPLINE
  5
33B
100
AcDbEntity
  8
0
100
AcDbSpline
 62
7
  6
CONTINUOUS
 70
0
 71
3
 72
17
 73
13
 74
0
 42
0.0000001
 43
0.0000001
 44
0.0000000001
 40
0.0
 40
0.0
 40
0.0
 40
0.0
 40
0.1241609068
 40
0.1863613153
 40
0.2486196258
 40
0.3732285131
 40
0.4980342381
 40
0.5605646096
 40
0.6231737438
 40
0.7485603828
 40
0.8741943171
 40
1.0
 40
1.0
 40
1.0
 40
1.0
 10
10.3148182471
 20
2.4617170717
 30
0.0
 10
10.3148182118
 20
2.4312589644
 30
0.0
 10
10.3178352806
 20
2.3854726475
 30
0.0
 10
10.3276755608
 20
2.3252534416
 30
0.0
 10
10.3413539739
 20
2.265666123
 30
0.0
 10
10.3655404836
 20
2.1929060847
 30
0.0
 10
10.3988524682
 20
2.1237597756
 30
0.0
 10
10.430770996
 20
2.0713632759
 30
0.0
 10
10.4660771607
 20
2.0210158933
 30
0.0
 10
10.51620053
 20
1.9623498181
 30
0.0
 10
10.5847405628
 20
1.8999885538
 30
0.0
 10
10.6353906986
 20
1.8644388034
 30
0.0
 10
10.6617409558
 20
1.8483732602
 30
0.0
  0
SPLINE
  5
33C
100
AcDbEntity
  8
0
100
AcDbSpline
 62
7
  6
CONTINUOUS
 70
0
 71
3
 72
11
 73
7
 74
0
 42
0.0000001
 43
0.0000001
 44
0.0000000001
 40
0.0
 40
0.0
 40
0.0
 40
0.0
 40
0.2494863309
 40
0.4994282387
 40
0.7496592899
 40
1.0
 40
1.0
 40
1.0
 40
1.0
 10
10.6617409969
 20
1.8483742735
 30
0.0
 10
10.6905051672
 20
1.8308369804
 30
0.0
 10
10.7506417062
 20
1.7997541657
 30
0.0
 10
10.8463388396
 20
1.7658515235
 30
0.0
 10
10.9458332881
 20
1.7450789181
 30
0.0
 10
11.0135141851
 20
1.7403460209
 30
0.0
 10
11.0473183379
 20
1.7403460209
 30
0.0
  0
SPLINE
  5
33D
100
AcDbEntity
  8
0
100
AcDbSpline
 62
9
  6
CONTINUOUS
 70
0
 71
3
 72
16
 73
12
 74
0
 42
0.0000001
 43
0.0000001
 44
0.0000000001
 40
0.0
 40
0.0
 40
0.0
 40
0.0
 40
0.1652228619
 40
0.3193478194
 40
0.4621439434
 40
0.5933947312
 40
0.7129139593
 40
0.8205750147
 40
0.9162857142
 40
0.9596439269
 40
1.0
 40
1.0
 40
1.0
 40
1.0
 10
9.8398819917
 20
11.3396613594
 30
0.0
 10
9.878327857
 20
11.3353277346
 30
0.0
 10
9.9526089818
 20
11.3266965562
 30
0.0
 10
10.0599817288
 20
11.3131827902
 30
0.0
 10
10.1592978779
 20
11.2994138149
 30
0.0
 10
10.2503692689
 20
11.2852603844
 30
0.0
 10
10.3330168105
 20
11.2705867156
 30
0.0
 10
10.4071003323
 20
11.2554253098
 30
0.0
 10
10.4633137103
 20
11.2420155021
 30
0.0
 10
10.5038486286
 20
11.2309503643
 30
0.0
 10
10.5226316631
 20
11.2253308755
 30
0.0
 10
10.5316447403
 20
11.2224907665
 30
0.0
  0
LINE
  5
33E
100
AcDbEntity
  8
0
100
AcDbLine
 62
7
  6
CONTINUOUS
 10
11.4226375817
 20
3.8463175246
 11
11.4223340133
 21
4.2928887186
  0
SPLINE
  5
33F
100
AcDbEntity
  8
0
100
AcDbSpline
 62
9
  6
CONTINUOUS
 70
0
 71
3
 72
11
 73
7
 74
0
 42
0.0000001
 43
0.0000001
 44
0.0000000001
 40
0.0
 40
0.0
 40
0.0
 40
0.0
 40
0.2333759855
 40
0.4784432205
 40
0.7344105778
 40
1.0
 40
1.0
 40
1.0
 40
1.0
 10
11.7265851975
 20
3.7948455008
 30
0.0
 10
11.7025671166
 20
3.7962275842
 30
0.0
 10
11.6533432869
 20
3.7994223497
 30
0.0
 10
11.5780592271
 20
3.8078848924
 30
0.0
 10
11.5003319881
 20
3.8226351078
 30
0.0
 10
11.4485341027
 20
3.8374317907
 30
0.0
 10
11.4226375817
 20
3.8463175246
 30
0.0
  0
SPLINE
  5
340
100
AcDbEntity
  8
0
100
AcDbSpline
 62
9
  6
CONTINUOUS
 70
0
 71
3
 72
9
 73
5
 74
0
 42
0.0000001
 43
0.0000001
 44
0.0000000001
 40
0.0
 40
0.0
 40
0.0
 40
0.0
 40
0.4982234434
 40
1.0
 40
1.0
 40
1.0
 40
1.0
 10
11.4226375732
 20
3.8463175273
 30
0.0
 10
11.3608424905
 20
3.8363048727
 30
0.0
 10
11.2360656729
 20
3.8204991499
 30
0.0
 10
11.1103657838
 20
3.8147950168
 30
0.0
 10
11.0473183383
 20
3.8147950168
 30
0.0
  0
LINE
  5
341
100
AcDbEntity
  8
0
100
AcDbLine
 62
7
  6
CONTINUOUS
 10
10.6719991028
 20
3.8463175274
 11
10.6723026707
 21
4.2928887239
  0
SPLINE
  5
342
100
AcDbEntity
  8
0
100
AcDbSpline
 62
9
  6
CONTINUOUS
 70
0
 71
3
 72
12
 73
8
 74
0
 42
0.0000001
 43
0.0000001
 44
0.0000000001
 40
0.0
 40
0.0
 40
0.0
 40
0.0
 40
0.2634386323
 40
0.5216581571
 40
0.6461350872
 40
0.7671825342
 40
1.0
 40
1.0
 40
1.0
 40
1.0
 10
10.6719990952
 20
3.8463175245
 30
0.0
 10
10.6465734236
 20
3.8367593426
 30
0.0
 10
10.594700017
 20
3.8218184772
 30
0.0
 10
10.5290321238
 20
3.8102385879
 30
0.0
 10
10.4775065432
 20
3.8036470564
 30
0.0
 10
10.4284283061
 20
3.798703064
 30
0.0
 10
10.3920174226
 20
3.7962245837
 30
0.0
 10
10.368051479
 20
3.7948455008
 30
0.0
  0
SPLINE
  5
343
100
AcDbEntity
  8
0
100
AcDbSpline
 62
9
  6
CONTINUOUS
 70
0
 71
3
 72
9
 73
5
 74
0
 42
0.0000001
 43
0.0000001
 44
0.0000000001
 40
0.0
 40
0.0
 40
0.0
 40
0.0
 40
0.2495124434
 40
1.0
 40
1.0
 40
1.0
 40
1.0
 10
11.4223374479
 20
4.2928892521
 30
0.0
 10
11.3911612421
 20
4.291737928
 30
0.0
 10
11.2661959485
 20
4.2876104288
 30
0.0
 10
11.141154549
 20
4.2856152126
 30
0.0
 10
11.0473183326
 20
4.2856152127
 30
0.0
  0
SPLINE
  5
344
100
AcDbEntity
  8
0
100
AcDbSpline
 62
9
  6
CONTINUOUS
 70
0
 71
3
 72
9
 73
5
 74
0
 42
0.0000001
 43
0.0000001
 44
0.0000000001
 40
0.0
 40
0.0
 40
0.0
 40
0.0
 40
0.4940777472
 40
1.0
 40
1.0
 40
1.0
 40
1.0
 10
11.7174492956
 20
4.096327726
 30
0.0
 10
11.668408621
 20
4.1280394784
 30
0.0
 10
11.5690607123
 20
4.1920817777
 30
0.0
 10
11.4711682597
 20
4.2583731593
 30
0.0
 10
11.4223340058
 20
4.2928887239
 30
0.0
  0
SPLINE
  5
345
100
AcDbEntity
  8
0
100
AcDbSpline
 62
7
  6
CONTINUOUS
 70
0
 71
3
 72
19
 73
15
 74
0
 42
0.0000001
 43
0.0000001
 44
0.0000000001
 40
0.0
 40
0.0
 40
0.0
 40
0.0
 40
0.0090025607
 40
0.020138386
 40
0.0486255034
 40
0.0850921648
 40
0.129168691
 40
0.1804280855
 40
0.2382146308
 40
0.3705174673
 40
0.5200939335
 40
0.6798417598
 40
0.8423384904
 40
1.0
 40
1.0
 40
1.0
 40
1.0
 10
11.4305310744
 20
1.9298905238
 30
0.0
 10
11.4303749455
 20
1.9356394089
 30
0.0
 10
11.430081038
 20
1.9485009346
 30
0.0
 10
11.4295160783
 20
1.9795587288
 30
0.0
 10
11.4288723318
 20
2.0281621703
 30
0.0
 10
11.4281729502
 20
2.097809291
 30
0.0
 10
11.4275097852
 20
2.182004704
 30
0.0
 10
11.4268838263
 20
2.2798202254
 30
0.0
 10
11.426063011
 20
2.4339961928
 30
0.0
 10
11.4251764285
 20
2.6509793709
 30
0.0
 10
11.4243040143
 20
2.9330977463
 30
0.0
 10
11.4235862192
 20
3.2345050389
 30
0.0
 10
11.423025813
 20
3.541077542
 30
0.0
 10
11.4227494218
 20
3.7456004577
 30
0.0
 10
11.4226375737
 20
3.8463175274
 30
0.0
  0
SPLINE
  5
346
100
AcDbEntity
  8
0
100
AcDbSpline
 62
9
  6
CONTINUOUS
 70
0
 71
3
 72
15
 73
11
 74
0
 42
0.0000001
 43
0.0000001
 44
0.0000000001
 40
0.0
 40
0.0
 40
0.0
 40
0.0
 40
0.1268017712
 40
0.2540945011
 40
0.38126592
 40
0.5077594982
 40
0.6331681917
 40
0.757187403
 40
0.8795282604
 40
1.0
 40
1.0
 40
1.0
 40
1.0
 10
11.7724400079
 20
2.5133975536
 30
0.0
 10
11.7698043227
 20
2.4839339264
 30
0.0
 10
11.761249772
 20
2.4251376258
 30
0.0
 10
11.7390456539
 20
2.3388428118
 30
0.0
 10
11.707743573
 20
2.2554773787
 30
0.0
 10
11.6676523593
 20
2.1764412735
 30
0.0
 10
11.6190972008
 20
2.1031748442
 30
0.0
 10
11.5630151541
 20
2.0367561998
 30
0.0
 10
11.5003243612
 20
1.9782164687
 30
0.0
 10
11.4543224204
 20
1.9448517505
 30
0.0
 10
11.4305310744
 20
1.9298905238
 30
0.0
  0
SPLINE
  5
347
100
AcDbEntity
  8
0
100
AcDbSpline
 62
9
  6
CONTINUOUS
 70
0
 71
3
 72
13
 73
9
 74
0
 42
0.0000001
 43
0.0000001
 44
0.0000000001
 40
0.0
 40
0.0
 40
0.0
 40
0.0
 40
0.2526763444
 40
0.5029294066
 40
0.627455314
 40
0.7516969012
 40
0.8758135967
 40
1.0
 40
1.0
 40
1.0
 40
1.0
 10
11.4305310744
 20
1.9298905238
 30
0.0
 10
11.4016461554
 20
1.9118167291
 30
0.0
 10
11.3417076498
 20
1.8795923261
 30
0.0
 10
11.2622036231
 20
1.8498361583
 30
0.0
 10
11.1970195835
 20
1.8329307881
 30
0.0
 10
11.1475319978
 20
1.823770184
 30
0.0
 10
11.0975617089
 20
1.8182032578
 30
0.0
 10
11.0640649013
 20
1.8169490636
 30
0.0
 10
11.0473183383
 20
1.8169490636
 30
0.0
  0
SPLINE
  5
348
100
AcDbEntity
  8
0
100
AcDbSpline
 62
7
  6
CONTINUOUS
 70
0
 71
3
 72
19
 73
15
 74
0
 42
0.0000001
 43
0.0000001
 44
0.0000000001
 40
0.0
 40
0.0
 40
0.0
 40
0.0
 40
0.0090025607
 40
0.020138386
 40
0.0486255034
 40
0.0850921648
 40
0.129168691
 40
0.1804280855
 40
0.2382146308
 40
0.3705174673
 40
0.5200939335
 40
0.6798417598
 40
0.8423384904
 40
1.0
 40
1.0
 40
1.0
 40
1.0
 10
10.6641056021
 20
1.9298905238
 30
0.0
 10
10.6642617311
 20
1.9356394089
 30
0.0
 10
10.6645556386
 20
1.9485009346
 30
0.0
 10
10.6651205983
 20
1.9795587288
 30
0.0
 10
10.6657643447
 20
2.0281621703
 30
0.0
 10
10.6664637263
 20
2.097809291
 30
0.0
 10
10.6671268914
 20
2.182004704
 30
0.0
 10
10.6677528502
 20
2.2798202254
 30
0.0
 10
10.6685736656
 20
2.4339961928
 30
0.0
 10
10.6694602481
 20
2.6509793709
 30
0.0
 10
10.6703326622
 20
2.9330977463
 30
0.0
 10
10.6710504573
 20
3.2345050389
 30
0.0
 10
10.6716108636
 20
3.541077542
 30
0.0
 10
10.6718872547
 20
3.7456004577
 30
0.0
 10
10.6719991029
 20
3.8463175274
 30
0.0
  0
SPLINE
  5
349
100
AcDbEntity
  8
0
100
AcDbSpline
 62
9
  6
CONTINUOUS
 70
0
 71
3
 72
11
 73
7
 74
0
 42
0.0000001
 43
0.0000001
 44
0.0000000001
 40
0.0
 40
0.0
 40
0.0
 40
0.0
 40
0.2476825442
 40
0.4954517518
 40
0.7455712226
 40
1.0
 40
1.0
 40
1.0
 40
1.0
 10
11.0473183383
 20
1.8169490636
 30
0.0
 10
11.0139252488
 20
1.8169490636
 30
0.0
 10
10.9470271186
 20
1.8218531822
 30
0.0
 10
10.8485624992
 20
1.8436436844
 30
0.0
 10
10.753278963
 20
1.8793180024
 30
0.0
 10
10.69318703
 20
1.9116987385
 30
0.0
 10
10.6641056021
 20
1.9298905238
 30
0.0
  0
SPLINE
  5
34A
100
AcDbEntity
  8
0
100
AcDbSpline
 62
9
  6
CONTINUOUS
 70
0
 71
3
 72
14
 73
10
 74
0
 42
0.0000001
 43
0.0000001
 44
0.0000000001
 40
0.0
 40
0.0
 40
0.0
 40
0.0
 40
0.1195485267
 40
0.2419176811
 40
0.3664429184
 40
0.4923833209
 40
0.7459336981
 40
0.8731914634
 40
1.0
 40
1.0
 40
1.0
 40
1.0
 10
10.6641056021
 20
1.9298905238
 30
0.0
 10
10.6405093367
 20
1.9447347562
 30
0.0
 10
10.5947364861
 20
1.9780191508
 30
0.0
 10
10.5321590888
 20
2.0364811257
 30
0.0
 10
10.4758532548
 20
2.1029951167
 30
0.0
 10
10.4105958594
 20
2.2009987659
 30
0.0
 10
10.3627760583
 20
2.310365083
 30
0.0
 10
10.3333475848
 20
2.4251658407
 30
0.0
 10
10.3248313558
 20
2.4839450831
 30
0.0
 10
10.3221966687
 20
2.5133975536
 30
0.0
  0
SPLINE
  5
34B
100
AcDbEntity
  8
0
100
AcDbSpline
 62
9
  6
CONTINUOUS
 70
0
 71
3
 72
15
 73
11
 74
0
 42
0.0000001
 43
0.0000001
 44
0.0000000001
 40
0.0
 40
0.0
 40
0.0
 40
0.0
 40
0.2437278286
 40
0.3059759204
 40
0.3685498714
 40
0.4943268517
 40
0.6206448402
 40
0.747259901
 40
0.8738439969
 40
1.0
 40
1.0
 40
1.0
 40
1.0
 10
10.6635684022
 20
1.9107335983
 30
0.0
 10
10.6148035005
 20
1.9411766605
 30
0.0
 10
10.5583895136
 20
1.9878356922
 30
0.0
 10
10.500193052
 20
2.0524005628
 30
0.0
 10
10.4632562463
 20
2.0985944196
 30
0.0
 10
10.4221186717
 20
2.1605977299
 30
0.0
 10
10.381926475
 20
2.2405988693
 30
0.0
 10
10.3511364247
 20
2.3248597949
 30
0.0
 10
10.3299997316
 20
2.4119870559
 30
0.0
 10
10.3224932532
 20
2.4712772452
 30
0.0
 10
10.3204510824
 20
2.5009631232
 30
0.0
  0
LINE
  5
34C
100
AcDbEntity
  8
0
100
AcDbLine
 62
7
  6
CONTINUOUS
 10
10.6431731499
 20
12.4293176999
 11
10.2998183383
 21
13.0240256786
  0
LINE
  5
34D
100
AcDbEntity
  8
0
100
AcDbLine
 62
7
  6
CONTINUOUS
 10
11.7948183383
 20
13.0240256786
 11
11.4514635267
 21
12.4293176999
  0
LINE
  5
34E
100
AcDbEntity
  8
0
100
AcDbLine
 62
7
  6
CONTINUOUS
 10
11.4310682556
 20
1.9107335857
 11
11.4305382287
 21
1.9298950229
  0
SPLINE
  5
34F
100
AcDbEntity
  8
0
100
AcDbSpline
 62
9
  6
CONTINUOUS
 70
0
 71
3
 72
14
 73
10
 74
0
 42
0.0000001
 43
0.0000001
 44
0.0000000001
 40
0.0
 40
0.0
 40
0.0
 40
0.0
 40
0.2524343738
 40
0.3790595152
 40
0.5052227644
 40
0.6306224359
 40
0.7550315978
 40
0.878212196
 40
1.0
 40
1.0
 40
1.0
 40
1.0
 10
11.7741855942
 20
2.5009631232
 30
0.0
 10
11.7700991019
 20
2.4415601048
 30
0.0
 10
11.753595385
 20
2.3526655123
 30
0.0
 10
11.7126093959
 20
2.24059055
 30
0.0
 10
11.6725282932
 20
2.160647665
 30
0.0
 10
11.6235069406
 20
2.086498047
 30
0.0
 10
11.5665107404
 20
2.0191997713
 30
0.0
 10
11.5024922892
 20
1.9597998935
 30
0.0
 10
11.455437972
 20
1.9259438693
 30
0.0
 10
11.4310682556
 20
1.9107335857
 30
0.0
  0
SPLINE
  5
350
100
AcDbEntity
  8
0
100
AcDbSpline
 62
9
  6
CONTINUOUS
 70
0
 71
3
 72
11
 73
7
 74
0
 42
0.0000001
 43
0.0000001
 44
0.0000000001
 40
0.0
 40
0.0
 40
0.0
 40
0.0
 40
0.2520006495
 40
0.5022360573
 40
0.7512811599
 40
1.0
 40
1.0
 40
1.0
 40
1.0
 10
11.4310680466
 20
1.9107334409
 30
0.0
 10
11.4022127675
 20
1.8927817227
 30
0.0
 10
11.3422281453
 20
1.8608149778
 30
0.0
 10
11.2469148099
 20
1.8255758202
 30
0.0
 10
11.1480814023
 20
1.8038740752
 30
0.0
 10
11.0808594599
 20
1.7989133298
 30
0.0
 10
11.0473183383
 20
1.7989133298
 30
0.0
  0
LINE
  5
351
100
AcDbEntity
  8
0
100
AcDbLine
 62
7
  6
CONTINUOUS
 10
10.6635684093
 20
1.9107338496
 11
10.6640984612
 21
1.929895348
  0
SPLINE
  5
352
100
AcDbEntity
  8
0
100
AcDbSpline
 62
9
  6
CONTINUOUS
 70
0
 71
3
 72
11
 73
7
 74
0
 42
0.0000001
 43
0.0000001
 44
0.0000000001
 40
0.0
 40
0.0
 40
0.0
 40
0.0
 40
0.2482983247
 40
0.4966159389
 40
0.7466821276
 40
1.0
 40
1.0
 40
1.0
 40
1.0
 10
11.0473183383
 20
1.7989133298
 30
0.0
 10
11.0138308646
 20
1.7989133298
 30
0.0
 10
10.9467560407
 20
1.8037757586
 30
0.0
 10
10.8480582643
 20
1.8253288606
 30
0.0
 10
10.752679673
 20
1.8605983724
 30
0.0
 10
10.6925787308
 20
1.8926883606
 30
0.0
 10
10.6635686452
 20
1.9107334306
 30
0.0
  0
SPLINE
  5
353
100
AcDbEntity
  8
0
100
AcDbSpline
 62
7
  6
CONTINUOUS
 70
0
 71
3
 72
10
 73
6
 74
0
 42
0.0000001
 43
0.0000001
 44
0.0000000001
 40
0.0
 40
0.0
 40
0.0
 40
0.0
 40
0.2315023889
 40
0.6002788588
 40
1.0
 40
1.0
 40
1.0
 40
1.0
 10
9.5523183383
 20
11.7293176999
 30
0.0
 10
9.5706163113
 20
11.7145249012
 30
0.0
 10
9.6161771825
 20
11.6737954371
 30
0.0
 10
9.6840524269
 20
11.5977867634
 30
0.0
 10
9.7292034974
 20
11.5338516022
 30
0.0
 10
9.7510865083
 20
11.4996215023
 30
0.0
  0
SPLINE
  5
354
100
AcDbEntity
  8
0
100
AcDbSpline
 62
7
  6
CONTINUOUS
 70
0
 71
3
 72
11
 73
7
 74
0
 42
0.0000001
 43
0.0000001
 44
0.0000000001
 40
0.0
 40
0.0
 40
0.0
 40
0.0
 40
0.2701937153
 40
0.4632806036
 40
0.6488360305
 40
1.0
 40
1.0
 40
1.0
 40
1.0
 10
12.3435501683
 20
11.4996215023
 30
0.0
 10
12.3583439492
 20
11.5227624038
 30
0.0
 10
12.3849625064
 20
11.561664705
 30
0.0
 10
12.4256107402
 20
11.6136519659
 30
0.0
 10
12.4746671104
 20
11.6693339255
 30
0.0
 10
12.5145588512
 20
11.7068758423
 30
0.0
 10
12.5423183383
 20
11.7293176999
 30
0.0
  0
LINE
  5
355
100
AcDbEntity
  8
0
100
AcDbLine
 62
7
  6
CONTINUOUS
 10
11.7798183379
 20
2.4616971322
 11
11.7741870887
 21
2.50094314
  0
SPLINE
  5
356
100
AcDbEntity
  8
0
100
AcDbSpline
 62
9
  6
CONTINUOUS
 70
0
 71
3
 72
16
 73
12
 74
0
 42
0.0000001
 43
0.0000001
 44
0.0000000001
 40
0.0
 40
0.0
 40
0.0
 40
0.0
 40
0.1652228638
 40
0.3193478219
 40
0.462143946
 40
0.5933947337
 40
0.7129139619
 40
0.8205750174
 40
0.9162857162
 40
0.9596439281
 40
1.0
 40
1.0
 40
1.0
 40
1.0
 10
12.2547546848
 20
11.3396613594
 30
0.0
 10
12.2163088181
 20
11.3353277344
 30
0.0
 10
12.1420276908
 20
11.3266965557
 30
0.0
 10
12.0346549404
 20
11.3131827892
 30
0.0
 10
11.9353387886
 20
11.2994138132
 30
0.0
 10
11.8442673953
 20
11.2852603821
 30
0.0
 10
11.7616198517
 20
11.2705867126
 30
0.0
 10
11.6875363281
 20
11.2554253061
 30
0.0
 10
11.631322949
 20
11.2420154977
 30
0.0
 10
11.5907880304
 20
11.2309503593
 30
0.0
 10
11.572004996
 20
11.2253308702
 30
0.0
 10
11.5629919189
 20
11.222490761
 30
0.0
  0
SPLINE
  5
357
100
AcDbEntity
  8
0
100
AcDbSpline
 62
9
  6
CONTINUOUS
 70
0
 71
3
 72
15
 73
11
 74
0
 42
0.0000001
 43
0.0000001
 44
0.0000000001
 40
0.0
 40
0.0
 40
0.0
 40
0.0
 40
0.1544989475
 40
0.3009066406
 40
0.4390360425
 40
0.5687102589
 40
0.6897700475
 40
0.802082673
 40
0.9055283027
 40
1.0
 40
1.0
 40
1.0
 40
1.0
 10
12.1686948288
 20
11.1354659036
 30
0.0
 10
12.1327938726
 20
11.1315961254
 30
0.0
 10
12.0628913566
 20
11.1238780947
 30
0.0
 10
11.960987479
 20
11.1118512216
 30
0.0
 10
11.8649645508
 20
11.0995314317
 30
0.0
 10
11.7749775131
 20
11.0867710575
 30
0.0
 10
11.6911802317
 20
11.0734170563
 30
0.0
 10
11.6136935457
 20
11.0595040542
 30
0.0
 10
11.5426320641
 20
11.0450712397
 30
0.0
 10
11.4975556977
 20
11.0346530858
 30
0.0
 10
11.4761304307
 20
11.0293177852
 30
0.0
  0
SPLINE
  5
358
100
AcDbEntity
  8
0
100
AcDbSpline
 62
9
  6
CONTINUOUS
 70
0
 71
3
 72
12
 73
8
 74
0
 42
0.0000001
 43
0.0000001
 44
0.0000000001
 40
0.0
 40
0.0
 40
0.0
 40
0.0
 40
0.280280334
 40
0.413198823
 40
0.5411091002
 40
0.7813601525
 40
1.0
 40
1.0
 40
1.0
 40
1.0
 10
12.0515636032
 20
10.7408908372
 30
0.0
 10
11.9926859402
 20
10.7382074947
 30
0.0
 10
11.9058905261
 20
10.7341445755
 30
0.0
 10
11.7922714797
 20
10.7279469701
 30
0.0
 10
11.6871021835
 20
10.7214359263
 30
0.0
 10
11.5640564139
 20
10.7120372384
 30
0.0
 10
11.4680112001
 20
10.7025933982
 30
0.0
 10
11.422318522
 20
10.6974908221
 30
0.0
  0
LINE
  5
359
100
AcDbEntity
  8
0
100
AcDbLine
 62
7
  6
CONTINUOUS
 10
10.3148183386
 20
2.4616965392
 11
10.3204524986
 21
2.5009425408
  0
SPLINE
  5
35A
100
AcDbEntity
  8
0
100
AcDbSpline
 62
9
  6
CONTINUOUS
 70
0
 71
3
 72
9
 73
5
 74
0
 42
0.0000001
 43
0.0000001
 44
0.0000000001
 40
0.0
 40
0.0
 40
0.0
 40
0.0
 40
0.5059221349
 40
1.0
 40
1.0
 40
1.0
 40
1.0
 10
10.6723026708
 20
4.2928887239
 30
0.0
 10
10.6237493086
 20
4.2579815677
 30
0.0
 10
10.5254428723
 20
4.192275723
 30
0.0
 10
10.4262339274
 20
4.1280432649
 30
0.0
 10
10.3771943906
 20
4.0963322587
 30
0.0
  0
SPLINE
  5
35B
100
AcDbEntity
  8
0
100
AcDbSpline
 62
9
  6
CONTINUOUS
 70
0
 71
3
 72
12
 73
8
 74
0
 42
0.0000001
 43
0.0000001
 44
0.0000000001
 40
0.0
 40
0.0
 40
0.0
 40
0.0
 40
0.280279787
 40
0.4131981295
 40
0.5411083501
 40
0.7813595737
 40
1.0
 40
1.0
 40
1.0
 40
1.0
 10
10.0430730734
 20
10.7408908372
 30
0.0
 10
10.1019499189
 20
10.738207532
 30
0.0
 10
10.1887441517
 20
10.7341446693
 30
0.0
 10
10.302361686
 20
10.72794717
 30
0.0
 10
10.4075297234
 20
10.72143625
 30
0.0
 10
10.5305741768
 20
10.7120377539
 30
0.0
 10
10.6266184116
 20
10.7025941196
 30
0.0
 10
10.672310673
 20
10.6974916575
 30
0.0
  0
SPLINE
  5
35C
100
AcDbEntity
  8
0
100
AcDbSpline
 62
9
  6
CONTINUOUS
 70
0
 71
3
 72
15
 73
11
 74
0
 42
0.0000001
 43
0.0000001
 44
0.0000000001
 40
0.0
 40
0.0
 40
0.0
 40
0.0
 40
0.1544989504
 40
0.3009066462
 40
0.4390360502
 40
0.5687102674
 40
0.6897700552
 40
0.8020826787
 40
0.9055283057
 40
1.0
 40
1.0
 40
1.0
 40
1.0
 10
9.9259418477
 20
11.1354659036
 30
0.0
 10
9.9618428063
 20
11.1315961251
 30
0.0
 10
10.0317453266
 20
11.123878094
 30
0.0
 10
10.1336492106
 20
11.1118512201
 30
0.0
 10
10.2296721444
 20
11.0995314294
 30
0.0
 10
10.3196591866
 20
11.0867710542
 30
0.0
 10
10.4034564712
 20
11.0734170521
 30
0.0
 10
10.4809431593
 20
11.059504049
 30
0.0
 10
10.5520046421
 20
11.0450712334
 30
0.0
 10
10.5970810091
 20
11.0346530786
 30
0.0
 10
10.6185062763
 20
11.0293177777
 30
0.0
  0
ENDSEC
  0
SECTION
  2
OBJECTS
  0
DICTIONARY
  5
C
100
AcDbDictionary
280
0
281
1
  3
ACAD_GROUP
350
D
  3
ACAD_MLINESTYLE
350
17
  3
ACAD_LAYOUT
350
1A
  3
ACAD_PLOTSETTINGS
350
19
  3
ACAD_PLOTSTYLENAME
350
E
  0
DICTIONARY
  5
D
102
{ACAD_REACTORS
330
C
102
}
100
AcDbDictionary
280
0
281
1
  0
ACDBDICTIONARYWDFLT
  5
E
102
{ACAD_REACTORS
330
C
102
}
100
AcDbDictionary
281
1
  3
Normal
350
F
100
AcDbDictionaryWithDefault
340
F
  0
DICTIONARY
  5
17
102
{ACAD_REACTORS
330
C
102
}
100
AcDbDictionary
280
0
281
1
  3
Standard
350
18
  0
DICTIONARY
  5
19
102
{ACAD_REACTORS
330
C
102
}
100
AcDbDictionary
281
1
  0
DICTIONARY
  5
1A
102
{ACAD_REACTORS
330
C
102
}
100
AcDbDictionary
281
1
  3
Model
350
35D
  3
Layout1
350
35E
  0
ACDBPLACEHOLDER
  5
F
102
{ACAD_REACTORS
330
E
102
}
  0
MLINESTYLE
  5
18
102
{ACAD_REACTORS
330
17
102
}
100
AcDbMlineStyle
  2
STANDARD
 70
0
  3

 62
256
 51
90.0
 52
90.0
 71
2
 49
0.5
 62
256
  6
BYLAYER
 49
-0.5
 62
256
  6
BYLAYER
  0
LAYOUT
  5
35D
102
{ACAD_REACTORS
330
1A
102
}
100
AcDbPlotSettings
  1

  2
none_device
  4
ANSI_C_(22.00_x_17.00_Inches)
  6

 40
0.0
 41
0.0
 42
0.0
 43
0.0
 44
558.8
 45
431.8
 46
0.0
 47
0.0
 48
0.0
 49
0.0
140
0.0
141
0.0
142
1.0
143
1.0
 70
1024
 72
0
 73
0
 74
0
  7

 75
0
147
1.0
148
0.0
149
0.0
100
AcDbLayout
  1
Model
 70
0
 71
0
 10
0.0
 20
0.0
 11
22.0
 21
17.0
 12
0.0
 22
0.0
 32
0.0
 14
0.0
 24
0.0
 34
0.0
 15
0.0
 25
0.0
 35
0.0
146
0.0
 13
0.0
 23
0.0
 33
0.0
 16
1.0
 26
0.0
 36
0.0
 17
0.0
 27
1.0
 37
0.0
 76
0
330
202
345
0
346
0
  0
LAYOUT
  5
35E
102
{ACAD_REACTORS
330
1A
102
}
100
AcDbPlotSettings
  1

  2
none_device
  4
ANSI_C_(22.00_x_17.00_Inches)
  6

 40
0.0
 41
0.0
 42
0.0
 43
0.0
 44
558.8
 45
431.8
 46
0.0
 47
0.0
 48
0.0
 49
0.0
140
0.0
141
0.0
142
1.0
143
1.0
 70
0
 72
0
 73
0
 74
0
  7

 75
0
147
1.0
148
0.0
149
0.0
100
AcDbLayout
  1
Layout1
 70
0
 71
1
 10
0.0
 20
0.0
 11
22.0
 21
17.0
 12
0.0
 22
0.0
 32
0.0
 14
0.0
 24
0.0
 34
0.0
 15
0.0
 25
0.0
 35
0.0
146
0.0
 13
0.0
 23
0.0
 33
0.0
 16
1.0
 26
0.0
 36
0.0
 17
0.0
 27
1.0
 37
0.0
 76
0
330
203
345
0
346
0
  0
ENDSEC
  0
EOF
