999
DXF file: 3-1501_top.dxf
999
Pro/ENGINEER 2018400 by Parametric Technology Corporation
  0
SECTION
  2
HEADER
  9
$ACADVER
  1
AC1027
  9
$DWGCODEPAGE
  3
ANSI_1252
  9
$EXTMAX
 10
11.0
 20
8.5
 30
0.0
  9
$EXTMIN
 10
0.0
 20
0.0
 30
0.0
  9
$LIMMIN
 10
0.0
 20
0.0
  9
$LIMMAX
 10
11.0
 20
8.5
  9
$VIEWCTR
 10
5.5
 20
4.25
  9
$VIEWSIZE
 40
8.5
  9
$CLAYER
  8
0
  9
$LTSCALE
 40
0.605
  9
$CELTYPE
  6
BYLAYER
  9
$DIMSCALE
 40
1.0
  9
$DIMASZ
 40
0.1
  9
$DIMEXO
 40
0.0625
  9
$DIMDLI
 40
0.418
  9
$DIMEXE
 40
0.125
  9
$DIMCEN
 40
0.099
  9
$DIMLFAC
 40
1.0
  9
$DIMBLK
  1
_FILLED
  9
$DIMALT
 70
1
  9
$DIMALTD
 70
2
  9
$DIMALTTD
 70
2
  9
$DIMALTF
 40
25.4
  9
$DIMTXT
 40
0.08
  9
$DIMTOL
 70
1
  9
$DIMLIM
 70
0
  9
$DIMTFAC
 40
1.0
  9
$DIMTP
 40
0.001
  9
$DIMTM
 40
0.001
  9
$DIMGAP
 40
0.09
  9
$DIMDSEP
 70
46
  9
$AUNITS
 70
0
  9
$PDMODE
 70
3
  9
$PDSIZE
 40
0.06
  9
$HANDSEED
  5
24F
  9
$TILEMODE
 70
1
  9
$MEASUREMENT
 70
0
  9
$INSUNITS
 70
1
  0
ENDSEC
  0
SECTION
  2
CLASSES
  0
CLASS
  1
ACDBDICTIONARYWDFLT
  2
AcDbDictionaryWithDefault
  3
AutoCAD 2000
 90
0
 91
1
280
0
281
0
  0
CLASS
  1
ACDBPLACEHOLDER
  2
AcDbPlaceHolder
  3
AutoCAD 2000
 90
0
 91
1
280
0
281
0
  0
CLASS
  1
LAYOUT
  2
AcDbLayout
  3
AutoCAD 2000
 90
0
 91
0
280
0
281
0
  0
ENDSEC
  0
SECTION
  2
TABLES
  0
TABLE
  2
VPORT
  5
8
100
AcDbSymbolTable
 70
2
  0
VPORT
  5
1F4
100
AcDbSymbolTableRecord
100
AcDbViewportTableRecord
  2
*ACTIVE
 70
0
 10
0.0
 20
0.0
 11
1.0
 21
1.0
 12
5.5
 22
4.25
 13
0.0
 23
0.0
 14
1.0
 24
1.0
 15
0.0
 25
0.0
 16
0.0
 26
0.0
 36
1.0
 17
0.0
 27
0.0
 37
0.0
 40
8.5
 41
1.2941176471
 42
50.0
 43
0.0
 44
0.0
 50
0.0
 51
0.0
 71
0
 72
100
 73
1
 74
1
 75
0
 76
0
 77
0
 78
0
  0
ENDTAB
  0
TABLE
  2
LTYPE
  5
5
100
AcDbSymbolTable
 70
6
  0
LTYPE
  5
14
100
AcDbSymbolTableRecord
100
AcDbLinetypeTableRecord
  2
BYBLOCK
 70
0
  3

 72
65
 73
0
 40
0.0
  0
LTYPE
  5
15
100
AcDbSymbolTableRecord
100
AcDbLinetypeTableRecord
  2
BYLAYER
 70
0
  3

 72
65
 73
0
 40
0.0
  0
LTYPE
  5
16
100
AcDbSymbolTableRecord
100
AcDbLinetypeTableRecord
  2
CONTINUOUS
 70
64
  3
Solid line
 72
65
 73
0
 40
0.0
  0
LTYPE
  5
1F5
100
AcDbSymbolTableRecord
100
AcDbLinetypeTableRecord
  2
CENTER
 70
64
  3
____ _ ____ _ ____ _ ____ _ ____ _ ____ _ ____
 72
65
 73
4
 40
0.6
 49
0.375
 74
0
 49
-0.075
 74
0
 49
0.075
 74
0
 49
-0.075
 74
0
  0
LTYPE
  5
1F6
100
AcDbSymbolTableRecord
100
AcDbLinetypeTableRecord
  2
HIDDEN
 70
64
  3
- - - - - - - - - - - - - - - - - - - -
 72
65
 73
2
 40
0.2
 49
0.1
 74
0
 49
-0.1
 74
0
  0
LTYPE
  5
1F7
100
AcDbSymbolTableRecord
100
AcDbLinetypeTableRecord
  2
PHANTOM
 70
64
  3
_____ _ _ _____ _ _ _____ _ _ _____
 72
65
 73
6
 40
0.8
 49
0.45
 74
0
 49
-0.05
 74
0
 49
0.1
 74
0
 49
-0.05
 74
0
 49
0.1
 74
0
 49
-0.05
 74
0
  0
LTYPE
  5
1F8
100
AcDbSymbolTableRecord
100
AcDbLinetypeTableRecord
  2
DOT
 70
64
  3
. . . . . . . . . . . . . . . . . . . .
 72
65
 73
2
 40
0.2
 49
0.1
 74
0
 49
-0.1
 74
0
  0
LTYPE
  5
1F9
100
AcDbSymbolTableRecord
100
AcDbLinetypeTableRecord
  2
DASHED
 70
64
  3
- - - - - - - - - - - - - - - - - - - -
 72
65
 73
2
 40
0.2
 49
0.1
 74
0
 49
-0.1
 74
0
  0
ENDTAB
  0
TABLE
  2
LAYER
  5
2
100
AcDbSymbolTable
 70
36
  0
LAYER
  5
10
100
AcDbSymbolTableRecord
100
AcDbLayerTableRecord
  2
0
 70
0
 62
7
  6
CONTINUOUS
370
-3
390
F
  0
LAYER
  5
1FA
100
AcDbSymbolTableRecord
100
AcDbLayerTableRecord
  2
DEFAULT_1
 70
0
 62
7
  6
CENTER
370
-3
390
F
  0
LAYER
  5
1FB
100
AcDbSymbolTableRecord
100
AcDbLayerTableRecord
  2
DEFAULT_2
 70
0
 62
8
  6
HIDDEN
370
-3
390
F
  0
LAYER
  5
1FC
100
AcDbSymbolTableRecord
100
AcDbLayerTableRecord
  2
DEFAULT_3
 70
0
 62
7
  6
PHANTOM
370
-3
390
F
  0
LAYER
  5
1FD
100
AcDbSymbolTableRecord
100
AcDbLayerTableRecord
  2
DEFAULT_COORDINATE_SYSTEM
 70
0
 62
7
  6
CONTINUOUS
370
-3
390
F
  0
LAYER
  5
1FE
100
AcDbSymbolTableRecord
100
AcDbLayerTableRecord
  2
DEFAULT_DATUM_AXES
 70
0
 62
7
  6
CONTINUOUS
370
-3
390
F
  0
LAYER
  5
1FF
100
AcDbSymbolTableRecord
100
AcDbLayerTableRecord
  2
DEFAULT_DATUM_PLANES
 70
0
 62
7
  6
CONTINUOUS
370
-3
390
F
  0
ENDTAB
  0
TABLE
  2
STYLE
  5
3
100
AcDbSymbolTable
 70
1
  0
STYLE
  5
11
100
AcDbSymbolTableRecord
100
AcDbTextStyleTableRecord
  2
STANDARD
 70
0
 40
0.0
 41
0.8
 50
0.0
 71
0
 42
0.2
  3
txt
  4

  0
STYLE
  5
200
100
AcDbSymbolTableRecord
100
AcDbTextStyleTableRecord
  2
TEXTSTYLE_1
 70
0
 40
0.0
 41
0.8
 50
0.0
 71
0
 42
0.2
  3
gdt
  4

  0
ENDTAB
  0
TABLE
  2
VIEW
  5
6
100
AcDbSymbolTable
 70
0
  0
ENDTAB
  0
TABLE
  2
UCS
  5
7
100
AcDbSymbolTable
 70
0
  0
ENDTAB
  0
TABLE
  2
APPID
  5
9
100
AcDbSymbolTable
 70
1
  0
APPID
  5
201
100
AcDbSymbolTableRecord
100
AcDbRegAppTableRecord
  2
ACAD
 70
0
  0
ENDTAB
  0
TABLE
  2
BLOCK_RECORD
  5
1
100
AcDbSymbolTable
 70
0
  0
BLOCK_RECORD
  5
202
100
AcDbSymbolTableRecord
100
AcDbBlockTableRecord
  2
*Model_Space
  0
BLOCK_RECORD
  5
203
100
AcDbSymbolTableRecord
100
AcDbBlockTableRecord
  2
*Paper_Space
  0
BLOCK_RECORD
  5
204
100
AcDbSymbolTableRecord
100
AcDbBlockTableRecord
  2
_FILLED
  0
ENDTAB
  0
TABLE
  2
DIMSTYLE
  5
A
100
AcDbSymbolTable
 70
1
100
AcDbDimStyleTable
 71
0
  0
DIMSTYLE
105
205
100
AcDbSymbolTableRecord
100
AcDbDimStyleTableRecord
  2
STANDARD
 70
0
  3

  4

 40
1.0
 41
0.1
 42
0.0625
 43
0.38
 44
0.125
 45
0.0
 46
0.0
 47
0.001
 48
0.001
140
0.08
141
0.09
142
0.0
143
25.4
144
1.0
145
0.0
146
1.0
147
0.09
 71
1.0
 72
0.0
 73
1
 74
1
 75
0
 76
0
 77
0
 78
4
 79
1
170
1
171
2
172
0
173
0
174
0
175
0
176
0
177
0
178
0
270
2
179
3
271
3
272
3
273
2
274
2
275
0
280
0
281
0
282
0
283
1
284
4
285
0
286
0
287
3
288
0
340
11
278
46
341
204
342
204
343
204
344
204
  0
ENDTAB
  0
ENDSEC
  0
SECTION
  2
BLOCKS
  0
BLOCK
  5
20
100
AcDbEntity
  8
0
100
AcDbBlockBegin
  2
*Model_Space
 70
0
 10
0.0
 20
0.0
 30
0.0
  3
*Model_Space
  1

  0
ENDBLK
  5
21
100
AcDbEntity
  8
0
100
AcDbBlockEnd
  0
BLOCK
  5
1C
100
AcDbEntity
  8
0
100
AcDbBlockBegin
  2
*Paper_Space
 70
0
 10
0.0
 20
0.0
 30
0.0
  3
*Paper_Space
  1

  0
ENDBLK
  5
1D
100
AcDbEntity
  8
0
100
AcDbBlockEnd
  0
BLOCK
  5
206
100
AcDbEntity
  8
0
100
AcDbBlockBegin
  2
_FILLED
 70
64
 10
0.0
 20
0.0
  3
_FILLED
  1

  0
SOLID
  5
207
100
AcDbEntity
  8
0
  6
BYBLOCK
 62
0
100
AcDbTrace
 10
0.0
 20
0.0
 11
-1.0
 21
0.2
 12
-1.0
 22
-0.2
 13
-1.0
 23
-0.2
  0
ENDBLK
  5
208
100
AcDbEntity
  8
0
  6
BYBLOCK
 62
0
100
AcDbBlockEnd
  0
ENDSEC
  0
SECTION
  2
ENTITIES
  0
MTEXT
  5
209
100
AcDbEntity
  8
0
100
AcDbMText
 62
2
  6
CONTINUOUS
  7
STANDARD
 71
3
 72
1
 10
5.5866670204
 20
1.4263815789
 30
0.0
 11
1.0
 21
0.0
 31
0.0
 73
2
 44
0.9
  1
SCALE  .500
 40
0.08
 41
0.704
  0
LINE
  5
20A
100
AcDbEntity
  8
0
100
AcDbLine
 62
7
  6
CONTINUOUS
 10
0.0
 20
0.0
 11
0.0
 21
8.5
  0
LINE
  5
20B
100
AcDbEntity
  8
0
100
AcDbLine
 62
7
  6
CONTINUOUS
 10
0.0
 20
0.0
 11
11.0
 21
0.0
  0
LINE
  5
20C
100
AcDbEntity
  8
0
100
AcDbLine
 62
7
  6
CONTINUOUS
 10
0.0
 20
8.5
 11
11.0
 21
8.5
  0
LINE
  5
20D
100
AcDbEntity
  8
0
100
AcDbLine
 62
7
  6
CONTINUOUS
 10
11.0
 20
0.0
 11
11.0
 21
8.5
  0
LINE
  5
20E
100
AcDbEntity
  8
0
100
AcDbLine
 62
7
  6
CONTINUOUS
 10
2.0835420204
 20
5.6186315789
 11
2.0835420204
 21
5.3986315789
  0
LINE
  5
20F
100
AcDbEntity
  8
0
100
AcDbLine
 62
9
  6
CONTINUOUS
 10
2.0985420204
 20
5.3836315789
 11
2.0985420204
 21
5.6336315789
  0
LINE
  5
210
100
AcDbEntity
  8
0
100
AcDbLine
 62
7
  6
CONTINUOUS
 10
2.9929170204
 20
6.3026315789
 11
2.9929170204
 21
6.4901315789
  0
LINE
  5
211
100
AcDbEntity
  8
0
100
AcDbLine
 62
7
  6
CONTINUOUS
 10
3.2585420204
 20
5.7486315789
 11
3.2585420204
 21
6.3026315789
  0
LINE
  5
212
100
AcDbEntity
  8
0
100
AcDbLine
 62
7
  6
CONTINUOUS
 10
3.2586670204
 20
5.1936315789
 11
3.2586670204
 21
5.3836315789
  0
LINE
  5
213
100
AcDbEntity
  8
0
100
AcDbLine
 62
7
  6
CONTINUOUS
 10
3.2586670204
 20
5.6336315789
 11
3.2586670204
 21
5.7386315789
  0
LINE
  5
214
100
AcDbEntity
  8
0
100
AcDbLine
 62
7
  6
CONTINUOUS
 10
3.9146670204
 20
5.1936315789
 11
3.9146670204
 21
5.7386315789
  0
LINE
  5
215
100
AcDbEntity
  8
0
100
AcDbLine
 62
7
  6
CONTINUOUS
 10
3.9147920204
 20
5.7486315789
 11
3.9147920204
 21
6.3026315789
  0
LINE
  5
216
100
AcDbEntity
  8
0
100
AcDbLine
 62
7
  6
CONTINUOUS
 10
4.1804170204
 20
6.3026315789
 11
4.1804170204
 21
6.4901315789
  0
LINE
  5
217
100
AcDbEntity
  8
0
100
AcDbLine
 62
9
  6
CONTINUOUS
 10
5.3679170204
 20
2.7401315789
 11
5.8054170204
 21
2.7401315789
  0
LINE
  5
218
100
AcDbEntity
  8
0
100
AcDbLine
 62
7
  6
CONTINUOUS
 10
4.9929170204
 20
6.4901315789
 11
4.9929170204
 21
6.3176315789
  0
LINE
  5
219
100
AcDbEntity
  8
0
100
AcDbLine
 62
7
  6
CONTINUOUS
 10
5.2586670204
 20
6.3026315789
 11
5.2586670204
 21
5.2551315789
  0
LINE
  5
21A
100
AcDbEntity
  8
0
100
AcDbLine
 62
7
  6
CONTINUOUS
 10
5.3679170204
 20
1.7401315789
 11
5.3679170204
 21
5.2401315789
  0
LINE
  5
21B
100
AcDbEntity
  8
0
100
AcDbLine
 62
7
  6
CONTINUOUS
 10
5.8054170204
 20
1.7401315789
 11
5.8054170204
 21
5.2401315789
  0
LINE
  5
21C
100
AcDbEntity
  8
0
100
AcDbLine
 62
7
  6
CONTINUOUS
 10
5.9146670204
 20
6.3026315789
 11
5.9146670204
 21
5.2551315789
  0
LINE
  5
21D
100
AcDbEntity
  8
0
100
AcDbLine
 62
7
  6
CONTINUOUS
 10
6.1804170204
 20
6.4901315789
 11
6.1804170204
 21
6.3176315789
  0
LINE
  5
21E
100
AcDbEntity
  8
0
100
AcDbLine
 62
7
  6
CONTINUOUS
 10
7.8996668457
 20
5.1786315789
 11
7.273667195
 21
5.1786315789
  0
LINE
  5
21F
100
AcDbEntity
  8
0
100
AcDbLine
 62
7
  6
CONTINUOUS
 10
3.8996670204
 20
5.1786315789
 11
3.2736670204
 21
5.1786315789
  0
LINE
  5
220
100
AcDbEntity
  8
0
100
AcDbLine
 62
7
  6
CONTINUOUS
 10
6.9929170204
 20
6.3026315789
 11
6.9929170204
 21
6.4901315789
  0
LINE
  5
221
100
AcDbEntity
  8
0
100
AcDbLine
 62
9
  6
CONTINUOUS
 10
7.9146670204
 20
5.1936315789
 11
7.2586670204
 21
5.1936315789
  0
LINE
  5
222
100
AcDbEntity
  8
0
100
AcDbLine
 62
9
  6
CONTINUOUS
 10
3.9146670204
 20
5.1936315789
 11
3.2586670204
 21
5.1936315789
  0
LINE
  5
223
100
AcDbEntity
  8
0
100
AcDbLine
 62
7
  6
CONTINUOUS
 10
5.8996670204
 20
5.2401315789
 11
5.2736670204
 21
5.2401315789
  0
LINE
  5
224
100
AcDbEntity
  8
0
100
AcDbLine
 62
9
  6
CONTINUOUS
 10
5.9146670204
 20
5.2551315789
 11
5.2586670204
 21
5.2551315789
  0
LINE
  5
225
100
AcDbEntity
  8
0
100
AcDbLine
 62
7
  6
CONTINUOUS
 10
9.0747920204
 20
5.3836315789
 11
7.9146670204
 21
5.3836315789
  0
LINE
  5
226
100
AcDbEntity
  8
0
100
AcDbLine
 62
7
  6
CONTINUOUS
 10
2.0985420204
 20
5.3836315789
 11
3.2586670204
 21
5.3836315789
  0
LINE
  5
227
100
AcDbEntity
  8
0
100
AcDbLine
 62
7
  6
CONTINUOUS
 10
7.2585420204
 20
5.7486315789
 11
7.2585420204
 21
6.3026315789
  0
LINE
  5
228
100
AcDbEntity
  8
0
100
AcDbLine
 62
7
  6
CONTINUOUS
 10
7.2586670204
 20
5.1936315789
 11
7.2586670204
 21
5.7386315789
  0
LINE
  5
229
100
AcDbEntity
  8
0
100
AcDbLine
 62
7
  6
CONTINUOUS
 10
9.0747920204
 20
5.6336315789
 11
7.9146670204
 21
5.6336315789
  0
LINE
  5
22A
100
AcDbEntity
  8
0
100
AcDbLine
 62
7
  6
CONTINUOUS
 10
2.0985420204
 20
5.6336315789
 11
3.2586670204
 21
5.6336315789
  0
LINE
  5
22B
100
AcDbEntity
  8
0
100
AcDbLine
 62
7
  6
CONTINUOUS
 10
3.2586673688
 20
5.7386315789
 11
3.9146666719
 21
5.7386315789
  0
LINE
  5
22C
100
AcDbEntity
  8
0
100
AcDbLine
 62
7
  6
CONTINUOUS
 10
7.2586673316
 20
5.7386315789
 11
7.9146667092
 21
5.7386315789
  0
LINE
  5
22D
100
AcDbEntity
  8
0
100
AcDbLine
 62
7
  6
CONTINUOUS
 10
3.2585420204
 20
5.7486315789
 11
3.9147920204
 21
5.7486315789
  0
LINE
  5
22E
100
AcDbEntity
  8
0
100
AcDbLine
 62
7
  6
CONTINUOUS
 10
7.2585420204
 20
5.7486315789
 11
7.9147920204
 21
5.7486315789
  0
LINE
  5
22F
100
AcDbEntity
  8
0
100
AcDbLine
 62
7
  6
CONTINUOUS
 10
7.9146670204
 20
5.1936315789
 11
7.9146670204
 21
5.3836315789
  0
LINE
  5
230
100
AcDbEntity
  8
0
100
AcDbLine
 62
7
  6
CONTINUOUS
 10
7.9146670204
 20
5.6336315789
 11
7.9146670204
 21
5.7386315789
  0
LINE
  5
231
100
AcDbEntity
  8
0
100
AcDbLine
 62
7
  6
CONTINUOUS
 10
7.9147920204
 20
5.7486315789
 11
7.9147920204
 21
6.3026315789
  0
LINE
  5
232
100
AcDbEntity
  8
0
100
AcDbLine
 62
7
  6
CONTINUOUS
 10
6.1654170204
 20
6.3026315789
 11
5.0079170204
 21
6.3026315789
  0
LINE
  5
233
100
AcDbEntity
  8
0
100
AcDbLine
 62
7
  6
CONTINUOUS
 10
2.9929170204
 20
6.3026315789
 11
4.1804170204
 21
6.3026315789
  0
LINE
  5
234
100
AcDbEntity
  8
0
100
AcDbLine
 62
7
  6
CONTINUOUS
 10
6.9929170204
 20
6.3026315789
 11
8.1804170204
 21
6.3026315789
  0
LINE
  5
235
100
AcDbEntity
  8
0
100
AcDbLine
 62
9
  6
CONTINUOUS
 10
6.1804170204
 20
6.3176315789
 11
4.9929170204
 21
6.3176315789
  0
LINE
  5
236
100
AcDbEntity
  8
0
100
AcDbLine
 62
7
  6
CONTINUOUS
 10
8.1804170204
 20
6.3026315789
 11
8.1804170204
 21
6.4901315789
  0
LINE
  5
237
100
AcDbEntity
  8
0
100
AcDbLine
 62
7
  6
CONTINUOUS
 10
2.9929170204
 20
6.4901315789
 11
4.1804170204
 21
6.4901315789
  0
LINE
  5
238
100
AcDbEntity
  8
0
100
AcDbLine
 62
7
  6
CONTINUOUS
 10
4.9929170204
 20
6.4901315789
 11
6.1804170204
 21
6.4901315789
  0
LINE
  5
239
100
AcDbEntity
  8
0
100
AcDbLine
 62
7
  6
CONTINUOUS
 10
6.9929170204
 20
6.4901315789
 11
8.1804170204
 21
6.4901315789
  0
LINE
  5
23A
100
AcDbEntity
  8
0
100
AcDbLine
 62
9
  6
CONTINUOUS
 10
9.0747920204
 20
5.6336315789
 11
9.0747920204
 21
5.3836315789
  0
LINE
  5
23B
100
AcDbEntity
  8
0
100
AcDbLine
 62
7
  6
CONTINUOUS
 10
9.0897920204
 20
5.6186314121
 11
9.0897920204
 21
5.3986317458
  0
ARC
  5
23C
100
AcDbEntity
  8
0
100
AcDbCircle
 62
7
  6
CONTINUOUS
 10
5.5866670204
 20
1.7401315789
 40
0.21875
100
AcDbArc
 50
180.0
 51
360.0
  0
ARC
  5
23D
100
AcDbEntity
  8
0
100
AcDbCircle
 62
7
  6
CONTINUOUS
 10
7.2736670204
 20
5.1936315789
 40
0.015
100
AcDbArc
 50
180.0
 51
270.0
  0
ARC
  5
23E
100
AcDbEntity
  8
0
100
AcDbCircle
 62
7
  6
CONTINUOUS
 10
5.8996670204
 20
5.2551315789
 40
0.015
100
AcDbArc
 50
270.0
 51
360.0
  0
ARC
  5
23F
100
AcDbEntity
  8
0
100
AcDbCircle
 62
7
  6
CONTINUOUS
 10
5.2736670204
 20
5.2551315789
 40
0.015
100
AcDbArc
 50
180.0
 51
270.0
  0
ARC
  5
240
100
AcDbEntity
  8
0
100
AcDbCircle
 62
7
  6
CONTINUOUS
 10
7.8996670204
 20
5.1936315789
 40
0.015
100
AcDbArc
 50
270.0
 51
360.0
  0
ARC
  5
241
100
AcDbEntity
  8
0
100
AcDbCircle
 62
7
  6
CONTINUOUS
 10
9.0747920204
 20
5.6186315789
 40
0.015
100
AcDbArc
 50
0.0
 51
90.0
  0
ARC
  5
242
100
AcDbEntity
  8
0
100
AcDbCircle
 62
7
  6
CONTINUOUS
 10
6.1654170204
 20
6.3176315789
 40
0.015
100
AcDbArc
 50
270.0
 51
360.0
  0
ARC
  5
243
100
AcDbEntity
  8
0
100
AcDbCircle
 62
7
  6
CONTINUOUS
 10
5.0079170204
 20
6.3176315789
 40
0.015
100
AcDbArc
 50
180.0
 51
270.0
  0
ARC
  5
244
100
AcDbEntity
  8
0
100
AcDbCircle
 62
7
  6
CONTINUOUS
 10
9.0747920204
 20
5.3986315789
 40
0.015
100
AcDbArc
 50
270.0
 51
360.0
  0
ARC
  5
245
100
AcDbEntity
  8
0
100
AcDbCircle
 62
7
  6
CONTINUOUS
 10
3.8996670204
 20
5.1936315789
 40
0.015
100
AcDbArc
 50
270.0
 51
360.0
  0
ARC
  5
246
100
AcDbEntity
  8
0
100
AcDbCircle
 62
7
  6
CONTINUOUS
 10
3.2736670204
 20
5.1936315789
 40
0.015
100
AcDbArc
 50
180.0
 51
270.0
  0
ARC
  5
247
100
AcDbEntity
  8
0
100
AcDbCircle
 62
7
  6
CONTINUOUS
 10
2.0985420204
 20
5.6186315789
 40
0.015
100
AcDbArc
 50
90.0
 51
180.0
  0
ARC
  5
248
100
AcDbEntity
  8
0
100
AcDbCircle
 62
7
  6
CONTINUOUS
 10
2.0985420204
 20
5.3986315789
 40
0.015
100
AcDbArc
 50
180.0
 51
270.0
  0
SPLINE
  5
249
100
AcDbEntity
  8
0
100
AcDbSpline
 62
7
  6
CONTINUOUS
 70
0
 71
3
 72
47
 73
43
 74
0
 42
0.0000001
 43
0.0000001
 44
0.0000000001
 40
0.0
 40
0.0
 40
0.0
 40
0.0
 40
0.0000200249
 40
0.0000450561
 40
0.0000800998
 40
0.0001802246
 40
0.0003203993
 40
0.0005006239
 40
0.0007208985
 40
0.0009812228
 40
0.001281582
 40
0.002002256
 40
0.0028826122
 40
0.0039223402
 40
0.00512113
 40
0.0064786715
 40
0.0079946547
 40
0.0115003364
 40
0.0156337817
 40
0.020390199
 40
0.0257647213
 40
0.0317513805
 40
0.0383434142
 40
0.0455340499
 40
0.061681141
 40
0.080127279
 40
0.1008019939
 40
0.1236298344
 40
0.1485318382
 40
0.1754268301
 40
0.2042318165
 40
0.2348632748
 40
0.2672370601
 40
0.3012692045
 40
0.3739718455
 40
0.452301144
 40
0.53557863
 40
0.6231033229
 40
0.7141337537
 40
0.8078741703
 40
0.9034651262
 40
1.0
 40
1.0
 40
1.0
 40
1.0
 10
7.9146669965
 20
5.3836316028
 30
0.0
 10
7.9146675722
 20
5.3836309702
 30
0.0
 10
7.9146654988
 20
5.3836350278
 30
0.0
 10
7.9146649995
 20
5.3836370565
 30
0.0
 10
7.9146621544
 20
5.3836441181
 30
0.0
 10
7.9146582737
 20
5.3836546132
 30
0.0
 10
7.9146517339
 20
5.3836716392
 30
0.0
 10
7.9146435721
 20
5.3836931286
 30
0.0
 10
7.9146335058
 20
5.3837195412
 30
0.0
 10
7.9146216409
 20
5.3837507042
 30
0.0
 10
7.9146021598
 20
5.3838018589
 30
0.0
 10
7.9145732673
 20
5.3838777598
 30
0.0
 10
7.9145331624
 20
5.3839831907
 30
0.0
 10
7.9144858355
 20
5.3841077226
 30
0.0
 10
7.9144313157
 20
5.3842513268
 30
0.0
 10
7.9143696344
 20
5.3844139718
 30
0.0
 10
7.9142731076
 20
5.3846687888
 30
0.0
 10
7.9141348057
 20
5.3850345754
 30
0.0
 10
7.913948089
 20
5.3855300342
 30
0.0
 10
7.9137339401
 20
5.3861004623
 30
0.0
 10
7.9134928482
 20
5.3867453291
 30
0.0
 10
7.9132254252
 20
5.3874640594
 30
0.0
 10
7.9129323631
 20
5.3882560195
 30
0.0
 10
7.9124909897
 20
5.3894558583
 30
0.0
 10
7.9118802775
 20
5.3911329196
 30
0.0
 10
7.911083461
 20
5.3933551551
 30
0.0
 10
7.9102043826
 20
5.3958510123
 30
0.0
 10
7.9092512561
 20
5.3986130987
 30
0.0
 10
7.9082329025
 20
5.4016336722
 30
0.0
 10
7.9071585433
 20
5.4049046944
 30
0.0
 10
7.9060379621
 20
5.4084179989
 30
0.0
 10
7.9048811523
 20
5.4121652219
 30
0.0
 10
7.9036985411
 20
5.4161379544
 30
0.0
 10
7.9020651195
 20
5.4218511387
 30
0.0
 10
7.9000277295
 20
5.4294899593
 30
0.0
 10
7.8977036199
 20
5.4392261769
 30
0.0
 10
7.8955376944
 20
5.4496467756
 30
0.0
 10
7.8936166278
 20
5.4606668515
 30
0.0
 10
7.8920217696
 20
5.4721906263
 30
0.0
 10
7.8908247265
 20
5.484109274
 30
0.0
 10
7.8900820206
 20
5.4963004969
 30
0.0
 10
7.8899144441
 20
5.5045081067
 30
0.0
 10
7.8899144441
 20
5.5086315789
 30
0.0
  0
SPLINE
  5
24A
100
AcDbEntity
  8
0
100
AcDbSpline
 62
7
  6
CONTINUOUS
 70
0
 71
3
 72
46
 73
42
 74
0
 42
0.0000001
 43
0.0000001
 44
0.0000000001
 40
0.0
 40
0.0
 40
0.0
 40
0.0
 40
0.0965349678
 40
0.1921260163
 40
0.285866524
 40
0.376897044
 40
0.4644218232
 40
0.5476993903
 40
0.6260287649
 40
0.6987314784
 40
0.765136496
 40
0.7957679835
 40
0.8245729985
 40
0.8514680181
 40
0.8763700475
 40
0.8991979108
 40
0.9198726454
 40
0.938318801
 40
0.9544659075
 40
0.96165655
 40
0.9682485899
 40
0.9742352547
 40
0.9796097821
 40
0.9843662039
 40
0.9884996531
 40
0.9920053381
 40
0.9935213228
 40
0.9948788656
 40
0.9960776565
 40
0.9971173854
 40
0.9979977423
 40
0.9987184169
 40
0.9990187763
 40
0.9992791008
 40
0.9994993755
 40
0.9996796003
 40
0.9998197752
 40
0.9999199001
 40
0.9999549438
 40
0.999979975
 40
1.0
 40
1.0
 40
1.0
 40
1.0
 10
3.2834195966
 20
5.5086315789
 30
0.0
 10
3.2834195966
 20
5.5045081068
 30
0.0
 10
3.2832520201
 20
5.4963004969
 30
0.0
 10
3.2825093143
 20
5.4841092742
 30
0.0
 10
3.2813122711
 20
5.4721906264
 30
0.0
 10
3.279717413
 20
5.4606668523
 30
0.0
 10
3.2777963461
 20
5.4496467741
 30
0.0
 10
3.275630422
 20
5.439226183
 30
0.0
 10
3.2733063078
 20
5.4294899394
 30
0.0
 10
3.2709125374
 20
5.420514965
 30
0.0
 10
3.2688816742
 20
5.4135541868
 30
0.0
 10
3.2672960799
 20
5.408418001
 30
0.0
 10
3.2661754972
 20
5.4049046938
 30
0.0
 10
3.2651011382
 20
5.4016336721
 30
0.0
 10
3.2640827845
 20
5.3986130983
 30
0.0
 10
3.2631296581
 20
5.3958510119
 30
0.0
 10
3.2622505796
 20
5.3933551547
 30
0.0
 10
3.2614537632
 20
5.3911329193
 30
0.0
 10
3.260843051
 20
5.3894558581
 30
0.0
 10
3.2604016776
 20
5.3882560193
 30
0.0
 10
3.2601086155
 20
5.3874640592
 30
0.0
 10
3.2598411924
 20
5.386745329
 30
0.0
 10
3.2596001006
 20
5.3861004622
 30
0.0
 10
3.2593859517
 20
5.3855300341
 30
0.0
 10
3.259199235
 20
5.3850345753
 30
0.0
 10
3.2590609331
 20
5.3846687887
 30
0.0
 10
3.2589644063
 20
5.3844139718
 30
0.0
 10
3.258902725
 20
5.3842513267
 30
0.0
 10
3.2588482054
 20
5.3841077226
 30
0.0
 10
3.258800878
 20
5.3839831904
 30
0.0
 10
3.2587607742
 20
5.3838777606
 30
0.0
 10
3.2587318792
 20
5.3838018571
 30
0.0
 10
3.2587124021
 20
5.3837507067
 30
0.0
 10
3.258700528
 20
5.3837195336
 30
0.0
 10
3.2586904888
 20
5.3836931507
 30
0.0
 10
3.2586822519
 20
5.3836715788
 30
0.0
 10
3.2586759046
 20
5.3836547643
 30
0.0
 10
3.2586716249
 20
5.3836438309
 30
0.0
 10
3.258669316
 20
5.3836373584
 30
0.0
 10
3.2586678768
 20
5.3836342971
 30
0.0
 10
3.25866762
 20
5.3836322354
 30
0.0
 10
3.2586670442
 20
5.3836316028
 30
0.0
  0
SPLINE
  5
24B
100
AcDbEntity
  8
0
100
AcDbSpline
 62
7
  6
CONTINUOUS
 70
0
 71
3
 72
16
 73
12
 74
0
 42
0.0000001
 43
0.0000001
 44
0.0000000001
 40
0.0
 40
0.0
 40
0.0
 40
0.0
 40
0.0965395044
 40
0.1921350523
 40
0.2858799732
 40
0.3769147802
 40
0.5477028567
 40
0.6987289731
 40
0.8245693821
 40
0.9198705139
 40
1.0
 40
1.0
 40
1.0
 40
1.0
 10
7.8899144441
 20
5.5086315789
 30
0.0
 10
7.8899144441
 20
5.5127550507
 30
0.0
 10
7.8900820234
 20
5.5209626662
 30
0.0
 10
7.890824717
 20
5.5331538613
 30
0.0
 10
7.8920218032
 20
5.5450726053
 30
0.0
 10
7.894104093
 20
5.5601193601
 30
0.0
 10
7.8974192509
 20
5.5774528784
 30
0.0
 10
7.9021067458
 20
5.5959986334
 30
0.0
 10
7.9067115802
 20
5.6112179584
 30
0.0
 10
7.9108561113
 20
5.6234020909
 30
0.0
 10
7.9134481903
 20
5.6304333588
 30
0.0
 10
7.9146669965
 20
5.6336315551
 30
0.0
  0
SPLINE
  5
24C
100
AcDbEntity
  8
0
100
AcDbSpline
 62
7
  6
CONTINUOUS
 70
0
 71
3
 72
16
 73
12
 74
0
 42
0.0000001
 43
0.0000001
 44
0.0000000001
 40
0.0
 40
0.0
 40
0.0
 40
0.0
 40
0.0801294814
 40
0.1754306158
 40
0.301271025
 40
0.4522971413
 40
0.6230852174
 40
0.7141200247
 40
0.8078649463
 40
0.9034604952
 40
1.0
 40
1.0
 40
1.0
 40
1.0
 10
3.2586670442
 20
5.6336315551
 30
0.0
 10
3.2598858504
 20
5.6304333589
 30
0.0
 10
3.2624779294
 20
5.6234020912
 30
0.0
 10
3.2666224605
 20
5.6112179587
 30
0.0
 10
3.2712272949
 20
5.5959986336
 30
0.0
 10
3.2759147897
 20
5.5774528786
 30
0.0
 10
3.2792299477
 20
5.5601193604
 30
0.0
 10
3.2813122375
 20
5.5450726055
 30
0.0
 10
3.2825093238
 20
5.5331538615
 30
0.0
 10
3.2832520174
 20
5.5209626663
 30
0.0
 10
3.2834195966
 20
5.5127550508
 30
0.0
 10
3.2834195966
 20
5.5086315789
 30
0.0
  0
ENDSEC
  0
SECTION
  2
OBJECTS
  0
DICTIONARY
  5
C
100
AcDbDictionary
280
0
281
1
  3
ACAD_GROUP
350
D
  3
ACAD_MLINESTYLE
350
17
  3
ACAD_LAYOUT
350
1A
  3
ACAD_PLOTSETTINGS
350
19
  3
ACAD_PLOTSTYLENAME
350
E
  0
DICTIONARY
  5
D
102
{ACAD_REACTORS
330
C
102
}
100
AcDbDictionary
280
0
281
1
  0
ACDBDICTIONARYWDFLT
  5
E
102
{ACAD_REACTORS
330
C
102
}
100
AcDbDictionary
281
1
  3
Normal
350
F
100
AcDbDictionaryWithDefault
340
F
  0
DICTIONARY
  5
17
102
{ACAD_REACTORS
330
C
102
}
100
AcDbDictionary
280
0
281
1
  3
Standard
350
18
  0
DICTIONARY
  5
19
102
{ACAD_REACTORS
330
C
102
}
100
AcDbDictionary
281
1
  0
DICTIONARY
  5
1A
102
{ACAD_REACTORS
330
C
102
}
100
AcDbDictionary
281
1
  3
Model
350
24D
  3
Layout1
350
24E
  0
ACDBPLACEHOLDER
  5
F
102
{ACAD_REACTORS
330
E
102
}
  0
MLINESTYLE
  5
18
102
{ACAD_REACTORS
330
17
102
}
100
AcDbMlineStyle
  2
STANDARD
 70
0
  3

 62
256
 51
90.0
 52
90.0
 71
2
 49
0.5
 62
256
  6
BYLAYER
 49
-0.5
 62
256
  6
BYLAYER
  0
LAYOUT
  5
24D
102
{ACAD_REACTORS
330
1A
102
}
100
AcDbPlotSettings
  1

  2
none_device
  4
ANSI_A_(11.00_x_8.50_Inches)
  6

 40
0.0
 41
0.0
 42
0.0
 43
0.0
 44
279.4
 45
215.9
 46
0.0
 47
0.0
 48
0.0
 49
0.0
140
0.0
141
0.0
142
1.0
143
1.0
 70
1024
 72
0
 73
0
 74
0
  7

 75
0
147
1.0
148
0.0
149
0.0
100
AcDbLayout
  1
Model
 70
0
 71
0
 10
0.0
 20
0.0
 11
11.0
 21
8.5
 12
0.0
 22
0.0
 32
0.0
 14
0.0
 24
0.0
 34
0.0
 15
0.0
 25
0.0
 35
0.0
146
0.0
 13
0.0
 23
0.0
 33
0.0
 16
1.0
 26
0.0
 36
0.0
 17
0.0
 27
1.0
 37
0.0
 76
0
330
202
345
0
346
0
  0
LAYOUT
  5
24E
102
{ACAD_REACTORS
330
1A
102
}
100
AcDbPlotSettings
  1

  2
none_device
  4
ANSI_A_(11.00_x_8.50_Inches)
  6

 40
0.0
 41
0.0
 42
0.0
 43
0.0
 44
279.4
 45
215.9
 46
0.0
 47
0.0
 48
0.0
 49
0.0
140
0.0
141
0.0
142
1.0
143
1.0
 70
0
 72
0
 73
0
 74
0
  7

 75
0
147
1.0
148
0.0
149
0.0
100
AcDbLayout
  1
Layout1
 70
0
 71
1
 10
0.0
 20
0.0
 11
11.0
 21
8.5
 12
0.0
 22
0.0
 32
0.0
 14
0.0
 24
0.0
 34
0.0
 15
0.0
 25
0.0
 35
0.0
146
0.0
 13
0.0
 23
0.0
 33
0.0
 16
1.0
 26
0.0
 36
0.0
 17
0.0
 27
1.0
 37
0.0
 76
0
330
203
345
0
346
0
  0
ENDSEC
  0
EOF
