999
DXF file: E:\BT Custom\CADOUTPUT\_TOP.dxf
999
Pro/ENGINEER 2018400 by Parametric Technology Corporation
  0
SECTION
  2
HEADER
  9
$ACADVER
  1
AC1018
  9
$DWGCODEPAGE
  3
ANSI_1252
  9
$EXTMAX
 10
22.0
 20
17.0
 30
0.0
  9
$EXTMIN
 10
0.0
 20
0.0
 30
0.0
  9
$LIMMIN
 10
0.0
 20
0.0
  9
$LIMMAX
 10
22.0
 20
17.0
  9
$VIEWCTR
 10
11.0
 20
8.5
  9
$VIEWSIZE
 40
17.0
  9
$CLAYER
  8
0
  9
$LTSCALE
 40
1.21
  9
$CELTYPE
  6
BYLAYER
  9
$DIMSCALE
 40
1.0
  9
$DIMASZ
 40
0.1
  9
$DIMEXO
 40
0.0625
  9
$DIMDLI
 40
0.836
  9
$DIMEXE
 40
0.125
  9
$DIMCEN
 40
0.198
  9
$DIMLFAC
 40
1.0
  9
$DIMBLK
  1
_FILLED
  9
$DIMALT
 70
1
  9
$DIMALTD
 70
2
  9
$DIMALTTD
 70
2
  9
$DIMALTF
 40
25.4
  9
$DIMTXT
 40
0.08
  9
$DIMTOL
 70
1
  9
$DIMLIM
 70
0
  9
$DIMTFAC
 40
1.0
  9
$DIMTP
 40
0.001
  9
$DIMTM
 40
0.001
  9
$DIMGAP
 40
0.09
  9
$DIMDSEP
 70
46
  9
$AUNITS
 70
0
  9
$PDMODE
 70
3
  9
$PDSIZE
 40
0.06
  9
$HANDSEED
  5
2CB
  9
$TILEMODE
 70
1
  9
$MEASUREMENT
 70
0
  9
$INSUNITS
 70
1
  0
ENDSEC
  0
SECTION
  2
CLASSES
  0
CLASS
  1
ACDBDICTIONARYWDFLT
  2
AcDbDictionaryWithDefault
  3
AutoCAD 2000
 90
0
 91
1
280
0
281
0
  0
CLASS
  1
ACDBPLACEHOLDER
  2
AcDbPlaceHolder
  3
AutoCAD 2000
 90
0
 91
1
280
0
281
0
  0
CLASS
  1
LAYOUT
  2
AcDbLayout
  3
AutoCAD 2000
 90
0
 91
0
280
0
281
0
  0
ENDSEC
  0
SECTION
  2
TABLES
  0
TABLE
  2
VPORT
  5
8
100
AcDbSymbolTable
 70
2
  0
VPORT
  5
1F4
100
AcDbSymbolTableRecord
100
AcDbViewportTableRecord
  2
*ACTIVE
 70
0
 10
0.0
 20
0.0
 11
1.0
 21
1.0
 12
11.0
 22
8.5
 13
0.0
 23
0.0
 14
1.0
 24
1.0
 15
0.0
 25
0.0
 16
0.0
 26
0.0
 36
1.0
 17
0.0
 27
0.0
 37
0.0
 40
17.0
 41
1.2941176471
 42
50.0
 43
0.0
 44
0.0
 50
0.0
 51
0.0
 71
0
 72
100
 73
1
 74
1
 75
0
 76
0
 77
0
 78
0
  0
ENDTAB
  0
TABLE
  2
LTYPE
  5
5
100
AcDbSymbolTable
 70
6
  0
LTYPE
  5
14
100
AcDbSymbolTableRecord
100
AcDbLinetypeTableRecord
  2
BYBLOCK
 70
0
  3

 72
65
 73
0
 40
0.0
  0
LTYPE
  5
15
100
AcDbSymbolTableRecord
100
AcDbLinetypeTableRecord
  2
BYLAYER
 70
0
  3

 72
65
 73
0
 40
0.0
  0
LTYPE
  5
16
100
AcDbSymbolTableRecord
100
AcDbLinetypeTableRecord
  2
CONTINUOUS
 70
64
  3
Solid line
 72
65
 73
0
 40
0.0
  0
LTYPE
  5
1F5
100
AcDbSymbolTableRecord
100
AcDbLinetypeTableRecord
  2
CENTER
 70
64
  3
____ _ ____ _ ____ _ ____ _ ____ _ ____ _ ____
 72
65
 73
4
 40
0.6
 49
0.375
 74
0
 49
-0.075
 74
0
 49
0.075
 74
0
 49
-0.075
 74
0
  0
LTYPE
  5
1F6
100
AcDbSymbolTableRecord
100
AcDbLinetypeTableRecord
  2
HIDDEN
 70
64
  3
- - - - - - - - - - - - - - - - - - - -
 72
65
 73
2
 40
0.2
 49
0.1
 74
0
 49
-0.1
 74
0
  0
LTYPE
  5
1F7
100
AcDbSymbolTableRecord
100
AcDbLinetypeTableRecord
  2
PHANTOM
 70
64
  3
_____ _ _ _____ _ _ _____ _ _ _____
 72
65
 73
6
 40
0.8
 49
0.45
 74
0
 49
-0.05
 74
0
 49
0.1
 74
0
 49
-0.05
 74
0
 49
0.1
 74
0
 49
-0.05
 74
0
  0
LTYPE
  5
1F8
100
AcDbSymbolTableRecord
100
AcDbLinetypeTableRecord
  2
DOT
 70
64
  3
. . . . . . . . . . . . . . . . . . . .
 72
65
 73
2
 40
0.2
 49
0.1
 74
0
 49
-0.1
 74
0
  0
LTYPE
  5
1F9
100
AcDbSymbolTableRecord
100
AcDbLinetypeTableRecord
  2
DASHED
 70
64
  3
- - - - - - - - - - - - - - - - - - - -
 72
65
 73
2
 40
0.2
 49
0.1
 74
0
 49
-0.1
 74
0
  0
ENDTAB
  0
TABLE
  2
LAYER
  5
2
100
AcDbSymbolTable
 70
36
  0
LAYER
  5
10
100
AcDbSymbolTableRecord
100
AcDbLayerTableRecord
  2
0
 70
0
 62
7
  6
CONTINUOUS
370
-3
390
F
  0
LAYER
  5
1FA
100
AcDbSymbolTableRecord
100
AcDbLayerTableRecord
  2
DEFAULT_1
 70
0
 62
7
  6
CENTER
370
-3
390
F
  0
LAYER
  5
1FB
100
AcDbSymbolTableRecord
100
AcDbLayerTableRecord
  2
DEFAULT_2
 70
0
 62
8
  6
HIDDEN
370
-3
390
F
  0
LAYER
  5
1FC
100
AcDbSymbolTableRecord
100
AcDbLayerTableRecord
  2
DEFAULT_3
 70
0
 62
7
  6
PHANTOM
370
-3
390
F
  0
LAYER
  5
1FD
100
AcDbSymbolTableRecord
100
AcDbLayerTableRecord
  2
ALL_FEATURES
 70
0
 62
7
  6
CONTINUOUS
370
-3
390
F
  0
LAYER
  5
1FE
100
AcDbSymbolTableRecord
100
AcDbLayerTableRecord
  2
AXES_FEATURES
 70
0
 62
7
  6
CONTINUOUS
370
-3
390
F
  0
LAYER
  5
1FF
100
AcDbSymbolTableRecord
100
AcDbLayerTableRecord
  2
DEFAULT_COORDINATE_SYSTEM
 70
0
 62
7
  6
CONTINUOUS
370
-3
390
F
  0
LAYER
  5
200
100
AcDbSymbolTableRecord
100
AcDbLayerTableRecord
  2
DEFAULT_DATUM_AXES
 70
0
 62
7
  6
CONTINUOUS
370
-3
390
F
  0
LAYER
  5
201
100
AcDbSymbolTableRecord
100
AcDbLayerTableRecord
  2
DEFAULT_DATUM_PLANES
 70
0
 62
7
  6
CONTINUOUS
370
-3
390
F
  0
LAYER
  5
202
100
AcDbSymbolTableRecord
100
AcDbLayerTableRecord
  2
DIMENSIONS
 70
0
 62
7
  6
CONTINUOUS
370
-3
390
F
  0
ENDTAB
  0
TABLE
  2
STYLE
  5
3
100
AcDbSymbolTable
 70
1
  0
STYLE
  5
11
100
AcDbSymbolTableRecord
100
AcDbTextStyleTableRecord
  2
STANDARD
 70
0
 40
0.0
 41
0.8
 50
0.0
 71
0
 42
0.2
  3
txt
  4

  0
STYLE
  5
203
100
AcDbSymbolTableRecord
100
AcDbTextStyleTableRecord
  2
TEXTSTYLE_1
 70
0
 40
0.0
 41
0.8
 50
0.0
 71
0
 42
0.2
  3
gdt
  4

  0
ENDTAB
  0
TABLE
  2
VIEW
  5
6
100
AcDbSymbolTable
 70
0
  0
ENDTAB
  0
TABLE
  2
UCS
  5
7
100
AcDbSymbolTable
 70
0
  0
ENDTAB
  0
TABLE
  2
APPID
  5
9
100
AcDbSymbolTable
 70
1
  0
APPID
  5
204
100
AcDbSymbolTableRecord
100
AcDbRegAppTableRecord
  2
ACAD
 70
0
  0
ENDTAB
  0
TABLE
  2
BLOCK_RECORD
  5
1
100
AcDbSymbolTable
 70
0
  0
BLOCK_RECORD
  5
205
100
AcDbSymbolTableRecord
100
AcDbBlockTableRecord
  2
*Model_Space
  0
BLOCK_RECORD
  5
206
100
AcDbSymbolTableRecord
100
AcDbBlockTableRecord
  2
*Paper_Space
  0
BLOCK_RECORD
  5
207
100
AcDbSymbolTableRecord
100
AcDbBlockTableRecord
  2
_FILLED
  0
ENDTAB
  0
TABLE
  2
DIMSTYLE
  5
A
100
AcDbSymbolTable
 70
1
100
AcDbDimStyleTable
 71
0
  0
DIMSTYLE
105
208
100
AcDbSymbolTableRecord
100
AcDbDimStyleTableRecord
  2
STANDARD
 70
0
  3

  4

 40
1.0
 41
0.1
 42
0.0625
 43
0.38
 44
0.125
 45
0.0
 46
0.0
 47
0.001
 48
0.001
140
0.08
141
0.09
142
0.0
143
25.4
144
1.0
145
0.0
146
1.0
147
0.09
 71
1.0
 72
0.0
 73
1
 74
1
 75
0
 76
0
 77
0
 78
4
 79
1
170
1
171
2
172
0
173
0
174
0
175
0
176
0
177
0
178
0
270
2
179
3
271
3
272
3
273
2
274
2
275
0
280
0
281
0
282
0
283
1
284
4
285
0
286
0
287
3
288
0
340
11
278
46
341
207
342
207
343
207
344
207
  0
ENDTAB
  0
ENDSEC
  0
SECTION
  2
BLOCKS
  0
BLOCK
  5
20
100
AcDbEntity
  8
0
100
AcDbBlockBegin
  2
*Model_Space
 70
0
 10
0.0
 20
0.0
 30
0.0
  3
*Model_Space
  1

  0
ENDBLK
  5
21
100
AcDbEntity
  8
0
100
AcDbBlockEnd
  0
BLOCK
  5
1C
100
AcDbEntity
  8
0
100
AcDbBlockBegin
  2
*Paper_Space
 70
0
 10
0.0
 20
0.0
 30
0.0
  3
*Paper_Space
  1

  0
ENDBLK
  5
1D
100
AcDbEntity
  8
0
100
AcDbBlockEnd
  0
BLOCK
  5
209
100
AcDbEntity
  8
0
100
AcDbBlockBegin
  2
_FILLED
 70
64
 10
0.0
 20
0.0
  3
_FILLED
  1

  0
SOLID
  5
20A
100
AcDbEntity
  8
0
  6
BYBLOCK
 62
0
100
AcDbTrace
 10
0.0
 20
0.0
 11
-1.0
 21
0.2
 12
-1.0
 22
-0.2
 13
-1.0
 23
-0.2
  0
ENDBLK
  5
20B
100
AcDbEntity
  8
0
  6
BYBLOCK
 62
0
100
AcDbBlockEnd
  0
ENDSEC
  0
SECTION
  2
ENTITIES
  0
LINE
  5
20C
100
AcDbEntity
  8
0
100
AcDbLine
 62
7
  6
CONTINUOUS
 10
7.7973183383
 20
11.4303077147
 11
7.7973183383
 21
11.5697709751
  0
LINE
  5
20D
100
AcDbEntity
  8
0
100
AcDbLine
 62
7
  6
CONTINUOUS
 10
9.0473183383
 20
5.4293944618
 11
9.0473183383
 21
4.8325377656
  0
LINE
  5
20E
100
AcDbEntity
  8
0
100
AcDbLine
 62
7
  6
CONTINUOUS
 10
9.8573183383
 20
11.5697709751
 11
9.8573183383
 21
11.3375977279
  0
LINE
  5
20F
100
AcDbEntity
  8
0
100
AcDbLine
 62
7
  6
CONTINUOUS
 10
9.8598183383
 20
11.2567709751
 11
9.8598183383
 21
10.8817709751
  0
LINE
  5
210
100
AcDbEntity
  8
0
100
AcDbLine
 62
7
  6
CONTINUOUS
 10
10.3598183383
 20
9.0697709751
 11
10.3598183383
 21
10.8817709751
  0
LINE
  5
211
100
AcDbEntity
  8
0
100
AcDbLine
 62
7
  6
CONTINUOUS
 10
10.3910683383
 20
10.8817709751
 11
10.3910683383
 21
9.7737709751
  0
LINE
  5
212
100
AcDbEntity
  8
0
100
AcDbLine
 62
7
  6
CONTINUOUS
 10
10.3913183383
 20
9.7537709751
 11
10.3913183383
 21
8.6637709751
  0
LINE
  5
213
100
AcDbEntity
  8
0
100
AcDbLine
 62
7
  6
CONTINUOUS
 10
11.0469489936
 20
6.4967722694
 11
11.0477479813
 21
6.4967723123
  0
LINE
  5
214
100
AcDbEntity
  8
0
100
AcDbLine
 62
7
  6
CONTINUOUS
 10
10.4723183383
 20
6.5833927287
 11
10.4723183383
 21
5.9187123544
  0
LINE
  5
215
100
AcDbEntity
  8
0
100
AcDbLine
 62
7
  6
CONTINUOUS
 10
10.5948183383
 20
7.099580679
 11
10.5948183383
 21
6.8718018917
  0
LINE
  5
216
100
AcDbEntity
  8
0
100
AcDbLine
 62
7
  6
CONTINUOUS
 10
10.6098183383
 20
7.1806021255
 11
10.6098183383
 21
8.6337709751
  0
LINE
  5
217
100
AcDbEntity
  8
0
100
AcDbLine
 62
7
  6
CONTINUOUS
 10
10.6410683383
 20
11.1529138728
 11
10.6410683383
 21
7.3050312398
  0
LINE
  5
218
100
AcDbEntity
  8
0
100
AcDbLine
 62
7
  6
CONTINUOUS
 10
10.6410683383
 20
7.2229198375
 11
10.6410683383
 21
7.2055226075
  0
LINE
  5
219
100
AcDbEntity
  8
0
100
AcDbLine
 62
7
  6
CONTINUOUS
 10
10.6410683383
 20
7.1716912649
 11
10.6410683383
 21
7.1558051891
  0
LINE
  5
21A
100
AcDbEntity
  8
0
100
AcDbLine
 62
7
  6
CONTINUOUS
 10
10.6410683383
 20
7.1203914145
 11
10.6410683383
 21
7.1060759891
  0
LINE
  5
21B
100
AcDbEntity
  8
0
100
AcDbLine
 62
7
  6
CONTINUOUS
 10
10.6410685839
 20
7.2745153568
 11
10.6410683383
 21
7.2553113224
  0
LINE
  5
21C
100
AcDbEntity
  8
0
100
AcDbLine
 62
7
  6
CONTINUOUS
 10
11.4851684118
 20
9.7537709751
 11
11.4898007647
 21
9.7737709751
  0
LINE
  5
21D
100
AcDbEntity
  8
0
100
AcDbLine
 62
9
  6
CONTINUOUS
 10
10.6410685839
 20
7.2745153568
 11
10.6434801132
 21
7.2754979852
  0
LINE
  5
21E
100
AcDbEntity
  8
0
100
AcDbLine
 62
7
  6
CONTINUOUS
 10
11.1568904109
 20
6.70074893
 11
11.1568904109
 21
6.5613584903
  0
LINE
  5
21F
100
AcDbEntity
  8
0
100
AcDbLine
 62
7
  6
CONTINUOUS
 10
11.1770814628
 20
6.187295183
 11
11.1770814628
 21
5.9398078096
  0
LINE
  5
220
100
AcDbEntity
  8
0
100
AcDbLine
 62
7
  6
CONTINUOUS
 10
11.3727462656
 20
6.7888717137
 11
11.3727462656
 21
6.649481274
  0
LINE
  5
221
100
AcDbEntity
  8
0
100
AcDbLine
 62
7
  6
CONTINUOUS
 10
10.6094682648
 20
9.7537709751
 11
10.6048359119
 21
9.7737709751
  0
LINE
  5
222
100
AcDbEntity
  8
0
100
AcDbLine
 62
7
  6
CONTINUOUS
 10
11.4535683383
 20
7.248564301
 11
11.4535683383
 21
7.2304236074
  0
LINE
  5
223
100
AcDbEntity
  8
0
100
AcDbLine
 62
7
  6
CONTINUOUS
 10
11.4535683383
 20
7.1972989
 11
11.4535683383
 21
7.1807444905
  0
LINE
  5
224
100
AcDbEntity
  8
0
100
AcDbLine
 62
7
  6
CONTINUOUS
 10
11.4535683383
 20
7.1459607326
 11
11.4535683383
 21
7.1309424461
  0
LINE
  5
225
100
AcDbEntity
  8
0
100
AcDbLine
 62
7
  6
CONTINUOUS
 10
11.4675552138
 20
6.3058805952
 11
11.4675552138
 21
6.0583932218
  0
LINE
  5
226
100
AcDbEntity
  8
0
100
AcDbLine
 62
7
  6
CONTINUOUS
 10
11.4848183383
 20
7.18060214
 11
11.4848183383
 21
8.6337709751
  0
LINE
  5
227
100
AcDbEntity
  8
0
100
AcDbLine
 62
7
  6
CONTINUOUS
 10
11.4998183383
 20
7.099580679
 11
11.4998183383
 21
6.8718018917
  0
LINE
  5
228
100
AcDbEntity
  8
0
100
AcDbLine
 62
7
  6
CONTINUOUS
 10
11.6223183383
 20
6.5833927287
 11
11.6223183383
 21
5.9187123544
  0
LINE
  5
229
100
AcDbEntity
  8
0
100
AcDbLine
 62
7
  6
CONTINUOUS
 10
11.7033183383
 20
9.7537709751
 11
11.7033183383
 21
8.6637709751
  0
LINE
  5
22A
100
AcDbEntity
  8
0
100
AcDbLine
 62
7
  6
CONTINUOUS
 10
11.7035683383
 20
10.8817709751
 11
11.7035683383
 21
9.7737709751
  0
LINE
  5
22B
100
AcDbEntity
  8
0
100
AcDbLine
 62
7
  6
CONTINUOUS
 10
11.7348183383
 20
9.0697709751
 11
11.7348183383
 21
10.8817709751
  0
LINE
  5
22C
100
AcDbEntity
  8
0
100
AcDbLine
 62
7
  6
CONTINUOUS
 10
11.4535683383
 20
11.1529138728
 11
11.4535680927
 21
7.304715385
  0
LINE
  5
22D
100
AcDbEntity
  8
0
100
AcDbLine
 62
7
  6
CONTINUOUS
 10
12.2348183383
 20
11.2567709751
 11
12.2348183383
 21
10.8817709751
  0
LINE
  5
22E
100
AcDbEntity
  8
0
100
AcDbLine
 62
7
  6
CONTINUOUS
 10
12.2373183383
 20
11.5697709751
 11
12.2373183383
 21
11.3375977279
  0
LINE
  5
22F
100
AcDbEntity
  8
0
100
AcDbLine
 62
7
  6
CONTINUOUS
 10
11.4675552138
 20
6.3058805952
 11
11.1770814628
 21
6.187295183
  0
LINE
  5
230
100
AcDbEntity
  8
0
100
AcDbLine
 62
7
  6
CONTINUOUS
 10
11.6733183383
 20
8.6337709751
 11
11.4535683383
 21
8.6337709751
  0
LINE
  5
231
100
AcDbEntity
  8
0
100
AcDbLine
 62
7
  6
CONTINUOUS
 10
10.6410683383
 20
8.6337709751
 11
10.4213183383
 21
8.6337709751
  0
LINE
  5
232
100
AcDbEntity
  8
0
100
AcDbLine
 62
9
  6
CONTINUOUS
 10
11.7033183383
 20
8.6637709751
 11
11.4535683383
 21
8.6637709751
  0
LINE
  5
233
100
AcDbEntity
  8
0
100
AcDbLine
 62
9
  6
CONTINUOUS
 10
10.6410683383
 20
8.6637709751
 11
10.3913183383
 21
8.6637709751
  0
LINE
  5
234
100
AcDbEntity
  8
0
100
AcDbLine
 62
7
  6
CONTINUOUS
 10
11.4675552138
 20
6.0583932218
 11
11.1770814628
 21
5.9398078096
  0
LINE
  5
235
100
AcDbEntity
  8
0
100
AcDbLine
 62
7
  6
CONTINUOUS
 10
10.3913183383
 20
9.0697709751
 11
10.3598183383
 21
9.0697709751
  0
LINE
  5
236
100
AcDbEntity
  8
0
100
AcDbLine
 62
7
  6
CONTINUOUS
 10
11.7033183383
 20
9.0697709751
 11
11.7348183383
 21
9.0697709751
  0
LINE
  5
237
100
AcDbEntity
  8
0
100
AcDbLine
 62
7
  6
CONTINUOUS
 10
13.0473183383
 20
5.4293944618
 11
13.0473183383
 21
4.8325377656
  0
LINE
  5
238
100
AcDbEntity
  8
0
100
AcDbLine
 62
9
  6
CONTINUOUS
 10
11.4535683383
 20
9.3197709751
 11
10.6410683383
 21
9.3197709751
  0
LINE
  5
239
100
AcDbEntity
  8
0
100
AcDbLine
 62
7
  6
CONTINUOUS
 10
11.7033183383
 20
9.7537709751
 11
11.4535683383
 21
9.7537709751
  0
LINE
  5
23A
100
AcDbEntity
  8
0
100
AcDbLine
 62
7
  6
CONTINUOUS
 10
10.6410683383
 20
9.7537709751
 11
10.3913183383
 21
9.7537709751
  0
LINE
  5
23B
100
AcDbEntity
  8
0
100
AcDbLine
 62
7
  6
CONTINUOUS
 10
10.3910683383
 20
9.7737709751
 11
10.6410683383
 21
9.7737709751
  0
LINE
  5
23C
100
AcDbEntity
  8
0
100
AcDbLine
 62
7
  6
CONTINUOUS
 10
11.4535683383
 20
9.7737709751
 11
11.7035683383
 21
9.7737709751
  0
LINE
  5
23D
100
AcDbEntity
  8
0
100
AcDbLine
 62
7
  6
CONTINUOUS
 10
14.2973183383
 20
11.4303077147
 11
14.2973183383
 21
11.5697709751
  0
LINE
  5
23E
100
AcDbEntity
  8
0
100
AcDbLine
 62
7
  6
CONTINUOUS
 10
9.8598183383
 20
10.8817709751
 11
10.6410683383
 21
10.8817709751
  0
LINE
  5
23F
100
AcDbEntity
  8
0
100
AcDbLine
 62
7
  6
CONTINUOUS
 10
11.4535683383
 20
10.8817709751
 11
12.2348183383
 21
10.8817709751
  0
LINE
  5
240
100
AcDbEntity
  8
0
100
AcDbLine
 62
7
  6
CONTINUOUS
 10
11.4945333056
 20
11.1529138728
 11
11.4978849088
 21
11.1531016814
  0
LINE
  5
241
100
AcDbEntity
  8
0
100
AcDbLine
 62
7
  6
CONTINUOUS
 10
10.600103371
 20
11.1529138728
 11
11.4945333056
 21
11.1529138728
  0
LINE
  5
242
100
AcDbEntity
  8
0
100
AcDbLine
 62
9
  6
CONTINUOUS
 10
11.4978849088
 20
11.1531016814
 11
10.5967517678
 21
11.1531016814
  0
LINE
  5
243
100
AcDbEntity
  8
0
100
AcDbLine
 62
7
  6
CONTINUOUS
 10
14.130161828
 20
11.2567709751
 11
12.0755935853
 21
11.2567709751
  0
LINE
  5
244
100
AcDbEntity
  8
0
100
AcDbLine
 62
7
  6
CONTINUOUS
 10
10.0190430912
 20
11.2567709751
 11
7.9644748485
 21
11.2567709751
  0
LINE
  5
245
100
AcDbEntity
  8
0
100
AcDbLine
 62
9
  6
CONTINUOUS
 10
12.2007135508
 20
11.2894254508
 11
9.8939231258
 21
11.2894254508
  0
LINE
  5
246
100
AcDbEntity
  8
0
100
AcDbLine
 62
9
  6
CONTINUOUS
 10
14.1895364896
 20
11.2987079848
 11
12.2186073731
 21
11.2987079848
  0
LINE
  5
247
100
AcDbEntity
  8
0
100
AcDbLine
 62
9
  6
CONTINUOUS
 10
9.8760293035
 20
11.2987079848
 11
7.9051001869
 21
11.2987079848
  0
LINE
  5
248
100
AcDbEntity
  8
0
100
AcDbLine
 62
9
  6
CONTINUOUS
 10
12.2373183383
 20
11.3375977279
 11
9.8573183383
 21
11.3375977279
  0
LINE
  5
249
100
AcDbEntity
  8
0
100
AcDbLine
 62
7
  6
CONTINUOUS
 10
10.600103371
 20
11.1529138728
 11
10.5967517678
 21
11.1531016814
  0
LINE
  5
24A
100
AcDbEntity
  8
0
100
AcDbLine
 62
9
  6
CONTINUOUS
 10
14.2588700226
 20
11.3722886248
 11
12.2373183383
 21
11.3722886248
  0
LINE
  5
24B
100
AcDbEntity
  8
0
100
AcDbLine
 62
9
  6
CONTINUOUS
 10
9.8573183383
 20
11.3722886248
 11
7.8357666539
 21
11.3722886248
  0
LINE
  5
24C
100
AcDbEntity
  8
0
100
AcDbLine
 62
9
  6
CONTINUOUS
 10
14.2973183383
 20
11.4303077147
 11
12.2373183383
 21
11.4303077147
  0
LINE
  5
24D
100
AcDbEntity
  8
0
100
AcDbLine
 62
9
  6
CONTINUOUS
 10
9.8573183383
 20
11.4303077147
 11
7.7973183383
 21
11.4303077147
  0
LINE
  5
24E
100
AcDbEntity
  8
0
100
AcDbLine
 62
7
  6
CONTINUOUS
 10
7.7973183383
 20
11.5697709751
 11
14.2973183383
 21
11.5697709751
  0
ARC
  5
24F
100
AcDbEntity
  8
0
100
AcDbCircle
 62
9
  6
CONTINUOUS
 10
10.9950146851
 20
6.558646743
 40
2.4250045933
100
AcDbArc
 50
251.3291701159
 51
257.239526292
  0
ARC
  5
250
100
AcDbEntity
  8
0
100
AcDbCircle
 62
9
  6
CONTINUOUS
 10
10.9755726647
 20
4.9452185981
 40
1.3579515912
100
AcDbArc
 50
111.7581194485
 51
112.2075116006
  0
ARC
  5
251
100
AcDbEntity
  8
0
100
AcDbCircle
 62
7
  6
CONTINUOUS
 10
11.0473039427
 20
6.4165066425
 40
0.4890168941
100
AcDbArc
 50
28.6907748895
 51
34.8983233847
  0
ARC
  5
252
100
AcDbEntity
  8
0
100
AcDbCircle
 62
7
  6
CONTINUOUS
 10
10.818046186
 20
6.5337646221
 40
0.2332324942
100
AcDbArc
 50
171.3699827051
 51
175.8091684035
  0
ARC
  5
253
100
AcDbEntity
  8
0
100
AcDbCircle
 62
7
  6
CONTINUOUS
 10
10.8452098985
 20
7.305064609
 40
0.2041415627
100
AcDbArc
 50
180.0093656352
 51
188.5926994095
  0
ARC
  5
254
100
AcDbEntity
  8
0
100
AcDbCircle
 62
7
  6
CONTINUOUS
 10
10.8344484054
 20
7.2055709274
 40
0.1933800731
100
AcDbArc
 50
180.0143165136
 51
189.9485026481
  0
ARC
  5
255
100
AcDbEntity
  8
0
100
AcDbCircle
 62
7
  6
CONTINUOUS
 10
10.8343372073
 20
7.2553538238
 40
0.1932688647
100
AcDbArc
 50
180.0125998234
 51
189.5135997058
  0
ARC
  5
256
100
AcDbEntity
  8
0
100
AcDbCircle
 62
7
  6
CONTINUOUS
 10
10.8341510049
 20
7.2230041876
 40
0.1930856434
100
AcDbArc
 50
185.1820861031
 51
185.9458792247
  0
ARC
  5
257
100
AcDbEntity
  8
0
100
AcDbCircle
 62
7
  6
CONTINUOUS
 10
10.8333037226
 20
7.2229328919
 40
0.1922353847
100
AcDbArc
 50
180.003890844
 51
185.1837323113
  0
ARC
  5
258
100
AcDbEntity
  8
0
100
AcDbCircle
 62
7
  6
CONTINUOUS
 10
10.8332994585
 20
7.1203789012
 40
0.1922310999
100
AcDbArc
 50
174.5991651242
 51
179.9962703115
  0
ARC
  5
259
100
AcDbEntity
  8
0
100
AcDbCircle
 62
7
  6
CONTINUOUS
 10
10.8332254131
 20
7.1717015788
 40
0.1921570751
100
AcDbArc
 50
180.0030753135
 51
184.7344600204
  0
ARC
  5
25A
100
AcDbEntity
  8
0
100
AcDbCircle
 62
7
  6
CONTINUOUS
 10
10.8330802351
 20
7.2229165035
 40
0.1920118969
100
AcDbArc
 50
174.9524407226
 51
179.9990051487
  0
ARC
  5
25B
100
AcDbEntity
  8
0
100
AcDbCircle
 62
7
  6
CONTINUOUS
 10
10.8330752997
 20
7.1716879264
 40
0.1920069614
100
AcDbArc
 50
174.9448124012
 51
179.9990037719
  0
ARC
  5
25C
100
AcDbEntity
  8
0
100
AcDbCircle
 62
7
  6
CONTINUOUS
 10
10.8330376495
 20
7.2742050564
 40
0.1919693165
100
AcDbArc
 50
175.5142766117
 51
179.9073866808
  0
ARC
  5
25D
100
AcDbEntity
  8
0
100
AcDbCircle
 62
7
  6
CONTINUOUS
 10
10.8329627663
 20
7.120391931
 40
0.1918944073
100
AcDbArc
 50
180.0001542084
 51
184.2612623311
  0
ARC
  5
25E
100
AcDbEntity
  8
0
100
AcDbCircle
 62
7
  6
CONTINUOUS
 10
10.4213183383
 20
8.6637709751
 40
0.03
100
AcDbArc
 50
180.0
 51
270.0
  0
ARC
  5
25F
100
AcDbEntity
  8
0
100
AcDbCircle
 62
7
  6
CONTINUOUS
 10
10.9951444261
 20
15.6249303909
 40
4.5
100
AcDbArc
 50
276.4144817261
 51
285.5395954904
  0
ARC
  5
260
100
AcDbEntity
  8
0
100
AcDbCircle
 62
7
  6
CONTINUOUS
 10
7.7868835557
 20
11.2567709751
 40
0.1254347826
100
AcDbArc
 50
19.5319940446
 51
67.0635891141
  0
ARC
  5
261
100
AcDbEntity
  8
0
100
AcDbCircle
 62
7
  6
CONTINUOUS
 10
7.8603183383
 20
11.4303077147
 40
0.063
100
AcDbArc
 50
180.0
 51
247.0635891141
  0
ARC
  5
262
100
AcDbEntity
  8
0
100
AcDbCircle
 62
7
  6
CONTINUOUS
 10
7.9644748485
 20
11.3197709751
 40
0.063
100
AcDbArc
 50
199.5319940446
 51
270.0
  0
ARC
  5
263
100
AcDbEntity
  8
0
100
AcDbCircle
 62
7
  6
CONTINUOUS
 10
9.9073183383
 20
11.3375977279
 40
0.05
100
AcDbArc
 50
180.0
 51
254.4604045097
  0
ARC
  5
264
100
AcDbEntity
  8
0
100
AcDbCircle
 62
7
  6
CONTINUOUS
 10
11.0761115662
 20
6.80835276
 40
0.5621254179
100
AcDbArc
 50
291.1906095093
 51
292.2069204986
  0
ARC
  5
265
100
AcDbEntity
  8
0
100
AcDbCircle
 62
7
  6
CONTINUOUS
 10
11.0783037961
 20
6.7766281954
 40
0.5299000882
100
AcDbArc
 50
292.2054510478
 51
293.2836719266
  0
ARC
  5
266
100
AcDbEntity
  8
0
100
AcDbCircle
 62
7
  6
CONTINUOUS
 10
11.0473343136
 20
6.4165055964
 40
0.4890187821
100
AcDbArc
 50
145.0976452298
 51
151.3092064518
  0
ARC
  5
267
100
AcDbEntity
  8
0
100
AcDbCircle
 62
7
  6
CONTINUOUS
 10
11.2759365191
 20
6.5336884486
 40
0.2338905088
100
AcDbArc
 50
4.5769325937
 51
8.6701319467
  0
ARC
  5
268
100
AcDbEntity
  8
0
100
AcDbCircle
 62
7
  6
CONTINUOUS
 10
11.2374717373
 20
7.2486388061
 40
0.216099053
100
AcDbArc
 50
354.3845616163
 51
355.1748977336
  0
ARC
  5
269
100
AcDbEntity
  8
0
100
AcDbCircle
 62
7
  6
CONTINUOUS
 10
11.2379084961
 20
7.248540364
 40
0.2156598435
100
AcDbArc
 50
0.0063595109
 51
7.636256171
  0
ARC
  5
26A
100
AcDbEntity
  8
0
100
AcDbCircle
 62
7
  6
CONTINUOUS
 10
11.2379578679
 20
7.1807854733
 40
0.2156104743
100
AcDbArc
 50
350.8191781258
 51
359.9891093369
  0
ARC
  5
26B
100
AcDbEntity
  8
0
100
AcDbCircle
 62
7
  6
CONTINUOUS
 10
11.2380001929
 20
7.230459045
 40
0.2155681483
100
AcDbArc
 50
351.2556849894
 51
359.9905810686
  0
ARC
  5
26C
100
AcDbEntity
  8
0
100
AcDbCircle
 62
7
  6
CONTINUOUS
 10
11.2382555264
 20
7.145950232
 40
0.2153128121
100
AcDbArc
 50
0.0027942397
 51
4.6370616436
  0
ARC
  5
26D
100
AcDbEntity
  8
0
100
AcDbCircle
 62
7
  6
CONTINUOUS
 10
11.2383619154
 20
7.1972896232
 40
0.2152064231
100
AcDbArc
 50
0.0024698299
 51
4.4229256281
  0
ARC
  5
26E
100
AcDbEntity
  8
0
100
AcDbCircle
 62
7
  6
CONTINUOUS
 10
11.2384712979
 20
7.2485675374
 40
0.2150970404
100
AcDbArc
 50
355.1714185801
 51
359.9991379234
  0
ARC
  5
26F
100
AcDbEntity
  8
0
100
AcDbCircle
 62
7
  6
CONTINUOUS
 10
11.2385078224
 20
7.1459627569
 40
0.2150605159
100
AcDbArc
 50
356.0026660611
 51
359.9994606894
  0
ARC
  5
270
100
AcDbEntity
  8
0
100
AcDbCircle
 62
7
  6
CONTINUOUS
 10
11.238536804
 20
7.1973014798
 40
0.2150315343
100
AcDbArc
 50
355.5927629726
 51
359.9993126231
  0
ARC
  5
271
100
AcDbEntity
  8
0
100
AcDbCircle
 62
7
  6
CONTINUOUS
 10
11.6733183383
 20
8.6637709751
 40
0.03
100
AcDbArc
 50
270.0
 51
360.0
  0
ARC
  5
272
100
AcDbEntity
  8
0
100
AcDbCircle
 62
7
  6
CONTINUOUS
 10
11.0994922504
 20
15.6249303909
 40
4.5
100
AcDbArc
 50
254.4604045096
 51
263.5855182739
  0
ARC
  5
273
100
AcDbEntity
  8
0
100
AcDbCircle
 62
7
  6
CONTINUOUS
 10
14.3077531209
 20
11.2567709751
 40
0.1254347826
100
AcDbArc
 50
112.9364108859
 51
160.4680059554
  0
ARC
  5
274
100
AcDbEntity
  8
0
100
AcDbCircle
 62
7
  6
CONTINUOUS
 10
14.2343183383
 20
11.4303077147
 40
0.063
100
AcDbArc
 50
292.9364108859
 51
360.0
  0
ARC
  5
275
100
AcDbEntity
  8
0
100
AcDbCircle
 62
7
  6
CONTINUOUS
 10
14.130161828
 20
11.3197709751
 40
0.063
100
AcDbArc
 50
270.0
 51
340.4680059554
  0
ARC
  5
276
100
AcDbEntity
  8
0
100
AcDbCircle
 62
7
  6
CONTINUOUS
 10
12.1873183383
 20
11.3375977279
 40
0.05
100
AcDbArc
 50
285.5395954903
 51
360.0
  0
SPLINE
  5
277
100
AcDbEntity
  8
0
100
AcDbSpline
 62
7
  6
CONTINUOUS
 70
0
 71
3
 72
28
 73
24
 74
0
 42
0.0000001
 43
0.0000001
 44
0.0000000001
 40
0.0
 40
0.0
 40
0.0
 40
0.0
 40
0.0253211367
 40
0.0507083179
 40
0.0762264588
 40
0.1019382619
 40
0.1279032067
 40
0.1541767145
 40
0.1808094207
 40
0.2078466334
 40
0.2353279601
 40
0.2632870192
 40
0.3207201203
 40
0.3803188151
 40
0.4421386934
 40
0.5061509476
 40
0.572251597
 40
0.6402719964
 40
0.7099889678
 40
0.7811348473
 40
0.8534070322
 40
0.9264765902
 40
1.0
 40
1.0
 40
1.0
 40
1.0
 10
10.6410683591
 20
7.1060759891
 30
0.0
 10
10.641068345
 20
7.1015042129
 30
0.0
 10
10.6413957355
 20
7.0923453856
 30
0.0
 10
10.6428669121
 20
7.0786503434
 30
0.0
 10
10.645314826
 20
7.0650235526
 30
0.0
 10
10.6487331929
 20
7.0515001173
 30
0.0
 10
10.6531133566
 20
7.0381136118
 30
0.0
 10
10.6584444092
 20
7.0248975419
 30
0.0
 10
10.6647130793
 20
7.0118847549
 30
0.0
 10
10.67190368
 20
6.9991076041
 30
0.0
 10
10.6799988684
 20
6.9865973817
 30
0.0
 10
10.6920775516
 20
6.9701704896
 30
0.0
 10
10.7094038948
 20
6.9504665874
 30
0.0
 10
10.7332430329
 20
6.9286020358
 30
0.0
 10
10.7600881046
 20
6.9085087538
 30
0.0
 10
10.7896785905
 20
6.8903837618
 30
0.0
 10
10.82173144
 20
6.8744027261
 30
0.0
 10
10.8559401096
 20
6.8607228941
 30
0.0
 10
10.8919780652
 20
6.8494803855
 30
0.0
 10
10.9295009482
 20
6.8407885549
 30
0.0
 10
10.9681509262
 20
6.8347372061
 30
0.0
 10
11.0075563402
 20
6.8313909542
 30
0.0
 10
11.0340460748
 20
6.8309904564
 30
0.0
 10
11.0473183383
 20
6.8312490384
 30
0.0
  0
SPLINE
  5
278
100
AcDbEntity
  8
0
100
AcDbSpline
 62
7
  6
CONTINUOUS
 70
0
 71
3
 72
15
 73
11
 74
0
 42
0.0000001
 43
0.0000001
 44
0.0000000001
 40
0.0
 40
0.0
 40
0.0
 40
0.0
 40
0.1196855565
 40
0.2399227066
 40
0.3612465914
 40
0.4841601273
 40
0.6091216073
 40
0.7365321447
 40
0.8667352505
 40
1.0
 40
1.0
 40
1.0
 40
1.0
 10
10.6410683536
 20
7.1558051891
 30
0.0
 10
10.6410683274
 20
7.1497169192
 30
0.0
 10
10.6416501773
 20
7.137504431
 30
0.0
 10
10.6442621599
 20
7.1192886562
 30
0.0
 10
10.6486019341
 20
7.1012357012
 30
0.0
 10
10.6546493681
 20
7.0834284315
 30
0.0
 10
10.6623768292
 20
7.065945506
 30
0.0
 10
10.6717496332
 20
7.04886373
 30
0.0
 10
10.6827252772
 20
7.0322592769
 30
0.0
 10
10.6909807363
 20
7.0216817054
 30
0.0
 10
10.6953467171
 20
7.0164958174
 30
0.0
  0
SPLINE
  5
279
100
AcDbEntity
  8
0
100
AcDbSpline
 62
7
  6
CONTINUOUS
 70
0
 71
3
 72
26
 73
22
 74
0
 42
0.0000001
 43
0.0000001
 44
0.0000000001
 40
0.0
 40
0.0
 40
0.0
 40
0.0
 40
0.0251994173
 40
0.0505949769
 40
0.0762356488
 40
0.102167033
 40
0.12843098
 40
0.155065153
 40
0.2095513288
 40
0.2658577242
 40
0.3241187942
 40
0.3540122734
 40
0.3844118187
 40
0.4467002666
 40
0.5109335095
 40
0.5769919475
 40
0.6447100082
 40
0.7138833082
 40
0.7842759274
 40
0.8556270352
 40
1.0
 40
1.0
 40
1.0
 40
1.0
 10
10.6439761053
 20
7.1721620128
 30
0.0
 10
10.6447117118
 20
7.1679578637
 30
0.0
 10
10.6464644331
 20
7.1595625556
 30
0.0
 10
10.6499101483
 20
7.1471102233
 30
0.0
 10
10.6541742186
 20
7.1347822458
 30
0.0
 10
10.6592471885
 20
7.1226055765
 30
0.0
 10
10.6651187647
 20
7.1106055351
 30
0.0
 10
10.6740612955
 20
7.0947581825
 30
0.0
 10
10.6872334209
 20
7.0755040068
 30
0.0
 10
10.7058683896
 20
7.0537013165
 30
0.0
 10
10.7235773284
 20
7.0367579378
 30
0.0
 10
10.7390219501
 20
7.0239175561
 30
0.0
 10
10.7555775388
 20
7.0113787793
 30
0.0
 10
10.7778117627
 20
6.9967537647
 30
0.0
 10
10.8064762642
 20
6.9811192663
 30
0.0
 10
10.8371084904
 20
6.9673873421
 30
0.0
 10
10.8694571541
 20
6.9556752307
 30
0.0
 10
10.9032578329
 20
6.9460830357
 30
0.0
 10
10.9382379886
 20
6.9386939475
 30
0.0
 10
10.9862349211
 20
6.9318426489
 30
0.0
 10
11.0228705812
 20
6.9302280341
 30
0.0
 10
11.0473183383
 20
6.9307051892
 30
0.0
  0
SPLINE
  5
27A
100
AcDbEntity
  8
0
100
AcDbSpline
 62
7
  6
CONTINUOUS
 70
0
 71
3
 72
23
 73
19
 74
0
 42
0.0000001
 43
0.0000001
 44
0.0000000001
 40
0.0
 40
0.0
 40
0.0
 40
0.0
 40
0.0615517569
 40
0.123112656
 40
0.184691945
 40
0.2463042951
 40
0.3079688263
 40
0.3697109696
 40
0.4315627371
 40
0.4935623659
 40
0.5557529438
 40
0.6181809136
 40
0.6808927523
 40
0.7439328424
 40
0.8073396342
 40
0.8711425009
 40
0.9353615195
 40
1.0
 40
1.0
 40
1.0
 40
1.0
 10
11.4998183383
 20
6.8718018917
 30
0.0
 10
11.4998183383
 20
6.8626892058
 30
0.0
 10
11.4990391092
 20
6.8444529211
 30
0.0
 10
11.4955459344
 20
6.8173018743
 30
0.0
 10
11.4897668773
 20
6.7905333064
 30
0.0
 10
11.4817641926
 20
6.7643287755
 30
0.0
 10
11.4716200335
 20
6.7388515371
 30
0.0
 10
11.4594328828
 20
6.7142477938
 30
0.0
 10
11.4453127278
 20
6.6906438536
 30
0.0
 10
11.429376967
 20
6.6681459728
 30
0.0
 10
11.4117461352
 20
6.6468413336
 30
0.0
 10
11.3925410778
 20
6.6267998192
 30
0.0
 10
11.3718804258
 20
6.6080767469
 30
0.0
 10
11.3498796941
 20
6.5907155205
 30
0.0
 10
11.3266508891
 20
6.5747507755
 30
0.0
 10
11.3023025707
 20
6.5602101355
 30
0.0
 10
11.2769426962
 20
6.5471178143
 30
0.0
 10
11.2594854545
 20
6.5393922
 30
0.0
 10
11.2506256592
 20
6.5357752037
 30
0.0
  0
SPLINE
  5
27B
100
AcDbEntity
  8
0
100
AcDbSpline
 62
7
  6
CONTINUOUS
 70
0
 71
3
 72
31
 73
27
 74
0
 42
0.0000001
 43
0.0000001
 44
0.0000000001
 40
0.0
 40
0.0
 40
0.0
 40
0.0
 40
0.0654492029
 40
0.1307325847
 40
0.195698756
 40
0.2602215173
 40
0.3242091841
 40
0.3876104678
 40
0.450417882
 40
0.5126630293
 40
0.5436032153
 40
0.5744297658
 40
0.6051540785
 40
0.6357881455
 40
0.6663436089
 40
0.6968323389
 40
0.7272658777
 40
0.7576541718
 40
0.7880066273
 40
0.8183312915
 40
0.8486348594
 40
0.8789231178
 40
0.9092004029
 40
0.939470889
 40
0.9697357723
 40
1.0
 40
1.0
 40
1.0
 40
1.0
 10
11.0469489936
 20
6.4967722785
 30
0.0
 10
11.0327236856
 20
6.4967816141
 30
0.0
 10
11.0042979146
 20
6.4978790208
 30
0.0
 10
10.9620036853
 20
6.5027567353
 30
0.0
 10
10.9204058765
 20
6.5108458826
 30
0.0
 10
10.8798458149
 20
6.5221160918
 30
0.0
 10
10.8406521364
 20
6.5365278079
 30
0.0
 10
10.8031463369
 20
6.5540344914
 30
0.0
 10
10.7676491946
 20
6.5745792619
 30
0.0
 10
10.7399462086
 20
6.5942221027
 30
0.0
 10
10.7191404503
 20
6.6113720068
 30
0.0
 10
10.704273078
 20
6.6249158633
 30
0.0
 10
10.6901578403
 20
6.6391482761
 30
0.0
 10
10.6768386046
 20
6.6540499776
 30
0.0
 10
10.6643604049
 20
6.6695975703
 30
0.0
 10
10.652768614
 20
6.685763695
 30
0.0
 10
10.6421085421
 20
6.7025162206
 30
0.0
 10
10.6324248408
 20
6.7198179448
 30
0.0
 10
10.6237608016
 20
6.7376262099
 30
0.0
 10
10.6161574036
 20
6.755892906
 30
0.0
 10
10.6096526944
 20
6.7745646034
 30
0.0
 10
10.604280742
 20
6.7935827306
 30
0.0
 10
10.6000705735
 20
6.8128841216
 30
0.0
 10
10.5970460029
 20
6.8324016758
 30
0.0
 10
10.5952239744
 20
6.8520644575
 30
0.0
 10
10.5948183383
 20
6.8652239956
 30
0.0
 10
10.5948183383
 20
6.8718018917
 30
0.0
  0
SPLINE
  5
27C
100
AcDbEntity
  8
0
100
AcDbSpline
 62
7
  6
CONTINUOUS
 70
0
 71
3
 72
13
 73
9
 74
0
 42
0.0000001
 43
0.0000001
 44
0.0000000001
 40
0.0
 40
0.0
 40
0.0
 40
0.0
 40
0.1277906531
 40
0.2553047593
 40
0.4454485842
 40
0.6334854099
 40
0.8185853865
 40
1.0
 40
1.0
 40
1.0
 40
1.0
 10
11.0477479813
 20
6.4967723266
 30
0.0
 10
11.0563967874
 20
6.4967789231
 30
0.0
 10
11.0736782419
 20
6.4971909207
 30
0.0
 10
11.1037612151
 20
6.4993026762
 30
0.0
 10
11.1377353907
 20
6.5036806912
 30
0.0
 10
11.1751366912
 20
6.5112287906
 30
0.0
 10
11.2113196911
 20
6.5213220004
 30
0.0
 10
11.2346691085
 20
6.5297823271
 30
0.0
 10
11.2460363757
 20
6.5344229945
 30
0.0
  0
SPLINE
  5
27D
100
AcDbEntity
  8
0
100
AcDbSpline
 62
7
  6
CONTINUOUS
 70
0
 71
3
 72
11
 73
7
 74
0
 42
0.0000001
 43
0.0000001
 44
0.0000000001
 40
0.0
 40
0.0
 40
0.0
 40
0.0
 40
0.2470587361
 40
0.4965271547
 40
0.7477861677
 40
1.0
 40
1.0
 40
1.0
 40
1.0
 10
11.2506256592
 20
6.5357752037
 30
0.0
 10
11.2347825722
 20
6.5293072905
 30
0.0
 10
11.202245031
 20
6.5179543965
 30
0.0
 10
11.1518194537
 20
6.505785066
 30
0.0
 10
11.100111112
 20
6.4984380577
 30
0.0
 10
11.065217533
 20
6.4967856891
 30
0.0
 10
11.0477479813
 20
6.496772322
 30
0.0
  0
SPLINE
  5
27E
100
AcDbEntity
  8
0
100
AcDbSpline
 62
7
  6
CONTINUOUS
 70
0
 71
3
 72
15
 73
11
 74
0
 42
0.0000001
 43
0.0000001
 44
0.0000000001
 40
0.0
 40
0.0
 40
0.0
 40
0.0
 40
0.1211653685
 40
0.2427203963
 40
0.3650459862
 40
0.488506128
 40
0.6134404871
 40
0.740158175
 40
0.868933041
 40
1.0
 40
1.0
 40
1.0
 40
1.0
 10
11.4998183383
 20
7.099580679
 30
0.0
 10
11.4998183383
 20
7.1056460426
 30
0.0
 10
11.4993288149
 20
7.1178019106
 30
0.0
 10
11.4971296952
 20
7.1359614215
 30
0.0
 10
11.4934729319
 20
7.1540024429
 30
0.0
 10
11.4883710274
 20
7.1718643127
 30
0.0
 10
11.4818413661
 20
7.1894890775
 30
0.0
 10
11.4739057835
 20
7.2068195788
 30
0.0
 10
11.4645914995
 20
7.2237988294
 30
0.0
 10
11.4575474947
 20
7.2347480366
 30
0.0
 10
11.4538155344
 20
7.2401442848
 30
0.0
  0
SPLINE
  5
27F
100
AcDbEntity
  8
0
100
AcDbSpline
 62
7
  6
CONTINUOUS
 70
0
 71
3
 72
15
 73
11
 74
0
 42
0.0000001
 43
0.0000001
 44
0.0000000001
 40
0.0
 40
0.0
 40
0.0
 40
0.0
 40
0.1211051228
 40
0.2426064547
 40
0.3648911479
 40
0.4883288696
 40
0.6132641523
 40
0.7400100041
 40
0.8688430935
 40
1.0
 40
1.0
 40
1.0
 40
1.0
 10
10.5948183383
 20
7.099580679
 30
0.0
 10
10.5948183383
 20
7.1056986226
 30
0.0
 10
10.5953164151
 20
7.1179603077
 30
0.0
 10
10.5975538949
 20
7.1362765766
 30
0.0
 10
10.6012742894
 20
7.1544712139
 30
0.0
 10
10.6064646454
 20
7.1724819661
 30
0.0
 10
10.6131069553
 20
7.1902493788
 30
0.0
 10
10.6211786053
 20
7.2077148332
 30
0.0
 10
10.6306514312
 20
7.2248199153
 30
0.0
 10
10.6378135109
 20
7.2358440634
 30
0.0
 10
10.6416076581
 20
7.2412758976
 30
0.0
  0
SPLINE
  5
280
100
AcDbEntity
  8
0
100
AcDbSpline
 62
7
  6
CONTINUOUS
 70
0
 71
3
 72
21
 73
17
 74
0
 42
0.0000001
 43
0.0000001
 44
0.0000000001
 40
0.0
 40
0.0
 40
0.0
 40
0.0
 40
0.0554312087
 40
0.1110880329
 40
0.1671897093
 40
0.2239431645
 40
0.2815378328
 40
0.3401415849
 40
0.3998977276
 40
0.4609231605
 40
0.5233075745
 40
0.5871133806
 40
0.7190402178
 40
0.7872253606
 40
0.8568293537
 40
1.0
 40
1.0
 40
1.0
 40
1.0
 10
11.5098183178
 20
6.5692505931
 30
0.0
 10
11.5098183371
 20
6.5622708897
 30
0.0
 10
11.5091835034
 20
6.5482748653
 30
0.0
 10
11.5063330741
 20
6.527389604
 30
0.0
 10
11.5015963557
 20
6.5066778907
 30
0.0
 10
11.4949941715
 20
6.4862282124
 30
0.0
 10
11.4865552159
 20
6.4661245729
 30
0.0
 10
11.4763157978
 20
6.4464498202
 30
0.0
 10
11.4643194057
 20
6.4272842745
 30
0.0
 10
11.4506168151
 20
6.4087061408
 30
0.0
 10
11.435264257
 20
6.3907898465
 30
0.0
 10
11.4124324701
 20
6.3676296566
 30
0.0
 10
11.3867514051
 20
6.3463692088
 30
0.0
 10
11.358730408
 20
6.3271549041
 30
0.0
 10
11.3284208715
 20
6.3088781772
 30
0.0
 10
11.3043239613
 20
6.2970098791
 30
0.0
 10
11.2877646895
 20
6.2898836653
 30
0.0
  0
SPLINE
  5
281
100
AcDbEntity
  8
0
100
AcDbSpline
 62
7
  6
CONTINUOUS
 70
0
 71
3
 72
22
 73
18
 74
0
 42
0.0000001
 43
0.0000001
 44
0.0000000001
 40
0.0
 40
0.0
 40
0.0
 40
0.0
 40
0.0552228274
 40
0.1106806268
 40
0.1666014027
 40
0.2231997997
 40
0.2806715088
 40
0.3391888991
 40
0.3988979281
 40
0.459916225
 40
0.5223324009
 40
0.5862060934
 40
0.6515689219
 40
0.7184257117
 40
0.7867563042
 40
0.8565173337
 40
1.0
 40
1.0
 40
1.0
 40
1.0
 10
11.6223183383
 20
5.9187123544
 30
0.0
 10
11.6223183386
 20
5.9098388534
 30
0.0
 10
11.6214928994
 20
5.8920431847
 30
0.0
 10
11.6177868211
 20
5.8654944073
 30
0.0
 10
11.6116291452
 20
5.8391765486
 30
0.0
 10
11.6030482174
 20
5.8132072284
 30
0.0
 10
11.5920831179
 20
5.7876979918
 30
0.0
 10
11.5787832014
 20
5.7627586884
 30
0.0
 10
11.5632076426
 20
5.7384957749
 30
0.0
 10
11.5454250207
 20
5.7150123761
 30
0.0
 10
11.5255129396
 20
5.6924079225
 30
0.0
 10
11.5035577262
 20
5.6707779286
 30
0.0
 10
11.4796539151
 20
5.6502136163
 30
0.0
 10
11.4539046346
 20
5.630801998
 30
0.0
 10
11.4264183772
 20
5.6126240554
 30
0.0
 10
11.3872562168
 20
5.5899281276
 30
0.0
 10
11.3561636455
 20
5.5753123891
 30
0.0
 10
11.3348183383
 20
5.5665982039
 30
0.0
  0
SPLINE
  5
282
100
AcDbEntity
  8
0
100
AcDbSpline
 62
7
  6
CONTINUOUS
 70
0
 71
3
 72
21
 73
17
 74
0
 42
0.0000001
 43
0.0000001
 44
0.0000000001
 40
0.0
 40
0.0
 40
0.0
 40
0.0
 40
0.0587094386
 40
0.1175217668
 40
0.1765386232
 40
0.2358591449
 40
0.2955788743
 40
0.3557886602
 40
0.4165737582
 40
0.478013076
 40
0.5401784546
 40
0.6031343117
 40
0.6669372148
 40
0.7316355339
 40
0.8638362742
 40
1.0
 40
1.0
 40
1.0
 40
1.0
 10
10.4723183658
 20
6.5833927287
 30
0.0
 10
10.4723183649
 20
6.5890751099
 30
0.0
 10
10.4726559117
 20
6.6004527077
 30
0.0
 10
10.4741736436
 20
6.6174815227
 30
0.0
 10
10.4767001432
 20
6.6344504424
 30
0.0
 10
10.4802307121
 20
6.6513286181
 30
0.0
 10
10.4847591182
 20
6.6680863429
 30
0.0
 10
10.4902770628
 20
6.6846939583
 30
0.0
 10
10.4967745678
 20
6.7011221977
 30
0.0
 10
10.5042400947
 20
6.7173420521
 30
0.0
 10
10.5126601415
 20
6.7333250864
 30
0.0
 10
10.52201965
 20
6.7490431595
 30
0.0
 10
10.5323022802
 20
6.7644689299
 30
0.0
 10
10.547324371
 20
6.7847539079
 30
0.0
 10
10.5683717554
 20
6.8092369988
 30
0.0
 10
10.587046626
 20
6.8273450988
 30
0.0
 10
10.5968856201
 20
6.8361133006
 30
0.0
  0
SPLINE
  5
283
100
AcDbEntity
  8
0
100
AcDbSpline
 62
7
  6
CONTINUOUS
 70
0
 71
3
 72
39
 73
35
 74
0
 42
0.0000001
 43
0.0000001
 44
0.0000000001
 40
0.0
 40
0.0
 40
0.0
 40
0.0
 40
0.0619951633
 40
0.0939782824
 40
0.1265563106
 40
0.1596780603
 40
0.1932836716
 40
0.2273058632
 40
0.2616710442
 40
0.3310888931
 40
0.365995904
 40
0.4009116158
 40
0.470395946
 40
0.5048134066
 40
0.538895327
 40
0.5725624569
 40
0.6057405679
 40
0.638361736
 40
0.670365461
 40
0.7016999814
 40
0.7323236483
 40
0.7622061562
 40
0.7913299326
 40
0.8196914974
 40
0.8473026001
 40
0.8741913255
 40
0.8873812826
 40
0.9004090607
 40
0.926006034
 40
0.951068137
 40
0.9634316374
 40
0.975698571
 40
0.9878830843
 40
1.0
 40
1.0
 40
1.0
 40
1.0
 10
11.3431286757
 20
7.0773044706
 30
0.0
 10
11.329666031
 20
7.0668088911
 30
0.0
 10
11.30812983
 20
7.0522917479
 30
0.0
 10
11.2775577344
 20
7.0355426499
 30
0.0
 10
11.253226218
 20
7.0240379153
 30
0.0
 10
11.2278633762
 20
7.0137821352
 30
0.0
 10
11.2015941664
 20
7.004821916
 30
0.0
 10
11.1745499571
 20
6.9971993215
 30
0.0
 10
11.1375236441
 20
6.9888402637
 30
0.0
 10
11.0996543751
 20
6.9833337698
 30
0.0
 10
11.0613929292
 20
6.9806880697
 30
0.0
 10
11.0230285422
 20
6.9799636482
 30
0.0
 10
10.9847877038
 20
6.982112173
 30
0.0
 10
10.9471147946
 20
6.9871386878
 30
0.0
 10
10.9194465059
 20
6.9922980608
 30
0.0
 10
10.8924210828
 20
6.9988292827
 30
0.0
 10
10.8661729033
 20
7.0066971018
 30
0.0
 10
10.8408339597
 20
7.015859424
 30
0.0
 10
10.8165312742
 20
7.0262678086
 30
0.0
 10
10.7933867897
 20
7.0378676688
 30
0.0
 10
10.7715166638
 20
7.0505985777
 30
0.0
 10
10.7510307391
 20
7.0643946124
 30
0.0
 10
10.7320321339
 20
7.0791845764
 30
0.0
 10
10.7146165176
 20
7.0948927729
 30
0.0
 10
10.6988727557
 20
7.1114377832
 30
0.0
 10
10.6871365609
 20
7.1259471511
 30
0.0
 10
10.67868308
 20
7.1378839467
 30
0.0
 10
10.6709484058
 20
7.1498772376
 30
0.0
 10
10.662429046
 20
7.165233991
 30
0.0
 10
10.6554462952
 20
7.1811511993
 30
0.0
 10
10.6508739921
 20
7.1940524428
 30
0.0
 10
10.6479596506
 20
7.203766059
 30
0.0
 10
10.645549008
 20
7.2135464657
 30
0.0
 10
10.644276752
 20
7.220119299
 30
0.0
 10
10.6437264856
 20
7.2234100162
 30
0.0
  0
SPLINE
  5
284
100
AcDbEntity
  8
0
100
AcDbSpline
 62
7
  6
CONTINUOUS
 70
0
 71
3
 72
17
 73
13
 74
0
 42
0.0000001
 43
0.0000001
 44
0.0000000001
 40
0.0
 40
0.0
 40
0.0
 40
0.0
 40
0.0580948556
 40
0.1164633856
 40
0.1751911317
 40
0.2343593239
 40
0.3542752282
 40
0.4767959852
 40
0.6023585865
 40
0.7312895218
 40
0.8638007646
 40
1.0
 40
1.0
 40
1.0
 40
1.0
 10
11.4450031164
 20
7.2465970908
 30
0.0
 10
11.4445527748
 20
7.2426986916
 30
0.0
 10
11.44342786
 20
7.2349073908
 30
0.0
 10
11.4410811185
 20
7.2233022989
 30
0.0
 10
11.4380758706
 20
7.2117745278
 30
0.0
 10
11.4331785549
 20
7.1964680067
 30
0.0
 10
11.4254047118
 20
7.1775910244
 30
0.0
 10
11.4136019594
 20
7.1556668368
 30
0.0
 10
11.3993680847
 20
7.1345013675
 30
0.0
 10
11.3828045339
 20
7.1142295995
 30
0.0
 10
11.3640278221
 20
7.0949781209
 30
0.0
 10
11.3503037608
 20
7.0830632593
 30
0.0
 10
11.3431286757
 20
7.0773044706
 30
0.0
  0
SPLINE
  5
285
100
AcDbEntity
  8
0
100
AcDbSpline
 62
7
  6
CONTINUOUS
 70
0
 71
3
 72
15
 73
11
 74
0
 42
0.0000001
 43
0.0000001
 44
0.0000000001
 40
0.0
 40
0.0
 40
0.0
 40
0.0
 40
0.1226649941
 40
0.2455773658
 40
0.3689414879
 40
0.4929848027
 40
0.6179202363
 40
0.7439457724
 40
0.8712482881
 40
1.0
 40
1.0
 40
1.0
 40
1.0
 10
11.4535680927
 20
7.304715385
 30
0.0
 10
11.4535616546
 20
7.300575095
 30
0.0
 10
11.4532949428
 20
7.2922843373
 30
0.0
 10
11.4521352426
 20
7.2798782654
 30
0.0
 10
11.4502174885
 20
7.2675190914
 30
0.0
 10
11.4475456076
 20
7.2552311157
 30
0.0
 10
11.4441249394
 20
7.2430370253
 30
0.0
 10
11.4399616959
 20
7.2309597598
 30
0.0
 10
11.4350643369
 20
7.219022395
 30
0.0
 10
11.4313381977
 20
7.2112185378
 30
0.0
 10
11.4293596289
 20
7.207349337
 30
0.0
  0
SPLINE
  5
286
100
AcDbEntity
  8
0
100
AcDbSpline
 62
7
  6
CONTINUOUS
 70
0
 71
3
 72
21
 73
17
 74
0
 42
0.0000001
 43
0.0000001
 44
0.0000000001
 40
0.0
 40
0.0
 40
0.0
 40
0.0
 40
0.0525027782
 40
0.1063064823
 40
0.1615346069
 40
0.2182694062
 40
0.3363066287
 40
0.3976648229
 40
0.4604815893
 40
0.524665111
 40
0.5900984208
 40
0.6566425972
 40
0.7241403476
 40
0.7924189635
 40
0.8612939197
 40
1.0
 40
1.0
 40
1.0
 40
1.0
 10
11.4293596289
 20
7.207349337
 30
0.0
 10
11.4257982394
 20
7.2003848429
 30
0.0
 10
11.4178904638
 20
7.1866292069
 30
0.0
 10
11.4040003298
 20
7.1669381409
 30
0.0
 10
11.3880262105
 20
7.1480609016
 30
0.0
 10
11.363767771
 20
7.1238140185
 30
0.0
 10
11.33596683
 20
7.1019978541
 30
0.0
 10
11.30538229
 20
7.0828110785
 30
0.0
 10
11.2806362102
 20
7.0695279347
 30
0.0
 10
11.2545343876
 20
7.0576224982
 30
0.0
 10
11.2272258165
 20
7.0471611381
 30
0.0
 10
11.1988700947
 20
7.0382048089
 30
0.0
 10
11.1696325622
 20
7.0308051577
 30
0.0
 10
11.1396813302
 20
7.0250047908
 30
0.0
 10
11.0989463836
 20
7.0194367223
 30
0.0
 10
11.0679838035
 20
7.0177691099
 30
0.0
 10
11.0473183383
 20
7.0177691099
 30
0.0
  0
SPLINE
  5
287
100
AcDbEntity
  8
0
100
AcDbSpline
 62
7
  6
CONTINUOUS
 70
0
 71
3
 72
25
 73
21
 74
0
 42
0.0000001
 43
0.0000001
 44
0.0000000001
 40
0.0
 40
0.0
 40
0.0
 40
0.0
 40
0.1430880879
 40
0.2139281062
 40
0.2838952864
 40
0.3527285559
 40
0.4201926384
 40
0.4860847717
 40
0.5502420211
 40
0.6125482819
 40
0.6729416779
 40
0.7314212122
 40
0.7880530757
 40
0.8429748362
 40
0.8698685848
 40
0.8964198245
 40
0.922665733
 40
0.9486475978
 40
0.9744099274
 40
1.0
 40
1.0
 40
1.0
 40
1.0
 10
11.0473183383
 20
7.0177691099
 30
0.0
 10
11.0226143999
 20
7.0177691099
 30
0.0
 10
10.9856183664
 20
7.0201492317
 30
0.0
 10
10.9372287752
 20
7.0281020774
 30
0.0
 10
10.9019580891
 20
7.0363586693
 30
0.0
 10
10.8678993142
 20
7.0468566381
 30
0.0
 10
10.83533209
 20
7.0595099558
 30
0.0
 10
10.804528105
 20
7.0742146285
 30
0.0
 10
10.7757434415
 20
7.0908502959
 30
0.0
 10
10.749217941
 20
7.1092811045
 30
0.0
 10
10.7251734028
 20
7.1293566884
 30
0.0
 10
10.7038117415
 20
7.1509145222
 30
0.0
 10
10.6853157041
 20
7.1737766127
 30
0.0
 10
10.672329092
 20
7.1939077693
 30
0.0
 10
10.6635695786
 20
7.2104499382
 30
0.0
 10
10.6578483147
 20
7.2229716334
 30
0.0
 10
10.6529435766
 20
7.2356663621
 30
0.0
 10
10.6488654808
 20
7.2485079562
 30
0.0
 10
10.6456231087
 20
7.261468524
 30
0.0
 10
10.6440187257
 20
7.2701952857
 30
0.0
 10
10.6433597377
 20
7.2745639497
 30
0.0
  0
SPLINE
  5
288
100
AcDbEntity
  8
0
100
AcDbSpline
 62
7
  6
CONTINUOUS
 70
0
 71
3
 72
32
 73
28
 74
0
 42
0.0000001
 43
0.0000001
 44
0.0000000001
 40
0.0
 40
0.0
 40
0.0
 40
0.0
 40
0.0281035135
 40
0.0562314413
 40
0.0844075694
 40
0.1126559067
 40
0.1409998494
 40
0.1694622915
 40
0.1980654802
 40
0.2268308698
 40
0.2557790375
 40
0.2849295415
 40
0.3143008238
 40
0.343910153
 40
0.3737735086
 40
0.4039055096
 40
0.4343193755
 40
0.4650268718
 40
0.5273520843
 40
0.5909559176
 40
0.6232550867
 40
0.6558865914
 40
0.722141401
 40
0.7897209273
 40
0.858594639
 40
0.9287108661
 40
1.0
 40
1.0
 40
1.0
 40
1.0
 10
13.0473183383
 20
4.8325377656
 30
0.0
 10
13.0473183383
 20
4.8165696888
 30
0.0
 10
13.0465820139
 20
4.7846147812
 30
0.0
 10
13.0432710364
 20
4.7367537442
 30
0.0
 10
13.0377586871
 20
4.6890122718
 30
0.0
 10
13.0300537279
 20
4.6414513915
 30
0.0
 10
13.0201683684
 20
4.5941293811
 30
0.0
 10
13.0081180829
 20
4.5471039448
 30
0.0
 10
12.9939211938
 20
4.5004313871
 30
0.0
 10
12.9775988956
 20
4.45416658
 30
0.0
 10
12.959175142
 20
4.4083627699
 30
0.0
 10
12.9386761286
 20
4.3630716341
 30
0.0
 10
12.916130217
 20
4.318343221
 30
0.0
 10
12.8915679872
 20
4.2742258492
 30
0.0
 10
12.8650217204
 20
4.2307662216
 30
0.0
 10
12.8365255053
 20
4.1880097257
 30
0.0
 10
12.8061145753
 20
4.1459994685
 30
0.0
 10
12.7628544936
 20
4.0907701036
 30
0.0
 10
12.704093028
 20
4.0238154408
 30
0.0
 10
12.6401023753
 20
3.9605594418
 30
0.0
 10
12.5856296746
 20
3.9118969085
 30
0.0
 10
12.5284205822
 20
3.8640971943
 30
0.0
 10
12.4529119212
 20
3.8070212122
 30
0.0
 10
12.3568530822
 20
3.7433501362
 30
0.0
 10
12.255289639
 20
3.6843883959
 30
0.0
 10
12.1486568716
 20
3.6303636635
 30
0.0
 10
12.0750564176
 20
3.5980267681
 30
0.0
 10
12.0375554962
 20
3.5827170811
 30
0.0
  0
SPLINE
  5
289
100
AcDbEntity
  8
0
100
AcDbSpline
 62
7
  6
CONTINUOUS
 70
0
 71
3
 72
48
 73
44
 74
0
 42
0.0000001
 43
0.0000001
 44
0.0000000001
 40
0.0
 40
0.0
 40
0.0
 40
0.0
 40
0.0329323499
 40
0.0663096968
 40
0.1000797453
 40
0.1341844773
 40
0.1685617114
 40
0.2031458134
 40
0.2378685721
 40
0.2726600676
 40
0.3074495424
 40
0.3421662635
 40
0.3767403864
 40
0.4111038217
 40
0.4451911061
 40
0.4789402734
 40
0.5122937246
 40
0.5451991242
 40
0.577610244
 40
0.6094878605
 40
0.640800575
 40
0.6715256285
 40
0.7016496455
 40
0.716486796
 40
0.7311733216
 40
0.760095814
 40
0.788439294
 40
0.8024050275
 40
0.8162378876
 40
0.8299432252
 40
0.8435270433
 40
0.8569959751
 40
0.8703572655
 40
0.8836187369
 40
0.8967887389
 40
0.9098761236
 40
0.9228901995
 40
0.9358406682
 40
0.9487375883
 40
0.9615913083
 40
0.974412401
 40
0.987211715
 40
1.0
 40
1.0
 40
1.0
 40
1.0
 10
12.0375554962
 20
3.5827170811
 30
0.0
 10
11.9996200405
 20
3.5672299961
 30
0.0
 10
11.9223902886
 20
3.5380794653
 30
0.0
 10
11.8037389045
 20
3.5001339271
 30
0.0
 10
11.6819266369
 20
3.4677956581
 30
0.0
 10
11.557464683
 20
3.4411932168
 30
0.0
 10
11.4308709085
 20
3.420430806
 30
0.0
 10
11.3026739338
 20
3.4055908094
 30
0.0
 10
11.1734092313
 20
3.3967320997
 30
0.0
 10
11.0436172207
 20
3.39388986
 30
0.0
 10
10.9138406889
 20
3.3970755333
 30
0.0
 10
10.7846223636
 20
3.4062763437
 30
0.0
 10
10.6565024221
 20
3.4214556692
 30
0.0
 10
10.5300160861
 20
3.4425533509
 30
0.0
 10
10.4056911906
 20
3.4694858037
 30
0.0
 10
10.2840459808
 20
3.5021470256
 30
0.0
 10
10.1655869365
 20
3.5404091541
 30
0.0
 10
10.0508068
 20
3.5841232197
 30
0.0
 10
9.9401828509
 20
3.6331205508
 30
0.0
 10
9.8341756463
 20
3.6872131889
 30
0.0
 10
9.7332267155
 20
3.7461959751
 30
0.0
 10
9.6377619781
 20
3.8098442317
 30
0.0
 10
9.5627313385
 20
3.8668648269
 30
0.0
 10
9.5058896399
 20
3.9145994311
 30
0.0
 10
9.4517680588
 20
3.9631861317
 30
0.0
 10
9.3881949716
 20
4.0263244017
 30
0.0
 10
9.3298252964
 20
4.0931276187
 30
0.0
 10
9.28685648
 20
4.1482190046
 30
0.0
 10
9.2566509036
 20
4.1901194132
 30
0.0
 10
9.2283482874
 20
4.2327586498
 30
0.0
 10
9.2019833861
 20
4.2760939772
 30
0.0
 10
9.1775898572
 20
4.3200804272
 30
0.0
 10
9.1551995835
 20
4.3646717382
 30
0.0
 10
9.1348427348
 20
4.4098200363
 30
0.0
 10
9.1165472898
 20
4.4554757459
 30
0.0
 10
9.1003391135
 20
4.5015876976
 30
0.0
 10
9.0862418374
 20
4.5481031672
 30
0.0
 10
9.0742763498
 20
4.5949678265
 30
0.0
 10
9.064460736
 20
4.6421259478
 30
0.0
 10
9.056810259
 20
4.6895204214
 30
0.0
 10
9.0513369436
 20
4.7370935743
 30
0.0
 10
9.0480494374
 20
4.7847850246
 30
0.0
 10
9.0473183383
 20
4.8166263695
 30
0.0
 10
9.0473183383
 20
4.8325377656
 30
0.0
  0
SPLINE
  5
28A
100
AcDbEntity
  8
0
100
AcDbSpline
 62
7
  6
CONTINUOUS
 70
0
 71
3
 72
32
 73
28
 74
0
 42
0.0000001
 43
0.0000001
 44
0.0000000001
 40
0.0
 40
0.0
 40
0.0
 40
0.0
 40
0.0281035135
 40
0.0562314413
 40
0.0844075694
 40
0.1126559067
 40
0.1409998494
 40
0.1694622915
 40
0.1980654802
 40
0.2268308697
 40
0.2557790375
 40
0.2849295415
 40
0.3143008238
 40
0.343910153
 40
0.3737735086
 40
0.4039055096
 40
0.4343193755
 40
0.4650268718
 40
0.5273520843
 40
0.5909559176
 40
0.6232550867
 40
0.6558865914
 40
0.722141401
 40
0.7897209273
 40
0.858594639
 40
0.9287108661
 40
1.0
 40
1.0
 40
1.0
 40
1.0
 10
9.0473183383
 20
5.4293944618
 30
0.0
 10
9.0473183383
 20
5.4453625387
 30
0.0
 10
9.0480546626
 20
5.4773174463
 30
0.0
 10
9.0513656402
 20
5.5251784832
 30
0.0
 10
9.0568779894
 20
5.5729199557
 30
0.0
 10
9.0645829487
 20
5.6204808359
 30
0.0
 10
9.0744683082
 20
5.6678028463
 30
0.0
 10
9.0865185936
 20
5.7148282827
 30
0.0
 10
9.1007154827
 20
5.7615008403
 30
0.0
 10
9.117037781
 20
5.8077656474
 30
0.0
 10
9.1354615346
 20
5.8535694575
 30
0.0
 10
9.1559605479
 20
5.8988605933
 30
0.0
 10
9.1785064596
 20
5.9435890064
 30
0.0
 10
9.2030686893
 20
5.9877063782
 30
0.0
 10
9.2296149562
 20
6.0311660058
 30
0.0
 10
9.2581111713
 20
6.0739225017
 30
0.0
 10
9.2885221012
 20
6.1159327589
 30
0.0
 10
9.331782183
 20
6.1711621238
 30
0.0
 10
9.3905436486
 20
6.2381167866
 30
0.0
 10
9.4545343013
 20
6.3013727857
 30
0.0
 10
9.509007002
 20
6.3500353189
 30
0.0
 10
9.5662160944
 20
6.3978350331
 30
0.0
 10
9.6417247554
 20
6.4549110153
 30
0.0
 10
9.7377835944
 20
6.5185820913
 30
0.0
 10
9.8393470376
 20
6.5775438315
 30
0.0
 10
9.945979805
 20
6.6315685639
 30
0.0
 10
10.0195802591
 20
6.6639054593
 30
0.0
 10
10.0570811804
 20
6.6792151464
 30
0.0
  0
SPLINE
  5
28B
100
AcDbEntity
  8
0
100
AcDbSpline
 62
7
  6
CONTINUOUS
 70
0
 71
3
 72
11
 73
7
 74
0
 42
0.0000001
 43
0.0000001
 44
0.0000000001
 40
0.0
 40
0.0
 40
0.0
 40
0.0
 40
0.2450806329
 40
0.493771626
 40
0.7455900328
 40
1.0
 40
1.0
 40
1.0
 40
1.0
 10
10.0570811804
 20
6.6792151464
 30
0.0
 10
10.0989872632
 20
6.696323233
 30
0.0
 10
10.1844513806
 20
6.7283098837
 30
0.0
 10
10.316004362
 20
6.7692312439
 30
0.0
 10
10.4512752184
 20
6.803286455
 30
0.0
 10
10.5430854452
 20
6.8212265969
 30
0.0
 10
10.5894204147
 20
6.8290257723
 30
0.0
  0
SPLINE
  5
28C
100
AcDbEntity
  8
0
100
AcDbSpline
 62
7
  6
CONTINUOUS
 70
0
 71
3
 72
33
 73
29
 74
0
 42
0.0000001
 43
0.0000001
 44
0.0000000001
 40
0.0
 40
0.0
 40
0.0
 40
0.0
 40
0.0722832653
 40
0.1436832317
 40
0.213999908
 40
0.2830568954
 40
0.3507063259
 40
0.383971623
 40
0.4168451796
 40
0.4813739392
 40
0.5130329845
 40
0.5442832729
 40
0.5751276642
 40
0.605572038
 40
0.6356253208
 40
0.6652994895
 40
0.69460957
 40
0.7235735861
 40
0.7522124554
 40
0.7805498793
 40
0.8086121813
 40
0.8364280969
 40
0.8640285551
 40
0.8914464144
 40
0.9187161842
 40
0.9458736745
 40
0.9729557957
 40
1.0
 40
1.0
 40
1.0
 40
1.0
 10
11.5056270339
 20
6.8289565884
 30
0.0
 10
11.5592799666
 20
6.8199171092
 30
0.0
 10
11.6654151484
 20
6.7987044892
 30
0.0
 10
11.8211967103
 20
6.7573221142
 30
0.0
 10
11.9717116079
 20
6.7067974182
 30
0.0
 10
12.1159251368
 20
6.6474531415
 30
0.0
 10
12.2306892504
 20
6.5906355167
 30
0.0
 10
12.3183755594
 20
6.5410683912
 30
0.0
 10
12.4021505516
 20
6.4895026833
 30
0.0
 10
12.4819449473
 20
6.4338814627
 30
0.0
 10
12.5571682337
 20
6.3743229321
 30
0.0
 10
12.6106454465
 20
6.3282419026
 30
0.0
 10
12.6614368832
 20
6.2805428471
 30
0.0
 10
12.7094519518
 20
6.2312989544
 30
0.0
 10
12.7546017766
 20
6.180587603
 30
0.0
 10
12.796801421
 20
6.128488922
 30
0.0
 10
12.8359694111
 20
6.0750864154
 30
0.0
 10
12.8720280417
 20
6.0204670917
 30
0.0
 10
12.9049035604
 20
5.9647217456
 30
0.0
 10
12.9345265149
 20
5.9079452098
 30
0.0
 10
12.9608321719
 20
5.8502365658
 30
0.0
 10
12.9837610455
 20
5.7916992756
 30
0.0
 10
13.0032595074
 20
5.7324412358
 30
0.0
 10
13.0192804945
 20
5.6725745655
 30
0.0
 10
13.0317841838
 20
5.612215659
 30
0.0
 10
13.0407387683
 20
5.5514834494
 30
0.0
 10
13.046120952
 20
5.4905032876
 30
0.0
 10
13.0473183383
 20
5.4497511877
 30
0.0
 10
13.0473183383
 20
5.4293944618
 30
0.0
  0
SPLINE
  5
28D
100
AcDbEntity
  8
0
100
AcDbSpline
 62
7
  6
CONTINUOUS
 70
0
 71
3
 72
21
 73
17
 74
0
 42
0.0000001
 43
0.0000001
 44
0.0000000001
 40
0.0
 40
0.0
 40
0.0
 40
0.0
 40
0.0536590912
 40
0.1086636046
 40
0.1650416776
 40
0.2227991081
 40
0.3423074448
 40
0.4040159891
 40
0.4669167872
 40
0.5309208274
 40
0.5959259057
 40
0.6618184074
 40
0.7284750815
 40
0.7957649304
 40
0.8635500813
 40
1.0
 40
1.0
 40
1.0
 40
1.0
 10
10.6953467171
 20
7.0164958174
 30
0.0
 10
10.6998294391
 20
7.0111739506
 30
0.0
 10
10.7093207729
 20
7.000738665
 30
0.0
 10
10.7248290952
 20
6.9859662808
 30
0.0
 10
10.7417180087
 20
6.9719454319
 30
0.0
 10
10.7662513896
 20
6.9541387843
 30
0.0
 10
10.7930048973
 20
6.9383266681
 30
0.0
 10
10.821527905
 20
6.9245711878
 30
0.0
 10
10.8441194564
 20
6.9151651344
 30
0.0
 10
10.8675780626
 20
6.9068256963
 30
0.0
 10
10.8918052323
 20
6.8995896219
 30
0.0
 10
10.9166970774
 20
6.8934901653
 30
0.0
 10
10.9421470436
 20
6.8885554482
 30
0.0
 10
10.9680476302
 20
6.8848086925
 30
0.0
 10
11.0031023789
 20
6.881414415
 30
0.0
 10
11.0296275973
 20
6.8807114512
 30
0.0
 10
11.0473183383
 20
6.8810576983
 30
0.0
  0
SPLINE
  5
28E
100
AcDbEntity
  8
0
100
AcDbSpline
 62
7
  6
CONTINUOUS
 70
0
 71
3
 72
13
 73
9
 74
0
 42
0.0000001
 43
0.0000001
 44
0.0000000001
 40
0.0
 40
0.0
 40
0.0
 40
0.0
 40
0.2570925532
 40
0.3848583628
 40
0.5115278905
 40
0.6367220916
 40
0.7600902307
 40
1.0
 40
1.0
 40
1.0
 40
1.0
 10
11.0473183383
 20
6.8312490384
 30
0.0
 10
11.0692871164
 20
6.8316770537
 30
0.0
 10
11.1021795015
 20
6.8342028625
 30
0.0
 10
11.1453299279
 20
6.8413359193
 30
0.0
 10
11.1769929782
 20
6.8485117482
 30
0.0
 10
11.2078059214
 20
6.8574818445
 30
0.0
 10
11.2471035595
 20
6.8716222244
 30
0.0
 10
11.275294395
 20
6.884921803
 30
0.0
 10
11.2931693479
 20
6.8949674918
 30
0.0
  0
SPLINE
  5
28F
100
AcDbEntity
  8
0
100
AcDbSpline
 62
7
  6
CONTINUOUS
 70
0
 71
3
 72
21
 73
17
 74
0
 42
0.0000001
 43
0.0000001
 44
0.0000000001
 40
0.0
 40
0.0
 40
0.0
 40
0.0
 40
0.1403415595
 40
0.2087227352
 40
0.2758602902
 40
0.4063378083
 40
0.4697749254
 40
0.5320483765
 40
0.5932242536
 40
0.6533874579
 40
0.7126413198
 40
0.771106636
 40
0.8289199349
 40
0.8862313352
 40
0.9432018405
 40
1.0
 40
1.0
 40
1.0
 40
1.0
 10
11.2931693479
 20
6.8949674918
 30
0.0
 10
11.3053696025
 20
6.9018240113
 30
0.0
 10
11.3230375813
 20
6.9129179341
 30
0.0
 10
11.345093678
 20
6.9293763836
 30
0.0
 10
11.3654535994
 20
6.9463940194
 30
0.0
 10
11.3839873968
 20
6.9647794972
 30
0.0
 10
11.4003684871
 20
6.9844017147
 30
0.0
 10
11.4113747025
 20
6.9994582698
 30
0.0
 10
11.4211757144
 20
7.014940719
 30
0.0
 10
11.4297390983
 20
7.030800228
 30
0.0
 10
11.4370355547
 20
7.04698573
 30
0.0
 10
11.4430401407
 20
7.0634451416
 30
0.0
 10
11.4477321799
 20
7.0801250455
 30
0.0
 10
11.4510954105
 20
7.0969715755
 30
0.0
 10
11.4531180911
 20
7.1139283296
 30
0.0
 10
11.4535683383
 20
7.1252785054
 30
0.0
 10
11.4535683383
 20
7.1309424461
 30
0.0
  0
SPLINE
  5
290
100
AcDbEntity
  8
0
100
AcDbSpline
 62
7
  6
CONTINUOUS
 70
0
 71
3
 72
25
 73
21
 74
0
 42
0.0000001
 43
0.0000001
 44
0.0000000001
 40
0.0
 40
0.0
 40
0.0
 40
0.0
 40
0.1414323497
 40
0.2115974565
 40
0.2810030942
 40
0.3493956254
 40
0.4165463558
 40
0.482257826
 40
0.5463705492
 40
0.6087696197
 40
0.6693912006
 40
0.728228786
 40
0.7853383064
 40
0.8408421206
 40
0.868059144
 40
0.8949513879
 40
0.9215526306
 40
0.9479002742
 40
0.9740349191
 40
1.0
 40
1.0
 40
1.0
 40
1.0
 10
11.0473183383
 20
6.8810576983
 30
0.0
 10
11.0718786889
 20
6.881538399
 30
0.0
 10
11.1086376093
 20
6.8846115392
 30
0.0
 10
11.1566689791
 20
6.8934117594
 30
0.0
 10
11.1917158156
 20
6.9022748661
 30
0.0
 10
11.2255759466
 20
6.9133495863
 30
0.0
 10
11.2579751973
 20
6.9265523983
 30
0.0
 10
11.2886469524
 20
6.9417821576
 30
0.0
 10
11.3173396766
 20
6.9589217611
 30
0.0
 10
11.343817473
 20
6.9778389307
 30
0.0
 10
11.3678619437
 20
6.9983871131
 30
0.0
 10
11.3892739576
 20
7.0204076948
 30
0.0
 10
11.4078730912
 20
7.0437269922
 30
0.0
 10
11.4209856602
 20
7.0642309437
 30
0.0
 10
11.4298778024
 20
7.081074761
 30
0.0
 10
11.4357147633
 20
7.0938289237
 30
0.0
 10
11.4407490906
 20
7.1067586399
 30
0.0
 10
11.4449705834
 20
7.1198383877
 30
0.0
 10
11.4483699169
 20
7.1330410641
 30
0.0
 10
11.4500881777
 20
7.1419323878
 30
0.0
 10
11.4508063128
 20
7.1463846576
 30
0.0
  0
SPLINE
  5
291
100
AcDbEntity
  8
0
100
AcDbSpline
 62
7
  6
CONTINUOUS
 70
0
 71
3
 72
25
 73
21
 74
0
 42
0.0000001
 43
0.0000001
 44
0.0000000001
 40
0.0
 40
0.0
 40
0.0
 40
0.0
 40
0.1415160536
 40
0.2117179709
 40
0.2811541478
 40
0.3495692673
 40
0.4167333552
 40
0.4824481358
 40
0.5465539752
 40
0.6089364533
 40
0.6695330951
 40
0.7283395698
 40
0.7854149462
 40
0.8408855878
 40
0.8680879622
 40
0.8949676387
 40
0.9215590524
 40
0.947900272
 40
0.9740325632
 40
1.0
 40
1.0
 40
1.0
 40
1.0
 10
11.0473183383
 20
6.9307051892
 30
0.0
 10
11.0719719794
 20
6.9311863627
 30
0.0
 10
11.1088701542
 20
6.9342786593
 30
0.0
 10
11.1570761101
 20
6.9431412583
 30
0.0
 10
11.1922426983
 20
6.9520681674
 30
0.0
 10
11.2262091808
 20
6.9632229114
 30
0.0
 10
11.2586984354
 20
6.9765206868
 30
0.0
 10
11.2894410754
 20
6.991858828
 30
0.0
 10
11.3181830553
 20
7.0091184871
 30
0.0
 10
11.344686275
 20
7.0281654278
 30
0.0
 10
11.3687304196
 20
7.0488509752
 30
0.0
 10
11.3901147688
 20
7.0710142573
 30
0.0
 10
11.4086576619
 20
7.0944791019
 30
0.0
 10
11.4216981531
 20
7.1151051164
 30
0.0
 10
11.4305172099
 20
7.1320443809
 30
0.0
 10
11.436292495
 20
7.1448689079
 30
0.0
 10
11.4412577453
 20
7.1578676234
 30
0.0
 10
11.4454028492
 20
7.1710146513
 30
0.0
 10
11.4487186198
 20
7.1842825212
 30
0.0
 10
11.4503760596
 20
7.193214961
 30
0.0
 10
11.4510627063
 20
7.1976872286
 30
0.0
  0
SPLINE
  5
292
100
AcDbEntity
  8
0
100
AcDbSpline
 62
7
  6
CONTINUOUS
 70
0
 71
3
 72
18
 73
14
 74
0
 42
0.0000001
 43
0.0000001
 44
0.0000000001
 40
0.0
 40
0.0
 40
0.0
 40
0.0
 40
0.1411614669
 40
0.2778244513
 40
0.4096312974
 40
0.5364362012
 40
0.658340457
 40
0.7175926707
 40
0.7757835238
 40
0.8330038626
 40
0.8893616449
 40
0.9449808938
 40
1.0
 40
1.0
 40
1.0
 40
1.0
 10
11.2201279562
 20
6.44947808
 30
0.0
 10
11.231117628
 20
6.4539645948
 30
0.0
 10
11.2523691843
 20
6.4637628428
 30
0.0
 10
11.2821750127
 20
6.4811359749
 30
0.0
 10
11.3090788059
 20
6.5007634698
 30
0.0
 10
11.3327392663
 20
6.5224053768
 30
0.0
 10
11.3496700886
 20
6.5420987947
 30
0.0
 10
11.3612403767
 20
6.5585827443
 30
0.0
 10
11.3688576867
 20
6.5711542905
 30
0.0
 10
11.3754698748
 20
6.5840093424
 30
0.0
 10
11.3810561092
 20
6.5971085162
 30
0.0
 10
11.385597962
 20
6.610409556
 30
0.0
 10
11.3879309101
 20
6.6194269871
 30
0.0
 10
11.3889149175
 20
6.6239476639
 30
0.0
  0
SPLINE
  5
293
100
AcDbEntity
  8
0
100
AcDbSpline
 62
7
  6
CONTINUOUS
 70
0
 71
3
 72
35
 73
31
 74
0
 42
0.0000001
 43
0.0000001
 44
0.0000000001
 40
0.0
 40
0.0
 40
0.0
 40
0.0
 40
0.0667174562
 40
0.1007491819
 40
0.1351402563
 40
0.2047095941
 40
0.239764353
 40
0.2748942131
 40
0.3450599545
 40
0.3799653357
 40
0.414648662
 40
0.483051121
 40
0.5166608016
 40
0.5497904866
 40
0.5823881359
 40
0.6144084719
 40
0.6458138622
 40
0.6765752934
 40
0.7066732392
 40
0.7360986257
 40
0.7648536267
 40
0.7929524711
 40
0.8204220165
 40
0.8473021403
 40
0.8736458139
 40
0.8995187289
 40
0.9249984979
 40
0.9501732076
 40
0.9751394939
 40
1.0
 40
1.0
 40
1.0
 40
1.0
 10
11.2785683383
 20
6.2860283416
 30
0.0
 10
11.2608348157
 20
6.2787886613
 30
0.0
 10
11.233446193
 20
6.2692827742
 30
0.0
 10
11.1959399955
 20
6.2593127019
 30
0.0
 10
11.1571888443
 20
6.2510098049
 30
0.0
 10
11.1175942071
 20
6.2454650687
 30
0.0
 10
11.0775565736
 20
6.242679722
 30
0.0
 10
11.0372614742
 20
6.2417479218
 30
0.0
 10
10.9969845465
 20
6.2436065987
 30
0.0
 10
10.9571193228
 20
6.2482556174
 30
0.0
 10
10.9180178547
 20
6.2546953003
 30
0.0
 10
10.8797750429
 20
6.2638334222
 30
0.0
 10
10.8428097807
 20
6.2756626694
 30
0.0
 10
10.8161155807
 20
6.2857397309
 30
0.0
 10
10.790408879
 20
6.2970291074
 30
0.0
 10
10.7657983519
 20
6.3094833053
 30
0.0
 10
10.7423893271
 20
6.3230495264
 30
0.0
 10
10.7202817296
 20
6.3376704273
 30
0.0
 10
10.6995701126
 20
6.3532842447
 30
0.0
 10
10.6803431932
 20
6.3698250706
 30
0.0
 10
10.662683548
 20
6.3872231166
 30
0.0
 10
10.6466673117
 20
6.4054049578
 30
0.0
 10
10.6323638984
 20
6.424293779
 30
0.0
 10
10.6198357328
 20
6.443809602
 30
0.0
 10
10.609137977
 20
6.4638694763
 30
0.0
 10
10.6003182255
 20
6.4843877761
 30
0.0
 10
10.5934161786
 20
6.5052761419
 30
0.0
 10
10.588463271
 20
6.5264448541
 30
0.0
 10
10.5854822872
 20
6.5477993049
 30
0.0
 10
10.5848183785
 20
6.5621132119
 30
0.0
 10
10.5848183588
 20
6.5692505931
 30
0.0
  0
SPLINE
  5
294
100
AcDbEntity
  8
0
100
AcDbSpline
 62
7
  6
CONTINUOUS
 70
0
 71
3
 72
36
 73
32
 74
0
 42
0.0000001
 43
0.0000001
 44
0.0000000001
 40
0.0
 40
0.0
 40
0.0
 40
0.0
 40
0.066716049
 40
0.1007471443
 40
0.135137491
 40
0.2047054172
 40
0.2397594622
 40
0.2748886088
 40
0.3450529233
 40
0.3799575916
 40
0.414640215
 40
0.4490305591
 40
0.4830616554
 40
0.5166706545
 40
0.5497996604
 40
0.5823966513
 40
0.6144163274
 40
0.6458210846
 40
0.6765818803
 40
0.7066792184
 40
0.7361039983
 40
0.7648584159
 40
0.7929566854
 40
0.8204256693
 40
0.8473052488
 40
0.8736483809
 40
0.899520775
 40
0.9250000192
 40
0.9501742225
 40
0.9751399954
 40
1.0
 40
1.0
 40
1.0
 40
1.0
 10
11.3348183383
 20
5.5665982039
 30
0.0
 10
11.3127712715
 20
5.5575975266
 30
0.0
 10
11.2787205428
 20
5.5457794046
 30
0.0
 10
11.2320912258
 20
5.5333841568
 30
0.0
 10
11.1839140993
 20
5.5230616434
 30
0.0
 10
11.1346883527
 20
5.5161681747
 30
0.0
 10
11.0849118075
 20
5.5127053127
 30
0.0
 10
11.0348152916
 20
5.5115468377
 30
0.0
 10
10.9847406774
 20
5.5138577228
 30
0.0
 10
10.9351798841
 20
5.5196373517
 30
0.0
 10
10.8985449193
 20
5.5256708349
 30
0.0
 10
10.8625460318
 20
5.5333839346
 30
0.0
 10
10.8273354576
 20
5.5427440372
 30
0.0
 10
10.793063811
 20
5.5537113442
 30
0.0
 10
10.7598772252
 20
5.5662393199
 30
0.0
 10
10.7279173346
 20
5.5802748316
 30
0.0
 10
10.6973205174
 20
5.5957584157
 30
0.0
 10
10.6682173946
 20
5.6126245336
 30
0.0
 10
10.6407322778
 20
5.6308018732
 30
0.0
 10
10.6149827028
 20
5.6502136467
 30
0.0
 10
10.5910789668
 20
5.6707779197
 30
0.0
 10
10.5691237346
 20
5.6924079228
 30
0.0
 10
10.5492116576
 20
5.7150123747
 30
0.0
 10
10.5314290348
 20
5.7384957735
 30
0.0
 10
10.5158534761
 20
5.762758687
 30
0.0
 10
10.5025535593
 20
5.7876979904
 30
0.0
 10
10.49158846
 20
5.8132072261
 30
0.0
 10
10.4830075318
 20
5.839176547
 30
0.0
 10
10.4768498562
 20
5.865494404
 30
0.0
 10
10.4731437771
 20
5.8920431828
 30
0.0
 10
10.4723183386
 20
5.9098388515
 30
0.0
 10
10.4723183383
 20
5.9187123544
 30
0.0
  0
SPLINE
  5
295
100
AcDbEntity
  8
0
100
AcDbSpline
 62
7
  6
CONTINUOUS
 70
0
 71
3
 72
21
 73
17
 74
0
 42
0.0000001
 43
0.0000001
 44
0.0000000001
 40
0.0
 40
0.0
 40
0.0
 40
0.0
 40
0.1361645327
 40
0.2683648624
 40
0.3330631592
 40
0.3968659944
 40
0.4598217809
 40
0.5219871145
 40
0.5834264052
 40
0.6442114571
 40
0.704421208
 40
0.7641409257
 40
0.8234614231
 40
0.8824782549
 40
0.9412905726
 40
1.0
 40
1.0
 40
1.0
 40
1.0
 10
11.497752083
 20
6.8361123601
 30
0.0
 10
11.5075910477
 20
6.8273441029
 30
0.0
 10
11.5262658552
 20
6.8092360622
 30
0.0
 10
11.5473130523
 20
6.7847529637
 30
0.0
 10
11.5623349918
 20
6.7644680854
 30
0.0
 10
11.5726175182
 20
6.7490423712
 30
0.0
 10
11.5819769396
 20
6.7333243691
 30
0.0
 10
11.5903968981
 20
6.7173414016
 30
0.0
 10
11.5978623531
 20
6.7011216213
 30
0.0
 10
11.6043597966
 20
6.6846934597
 30
0.0
 10
11.6098776797
 20
6.6680859219
 30
0.0
 10
11.6144060455
 20
6.6513282797
 30
0.0
 10
11.6179365792
 20
6.6344501869
 30
0.0
 10
11.6204630476
 20
6.6174813518
 30
0.0
 10
11.6219807723
 20
6.6004526229
 30
0.0
 10
11.62231831
 20
6.5890750816
 30
0.0
 10
11.6223183108
 20
6.5833927287
 30
0.0
  0
SPLINE
  5
296
100
AcDbEntity
  8
0
100
AcDbSpline
 62
7
  6
CONTINUOUS
 70
0
 71
3
 72
11
 73
7
 74
0
 42
0.0000001
 43
0.0000001
 44
0.0000000001
 40
0.0
 40
0.0
 40
0.0
 40
0.0
 40
0.2451034817
 40
0.4928816656
 40
0.7442437885
 40
1.0
 40
1.0
 40
1.0
 40
1.0
 10
10.5874543726
 20
6.5687619352
 30
0.0
 10
10.5885442435
 20
6.5759490321
 30
0.0
 10
10.5914086281
 20
6.5903081991
 30
0.0
 10
10.5976817767
 20
6.6115004343
 30
0.0
 10
10.6059201285
 20
6.6323479161
 30
0.0
 10
10.6126349957
 20
6.6458290658
 30
0.0
 10
10.6162915772
 20
6.652474717
 30
0.0
  0
SPLINE
  5
297
100
AcDbEntity
  8
0
100
AcDbSpline
 62
7
  6
CONTINUOUS
 70
0
 71
3
 72
9
 73
5
 74
0
 42
0.0000001
 43
0.0000001
 44
0.0000000001
 40
0.0
 40
0.0
 40
0.0
 40
0.0
 40
0.4938758788
 40
1.0
 40
1.0
 40
1.0
 40
1.0
 10
10.6162915772
 20
6.652474717
 30
0.0
 10
10.62051929
 20
6.6601583704
 30
0.0
 10
10.629819781
 20
6.6753184951
 30
0.0
 10
10.6404323932
 20
6.6895866018
 30
0.0
 10
10.6460930035
 20
6.6965674153
 30
0.0
  0
SPLINE
  5
298
100
AcDbEntity
  8
0
100
AcDbSpline
 62
9
  6
CONTINUOUS
 70
0
 71
3
 72
39
 73
35
 74
0
 42
0.0000001
 43
0.0000001
 44
0.0000000001
 40
0.0
 40
0.0
 40
0.0
 40
0.0
 40
0.0362641412
 40
0.0718914157
 40
0.1068384081
 40
0.1410712228
 40
0.1745665337
 40
0.2073126186
 40
0.2393103258
 40
0.2705739466
 40
0.3011319249
 40
0.3310273252
 40
0.3603179504
 40
0.3890759985
 40
0.4173871717
 40
0.4453491585
 40
0.4730694651
 40
0.500662634
 40
0.5282469918
 40
0.5559411299
 40
0.5838603658
 40
0.6121134334
 40
0.6407996269
 40
0.6700065354
 40
0.699808428
 40
0.730265271
 40
0.7614223096
 40
0.7933101293
 40
0.8259450775
 40
0.8593299467
 40
0.893454804
 40
0.9282980375
 40
0.9638269452
 40
1.0
 40
1.0
 40
1.0
 40
1.0
 10
11.6224297062
 20
6.2064305253
 30
0.0
 10
11.6445749338
 20
6.1975918146
 30
0.0
 10
11.6880269678
 20
6.1789149073
 30
0.0
 10
11.7509841856
 20
6.1476753532
 30
0.0
 10
11.8109123965
 20
6.1135762106
 30
0.0
 10
11.8675508836
 20
6.0767639217
 30
0.0
 10
11.9206558377
 20
6.0373951725
 30
0.0
 10
11.9699975801
 20
5.9956377656
 30
0.0
 10
12.0153623538
 20
5.9516694996
 30
0.0
 10
12.0565528435
 20
5.9056776221
 30
0.0
 10
12.0933889523
 20
5.8578581717
 30
0.0
 10
12.1257085142
 20
5.8084154286
 30
0.0
 10
12.1533680439
 20
5.7575613743
 30
0.0
 10
12.1762434357
 20
5.7055151007
 30
0.0
 10
12.1942308332
 20
5.6525022213
 30
0.0
 10
12.2072475531
 20
5.5987541134
 30
0.0
 10
12.2152331459
 20
5.5445069453
 30
0.0
 10
12.218150231
 20
5.4900003529
 30
0.0
 10
12.2159850779
 20
5.4354758585
 30
0.0
 10
12.2087478646
 20
5.3811751189
 30
0.0
 10
12.1964724925
 20
5.3273381625
 30
0.0
 10
12.1792161045
 20
5.2742017477
 30
0.0
 10
12.1570581359
 20
5.2219980318
 30
0.0
 10
12.130099356
 20
5.1709535367
 30
0.0
 10
12.0984609085
 20
5.121288373
 30
0.0
 10
12.0622834801
 20
5.0732156029
 30
0.0
 10
12.0217265451
 20
5.026940661
 30
0.0
 10
11.9769675729
 20
4.9826608542
 30
0.0
 10
11.9282013658
 20
4.9405647742
 30
0.0
 10
11.8756392727
 20
4.900831682
 30
0.0
 10
11.8195087067
 20
4.8636308418
 30
0.0
 10
11.760051435
 20
4.8291207169
 30
0.0
 10
11.6975260746
 20
4.7974492948
 30
0.0
 10
11.6543380983
 20
4.778476784
 30
0.0
 10
11.6323183383
 20
4.7694872546
 30
0.0
  0
SPLINE
  5
299
100
AcDbEntity
  8
0
100
AcDbSpline
 62
9
  6
CONTINUOUS
 70
0
 71
3
 72
57
 73
53
 74
0
 42
0.0000001
 43
0.0000001
 44
0.0000000001
 40
0.0
 40
0.0
 40
0.0
 40
0.0
 40
0.0335627688
 40
0.0500059562
 40
0.0662074871
 40
0.0821591367
 40
0.0978548929
 40
0.1284566176
 40
0.1433713585
 40
0.1580296636
 40
0.172437945
 40
0.1866054252
 40
0.2005441831
 40
0.2142691571
 40
0.2277980989
 40
0.2411514684
 40
0.2543522638
 40
0.2674257812
 40
0.2803993022
 40
0.293301715
 40
0.3061630761
 40
0.3190141261
 40
0.3318857789
 40
0.3448086029
 40
0.3578123169
 40
0.3709253197
 40
0.38417427
 40
0.3975837291
 40
0.4111758722
 40
0.4249702723
 40
0.4389837517
 40
0.453230298
 40
0.4677210351
 40
0.4824642425
 40
0.5127178543
 40
0.5282407407
 40
0.5440223317
 40
0.5763333508
 40
0.5928550275
 40
0.609604637
 40
0.6437299566
 40
0.6785993221
 40
0.7140751814
 40
0.750004137
 40
0.7862213857
 40
0.8225550492
 40
0.858830427
 40
0.8948742259
 40
0.9305188122
 40
0.9481446359
 40
0.965612546
 40
1.0
 40
1.0
 40
1.0
 40
1.0
 10
10.4623183383
 20
6.2024387541
 30
0.0
 10
10.4295890741
 20
6.1890770879
 30
0.0
 10
10.3815699691
 20
6.1672464358
 30
0.0
 10
10.3200176008
 20
6.134435327
 30
0.0
 10
10.2759099385
 20
6.1084293292
 30
0.0
 10
10.2336568807
 20
6.080922718
 30
0.0
 10
10.1803881678
 20
6.042666144
 30
0.0
 10
10.1306955963
 20
6.0013912898
 30
0.0
 10
10.0851625712
 20
5.9572675813
 30
0.0
 10
10.0536137942
 20
5.9233137971
 30
0.0
 10
10.0244573105
 20
5.8883033654
 30
0.0
 10
9.9977626829
 20
5.8523189382
 30
0.0
 10
9.9735952785
 20
5.8154469638
 30
0.0
 10
9.9520141156
 20
5.7777757896
 30
0.0
 10
9.9330722248
 20
5.7393959512
 30
0.0
 10
9.9168163497
 20
5.7003998827
 30
0.0
 10
9.9032868171
 20
5.6608817641
 30
0.0
 10
9.8925173612
 20
5.6209373099
 30
0.0
 10
9.8845349661
 20
5.5806635423
 30
0.0
 10
9.8793597176
 20
5.5401585327
 30
0.0
 10
9.8770046817
 20
5.4995211124
 30
0.0
 10
9.877475819
 20
5.4588505581
 30
0.0
 10
9.880771936
 20
5.4182462591
 30
0.0
 10
9.8868846965
 20
5.3778073798
 30
0.0
 10
9.8957986833
 20
5.3376325322
 30
0.0
 10
9.9074914957
 20
5.2978194686
 30
0.0
 10
9.9219338828
 20
5.2584648024
 30
0.0
 10
9.9390898931
 20
5.2196637616
 30
0.0
 10
9.9589170476
 20
5.181509961
 30
0.0
 10
9.9813664698
 20
5.1440952389
 30
0.0
 10
10.006383187
 20
5.1075093542
 30
0.0
 10
10.0339057713
 20
5.0718402924
 30
0.0
 10
10.0638684939
 20
5.0371722872
 30
0.0
 10
10.1073397529
 20
4.9920141952
 30
0.0
 10
10.1551032151
 20
4.9496065759
 30
0.0
 10
10.2065702608
 20
4.9101410928
 30
0.0
 10
10.2616080086
 20
4.8718853941
 30
0.0
 10
10.3201052272
 20
4.8368976195
 30
0.0
 10
10.3815270915
 20
4.8052570613
 30
0.0
 10
10.4459426677
 20
4.7753796979
 30
0.0
 10
10.5301253667
 20
4.7423890851
 30
0.0
 10
10.6354521994
 20
4.7101866866
 30
0.0
 10
10.7447193585
 20
4.6854240499
 30
0.0
 10
10.8568782454
 20
4.6683373151
 30
0.0
 10
10.9708581401
 20
4.6590879476
 30
0.0
 10
11.0855687793
 20
4.6577637935
 30
0.0
 10
11.1999145262
 20
4.6643775949
 30
0.0
 10
11.3127983712
 20
4.678865821
 30
0.0
 10
11.4051077517
 20
4.6974587784
 30
0.0
 10
11.4772449437
 20
4.7161701728
 30
0.0
 10
11.5473635496
 20
4.737170364
 30
0.0
 10
11.5987848694
 20
4.7557972732
 30
0.0
 10
11.6323183383
 20
4.7694872546
 30
0.0
  0
SPLINE
  5
29A
100
AcDbEntity
  8
0
100
AcDbSpline
 62
9
  6
CONTINUOUS
 70
0
 71
3
 72
30
 73
26
 74
0
 42
0.0000001
 43
0.0000001
 44
0.0000000001
 40
0.0
 40
0.0
 40
0.0
 40
0.0
 40
0.0723989062
 40
0.1435151183
 40
0.2132658491
 40
0.2815863135
 40
0.3484332108
 40
0.4137863479
 40
0.4776505861
 40
0.5400575135
 40
0.6010667748
 40
0.6310795722
 40
0.6607786272
 40
0.6901795567
 40
0.7192997519
 40
0.7481583192
 40
0.7767760318
 40
0.8051752397
 40
0.8333797486
 40
0.8614147043
 40
0.8893064493
 40
0.9170823452
 40
0.9447705949
 40
0.9724000508
 40
1.0
 40
1.0
 40
1.0
 40
1.0
 10
12.0473183383
 20
3.6077928942
 30
0.0
 10
12.0847864199
 20
3.6230891744
 30
0.0
 10
12.1582804592
 20
3.655364626
 30
0.0
 10
12.2647016181
 20
3.709219586
 30
0.0
 10
12.3659304455
 20
3.7678845169
 30
0.0
 10
12.4615306584
 20
3.8311100078
 30
0.0
 10
12.5510945004
 20
3.8986292569
 30
0.0
 10
12.634237791
 20
3.9701569892
 30
0.0
 10
12.7106042164
 20
4.0453924504
 30
0.0
 10
12.7798621644
 20
4.1240142431
 30
0.0
 10
12.8316914892
 20
4.1924603378
 30
0.0
 10
12.8692289446
 20
4.2485557121
 30
0.0
 10
12.8952809171
 20
4.2910292766
 30
0.0
 10
12.9193536693
 20
4.3340840577
 30
0.0
 10
12.9414217597
 20
4.377674619
 30
0.0
 10
12.9614610813
 20
4.4217541719
 30
0.0
 10
12.9794499717
 20
4.4662755222
 30
0.0
 10
12.9953689724
 20
4.5111908937
 30
0.0
 10
13.0092007063
 20
4.5564521192
 30
0.0
 10
13.020930086
 20
4.6020105788
 30
0.0
 10
13.0305444242
 20
4.6478172994
 30
0.0
 10
13.0380331773
 20
4.693822924
 30
0.0
 10
13.0433880873
 20
4.7399782844
 30
0.0
 10
13.0466034104
 20
4.7862323492
 30
0.0
 10
13.0473183383
 20
4.8171097123
 30
0.0
 10
13.0473183383
 20
4.8325377656
 30
0.0
  0
SPLINE
  5
29B
100
AcDbEntity
  8
0
100
AcDbSpline
 62
7
  6
CONTINUOUS
 70
0
 71
3
 72
15
 73
11
 74
0
 42
0.0000001
 43
0.0000001
 44
0.0000000001
 40
0.0
 40
0.0
 40
0.0
 40
0.0
 40
0.1209725787
 40
0.2423558181
 40
0.3645506621
 40
0.4879392791
 40
0.6128768323
 40
0.7396848104
 40
0.8686458377
 40
1.0
 40
1.0
 40
1.0
 40
1.0
 10
10.5848183588
 20
6.5692505931
 30
0.0
 10
10.5848183412
 20
6.5756209955
 30
0.0
 10
10.5853467927
 20
6.5883896729
 30
0.0
 10
10.5877204141
 20
6.6074602357
 30
0.0
 10
10.5916668557
 20
6.6263992754
 30
0.0
 10
10.5971718139
 20
6.6451395143
 30
0.0
 10
10.6042154557
 20
6.6636167412
 30
0.0
 10
10.6127728387
 20
6.6817677024
 30
0.0
 10
10.6228129627
 20
6.6995294424
 30
0.0
 10
10.6303996675
 20
6.7109626122
 30
0.0
 10
10.6344179404
 20
6.7165928602
 30
0.0
  0
SPLINE
  5
29C
100
AcDbEntity
  8
0
100
AcDbSpline
 62
9
  6
CONTINUOUS
 70
0
 71
3
 72
11
 73
7
 74
0
 42
0.0000001
 43
0.0000001
 44
0.0000000001
 40
0.0
 40
0.0
 40
0.0
 40
0.0
 40
0.2450434484
 40
0.4936935034
 40
0.7455073641
 40
1.0
 40
1.0
 40
1.0
 40
1.0
 10
10.0873183383
 20
6.6617180809
 30
0.0
 10
10.12456151
 20
6.6769225421
 30
0.0
 10
10.2004414767
 20
6.7055242427
 30
0.0
 10
10.3171061563
 20
6.7426745742
 30
0.0
 10
10.4370044718
 20
6.7742517901
 30
0.0
 10
10.5183700797
 20
6.7914164291
 30
0.0
 10
10.5594457299
 20
6.7990472011
 30
0.0
  0
SPLINE
  5
29D
100
AcDbEntity
  8
0
100
AcDbSpline
 62
9
  6
CONTINUOUS
 70
0
 71
3
 72
53
 73
49
 74
0
 42
0.0000001
 43
0.0000001
 44
0.0000000001
 40
0.0
 40
0.0
 40
0.0
 40
0.0
 40
0.0378903429
 40
0.0753972228
 40
0.1124529079
 40
0.1489948158
 40
0.1849664282
 40
0.2203182112
 40
0.255008577
 40
0.2890048481
 40
0.322284206
 40
0.3548346522
 40
0.3866559096
 40
0.417760222
 40
0.4481730424
 40
0.4779334909
 40
0.4925879734
 40
0.5071003756
 40
0.5214794305
 40
0.5357346816
 40
0.5498764489
 40
0.563915774
 40
0.5778643747
 40
0.5917345828
 40
0.6055392646
 40
0.6192917461
 40
0.6330057255
 40
0.6466951755
 40
0.6603742461
 40
0.6740571637
 40
0.6877581269
 40
0.7014912024
 40
0.7152702252
 40
0.7291087046
 40
0.7430197297
 40
0.7570158845
 40
0.7711091788
 40
0.785310974
 40
0.7996319236
 40
0.8140819349
 40
0.8286701194
 40
0.8434047613
 40
0.8733369121
 40
0.9039333709
 40
0.9194947318
 40
0.9352342884
 40
0.9672519864
 40
1.0
 40
1.0
 40
1.0
 40
1.0
 10
11.5349189337
 20
6.7990977332
 30
0.0
 10
11.5746805082
 20
6.791715462
 30
0.0
 10
11.6534700153
 20
6.7751668759
 30
0.0
 10
11.7696552224
 20
6.744879627
 30
0.0
 10
11.8828465823
 20
6.7093611125
 30
0.0
 10
11.9925712023
 20
6.6687585021
 30
0.0
 10
12.0983749292
 20
6.6232391355
 30
0.0
 10
12.1998186266
 20
6.5729905041
 30
0.0
 10
12.2964814407
 20
6.5182194022
 30
0.0
 10
12.3879621215
 20
6.4591511122
 30
0.0
 10
12.4738804842
 20
6.3960282257
 30
0.0
 10
12.5538789982
 20
6.3291097566
 30
0.0
 10
12.6276238725
 20
6.2586706204
 30
0.0
 10
12.6948069761
 20
6.1849987014
 30
0.0
 10
12.7551436882
 20
6.1084003213
 30
0.0
 10
12.7997405534
 20
6.0420416217
 30
0.0
 10
12.8316721127
 20
5.9878399029
 30
0.0
 10
12.8536437096
 20
5.9468688429
 30
0.0
 10
12.8737346815
 20
5.9054168419
 30
0.0
 10
12.8919243694
 20
5.8635264004
 30
0.0
 10
12.9081935838
 20
5.8212413625
 30
0.0
 10
12.9225250955
 20
5.7786057208
 30
0.0
 10
12.9349037414
 20
5.7356639725
 30
0.0
 10
12.9453165353
 20
5.6924609799
 30
0.0
 10
12.9537523409
 20
5.64904186
 30
0.0
 10
12.9602021982
 20
5.6054520204
 30
0.0
 10
12.9646593741
 20
5.5617370831
 30
0.0
 10
12.9671190262
 20
5.5179427928
 30
0.0
 10
12.9675785279
 20
5.4741150137
 30
0.0
 10
12.9660375087
 20
5.4302996417
 30
0.0
 10
12.9624975008
 20
5.386542559
 30
0.0
 10
12.9569622554
 20
5.3428895856
 30
0.0
 10
12.9494377696
 20
5.2993863883
 30
0.0
 10
12.9399319254
 20
5.2560784838
 30
0.0
 10
12.9284547893
 20
5.2130111518
 30
0.0
 10
12.9150186272
 20
5.1702293444
 30
0.0
 10
12.8996375455
 20
5.1277777359
 30
0.0
 10
12.8823277815
 20
5.0857006178
 30
0.0
 10
12.8631076598
 20
5.044041746
 30
0.0
 10
12.8419974397
 20
5.0028446838
 30
0.0
 10
12.8190188576
 20
4.9621517264
 30
0.0
 10
12.7857520718
 20
4.9083475528
 30
0.0
 10
12.7395243938
 20
4.842549259
 30
0.0
 10
12.6879681249
 20
4.7797032599
 30
0.0
 10
12.6434044346
 20
4.7309172752
 30
0.0
 10
12.5961059775
 20
4.682629172
 30
0.0
 10
12.5328583273
 20
4.6243685672
 30
0.0
 10
12.4790360603
 20
4.5809073132
 30
0.0
 10
12.4511798348
 20
4.5597953968
 30
0.0
  0
SPLINE
  5
29E
100
AcDbEntity
  8
0
100
AcDbSpline
 62
9
  6
CONTINUOUS
 70
0
 71
3
 72
11
 73
7
 74
0
 42
0.0000001
 43
0.0000001
 44
0.0000000001
 40
0.0
 40
0.0
 40
0.0
 40
0.0
 40
0.2414974792
 40
0.4888562094
 40
0.7418116856
 40
1.0
 40
1.0
 40
1.0
 40
1.0
 10
12.4511798348
 20
4.5597953968
 30
0.0
 10
12.4184237926
 20
4.534969965
 30
0.0
 10
12.3502770547
 20
4.4871014784
 30
0.0
 10
12.242198542
 20
4.4216774947
 30
0.0
 10
12.1275871377
 20
4.3620932128
 30
0.0
 10
12.0480000185
 20
4.3268161542
 30
0.0
 10
12.0073183383
 20
4.3102079278
 30
0.0
  0
SPLINE
  5
29F
100
AcDbEntity
  8
0
100
AcDbSpline
 62
9
  6
CONTINUOUS
 70
0
 71
3
 72
39
 73
35
 74
0
 42
0.0000001
 43
0.0000001
 44
0.0000000001
 40
0.0
 40
0.0
 40
0.0
 40
0.0
 40
0.0733865006
 40
0.1092233317
 40
0.1444445944
 40
0.1790300161
 40
0.2129663473
 40
0.2462480079
 40
0.2788775842
 40
0.3108662953
 40
0.3422343742
 40
0.3730113341
 40
0.4032360844
 40
0.4181584247
 40
0.4329615726
 40
0.4622355843
 40
0.4911284769
 40
0.5197134024
 40
0.5480698326
 40
0.5762820789
 40
0.6044375746
 40
0.6326249976
 40
0.6609323243
 40
0.6894449233
 40
0.7182437841
 40
0.7474039646
 40
0.7769933117
 40
0.8070714831
 40
0.8376892721
 40
0.8688882182
 40
0.9007004655
 40
0.9331488278
 40
0.9662470179
 40
1.0
 40
1.0
 40
1.0
 40
1.0
 10
10.0873183383
 20
6.6617180809
 30
0.0
 10
10.0259733653
 20
6.6366741006
 30
0.0
 10
9.9362520492
 20
6.5952834642
 30
0.0
 10
9.8220824715
 20
6.5321642495
 30
0.0
 10
9.7409715994
 20
6.4818888201
 30
0.0
 10
9.6639759205
 20
6.428470868
 30
0.0
 10
9.5913342565
 20
6.3720751497
 30
0.0
 10
9.5232770046
 20
6.3128782616
 30
0.0
 10
9.4600191144
 20
6.2510647843
 30
0.0
 10
9.4017612946
 20
6.1868279028
 30
0.0
 10
9.3486884748
 20
6.120367574
 30
0.0
 10
9.3009714051
 20
6.05189408
 30
0.0
 10
9.2656443838
 20
5.9930771328
 30
0.0
 10
9.2402588799
 20
5.9452589628
 30
0.0
 10
9.2169687788
 20
5.8973391649
 30
0.0
 10
9.191392523
 20
5.8365523831
 30
0.0
 10
9.1664550504
 20
5.7622236006
 30
0.0
 10
9.1474632021
 20
5.6870078378
 30
0.0
 10
9.1344812252
 20
5.6111473363
 30
0.0
 10
9.1275522544
 20
5.5348845409
 30
0.0
 10
9.1266996521
 20
5.458464512
 30
0.0
 10
9.1319262635
 20
5.3821328797
 30
0.0
 10
9.1432145134
 20
5.3061348948
 30
0.0
 10
9.160526591
 20
5.2307142087
 30
0.0
 10
9.1838048296
 20
5.1561118273
 30
0.0
 10
9.2129722171
 20
5.0825651738
 30
0.0
 10
9.2479329855
 20
5.0103073092
 30
0.0
 10
9.288573199
 20
4.9395662619
 30
0.0
 10
9.3347613178
 20
4.8705644694
 30
0.0
 10
9.3863488709
 20
4.8035182314
 30
0.0
 10
9.443170696
 20
4.7386374496
 30
0.0
 10
9.5050465807
 20
4.6761242899
 30
0.0
 10
9.5717775045
 20
4.6161760031
 30
0.0
 10
9.6189075547
 20
4.578408468
 30
0.0
 10
9.6431919758
 20
4.5599961808
 30
0.0
  0
SPLINE
  5
2A0
100
AcDbEntity
  8
0
100
AcDbSpline
 62
9
  6
CONTINUOUS
 70
0
 71
3
 72
13
 73
9
 74
0
 42
0.0000001
 43
0.0000001
 44
0.0000000001
 40
0.0
 40
0.0
 40
0.0
 40
0.0
 40
0.2396687801
 40
0.3622619132
 40
0.4866087985
 40
0.6126435192
 40
0.7402884013
 40
1.0
 40
1.0
 40
1.0
 40
1.0
 10
9.6431919758
 20
4.5599961808
 30
0.0
 10
9.6845060436
 20
4.5286721282
 30
0.0
 10
9.7491544369
 20
4.4841482893
 30
0.0
 10
9.8394468396
 20
4.4300002982
 30
0.0
 10
9.9103081249
 20
4.391367905
 30
0.0
 10
9.9836335489
 20
4.3551131376
 30
0.0
 10
10.0850459726
 20
4.3097911542
 30
0.0
 10
10.163475078
 20
4.2799979855
 30
0.0
 10
10.2166779992
 20
4.2619457219
 30
0.0
  0
LINE
  5
2A1
100
AcDbEntity
  8
0
100
AcDbLine
 62
9
  6
CONTINUOUS
 10
10.2166779992
 20
4.2619457219
 11
10.2186962416
 21
4.2612619359
  0
SPLINE
  5
2A2
100
AcDbEntity
  8
0
100
AcDbSpline
 62
9
  6
CONTINUOUS
 70
0
 71
3
 72
21
 73
17
 74
0
 42
0.0000001
 43
0.0000001
 44
0.0000000001
 40
0.0
 40
0.0
 40
0.0
 40
0.0
 40
0.1249908864
 40
0.188043219
 40
0.2513494406
 40
0.3148248661
 40
0.3783836505
 40
0.4419393805
 40
0.5054056646
 40
0.568696721
 40
0.6317279677
 40
0.6944166171
 40
0.7566822946
 40
0.8184475849
 40
0.8796388209
 40
1.0
 40
1.0
 40
1.0
 40
1.0
 10
10.4593900384
 20
4.1935350087
 30
0.0
 10
10.5234054776
 20
4.1789745854
 30
0.0
 10
10.620617684
 20
4.1608099694
 30
0.0
 10
10.7515691401
 20
4.1438982391
 30
0.0
 10
10.8508893814
 20
4.1348228311
 30
0.0
 10
10.9507402951
 20
4.1294202978
 30
0.0
 10
11.0508542925
 20
4.127704721
 30
0.0
 10
11.1509584808
 20
4.1296809005
 30
0.0
 10
11.2507812202
 20
4.1353434368
 30
0.0
 10
11.3500513351
 20
4.1446769988
 30
0.0
 10
11.4484991396
 20
4.1576562628
 30
0.0
 10
11.5458575561
 20
4.174246152
 30
0.0
 10
11.64186105
 20
4.1944013681
 30
0.0
 10
11.7362530526
 20
4.2180686345
 30
0.0
 10
11.8589156432
 20
4.254015693
 30
0.0
 10
11.9487891584
 20
4.2863134902
 30
0.0
 10
12.0073183383
 20
4.3102079278
 30
0.0
  0
SPLINE
  5
2A3
100
AcDbEntity
  8
0
100
AcDbSpline
 62
9
  6
CONTINUOUS
 70
0
 71
3
 72
40
 73
36
 74
0
 42
0.0000001
 43
0.0000001
 44
0.0000000001
 40
0.0
 40
0.0
 40
0.0
 40
0.0
 40
0.0360777633
 40
0.0715065942
 40
0.1062479227
 40
0.1402727498
 40
0.173562639
 40
0.1899315349
 40
0.2061151263
 40
0.2379268168
 40
0.2690208546
 40
0.2994297307
 40
0.3292000713
 40
0.3583926256
 40
0.3870817921
 40
0.4153546005
 40
0.4433090965
 40
0.4710521209
 40
0.4986965466
 40
0.5263581125
 40
0.554152056
 40
0.582189783
 40
0.6105758032
 40
0.6394051154
 40
0.6687611597
 40
0.6987143798
 40
0.7293213796
 40
0.760624597
 40
0.7926524026
 40
0.8254195257
 40
0.8589277142
 40
0.8931665338
 40
0.9281144153
 40
0.9637391209
 40
1.0
 40
1.0
 40
1.0
 40
1.0
 10
11.6225164101
 20
6.1766798585
 30
0.0
 10
11.6429531999
 20
6.1679633694
 30
0.0
 10
11.6830152602
 20
6.1496211342
 30
0.0
 10
11.7409568415
 20
6.119153683
 30
0.0
 10
11.7959938624
 20
6.0860924732
 30
0.0
 10
11.8478918673
 20
6.0505768141
 30
0.0
 10
11.8885732017
 20
6.0188781119
 30
0.0
 10
11.9193109454
 20
5.9924230264
 30
0.0
 10
11.9484872351
 20
5.9655831394
 30
0.0
 10
11.9826545168
 20
5.93081302
 30
0.0
 10
12.0199637999
 20
5.8870398588
 30
0.0
 10
12.0531907674
 20
5.8416356887
 30
0.0
 10
12.0821917364
 20
5.7947904433
 30
0.0
 10
12.1068414401
 20
5.7466995197
 30
0.0
 10
12.1270319861
 20
5.6975648898
 30
0.0
 10
12.1426740585
 20
5.6475940905
 30
0.0
 10
12.1536976438
 20
5.5969996127
 30
0.0
 10
12.1600528953
 20
5.5459979207
 30
0.0
 10
12.1617108433
 20
5.4948082525
 30
0.0
 10
12.1586639318
 20
5.4436511784
 30
0.0
 10
12.150926094
 20
5.3927470299
 30
0.0
 10
12.1385325097
 20
5.342314365
 30
0.0
 10
12.1215390472
 20
5.2925685903
 30
0.0
 10
12.1000214922
 20
5.2437208308
 30
0.0
 10
12.0740747278
 20
5.1959770445
 30
0.0
 10
12.0438119245
 20
5.1495373298
 30
0.0
 10
12.0093637372
 20
5.104595401
 30
0.0
 10
11.9708776351
 20
5.0613380905
 30
0.0
 10
11.9285172669
 20
5.0199448538
 30
0.0
 10
11.8824618578
 20
4.9805872562
 30
0.0
 10
11.8329055398
 20
4.9434283773
 30
0.0
 10
11.7800568481
 20
4.9086222499
 30
0.0
 10
11.7241371821
 20
4.8763131815
 30
0.0
 10
11.6653831305
 20
4.8466359798
 30
0.0
 10
11.6248229809
 20
4.8288351806
 30
0.0
 10
11.604148705
 20
4.8203949429
 30
0.0
  0
SPLINE
  5
2A4
100
AcDbEntity
  8
0
100
AcDbSpline
 62
9
  6
CONTINUOUS
 70
0
 71
3
 72
57
 73
53
 74
0
 42
0.0000001
 43
0.0000001
 44
0.0000000001
 40
0.0
 40
0.0
 40
0.0
 40
0.0
 40
0.0334099923
 40
0.0497722338
 40
0.0658908387
 40
0.0817585294
 40
0.0973701194
 40
0.127806313
 40
0.1426414816
 40
0.1572234744
 40
0.171559545
 40
0.1856597258
 40
0.1995368609
 40
0.2132065953
 40
0.2266873124
 40
0.2400000123
 40
0.2531681254
 40
0.2662172566
 40
0.2791748613
 40
0.2920698579
 40
0.3049321853
 40
0.3177923225
 40
0.3306807844
 40
0.3436276176
 40
0.356661915
 40
0.3698113668
 40
0.3831018646
 40
0.3965571675
 40
0.410198637
 40
0.4240450403
 40
0.4381124191
 40
0.45241402
 40
0.4669602773
 40
0.4817588396
 40
0.5121206593
 40
0.5276952681
 40
0.5435265461
 40
0.5759298215
 40
0.5924934947
 40
0.6092822031
 40
0.6434768698
 40
0.6784036407
 40
0.7139255334
 40
0.7498902374
 40
0.7861344493
 40
0.8224880967
 40
0.858778489
 40
0.8948344436
 40
0.9304904284
 40
0.9481222811
 40
0.9655967521
 40
1.0
 40
1.0
 40
1.0
 40
1.0
 10
10.472120279
 20
6.1766798431
 30
0.0
 10
10.441513278
 20
6.163625621
 30
0.0
 10
10.3966480569
 20
6.1423739225
 30
0.0
 10
10.3392260508
 20
6.1105761713
 30
0.0
 10
10.2981341733
 20
6.0854427515
 30
0.0
 10
10.258821712
 20
6.058920628
 30
0.0
 10
10.2093307047
 20
6.0221097724
 30
0.0
 10
10.1632660889
 20
5.9824979609
 30
0.0
 10
10.121176536
 20
5.9402546767
 30
0.0
 10
10.0920742982
 20
5.9077919015
 30
0.0
 10
10.0652440152
 20
5.8743613272
 30
0.0
 10
10.0407489391
 20
5.8400409216
 30
0.0
 10
10.0186483989
 20
5.8049121775
 30
0.0
 10
9.9989957616
 20
5.7690582959
 30
0.0
 10
9.981838787
 20
5.7325644601
 30
0.0
 10
9.9672193479
 20
5.695517562
 30
0.0
 10
9.955173311
 20
5.6580060575
 30
0.0
 10
9.9457303772
 20
5.6201197647
 30
0.0
 10
9.9389139394
 20
5.5819496476
 30
0.0
 10
9.9347409515
 20
5.5435875693
 30
0.0
 10
9.9332218278
 20
5.5051260187
 30
0.0
 10
9.9343603618
 20
5.4666578165
 30
0.0
 10
9.938153702
 20
5.4282758046
 30
0.0
 10
9.944592382
 20
5.3900725371
 30
0.0
 10
9.9536603811
 20
5.3521399839
 30
0.0
 10
9.9653352237
 20
5.3145692535
 30
0.0
 10
9.9795881061
 20
5.2774503426
 30
0.0
 10
9.9963840373
 20
5.2408719156
 30
0.0
 10
10.0156819983
 20
5.2049210996
 30
0.0
 10
10.0374350615
 20
5.169683339
 30
0.0
 10
10.0615906568
 20
5.1352421103
 30
0.0
 10
10.0880902449
 20
5.1016792084
 30
0.0
 10
10.1168713296
 20
5.0690729245
 30
0.0
 10
10.158543235
 20
5.0266217865
 30
0.0
 10
10.204216467
 20
4.9867824482
 30
0.0
 10
10.2533425373
 20
4.9497280682
 30
0.0
 10
10.3058089558
 20
4.9138332034
 30
0.0
 10
10.3614958953
 20
4.8810265795
 30
0.0
 10
10.4199055554
 20
4.8513796305
 30
0.0
 10
10.4811066944
 20
4.8234077186
 30
0.0
 10
10.5610135491
 20
4.7925533773
 30
0.0
 10
10.6609001297
 20
4.7624877606
 30
0.0
 10
10.7644390529
 20
4.7394317073
 30
0.0
 10
10.8706486731
 20
4.7236024577
 30
0.0
 10
10.978527261
 20
4.7151477886
 30
0.0
 10
11.0870553562
 20
4.7141470242
 30
0.0
 10
11.1952088791
 20
4.7206097344
 30
0.0
 10
11.3019627293
 20
4.7344746371
 30
0.0
 10
11.3892545056
 20
4.752157148
 30
0.0
 10
11.4574728921
 20
4.7699095147
 30
0.0
 10
11.523789175
 20
4.7898124358
 30
0.0
 10
11.5724265302
 20
4.8074444192
 30
0.0
 10
11.604148705
 20
4.8203949429
 30
0.0
  0
SPLINE
  5
2A5
100
AcDbEntity
  8
0
100
AcDbSpline
 62
7
  6
CONTINUOUS
 70
0
 71
3
 72
20
 73
16
 74
0
 42
0.0000001
 43
0.0000001
 44
0.0000000001
 40
0.0
 40
0.0
 40
0.0
 40
0.0
 40
0.0579629042
 40
0.1160531418
 40
0.1743961158
 40
0.2331133527
 40
0.2923208507
 40
0.3521275311
 40
0.4126338118
 40
0.4739306485
 40
0.536098751
 40
0.5992079493
 40
0.7284267915
 40
0.8619707604
 40
1.0
 40
1.0
 40
1.0
 40
1.0
 10
11.6223183108
 20
6.5833927287
 30
0.0
 10
11.6223183117
 20
6.5770281904
 30
0.0
 10
11.6218946293
 20
6.5642810936
 30
0.0
 10
11.6199901859
 20
6.5452133565
 30
0.0
 10
11.6168209133
 20
6.5262299737
 30
0.0
 10
11.6123941843
 20
6.507374335
 30
0.0
 10
11.6067201306
 20
6.4886880522
 30
0.0
 10
11.5998116212
 20
6.4702126863
 30
0.0
 10
11.5916843394
 20
6.4519890531
 30
0.0
 10
11.5823568205
 20
6.4340574821
 30
0.0
 10
11.5718495759
 20
6.4164569709
 30
0.0
 10
11.5561785224
 20
6.3933049278
 30
0.0
 10
11.5336771914
 20
6.3653858621
 30
0.0
 10
11.5026277877
 20
6.3341025811
 30
0.0
 10
11.4796385064
 20
6.3150294657
 30
0.0
 10
11.4675552138
 20
6.3058805952
 30
0.0
  0
SPLINE
  5
2A6
100
AcDbEntity
  8
0
100
AcDbSpline
 62
7
  6
CONTINUOUS
 70
0
 71
3
 72
29
 73
25
 74
0
 42
0.0000001
 43
0.0000001
 44
0.0000000001
 40
0.0
 40
0.0
 40
0.0
 40
0.0
 40
0.026003108
 40
0.0521211943
 40
0.0784047308
 40
0.1049017016
 40
0.1316570085
 40
0.1587119766
 40
0.1861038712
 40
0.2138655564
 40
0.2420253043
 40
0.2706065829
 40
0.2996280923
 40
0.3291037968
 40
0.3894326296
 40
0.4516314148
 40
0.5156520484
 40
0.5813858175
 40
0.6486712978
 40
0.7173018242
 40
0.7870336868
 40
0.8575935551
 40
0.9286851613
 40
1.0
 40
1.0
 40
1.0
 40
1.0
 10
11.4529325016
 20
7.180777389
 30
0.0
 10
11.4525735147
 20
7.1761166295
 30
0.0
 10
11.45154966
 20
7.1667951405
 30
0.0
 10
11.4491091813
 20
7.1529039168
 30
0.0
 10
11.4457668699
 20
7.1391098837
 30
0.0
 10
11.4415306128
 20
7.1254440918
 30
0.0
 10
11.4364102442
 20
7.1119362244
 30
0.0
 10
11.4304174189
 20
7.0986158847
 30
0.0
 10
11.423565928
 20
7.0855120433
 30
0.0
 10
11.4158714703
 20
7.0726531335
 30
0.0
 10
11.4073514089
 20
7.0600670782
 30
0.0
 10
11.398025202
 20
7.0477811291
 30
0.0
 10
11.3879136836
 20
7.035821494
 30
0.0
 10
11.3733042728
 20
7.0202266674
 30
0.0
 10
11.3531558616
 20
7.0016998543
 30
0.0
 10
11.3264444802
 20
6.981351477
 30
0.0
 10
11.2972481088
 20
6.9628803002
 30
0.0
 10
11.2658289626
 20
6.9464425088
 30
0.0
 10
11.2324663693
 20
6.9321746306
 30
0.0
 10
11.1974572585
 20
6.9201950017
 30
0.0
 10
11.161113099
 20
6.9106020497
 30
0.0
 10
11.1237566491
 20
6.9034735337
 30
0.0
 10
11.0857223099
 20
6.8988652316
 30
0.0
 10
11.0601359889
 20
6.8974958339
 30
0.0
 10
11.0473183383
 20
6.8972387401
 30
0.0
  0
SPLINE
  5
2A7
100
AcDbEntity
  8
0
100
AcDbSpline
 62
7
  6
CONTINUOUS
 70
0
 71
3
 72
15
 73
11
 74
0
 42
0.0000001
 43
0.0000001
 44
0.0000000001
 40
0.0
 40
0.0
 40
0.0
 40
0.0
 40
0.1194660595
 40
0.239761146
 40
0.3613048533
 40
0.4844871863
 40
0.609661928
 40
0.7371366148
 40
0.8671810606
 40
1.0
 40
1.0
 40
1.0
 40
1.0
 10
10.6415988322
 20
7.1061333105
 30
0.0
 10
10.6420075901
 20
7.1006438359
 30
0.0
 10
10.6433017291
 20
7.0896563759
 30
0.0
 10
10.6466475018
 20
7.0733290135
 30
0.0
 10
10.6513901141
 20
7.057172177
 30
0.0
 10
10.6575119153
 20
7.0412459276
 30
0.0
 10
10.6649905323
 20
7.0256073892
 30
0.0
 10
10.6737989543
 20
7.0103122381
 30
0.0
 10
10.6839050808
 20
6.9954162745
 30
0.0
 10
10.6914028915
 20
6.9858894929
 30
0.0
 10
10.6953467171
 20
6.9812097639
 30
0.0
  0
SPLINE
  5
2A8
100
AcDbEntity
  8
0
100
AcDbSpline
 62
7
  6
CONTINUOUS
 70
0
 71
3
 72
15
 73
11
 74
0
 42
0.0000001
 43
0.0000001
 44
0.0000000001
 40
0.0
 40
0.0
 40
0.0
 40
0.0
 40
0.1291939811
 40
0.256777149
 40
0.3829350029
 40
0.5078714478
 40
0.6318067822
 40
0.7549753083
 40
0.8776221635
 40
1.0
 40
1.0
 40
1.0
 40
1.0
 10
11.4762810262
 20
6.6512749758
 30
0.0
 10
11.4788024114
 20
6.6466677573
 30
0.0
 10
11.4835538984
 20
6.6373654803
 30
0.0
 10
11.4898093809
 20
6.6231007948
 30
0.0
 10
11.4951332492
 20
6.6086462887
 30
0.0
 10
11.499513607
 20
6.5940330326
 30
0.0
 10
11.5029409304
 20
6.5792918589
 30
0.0
 10
11.5054078353
 20
6.564453898
 30
0.0
 10
11.5069089147
 20
6.5495514983
 30
0.0
 10
11.5072635928
 20
6.5395887265
 30
0.0
 10
11.5072791482
 20
6.5346138102
 30
0.0
  0
SPLINE
  5
2A9
100
AcDbEntity
  8
0
100
AcDbSpline
 62
9
  6
CONTINUOUS
 70
0
 71
3
 72
29
 73
25
 74
0
 42
0.0000001
 43
0.0000001
 44
0.0000000001
 40
0.0
 40
0.0
 40
0.0
 40
0.0
 40
0.0251799231
 40
0.0504404723
 40
0.0758604772
 40
0.1015152731
 40
0.1274751842
 40
0.1538042473
 40
0.1805592035
 40
0.2077887907
 40
0.2355333127
 40
0.2638244449
 40
0.3221042474
 40
0.352140044
 40
0.3827652711
 40
0.4457222224
 40
0.5108507103
 40
0.5779112052
 40
0.6465891483
 40
0.7165113205
 40
0.7872617092
 40
0.8583968419
 40
0.9294605464
 40
1.0
 40
1.0
 40
1.0
 40
1.0
 10
10.5948183383
 20
6.8718018917
 30
0.0
 10
10.5948183386
 20
6.8657496643
 30
0.0
 10
10.5953057364
 20
6.8536202315
 30
0.0
 10
10.5974953237
 20
6.8354998878
 30
0.0
 10
10.6011362779
 20
6.8174972539
 30
0.0
 10
10.6062161924
 20
6.7996726157
 30
0.0
 10
10.6127178863
 20
6.7820834878
 30
0.0
 10
10.6206195332
 20
6.7647869263
 30
0.0
 10
10.6298948327
 20
6.7478385796
 30
0.0
 10
10.6405128861
 20
6.7312930258
 30
0.0
 10
10.6524395395
 20
6.7152024785
 30
0.0
 10
10.6702049154
 20
6.6942216117
 30
0.0
 10
10.6903059901
 20
6.6745750587
 30
0.0
 10
10.7123864473
 20
6.6563994462
 30
0.0
 10
10.7363448169
 20
6.6388020347
 30
0.0
 10
10.7688660554
 20
6.6187221487
 30
0.0
 10
10.8110731562
 20
6.5981033514
 30
0.0
 10
10.8562896809
 20
6.5809914081
 30
0.0
 10
10.9039372439
 20
6.5676020818
 30
0.0
 10
10.9534105802
 20
6.5581027107
 30
0.0
 10
11.0040794043
 20
6.5526127142
 30
0.0
 10
11.0552998069
 20
6.5512015598
 30
0.0
 10
11.1064150214
 20
6.5538861417
 30
0.0
 10
11.1401936104
 20
6.5584118935
 30
0.0
 10
11.1568904109
 20
6.5613584903
 30
0.0
  0
SPLINE
  5
2AA
100
AcDbEntity
  8
0
100
AcDbSpline
 62
9
  6
CONTINUOUS
 70
0
 71
3
 72
46
 73
42
 74
0
 42
0.0000001
 43
0.0000001
 44
0.0000000001
 40
0.0
 40
0.0
 40
0.0
 40
0.0
 40
0.0124254032
 40
0.0248640902
 40
0.0373292461
 40
0.0498338599
 40
0.0623906286
 40
0.0750118702
 40
0.0877094442
 40
0.100494671
 40
0.1133782678
 40
0.1263702966
 40
0.1394801094
 40
0.1527163078
 40
0.1660867214
 40
0.1795983806
 40
0.2070645425
 40
0.2351599289
 40
0.2639113916
 40
0.2933331515
 40
0.3234273978
 40
0.3541850368
 40
0.385586566
 40
0.4176029588
 40
0.4501965973
 40
0.4833222061
 40
0.5169277511
 40
0.550955354
 40
0.5853421667
 40
0.6200212273
 40
0.6549223133
 40
0.6899727633
 40
0.7250982986
 40
0.7602238338
 40
0.7952742839
 40
0.8301753699
 40
0.8648544299
 40
0.8992412443
 40
0.9332688597
 40
0.9668742884
 40
1.0
 40
1.0
 40
1.0
 40
1.0
 10
9.0473183383
 20
4.8325377656
 30
0.0
 10
9.0473183383
 20
4.8171097123
 30
0.0
 10
9.0480332662
 20
4.7862323492
 30
0.0
 10
9.0512485892
 20
4.7399782844
 30
0.0
 10
9.0566034993
 20
4.6938229241
 30
0.0
 10
9.0640922524
 20
4.6478172994
 30
0.0
 10
9.0737065906
 20
4.6020105789
 30
0.0
 10
9.0854359702
 20
4.5564521193
 30
0.0
 10
9.0992677041
 20
4.5111908937
 30
0.0
 10
9.1151867048
 20
4.4662755222
 30
0.0
 10
9.1331755953
 20
4.4217541719
 30
0.0
 10
9.1532149168
 20
4.377674619
 30
0.0
 10
9.1752830073
 20
4.3340840577
 30
0.0
 10
9.1993557594
 20
4.2910292766
 30
0.0
 10
9.225407732
 20
4.2485557121
 30
0.0
 10
9.2629451874
 20
4.1924603378
 30
0.0
 10
9.314774512
 20
4.1240142432
 30
0.0
 10
9.3840324608
 20
4.0453924501
 30
0.0
 10
9.4603988832
 20
3.9701569902
 30
0.0
 10
9.5435421856
 20
3.8986292529
 30
0.0
 10
9.6331059824
 20
3.8311100224
 30
0.0
 10
9.7287063533
 20
3.7678844746
 30
0.0
 10
9.8299346229
 20
3.7092197264
 30
0.0
 10
9.9363583342
 20
3.6553637989
 30
0.0
 10
10.0475231631
 20
3.6065445878
 30
0.0
 10
10.1629547616
 20
3.5629690616
 30
0.0
 10
10.282160541
 20
3.5248218845
 30
0.0
 10
10.4046318869
 20
3.4922650159
 30
0.0
 10
10.5298462126
 20
3.465436784
 30
0.0
 10
10.6572691557
 20
3.444451078
 30
0.0
 10
10.7863569284
 20
3.4293972454
 30
0.0
 10
10.9165585672
 20
3.4203392578
 30
0.0
 10
11.0473183385
 20
3.4173155979
 30
0.0
 10
11.1780781085
 20
3.4203392575
 30
0.0
 10
11.3082797514
 20
3.4293972467
 30
0.0
 10
11.4373675089
 20
3.4444510731
 30
0.0
 10
11.564790507
 20
3.4654368019
 30
0.0
 10
11.690004652
 20
3.4922649521
 30
0.0
 10
11.812476598
 20
3.5248221092
 30
0.0
 10
11.9316797247
 20
3.5629681313
 30
0.0
 10
12.0092387311
 20
3.5922469596
 30
0.0
 10
12.0473183383
 20
3.6077928942
 30
0.0
  0
SPLINE
  5
2AB
100
AcDbEntity
  8
0
100
AcDbSpline
 62
9
  6
CONTINUOUS
 70
0
 71
3
 72
46
 73
42
 74
0
 42
0.0000001
 43
0.0000001
 44
0.0000000001
 40
0.0
 40
0.0
 40
0.0
 40
0.0
 40
0.0124254032
 40
0.0248640902
 40
0.0373292461
 40
0.0498338599
 40
0.0623906286
 40
0.0750118702
 40
0.0877094442
 40
0.100494671
 40
0.1133782678
 40
0.1263702966
 40
0.1394801094
 40
0.1527163078
 40
0.1660867214
 40
0.1795983807
 40
0.2070645425
 40
0.2351599289
 40
0.2639113916
 40
0.2933331515
 40
0.3234273978
 40
0.3541850368
 40
0.385586566
 40
0.4176029588
 40
0.4501965973
 40
0.4833222061
 40
0.516927751
 40
0.550955354
 40
0.5853421667
 40
0.6200212273
 40
0.6549223133
 40
0.6899727633
 40
0.7250982986
 40
0.7602238338
 40
0.7952742839
 40
0.8301753699
 40
0.8648544299
 40
0.8992412443
 40
0.9332688597
 40
0.9668742884
 40
1.0
 40
1.0
 40
1.0
 40
1.0
 10
9.0473183383
 20
5.4293944618
 30
0.0
 10
9.0473183383
 20
5.4139664086
 30
0.0
 10
9.0480332662
 20
5.3830890455
 30
0.0
 10
9.0512485892
 20
5.3368349806
 30
0.0
 10
9.0566034993
 20
5.2906796203
 30
0.0
 10
9.0640922524
 20
5.2446739957
 30
0.0
 10
9.0737065906
 20
5.1988672751
 30
0.0
 10
9.0854359702
 20
5.1533088155
 30
0.0
 10
9.0992677042
 20
5.10804759
 30
0.0
 10
9.1151867048
 20
5.0631322185
 30
0.0
 10
9.1331755953
 20
5.0186108682
 30
0.0
 10
9.1532149168
 20
4.9745313153
 30
0.0
 10
9.1752830073
 20
4.9309407539
 30
0.0
 10
9.1993557594
 20
4.8878859729
 30
0.0
 10
9.225407732
 20
4.8454124083
 30
0.0
 10
9.2629451874
 20
4.7893170341
 30
0.0
 10
9.314774512
 20
4.7208709394
 30
0.0
 10
9.3840324607
 20
4.6422491464
 30
0.0
 10
9.4603988832
 20
4.5670136865
 30
0.0
 10
9.5435421857
 20
4.4954859492
 30
0.0
 10
9.6331059824
 20
4.4279667187
 30
0.0
 10
9.7287063533
 20
4.3647411709
 30
0.0
 10
9.8299346229
 20
4.3060764227
 30
0.0
 10
9.9363583342
 20
4.2522204952
 30
0.0
 10
10.0475231631
 20
4.2034012841
 30
0.0
 10
10.1629547616
 20
4.1598257578
 30
0.0
 10
10.2821605409
 20
4.1216785808
 30
0.0
 10
10.4046318869
 20
4.0891217122
 30
0.0
 10
10.5298462126
 20
4.0622934803
 30
0.0
 10
10.6572691557
 20
4.0413077742
 30
0.0
 10
10.7863569284
 20
4.0262539416
 30
0.0
 10
10.9165585672
 20
4.0171959541
 30
0.0
 10
11.0473183385
 20
4.0141722942
 30
0.0
 10
11.1780781085
 20
4.0171959538
 30
0.0
 10
11.3082797513
 20
4.0262539429
 30
0.0
 10
11.4373675089
 20
4.0413077694
 30
0.0
 10
11.564790507
 20
4.0622934982
 30
0.0
 10
11.690004652
 20
4.0891216484
 30
0.0
 10
11.812476598
 20
4.1216788055
 30
0.0
 10
11.9316797247
 20
4.1598248276
 30
0.0
 10
12.0092387311
 20
4.1891036559
 30
0.0
 10
12.0473183383
 20
4.2046495904
 30
0.0
  0
SPLINE
  5
2AC
100
AcDbEntity
  8
0
100
AcDbSpline
 62
9
  6
CONTINUOUS
 70
0
 71
3
 72
30
 73
26
 74
0
 42
0.0000001
 43
0.0000001
 44
0.0000000001
 40
0.0
 40
0.0
 40
0.0
 40
0.0
 40
0.0275999492
 40
0.0552294051
 40
0.0829176548
 40
0.1106935507
 40
0.1385852957
 40
0.1666202514
 40
0.1948247603
 40
0.2232239682
 40
0.2518416808
 40
0.2807002481
 40
0.3098204433
 40
0.3392213728
 40
0.3689204278
 40
0.3989332252
 40
0.4599424865
 40
0.5223494139
 40
0.5862136521
 40
0.6515667892
 40
0.7184136865
 40
0.7867341509
 40
0.8564848817
 40
0.9276010938
 40
1.0
 40
1.0
 40
1.0
 40
1.0
 10
13.0473183383
 20
5.4293944618
 30
0.0
 10
13.0473183383
 20
5.4139664086
 30
0.0
 10
13.0466034104
 20
5.3830890455
 30
0.0
 10
13.0433880873
 20
5.3368349806
 30
0.0
 10
13.0380331773
 20
5.2906796203
 30
0.0
 10
13.0305444242
 20
5.2446739957
 30
0.0
 10
13.020930086
 20
5.1988672751
 30
0.0
 10
13.0092007063
 20
5.1533088155
 30
0.0
 10
12.9953689724
 20
5.10804759
 30
0.0
 10
12.9794499717
 20
5.0631322185
 30
0.0
 10
12.9614610813
 20
5.0186108682
 30
0.0
 10
12.9414217597
 20
4.9745313153
 30
0.0
 10
12.9193536693
 20
4.9309407539
 30
0.0
 10
12.8952809171
 20
4.8878859729
 30
0.0
 10
12.8692289446
 20
4.8454124083
 30
0.0
 10
12.8316914892
 20
4.7893170341
 30
0.0
 10
12.7798621644
 20
4.7208709394
 30
0.0
 10
12.7106042164
 20
4.6422491466
 30
0.0
 10
12.634237791
 20
4.5670136855
 30
0.0
 10
12.5510945004
 20
4.4954859532
 30
0.0
 10
12.4615306584
 20
4.4279667041
 30
0.0
 10
12.3659304455
 20
4.3647412132
 30
0.0
 10
12.2647016181
 20
4.3060762822
 30
0.0
 10
12.1582804592
 20
4.2522213223
 30
0.0
 10
12.0847864199
 20
4.2199458707
 30
0.0
 10
12.0473183383
 20
4.2046495904
 30
0.0
  0
SPLINE
  5
2AD
100
AcDbEntity
  8
0
100
AcDbSpline
 62
7
  6
CONTINUOUS
 70
0
 71
3
 72
23
 73
19
 74
0
 42
0.0000001
 43
0.0000001
 44
0.0000000001
 40
0.0
 40
0.0
 40
0.0
 40
0.0
 40
0.1171129211
 40
0.1474859671
 40
0.1782410919
 40
0.240779155
 40
0.3045021332
 40
0.3691410386
 40
0.4344037203
 40
0.4999824161
 40
0.565561744
 40
0.6308263008
 40
0.6954682846
 40
0.7591954627
 40
0.8217387381
 40
0.8524968072
 40
0.8828729928
 40
1.0
 40
1.0
 40
1.0
 40
1.0
 10
10.7755045072
 20
7.0915463859
 30
0.0
 10
10.7938155951
 20
7.0785682368
 30
0.0
 10
10.8184950499
 20
7.064386407
 30
0.0
 10
10.8496623744
 20
7.0504135228
 30
0.0
 10
10.8716656906
 20
7.0415884749
 30
0.0
 10
10.9002349505
 20
7.0320410784
 30
0.0
 10
10.9357347299
 20
7.0230649383
 30
0.0
 10
10.9723045719
 20
7.0165900474
 30
0.0
 10
11.0095930922
 20
7.0126782846
 30
0.0
 10
11.0472432371
 20
7.0113667576
 30
0.0
 10
11.0848941019
 20
7.0126678834
 30
0.0
 10
11.1221847742
 20
7.0165693531
 30
0.0
 10
11.1587581805
 20
7.0230341379
 30
0.0
 10
11.1942629025
 20
7.0320004651
 30
0.0
 10
11.2228372991
 20
7.0415399315
 30
0.0
 10
11.244845404
 20
7.0503588453
 30
0.0
 10
11.2760207681
 20
7.0643232473
 30
0.0
 10
11.3007078911
 20
7.0784982097
 30
0.0
 10
11.319025976
 20
7.0914711524
 30
0.0
  0
SPLINE
  5
2AE
100
AcDbEntity
  8
0
100
AcDbSpline
 62
7
  6
CONTINUOUS
 70
0
 71
3
 72
21
 73
17
 74
0
 42
0.0000001
 43
0.0000001
 44
0.0000000001
 40
0.0
 40
0.0
 40
0.0
 40
0.0
 40
0.1159819464
 40
0.1764674945
 40
0.2383569345
 40
0.301437832
 40
0.3654722181
 40
0.4302030322
 40
0.4953603928
 40
0.5606674895
 40
0.6258468152
 40
0.6906257953
 40
0.7547430444
 40
0.8179541492
 40
0.8800379352
 40
1.0
 40
1.0
 40
1.0
 40
1.0
 10
10.7844491424
 20
7.0430613782
 30
0.0
 10
10.8020505817
 20
7.0317660001
 30
0.0
 10
10.8304031277
 20
7.016920332
 30
0.0
 10
10.8705068476
 20
7.0014004008
 30
0.0
 10
10.9025236502
 20
6.9916307191
 30
0.0
 10
10.9357650286
 20
6.983992474
 30
0.0
 10
10.9699553896
 20
6.9785531665
 30
0.0
 10
11.0048035901
 20
6.9753654622
 30
0.0
 10
11.0400149252
 20
6.974462127
 30
0.0
 10
11.0752911165
 20
6.9758569475
 30
0.0
 10
11.1103333758
 20
6.9795442831
 30
0.0
 10
11.144845451
 20
6.9854995388
 30
0.0
 10
11.178533786
 20
6.9936781022
 30
0.0
 10
11.2111188229
 20
7.0040201231
 30
0.0
 10
11.2522276334
 20
7.0203856155
 30
0.0
 10
11.2813584249
 20
7.0358988562
 30
0.0
 10
11.2995255283
 20
7.0476414146
 30
0.0
  0
SPLINE
  5
2AF
100
AcDbEntity
  8
0
100
AcDbSpline
 62
7
  6
CONTINUOUS
 70
0
 71
3
 72
21
 73
17
 74
0
 42
0.0000001
 43
0.0000001
 44
0.0000000001
 40
0.0
 40
0.0
 40
0.0
 40
0.0
 40
0.1165260355
 40
0.177099088
 40
0.23896867
 40
0.3019384714
 40
0.3657911541
 40
0.4302933827
 40
0.495200977
 40
0.5602639909
 40
0.6252313459
 40
0.6898560139
 40
0.7538996035
 40
0.8171374548
 40
0.8793636495
 40
1.0
 40
1.0
 40
1.0
 40
1.0
 10
10.7942558671
 20
6.9881207474
 30
0.0
 10
10.8113810815
 20
6.9778062687
 30
0.0
 10
10.8387446439
 20
6.9642503111
 30
0.0
 10
10.8772269487
 20
6.9500563796
 30
0.0
 10
10.9077863514
 20
6.9411261171
 30
0.0
 10
10.93941677
 20
6.9341300758
 30
0.0
 10
10.971880004
 20
6.9291248058
 30
0.0
 10
11.004925193
 20
6.9261544037
 30
0.0
 10
11.0382987038
 20
6.9252467118
 30
0.0
 10
11.0717439435
 20
6.9264140487
 30
0.0
 10
11.1050038311
 20
6.929652784
 30
0.0
 10
11.1378231259
 20
6.9349436937
 30
0.0
 10
11.1699485125
 20
6.942251154
 30
0.0
 10
11.2011378074
 20
6.9515268028
 30
0.0
 10
11.2407222767
 20
6.9662682382
 30
0.0
 10
11.2689619873
 20
6.9802700541
 30
0.0
 10
11.2867272289
 20
6.9908884369
 30
0.0
  0
SPLINE
  5
2B0
100
AcDbEntity
  8
0
100
AcDbSpline
 62
7
  6
CONTINUOUS
 70
0
 71
3
 72
39
 73
35
 74
0
 42
0.0000001
 43
0.0000001
 44
0.0000000001
 40
0.0
 40
0.0
 40
0.0
 40
0.0
 40
0.0248343253
 40
0.0498052855
 40
0.0750449922
 40
0.1006749364
 40
0.1268030044
 40
0.1535202389
 40
0.1808992484
 40
0.2089933129
 40
0.2233226732
 40
0.2378420226
 40
0.2674499004
 40
0.2978204155
 40
0.3289354264
 40
0.3607620625
 40
0.3932543073
 40
0.4263546066
 40
0.4599953064
 40
0.4941002694
 40
0.528586309
 40
0.5633645862
 40
0.5983421268
 40
0.6334230952
 40
0.6685102139
 40
0.7035061635
 40
0.7383148331
 40
0.7728427981
 40
0.8070006575
 40
0.8407043903
 40
0.8738769155
 40
0.906449406
 40
0.9383630069
 40
1.0
 40
1.0
 40
1.0
 40
1.0
 10
10.6410683385
 20
7.274199502
 30
0.0
 10
10.6410683472
 20
7.2670552558
 30
0.0
 10
10.6418266825
 20
7.2527160714
 30
0.0
 10
10.6452291886
 20
7.2313594463
 30
0.0
 10
10.6508766353
 20
7.2102456773
 30
0.0
 10
10.6587348802
 20
7.189497463
 30
0.0
 10
10.6687568576
 20
7.1692304053
 30
0.0
 10
10.6808839207
 20
7.149557183
 30
0.0
 10
10.695045358
 20
7.1305867687
 30
0.0
 10
10.7083883793
 20
7.1155478209
 30
0.0
 10
10.7199741829
 20
7.1039623633
 30
0.0
 10
10.7323232089
 20
7.0925419372
 30
0.0
 10
10.7488824914
 20
7.0789033755
 30
0.0
 10
10.7702758956
 20
7.06373283
 30
0.0
 10
10.7932034591
 20
7.049732856
 30
0.0
 10
10.817537307
 20
7.0369806812
 30
0.0
 10
10.8431429064
 20
7.025545907
 30
0.0
 10
10.8698784826
 20
7.0154912734
 30
0.0
 10
10.8975961197
 20
7.0068719565
 30
0.0
 10
10.9261424445
 20
6.999735333
 30
0.0
 10
10.9553594901
 20
6.9941206621
 30
0.0
 10
10.9850855635
 20
6.9900588567
 30
0.0
 10
11.0151561282
 20
6.9875722925
 30
0.0
 10
11.0454047327
 20
6.986674672
 30
0.0
 10
11.0756639311
 20
6.9873709445
 30
0.0
 10
11.1057662152
 20
6.9896572706
 30
0.0
 10
11.135544954
 20
6.9935210468
 30
0.0
 10
11.1648353381
 20
6.9989409985
 30
0.0
 10
11.1934751954
 20
7.0058872415
 30
0.0
 10
11.2213062886
 20
7.014321702
 30
0.0
 10
11.2481737275
 20
7.0241974922
 30
0.0
 10
11.2739320772
 20
7.0354623244
 30
0.0
 10
11.3062164792
 20
7.0520494089
 30
0.0
 10
11.3289515631
 20
7.0666547949
 30
0.0
 10
11.3431286757
 20
7.0773044706
 30
0.0
  0
SPLINE
  5
2B1
100
AcDbEntity
  8
0
100
AcDbSpline
 62
9
  6
CONTINUOUS
 70
0
 71
3
 72
28
 73
24
 74
0
 42
0.0000001
 43
0.0000001
 44
0.0000000001
 40
0.0
 40
0.0
 40
0.0
 40
0.0
 40
0.0257107635
 40
0.0514832403
 40
0.0773781158
 40
0.1034540615
 40
0.1297667957
 40
0.1563683082
 40
0.183306211
 40
0.2106231551
 40
0.2383564641
 40
0.2665379307
 40
0.3243220846
 40
0.3841398594
 40
0.4460434313
 40
0.5100037135
 40
0.5759188409
 40
0.6436237986
 40
0.71290005
 40
0.7834850462
 40
0.8550816003
 40
0.927366017
 40
1.0
 40
1.0
 40
1.0
 40
1.0
 10
11.4535683383
 20
8.082334108
 30
0.0
 10
11.4535683383
 20
8.0776328491
 30
0.0
 10
11.4532410332
 20
8.0682157876
 30
0.0
 10
11.4517701
 20
8.0541329592
 30
0.0
 10
11.449322726
 20
8.0401182926
 30
0.0
 10
11.4459049616
 20
8.0262068586
 30
0.0
 10
11.4415254572
 20
8.0124322243
 30
0.0
 10
11.436195202
 20
7.9988278336
 30
0.0
 10
11.4299273195
 20
7.9854265674
 30
0.0
 10
11.4227374218
 20
7.9722608277
 30
0.0
 10
11.4146429332
 20
7.9593618658
 30
0.0
 10
11.4025725718
 20
7.9424223372
 30
0.0
 10
11.3852598247
 20
7.9220749176
 30
0.0
 10
11.3614230778
 20
7.8994300405
 30
0.0
 10
11.3345791944
 20
7.8785565414
 30
0.0
 10
11.3049889197
 20
7.8596517485
 30
0.0
 10
11.2729357151
 20
7.8428913991
 30
0.0
 10
11.2387263287
 20
7.8284328786
 30
0.0
 10
11.2026875553
 20
7.8164121807
 30
0.0
 10
11.1651638929
 20
7.806942597
 30
0.0
 10
11.1265132838
 20
7.8001138558
 30
0.0
 10
11.0871074618
 20
7.7959904454
 30
0.0
 10
11.0605995915
 20
7.7950719782
 30
0.0
 10
11.0473183383
 20
7.7950719782
 30
0.0
  0
SPLINE
  5
2B2
100
AcDbEntity
  8
0
100
AcDbSpline
 62
7
  6
CONTINUOUS
 70
0
 71
3
 72
29
 73
25
 74
0
 42
0.0000001
 43
0.0000001
 44
0.0000000001
 40
0.0
 40
0.0
 40
0.0
 40
0.0
 40
0.0260116349
 40
0.0521330884
 40
0.0784154
 40
0.1049071585
 40
0.1316539206
 40
0.1586976731
 40
0.1860763245
 40
0.2138233781
 40
0.2419677022
 40
0.2705333269
 40
0.2995394749
 40
0.329000564
 40
0.3893037492
 40
0.4514839803
 40
0.5154947364
 40
0.5812280862
 40
0.6485226033
 40
0.7171709929
 40
0.7869283874
 40
0.8575198583
 40
0.9286472668
 40
1.0
 40
1.0
 40
1.0
 40
1.0
 10
11.4530451595
 20
7.1309708764
 30
0.0
 10
11.4527184226
 20
7.1262926285
 30
0.0
 10
11.4517570732
 20
7.1169349557
 30
0.0
 10
11.4494032899
 20
7.1029853036
 30
0.0
 10
11.4461407671
 20
7.0891304099
 30
0.0
 10
11.4419773081
 20
7.0754016711
 30
0.0
 10
11.4369226021
 20
7.0618291338
 30
0.0
 10
11.4309882427
 20
7.0484427547
 30
0.0
 10
11.4241880234
 20
7.0352718375
 30
0.0
 10
11.4165376021
 20
7.0223451833
 30
0.0
 10
11.408054372
 20
7.0096910592
 30
0.0
 10
11.3987578736
 20
6.9973370364
 30
0.0
 10
11.38866899
 20
6.9853096732
 30
0.0
 10
11.374080322
 20
6.9696243993
 30
0.0
 10
11.3539399476
 20
6.9509868263
 30
0.0
 10
11.3272130298
 20
6.9305138541
 30
0.0
 10
11.2979772151
 20
6.9119269331
 30
0.0
 10
11.2664969024
 20
6.8953843013
 30
0.0
 10
11.2330538729
 20
6.881024318
 30
0.0
 10
11.1979478058
 20
6.868966926
 30
0.0
 10
11.1614931661
 20
6.8593118963
 30
0.0
 10
11.1240158944
 20
6.852138079
 30
0.0
 10
11.085853766
 20
6.8475020481
 30
0.0
 10
11.060179967
 20
6.8461262142
 30
0.0
 10
11.0473183383
 20
6.8458689443
 30
0.0
  0
SPLINE
  5
2B3
100
AcDbEntity
  8
0
100
AcDbSpline
 62
7
  6
CONTINUOUS
 70
0
 71
3
 72
21
 73
17
 74
0
 42
0.0000001
 43
0.0000001
 44
0.0000000001
 40
0.0
 40
0.0
 40
0.0
 40
0.0
 40
0.1364557318
 40
0.2042421414
 40
0.2715323258
 40
0.338188558
 40
0.4040799915
 40
0.4690835336
 40
0.5330857349
 40
0.5959845663
 40
0.6576911999
 40
0.7771966221
 40
0.8349535252
 40
0.8913319744
 40
0.9463380053
 40
1.0
 40
1.0
 40
1.0
 40
1.0
 10
11.0473183383
 20
6.8458689443
 30
0.0
 10
11.0296280653
 20
6.8455150876
 30
0.0
 10
11.0031032008
 20
6.8462071437
 30
0.0
 10
10.9680483335
 20
6.849588112
 30
0.0
 10
10.942147834
 20
6.85332551
 30
0.0
 10
10.9166979237
 20
6.8582515158
 30
0.0
 10
10.8918061016
 20
6.8643429271
 30
0.0
 10
10.8675789225
 20
6.8715716435
 30
0.0
 10
10.8441202757
 20
6.8799044313
 30
0.0
 10
10.8215286533
 20
6.8893045641
 30
0.0
 10
10.7930054619
 20
6.903053248
 30
0.0
 10
10.766251702
 20
6.9188600476
 30
0.0
 10
10.7417182514
 20
6.9366628252
 30
0.0
 10
10.7248291796
 20
6.9506817056
 30
0.0
 10
10.7093207019
 20
6.9654529702
 30
0.0
 10
10.6998294102
 20
6.9758879313
 30
0.0
 10
10.6953467171
 20
6.9812097639
 30
0.0
  0
SPLINE
  5
2B4
100
AcDbEntity
  8
0
100
AcDbSpline
 62
7
  6
CONTINUOUS
 70
0
 71
3
 72
27
 73
23
 74
0
 42
0.0000001
 43
0.0000001
 44
0.0000000001
 40
0.0
 40
0.0
 40
0.0
 40
0.0
 40
0.0730367886
 40
0.1456482123
 40
0.2175169516
 40
0.2883374166
 40
0.3578268415
 40
0.4257323452
 40
0.4918388645
 40
0.5559780582
 40
0.6180367103
 40
0.6779658134
 40
0.7357889758
 40
0.7916098795
 40
0.8188368033
 40
0.8456412273
 40
0.8720601336
 40
0.8981356107
 40
0.9239145046
 40
0.9494478824
 40
0.9747904769
 40
1.0
 40
1.0
 40
1.0
 40
1.0
 10
11.0473183383
 20
6.8972387401
 30
0.0
 10
11.0345251874
 20
6.8969821377
 30
0.0
 10
11.0089880037
 20
6.8973216857
 30
0.0
 10
10.9709755559
 20
6.9003829734
 30
0.0
 10
10.9336402438
 20
6.9059611988
 30
0.0
 10
10.8973157715
 20
6.9140005993
 30
0.0
 10
10.8623241932
 20
6.9244233994
 30
0.0
 10
10.8289762557
 20
6.9371312083
 30
0.0
 10
10.7975679621
 20
6.9520059808
 30
0.0
 10
10.7683782224
 20
6.9689110597
 30
0.0
 10
10.7416668358
 20
6.987692393
 30
0.0
 10
10.717672086
 20
7.0081812453
 30
0.0
 10
10.6966116146
 20
7.0301908845
 30
0.0
 10
10.6815378062
 20
7.0498046412
 30
0.0
 10
10.6711831038
 20
7.0660386393
 30
0.0
 10
10.6643216099
 20
7.0783604629
 30
0.0
 10
10.6583177961
 20
7.090898904
 30
0.0
 10
10.653185201
 20
7.1036254243
 30
0.0
 10
10.6489356424
 20
7.1165103829
 30
0.0
 10
10.6455790246
 20
7.1295241776
 30
0.0
 10
10.6431233272
 20
7.1426357227
 30
0.0
 10
10.6420884232
 20
7.1514397985
 30
0.0
 10
10.6417239923
 20
7.155841335
 30
0.0
  0
SPLINE
  5
2B5
100
AcDbEntity
  8
0
100
AcDbSpline
 62
7
  6
CONTINUOUS
 70
0
 71
3
 72
26
 73
22
 74
0
 42
0.0000001
 43
0.0000001
 44
0.0000000001
 40
0.0
 40
0.0
 40
0.0
 40
0.0
 40
0.0729021202
 40
0.145386668
 40
0.2171429103
 40
0.2878712208
 40
0.3572939383
 40
0.425162087
 40
0.4912629568
 40
0.5554286268
 40
0.6175441079
 40
0.6775559529
 40
0.7354804645
 40
0.7914109532
 40
0.8455228192
 40
0.8719868652
 40
0.8981001895
 40
0.9239074619
 40
0.949457574
 40
0.9748031794
 40
1.0
 40
1.0
 40
1.0
 40
1.0
 10
11.0473183383
 20
6.9484784872
 30
0.0
 10
11.0346482992
 20
6.9482238949
 30
0.0
 10
11.0093559379
 20
6.9485511843
 30
0.0
 10
10.9717020818
 20
6.9515455202
 30
0.0
 10
10.9347061325
 20
6.9570095463
 30
0.0
 10
10.8986924581
 20
6.9648896022
 30
0.0
 10
10.8639742891
 20
6.9751108346
 30
0.0
 10
10.8308540752
 20
6.9875784736
 30
0.0
 10
10.7996201806
 20
7.0021788042
 30
0.0
 10
10.7705447308
 20
7.0187800858
 30
0.0
 10
10.7438813634
 20
7.0372340014
 30
0.0
 10
10.7198637712
 20
7.0573767653
 30
0.0
 10
10.6987035726
 20
7.0790316082
 30
0.0
 10
10.6805911076
 20
7.1020049465
 30
0.0
 10
10.6680785345
 20
7.1222376627
 30
0.0
 10
10.6598002185
 20
7.1388445229
 30
0.0
 10
10.6544870377
 20
7.1514016805
 30
0.0
 10
10.6500372108
 20
7.164121776
 30
0.0
 10
10.6464606626
 20
7.1769765749
 30
0.0
 10
10.6437656091
 20
7.1899358382
 30
0.0
 10
10.642557835
 20
7.1986462297
 30
0.0
 10
10.642104126
 20
7.2030026378
 30
0.0
  0
SPLINE
  5
2B6
100
AcDbEntity
  8
0
100
AcDbSpline
 62
9
  6
CONTINUOUS
 70
0
 71
3
 72
28
 73
24
 74
0
 42
0.0000001
 43
0.0000001
 44
0.0000000001
 40
0.0
 40
0.0
 40
0.0
 40
0.0
 40
0.072633983
 40
0.1449183997
 40
0.2165149538
 40
0.28709995
 40
0.3563762014
 40
0.4240811591
 40
0.4899962865
 40
0.5539565687
 40
0.6158601406
 40
0.6756779154
 40
0.7334620693
 40
0.7616435359
 40
0.7893768449
 40
0.816693789
 40
0.8436316918
 40
0.8702332043
 40
0.8965459385
 40
0.9226218842
 40
0.9485167597
 40
0.9742892365
 40
1.0
 40
1.0
 40
1.0
 40
1.0
 10
11.0473183383
 20
7.7950719782
 30
0.0
 10
11.034037085
 20
7.7950719782
 30
0.0
 10
11.0075292147
 20
7.7959904454
 30
0.0
 10
10.9681233928
 20
7.8001138558
 30
0.0
 10
10.9294727837
 20
7.806942597
 30
0.0
 10
10.8919491213
 20
7.8164121807
 30
0.0
 10
10.8559103479
 20
7.8284328786
 30
0.0
 10
10.8217009615
 20
7.8428913991
 30
0.0
 10
10.7896477569
 20
7.8596517485
 30
0.0
 10
10.7600574821
 20
7.8785565414
 30
0.0
 10
10.7332135988
 20
7.8994300405
 30
0.0
 10
10.7093768519
 20
7.9220749176
 30
0.0
 10
10.6920641048
 20
7.9424223372
 30
0.0
 10
10.6799937434
 20
7.9593618658
 30
0.0
 10
10.6718992548
 20
7.9722608277
 30
0.0
 10
10.6647093571
 20
7.9854265674
 30
0.0
 10
10.6584414746
 20
7.9988278336
 30
0.0
 10
10.6531112193
 20
8.0124322243
 30
0.0
 10
10.648731715
 20
8.0262068586
 30
0.0
 10
10.6453139506
 20
8.0401182926
 30
0.0
 10
10.6428665766
 20
8.0541329592
 30
0.0
 10
10.6413956433
 20
8.0682157876
 30
0.0
 10
10.6410683383
 20
8.0776328491
 30
0.0
 10
10.6410683383
 20
8.082334108
 30
0.0
  0
SPLINE
  5
2B7
100
AcDbEntity
  8
0
100
AcDbSpline
 62
7
  6
CONTINUOUS
 70
0
 71
3
 72
29
 73
25
 74
0
 42
0.0000001
 43
0.0000001
 44
0.0000000001
 40
0.0
 40
0.0
 40
0.0
 40
0.0
 40
0.0259897983
 40
0.0521091754
 40
0.0784067966
 40
0.1049287524
 40
0.1317179679
 40
0.1588137861
 40
0.1862515443
 40
0.21406219
 40
0.2422722072
 40
0.270903467
 40
0.2999731603
 40
0.3294939026
 40
0.3898995335
 40
0.4521510013
 40
0.5161957953
 40
0.5819234126
 40
0.6491727716
 40
0.7177395104
 40
0.7873837955
 40
0.8578374008
 40
0.9288100801
 40
1.0
 40
1.0
 40
1.0
 40
1.0
 10
11.4525337461
 20
7.2274932845
 30
0.0
 10
11.4520804325
 20
7.2228827466
 30
0.0
 10
11.4508739972
 20
7.2136652344
 30
0.0
 10
11.4481805159
 20
7.1999419172
 30
0.0
 10
11.4446057168
 20
7.1863228647
 30
0.0
 10
11.4401576559
 20
7.1728381342
 30
0.0
 10
11.4348465077
 20
7.1595163803
 30
0.0
 10
11.4286841814
 20
7.1463861395
 30
0.0
 10
11.421684401
 20
7.1334754377
 30
0.0
 10
11.4138629351
 20
7.1208116745
 30
0.0
 10
11.4052371119
 20
7.1084217385
 30
0.0
 10
11.3958260933
 20
7.0963319791
 30
0.0
 10
11.3856505361
 20
7.0845676075
 30
0.0
 10
11.3709837678
 20
7.0692338302
 30
0.0
 10
11.3508161606
 20
7.051026754
 30
0.0
 10
11.3241552244
 20
7.0310380078
 30
0.0
 10
11.2950793448
 20
7.0129012525
 30
0.0
 10
11.2638443159
 20
6.9967667907
 30
0.0
 10
11.2307222345
 20
6.9827659018
 30
0.0
 10
11.1960019431
 20
6.9710123715
 30
0.0
 10
11.1599861211
 20
6.9616008135
 30
0.0
 10
11.1229881907
 20
6.9546059211
 30
0.0
 10
11.0853326781
 20
6.9500812684
 30
0.0
 10
11.0600056214
 20
6.9487334259
 30
0.0
 10
11.0473183383
 20
6.9484784872
 30
0.0
  0
SPLINE
  5
2B8
100
AcDbEntity
  8
0
100
AcDbSpline
 62
7
  6
CONTINUOUS
 70
0
 71
3
 72
25
 73
21
 74
0
 42
0.0000001
 43
0.0000001
 44
0.0000000001
 40
0.0
 40
0.0
 40
0.0
 40
0.0
 40
0.049115992
 40
0.0755330902
 40
0.103108363
 40
0.1317399785
 40
0.1613035608
 40
0.1916672016
 40
0.2227016136
 40
0.2862948188
 40
0.3512876422
 40
0.4170683042
 40
0.4831961805
 40
0.5493573219
 40
0.6153265933
 40
0.6809397963
 40
0.7460736946
 40
0.810628382
 40
0.8745198439
 40
1.0
 40
1.0
 40
1.0
 40
1.0
 10
11.3727462656
 20
6.649481274
 30
0.0
 10
11.3727462656
 20
6.6469717739
 30
0.0
 10
11.3722594361
 20
6.6431040222
 30
0.0
 10
11.3708807861
 20
6.6380169931
 30
0.0
 10
11.3694377469
 20
6.6340440625
 30
0.0
 10
11.3676403329
 20
6.6300438018
 30
0.0
 10
11.365520308
 20
6.6260431737
 30
0.0
 10
11.3631104823
 20
6.6220665344
 30
0.0
 10
11.3595240479
 20
6.6167797244
 30
0.0
 10
11.354484452
 20
6.6103542235
 30
0.0
 10
11.3477855638
 20
6.6030132794
 30
0.0
 10
11.3405458698
 20
6.596019392
 30
0.0
 10
11.3328923386
 20
6.5893916755
 30
0.0
 10
11.3249216858
 20
6.5831346507
 30
0.0
 10
11.3167083936
 20
6.5772457748
 30
0.0
 10
11.3083101334
 20
6.5717194418
 30
0.0
 10
11.2997724436
 20
6.5665499073
 30
0.0
 10
11.2911319088
 20
6.5617322054
 30
0.0
 10
11.2795862729
 20
6.5558107222
 30
0.0
 10
11.2707539565
 20
6.5518352762
 30
0.0
 10
11.2648183383
 20
6.5494120702
 30
0.0
  0
SPLINE
  5
2B9
100
AcDbEntity
  8
0
100
AcDbSpline
 62
7
  6
CONTINUOUS
 70
0
 71
3
 72
28
 73
24
 74
0
 42
0.0000001
 43
0.0000001
 44
0.0000000001
 40
0.0
 40
0.0
 40
0.0
 40
0.0
 40
0.0756286682
 40
0.1500682112
 40
0.2231868063
 40
0.2948580999
 40
0.3649236217
 40
0.4331991026
 40
0.49947511
 40
0.5635137086
 40
0.6250598154
 40
0.6838718901
 40
0.7397901682
 40
0.7666936632
 40
0.7929332728
 40
0.8185955576
 40
0.8438155473
 40
0.8687885468
 40
0.8937697692
 40
0.9190634484
 40
0.9449964583
 40
0.9718885973
 40
1.0
 40
1.0
 40
1.0
 40
1.0
 10
11.2648183383
 20
6.5494120702
 30
0.0
 10
11.2619114896
 20
6.5482253542
 30
0.0
 10
11.2561019509
 20
6.5459707321
 30
0.0
 10
11.2473457528
 20
6.542934262
 30
0.0
 10
11.2386361208
 20
6.5402843916
 30
0.0
 10
11.2299999083
 20
6.5380420704
 30
0.0
 10
11.2214671479
 20
6.536234786
 30
0.0
 10
11.2130742596
 20
6.534896911
 30
0.0
 10
11.2048658622
 20
6.534070839
 30
0.0
 10
11.1968979777
 20
6.5338086973
 30
0.0
 10
11.189241102
 20
6.5341739207
 30
0.0
 10
11.1819876503
 20
6.5352420632
 30
0.0
 10
11.1762991654
 20
6.5368153172
 30
0.0
 10
11.1721069343
 20
6.5385389683
 30
0.0
 10
11.1692007268
 20
6.5400524548
 30
0.0
 10
11.1665204756
 20
6.5418150869
 30
0.0
 10
11.1640969817
 20
6.5438377928
 30
0.0
 10
11.1619640582
 20
6.5461282452
 30
0.0
 10
11.1601575163
 20
6.5486892356
 30
0.0
 10
11.1587126344
 20
6.5515159674
 30
0.0
 10
11.1576603097
 20
6.5545952652
 30
0.0
 10
11.157024521
 20
6.5579048212
 30
0.0
 10
11.1568904109
 20
6.5601914338
 30
0.0
 10
11.1568904109
 20
6.5613584903
 30
0.0
  0
SPLINE
  5
2BA
100
AcDbEntity
  8
0
100
AcDbSpline
 62
9
  6
CONTINUOUS
 70
0
 71
3
 72
20
 73
16
 74
0
 42
0.0000001
 43
0.0000001
 44
0.0000000001
 40
0.0
 40
0.0
 40
0.0
 40
0.0
 40
0.1384069522
 40
0.272230471
 40
0.4016121397
 40
0.4647563553
 40
0.5269278692
 40
0.5881972987
 40
0.6486468683
 40
0.7083698779
 40
0.7674699391
 40
0.8260597379
 40
0.8842596658
 40
0.9421962083
 40
1.0
 40
1.0
 40
1.0
 40
1.0
 10
11.3727462656
 20
6.649481274
 30
0.0
 10
11.3826423079
 20
6.6567240762
 30
0.0
 10
11.4014798186
 20
6.671857115
 30
0.0
 10
11.4269543211
 20
6.6967827923
 30
0.0
 10
11.4454367247
 20
6.7191026156
 30
0.0
 10
11.4583152917
 20
6.7376468113
 30
0.0
 10
11.4669509693
 20
6.7517556988
 30
0.0
 10
11.4746192841
 20
6.7661428733
 30
0.0
 10
11.4813024953
 20
6.780775667
 30
0.0
 10
11.4869846746
 20
6.7956202195
 30
0.0
 10
11.4916524508
 20
6.8106422043
 30
0.0
 10
11.4952946316
 20
6.8258067291
 30
0.0
 10
11.4979024097
 20
6.8410787964
 30
0.0
 10
11.4994696284
 20
6.8564218612
 30
0.0
 10
11.4998183386
 20
6.866680268
 30
0.0
 10
11.4998183383
 20
6.8718018917
 30
0.0
  0
SPLINE
  5
2BB
100
AcDbEntity
  8
0
100
AcDbSpline
 62
7
  6
CONTINUOUS
 70
0
 71
3
 72
21
 73
17
 74
0
 42
0.0000001
 43
0.0000001
 44
0.0000000001
 40
0.0
 40
0.0
 40
0.0
 40
0.0
 40
0.143492706
 40
0.2132582982
 40
0.2815936821
 40
0.4137535686
 40
0.4776316534
 40
0.5400521152
 40
0.6010746161
 40
0.6607877445
 40
0.7193091698
 40
0.7767848277
 40
0.8333871258
 40
0.8893117495
 40
0.9447733663
 40
1.0
 40
1.0
 40
1.0
 40
1.0
 10
11.2735683383
 20
6.8224821519
 30
0.0
 10
11.2903661861
 20
6.8293398445
 30
0.0
 10
11.3148340883
 20
6.8408413208
 30
0.0
 10
11.3456545468
 20
6.858703253
 30
0.0
 10
11.3741703051
 20
6.8775614222
 30
0.0
 10
11.4003406648
 20
6.8985376857
 30
0.0
 10
11.4236361675
 20
6.9214884978
 30
0.0
 10
11.4393067472
 20
6.9392777778
 30
0.0
 10
11.4533007321
 20
6.9577580441
 30
0.0
 10
11.4655580634
 20
6.976851939
 30
0.0
 10
11.4760245122
 20
6.996478073
 30
0.0
 10
11.4846535754
 20
7.0165527346
 30
0.0
 10
11.4914063976
 20
7.0369894574
 30
0.0
 10
11.4962522256
 20
7.0577004674
 30
0.0
 10
11.4991687527
 20
7.0785932007
 30
0.0
 10
11.4998183383
 20
7.0925976188
 30
0.0
 10
11.4998183383
 20
7.099580679
 30
0.0
  0
SPLINE
  5
2BC
100
AcDbEntity
  8
0
100
AcDbSpline
 62
7
  6
CONTINUOUS
 70
0
 71
3
 72
35
 73
31
 74
0
 42
0.0000001
 43
0.0000001
 44
0.0000000001
 40
0.0
 40
0.0
 40
0.0
 40
0.0
 40
0.0667174868
 40
0.1007491711
 40
0.135140262
 40
0.2047095947
 40
0.2397643537
 40
0.2748942118
 40
0.3450599528
 40
0.3799653363
 40
0.4146486622
 40
0.4830511255
 40
0.5166608109
 40
0.5497904961
 40
0.5823881478
 40
0.6144084821
 40
0.6458138716
 40
0.6765752988
 40
0.7066732422
 40
0.736098624
 40
0.7648536226
 40
0.7929524638
 40
0.8204220075
 40
0.8473021313
 40
0.8736458048
 40
0.8995187216
 40
0.9249984917
 40
0.9501732038
 40
0.9751394911
 40
1.0
 40
1.0
 40
1.0
 40
1.0
 10
11.2735683383
 20
6.8224821519
 30
0.0
 10
11.2562182354
 20
6.815399002
 30
0.0
 10
11.2294218033
 20
6.8060986441
 30
0.0
 10
11.1927265458
 20
6.7963441539
 30
0.0
 10
11.1548132671
 20
6.7882207756
 30
0.0
 10
11.1160747262
 20
6.7827959305
 30
0.0
 10
11.0769027738
 20
6.7800708066
 30
0.0
 10
11.0374789207
 20
6.7791591518
 30
0.0
 10
10.9980728457
 20
6.7809776376
 30
0.0
 10
10.959069572
 20
6.7855261317
 30
0.0
 10
10.9208135388
 20
6.7918265738
 30
0.0
 10
10.8833975953
 20
6.8007671106
 30
0.0
 10
10.8472315788
 20
6.8123405878
 30
0.0
 10
10.8211145493
 20
6.8221997688
 30
0.0
 10
10.7959636689
 20
6.8332450529
 30
0.0
 10
10.7718852646
 20
6.8454299768
 30
0.0
 10
10.7489823853
 20
6.8587028778
 30
0.0
 10
10.7273527965
 20
6.8730076571
 30
0.0
 10
10.7070890039
 20
6.8882838806
 30
0.0
 10
10.6882778087
 20
6.9044670706
 30
0.0
 10
10.6709999974
 20
6.9214889421
 30
0.0
 10
10.6553300619
 20
6.9392776628
 30
0.0
 10
10.6413359101
 20
6.9577580739
 30
0.0
 10
10.6290786221
 20
6.9768519313
 30
0.0
 10
10.618612162
 20
6.996478075
 30
0.0
 10
10.6099831018
 20
7.016552734
 30
0.0
 10
10.6032302788
 20
7.0369894575
 30
0.0
 10
10.598384451
 20
7.0577004673
 30
0.0
 10
10.5954679239
 20
7.0785932007
 30
0.0
 10
10.5948183383
 20
7.0925976188
 30
0.0
 10
10.5948183383
 20
7.099580679
 30
0.0
  0
SPLINE
  5
2BD
100
AcDbEntity
  8
0
100
AcDbSpline
 62
9
  6
CONTINUOUS
 70
0
 71
3
 72
28
 73
24
 74
0
 42
0.0000001
 43
0.0000001
 44
0.0000000001
 40
0.0
 40
0.0
 40
0.0
 40
0.0
 40
0.0656047271
 40
0.1327780189
 40
0.2010890274
 40
0.2700619839
 40
0.339196475
 40
0.4079861728
 40
0.4759374917
 40
0.5425885755
 40
0.6075286864
 40
0.6704183128
 40
0.7310101606
 40
0.7604105194
 40
0.7891971249
 40
0.8173744645
 40
0.8449565709
 40
0.8719674237
 40
0.8984412007
 40
0.9244223141
 40
0.9499651724
 40
0.9751336212
 40
1.0
 40
1.0
 40
1.0
 40
1.0
 10
11.2201279562
 20
6.44947808
 30
0.0
 10
11.2078652672
 20
6.4444718582
 30
0.0
 10
11.1825298278
 20
6.4355654931
 30
0.0
 10
11.1430973666
 20
6.4256869479
 30
0.0
 10
11.1022707397
 20
6.4192406051
 30
0.0
 10
11.0606472442
 20
6.4163209065
 30
0.0
 10
11.0188299152
 20
6.4169691133
 30
0.0
 10
10.9774263311
 20
6.4211760738
 30
0.0
 10
10.9370374035
 20
6.4288815373
 30
0.0
 10
10.8982494638
 20
6.4399749638
 30
0.0
 10
10.8616241787
 20
6.4542988999
 30
0.0
 10
10.8276960585
 20
6.4716478231
 30
0.0
 10
10.8018152468
 20
6.4885972084
 30
0.0
 10
10.7829746167
 20
6.5034529826
 30
0.0
 10
10.7699523778
 20
6.5150655346
 30
0.0
 10
10.7579472719
 20
6.5272163533
 30
0.0
 10
10.7470032446
 20
6.5398616839
 30
0.0
 10
10.7371610546
 20
6.5529554953
 30
0.0
 10
10.728457432
 20
6.5664501915
 30
0.0
 10
10.7209251552
 20
6.5802964155
 30
0.0
 10
10.7145927344
 20
6.5944438253
 30
0.0
 10
10.7094847006
 20
6.6088389444
 30
0.0
 10
10.7068951495
 20
6.6186173641
 30
0.0
 10
10.7058153552
 20
6.6235202461
 30
0.0
  0
SPLINE
  5
2BE
100
AcDbEntity
  8
0
100
AcDbSpline
 62
7
  6
CONTINUOUS
 70
0
 71
3
 72
15
 73
11
 74
0
 42
0.0000001
 43
0.0000001
 44
0.0000000001
 40
0.0
 40
0.0
 40
0.0
 40
0.0
 40
0.1223854297
 40
0.2450326345
 40
0.3681969255
 40
0.4921259995
 40
0.6170566226
 40
0.7432116029
 40
0.8707969613
 40
1.0
 40
1.0
 40
1.0
 40
1.0
 10
10.5873564532
 20
6.5340464431
 30
0.0
 10
10.5873597248
 20
6.5390448253
 30
0.0
 10
10.5876929951
 20
6.5490551218
 30
0.0
 10
10.5891710998
 20
6.5640300513
 30
0.0
 10
10.5916245058
 20
6.5789408262
 30
0.0
 10
10.5950476686
 20
6.5937546205
 30
0.0
 10
10.5994330088
 20
6.6084398942
 30
0.0
 10
10.6047710937
 20
6.6229653124
 30
0.0
 10
10.6110498521
 20
6.6372993386
 30
0.0
 10
10.6158223279
 20
6.6466460261
 30
0.0
 10
10.6183556377
 20
6.6512749792
 30
0.0
  0
SPLINE
  5
2BF
100
AcDbEntity
  8
0
100
AcDbSpline
 62
7
  6
CONTINUOUS
 70
0
 71
3
 72
15
 73
11
 74
0
 42
0.0000001
 43
0.0000001
 44
0.0000000001
 40
0.0
 40
0.0
 40
0.0
 40
0.0
 40
0.1313586306
 40
0.2603225453
 40
0.3871319323
 40
0.5120695396
 40
0.6354570704
 40
0.7576498779
 40
0.8790304489
 40
1.0
 40
1.0
 40
1.0
 40
1.0
 10
11.4601781503
 20
6.7166497402
 30
0.0
 10
11.4641996434
 20
6.7110177453
 30
0.0
 10
11.4717923931
 20
6.6995808315
 30
0.0
 10
11.4818406914
 20
6.6818128114
 30
0.0
 10
11.4904050888
 20
6.6636550827
 30
0.0
 10
11.4974545604
 20
6.6451706886
 30
0.0
 10
11.5029641175
 20
6.6264229543
 30
0.0
 10
11.5069138565
 20
6.6074761621
 30
0.0
 10
11.5092894787
 20
6.5883976787
 30
0.0
 10
11.5098183002
 20
6.5756236518
 30
0.0
 10
11.5098183178
 20
6.5692505931
 30
0.0
  0
SPLINE
  5
2C0
100
AcDbEntity
  8
0
100
AcDbSpline
 62
7
  6
CONTINUOUS
 70
0
 71
3
 72
9
 73
5
 74
0
 42
0.0000001
 43
0.0000001
 44
0.0000000001
 40
0.0
 40
0.0
 40
0.0
 40
0.0
 40
0.5061444093
 40
1.0
 40
1.0
 40
1.0
 40
1.0
 10
11.4485235416
 20
6.6965922641
 30
0.0
 10
11.4542044439
 20
6.6895877937
 30
0.0
 10
11.4648529347
 20
6.6752702289
 30
0.0
 10
11.4741799157
 20
6.6600546107
 30
0.0
 10
11.4784177198
 20
6.6523426267
 30
0.0
  0
SPLINE
  5
2C1
100
AcDbEntity
  8
0
100
AcDbSpline
 62
7
  6
CONTINUOUS
 70
0
 71
3
 72
11
 73
7
 74
0
 42
0.0000001
 43
0.0000001
 44
0.0000000001
 40
0.0
 40
0.0
 40
0.0
 40
0.0
 40
0.2557345031
 40
0.5070935555
 40
0.7548813694
 40
1.0
 40
1.0
 40
1.0
 40
1.0
 10
11.4784177198
 20
6.6523426267
 30
0.0
 10
11.4820565195
 20
6.6457207151
 30
0.0
 10
11.4887402568
 20
6.6322887773
 30
0.0
 10
11.4969454532
 20
6.6115201822
 30
0.0
 10
11.5032003642
 20
6.5904094111
 30
0.0
 10
11.5060628233
 20
6.5761058526
 30
0.0
 10
11.5071542685
 20
6.5689463908
 30
0.0
  0
SPLINE
  5
2C2
100
AcDbEntity
  8
0
100
AcDbSpline
 62
7
  6
CONTINUOUS
 70
0
 71
3
 72
10
 73
6
 74
0
 42
0.0000001
 43
0.0000001
 44
0.0000000001
 40
0.0
 40
0.0
 40
0.0
 40
0.0
 40
0.4887328342
 40
0.7417534297
 40
1.0
 40
1.0
 40
1.0
 40
1.0
 10
11.4675552138
 20
6.0583932218
 30
0.0
 10
11.4477321813
 20
6.0433842038
 30
0.0
 10
11.4159396802
 20
6.0227719739
 30
0.0
 10
11.3707812464
 20
5.9993050713
 30
0.0
 10
11.3469819434
 20
5.9887569758
 30
0.0
 10
11.3348183383
 20
5.9837912048
 30
0.0
  0
SPLINE
  5
2C3
100
AcDbEntity
  8
0
100
AcDbSpline
 62
7
  6
CONTINUOUS
 70
0
 71
3
 72
11
 73
7
 74
0
 42
0.0000001
 43
0.0000001
 44
0.0000000001
 40
0.0
 40
0.0
 40
0.0
 40
0.0
 40
0.2446557474
 40
0.4932515703
 40
0.7452341505
 40
1.0
 40
1.0
 40
1.0
 40
1.0
 10
11.3348183383
 20
5.9837912048
 30
0.0
 10
11.3224300842
 20
5.9787337213
 30
0.0
 10
11.2971410207
 20
5.9692879205
 30
0.0
 10
11.2581796414
 20
5.9572463896
 30
0.0
 10
11.2180691537
 20
5.9472717683
 30
0.0
 10
11.1908320037
 20
5.9420601754
 30
0.0
 10
11.1770814628
 20
5.9398078096
 30
0.0
  0
SPLINE
  5
2C4
100
AcDbEntity
  8
0
100
AcDbSpline
 62
7
  6
CONTINUOUS
 70
0
 71
3
 72
39
 73
35
 74
0
 42
0.0000001
 43
0.0000001
 44
0.0000000001
 40
0.0
 40
0.0
 40
0.0
 40
0.0
 40
0.0695851569
 40
0.1051501438
 40
0.1410845364
 40
0.177279196
 40
0.213620638
 40
0.2499930294
 40
0.2862800358
 40
0.3223666899
 40
0.3581412912
 40
0.3934972666
 40
0.4283351635
 40
0.4625645793
 40
0.4961062268
 40
0.5288940086
 40
0.5608771376
 40
0.5920223135
 40
0.6072786469
 40
0.6223221069
 40
0.6517717145
 40
0.6804084575
 40
0.708287735
 40
0.7354897029
 40
0.7621185734
 40
0.7883004731
 40
0.8141797363
 40
0.8399136222
 40
0.8656657718
 40
0.8915990341
 40
0.9178683145
 40
0.9446143112
 40
0.9719585416
 40
1.0
 40
1.0
 40
1.0
 40
1.0
 10
11.2793040315
 20
6.2842365444
 30
0.0
 10
11.2563475296
 20
6.2753356419
 30
0.0
 10
11.2207405516
 20
6.2641234842
 30
0.0
 10
11.1719635295
 20
6.2534181942
 30
0.0
 10
11.1343063263
 20
6.2474342712
 30
0.0
 10
11.0960977296
 20
6.2435960983
 30
0.0
 10
11.0575774321
 20
6.2419269849
 30
0.0
 10
11.0189919666
 20
6.2424377791
 30
0.0
 10
10.9805869805
 20
6.2451251684
 30
0.0
 10
10.9426073078
 20
6.2499721319
 30
0.0
 10
10.9052949635
 20
6.2569479555
 30
0.0
 10
10.868887695
 20
6.2660084655
 30
0.0
 10
10.833617449
 20
6.2770963012
 30
0.0
 10
10.7997088718
 20
6.290141404
 30
0.0
 10
10.7673780588
 20
6.3050613736
 30
0.0
 10
10.7368307194
 20
6.3217624907
 30
0.0
 10
10.7082628296
 20
6.3401387986
 30
0.0
 10
10.6861037386
 20
6.3568689119
 30
0.0
 10
10.6695634452
 20
6.3709876906
 30
0.0
 10
10.6540531168
 20
6.3853611593
 30
0.0
 10
10.6361851279
 20
6.4041251292
 30
0.0
 10
10.6172192161
 20
6.4279590496
 30
0.0
 10
10.6010026005
 20
6.4528033058
 30
0.0
 10
10.587644257
 20
6.4784998647
 30
0.0
 10
10.5772346858
 20
6.5048848117
 30
0.0
 10
10.5698461163
 20
6.5317875996
 30
0.0
 10
10.5655308042
 20
6.5590322707
 30
0.0
 10
10.5643197869
 20
6.5864387936
 30
0.0
 10
10.5662218413
 20
6.6138250558
 30
0.0
 10
10.5712232531
 20
6.641009256
 30
0.0
 10
10.5792880249
 20
6.6678119343
 30
0.0
 10
10.5903598114
 20
6.694058909
 30
0.0
 10
10.6043602681
 20
6.7195784705
 30
0.0
 10
10.61543878
 20
6.7357862015
 30
0.0
 10
10.6214063541
 20
6.7437130696
 30
0.0
  0
SPLINE
  5
2C5
100
AcDbEntity
  8
0
100
AcDbSpline
 62
7
  6
CONTINUOUS
 70
0
 71
3
 72
33
 73
29
 74
0
 42
0.0000001
 43
0.0000001
 44
0.0000000001
 40
0.0
 40
0.0
 40
0.0
 40
0.0
 40
0.031079536
 40
0.0616761682
 40
0.091823453
 40
0.1215607397
 40
0.1509328459
 40
0.1799896771
 40
0.2087857673
 40
0.2373795552
 40
0.2658325882
 40
0.294208657
 40
0.3225727663
 40
0.3509901157
 40
0.379525068
 40
0.408240088
 40
0.4371948572
 40
0.4664454363
 40
0.4960434755
 40
0.5260357149
 40
0.5564635542
 40
0.5873626778
 40
0.6506647894
 40
0.7161360427
 40
0.7838526301
 40
0.8538049583
 40
0.925905315
 40
1.0
 40
1.0
 40
1.0
 40
1.0
 10
11.473319331
 20
6.7435947541
 30
0.0
 10
11.4769147269
 20
6.7388144095
 30
0.0
 10
11.483789654
 20
6.7291287807
 30
0.0
 10
11.4931795611
 20
6.7141462947
 30
0.0
 10
11.5015427528
 20
6.6988600572
 30
0.0
 10
11.5088592342
 20
6.6833058295
 30
0.0
 10
11.5151118393
 20
6.6675192998
 30
0.0
 10
11.5202856131
 20
6.651536954
 30
0.0
 10
11.5243683063
 20
6.6353958437
 30
0.0
 10
11.5273501812
 20
6.6191334685
 30
0.0
 10
11.5292239822
 20
6.6027876748
 30
0.0
 10
11.5299852044
 20
6.5863965988
 30
0.0
 10
11.5296320936
 20
6.5699985099
 30
0.0
 10
11.5281654505
 20
6.5536316925
 30
0.0
 10
11.5255887464
 20
6.5373343527
 30
0.0
 10
11.5219082853
 20
6.5211444512
 30
0.0
 10
11.5171328812
 20
6.5050996203
 30
0.0
 10
11.5112738494
 20
6.4892371112
 30
0.0
 10
11.504345156
 20
6.4735935671
 30
0.0
 10
11.4963633199
 20
6.4582051645
 30
0.0
 10
11.4873466849
 20
6.4431069266
 30
0.0
 10
11.4738674857
 20
6.4232530542
 30
0.0
 10
11.4544655926
 20
6.3993353181
 30
0.0
 10
11.4276419587
 20
6.3725896675
 30
0.0
 10
11.3973351002
 20
6.3477977993
 30
0.0
 10
11.3638263927
 20
6.3251837949
 30
0.0
 10
11.3274260038
 20
6.3049499467
 30
0.0
 10
11.3017706688
 20
6.2933128574
 30
0.0
 10
11.2885683383
 20
6.2879230285
 30
0.0
  0
SPLINE
  5
2C6
100
AcDbEntity
  8
0
100
AcDbSpline
 62
7
  6
CONTINUOUS
 70
0
 71
3
 72
31
 73
27
 74
0
 42
0.0000001
 43
0.0000001
 44
0.0000000001
 40
0.0
 40
0.0
 40
0.0
 40
0.0
 40
0.0707223785
 40
0.1419026223
 40
0.2130943301
 40
0.2838501296
 40
0.3537366492
 40
0.4223489183
 40
0.4893251668
 40
0.5221113293
 40
0.5543806498
 40
0.5861070418
 40
0.6172700823
 40
0.6778329533
 40
0.7072477195
 40
0.7360841319
 40
0.7643573264
 40
0.7920907111
 40
0.819316074
 40
0.8460736073
 40
0.8724116993
 40
0.8983864806
 40
0.9240611527
 40
0.9495049871
 40
0.9747921045
 40
1.0
 40
1.0
 40
1.0
 40
1.0
 10
11.1770814628
 20
6.187295183
 30
0.0
 10
11.1559873805
 20
6.1838399305
 30
0.0
 10
11.1133598062
 20
6.1786376234
 30
0.0
 10
11.0489456023
 20
6.1759546488
 30
0.0
 10
10.9845066262
 20
6.178380858
 30
0.0
 10
10.9208542105
 20
6.1858871034
 30
0.0
 10
10.8587814523
 20
6.1983807324
 30
0.0
 10
10.799067896
 20
6.215706046
 30
0.0
 10
10.7515480929
 20
6.2341269167
 30
0.0
 10
10.7154244686
 20
6.2511131346
 30
0.0
 10
10.6895662941
 20
6.2648126382
 30
0.0
 10
10.6648342591
 20
6.2795186974
 30
0.0
 10
10.6337675444
 20
6.3002044204
 30
0.0
 10
10.6049080027
 20
6.3228802596
 30
0.0
 10
10.5786812899
 20
6.3474345528
 30
0.0
 10
10.5606753742
 20
6.3664226983
 30
0.0
 10
10.544204581
 20
6.3860986147
 30
0.0
 10
10.5293205835
 20
6.4064014906
 30
0.0
 10
10.5160713243
 20
6.4272675196
 30
0.0
 10
10.5044994726
 20
6.4486312249
 30
0.0
 10
10.4946426103
 20
6.4704252739
 30
0.0
 10
10.4865329776
 20
6.4925807853
 30
0.0
 10
10.4801973124
 20
6.5150272495
 30
0.0
 10
10.4756566491
 20
6.537693581
 30
0.0
 10
10.4729261422
 20
6.5605052933
 30
0.0
 10
10.4723183669
 20
6.5757738709
 30
0.0
 10
10.4723183658
 20
6.5833927287
 30
0.0
  0
SPLINE
  5
2C7
100
AcDbEntity
  8
0
100
AcDbSpline
 62
7
  6
CONTINUOUS
 70
0
 71
3
 72
21
 73
17
 74
0
 42
0.0000001
 43
0.0000001
 44
0.0000000001
 40
0.0
 40
0.0
 40
0.0
 40
0.0
 40
0.1177653218
 40
0.1785991643
 40
0.2405199604
 40
0.3033606211
 40
0.3669397686
 40
0.43106546
 40
0.4955383386
 40
0.5601549296
 40
0.6247111225
 40
0.6890051007
 40
0.7528407777
 40
0.8160311168
 40
0.878401197
 40
1.0
 40
1.0
 40
1.0
 40
1.0
 10
10.8145380174
 20
6.9280304906
 30
0.0
 10
10.8307546955
 20
6.9195201448
 30
0.0
 10
10.8563007478
 20
6.9083478608
 30
0.0
 10
10.8918430169
 20
6.8966499104
 30
0.0
 10
10.9197800605
 20
6.8893209146
 30
0.0
 10
10.9485193443
 20
6.8835863439
 30
0.0
 10
10.9778832571
 20
6.879484811
 30
0.0
 10
11.0076859349
 20
6.8770463743
 30
0.0
 10
11.0377398966
 20
6.8762902252
 30
0.0
 10
11.0678557778
 20
6.8772251408
 30
0.0
 10
11.0978438283
 20
6.8798492292
 30
0.0
 10
11.127515398
 20
6.8841501264
 30
0.0
 10
11.156682787
 20
6.8901045417
 30
0.0
 10
11.1851654706
 20
6.8976804084
 30
0.0
 10
11.2216637237
 20
6.909776406
 30
0.0
 10
11.2479741261
 20
6.9212758384
 30
0.0
 10
11.2647464445
 20
6.9300101155
 30
0.0
  0
ELLIPSE
  5
2C8
100
AcDbEntity
  8
0
100
AcDbEllipse
 62
7
  6
CONTINUOUS
 10
11.0473183383
 20
6.7036008815
 30
0.0
 11
0.4522967215
 21
0.1611958191
 31
0.0
 40
0.084133201
 41
-1.3561925479
 42
-0.7981537211
  0
ENDSEC
  0
SECTION
  2
OBJECTS
  0
DICTIONARY
  5
C
100
AcDbDictionary
280
0
281
1
  3
ACAD_GROUP
350
D
  3
ACAD_MLINESTYLE
350
17
  3
ACAD_LAYOUT
350
1A
  3
ACAD_PLOTSETTINGS
350
19
  3
ACAD_PLOTSTYLENAME
350
E
  0
DICTIONARY
  5
D
102
{ACAD_REACTORS
330
C
102
}
100
AcDbDictionary
280
0
281
1
  0
ACDBDICTIONARYWDFLT
  5
E
102
{ACAD_REACTORS
330
C
102
}
100
AcDbDictionary
281
1
  3
Normal
350
F
100
AcDbDictionaryWithDefault
340
F
  0
DICTIONARY
  5
17
102
{ACAD_REACTORS
330
C
102
}
100
AcDbDictionary
280
0
281
1
  3
Standard
350
18
  0
DICTIONARY
  5
19
102
{ACAD_REACTORS
330
C
102
}
100
AcDbDictionary
281
1
  0
DICTIONARY
  5
1A
102
{ACAD_REACTORS
330
C
102
}
100
AcDbDictionary
281
1
  3
Model
350
2C9
  3
Layout1
350
2CA
  0
ACDBPLACEHOLDER
  5
F
102
{ACAD_REACTORS
330
E
102
}
  0
MLINESTYLE
  5
18
102
{ACAD_REACTORS
330
17
102
}
100
AcDbMlineStyle
  2
STANDARD
 70
0
  3

 62
256
 51
90.0
 52
90.0
 71
2
 49
0.5
 62
256
  6
BYLAYER
 49
-0.5
 62
256
  6
BYLAYER
  0
LAYOUT
  5
2C9
102
{ACAD_REACTORS
330
1A
102
}
100
AcDbPlotSettings
  1

  2
none_device
  4
ANSI_C_(22.00_x_17.00_Inches)
  6

 40
0.0
 41
0.0
 42
0.0
 43
0.0
 44
558.8
 45
431.8
 46
0.0
 47
0.0
 48
0.0
 49
0.0
140
0.0
141
0.0
142
1.0
143
1.0
 70
1024
 72
0
 73
0
 74
0
  7

 75
0
147
1.0
148
0.0
149
0.0
100
AcDbLayout
  1
Model
 70
0
 71
0
 10
0.0
 20
0.0
 11
22.0
 21
17.0
 12
0.0
 22
0.0
 32
0.0
 14
0.0
 24
0.0
 34
0.0
 15
0.0
 25
0.0
 35
0.0
146
0.0
 13
0.0
 23
0.0
 33
0.0
 16
1.0
 26
0.0
 36
0.0
 17
0.0
 27
1.0
 37
0.0
 76
0
330
205
345
0
346
0
  0
LAYOUT
  5
2CA
102
{ACAD_REACTORS
330
1A
102
}
100
AcDbPlotSettings
  1

  2
none_device
  4
ANSI_C_(22.00_x_17.00_Inches)
  6

 40
0.0
 41
0.0
 42
0.0
 43
0.0
 44
558.8
 45
431.8
 46
0.0
 47
0.0
 48
0.0
 49
0.0
140
0.0
141
0.0
142
1.0
143
1.0
 70
0
 72
0
 73
0
 74
0
  7

 75
0
147
1.0
148
0.0
149
0.0
100
AcDbLayout
  1
Layout1
 70
0
 71
1
 10
0.0
 20
0.0
 11
22.0
 21
17.0
 12
0.0
 22
0.0
 32
0.0
 14
0.0
 24
0.0
 34
0.0
 15
0.0
 25
0.0
 35
0.0
146
0.0
 13
0.0
 23
0.0
 33
0.0
 16
1.0
 26
0.0
 36
0.0
 17
0.0
 27
1.0
 37
0.0
 76
0
330
206
345
0
346
0
  0
ENDSEC
  0
EOF
