999
DXF file: E:\BT Custom\CADOUTPUT\_TOP.dxf
999
Pro/ENGINEER 2018400 by Parametric Technology Corporation
  0
SECTION
  2
HEADER
  9
$ACADVER
  1
AC1018
  9
$DWGCODEPAGE
  3
ANSI_1252
  9
$EXTMAX
 10
22.0
 20
17.0
 30
0.0
  9
$EXTMIN
 10
0.0
 20
0.0
 30
0.0
  9
$LIMMIN
 10
0.0
 20
0.0
  9
$LIMMAX
 10
22.0
 20
17.0
  9
$VIEWCTR
 10
11.0
 20
8.5
  9
$VIEWSIZE
 40
17.0
  9
$CLAYER
  8
0
  9
$LTSCALE
 40
1.21
  9
$CELTYPE
  6
BYLAYER
  9
$DIMSCALE
 40
1.0
  9
$DIMASZ
 40
0.1
  9
$DIMEXO
 40
0.0625
  9
$DIMDLI
 40
0.836
  9
$DIMEXE
 40
0.125
  9
$DIMCEN
 40
0.198
  9
$DIMLFAC
 40
1.0
  9
$DIMBLK
  1
_FILLED
  9
$DIMALT
 70
1
  9
$DIMALTD
 70
2
  9
$DIMALTTD
 70
2
  9
$DIMALTF
 40
25.4
  9
$DIMTXT
 40
0.08
  9
$DIMTOL
 70
1
  9
$DIMLIM
 70
0
  9
$DIMTFAC
 40
1.0
  9
$DIMTP
 40
0.001
  9
$DIMTM
 40
0.001
  9
$DIMGAP
 40
0.09
  9
$DIMDSEP
 70
46
  9
$AUNITS
 70
0
  9
$PDMODE
 70
3
  9
$PDSIZE
 40
0.06
  9
$HANDSEED
  5
25F
  9
$TILEMODE
 70
1
  9
$MEASUREMENT
 70
0
  9
$INSUNITS
 70
1
  0
ENDSEC
  0
SECTION
  2
CLASSES
  0
CLASS
  1
ACDBDICTIONARYWDFLT
  2
AcDbDictionaryWithDefault
  3
AutoCAD 2000
 90
0
 91
1
280
0
281
0
  0
CLASS
  1
ACDBPLACEHOLDER
  2
AcDbPlaceHolder
  3
AutoCAD 2000
 90
0
 91
1
280
0
281
0
  0
CLASS
  1
LAYOUT
  2
AcDbLayout
  3
AutoCAD 2000
 90
0
 91
0
280
0
281
0
  0
ENDSEC
  0
SECTION
  2
TABLES
  0
TABLE
  2
VPORT
  5
8
100
AcDbSymbolTable
 70
2
  0
VPORT
  5
1F4
100
AcDbSymbolTableRecord
100
AcDbViewportTableRecord
  2
*ACTIVE
 70
0
 10
0.0
 20
0.0
 11
1.0
 21
1.0
 12
11.0
 22
8.5
 13
0.0
 23
0.0
 14
1.0
 24
1.0
 15
0.0
 25
0.0
 16
0.0
 26
0.0
 36
1.0
 17
0.0
 27
0.0
 37
0.0
 40
17.0
 41
1.2941176471
 42
50.0
 43
0.0
 44
0.0
 50
0.0
 51
0.0
 71
0
 72
100
 73
1
 74
1
 75
0
 76
0
 77
0
 78
0
  0
ENDTAB
  0
TABLE
  2
LTYPE
  5
5
100
AcDbSymbolTable
 70
6
  0
LTYPE
  5
14
100
AcDbSymbolTableRecord
100
AcDbLinetypeTableRecord
  2
BYBLOCK
 70
0
  3

 72
65
 73
0
 40
0.0
  0
LTYPE
  5
15
100
AcDbSymbolTableRecord
100
AcDbLinetypeTableRecord
  2
BYLAYER
 70
0
  3

 72
65
 73
0
 40
0.0
  0
LTYPE
  5
16
100
AcDbSymbolTableRecord
100
AcDbLinetypeTableRecord
  2
CONTINUOUS
 70
64
  3
Solid line
 72
65
 73
0
 40
0.0
  0
LTYPE
  5
1F5
100
AcDbSymbolTableRecord
100
AcDbLinetypeTableRecord
  2
CENTER
 70
64
  3
____ _ ____ _ ____ _ ____ _ ____ _ ____ _ ____
 72
65
 73
4
 40
0.6
 49
0.375
 74
0
 49
-0.075
 74
0
 49
0.075
 74
0
 49
-0.075
 74
0
  0
LTYPE
  5
1F6
100
AcDbSymbolTableRecord
100
AcDbLinetypeTableRecord
  2
HIDDEN
 70
64
  3
- - - - - - - - - - - - - - - - - - - -
 72
65
 73
2
 40
0.2
 49
0.1
 74
0
 49
-0.1
 74
0
  0
LTYPE
  5
1F7
100
AcDbSymbolTableRecord
100
AcDbLinetypeTableRecord
  2
PHANTOM
 70
64
  3
_____ _ _ _____ _ _ _____ _ _ _____
 72
65
 73
6
 40
0.8
 49
0.45
 74
0
 49
-0.05
 74
0
 49
0.1
 74
0
 49
-0.05
 74
0
 49
0.1
 74
0
 49
-0.05
 74
0
  0
LTYPE
  5
1F8
100
AcDbSymbolTableRecord
100
AcDbLinetypeTableRecord
  2
DOT
 70
64
  3
. . . . . . . . . . . . . . . . . . . .
 72
65
 73
2
 40
0.2
 49
0.1
 74
0
 49
-0.1
 74
0
  0
LTYPE
  5
1F9
100
AcDbSymbolTableRecord
100
AcDbLinetypeTableRecord
  2
DASHED
 70
64
  3
- - - - - - - - - - - - - - - - - - - -
 72
65
 73
2
 40
0.2
 49
0.1
 74
0
 49
-0.1
 74
0
  0
ENDTAB
  0
TABLE
  2
LAYER
  5
2
100
AcDbSymbolTable
 70
36
  0
LAYER
  5
10
100
AcDbSymbolTableRecord
100
AcDbLayerTableRecord
  2
0
 70
0
 62
7
  6
CONTINUOUS
370
-3
390
F
  0
LAYER
  5
1FA
100
AcDbSymbolTableRecord
100
AcDbLayerTableRecord
  2
DEFAULT_1
 70
0
 62
7
  6
CENTER
370
-3
390
F
  0
LAYER
  5
1FB
100
AcDbSymbolTableRecord
100
AcDbLayerTableRecord
  2
DEFAULT_2
 70
0
 62
8
  6
HIDDEN
370
-3
390
F
  0
LAYER
  5
1FC
100
AcDbSymbolTableRecord
100
AcDbLayerTableRecord
  2
DEFAULT_3
 70
0
 62
7
  6
PHANTOM
370
-3
390
F
  0
LAYER
  5
1FD
100
AcDbSymbolTableRecord
100
AcDbLayerTableRecord
  2
ALL_FEATURES
 70
0
 62
7
  6
CONTINUOUS
370
-3
390
F
  0
LAYER
  5
1FE
100
AcDbSymbolTableRecord
100
AcDbLayerTableRecord
  2
AXES_FEATURES
 70
0
 62
7
  6
CONTINUOUS
370
-3
390
F
  0
LAYER
  5
1FF
100
AcDbSymbolTableRecord
100
AcDbLayerTableRecord
  2
DEFAULT_COORDINATE_SYSTEM
 70
0
 62
7
  6
CONTINUOUS
370
-3
390
F
  0
LAYER
  5
200
100
AcDbSymbolTableRecord
100
AcDbLayerTableRecord
  2
DEFAULT_DATUM_AXES
 70
0
 62
7
  6
CONTINUOUS
370
-3
390
F
  0
LAYER
  5
201
100
AcDbSymbolTableRecord
100
AcDbLayerTableRecord
  2
DEFAULT_DATUM_PLANES
 70
0
 62
7
  6
CONTINUOUS
370
-3
390
F
  0
LAYER
  5
202
100
AcDbSymbolTableRecord
100
AcDbLayerTableRecord
  2
DIMENSIONS
 70
0
 62
7
  6
CONTINUOUS
370
-3
390
F
  0
ENDTAB
  0
TABLE
  2
STYLE
  5
3
100
AcDbSymbolTable
 70
1
  0
STYLE
  5
11
100
AcDbSymbolTableRecord
100
AcDbTextStyleTableRecord
  2
STANDARD
 70
0
 40
0.0
 41
0.8
 50
0.0
 71
0
 42
0.2
  3
txt
  4

  0
STYLE
  5
203
100
AcDbSymbolTableRecord
100
AcDbTextStyleTableRecord
  2
TEXTSTYLE_1
 70
0
 40
0.0
 41
0.8
 50
0.0
 71
0
 42
0.2
  3
gdt
  4

  0
ENDTAB
  0
TABLE
  2
VIEW
  5
6
100
AcDbSymbolTable
 70
0
  0
ENDTAB
  0
TABLE
  2
UCS
  5
7
100
AcDbSymbolTable
 70
0
  0
ENDTAB
  0
TABLE
  2
APPID
  5
9
100
AcDbSymbolTable
 70
1
  0
APPID
  5
204
100
AcDbSymbolTableRecord
100
AcDbRegAppTableRecord
  2
ACAD
 70
0
  0
ENDTAB
  0
TABLE
  2
BLOCK_RECORD
  5
1
100
AcDbSymbolTable
 70
0
  0
BLOCK_RECORD
  5
205
100
AcDbSymbolTableRecord
100
AcDbBlockTableRecord
  2
*Model_Space
  0
BLOCK_RECORD
  5
206
100
AcDbSymbolTableRecord
100
AcDbBlockTableRecord
  2
*Paper_Space
  0
BLOCK_RECORD
  5
207
100
AcDbSymbolTableRecord
100
AcDbBlockTableRecord
  2
_FILLED
  0
ENDTAB
  0
TABLE
  2
DIMSTYLE
  5
A
100
AcDbSymbolTable
 70
1
100
AcDbDimStyleTable
 71
0
  0
DIMSTYLE
105
208
100
AcDbSymbolTableRecord
100
AcDbDimStyleTableRecord
  2
STANDARD
 70
0
  3

  4

 40
1.0
 41
0.1
 42
0.0625
 43
0.38
 44
0.125
 45
0.0
 46
0.0
 47
0.001
 48
0.001
140
0.08
141
0.09
142
0.0
143
25.4
144
1.0
145
0.0
146
1.0
147
0.09
 71
1.0
 72
0.0
 73
1
 74
1
 75
0
 76
0
 77
0
 78
4
 79
1
170
1
171
2
172
0
173
0
174
0
175
0
176
0
177
0
178
0
270
2
179
3
271
3
272
3
273
2
274
2
275
0
280
0
281
0
282
0
283
1
284
4
285
0
286
0
287
3
288
0
340
11
278
46
341
207
342
207
343
207
344
207
  0
ENDTAB
  0
ENDSEC
  0
SECTION
  2
BLOCKS
  0
BLOCK
  5
20
100
AcDbEntity
  8
0
100
AcDbBlockBegin
  2
*Model_Space
 70
0
 10
0.0
 20
0.0
 30
0.0
  3
*Model_Space
  1

  0
ENDBLK
  5
21
100
AcDbEntity
  8
0
100
AcDbBlockEnd
  0
BLOCK
  5
1C
100
AcDbEntity
  8
0
100
AcDbBlockBegin
  2
*Paper_Space
 70
0
 10
0.0
 20
0.0
 30
0.0
  3
*Paper_Space
  1

  0
ENDBLK
  5
1D
100
AcDbEntity
  8
0
100
AcDbBlockEnd
  0
BLOCK
  5
209
100
AcDbEntity
  8
0
100
AcDbBlockBegin
  2
_FILLED
 70
64
 10
0.0
 20
0.0
  3
_FILLED
  1

  0
SOLID
  5
20A
100
AcDbEntity
  8
0
  6
BYBLOCK
 62
0
100
AcDbTrace
 10
0.0
 20
0.0
 11
-1.0
 21
0.2
 12
-1.0
 22
-0.2
 13
-1.0
 23
-0.2
  0
ENDBLK
  5
20B
100
AcDbEntity
  8
0
  6
BYBLOCK
 62
0
100
AcDbBlockEnd
  0
ENDSEC
  0
SECTION
  2
ENTITIES
  0
LINE
  5
20C
100
AcDbEntity
  8
0
100
AcDbLine
 62
7
  6
CONTINUOUS
 10
0.950668928
 20
10.8560818604
 11
0.950668928
 21
11.2960818604
  0
LINE
  5
20D
100
AcDbEntity
  8
0
100
AcDbLine
 62
9
  6
CONTINUOUS
 10
0.980668928
 20
10.8260818604
 11
0.980668928
 21
11.3260818604
  0
LINE
  5
20E
100
AcDbEntity
  8
0
100
AcDbLine
 62
7
  6
CONTINUOUS
 10
7.456918928
 20
11.0760818604
 11
7.456918928
 21
3.2010818604
  0
LINE
  5
20F
100
AcDbEntity
  8
0
100
AcDbLine
 62
7
  6
CONTINUOUS
 10
8.456918928
 20
11.0760818604
 11
8.456918928
 21
3.2010818604
  0
LINE
  5
210
100
AcDbEntity
  8
0
100
AcDbLine
 62
7
  6
CONTINUOUS
 10
3.3506610386
 20
10.8260818604
 11
0.980668928
 21
10.8260818604
  0
LINE
  5
211
100
AcDbEntity
  8
0
100
AcDbLine
 62
7
  6
CONTINUOUS
 10
12.5628693972
 20
10.8260818604
 11
14.933168928
 21
10.8260818604
  0
LINE
  5
212
100
AcDbEntity
  8
0
100
AcDbLine
 62
7
  6
CONTINUOUS
 10
16.5630858468
 20
10.8260818604
 11
18.933168928
 21
10.8260818604
  0
LINE
  5
213
100
AcDbEntity
  8
0
100
AcDbLine
 62
9
  6
CONTINUOUS
 10
14.933168928
 20
11.3260818604
 11
14.933168928
 21
10.8260818604
  0
LINE
  5
214
100
AcDbEntity
  8
0
100
AcDbLine
 62
7
  6
CONTINUOUS
 10
14.963168928
 20
11.2960818604
 11
14.963168928
 21
10.8560818604
  0
LINE
  5
215
100
AcDbEntity
  8
0
100
AcDbLine
 62
7
  6
CONTINUOUS
 10
3.3506610386
 20
11.3260818604
 11
0.980668928
 21
11.3260818604
  0
LINE
  5
216
100
AcDbEntity
  8
0
100
AcDbLine
 62
7
  6
CONTINUOUS
 10
12.5628693972
 20
11.3260818604
 11
14.933168928
 21
11.3260818604
  0
LINE
  5
217
100
AcDbEntity
  8
0
100
AcDbLine
 62
7
  6
CONTINUOUS
 10
16.5630858468
 20
11.3260818604
 11
18.933168928
 21
11.3260818604
  0
LINE
  5
218
100
AcDbEntity
  8
0
100
AcDbLine
 62
9
  6
CONTINUOUS
 10
18.933168928
 20
11.3260818604
 11
18.933168928
 21
10.8260818604
  0
LINE
  5
219
100
AcDbEntity
  8
0
100
AcDbLine
 62
7
  6
CONTINUOUS
 10
18.963168928
 20
11.2960818604
 11
18.963168928
 21
10.8560818604
  0
LINE
  5
21A
100
AcDbEntity
  8
0
100
AcDbLine
 62
7
  6
CONTINUOUS
 10
19.456918928
 20
10.4642926296
 11
19.456918928
 21
5.0134536995
  0
LINE
  5
21B
100
AcDbEntity
  8
0
100
AcDbLine
 62
7
  6
CONTINUOUS
 10
19.466918928
 20
10.6956961691
 11
19.466918928
 21
10.7792585583
  0
LINE
  5
21C
100
AcDbEntity
  8
0
100
AcDbLine
 62
7
  6
CONTINUOUS
 10
19.469418928
 20
11.0760818604
 11
19.469418928
 21
10.8155119068
  0
LINE
  5
21D
100
AcDbEntity
  8
0
100
AcDbLine
 62
7
  6
CONTINUOUS
 10
19.486918928
 20
10.8018424008
 11
19.486918928
 21
10.5961503657
  0
LINE
  5
21E
100
AcDbEntity
  8
0
100
AcDbLine
 62
7
  6
CONTINUOUS
 10
20.426918928
 20
10.5956261436
 11
20.426918928
 21
10.8018424008
  0
LINE
  5
21F
100
AcDbEntity
  8
0
100
AcDbLine
 62
7
  6
CONTINUOUS
 10
20.444418928
 20
11.0760818604
 11
20.444418928
 21
10.8155101983
  0
LINE
  5
220
100
AcDbEntity
  8
0
100
AcDbLine
 62
7
  6
CONTINUOUS
 10
20.446918928
 20
10.6956961691
 11
20.446918928
 21
10.7792585583
  0
LINE
  5
221
100
AcDbEntity
  8
0
100
AcDbLine
 62
7
  6
CONTINUOUS
 10
20.456918928
 20
10.4642926296
 11
20.456918928
 21
5.0134536995
  0
ARC
  5
222
100
AcDbEntity
  8
0
100
AcDbCircle
 62
7
  6
CONTINUOUS
 10
7.956918928
 20
3.2010818604
 40
0.5
100
AcDbArc
 50
180.0
 51
360.0
  0
ARC
  5
223
100
AcDbEntity
  8
0
100
AcDbCircle
 62
7
  6
CONTINUOUS
 10
3.956918928
 20
11.0760818604
 40
1.1875
100
AcDbArc
 50
192.1580887068
 51
167.8419112932
  0
ARC
  5
224
100
AcDbEntity
  8
0
100
AcDbCircle
 62
7
  6
CONTINUOUS
 10
7.956918928
 20
11.0760818604
 40
1.1875
100
AcDbArc
 50
294.9115031283
 51
245.0884968717
  0
ARC
  5
225
100
AcDbEntity
  8
0
100
AcDbCircle
 62
7
  6
CONTINUOUS
 10
7.956918928
 20
11.0760818604
 40
0.6875
100
AcDbArc
 50
316.6679022285
 51
223.3320981896
  0
ARC
  5
226
100
AcDbEntity
  8
0
100
AcDbCircle
 62
7
  6
CONTINUOUS
 10
3.956918928
 20
11.0760818604
 40
0.65625
100
AcDbArc
 50
202.4043847156
 51
157.5956152844
  0
CIRCLE
  5
227
100
AcDbEntity
  8
0
100
AcDbCircle
 62
7
  6
CONTINUOUS
 10
3.956918928
 20
11.0760818604
 40
0.656
  0
CIRCLE
  5
228
100
AcDbEntity
  8
0
100
AcDbCircle
 62
9
  6
CONTINUOUS
 10
3.956918928
 20
11.0760818604
 40
0.626
  0
ARC
  5
229
100
AcDbEntity
  8
0
100
AcDbCircle
 62
7
  6
CONTINUOUS
 10
7.956918928
 20
11.0760818604
 40
0.5
100
AcDbArc
 50
0.0
 51
180.0
  0
ARC
  5
22A
100
AcDbEntity
  8
0
100
AcDbCircle
 62
7
  6
CONTINUOUS
 10
0.980668928
 20
10.8560818604
 40
0.03
100
AcDbArc
 50
180.0
 51
270.0
  0
ARC
  5
22B
100
AcDbEntity
  8
0
100
AcDbCircle
 62
7
  6
CONTINUOUS
 10
0.980668928
 20
11.2960818604
 40
0.03
100
AcDbArc
 50
90.0
 51
180.0
  0
ARC
  5
22C
100
AcDbEntity
  8
0
100
AcDbCircle
 62
7
  6
CONTINUOUS
 10
14.933168928
 20
10.8560818604
 40
0.03
100
AcDbArc
 50
270.0
 51
360.0
  0
ARC
  5
22D
100
AcDbEntity
  8
0
100
AcDbCircle
 62
7
  6
CONTINUOUS
 10
11.956918928
 20
11.0760818604
 40
1.1875
100
AcDbArc
 50
12.1589469188
 51
347.8410530812
  0
ARC
  5
22E
100
AcDbEntity
  8
0
100
AcDbCircle
 62
7
  6
CONTINUOUS
 10
15.956918928
 20
11.0760818604
 40
1.1875
100
AcDbArc
 50
192.1588042714
 51
347.8411957286
  0
ARC
  5
22F
100
AcDbEntity
  8
0
100
AcDbCircle
 62
7
  6
CONTINUOUS
 10
15.956918928
 20
11.0760818604
 40
1.1875
100
AcDbArc
 50
12.1588042714
 51
167.8411957286
  0
ARC
  5
230
100
AcDbEntity
  8
0
100
AcDbCircle
 62
7
  6
CONTINUOUS
 10
11.956918928
 20
11.0760818604
 40
0.65625
100
AcDbArc
 50
22.4206098712
 51
337.5793901288
  0
ARC
  5
231
100
AcDbEntity
  8
0
100
AcDbCircle
 62
7
  6
CONTINUOUS
 10
15.956918928
 20
11.0760818604
 40
0.65625
100
AcDbArc
 50
22.3979224882
 51
337.6020775118
  0
CIRCLE
  5
232
100
AcDbEntity
  8
0
100
AcDbCircle
 62
7
  6
CONTINUOUS
 10
11.956918928
 20
11.0760818604
 40
0.656
  0
CIRCLE
  5
233
100
AcDbEntity
  8
0
100
AcDbCircle
 62
7
  6
CONTINUOUS
 10
15.956918928
 20
11.0760818604
 40
0.656
  0
CIRCLE
  5
234
100
AcDbEntity
  8
0
100
AcDbCircle
 62
9
  6
CONTINUOUS
 10
11.956918928
 20
11.0760818604
 40
0.626
  0
CIRCLE
  5
235
100
AcDbEntity
  8
0
100
AcDbCircle
 62
9
  6
CONTINUOUS
 10
15.956918928
 20
11.0760818604
 40
0.626
  0
ARC
  5
236
100
AcDbEntity
  8
0
100
AcDbCircle
 62
7
  6
CONTINUOUS
 10
14.933168928
 20
11.2960818604
 40
0.03
100
AcDbArc
 50
0.0
 51
90.0
  0
ARC
  5
237
100
AcDbEntity
  8
0
100
AcDbCircle
 62
7
  6
CONTINUOUS
 10
19.7766707942
 20
10.6903246842
 40
0.3104711663
100
AcDbArc
 50
158.9496238775
 51
160.6519891693
  0
ARC
  5
238
100
AcDbEntity
  8
0
100
AcDbCircle
 62
7
  6
CONTINUOUS
 10
19.7762225979
 20
10.7009073765
 40
0.3099952276
100
AcDbArc
 50
199.8950307211
 51
200.3413459963
  0
ARC
  5
239
100
AcDbEntity
  8
0
100
AcDbCircle
 62
7
  6
CONTINUOUS
 10
20.1376158435
 20
10.700907163
 40
0.3099946044
100
AcDbArc
 50
339.6592332673
 51
340.1049695795
  0
ARC
  5
23A
100
AcDbEntity
  8
0
100
AcDbCircle
 62
7
  6
CONTINUOUS
 10
20.1377381508
 20
10.6905347949
 40
0.3098627197
100
AcDbArc
 50
19.3463393246
 51
21.0520476286
  0
ARC
  5
23B
100
AcDbEntity
  8
0
100
AcDbCircle
 62
7
  6
CONTINUOUS
 10
19.7628831651
 20
10.7792551211
 40
0.2959642371
100
AcDbArc
 50
177.4918119279
 51
179.9993345853
  0
ARC
  5
23C
100
AcDbEntity
  8
0
100
AcDbCircle
 62
7
  6
CONTINUOUS
 10
20.1510602738
 20
10.7792574334
 40
0.2958586542
100
AcDbArc
 50
0.000217848
 51
2.5086381184
  0
ARC
  5
23D
100
AcDbEntity
  8
0
100
AcDbCircle
 62
7
  6
CONTINUOUS
 10
18.933168928
 20
10.8560818604
 40
0.03
100
AcDbArc
 50
270.0
 51
360.0
  0
ARC
  5
23E
100
AcDbEntity
  8
0
100
AcDbCircle
 62
7
  6
CONTINUOUS
 10
18.933168928
 20
11.2960818604
 40
0.03
100
AcDbArc
 50
0.0
 51
90.0
  0
ARC
  5
23F
100
AcDbEntity
  8
0
100
AcDbCircle
 62
7
  6
CONTINUOUS
 10
19.956918928
 20
11.0760818604
 40
1.1875
100
AcDbArc
 50
294.9050342942
 51
167.842523575
  0
ARC
  5
240
100
AcDbEntity
  8
0
100
AcDbCircle
 62
7
  6
CONTINUOUS
 10
19.956918928
 20
11.0760818604
 40
1.1875
100
AcDbArc
 50
192.157476425
 51
245.0949658216
  0
ARC
  5
241
100
AcDbEntity
  8
0
100
AcDbCircle
 62
7
  6
CONTINUOUS
 10
19.956918928
 20
11.0760818604
 40
0.5475
100
AcDbArc
 50
332.9401378731
 51
207.0598621269
  0
ARC
  5
242
100
AcDbEntity
  8
0
100
AcDbCircle
 62
9
  6
CONTINUOUS
 10
19.956918928
 20
11.0760818604
 40
0.5175
100
AcDbArc
 50
340.4301071549
 51
199.5698928451
  0
ARC
  5
243
100
AcDbEntity
  8
0
100
AcDbCircle
 62
7
  6
CONTINUOUS
 10
19.956918928
 20
11.0760818604
 40
0.4875
100
AcDbArc
 50
0.0
 51
180.0
  0
SPLINE
  5
244
100
AcDbEntity
  8
0
100
AcDbSpline
 62
7
  6
CONTINUOUS
 70
0
 71
3
 72
29
 73
25
 74
0
 42
0.0000001
 43
0.0000001
 44
0.0000000001
 40
0.0
 40
0.0
 40
0.0
 40
0.0
 40
0.0272587826
 40
0.0545606721
 40
0.0819447484
 40
0.1094525686
 40
0.1371224081
 40
0.1649907513
 40
0.1930916521
 40
0.2214561733
 40
0.2501121897
 40
0.2790840927
 40
0.3380331751
 40
0.3984464293
 40
0.4603817695
 40
0.5238366606
 40
0.5887519366
 40
0.6550171201
 40
0.7224768862
 40
0.7909380884
 40
0.8254817934
 40
0.8601900178
 40
0.9299598421
 40
1.0
 40
1.0
 40
1.0
 40
1.0
 10
19.496918928
 20
5.0070258234
 30
0.0
 10
19.496918928
 20
5.0011883207
 30
0.0
 10
19.4972927026
 20
4.9895006554
 30
0.0
 10
19.4989722805
 20
4.9720213063
 30
0.0
 10
19.5017664682
 20
4.9546305407
 30
0.0
 10
19.5056671301
 20
4.9373736624
 30
0.0
 10
19.5106635306
 20
4.9202936935
 30
0.0
 10
19.5167417461
 20
4.9034333621
 30
0.0
 10
19.5238852275
 20
4.8868342269
 30
0.0
 10
19.5320747695
 20
4.8705369732
 30
0.0
 10
19.5412890701
 20
4.8545804884
 30
0.0
 10
19.5549847265
 20
4.8336940828
 30
0.0
 10
19.5746014694
 20
4.8086222991
 30
0.0
 10
19.601652893
 20
4.7806806644
 30
0.0
 10
19.6320891758
 20
4.7549528304
 30
0.0
 10
19.665611267
 20
4.7316742084
 30
0.0
 10
19.7018969501
 20
4.7110540778
 30
0.0
 10
19.740600023
 20
4.6932785274
 30
0.0
 10
19.7813513398
 20
4.6785089264
 30
0.0
 10
19.8165968058
 20
4.6688449899
 30
0.0
 10
19.8454507913
 20
4.6627166266
 30
0.0
 10
19.8747965053
 20
4.6576590204
 30
0.0
 10
19.9119677496
 20
4.6534331776
 30
0.0
 10
19.94191974
 20
4.652305824
 30
0.0
 10
19.956918928
 20
4.652305824
 30
0.0
  0
SPLINE
  5
245
100
AcDbEntity
  8
0
100
AcDbSpline
 62
7
  6
CONTINUOUS
 70
0
 71
3
 72
29
 73
25
 74
0
 42
0.0000001
 43
0.0000001
 44
0.0000000001
 40
0.0
 40
0.0
 40
0.0
 40
0.0
 40
0.0700401741
 40
0.1398100086
 40
0.1745182377
 40
0.2090619459
 40
0.2775231519
 40
0.3449829184
 40
0.4112480989
 40
0.4761633692
 40
0.5396182526
 40
0.6015535839
 40
0.6619668287
 40
0.7209159025
 40
0.7498878017
 40
0.7785438151
 40
0.8069083339
 40
0.8350092332
 40
0.8628775759
 40
0.8905474161
 40
0.9180552378
 40
0.9454393167
 40
0.9727412131
 40
1.0
 40
1.0
 40
1.0
 40
1.0
 10
19.956918928
 20
4.652305824
 30
0.0
 10
19.9719181195
 20
4.652305824
 30
0.0
 10
20.0018701156
 20
4.653433178
 30
0.0
 10
20.0390413663
 20
4.6576590227
 30
0.0
 10
20.068387084
 20
4.6627166304
 30
0.0
 10
20.0972410718
 20
4.668844995
 30
0.0
 10
20.1324865388
 20
4.6785089339
 30
0.0
 10
20.1732378554
 20
4.6932785362
 30
0.0
 10
20.2119409256
 20
4.7110540881
 30
0.0
 10
20.2482266048
 20
4.7316742184
 30
0.0
 10
20.2817486913
 20
4.754952839
 30
0.0
 10
20.3121849689
 20
4.7806806703
 30
0.0
 10
20.3392363883
 20
4.8086223011
 30
0.0
 10
20.3588531282
 20
4.8336940812
 30
0.0
 10
20.3725487831
 20
4.8545804838
 30
0.0
 10
20.3817630829
 20
4.8705369668
 30
0.0
 10
20.3899526248
 20
4.8868342189
 30
0.0
 10
20.3970961064
 20
4.903433353
 30
0.0
 10
20.4031743222
 20
4.920293684
 30
0.0
 10
20.4081707233
 20
4.9373736531
 30
0.0
 10
20.4120713863
 20
4.9546305321
 30
0.0
 10
20.4148655748
 20
4.9720213
 30
0.0
 10
20.416545153
 20
4.9895006521
 30
0.0
 10
20.416918928
 20
5.0011883198
 30
0.0
 10
20.416918928
 20
5.0070258234
 30
0.0
  0
SPLINE
  5
246
100
AcDbEntity
  8
0
100
AcDbSpline
 62
7
  6
CONTINUOUS
 70
0
 71
3
 72
11
 73
7
 74
0
 42
0.0000001
 43
0.0000001
 44
0.0000000001
 40
0.0
 40
0.0
 40
0.0
 40
0.0
 40
0.248048877
 40
0.4968891318
 40
0.7472941467
 40
1.0
 40
1.0
 40
1.0
 40
1.0
 10
19.466918928
 20
10.6956961691
 30
0.0
 10
19.466918928
 20
10.6872350179
 30
0.0
 10
19.4676685694
 20
10.6702763295
 30
0.0
 10
19.471035166
 20
10.6449770275
 30
0.0
 10
19.4766272569
 20
10.619912532
 30
0.0
 10
19.4817952618
 20
10.6035221696
 30
0.0
 10
19.4847286157
 20
10.5954166214
 30
0.0
  0
SPLINE
  5
247
100
AcDbEntity
  8
0
100
AcDbSpline
 62
7
  6
CONTINUOUS
 70
0
 71
3
 72
11
 73
7
 74
0
 42
0.0000001
 43
0.0000001
 44
0.0000000001
 40
0.0
 40
0.0
 40
0.0
 40
0.0
 40
0.2527058533
 40
0.5031108682
 40
0.751951123
 40
1.0
 40
1.0
 40
1.0
 40
1.0
 10
20.4291092403
 20
10.5954166214
 30
0.0
 10
20.4320425942
 20
10.6035221696
 30
0.0
 10
20.4372105991
 20
10.619912532
 30
0.0
 10
20.4428026899
 20
10.6449770275
 30
0.0
 10
20.4461692866
 20
10.6702763295
 30
0.0
 10
20.446918928
 20
10.6872350179
 30
0.0
 10
20.446918928
 20
10.6956961691
 30
0.0
  0
SPLINE
  5
248
100
AcDbEntity
  8
0
100
AcDbSpline
 62
7
  6
CONTINUOUS
 70
0
 71
3
 72
15
 73
11
 74
0
 42
0.0000001
 43
0.0000001
 44
0.0000000001
 40
0.0
 40
0.0
 40
0.0
 40
0.0
 40
0.1234724687
 40
0.2471027382
 40
0.371025304
 40
0.4953914078
 40
0.6203417913
 40
0.7460097539
 40
0.8725228617
 40
1.0
 40
1.0
 40
1.0
 40
1.0
 10
20.456918928
 20
10.4642926296
 30
0.0
 10
20.456918928
 20
10.4699009923
 30
0.0
 10
20.4566012242
 20
10.481127465
 30
0.0
 10
20.4551734184
 20
10.4979281024
 30
0.0
 10
20.4527969936
 20
10.5146624849
 30
0.0
 10
20.4494772602
 20
10.5312964404
 30
0.0
 10
20.445221595
 20
10.5477976463
 30
0.0
 10
20.4400388898
 20
10.5641338607
 30
0.0
 10
20.4339404484
 20
10.5802727998
 30
0.0
 10
20.4292913355
 20
10.5908382191
 30
0.0
 10
20.4268218681
 20
10.5960754772
 30
0.0
  0
SPLINE
  5
249
100
AcDbEntity
  8
0
100
AcDbSpline
 62
7
  6
CONTINUOUS
 70
0
 71
3
 72
35
 73
31
 74
0
 42
0.0000001
 43
0.0000001
 44
0.0000000001
 40
0.0
 40
0.0
 40
0.0
 40
0.0
 40
0.0275306932
 40
0.0555271443
 40
0.0840388188
 40
0.1131011747
 40
0.1427353821
 40
0.1729485176
 40
0.2037340958
 40
0.2350728563
 40
0.2992405432
 40
0.3320114632
 40
0.3651527208
 40
0.3985983951
 40
0.4322771404
 40
0.500000094
 40
0.5677230432
 40
0.601401783
 40
0.6348474496
 40
0.6679886975
 40
0.7007596061
 40
0.7649272657
 40
0.796266011
 40
0.8270515732
 40
0.8572646923
 40
0.8868988831
 40
0.915961223
 40
0.9444728822
 40
0.9724693192
 40
1.0
 40
1.0
 40
1.0
 40
1.0
 10
20.4268218681
 20
10.5960754772
 30
0.0
 10
20.4224237139
 20
10.6054031034
 30
0.0
 10
20.4126735836
 20
10.6238141281
 30
0.0
 10
20.3955017774
 20
10.6502429907
 30
0.0
 10
20.3757743835
 20
10.6755552051
 30
0.0
 10
20.3536142634
 20
10.6996043049
 30
0.0
 10
20.3291546269
 20
10.7222565482
 30
0.0
 10
20.3025415698
 20
10.7433853659
 30
0.0
 10
20.2739295119
 20
10.7628746344
 30
0.0
 10
20.2330310465
 20
10.7867097805
 30
0.0
 10
20.1891079991
 20
10.8066004934
 30
0.0
 10
20.1429956905
 20
10.8224118233
 30
0.0
 10
20.1070834903
 20
10.8322791453
 30
0.0
 10
20.0703064361
 20
10.8400110193
 30
0.0
 10
20.02031683
 20
10.8474286158
 30
0.0
 10
19.9569186926
 20
10.8511409563
 30
0.0
 10
19.8935205599
 20
10.8474285711
 30
0.0
 10
19.8435309658
 20
10.8400109386
 30
0.0
 10
19.8067539258
 20
10.8322790389
 30
0.0
 10
19.7708417434
 20
10.8224116927
 30
0.0
 10
19.7247294639
 20
10.8066003339
 30
0.0
 10
19.68080645
 20
10.7867095963
 30
0.0
 10
19.6399080211
 20
10.7628744309
 30
0.0
 10
19.6112959929
 20
10.7433851507
 30
0.0
 10
19.5846829666
 20
10.7222563236
 30
0.0
 10
19.5602233615
 20
10.6996040734
 30
0.0
 10
19.5380632726
 20
10.6755549692
 30
0.0
 10
19.5183359094
 20
10.6502427526
 30
0.0
 10
19.5011641325
 20
10.6238138896
 30
0.0
 10
19.4914140216
 20
10.6054028659
 30
0.0
 10
19.4870158765
 20
10.5960752406
 30
0.0
  0
SPLINE
  5
24A
100
AcDbEntity
  8
0
100
AcDbSpline
 62
7
  6
CONTINUOUS
 70
0
 71
3
 72
15
 73
11
 74
0
 42
0.0000001
 43
0.0000001
 44
0.0000000001
 40
0.0
 40
0.0
 40
0.0
 40
0.0
 40
0.1274771143
 40
0.2539902055
 40
0.3796581576
 40
0.5046085377
 40
0.6289746462
 40
0.7528972213
 40
0.8765275082
 40
1.0
 40
1.0
 40
1.0
 40
1.0
 10
19.4870158765
 20
10.5960752406
 30
0.0
 10
19.4845464182
 20
10.5908379916
 30
0.0
 10
19.4798973228
 20
10.5802725909
 30
0.0
 10
19.4737989042
 20
10.564133681
 30
0.0
 10
19.4686162187
 20
10.5477974964
 30
0.0
 10
19.4643605689
 20
10.5312963208
 30
0.0
 10
19.4610408478
 20
10.5146623956
 30
0.0
 10
19.4586644314
 20
10.4979280431
 30
0.0
 10
19.4572366307
 20
10.4811274356
 30
0.0
 10
19.456918928
 20
10.4699009826
 30
0.0
 10
19.456918928
 20
10.4642926296
 30
0.0
  0
SPLINE
  5
24B
100
AcDbEntity
  8
0
100
AcDbSpline
 62
7
  6
CONTINUOUS
 70
0
 71
3
 72
51
 73
47
 74
0
 42
0.0000001
 43
0.0000001
 44
0.0000000001
 40
0.0
 40
0.0
 40
0.0
 40
0.0
 40
0.0136191351
 40
0.0272599904
 40
0.0409422147
 40
0.054686741
 40
0.0685128265
 40
0.0824388202
 40
0.0964818421
 40
0.1106574973
 40
0.1249797786
 40
0.1394609198
 40
0.1541113057
 40
0.1689394113
 40
0.1991429813
 40
0.2301111509
 40
0.2618423406
 40
0.2943065811
 40
0.32744821
 40
0.3611891316
 40
0.3954323405
 40
0.430065608
 40
0.4649652822
 40
0.5000000631
 40
0.5350348428
 40
0.5699345138
 40
0.6045677762
 40
0.6388109776
 40
0.6725518907
 40
0.7056935091
 40
0.7381577383
 40
0.7698889158
 40
0.8008570729
 40
0.8310606309
 40
0.8458887306
 40
0.8605391108
 40
0.8750202467
 40
0.8893425231
 40
0.9035181738
 40
0.9175611916
 40
0.9314871819
 40
0.9453132643
 40
0.9590577883
 40
0.9727400109
 40
0.9863808652
 40
1.0
 40
1.0
 40
1.0
 40
1.0
 10
19.456918928
 20
5.0134536995
 30
0.0
 10
19.456918928
 20
5.0071147105
 30
0.0
 10
19.4573249157
 20
4.994422898
 30
0.0
 10
19.4591492491
 20
4.9754416625
 30
0.0
 10
19.4621843207
 20
4.9565562527
 30
0.0
 10
19.4664213665
 20
4.9378157131
 30
0.0
 10
19.4718488319
 20
4.9192666235
 30
0.0
 10
19.4784517247
 20
4.9009552742
 30
0.0
 10
19.4862121738
 20
4.8829267584
 30
0.0
 10
19.4951095675
 20
4.8652251015
 30
0.0
 10
19.5051204759
 20
4.8478929952
 30
0.0
 10
19.5162187888
 20
4.8309719691
 30
0.0
 10
19.5283765972
 20
4.814501731
 30
0.0
 10
19.5460634884
 20
4.7930666597
 30
0.0
 10
19.5707181626
 20
4.7676047872
 30
0.0
 10
19.6037958798
 20
4.739651228
 30
0.0
 10
19.6402323452
 20
4.7143539624
 30
0.0
 10
19.6796747495
 20
4.6919448383
 30
0.0
 10
19.7217469316
 20
4.672625853
 30
0.0
 10
19.7660488251
 20
4.656572831
 30
0.0
 10
19.8121601642
 20
4.6439319942
 30
0.0
 10
19.8596438293
 20
4.634818973
 30
0.0
 10
19.90804975
 20
4.6293174903
 30
0.0
 10
19.9569190157
 20
4.6274779515
 30
0.0
 10
20.0057882795
 20
4.6293175025
 30
0.0
 10
20.0541941939
 20
4.6348190006
 30
0.0
 10
20.1016778501
 20
4.643932029
 30
0.0
 10
20.1477891752
 20
4.6565728793
 30
0.0
 10
20.1920910544
 20
4.6726259045
 30
0.0
 10
20.2341632178
 20
4.6919448967
 30
0.0
 10
20.2736056038
 20
4.7143540209
 30
0.0
 10
20.3100420501
 20
4.7396512848
 30
0.0
 10
20.3431197481
 20
4.7676048401
 30
0.0
 10
20.3677744092
 20
4.7930667054
 30
0.0
 10
20.3854612901
 20
4.814501771
 30
0.0
 10
20.3976190912
 20
4.8309720047
 30
0.0
 10
20.4087173988
 20
4.8478930255
 30
0.0
 10
20.4187283024
 20
4.8652251266
 30
0.0
 10
20.4276256914
 20
4.8829267788
 30
0.0
 10
20.4353861373
 20
4.9009552898
 30
0.0
 10
20.4419890279
 20
4.9192666347
 30
0.0
 10
20.4474164914
 20
4.9378157205
 30
0.0
 10
20.451653536
 20
4.9565562571
 30
0.0
 10
20.4546886072
 20
4.9754416646
 30
0.0
 10
20.4565129403
 20
4.9944228987
 30
0.0
 10
20.456918928
 20
5.0071147105
 30
0.0
 10
20.456918928
 20
5.0134536994
 30
0.0
  0
SPLINE
  5
24C
100
AcDbEntity
  8
0
100
AcDbSpline
 62
7
  6
CONTINUOUS
 70
0
 71
3
 72
49
 73
45
 74
0
 42
0.0000001
 43
0.0000001
 44
0.0000000001
 40
0.0
 40
0.0
 40
0.0
 40
0.0
 40
0.013713841
 40
0.0274585977
 40
0.0412527409
 40
0.0551137267
 40
0.0690581547
 40
0.0831017806
 40
0.0972592183
 40
0.1115438296
 40
0.1259675772
 40
0.1405409121
 40
0.1701600959
 40
0.2004632482
 40
0.2314741642
 40
0.2631898944
 40
0.2955820814
 40
0.3285991848
 40
0.3621691954
 40
0.3962027193
 40
0.4305962923
 40
0.4652358341
 40
0.5000001358
 40
0.5347644353
 40
0.5694039703
 40
0.6037975329
 40
0.6378310417
 40
0.6714010343
 40
0.7044181166
 40
0.7368102796
 40
0.768525985
 40
0.7995368748
 40
0.8298400012
 40
0.8594591602
 40
0.8740324835
 40
0.8884562202
 40
0.9027408213
 40
0.9168982497
 40
0.9309418675
 40
0.9448862883
 40
0.9587472681
 40
0.9725414069
 40
0.9862861601
 40
1.0
 40
1.0
 40
1.0
 40
1.0
 10
20.4466353871
 20
10.7922071688
 30
0.0
 10
20.4463661194
 20
10.7983548118
 30
0.0
 10
20.4454428459
 20
10.8106505552
 30
0.0
 10
20.4429120586
 20
10.8289986042
 30
0.0
 10
20.4392419328
 20
10.8472210565
 30
0.0
 10
20.4344434018
 20
10.8652716943
 30
0.0
 10
20.4285302983
 20
10.8831063165
 30
0.0
 10
20.4215193735
 20
10.9006815934
 30
0.0
 10
20.4134301458
 20
10.9179557699
 30
0.0
 10
20.4042847449
 20
10.9348883647
 30
0.0
 10
20.3941069742
 20
10.9514409051
 30
0.0
 10
20.3791178752
 20
10.9730668659
 30
0.0
 10
20.3578804922
 20
10.9989670841
 30
0.0
 10
20.3288881564
 20
11.0277700147
 30
0.0
 10
20.2965227366
 20
11.0542315235
 30
0.0
 10
20.2610892766
 20
11.0781273568
 30
0.0
 10
20.2229131497
 20
11.0992592348
 30
0.0
 10
20.1823415782
 20
11.1174507056
 30
0.0
 10
20.1397409435
 20
11.1325492183
 30
0.0
 10
20.0954949967
 20
11.1444276695
 30
0.0
 10
20.0500018073
 20
11.1529853105
 30
0.0
 10
20.0036707193
 20
11.1581492776
 30
0.0
 10
19.9569187391
 20
11.1598755712
 30
0.0
 10
19.9101667627
 20
11.1581492522
 30
0.0
 10
19.8638356873
 20
11.152985252
 30
0.0
 10
19.8183425158
 20
11.1444275951
 30
0.0
 10
19.7740965961
 20
11.1325491176
 30
0.0
 10
19.7314959926
 20
11.1174505904
 30
0.0
 10
19.6909244556
 20
11.0992591114
 30
0.0
 10
19.6527483699
 20
11.078127224
 30
0.0
 10
19.6173149462
 20
11.0542313973
 30
0.0
 10
19.5849495674
 20
11.0277698928
 30
0.0
 10
19.5559572669
 20
10.998966976
 30
0.0
 10
19.5347199101
 20
10.9730667727
 30
0.0
 10
19.519730829
 20
10.9514408253
 30
0.0
 10
19.5095530716
 20
10.934888294
 30
0.0
 10
19.5004076799
 20
10.9179557098
 30
0.0
 10
19.4923184602
 20
10.9006815432
 30
0.0
 10
19.4853075432
 20
10.8831062752
 30
0.0
 10
19.4793944446
 20
10.8652716614
 30
0.0
 10
19.474595917
 20
10.8472210309
 30
0.0
 10
19.4709257942
 20
10.8289985843
 30
0.0
 10
19.4683950084
 20
10.8106505392
 30
0.0
 10
19.4674717357
 20
10.7983547978
 30
0.0
 10
19.4672024683
 20
10.7922071553
 30
0.0
  0
SPLINE
  5
24D
100
AcDbEntity
  8
0
100
AcDbSpline
 62
9
  6
CONTINUOUS
 70
0
 71
3
 72
49
 73
45
 74
0
 42
0.0000001
 43
0.0000001
 44
0.0000000001
 40
0.0
 40
0.0
 40
0.0
 40
0.0
 40
0.0135006553
 40
0.0270249995
 40
0.0405939671
 40
0.054230312
 40
0.0679546978
 40
0.0817867297
 40
0.0957446167
 40
0.1098448272
 40
0.1241019955
 40
0.138528796
 40
0.1679210126
 40
0.1980928842
 40
0.2290709838
 40
0.2608500371
 40
0.2933955281
 40
0.3266468217
 40
0.3605207552
 40
0.3949153329
 40
0.4297135102
 40
0.4647869956
 40
0.5
 40
0.5352130044
 40
0.5702864898
 40
0.6050846671
 40
0.6394792448
 40
0.6733531784
 40
0.7066044719
 40
0.7391499629
 40
0.7709290162
 40
0.8019071158
 40
0.8320789874
 40
0.861471204
 40
0.8758980045
 40
0.8901551728
 40
0.9042553833
 40
0.9182132703
 40
0.9320453022
 40
0.945769688
 40
0.9594060329
 40
0.9729750005
 40
0.9864993447
 40
1.0
 40
1.0
 40
1.0
 40
1.0
 10
19.466918928
 20
10.7792585583
 30
0.0
 10
19.466918928
 20
10.7854009276
 30
0.0
 10
19.4673134345
 20
10.7977000712
 30
0.0
 10
19.4690862292
 20
10.8160957598
 30
0.0
 10
19.4720363256
 20
10.8344028896
 30
0.0
 10
19.4761560462
 20
10.8525756942
 30
0.0
 10
19.4814354398
 20
10.8705706681
 30
0.0
 10
19.4878613824
 20
10.8883441053
 30
0.0
 10
19.495418089
 20
10.9058531255
 30
0.0
 10
19.5040870222
 20
10.9230553213
 30
0.0
 10
19.5138473447
 20
10.9399097553
 30
0.0
 10
19.5283710394
 20
10.9619971376
 30
0.0
 10
19.5491962121
 20
10.9885379839
 30
0.0
 10
19.5779389288
 20
11.0181445953
 30
0.0
 10
19.6103158922
 20
11.0454391554
 30
0.0
 10
19.646011503
 20
11.0701619457
 30
0.0
 10
19.6846827213
 20
11.0920811602
 30
0.0
 10
19.7259582061
 20
11.1109904151
 30
0.0
 10
19.769442731
 20
11.126711427
 30
0.0
 10
19.8147201721
 20
11.1390958099
 30
0.0
 10
19.8613574716
 20
11.1480265369
 30
0.0
 10
19.9089086391
 20
11.1534189675
 30
0.0
 10
19.956918928
 20
11.1552222118
 30
0.0
 10
20.0049292169
 20
11.1534189675
 30
0.0
 10
20.0524803844
 20
11.1480265369
 30
0.0
 10
20.0991176839
 20
11.1390958099
 30
0.0
 10
20.1443951249
 20
11.126711427
 30
0.0
 10
20.1878796499
 20
11.1109904151
 30
0.0
 10
20.2291551347
 20
11.0920811602
 30
0.0
 10
20.267826353
 20
11.0701619457
 30
0.0
 10
20.3035219638
 20
11.0454391554
 30
0.0
 10
20.3358989272
 20
11.0181445953
 30
0.0
 10
20.3646416439
 20
10.9885379839
 30
0.0
 10
20.3854668165
 20
10.9619971376
 30
0.0
 10
20.3999905113
 20
10.9399097553
 30
0.0
 10
20.4097508338
 20
10.9230553213
 30
0.0
 10
20.418419767
 20
10.9058531255
 30
0.0
 10
20.4259764736
 20
10.8883441053
 30
0.0
 10
20.4324024162
 20
10.8705706681
 30
0.0
 10
20.4376818098
 20
10.8525756942
 30
0.0
 10
20.4418015304
 20
10.8344028896
 30
0.0
 10
20.4447516268
 20
10.8160957598
 30
0.0
 10
20.4465244215
 20
10.7977000712
 30
0.0
 10
20.446918928
 20
10.7854009276
 30
0.0
 10
20.446918928
 20
10.7792585583
 30
0.0
  0
SPLINE
  5
24E
100
AcDbEntity
  8
0
100
AcDbSpline
 62
9
  6
CONTINUOUS
 70
0
 71
3
 72
49
 73
45
 74
0
 42
0.0000001
 43
0.0000001
 44
0.0000000001
 40
0.0
 40
0.0
 40
0.0
 40
0.0
 40
0.0135006105
 40
0.0270248722
 40
0.0405938165
 40
0.0542301517
 40
0.0679545338
 40
0.0817865734
 40
0.0957444715
 40
0.1098446931
 40
0.1241018694
 40
0.138528673
 40
0.1679208888
 40
0.1980927653
 40
0.2290708781
 40
0.2608499447
 40
0.2933954467
 40
0.3266467511
 40
0.360520698
 40
0.3949152897
 40
0.4297134812
 40
0.4647869809
 40
0.5
 40
0.5352130191
 40
0.5702865187
 40
0.6050847103
 40
0.6394793019
 40
0.6733532488
 40
0.7066045532
 40
0.7391500553
 40
0.7709291219
 40
0.8019072346
 40
0.8320791112
 40
0.861471327
 40
0.8758981306
 40
0.8901553068
 40
0.9042555284
 40
0.9182134265
 40
0.9320454662
 40
0.9457698482
 40
0.9594061834
 40
0.9729751278
 40
0.9864993895
 40
1.0
 40
1.0
 40
1.0
 40
1.0
 10
19.466918928
 20
5.0070258234
 30
0.0
 10
19.466918928
 20
5.0008834745
 30
0.0
 10
19.4673134235
 20
4.9885843885
 30
0.0
 10
19.4690862146
 20
4.9701887683
 30
0.0
 10
19.4720362914
 20
4.951881689
 30
0.0
 10
19.4761559877
 20
4.933708896
 30
0.0
 10
19.4814353712
 20
4.9157139217
 30
0.0
 10
19.487861306
 20
4.8979404745
 30
0.0
 10
19.4954180053
 20
4.8804314363
 30
0.0
 10
19.5040869321
 20
4.8632292218
 30
0.0
 10
19.5138472532
 20
4.8463747752
 30
0.0
 10
19.528370941
 20
4.8242873829
 30
0.0
 10
19.5491961002
 20
4.7977465218
 30
0.0
 10
19.5779388132
 20
4.7681398955
 30
0.0
 10
19.6103157769
 20
4.7408453136
 30
0.0
 10
19.6460113943
 20
4.7161225025
 30
0.0
 10
19.6846826224
 20
4.6942032728
 30
0.0
 10
19.7259581172
 20
4.6752940009
 30
0.0
 10
19.769442657
 20
4.6595729789
 30
0.0
 10
19.8147201143
 20
4.6471885839
 30
0.0
 10
19.8613574324
 20
4.6382578507
 30
0.0
 10
19.9089086191
 20
4.6328654152
 30
0.0
 10
19.956918928
 20
4.6310621694
 30
0.0
 10
20.0049292368
 20
4.6328654152
 30
0.0
 10
20.0524804235
 20
4.6382578507
 30
0.0
 10
20.0991177416
 20
4.6471885839
 30
0.0
 10
20.1443951989
 20
4.6595729789
 30
0.0
 10
20.1878797388
 20
4.6752940009
 30
0.0
 10
20.2291552335
 20
4.6942032728
 30
0.0
 10
20.2678264617
 20
4.7161225025
 30
0.0
 10
20.3035220791
 20
4.7408453135
 30
0.0
 10
20.3358990428
 20
4.7681398954
 30
0.0
 10
20.3646417557
 20
4.7977465218
 30
0.0
 10
20.385466915
 20
4.8242873829
 30
0.0
 10
20.3999906028
 20
4.8463747751
 30
0.0
 10
20.4097509239
 20
4.8632292217
 30
0.0
 10
20.4184198506
 20
4.8804314362
 30
0.0
 10
20.4259765499
 20
4.8979404745
 30
0.0
 10
20.4324024848
 20
4.9157139217
 30
0.0
 10
20.4376818682
 20
4.933708896
 30
0.0
 10
20.4418015646
 20
4.951881689
 30
0.0
 10
20.4447516414
 20
4.9701887683
 30
0.0
 10
20.4465244325
 20
4.9885843885
 30
0.0
 10
20.446918928
 20
5.0008834745
 30
0.0
 10
20.446918928
 20
5.0070258234
 30
0.0
  0
SPLINE
  5
24F
100
AcDbEntity
  8
0
100
AcDbSpline
 62
9
  6
CONTINUOUS
 70
0
 71
3
 72
49
 73
45
 74
0
 42
0.0000001
 43
0.0000001
 44
0.0000000001
 40
0.0
 40
0.0
 40
0.0
 40
0.0
 40
0.0135006105
 40
0.0270248722
 40
0.0405938165
 40
0.0542301517
 40
0.0679545338
 40
0.0817865734
 40
0.0957444715
 40
0.1098446931
 40
0.1241018694
 40
0.138528673
 40
0.1679208888
 40
0.1980927653
 40
0.2290708781
 40
0.2608499447
 40
0.2933954467
 40
0.3266467511
 40
0.360520698
 40
0.3949152897
 40
0.4297134812
 40
0.4647869809
 40
0.5
 40
0.5352130191
 40
0.5702865187
 40
0.6050847103
 40
0.6394793019
 40
0.6733532488
 40
0.7066045532
 40
0.7391500553
 40
0.7709291219
 40
0.8019072346
 40
0.8320791112
 40
0.861471327
 40
0.8758981306
 40
0.8901553068
 40
0.9042555284
 40
0.9182134265
 40
0.9320454662
 40
0.9457698482
 40
0.9594061834
 40
0.9729751278
 40
0.9864993895
 40
1.0
 40
1.0
 40
1.0
 40
1.0
 10
20.446918928
 20
5.0070258234
 30
0.0
 10
20.446918928
 20
5.0131681723
 30
0.0
 10
20.4465244325
 20
5.0254672582
 30
0.0
 10
20.4447516414
 20
5.0438628784
 30
0.0
 10
20.4418015646
 20
5.0621699577
 30
0.0
 10
20.4376818682
 20
5.0803427507
 30
0.0
 10
20.4324024848
 20
5.098337725
 30
0.0
 10
20.42597655
 20
5.1161111722
 30
0.0
 10
20.4184198506
 20
5.1336202105
 30
0.0
 10
20.4097509239
 20
5.150822425
 30
0.0
 10
20.3999906028
 20
5.1676768716
 30
0.0
 10
20.385466915
 20
5.1897642638
 30
0.0
 10
20.3646417558
 20
5.2163051249
 30
0.0
 10
20.3358990428
 20
5.2459117513
 30
0.0
 10
20.3035220791
 20
5.2732063331
 30
0.0
 10
20.2678264617
 20
5.2979291442
 30
0.0
 10
20.2291552336
 20
5.3198483739
 30
0.0
 10
20.1878797388
 20
5.3387576458
 30
0.0
 10
20.144395199
 20
5.3544786678
 30
0.0
 10
20.0991177417
 20
5.3668630628
 30
0.0
 10
20.0524804236
 20
5.375793796
 30
0.0
 10
20.0049292369
 20
5.3811862315
 30
0.0
 10
19.956918928
 20
5.3829894773
 30
0.0
 10
19.9089086192
 20
5.3811862315
 30
0.0
 10
19.8613574325
 20
5.375793796
 30
0.0
 10
19.8147201144
 20
5.3668630628
 30
0.0
 10
19.7694426571
 20
5.3544786678
 30
0.0
 10
19.7259581172
 20
5.3387576458
 30
0.0
 10
19.6846826225
 20
5.3198483739
 30
0.0
 10
19.6460113943
 20
5.2979291442
 30
0.0
 10
19.6103157769
 20
5.2732063332
 30
0.0
 10
19.5779388132
 20
5.2459117513
 30
0.0
 10
19.5491961003
 20
5.216305125
 30
0.0
 10
19.528370941
 20
5.1897642638
 30
0.0
 10
19.5138472532
 20
5.1676768716
 30
0.0
 10
19.5040869321
 20
5.150822425
 30
0.0
 10
19.4954180054
 20
5.1336202105
 30
0.0
 10
19.4878613061
 20
5.1161111722
 30
0.0
 10
19.4814353712
 20
5.098337725
 30
0.0
 10
19.4761559878
 20
5.0803427507
 30
0.0
 10
19.4720362914
 20
5.0621699577
 30
0.0
 10
19.4690862146
 20
5.0438628784
 30
0.0
 10
19.4673134235
 20
5.0254672582
 30
0.0
 10
19.466918928
 20
5.0131681723
 30
0.0
 10
19.466918928
 20
5.0070258234
 30
0.0
  0
SPLINE
  5
250
100
AcDbEntity
  8
0
100
AcDbSpline
 62
7
  6
CONTINUOUS
 70
0
 71
3
 72
29
 73
25
 74
0
 42
0.0000001
 43
0.0000001
 44
0.0000000001
 40
0.0
 40
0.0
 40
0.0
 40
0.0
 40
0.0704255575
 40
0.1405711223
 40
0.1754606295
 40
0.2101795345
 40
0.2789678167
 40
0.3467147989
 40
0.4132165359
 40
0.4783066615
 40
0.5418639668
 40
0.6038193385
 40
0.6641623316
 40
0.7229459775
 40
0.7517992166
 40
0.780313197
 40
0.808513241
 40
0.8364286439
 40
0.8640923782
 40
0.8915407602
 40
0.9188130577
 40
0.9459510221
 40
0.9729983359
 40
1.0
 40
1.0
 40
1.0
 40
1.0
 10
19.956918928
 20
5.3594062672
 30
0.0
 10
19.9418788967
 20
5.3594062672
 30
0.0
 10
19.9118471457
 20
5.3582786159
 30
0.0
 10
19.8745775124
 20
5.3540517563
 30
0.0
 10
19.8451567876
 20
5.3489933348
 30
0.0
 10
19.8162367752
 20
5.3428656842
 30
0.0
 10
19.7809201057
 20
5.3332058646
 30
0.0
 10
19.7400988515
 20
5.3184476306
 30
0.0
 10
19.7013501957
 20
5.3006960034
 30
0.0
 10
19.6650466721
 20
5.2801187903
 30
0.0
 10
19.6315364658
 20
5.2569096729
 30
0.0
 10
19.6011418208
 20
5.2312861464
 30
0.0
 10
19.5741587829
 20
5.2034922634
 30
0.0
 10
19.5546087064
 20
5.1785762969
 30
0.0
 10
19.5409741541
 20
5.1578412478
 30
0.0
 10
19.5318114083
 20
5.1420187091
 30
0.0
 10
19.5236732825
 20
5.1258696841
 30
0.0
 10
19.5165791862
 20
5.1094326647
 30
0.0
 10
19.5105466408
 20
5.0927474087
 30
0.0
 10
19.5055905383
 20
5.0758541602
 30
0.0
 10
19.501723006
 20
5.0587939184
 30
0.0
 10
19.4989535793
 20
5.0416077746
 30
0.0
 10
19.4972892108
 20
5.0243383499
 30
0.0
 10
19.4969189568
 20
5.0127922793
 30
0.0
 10
19.4969189568
 20
5.0070258234
 30
0.0
  0
SPLINE
  5
251
100
AcDbEntity
  8
0
100
AcDbSpline
 62
9
  6
CONTINUOUS
 70
0
 71
3
 72
49
 73
45
 74
0
 42
0.0000001
 43
0.0000001
 44
0.0000000001
 40
0.0
 40
0.0
 40
0.0
 40
0.0
 40
0.0135006553
 40
0.0270249995
 40
0.040593967
 40
0.0542303119
 40
0.0679546978
 40
0.0817867296
 40
0.0957446166
 40
0.109844827
 40
0.1241019953
 40
0.1385287959
 40
0.1679210124
 40
0.1980928841
 40
0.2290709837
 40
0.260850037
 40
0.293395528
 40
0.3266468216
 40
0.3605207552
 40
0.3949153328
 40
0.4297135102
 40
0.4647869955
 40
0.5
 40
0.5352130045
 40
0.5702864898
 40
0.6050846672
 40
0.6394792448
 40
0.6733531784
 40
0.706604472
 40
0.739149963
 40
0.7709290163
 40
0.8019071159
 40
0.8320789876
 40
0.8614712041
 40
0.8758980047
 40
0.890155173
 40
0.9042553834
 40
0.9182132704
 40
0.9320453022
 40
0.9457696881
 40
0.959406033
 40
0.9729750005
 40
0.9864993447
 40
1.0
 40
1.0
 40
1.0
 40
1.0
 10
20.456918928
 20
5.0134536995
 30
0.0
 10
20.456918928
 20
5.0197214232
 30
0.0
 10
20.4565163703
 20
5.0322715697
 30
0.0
 10
20.4547073962
 20
5.0510426805
 30
0.0
 10
20.4516970937
 20
5.0697234252
 30
0.0
 10
20.4474932972
 20
5.0882671033
 30
0.0
 10
20.4421061609
 20
5.1066293215
 30
0.0
 10
20.4355490766
 20
5.1247654819
 30
0.0
 10
20.4278381515
 20
5.1426318291
 30
0.0
 10
20.4189923014
 20
5.1601850901
 30
0.0
 10
20.4090327886
 20
5.1773834921
 30
0.0
 10
20.394212692
 20
5.1999216373
 30
0.0
 10
20.3729625158
 20
5.2270041335
 30
0.0
 10
20.343633213
 20
5.2572149615
 30
0.0
 10
20.3105954953
 20
5.2850665535
 30
0.0
 10
20.2741714027
 20
5.3102938905
 30
0.0
 10
20.2347109758
 20
5.332660436
 30
0.0
 10
20.1925931341
 20
5.351955594
 30
0.0
 10
20.1482211699
 20
5.3679974429
 30
0.0
 10
20.1020196994
 20
5.3806345684
 30
0.0
 10
20.0544306183
 20
5.3897475552
 30
0.0
 10
20.0059090188
 20
5.3952500353
 30
0.0
 10
19.956918928
 20
5.3970900806
 30
0.0
 10
19.9079288372
 20
5.3952500353
 30
0.0
 10
19.8594072377
 20
5.3897475552
 30
0.0
 10
19.8118181566
 20
5.3806345684
 30
0.0
 10
19.7656166861
 20
5.3679974429
 30
0.0
 10
19.7212447219
 20
5.351955594
 30
0.0
 10
19.6791268802
 20
5.332660436
 30
0.0
 10
19.6396664533
 20
5.3102938905
 30
0.0
 10
19.6032423607
 20
5.2850665535
 30
0.0
 10
19.570204643
 20
5.2572149615
 30
0.0
 10
19.5408753402
 20
5.2270041335
 30
0.0
 10
19.519625164
 20
5.1999216373
 30
0.0
 10
19.5048050674
 20
5.1773834921
 30
0.0
 10
19.4948455546
 20
5.1601850901
 30
0.0
 10
19.4859997045
 20
5.1426318291
 30
0.0
 10
19.4782887793
 20
5.1247654819
 30
0.0
 10
19.4717316951
 20
5.1066293215
 30
0.0
 10
19.4663445588
 20
5.0882671033
 30
0.0
 10
19.4621407623
 20
5.0697234252
 30
0.0
 10
19.4591304598
 20
5.0510426805
 30
0.0
 10
19.4573214856
 20
5.0322715697
 30
0.0
 10
19.456918928
 20
5.0197214232
 30
0.0
 10
19.456918928
 20
5.0134536995
 30
0.0
  0
SPLINE
  5
252
100
AcDbEntity
  8
0
100
AcDbSpline
 62
9
  6
CONTINUOUS
 70
0
 71
3
 72
15
 73
11
 74
0
 42
0.0000001
 43
0.0000001
 44
0.0000000001
 40
0.0
 40
0.0
 40
0.0
 40
0.0
 40
0.1233071628
 40
0.2467914314
 40
0.370599145
 40
0.4948992551
 40
0.6198470047
 40
0.7455885451
 40
0.8722632842
 40
1.0
 40
1.0
 40
1.0
 40
1.0
 10
19.456918928
 20
10.4642926296
 30
0.0
 10
19.456918928
 20
10.4698903693
 30
0.0
 10
19.4572399358
 20
10.4810965256
 30
0.0
 10
19.4586825864
 20
10.4978672642
 30
0.0
 10
19.461084169
 20
10.514573779
 30
0.0
 10
19.4644397558
 20
10.5311826223
 30
0.0
 10
19.4687426245
 20
10.5476622231
 30
0.0
 10
19.4739846054
 20
10.5639807951
 30
0.0
 10
19.4801551621
 20
10.5801062669
 30
0.0
 10
19.4848593501
 20
10.5906613372
 30
0.0
 10
19.4873584693
 20
10.5958940034
 30
0.0
  0
SPLINE
  5
253
100
AcDbEntity
  8
0
100
AcDbSpline
 62
9
  6
CONTINUOUS
 70
0
 71
3
 72
41
 73
37
 74
0
 42
0.0000001
 43
0.0000001
 44
0.0000000001
 40
0.0
 40
0.0
 40
0.0
 40
0.0
 40
0.027346506
 40
0.0551905784
 40
0.083581951
 40
0.1125552159
 40
0.1421298266
 40
0.1723105381
 40
0.1876283193
 40
0.2030930682
 40
0.2344454954
 40
0.2663387941
 40
0.2987284822
 40
0.3315608166
 40
0.3647741157
 40
0.3983000904
 40
0.4320651765
 40
0.4659918605
 40
0.5
 40
0.5340081395
 40
0.5679348235
 40
0.6016999096
 40
0.6352258843
 40
0.6684391834
 40
0.7012715178
 40
0.7336612059
 40
0.7655545046
 40
0.7969069318
 40
0.8123716807
 40
0.8276894619
 40
0.8578701734
 40
0.8874447841
 40
0.916418049
 40
0.9448094216
 40
0.972653494
 40
1.0
 40
1.0
 40
1.0
 40
1.0
 10
19.4873584693
 20
10.5958940034
 30
0.0
 10
19.4917603791
 20
10.6051107401
 30
0.0
 10
19.5015121257
 20
10.6233098655
 30
0.0
 10
19.5186614374
 20
10.6494403872
 30
0.0
 10
19.5383561396
 20
10.6744882838
 30
0.0
 10
19.5604786335
 20
10.6983063961
 30
0.0
 10
19.5848986367
 20
10.7207582864
 30
0.0
 10
19.6069379177
 20
10.738138261
 30
0.0
 10
19.6255591337
 20
10.7512494153
 30
0.0
 10
19.6450028483
 20
10.7639274025
 30
0.0
 10
19.6704630102
 20
10.7786767134
 30
0.0
 10
19.7025317297
 20
10.7944671676
 30
0.0
 10
19.7360736354
 20
10.8083410294
 30
0.0
 10
19.7708934902
 20
10.8202180498
 30
0.0
 10
19.8067900026
 20
10.8300301827
 30
0.0
 10
19.8435553367
 20
10.8377209882
 30
0.0
 10
19.8809767395
 20
10.8432462527
 30
0.0
 10
19.9188376395
 20
10.846574184
 30
0.0
 10
19.956918928
 20
10.8476856288
 30
0.0
 10
19.9950002165
 20
10.846574184
 30
0.0
 10
20.0328611165
 20
10.8432462527
 30
0.0
 10
20.0702825193
 20
10.8377209882
 30
0.0
 10
20.1070478534
 20
10.8300301827
 30
0.0
 10
20.1429443658
 20
10.8202180498
 30
0.0
 10
20.1777642206
 20
10.8083410294
 30
0.0
 10
20.2113061263
 20
10.7944671676
 30
0.0
 10
20.2433748458
 20
10.7786767134
 30
0.0
 10
20.2688350077
 20
10.7639274025
 30
0.0
 10
20.2882787223
 20
10.7512494153
 30
0.0
 10
20.3068999382
 20
10.738138261
 30
0.0
 10
20.3289392193
 20
10.7207582864
 30
0.0
 10
20.3533592224
 20
10.6983063961
 30
0.0
 10
20.3754817163
 20
10.6744882838
 30
0.0
 10
20.3951764186
 20
10.6494403872
 30
0.0
 10
20.4123257303
 20
10.6233098655
 30
0.0
 10
20.4220774769
 20
10.6051107401
 30
0.0
 10
20.4264793866
 20
10.5958940034
 30
0.0
  0
SPLINE
  5
254
100
AcDbEntity
  8
0
100
AcDbSpline
 62
9
  6
CONTINUOUS
 70
0
 71
3
 72
15
 73
11
 74
0
 42
0.0000001
 43
0.0000001
 44
0.0000000001
 40
0.0
 40
0.0
 40
0.0
 40
0.0
 40
0.1277367158
 40
0.2544114549
 40
0.3801529953
 40
0.5051007449
 40
0.629400855
 40
0.7532085686
 40
0.8766928372
 40
1.0
 40
1.0
 40
1.0
 40
1.0
 10
20.4264793866
 20
10.5958940034
 30
0.0
 10
20.4289785059
 20
10.5906613372
 30
0.0
 10
20.4336826939
 20
10.5801062669
 30
0.0
 10
20.4398532506
 20
10.5639807951
 30
0.0
 10
20.4450952315
 20
10.5476622231
 30
0.0
 10
20.4493981002
 20
10.5311826223
 30
0.0
 10
20.452753687
 20
10.514573779
 30
0.0
 10
20.4551552696
 20
10.4978672642
 30
0.0
 10
20.4565979202
 20
10.4810965256
 30
0.0
 10
20.456918928
 20
10.4698903693
 30
0.0
 10
20.456918928
 20
10.4642926296
 30
0.0
  0
SPLINE
  5
255
100
AcDbEntity
  8
0
100
AcDbSpline
 62
7
  6
CONTINUOUS
 70
0
 71
3
 72
11
 73
7
 74
0
 42
0.0000001
 43
0.0000001
 44
0.0000000001
 40
0.0
 40
0.0
 40
0.0
 40
0.0
 40
0.2525601698
 40
0.5029421399
 40
0.7518448428
 40
1.0
 40
1.0
 40
1.0
 40
1.0
 10
19.483733901
 20
10.7931853748
 30
0.0
 10
19.4809625925
 20
10.785291861
 30
0.0
 10
19.4760818216
 20
10.7693399058
 30
0.0
 10
19.4708034138
 20
10.7449722241
 30
0.0
 10
19.4676262948
 20
10.7203894028
 30
0.0
 10
19.466918928
 20
10.7039161222
 30
0.0
 10
19.466918928
 20
10.6956961691
 30
0.0
  0
SPLINE
  5
256
100
AcDbEntity
  8
0
100
AcDbSpline
 62
7
  6
CONTINUOUS
 70
0
 71
3
 72
29
 73
25
 74
0
 42
0.0000001
 43
0.0000001
 44
0.0000000001
 40
0.0
 40
0.0
 40
0.0
 40
0.0
 40
0.0270016641
 40
0.0540489779
 40
0.0811869423
 40
0.1084592398
 40
0.1359076218
 40
0.1635713561
 40
0.191486759
 40
0.219686803
 40
0.2482007834
 40
0.2770540225
 40
0.3358376684
 40
0.3961806615
 40
0.4581360332
 40
0.5216933385
 40
0.5867834641
 40
0.6532852011
 40
0.7210321833
 40
0.7898204655
 40
0.8245393705
 40
0.8594288777
 40
0.9295744425
 40
1.0
 40
1.0
 40
1.0
 40
1.0
 10
20.4169188992
 20
5.0070258234
 30
0.0
 10
20.4169188992
 20
5.0127922793
 30
0.0
 10
20.4165486452
 20
5.0243383499
 30
0.0
 10
20.4148842767
 20
5.0416077746
 30
0.0
 10
20.41211485
 20
5.0587939184
 30
0.0
 10
20.4082473177
 20
5.0758541602
 30
0.0
 10
20.4032912152
 20
5.0927474087
 30
0.0
 10
20.3972586698
 20
5.1094326647
 30
0.0
 10
20.3901645735
 20
5.1258696841
 30
0.0
 10
20.3820264477
 20
5.1420187091
 30
0.0
 10
20.3728637018
 20
5.1578412478
 30
0.0
 10
20.3592291496
 20
5.1785762969
 30
0.0
 10
20.339679073
 20
5.2034922634
 30
0.0
 10
20.3126960352
 20
5.2312861464
 30
0.0
 10
20.2823013902
 20
5.2569096729
 30
0.0
 10
20.2487911838
 20
5.2801187903
 30
0.0
 10
20.2124876603
 20
5.3006960034
 30
0.0
 10
20.1737390045
 20
5.3184476306
 30
0.0
 10
20.1329177503
 20
5.3332058646
 30
0.0
 10
20.0976010808
 20
5.3428656842
 30
0.0
 10
20.0686810683
 20
5.3489933348
 30
0.0
 10
20.0392603435
 20
5.3540517563
 30
0.0
 10
20.0019907103
 20
5.3582786159
 30
0.0
 10
19.9719589592
 20
5.3594062672
 30
0.0
 10
19.956918928
 20
5.3594062672
 30
0.0
  0
SPLINE
  5
257
100
AcDbEntity
  8
0
100
AcDbSpline
 62
7
  6
CONTINUOUS
 70
0
 71
3
 72
51
 73
47
 74
0
 42
0.0000001
 43
0.0000001
 44
0.0000000001
 40
0.0
 40
0.0
 40
0.0
 40
0.0
 40
0.0134434418
 40
0.0269592356
 40
0.0405639842
 40
0.0542734689
 40
0.0681022233
 40
0.0820634546
 40
0.0961689435
 40
0.1104289592
 40
0.1248522318
 40
0.1394458896
 40
0.1542154482
 40
0.1691648571
 40
0.1996034526
 40
0.2307707927
 40
0.2626449268
 40
0.2951832553
 40
0.3283249115
 40
0.36199331
 40
0.396098765
 40
0.4305411541
 40
0.4652124927
 40
0.499999613
 40
0.534786739
 40
0.5694580943
 40
0.6039005109
 40
0.6380060036
 40
0.671674449
 40
0.7048161601
 40
0.7373545503
 40
0.7692287512
 40
0.8003961611
 40
0.8308348276
 40
0.8457842716
 40
0.8605538648
 40
0.8751475561
 40
0.8895708611
 40
0.9038309076
 40
0.9179364256
 40
0.9318976837
 40
0.9457264625
 40
0.959435969
 40
0.9730407364
 40
0.9865565458
 40
1.0
 40
1.0
 40
1.0
 40
1.0
 10
20.4401938428
 20
10.8411747147
 30
0.0
 10
20.4392317921
 20
10.8467358952
 30
0.0
 10
20.4369776314
 20
10.8578346901
 30
0.0
 10
20.4326327849
 20
10.8743096427
 30
0.0
 10
20.4273250361
 20
10.8906179893
 30
0.0
 10
20.421065452
 20
10.9067258474
 30
0.0
 10
20.4138669777
 20
10.9226008558
 30
0.0
 10
20.405744297
 20
10.9382108004
 30
0.0
 10
20.3967139973
 20
10.9535241144
 30
0.0
 10
20.3867946427
 20
10.968509939
 30
0.0
 10
20.3760063463
 20
10.9831380142
 30
0.0
 10
20.3643711389
 20
10.9973787588
 30
0.0
 10
20.3519124367
 20
11.0112038472
 30
0.0
 10
20.3341326462
 20
11.0291508799
 30
0.0
 10
20.3099447259
 20
11.0503865796
 30
0.0
 10
20.2782569505
 20
11.0736176609
 30
0.0
 10
20.2439835625
 20
11.0945718479
 30
0.0
 10
20.207402676
 20
11.1130812194
 30
0.0
 10
20.1688083409
 20
11.1289993566
 30
0.0
 10
20.1285111394
 20
11.1421997536
 30
0.0
 10
20.0868349516
 20
11.1525774299
 30
0.0
 10
20.0441147242
 20
11.1600496881
 30
0.0
 10
20.0006937796
 20
11.1645570873
 30
0.0
 10
19.9569210514
 20
11.1660636848
 30
0.0
 10
19.913148306
 20
11.164557379
 30
0.0
 10
19.8697273104
 20
11.1600502692
 30
0.0
 10
19.8270069984
 20
11.1525782957
 30
0.0
 10
19.785330693
 20
11.1422008974
 30
0.0
 10
19.745033342
 20
11.129000769
 30
0.0
 10
19.7064388267
 20
11.1130828894
 30
0.0
 10
19.6698577306
 20
11.0945737622
 30
0.0
 10
19.6355841053
 20
11.0736198043
 30
0.0
 10
19.6038960668
 20
11.050388935
 30
0.0
 10
19.579707906
 20
11.0291533978
 30
0.0
 10
19.5619279116
 20
11.011206484
 30
0.0
 10
19.5494690523
 20
10.9973814789
 30
0.0
 10
19.537833683
 20
10.9831408122
 30
0.0
 10
19.5270452204
 20
10.9685128092
 30
0.0
 10
19.5171256953
 20
10.953527051
 30
0.0
 10
19.5080952215
 20
10.9382137975
 30
0.0
 10
19.4999723633
 20
10.9226039073
 30
0.0
 10
19.4927737084
 20
10.9067289472
 30
0.0
 10
19.486513941
 20
10.8906211311
 30
0.0
 10
19.4812060067
 20
10.8743128201
 30
0.0
 10
19.4768609726
 20
10.8578378966
 30
0.0
 10
19.4746066854
 20
10.8467391155
 30
0.0
 10
19.4736445713
 20
10.8411779407
 30
0.0
  0
SPLINE
  5
258
100
AcDbEntity
  8
0
100
AcDbSpline
 62
9
  6
CONTINUOUS
 70
0
 71
3
 72
49
 73
45
 74
0
 42
0.0000001
 43
0.0000001
 44
0.0000000001
 40
0.0
 40
0.0
 40
0.0
 40
0.0
 40
0.0135006553
 40
0.0270249995
 40
0.040593967
 40
0.0542303119
 40
0.0679546978
 40
0.0817867296
 40
0.0957446166
 40
0.109844827
 40
0.1241019953
 40
0.1385287959
 40
0.1679210124
 40
0.1980928841
 40
0.2290709837
 40
0.260850037
 40
0.293395528
 40
0.3266468216
 40
0.3605207552
 40
0.3949153328
 40
0.4297135102
 40
0.4647869955
 40
0.5
 40
0.5352130045
 40
0.5702864898
 40
0.6050846672
 40
0.6394792448
 40
0.6733531784
 40
0.706604472
 40
0.739149963
 40
0.7709290163
 40
0.8019071159
 40
0.8320789876
 40
0.8614712041
 40
0.8758980047
 40
0.890155173
 40
0.9042553834
 40
0.9182132704
 40
0.9320453022
 40
0.9457696881
 40
0.959406033
 40
0.9729750005
 40
0.9864993447
 40
1.0
 40
1.0
 40
1.0
 40
1.0
 10
20.444418928
 20
10.9240107484
 30
0.0
 10
20.444418928
 20
10.9301217791
 30
0.0
 10
20.4440264343
 20
10.9423581719
 30
0.0
 10
20.4422626844
 20
10.960660005
 30
0.0
 10
20.4393276396
 20
10.978873731
 30
0.0
 10
20.435228938
 20
10.9969538172
 30
0.0
 10
20.4299764801
 20
11.0148569799
 30
0.0
 10
20.4235833229
 20
11.0325397363
 30
0.0
 10
20.4160651709
 20
11.0499594248
 30
0.0
 10
20.407440467
 20
11.0670738543
 30
0.0
 10
20.3977299421
 20
11.0838422963
 30
0.0
 10
20.3832803479
 20
11.1058169878
 30
0.0
 10
20.3625614261
 20
11.1322224216
 30
0.0
 10
20.3339653559
 20
11.1616779789
 30
0.0
 10
20.3017535811
 20
11.1888332811
 30
0.0
 10
20.2662400908
 20
11.2134299347
 30
0.0
 10
20.2277661746
 20
11.2352373166
 30
0.0
 10
20.186701279
 20
11.2540500956
 30
0.0
 10
20.1434386138
 20
11.2696908983
 30
0.0
 10
20.0983921801
 20
11.2820120956
 30
0.0
 10
20.051992826
 20
11.2908972577
 30
0.0
 10
20.0046842665
 20
11.2962621759
 30
0.0
 10
19.956918928
 20
11.29805622
 30
0.0
 10
19.9091535895
 20
11.2962621759
 30
0.0
 10
19.86184503
 20
11.2908972577
 30
0.0
 10
19.8154456759
 20
11.2820120956
 30
0.0
 10
19.7703992422
 20
11.2696908983
 30
0.0
 10
19.727136577
 20
11.2540500956
 30
0.0
 10
19.6860716814
 20
11.2352373166
 30
0.0
 10
19.6475977652
 20
11.2134299347
 30
0.0
 10
19.6120842749
 20
11.1888332811
 30
0.0
 10
19.5798725001
 20
11.1616779789
 30
0.0
 10
19.5512764299
 20
11.1322224216
 30
0.0
 10
19.5305575081
 20
11.1058169878
 30
0.0
 10
19.5161079139
 20
11.0838422963
 30
0.0
 10
19.506397389
 20
11.0670738543
 30
0.0
 10
19.4977726851
 20
11.0499594248
 30
0.0
 10
19.4902545331
 20
11.0325397363
 30
0.0
 10
19.4838613759
 20
11.0148569799
 30
0.0
 10
19.478608918
 20
10.9969538172
 30
0.0
 10
19.4745102164
 20
10.978873731
 30
0.0
 10
19.4715751715
 20
10.960660005
 30
0.0
 10
19.4698114217
 20
10.9423581719
 30
0.0
 10
19.469418928
 20
10.9301217791
 30
0.0
 10
19.469418928
 20
10.9240107484
 30
0.0
  0
SPLINE
  5
259
100
AcDbEntity
  8
0
100
AcDbSpline
 62
7
  6
CONTINUOUS
 70
0
 71
3
 72
11
 73
7
 74
0
 42
0.0000001
 43
0.0000001
 44
0.0000000001
 40
0.0
 40
0.0
 40
0.0
 40
0.0
 40
0.2481551572
 40
0.4970578601
 40
0.7474398302
 40
1.0
 40
1.0
 40
1.0
 40
1.0
 10
20.446918928
 20
10.6956961691
 30
0.0
 10
20.446918928
 20
10.7039161222
 30
0.0
 10
20.4462115612
 20
10.7203894028
 30
0.0
 10
20.4430344422
 20
10.7449722241
 30
0.0
 10
20.4377560344
 20
10.7693399058
 30
0.0
 10
20.4328752635
 20
10.785291861
 30
0.0
 10
20.430103955
 20
10.7931853748
 30
0.0
  0
SPLINE
  5
25A
100
AcDbEntity
  8
0
100
AcDbSpline
 62
9
  6
CONTINUOUS
 70
0
 71
3
 72
39
 73
35
 74
0
 42
0.0000001
 43
0.0000001
 44
0.0000000001
 40
0.0
 40
0.0
 40
0.0
 40
0.0
 40
0.0271755822
 40
0.0548256121
 40
0.0830186631
 40
0.1118049749
 40
0.1412173916
 40
0.1712710241
 40
0.2019640844
 40
0.2332789489
 40
0.2651834958
 40
0.2976325912
 40
0.3305696669
 40
0.3639283403
 40
0.3976340587
 40
0.4316057502
 40
0.4657574637
 40
0.5
 40
0.5342425363
 40
0.5683942498
 40
0.6023659413
 40
0.6360716597
 40
0.6694303331
 40
0.7023674088
 40
0.7348165042
 40
0.7667210511
 40
0.7980359156
 40
0.8287289759
 40
0.8587826084
 40
0.8881950251
 40
0.9169813369
 40
0.9451743879
 40
0.9728244178
 40
1.0
 40
1.0
 40
1.0
 40
1.0
 10
19.486918928
 20
10.5961503657
 30
0.0
 10
19.4906532537
 20
10.6058535304
 30
0.0
 10
19.4991719429
 20
10.625064615
 30
0.0
 10
19.5147973153
 20
10.6527682004
 30
0.0
 10
19.5332686076
 20
10.6794152335
 30
0.0
 10
19.5544628181
 20
10.7048317288
 30
0.0
 10
19.5782416539
 20
10.7288570853
 30
0.0
 10
19.6044506215
 20
10.7513385486
 30
0.0
 10
19.6329203131
 20
10.7721337313
 30
0.0
 10
19.6634673006
 20
10.791110868
 30
0.0
 10
19.6958952364
 20
10.8081496926
 30
0.0
 10
19.7299959844
 20
10.8231421382
 30
0.0
 10
19.7655508655
 20
10.8359930264
 30
0.0
 10
19.8023319762
 20
10.846620712
 30
0.0
 10
19.8401036018
 20
10.8549576519
 30
0.0
 10
19.8786237137
 20
10.8609508158
 30
0.0
 10
19.9176454982
 20
10.8645620571
 30
0.0
 10
19.956918928
 20
10.8657683718
 30
0.0
 10
19.9961923577
 20
10.8645620571
 30
0.0
 10
20.0352141423
 20
10.8609508158
 30
0.0
 10
20.0737342542
 20
10.8549576519
 30
0.0
 10
20.1115058798
 20
10.846620712
 30
0.0
 10
20.1482869904
 20
10.8359930264
 30
0.0
 10
20.1838418716
 20
10.8231421382
 30
0.0
 10
20.2179426196
 20
10.8081496926
 30
0.0
 10
20.2503705554
 20
10.791110868
 30
0.0
 10
20.2809175429
 20
10.7721337313
 30
0.0
 10
20.3093872345
 20
10.7513385486
 30
0.0
 10
20.3355962021
 20
10.7288570853
 30
0.0
 10
20.3593750379
 20
10.7048317288
 30
0.0
 10
20.3805692484
 20
10.6794152335
 30
0.0
 10
20.3990405407
 20
10.6527682004
 30
0.0
 10
20.414665913
 20
10.625064615
 30
0.0
 10
20.4231846023
 20
10.6058535304
 30
0.0
 10
20.426918928
 20
10.5961503657
 30
0.0
  0
SPLINE
  5
25B
100
AcDbEntity
  8
0
100
AcDbSpline
 62
9
  6
CONTINUOUS
 70
0
 71
3
 72
51
 73
47
 74
0
 42
0.0000001
 43
0.0000001
 44
0.0000000001
 40
0.0
 40
0.0
 40
0.0
 40
0.0
 40
0.0352127151
 40
0.0702854967
 40
0.0877302606
 40
0.1050897169
 40
0.1394838535
 40
0.1733573557
 40
0.2066082231
 40
0.2391532982
 40
0.2709319475
 40
0.3019096459
 40
0.3320811395
 40
0.3614729732
 40
0.3758995945
 40
0.3901565814
 40
0.4042566055
 40
0.4182143131
 40
0.4320461837
 40
0.4457703717
 40
0.4594065205
 40
0.4729755082
 40
0.4864991697
 40
0.5
 40
0.5135008303
 40
0.5270244918
 40
0.5405934795
 40
0.5542296283
 40
0.5679538163
 40
0.5817856869
 40
0.5957433945
 40
0.6098434186
 40
0.6241004055
 40
0.6385270268
 40
0.6679188605
 40
0.6980903541
 40
0.7290680525
 40
0.7608467018
 40
0.7933917769
 40
0.8266426443
 40
0.8605161465
 40
0.8949102831
 40
0.9122697394
 40
0.9297145033
 40
0.9647872849
 40
1.0
 40
1.0
 40
1.0
 40
1.0
 10
19.956918928
 20
4.6558779479
 30
0.0
 10
19.9716319754
 20
4.6558779479
 30
0.0
 10
20.0010108352
 20
4.6569810829
 30
0.0
 10
20.0374702374
 20
4.6611160444
 30
0.0
 10
20.0662513871
 20
4.6660644993
 30
0.0
 10
20.0945427083
 20
4.6720589371
 30
0.0
 10
20.1290916296
 20
4.6815087574
 30
0.0
 10
20.169025469
 20
4.6959461565
 30
0.0
 10
20.2069317729
 20
4.7133118788
 30
0.0
 10
20.242446095
 20
4.7334417582
 30
0.0
 10
20.2752278274
 20
4.7561463325
 30
0.0
 10
20.3049617244
 20
4.7812128239
 30
0.0
 10
20.3313581822
 20
4.8084024962
 30
0.0
 10
20.3504832615
 20
4.832776813
 30
0.0
 10
20.3638214139
 20
4.8530611026
 30
0.0
 10
20.3727849711
 20
4.8685396724
 30
0.0
 10
20.3807461825
 20
4.8843376334
 30
0.0
 10
20.3876860621
 20
4.9004173296
 30
0.0
 10
20.3935874668
 20
4.9167398681
 30
0.0
 10
20.3984358292
 20
4.9332658607
 30
0.0
 10
20.4022192844
 20
4.9499552701
 30
0.0
 10
20.4049285081
 20
4.9667676533
 30
0.0
 10
20.4065566944
 20
4.9836622269
 30
0.0
 10
20.4070998499
 20
5.0005979473
 30
0.0
 10
20.4065566944
 20
5.0175336676
 30
0.0
 10
20.4049285081
 20
5.0344282413
 30
0.0
 10
20.4022192844
 20
5.0512406244
 30
0.0
 10
20.3984358292
 20
5.0679300338
 30
0.0
 10
20.3935874668
 20
5.0844560264
 30
0.0
 10
20.3876860621
 20
5.1007785649
 30
0.0
 10
20.3807461825
 20
5.1168582611
 30
0.0
 10
20.3727849711
 20
5.1326562221
 30
0.0
 10
20.3638214139
 20
5.148134792
 30
0.0
 10
20.3504832615
 20
5.1684190815
 30
0.0
 10
20.3313581822
 20
5.1927933983
 30
0.0
 10
20.3049617244
 20
5.2199830706
 30
0.0
 10
20.2752278275
 20
5.245049562
 30
0.0
 10
20.242446095
 20
5.2677541363
 30
0.0
 10
20.2069317729
 20
5.2878840157
 30
0.0
 10
20.169025469
 20
5.305249738
 30
0.0
 10
20.1290916296
 20
5.3196871371
 30
0.0
 10
20.0945427083
 20
5.3291369575
 30
0.0
 10
20.0662513871
 20
5.3351313953
 30
0.0
 10
20.0374702374
 20
5.3400798501
 30
0.0
 10
20.0010108352
 20
5.3442148116
 30
0.0
 10
19.9716319754
 20
5.3453179467
 30
0.0
 10
19.956918928
 20
5.3453179467
 30
0.0
  0
SPLINE
  5
25C
100
AcDbEntity
  8
0
100
AcDbSpline
 62
9
  6
CONTINUOUS
 70
0
 71
3
 72
51
 73
47
 74
0
 42
0.0000001
 43
0.0000001
 44
0.0000000001
 40
0.0
 40
0.0
 40
0.0
 40
0.0
 40
0.0352127151
 40
0.0702854967
 40
0.0877302606
 40
0.1050897169
 40
0.1394838535
 40
0.1733573557
 40
0.2066082231
 40
0.2391532982
 40
0.2709319475
 40
0.3019096459
 40
0.3320811395
 40
0.3614729732
 40
0.3758995945
 40
0.3901565814
 40
0.4042566055
 40
0.4182143131
 40
0.4320461837
 40
0.4457703717
 40
0.4594065205
 40
0.4729755082
 40
0.4864991697
 40
0.5
 40
0.5135008303
 40
0.5270244918
 40
0.5405934795
 40
0.5542296283
 40
0.5679538163
 40
0.5817856869
 40
0.5957433945
 40
0.6098434186
 40
0.6241004055
 40
0.6385270268
 40
0.6679188605
 40
0.6980903541
 40
0.7290680525
 40
0.7608467018
 40
0.7933917769
 40
0.8266426443
 40
0.8605161465
 40
0.8949102831
 40
0.9122697394
 40
0.9297145033
 40
0.9647872849
 40
1.0
 40
1.0
 40
1.0
 40
1.0
 10
19.956918928
 20
5.3453179467
 30
0.0
 10
19.9422058805
 20
5.3453179467
 30
0.0
 10
19.9128270208
 20
5.3442148116
 30
0.0
 10
19.8763676186
 20
5.3400798501
 30
0.0
 10
19.8475864689
 20
5.3351313953
 30
0.0
 10
19.8192951477
 20
5.3291369575
 30
0.0
 10
19.7847462264
 20
5.3196871371
 30
0.0
 10
19.744812387
 20
5.305249738
 30
0.0
 10
19.7069060831
 20
5.2878840157
 30
0.0
 10
19.671391761
 20
5.2677541363
 30
0.0
 10
19.6386100285
 20
5.245049562
 30
0.0
 10
19.6088761316
 20
5.2199830706
 30
0.0
 10
19.5824796737
 20
5.1927933983
 30
0.0
 10
19.5633545945
 20
5.1684190815
 30
0.0
 10
19.5500164421
 20
5.148134792
 30
0.0
 10
19.5410528849
 20
5.1326562222
 30
0.0
 10
19.5330916735
 20
5.1168582611
 30
0.0
 10
19.5261517939
 20
5.1007785649
 30
0.0
 10
19.5202503892
 20
5.0844560264
 30
0.0
 10
19.5154020268
 20
5.0679300338
 30
0.0
 10
19.5116185716
 20
5.0512406244
 30
0.0
 10
19.5089093479
 20
5.0344282413
 30
0.0
 10
19.5072811616
 20
5.0175336676
 30
0.0
 10
19.5067380061
 20
5.0005979473
 30
0.0
 10
19.5072811616
 20
4.9836622269
 30
0.0
 10
19.5089093479
 20
4.9667676533
 30
0.0
 10
19.5116185716
 20
4.9499552701
 30
0.0
 10
19.5154020268
 20
4.9332658607
 30
0.0
 10
19.5202503892
 20
4.9167398681
 30
0.0
 10
19.5261517939
 20
4.9004173296
 30
0.0
 10
19.5330916735
 20
4.8843376334
 30
0.0
 10
19.5410528849
 20
4.8685396724
 30
0.0
 10
19.5500164421
 20
4.8530611026
 30
0.0
 10
19.5633545945
 20
4.832776813
 30
0.0
 10
19.5824796737
 20
4.8084024962
 30
0.0
 10
19.6088761316
 20
4.7812128239
 30
0.0
 10
19.6386100285
 20
4.7561463325
 30
0.0
 10
19.671391761
 20
4.7334417582
 30
0.0
 10
19.7069060831
 20
4.7133118788
 30
0.0
 10
19.744812387
 20
4.6959461565
 30
0.0
 10
19.7847462264
 20
4.6815087574
 30
0.0
 10
19.8192951477
 20
4.6720589371
 30
0.0
 10
19.8475864689
 20
4.6660644993
 30
0.0
 10
19.8763676186
 20
4.6611160444
 30
0.0
 10
19.9128270208
 20
4.6569810829
 30
0.0
 10
19.9422058805
 20
4.6558779479
 30
0.0
 10
19.956918928
 20
4.6558779479
 30
0.0
  0
ENDSEC
  0
SECTION
  2
OBJECTS
  0
DICTIONARY
  5
C
100
AcDbDictionary
280
0
281
1
  3
ACAD_GROUP
350
D
  3
ACAD_MLINESTYLE
350
17
  3
ACAD_LAYOUT
350
1A
  3
ACAD_PLOTSETTINGS
350
19
  3
ACAD_PLOTSTYLENAME
350
E
  0
DICTIONARY
  5
D
102
{ACAD_REACTORS
330
C
102
}
100
AcDbDictionary
280
0
281
1
  0
ACDBDICTIONARYWDFLT
  5
E
102
{ACAD_REACTORS
330
C
102
}
100
AcDbDictionary
281
1
  3
Normal
350
F
100
AcDbDictionaryWithDefault
340
F
  0
DICTIONARY
  5
17
102
{ACAD_REACTORS
330
C
102
}
100
AcDbDictionary
280
0
281
1
  3
Standard
350
18
  0
DICTIONARY
  5
19
102
{ACAD_REACTORS
330
C
102
}
100
AcDbDictionary
281
1
  0
DICTIONARY
  5
1A
102
{ACAD_REACTORS
330
C
102
}
100
AcDbDictionary
281
1
  3
Model
350
25D
  3
Layout1
350
25E
  0
ACDBPLACEHOLDER
  5
F
102
{ACAD_REACTORS
330
E
102
}
  0
MLINESTYLE
  5
18
102
{ACAD_REACTORS
330
17
102
}
100
AcDbMlineStyle
  2
STANDARD
 70
0
  3

 62
256
 51
90.0
 52
90.0
 71
2
 49
0.5
 62
256
  6
BYLAYER
 49
-0.5
 62
256
  6
BYLAYER
  0
LAYOUT
  5
25D
102
{ACAD_REACTORS
330
1A
102
}
100
AcDbPlotSettings
  1

  2
none_device
  4
ANSI_C_(22.00_x_17.00_Inches)
  6

 40
0.0
 41
0.0
 42
0.0
 43
0.0
 44
558.8
 45
431.8
 46
0.0
 47
0.0
 48
0.0
 49
0.0
140
0.0
141
0.0
142
1.0
143
1.0
 70
1024
 72
0
 73
0
 74
0
  7

 75
0
147
1.0
148
0.0
149
0.0
100
AcDbLayout
  1
Model
 70
0
 71
0
 10
0.0
 20
0.0
 11
22.0
 21
17.0
 12
0.0
 22
0.0
 32
0.0
 14
0.0
 24
0.0
 34
0.0
 15
0.0
 25
0.0
 35
0.0
146
0.0
 13
0.0
 23
0.0
 33
0.0
 16
1.0
 26
0.0
 36
0.0
 17
0.0
 27
1.0
 37
0.0
 76
0
330
205
345
0
346
0
  0
LAYOUT
  5
25E
102
{ACAD_REACTORS
330
1A
102
}
100
AcDbPlotSettings
  1

  2
none_device
  4
ANSI_C_(22.00_x_17.00_Inches)
  6

 40
0.0
 41
0.0
 42
0.0
 43
0.0
 44
558.8
 45
431.8
 46
0.0
 47
0.0
 48
0.0
 49
0.0
140
0.0
141
0.0
142
1.0
143
1.0
 70
0
 72
0
 73
0
 74
0
  7

 75
0
147
1.0
148
0.0
149
0.0
100
AcDbLayout
  1
Layout1
 70
0
 71
1
 10
0.0
 20
0.0
 11
22.0
 21
17.0
 12
0.0
 22
0.0
 32
0.0
 14
0.0
 24
0.0
 34
0.0
 15
0.0
 25
0.0
 35
0.0
146
0.0
 13
0.0
 23
0.0
 33
0.0
 16
1.0
 26
0.0
 36
0.0
 17
0.0
 27
1.0
 37
0.0
 76
0
330
206
345
0
346
0
  0
ENDSEC
  0
EOF
