999
DXF file: 3-1603tr_FRONT.dxf
999
Pro/ENGINEER 2013150 by Parametric Technology Corporation
  0
SECTION
  2
HEADER
  9
$ACADVER
  1
AC1021
  9
$DWGCODEPAGE
  3
ANSI_1252
  9
$EXTMAX
 10
11.0
 20
8.5
 30
0.0
  9
$EXTMIN
 10
0.0
 20
0.0
 30
0.0
  9
$LIMMIN
 10
0.0
 20
0.0
  9
$LIMMAX
 10
11.0
 20
8.5
  9
$VIEWCTR
 10
5.5
 20
4.25
  9
$VIEWSIZE
 40
8.5
  9
$CLAYER
  8
0
  9
$LTSCALE
 40
0.605
  9
$CELTYPE
  6
BYLAYER
  9
$DIMSCALE
 40
1.0
  9
$DIMASZ
 40
0.1
  9
$DIMEXO
 40
0.0625
  9
$DIMDLI
 40
0.418
  9
$DIMEXE
 40
0.125
  9
$DIMCEN
 40
0.099
  9
$DIMLFAC
 40
1.0
  9
$DIMBLK
  1
_FILLED
  9
$DIMTXT
 40
0.08
  9
$DIMTOL
 70
1
  9
$DIMLIM
 70
0
  9
$DIMTFAC
 40
1.0
  9
$DIMTP
 40
0.001
  9
$DIMTM
 40
0.001
  9
$DIMGAP
 40
0.09
  9
$DIMDSEP
 70
46
  9
$PDMODE
 70
3
  9
$PDSIZE
 40
0.06
  9
$HANDSEED
  5
328
  9
$TILEMODE
 70
1
  9
$MEASUREMENT
 70
0
  9
$INSUNITS
 70
1
  0
ENDSEC
  0
SECTION
  2
CLASSES
  0
CLASS
  1
ACDBDICTIONARYWDFLT
  2
AcDbDictionaryWithDefault
  3
AutoCAD 2000
 90
0
 91
1
280
0
281
0
  0
CLASS
  1
ACDBPLACEHOLDER
  2
AcDbPlaceHolder
  3
AutoCAD 2000
 90
0
 91
1
280
0
281
0
  0
CLASS
  1
LAYOUT
  2
AcDbLayout
  3
AutoCAD 2000
 90
0
 91
0
280
0
281
0
  0
ENDSEC
  0
SECTION
  2
TABLES
  0
TABLE
  2
VPORT
  5
8
100
AcDbSymbolTable
 70
2
  0
VPORT
  5
1F4
100
AcDbSymbolTableRecord
100
AcDbViewportTableRecord
  2
*ACTIVE
 70
0
 10
0.0
 20
0.0
 11
1.0
 21
1.0
 12
5.5
 22
4.25
 13
0.0
 23
0.0
 14
1.0
 24
1.0
 15
0.0
 25
0.0
 16
0.0
 26
0.0
 36
1.0
 17
0.0
 27
0.0
 37
0.0
 40
8.5
 41
1.2941176471
 42
50.0
 43
0.0
 44
0.0
 50
0.0
 51
0.0
 71
0
 72
100
 73
1
 74
1
 75
0
 76
0
 77
0
 78
0
  0
ENDTAB
  0
TABLE
  2
LTYPE
  5
5
100
AcDbSymbolTable
 70
6
  0
LTYPE
  5
14
100
AcDbSymbolTableRecord
100
AcDbLinetypeTableRecord
  2
BYBLOCK
 70
0
  3

 72
65
 73
0
 40
0.0
  0
LTYPE
  5
15
100
AcDbSymbolTableRecord
100
AcDbLinetypeTableRecord
  2
BYLAYER
 70
0
  3

 72
65
 73
0
 40
0.0
  0
LTYPE
  5
16
100
AcDbSymbolTableRecord
100
AcDbLinetypeTableRecord
  2
CONTINUOUS
 70
64
  3
Solid line
 72
65
 73
0
 40
0.0
  0
LTYPE
  5
1F5
100
AcDbSymbolTableRecord
100
AcDbLinetypeTableRecord
  2
CENTER
 70
64
  3
____ _ ____ _ ____ _ ____ _ ____ _ ____ _ ____
 72
65
 73
4
 40
0.6
 49
0.375
 74
0
 49
-0.075
 74
0
 49
0.075
 74
0
 49
-0.075
 74
0
  0
LTYPE
  5
1F6
100
AcDbSymbolTableRecord
100
AcDbLinetypeTableRecord
  2
HIDDEN
 70
64
  3
- - - - - - - - - - - - - - - - - - - -
 72
65
 73
2
 40
0.2
 49
0.1
 74
0
 49
-0.1
 74
0
  0
LTYPE
  5
1F7
100
AcDbSymbolTableRecord
100
AcDbLinetypeTableRecord
  2
PHANTOM
 70
64
  3
_____ _ _ _____ _ _ _____ _ _ _____
 72
65
 73
6
 40
0.8
 49
0.45
 74
0
 49
-0.05
 74
0
 49
0.1
 74
0
 49
-0.05
 74
0
 49
0.1
 74
0
 49
-0.05
 74
0
  0
LTYPE
  5
1F8
100
AcDbSymbolTableRecord
100
AcDbLinetypeTableRecord
  2
DOT
 70
64
  3
. . . . . . . . . . . . . . . . . . . .
 72
65
 73
2
 40
0.2
 49
0.1
 74
0
 49
-0.1
 74
0
  0
LTYPE
  5
1F9
100
AcDbSymbolTableRecord
100
AcDbLinetypeTableRecord
  2
DASHED
 70
64
  3
- - - - - - - - - - - - - - - - - - - -
 72
65
 73
2
 40
0.2
 49
0.1
 74
0
 49
-0.1
 74
0
  0
ENDTAB
  0
TABLE
  2
LAYER
  5
2
100
AcDbSymbolTable
 70
36
  0
LAYER
  5
10
100
AcDbSymbolTableRecord
100
AcDbLayerTableRecord
  2
0
 70
0
 62
7
  6
CONTINUOUS
370
-3
390
F
  0
LAYER
  5
1FA
100
AcDbSymbolTableRecord
100
AcDbLayerTableRecord
  2
DEFAULT_1
 70
0
 62
7
  6
CENTER
370
-3
390
F
  0
LAYER
  5
1FB
100
AcDbSymbolTableRecord
100
AcDbLayerTableRecord
  2
DEFAULT_2
 70
0
 62
8
  6
HIDDEN
370
-3
390
F
  0
LAYER
  5
1FC
100
AcDbSymbolTableRecord
100
AcDbLayerTableRecord
  2
DEFAULT_3
 70
0
 62
7
  6
PHANTOM
370
-3
390
F
  0
LAYER
  5
1FD
100
AcDbSymbolTableRecord
100
AcDbLayerTableRecord
  2
ALL_ASSEMBLY_MEMBERS
 70
0
 62
7
  6
CONTINUOUS
370
-3
390
F
  0
LAYER
  5
1FE
100
AcDbSymbolTableRecord
100
AcDbLayerTableRecord
  2
ALL_FEATURES
 70
0
 62
7
  6
CONTINUOUS
370
-3
390
F
  0
LAYER
  5
1FF
100
AcDbSymbolTableRecord
100
AcDbLayerTableRecord
  2
AXES_FEATURES
 70
0
 62
7
  6
CONTINUOUS
370
-3
390
F
  0
LAYER
  5
200
100
AcDbSymbolTableRecord
100
AcDbLayerTableRecord
  2
CHAMFER_FEATURES
 70
0
 62
7
  6
CONTINUOUS
370
-3
390
F
  0
LAYER
  5
201
100
AcDbSymbolTableRecord
100
AcDbLayerTableRecord
  2
CURVES
 70
0
 62
7
  6
CONTINUOUS
370
-3
390
F
  0
LAYER
  5
202
100
AcDbSymbolTableRecord
100
AcDbLayerTableRecord
  2
CUT_FEATURES
 70
0
 62
7
  6
CONTINUOUS
370
-3
390
F
  0
LAYER
  5
203
100
AcDbSymbolTableRecord
100
AcDbLayerTableRecord
  2
DATUM_CURVES
 70
0
 62
7
  6
CONTINUOUS
370
-3
390
F
  0
LAYER
  5
204
100
AcDbSymbolTableRecord
100
AcDbLayerTableRecord
  2
DATUM_PLANES
 70
0
 62
7
  6
CONTINUOUS
370
-3
390
F
  0
LAYER
  5
205
100
AcDbSymbolTableRecord
100
AcDbLayerTableRecord
  2
DATUM_POINTS
 70
0
 62
7
  6
CONTINUOUS
370
-3
390
F
  0
LAYER
  5
206
100
AcDbSymbolTableRecord
100
AcDbLayerTableRecord
  2
DEFAULT_COORDINATE_SYSTEM
 70
0
 62
7
  6
CONTINUOUS
370
-3
390
F
  0
LAYER
  5
207
100
AcDbSymbolTableRecord
100
AcDbLayerTableRecord
  2
DEFAULT_DATUM_AXES
 70
0
 62
7
  6
CONTINUOUS
370
-3
390
F
  0
LAYER
  5
208
100
AcDbSymbolTableRecord
100
AcDbLayerTableRecord
  2
DEFAULT_DATUM_CURVES
 70
0
 62
7
  6
CONTINUOUS
370
-3
390
F
  0
LAYER
  5
209
100
AcDbSymbolTableRecord
100
AcDbLayerTableRecord
  2
DEFAULT_DATUM_PLANES
 70
0
 62
7
  6
CONTINUOUS
370
-3
390
F
  0
LAYER
  5
20A
100
AcDbSymbolTableRecord
100
AcDbLayerTableRecord
  2
DEFAULT_SURFACES
 70
0
 62
7
  6
CONTINUOUS
370
-3
390
F
  0
LAYER
  5
20B
100
AcDbSymbolTableRecord
100
AcDbLayerTableRecord
  2
DIMENSIONS
 70
0
 62
7
  6
CONTINUOUS
370
-3
390
F
  0
LAYER
  5
20C
100
AcDbSymbolTableRecord
100
AcDbLayerTableRecord
  2
HOLE_FEATURES
 70
0
 62
7
  6
CONTINUOUS
370
-3
390
F
  0
LAYER
  5
20D
100
AcDbSymbolTableRecord
100
AcDbLayerTableRecord
  2
INTFCLR_1
 70
0
 62
7
  6
CONTINUOUS
370
-3
390
F
  0
LAYER
  5
20E
100
AcDbSymbolTableRecord
100
AcDbLayerTableRecord
  2
NOTES
 70
0
 62
7
  6
CONTINUOUS
370
-3
390
F
  0
LAYER
  5
20F
100
AcDbSymbolTableRecord
100
AcDbLayerTableRecord
  2
PART_REFERENCE_DIMENSIONS
 70
0
 62
7
  6
CONTINUOUS
370
-3
390
F
  0
LAYER
  5
210
100
AcDbSymbolTableRecord
100
AcDbLayerTableRecord
  2
PLATED_SURFACE_AREA
 70
0
 62
7
  6
CONTINUOUS
370
-3
390
F
  0
LAYER
  5
211
100
AcDbSymbolTableRecord
100
AcDbLayerTableRecord
  2
POINTS
 70
0
 62
7
  6
CONTINUOUS
370
-3
390
F
  0
LAYER
  5
212
100
AcDbSymbolTableRecord
100
AcDbLayerTableRecord
  2
PROTRUSION
 70
0
 62
7
  6
CONTINUOUS
370
-3
390
F
  0
LAYER
  5
213
100
AcDbSymbolTableRecord
100
AcDbLayerTableRecord
  2
PROTRUSION_FEATURES
 70
0
 62
7
  6
CONTINUOUS
370
-3
390
F
  0
LAYER
  5
214
100
AcDbSymbolTableRecord
100
AcDbLayerTableRecord
  2
QUILTS
 70
0
 62
7
  6
CONTINUOUS
370
-3
390
F
  0
LAYER
  5
215
100
AcDbSymbolTableRecord
100
AcDbLayerTableRecord
  2
REFERENCE_DIMENSIONS
 70
0
 62
7
  6
CONTINUOUS
370
-3
390
F
  0
LAYER
  5
216
100
AcDbSymbolTableRecord
100
AcDbLayerTableRecord
  2
ROUND_FEATURES
 70
0
 62
7
  6
CONTINUOUS
370
-3
390
F
  0
LAYER
  5
217
100
AcDbSymbolTableRecord
100
AcDbLayerTableRecord
  2
SIZE_REF
 70
0
 62
7
  6
CONTINUOUS
370
-3
390
F
  0
LAYER
  5
218
100
AcDbSymbolTableRecord
100
AcDbLayerTableRecord
  2
SURFACE_FEATURES
 70
0
 62
7
  6
CONTINUOUS
370
-3
390
F
  0
ENDTAB
  0
TABLE
  2
STYLE
  5
3
100
AcDbSymbolTable
 70
1
  0
STYLE
  5
11
100
AcDbSymbolTableRecord
100
AcDbTextStyleTableRecord
  2
STANDARD
 70
0
 40
0.0
 41
0.8
 50
0.0
 71
0
 42
0.2
  3
txt
  4

  0
STYLE
  5
219
100
AcDbSymbolTableRecord
100
AcDbTextStyleTableRecord
  2
TEXTSTYLE_1
 70
0
 40
0.0
 41
0.8
 50
0.0
 71
0
 42
0.2
  3
gdt
  4

  0
ENDTAB
  0
TABLE
  2
VIEW
  5
6
100
AcDbSymbolTable
 70
0
  0
ENDTAB
  0
TABLE
  2
UCS
  5
7
100
AcDbSymbolTable
 70
0
  0
ENDTAB
  0
TABLE
  2
APPID
  5
9
100
AcDbSymbolTable
 70
1
  0
APPID
  5
21A
100
AcDbSymbolTableRecord
100
AcDbRegAppTableRecord
  2
ACAD
 70
0
  0
ENDTAB
  0
TABLE
  2
BLOCK_RECORD
  5
1
100
AcDbSymbolTable
 70
0
  0
BLOCK_RECORD
  5
21B
100
AcDbSymbolTableRecord
100
AcDbBlockTableRecord
  2
*Model_Space
  0
BLOCK_RECORD
  5
21C
100
AcDbSymbolTableRecord
100
AcDbBlockTableRecord
  2
*Paper_Space
  0
ENDTAB
  0
TABLE
  2
DIMSTYLE
  5
A
100
AcDbSymbolTable
 70
1
100
AcDbDimStyleTable
 71
0
  0
DIMSTYLE
105
21D
100
AcDbSymbolTableRecord
100
AcDbDimStyleTableRecord
  2
STANDARD
 70
0
  3

  4

 40
1.0
 41
0.1
 42
0.0625
 43
0.38
 44
0.125
 45
0.0
 46
0.0
 47
0.001
 48
0.001
140
0.08
141
0.09
142
0.0
143
25.4
144
1.0
145
0.0
146
1.0
147
0.09
 71
1.0
 72
0.0
 73
1
 74
1
 75
0
 76
0
 77
0
 78
4
170
0
171
2
172
0
173
0
174
0
175
0
176
0
177
0
178
0
270
2
271
3
272
3
273
2
274
2
275
0
280
0
281
0
282
0
283
1
284
4
285
0
286
0
287
3
288
0
340
11
278
46
  0
ENDTAB
  0
ENDSEC
  0
SECTION
  2
BLOCKS
  0
BLOCK
  5
20
100
AcDbEntity
  8
0
100
AcDbBlockBegin
  2
*Model_Space
 70
0
 10
0.0
 20
0.0
 30
0.0
  3
*Model_Space
  1

  0
ENDBLK
  5
21
100
AcDbEntity
  8
0
100
AcDbBlockEnd
  0
BLOCK
  5
1C
100
AcDbEntity
  8
0
100
AcDbBlockBegin
  2
*Paper_Space
 70
0
 10
0.0
 20
0.0
 30
0.0
  3
*Paper_Space
  1

  0
ENDBLK
  5
1D
100
AcDbEntity
  8
0
100
AcDbBlockEnd
  0
ENDSEC
  0
SECTION
  2
ENTITIES
  0
LINE
  5
21E
100
AcDbEntity
  8
0
100
AcDbLine
 62
7
  6
CONTINUOUS
 10
0.0
 20
0.0
 11
0.0
 21
8.5
  0
LINE
  5
21F
100
AcDbEntity
  8
0
100
AcDbLine
 62
7
  6
CONTINUOUS
 10
0.0
 20
0.0
 11
11.0
 21
0.0
  0
LINE
  5
220
100
AcDbEntity
  8
0
100
AcDbLine
 62
7
  6
CONTINUOUS
 10
0.0
 20
8.5
 11
11.0
 21
8.5
  0
LINE
  5
221
100
AcDbEntity
  8
0
100
AcDbLine
 62
7
  6
CONTINUOUS
 10
11.0
 20
0.0
 11
11.0
 21
8.5
  0
LINE
  5
222
100
AcDbEntity
  8
0
100
AcDbLine
 62
7
  6
CONTINUOUS
 10
4.4883331527
 20
1.7178022888
 11
4.5081830842
 21
1.7178022888
  0
LINE
  5
223
100
AcDbEntity
  8
0
100
AcDbLine
 62
7
  6
CONTINUOUS
 10
4.5081830842
 20
1.7859468978
 11
4.5785787148
 21
1.7859468978
  0
LINE
  5
224
100
AcDbEntity
  8
0
100
AcDbLine
 62
7
  6
CONTINUOUS
 10
4.5785787148
 20
1.8036481317
 11
4.5081830842
 21
1.8036481317
  0
LINE
  5
225
100
AcDbEntity
  8
0
100
AcDbLine
 62
7
  6
CONTINUOUS
 10
4.5081830842
 20
1.8501010593
 11
4.589526875
 21
1.8501010593
  0
LINE
  5
226
100
AcDbEntity
  8
0
100
AcDbLine
 62
7
  6
CONTINUOUS
 10
4.589526875
 20
1.8678022888
 11
4.4883331527
 21
1.8678022888
  0
LINE
  5
227
100
AcDbEntity
  8
0
100
AcDbLine
 62
7
  6
CONTINUOUS
 10
5.4126093884
 20
2.8424205904
 11
5.4296086321
 21
2.846975524
  0
LINE
  5
228
100
AcDbEntity
  8
0
100
AcDbLine
 62
7
  6
CONTINUOUS
 10
3.5246204991
 20
2.838090327
 11
3.5415526783
 21
2.8325887285
  0
LINE
  5
229
100
AcDbEntity
  8
0
100
AcDbLine
 62
7
  6
CONTINUOUS
 10
3.5318187287
 20
2.8744820115
 11
3.6434348762
 21
2.8382157267
  0
LINE
  5
22A
100
AcDbEntity
  8
0
100
AcDbLine
 62
7
  6
CONTINUOUS
 10
3.6491261842
 20
2.8557317718
 11
3.5058838324
 21
2.9022740333
  0
LINE
  5
22B
100
AcDbEntity
  8
0
100
AcDbLine
 62
7
  6
CONTINUOUS
 10
3.578944495
 20
2.5272863562
 11
3.6528050765
 21
2.5403099695
  0
LINE
  5
22C
100
AcDbEntity
  8
0
100
AcDbLine
 62
7
  6
CONTINUOUS
 10
3.6495491732
 20
2.5587751149
 11
3.5756885917
 21
2.5457515016
  0
LINE
  5
22D
100
AcDbEntity
  8
0
100
AcDbLine
 62
7
  6
CONTINUOUS
 10
5.4103031351
 20
2.9190246199
 11
5.3321215706
 21
2.9131178109
  0
LINE
  5
22E
100
AcDbEntity
  8
0
100
AcDbLine
 62
7
  6
CONTINUOUS
 10
5.3560851087
 20
2.8976115878
 11
5.3971173219
 21
2.9002377697
  0
LINE
  5
22F
100
AcDbEntity
  8
0
100
AcDbLine
 62
7
  6
CONTINUOUS
 10
5.2846870619
 20
2.6115594757
 11
5.3594016643
 21
2.605022795
  0
LINE
  5
230
100
AcDbEntity
  8
0
100
AcDbLine
 62
7
  6
CONTINUOUS
 10
5.3610358345
 20
2.6237014456
 11
5.2863212321
 21
2.6302381263
  0
LINE
  5
231
100
AcDbEntity
  8
0
100
AcDbLine
 62
7
  6
CONTINUOUS
 10
3.5680291037
 20
2.9849055481
 11
3.6795716218
 21
2.9494331939
  0
LINE
  5
232
100
AcDbEntity
  8
0
100
AcDbLine
 62
7
  6
CONTINUOUS
 10
3.5606338373
 20
2.9489279853
 11
3.5775660165
 21
2.9434263867
  0
LINE
  5
233
100
AcDbEntity
  8
0
100
AcDbLine
 62
7
  6
CONTINUOUS
 10
3.6851395211
 20
2.9665694258
 11
3.5418971693
 21
3.0131116873
  0
LINE
  5
234
100
AcDbEntity
  8
0
100
AcDbLine
 62
7
  6
CONTINUOUS
 10
3.6042923079
 20
3.1395839767
 11
3.5875547478
 21
3.1450223396
  0
LINE
  5
235
100
AcDbEntity
  8
0
100
AcDbLine
 62
7
  6
CONTINUOUS
 10
3.5645049444
 20
3.0740823392
 11
3.633290603
 21
3.0364554827
  0
LINE
  5
236
100
AcDbEntity
  8
0
100
AcDbLine
 62
7
  6
CONTINUOUS
 10
3.6216383833
 20
3.0625115739
 11
3.5857955498
 21
3.0826568089
  0
LINE
  5
237
100
AcDbEntity
  8
0
100
AcDbLine
 62
7
  6
CONTINUOUS
 10
5.1882412911
 20
2.0620250498
 11
5.202657476
 21
2.0519307286
  0
LINE
  5
238
100
AcDbEntity
  8
0
100
AcDbLine
 62
7
  6
CONTINUOUS
 10
4.6819429354
 20
2.421376532
 11
5.2318027951
 21
2.0335731344
  0
LINE
  5
239
100
AcDbEntity
  8
0
100
AcDbLine
 62
7
  6
CONTINUOUS
 10
3.5756885917
 20
2.5457515016
 11
3.578944495
 21
2.5272863562
  0
LINE
  5
23A
100
AcDbEntity
  8
0
100
AcDbLine
 62
7
  6
CONTINUOUS
 10
3.6528050765
 20
2.5403099695
 11
3.6495491732
 21
2.5587751149
  0
LINE
  5
23B
100
AcDbEntity
  8
0
100
AcDbLine
 62
7
  6
CONTINUOUS
 10
4.8229472605
 20
2.6656031872
 11
5.4337247844
 21
2.383312279
  0
LINE
  5
23C
100
AcDbEntity
  8
0
100
AcDbLine
 62
7
  6
CONTINUOUS
 10
3.9749612245
 20
3.3575656829
 11
3.9292177796
 21
3.4170056991
  0
LINE
  5
23D
100
AcDbEntity
  8
0
100
AcDbLine
 62
7
  6
CONTINUOUS
 10
3.9145227924
 20
3.405932232
 11
3.9596589191
 21
3.3460345687
  0
LINE
  5
23E
100
AcDbEntity
  8
0
100
AcDbLine
 62
7
  6
CONTINUOUS
 10
3.6667669251
 20
3.0424691872
 11
3.6623480287
 21
3.0235714276
  0
LINE
  5
23F
100
AcDbEntity
  8
0
100
AcDbLine
 62
7
  6
CONTINUOUS
 10
3.5418971693
 20
3.0131116873
 11
3.5382294387
 21
3.0018235735
  0
LINE
  5
240
100
AcDbEntity
  8
0
100
AcDbLine
 62
7
  6
CONTINUOUS
 10
3.5058838324
 20
2.9022740333
 11
3.5022161005
 21
2.8909859152
  0
LINE
  5
241
100
AcDbEntity
  8
0
100
AcDbLine
 62
7
  6
CONTINUOUS
 10
3.5875547478
 20
3.1450223396
 11
3.5645049444
 21
3.0740823392
  0
LINE
  5
242
100
AcDbEntity
  8
0
100
AcDbLine
 62
7
  6
CONTINUOUS
 10
3.5857955498
 20
3.0826568089
 11
3.6042923079
 21
3.1395839767
  0
LINE
  5
243
100
AcDbEntity
  8
0
100
AcDbLine
 62
7
  6
CONTINUOUS
 10
3.6434348762
 20
2.8382157267
 11
3.6491261842
 21
2.8557317718
  0
LINE
  5
244
100
AcDbEntity
  8
0
100
AcDbLine
 62
7
  6
CONTINUOUS
 10
3.6795716218
 20
2.9494331939
 11
3.6851395211
 21
2.9665694258
  0
LINE
  5
245
100
AcDbEntity
  8
0
100
AcDbLine
 62
7
  6
CONTINUOUS
 10
4.3399006067
 20
3.0138112237
 11
4.2789829425
 21
3.6839055296
  0
LINE
  5
246
100
AcDbEntity
  8
0
100
AcDbLine
 62
7
  6
CONTINUOUS
 10
3.633290603
 20
3.0364554827
 11
3.6407749585
 21
3.0522055016
  0
LINE
  5
247
100
AcDbEntity
  8
0
100
AcDbLine
 62
7
  6
CONTINUOUS
 10
4.4883331527
 20
1.8678022888
 11
4.4883331527
 21
1.7178022888
  0
LINE
  5
248
100
AcDbEntity
  8
0
100
AcDbLine
 62
7
  6
CONTINUOUS
 10
4.5081830842
 20
1.7178022888
 11
4.5081830842
 21
1.7859468978
  0
LINE
  5
249
100
AcDbEntity
  8
0
100
AcDbLine
 62
7
  6
CONTINUOUS
 10
4.5081830842
 20
1.8036481317
 11
4.5081830842
 21
1.8501010593
  0
LINE
  5
24A
100
AcDbEntity
  8
ALL_ASSEMBLY_MEMBERS
100
AcDbLine
 62
7
  6
CONTINUOUS
 10
4.3213884573
 20
4.7915441251
 11
4.2958102645
 21
4.0625656318
  0
LINE
  5
24B
100
AcDbEntity
  8
0
100
AcDbLine
 62
7
  6
CONTINUOUS
 10
4.9867616324
 20
3.3308150882
 11
5.0011249657
 21
3.3187628205
  0
LINE
  5
24C
100
AcDbEntity
  8
0
100
AcDbLine
 62
7
  6
CONTINUOUS
 10
5.0493340365
 20
3.3762161537
 11
5.0349707032
 21
3.3882684214
  0
LINE
  5
24D
100
AcDbEntity
  8
ALL_ASSEMBLY_MEMBERS
100
AcDbLine
 62
7
  6
CONTINUOUS
 10
4.6404214062
 20
4.7915441251
 11
4.665999599
 21
4.0625656318
  0
LINE
  5
24E
100
AcDbEntity
  8
0
100
AcDbLine
 62
7
  6
CONTINUOUS
 10
4.5785787148
 20
1.7859468978
 11
4.5785787148
 21
1.8036481317
  0
LINE
  5
24F
100
AcDbEntity
  8
0
100
AcDbLine
 62
7
  6
CONTINUOUS
 10
4.589526875
 20
1.8501010593
 11
4.589526875
 21
1.8678022888
  0
LINE
  5
250
100
AcDbEntity
  8
0
100
AcDbLine
 62
7
  6
CONTINUOUS
 10
4.6219092569
 20
3.0138112237
 11
4.682826921
 21
3.6839055296
  0
LINE
  5
251
100
AcDbEntity
  8
0
100
AcDbLine
 62
7
  6
CONTINUOUS
 10
3.9292177796
 20
3.4170056991
 11
3.9145227924
 21
3.405932232
  0
LINE
  5
252
100
AcDbEntity
  8
0
100
AcDbLine
 62
7
  6
CONTINUOUS
 10
3.9596589191
 20
3.3460345687
 11
3.9749612245
 21
3.3575656829
  0
LINE
  5
253
100
AcDbEntity
  8
ALL_ASSEMBLY_MEMBERS
100
AcDbLine
 62
7
  6
CONTINUOUS
 10
4.6360180492
 20
4.0315136476
 11
4.3257918144
 21
4.0315136476
  0
LINE
  5
254
100
AcDbEntity
  8
ALL_ASSEMBLY_MEMBERS
100
AcDbLine
 62
9
  6
CONTINUOUS
 10
4.3225389238
 20
4.0624466994
 11
4.6392709408
 21
4.0624466951
  0
LINE
  5
255
100
AcDbEntity
  8
0
100
AcDbLine
 62
7
  6
CONTINUOUS
 10
5.3073212628
 20
2.8898417821
 11
5.3007348059
 21
2.9080974717
  0
LINE
  5
256
100
AcDbEntity
  8
0
100
AcDbLine
 62
7
  6
CONTINUOUS
 10
5.0349707032
 20
3.3882684214
 11
4.9867616324
 21
3.3308150882
  0
LINE
  5
257
100
AcDbEntity
  8
0
100
AcDbLine
 62
7
  6
CONTINUOUS
 10
5.0011249657
 20
3.3187628205
 11
5.0493340365
 21
3.3762161537
  0
LINE
  5
258
100
AcDbEntity
  8
0
100
AcDbLine
 62
7
  6
CONTINUOUS
 10
5.3971173219
 20
2.9002377697
 11
5.4126093884
 21
2.8424205904
  0
LINE
  5
259
100
AcDbEntity
  8
0
100
AcDbLine
 62
7
  6
CONTINUOUS
 10
5.4296086321
 20
2.846975524
 11
5.4103031351
 21
2.9190246199
  0
LINE
  5
25A
100
AcDbEntity
  8
0
100
AcDbLine
 62
7
  6
CONTINUOUS
 10
5.3321215706
 20
2.9131178109
 11
5.3344227371
 21
2.8958324614
  0
LINE
  5
25B
100
AcDbEntity
  8
0
100
AcDbLine
 62
7
  6
CONTINUOUS
 10
5.2863212321
 20
2.6302381263
 11
5.2846870619
 21
2.6115594757
  0
LINE
  5
25C
100
AcDbEntity
  8
0
100
AcDbLine
 62
7
  6
CONTINUOUS
 10
5.3594016643
 20
2.605022795
 11
5.3610358345
 21
2.6237014456
  0
LINE
  5
25D
100
AcDbEntity
  8
0
100
AcDbLine
 62
7
  6
CONTINUOUS
 10
4.1388626031
 20
2.6656031872
 11
3.5280850791
 21
2.383312279
  0
LINE
  5
25E
100
AcDbEntity
  8
0
100
AcDbLine
 62
7
  6
CONTINUOUS
 10
4.2798669282
 20
2.421376532
 11
3.7300070684
 21
2.0335731344
  0
LINE
  5
25F
100
AcDbEntity
  8
0
100
AcDbLine
 62
7
  6
CONTINUOUS
 10
5.1893057778
 20
2.0635452944
 11
5.1882412911
 21
2.0620250498
  0
LINE
  5
260
100
AcDbEntity
  8
0
100
AcDbLine
 62
7
  6
CONTINUOUS
 10
5.202657476
 20
2.0519307286
 11
5.2036877082
 21
2.0534020527
  0
ARC
  5
261
100
AcDbEntity
  8
0
100
AcDbCircle
 62
7
  6
CONTINUOUS
 10
3.7127164826
 20
2.0580891627
 40
0.03
100
AcDbArc
 50
219.8942597541
 51
305.1944289077
  0
ARC
  5
262
100
AcDbEntity
  8
0
100
AcDbCircle
 62
7
  6
CONTINUOUS
 10
3.5406712896
 20
2.3560801783
 40
0.03
100
AcDbArc
 50
114.8055710923
 51
200.1057402459
  0
ARC
  5
263
100
AcDbEntity
  8
ALL_FEATURES
100
AcDbCircle
 62
9
  6
CONTINUOUS
 10
3.879927497
 20
2.7508579306
 40
0.3030139722
100
AcDbArc
 50
350.4581084738
 51
351.2653254076
  0
ARC
  5
264
100
AcDbEntity
  8
ALL_FEATURES
100
AcDbCircle
 62
9
  6
CONTINUOUS
 10
3.8942535799
 20
2.7484707845
 40
0.2884903821
100
AcDbArc
 50
350.1181796836
 51
350.4539979959
  0
ARC
  5
265
100
AcDbEntity
  8
ALL_FEATURES
100
AcDbCircle
 62
9
  6
CONTINUOUS
 10
3.9080248138
 20
2.7460255642
 40
0.2745048237
100
AcDbArc
 50
349.4929290249
 51
350.1274726929
  0
ARC
  5
266
100
AcDbEntity
  8
ALL_FEATURES
100
AcDbCircle
 62
9
  6
CONTINUOUS
 10
4.324412426
 20
2.3607538612
 40
0.1029066562
100
AcDbArc
 50
122.9523457678
 51
125.3757060234
  0
ARC
  5
267
100
AcDbEntity
  8
ALL_FEATURES
100
AcDbCircle
 62
7
  6
CONTINUOUS
 10
4.3230933926
 20
2.3600864613
 40
0.075
100
AcDbArc
 50
65.1129513458
 51
125.1944289077
  0
CIRCLE
  5
268
100
AcDbEntity
  8
0
100
AcDbCircle
 62
7
  6
CONTINUOUS
 10
4.4261435211
 20
1.8441772888
 40
0.023625
  0
CIRCLE
  5
269
100
AcDbEntity
  8
0
100
AcDbCircle
 62
7
  6
CONTINUOUS
 10
4.4261435211
 20
1.8441772888
 40
0.01171875
  0
ARC
  5
26A
100
AcDbEntity
  8
ALL_FEATURES
100
AcDbCircle
 62
9
  6
CONTINUOUS
 10
4.1086453289
 20
2.7344901422
 40
0.1029004376
100
AcDbArc
 50
294.6192966623
 51
297.0426067651
  0
ARC
  5
26B
100
AcDbEntity
  8
ALL_FEATURES
100
AcDbCircle
 62
7
  6
CONTINUOUS
 10
4.107397077
 20
2.7336834389
 40
0.075
100
AcDbArc
 50
294.8055710923
 51
354.8870486542
  0
ARC
  5
26C
100
AcDbEntity
  8
ALL_FEATURES
100
AcDbCircle
 62
9
  6
CONTINUOUS
 10
4.2651271968
 20
3.005543566
 40
0.1029066814
100
AcDbArc
 50
2.953221488
 51
5.3765214043
  0
ARC
  5
26D
100
AcDbEntity
  8
ALL_FEATURES
100
AcDbCircle
 62
7
  6
CONTINUOUS
 10
4.2652086162
 20
3.0070210427
 40
0.075
100
AcDbArc
 50
305.1129513458
 51
5.1944289077
  0
ARC
  5
26E
100
AcDbEntity
  8
0
100
AcDbCircle
 62
7
  6
CONTINUOUS
 10
4.4809049318
 20
2.7002636476
 40
1.03125
100
AcDbArc
 50
320.1057402459
 51
339.8942597541
  0
ARC
  5
26F
100
AcDbEntity
  8
0
100
AcDbCircle
 62
7
  6
CONTINUOUS
 10
4.4809049318
 20
2.7002636476
 40
1.03125
100
AcDbArc
 50
80.1057402459
 51
99.8942597541
  0
ARC
  5
270
100
AcDbEntity
  8
0
100
AcDbCircle
 62
7
  6
CONTINUOUS
 10
4.4809049318
 20
2.7002636476
 40
1.03125
100
AcDbArc
 50
200.1057402459
 51
219.8942597541
  0
ARC
  5
271
100
AcDbEntity
  8
0
100
AcDbCircle
 62
7
  6
CONTINUOUS
 10
4.4809049318
 20
2.6991416004
 40
0.6274606299
100
AcDbArc
 50
225.4054439723
 51
314.5945560277
  0
ARC
  5
272
100
AcDbEntity
  8
0
100
AcDbCircle
 62
7
  6
CONTINUOUS
 10
4.4809049318
 20
2.6991416004
 40
0.6274606299
100
AcDbArc
 50
105.4813786316
 51
194.4143244612
  0
ARC
  5
273
100
AcDbEntity
  8
0
100
AcDbCircle
 62
7
  6
CONTINUOUS
 10
4.4809049318
 20
2.6991416004
 40
0.6274606299
100
AcDbArc
 50
345.5856755388
 51
74.5186213684
  0
ARC
  5
274
100
AcDbEntity
  8
ALL_FEATURES
100
AcDbCircle
 62
7
  6
CONTINUOUS
 10
4.4809049318
 20
2.7002636476
 40
0.6200787402
100
AcDbArc
 50
345.6063649697
 51
74.3947172531
  0
ARC
  5
275
100
AcDbEntity
  8
ALL_FEATURES
100
AcDbCircle
 62
7
  6
CONTINUOUS
 10
4.4809049318
 20
2.7002636476
 40
0.6200787402
100
AcDbArc
 50
105.6052827469
 51
194.3936350303
  0
ARC
  5
276
100
AcDbEntity
  8
ALL_FEATURES
100
AcDbCircle
 62
7
  6
CONTINUOUS
 10
4.4809049318
 20
2.7002636476
 40
0.6200787402
100
AcDbArc
 50
225.6073824429
 51
314.3926175571
  0
ARC
  5
277
100
AcDbEntity
  8
0
100
AcDbCircle
 62
7
  6
CONTINUOUS
 10
4.4809049318
 20
2.6991416004
 40
0.6200625
100
AcDbArc
 50
225.5189264221
 51
314.4810735779
  0
ARC
  5
278
100
AcDbEntity
  8
ALL_FEATURES
100
AcDbCircle
 62
7
  6
CONTINUOUS
 10
4.4809049318
 20
2.7002636476
 40
0.49125
100
AcDbArc
 50
108.3784268926
 51
191.621897824
  0
ARC
  5
279
100
AcDbEntity
  8
ALL_FEATURES
100
AcDbCircle
 62
7
  6
CONTINUOUS
 10
4.4809049318
 20
2.7002636476
 40
0.49125
100
AcDbArc
 50
348.378102176
 51
71.6215731074
  0
ARC
  5
27A
100
AcDbEntity
  8
ALL_FEATURES
100
AcDbCircle
 62
7
  6
CONTINUOUS
 10
4.4809049318
 20
2.7002636476
 40
0.49125
100
AcDbArc
 50
228.3786330016
 51
311.6213669984
  0
CIRCLE
  5
27B
100
AcDbEntity
  8
ALL_FEATURES
100
AcDbCircle
 62
7
  6
CONTINUOUS
 10
4.4809049318
 20
2.7002636476
 40
0.3
  0
CIRCLE
  5
27C
100
AcDbEntity
  8
ALL_FEATURES
100
AcDbCircle
 62
9
  6
CONTINUOUS
 10
4.4809049318
 20
2.7002636476
 40
0.2925
  0
CIRCLE
  5
27D
100
AcDbEntity
  8
ALL_FEATURES
100
AcDbCircle
 62
7
  6
CONTINUOUS
 10
4.4809049318
 20
2.7002636476
 40
0.23625
  0
CIRCLE
  5
27E
100
AcDbEntity
  8
ALL_FEATURES
100
AcDbCircle
 62
9
  6
CONTINUOUS
 10
4.4809049318
 20
2.7002636476
 40
0.2137499835
  0
CIRCLE
  5
27F
100
AcDbEntity
  8
ALL_FEATURES
100
AcDbCircle
 62
7
  6
CONTINUOUS
 10
4.4809049318
 20
2.7002636476
 40
0.19875
  0
ARC
  5
280
100
AcDbEntity
  8
ALL_ASSEMBLY_MEMBERS
100
AcDbCircle
 62
9
  6
CONTINUOUS
 10
1.5551436305
 20
3.9868045073
 40
2.8980104496
100
AcDbArc
 50
15.4946877883
 51
15.8602385488
  0
CIRCLE
  5
281
100
AcDbEntity
  8
0
100
AcDbCircle
 62
7
  6
CONTINUOUS
 10
4.4809049318
 20
3.8815136476
 40
2.65875
  0
CIRCLE
  5
282
100
AcDbEntity
  8
0
100
AcDbCircle
 62
9
  6
CONTINUOUS
 10
4.4809049318
 20
3.8815136476
 40
2.62125
  0
ARC
  5
283
100
AcDbEntity
  8
ALL_ASSEMBLY_MEMBERS
100
AcDbCircle
 62
7
  6
CONTINUOUS
 10
4.3257918144
 20
4.0615136476
 40
0.03
100
AcDbArc
 50
177.990446187
 51
270.0
  0
ARC
  5
284
100
AcDbEntity
  8
0
100
AcDbCircle
 62
7
  6
CONTINUOUS
 10
4.3088597387
 20
3.686621602
 40
0.03
100
AcDbArc
 50
99.8942597541
 51
185.1944288883
  0
ARC
  5
285
100
AcDbEntity
  8
0
100
AcDbCircle
 62
7
  6
CONTINUOUS
 10
4.4809049318
 20
5.0627636476
 40
0.6200775
100
AcDbArc
 50
286.0021638257
 51
253.9978361743
  0
ARC
  5
286
100
AcDbEntity
  8
0
100
AcDbCircle
 62
7
  6
CONTINUOUS
 10
4.4809049318
 20
5.0627636476
 40
0.50325
100
AcDbArc
 50
289.3417123195
 51
250.6582876805
  0
ARC
  5
287
100
AcDbEntity
  8
ALL_FEATURES
100
AcDbCircle
 62
7
  6
CONTINUOUS
 10
4.4809049318
 20
5.0627636476
 40
0.4886988938
100
AcDbArc
 50
289.8748313745
 51
250.1260687715
  0
ARC
  5
288
100
AcDbEntity
  8
ALL_FEATURES
100
AcDbCircle
 62
7
  6
CONTINUOUS
 10
4.4809049318
 20
5.0627636476
 40
0.485625
100
AcDbArc
 50
289.9916492741
 51
250.0083507259
  0
CIRCLE
  5
289
100
AcDbEntity
  8
ALL_ASSEMBLY_MEMBERS
100
AcDbCircle
 62
7
  6
CONTINUOUS
 10
4.4809049318
 20
5.0627636476
 40
0.3
  0
CIRCLE
  5
28A
100
AcDbEntity
  8
ALL_ASSEMBLY_MEMBERS
100
AcDbCircle
 62
9
  6
CONTINUOUS
 10
4.4809049318
 20
5.0627636476
 40
0.290625
  0
CIRCLE
  5
28B
100
AcDbEntity
  8
ALL_ASSEMBLY_MEMBERS
100
AcDbCircle
 62
7
  6
CONTINUOUS
 10
4.4809049318
 20
5.0627636476
 40
0.234375
  0
CIRCLE
  5
28C
100
AcDbEntity
  8
ALL_ASSEMBLY_MEMBERS
100
AcDbCircle
 62
9
  6
CONTINUOUS
 10
4.4809049318
 20
5.0627636476
 40
0.2118749883
  0
CIRCLE
  5
28D
100
AcDbEntity
  8
ALL_ASSEMBLY_MEMBERS
100
AcDbCircle
 62
7
  6
CONTINUOUS
 10
4.4809049318
 20
5.0627636476
 40
0.196875
  0
ARC
  5
28E
100
AcDbEntity
  8
ALL_ASSEMBLY_MEMBERS
100
AcDbCircle
 62
7
  6
CONTINUOUS
 10
4.2914069075
 20
4.7925961093
 40
0.03
100
AcDbArc
 50
357.990446187
 51
54.9538230503
  0
ARC
  5
28F
100
AcDbEntity
  8
ALL_FEATURES
100
AcDbCircle
 62
9
  6
CONTINUOUS
 10
5.0815233243
 20
2.7508017138
 40
0.3026506614
100
AcDbArc
 50
188.7347285459
 51
189.5426644552
  0
ARC
  5
290
100
AcDbEntity
  8
ALL_FEATURES
100
AcDbCircle
 62
9
  6
CONTINUOUS
 10
5.0670286829
 20
2.7483862886
 40
0.2879561575
100
AcDbArc
 50
189.5468327319
 51
189.8832897721
  0
ARC
  5
291
100
AcDbEntity
  8
ALL_FEATURES
100
AcDbCircle
 62
9
  6
CONTINUOUS
 10
5.0542828556
 20
2.7461273337
 40
0.2750123061
100
AcDbArc
 50
189.8756533347
 51
190.5054042692
  0
ARC
  5
292
100
AcDbEntity
  8
ALL_FEATURES
100
AcDbCircle
 62
9
  6
CONTINUOUS
 10
4.8531681841
 20
2.7344958042
 40
0.1029071059
100
AcDbArc
 50
242.9568388005
 51
245.3801695343
  0
ARC
  5
293
100
AcDbEntity
  8
ALL_FEATURES
100
AcDbCircle
 62
9
  6
CONTINUOUS
 10
4.6966759051
 20
3.0055427399
 40
0.1029000263
100
AcDbArc
 50
174.6226680202
 51
177.0460948274
  0
ARC
  5
294
100
AcDbEntity
  8
ALL_FEATURES
100
AcDbCircle
 62
9
  6
CONTINUOUS
 10
4.6374019016
 20
2.360759082
 40
0.1028998143
100
AcDbArc
 50
54.6246379038
 51
57.048496037
  0
ARC
  5
295
100
AcDbEntity
  8
ALL_FEATURES
100
AcDbCircle
 62
7
  6
CONTINUOUS
 10
4.8544127865
 20
2.7336834389
 40
0.075
100
AcDbArc
 50
185.1129513458
 51
245.1944289077
  0
ARC
  5
296
100
AcDbEntity
  8
ALL_FEATURES
100
AcDbCircle
 62
7
  6
CONTINUOUS
 10
4.6387164709
 20
2.3600864613
 40
0.075
100
AcDbArc
 50
54.8055710923
 51
114.8870486542
  0
ARC
  5
297
100
AcDbEntity
  8
ALL_FEATURES
100
AcDbCircle
 62
7
  6
CONTINUOUS
 10
4.6966012473
 20
3.0070210427
 40
0.075
100
AcDbArc
 50
174.8055710923
 51
234.8870486542
  0
ARC
  5
298
100
AcDbEntity
  8
0
100
AcDbCircle
 62
7
  6
CONTINUOUS
 10
5.2490933809
 20
2.0580891627
 40
0.03
100
AcDbArc
 50
234.8055710923
 51
320.1057402459
  0
ARC
  5
299
100
AcDbEntity
  8
0
100
AcDbCircle
 62
7
  6
CONTINUOUS
 10
5.421138574
 20
2.3560801783
 40
0.03
100
AcDbArc
 50
339.8942597541
 51
65.1944289077
  0
ARC
  5
29A
100
AcDbEntity
  8
ALL_ASSEMBLY_MEMBERS
100
AcDbCircle
 62
9
  6
CONTINUOUS
 10
7.4439953146
 20
3.9763458698
 40
2.9367768593
100
AcDbArc
 50
164.1425149262
 51
164.5032426055
  0
ARC
  5
29B
100
AcDbEntity
  8
ALL_ASSEMBLY_MEMBERS
100
AcDbCircle
 62
7
  6
CONTINUOUS
 10
4.6704029561
 20
4.7925961093
 40
0.03
100
AcDbArc
 50
125.0461769497
 51
182.009553813
  0
ARC
  5
29C
100
AcDbEntity
  8
ALL_ASSEMBLY_MEMBERS
100
AcDbCircle
 62
7
  6
CONTINUOUS
 10
4.6360180492
 20
4.0615136476
 40
0.03
100
AcDbArc
 50
270.0
 51
2.009553813
  0
ARC
  5
29D
100
AcDbEntity
  8
0
100
AcDbCircle
 62
7
  6
CONTINUOUS
 10
4.6529501248
 20
3.686621602
 40
0.03
100
AcDbArc
 50
354.8055710923
 51
80.1057402459
  0
SPLINE
  5
29E
100
AcDbEntity
  8
ALL_ASSEMBLY_MEMBERS
100
AcDbSpline
 62
9
  6
CONTINUOUS
 70
0
 71
3
 72
27
 73
23
 74
0
 42
0.0000001
 43
0.0000001
 44
0.0000000001
 40
0.0
 40
0.0
 40
0.0
 40
0.0
 40
0.1989176209
 40
0.3881937382
 40
0.4769293769
 40
0.5607488055
 40
0.6389416085
 40
0.7108566873
 40
0.7758887688
 40
0.8334368278
 40
0.8829961718
 40
0.9241877667
 40
0.9415310679
 40
0.9566460234
 40
0.969501596
 40
0.9800849992
 40
0.9883884744
 40
0.9916856971
 40
0.9944156948
 40
0.9965844184
 40
0.9982062335
 40
1.0
 40
1.0
 40
1.0
 40
1.0
 10
4.3478265133
 20
4.7610051846
 30
0.0
 10
4.3460015305
 20
4.7610651243
 30
0.0
 10
4.3424397269
 20
4.7611733102
 30
0.0
 10
4.338063108
 20
4.7612834604
 30
0.0
 10
4.3347423655
 20
4.7613514914
 30
0.0
 10
4.3324409539
 20
4.7613908637
 30
0.0
 10
4.3302937978
 20
4.7614193356
 30
0.0
 10
4.3283189864
 20
4.761436717
 30
0.0
 10
4.3265336165
 20
4.7614429734
 30
0.0
 10
4.3249534508
 20
4.761438085
 30
0.0
 10
4.3235922157
 20
4.7614220784
 30
0.0
 10
4.3226001908
 20
4.7613988569
 30
0.0
 10
4.3219245892
 20
4.7613734286
 30
0.0
 10
4.3215091248
 20
4.76135281
 30
0.0
 10
4.321155967
 20
4.7613296858
 30
0.0
 10
4.3208656421
 20
4.7613041141
 30
0.0
 10
4.320663499
 20
4.7612797277
 30
0.0
 10
4.3205335777
 20
4.7612578146
 30
0.0
 10
4.3204603096
 20
4.7612423987
 30
0.0
 10
4.3204016103
 20
4.7612258891
 30
0.0
 10
4.3203564076
 20
4.7612085763
 30
0.0
 10
4.3203233028
 20
4.761187134
 30
0.0
 10
4.3203227274
 20
4.7611706781
 30
0.0
  0
LINE
  5
29F
100
AcDbEntity
  8
ALL_ASSEMBLY_MEMBERS
100
AcDbLine
 62
9
  6
CONTINUOUS
 10
4.3478265133
 20
4.7610051846
 11
4.3225389188
 21
4.0624466551
  0
SPLINE
  5
2A0
100
AcDbEntity
  8
ALL_ASSEMBLY_MEMBERS
100
AcDbSpline
 62
9
  6
CONTINUOUS
 70
0
 71
3
 72
20
 73
16
 74
0
 42
0.0000001
 43
0.0000001
 44
0.0000000001
 40
0.0
 40
0.0
 40
0.0
 40
0.0
 40
0.1728084274
 40
0.335982852
 40
0.4857103972
 40
0.5548050636
 40
0.6197520811
 40
0.680411664
 40
0.7367670505
 40
0.7888995273
 40
0.837010327
 40
0.881478182
 40
0.9229056359
 40
0.9620863873
 40
1.0
 40
1.0
 40
1.0
 40
1.0
 10
4.3428302911
 20
4.7788068107
 30
0.0
 10
4.3413143646
 20
4.7790378396
 30
0.0
 10
4.3383814763
 20
4.7795910629
 30
0.0
 10
4.3342158143
 20
4.7807140972
 30
0.0
 10
4.3310298789
 20
4.7818902926
 30
0.0
 10
4.3287479351
 20
4.7829579181
 30
0.0
 10
4.3272301482
 20
4.7837859732
 30
0.0
 10
4.3258696755
 20
4.784658421
 30
0.0
 10
4.3246744724
 20
4.7855694771
 30
0.0
 10
4.3236517747
 20
4.7865137768
 30
0.0
 10
4.3228087067
 20
4.7874865513
 30
0.0
 10
4.322153217
 20
4.7884834657
 30
0.0
 10
4.3216894914
 20
4.7894972904
 30
0.0
 10
4.3214217788
 20
4.7905200732
 30
0.0
 10
4.3213769427
 20
4.7912078925
 30
0.0
 10
4.3213887633
 20
4.7915441143
 30
0.0
  0
SPLINE
  5
2A1
100
AcDbEntity
  8
ALL_ASSEMBLY_MEMBERS
100
AcDbSpline
 62
9
  6
CONTINUOUS
 70
0
 71
3
 72
17
 73
13
 74
0
 42
0.0000001
 43
0.0000001
 44
0.0000000001
 40
0.0
 40
0.0
 40
0.0
 40
0.0
 40
0.1245938328
 40
0.2491528456
 40
0.3737104968
 40
0.498290237
 40
0.560612366
 40
0.6229798577
 40
0.6854031239
 40
0.74791484
 40
0.8733636504
 40
1.0
 40
1.0
 40
1.0
 40
1.0
 10
4.3086335352
 20
4.8171575158
 30
0.0
 10
4.3104083586
 20
4.8159124665
 30
0.0
 10
4.3139088539
 20
4.8133524805
 30
0.0
 10
4.3189985506
 20
4.8093022398
 30
0.0
 10
4.3239057729
 20
4.8050326315
 30
0.0
 10
4.3278141734
 20
4.8012737068
 30
0.0
 10
4.3307980582
 20
4.7981248345
 30
0.0
 10
4.3329556053
 20
4.7956855281
 30
0.0
 10
4.3350164457
 20
4.7931592951
 30
0.0
 10
4.3376137166
 20
4.7896596454
 30
0.0
 10
4.3405190471
 20
4.7850053978
 30
0.0
 10
4.3422295486
 20
4.7809268552
 30
0.0
 10
4.3428302843
 20
4.7788068014
 30
0.0
  0
LINE
  5
2A2
100
AcDbEntity
  8
ALL_ASSEMBLY_MEMBERS
100
AcDbLine
 62
9
  6
CONTINUOUS
 10
4.6139833542
 20
4.7610051943
 11
4.6392709444
 21
4.0624466548
  0
SPLINE
  5
2A3
100
AcDbEntity
  8
ALL_ASSEMBLY_MEMBERS
100
AcDbSpline
 62
9
  6
CONTINUOUS
 70
0
 71
3
 72
27
 73
23
 74
0
 42
0.0000001
 43
0.0000001
 44
0.0000000001
 40
0.0
 40
0.0
 40
0.0
 40
0.0
 40
0.0017937713
 40
0.0034155888
 40
0.0055843148
 40
0.0083143146
 40
0.0116115393
 40
0.0199150182
 40
0.0304984246
 40
0.043354
 40
0.0584689579
 40
0.0758122609
 40
0.1170038584
 40
0.1665632033
 40
0.2241112618
 40
0.2891433416
 40
0.3610584176
 40
0.4392512171
 40
0.5230706416
 40
0.6118062759
 40
0.8010823848
 40
1.0
 40
1.0
 40
1.0
 40
1.0
 10
4.6414871352
 20
4.7611706858
 30
0.0
 10
4.6414865598
 20
4.7611871417
 30
0.0
 10
4.6414534549
 20
4.761208584
 30
0.0
 10
4.6414082522
 20
4.7612258968
 30
0.0
 10
4.6413495528
 20
4.7612424064
 30
0.0
 10
4.6412762847
 20
4.7612578224
 30
0.0
 10
4.6411463633
 20
4.7612797355
 30
0.0
 10
4.6409442201
 20
4.761304122
 30
0.0
 10
4.6406538952
 20
4.7613296937
 30
0.0
 10
4.6403007374
 20
4.761352818
 30
0.0
 10
4.639885273
 20
4.7613734366
 30
0.0
 10
4.6392096715
 20
4.761398865
 30
0.0
 10
4.6382176467
 20
4.7614220866
 30
0.0
 10
4.6368564119
 20
4.7614380934
 30
0.0
 10
4.6352762465
 20
4.7614429818
 30
0.0
 10
4.6334908769
 20
4.7614367255
 30
0.0
 10
4.6315160659
 20
4.7614193443
 30
0.0
 10
4.6293689103
 20
4.7613908725
 30
0.0
 10
4.6270674993
 20
4.7613515003
 30
0.0
 10
4.6237467575
 20
4.7612834695
 30
0.0
 10
4.6193701396
 20
4.7611733196
 30
0.0
 10
4.6158083367
 20
4.7610651338
 30
0.0
 10
4.6139833542
 20
4.7610051943
 30
0.0
  0
SPLINE
  5
2A4
100
AcDbEntity
  8
ALL_ASSEMBLY_MEMBERS
100
AcDbSpline
 62
9
  6
CONTINUOUS
 70
0
 71
3
 72
20
 73
16
 74
0
 42
0.0000001
 43
0.0000001
 44
0.0000000001
 40
0.0
 40
0.0
 40
0.0
 40
0.0
 40
0.0379136635
 40
0.0770946844
 40
0.1185225323
 40
0.1629908219
 40
0.2111020311
 40
0.2632348479
 40
0.3195904802
 40
0.380250204
 40
0.4451972559
 40
0.5142918513
 40
0.6640189604
 40
0.8271926122
 40
1.0
 40
1.0
 40
1.0
 40
1.0
 10
4.6404213201
 20
4.791544122
 30
0.0
 10
4.6404331224
 20
4.7912078976
 30
0.0
 10
4.6403882503
 20
4.7905200751
 30
0.0
 10
4.6401204903
 20
4.7894972939
 30
0.0
 10
4.6396567231
 20
4.7884834725
 30
0.0
 10
4.6390011974
 20
4.7874865628
 30
0.0
 10
4.6381580983
 20
4.7865137941
 30
0.0
 10
4.6371353741
 20
4.7855695012
 30
0.0
 10
4.6359401486
 20
4.7846584531
 30
0.0
 10
4.6345796574
 20
4.7837860142
 30
0.0
 10
4.6330618554
 20
4.7829579689
 30
0.0
 10
4.6307798968
 20
4.7818903588
 30
0.0
 10
4.6275939502
 20
4.7807141838
 30
0.0
 10
4.6234282821
 20
4.7795911756
 30
0.0
 10
4.6204953933
 20
4.7790379704
 30
0.0
 10
4.6189794678
 20
4.7788069512
 30
0.0
  0
SPLINE
  5
2A5
100
AcDbEntity
  8
ALL_ASSEMBLY_MEMBERS
100
AcDbSpline
 62
9
  6
CONTINUOUS
 70
0
 71
3
 72
16
 73
12
 74
0
 42
0.0000001
 43
0.0000001
 44
0.0000000001
 40
0.0
 40
0.0
 40
0.0
 40
0.0
 40
0.1245940096
 40
0.2491590131
 40
0.3737219184
 40
0.4983077164
 40
0.5606326591
 40
0.6230028857
 40
0.7479097386
 40
0.873361853
 40
1.0
 40
1.0
 40
1.0
 40
1.0
 10
4.6531763114
 20
4.8171575087
 30
0.0
 10
4.6514015043
 20
4.8159125539
 30
0.0
 10
4.64790113
 20
4.8133524579
 30
0.0
 10
4.6428113365
 20
4.8093023692
 30
0.0
 10
4.6379041306
 20
4.8050325803
 30
0.0
 10
4.6339956228
 20
4.801273745
 30
0.0
 10
4.6310116029
 20
4.7981247725
 30
0.0
 10
4.6281340776
 20
4.7948710661
 30
0.0
 10
4.6247722546
 20
4.7905817188
 30
0.0
 10
4.6212904637
 20
4.7850056843
 30
0.0
 10
4.6195802713
 20
4.7809268302
 30
0.0
 10
4.6189795723
 20
4.7788068082
 30
0.0
  0
SPLINE
  5
2A6
100
AcDbEntity
  8
ALL_ASSEMBLY_MEMBERS
100
AcDbSpline
 62
9
  6
CONTINUOUS
 70
0
 71
3
 72
27
 73
23
 74
0
 42
0.0000001
 43
0.0000001
 44
0.0000000001
 40
0.0
 40
0.0
 40
0.0
 40
0.0
 40
0.0950871363
 40
0.1898008488
 40
0.2830156402
 40
0.3736455461
 40
0.4608101518
 40
0.5437037459
 40
0.6215140833
 40
0.6935005914
 40
0.7589941828
 40
0.8173476403
 40
0.868014853
 40
0.9105627163
 40
0.9286621911
 40
0.9445775715
 40
0.9582965424
 40
0.9698815522
 40
0.9794597639
 40
0.9872824329
 40
0.9938439711
 40
1.0
 40
1.0
 40
1.0
 40
1.0
 10
4.3225389052
 20
4.062446668
 30
0.0
 10
4.3225633423
 20
4.0614487042
 30
0.0
 10
4.3225936373
 20
4.0594562578
 30
0.0
 10
4.3226188307
 20
4.0564851823
 30
0.0
 10
4.3226562398
 20
4.0535609288
 30
0.0
 10
4.3227440182
 20
4.0507169333
 30
0.0
 10
4.3228791505
 20
4.0479833273
 30
0.0
 10
4.3230487616
 20
4.0453865485
 30
0.0
 10
4.3232405867
 20
4.0429511428
 30
0.0
 10
4.323451124
 20
4.0407006567
 30
0.0
 10
4.3236834078
 20
4.0386577027
 30
0.0
 10
4.3239405943
 20
4.0368433843
 30
0.0
 10
4.3242206797
 20
4.0352766519
 30
0.0
 10
4.3244726392
 20
4.034135017
 30
0.0
 10
4.3246782032
 20
4.0333578521
 30
0.0
 10
4.3248213655
 20
4.0328775083
 30
0.0
 10
4.324961946
 20
4.0324680473
 30
0.0
 10
4.3251040117
 20
4.03213006
 30
0.0
 10
4.3252517874
 20
4.031863045
 30
0.0
 10
4.3254110732
 20
4.0316657722
 30
0.0
 10
4.3255918482
 20
4.0315403617
 30
0.0
 10
4.325727186
 20
4.0315136476
 30
0.0
 10
4.3257918144
 20
4.0315136476
 30
0.0
  0
SPLINE
  5
2A7
100
AcDbEntity
  8
ALL_ASSEMBLY_MEMBERS
100
AcDbSpline
 62
9
  6
CONTINUOUS
 70
0
 71
3
 72
27
 73
23
 74
0
 42
0.0000001
 43
0.0000001
 44
0.0000000001
 40
0.0
 40
0.0
 40
0.0
 40
0.0
 40
0.0950871628
 40
0.1898009032
 40
0.2830157234
 40
0.3736456579
 40
0.4608102912
 40
0.5437039111
 40
0.6215142723
 40
0.6935008013
 40
0.7589944097
 40
0.8173478791
 40
0.8680150968
 40
0.9105629563
 40
0.9286624252
 40
0.9445777966
 40
0.9582967543
 40
0.9698817453
 40
0.9794599296
 40
0.987282559
 40
0.9938440413
 40
1.0
 40
1.0
 40
1.0
 40
1.0
 10
4.6392709583
 20
4.062446668
 30
0.0
 10
4.6392465197
 20
4.0614487043
 30
0.0
 10
4.6392162217
 20
4.0594562579
 30
0.0
 10
4.6391910243
 20
4.0564851823
 30
0.0
 10
4.6391536119
 20
4.0535609288
 30
0.0
 10
4.6390658307
 20
4.0507169332
 30
0.0
 10
4.6389306961
 20
4.0479833273
 30
0.0
 10
4.6387610834
 20
4.0453865485
 30
0.0
 10
4.6385692574
 20
4.0429511428
 30
0.0
 10
4.6383587197
 20
4.0407006568
 30
0.0
 10
4.6381264362
 20
4.0386577028
 30
0.0
 10
4.6378692506
 20
4.0368433844
 30
0.0
 10
4.6375891668
 20
4.035276652
 30
0.0
 10
4.6373372091
 20
4.0341350171
 30
0.0
 10
4.6371316469
 20
4.0333578522
 30
0.0
 10
4.6369884861
 20
4.0328775083
 30
0.0
 10
4.6368479073
 20
4.0324680474
 30
0.0
 10
4.6367058433
 20
4.0321300602
 30
0.0
 10
4.6365580695
 20
4.0318630453
 30
0.0
 10
4.636398786
 20
4.0316657725
 30
0.0
 10
4.6362180132
 20
4.0315403618
 30
0.0
 10
4.6360826768
 20
4.0315136476
 30
0.0
 10
4.6360180491
 20
4.0315136476
 30
0.0
  0
SPLINE
  5
2A8
100
AcDbEntity
  8
ALL_ASSEMBLY_MEMBERS
100
AcDbSpline
 62
9
  6
CONTINUOUS
 70
0
 71
3
 72
11
 73
7
 74
0
 42
0.0000001
 43
0.0000001
 44
0.0000000001
 40
0.0
 40
0.0
 40
0.0
 40
0.0
 40
0.2503246684
 40
0.5005054202
 40
0.7504238736
 40
1.0
 40
1.0
 40
1.0
 40
1.0
 10
4.4809049318
 20
4.731872871
 30
0.0
 10
4.4694550142
 20
4.7318738174
 30
0.0
 10
4.4465428169
 20
4.7331136154
 30
0.0
 10
4.4126042911
 20
4.7386602974
 30
0.0
 10
4.3794917713
 20
4.7478133598
 30
0.0
 10
4.3582018345
 20
4.756243618
 30
0.0
 10
4.3478265964
 20
4.7610051475
 30
0.0
  0
SPLINE
  5
2A9
100
AcDbEntity
  8
ALL_ASSEMBLY_MEMBERS
100
AcDbSpline
 62
9
  6
CONTINUOUS
 70
0
 71
3
 72
27
 73
23
 74
0
 42
0.0000001
 43
0.0000001
 44
0.0000000001
 40
0.0
 40
0.0
 40
0.0
 40
0.0
 40
0.2001718931
 40
0.3899465408
 40
0.478718722
 40
0.5624670416
 40
0.6405063271
 40
0.712209492
 40
0.7769943446
 40
0.8342828849
 40
0.8835902924
 40
0.9245533643
 40
0.9417961497
 40
0.9568224522
 40
0.9696028492
 40
0.9801256609
 40
0.9883845106
 40
0.9916660683
 40
0.994385352
 40
0.9965489973
 40
0.9981725846
 40
1.0
 40
1.0
 40
1.0
 40
1.0
 10
4.6392709583
 20
4.062446668
 30
0.0
 10
4.6410558825
 20
4.0625038978
 30
0.0
 10
4.6445333035
 20
4.0626067021
 30
0.0
 10
4.6488029831
 20
4.062710203
 30
0.0
 10
4.6520346093
 20
4.0627729752
 30
0.0
 10
4.6542697095
 20
4.0628086003
 30
0.0
 10
4.6563526638
 20
4.0628335159
 30
0.0
 10
4.6582665341
 20
4.0628475685
 30
0.0
 10
4.6599953262
 20
4.0628507552
 30
0.0
 10
4.6615243049
 20
4.0628430873
 30
0.0
 10
4.6628406464
 20
4.0628246148
 30
0.0
 10
4.6637995479
 20
4.0627995163
 30
0.0
 10
4.6644523537
 20
4.0627727387
 30
0.0
 10
4.6648537064
 20
4.0627512546
 30
0.0
 10
4.6651948394
 20
4.0627273511
 30
0.0
 10
4.6654752579
 20
4.062701086
 30
0.0
 10
4.6656704985
 20
4.0626761593
 30
0.0
 10
4.6657959368
 20
4.0626538522
 30
0.0
 10
4.6658667455
 20
4.0626381785
 30
0.0
 10
4.6659233788
 20
4.0626214256
 30
0.0
 10
4.6659675014
 20
4.0626037769
 30
0.0
 10
4.6659990273
 20
4.0625819252
 30
0.0
 10
4.665999599
 20
4.0625656318
 30
0.0
  0
SPLINE
  5
2AA
100
AcDbEntity
  8
ALL_ASSEMBLY_MEMBERS
100
AcDbSpline
 62
9
  6
CONTINUOUS
 70
0
 71
3
 72
11
 73
7
 74
0
 42
0.0000001
 43
0.0000001
 44
0.0000000001
 40
0.0
 40
0.0
 40
0.0
 40
0.0
 40
0.2495759313
 40
0.499494293
 40
0.7496751909
 40
1.0
 40
1.0
 40
1.0
 40
1.0
 10
4.6139832759
 20
4.7610051592
 30
0.0
 10
4.6036080536
 20
4.7562436145
 30
0.0
 10
4.5823181229
 20
4.7478133729
 30
0.0
 10
4.549205614
 20
4.7386602727
 30
0.0
 10
4.5152670629
 20
4.7331136972
 30
0.0
 10
4.4923548567
 20
4.7318737971
 30
0.0
 10
4.4809049318
 20
4.7318728712
 30
0.0
  0
SPLINE
  5
2AB
100
AcDbEntity
  8
ALL_ASSEMBLY_MEMBERS
100
AcDbSpline
 62
9
  6
CONTINUOUS
 70
0
 71
3
 72
27
 73
23
 74
0
 42
0.0000001
 43
0.0000001
 44
0.0000000001
 40
0.0
 40
0.0
 40
0.0
 40
0.0
 40
0.0018274163
 40
0.0034510036
 40
0.005614649
 40
0.0083339326
 40
0.0116154903
 40
0.0198743398
 40
0.0303971514
 40
0.0431775484
 40
0.0582038508
 40
0.0754466361
 40
0.116409708
 40
0.1657171156
 40
0.2230056559
 40
0.2877905085
 40
0.3594936733
 40
0.4375329589
 40
0.5212812785
 40
0.6100534596
 40
0.7998281071
 40
1.0
 40
1.0
 40
1.0
 40
1.0
 10
4.2958102645
 20
4.0625656318
 30
0.0
 10
4.2958108362
 20
4.0625819252
 30
0.0
 10
4.2958423621
 20
4.062603777
 30
0.0
 10
4.2958864847
 20
4.0626214256
 30
0.0
 10
4.2959431181
 20
4.0626381785
 30
0.0
 10
4.2960139267
 20
4.0626538522
 30
0.0
 10
4.296139365
 20
4.0626761593
 30
0.0
 10
4.2963346056
 20
4.062701086
 30
0.0
 10
4.2966150241
 20
4.0627273511
 30
0.0
 10
4.2969561571
 20
4.0627512546
 30
0.0
 10
4.2973575098
 20
4.0627727386
 30
0.0
 10
4.2980103156
 20
4.0627995162
 30
0.0
 10
4.2989692172
 20
4.0628246147
 30
0.0
 10
4.3002855586
 20
4.0628430872
 30
0.0
 10
4.3018145373
 20
4.0628507551
 30
0.0
 10
4.3035433294
 20
4.0628475684
 30
0.0
 10
4.3054571997
 20
4.0628335158
 30
0.0
 10
4.307540154
 20
4.0628086002
 30
0.0
 10
4.3097752542
 20
4.0627729751
 30
0.0
 10
4.3130068805
 20
4.0627102029
 30
0.0
 10
4.3172765601
 20
4.0626067021
 30
0.0
 10
4.320753981
 20
4.0625038978
 30
0.0
 10
4.3225389052
 20
4.062446668
 30
0.0
  0
SPLINE
  5
2AC
100
AcDbEntity
  8
0
100
AcDbSpline
 62
9
  6
CONTINUOUS
 70
0
 71
3
 72
11
 73
7
 74
0
 42
0.0000001
 43
0.0000001
 44
0.0000000001
 40
0.0
 40
0.0
 40
0.0
 40
0.0
 40
0.2499892147
 40
0.4999823209
 40
0.7499848788
 40
1.0
 40
1.0
 40
1.0
 40
1.0
 10
4.6969737525
 20
2.4446612048
 30
0.0
 10
4.7426983373
 20
2.4121933951
 30
0.0
 10
4.8341260452
 20
2.3472260546
 30
0.0
 10
4.9713055517
 20
2.2498240223
 30
0.0
 10
5.1086017823
 20
2.1525764712
 30
0.0
 10
5.2002463508
 20
2.087901492
 30
0.0
 10
5.2461045628
 20
2.0556125998
 30
0.0
  0
SPLINE
  5
2AD
100
AcDbEntity
  8
ALL_FEATURES
100
AcDbSpline
 62
9
  6
CONTINUOUS
 70
0
 71
3
 72
20
 73
16
 74
0
 42
0.0000001
 43
0.0000001
 44
0.0000000001
 40
0.0
 40
0.0
 40
0.0
 40
0.0
 40
0.1836258299
 40
0.3601720934
 40
0.5235562422
 40
0.6690517553
 40
0.7337964989
 40
0.7925646397
 40
0.8449760776
 40
0.8906617293
 40
0.9292555494
 40
0.9604284305
 40
0.984027883
 40
0.992967556
 40
1.0
 40
1.0
 40
1.0
 40
1.0
 10
4.6969737525
 20
2.4446612048
 30
0.0
 10
4.6960078343
 20
2.4432830787
 30
0.0
 10
4.6941220746
 20
2.4405737537
 30
0.0
 10
4.6914073234
 20
2.4366171291
 30
0.0
 10
4.6889187097
 20
2.4329293119
 30
0.0
 10
4.6870291894
 20
2.4300734907
 30
0.0
 10
4.6856881005
 20
2.428004671
 30
0.0
 10
4.6848210586
 20
2.426645286
 30
0.0
 10
4.6840587836
 20
2.4254263146
 30
0.0
 10
4.6834067366
 20
2.4243565867
 30
0.0
 10
4.6828697709
 20
2.4234447405
 30
0.0
 10
4.682452431
 20
2.4226976874
 30
0.0
 10
4.6821846876
 20
2.4221783982
 30
0.0
 10
4.6820359398
 20
2.4218475692
 30
0.0
 10
4.6819827872
 20
2.4217110108
 30
0.0
 10
4.6819624553
 20
2.4216498497
 30
0.0
  0
LINE
  5
2AE
100
AcDbEntity
  8
ALL_FEATURES
100
AcDbLine
 62
9
  6
CONTINUOUS
 10
4.6819624553
 20
2.4216498497
 11
4.6819429354
 21
2.421376532
  0
SPLINE
  5
2AF
100
AcDbEntity
  8
0
100
AcDbSpline
 62
9
  6
CONTINUOUS
 70
0
 71
3
 72
25
 73
21
 74
0
 42
0.0000001
 43
0.0000001
 44
0.0000000001
 40
0.0
 40
0.0
 40
0.0
 40
0.0
 40
0.0021046595
 40
0.0038049375
 40
0.0060221734
 40
0.0087794718
 40
0.0120876423
 40
0.0203742756
 40
0.0436607572
 40
0.0758489501
 40
0.1166860475
 40
0.1658364755
 40
0.2229493706
 40
0.2875537101
 40
0.3590866549
 40
0.4369808576
 40
0.5206245109
 40
0.609348417
 40
0.7992600975
 40
1.0
 40
1.0
 40
1.0
 40
1.0
 10
5.2318027951
 20
2.0335731344
 30
0.0
 10
5.2317877025
 20
2.0335837789
 30
0.0
 10
5.2317802998
 20
2.0336227812
 30
0.0
 10
5.2317859279
 20
2.0336736785
 30
0.0
 10
5.2317986062
 20
2.0337315591
 30
0.0
 10
5.2318200417
 20
2.033800839
 30
0.0
 10
5.2318634184
 20
2.0339192186
 30
0.0
 10
5.2319860616
 20
2.0341997964
 30
0.0
 10
5.2322434731
 20
2.0346970547
 30
0.0
 10
5.2326589738
 20
2.0354330169
 30
0.0
 10
5.2332077332
 20
2.0363541581
 30
0.0
 10
5.2338851736
 20
2.0374529569
 30
0.0
 10
5.2346864265
 20
2.0387203343
 30
0.0
 10
5.2356048978
 20
2.040145883
 30
0.0
 10
5.2366329691
 20
2.0417176939
 30
0.0
 10
5.2377623472
 20
2.0434228351
 30
0.0
 10
5.238984094
 20
2.0452477043
 30
0.0
 10
5.2407641501
 20
2.047881679
 30
0.0
 10
5.2431404204
 20
2.0513528537
 30
0.0
 10
5.2450954933
 20
2.0541687383
 30
0.0
 10
5.2461045627
 20
2.0556125996
 30
0.0
  0
SPLINE
  5
2B0
100
AcDbEntity
  8
ALL_FEATURES
100
AcDbSpline
 62
9
  6
CONTINUOUS
 70
0
 71
3
 72
19
 73
15
 74
0
 42
0.0000001
 43
0.0000001
 44
0.0000000001
 40
0.0
 40
0.0
 40
0.0
 40
0.0
 40
0.1234890874
 40
0.2470123959
 40
0.3706666498
 40
0.4946058477
 40
0.5567615554
 40
0.6190945294
 40
0.6816612025
 40
0.7445308458
 40
0.8077826319
 40
0.8714858565
 40
0.9356381169
 40
1.0
 40
1.0
 40
1.0
 40
1.0
 10
4.3546563169
 20
2.4281222779
 30
0.0
 10
4.3512985042
 20
2.4296798137
 30
0.0
 10
4.3445352998
 20
2.4326958575
 30
0.0
 10
4.3342526216
 20
2.4369087808
 30
0.0
 10
4.3238161668
 20
2.4407656465
 30
0.0
 10
4.3149722654
 20
2.4436061622
 30
0.0
 10
4.3077888518
 20
2.4455719637
 30
0.0
 10
4.3023315351
 20
2.446863866
 30
0.0
 10
4.2968035586
 20
2.4479315798
 30
0.0
 10
4.2912001563
 20
2.4487209192
 30
0.0
 10
4.2855226724
 20
2.4491590818
 30
0.0
 10
4.2797867393
 20
2.4491479197
 30
0.0
 10
4.2740441596
 20
2.4485615411
 30
0.0
 10
4.2702768396
 20
2.4476863997
 30
0.0
 10
4.2684373095
 20
2.4471051275
 30
0.0
  0
LINE
  5
2B1
100
AcDbEntity
  8
ALL_FEATURES
100
AcDbLine
 62
9
  6
CONTINUOUS
 10
4.2824445237
 20
2.4231155847
 11
4.282196176
 21
2.4240623259
  0
SPLINE
  5
2B2
100
AcDbEntity
  8
ALL_FEATURES
100
AcDbSpline
 62
9
  6
CONTINUOUS
 70
0
 71
3
 72
15
 73
11
 74
0
 42
0.0000001
 43
0.0000001
 44
0.0000000001
 40
0.0
 40
0.0
 40
0.0
 40
0.0
 40
0.0249593138
 40
0.0563070514
 40
0.1374143871
 40
0.2412180209
 40
0.3653565962
 40
0.5068874182
 40
0.6625901486
 40
1.0
 40
1.0
 40
1.0
 40
1.0
 10
4.282196176
 20
2.4240623259
 30
0.0
 10
4.2821066711
 20
2.4242669957
 30
0.0
 10
4.2818922581
 20
2.4247232301
 30
0.0
 10
4.2813370313
 20
2.4258207009
 30
0.0
 10
4.2804104756
 20
2.427520436
 30
0.0
 10
4.2790384261
 20
2.4299221865
 30
0.0
 10
4.2773568448
 20
2.432769595
 30
0.0
 10
4.2754053053
 20
2.4359967132
 30
0.0
 10
4.2724240264
 20
2.4408315208
 30
0.0
 10
4.2700660807
 20
2.4445623731
 30
0.0
 10
4.2684372451
 20
2.4471052307
 30
0.0
  0
LINE
  5
2B3
100
AcDbEntity
  8
ALL_FEATURES
100
AcDbLine
 62
9
  6
CONTINUOUS
 10
4.2798669282
 20
2.421376532
 11
4.2795618403
 21
2.4222965852
  0
SPLINE
  5
2B4
100
AcDbEntity
  8
ALL_FEATURES
100
AcDbSpline
 62
9
  6
CONTINUOUS
 70
0
 71
3
 72
15
 73
11
 74
0
 42
0.0000001
 43
0.0000001
 44
0.0000000001
 40
0.0
 40
0.0
 40
0.0
 40
0.0
 40
0.0249164654
 40
0.0562280898
 40
0.1372765353
 40
0.2410363837
 40
0.3651488419
 40
0.5066769708
 40
0.6624076567
 40
1.0
 40
1.0
 40
1.0
 40
1.0
 10
4.2795618403
 20
2.4222965852
 30
0.0
 10
4.279461976
 20
2.4224953952
 30
0.0
 10
4.2792253412
 20
2.422938355
 30
0.0
 10
4.2786188577
 20
2.4240036314
 30
0.0
 10
4.2776165995
 20
2.4256530745
 30
0.0
 10
4.2761409317
 20
2.4279836
 30
0.0
 10
4.2743392953
 20
2.430746624
 30
0.0
 10
4.2722538941
 20
2.4338783361
 30
0.0
 10
4.2690742723
 20
2.4385713348
 30
0.0
 10
4.2665662357
 20
2.4421927452
 30
0.0
 10
4.2648361109
 20
2.4446612048
 30
0.0
  0
SPLINE
  5
2B5
100
AcDbEntity
  8
0
100
AcDbSpline
 62
9
  6
CONTINUOUS
 70
0
 71
3
 72
11
 73
7
 74
0
 42
0.0000001
 43
0.0000001
 44
0.0000000001
 40
0.0
 40
0.0
 40
0.0
 40
0.0
 40
0.2499892146
 40
0.4999823204
 40
0.7499848786
 40
1.0
 40
1.0
 40
1.0
 40
1.0
 10
4.2648361109
 20
2.4446612048
 30
0.0
 10
4.2191115263
 20
2.4121933949
 30
0.0
 10
4.1276838181
 20
2.3472260551
 30
0.0
 10
3.9905043121
 20
2.2498240223
 30
0.0
 10
3.8532080816
 20
2.1525764712
 30
0.0
 10
3.7615635129
 20
2.0879014921
 30
0.0
 10
3.7157053009
 20
2.0556125999
 30
0.0
  0
SPLINE
  5
2B6
100
AcDbEntity
  8
0
100
AcDbSpline
 62
9
  6
CONTINUOUS
 70
0
 71
3
 72
25
 73
21
 74
0
 42
0.0000001
 43
0.0000001
 44
0.0000000001
 40
0.0
 40
0.0
 40
0.0
 40
0.0
 40
0.2007399015
 40
0.3906515811
 40
0.4793754869
 40
0.5630191399
 40
0.6409133424
 40
0.7124462871
 40
0.7770506266
 40
0.8341635217
 40
0.8833139499
 40
0.9241510475
 40
0.9563392408
 40
0.9796257228
 40
0.9879123565
 40
0.9912205272
 40
0.9939778258
 40
0.9961950618
 40
0.99789534
 40
1.0
 40
1.0
 40
1.0
 40
1.0
 10
3.715705301
 20
2.0556125997
 30
0.0
 10
3.7167143704
 20
2.0541687385
 30
0.0
 10
3.7186694432
 20
2.0513528539
 30
0.0
 10
3.7210457136
 20
2.0478816792
 30
0.0
 10
3.7228257697
 20
2.0452477045
 30
0.0
 10
3.7240475164
 20
2.0434228353
 30
0.0
 10
3.7251768945
 20
2.0417176941
 30
0.0
 10
3.7262049659
 20
2.0401458832
 30
0.0
 10
3.7271234372
 20
2.0387203345
 30
0.0
 10
3.72792469
 20
2.037452957
 30
0.0
 10
3.7286021304
 20
2.0363541583
 30
0.0
 10
3.7291508898
 20
2.035433017
 30
0.0
 10
3.7295663905
 20
2.0346970548
 30
0.0
 10
3.729823802
 20
2.0341997965
 30
0.0
 10
3.7299464451
 20
2.0339192187
 30
0.0
 10
3.7299898219
 20
2.033800839
 30
0.0
 10
3.7300112574
 20
2.0337315591
 30
0.0
 10
3.7300239356
 20
2.0336736785
 30
0.0
 10
3.7300295637
 20
2.0336227812
 30
0.0
 10
3.730022161
 20
2.0335837789
 30
0.0
 10
3.7300070684
 20
2.0335731344
 30
0.0
  0
SPLINE
  5
2B7
100
AcDbEntity
  8
ALL_FEATURES
100
AcDbSpline
 62
9
  6
CONTINUOUS
 70
0
 71
3
 72
17
 73
13
 74
0
 42
0.0000001
 43
0.0000001
 44
0.0000000001
 40
0.0
 40
0.0
 40
0.0
 40
0.0
 40
0.1230286201
 40
0.2463040112
 40
0.3699467002
 40
0.4941172751
 40
0.6190298887
 40
0.7449367572
 40
0.8083578629
 40
0.8720761737
 40
0.9360181606
 40
1.0
 40
1.0
 40
1.0
 40
1.0
 10
4.1779268532
 20
2.6959677239
 30
0.0
 10
4.1774884195
 20
2.6936046814
 30
0.0
 10
4.1765464452
 20
2.6888854132
 30
0.0
 10
4.1749044912
 20
2.6818459847
 30
0.0
 10
4.1729814152
 20
2.6748541327
 30
0.0
 10
4.1707062316
 20
2.6679334774
 30
0.0
 10
4.1679811681
 20
2.6611275987
 30
0.0
 10
4.1652282117
 20
2.6556284827
 30
0.0
 10
4.1626506694
 20
2.65140711
 30
0.0
 10
4.1604981079
 20
2.6483535341
 30
0.0
 10
4.158111225
 20
2.6454642663
 30
0.0
 10
4.1563514909
 20
2.6436835534
 30
0.0
 10
4.15542941
 20
2.6428397587
 30
0.0
  0
SPLINE
  5
2B8
100
AcDbEntity
  8
ALL_FEATURES
100
AcDbSpline
 62
9
  6
CONTINUOUS
 70
0
 71
3
 72
27
 73
23
 74
0
 42
0.0000001
 43
0.0000001
 44
0.0000000001
 40
0.0
 40
0.0
 40
0.0
 40
0.0
 40
0.1978743118
 40
0.3867983515
 40
0.4754348711
 40
0.559144717
 40
0.6372601723
 40
0.7091140976
 40
0.7740715023
 40
0.831623568
 40
0.8812950659
 40
0.9226155121
 40
0.9400068489
 40
0.9551793975
 40
0.9681195528
 40
0.9788178803
 40
0.9872736517
 40
0.9906665798
 40
0.9935106144
 40
0.9958196567
 40
0.9976224876
 40
1.0
 40
1.0
 40
1.0
 40
1.0
 10
4.1554293167
 20
2.6428399455
 30
0.0
 10
4.1545850575
 20
2.6444716202
 30
0.0
 10
4.1529224267
 20
2.6476548161
 30
0.0
 10
4.1508477881
 20
2.6515511142
 30
0.0
 10
4.1492499867
 20
2.6545003101
 30
0.0
 10
4.1481315856
 20
2.656539114
 30
0.0
 10
4.1470770103
 20
2.6584351685
 30
0.0
 10
4.1460952324
 20
2.6601724411
 30
0.0
 10
4.1451944938
 20
2.6617361483
 30
0.0
 10
4.1443826061
 20
2.6631132836
 30
0.0
 10
4.1436666465
 20
2.6642920809
 30
0.0
 10
4.1431290184
 20
2.6651428231
 30
0.0
 10
4.1427498753
 20
2.665714534
 30
0.0
 10
4.1425099756
 20
2.6660623282
 30
0.0
 10
4.1422983467
 20
2.6663540378
 30
0.0
 10
4.1421153299
 20
2.6665892675
 30
0.0
 10
4.1419788782
 20
2.6667482169
 30
0.0
 10
4.1418830803
 20
2.6668455078
 30
0.0
 10
4.1418242764
 20
2.6668986443
 30
0.0
 10
4.1417720821
 20
2.6669376468
 30
0.0
 10
4.1417210067
 20
2.6669671943
 30
0.0
 10
4.1416769449
 20
2.6669759285
 30
0.0
 10
4.141657309
 20
2.6669658445
 30
0.0
  0
SPLINE
  5
2B9
100
AcDbEntity
  8
0
100
AcDbSpline
 62
9
  6
CONTINUOUS
 70
0
 71
3
 72
11
 73
7
 74
0
 42
0.0000001
 43
0.0000001
 44
0.0000000001
 40
0.0
 40
0.0
 40
0.0
 40
0.0
 40
0.2499892147
 40
0.4999823209
 40
0.7499848788
 40
1.0
 40
1.0
 40
1.0
 40
1.0
 10
4.1515123126
 20
2.6409437813
 30
0.0
 10
4.1005320722
 20
2.6175790341
 30
0.0
 10
3.9985548509
 20
2.5708839868
 30
0.0
 10
3.8456124633
 20
2.5007840654
 30
0.0
 10
3.6927454983
 20
2.4305058175
 30
0.0
 10
3.5909130391
 20
2.3834767826
 30
0.0
 10
3.5400209322
 20
2.3599068521
 30
0.0
  0
SPLINE
  5
2BA
100
AcDbEntity
  8
ALL_FEATURES
100
AcDbSpline
 62
9
  6
CONTINUOUS
 70
0
 71
3
 72
20
 73
16
 74
0
 42
0.0000001
 43
0.0000001
 44
0.0000000001
 40
0.0
 40
0.0
 40
0.0
 40
0.0
 40
0.1836258299
 40
0.3601720934
 40
0.5235562422
 40
0.6690517553
 40
0.7337964989
 40
0.7925646397
 40
0.8449760776
 40
0.8906617293
 40
0.9292555494
 40
0.9604284305
 40
0.984027883
 40
0.992967556
 40
1.0
 40
1.0
 40
1.0
 40
1.0
 10
4.1515123126
 20
2.6409437813
 30
0.0
 10
4.1508017795
 20
2.6424693541
 30
0.0
 10
4.1493983151
 20
2.6454571324
 30
0.0
 10
4.1473291533
 20
2.6497864882
 30
0.0
 10
4.1453797167
 20
2.6537855995
 30
0.0
 10
4.1438512632
 20
2.6568498826
 30
0.0
 10
4.1427301572
 20
2.6590457096
 30
0.0
 10
4.1419864162
 20
2.6604762824
 30
0.0
 10
4.1413118935
 20
2.6617459177
 30
0.0
 10
4.1407115054
 20
2.6628454708
 30
0.0
 10
4.1401903063
 20
2.6637664198
 30
0.0
 10
4.1397520093
 20
2.6645013733
 30
0.0
 10
4.1394361634
 20
2.6649928906
 30
0.0
 10
4.139224031
 20
2.6652871244
 30
0.0
 10
4.1391323443
 20
2.6654014351
 30
0.0
 10
4.1390895431
 20
2.6654496236
 30
0.0
  0
LINE
  5
2BB
100
AcDbEntity
  8
ALL_FEATURES
100
AcDbLine
 62
9
  6
CONTINUOUS
 10
4.1390895431
 20
2.6654496236
 11
4.1388626031
 21
2.6656031872
  0
SPLINE
  5
2BC
100
AcDbEntity
  8
0
100
AcDbSpline
 62
9
  6
CONTINUOUS
 70
0
 71
3
 72
25
 73
21
 74
0
 42
0.0000001
 43
0.0000001
 44
0.0000000001
 40
0.0
 40
0.0
 40
0.0
 40
0.0
 40
0.0021046595
 40
0.0038049375
 40
0.0060221734
 40
0.0087794718
 40
0.0120876423
 40
0.0203742756
 40
0.0436607572
 40
0.0758489501
 40
0.1166860475
 40
0.1658364755
 40
0.2229493706
 40
0.2875537101
 40
0.3590866549
 40
0.4369808576
 40
0.5206245109
 40
0.609348417
 40
0.7992600975
 40
1.0
 40
1.0
 40
1.0
 40
1.0
 10
3.5280850791
 20
2.383312279
 30
0.0
 10
3.5281018438
 20
2.3833200273
 30
0.0
 10
3.5281393222
 20
2.3833069371
 30
0.0
 10
3.5281805865
 20
2.3832766144
 30
0.0
 10
3.5282243734
 20
2.3832366943
 30
0.0
 10
3.5282736538
 20
2.3831834907
 30
0.0
 10
3.5283544852
 20
2.3830867355
 30
0.0
 10
3.5285361512
 20
2.3828402345
 30
0.0
 10
3.5288380837
 20
2.3823686805
 30
0.0
 10
3.5292676953
 20
2.3816408652
 30
0.0
 10
3.5297910473
 20
2.380705055
 30
0.0
 10
3.5304039147
 20
2.379568975
 30
0.0
 10
3.5311008694
 20
2.378241381
 30
0.0
 10
3.5318761951
 20
2.3767331872
 30
0.0
 10
3.5327233876
 20
2.3750569458
 30
0.0
 10
3.5336353942
 20
2.3732263051
 30
0.0
 10
3.5346049039
 20
2.3712558067
 30
0.0
 10
3.5359959648
 20
2.3683972456
 30
0.0
 10
3.5378139551
 20
2.3646037477
 30
0.0
 10
3.5392750463
 20
2.3615026627
 30
0.0
 10
3.5400209321
 20
2.3599068524
 30
0.0
  0
SPLINE
  5
2BD
100
AcDbEntity
  8
ALL_FEATURES
100
AcDbSpline
 62
9
  6
CONTINUOUS
 70
0
 71
3
 72
17
 73
13
 74
0
 42
0.0000001
 43
0.0000001
 44
0.0000000001
 40
0.0
 40
0.0
 40
0.0
 40
0.0
 40
0.1247732146
 40
0.1872675123
 40
0.2497897056
 40
0.3748605248
 40
0.5000000645
 40
0.6251395414
 40
0.7502102636
 40
0.8127324648
 40
0.8752267995
 40
1.0
 40
1.0
 40
1.0
 40
1.0
 10
4.5939126258
 20
3.0108454292
 30
0.0
 10
4.5849335376
 20
3.0142678931
 30
0.0
 10
4.5712142404
 20
3.0187983333
 30
0.0
 10
4.552575903
 20
3.0235800104
 30
0.0
 10
4.5337155049
 20
3.0275129389
 30
0.0
 10
4.5098213984
 20
3.0308128425
 30
0.0
 10
4.4809048707
 20
3.0321347965
 30
0.0
 10
4.4519883518
 20
3.0308127658
 30
0.0
 10
4.4280942726
 20
3.0275127703
 30
0.0
 10
4.4092338716
 20
3.0235798817
 30
0.0
 10
4.390595502
 20
3.0187983285
 30
0.0
 10
4.3768761802
 20
3.0142679255
 30
0.0
 10
4.3678971349
 20
3.0108453522
 30
0.0
  0
SPLINE
  5
2BE
100
AcDbEntity
  8
0
100
AcDbSpline
 62
9
  6
CONTINUOUS
 70
0
 71
3
 72
12
 73
8
 74
0
 42
0.0000001
 43
0.0000001
 44
0.0000000001
 40
0.0
 40
0.0
 40
0.0
 40
0.0
 40
0.2494619575
 40
0.4999368212
 40
0.7504410563
 40
0.8754354063
 40
1.0
 40
1.0
 40
1.0
 40
1.0
 10
4.3052205596
 20
3.6852715045
 30
0.0
 10
4.3341437933
 20
3.6902859605
 30
0.0
 10
4.3925675335
 20
3.6978695804
 30
0.0
 10
4.4808927434
 20
3.7016827003
 30
0.0
 10
4.5545851366
 20
3.6985026121
 30
0.0
 10
4.6131011231
 20
3.6921749246
 30
0.0
 10
4.6421469787
 20
3.6877753897
 30
0.0
 10
4.656589304
 20
3.6852715037
 30
0.0
  0
SPLINE
  5
2BF
100
AcDbEntity
  8
0
100
AcDbSpline
 62
9
  6
CONTINUOUS
 70
0
 71
3
 72
25
 73
21
 74
0
 42
0.0000001
 43
0.0000001
 44
0.0000000001
 40
0.0
 40
0.0
 40
0.0
 40
0.0
 40
0.1892542767
 40
0.3723761156
 40
0.4591604082
 40
0.5416762339
 40
0.6191401332
 40
0.6908371017
 40
0.7561052855
 40
0.814298796
 40
0.8648990821
 40
0.9075556957
 40
0.9258201935
 40
0.9420094517
 40
0.9561319328
 40
0.9682372353
 40
0.9784186667
 40
0.986849086
 40
0.9938513367
 40
1.0
 40
1.0
 40
1.0
 40
1.0
 10
3.715705301
 20
2.0556125997
 30
0.0
 10
3.7141883798
 20
2.0543368099
 30
0.0
 10
3.7111718139
 20
2.051864237
 30
0.0
 10
3.7073758875
 20
2.0489108934
 30
0.0
 10
3.7044132278
 20
2.0467093261
 30
0.0
 10
3.7023146774
 20
2.0452007343
 30
0.0
 10
3.7003195108
 20
2.0438196563
 30
0.0
 10
3.698447192
 20
2.0425792359
 30
0.0
 10
3.6967166327
 20
2.0414912457
 30
0.0
 10
3.695145153
 20
2.0405665633
 30
0.0
 10
3.6937482081
 20
2.0398144227
 30
0.0
 10
3.6926925606
 20
2.039312549
 30
0.0
 10
3.6919439011
 20
2.0390090845
 30
0.0
 10
3.6914635413
 20
2.0388407698
 30
0.0
 10
3.6910356865
 20
2.0387198915
 30
0.0
 10
3.6906609742
 20
2.0386462824
 30
0.0
 10
3.6903394456
 20
2.038619716
 30
0.0
 10
3.6900703836
 20
2.0386406462
 30
0.0
 10
3.6898525133
 20
2.0387112413
 30
0.0
 10
3.6897409021
 20
2.0387985731
 30
0.0
 10
3.6896996003
 20
2.0388479796
 30
0.0
  0
SPLINE
  5
2C0
100
AcDbEntity
  8
0
100
AcDbSpline
 62
9
  6
CONTINUOUS
 70
0
 71
3
 72
25
 73
21
 74
0
 42
0.0000001
 43
0.0000001
 44
0.0000000001
 40
0.0
 40
0.0
 40
0.0
 40
0.0
 40
0.1892543099
 40
0.37237618
 40
0.4591604874
 40
0.5416763282
 40
0.6191402436
 40
0.690837229
 40
0.7561054309
 40
0.8142989619
 40
0.8648992686
 40
0.9075558952
 40
0.9258203918
 40
0.9420096397
 40
0.9561320993
 40
0.9682373697
 40
0.9784187608
 40
0.9868491365
 40
0.9938513503
 40
1.0
 40
1.0
 40
1.0
 40
1.0
 10
3.5400209321
 20
2.3599068524
 30
0.0
 10
3.5381576052
 20
2.3592310546
 30
0.0
 10
3.5345080111
 20
2.3578549189
 30
0.0
 10
3.5300523774
 20
2.3560442218
 30
0.0
 10
3.526664435
 20
2.3545792653
 30
0.0
 10
3.5243086815
 20
2.3535161619
 30
0.0
 10
3.5221150501
 20
2.3524788348
 30
0.0
 10
3.5201046553
 20
2.3514775685
 30
0.0
 10
3.5182971487
 20
2.3505228542
 30
0.0
 10
3.5167106111
 20
2.3496242524
 30
0.0
 10
3.5153607667
 20
2.3487905308
 30
0.0
 10
3.5143983081
 20
2.3481272491
 30
0.0
 10
3.5137611703
 20
2.3476306236
 30
0.0
 10
3.5133752254
 20
2.3472987781
 30
0.0
 10
3.5130566137
 20
2.3469886858
 30
0.0
 10
3.5128055094
 20
2.3467009821
 30
0.0
 10
3.5126217371
 20
2.3464358155
 30
0.0
 10
3.5125053314
 20
2.3461923377
 30
0.0
 10
3.5124575328
 20
2.34596836
 30
0.0
 10
3.5124773587
 20
2.3458280365
 30
0.0
 10
3.512499495
 20
2.345767565
 30
0.0
  0
SPLINE
  5
2C1
100
AcDbEntity
  8
ALL_FEATURES
100
AcDbSpline
 62
9
  6
CONTINUOUS
 70
0
 71
3
 72
16
 73
12
 74
0
 42
0.0000001
 43
0.0000001
 44
0.0000000001
 40
0.0
 40
0.0
 40
0.0
 40
0.0
 40
0.1247778044
 40
0.1872744098
 40
0.2497987157
 40
0.3748732077
 40
0.5000161719
 40
0.6251588504
 40
0.7502333045
 40
0.8752223097
 40
1.0
 40
1.0
 40
1.0
 40
1.0
 10
4.1554293517
 20
2.6428397046
 30
0.0
 10
4.1569549676
 20
2.6333523296
 30
0.0
 10
4.1598909831
 20
2.6192057821
 30
0.0
 10
4.1650689687
 20
2.6006735888
 30
0.0
 10
4.1710932424
 20
2.5823736042
 30
0.0
 10
4.1801830267
 20
2.5600310416
 30
0.0
 10
4.1934961776
 20
2.5343279238
 30
0.0
 10
4.209099816
 20
2.5099461619
 30
0.0
 10
4.2268595849
 20
2.4871017553
 30
0.0
 10
4.2466044819
 20
2.4659919861
 30
0.0
 10
4.2609836956
 20
2.4531698423
 30
0.0
 10
4.2684373547
 20
2.4471051425
 30
0.0
  0
SPLINE
  5
2C2
100
AcDbEntity
  8
0
100
AcDbSpline
 62
9
  6
CONTINUOUS
 70
0
 71
3
 72
25
 73
21
 74
0
 42
0.0000001
 43
0.0000001
 44
0.0000000001
 40
0.0
 40
0.0
 40
0.0
 40
0.0
 40
0.006148663
 40
0.0131509121
 40
0.0215813293
 40
0.0317627588
 40
0.0438680598
 40
0.05799054
 40
0.0741797979
 40
0.0924442958
 40
0.1351009106
 40
0.1857011978
 40
0.243894709
 40
0.3091628931
 40
0.3808598619
 40
0.458323762
 40
0.5408395886
 40
0.6276238822
 40
0.8107457221
 40
1.0
 40
1.0
 40
1.0
 40
1.0
 10
4.658105037
 20
3.7161753983
 30
0.0
 10
4.6581684752
 20
3.7161643331
 30
0.0
 10
4.6582999123
 20
3.7161113409
 30
0.0
 10
4.6584699846
 20
3.7159579573
 30
0.0
 10
4.6586226416
 20
3.7157354078
 30
0.0
 10
4.6587603986
 20
3.7154436728
 30
0.0
 10
4.6588840073
 20
3.7150823579
 30
0.0
 10
4.658993251
 20
3.7146513856
 30
0.0
 10
4.659087666
 20
3.7141512245
 30
0.0
 10
4.6591991878
 20
3.713351134
 30
0.0
 10
4.6592923762
 20
3.7121859796
 30
0.0
 10
4.659339476
 20
3.7106001196
 30
0.0
 10
4.6593244174
 20
3.7087768371
 30
0.0
 10
4.65924747
 20
3.7067341336
 30
0.0
 10
4.6591093939
 20
3.7044924477
 30
0.0
 10
4.6589109287
 20
3.7020740438
 30
0.0
 10
4.6586537252
 20
3.6995023499
 30
0.0
 10
4.6582284419
 20
3.6958358278
 30
0.0
 10
4.6575687344
 20
3.6910717873
 30
0.0
 10
4.6569357063
 20
3.6872230782
 30
0.0
 10
4.6565893005
 20
3.685271491
 30
0.0
  0
SPLINE
  5
2C3
100
AcDbEntity
  8
0
100
AcDbSpline
 62
9
  6
CONTINUOUS
 70
0
 71
3
 72
25
 73
21
 74
0
 42
0.0000001
 43
0.0000001
 44
0.0000000001
 40
0.0
 40
0.0
 40
0.0
 40
0.0
 40
0.0061486517
 40
0.0131508678
 40
0.0215812458
 40
0.0317626387
 40
0.0438679103
 40
0.0579903704
 40
0.0741796183
 40
0.0924441144
 40
0.1351007387
 40
0.1857010424
 40
0.2438945701
 40
0.3091627689
 40
0.3808597515
 40
0.4583236647
 40
0.5408395038
 40
0.6276238102
 40
0.8107456812
 40
1.0
 40
1.0
 40
1.0
 40
1.0
 10
4.3037048265
 20
3.7161753983
 30
0.0
 10
4.3036413885
 20
3.7161643332
 30
0.0
 10
4.3035099518
 20
3.7161113412
 30
0.0
 10
4.3033398807
 20
3.7159579576
 30
0.0
 10
4.3031872255
 20
3.7157354084
 30
0.0
 10
4.3030494705
 20
3.7154436737
 30
0.0
 10
4.3029258638
 20
3.7150823593
 30
0.0
 10
4.3028166217
 20
3.7146513874
 30
0.0
 10
4.3027222076
 20
3.7141512267
 30
0.0
 10
4.302610686
 20
3.7133511366
 30
0.0
 10
4.3025174965
 20
3.7121859824
 30
0.0
 10
4.3024703946
 20
3.7106001226
 30
0.0
 10
4.3024854514
 20
3.7087768403
 30
0.0
 10
4.3025623978
 20
3.706734137
 30
0.0
 10
4.3027004729
 20
3.7044924515
 30
0.0
 10
4.3028989369
 20
3.702074048
 30
0.0
 10
4.3031561387
 20
3.6995023545
 30
0.0
 10
4.3035814201
 20
3.6958358329
 30
0.0
 10
4.304241128
 20
3.6910717933
 30
0.0
 10
4.3048741573
 20
3.6872230851
 30
0.0
 10
4.3052205624
 20
3.6852714981
 30
0.0
  0
SPLINE
  5
2C4
100
AcDbEntity
  8
ALL_FEATURES
100
AcDbSpline
 62
9
  6
CONTINUOUS
 70
0
 71
3
 72
19
 73
15
 74
0
 42
0.0000001
 43
0.0000001
 44
0.0000000001
 40
0.0
 40
0.0
 40
0.0
 40
0.0
 40
0.1234893424
 40
0.2470126208
 40
0.3706664164
 40
0.4946051711
 40
0.5567610723
 40
0.6190943827
 40
0.6816614809
 40
0.7445315906
 40
0.8077837437
 40
0.8714869597
 40
0.9356387655
 40
1.0
 40
1.0
 40
1.0
 40
1.0
 10
4.6534616312
 20
2.945669111
 30
0.0
 10
4.6504338675
 20
2.9477983028
 30
0.0
 10
4.6444403248
 20
2.9521474087
 30
0.0
 10
4.6356504977
 20
2.9589459586
 30
0.0
 10
4.6270920471
 20
2.9660555819
 30
0.0
 10
4.6202103341
 20
2.9722945221
 30
0.0
 10
4.6149162961
 20
2.9775327189
 30
0.0
 10
4.6110688544
 20
2.9816129966
 30
0.0
 10
4.6073802087
 20
2.9858665451
 30
0.0
 10
4.6038948929
 20
2.990324572
 30
0.0
 10
4.6006766354
 20
2.9950223072
 30
0.0
 10
4.597818247
 20
2.9999952858
 30
0.0
 10
4.5954547479
 20
3.0052616145
 30
0.0
 10
4.5943288245
 20
3.0089617096
 30
0.0
 10
4.5939126242
 20
3.0108454378
 30
0.0
  0
SPLINE
  5
2C5
100
AcDbEntity
  8
ALL_FEATURES
100
AcDbSpline
 62
9
  6
CONTINUOUS
 70
0
 71
3
 72
27
 73
23
 74
0
 42
0.0000001
 43
0.0000001
 44
0.0000000001
 40
0.0
 40
0.0
 40
0.0
 40
0.0
 40
0.1978745237
 40
0.3867985483
 40
0.4754350065
 40
0.5591447693
 40
0.6372601299
 40
0.7091139586
 40
0.7740712743
 40
0.8316232664
 40
0.8812947136
 40
0.9226151398
 40
0.9400064805
 40
0.9551790434
 40
0.9681192237
 40
0.9788175879
 40
0.9872734088
 40
0.9906663671
 40
0.9935104359
 40
0.995819517
 40
0.9976223917
 40
1.0
 40
1.0
 40
1.0
 40
1.0
 10
4.5939126003
 20
3.0108454391
 30
0.0
 10
4.5957477876
 20
3.0107607599
 30
0.0
 10
4.5993358019
 20
3.0106090581
 30
0.0
 10
4.6037473768
 20
3.0104576174
 30
0.0
 10
4.607100325
 20
3.0103667699
 30
0.0
 10
4.6094251587
 20
3.0103159413
 30
0.0
 10
4.6115944559
 20
3.0102812121
 30
0.0
 10
4.6135898468
 20
3.0102628286
 30
0.0
 10
4.6153944077
 20
3.0102610451
 30
0.0
 10
4.6169929694
 20
3.0102755996
 30
0.0
 10
4.6183718038
 20
3.0103062465
 30
0.0
 10
4.6193773724
 20
3.0103464798
 30
0.0
 10
4.6200620538
 20
3.0103889755
 30
0.0
 10
4.6204831987
 20
3.0104228399
 30
0.0
 10
4.6208416383
 20
3.0104602634
 30
0.0
 10
4.6211368597
 20
3.0105011478
 30
0.0
 10
4.6213427386
 20
3.0105398455
 30
0.0
 10
4.6214748934
 20
3.0105741647
 30
0.0
 10
4.6215503129
 20
3.0105985231
 30
0.0
 10
4.6216101874
 20
3.0106242242
 30
0.0
 10
4.6216613147
 20
3.0106536843
 30
0.0
 10
4.6216909099
 20
3.0106874764
 30
0.0
 10
4.6216919955
 20
3.0107095242
 30
0.0
  0
SPLINE
  5
2C6
100
AcDbEntity
  8
0
100
AcDbSpline
 62
9
  6
CONTINUOUS
 70
0
 71
3
 72
25
 73
21
 74
0
 42
0.0000001
 43
0.0000001
 44
0.0000000001
 40
0.0
 40
0.0
 40
0.0
 40
0.0
 40
0.1892542764
 40
0.3723761148
 40
0.4591604073
 40
0.5416762329
 40
0.6191401321
 40
0.6908371005
 40
0.7561052842
 40
0.8142987945
 40
0.8648990805
 40
0.9075556941
 40
0.9258201919
 40
0.9420094502
 40
0.9561319314
 40
0.9682372342
 40
0.9784186659
 40
0.9868490855
 40
0.9938513365
 40
1.0
 40
1.0
 40
1.0
 40
1.0
 10
5.4217889312
 20
2.3599068524
 30
0.0
 10
5.4236522582
 20
2.359231055
 30
0.0
 10
5.4273018521
 20
2.3578549189
 30
0.0
 10
5.4317574859
 20
2.3560442219
 30
0.0
 10
5.435145429
 20
2.3545792671
 30
0.0
 10
5.437501183
 20
2.353516165
 30
0.0
 10
5.4396948149
 20
2.352478839
 30
0.0
 10
5.4417052099
 20
2.3514775736
 30
0.0
 10
5.4435127168
 20
2.3505228603
 30
0.0
 10
5.445099255
 20
2.3496242603
 30
0.0
 10
5.4464491003
 20
2.3487905407
 30
0.0
 10
5.4474115595
 20
2.3481272601
 30
0.0
 10
5.4480486972
 20
2.3476306342
 30
0.0
 10
5.4484346419
 20
2.3472987877
 30
0.0
 10
5.448753253
 20
2.3469886937
 30
0.0
 10
5.4490043565
 20
2.3467009879
 30
0.0
 10
5.4491881279
 20
2.3464358191
 30
0.0
 10
5.4493045328
 20
2.3461923395
 30
0.0
 10
5.4493523308
 20
2.3459683607
 30
0.0
 10
5.4493325049
 20
2.3458280367
 30
0.0
 10
5.4493103685
 20
2.345767565
 30
0.0
  0
SPLINE
  5
2C7
100
AcDbEntity
  8
0
100
AcDbSpline
 62
9
  6
CONTINUOUS
 70
0
 71
3
 72
11
 73
7
 74
0
 42
0.0000001
 43
0.0000001
 44
0.0000000001
 40
0.0
 40
0.0
 40
0.0
 40
0.0
 40
0.2499892147
 40
0.4999823209
 40
0.7499848788
 40
1.0
 40
1.0
 40
1.0
 40
1.0
 10
4.5942287302
 20
3.0151859568
 30
0.0
 10
4.5994843857
 20
3.0710185137
 30
0.0
 10
4.6100338991
 20
3.1826809016
 30
0.0
 10
4.6257967802
 20
3.3501828553
 30
0.0
 10
4.6413675147
 20
3.5177086543
 30
0.0
 10
4.6515554053
 20
3.6294126684
 30
0.0
 10
4.6565893003
 20
3.685271491
 30
0.0
  0
SPLINE
  5
2C8
100
AcDbEntity
  8
0
100
AcDbSpline
 62
9
  6
CONTINUOUS
 70
0
 71
3
 72
25
 73
21
 74
0
 42
0.0000001
 43
0.0000001
 44
0.0000000001
 40
0.0
 40
0.0
 40
0.0
 40
0.0
 40
0.1892543099
 40
0.37237618
 40
0.4591604874
 40
0.5416763282
 40
0.6191402436
 40
0.690837229
 40
0.7561054309
 40
0.8142989619
 40
0.8648992685
 40
0.907555895
 40
0.9258203916
 40
0.9420096396
 40
0.9561320991
 40
0.9682373696
 40
0.9784187608
 40
0.9868491365
 40
0.9938513503
 40
1.0
 40
1.0
 40
1.0
 40
1.0
 10
5.2461045627
 20
2.0556125996
 30
0.0
 10
5.2476214841
 20
2.05433681
 30
0.0
 10
5.2506380496
 20
2.0518642367
 30
0.0
 10
5.2544339762
 20
2.0489108932
 30
0.0
 10
5.2573966369
 20
2.0467093273
 30
0.0
 10
5.2594951882
 20
2.0452007367
 30
0.0
 10
5.2614903556
 20
2.0438196596
 30
0.0
 10
5.263362675
 20
2.0425792398
 30
0.0
 10
5.2650932352
 20
2.0414912504
 30
0.0
 10
5.2666647159
 20
2.0405665694
 30
0.0
 10
5.2680616622
 20
2.0398144307
 30
0.0
 10
5.2691173103
 20
2.0393125579
 30
0.0
 10
5.2698659695
 20
2.0390090932
 30
0.0
 10
5.2703463286
 20
2.0388407777
 30
0.0
 10
5.2707741823
 20
2.0387198981
 30
0.0
 10
5.2711488931
 20
2.0386462873
 30
0.0
 10
5.2714704203
 20
2.0386197191
 30
0.0
 10
5.2717394811
 20
2.0386406477
 30
0.0
 10
5.2719573507
 20
2.0387112417
 30
0.0
 10
5.2720689615
 20
2.0387985732
 30
0.0
 10
5.2721102632
 20
2.0388479796
 30
0.0
  0
SPLINE
  5
2C9
100
AcDbEntity
  8
ALL_FEATURES
100
AcDbSpline
 62
9
  6
CONTINUOUS
 70
0
 71
3
 72
20
 73
16
 74
0
 42
0.0000001
 43
0.0000001
 44
0.0000000001
 40
0.0
 40
0.0
 40
0.0
 40
0.0
 40
0.1836258299
 40
0.3601720934
 40
0.5235562422
 40
0.6690517553
 40
0.7337964989
 40
0.7925646397
 40
0.8449760776
 40
0.8906617293
 40
0.9292555494
 40
0.9604284305
 40
0.984027883
 40
0.992967556
 40
1.0
 40
1.0
 40
1.0
 40
1.0
 10
4.5942287302
 20
3.0151859568
 30
0.0
 10
4.5959051815
 20
3.0150385102
 30
0.0
 10
4.5991944056
 20
3.0147600568
 30
0.0
 10
4.6039783186
 20
3.0143873256
 30
0.0
 10
4.6084163689
 20
3.0140760315
 30
0.0
 10
4.6118343427
 20
3.0138675696
 30
0.0
 10
4.6142965376
 20
3.0137405624
 30
0.0
 10
4.6159073205
 20
3.0136693746
 30
0.0
 10
4.6173441182
 20
3.0136187107
 30
0.0
 10
4.6185965532
 20
3.0135888855
 30
0.0
 10
4.619654718
 20
3.0135797826
 30
0.0
 10
4.620510355
 20
3.0135918822
 30
0.0
 10
4.6210939443
 20
3.0136196542
 30
0.0
 10
4.6214548245
 20
3.0136562493
 30
0.0
 10
4.6215996638
 20
3.013678497
 30
0.0
 10
4.6216627968
 20
3.0136914696
 30
0.0
  0
LINE
  5
2CA
100
AcDbEntity
  8
ALL_FEATURES
100
AcDbLine
 62
9
  6
CONTINUOUS
 10
4.6216627968
 20
3.0136914696
 11
4.6219092569
 21
3.0138112237
  0
SPLINE
  5
2CB
100
AcDbEntity
  8
0
100
AcDbSpline
 62
9
  6
CONTINUOUS
 70
0
 71
3
 72
12
 73
8
 74
0
 42
0.0000001
 43
0.0000001
 44
0.0000000001
 40
0.0
 40
0.0
 40
0.0
 40
0.0
 40
0.2494618812
 40
0.4999362262
 40
0.7504405192
 40
0.8754352458
 40
1.0
 40
1.0
 40
1.0
 40
1.0
 10
3.5400209187
 20
2.3599068487
 30
0.0
 10
3.5501398864
 20
2.3323513742
 30
0.0
 10
3.5727841207
 20
2.2779631856
 30
0.0
 10
3.6136444256
 20
2.1995648006
 30
0.0
 10
3.6532446552
 20
2.1373353688
 30
0.0
 10
3.6879826282
 20
2.0898228264
 30
0.0
 10
3.7063156877
 20
2.0668680823
 30
0.0
 10
3.7157052915
 20
2.0556125903
 30
0.0
  0
SPLINE
  5
2CC
100
AcDbEntity
  8
0
100
AcDbSpline
 62
9
  6
CONTINUOUS
 70
0
 71
3
 72
25
 73
21
 74
0
 42
0.0000001
 43
0.0000001
 44
0.0000000001
 40
0.0
 40
0.0
 40
0.0
 40
0.0
 40
0.2007399003
 40
0.3906515786
 40
0.4793754839
 40
0.5630191366
 40
0.6409133388
 40
0.7124462835
 40
0.7770506231
 40
0.8341635183
 40
0.8833139468
 40
0.9241510449
 40
0.9563392389
 40
0.979625722
 40
0.987912356
 40
0.991220527
 40
0.9939778257
 40
0.996195062
 40
0.9978953402
 40
1.0
 40
1.0
 40
1.0
 40
1.0
 10
4.6565893005
 20
3.685271491
 30
0.0
 10
4.6583442557
 20
3.6851195419
 30
0.0
 10
4.6617604197
 20
3.6848343415
 30
0.0
 10
4.6659546803
 20
3.6845120184
 30
0.0
 10
4.6691257973
 20
3.6842874319
 30
0.0
 10
4.6713170537
 20
3.6841418027
 30
0.0
 10
4.6733584384
 20
3.6840163032
 30
0.0
 10
4.6752337022
 20
3.6839118728
 30
0.0
 10
4.6769274993
 20
3.6838292276
 30
0.0
 10
4.6784257068
 20
3.683769011
 30
0.0
 10
4.6797160146
 20
3.6837317298
 30
0.0
 10
4.680788126
 20
3.6837170608
 30
0.0
 10
4.6816332384
 20
3.6837252078
 30
0.0
 10
4.6821925825
 20
3.6837509119
 30
0.0
 10
4.6824968916
 20
3.6837849888
 30
0.0
 10
4.6826210997
 20
3.6838066132
 30
0.0
 10
4.6826918156
 20
3.6838226895
 30
0.0
 10
4.6827482809
 20
3.6838406501
 30
0.0
 10
4.6827951733
 20
3.6838612247
 30
0.0
 10
4.6828252489
 20
3.6838871367
 30
0.0
 10
4.682826921
 20
3.6839055296
 30
0.0
  0
SPLINE
  5
2CD
100
AcDbEntity
  8
ALL_FEATURES
100
AcDbSpline
 62
9
  6
CONTINUOUS
 70
0
 71
3
 72
19
 73
15
 74
0
 42
0.0000001
 43
0.0000001
 44
0.0000000001
 40
0.0
 40
0.0
 40
0.0
 40
0.0
 40
0.1234893595
 40
0.2470124606
 40
0.3706664944
 40
0.4946055026
 40
0.5567612811
 40
0.6190943681
 40
0.6816611516
 40
0.7445308782
 40
0.8077826998
 40
0.8714859169
 40
0.9356381543
 40
1.0
 40
1.0
 40
1.0
 40
1.0
 10
4.3083479189
 20
2.9456688941
 30
0.0
 10
4.3113757018
 20
2.9477980813
 30
0.0
 10
4.3173692904
 20
2.9521471584
 30
0.0
 10
4.3261591331
 20
2.958945757
 30
0.0
 10
4.3347175306
 20
2.9660555147
 30
0.0
 10
4.3415993641
 20
2.972294382
 30
0.0
 10
4.346893469
 20
2.977532544
 30
0.0
 10
4.3507409374
 20
2.9816127954
 30
0.0
 10
4.3544295974
 20
2.9858663208
 30
0.0
 10
4.3579149092
 20
2.9903243357
 30
0.0
 10
4.361133155
 20
2.9950220798
 30
0.0
 10
4.3639915009
 20
2.9999951007
 30
0.0
 10
4.3663550703
 20
3.0052614741
 30
0.0
 10
4.3674807725
 20
3.0089616621
 30
0.0
 10
4.3678971401
 20
3.0108453787
 30
0.0
  0
SPLINE
  5
2CE
100
AcDbEntity
  8
ALL_FEATURES
100
AcDbSpline
 62
9
  6
CONTINUOUS
 70
0
 71
3
 72
16
 73
12
 74
0
 42
0.0000001
 43
0.0000001
 44
0.0000000001
 40
0.0
 40
0.0
 40
0.0
 40
0.0
 40
0.1247783216
 40
0.2497693339
 40
0.3748459099
 40
0.499990941
 40
0.6251385231
 40
0.7502152988
 40
0.8127366839
 40
0.8752283428
 40
1.0
 40
1.0
 40
1.0
 40
1.0
 10
4.6933719849
 20
2.4471054416
 30
0.0
 10
4.7008256972
 20
2.4531701778
 30
0.0
 10
4.7152051331
 20
2.4659924157
 30
0.0
 10
4.7349505467
 20
2.4871022678
 30
0.0
 10
4.7527108371
 20
2.5099469625
 30
0.0
 10
4.7683151754
 20
2.5343291569
 30
0.0
 10
4.7816287485
 20
2.5600329581
 30
0.0
 10
4.7907175889
 20
2.5823762841
 30
0.0
 10
4.7967414647
 20
2.6006759704
 30
0.0
 10
4.8019188037
 20
2.6192072664
 30
0.0
 10
4.8048543231
 20
2.6333530331
 30
0.0
 10
4.806380248
 20
2.6428398946
 30
0.0
  0
SPLINE
  5
2CF
100
AcDbEntity
  8
ALL_FEATURES
100
AcDbSpline
 62
9
  6
CONTINUOUS
 70
0
 71
3
 72
27
 73
23
 74
0
 42
0.0000001
 43
0.0000001
 44
0.0000000001
 40
0.0
 40
0.0
 40
0.0
 40
0.0
 40
0.0023776177
 40
0.0041804927
 40
0.0064895726
 40
0.0093336392
 40
0.0127265944
 40
0.0211824076
 40
0.0318807627
 40
0.0448209329
 40
0.0599934849
 40
0.0773848143
 40
0.1187052167
 40
0.1683766401
 40
0.2259286099
 40
0.2908859063
 40
0.36273972
 40
0.4408550714
 40
0.5245648326
 40
0.6132012982
 40
0.8021253712
 40
1.0
 40
1.0
 40
1.0
 40
1.0
 10
4.3401178696
 20
3.0107094977
 30
0.0
 10
4.3401189551
 20
3.0106874498
 30
0.0
 10
4.34014855
 20
3.0106536575
 30
0.0
 10
4.3401996771
 20
3.010624197
 30
0.0
 10
4.3402595514
 20
3.0105984957
 30
0.0
 10
4.3403349706
 20
3.0105741371
 30
0.0
 10
4.3404671249
 20
3.0105398175
 30
0.0
 10
4.3406730032
 20
3.0105011194
 30
0.0
 10
4.3409682237
 20
3.0104602345
 30
0.0
 10
4.3413266622
 20
3.0104228105
 30
0.0
 10
4.341747806
 20
3.0103889454
 30
0.0
 10
4.3424324855
 20
3.0103464488
 30
0.0
 10
4.3434380516
 20
3.0103062143
 30
0.0
 10
4.3448168827
 20
3.0102755659
 30
0.0
 10
4.3464154407
 20
3.0102610096
 30
0.0
 10
4.3482199977
 20
3.0102627913
 30
0.0
 10
4.3502153844
 20
3.0102811727
 30
0.0
 10
4.3523846773
 20
3.0103158998
 30
0.0
 10
4.3547095067
 20
3.010366726
 30
0.0
 10
4.358062449
 20
3.0104575702
 30
0.0
 10
4.3624740172
 20
3.0106090065
 30
0.0
 10
4.3660620263
 20
3.0107607046
 30
0.0
 10
4.3678972111
 20
3.0108453819
 30
0.0
  0
SPLINE
  5
2D0
100
AcDbEntity
  8
ALL_FEATURES
100
AcDbSpline
 62
9
  6
CONTINUOUS
 70
0
 71
3
 72
15
 73
11
 74
0
 42
0.0000001
 43
0.0000001
 44
0.0000000001
 40
0.0
 40
0.0
 40
0.0
 40
0.0
 40
0.0291644559
 40
0.0520209152
 40
0.0815753102
 40
0.1181599792
 40
0.1619305602
 40
0.2712770786
 40
0.5775652906
 40
1.0
 40
1.0
 40
1.0
 40
1.0
 10
4.3399006067
 20
3.0138112237
 30
0.0
 10
4.3399024895
 20
3.0137905147
 30
0.0
 10
4.3399340699
 20
3.0137605674
 30
0.0
 10
4.3399852106
 20
3.0137361678
 30
0.0
 10
4.3400457649
 20
3.013715135
 30
0.0
 10
4.340121649
 20
3.0136961022
 30
0.0
 10
4.3402545702
 20
3.0136703559
 30
0.0
 10
4.3405796773
 20
3.0136289421
 30
0.0
 10
4.3411767625
 20
3.013595135
 30
0.0
 10
4.3416962657
 20
3.0135859609
 30
0.0
 10
4.3419974577
 20
3.0135840989
 30
0.0
  0
SPLINE
  5
2D1
100
AcDbEntity
  8
ALL_FEATURES
100
AcDbSpline
 62
9
  6
CONTINUOUS
 70
0
 71
3
 72
13
 73
9
 74
0
 42
0.0000001
 43
0.0000001
 44
0.0000000001
 40
0.0
 40
0.0
 40
0.0
 40
0.0
 40
0.0705401389
 40
0.1608851852
 40
0.2692978129
 40
0.3937753875
 40
0.6812235491
 40
1.0
 40
1.0
 40
1.0
 40
1.0
 10
4.3419974577
 20
3.0135840989
 30
0.0
 10
4.3426003134
 20
3.0135803719
 30
0.0
 10
4.3439753973
 20
3.0136010249
 30
0.0
 10
4.3462755875
 20
3.0136810052
 30
0.0
 10
4.3490349224
 20
3.0138151745
 30
0.0
 10
4.3534743391
 20
3.0140763003
 30
0.0
 10
4.3597036823
 20
3.0145200632
 30
0.0
 10
4.3648672053
 20
3.0149472624
 30
0.0
 10
4.3675811335
 20
3.0151859569
 30
0.0
  0
SPLINE
  5
2D2
100
AcDbEntity
  8
0
100
AcDbSpline
 62
9
  6
CONTINUOUS
 70
0
 71
3
 72
11
 73
7
 74
0
 42
0.0000001
 43
0.0000001
 44
0.0000000001
 40
0.0
 40
0.0
 40
0.0
 40
0.0
 40
0.2499892146
 40
0.4999823204
 40
0.7499848786
 40
1.0
 40
1.0
 40
1.0
 40
1.0
 10
4.3675811335
 20
3.0151859569
 30
0.0
 10
4.3623254775
 20
3.0710185136
 30
0.0
 10
4.351775965
 20
3.1826809015
 30
0.0
 10
4.3360130832
 20
3.350182855
 30
0.0
 10
4.3204423487
 20
3.517708654
 30
0.0
 10
4.3102544582
 20
3.6294126681
 30
0.0
 10
4.3052205633
 20
3.6852714908
 30
0.0
  0
SPLINE
  5
2D3
100
AcDbEntity
  8
0
100
AcDbSpline
 62
9
  6
CONTINUOUS
 70
0
 71
3
 72
25
 73
21
 74
0
 42
0.0000001
 43
0.0000001
 44
0.0000000001
 40
0.0
 40
0.0
 40
0.0
 40
0.0
 40
0.0021046599
 40
0.0038049379
 40
0.0060221738
 40
0.0087794723
 40
0.0120876429
 40
0.0203742762
 40
0.0436607579
 40
0.0758489511
 40
0.1166860487
 40
0.1658364767
 40
0.2229493716
 40
0.2875537109
 40
0.3590866559
 40
0.4369808591
 40
0.5206245131
 40
0.6093484196
 40
0.7992600984
 40
1.0
 40
1.0
 40
1.0
 40
1.0
 10
4.2789829425
 20
3.6839055296
 30
0.0
 10
4.2789846146
 20
3.6838871367
 30
0.0
 10
4.2790146902
 20
3.6838612247
 30
0.0
 10
4.2790615826
 20
3.6838406501
 30
0.0
 10
4.2791180478
 20
3.6838226895
 30
0.0
 10
4.2791887637
 20
3.6838066132
 30
0.0
 10
4.2793129719
 20
3.6837849888
 30
0.0
 10
4.279617281
 20
3.6837509119
 30
0.0
 10
4.280176625
 20
3.6837252077
 30
0.0
 10
4.2810217374
 20
3.6837170607
 30
0.0
 10
4.2820938488
 20
3.6837317296
 30
0.0
 10
4.2833841566
 20
3.6837690108
 30
0.0
 10
4.2848823641
 20
3.6838292275
 30
0.0
 10
4.2865761611
 20
3.6839118728
 30
0.0
 10
4.288451425
 20
3.6840163033
 30
0.0
 10
4.2904928097
 20
3.6841418023
 30
0.0
 10
4.2926840662
 20
3.6842874307
 30
0.0
 10
4.2958551833
 20
3.6845120168
 30
0.0
 10
4.3000494436
 20
3.6848343442
 30
0.0
 10
4.3034656072
 20
3.6851195488
 30
0.0
 10
4.3052205624
 20
3.6852714981
 30
0.0
  0
SPLINE
  5
2D4
100
AcDbEntity
  8
ALL_FEATURES
100
AcDbSpline
 62
9
  6
CONTINUOUS
 70
0
 71
3
 72
17
 73
13
 74
0
 42
0.0000001
 43
0.0000001
 44
0.0000000001
 40
0.0
 40
0.0
 40
0.0
 40
0.0
 40
0.1230300221
 40
0.2463064331
 40
0.3699495633
 40
0.4941197173
 40
0.6190309229
 40
0.7449361013
 40
0.8083565948
 40
0.8720748655
 40
0.9360174282
 40
1.0
 40
1.0
 40
1.0
 40
1.0
 10
4.7838803843
 20
2.6959848164
 30
0.0
 10
4.7843188812
 20
2.6936210452
 30
0.0
 10
4.7852609103
 20
2.6889003106
 30
0.0
 10
4.78690292
 20
2.6818586759
 30
0.0
 10
4.7888258918
 20
2.6748645865
 30
0.0
 10
4.7911008577
 20
2.6679416552
 30
0.0
 10
4.7938257166
 20
2.6611334743
 30
0.0
 10
4.796578577
 20
2.6556323762
 30
0.0
 10
4.799156526
 20
2.6514096062
 30
0.0
 10
4.8013097239
 20
2.6483551435
 30
0.0
 10
4.8036974279
 20
2.6454650959
 30
0.0
 10
4.8054578361
 20
2.6436839939
 30
0.0
 10
4.806380196
 20
2.6428399433
 30
0.0
  0
SPLINE
  5
2D5
100
AcDbEntity
  8
ALL_FEATURES
100
AcDbSpline
 62
9
  6
CONTINUOUS
 70
0
 71
3
 72
27
 73
23
 74
0
 42
0.0000001
 43
0.0000001
 44
0.0000000001
 40
0.0
 40
0.0
 40
0.0
 40
0.0
 40
0.002377469
 40
0.0041802574
 40
0.0064892531
 40
0.0093332397
 40
0.0127261199
 40
0.0211817975
 40
0.0318800366
 40
0.0448201099
 40
0.0599925839
 40
0.0773838538
 40
0.1187041905
 40
0.1683756116
 40
0.2259276331
 40
0.2908850258
 40
0.3627389707
 40
0.4408544756
 40
0.5245643994
 40
0.6132010234
 40
0.8021253413
 40
1.0
 40
1.0
 40
1.0
 40
1.0
 10
4.8201523589
 20
2.6669659446
 30
0.0
 10
4.820132724
 20
2.6669760297
 30
0.0
 10
4.8200886623
 20
2.6669672982
 30
0.0
 10
4.8200375873
 20
2.6669377524
 30
0.0
 10
4.8199853934
 20
2.6668987516
 30
0.0
 10
4.8199265898
 20
2.6668456168
 30
0.0
 10
4.8198307922
 20
2.6667483283
 30
0.0
 10
4.8196943407
 20
2.6665893817
 30
0.0
 10
4.819511324
 20
2.6663541553
 30
0.0
 10
4.819299695
 20
2.6660624491
 30
0.0
 10
4.819059795
 20
2.6657146581
 30
0.0
 10
4.8186806509
 20
2.6651429514
 30
0.0
 10
4.8181430209
 20
2.6642922143
 30
0.0
 10
4.8174270583
 20
2.6631134227
 30
0.0
 10
4.8166151668
 20
2.6617362928
 30
0.0
 10
4.8157144235
 20
2.6601725906
 30
0.0
 10
4.81473264
 20
2.6584353226
 30
0.0
 10
4.8136780584
 20
2.6565392723
 30
0.0
 10
4.8125596502
 20
2.6545004722
 30
0.0
 10
4.8109618383
 20
2.6515512807
 30
0.0
 10
4.8088871854
 20
2.6476549871
 30
0.0
 10
4.807224543
 20
2.6444717943
 30
0.0
 10
4.8063802777
 20
2.642840121
 30
0.0
  0
SPLINE
  5
2D6
100
AcDbEntity
  8
0
100
AcDbSpline
 62
9
  6
CONTINUOUS
 70
0
 71
3
 72
12
 73
8
 74
0
 42
0.0000001
 43
0.0000001
 44
0.0000000001
 40
0.0
 40
0.0
 40
0.0
 40
0.0
 40
0.2494620531
 40
0.4999364697
 40
0.7504406292
 40
0.8754352708
 40
1.0
 40
1.0
 40
1.0
 40
1.0
 10
5.2461045725
 20
2.0556125898
 30
0.0
 10
5.2649088426
 20
2.0781536257
 30
0.0
 10
5.3006882952
 20
2.1249582257
 30
0.0
 10
5.3481531369
 20
2.1995434951
 30
0.0
 10
5.3822452811
 20
2.2649530012
 30
0.0
 10
5.4060233519
 20
2.3187932134
 30
0.0
 10
5.4167362051
 20
2.3461474702
 30
0.0
 10
5.4217889441
 20
2.3599068489
 30
0.0
  0
LINE
  5
2D7
100
AcDbEntity
  8
ALL_FEATURES
100
AcDbLine
 62
9
  6
CONTINUOUS
 10
4.8229472605
 20
2.6656031872
 11
4.822303015
 21
2.6648789468
  0
SPLINE
  5
2D8
100
AcDbEntity
  8
ALL_FEATURES
100
AcDbSpline
 62
9
  6
CONTINUOUS
 70
0
 71
3
 72
15
 73
11
 74
0
 42
0.0000001
 43
0.0000001
 44
0.0000000001
 40
0.0
 40
0.0
 40
0.0
 40
0.0
 40
0.0249164654
 40
0.0562280898
 40
0.1372765353
 40
0.2410363837
 40
0.3651488419
 40
0.5066769708
 40
0.6624076567
 40
1.0
 40
1.0
 40
1.0
 40
1.0
 10
4.822303015
 20
2.6648789468
 30
0.0
 10
4.8221807726
 20
2.6646930568
 30
0.0
 10
4.8219154756
 20
2.6642666451
 30
0.0
 10
4.8212961609
 20
2.6632087768
 30
0.0
 10
4.8203688304
 20
2.6615160742
 30
0.0
 10
4.81908837
 20
2.6590728457
 30
0.0
 10
4.8175963392
 20
2.6561310708
 30
0.0
 10
4.8159268976
 20
2.6527592043
 30
0.0
 10
4.8134524524
 20
2.6476590717
 30
0.0
 10
4.8115702373
 20
2.643676343
 30
0.0
 10
4.8102975509
 20
2.6409437812
 30
0.0
  0
SPLINE
  5
2D9
100
AcDbEntity
  8
0
100
AcDbSpline
 62
9
  6
CONTINUOUS
 70
0
 71
3
 72
11
 73
7
 74
0
 42
0.0000001
 43
0.0000001
 44
0.0000000001
 40
0.0
 40
0.0
 40
0.0
 40
0.0
 40
0.2499892146
 40
0.4999823204
 40
0.7499848786
 40
1.0
 40
1.0
 40
1.0
 40
1.0
 10
4.8102975509
 20
2.6409437812
 30
0.0
 10
4.8612777914
 20
2.6175790344
 30
0.0
 10
4.9632550122
 20
2.5708839863
 30
0.0
 10
5.1161974
 20
2.5007840657
 30
0.0
 10
5.269064365
 20
2.4305058177
 30
0.0
 10
5.3708968242
 20
2.3834767827
 30
0.0
 10
5.4217889311
 20
2.3599068522
 30
0.0
  0
SPLINE
  5
2DA
100
AcDbEntity
  8
0
100
AcDbSpline
 62
9
  6
CONTINUOUS
 70
0
 71
3
 72
25
 73
21
 74
0
 42
0.0000001
 43
0.0000001
 44
0.0000000001
 40
0.0
 40
0.0
 40
0.0
 40
0.0
 40
0.2007399015
 40
0.3906515811
 40
0.4793754869
 40
0.5630191399
 40
0.6409133424
 40
0.7124462871
 40
0.7770506266
 40
0.8341635217
 40
0.8833139499
 40
0.9241510475
 40
0.9563392408
 40
0.9796257228
 40
0.9879123565
 40
0.9912205272
 40
0.9939778258
 40
0.9961950618
 40
0.99789534
 40
1.0
 40
1.0
 40
1.0
 40
1.0
 10
5.4217889312
 20
2.3599068524
 30
0.0
 10
5.422534817
 20
2.3615026628
 30
0.0
 10
5.4239959082
 20
2.3646037478
 30
0.0
 10
5.4258138985
 20
2.3683972456
 30
0.0
 10
5.4272049594
 20
2.3712558067
 30
0.0
 10
5.4281744691
 20
2.3732263051
 30
0.0
 10
5.4290864757
 20
2.3750569458
 30
0.0
 10
5.4299336682
 20
2.3767331872
 30
0.0
 10
5.430708994
 20
2.378241381
 30
0.0
 10
5.4314059486
 20
2.379568975
 30
0.0
 10
5.4320188161
 20
2.380705055
 30
0.0
 10
5.4325421681
 20
2.3816408652
 30
0.0
 10
5.4329717798
 20
2.3823686805
 30
0.0
 10
5.4332737123
 20
2.3828402345
 30
0.0
 10
5.4334553782
 20
2.3830867355
 30
0.0
 10
5.4335362096
 20
2.3831834907
 30
0.0
 10
5.4335854901
 20
2.3832366943
 30
0.0
 10
5.433629277
 20
2.3832766144
 30
0.0
 10
5.4336705413
 20
2.3833069371
 30
0.0
 10
5.4337080197
 20
2.3833200273
 30
0.0
 10
5.4337247844
 20
2.383312279
 30
0.0
  0
SPLINE
  5
2DB
100
AcDbEntity
  8
ALL_FEATURES
100
AcDbSpline
 62
9
  6
CONTINUOUS
 70
0
 71
3
 72
19
 73
15
 74
0
 42
0.0000001
 43
0.0000001
 44
0.0000000001
 40
0.0
 40
0.0
 40
0.0
 40
0.0
 40
0.1234911714
 40
0.2470121567
 40
0.3706657403
 40
0.4946076518
 40
0.5567648164
 40
0.6190981838
 40
0.6816645267
 40
0.7445336029
 40
0.8077848063
 40
0.8714873752
 40
0.9356388612
 40
1.0
 40
1.0
 40
1.0
 40
1.0
 10
4.6071520724
 20
2.4281212411
 30
0.0
 10
4.6105099245
 20
2.4296789809
 30
0.0
 10
4.6172730739
 20
2.4326954209
 30
0.0
 10
4.6275558095
 20
2.4369086186
 30
0.0
 10
4.6379926499
 20
2.4407649599
 30
0.0
 10
4.6468369095
 20
2.4436051244
 30
0.0
 10
4.6540204012
 20
2.4455715906
 30
0.0
 10
4.6594777411
 20
2.4468639873
 30
0.0
 10
4.6650057217
 20
2.4479320811
 30
0.0
 10
4.6706091383
 20
2.4487216745
 30
0.0
 10
4.6762866545
 20
2.4491599079
 30
0.0
 10
4.6820226341
 20
2.4491486694
 30
0.0
 10
4.6877651793
 20
2.4485619011
 30
0.0
 10
4.6915325695
 20
2.4476869186
 30
0.0
 10
4.6933720384
 20
2.4471054244
 30
0.0
  0
SPLINE
  5
2DC
100
AcDbEntity
  8
ALL_FEATURES
100
AcDbSpline
 62
9
  6
CONTINUOUS
 70
0
 71
3
 72
27
 73
23
 74
0
 42
0.0000001
 43
0.0000001
 44
0.0000000001
 40
0.0
 40
0.0
 40
0.0
 40
0.0
 40
0.1978753674
 40
0.3868000169
 40
0.4754366938
 40
0.5591466095
 40
0.6372620558
 40
0.7091159018
 40
0.7740731656
 40
0.8316250372
 40
0.8812962968
 40
0.9226164698
 40
0.9400076604
 40
0.9551800585
 40
0.9681200606
 40
0.9788182351
 40
0.9872738578
 40
0.9906667159
 40
0.9935106858
 40
0.9958196723
 40
0.997622463
 40
1.0
 40
1.0
 40
1.0
 40
1.0
 10
4.6933720922
 20
2.4471055326
 30
0.0
 10
4.6923811777
 20
2.4455585455
 30
0.0
 10
4.6904558201
 20
2.4425270709
 30
0.0
 10
4.6881189157
 20
2.4387822392
 30
0.0
 10
4.6863637934
 20
2.4359239146
 30
0.0
 10
4.6851573784
 20
2.4339359587
 30
0.0
 10
4.6840426739
 20
2.4320746534
 30
0.0
 10
4.6830290779
 20
2.4303557842
 30
0.0
 10
4.6821252723
 20
2.4287938802
 30
0.0
 10
4.6813386149
 20
2.4274022096
 30
0.0
 10
4.6806757564
 20
2.4261927839
 30
0.0
 10
4.6802078297
 20
2.4253018231
 30
0.0
 10
4.6799023026
 20
2.4246876276
 30
0.0
 10
4.6797210654
 20
2.4243059767
 30
0.0
 10
4.6795742627
 20
2.4239768511
 30
0.0
 10
4.6794620661
 20
2.4237007439
 30
0.0
 10
4.6793926456
 20
2.4235031024
 30
0.0
 10
4.6793562943
 20
2.4233714966
 30
0.0
 10
4.6793396826
 20
2.4232940046
 30
0.0
 10
4.6793320064
 20
2.4232293037
 30
0.0
 10
4.679331959
 20
2.4231702986
 30
0.0
 10
4.6793464313
 20
2.4231277754
 30
0.0
 10
4.6793649835
 20
2.4231158142
 30
0.0
  0
SPLINE
  5
2DD
100
AcDbEntity
  8
0
100
AcDbSpline
 62
7
  6
CONTINUOUS
 70
0
 71
3
 72
8
 73
4
 74
0
 42
0.0000001
 43
0.0000001
 44
0.0000000001
 40
0.0
 40
0.0
 40
0.0
 40
0.0
 40
1.0
 40
1.0
 40
1.0
 40
1.0
 10
5.2995595754
 20
2.9263200843
 30
0.0
 10
5.2871066441
 20
2.9229833314
 30
0.0
 10
5.2755375056
 20
2.9246501748
 30
0.0
 10
5.2648056442
 20
2.9310954091
 30
0.0
  0
SPLINE
  5
2DE
100
AcDbEntity
  8
0
100
AcDbSpline
 62
7
  6
CONTINUOUS
 70
0
 71
3
 72
8
 73
4
 74
0
 42
0.0000001
 43
0.0000001
 44
0.0000000001
 40
0.0
 40
0.0
 40
0.0
 40
0.0
 40
1.0
 40
1.0
 40
1.0
 40
1.0
 10
5.3207831153
 20
2.9395529035
 30
0.0
 10
5.315527915
 20
2.933141075
 30
0.0
 10
5.3084545298
 20
2.9287034801
 30
0.0
 10
5.2995595754
 20
2.9263200843
 30
0.0
  0
SPLINE
  5
2DF
100
AcDbEntity
  8
0
100
AcDbSpline
 62
7
  6
CONTINUOUS
 70
0
 71
3
 72
8
 73
4
 74
0
 42
0.0000001
 43
0.0000001
 44
0.0000000001
 40
0.0
 40
0.0
 40
0.0
 40
0.0
 40
1.0
 40
1.0
 40
1.0
 40
1.0
 10
5.3294116289
 20
2.9635552234
 30
0.0
 10
5.3288300431
 20
2.9538658093
 30
0.0
 10
5.3259856881
 20
2.9459005216
 30
0.0
 10
5.3207831153
 20
2.9395529035
 30
0.0
  0
SPLINE
  5
2E0
100
AcDbEntity
  8
0
100
AcDbSpline
 62
7
  6
CONTINUOUS
 70
0
 71
3
 72
8
 73
4
 74
0
 42
0.0000001
 43
0.0000001
 44
0.0000000001
 40
0.0
 40
0.0
 40
0.0
 40
0.0
 40
1.0
 40
1.0
 40
1.0
 40
1.0
 10
5.3451663455
 20
2.9506162472
 30
0.0
 10
5.3392713439
 20
2.9528501215
 30
0.0
 10
5.3339868318
 20
2.9571542842
 30
0.0
 10
5.3294116289
 20
2.9635552234
 30
0.0
  0
SPLINE
  5
2E1
100
AcDbEntity
  8
0
100
AcDbSpline
 62
7
  6
CONTINUOUS
 70
0
 71
3
 72
8
 73
4
 74
0
 42
0.0000001
 43
0.0000001
 44
0.0000000001
 40
0.0
 40
0.0
 40
0.0
 40
0.0
 40
1.0
 40
1.0
 40
1.0
 40
1.0
 10
5.3641886194
 20
2.9499931066
 30
0.0
 10
5.357467985
 20
2.9481923181
 30
0.0
 10
5.351061347
 20
2.9483823729
 30
0.0
 10
5.3451663455
 20
2.9506162472
 30
0.0
  0
SPLINE
  5
2E2
100
AcDbEntity
  8
0
100
AcDbSpline
 62
7
  6
CONTINUOUS
 70
0
 71
3
 72
8
 73
4
 74
0
 42
0.0000001
 43
0.0000001
 44
0.0000000001
 40
0.0
 40
0.0
 40
0.0
 40
0.0
 40
1.0
 40
1.0
 40
1.0
 40
1.0
 10
5.3878738891
 20
2.9687332012
 30
0.0
 10
5.3826258764
 20
2.95906457
 30
0.0
 10
5.3746648906
 20
2.952800215
 30
0.0
 10
5.3641886194
 20
2.9499931066
 30
0.0
  0
SPLINE
  5
2E3
100
AcDbEntity
  8
0
100
AcDbSpline
 62
7
  6
CONTINUOUS
 70
0
 71
3
 72
8
 73
4
 74
0
 42
0.0000001
 43
0.0000001
 44
0.0000000001
 40
0.0
 40
0.0
 40
0.0
 40
0.0
 40
1.0
 40
1.0
 40
1.0
 40
1.0
 10
5.3907601816
 20
3.0022385416
 30
0.0
 10
5.3941498984
 20
2.9895879463
 30
0.0
 10
5.3931219078
 20
2.9784018435
 30
0.0
 10
5.3878738891
 20
2.9687332012
 30
0.0
  0
SPLINE
  5
2E4
100
AcDbEntity
  8
0
100
AcDbSpline
 62
7
  6
CONTINUOUS
 70
0
 71
3
 72
8
 73
4
 74
0
 42
0.0000001
 43
0.0000001
 44
0.0000000001
 40
0.0
 40
0.0
 40
0.0
 40
0.0
 40
1.0
 40
1.0
 40
1.0
 40
1.0
 10
5.3718828423
 20
3.0295931656
 30
0.0
 10
5.3810124595
 20
3.0239902437
 30
0.0
 10
5.3873704637
 20
3.0148891413
 30
0.0
 10
5.3907601816
 20
3.0022385416
 30
0.0
  0
SPLINE
  5
2E5
100
AcDbEntity
  8
0
100
AcDbSpline
 62
7
  6
CONTINUOUS
 70
0
 71
3
 72
8
 73
4
 74
0
 42
0.0000001
 43
0.0000001
 44
0.0000000001
 40
0.0
 40
0.0
 40
0.0
 40
0.0
 40
1.0
 40
1.0
 40
1.0
 40
1.0
 10
5.3422523886
 20
3.0338368882
 30
0.0
 10
5.3527286598
 20
3.0366439966
 30
0.0
 10
5.3626299406
 20
3.0352717482
 30
0.0
 10
5.3718828423
 20
3.0295931656
 30
0.0
  0
SPLINE
  5
2E6
100
AcDbEntity
  8
0
100
AcDbSpline
 62
7
  6
CONTINUOUS
 70
0
 71
3
 72
8
 73
4
 74
0
 42
0.0000001
 43
0.0000001
 44
0.0000000001
 40
0.0
 40
0.0
 40
0.0
 40
0.0
 40
1.0
 40
1.0
 40
1.0
 40
1.0
 10
5.3256719899
 20
3.0236991112
 30
0.0
 10
5.3296831396
 20
3.0285622528
 30
0.0
 10
5.3352352613
 20
3.0319566546
 30
0.0
 10
5.3422523886
 20
3.0338368882
 30
0.0
  0
SPLINE
  5
2E7
100
AcDbEntity
  8
0
100
AcDbSpline
 62
7
  6
CONTINUOUS
 70
0
 71
3
 72
8
 73
4
 74
0
 42
0.0000001
 43
0.0000001
 44
0.0000000001
 40
0.0
 40
0.0
 40
0.0
 40
0.0
 40
1.0
 40
1.0
 40
1.0
 40
1.0
 10
5.318527457
 20
3.0041755057
 30
0.0
 10
5.319209782
 20
3.0123029846
 30
0.0
 10
5.3216077396
 20
3.0187715902
 30
0.0
 10
5.3256719899
 20
3.0236991112
 30
0.0
  0
SPLINE
  5
2E8
100
AcDbEntity
  8
0
100
AcDbSpline
 62
7
  6
CONTINUOUS
 70
0
 71
3
 72
8
 73
4
 74
0
 42
0.0000001
 43
0.0000001
 44
0.0000000001
 40
0.0
 40
0.0
 40
0.0
 40
0.0
 40
1.0
 40
1.0
 40
1.0
 40
1.0
 10
5.2999997208
 20
3.0211382475
 30
0.0
 10
5.3075961626
 20
3.0180891315
 30
0.0
 10
5.3137720763
 20
3.0124348839
 30
0.0
 10
5.318527457
 20
3.0041755057
 30
0.0
  0
SPLINE
  5
2E9
100
AcDbEntity
  8
0
100
AcDbSpline
 62
7
  6
CONTINUOUS
 70
0
 71
3
 72
8
 73
4
 74
0
 42
0.0000001
 43
0.0000001
 44
0.0000000001
 40
0.0
 40
0.0
 40
0.0
 40
0.0
 40
1.0
 40
1.0
 40
1.0
 40
1.0
 10
5.2744719662
 20
3.0219249702
 30
0.0
 10
5.2838610839
 20
3.0244407767
 30
0.0
 10
5.292403279
 20
3.0241873634
 30
0.0
 10
5.2999997208
 20
3.0211382475
 30
0.0
  0
SPLINE
  5
2EA
100
AcDbEntity
  8
0
100
AcDbSpline
 62
7
  6
CONTINUOUS
 70
0
 71
3
 72
8
 73
4
 74
0
 42
0.0000001
 43
0.0000001
 44
0.0000000001
 40
0.0
 40
0.0
 40
0.0
 40
0.0
 40
1.0
 40
1.0
 40
1.0
 40
1.0
 10
5.2462376656
 20
3.0002968601
 30
0.0
 10
5.2524114774
 20
3.0113530192
 30
0.0
 10
5.2618213708
 20
3.0185352534
 30
0.0
 10
5.2744719662
 20
3.0219249702
 30
0.0
  0
SPLINE
  5
2EB
100
AcDbEntity
  8
0
100
AcDbSpline
 62
7
  6
CONTINUOUS
 70
0
 71
3
 72
8
 73
4
 74
0
 42
0.0000001
 43
0.0000001
 44
0.0000000001
 40
0.0
 40
0.0
 40
0.0
 40
0.0
 40
1.0
 40
1.0
 40
1.0
 40
1.0
 10
5.2428869311
 20
2.9622982388
 30
0.0
 10
5.2390470166
 20
2.976628995
 30
0.0
 10
5.2400995807
 20
2.9893046814
 30
0.0
 10
5.2462376656
 20
3.0002968601
 30
0.0
  0
SPLINE
  5
2EC
100
AcDbEntity
  8
0
100
AcDbSpline
 62
7
  6
CONTINUOUS
 70
0
 71
3
 72
8
 73
4
 74
0
 42
0.0000001
 43
0.0000001
 44
0.0000000001
 40
0.0
 40
0.0
 40
0.0
 40
0.0
 40
1.0
 40
1.0
 40
1.0
 40
1.0
 10
5.2648056442
 20
2.9310954091
 30
0.0
 10
5.2539497539
 20
2.9376151314
 30
0.0
 10
5.2467003628
 20
2.948066318
 30
0.0
 10
5.2428869311
 20
2.9622982388
 30
0.0
  0
SPLINE
  5
2ED
100
AcDbEntity
  8
0
100
AcDbSpline
 62
7
  6
CONTINUOUS
 70
0
 71
3
 72
8
 73
4
 74
0
 42
0.0000001
 43
0.0000001
 44
0.0000000001
 40
0.0
 40
0.0
 40
0.0
 40
0.0
 40
1.0
 40
1.0
 40
1.0
 40
1.0
 10
5.302225242
 20
3.0009725566
 30
0.0
 10
5.2952076065
 20
3.0050241912
 30
0.0
 10
5.2875742916
 20
3.0058389248
 30
0.0
 10
5.279272336
 20
3.0036144224
 30
0.0
  0
SPLINE
  5
2EE
100
AcDbEntity
  8
0
100
AcDbSpline
 62
7
  6
CONTINUOUS
 70
0
 71
3
 72
8
 73
4
 74
0
 42
0.0000001
 43
0.0000001
 44
0.0000000001
 40
0.0
 40
0.0
 40
0.0
 40
0.0
 40
1.0
 40
1.0
 40
1.0
 40
1.0
 10
5.3161149333
 20
2.982343339
 30
0.0
 10
5.3138639493
 20
2.9907441255
 30
0.0
 10
5.3092428789
 20
2.9969209211
 30
0.0
 10
5.302225242
 20
3.0009725566
 30
0.0
  0
SPLINE
  5
2EF
100
AcDbEntity
  8
0
100
AcDbSpline
 62
7
  6
CONTINUOUS
 70
0
 71
3
 72
8
 73
4
 74
0
 42
0.0000001
 43
0.0000001
 44
0.0000000001
 40
0.0
 40
0.0
 40
0.0
 40
0.0
 40
1.0
 40
1.0
 40
1.0
 40
1.0
 10
5.3134023596
 20
2.9587624445
 30
0.0
 10
5.3174329659
 20
2.9659597764
 30
0.0
 10
5.3183924001
 20
2.9738437171
 30
0.0
 10
5.3161149333
 20
2.982343339
 30
0.0
  0
SPLINE
  5
2F0
100
AcDbEntity
  8
0
100
AcDbSpline
 62
7
  6
CONTINUOUS
 70
0
 71
3
 72
8
 73
4
 74
0
 42
0.0000001
 43
0.0000001
 44
0.0000000001
 40
0.0
 40
0.0
 40
0.0
 40
0.0
 40
1.0
 40
1.0
 40
1.0
 40
1.0
 10
5.2944891909
 20
2.9444523522
 30
0.0
 10
5.3029888127
 20
2.946729819
 30
0.0
 10
5.3093367929
 20
2.951502685
 30
0.0
 10
5.3134023596
 20
2.9587624445
 30
0.0
  0
SPLINE
  5
2F1
100
AcDbEntity
  8
0
100
AcDbSpline
 62
7
  6
CONTINUOUS
 70
0
 71
3
 72
8
 73
4
 74
0
 42
0.0000001
 43
0.0000001
 44
0.0000000001
 40
0.0
 40
0.0
 40
0.0
 40
0.0
 40
1.0
 40
1.0
 40
1.0
 40
1.0
 10
5.2713927309
 20
2.9471351417
 30
0.0
 10
5.2783297762
 20
2.9430884532
 30
0.0
 10
5.2859895733
 20
2.9421748866
 30
0.0
 10
5.2944891909
 20
2.9444523522
 30
0.0
  0
SPLINE
  5
2F2
100
AcDbEntity
  8
0
100
AcDbSpline
 62
7
  6
CONTINUOUS
 70
0
 71
3
 72
8
 73
4
 74
0
 42
0.0000001
 43
0.0000001
 44
0.0000000001
 40
0.0
 40
0.0
 40
0.0
 40
0.0
 40
1.0
 40
1.0
 40
1.0
 40
1.0
 10
5.2575671484
 20
2.9660199332
 30
0.0
 10
5.2598446141
 20
2.9575203156
 30
0.0
 10
5.2643933343
 20
2.9512182025
 30
0.0
 10
5.2713927309
 20
2.9471351417
 30
0.0
  0
SPLINE
  5
2F3
100
AcDbEntity
  8
0
100
AcDbSpline
 62
7
  6
CONTINUOUS
 70
0
 71
3
 72
8
 73
4
 74
0
 42
0.0000001
 43
0.0000001
 44
0.0000000001
 40
0.0
 40
0.0
 40
0.0
 40
0.0
 40
1.0
 40
1.0
 40
1.0
 40
1.0
 10
5.2573168915
 20
2.982371821
 30
0.0
 10
5.2560183833
 20
2.9769393124
 30
0.0
 10
5.2560841469
 20
2.9715545703
 30
0.0
 10
5.2575671484
 20
2.9660199332
 30
0.0
  0
SPLINE
  5
2F4
100
AcDbEntity
  8
0
100
AcDbSpline
 62
7
  6
CONTINUOUS
 70
0
 71
3
 72
8
 73
4
 74
0
 42
0.0000001
 43
0.0000001
 44
0.0000000001
 40
0.0
 40
0.0
 40
0.0
 40
0.0
 40
1.0
 40
1.0
 40
1.0
 40
1.0
 10
5.2654996071
 20
2.9961105989
 30
0.0
 10
5.2613912052
 20
2.992467468
 30
0.0
 10
5.2586154003
 20
2.9878043314
 30
0.0
 10
5.2573168915
 20
2.982371821
 30
0.0
  0
SPLINE
  5
2F5
100
AcDbEntity
  8
0
100
AcDbSpline
 62
7
  6
CONTINUOUS
 70
0
 71
3
 72
8
 73
4
 74
0
 42
0.0000001
 43
0.0000001
 44
0.0000000001
 40
0.0
 40
0.0
 40
0.0
 40
0.0
 40
1.0
 40
1.0
 40
1.0
 40
1.0
 10
5.279272336
 20
3.0036144224
 30
0.0
 10
5.2741330314
 20
3.0022373499
 30
0.0
 10
5.2696080098
 20
2.9997537305
 30
0.0
 10
5.2654996071
 20
2.9961105989
 30
0.0
  0
SPLINE
  5
2F6
100
AcDbEntity
  8
0
100
AcDbSpline
 62
7
  6
CONTINUOUS
 70
0
 71
3
 72
8
 73
4
 74
0
 42
0.0000001
 43
0.0000001
 44
0.0000000001
 40
0.0
 40
0.0
 40
0.0
 40
0.0
 40
1.0
 40
1.0
 40
1.0
 40
1.0
 10
5.3477181019
 20
3.015810546
 30
0.0
 10
5.3407998055
 20
3.013956794
 30
0.0
 10
5.3358477757
 20
3.0102994726
 30
0.0
 10
5.3326595318
 20
3.0047045044
 30
0.0
  0
SPLINE
  5
2F7
100
AcDbEntity
  8
0
100
AcDbSpline
 62
7
  6
CONTINUOUS
 70
0
 71
3
 72
8
 73
4
 74
0
 42
0.0000001
 43
0.0000001
 44
0.0000000001
 40
0.0
 40
0.0
 40
0.0
 40
0.0
 40
1.0
 40
1.0
 40
1.0
 40
1.0
 10
5.365152684
 20
3.0133046446
 30
0.0
 10
5.3595676453
 20
3.0166551925
 30
0.0
 10
5.3537469024
 20
3.0174259582
 30
0.0
 10
5.3477181019
 20
3.015810546
 30
0.0
  0
SPLINE
  5
2F8
100
AcDbEntity
  8
0
100
AcDbSpline
 62
7
  6
CONTINUOUS
 70
0
 71
3
 72
8
 73
4
 74
0
 42
0.0000001
 43
0.0000001
 44
0.0000000001
 40
0.0
 40
0.0
 40
0.0
 40
0.0
 40
1.0
 40
1.0
 40
1.0
 40
1.0
 10
5.3761858873
 20
2.9981215178
 30
0.0
 10
5.3743586182
 20
3.0049409789
 30
0.0
 10
5.3706748109
 20
3.0099918386
 30
0.0
 10
5.365152684
 20
3.0133046446
 30
0.0
  0
SPLINE
  5
2F9
100
AcDbEntity
  8
0
100
AcDbSpline
 62
7
  6
CONTINUOUS
 70
0
 71
3
 72
8
 73
4
 74
0
 42
0.0000001
 43
0.0000001
 44
0.0000000001
 40
0.0
 40
0.0
 40
0.0
 40
0.0
 40
1.0
 40
1.0
 40
1.0
 40
1.0
 10
5.373967225
 20
2.9795191538
 30
0.0
 10
5.3771965212
 20
2.9852571605
 30
0.0
 10
5.3779866748
 20
2.9914008877
 30
0.0
 10
5.3761858873
 20
2.9981215178
 30
0.0
  0
SPLINE
  5
2FA
100
AcDbEntity
  8
0
100
AcDbSpline
 62
7
  6
CONTINUOUS
 70
0
 71
3
 72
8
 73
4
 74
0
 42
0.0000001
 43
0.0000001
 44
0.0000000001
 40
0.0
 40
0.0
 40
0.0
 40
0.0
 40
1.0
 40
1.0
 40
1.0
 40
1.0
 10
5.3593882504
 20
2.9683036517
 30
0.0
 10
5.3659112143
 20
2.9700514746
 30
0.0
 10
5.3707379303
 20
2.9737811496
 30
0.0
 10
5.373967225
 20
2.9795191538
 30
0.0
  0
SPLINE
  5
2FB
100
AcDbEntity
  8
0
100
AcDbSpline
 62
7
  6
CONTINUOUS
 70
0
 71
3
 72
8
 73
4
 74
0
 42
0.0000001
 43
0.0000001
 44
0.0000000001
 40
0.0
 40
0.0
 40
0.0
 40
0.0
 40
1.0
 40
1.0
 40
1.0
 40
1.0
 10
5.3417018677
 20
2.9706618169
 30
0.0
 10
5.3472157227
 20
2.9674783931
 30
0.0
 10
5.3530629484
 20
2.9666087922
 30
0.0
 10
5.3593882504
 20
2.9683036517
 30
0.0
  0
SPLINE
  5
2FC
100
AcDbEntity
  8
0
100
AcDbSpline
 62
7
  6
CONTINUOUS
 70
0
 71
3
 72
8
 73
4
 74
0
 42
0.0000001
 43
0.0000001
 44
0.0000000001
 40
0.0
 40
0.0
 40
0.0
 40
0.0
 40
1.0
 40
1.0
 40
1.0
 40
1.0
 10
5.3307757664
 20
2.9857420546
 30
0.0
 10
5.3326030366
 20
2.9789225892
 30
0.0
 10
5.3361880044
 20
2.9738452455
 30
0.0
 10
5.3417018677
 20
2.9706618169
 30
0.0
  0
SPLINE
  5
2FD
100
AcDbEntity
  8
0
100
AcDbSpline
 62
7
  6
CONTINUOUS
 70
0
 71
3
 72
8
 73
4
 74
0
 42
0.0000001
 43
0.0000001
 44
0.0000000001
 40
0.0
 40
0.0
 40
0.0
 40
0.0
 40
1.0
 40
1.0
 40
1.0
 40
1.0
 10
5.3326595318
 20
3.0047045044
 30
0.0
 10
5.3295074092
 20
2.9991729246
 30
0.0
 10
5.3288690511
 20
2.9928580129
 30
0.0
 10
5.3307757664
 20
2.9857420546
 30
0.0
  0
SPLINE
  5
2FE
100
AcDbEntity
  8
0
100
AcDbSpline
 62
7
  6
CONTINUOUS
 70
0
 71
3
 72
8
 73
4
 74
0
 42
0.0000001
 43
0.0000001
 44
0.0000000001
 40
0.0
 40
0.0
 40
0.0
 40
0.0
 40
1.0
 40
1.0
 40
1.0
 40
1.0
 10
5.3007348059
 20
2.9080974717
 30
0.0
 10
5.2887973279
 20
2.903627686
 30
0.0
 10
5.2802840255
 20
2.8962619794
 30
0.0
 10
5.275160697
 20
2.8860175202
 30
0.0
  0
SPLINE
  5
2FF
100
AcDbEntity
  8
0
100
AcDbSpline
 62
7
  6
CONTINUOUS
 70
0
 71
3
 72
8
 73
4
 74
0
 42
0.0000001
 43
0.0000001
 44
0.0000000001
 40
0.0
 40
0.0
 40
0.0
 40
0.0
 40
1.0
 40
1.0
 40
1.0
 40
1.0
 10
5.275160697
 20
2.8860175202
 30
0.0
 10
5.2700069441
 20
2.8757122253
 30
0.0
 10
5.2692366866
 20
2.8639596125
 30
0.0
 10
5.2727852958
 20
2.8507160227
 30
0.0
  0
SPLINE
  5
300
100
AcDbEntity
  8
0
100
AcDbSpline
 62
7
  6
CONTINUOUS
 70
0
 71
3
 72
8
 73
4
 74
0
 42
0.0000001
 43
0.0000001
 44
0.0000000001
 40
0.0
 40
0.0
 40
0.0
 40
0.0
 40
1.0
 40
1.0
 40
1.0
 40
1.0
 10
5.2727852958
 20
2.8507160227
 30
0.0
 10
5.2770754104
 20
2.8347050972
 30
0.0
 10
5.2863227414
 20
2.8235181274
 30
0.0
 10
5.3005524252
 20
2.8173317804
 30
0.0
  0
SPLINE
  5
301
100
AcDbEntity
  8
0
100
AcDbSpline
 62
7
  6
CONTINUOUS
 70
0
 71
3
 72
8
 73
4
 74
0
 42
0.0000001
 43
0.0000001
 44
0.0000000001
 40
0.0
 40
0.0
 40
0.0
 40
0.0
 40
1.0
 40
1.0
 40
1.0
 40
1.0
 10
5.3005524252
 20
2.8173317804
 30
0.0
 10
5.312100246
 20
2.8123113718
 30
0.0
 10
5.3244988212
 20
2.8115023448
 30
0.0
 10
5.3376435843
 20
2.8150244734
 30
0.0
  0
SPLINE
  5
302
100
AcDbEntity
  8
0
100
AcDbSpline
 62
7
  6
CONTINUOUS
 70
0
 71
3
 72
8
 73
4
 74
0
 42
0.0000001
 43
0.0000001
 44
0.0000000001
 40
0.0
 40
0.0
 40
0.0
 40
0.0
 40
1.0
 40
1.0
 40
1.0
 40
1.0
 10
5.3376435843
 20
2.8150244734
 30
0.0
 10
5.3513813417
 20
2.8187054944
 30
0.0
 10
5.3614830653
 20
2.8260731104
 30
0.0
 10
5.3679175334
 20
2.8371453878
 30
0.0
  0
SPLINE
  5
303
100
AcDbEntity
  8
0
100
AcDbSpline
 62
7
  6
CONTINUOUS
 70
0
 71
3
 72
8
 73
4
 74
0
 42
0.0000001
 43
0.0000001
 44
0.0000000001
 40
0.0
 40
0.0
 40
0.0
 40
0.0
 40
1.0
 40
1.0
 40
1.0
 40
1.0
 10
5.3679175334
 20
2.8371453878
 30
0.0
 10
5.3743156012
 20
2.8481550286
 30
0.0
 10
5.3759030088
 20
2.8600206602
 30
0.0
 10
5.3725132896
 20
2.8726712642
 30
0.0
  0
SPLINE
  5
304
100
AcDbEntity
  8
0
100
AcDbSpline
 62
7
  6
CONTINUOUS
 70
0
 71
3
 72
8
 73
4
 74
0
 42
0.0000001
 43
0.0000001
 44
0.0000000001
 40
0.0
 40
0.0
 40
0.0
 40
0.0
 40
1.0
 40
1.0
 40
1.0
 40
1.0
 10
5.3725132896
 20
2.8726712642
 30
0.0
 10
5.3699445209
 20
2.8822580395
 30
0.0
 10
5.3644443405
 20
2.8905297119
 30
0.0
 10
5.3560851087
 20
2.8976115878
 30
0.0
  0
SPLINE
  5
305
100
AcDbEntity
  8
0
100
AcDbSpline
 62
7
  6
CONTINUOUS
 70
0
 71
3
 72
8
 73
4
 74
0
 42
0.0000001
 43
0.0000001
 44
0.0000000001
 40
0.0
 40
0.0
 40
0.0
 40
0.0
 40
1.0
 40
1.0
 40
1.0
 40
1.0
 10
5.3344227371
 20
2.8958324614
 30
0.0
 10
5.339262248
 20
2.8943750547
 30
0.0
 10
5.3436024034
 20
2.8916186433
 30
0.0
 10
5.3474345746
 20
2.8876794877
 30
0.0
  0
SPLINE
  5
306
100
AcDbEntity
  8
0
100
AcDbSpline
 62
7
  6
CONTINUOUS
 70
0
 71
3
 72
8
 73
4
 74
0
 42
0.0000001
 43
0.0000001
 44
0.0000000001
 40
0.0
 40
0.0
 40
0.0
 40
0.0
 40
1.0
 40
1.0
 40
1.0
 40
1.0
 10
5.3474345746
 20
2.8876794877
 30
0.0
 10
5.35120455
 20
2.8838042643
 30
0.0
 10
5.3539917658
 20
2.8789368704
 30
0.0
 10
5.3555277307
 20
2.8732045714
 30
0.0
  0
SPLINE
  5
307
100
AcDbEntity
  8
0
100
AcDbSpline
 62
7
  6
CONTINUOUS
 70
0
 71
3
 72
8
 73
4
 74
0
 42
0.0000001
 43
0.0000001
 44
0.0000000001
 40
0.0
 40
0.0
 40
0.0
 40
0.0
 40
1.0
 40
1.0
 40
1.0
 40
1.0
 10
5.3555277307
 20
2.8732045714
 30
0.0
 10
5.3579905727
 20
2.8640131199
 30
0.0
 10
5.3570117549
 20
2.855806196
 30
0.0
 10
5.3526859254
 20
2.8485297598
 30
0.0
  0
SPLINE
  5
308
100
AcDbEntity
  8
0
100
AcDbSpline
 62
7
  6
CONTINUOUS
 70
0
 71
3
 72
8
 73
4
 74
0
 42
0.0000001
 43
0.0000001
 44
0.0000000001
 40
0.0
 40
0.0
 40
0.0
 40
0.0
 40
1.0
 40
1.0
 40
1.0
 40
1.0
 10
5.3526859254
 20
2.8485297598
 30
0.0
 10
5.3483225808
 20
2.8411902198
 30
0.0
 10
5.3410851048
 20
2.8361790141
 30
0.0
 10
5.3310041618
 20
2.8334778336
 30
0.0
  0
SPLINE
  5
309
100
AcDbEntity
  8
0
100
AcDbSpline
 62
7
  6
CONTINUOUS
 70
0
 71
3
 72
8
 73
4
 74
0
 42
0.0000001
 43
0.0000001
 44
0.0000000001
 40
0.0
 40
0.0
 40
0.0
 40
0.0
 40
1.0
 40
1.0
 40
1.0
 40
1.0
 10
5.3310041618
 20
2.8334778336
 30
0.0
 10
5.32033022
 20
2.8306177595
 30
0.0
 10
5.3109373009
 20
2.8312787909
 30
0.0
 10
5.3029083514
 20
2.8354567319
 30
0.0
  0
SPLINE
  5
30A
100
AcDbEntity
  8
0
100
AcDbSpline
 62
7
  6
CONTINUOUS
 70
0
 71
3
 72
8
 73
4
 74
0
 42
0.0000001
 43
0.0000001
 44
0.0000000001
 40
0.0
 40
0.0
 40
0.0
 40
0.0
 40
1.0
 40
1.0
 40
1.0
 40
1.0
 10
5.3029083514
 20
2.8354567319
 30
0.0
 10
5.2948123451
 20
2.8396695664
 30
0.0
 10
5.2896900189
 20
2.8461357485
 30
0.0
 10
5.2874125486
 20
2.8546353833
 30
0.0
  0
SPLINE
  5
30B
100
AcDbEntity
  8
0
100
AcDbSpline
 62
7
  6
CONTINUOUS
 70
0
 71
3
 72
8
 73
4
 74
0
 42
0.0000001
 43
0.0000001
 44
0.0000000001
 40
0.0
 40
0.0
 40
0.0
 40
0.0
 40
1.0
 40
1.0
 40
1.0
 40
1.0
 10
5.2874125486
 20
2.8546353833
 30
0.0
 10
5.2855058356
 20
2.8617513329
 30
0.0
 10
5.2861370946
 20
2.8684880631
 30
0.0
 10
5.2893328115
 20
2.8747467083
 30
0.0
  0
SPLINE
  5
30C
100
AcDbEntity
  8
0
100
AcDbSpline
 62
7
  6
CONTINUOUS
 70
0
 71
3
 72
8
 73
4
 74
0
 42
0.0000001
 43
0.0000001
 44
0.0000000001
 40
0.0
 40
0.0
 40
0.0
 40
0.0
 40
1.0
 40
1.0
 40
1.0
 40
1.0
 10
5.2893328115
 20
2.8747467083
 30
0.0
 10
5.2925285325
 20
2.8810053613
 30
0.0
 10
5.2985993969
 20
2.8860217637
 30
0.0
 10
5.3073212628
 20
2.8898417821
 30
0.0
  0
SPLINE
  5
30D
100
AcDbEntity
  8
0
100
AcDbSpline
 62
7
  6
CONTINUOUS
 70
0
 71
3
 72
8
 73
4
 74
0
 42
0.0000001
 43
0.0000001
 44
0.0000000001
 40
0.0
 40
0.0
 40
0.0
 40
0.0
 40
1.0
 40
1.0
 40
1.0
 40
1.0
 10
5.1190675579
 20
2.101842303
 30
0.0
 10
5.109194202
 20
2.1087557013
 30
0.0
 10
5.1022999122
 20
2.117404686
 30
0.0
 10
5.0983676387
 20
2.1276801062
 30
0.0
  0
SPLINE
  5
30E
100
AcDbEntity
  8
0
100
AcDbSpline
 62
7
  6
CONTINUOUS
 70
0
 71
3
 72
8
 73
4
 74
0
 42
0.0000001
 43
0.0000001
 44
0.0000000001
 40
0.0
 40
0.0
 40
0.0
 40
0.0
 40
1.0
 40
1.0
 40
1.0
 40
1.0
 10
5.1486212532
 20
2.0921908389
 30
0.0
 10
5.1384467121
 20
2.0919479442
 30
0.0
 10
5.128594345
 20
2.0951715749
 30
0.0
 10
5.1190675579
 20
2.101842303
 30
0.0
  0
SPLINE
  5
30F
100
AcDbEntity
  8
0
100
AcDbSpline
 62
7
  6
CONTINUOUS
 70
0
 71
3
 72
8
 73
4
 74
0
 42
0.0000001
 43
0.0000001
 44
0.0000000001
 40
0.0
 40
0.0
 40
0.0
 40
0.0
 40
1.0
 40
1.0
 40
1.0
 40
1.0
 10
3.5022161005
 20
2.8909859152
 30
0.0
 10
3.5074322444
 20
2.8858483763
 30
0.0
 10
3.5120817104
 20
2.8786356761
 30
0.0
 10
3.5162338919
 20
2.8692205244
 30
0.0
  0
SPLINE
  5
310
100
AcDbEntity
  8
0
100
AcDbSpline
 62
7
  6
CONTINUOUS
 70
0
 71
3
 72
8
 73
4
 74
0
 42
0.0000001
 43
0.0000001
 44
0.0000000001
 40
0.0
 40
0.0
 40
0.0
 40
0.0
 40
1.0
 40
1.0
 40
1.0
 40
1.0
 10
3.5162338919
 20
2.8692205244
 30
0.0
 10
3.520444373
 20
2.8596731771
 30
0.0
 10
3.5232087026
 20
2.8493075283
 30
0.0
 10
3.5246204991
 20
2.838090327
 30
0.0
  0
SPLINE
  5
311
100
AcDbEntity
  8
0
100
AcDbSpline
 62
7
  6
CONTINUOUS
 70
0
 71
3
 72
8
 73
4
 74
0
 42
0.0000001
 43
0.0000001
 44
0.0000000001
 40
0.0
 40
0.0
 40
0.0
 40
0.0
 40
1.0
 40
1.0
 40
1.0
 40
1.0
 10
3.5415526783
 20
2.8325887285
 30
0.0
 10
3.5413770826
 20
2.8386705332
 30
0.0
 10
3.5403523842
 20
2.8457813195
 30
0.0
 10
3.5385215582
 20
2.85393062
 30
0.0
  0
SPLINE
  5
312
100
AcDbEntity
  8
0
100
AcDbSpline
 62
7
  6
CONTINUOUS
 70
0
 71
3
 72
8
 73
4
 74
0
 42
0.0000001
 43
0.0000001
 44
0.0000000001
 40
0.0
 40
0.0
 40
0.0
 40
0.0
 40
1.0
 40
1.0
 40
1.0
 40
1.0
 10
3.5385215582
 20
2.85393062
 30
0.0
 10
3.5367021191
 20
2.8620292358
 30
0.0
 10
3.5345145978
 20
2.8688723375
 30
0.0
 10
3.5318187287
 20
2.8744820115
 30
0.0
  0
SPLINE
  5
313
100
AcDbEntity
  8
0
100
AcDbSpline
 62
7
  6
CONTINUOUS
 70
0
 71
3
 72
8
 73
4
 74
0
 42
0.0000001
 43
0.0000001
 44
0.0000000001
 40
0.0
 40
0.0
 40
0.0
 40
0.0
 40
1.0
 40
1.0
 40
1.0
 40
1.0
 10
3.5382294387
 20
3.0018235735
 30
0.0
 10
3.543445584
 20
2.9966860388
 30
0.0
 10
3.5480950486
 20
2.9894733344
 30
0.0
 10
3.5522472301
 20
2.9800581826
 30
0.0
  0
SPLINE
  5
314
100
AcDbEntity
  8
0
100
AcDbSpline
 62
7
  6
CONTINUOUS
 70
0
 71
3
 72
8
 73
4
 74
0
 42
0.0000001
 43
0.0000001
 44
0.0000000001
 40
0.0
 40
0.0
 40
0.0
 40
0.0
 40
1.0
 40
1.0
 40
1.0
 40
1.0
 10
3.5522472301
 20
2.9800581826
 30
0.0
 10
3.5564577113
 20
2.9705108353
 30
0.0
 10
3.5592220402
 20
2.9601451845
 30
0.0
 10
3.5606338373
 20
2.9489279853
 30
0.0
  0
SPLINE
  5
315
100
AcDbEntity
  8
0
100
AcDbSpline
 62
7
  6
CONTINUOUS
 70
0
 71
3
 72
8
 73
4
 74
0
 42
0.0000001
 43
0.0000001
 44
0.0000000001
 40
0.0
 40
0.0
 40
0.0
 40
0.0
 40
1.0
 40
1.0
 40
1.0
 40
1.0
 10
3.5775660165
 20
2.9434263867
 30
0.0
 10
3.5773904208
 20
2.9495081914
 30
0.0
 10
3.5763657245
 20
2.9566189842
 30
0.0
 10
3.5745348959
 20
2.9647682782
 30
0.0
  0
SPLINE
  5
316
100
AcDbEntity
  8
0
100
AcDbSpline
 62
7
  6
CONTINUOUS
 70
0
 71
3
 72
8
 73
4
 74
0
 42
0.0000001
 43
0.0000001
 44
0.0000000001
 40
0.0
 40
0.0
 40
0.0
 40
0.0
 40
1.0
 40
1.0
 40
1.0
 40
1.0
 10
3.5745348959
 20
2.9647682782
 30
0.0
 10
3.5727599866
 20
2.9726686668
 30
0.0
 10
3.5706348
 20
2.9793742726
 30
0.0
 10
3.5680291037
 20
2.9849055481
 30
0.0
  0
SPLINE
  5
317
100
AcDbEntity
  8
0
100
AcDbSpline
 62
7
  6
CONTINUOUS
 70
0
 71
3
 72
8
 73
4
 74
0
 42
0.0000001
 43
0.0000001
 44
0.0000000001
 40
0.0
 40
0.0
 40
0.0
 40
0.0
 40
1.0
 40
1.0
 40
1.0
 40
1.0
 10
3.6407749585
 20
3.0522055016
 30
0.0
 10
3.6375099637
 20
3.0560635723
 30
0.0
 10
3.6353712552
 20
3.06073912
 30
0.0
 10
3.6343027395
 20
3.0661299229
 30
0.0
  0
SPLINE
  5
318
100
AcDbEntity
  8
0
100
AcDbSpline
 62
7
  6
CONTINUOUS
 70
0
 71
3
 72
8
 73
4
 74
0
 42
0.0000001
 43
0.0000001
 44
0.0000000001
 40
0.0
 40
0.0
 40
0.0
 40
0.0
 40
1.0
 40
1.0
 40
1.0
 40
1.0
 10
3.6343027395
 20
3.0661299229
 30
0.0
 10
3.6332515688
 20
3.0714332184
 30
0.0
 10
3.6335649856
 20
3.0770333849
 30
0.0
 10
3.6353988509
 20
3.0826774418
 30
0.0
  0
SPLINE
  5
319
100
AcDbEntity
  8
0
100
AcDbSpline
 62
7
  6
CONTINUOUS
 70
0
 71
3
 72
8
 73
4
 74
0
 42
0.0000001
 43
0.0000001
 44
0.0000000001
 40
0.0
 40
0.0
 40
0.0
 40
0.0
 40
1.0
 40
1.0
 40
1.0
 40
1.0
 10
3.6353988509
 20
3.0826774418
 30
0.0
 10
3.6383393611
 20
3.0917274016
 30
0.0
 10
3.6436300834
 20
3.0980772217
 30
0.0
 10
3.6512210605
 20
3.101823739
 30
0.0
  0
SPLINE
  5
31A
100
AcDbEntity
  8
0
100
AcDbSpline
 62
7
  6
CONTINUOUS
 70
0
 71
3
 72
8
 73
4
 74
0
 42
0.0000001
 43
0.0000001
 44
0.0000000001
 40
0.0
 40
0.0
 40
0.0
 40
0.0
 40
1.0
 40
1.0
 40
1.0
 40
1.0
 10
3.6512210605
 20
3.101823739
 30
0.0
 10
3.6588778692
 20
3.1056027474
 30
0.0
 10
3.66767702
 20
3.1058636692
 30
0.0
 10
3.6776027786
 20
3.1026385947
 30
0.0
  0
SPLINE
  5
31B
100
AcDbEntity
  8
0
100
AcDbSpline
 62
7
  6
CONTINUOUS
 70
0
 71
3
 72
8
 73
4
 74
0
 42
0.0000001
 43
0.0000001
 44
0.0000000001
 40
0.0
 40
0.0
 40
0.0
 40
0.0
 40
1.0
 40
1.0
 40
1.0
 40
1.0
 10
3.6776027786
 20
3.1026385947
 30
0.0
 10
3.6881124073
 20
3.0992238093
 30
0.0
 10
3.6956299541
 20
3.0935536883
 30
0.0
 10
3.7000881343
 20
3.0856768687
 30
0.0
  0
SPLINE
  5
31C
100
AcDbEntity
  8
0
100
AcDbSpline
 62
7
  6
CONTINUOUS
 70
0
 71
3
 72
8
 73
4
 74
0
 42
0.0000001
 43
0.0000001
 44
0.0000000001
 40
0.0
 40
0.0
 40
0.0
 40
0.0
 40
1.0
 40
1.0
 40
1.0
 40
1.0
 10
3.7000881343
 20
3.0856768687
 30
0.0
 10
3.7045835306
 20
3.0777342945
 30
0.0
 10
3.7053577397
 20
3.0695214791
 30
0.0
 10
3.7026385596
 20
3.0611527033
 30
0.0
  0
SPLINE
  5
31D
100
AcDbEntity
  8
0
100
AcDbSpline
 62
7
  6
CONTINUOUS
 70
0
 71
3
 72
8
 73
4
 74
0
 42
0.0000001
 43
0.0000001
 44
0.0000000001
 40
0.0
 40
0.0
 40
0.0
 40
0.0
 40
1.0
 40
1.0
 40
1.0
 40
1.0
 10
3.7026385596
 20
3.0611527033
 30
0.0
 10
3.7003620342
 20
3.0541462785
 30
0.0
 10
3.6961635297
 20
3.0488401894
 30
0.0
 10
3.690074675
 20
3.0453317575
 30
0.0
  0
SPLINE
  5
31E
100
AcDbEntity
  8
0
100
AcDbSpline
 62
7
  6
CONTINUOUS
 70
0
 71
3
 72
8
 73
4
 74
0
 42
0.0000001
 43
0.0000001
 44
0.0000000001
 40
0.0
 40
0.0
 40
0.0
 40
0.0
 40
1.0
 40
1.0
 40
1.0
 40
1.0
 10
3.690074675
 20
3.0453317575
 30
0.0
 10
3.6839858068
 20
3.0418233179
 30
0.0
 10
3.6761622257
 20
3.0409226472
 30
0.0
 10
3.6667669251
 20
3.0424691872
 30
0.0
  0
SPLINE
  5
31F
100
AcDbEntity
  8
0
100
AcDbSpline
 62
7
  6
CONTINUOUS
 70
0
 71
3
 72
8
 73
4
 74
0
 42
0.0000001
 43
0.0000001
 44
0.0000000001
 40
0.0
 40
0.0
 40
0.0
 40
0.0
 40
1.0
 40
1.0
 40
1.0
 40
1.0
 10
3.6623480287
 20
3.0235714276
 30
0.0
 10
3.6747940628
 20
3.0208184974
 30
0.0
 10
3.6859455702
 20
3.0223592219
 30
0.0
 10
3.6958218874
 20
3.0281605836
 30
0.0
  0
SPLINE
  5
320
100
AcDbEntity
  8
0
100
AcDbSpline
 62
7
  6
CONTINUOUS
 70
0
 71
3
 72
8
 73
4
 74
0
 42
0.0000001
 43
0.0000001
 44
0.0000000001
 40
0.0
 40
0.0
 40
0.0
 40
0.0
 40
1.0
 40
1.0
 40
1.0
 40
1.0
 10
3.6958218874
 20
3.0281605836
 30
0.0
 10
3.7057568542
 20
3.0339963962
 30
0.0
 10
3.7128037754
 20
3.0434334458
 30
0.0
 10
3.7170406427
 20
3.0564731828
 30
0.0
  0
SPLINE
  5
321
100
AcDbEntity
  8
0
100
AcDbSpline
 62
7
  6
CONTINUOUS
 70
0
 71
3
 72
8
 73
4
 74
0
 42
0.0000001
 43
0.0000001
 44
0.0000000001
 40
0.0
 40
0.0
 40
0.0
 40
0.0
 40
1.0
 40
1.0
 40
1.0
 40
1.0
 10
3.7170406427
 20
3.0564731828
 30
0.0
 10
3.7221628139
 20
3.0722376047
 30
0.0
 10
3.7205002155
 20
3.0866562615
 30
0.0
 10
3.7119355181
 20
3.0995946056
 30
0.0
  0
SPLINE
  5
322
100
AcDbEntity
  8
0
100
AcDbSpline
 62
7
  6
CONTINUOUS
 70
0
 71
3
 72
8
 73
4
 74
0
 42
0.0000001
 43
0.0000001
 44
0.0000000001
 40
0.0
 40
0.0
 40
0.0
 40
0.0
 40
1.0
 40
1.0
 40
1.0
 40
1.0
 10
3.7119355181
 20
3.0995946056
 30
0.0
 10
3.7049850121
 20
3.1100944557
 30
0.0
 10
3.6950273197
 20
3.117525711
 30
0.0
 10
3.6820849051
 20
3.1217309564
 30
0.0
  0
SPLINE
  5
323
100
AcDbEntity
  8
0
100
AcDbSpline
 62
7
  6
CONTINUOUS
 70
0
 71
3
 72
8
 73
4
 74
0
 42
0.0000001
 43
0.0000001
 44
0.0000000001
 40
0.0
 40
0.0
 40
0.0
 40
0.0
 40
1.0
 40
1.0
 40
1.0
 40
1.0
 10
3.6820849051
 20
3.1217309564
 30
0.0
 10
3.6685586245
 20
3.1261259114
 30
0.0
 10
3.6560739205
 20
3.1254487187
 30
0.0
 10
3.6446471128
 20
3.1196671879
 30
0.0
  0
SPLINE
  5
324
100
AcDbEntity
  8
0
100
AcDbSpline
 62
7
  6
CONTINUOUS
 70
0
 71
3
 72
8
 73
4
 74
0
 42
0.0000001
 43
0.0000001
 44
0.0000000001
 40
0.0
 40
0.0
 40
0.0
 40
0.0
 40
1.0
 40
1.0
 40
1.0
 40
1.0
 10
3.6446471128
 20
3.1196671879
 30
0.0
 10
3.6332849813
 20
3.1139183808
 30
0.0
 10
3.6254911776
 20
3.1048315719
 30
0.0
 10
3.6214440225
 20
3.0923757093
 30
0.0
  0
SPLINE
  5
325
100
AcDbEntity
  8
0
100
AcDbSpline
 62
7
  6
CONTINUOUS
 70
0
 71
3
 72
8
 73
4
 74
0
 42
0.0000001
 43
0.0000001
 44
0.0000000001
 40
0.0
 40
0.0
 40
0.0
 40
0.0
 40
1.0
 40
1.0
 40
1.0
 40
1.0
 10
3.6214440225
 20
3.0923757093
 30
0.0
 10
3.6183770412
 20
3.0829365113
 30
0.0
 10
3.6184848049
 20
3.0730036902
 30
0.0
 10
3.6216383833
 20
3.0625115739
 30
0.0
  0
ENDSEC
  0
SECTION
  2
OBJECTS
  0
DICTIONARY
  5
C
100
AcDbDictionary
280
0
281
1
  3
ACAD_GROUP
350
D
  3
ACAD_MLINESTYLE
350
17
  3
ACAD_LAYOUT
350
1A
  3
ACAD_PLOTSETTINGS
350
19
  3
ACAD_PLOTSTYLENAME
350
E
  0
DICTIONARY
  5
D
102
{ACAD_REACTORS
330
C
102
}
100
AcDbDictionary
280
0
281
1
  0
ACDBDICTIONARYWDFLT
  5
E
102
{ACAD_REACTORS
330
C
102
}
100
AcDbDictionary
281
1
  3
Normal
350
F
100
AcDbDictionaryWithDefault
340
F
  0
DICTIONARY
  5
17
102
{ACAD_REACTORS
330
C
102
}
100
AcDbDictionary
280
0
281
1
  3
Standard
350
18
  0
DICTIONARY
  5
19
102
{ACAD_REACTORS
330
C
102
}
100
AcDbDictionary
281
1
  0
DICTIONARY
  5
1A
102
{ACAD_REACTORS
330
C
102
}
100
AcDbDictionary
281
1
  3
Model
350
326
  3
Layout1
350
327
  0
ACDBPLACEHOLDER
  5
F
102
{ACAD_REACTORS
330
E
102
}
  0
MLINESTYLE
  5
18
102
{ACAD_REACTORS
330
17
102
}
100
AcDbMlineStyle
  2
STANDARD
 70
0
  3

 62
256
 51
90.0
 52
90.0
 71
2
 49
0.5
 62
256
  6
BYLAYER
 49
-0.5
 62
256
  6
BYLAYER
  0
LAYOUT
  5
326
102
{ACAD_REACTORS
330
1A
102
}
100
AcDbPlotSettings
  1

  2
none_device
  4
ANSI_A_(11.00_x_8.50_Inches)
  6

 40
0.0
 41
0.0
 42
0.0
 43
0.0
 44
279.4
 45
215.9
 46
0.0
 47
0.0
 48
0.0
 49
0.0
140
0.0
141
0.0
142
1.0
143
1.0
 70
1024
 72
0
 73
0
 74
0
  7

 75
0
147
1.0
148
0.0
149
0.0
100
AcDbLayout
  1
Model
 70
0
 71
0
 10
0.0
 20
0.0
 11
11.0
 21
8.5
 12
0.0
 22
0.0
 32
0.0
 14
0.0
 24
0.0
 34
0.0
 15
0.0
 25
0.0
 35
0.0
146
0.0
 13
0.0
 23
0.0
 33
0.0
 16
1.0
 26
0.0
 36
0.0
 17
0.0
 27
1.0
 37
0.0
 76
0
330
21B
345
0
346
0
  0
LAYOUT
  5
327
102
{ACAD_REACTORS
330
1A
102
}
100
AcDbPlotSettings
  1

  2
none_device
  4
ANSI_A_(11.00_x_8.50_Inches)
  6

 40
0.0
 41
0.0
 42
0.0
 43
0.0
 44
279.4
 45
215.9
 46
0.0
 47
0.0
 48
0.0
 49
0.0
140
0.0
141
0.0
142
1.0
143
1.0
 70
0
 72
0
 73
0
 74
0
  7

 75
0
147
1.0
148
0.0
149
0.0
100
AcDbLayout
  1
Layout1
 70
0
 71
1
 10
0.0
 20
0.0
 11
11.0
 21
8.5
 12
0.0
 22
0.0
 32
0.0
 14
0.0
 24
0.0
 34
0.0
 15
0.0
 25
0.0
 35
0.0
146
0.0
 13
0.0
 23
0.0
 33
0.0
 16
1.0
 26
0.0
 36
0.0
 17
0.0
 27
1.0
 37
0.0
 76
0
330
21C
345
0
346
0
  0
ENDSEC
  0
EOF
