999
DXF file: 3-1604tr_RIGHT.dxf
999
Pro/ENGINEER 2018400 by Parametric Technology Corporation
  0
SECTION
  2
HEADER
  9
$ACADVER
  1
AC1027
  9
$DWGCODEPAGE
  3
ANSI_1252
  9
$EXTMAX
 10
11.0
 20
8.5
 30
0.0
  9
$EXTMIN
 10
0.0
 20
0.0
 30
0.0
  9
$LIMMIN
 10
0.0
 20
0.0
  9
$LIMMAX
 10
11.0
 20
8.5
  9
$VIEWCTR
 10
5.5
 20
4.25
  9
$VIEWSIZE
 40
8.5
  9
$CLAYER
  8
0
  9
$LTSCALE
 40
0.605
  9
$CELTYPE
  6
BYLAYER
  9
$DIMSCALE
 40
1.0
  9
$DIMASZ
 40
0.1
  9
$DIMEXO
 40
0.0625
  9
$DIMDLI
 40
0.418
  9
$DIMEXE
 40
0.125
  9
$DIMCEN
 40
0.099
  9
$DIMLFAC
 40
1.0
  9
$DIMBLK
  1
_FILLED
  9
$DIMALT
 70
1
  9
$DIMALTD
 70
2
  9
$DIMALTTD
 70
2
  9
$DIMALTF
 40
25.4
  9
$DIMTXT
 40
0.08
  9
$DIMTOL
 70
1
  9
$DIMLIM
 70
0
  9
$DIMTFAC
 40
1.0
  9
$DIMTP
 40
0.001
  9
$DIMTM
 40
0.001
  9
$DIMGAP
 40
0.09
  9
$DIMDSEP
 70
46
  9
$AUNITS
 70
0
  9
$PDMODE
 70
3
  9
$PDSIZE
 40
0.3125
  9
$HANDSEED
  5
4B0
  9
$TILEMODE
 70
1
  9
$MEASUREMENT
 70
0
  9
$INSUNITS
 70
1
  0
ENDSEC
  0
SECTION
  2
CLASSES
  0
CLASS
  1
ACDBDICTIONARYWDFLT
  2
AcDbDictionaryWithDefault
  3
AutoCAD 2000
 90
0
 91
1
280
0
281
0
  0
CLASS
  1
ACDBPLACEHOLDER
  2
AcDbPlaceHolder
  3
AutoCAD 2000
 90
0
 91
1
280
0
281
0
  0
CLASS
  1
LAYOUT
  2
AcDbLayout
  3
AutoCAD 2000
 90
0
 91
0
280
0
281
0
  0
ENDSEC
  0
SECTION
  2
TABLES
  0
TABLE
  2
VPORT
  5
8
100
AcDbSymbolTable
 70
2
  0
VPORT
  5
1F4
100
AcDbSymbolTableRecord
100
AcDbViewportTableRecord
  2
*ACTIVE
 70
0
 10
0.0
 20
0.0
 11
1.0
 21
1.0
 12
5.5
 22
4.25
 13
0.0
 23
0.0
 14
1.0
 24
1.0
 15
0.0
 25
0.0
 16
0.0
 26
0.0
 36
1.0
 17
0.0
 27
0.0
 37
0.0
 40
8.5
 41
1.2941176471
 42
50.0
 43
0.0
 44
0.0
 50
0.0
 51
0.0
 71
0
 72
100
 73
1
 74
1
 75
0
 76
0
 77
0
 78
0
  0
ENDTAB
  0
TABLE
  2
LTYPE
  5
5
100
AcDbSymbolTable
 70
6
  0
LTYPE
  5
14
100
AcDbSymbolTableRecord
100
AcDbLinetypeTableRecord
  2
BYBLOCK
 70
0
  3

 72
65
 73
0
 40
0.0
  0
LTYPE
  5
15
100
AcDbSymbolTableRecord
100
AcDbLinetypeTableRecord
  2
BYLAYER
 70
0
  3

 72
65
 73
0
 40
0.0
  0
LTYPE
  5
16
100
AcDbSymbolTableRecord
100
AcDbLinetypeTableRecord
  2
CONTINUOUS
 70
64
  3
Solid line
 72
65
 73
0
 40
0.0
  0
LTYPE
  5
1F5
100
AcDbSymbolTableRecord
100
AcDbLinetypeTableRecord
  2
CENTER
 70
64
  3
____ _ ____ _ ____ _ ____ _ ____ _ ____ _ ____
 72
65
 73
4
 40
0.6
 49
0.375
 74
0
 49
-0.075
 74
0
 49
0.075
 74
0
 49
-0.075
 74
0
  0
LTYPE
  5
1F6
100
AcDbSymbolTableRecord
100
AcDbLinetypeTableRecord
  2
HIDDEN
 70
64
  3
- - - - - - - - - - - - - - - - - - - -
 72
65
 73
2
 40
0.2
 49
0.1
 74
0
 49
-0.1
 74
0
  0
LTYPE
  5
1F7
100
AcDbSymbolTableRecord
100
AcDbLinetypeTableRecord
  2
PHANTOM
 70
64
  3
_____ _ _ _____ _ _ _____ _ _ _____
 72
65
 73
6
 40
0.8
 49
0.45
 74
0
 49
-0.05
 74
0
 49
0.1
 74
0
 49
-0.05
 74
0
 49
0.1
 74
0
 49
-0.05
 74
0
  0
LTYPE
  5
1F8
100
AcDbSymbolTableRecord
100
AcDbLinetypeTableRecord
  2
DOT
 70
64
  3
. . . . . . . . . . . . . . . . . . . .
 72
65
 73
2
 40
0.2
 49
0.1
 74
0
 49
-0.1
 74
0
  0
LTYPE
  5
1F9
100
AcDbSymbolTableRecord
100
AcDbLinetypeTableRecord
  2
DASHED
 70
64
  3
- - - - - - - - - - - - - - - - - - - -
 72
65
 73
2
 40
0.2
 49
0.1
 74
0
 49
-0.1
 74
0
  0
ENDTAB
  0
TABLE
  2
LAYER
  5
2
100
AcDbSymbolTable
 70
36
  0
LAYER
  5
10
100
AcDbSymbolTableRecord
100
AcDbLayerTableRecord
  2
0
 70
0
 62
7
  6
CONTINUOUS
370
-3
390
F
  0
LAYER
  5
1FA
100
AcDbSymbolTableRecord
100
AcDbLayerTableRecord
  2
DEFAULT_1
 70
0
 62
7
  6
CENTER
370
-3
390
F
  0
LAYER
  5
1FB
100
AcDbSymbolTableRecord
100
AcDbLayerTableRecord
  2
DEFAULT_2
 70
0
 62
8
  6
HIDDEN
370
-3
390
F
  0
LAYER
  5
1FC
100
AcDbSymbolTableRecord
100
AcDbLayerTableRecord
  2
DEFAULT_3
 70
0
 62
7
  6
PHANTOM
370
-3
390
F
  0
LAYER
  5
1FD
100
AcDbSymbolTableRecord
100
AcDbLayerTableRecord
  2
ALL_ASSEMBLY_MEMBERS
 70
0
 62
7
  6
CONTINUOUS
370
-3
390
F
  0
LAYER
  5
1FE
100
AcDbSymbolTableRecord
100
AcDbLayerTableRecord
  2
ALL_FEATURES
 70
0
 62
7
  6
CONTINUOUS
370
-3
390
F
  0
LAYER
  5
1FF
100
AcDbSymbolTableRecord
100
AcDbLayerTableRecord
  2
AXES_FEATURES
 70
0
 62
7
  6
CONTINUOUS
370
-3
390
F
  0
LAYER
  5
200
100
AcDbSymbolTableRecord
100
AcDbLayerTableRecord
  2
CHAMFER_FEATURES
 70
0
 62
7
  6
CONTINUOUS
370
-3
390
F
  0
LAYER
  5
201
100
AcDbSymbolTableRecord
100
AcDbLayerTableRecord
  2
COORDINATE_SYSTEMS
 70
0
 62
7
  6
CONTINUOUS
370
-3
390
F
  0
LAYER
  5
202
100
AcDbSymbolTableRecord
100
AcDbLayerTableRecord
  2
CUT_FEATURES
 70
0
 62
7
  6
CONTINUOUS
370
-3
390
F
  0
LAYER
  5
203
100
AcDbSymbolTableRecord
100
AcDbLayerTableRecord
  2
DATUM_CURVES
 70
0
 62
7
  6
CONTINUOUS
370
-3
390
F
  0
LAYER
  5
204
100
AcDbSymbolTableRecord
100
AcDbLayerTableRecord
  2
DATUM_PLANES
 70
0
 62
7
  6
CONTINUOUS
370
-3
390
F
  0
LAYER
  5
205
100
AcDbSymbolTableRecord
100
AcDbLayerTableRecord
  2
DEFAULT_COORDINATE_SYSTEM
 70
0
 62
7
  6
CONTINUOUS
370
-3
390
F
  0
LAYER
  5
206
100
AcDbSymbolTableRecord
100
AcDbLayerTableRecord
  2
DEFAULT_DATUM_AXES
 70
0
 62
7
  6
CONTINUOUS
370
-3
390
F
  0
LAYER
  5
207
100
AcDbSymbolTableRecord
100
AcDbLayerTableRecord
  2
DEFAULT_DATUM_CURVES
 70
0
 62
7
  6
CONTINUOUS
370
-3
390
F
  0
LAYER
  5
208
100
AcDbSymbolTableRecord
100
AcDbLayerTableRecord
  2
DEFAULT_DATUM_PLANES
 70
0
 62
7
  6
CONTINUOUS
370
-3
390
F
  0
LAYER
  5
209
100
AcDbSymbolTableRecord
100
AcDbLayerTableRecord
  2
DEFAULT_SURFACES
 70
0
 62
7
  6
CONTINUOUS
370
-3
390
F
  0
LAYER
  5
20A
100
AcDbSymbolTableRecord
100
AcDbLayerTableRecord
  2
DIMENSIONS
 70
0
 62
7
  6
CONTINUOUS
370
-3
390
F
  0
LAYER
  5
20B
100
AcDbSymbolTableRecord
100
AcDbLayerTableRecord
  2
HOLE_FEATURES
 70
0
 62
7
  6
CONTINUOUS
370
-3
390
F
  0
LAYER
  5
20C
100
AcDbSymbolTableRecord
100
AcDbLayerTableRecord
  2
NOTES
 70
0
 62
7
  6
CONTINUOUS
370
-3
390
F
  0
LAYER
  5
20D
100
AcDbSymbolTableRecord
100
AcDbLayerTableRecord
  2
PART_REFERENCE_DIMENSIONS
 70
0
 62
7
  6
CONTINUOUS
370
-3
390
F
  0
LAYER
  5
20E
100
AcDbSymbolTableRecord
100
AcDbLayerTableRecord
  2
PLATED_SURFACE_AREA
 70
0
 62
7
  6
CONTINUOUS
370
-3
390
F
  0
LAYER
  5
20F
100
AcDbSymbolTableRecord
100
AcDbLayerTableRecord
  2
PROTRUSION
 70
0
 62
7
  6
CONTINUOUS
370
-3
390
F
  0
LAYER
  5
210
100
AcDbSymbolTableRecord
100
AcDbLayerTableRecord
  2
PROTRUSION_FEATURES
 70
0
 62
7
  6
CONTINUOUS
370
-3
390
F
  0
LAYER
  5
211
100
AcDbSymbolTableRecord
100
AcDbLayerTableRecord
  2
QUILT
 70
0
 62
7
  6
CONTINUOUS
370
-3
390
F
  0
LAYER
  5
212
100
AcDbSymbolTableRecord
100
AcDbLayerTableRecord
  2
QUILTS
 70
0
 62
7
  6
CONTINUOUS
370
-3
390
F
  0
LAYER
  5
213
100
AcDbSymbolTableRecord
100
AcDbLayerTableRecord
  2
REFERENCE_DIMENSIONS
 70
0
 62
7
  6
CONTINUOUS
370
-3
390
F
  0
LAYER
  5
214
100
AcDbSymbolTableRecord
100
AcDbLayerTableRecord
  2
ROUND_FEATURES
 70
0
 62
7
  6
CONTINUOUS
370
-3
390
F
  0
LAYER
  5
215
100
AcDbSymbolTableRecord
100
AcDbLayerTableRecord
  2
SHELL_FEATURES
 70
0
 62
7
  6
CONTINUOUS
370
-3
390
F
  0
LAYER
  5
216
100
AcDbSymbolTableRecord
100
AcDbLayerTableRecord
  2
SURFACE_FEATURES
 70
0
 62
7
  6
CONTINUOUS
370
-3
390
F
  0
LAYER
  5
217
100
AcDbSymbolTableRecord
100
AcDbLayerTableRecord
  2
XSEC_DATUMS
 70
0
 62
7
  6
CONTINUOUS
370
-3
390
F
  0
ENDTAB
  0
TABLE
  2
STYLE
  5
3
100
AcDbSymbolTable
 70
1
  0
STYLE
  5
11
100
AcDbSymbolTableRecord
100
AcDbTextStyleTableRecord
  2
STANDARD
 70
0
 40
0.0
 41
0.8
 50
0.0
 71
0
 42
0.2
  3
txt
  4

  0
STYLE
  5
218
100
AcDbSymbolTableRecord
100
AcDbTextStyleTableRecord
  2
TEXTSTYLE_1
 70
0
 40
0.0
 41
0.8
 50
0.0
 71
0
 42
0.2
  3
gdt
  4

  0
ENDTAB
  0
TABLE
  2
VIEW
  5
6
100
AcDbSymbolTable
 70
0
  0
ENDTAB
  0
TABLE
  2
UCS
  5
7
100
AcDbSymbolTable
 70
0
  0
ENDTAB
  0
TABLE
  2
APPID
  5
9
100
AcDbSymbolTable
 70
1
  0
APPID
  5
219
100
AcDbSymbolTableRecord
100
AcDbRegAppTableRecord
  2
ACAD
 70
0
  0
ENDTAB
  0
TABLE
  2
BLOCK_RECORD
  5
1
100
AcDbSymbolTable
 70
0
  0
BLOCK_RECORD
  5
21A
100
AcDbSymbolTableRecord
100
AcDbBlockTableRecord
  2
*Model_Space
  0
BLOCK_RECORD
  5
21B
100
AcDbSymbolTableRecord
100
AcDbBlockTableRecord
  2
*Paper_Space
  0
BLOCK_RECORD
  5
21C
100
AcDbSymbolTableRecord
100
AcDbBlockTableRecord
  2
_FILLED
  0
ENDTAB
  0
TABLE
  2
DIMSTYLE
  5
A
100
AcDbSymbolTable
 70
1
100
AcDbDimStyleTable
 71
0
  0
DIMSTYLE
105
21D
100
AcDbSymbolTableRecord
100
AcDbDimStyleTableRecord
  2
STANDARD
 70
0
  3

  4

 40
1.0
 41
0.1
 42
0.0625
 43
0.38
 44
0.125
 45
0.0
 46
0.0
 47
0.001
 48
0.001
140
0.08
141
0.09
142
0.0
143
25.4
144
1.0
145
0.0
146
1.0
147
0.09
 71
1.0
 72
0.0
 73
1
 74
1
 75
0
 76
0
 77
0
 78
4
 79
1
170
1
171
2
172
0
173
0
174
0
175
0
176
0
177
0
178
0
270
2
179
3
271
3
272
3
273
2
274
2
275
0
280
0
281
0
282
0
283
1
284
4
285
0
286
0
287
3
288
0
340
11
278
46
341
21C
342
21C
343
21C
344
21C
  0
ENDTAB
  0
ENDSEC
  0
SECTION
  2
BLOCKS
  0
BLOCK
  5
20
100
AcDbEntity
  8
0
100
AcDbBlockBegin
  2
*Model_Space
 70
0
 10
0.0
 20
0.0
 30
0.0
  3
*Model_Space
  1

  0
ENDBLK
  5
21
100
AcDbEntity
  8
0
100
AcDbBlockEnd
  0
BLOCK
  5
1C
100
AcDbEntity
  8
0
100
AcDbBlockBegin
  2
*Paper_Space
 70
0
 10
0.0
 20
0.0
 30
0.0
  3
*Paper_Space
  1

  0
ENDBLK
  5
1D
100
AcDbEntity
  8
0
100
AcDbBlockEnd
  0
BLOCK
  5
21E
100
AcDbEntity
  8
0
100
AcDbBlockBegin
  2
_FILLED
 70
64
 10
0.0
 20
0.0
  3
_FILLED
  1

  0
SOLID
  5
21F
100
AcDbEntity
  8
0
  6
BYBLOCK
 62
0
100
AcDbTrace
 10
0.0
 20
0.0
 11
-1.0
 21
0.2
 12
-1.0
 22
-0.2
 13
-1.0
 23
-0.2
  0
ENDBLK
  5
220
100
AcDbEntity
  8
0
  6
BYBLOCK
 62
0
100
AcDbBlockEnd
  0
ENDSEC
  0
SECTION
  2
ENTITIES
  0
MTEXT
  5
221
100
AcDbEntity
  8
0
100
AcDbMText
 62
2
  6
CONTINUOUS
  7
STANDARD
 71
3
 72
1
 10
5.2405861801
 20
2.6741187888
 30
0.0
 11
1.0
 21
0.0
 31
0.0
 73
2
 44
0.9
  1
SCALE  .500
 40
0.08
 41
0.704
  0
LINE
  5
222
100
AcDbEntity
  8
0
100
AcDbLine
 62
7
  6
CONTINUOUS
 10
0.0
 20
0.0
 11
0.0
 21
8.5
  0
LINE
  5
223
100
AcDbEntity
  8
0
100
AcDbLine
 62
7
  6
CONTINUOUS
 10
0.0
 20
0.0
 11
11.0
 21
0.0
  0
LINE
  5
224
100
AcDbEntity
  8
0
100
AcDbLine
 62
7
  6
CONTINUOUS
 10
0.0
 20
8.5
 11
11.0
 21
8.5
  0
LINE
  5
225
100
AcDbEntity
  8
0
100
AcDbLine
 62
7
  6
CONTINUOUS
 10
11.0
 20
0.0
 11
11.0
 21
8.5
  0
LINE
  5
226
100
AcDbEntity
  8
ALL_ASSEMBLY_MEMBERS
100
AcDbLine
 62
7
  6
CONTINUOUS
 10
6.1088361801
 20
2.7691187888
 11
6.0391045499
 21
2.7691187888
  0
LINE
  5
227
100
AcDbEntity
  8
ALL_ASSEMBLY_MEMBERS
100
AcDbLine
 62
7
  6
CONTINUOUS
 10
4.3316847894
 20
3.9663656508
 11
4.3338538881
 21
3.9446730785
  0
LINE
  5
228
100
AcDbEntity
  8
ALL_ASSEMBLY_MEMBERS
100
AcDbLine
 62
7
  6
CONTINUOUS
 10
4.3301673432
 20
3.9879021552
 11
4.3316998449
 21
3.9661889418
  0
LINE
  5
229
100
AcDbEntity
  8
ALL_ASSEMBLY_MEMBERS
100
AcDbLine
 62
7
  6
CONTINUOUS
 10
4.3292790658
 20
4.0094689451
 11
4.3301758037
 21
3.9877504824
  0
LWPOLYLINE
  5
22A
100
AcDbEntity
  8
ALL_ASSEMBLY_MEMBERS
100
AcDbPolyline
 62
7
  6
CONTINUOUS
 90
10
 70
0
 10
4.3290296559
 20
5.1234469479
 10
4.330721432
 20
5.0753243687
 10
4.3327469465
 20
5.0221351473
 10
4.3349843838
 20
4.9671224912
 10
4.3374149309
 20
4.9102876565
 10
4.3400137629
 20
4.8516293872
 10
4.3427495216
 20
4.7911439147
 10
4.3455835224
 20
4.7288299831
 10
4.3484691648
 20
4.6646888485
 10
4.3506519065
 20
4.6149832756
  0
LWPOLYLINE
  5
22B
100
AcDbEntity
  8
ALL_ASSEMBLY_MEMBERS
100
AcDbPolyline
 62
7
  6
CONTINUOUS
 90
18
 70
0
 10
4.3506519084
 20
4.6149832755
 10
4.3506656845
 20
4.6145622122
 10
4.350606197
 20
4.6125150387
 10
4.3503376594
 20
4.6104846686
 10
4.349862883
 20
4.6084923918
 10
4.3491868424
 20
4.606559103
 10
4.3483166256
 20
4.604705082
 10
4.347261356
 20
4.6029497727
 10
4.3460320977
 20
4.6013115835
 10
4.3446417425
 20
4.5998076986
 10
4.34310487
 20
4.5984538897
 10
4.3414375964
 20
4.5972643553
 10
4.3396574094
 20
4.5962515731
 10
4.337782978
 20
4.595426164
 10
4.3358339592
 20
4.5947967841
 10
4.3338307967
 20
4.5943700345
 10
4.3317944992
 20
4.5941503891
 10
4.3306706018
 20
4.5941187855
  0
LINE
  5
22C
100
AcDbEntity
  8
ALL_ASSEMBLY_MEMBERS
100
AcDbLine
 62
7
  6
CONTINUOUS
 10
4.329020494
 20
4.0310524722
 11
4.3292824245
 21
4.009342453
  0
LINE
  5
22D
100
AcDbEntity
  8
ALL_ASSEMBLY_MEMBERS
100
AcDbLine
 62
7
  6
CONTINUOUS
 10
4.2563361801
 20
4.2628746862
 11
4.2563361801
 21
4.5253628915
  0
LINE
  5
22E
100
AcDbEntity
  8
ALL_ASSEMBLY_MEMBERS
100
AcDbLine
 62
7
  6
CONTINUOUS
 10
4.2713361801
 20
4.5253687888
 11
4.2713361801
 21
4.2628687888
  0
LINE
  5
22F
100
AcDbEntity
  8
ALL_ASSEMBLY_MEMBERS
100
AcDbLine
 62
7
  6
CONTINUOUS
 10
4.2813361801
 20
4.2378758095
 11
4.2813361801
 21
4.5503617682
  0
LINE
  5
230
100
AcDbEntity
  8
ALL_ASSEMBLY_MEMBERS
100
AcDbLine
 62
7
  6
CONTINUOUS
 10
4.3188361801
 20
4.1941204179
 11
4.3188361801
 21
4.5941171597
  0
LINE
  5
231
100
AcDbEntity
  8
ALL_ASSEMBLY_MEMBERS
100
AcDbLine
 62
7
  6
CONTINUOUS
 10
4.3560342161
 20
5.1441187888
 11
4.3560342161
 21
5.1224578792
  0
LINE
  5
232
100
AcDbEntity
  8
ALL_ASSEMBLY_MEMBERS
100
AcDbLine
 62
7
  6
CONTINUOUS
 10
4.3560342161
 20
3.9188642162
 11
4.3560342161
 21
3.9088642162
  0
LINE
  5
233
100
AcDbEntity
  8
ALL_ASSEMBLY_MEMBERS
100
AcDbLine
 62
7
  6
CONTINUOUS
 10
4.3560342161
 20
4.1193733615
 11
4.3560342161
 21
4.1474644951
  0
LWPOLYLINE
  5
234
100
AcDbEntity
  8
ALL_ASSEMBLY_MEMBERS
100
AcDbPolyline
 62
7
  6
CONTINUOUS
 90
4
 70
0
 10
4.3307612893
 20
4.0798708383
 10
4.3303941561
 20
4.0742163981
 10
4.3293920681
 20
4.0526392852
 10
4.3290202379
 20
4.0309513405
  0
LWPOLYLINE
  5
235
100
AcDbEntity
  8
ALL_ASSEMBLY_MEMBERS
100
AcDbPolyline
 62
7
  6
CONTINUOUS
 90
3
 70
0
 10
4.3303936173
 20
4.0742047963
 10
4.330391114
 20
4.0741662464
 10
4.3293896806
 20
4.0525636194
  0
LINE
  5
236
100
AcDbEntity
  8
ALL_ASSEMBLY_MEMBERS
100
AcDbLine
 62
7
  6
CONTINUOUS
 10
4.3308864463
 20
4.0816590155
 11
4.3307620472
 21
4.0798816879
  0
LINE
  5
237
100
AcDbEntity
  8
ALL_ASSEMBLY_MEMBERS
100
AcDbLine
 62
7
  6
CONTINUOUS
 10
4.3538176821
 20
4.3542141143
 11
4.3537098944
 21
4.3528922234
  0
LWPOLYLINE
  5
238
100
AcDbEntity
  8
ALL_ASSEMBLY_MEMBERS
100
AcDbPolyline
 62
7
  6
CONTINUOUS
 90
4
 70
0
 10
4.3536993421
 20
4.352763225
 10
4.3516566287
 20
4.3280880839
 10
4.349231631
 20
4.2995878655
 10
4.3466874797
 20
4.2703593354
  0
LWPOLYLINE
  5
239
100
AcDbEntity
  8
ALL_ASSEMBLY_MEMBERS
100
AcDbPolyline
 62
7
  6
CONTINUOUS
 90
6
 70
0
 10
4.3466874797
 20
4.2703593354
 10
4.3413465926
 20
4.2098374442
 10
4.3386144361
 20
4.1784804655
 10
4.3358992777
 20
4.1463563846
 10
4.3332606968
 20
4.1135028922
 10
4.330886303
 20
4.0816590701
  0
LINE
  5
23A
100
AcDbEntity
  8
ALL_ASSEMBLY_MEMBERS
100
AcDbLine
 62
7
  6
CONTINUOUS
 10
4.3362240677
 20
3.9261150443
 11
4.3362229108
 21
3.9261233874
  0
LINE
  5
23B
100
AcDbEntity
  8
ALL_ASSEMBLY_MEMBERS
100
AcDbLine
 62
7
  6
CONTINUOUS
 10
4.3338307429
 20
3.9448747205
 11
4.3362289871
 21
3.9260808553
  0
LINE
  5
23C
100
AcDbEntity
  8
ALL_ASSEMBLY_MEMBERS
100
AcDbLine
 62
7
  6
CONTINUOUS
 10
4.3737518281
 20
4.3703034098
 11
4.3736434222
 21
4.3693542999
  0
LWPOLYLINE
  5
23D
100
AcDbEntity
  8
ALL_ASSEMBLY_MEMBERS
100
AcDbPolyline
 62
7
  6
CONTINUOUS
 90
4
 70
0
 10
4.5257713842
 20
4.1855170701
 10
4.5249665254
 20
4.2164561561
 10
4.5241589814
 20
4.2471904134
 10
4.5233863755
 20
4.2778801838
  0
LINE
  5
23E
100
AcDbEntity
  8
ALL_ASSEMBLY_MEMBERS
100
AcDbLine
 62
7
  6
CONTINUOUS
 10
4.5228136991
 20
4.3027590595
 11
4.5233863755
 21
4.2778801838
  0
LWPOLYLINE
  5
23F
100
AcDbEntity
  8
ALL_ASSEMBLY_MEMBERS
100
AcDbPolyline
 62
7
  6
CONTINUOUS
 90
5
 70
0
 10
4.5281251624
 20
4.060693601
 10
4.5277460807
 20
4.091994421
 10
4.5272036565
 20
4.1231772206
 10
4.5265322258
 20
4.1543653524
 10
4.5257713854
 20
4.1855170244
  0
LINE
  5
240
100
AcDbEntity
  8
ALL_ASSEMBLY_MEMBERS
100
AcDbLine
 62
7
  6
CONTINUOUS
 10
4.5281251624
 20
4.060693601
 11
4.5283031384
 21
4.031089768
  0
LINE
  5
241
100
AcDbEntity
  8
ALL_ASSEMBLY_MEMBERS
100
AcDbLine
 62
7
  6
CONTINUOUS
 10
4.5283033509
 20
4.0310076503
 11
4.528302948
 21
4.0311594561
  0
LINE
  5
242
100
AcDbEntity
  8
ALL_ASSEMBLY_MEMBERS
100
AcDbLine
 62
7
  6
CONTINUOUS
 10
4.5012943837
 20
5.1441187888
 11
4.5012943837
 21
5.1224578792
  0
LINE
  5
243
100
AcDbEntity
  8
ALL_ASSEMBLY_MEMBERS
100
AcDbLine
 62
7
  6
CONTINUOUS
 10
4.5012943837
 20
3.9188642162
 11
4.5012943837
 21
3.9088642162
  0
LINE
  5
244
100
AcDbEntity
  8
ALL_ASSEMBLY_MEMBERS
100
AcDbLine
 62
7
  6
CONTINUOUS
 10
4.5012943837
 20
4.1193733615
 11
4.5012943837
 21
4.1474644951
  0
LINE
  5
245
100
AcDbEntity
  8
ALL_ASSEMBLY_MEMBERS
100
AcDbLine
 62
40
  6
CONTINUOUS
 10
4.5188361801
 20
5.1411033648
 11
4.5188361801
 21
5.1441187888
  0
LINE
  5
246
100
AcDbEntity
  8
ALL_ASSEMBLY_MEMBERS
100
AcDbLine
 62
7
  6
CONTINUOUS
 10
4.5563361801
 20
4.1941204179
 11
4.5563361801
 21
4.5941171597
  0
LINE
  5
247
100
AcDbEntity
  8
ALL_ASSEMBLY_MEMBERS
100
AcDbLine
 62
7
  6
CONTINUOUS
 10
4.5663361801
 20
4.5503687888
 11
4.5663361801
 21
4.2378687888
  0
LINE
  5
248
100
AcDbEntity
  8
ALL_ASSEMBLY_MEMBERS
100
AcDbLine
 62
7
  6
CONTINUOUS
 10
4.6148361801
 20
4.2663380225
 11
4.6148361801
 21
4.2547910172
  0
LINE
  5
249
100
AcDbEntity
  8
ALL_ASSEMBLY_MEMBERS
100
AcDbLine
 62
7
  6
CONTINUOUS
 10
4.5282800201
 20
4.0262670046
 11
4.5283031401
 21
4.0310891566
  0
LWPOLYLINE
  5
24A
100
AcDbEntity
  8
ALL_ASSEMBLY_MEMBERS
100
AcDbPolyline
 62
7
  6
CONTINUOUS
 90
10
 70
0
 10
4.5230384125
 20
4.614340055
 10
4.5236229373
 20
4.664223933
 10
4.5244460872
 20
4.7285247992
 10
4.525276728
 20
4.7909935392
 10
4.5260679513
 20
4.8516299263
 10
4.5267807157
 20
4.9104341872
 10
4.5273832646
 20
4.9674070017
 10
4.5278505518
 20
5.0225485964
 10
4.5281637002
 20
5.0758587448
 10
4.528305338
 20
5.1240910605
  0
LWPOLYLINE
  5
24B
100
AcDbEntity
  8
ALL_ASSEMBLY_MEMBERS
100
AcDbPolyline
 62
7
  6
CONTINUOUS
 90
3
 70
0
 10
4.5277535765
 20
4.0005352544
 10
4.5282488893
 20
4.0199438572
 10
4.528303354
 20
4.0310064865
  0
LINE
  5
24C
100
AcDbEntity
  8
ALL_ASSEMBLY_MEMBERS
100
AcDbLine
 62
7
  6
CONTINUOUS
 10
4.5267494417
 20
3.981146993
 11
4.5277553338
 21
4.000604114
  0
LINE
  5
24D
100
AcDbEntity
  8
ALL_ASSEMBLY_MEMBERS
100
AcDbLine
 62
7
  6
CONTINUOUS
 10
4.5252370953
 20
3.96178929
 11
4.5267600186
 21
3.9813104144
  0
LINE
  5
24E
100
AcDbEntity
  8
ALL_ASSEMBLY_MEMBERS
100
AcDbLine
 62
7
  6
CONTINUOUS
 10
4.5232172282
 20
3.9424735266
 11
4.5252544479
 21
3.9619796342
  0
LINE
  5
24F
100
AcDbEntity
  8
ALL_ASSEMBLY_MEMBERS
100
AcDbLine
 62
7
  6
CONTINUOUS
 10
4.5210997862
 20
3.9260821048
 11
4.5232427885
 21
3.942690636
  0
LINE
  5
250
100
AcDbEntity
  8
ALL_ASSEMBLY_MEMBERS
100
AcDbLine
 62
7
  6
CONTINUOUS
 10
4.5211038945
 20
3.9261104488
 11
4.5211048056
 21
3.9261170066
  0
LINE
  5
251
100
AcDbEntity
  8
ALL_ASSEMBLY_MEMBERS
100
AcDbLine
 62
7
  6
CONTINUOUS
 10
4.6348361801
 20
4.2490175145
 11
4.6348361801
 21
4.2721115252
  0
LINE
  5
252
100
AcDbEntity
  8
ALL_ASSEMBLY_MEMBERS
100
AcDbLine
 62
7
  6
CONTINUOUS
 10
4.6548361801
 20
4.2547910172
 11
4.6548361801
 21
4.2663380225
  0
LINE
  5
253
100
AcDbEntity
  8
ALL_ASSEMBLY_MEMBERS
100
AcDbLine
 62
7
  6
CONTINUOUS
 10
4.7128361801
 20
4.8166187888
 11
4.7128361801
 21
3.9716187888
  0
LINE
  5
254
100
AcDbEntity
  8
ALL_ASSEMBLY_MEMBERS
100
AcDbLine
 62
7
  6
CONTINUOUS
 10
4.7378361801
 20
4.8666187888
 11
4.7378361801
 21
3.9216187888
  0
LINE
  5
255
100
AcDbEntity
  8
ALL_ASSEMBLY_MEMBERS
100
AcDbLine
 62
7
  6
CONTINUOUS
 10
4.9128361801
 20
3.8341187888
 11
4.8128361801
 21
3.8341187888
  0
LINE
  5
256
100
AcDbEntity
  8
ALL_ASSEMBLY_MEMBERS
100
AcDbLine
 62
7
  6
CONTINUOUS
 10
4.9628361801
 20
3.8716187888
 11
4.9128361801
 21
3.8716187888
  0
LINE
  5
257
100
AcDbEntity
  8
ALL_ASSEMBLY_MEMBERS
100
AcDbLine
 62
7
  6
CONTINUOUS
 10
4.8128361801
 20
3.8716187888
 11
4.7878361801
 21
3.8716187888
  0
LINE
  5
258
100
AcDbEntity
  8
ALL_ASSEMBLY_MEMBERS
100
AcDbLine
 62
7
  6
CONTINUOUS
 10
5.5948361801
 20
3.9016187888
 11
5.8728361801
 21
3.9016187888
  0
LINE
  5
259
100
AcDbEntity
  8
ALL_ASSEMBLY_MEMBERS
100
AcDbLine
 62
7
  6
CONTINUOUS
 10
4.6080118298
 20
4.2527965836
 11
4.6079889514
 21
4.2528152506
  0
LINE
  5
25A
100
AcDbEntity
  8
ALL_ASSEMBLY_MEMBERS
100
AcDbLine
 62
7
  6
CONTINUOUS
 10
4.608010596
 20
4.2527962263
 11
4.6079886834
 21
4.2528151733
  0
LINE
  5
25B
100
AcDbEntity
  8
ALL_ASSEMBLY_MEMBERS
100
AcDbLine
 62
7
  6
CONTINUOUS
 10
4.7878361801
 20
4.9166187888
 11
4.7878361801
 21
3.8716187888
  0
LINE
  5
25C
100
AcDbEntity
  8
ALL_ASSEMBLY_MEMBERS
100
AcDbLine
 62
7
  6
CONTINUOUS
 10
4.8128361801
 20
4.9541187888
 11
4.8128361801
 21
3.8341187888
  0
LINE
  5
25D
100
AcDbEntity
  8
ALL_ASSEMBLY_MEMBERS
100
AcDbLine
 62
7
  6
CONTINUOUS
 10
4.3560342161
 20
3.9088642162
 11
4.5012943837
 21
3.9088642162
  0
LINE
  5
25E
100
AcDbEntity
  8
ALL_ASSEMBLY_MEMBERS
100
AcDbLine
 62
7
  6
CONTINUOUS
 10
5.4253361801
 20
3.9091187888
 11
5.0003361801
 21
3.9091187888
  0
LINE
  5
25F
100
AcDbEntity
  8
ALL_ASSEMBLY_MEMBERS
100
AcDbLine
 62
7
  6
CONTINUOUS
 10
5.5701196447
 20
3.9093687888
 11
5.5591756018
 21
3.9093687888
  0
LINE
  5
260
100
AcDbEntity
  8
ALL_ASSEMBLY_MEMBERS
100
AcDbLine
 62
7
  6
CONTINUOUS
 10
5.5354635037
 20
3.909396738
 11
5.5245194607
 21
3.909396738
  0
LINE
  5
261
100
AcDbEntity
  8
ALL_ASSEMBLY_MEMBERS
100
AcDbLine
 62
7
  6
CONTINUOUS
 10
5.5591756018
 20
3.9111024962
 11
5.5354635037
 21
3.9111024962
  0
LINE
  5
262
100
AcDbEntity
  8
ALL_ASSEMBLY_MEMBERS
100
AcDbLine
 62
7
  6
CONTINUOUS
 10
5.5245194607
 20
3.9111024962
 11
5.4843912982
 21
3.9111024962
  0
LINE
  5
263
100
AcDbEntity
  8
ALL_ASSEMBLY_MEMBERS
100
AcDbLine
 62
7
  6
CONTINUOUS
 10
5.4253361801
 20
3.9118353243
 11
5.4843912982
 21
3.9118353243
  0
LINE
  5
264
100
AcDbEntity
  8
ALL_ASSEMBLY_MEMBERS
100
AcDbLine
 62
7
  6
CONTINUOUS
 10
5.5701196447
 20
3.9118353243
 11
5.5948361801
 21
3.9118353243
  0
LINE
  5
265
100
AcDbEntity
  8
ALL_ASSEMBLY_MEMBERS
100
AcDbLine
 62
7
  6
CONTINUOUS
 10
5.5701196447
 20
3.9118733299
 11
5.4843912982
 21
3.9118733299
  0
LINE
  5
266
100
AcDbEntity
  8
ALL_ASSEMBLY_MEMBERS
100
AcDbLine
 62
7
  6
CONTINUOUS
 10
5.5424223447
 20
3.9143527413
 11
5.4843912982
 21
3.9143527413
  0
LINE
  5
267
100
AcDbEntity
  8
ALL_ASSEMBLY_MEMBERS
100
AcDbLine
 62
7
  6
CONTINUOUS
 10
4.3560344313
 20
3.9188642162
 11
4.5012944138
 21
3.9188642162
  0
LINE
  5
268
100
AcDbEntity
  8
ALL_ASSEMBLY_MEMBERS
100
AcDbLine
 62
7
  6
CONTINUOUS
 10
4.7378361801
 20
3.9716187888
 11
4.7128361801
 21
3.9716187888
  0
LINE
  5
269
100
AcDbEntity
  8
ALL_ASSEMBLY_MEMBERS
100
AcDbLine
 62
7
  6
CONTINUOUS
 10
4.6095247861
 20
4.2516155907
 11
4.6079543089
 21
4.2527260858
  0
LINE
  5
26A
100
AcDbEntity
  8
ALL_ASSEMBLY_MEMBERS
100
AcDbLine
 62
7
  6
CONTINUOUS
 10
4.9128361801
 20
4.9541187888
 11
4.9128361801
 21
3.8341187888
  0
LINE
  5
26B
100
AcDbEntity
  8
ALL_ASSEMBLY_MEMBERS
100
AcDbLine
 62
7
  6
CONTINUOUS
 10
4.9628361801
 20
4.9166187888
 11
4.9628361801
 21
3.8716187888
  0
LINE
  5
26C
100
AcDbEntity
  8
ALL_ASSEMBLY_MEMBERS
100
AcDbLine
 62
7
  6
CONTINUOUS
 10
5.0003361801
 20
4.8791187888
 11
5.0003361801
 21
3.9091187888
  0
LINE
  5
26D
100
AcDbEntity
  8
ALL_ASSEMBLY_MEMBERS
100
AcDbLine
 62
7
  6
CONTINUOUS
 10
5.8728361801
 20
4.9241187888
 11
5.9523361801
 21
4.9541187888
  0
LINE
  5
26E
100
AcDbEntity
  8
ALL_ASSEMBLY_MEMBERS
100
AcDbLine
 62
7
  6
CONTINUOUS
 10
4.501294671
 20
4.1193733615
 11
4.3560338291
 21
4.1193733615
  0
LINE
  5
26F
100
AcDbEntity
  8
ALL_ASSEMBLY_MEMBERS
100
AcDbLine
 62
7
  6
CONTINUOUS
 10
4.5012885858
 20
4.1474644951
 11
4.3560400387
 21
4.1474644951
  0
LINE
  5
270
100
AcDbEntity
  8
ALL_ASSEMBLY_MEMBERS
100
AcDbLine
 62
7
  6
CONTINUOUS
 10
4.6148361801
 20
4.2547910172
 11
4.6348361801
 21
4.2490175145
  0
LINE
  5
271
100
AcDbEntity
  8
ALL_ASSEMBLY_MEMBERS
100
AcDbLine
 62
7
  6
CONTINUOUS
 10
4.6548361801
 20
4.2663380225
 11
4.6348361801
 21
4.2721115252
  0
LINE
  5
272
100
AcDbEntity
  8
ALL_ASSEMBLY_MEMBERS
100
AcDbLine
 62
7
  6
CONTINUOUS
 10
5.8728361801
 20
3.8641187888
 11
5.9523361801
 21
3.8341187888
  0
LINE
  5
273
100
AcDbEntity
  8
ALL_ASSEMBLY_MEMBERS
100
AcDbLine
 62
7
  6
CONTINUOUS
 10
5.0323361801
 20
4.8761074581
 11
5.0323361801
 21
4.9899020569
  0
LINE
  5
274
100
AcDbEntity
  8
ALL_ASSEMBLY_MEMBERS
100
AcDbLine
 62
7
  6
CONTINUOUS
 10
4.6601475741
 20
4.2516155907
 11
4.667346667
 21
4.2567061181
  0
LINE
  5
275
100
AcDbEntity
  8
ALL_ASSEMBLY_MEMBERS
100
AcDbLine
 62
7
  6
CONTINUOUS
 10
5.5354635037
 20
4.1655079831
 11
5.5190474393
 21
4.1655079831
  0
LINE
  5
276
100
AcDbEntity
  8
ALL_ASSEMBLY_MEMBERS
100
AcDbLine
 62
7
  6
CONTINUOUS
 10
5.5336394965
 20
4.1716502647
 11
5.5208714464
 21
4.1716502647
  0
LINE
  5
277
100
AcDbEntity
  8
ALL_ASSEMBLY_MEMBERS
100
AcDbLine
 62
7
  6
CONTINUOUS
 10
5.5336394965
 20
4.1725008342
 11
5.5208714464
 21
4.1725008342
  0
LINE
  5
278
100
AcDbEntity
  8
ALL_ASSEMBLY_MEMBERS
100
AcDbLine
 62
7
  6
CONTINUOUS
 10
4.3188361801
 20
4.1941187888
 11
4.3399770146
 21
4.1941187888
  0
LINE
  5
279
100
AcDbEntity
  8
ALL_ASSEMBLY_MEMBERS
100
AcDbLine
 62
7
  6
CONTINUOUS
 10
4.5255476165
 20
4.1941187888
 11
4.5563361801
 21
4.1941187888
  0
LINE
  5
27A
100
AcDbEntity
  8
ALL_ASSEMBLY_MEMBERS
100
AcDbLine
 62
7
  6
CONTINUOUS
 10
5.5336394965
 20
4.2041376849
 11
5.5208714464
 21
4.2041376849
  0
LINE
  5
27B
100
AcDbEntity
  8
ALL_ASSEMBLY_MEMBERS
100
AcDbLine
 62
7
  6
CONTINUOUS
 10
5.5354635037
 20
4.2104895823
 11
5.5190474393
 21
4.2104895823
  0
LINE
  5
27C
100
AcDbEntity
  8
ALL_ASSEMBLY_MEMBERS
100
AcDbLine
 62
7
  6
CONTINUOUS
 10
5.5354635037
 20
4.2113338472
 11
5.5190474393
 21
4.2113338472
  0
LINE
  5
27D
100
AcDbEntity
  8
ALL_ASSEMBLY_MEMBERS
100
AcDbLine
 62
7
  6
CONTINUOUS
 10
4.5354159146
 20
4.2133095801
 11
4.5250483814
 21
4.2133095801
  0
LINE
  5
27E
100
AcDbEntity
  8
ALL_ASSEMBLY_MEMBERS
100
AcDbLine
 62
7
  6
CONTINUOUS
 10
4.341653168
 20
4.2133095801
 11
4.3395549426
 21
4.2133095801
  0
LINE
  5
27F
100
AcDbEntity
  8
ALL_ASSEMBLY_MEMBERS
100
AcDbLine
 62
7
  6
CONTINUOUS
 10
5.550055566
 20
4.2207221606
 11
5.5464075466
 21
4.2207221606
  0
LINE
  5
280
100
AcDbEntity
  8
ALL_ASSEMBLY_MEMBERS
100
AcDbLine
 62
7
  6
CONTINUOUS
 10
5.4935113353
 20
4.2207221606
 11
5.4843912982
 21
4.2207221606
  0
LINE
  5
281
100
AcDbEntity
  8
ALL_ASSEMBLY_MEMBERS
100
AcDbLine
 62
7
  6
CONTINUOUS
 10
5.550055566
 20
4.2284526698
 11
5.5464075466
 21
4.2284526698
  0
LINE
  5
282
100
AcDbEntity
  8
ALL_ASSEMBLY_MEMBERS
100
AcDbLine
 62
7
  6
CONTINUOUS
 10
5.550055566
 20
4.2292962746
 11
5.5464075466
 21
4.2292962746
  0
LINE
  5
283
100
AcDbEntity
  8
ALL_ASSEMBLY_MEMBERS
100
AcDbLine
 62
7
  6
CONTINUOUS
 10
4.5663361801
 20
4.2378687888
 11
4.7128361801
 21
4.2378687888
  0
LINE
  5
284
100
AcDbEntity
  8
ALL_ASSEMBLY_MEMBERS
100
AcDbLine
 62
7
  6
CONTINUOUS
 10
4.2563361801
 20
4.2628687888
 11
4.2713361801
 21
4.2628687888
  0
LINE
  5
285
100
AcDbEntity
  8
ALL_ASSEMBLY_MEMBERS
100
AcDbLine
 62
7
  6
CONTINUOUS
 10
5.4935113353
 20
4.2678268965
 11
5.4843912982
 21
4.2678268965
  0
LINE
  5
286
100
AcDbEntity
  8
ALL_ASSEMBLY_MEMBERS
100
AcDbLine
 62
7
  6
CONTINUOUS
 10
5.4935113353
 20
4.2686736097
 11
5.4843912982
 21
4.2686736097
  0
LINE
  5
287
100
AcDbEntity
  8
ALL_ASSEMBLY_MEMBERS
100
AcDbLine
 62
7
  6
CONTINUOUS
 10
5.5701196447
 20
4.2785309613
 11
5.4843912982
 21
4.2785309613
  0
LINE
  5
288
100
AcDbEntity
  8
ALL_ASSEMBLY_MEMBERS
100
AcDbLine
 62
7
  6
CONTINUOUS
 10
5.1623361801
 20
4.8761079832
 11
5.1623361801
 21
4.9899020569
  0
LINE
  5
289
100
AcDbEntity
  8
ALL_ASSEMBLY_MEMBERS
100
AcDbLine
 62
7
  6
CONTINUOUS
 10
4.6348361801
 20
4.2721115252
 11
4.6148361801
 21
4.2663380225
  0
LINE
  5
28A
100
AcDbEntity
  8
ALL_ASSEMBLY_MEMBERS
100
AcDbLine
 62
7
  6
CONTINUOUS
 10
4.6348361801
 20
4.2490175145
 11
4.6548361801
 21
4.2547910172
  0
LINE
  5
28B
100
AcDbEntity
  8
ALL_ASSEMBLY_MEMBERS
100
AcDbLine
 62
7
  6
CONTINUOUS
 10
5.5555275875
 20
4.2866160223
 11
5.4843912982
 21
4.2866160223
  0
LINE
  5
28C
100
AcDbEntity
  8
ALL_ASSEMBLY_MEMBERS
100
AcDbLine
 62
7
  6
CONTINUOUS
 10
5.5541894911
 20
4.2874663423
 11
5.4843912982
 21
4.2874663423
  0
LINE
  5
28D
100
AcDbEntity
  8
ALL_ASSEMBLY_MEMBERS
100
AcDbLine
 62
7
  6
CONTINUOUS
 10
5.5573515946
 20
4.2947502754
 11
5.5427595323
 21
4.2947502754
  0
LINE
  5
28E
100
AcDbEntity
  8
ALL_ASSEMBLY_MEMBERS
100
AcDbLine
 62
7
  6
CONTINUOUS
 10
5.5573515946
 20
4.2956025773
 11
5.5427595323
 21
4.2956025773
  0
LINE
  5
28F
100
AcDbEntity
  8
ALL_ASSEMBLY_MEMBERS
100
AcDbLine
 62
7
  6
CONTINUOUS
 10
4.3736434222
 20
4.3693542999
 11
4.5003757155
 21
4.3693542999
  0
LINE
  5
290
100
AcDbEntity
  8
ALL_ASSEMBLY_MEMBERS
100
AcDbLine
 62
7
  6
CONTINUOUS
 10
5.5729739754
 20
4.3813235132
 11
5.4843912982
 21
4.3813235132
  0
LINE
  5
291
100
AcDbEntity
  8
ALL_ASSEMBLY_MEMBERS
100
AcDbLine
 62
7
  6
CONTINUOUS
 10
5.5729739754
 20
4.4069140644
 11
5.4843912982
 21
4.4069140644
  0
LINE
  5
292
100
AcDbEntity
  8
ALL_ASSEMBLY_MEMBERS
100
AcDbLine
 62
7
  6
CONTINUOUS
 10
4.3395563829
 20
4.410489465
 11
4.535414467
 21
4.410489465
  0
LINE
  5
293
100
AcDbEntity
  8
ALL_ASSEMBLY_MEMBERS
100
AcDbLine
 62
7
  6
CONTINUOUS
 10
5.5153994224
 20
4.4946696503
 11
5.5081033938
 21
4.4946696503
  0
LINE
  5
294
100
AcDbEntity
  8
ALL_ASSEMBLY_MEMBERS
100
AcDbLine
 62
7
  6
CONTINUOUS
 10
5.5153994224
 20
4.4955214327
 11
5.5081033938
 21
4.4955214327
  0
LINE
  5
295
100
AcDbEntity
  8
ALL_ASSEMBLY_MEMBERS
100
AcDbLine
 62
7
  6
CONTINUOUS
 10
5.5701196447
 20
4.498192563
 11
5.5609996089
 21
4.498192563
  0
LINE
  5
296
100
AcDbEntity
  8
ALL_ASSEMBLY_MEMBERS
100
AcDbLine
 62
7
  6
CONTINUOUS
 10
5.5701196447
 20
4.4990434837
 11
5.5609996089
 21
4.4990434837
  0
LINE
  5
297
100
AcDbEntity
  8
ALL_ASSEMBLY_MEMBERS
100
AcDbLine
 62
7
  6
CONTINUOUS
 10
5.5135754153
 20
4.5043092378
 11
5.5099274009
 21
4.5043092378
  0
LINE
  5
298
100
AcDbEntity
  8
ALL_ASSEMBLY_MEMBERS
100
AcDbLine
 62
7
  6
CONTINUOUS
 10
4.2563361801
 20
4.5253687888
 11
4.2713361801
 21
4.5253687888
  0
LINE
  5
299
100
AcDbEntity
  8
ALL_ASSEMBLY_MEMBERS
100
AcDbLine
 62
7
  6
CONTINUOUS
 10
5.4253361801
 20
4.8791187888
 11
5.4253361801
 21
3.9091187888
  0
LINE
  5
29A
100
AcDbEntity
  8
ALL_ASSEMBLY_MEMBERS
100
AcDbLine
 62
7
  6
CONTINUOUS
 10
5.4843912982
 20
4.8785831363
 11
5.4843912982
 21
4.8744027546
  0
LINE
  5
29B
100
AcDbEntity
  8
ALL_ASSEMBLY_MEMBERS
100
AcDbLine
 62
7
  6
CONTINUOUS
 10
5.4843912982
 20
3.9111024962
 11
5.4843912982
 21
3.9143527413
  0
LINE
  5
29C
100
AcDbEntity
  8
ALL_ASSEMBLY_MEMBERS
100
AcDbLine
 62
7
  6
CONTINUOUS
 10
5.4843912982
 20
4.2207221606
 11
5.4843912982
 21
4.2686736097
  0
LINE
  5
29D
100
AcDbEntity
  8
ALL_ASSEMBLY_MEMBERS
100
AcDbLine
 62
7
  6
CONTINUOUS
 10
5.4843912982
 20
4.2785309613
 11
5.4843912982
 21
4.2874663423
  0
LINE
  5
29E
100
AcDbEntity
  8
ALL_ASSEMBLY_MEMBERS
100
AcDbLine
 62
7
  6
CONTINUOUS
 10
5.4843912982
 20
4.3813235132
 11
5.4843912982
 21
4.4069140644
  0
LINE
  5
29F
100
AcDbEntity
  8
ALL_ASSEMBLY_MEMBERS
100
AcDbLine
 62
7
  6
CONTINUOUS
 10
5.4843912982
 20
4.5217126909
 11
5.4843912982
 21
4.5320454587
  0
LINE
  5
2A0
100
AcDbEntity
  8
ALL_ASSEMBLY_MEMBERS
100
AcDbLine
 62
7
  6
CONTINUOUS
 10
5.4843912982
 20
4.5700575953
 11
5.4843912982
 21
4.5808418316
  0
LINE
  5
2A1
100
AcDbEntity
  8
ALL_ASSEMBLY_MEMBERS
100
AcDbLine
 62
7
  6
CONTINUOUS
 10
5.4843912982
 20
4.6028716623
 11
5.4843912982
 21
4.6133873416
  0
LINE
  5
2A2
100
AcDbEntity
  8
ALL_ASSEMBLY_MEMBERS
100
AcDbLine
 62
7
  6
CONTINUOUS
 10
5.4843912982
 20
4.7817041444
 11
5.4843912982
 21
4.7984034569
  0
LINE
  5
2A3
100
AcDbEntity
  8
ALL_ASSEMBLY_MEMBERS
100
AcDbLine
 62
7
  6
CONTINUOUS
 10
5.4862153055
 20
4.8787962164
 11
5.4862153055
 21
4.877558354
  0
LINE
  5
2A4
100
AcDbEntity
  8
ALL_ASSEMBLY_MEMBERS
100
AcDbLine
 62
7
  6
CONTINUOUS
 10
5.4862153055
 20
4.8760584503
 11
5.4862153055
 21
4.8735774575
  0
LINE
  5
2A5
100
AcDbEntity
  8
ALL_ASSEMBLY_MEMBERS
100
AcDbLine
 62
7
  6
CONTINUOUS
 10
5.4862153055
 20
4.5130395359
 11
5.4862153055
 21
4.5121915693
  0
LINE
  5
2A6
100
AcDbEntity
  8
ALL_ASSEMBLY_MEMBERS
100
AcDbLine
 62
7
  6
CONTINUOUS
 10
5.4862153055
 20
4.1953013314
 11
5.4862153055
 21
4.1961472346
  0
LINE
  5
2A7
100
AcDbEntity
  8
ALL_ASSEMBLY_MEMBERS
100
AcDbLine
 62
7
  6
CONTINUOUS
 10
5.4916873275
 20
4.8788664321
 11
5.4916873275
 21
4.8780158656
  0
LINE
  5
2A8
100
AcDbEntity
  8
ALL_ASSEMBLY_MEMBERS
100
AcDbLine
 62
7
  6
CONTINUOUS
 10
5.4916873275
 20
4.8752650852
 11
5.4916873275
 21
4.8727799802
  0
LINE
  5
2A9
100
AcDbEntity
  8
ALL_ASSEMBLY_MEMBERS
100
AcDbLine
 62
7
  6
CONTINUOUS
 10
5.4916873275
 20
4.5043092378
 11
5.4916873275
 21
4.5034595167
  0
LINE
  5
2AA
100
AcDbEntity
  8
ALL_ASSEMBLY_MEMBERS
100
AcDbLine
 62
7
  6
CONTINUOUS
 10
5.4916873275
 20
4.2016063046
 11
5.4916873275
 21
4.202451404
  0
LINE
  5
2AB
100
AcDbEntity
  8
ALL_ASSEMBLY_MEMBERS
100
AcDbLine
 62
7
  6
CONTINUOUS
 10
5.4935113353
 20
4.2207221606
 11
5.4935113353
 21
4.2572091866
  0
LINE
  5
2AC
100
AcDbEntity
  8
ALL_ASSEMBLY_MEMBERS
100
AcDbLine
 62
7
  6
CONTINUOUS
 10
5.4935113353
 20
4.2678268965
 11
5.4935113353
 21
4.2686736097
  0
LINE
  5
2AD
100
AcDbEntity
  8
ALL_ASSEMBLY_MEMBERS
100
AcDbLine
 62
7
  6
CONTINUOUS
 10
5.4935113353
 20
4.5217126909
 11
5.4935113353
 21
4.5320454587
  0
LINE
  5
2AE
100
AcDbEntity
  8
ALL_ASSEMBLY_MEMBERS
100
AcDbLine
 62
7
  6
CONTINUOUS
 10
5.4953353424
 20
4.8774550617
 11
5.4953353424
 21
4.876205198
  0
LINE
  5
2AF
100
AcDbEntity
  8
ALL_ASSEMBLY_MEMBERS
100
AcDbLine
 62
7
  6
CONTINUOUS
 10
5.4953353424
 20
4.5388886885
 11
5.4953353424
 21
4.538044194
  0
LINE
  5
2B0
100
AcDbEntity
  8
ALL_ASSEMBLY_MEMBERS
100
AcDbLine
 62
7
  6
CONTINUOUS
 10
5.4953353424
 20
4.181548958
 11
5.4953353424
 21
4.1823972479
  0
LINE
  5
2B1
100
AcDbEntity
  8
ALL_ASSEMBLY_MEMBERS
100
AcDbLine
 62
7
  6
CONTINUOUS
 10
5.4971593496
 20
4.8788617403
 11
5.4971593496
 21
4.8782432888
  0
LINE
  5
2B2
100
AcDbEntity
  8
ALL_ASSEMBLY_MEMBERS
100
AcDbLine
 62
7
  6
CONTINUOUS
 10
5.4971593496
 20
4.8747412198
 11
5.4971593496
 21
4.8722533921
  0
LINE
  5
2B3
100
AcDbEntity
  8
ALL_ASSEMBLY_MEMBERS
100
AcDbLine
 62
7
  6
CONTINUOUS
 10
5.4971593496
 20
4.2054053893
 11
5.4971593496
 21
4.2062500896
  0
LINE
  5
2B4
100
AcDbEntity
  8
ALL_ASSEMBLY_MEMBERS
100
AcDbLine
 62
7
  6
CONTINUOUS
 10
5.4989833567
 20
4.8777531424
 11
5.4989833567
 21
4.8757530416
  0
LINE
  5
2B5
100
AcDbEntity
  8
ALL_ASSEMBLY_MEMBERS
100
AcDbLine
 62
7
  6
CONTINUOUS
 10
5.4989833567
 20
4.5439973975
 11
5.4989833567
 21
4.5431532811
  0
LINE
  5
2B6
100
AcDbEntity
  8
ALL_ASSEMBLY_MEMBERS
100
AcDbLine
 62
7
  6
CONTINUOUS
 10
5.4989833567
 20
4.4990434837
 11
5.4989833567
 21
4.498192563
  0
LINE
  5
2B7
100
AcDbEntity
  8
ALL_ASSEMBLY_MEMBERS
100
AcDbLine
 62
7
  6
CONTINUOUS
 10
5.4989833567
 20
4.1778267367
 11
5.4989833567
 21
4.1786758271
  0
LINE
  5
2B8
100
AcDbEntity
  8
ALL_ASSEMBLY_MEMBERS
100
AcDbLine
 62
7
  6
CONTINUOUS
 10
5.5044553795
 20
4.8788391042
 11
5.5044553795
 21
4.8783753179
  0
LINE
  5
2B9
100
AcDbEntity
  8
ALL_ASSEMBLY_MEMBERS
100
AcDbLine
 62
7
  6
CONTINUOUS
 10
5.5044553795
 20
4.8743719683
 11
5.5044553795
 21
4.8718822179
  0
LINE
  5
2BA
100
AcDbEntity
  8
ALL_ASSEMBLY_MEMBERS
100
AcDbLine
 62
7
  6
CONTINUOUS
 10
5.5044553795
 20
4.2079448088
 11
5.5044553795
 21
4.2087892777
  0
LINE
  5
2BB
100
AcDbEntity
  8
ALL_ASSEMBLY_MEMBERS
100
AcDbLine
 62
7
  6
CONTINUOUS
 10
5.5062793866
 20
4.5465480078
 11
5.5062793866
 21
4.5575214638
  0
LINE
  5
2BC
100
AcDbEntity
  8
ALL_ASSEMBLY_MEMBERS
100
AcDbLine
 62
7
  6
CONTINUOUS
 10
5.5081033938
 20
4.4955214327
 11
5.5081033938
 21
4.4946696503
  0
LINE
  5
2BD
100
AcDbEntity
  8
ALL_ASSEMBLY_MEMBERS
100
AcDbLine
 62
7
  6
CONTINUOUS
 10
5.5099274009
 20
4.878821933
 11
5.5099274009
 21
4.8784354617
  0
LINE
  5
2BE
100
AcDbEntity
  8
ALL_ASSEMBLY_MEMBERS
100
AcDbLine
 62
7
  6
CONTINUOUS
 10
5.5099274009
 20
4.8780955927
 11
5.5099274009
 21
4.8756250965
  0
LINE
  5
2BF
100
AcDbEntity
  8
ALL_ASSEMBLY_MEMBERS
100
AcDbLine
 62
7
  6
CONTINUOUS
 10
5.5099274009
 20
4.8741813278
 11
5.5099274009
 21
4.8716905835
  0
LINE
  5
2C0
100
AcDbEntity
  8
ALL_ASSEMBLY_MEMBERS
100
AcDbLine
 62
7
  6
CONTINUOUS
 10
5.5099274009
 20
4.1728828257
 11
5.5099274009
 21
4.1737330847
  0
LINE
  5
2C1
100
AcDbEntity
  8
ALL_ASSEMBLY_MEMBERS
100
AcDbLine
 62
7
  6
CONTINUOUS
 10
5.5099274009
 20
4.2092165302
 11
5.5099274009
 21
4.2100608937
  0
LINE
  5
2C2
100
AcDbEntity
  8
ALL_ASSEMBLY_MEMBERS
100
AcDbLine
 62
7
  6
CONTINUOUS
 10
5.0003361801
 20
3.9091187888
 11
4.9628361801
 21
3.8716187888
  0
LINE
  5
2C3
100
AcDbEntity
  8
ALL_ASSEMBLY_MEMBERS
100
AcDbLine
 62
7
  6
CONTINUOUS
 10
5.5609996089
 20
4.5482419713
 11
5.5323607488
 21
4.5482419713
  0
LINE
  5
2C4
100
AcDbEntity
  8
ALL_ASSEMBLY_MEMBERS
100
AcDbLine
 62
7
  6
CONTINUOUS
 10
5.5609996089
 20
4.5490858137
 11
5.5318154893
 21
4.5490858137
  0
LINE
  5
2C5
100
AcDbEntity
  8
ALL_ASSEMBLY_MEMBERS
100
AcDbLine
 62
7
  6
CONTINUOUS
 10
4.5663361801
 20
4.5503687888
 11
4.7128361801
 21
4.5503687888
  0
LINE
  5
2C6
100
AcDbEntity
  8
ALL_ASSEMBLY_MEMBERS
100
AcDbLine
 62
7
  6
CONTINUOUS
 10
5.5701196447
 20
4.5575214638
 11
5.5226954536
 21
4.5575214638
  0
LINE
  5
2C7
100
AcDbEntity
  8
ALL_ASSEMBLY_MEMBERS
100
AcDbLine
 62
7
  6
CONTINUOUS
 10
4.5354171793
 20
4.5585573214
 11
4.3395537915
 21
4.5585573214
  0
LINE
  5
2C8
100
AcDbEntity
  8
ALL_ASSEMBLY_MEMBERS
100
AcDbLine
 62
7
  6
CONTINUOUS
 10
5.5701196447
 20
4.5700575953
 11
5.4843912982
 21
4.5700575953
  0
LINE
  5
2C9
100
AcDbEntity
  8
ALL_ASSEMBLY_MEMBERS
100
AcDbLine
 62
7
  6
CONTINUOUS
 10
5.5701196447
 20
4.5709014491
 11
5.4843912982
 21
4.5709014491
  0
LINE
  5
2CA
100
AcDbEntity
  8
ALL_ASSEMBLY_MEMBERS
100
AcDbLine
 62
7
  6
CONTINUOUS
 10
5.5555275875
 20
4.5808418316
 11
5.4843912982
 21
4.5808418316
  0
LINE
  5
2CB
100
AcDbEntity
  8
ALL_ASSEMBLY_MEMBERS
100
AcDbLine
 62
7
  6
CONTINUOUS
 10
5.5573515946
 20
4.5907009229
 11
5.5427595323
 21
4.5907009229
  0
LINE
  5
2CC
100
AcDbEntity
  8
ALL_ASSEMBLY_MEMBERS
100
AcDbLine
 62
7
  6
CONTINUOUS
 10
4.3188361801
 20
4.5941187888
 11
4.3306706018
 21
4.5941187888
  0
LINE
  5
2CD
100
AcDbEntity
  8
ALL_ASSEMBLY_MEMBERS
100
AcDbLine
 62
7
  6
CONTINUOUS
 10
4.5430371855
 20
4.5941187888
 11
4.5563361801
 21
4.5941187888
  0
LINE
  5
2CE
100
AcDbEntity
  8
ALL_ASSEMBLY_MEMBERS
100
AcDbLine
 62
7
  6
CONTINUOUS
 10
5.5701196447
 20
4.6028716623
 11
5.4843912982
 21
4.6028716623
  0
LINE
  5
2CF
100
AcDbEntity
  8
ALL_ASSEMBLY_MEMBERS
100
AcDbLine
 62
7
  6
CONTINUOUS
 10
5.5701196447
 20
4.6037193616
 11
5.4843912982
 21
4.6037193616
  0
LINE
  5
2D0
100
AcDbEntity
  8
ALL_ASSEMBLY_MEMBERS
100
AcDbLine
 62
7
  6
CONTINUOUS
 10
4.5003757155
 20
4.6038192285
 11
4.3736434222
 21
4.6038192285
  0
LINE
  5
2D1
100
AcDbEntity
  8
ALL_ASSEMBLY_MEMBERS
100
AcDbLine
 62
7
  6
CONTINUOUS
 10
5.5555275875
 20
4.6133873416
 11
5.4843912982
 21
4.6133873416
  0
LINE
  5
2D2
100
AcDbEntity
  8
ALL_ASSEMBLY_MEMBERS
100
AcDbLine
 62
7
  6
CONTINUOUS
 10
5.5573515946
 20
4.6229725058
 11
5.5427595323
 21
4.6229725058
  0
LWPOLYLINE
  5
2D3
100
AcDbEntity
  8
ALL_ASSEMBLY_MEMBERS
100
AcDbPolyline
 62
7
  6
CONTINUOUS
 90
18
 70
0
 10
4.5430371855
 20
4.5941187856
 10
4.54198473
 20
4.5941464964
 10
4.5399830086
 20
4.5943533612
 10
4.5380122017
 20
4.594760337
 10
4.5360922643
 20
4.5953633047
 10
4.5342426395
 20
4.596156159
 10
4.5324820536
 20
4.5971308729
 10
4.5308283312
 20
4.5982775778
 10
4.529298219
 20
4.5995846608
 10
4.5279072073
 20
4.6010388873
 10
4.5266693777
 20
4.6026255335
 10
4.5255972636
 20
4.6043285305
 10
4.5247017162
 20
4.6061306359
 10
4.5239917997
 20
4.6080136036
 10
4.5234746997
 20
4.6099583634
 10
4.5231556466
 20
4.6119452238
 10
4.5230378648
 20
4.613954072
 10
4.5230384105
 20
4.6143400548
  0
LINE
  5
2D4
100
AcDbEntity
  8
ALL_ASSEMBLY_MEMBERS
100
AcDbLine
 62
7
  6
CONTINUOUS
 10
5.0003361801
 20
4.8791187888
 11
4.9628361801
 21
4.9166187888
  0
LINE
  5
2D5
100
AcDbEntity
  8
ALL_ASSEMBLY_MEMBERS
100
AcDbLine
 62
7
  6
CONTINUOUS
 10
5.5153994224
 20
4.4955214327
 11
5.5153994224
 21
4.4946696503
  0
LINE
  5
2D6
100
AcDbEntity
  8
ALL_ASSEMBLY_MEMBERS
100
AcDbLine
 62
7
  6
CONTINUOUS
 10
5.5190474393
 20
4.8788008593
 11
5.5190474393
 21
4.8784916931
  0
LINE
  5
2D7
100
AcDbEntity
  8
ALL_ASSEMBLY_MEMBERS
100
AcDbLine
 62
7
  6
CONTINUOUS
 10
5.5190474393
 20
4.8739866705
 11
5.5190474393
 21
4.8714949105
  0
LINE
  5
2D8
100
AcDbEntity
  8
ALL_ASSEMBLY_MEMBERS
100
AcDbLine
 62
7
  6
CONTINUOUS
 10
5.5190474393
 20
4.2104895823
 11
5.5190474393
 21
4.2113338472
  0
LINE
  5
2D9
100
AcDbEntity
  8
ALL_ASSEMBLY_MEMBERS
100
AcDbLine
 62
7
  6
CONTINUOUS
 10
5.5208714464
 20
4.8781713999
 11
5.5208714464
 21
4.8757012927
  0
LINE
  5
2DA
100
AcDbEntity
  8
ALL_ASSEMBLY_MEMBERS
100
AcDbLine
 62
7
  6
CONTINUOUS
 10
5.5208714464
 20
4.1716502647
 11
5.5208714464
 21
4.1725008342
  0
LINE
  5
2DB
100
AcDbEntity
  8
ALL_ASSEMBLY_MEMBERS
100
AcDbLine
 62
7
  6
CONTINUOUS
 10
5.5226954536
 20
4.5448517748
 11
5.5226954536
 21
4.5575214638
  0
LINE
  5
2DC
100
AcDbEntity
  8
ALL_ASSEMBLY_MEMBERS
100
AcDbLine
 62
7
  6
CONTINUOUS
 10
5.5245194607
 20
4.4990434837
 11
5.5245194607
 21
4.498192563
  0
LINE
  5
2DD
100
AcDbEntity
  8
ALL_ASSEMBLY_MEMBERS
100
AcDbLine
 62
7
  6
CONTINUOUS
 10
5.5245194607
 20
3.909396738
 11
5.5245194607
 21
3.9111024962
  0
LINE
  5
2DE
100
AcDbEntity
  8
ALL_ASSEMBLY_MEMBERS
100
AcDbLine
 62
7
  6
CONTINUOUS
 10
5.528167475
 20
4.5388886885
 11
5.528167475
 21
4.538044194
  0
LINE
  5
2DF
100
AcDbEntity
  8
ALL_ASSEMBLY_MEMBERS
100
AcDbLine
 62
7
  6
CONTINUOUS
 10
5.5299914822
 20
4.5217126909
 11
5.5299914822
 21
4.5320454587
  0
LINE
  5
2E0
100
AcDbEntity
  8
ALL_ASSEMBLY_MEMBERS
100
AcDbLine
 62
7
  6
CONTINUOUS
 10
5.5318154893
 20
4.5043092378
 11
5.5318154893
 21
4.5034595167
  0
LINE
  5
2E1
100
AcDbEntity
  8
ALL_ASSEMBLY_MEMBERS
100
AcDbLine
 62
7
  6
CONTINUOUS
 10
5.5336394965
 20
4.8781713999
 11
5.5336394965
 21
4.8757012927
  0
LINE
  5
2E2
100
AcDbEntity
  8
ALL_ASSEMBLY_MEMBERS
100
AcDbLine
 62
7
  6
CONTINUOUS
 10
5.5336394965
 20
4.1716502647
 11
5.5336394965
 21
4.1725008342
  0
LINE
  5
2E3
100
AcDbEntity
  8
ALL_ASSEMBLY_MEMBERS
100
AcDbLine
 62
7
  6
CONTINUOUS
 10
5.5354635037
 20
4.8788008593
 11
5.5354635037
 21
4.8784916931
  0
LINE
  5
2E4
100
AcDbEntity
  8
ALL_ASSEMBLY_MEMBERS
100
AcDbLine
 62
7
  6
CONTINUOUS
 10
5.5354635037
 20
4.8739866705
 11
5.5354635037
 21
4.8714949105
  0
LINE
  5
2E5
100
AcDbEntity
  8
ALL_ASSEMBLY_MEMBERS
100
AcDbLine
 62
7
  6
CONTINUOUS
 10
5.5354635037
 20
3.909396738
 11
5.5354635037
 21
3.9111024962
  0
LINE
  5
2E6
100
AcDbEntity
  8
ALL_ASSEMBLY_MEMBERS
100
AcDbLine
 62
7
  6
CONTINUOUS
 10
5.5354635037
 20
4.2104895823
 11
5.5354635037
 21
4.2113338472
  0
LINE
  5
2E7
100
AcDbEntity
  8
ALL_ASSEMBLY_MEMBERS
100
AcDbLine
 62
7
  6
CONTINUOUS
 10
5.5372875108
 20
4.5130395359
 11
5.5372875108
 21
4.5121915693
  0
LINE
  5
2E8
100
AcDbEntity
  8
ALL_ASSEMBLY_MEMBERS
100
AcDbLine
 62
7
  6
CONTINUOUS
 10
5.539111518
 20
4.2310401793
 11
5.539111518
 21
4.2318837992
  0
LINE
  5
2E9
100
AcDbEntity
  8
ALL_ASSEMBLY_MEMBERS
100
AcDbLine
 62
7
  6
CONTINUOUS
 10
5.539111518
 20
4.5217126909
 11
5.539111518
 21
4.5320454587
  0
LINE
  5
2EA
100
AcDbEntity
  8
ALL_ASSEMBLY_MEMBERS
100
AcDbLine
 62
7
  6
CONTINUOUS
 10
5.5395094085
 20
3.9183065067
 11
5.5395094085
 21
3.9158065999
  0
LINE
  5
2EB
100
AcDbEntity
  8
ALL_ASSEMBLY_MEMBERS
100
AcDbLine
 62
7
  6
CONTINUOUS
 10
5.5427595323
 20
4.6229725058
 11
5.5427595323
 21
4.622120204
  0
LINE
  5
2EC
100
AcDbEntity
  8
ALL_ASSEMBLY_MEMBERS
100
AcDbLine
 62
7
  6
CONTINUOUS
 10
5.5427595323
 20
4.5907009229
 11
5.5427595323
 21
4.5898553251
  0
LINE
  5
2ED
100
AcDbEntity
  8
ALL_ASSEMBLY_MEMBERS
100
AcDbLine
 62
7
  6
CONTINUOUS
 10
5.5427595323
 20
4.2947502754
 11
5.5427595323
 21
4.2956025773
  0
LINE
  5
2EE
100
AcDbEntity
  8
ALL_ASSEMBLY_MEMBERS
100
AcDbLine
 62
7
  6
CONTINUOUS
 10
5.5445835394
 20
4.878821933
 11
5.5445835394
 21
4.8784354617
  0
LINE
  5
2EF
100
AcDbEntity
  8
ALL_ASSEMBLY_MEMBERS
100
AcDbLine
 62
7
  6
CONTINUOUS
 10
5.5445835394
 20
4.8741813278
 11
5.5445835394
 21
4.8716905835
  0
LINE
  5
2F0
100
AcDbEntity
  8
ALL_ASSEMBLY_MEMBERS
100
AcDbLine
 62
7
  6
CONTINUOUS
 10
5.5445835394
 20
4.8780955927
 11
5.5445835394
 21
4.8756250965
  0
LINE
  5
2F1
100
AcDbEntity
  8
ALL_ASSEMBLY_MEMBERS
100
AcDbLine
 62
7
  6
CONTINUOUS
 10
5.5445835394
 20
4.1728828257
 11
5.5445835394
 21
4.1737330847
  0
LINE
  5
2F2
100
AcDbEntity
  8
ALL_ASSEMBLY_MEMBERS
100
AcDbLine
 62
7
  6
CONTINUOUS
 10
5.5445835394
 20
4.2092165302
 11
5.5445835394
 21
4.2100608937
  0
LINE
  5
2F3
100
AcDbEntity
  8
ALL_ASSEMBLY_MEMBERS
100
AcDbLine
 62
7
  6
CONTINUOUS
 10
5.5464075466
 20
4.2284526698
 11
5.5464075466
 21
4.2292962746
  0
LINE
  5
2F4
100
AcDbEntity
  8
ALL_ASSEMBLY_MEMBERS
100
AcDbLine
 62
7
  6
CONTINUOUS
 10
5.550055566
 20
4.8788391042
 11
5.550055566
 21
4.8783753179
  0
LINE
  5
2F5
100
AcDbEntity
  8
ALL_ASSEMBLY_MEMBERS
100
AcDbLine
 62
7
  6
CONTINUOUS
 10
5.550055566
 20
4.8743719683
 11
5.550055566
 21
4.8718822179
  0
LINE
  5
2F6
100
AcDbEntity
  8
ALL_ASSEMBLY_MEMBERS
100
AcDbLine
 62
7
  6
CONTINUOUS
 10
5.550055566
 20
4.2079448088
 11
5.550055566
 21
4.2087892777
  0
LINE
  5
2F7
100
AcDbEntity
  8
ALL_ASSEMBLY_MEMBERS
100
AcDbLine
 62
7
  6
CONTINUOUS
 10
5.550055566
 20
4.2284526698
 11
5.550055566
 21
4.2292962746
  0
LINE
  5
2F8
100
AcDbEntity
  8
ALL_ASSEMBLY_MEMBERS
100
AcDbLine
 62
7
  6
CONTINUOUS
 10
5.550055566
 20
4.2598555422
 11
5.550055566
 21
4.2673414788
  0
LINE
  5
2F9
100
AcDbEntity
  8
ALL_ASSEMBLY_MEMBERS
100
AcDbLine
 62
7
  6
CONTINUOUS
 10
5.5555275875
 20
4.8777531424
 11
5.5555275875
 21
4.8757530416
  0
LINE
  5
2FA
100
AcDbEntity
  8
ALL_ASSEMBLY_MEMBERS
100
AcDbLine
 62
7
  6
CONTINUOUS
 10
5.5555275875
 20
4.1778267367
 11
5.5555275875
 21
4.1786758271
  0
LINE
  5
2FB
100
AcDbEntity
  8
ALL_ASSEMBLY_MEMBERS
100
AcDbLine
 62
7
  6
CONTINUOUS
 10
5.5555275875
 20
4.2310401793
 11
5.5555275875
 21
4.2318837992
  0
LINE
  5
2FC
100
AcDbEntity
  8
ALL_ASSEMBLY_MEMBERS
100
AcDbLine
 62
7
  6
CONTINUOUS
 10
5.5573515946
 20
4.8788617403
 11
5.5573515946
 21
4.8782432888
  0
LINE
  5
2FD
100
AcDbEntity
  8
ALL_ASSEMBLY_MEMBERS
100
AcDbLine
 62
7
  6
CONTINUOUS
 10
5.5573515946
 20
4.8747412198
 11
5.5573515946
 21
4.8722533921
  0
LINE
  5
2FE
100
AcDbEntity
  8
ALL_ASSEMBLY_MEMBERS
100
AcDbLine
 62
7
  6
CONTINUOUS
 10
5.5573515946
 20
4.2054053893
 11
5.5573515946
 21
4.2062500896
  0
LINE
  5
2FF
100
AcDbEntity
  8
ALL_ASSEMBLY_MEMBERS
100
AcDbLine
 62
7
  6
CONTINUOUS
 10
5.5573515946
 20
4.2651643912
 11
5.5573515946
 21
4.2660107031
  0
LINE
  5
300
100
AcDbEntity
  8
ALL_ASSEMBLY_MEMBERS
100
AcDbLine
 62
7
  6
CONTINUOUS
 10
5.5573515946
 20
4.2947502754
 11
5.5573515946
 21
4.2956025773
  0
LINE
  5
301
100
AcDbEntity
  8
ALL_ASSEMBLY_MEMBERS
100
AcDbLine
 62
7
  6
CONTINUOUS
 10
5.5591756018
 20
4.8774550617
 11
5.5591756018
 21
4.876205198
  0
LINE
  5
302
100
AcDbEntity
  8
ALL_ASSEMBLY_MEMBERS
100
AcDbLine
 62
7
  6
CONTINUOUS
 10
5.5591756018
 20
3.9093687943
 11
5.5591756018
 21
3.9111024962
  0
LINE
  5
303
100
AcDbEntity
  8
ALL_ASSEMBLY_MEMBERS
100
AcDbLine
 62
7
  6
CONTINUOUS
 10
5.5591756018
 20
4.181548958
 11
5.5591756018
 21
4.1823972479
  0
LINE
  5
304
100
AcDbEntity
  8
ALL_ASSEMBLY_MEMBERS
100
AcDbLine
 62
7
  6
CONTINUOUS
 10
5.5591756018
 20
4.2349314561
 11
5.5591756018
 21
4.2357751497
  0
LINE
  5
305
100
AcDbEntity
  8
ALL_ASSEMBLY_MEMBERS
100
AcDbLine
 62
7
  6
CONTINUOUS
 10
5.5609996089
 20
4.241443618
 11
5.5609996089
 21
4.246677393
  0
LINE
  5
306
100
AcDbEntity
  8
ALL_ASSEMBLY_MEMBERS
100
AcDbLine
 62
7
  6
CONTINUOUS
 10
5.5609996089
 20
4.498192563
 11
5.5609996089
 21
4.5490858137
  0
LINE
  5
307
100
AcDbEntity
  8
ALL_ASSEMBLY_MEMBERS
100
AcDbLine
 62
7
  6
CONTINUOUS
 10
5.5628236161
 20
4.8788664321
 11
5.5628236161
 21
4.8780158656
  0
LINE
  5
308
100
AcDbEntity
  8
ALL_ASSEMBLY_MEMBERS
100
AcDbLine
 62
7
  6
CONTINUOUS
 10
5.5628236161
 20
4.8752650852
 11
5.5628236161
 21
4.8727799802
  0
LINE
  5
309
100
AcDbEntity
  8
ALL_ASSEMBLY_MEMBERS
100
AcDbLine
 62
7
  6
CONTINUOUS
 10
5.5628236161
 20
4.2016063046
 11
5.5628236161
 21
4.202451404
  0
LINE
  5
30A
100
AcDbEntity
  8
ALL_ASSEMBLY_MEMBERS
100
AcDbLine
 62
7
  6
CONTINUOUS
 10
5.5646476232
 20
4.2598555422
 11
5.5646476232
 21
4.2607011357
  0
LINE
  5
30B
100
AcDbEntity
  8
ALL_ASSEMBLY_MEMBERS
100
AcDbLine
 62
7
  6
CONTINUOUS
 10
5.5682956375
 20
4.8787962164
 11
5.5682956375
 21
4.877558354
  0
LINE
  5
30C
100
AcDbEntity
  8
ALL_ASSEMBLY_MEMBERS
100
AcDbLine
 62
7
  6
CONTINUOUS
 10
5.5682956375
 20
4.8760584503
 11
5.5682956375
 21
4.8735774575
  0
LINE
  5
30D
100
AcDbEntity
  8
ALL_ASSEMBLY_MEMBERS
100
AcDbLine
 62
7
  6
CONTINUOUS
 10
5.5682956375
 20
4.1953013314
 11
5.5682956375
 21
4.1961472346
  0
LINE
  5
30E
100
AcDbEntity
  8
ALL_ASSEMBLY_MEMBERS
100
AcDbLine
 62
7
  6
CONTINUOUS
 10
5.5682956375
 20
4.2545681965
 11
5.5682956375
 21
4.2554131831
  0
LINE
  5
30F
100
AcDbEntity
  8
ALL_ASSEMBLY_MEMBERS
100
AcDbLine
 62
7
  6
CONTINUOUS
 10
5.5701196447
 20
4.8785831363
 11
5.5701196447
 21
4.8744027546
  0
LINE
  5
310
100
AcDbEntity
  8
ALL_ASSEMBLY_MEMBERS
100
AcDbLine
 62
7
  6
CONTINUOUS
 10
5.5701196447
 20
3.9093687984
 11
5.5701196447
 21
3.9143527413
  0
LINE
  5
311
100
AcDbEntity
  8
ALL_ASSEMBLY_MEMBERS
100
AcDbLine
 62
7
  6
CONTINUOUS
 10
5.5701196447
 20
4.2401385125
 11
5.5701196447
 21
4.2453669448
  0
LINE
  5
312
100
AcDbEntity
  8
ALL_ASSEMBLY_MEMBERS
100
AcDbLine
 62
7
  6
CONTINUOUS
 10
5.5701196447
 20
4.2785309613
 11
5.5701196447
 21
4.2874663423
  0
LINE
  5
313
100
AcDbEntity
  8
ALL_ASSEMBLY_MEMBERS
100
AcDbLine
 62
7
  6
CONTINUOUS
 10
5.5701196447
 20
4.498192563
 11
5.5701196447
 21
4.5575214638
  0
LINE
  5
314
100
AcDbEntity
  8
ALL_ASSEMBLY_MEMBERS
100
AcDbLine
 62
7
  6
CONTINUOUS
 10
5.5701196447
 20
4.5700575953
 11
5.5701196447
 21
4.5808418316
  0
LINE
  5
315
100
AcDbEntity
  8
ALL_ASSEMBLY_MEMBERS
100
AcDbLine
 62
7
  6
CONTINUOUS
 10
5.5701196447
 20
4.6028716623
 11
5.5701196447
 21
4.6133873416
  0
LINE
  5
316
100
AcDbEntity
  8
ALL_ASSEMBLY_MEMBERS
100
AcDbLine
 62
7
  6
CONTINUOUS
 10
5.5729739754
 20
3.9183065067
 11
5.5729739754
 21
3.9158065999
  0
LINE
  5
317
100
AcDbEntity
  8
ALL_ASSEMBLY_MEMBERS
100
AcDbLine
 62
7
  6
CONTINUOUS
 10
5.5729739754
 20
4.3813235132
 11
5.5729739754
 21
4.4069140644
  0
LINE
  5
318
100
AcDbEntity
  8
ALL_ASSEMBLY_MEMBERS
100
AcDbLine
 62
7
  6
CONTINUOUS
 10
5.5729739754
 20
4.7817041444
 11
5.5729739754
 21
4.7984034569
  0
LINE
  5
319
100
AcDbEntity
  8
ALL_ASSEMBLY_MEMBERS
100
AcDbLine
 62
7
  6
CONTINUOUS
 10
5.5948361801
 20
4.8866187888
 11
5.5948361801
 21
3.9016187888
  0
LINE
  5
31A
100
AcDbEntity
  8
ALL_ASSEMBLY_MEMBERS
100
AcDbLine
 62
7
  6
CONTINUOUS
 10
5.5729739754
 20
4.7817041444
 11
5.4843912982
 21
4.7817041444
  0
LINE
  5
31B
100
AcDbEntity
  8
ALL_ASSEMBLY_MEMBERS
100
AcDbLine
 62
7
  6
CONTINUOUS
 10
5.5729739754
 20
4.7837253197
 11
5.4843912982
 21
4.7837253197
  0
LINE
  5
31C
100
AcDbEntity
  8
ALL_ASSEMBLY_MEMBERS
100
AcDbLine
 62
7
  6
CONTINUOUS
 10
5.7398459009
 20
4.8866187888
 11
5.7394698995
 21
4.8866114874
  0
LINE
  5
31D
100
AcDbEntity
  8
ALL_ASSEMBLY_MEMBERS
100
AcDbLine
 62
7
  6
CONTINUOUS
 10
5.7394750399
 20
4.8866116049
 11
5.7398459009
 21
4.8866187888
  0
LINE
  5
31E
100
AcDbEntity
  8
ALL_ASSEMBLY_MEMBERS
100
AcDbLine
 62
7
  6
CONTINUOUS
 10
5.5729739754
 20
4.7984034569
 11
5.4843912982
 21
4.7984034569
  0
LINE
  5
31F
100
AcDbEntity
  8
ALL_ASSEMBLY_MEMBERS
100
AcDbLine
 62
7
  6
CONTINUOUS
 10
4.7378361801
 20
4.8166187888
 11
4.7128361801
 21
4.8166187888
  0
LINE
  5
320
100
AcDbEntity
  8
ALL_ASSEMBLY_MEMBERS
100
AcDbLine
 62
7
  6
CONTINUOUS
 10
5.5354635037
 20
4.8714949105
 11
5.5190474393
 21
4.8714949105
  0
LINE
  5
321
100
AcDbEntity
  8
ALL_ASSEMBLY_MEMBERS
100
AcDbLine
 62
7
  6
CONTINUOUS
 10
5.5354635037
 20
4.8739866705
 11
5.5190474393
 21
4.8739866705
  0
LINE
  5
322
100
AcDbEntity
  8
ALL_ASSEMBLY_MEMBERS
100
AcDbLine
 62
7
  6
CONTINUOUS
 10
5.5336394965
 20
4.8749198389
 11
5.5208714464
 21
4.8749198389
  0
LINE
  5
323
100
AcDbEntity
  8
ALL_ASSEMBLY_MEMBERS
100
AcDbLine
 62
7
  6
CONTINUOUS
 10
5.5336394965
 20
4.8757012927
 11
5.5208714464
 21
4.8757012927
  0
LINE
  5
324
100
AcDbEntity
  8
ALL_ASSEMBLY_MEMBERS
100
AcDbLine
 62
7
  6
CONTINUOUS
 10
5.4253361801
 20
4.8764022534
 11
5.4843912982
 21
4.8764022534
  0
LINE
  5
325
100
AcDbEntity
  8
ALL_ASSEMBLY_MEMBERS
100
AcDbLine
 62
7
  6
CONTINUOUS
 10
5.5701196447
 20
4.8764022534
 11
5.5948361801
 21
4.8764022534
  0
LINE
  5
326
100
AcDbEntity
  8
ALL_ASSEMBLY_MEMBERS
100
AcDbLine
 62
7
  6
CONTINUOUS
 10
5.5336394965
 20
4.8781713999
 11
5.5208714464
 21
4.8781713999
  0
LINE
  5
327
100
AcDbEntity
  8
ALL_ASSEMBLY_MEMBERS
100
AcDbLine
 62
7
  6
CONTINUOUS
 10
5.5354635037
 20
4.8784916931
 11
5.5190474393
 21
4.8784916931
  0
LINE
  5
328
100
AcDbEntity
  8
ALL_ASSEMBLY_MEMBERS
100
AcDbLine
 62
7
  6
CONTINUOUS
 10
5.5354635037
 20
4.8788008593
 11
5.5190474393
 21
4.8788008593
  0
LINE
  5
329
100
AcDbEntity
  8
ALL_ASSEMBLY_MEMBERS
100
AcDbLine
 62
7
  6
CONTINUOUS
 10
5.4253361801
 20
4.8791187888
 11
5.1848361801
 21
4.8791187888
  0
LINE
  5
32A
100
AcDbEntity
  8
ALL_ASSEMBLY_MEMBERS
100
AcDbLine
 62
7
  6
CONTINUOUS
 10
5.0098361801
 20
4.8791187888
 11
5.0003361801
 21
4.8791187888
  0
LINE
  5
32B
100
AcDbEntity
  8
ALL_ASSEMBLY_MEMBERS
100
AcDbLine
 62
7
  6
CONTINUOUS
 10
5.7298361801
 20
4.886517266
 11
5.6498361801
 21
4.886517266
  0
LINE
  5
32C
100
AcDbEntity
  8
ALL_ASSEMBLY_MEMBERS
100
AcDbLine
 62
7
  6
CONTINUOUS
 10
5.5948361801
 20
4.8866187888
 11
5.6398361801
 21
4.8866187888
  0
LINE
  5
32D
100
AcDbEntity
  8
ALL_ASSEMBLY_MEMBERS
100
AcDbLine
 62
7
  6
CONTINUOUS
 10
5.7398361801
 20
4.8866187888
 11
5.8728361801
 21
4.8866187888
  0
LINE
  5
32E
100
AcDbEntity
  8
ALL_ASSEMBLY_MEMBERS
100
AcDbLine
 62
7
  6
CONTINUOUS
 10
4.9628361801
 20
4.9166187888
 11
4.9128361801
 21
4.9166187888
  0
LINE
  5
32F
100
AcDbEntity
  8
ALL_ASSEMBLY_MEMBERS
100
AcDbLine
 62
7
  6
CONTINUOUS
 10
4.8128361801
 20
4.9166187888
 11
4.7878361801
 21
4.9166187888
  0
LINE
  5
330
100
AcDbEntity
  8
ALL_ASSEMBLY_MEMBERS
100
AcDbLine
 62
7
  6
CONTINUOUS
 10
5.6398264644
 20
4.8866187888
 11
5.6401961266
 21
4.8866116281
  0
LINE
  5
331
100
AcDbEntity
  8
ALL_ASSEMBLY_MEMBERS
100
AcDbLine
 62
7
  6
CONTINUOUS
 10
5.6402017494
 20
4.8866115046
 11
5.6398264622
 21
4.8866187888
  0
LINE
  5
332
100
AcDbEntity
  8
ALL_ASSEMBLY_MEMBERS
100
AcDbLine
 62
7
  6
CONTINUOUS
 10
5.8728361801
 20
3.8641198084
 11
5.8728361801
 21
4.9241177693
  0
LINE
  5
333
100
AcDbEntity
  8
ALL_ASSEMBLY_MEMBERS
100
AcDbLine
 62
7
  6
CONTINUOUS
 10
4.9128361801
 20
4.9541187888
 11
4.8128361801
 21
4.9541187888
  0
LINE
  5
334
100
AcDbEntity
  8
ALL_ASSEMBLY_MEMBERS
100
AcDbLine
 62
7
  6
CONTINUOUS
 10
5.0323361801
 20
4.9899020569
 11
5.1623361801
 21
4.9899020569
  0
LINE
  5
335
100
AcDbEntity
  8
ALL_ASSEMBLY_MEMBERS
100
AcDbLine
 62
7
  6
CONTINUOUS
 10
5.9456989564
 20
5.0041187888
 11
5.9523361801
 21
5.0041187888
  0
LINE
  5
336
100
AcDbEntity
  8
ALL_ASSEMBLY_MEMBERS
100
AcDbLine
 62
7
  6
CONTINUOUS
 10
5.1418816347
 20
5.0183429482
 11
5.0527907256
 21
5.0183429482
  0
LINE
  5
337
100
AcDbEntity
  8
ALL_ASSEMBLY_MEMBERS
100
AcDbLine
 62
7
  6
CONTINUOUS
 10
5.9456989564
 20
5.1591187888
 11
5.9456989564
 21
5.0941187888
  0
LINE
  5
338
100
AcDbEntity
  8
ALL_ASSEMBLY_MEMBERS
100
AcDbLine
 62
7
  6
CONTINUOUS
 10
5.9456989564
 20
5.0041187888
 11
5.9456989564
 21
5.0691187888
  0
LINE
  5
339
100
AcDbEntity
  8
ALL_ASSEMBLY_MEMBERS
100
AcDbLine
 62
7
  6
CONTINUOUS
 10
5.9523361801
 20
2.8526970439
 11
5.9523361801
 21
5.9355405337
  0
LINE
  5
33A
100
AcDbEntity
  8
ALL_ASSEMBLY_MEMBERS
100
AcDbLine
 62
7
  6
CONTINUOUS
 10
5.973304685
 20
2.8230097131
 11
5.973304685
 21
5.9652278645
  0
LINE
  5
33B
100
AcDbEntity
  8
ALL_ASSEMBLY_MEMBERS
100
AcDbLine
 62
7
  6
CONTINUOUS
 10
6.010095005
 20
2.7883429466
 11
6.010095005
 21
5.999894631
  0
LINE
  5
33C
100
AcDbEntity
  8
ALL_ASSEMBLY_MEMBERS
100
AcDbLine
 62
7
  6
CONTINUOUS
 10
4.521146853
 20
5.1239370559
 11
4.528305743
 21
5.1240909475
  0
LINE
  5
33D
100
AcDbEntity
  8
ALL_ASSEMBLY_MEMBERS
100
AcDbLine
 62
7
  6
CONTINUOUS
 10
5.9456989564
 20
5.0691187888
 11
5.9523361801
 21
5.0691187888
  0
LINE
  5
33E
100
AcDbEntity
  8
ALL_ASSEMBLY_MEMBERS
100
AcDbLine
 62
7
  6
CONTINUOUS
 10
5.9456989564
 20
5.0941187888
 11
5.9523361801
 21
5.0941187888
  0
LINE
  5
33F
100
AcDbEntity
  8
ALL_ASSEMBLY_MEMBERS
100
AcDbLine
 62
7
  6
CONTINUOUS
 10
4.3560401154
 20
5.1224578792
 11
4.5012886635
 21
5.1224578792
  0
LINE
  5
340
100
AcDbEntity
  8
ALL_ASSEMBLY_MEMBERS
100
AcDbLine
 62
7
  6
CONTINUOUS
 10
4.3490225484
 20
5.1441187888
 11
4.5083011464
 21
5.1441187888
  0
LINE
  5
341
100
AcDbEntity
  8
ALL_ASSEMBLY_MEMBERS
100
AcDbLine
 62
7
  6
CONTINUOUS
 10
5.9456989564
 20
5.1591187888
 11
5.9523361801
 21
5.1591187888
  0
LINE
  5
342
100
AcDbEntity
  8
ALL_ASSEMBLY_MEMBERS
100
AcDbLine
 62
7
  6
CONTINUOUS
 10
4.3290292585
 20
5.1234468182
 11
4.3361978217
 21
5.1232984407
  0
LINE
  5
343
100
AcDbEntity
  8
ALL_ASSEMBLY_MEMBERS
100
AcDbLine
 62
7
  6
CONTINUOUS
 10
6.0391045499
 20
2.7691187888
 11
6.0391045499
 21
6.0191187888
  0
LINE
  5
344
100
AcDbEntity
  8
ALL_ASSEMBLY_MEMBERS
100
AcDbLine
 62
7
  6
CONTINUOUS
 10
6.1088361801
 20
6.0191187888
 11
6.1088361801
 21
2.7691187888
  0
LINE
  5
345
100
AcDbEntity
  8
ALL_ASSEMBLY_MEMBERS
100
AcDbLine
 62
7
  6
CONTINUOUS
 10
6.1088361801
 20
6.0191187888
 11
6.0391045499
 21
6.0191187888
  0
ARC
  5
346
100
AcDbEntity
  8
ALL_ASSEMBLY_MEMBERS
100
AcDbCircle
 62
7
  6
CONTINUOUS
 10
2.2313770065
 20
4.1614858384
 40
2.3174556357
100
AcDbArc
 50
5.7612208036
 51
6.1681663885
  0
ARC
  5
347
100
AcDbEntity
  8
ALL_ASSEMBLY_MEMBERS
100
AcDbCircle
 62
7
  6
CONTINUOUS
 10
3.7913345888
 20
4.02908404
 40
0.7369712911
100
AcDbArc
 50
0.1613504645
 51
7.9926565357
  0
ARC
  5
348
100
AcDbEntity
  8
ALL_ASSEMBLY_MEMBERS
100
AcDbCircle
 62
7
  6
CONTINUOUS
 10
3.7880182522
 20
4.0191195829
 40
0.7202873482
100
AcDbArc
 50
351.9991382646
 51
8.0007337786
  0
ARC
  5
349
100
AcDbEntity
  8
ALL_ASSEMBLY_MEMBERS
100
AcDbCircle
 62
7
  6
CONTINUOUS
 10
3.5385189716
 20
4.6078027953
 40
0.981809147
100
AcDbArc
 50
359.6067518184
 51
359.8543971167
  0
ARC
  5
34A
100
AcDbEntity
  8
ALL_ASSEMBLY_MEMBERS
100
AcDbCircle
 62
7
  6
CONTINUOUS
 10
3.9877942216
 20
4.6057960349
 40
0.5125853058
100
AcDbArc
 50
359.4400781881
 51
359.7790359108
  0
ARC
  5
34B
100
AcDbEntity
  8
ALL_ASSEMBLY_MEMBERS
100
AcDbCircle
 62
7
  6
CONTINUOUS
 10
5.0656931372
 20
4.0293288468
 40
0.7366677296
100
AcDbArc
 50
171.9981970325
 51
175.9264856285
  0
ARC
  5
34C
100
AcDbEntity
  8
ALL_ASSEMBLY_MEMBERS
100
AcDbCircle
 62
7
  6
CONTINUOUS
 10
5.0688009288
 20
4.019120733
 40
0.7197828064
100
AcDbArc
 50
171.9937139261
 51
188.0065992454
  0
ARC
  5
34D
100
AcDbEntity
  8
ALL_ASSEMBLY_MEMBERS
100
AcDbCircle
 62
7
  6
CONTINUOUS
 10
4.2828245805
 20
4.3510638263
 40
0.2375051716
100
AcDbArc
 50
0.3641558114
 51
0.8271915555
  0
ARC
  5
34E
100
AcDbEntity
  8
ALL_ASSEMBLY_MEMBERS
100
AcDbCircle
 62
7
  6
CONTINUOUS
 10
4.3753441935
 20
4.3681638176
 40
0.1250371895
100
AcDbArc
 50
0.5455228573
 51
1.1767794
  0
ARC
  5
34F
100
AcDbEntity
  8
ALL_ASSEMBLY_MEMBERS
100
AcDbCircle
 62
7
  6
CONTINUOUS
 10
4.437866987
 20
4.14425507
 40
0.1201412176
100
AcDbArc
 50
142.9802344619
 51
144.9158541952
  0
ARC
  5
350
100
AcDbEntity
  8
ALL_ASSEMBLY_MEMBERS
100
AcDbCircle
 62
7
  6
CONTINUOUS
 10
4.3686980427
 20
4.140961748
 40
0.0779969813
100
AcDbArc
 50
110.2327140035
 51
111.9405253823
  0
ARC
  5
351
100
AcDbEntity
  8
ALL_ASSEMBLY_MEMBERS
100
AcDbCircle
 62
7
  6
CONTINUOUS
 10
4.6391240449
 20
4.2109689344
 40
0.0725583219
100
AcDbArc
 50
86.6737811107
 51
93.3878941407
  0
ARC
  5
352
100
AcDbEntity
  8
ALL_ASSEMBLY_MEMBERS
100
AcDbCircle
 62
7
  6
CONTINUOUS
 10
4.6391224542
 20
4.2192182082
 40
0.0643249402
100
AcDbArc
 50
86.2741863944
 51
93.8207067779
  0
ARC
  5
353
100
AcDbEntity
  8
ALL_ASSEMBLY_MEMBERS
100
AcDbCircle
 62
7
  6
CONTINUOUS
 10
4.6348355918
 20
4.3069566183
 40
0.0618920985
100
AcDbArc
 50
268.4905306307
 51
271.5094693693
  0
ARC
  5
354
100
AcDbEntity
  8
ALL_ASSEMBLY_MEMBERS
100
AcDbCircle
 62
7
  6
CONTINUOUS
 10
4.6348437964
 20
4.2282667939
 40
0.056853682
100
AcDbArc
 50
79.5453625671
 51
92.2965409748
  0
ARC
  5
355
100
AcDbEntity
  8
ALL_ASSEMBLY_MEMBERS
100
AcDbCircle
 62
7
  6
CONTINUOUS
 10
4.6350522392
 20
4.229353491
 40
0.0557472024
100
AcDbArc
 50
71.4331486972
 51
79.5533727063
  0
ARC
  5
356
100
AcDbEntity
  8
ALL_ASSEMBLY_MEMBERS
100
AcDbCircle
 62
7
  6
CONTINUOUS
 10
4.635607804
 20
4.2310361468
 40
0.053975227
100
AcDbArc
 50
66.359494114
 51
71.4234603959
  0
ARC
  5
357
100
AcDbEntity
  8
ALL_ASSEMBLY_MEMBERS
100
AcDbCircle
 62
7
  6
CONTINUOUS
 10
4.6176830656
 20
4.2453226315
 40
0.0529324066
100
AcDbArc
 50
41.3907219231
 51
41.6230198422
  0
ARC
  5
358
100
AcDbEntity
  8
ALL_ASSEMBLY_MEMBERS
100
AcDbCircle
 62
7
  6
CONTINUOUS
 10
4.6280447079
 20
4.2311201266
 40
0.0515740478
100
AcDbArc
 50
117.3799282118
 51
121.2088291236
  0
ARC
  5
359
100
AcDbEntity
  8
ALL_ASSEMBLY_MEMBERS
100
AcDbCircle
 62
7
  6
CONTINUOUS
 10
4.7378361801
 20
3.8716187888
 40
0.05
100
AcDbArc
 50
0.0
 51
90.0
  0
ARC
  5
35A
100
AcDbEntity
  8
ALL_ASSEMBLY_MEMBERS
100
AcDbCircle
 62
7
  6
CONTINUOUS
 10
4.6441480891
 20
4.2965824115
 40
0.0493498387
100
AcDbArc
 50
287.6186795003
 51
288.6212342515
  0
ARC
  5
35B
100
AcDbEntity
  8
ALL_ASSEMBLY_MEMBERS
100
AcDbCircle
 62
7
  6
CONTINUOUS
 10
4.643072375
 20
4.2335611758
 40
0.0487377295
100
AcDbArc
 50
56.5972517659
 51
59.8265735166
  0
ARC
  5
35C
100
AcDbEntity
  8
ALL_ASSEMBLY_MEMBERS
100
AcDbCircle
 62
7
  6
CONTINUOUS
 10
4.6254701118
 20
4.2353457884
 40
0.0466258571
100
AcDbArc
 50
121.1935324421
 51
124.2488505511
  0
ARC
  5
35D
100
AcDbEntity
  8
ALL_ASSEMBLY_MEMBERS
100
AcDbCircle
 62
7
  6
CONTINUOUS
 10
4.6450807387
 20
4.2938302692
 40
0.0464439661
100
AcDbArc
 50
288.6150197568
 51
291.2657212034
  0
ARC
  5
35E
100
AcDbEntity
  8
ALL_ASSEMBLY_MEMBERS
100
AcDbCircle
 62
7
  6
CONTINUOUS
 10
4.6448374467
 20
4.2362925354
 40
0.0454858333
100
AcDbArc
 50
55.8431502777
 51
56.5592730064
  0
ARC
  5
35F
100
AcDbEntity
  8
ALL_ASSEMBLY_MEMBERS
100
AcDbCircle
 62
7
  6
CONTINUOUS
 10
4.6455107991
 20
4.2372845503
 40
0.0442868766
100
AcDbArc
 50
54.7415726039
 51
55.8434408069
  0
ARC
  5
360
100
AcDbEntity
  8
ALL_ASSEMBLY_MEMBERS
100
AcDbCircle
 62
7
  6
CONTINUOUS
 10
4.6239662882
 20
4.2375654909
 40
0.0439447148
100
AcDbArc
 50
124.256882739
 51
125.2619312959
  0
ARC
  5
361
100
AcDbEntity
  8
ALL_ASSEMBLY_MEMBERS
100
AcDbCircle
 62
7
  6
CONTINUOUS
 10
4.6471728488
 20
4.2396241034
 40
0.0414170559
100
AcDbArc
 50
51.6099692056
 51
54.7507236646
  0
ARC
  5
362
100
AcDbEntity
  8
ALL_ASSEMBLY_MEMBERS
100
AcDbCircle
 62
7
  6
CONTINUOUS
 10
4.6224182535
 20
4.2397250952
 40
0.0412876513
100
AcDbArc
 50
125.2380195813
 51
127.672576819
  0
ARC
  5
363
100
AcDbEntity
  8
ALL_ASSEMBLY_MEMBERS
100
AcDbCircle
 62
7
  6
CONTINUOUS
 10
4.6299067599
 20
4.2430873686
 40
0.038957891
100
AcDbArc
 50
115.4641333597
 51
117.512820276
  0
ARC
  5
364
100
AcDbEntity
  8
ALL_ASSEMBLY_MEMBERS
100
AcDbCircle
 62
7
  6
CONTINUOUS
 10
4.6205266079
 20
4.2421657657
 40
0.0381997457
100
AcDbArc
 50
127.66409272
 51
129.6186627629
  0
ARC
  5
365
100
AcDbEntity
  8
ALL_ASSEMBLY_MEMBERS
100
AcDbCircle
 62
7
  6
CONTINUOUS
 10
4.2813361801
 20
4.2003687888
 40
0.0375
100
AcDbArc
 50
0.0
 51
90.0
  0
ARC
  5
366
100
AcDbEntity
  8
ALL_ASSEMBLY_MEMBERS
100
AcDbCircle
 62
7
  6
CONTINUOUS
 10
4.6241557038
 20
4.2585102779
 40
0.0250297032
100
AcDbArc
 50
127.1745758618
 51
129.9658728531
  0
ARC
  5
367
100
AcDbEntity
  8
ALL_ASSEMBLY_MEMBERS
100
AcDbCircle
 62
7
  6
CONTINUOUS
 10
4.6226963315
 20
4.2602364127
 40
0.0227693482
100
AcDbArc
 50
129.9413325073
 51
132.9194115506
  0
ARC
  5
368
100
AcDbEntity
  8
ALL_ASSEMBLY_MEMBERS
100
AcDbCircle
 62
7
  6
CONTINUOUS
 10
4.6470872072
 20
4.2700897296
 40
0.0226244745
100
AcDbArc
 50
303.1317531746
 51
305.2585488321
  0
ARC
  5
369
100
AcDbEntity
  8
ALL_ASSEMBLY_MEMBERS
100
AcDbCircle
 62
7
  6
CONTINUOUS
 10
4.6564041264
 20
4.2569952374
 40
0.0218985259
100
AcDbArc
 50
48.8150024294
 51
51.0284520432
  0
ARC
  5
36A
100
AcDbEntity
  8
ALL_ASSEMBLY_MEMBERS
100
AcDbCircle
 62
7
  6
CONTINUOUS
 10
4.3560342161
 20
3.9288642162
 40
0.02
100
AcDbArc
 50
187.8766833462
 51
270.0
  0
ARC
  5
36B
100
AcDbEntity
  8
ALL_ASSEMBLY_MEMBERS
100
AcDbCircle
 62
7
  6
CONTINUOUS
 10
4.5012943837
 20
3.9288642162
 40
0.02
100
AcDbArc
 50
270.0
 51
352.1048627522
  0
ARC
  5
36C
100
AcDbEntity
  8
ALL_ASSEMBLY_MEMBERS
100
AcDbCircle
 62
7
  6
CONTINUOUS
 10
4.3698513483
 20
4.3515687729
 40
0.0161956296
100
AcDbArc
 50
170.6240552849
 51
175.3127583474
  0
ARC
  5
36D
100
AcDbEntity
  8
ALL_ASSEMBLY_MEMBERS
100
AcDbCircle
 62
7
  6
CONTINUOUS
 10
4.5663361801
 20
4.2278687888
 40
0.01
100
AcDbArc
 50
90.0
 51
180.0
  0
ARC
  5
36E
100
AcDbEntity
  8
ALL_ASSEMBLY_MEMBERS
100
AcDbCircle
 62
7
  6
CONTINUOUS
 10
4.2713361801
 20
4.2528687888
 40
0.01
100
AcDbArc
 50
0.0
 51
90.0
  0
ARC
  5
36F
100
AcDbEntity
  8
ALL_ASSEMBLY_MEMBERS
100
AcDbCircle
 62
7
  6
CONTINUOUS
 10
5.9523361801
 20
2.7639013975
 40
0.0627173913
100
AcDbArc
 50
22.9364108859
 51
70.4680059554
  0
ARC
  5
370
100
AcDbEntity
  8
ALL_ASSEMBLY_MEMBERS
100
AcDbCircle
 62
7
  6
CONTINUOUS
 10
5.9838361801
 20
2.8526970439
 40
0.0315
100
AcDbArc
 50
180.0
 51
250.4680059544
  0
ARC
  5
371
100
AcDbEntity
  8
ALL_ASSEMBLY_MEMBERS
100
AcDbCircle
 62
7
  6
CONTINUOUS
 10
6.0391045499
 20
2.8006187888
 40
0.0315
100
AcDbArc
 50
202.9364108859
 51
270.0
  0
ARC
  5
372
100
AcDbEntity
  8
ALL_ASSEMBLY_MEMBERS
100
AcDbCircle
 62
7
  6
CONTINUOUS
 10
5.9887327043
 20
4.1985217332
 40
1.662744493
100
AcDbArc
 50
172.6759677301
 51
173.2443649993
  0
ARC
  5
373
100
AcDbEntity
  8
ALL_ASSEMBLY_MEMBERS
100
AcDbCircle
 62
7
  6
CONTINUOUS
 10
5.5562415815
 20
3.9601474265
 40
0.0454241773
100
AcDbArc
 50
270.0001392816
 51
270.9972673085
  0
ARC
  5
374
100
AcDbEntity
  8
ALL_ASSEMBLY_MEMBERS
100
AcDbCircle
 62
7
  6
CONTINUOUS
 10
5.3326624489
 20
4.6386438104
 40
0.9795420144
100
AcDbArc
 50
181.9878015554
 51
182.1619682525
  0
ARC
  5
375
100
AcDbEntity
  8
ALL_ASSEMBLY_MEMBERS
100
AcDbCircle
 62
7
  6
CONTINUOUS
 10
4.8864978113
 20
4.6288916791
 40
0.5134668949
100
AcDbArc
 50
182.7988505187
 51
183.0364227872
  0
ARC
  5
376
100
AcDbEntity
  8
ALL_ASSEMBLY_MEMBERS
100
AcDbCircle
 62
7
  6
CONTINUOUS
 10
5.7298356928
 20
5.3790281735
 40
0.4925109075
100
AcDbArc
 50
270.0000566929
 51
271.1214557203
  0
ARC
  5
377
100
AcDbEntity
  8
ALL_ASSEMBLY_MEMBERS
100
AcDbCircle
 62
7
  6
CONTINUOUS
 10
5.6498295114
 20
5.3782978239
 40
0.4917805579
100
AcDbArc
 50
268.8775733666
 51
270.0007769503
  0
ARC
  5
378
100
AcDbEntity
  8
ALL_ASSEMBLY_MEMBERS
100
AcDbCircle
 62
7
  6
CONTINUOUS
 10
5.0973361801
 20
4.8856187888
 40
0.14
100
AcDbArc
 50
71.446995465
 51
108.553004535
  0
ARC
  5
379
100
AcDbEntity
  8
ALL_ASSEMBLY_MEMBERS
100
AcDbCircle
 62
7
  6
CONTINUOUS
 10
5.9523361801
 20
6.0243361801
 40
0.0627173913
100
AcDbArc
 50
289.5319940446
 51
337.0635891141
  0
ARC
  5
37A
100
AcDbEntity
  8
ALL_ASSEMBLY_MEMBERS
100
AcDbCircle
 62
7
  6
CONTINUOUS
 10
4.7378361801
 20
4.9166187888
 40
0.05
100
AcDbArc
 50
270.0
 51
360.0
  0
ARC
  5
37B
100
AcDbEntity
  8
ALL_ASSEMBLY_MEMBERS
100
AcDbCircle
 62
7
  6
CONTINUOUS
 10
4.2813361801
 20
4.5878687888
 40
0.0375
100
AcDbArc
 50
270.0
 51
360.0
  0
ARC
  5
37C
100
AcDbEntity
  8
ALL_ASSEMBLY_MEMBERS
100
AcDbCircle
 62
7
  6
CONTINUOUS
 10
5.9838361801
 20
5.9355405337
 40
0.0315
100
AcDbArc
 50
109.5319940456
 51
180.0
  0
ARC
  5
37D
100
AcDbEntity
  8
ALL_ASSEMBLY_MEMBERS
100
AcDbCircle
 62
7
  6
CONTINUOUS
 10
6.0391045499
 20
5.9876187888
 40
0.0315
100
AcDbArc
 50
90.0
 51
157.0635891141
  0
ARC
  5
37E
100
AcDbEntity
  8
ALL_ASSEMBLY_MEMBERS
100
AcDbCircle
 62
7
  6
CONTINUOUS
 10
5.0623361801
 20
4.9899020569
 40
0.03
100
AcDbArc
 50
108.553004535
 51
180.0
  0
ARC
  5
37F
100
AcDbEntity
  8
ALL_ASSEMBLY_MEMBERS
100
AcDbCircle
 62
7
  6
CONTINUOUS
 10
5.1323361801
 20
4.9899020569
 40
0.03
100
AcDbArc
 50
0.0
 51
71.446995465
  0
ARC
  5
380
100
AcDbEntity
  8
ALL_ASSEMBLY_MEMBERS
100
AcDbCircle
 62
7
  6
CONTINUOUS
 10
4.3490179895
 20
5.1241187888
 40
0.02
100
AcDbArc
 50
90.0
 51
181.925080976
  0
ARC
  5
381
100
AcDbEntity
  8
ALL_ASSEMBLY_MEMBERS
100
AcDbCircle
 62
7
  6
CONTINUOUS
 10
4.5083057394
 20
5.1241187888
 40
0.02
100
AcDbArc
 50
359.9205627693
 51
90.0
  0
ARC
  5
382
100
AcDbEntity
  8
ALL_ASSEMBLY_MEMBERS
100
AcDbCircle
 62
7
  6
CONTINUOUS
 10
4.5663361801
 20
4.5603687888
 40
0.01
100
AcDbArc
 50
180.0
 51
270.0
  0
ARC
  5
383
100
AcDbEntity
  8
ALL_ASSEMBLY_MEMBERS
100
AcDbCircle
 62
7
  6
CONTINUOUS
 10
4.2713361801
 20
4.5353687888
 40
0.01
100
AcDbArc
 50
270.0
 51
360.0
  0
SPLINE
  5
384
100
AcDbEntity
  8
ALL_ASSEMBLY_MEMBERS
100
AcDbSpline
 62
7
  6
CONTINUOUS
 70
0
 71
3
 72
15
 73
11
 74
0
 42
0.0000001
 43
0.0000001
 44
0.0000000001
 40
0.0
 40
0.0
 40
0.0
 40
0.0
 40
0.1321234774
 40
0.2635028969
 40
0.3933984095
 40
0.521203522
 40
0.6463227047
 40
0.7681703662
 40
0.8862190915
 40
1.0
 40
1.0
 40
1.0
 40
1.0
 10
4.6348361792
 20
4.2834004079
 30
0.0
 10
4.6338509106
 20
4.2833420661
 30
0.0
 10
4.6318880598
 20
4.2831854654
 30
0.0
 10
4.6289699883
 20
4.2828302813
 30
0.0
 10
4.6261014917
 20
4.2823559531
 30
0.0
 10
4.6233025283
 20
4.2817646915
 30
0.0
 10
4.6205920912
 20
4.2810594169
 30
0.0
 10
4.6179890037
 20
4.2802435542
 30
0.0
 10
4.6155116582
 20
4.2793217752
 30
0.0
 10
4.6139243278
 20
4.2786262114
 30
0.0
 10
4.6131569704
 20
4.2782606798
 30
0.0
  0
SPLINE
  5
385
100
AcDbEntity
  8
ALL_ASSEMBLY_MEMBERS
100
AcDbSpline
 62
7
  6
CONTINUOUS
 70
0
 71
3
 72
23
 73
19
 74
0
 42
0.0000001
 43
0.0000001
 44
0.0000000001
 40
0.0
 40
0.0
 40
0.0
 40
0.0
 40
0.080097802
 40
0.1573284937
 40
0.2316141808
 40
0.3029252781
 40
0.3712797072
 40
0.43675539
 40
0.4994944506
 40
0.5597109573
 40
0.6176972694
 40
0.6738235847
 40
0.7285383615
 40
0.7823541143
 40
0.8358317213
 40
0.8895539236
 40
0.944096009
 40
1.0
 40
1.0
 40
1.0
 40
1.0
 10
4.6119102761
 20
4.277639414
 30
0.0
 10
4.61137362
 20
4.2773596473
 30
0.0
 10
4.6103326915
 20
4.2767842943
 30
0.0
 10
4.6088476912
 20
4.2758567142
 30
0.0
 10
4.6074730552
 20
4.2748828072
 30
0.0
 10
4.6062146711
 20
4.2738661704
 30
0.0
 10
4.6050781224
 20
4.2728102579
 30
0.0
 10
4.6040684917
 20
4.2717188501
 30
0.0
 10
4.6031904365
 20
4.2705958357
 30
0.0
 10
4.6024483285
 20
4.2694451946
 30
0.0
 10
4.6018458225
 20
4.268271273
 30
0.0
 10
4.6013865977
 20
4.2670784134
 30
0.0
 10
4.601073174
 20
4.2658715183
 30
0.0
 10
4.6009081923
 20
4.2646555711
 30
0.0
 10
4.6008927134
 20
4.2634360117
 30
0.0
 10
4.6010276917
 20
4.2622183078
 30
0.0
 10
4.601312402
 20
4.2610081332
 30
0.0
 10
4.6015972044
 20
4.2602215055
 30
0.0
 10
4.6017622389
 20
4.2598326815
 30
0.0
  0
SPLINE
  5
386
100
AcDbEntity
  8
ALL_ASSEMBLY_MEMBERS
100
AcDbSpline
 62
7
  6
CONTINUOUS
 70
0
 71
3
 72
14
 73
10
 74
0
 42
0.0000001
 43
0.0000001
 44
0.0000000001
 40
0.0
 40
0.0
 40
0.0
 40
0.0
 40
0.1106735889
 40
0.2247482059
 40
0.3426766505
 40
0.4648205091
 40
0.591469386
 40
0.7228275379
 40
1.0
 40
1.0
 40
1.0
 40
1.0
 10
4.6017622389
 20
4.2598326815
 30
0.0
 10
4.6018997861
 20
4.2595086182
 30
0.0
 10
4.602208852
 20
4.2588627938
 30
0.0
 10
4.6027607803
 20
4.2579215048
 30
0.0
 10
4.6034061035
 20
4.2569967812
 30
0.0
 10
4.6041428137
 20
4.2560910921
 30
0.0
 10
4.6049690877
 20
4.2552069146
 30
0.0
 10
4.6062090395
 20
4.2540392388
 30
0.0
 10
4.6072344282
 20
4.2532351155
 30
0.0
 10
4.6079543089
 20
4.2527260862
 30
0.0
  0
SPLINE
  5
387
100
AcDbEntity
  8
ALL_ASSEMBLY_MEMBERS
100
AcDbSpline
 62
7
  6
CONTINUOUS
 70
0
 71
3
 72
20
 73
16
 74
0
 42
0.0000001
 43
0.0000001
 44
0.0000000001
 40
0.0
 40
0.0
 40
0.0
 40
0.0
 40
0.139878891
 40
0.209164016
 40
0.2777883374
 40
0.4124450346
 40
0.5426774743
 40
0.6057916659
 40
0.6673990784
 40
0.7273850535
 40
0.7856505674
 40
0.8421083457
 40
0.8966841349
 40
0.9493264835
 40
1.0
 40
1.0
 40
1.0
 40
1.0
 10
4.6332063967
 20
4.2450859973
 30
0.0
 10
4.6320463272
 20
4.2451165665
 30
0.0
 10
4.6303123739
 20
4.245210899
 30
0.0
 10
4.6280185079
 20
4.2454355921
 30
0.0
 10
4.6257751158
 20
4.2457217627
 30
0.0
 10
4.6230469618
 20
4.2461938502
 30
0.0
 10
4.62039802
 20
4.2468260093
 30
0.0
 10
4.6183683785
 20
4.2474227341
 30
0.0
 10
4.616914245
 20
4.2479072689
 30
0.0
 10
4.6155170242
 20
4.2484320626
 30
0.0
 10
4.6141810875
 20
4.2489953622
 30
0.0
 10
4.6129106441
 20
4.2495953437
 30
0.0
 10
4.6117097758
 20
4.2502303005
 30
0.0
 10
4.6105822455
 20
4.2508980454
 30
0.0
 10
4.6098680407
 20
4.2513728663
 30
0.0
 10
4.6095247898
 20
4.251615592
 30
0.0
  0
SPLINE
  5
388
100
AcDbEntity
  8
ALL_ASSEMBLY_MEMBERS
100
AcDbSpline
 62
7
  6
CONTINUOUS
 70
0
 71
3
 72
11
 73
7
 74
0
 42
0.0000001
 43
0.0000001
 44
0.0000000001
 40
0.0
 40
0.0
 40
0.0
 40
0.0
 40
0.2335855353
 40
0.4784234632
 40
0.734097429
 40
1.0
 40
1.0
 40
1.0
 40
1.0
 10
4.6594529789
 20
4.251143634
 30
0.0
 10
4.6589800299
 20
4.2508346985
 30
0.0
 10
4.6579885807
 20
4.2502362943
 30
0.0
 10
4.6564130135
 20
4.2494158903
 30
0.0
 10
4.654721597
 20
4.2486555933
 30
0.0
 10
4.6535447494
 20
4.2481997985
 30
0.0
 10
4.6529396387
 20
4.2479821435
 30
0.0
  0
SPLINE
  5
389
100
AcDbEntity
  8
ALL_ASSEMBLY_MEMBERS
100
AcDbSpline
 62
7
  6
CONTINUOUS
 70
0
 71
3
 72
11
 73
7
 74
0
 42
0.0000001
 43
0.0000001
 44
0.0000000001
 40
0.0
 40
0.0
 40
0.0
 40
0.0
 40
0.2391780547
 40
0.4862051915
 40
0.7401591471
 40
1.0
 40
1.0
 40
1.0
 40
1.0
 10
4.6529396387
 20
4.2479821435
 30
0.0
 10
4.65227911
 20
4.247744555
 30
0.0
 10
4.6509234134
 20
4.247296992
 30
0.0
 10
4.6488294354
 20
4.2467161887
 30
0.0
 10
4.6466520644
 20
4.2462180022
 30
0.0
 10
4.6451684385
 20
4.245945442
 30
0.0
 10
4.6444157069
 20
4.2458231438
 30
0.0
  0
SPLINE
  5
38A
100
AcDbEntity
  8
ALL_ASSEMBLY_MEMBERS
100
AcDbSpline
 62
7
  6
CONTINUOUS
 70
0
 71
3
 72
10
 73
6
 74
0
 42
0.0000001
 43
0.0000001
 44
0.0000000001
 40
0.0
 40
0.0
 40
0.0
 40
0.0
 40
0.2461963124
 40
0.4954544759
 40
1.0
 40
1.0
 40
1.0
 40
1.0
 10
4.6444157069
 20
4.2458231438
 30
0.0
 10
4.6437685776
 20
4.2457180032
 30
0.0
 10
4.6424623861
 20
4.2455294999
 30
0.0
 10
4.639814936
 20
4.2452393726
 30
0.0
 10
4.6378090901
 20
4.2451213903
 30
0.0
 10
4.6364659635
 20
4.2450859973
 30
0.0
  0
SPLINE
  5
38B
100
AcDbEntity
  8
ALL_ASSEMBLY_MEMBERS
100
AcDbSpline
 62
7
  6
CONTINUOUS
 70
0
 71
3
 72
24
 73
20
 74
0
 42
0.0000001
 43
0.0000001
 44
0.0000000001
 40
0.0
 40
0.0
 40
0.0
 40
0.0
 40
0.0774911996
 40
0.1513083567
 40
0.2215619616
 40
0.2884336849
 40
0.3521870804
 40
0.413178665
 40
0.4718569073
 40
0.5287676666
 40
0.5845367193
 40
0.639852119
 40
0.6675777293
 40
0.6954586244
 40
0.7520064121
 40
0.8101868083
 40
0.8705942135
 40
0.9337284868
 40
1.0
 40
1.0
 40
1.0
 40
1.0
 10
4.667346637
 20
4.2567061279
 30
0.0
 10
4.6677639773
 20
4.2570012377
 30
0.0
 10
4.6685616293
 20
4.2576024906
 30
0.0
 10
4.6696663873
 20
4.2585610784
 30
0.0
 10
4.6706462724
 20
4.2595509896
 30
0.0
 10
4.6714974298
 20
4.2605686973
 30
0.0
 10
4.6722162525
 20
4.261610714
 30
0.0
 10
4.6727997857
 20
4.2626731701
 30
0.0
 10
4.673244861
 20
4.2637523027
 30
0.0
 10
4.6735493091
 20
4.2648437907
 30
0.0
 10
4.6737108975
 20
4.2659430711
 30
0.0
 10
4.6737254458
 20
4.266861384
 30
0.0
 10
4.673665496
 20
4.2675910169
 30
0.0
 10
4.6735572972
 20
4.2683233028
 30
0.0
 10
4.6733301457
 20
4.2692389114
 30
0.0
 10
4.6729159767
 20
4.2703201619
 30
0.0
 10
4.6723603507
 20
4.2713850601
 30
0.0
 10
4.6716658888
 20
4.2724293058
 30
0.0
 10
4.6711256731
 20
4.2730920155
 30
0.0
 10
4.6708352114
 20
4.273418691
 30
0.0
  0
SPLINE
  5
38C
100
AcDbEntity
  8
ALL_ASSEMBLY_MEMBERS
100
AcDbSpline
 62
7
  6
CONTINUOUS
 70
0
 71
3
 72
11
 73
7
 74
0
 42
0.0000001
 43
0.0000001
 44
0.0000000001
 40
0.0
 40
0.0
 40
0.0
 40
0.0
 40
0.2427770543
 40
0.4909119527
 40
0.7435996363
 40
1.0
 40
1.0
 40
1.0
 40
1.0
 10
4.6527862231
 20
4.2821748379
 30
0.0
 10
4.652030341
 20
4.2823318815
 30
0.0
 10
4.6504954834
 20
4.2826193021
 30
0.0
 10
4.6481560499
 20
4.2829670409
 30
0.0
 10
4.6457625051
 20
4.2832345292
 30
0.0
 10
4.644147886
 20
4.2833572439
 30
0.0
 10
4.643333938
 20
4.2834049576
 30
0.0
  0
SPLINE
  5
38D
100
AcDbEntity
  8
ALL_ASSEMBLY_MEMBERS
100
AcDbSpline
 62
7
  6
CONTINUOUS
 70
0
 71
3
 72
11
 73
7
 74
0
 42
0.0000001
 43
0.0000001
 44
0.0000000001
 40
0.0
 40
0.0
 40
0.0
 40
0.0
 40
0.252818603
 40
0.5046339717
 40
0.7540645821
 40
1.0
 40
1.0
 40
1.0
 40
1.0
 10
4.6348361801
 20
4.2760645198
 30
0.0
 10
4.6356468159
 20
4.2760645198
 30
0.0
 10
4.6372650468
 20
4.276032711
 30
0.0
 10
4.6396792896
 20
4.2758903182
 30
0.0
 10
4.6420639575
 20
4.2756536691
 30
0.0
 10
4.6436373477
 20
4.2754323578
 30
0.0
 10
4.6444157069
 20
4.2753058958
 30
0.0
  0
SPLINE
  5
38E
100
AcDbEntity
  8
ALL_ASSEMBLY_MEMBERS
100
AcDbSpline
 62
7
  6
CONTINUOUS
 70
0
 71
3
 72
39
 73
35
 74
0
 42
0.0000001
 43
0.0000001
 44
0.0000000001
 40
0.0
 40
0.0
 40
0.0
 40
0.0
 40
0.0445478274
 40
0.0883684202
 40
0.1734028617
 40
0.2144438808
 40
0.2543839531
 40
0.2931505396
 40
0.3306806064
 40
0.366920163
 40
0.4018316971
 40
0.4353898713
 40
0.4675856957
 40
0.4984316054
 40
0.5279577523
 40
0.5562202726
 40
0.5699056044
 40
0.5833080499
 40
0.6093169776
 40
0.6343945197
 40
0.6587095212
 40
0.6824580097
 40
0.7058592564
 40
0.7291460691
 40
0.7525569816
 40
0.7763243755
 40
0.8006667978
 40
0.8257791513
 40
0.8518292175
 40
0.8789568449
 40
0.9072693742
 40
0.9368483842
 40
0.9677488161
 40
1.0
 40
1.0
 40
1.0
 40
1.0
 10
4.6444157069
 20
4.2753058958
 30
0.0
 10
4.6449863832
 20
4.2752131767
 30
0.0
 10
4.6461156539
 20
4.2750115184
 30
0.0
 10
4.6483173603
 20
4.2745442944
 30
0.0
 10
4.6504509548
 20
4.2739791873
 30
0.0
 10
4.6525003591
 20
4.2733127806
 30
0.0
 10
4.6539590364
 20
4.2727752715
 30
0.0
 10
4.6553524623
 20
4.2721960785
 30
0.0
 10
4.6566759674
 20
4.2715772486
 30
0.0
 10
4.6579249607
 20
4.2709206759
 30
0.0
 10
4.6590952818
 20
4.270228744
 30
0.0
 10
4.6601829575
 20
4.2695037286
 30
0.0
 10
4.661184207
 20
4.2687479267
 30
0.0
 10
4.6620957801
 20
4.2679640238
 30
0.0
 10
4.6629144034
 20
4.2671544707
 30
0.0
 10
4.6635232665
 20
4.2664532175
 30
0.0
 10
4.6639594193
 20
4.2658821677
 30
0.0
 10
4.664353738
 20
4.2653168105
 30
0.0
 10
4.6647861384
 20
4.2645986599
 30
0.0
 10
4.6652076964
 20
4.2637137174
 30
0.0
 10
4.6655250615
 20
4.2628171349
 30
0.0
 10
4.6657365957
 20
4.2619120611
 30
0.0
 10
4.6658416488
 20
4.2610018916
 30
0.0
 10
4.6658394596
 20
4.2600900218
 30
0.0
 10
4.6657300565
 20
4.259179995
 30
0.0
 10
4.6655141962
 20
4.2582751988
 30
0.0
 10
4.6651925518
 20
4.2573790379
 30
0.0
 10
4.6647667755
 20
4.2564946066
 30
0.0
 10
4.6642385689
 20
4.2556248769
 30
0.0
 10
4.6636097773
 20
4.2547728596
 30
0.0
 10
4.6628829357
 20
4.2539411488
 30
0.0
 10
4.662060436
 20
4.2531325626
 30
0.0
 10
4.6611451828
 20
4.2523497803
 30
0.0
 10
4.6604893253
 20
4.2518572597
 30
0.0
 10
4.6601475704
 20
4.251615592
 30
0.0
  0
LINE
  5
38F
100
AcDbEntity
  8
ALL_ASSEMBLY_MEMBERS
100
AcDbLine
 62
7
  6
CONTINUOUS
 10
4.6095247898
 20
4.251615592
 11
4.608010596
 21
4.2527962263
  0
SPLINE
  5
390
100
AcDbEntity
  8
ALL_ASSEMBLY_MEMBERS
100
AcDbSpline
 62
7
  6
CONTINUOUS
 70
0
 71
3
 72
38
 73
34
 74
0
 42
0.0000001
 43
0.0000001
 44
0.0000000001
 40
0.0
 40
0.0
 40
0.0
 40
0.0
 40
0.0280967383
 40
0.0548485182
 40
0.0803434138
 40
0.1047028387
 40
0.1280895771
 40
0.150703182
 40
0.1727786017
 40
0.1945777887
 40
0.2163771291
 40
0.2384529994
 40
0.2610673305
 40
0.2844550332
 40
0.3088156226
 40
0.3343118378
 40
0.3475283274
 40
0.3610713219
 40
0.3891695716
 40
0.4186649977
 40
0.4495816122
 40
0.4819180829
 40
0.5156484259
 40
0.5507303861
 40
0.5871011582
 40
0.624685842
 40
0.6633961402
 40
0.7031326507
 40
0.7437874541
 40
0.82735435
 40
0.9131230974
 40
0.9565069902
 40
1.0
 40
1.0
 40
1.0
 40
1.0
 10
4.6079886834
 20
4.2528151733
 30
0.0
 10
4.60765876
 20
4.253100911
 30
0.0
 10
4.6070346695
 20
4.253682459
 30
0.0
 10
4.6061937688
 20
4.2546067315
 30
0.0
 10
4.6054748327
 20
4.2555572928
 30
0.0
 10
4.604881522
 20
4.2565305006
 30
0.0
 10
4.6044165111
 20
4.2575222108
 30
0.0
 10
4.6040823504
 20
4.2585282765
 30
0.0
 10
4.6038811315
 20
4.2595441831
 30
0.0
 10
4.6038138094
 20
4.2605650805
 30
0.0
 10
4.6038812791
 20
4.261585975
 30
0.0
 10
4.6040826447
 20
4.262601874
 30
0.0
 10
4.6044169495
 20
4.2636079247
 30
0.0
 10
4.6048821064
 20
4.2645996228
 30
0.0
 10
4.6054755409
 20
4.2655727846
 30
0.0
 10
4.6060676073
 20
4.2663554393
 30
0.0
 10
4.6065998397
 20
4.2669686196
 30
0.0
 10
4.6071859207
 20
4.2675875775
 30
0.0
 10
4.6079953606
 20
4.2683417052
 30
0.0
 10
4.6090692135
 20
4.2692021255
 30
0.0
 10
4.6102528542
 20
4.270025372
 30
0.0
 10
4.6115412298
 20
4.2708079408
 30
0.0
 10
4.6129288165
 20
4.2715467795
 30
0.0
 10
4.6144098462
 20
4.2722385249
 30
0.0
 10
4.6159779251
 20
4.2728805296
 30
0.0
 10
4.617626467
 20
4.2734698887
 30
0.0
 10
4.6193484378
 20
4.2740041712
 30
0.0
 10
4.6211365369
 20
4.2744811625
 30
0.0
 10
4.6236212969
 20
4.2750429044
 30
0.0
 10
4.626840842
 20
4.2755856107
 30
0.0
 10
4.6301318441
 20
4.2759107613
 30
0.0
 10
4.6328108811
 20
4.2760423958
 30
0.0
 10
4.6341605548
 20
4.2760645198
 30
0.0
 10
4.6348361801
 20
4.2760645198
 30
0.0
  0
SPLINE
  5
391
100
AcDbEntity
  8
ALL_ASSEMBLY_MEMBERS
100
AcDbSpline
 62
7
  6
CONTINUOUS
 70
0
 71
3
 72
15
 73
11
 74
0
 42
0.0000001
 43
0.0000001
 44
0.0000000001
 40
0.0
 40
0.0
 40
0.0
 40
0.0
 40
0.1138730356
 40
0.2300480598
 40
0.3490526623
 40
0.47134316
 40
0.5973027969
 40
0.7272503685
 40
0.8614250639
 40
1.0
 40
1.0
 40
1.0
 40
1.0
 10
4.6025994877
 20
4.2696579696
 30
0.0
 10
4.6026779966
 20
4.2699789019
 30
0.0
 10
4.6028656615
 20
4.2706204892
 30
0.0
 10
4.6032322164
 20
4.2715657769
 30
0.0
 10
4.603685336
 20
4.2724999759
 30
0.0
 10
4.6042235387
 20
4.2734207857
 30
0.0
 10
4.6048452011
 20
4.2743261265
 30
0.0
 10
4.6055487391
 20
4.2752137589
 30
0.0
 10
4.6063320158
 20
4.2760816906
 30
0.0
 10
4.6068967305
 20
4.2766368278
 30
0.0
 10
4.6071911109
 20
4.2769106849
 30
0.0
  0
LINE
  5
392
100
AcDbEntity
  8
ALL_ASSEMBLY_MEMBERS
100
AcDbLine
 62
7
  6
CONTINUOUS
 10
4.6090316156
 20
4.2784538983
 11
4.6111445283
 21
4.2799103894
  0
SPLINE
  5
393
100
AcDbEntity
  8
ALL_ASSEMBLY_MEMBERS
100
AcDbSpline
 62
7
  6
CONTINUOUS
 70
0
 71
3
 72
20
 73
16
 74
0
 42
0.0000001
 43
0.0000001
 44
0.0000000001
 40
0.0
 40
0.0
 40
0.0
 40
0.0
 40
0.0161728331
 40
0.0258036186
 40
0.0369209756
 40
0.0643334836
 40
0.0992315881
 40
0.1417947005
 40
0.1919721843
 40
0.2494665808
 40
0.313814204
 40
0.4610154349
 40
0.6286948361
 40
0.8109417894
 40
1.0
 40
1.0
 40
1.0
 40
1.0
 10
5.5631311854
 20
3.9158066172
 30
0.0
 10
5.5631311838
 20
3.9158451695
 30
0.0
 10
5.5631102982
 20
3.9159069448
 30
0.0
 10
5.5630569222
 20
3.9159770086
 30
0.0
 10
5.5629733489
 20
3.9160564612
 30
0.0
 10
5.5628248186
 20
3.9161512698
 30
0.0
 10
5.5625976754
 20
3.9162564377
 30
0.0
 10
5.5623107329
 20
3.9163586751
 30
0.0
 10
5.561966134
 20
3.9164567625
 30
0.0
 10
5.5615666015
 20
3.9165496507
 30
0.0
 10
5.5609366622
 20
3.9166706711
 30
0.0
 10
5.5600410233
 20
3.9167971422
 30
0.0
 10
5.5588608381
 20
3.9169077713
 30
0.0
 10
5.5575775423
 20
3.9169761826
 30
0.0
 10
5.5566923631
 20
3.9169918884
 30
0.0
 10
5.5562416919
 20
3.9169918884
 30
0.0
  0
SPLINE
  5
394
100
AcDbEntity
  8
ALL_ASSEMBLY_MEMBERS
100
AcDbSpline
 62
7
  6
CONTINUOUS
 70
0
 71
3
 72
23
 73
19
 74
0
 42
0.0000001
 43
0.0000001
 44
0.0000000001
 40
0.0
 40
0.0
 40
0.0
 40
0.0
 40
0.0078034152
 40
0.0161641464
 40
0.0256081261
 40
0.0365034451
 40
0.0490751587
 40
0.0634558353
 40
0.0979038589
 40
0.1401458142
 40
0.1900907423
 40
0.247437934
 40
0.3118120388
 40
0.3826710245
 40
0.459367591
 40
0.6275128975
 40
0.8101911166
 40
1.0
 40
1.0
 40
1.0
 40
1.0
 10
5.5729737522
 20
3.9158066406
 30
0.0
 10
5.5729737541
 20
3.9157616836
 30
0.0
 10
5.5729594166
 20
3.9156680468
 30
0.0
 10
5.5728962802
 20
3.9155329838
 30
0.0
 10
5.5727934656
 20
3.9154020895
 30
0.0
 10
5.5726519642
 20
3.9152748722
 30
0.0
 10
5.5724722371
 20
3.9151506365
 30
0.0
 10
5.5721627954
 20
3.9149783921
 30
0.0
 10
5.5716766704
 20
3.9147771088
 30
0.0
 10
5.5709793942
 20
3.9145607274
 30
0.0
 10
5.5701414291
 20
3.9143587052
 30
0.0
 10
5.5691699171
 20
3.9141721787
 30
0.0
 10
5.568073205
 20
3.9140029433
 30
0.0
 10
5.5668614966
 20
3.9138517476
 30
0.0
 10
5.5650516858
 20
3.9136696264
 30
0.0
 10
5.5625939966
 20
3.9134988122
 30
0.0
 10
5.5594813053
 20
3.913377971
 30
0.0
 10
5.5573352181
 20
3.9133510839
 30
0.0
 10
5.5562416919
 20
3.9133510839
 30
0.0
  0
SPLINE
  5
395
100
AcDbEntity
  8
ALL_ASSEMBLY_MEMBERS
100
AcDbSpline
 62
7
  6
CONTINUOUS
 70
0
 71
3
 72
20
 73
16
 74
0
 42
0.0000001
 43
0.0000001
 44
0.0000000001
 40
0.0
 40
0.0
 40
0.0
 40
0.0
 40
0.189057575
 40
0.3713042276
 40
0.5389848736
 40
0.6861864316
 40
0.7505333508
 40
0.8080268943
 40
0.8582038084
 40
0.9007670648
 40
0.9356657355
 40
0.9630788201
 40
0.9741963456
 40
0.9838271894
 40
1.0
 40
1.0
 40
1.0
 40
1.0
 10
5.5562416919
 20
3.9169918884
 30
0.0
 10
5.5557910223
 20
3.9169918884
 30
0.0
 10
5.5549058453
 20
3.9169761834
 30
0.0
 10
5.5536225488
 20
3.9169077714
 30
0.0
 10
5.5524423608
 20
3.9167971407
 30
0.0
 10
5.5515467194
 20
3.9166706716
 30
0.0
 10
5.5509167829
 20
3.9165496523
 30
0.0
 10
5.5505172554
 20
3.916456765
 30
0.0
 10
5.5501726598
 20
3.9163586773
 30
0.0
 10
5.5498857171
 20
3.9162564395
 30
0.0
 10
5.5496585708
 20
3.916151271
 30
0.0
 10
5.549510037
 20
3.9160564621
 30
0.0
 10
5.5494264615
 20
3.915977009
 30
0.0
 10
5.5493730848
 20
3.9159069451
 30
0.0
 10
5.5493521996
 20
3.9158451694
 30
0.0
 10
5.5493521983
 20
3.9158066172
 30
0.0
  0
SPLINE
  5
396
100
AcDbEntity
  8
ALL_ASSEMBLY_MEMBERS
100
AcDbSpline
 62
7
  6
CONTINUOUS
 70
0
 71
3
 72
23
 73
19
 74
0
 42
0.0000001
 43
0.0000001
 44
0.0000000001
 40
0.0
 40
0.0
 40
0.0
 40
0.0
 40
0.1898090382
 40
0.3724871401
 40
0.5406320978
 40
0.6173287805
 40
0.6881879839
 40
0.752562232
 40
0.8099093563
 40
0.859854115
 40
0.9020959549
 40
0.9365440101
 40
0.9509247321
 40
0.9634964936
 40
0.9743918508
 40
0.9838358491
 40
0.9921965845
 40
1.0
 40
1.0
 40
1.0
 40
1.0
 10
5.5562416919
 20
3.9133510839
 30
0.0
 10
5.5551481649
 20
3.9133510839
 30
0.0
 10
5.5530020775
 20
3.9133779714
 30
0.0
 10
5.5498893879
 20
3.9134988118
 30
0.0
 10
5.5474317008
 20
3.9136696261
 30
0.0
 10
5.5456218902
 20
3.9138517478
 30
0.0
 10
5.544410179
 20
3.9140029438
 30
0.0
 10
5.5433134651
 20
3.9141721787
 30
0.0
 10
5.5423419536
 20
3.9143587048
 30
0.0
 10
5.5415039905
 20
3.9145607267
 30
0.0
 10
5.5408067159
 20
3.9147771083
 30
0.0
 10
5.5403205912
 20
3.9149783916
 30
0.0
 10
5.5400111487
 20
3.915150636
 30
0.0
 10
5.5398314207
 20
3.9152748718
 30
0.0
 10
5.5396899186
 20
3.9154020892
 30
0.0
 10
5.5395871036
 20
3.9155329836
 30
0.0
 10
5.5395239671
 20
3.9156680468
 30
0.0
 10
5.5395096297
 20
3.9157616836
 30
0.0
 10
5.5395096316
 20
3.9158066406
 30
0.0
  0
LINE
  5
397
100
AcDbEntity
  8
ALL_ASSEMBLY_MEMBERS
100
AcDbLine
 62
7
  6
CONTINUOUS
 10
5.5562416919
 20
3.9188635148
 11
5.5638519633
 21
3.9184993656
  0
SPLINE
  5
398
100
AcDbEntity
  8
ALL_ASSEMBLY_MEMBERS
100
AcDbSpline
 62
7
  6
CONTINUOUS
 70
0
 71
3
 72
19
 73
15
 74
0
 42
0.0000001
 43
0.0000001
 44
0.0000000001
 40
0.0
 40
0.0
 40
0.0
 40
0.0
 40
0.20355588
 40
0.388916636
 40
0.5529760947
 40
0.6930837406
 40
0.7535900277
 40
0.8074763989
 40
0.8546516999
 40
0.8951680966
 40
0.9292150896
 40
0.95723513
 40
0.9801956094
 40
1.0
 40
1.0
 40
1.0
 40
1.0
 10
5.5638519633
 20
3.9184993656
 30
0.0
 10
5.5645128135
 20
3.9184329283
 30
0.0
 10
5.5657735876
 20
3.9182862235
 30
0.0
 10
5.5675574087
 20
3.918011957
 30
0.0
 10
5.5691246735
 20
3.9177010495
 30
0.0
 10
5.5702783889
 20
3.9174058574
 30
0.0
 10
5.5710693953
 20
3.9171523096
 30
0.0
 10
5.5715634071
 20
3.9169675608
 30
0.0
 10
5.5719858985
 20
3.916779862
 30
0.0
 10
5.5723355709
 20
3.9165902823
 30
0.0
 10
5.5726117437
 20
3.9163995971
 30
0.0
 10
5.5728140988
 20
3.9162074906
 30
0.0
 10
5.5729420796
 20
3.9160115723
 30
0.0
 10
5.5729737496
 20
3.9158712603
 30
0.0
 10
5.5729737522
 20
3.9158066406
 30
0.0
  0
SPLINE
  5
399
100
AcDbEntity
  8
ALL_ASSEMBLY_MEMBERS
100
AcDbSpline
 62
7
  6
CONTINUOUS
 70
0
 71
3
 72
18
 73
14
 74
0
 42
0.0000001
 43
0.0000001
 44
0.0000000001
 40
0.0
 40
0.0
 40
0.0
 40
0.0
 40
0.0196331412
 40
0.0421488034
 40
0.0696179638
 40
0.1031481057
 40
0.143227933
 40
0.1900563012
 40
0.3040558468
 40
0.4444578624
 40
0.6090795544
 40
0.7953332078
 40
1.0
 40
1.0
 40
1.0
 40
1.0
 10
5.5493521983
 20
3.9158066172
 30
0.0
 10
5.5493521975
 20
3.9157800952
 30
0.0
 10
5.5493651463
 20
3.9157227534
 30
0.0
 10
5.5494186793
 20
3.9156437271
 30
0.0
 10
5.5495033624
 20
3.9155681044
 30
0.0
 10
5.5496189647
 20
3.9154946976
 30
0.0
 10
5.5497653156
 20
3.9154230954
 30
0.0
 10
5.5500181048
 20
3.9153237387
 30
0.0
 10
5.5504097955
 20
3.9152107452
 30
0.0
 10
5.5509637745
 20
3.9150933485
 30
0.0
 10
5.5516194035
 20
3.914988873
 30
0.0
 10
5.5523646851
 20
3.914899646
 30
0.0
 10
5.5528908108
 20
3.9148532011
 30
0.0
 10
5.5531665053
 20
3.9148323717
 30
0.0
  0
LINE
  5
39A
100
AcDbEntity
  8
ALL_ASSEMBLY_MEMBERS
100
AcDbLine
 62
7
  6
CONTINUOUS
 10
5.5531665053
 20
3.9148323717
 11
5.5562416919
 21
3.9147232492
  0
SPLINE
  5
39B
100
AcDbEntity
  8
ALL_ASSEMBLY_MEMBERS
100
AcDbSpline
 62
7
  6
CONTINUOUS
 70
0
 71
3
 72
23
 73
19
 74
0
 42
0.0000001
 43
0.0000001
 44
0.0000000001
 40
0.0
 40
0.0
 40
0.0
 40
0.0
 40
0.0078812127
 40
0.0164536615
 40
0.0261985843
 40
0.0374419714
 40
0.0503770288
 40
0.0651150352
 40
0.1002079959
 40
0.1429471231
 40
0.1932146859
 40
0.2507048315
 40
0.3150490248
 40
0.385731092
 40
0.4621336633
 40
0.6294611839
 40
0.8111746924
 40
1.0
 40
1.0
 40
1.0
 40
1.0
 10
5.57297375
 20
3.9183065481
 30
0.0
 10
5.5729737476
 20
3.918352305
 30
0.0
 10
5.5729589774
 20
3.9184482675
 30
0.0
 10
5.5728956782
 20
3.9185881213
 30
0.0
 10
5.5727928753
 20
3.9187267775
 30
0.0
 10
5.572651369
 20
3.9188646404
 30
0.0
 10
5.5724715978
 20
3.9190021693
 30
0.0
 10
5.5721628035
 20
3.9191963791
 30
0.0
 10
5.5716778448
 20
3.9194312723
 30
0.0
 10
5.5709815477
 20
3.9196941315
 30
0.0
 10
5.5701452325
 20
3.9199489242
 30
0.0
 10
5.5691758803
 20
3.9201925387
 30
0.0
 10
5.5680815575
 20
3.9204212465
 30
0.0
 10
5.5668720874
 20
3.9206321021
 30
0.0
 10
5.5650652555
 20
3.9208933838
 30
0.0
 10
5.5626074427
 20
3.9211494434
 30
0.0
 10
5.5594895234
 20
3.9213369765
 30
0.0
 10
5.5573379762
 20
3.9213795867
 30
0.0
 10
5.5562416919
 20
3.9213795867
 30
0.0
  0
SPLINE
  5
39C
100
AcDbEntity
  8
ALL_ASSEMBLY_MEMBERS
100
AcDbSpline
 62
7
  6
CONTINUOUS
 70
0
 71
3
 72
19
 73
15
 74
0
 42
0.0000001
 43
0.0000001
 44
0.0000000001
 40
0.0
 40
0.0
 40
0.0
 40
0.0
 40
0.0198049523
 40
0.0427658196
 40
0.0707860016
 40
0.1048329554
 40
0.1453492186
 40
0.1925243779
 40
0.2464106673
 40
0.3069168988
 40
0.4470242174
 40
0.6110828505
 40
0.7964431978
 40
1.0
 40
1.0
 40
1.0
 40
1.0
 10
5.5395096316
 20
3.9158066406
 30
0.0
 10
5.5395096344
 20
3.9158712574
 30
0.0
 10
5.5395413015
 20
3.9160115623
 30
0.0
 10
5.5396692704
 20
3.9162074721
 30
0.0
 10
5.5398716074
 20
3.9163995706
 30
0.0
 10
5.5401477559
 20
3.9165902477
 30
0.0
 10
5.5404973985
 20
3.9167798196
 30
0.0
 10
5.5409198551
 20
3.916967511
 30
0.0
 10
5.5414138274
 20
3.9171522532
 30
0.0
 10
5.5422047713
 20
3.9174057927
 30
0.0
 10
5.5433583951
 20
3.9177009771
 30
0.0
 10
5.544925537
 20
3.9180118801
 30
0.0
 10
5.5467092242
 20
3.9182861458
 30
0.0
 10
5.5479699066
 20
3.9184328537
 30
0.0
 10
5.5486307109
 20
3.918499294
 30
0.0
  0
LINE
  5
39D
100
AcDbEntity
  8
ALL_ASSEMBLY_MEMBERS
100
AcDbLine
 62
7
  6
CONTINUOUS
 10
5.5486307109
 20
3.918499294
 11
5.5562416919
 21
3.9188635148
  0
LINE
  5
39E
100
AcDbEntity
  8
ALL_ASSEMBLY_MEMBERS
100
AcDbLine
 62
7
  6
CONTINUOUS
 10
5.5570321766
 20
3.9147301297
 11
5.5593168043
 21
3.9148323667
  0
SPLINE
  5
39F
100
AcDbEntity
  8
ALL_ASSEMBLY_MEMBERS
100
AcDbSpline
 62
7
  6
CONTINUOUS
 70
0
 71
3
 72
18
 73
14
 74
0
 42
0.0000001
 43
0.0000001
 44
0.0000000001
 40
0.0
 40
0.0
 40
0.0
 40
0.0
 40
0.2046682898
 40
0.3909226323
 40
0.5555427642
 40
0.6959425846
 40
0.8099416072
 40
0.856770528
 40
0.8968510988
 40
0.9303819048
 40
0.9578513979
 40
0.9803670226
 40
1.0
 40
1.0
 40
1.0
 40
1.0
 10
5.5593168043
 20
3.9148323667
 30
0.0
 10
5.5595925059
 20
3.9148531962
 30
0.0
 10
5.5601186442
 20
3.9148996413
 30
0.0
 10
5.5608639407
 20
3.9149888669
 30
0.0
 10
5.561519578
 20
3.915093341
 30
0.0
 10
5.5620735619
 20
3.9152107377
 30
0.0
 10
5.5624652568
 20
3.9153237327
 30
0.0
 10
5.5627180521
 20
3.9154230902
 30
0.0
 10
5.5628644088
 20
3.9154946933
 30
0.0
 10
5.5629800162
 20
3.9155681011
 30
0.0
 10
5.5630647032
 20
3.9156437245
 30
0.0
 10
5.5631182379
 20
3.9157227522
 30
0.0
 10
5.5631311865
 20
3.9157800949
 30
0.0
 10
5.5631311854
 20
3.9158066172
 30
0.0
  0
SPLINE
  5
3A0
100
AcDbEntity
  8
ALL_ASSEMBLY_MEMBERS
100
AcDbSpline
 62
7
  6
CONTINUOUS
 70
0
 71
3
 72
23
 73
19
 74
0
 42
0.0000001
 43
0.0000001
 44
0.0000000001
 40
0.0
 40
0.0
 40
0.0
 40
0.0
 40
0.1888229036
 40
0.3705327349
 40
0.5378605567
 40
0.6142646738
 40
0.6849485675
 40
0.7492938873
 40
0.8067841067
 40
0.8570512933
 40
0.899790283
 40
0.9348837029
 40
0.9496220702
 40
0.9625575115
 40
0.9738012536
 40
0.9835463683
 40
0.9921188286
 40
1.0
 40
1.0
 40
1.0
 40
1.0
 10
5.5562416919
 20
3.9213795867
 30
0.0
 10
5.5551454216
 20
3.9213795867
 30
0.0
 10
5.5529939097
 20
3.9213369812
 30
0.0
 10
5.5498760241
 20
3.9211494486
 30
0.0
 10
5.5474182213
 20
3.9208933956
 30
0.0
 10
5.5456113684
 20
3.9206321101
 30
0.0
 10
5.5444018721
 20
3.9204212533
 30
0.0
 10
5.5433075312
 20
3.9201925462
 30
0.0
 10
5.5423381736
 20
3.9199489335
 30
0.0
 10
5.5415018606
 20
3.9196941422
 30
0.0
 10
5.5408055643
 20
3.9194312815
 30
0.0
 10
5.5403206024
 20
3.9191963864
 30
0.0
 10
5.5400118011
 20
3.9190021745
 30
0.0
 10
5.5398320235
 20
3.9188646436
 30
0.0
 10
5.5396905108
 20
3.9187267796
 30
0.0
 10
5.5395877034
 20
3.9185881225
 30
0.0
 10
5.5395244041
 20
3.9184482674
 30
0.0
 10
5.5395096356
 20
3.9183523047
 30
0.0
 10
5.5395096341
 20
3.9183065481
 30
0.0
  0
SPLINE
  5
3A1
100
AcDbEntity
  8
ALL_ASSEMBLY_MEMBERS
100
AcDbSpline
 62
7
  6
CONTINUOUS
 70
0
 71
3
 72
10
 73
6
 74
0
 42
0.0000001
 43
0.0000001
 44
0.0000000001
 40
0.0
 40
0.0
 40
0.0
 40
0.0
 40
0.2402731222
 40
0.4888686541
 40
1.0
 40
1.0
 40
1.0
 40
1.0
 10
4.6112835482
 20
4.2799667948
 30
0.0
 10
4.6128803004
 20
4.2807131208
 30
0.0
 10
4.6162096824
 20
4.2820659624
 30
0.0
 10
4.6232505377
 20
4.2841507579
 30
0.0
 10
4.628819054
 20
4.2849260745
 30
0.0
 10
4.6325655858
 20
4.285074812
 30
0.0
  0
LINE
  5
3A2
100
AcDbEntity
  8
ALL_ASSEMBLY_MEMBERS
100
AcDbLine
 62
7
  6
CONTINUOUS
 10
4.6529388826
 20
4.2479821995
 11
4.6590853295
 21
4.2495474731
  0
SPLINE
  5
3A3
100
AcDbEntity
  8
ALL_ASSEMBLY_MEMBERS
100
AcDbSpline
 62
7
  6
CONTINUOUS
 70
0
 71
3
 72
9
 73
5
 74
0
 42
0.0000001
 43
0.0000001
 44
0.0000000001
 40
0.0
 40
0.0
 40
0.0
 40
0.0
 40
0.5234229868
 40
1.0
 40
1.0
 40
1.0
 40
1.0
 10
4.6619256751
 20
4.2505487477
 30
0.0
 10
4.6632143511
 20
4.2510511653
 30
0.0
 10
4.6656335648
 20
4.2521270318
 30
0.0
 10
4.6679157903
 20
4.2534757274
 30
0.0
 10
4.6689502367
 20
4.2541939963
 30
0.0
  0
SPLINE
  5
3A4
100
AcDbEntity
  8
ALL_ASSEMBLY_MEMBERS
100
AcDbSpline
 62
7
  6
CONTINUOUS
 70
0
 71
3
 72
18
 73
14
 74
0
 42
0.0000001
 43
0.0000001
 44
0.0000000001
 40
0.0
 40
0.0
 40
0.0
 40
0.0
 40
0.1489833446
 40
0.2821411589
 40
0.4022103383
 40
0.4588419139
 40
0.5140945752
 40
0.5688058257
 40
0.6238279668
 40
0.6799885612
 40
0.738052566
 40
0.8621428823
 40
1.0
 40
1.0
 40
1.0
 40
1.0
 10
4.6689502367
 20
4.2541939963
 30
0.0
 10
4.6698976213
 20
4.2548518137
 30
0.0
 10
4.6716133355
 20
4.2562205346
 30
0.0
 10
4.6736840317
 20
4.2585703806
 30
0.0
 10
4.6748541835
 20
4.2606942075
 30
0.0
 10
4.6753928286
 20
4.2624125374
 30
0.0
 10
4.6756046182
 20
4.26368921
 30
0.0
 10
4.6756317385
 20
4.2649705552
 30
0.0
 10
4.6754749218
 20
4.2662495519
 30
0.0
 10
4.6751352118
 20
4.2675192455
 30
0.0
 10
4.6744254907
 20
4.2692272978
 30
0.0
 10
4.6730573361
 20
4.2713190525
 30
0.0
 10
4.6716272348
 20
4.2727729195
 30
0.0
 10
4.6708241398
 20
4.2734757911
 30
0.0
  0
SPLINE
  5
3A5
100
AcDbEntity
  8
ALL_ASSEMBLY_MEMBERS
100
AcDbSpline
 62
7
  6
CONTINUOUS
 70
0
 71
3
 72
9
 73
5
 74
0
 42
0.0000001
 43
0.0000001
 44
0.0000000001
 40
0.0
 40
0.0
 40
0.0
 40
0.0
 40
0.2448173223
 40
1.0
 40
1.0
 40
1.0
 40
1.0
 10
4.6043263841
 20
4.2769166715
 30
0.0
 10
4.6048768071
 20
4.2772023666
 30
0.0
 10
4.6071447957
 20
4.2783311298
 30
0.0
 10
4.6094868118
 20
4.2793101544
 30
0.0
 10
4.6112835482
 20
4.2799667948
 30
0.0
  0
LINE
  5
3A6
100
AcDbEntity
  8
ALL_ASSEMBLY_MEMBERS
100
AcDbLine
 62
7
  6
CONTINUOUS
 10
4.6032449417
 20
4.2763181865
 11
4.6021160079
 21
4.2750758005
  0
LINE
  5
3A7
100
AcDbEntity
  8
ALL_ASSEMBLY_MEMBERS
100
AcDbLine
 62
7
  6
CONTINUOUS
 10
4.6021160079
 20
4.2750758005
 11
4.6008933617
 21
4.2733936135
  0
LINE
  5
3A8
100
AcDbEntity
  8
ALL_ASSEMBLY_MEMBERS
100
AcDbLine
 62
7
  6
CONTINUOUS
 10
4.6008933617
 20
4.2733936135
 11
4.5999679572
 21
4.2716552716
  0
SPLINE
  5
3A9
100
AcDbEntity
  8
ALL_ASSEMBLY_MEMBERS
100
AcDbSpline
 62
7
  6
CONTINUOUS
 70
0
 71
3
 72
14
 73
10
 74
0
 42
0.0000001
 43
0.0000001
 44
0.0000000001
 40
0.0
 40
0.0
 40
0.0
 40
0.0
 40
0.1252176633
 40
0.2469249547
 40
0.3668298443
 40
0.4867758787
 40
0.608565552
 40
0.7338553793
 40
1.0
 40
1.0
 40
1.0
 40
1.0
 10
4.5999679572
 20
4.2716552716
 30
0.0
 10
4.5997568504
 20
4.2711745608
 30
0.0
 10
4.5994000589
 20
4.2701988241
 30
0.0
 10
4.599074347
 20
4.268690564
 30
0.0
 10
4.5989713334
 20
4.2671725939
 30
0.0
 10
4.5990909385
 20
4.2656557295
 30
0.0
 10
4.5994299321
 20
4.2641493207
 30
0.0
 10
4.6001841525
 20
4.2621284023
 30
0.0
 10
4.6010548793
 20
4.2607139299
 30
0.0
 10
4.6017304929
 20
4.2598257811
 30
0.0
  0
SPLINE
  5
3AA
100
AcDbEntity
  8
ALL_ASSEMBLY_MEMBERS
100
AcDbSpline
 62
7
  6
CONTINUOUS
 70
0
 71
3
 72
9
 73
5
 74
0
 42
0.0000001
 43
0.0000001
 44
0.0000000001
 40
0.0
 40
0.0
 40
0.0
 40
0.0
 40
0.5107117941
 40
1.0
 40
1.0
 40
1.0
 40
1.0
 10
4.6573939177
 20
4.28032103
 30
0.0
 10
4.6591937352
 20
4.2796969602
 30
0.0
 10
4.6626649837
 20
4.2783161464
 30
0.0
 10
4.6659913249
 20
4.2766129641
 30
0.0
 10
4.6675688861
 20
4.2756953332
 30
0.0
  0
LINE
  5
3AB
100
AcDbEntity
  8
ALL_ASSEMBLY_MEMBERS
100
AcDbLine
 62
7
  6
CONTINUOUS
 10
4.5230377433
 20
4.6143388774
 11
4.5203049883
 21
4.6010642454
  0
SPLINE
  5
3AC
100
AcDbEntity
  8
ALL_ASSEMBLY_MEMBERS
100
AcDbSpline
 62
7
  6
CONTINUOUS
 70
0
 71
3
 72
28
 73
24
 74
0
 42
0.0000001
 43
0.0000001
 44
0.0000000001
 40
0.0
 40
0.0
 40
0.0
 40
0.0
 40
0.0002546065
 40
0.0010174263
 40
0.0022884597
 40
0.0040677068
 40
0.0063551676
 40
0.0091508423
 40
0.0162666753
 40
0.0254115816
 40
0.0365785705
 40
0.0497605172
 40
0.0649503025
 40
0.1013249408
 40
0.1456418098
 40
0.1978071802
 40
0.2577106708
 40
0.3252420858
 40
0.4002829634
 40
0.4826967911
 40
0.5723453538
 40
0.7727474974
 40
1.0
 40
1.0
 40
1.0
 40
1.0
 10
4.5430364099
 20
4.5941185681
 30
0.0
 10
4.543036188
 20
4.5941154893
 30
0.0
 10
4.5430321105
 20
4.5941036792
 30
0.0
 10
4.5430268117
 20
4.5940765173
 30
0.0
 10
4.5430153792
 20
4.5940316615
 30
0.0
 10
4.5430005961
 20
4.593968682
 30
0.0
 10
4.542981099
 20
4.5938877895
 30
0.0
 10
4.5429466958
 20
4.5937439507
 30
0.0
 10
4.5428928232
 20
4.5935192763
 30
0.0
 10
4.5428154307
 20
4.5931958751
 30
0.0
 10
4.5427211168
 20
4.5928008994
 30
0.0
 10
4.5426101117
 20
4.5923345615
 30
0.0
 10
4.5424289325
 20
4.5915707708
 30
0.0
 10
4.5421621662
 20
4.5904393283
 30
0.0
 10
4.5417953619
 20
4.5888708905
 30
0.0
 10
4.5413680357
 20
4.5870236502
 30
0.0
 10
4.5408833888
 20
4.5849007921
 30
0.0
 10
4.5403446001
 20
4.5825058275
 30
0.0
 10
4.5397551525
 20
4.5798425383
 30
0.0
 10
4.5391193156
 20
4.5769148999
 30
0.0
 10
4.5381798648
 20
4.5724979273
 30
0.0
 10
4.5369188688
 20
4.5663541134
 30
0.0
 10
4.5359285248
 20
4.5612645661
 30
0.0
 10
4.5354166569
 20
4.5585573214
 30
0.0
  0
SPLINE
  5
3AD
100
AcDbEntity
  8
ALL_ASSEMBLY_MEMBERS
100
AcDbSpline
 62
7
  6
CONTINUOUS
 70
0
 71
3
 72
28
 73
24
 74
0
 42
0.0000001
 43
0.0000001
 44
0.0000000001
 40
0.0
 40
0.0
 40
0.0
 40
0.0
 40
0.2268481881
 40
0.4270726066
 40
0.5167010199
 40
0.5991304483
 40
0.6742151161
 40
0.741810891
 40
0.8017919602
 40
0.8540412719
 40
0.8984416027
 40
0.934892881
 40
0.9501170239
 40
0.9633300097
 40
0.9745242123
 40
0.9836919998
 40
0.9908258779
 40
0.993628652
 40
0.9959219242
 40
0.9977056948
 40
0.998979964
 40
0.9997447323
 40
1.0
 40
1.0
 40
1.0
 40
1.0
 10
4.3395542536
 20
4.5585573214
 30
0.0
 10
4.3389469207
 20
4.5612618545
 30
0.0
 10
4.3377768235
 20
4.5663475535
 30
0.0
 10
4.3362990658
 20
4.5724859122
 30
0.0
 10
4.3352032948
 20
4.5769009394
 30
0.0
 10
4.3344634627
 20
4.579828786
 30
0.0
 10
4.3337792143
 20
4.5824929721
 30
0.0
 10
4.3331549962
 20
4.5848893577
 30
0.0
 10
4.3325944818
 20
4.5870139858
 30
0.0
 10
4.3321010201
 20
4.5888631693
 30
0.0
 10
4.3316779651
 20
4.5904335607
 30
0.0
 10
4.3313705733
 20
4.5915665643
 30
0.0
 10
4.331161942
 20
4.592331503
 30
0.0
 10
4.3310341589
 20
4.5927985996
 30
0.0
 10
4.3309256273
 20
4.5931942408
 30
0.0
 10
4.330836589
 20
4.5935182019
 30
0.0
 10
4.3307746228
 20
4.5937432698
 30
0.0
 10
4.330735038
 20
4.593887366
 30
0.0
 10
4.3307126255
 20
4.5939683985
 30
0.0
 10
4.3306955762
 20
4.5940315003
 30
0.0
 10
4.3306825214
 20
4.5940764131
 30
0.0
 10
4.3306762549
 20
4.5941036643
 30
0.0
 10
4.3306717407
 20
4.5941154538
 30
0.0
 10
4.3306714125
 20
4.5941185556
 30
0.0
  0
LINE
  5
3AE
100
AcDbEntity
  8
ALL_ASSEMBLY_MEMBERS
100
AcDbLine
 62
7
  6
CONTINUOUS
 10
4.3538176942
 20
4.6016910812
 11
4.3506526018
 21
4.6149820539
  0
SPLINE
  5
3AF
100
AcDbEntity
  8
ALL_ASSEMBLY_MEMBERS
100
AcDbSpline
 62
7
  6
CONTINUOUS
 70
0
 71
3
 72
12
 73
8
 74
0
 42
0.0000001
 43
0.0000001
 44
0.0000000001
 40
0.0
 40
0.0
 40
0.0
 40
0.0
 40
0.2494442856
 40
0.3741771714
 40
0.498997595
 40
0.7490800283
 40
1.0
 40
1.0
 40
1.0
 40
1.0
 10
4.3537098832
 20
4.3528922243
 30
0.0
 10
4.3522108692
 20
4.334518548
 30
0.0
 10
4.3499392948
 20
4.306959124
 30
0.0
 10
4.3469351304
 20
4.2702041851
 30
0.0
 10
4.3439632574
 20
4.2333993045
 30
0.0
 10
4.3403277674
 20
4.1872920518
 30
0.0
 10
4.3375492901
 20
4.150370666
 30
0.0
 10
4.3361976739
 20
4.1318762086
 30
0.0
  0
SPLINE
  5
3B0
100
AcDbEntity
  8
ALL_ASSEMBLY_MEMBERS
100
AcDbSpline
 62
7
  6
CONTINUOUS
 70
0
 71
3
 72
22
 73
18
 74
0
 42
0.0000001
 43
0.0000001
 44
0.0000000001
 40
0.0
 40
0.0
 40
0.0
 40
0.0
 40
0.0367171158
 40
0.0779252883
 40
0.1234702714
 40
0.173186289
 40
0.2268939512
 40
0.284369769
 40
0.3453685522
 40
0.4096099901
 40
0.4767951028
 40
0.5465951765
 40
0.6186650866
 40
0.6926357573
 40
0.768132522
 40
0.8447901481
 40
1.0
 40
1.0
 40
1.0
 40
1.0
 10
4.33955435
 20
4.2133095801
 30
0.0
 10
4.3389167294
 20
4.2154417684
 30
0.0
 10
4.3376950428
 20
4.2200066982
 30
0.0
 10
4.3360916657
 20
4.2273187408
 30
0.0
 10
4.3346440869
 20
4.2354647609
 30
0.0
 10
4.3333812977
 20
4.2444069911
 30
0.0
 10
4.3323325636
 20
4.2541044094
 30
0.0
 10
4.3315185766
 20
4.2645102982
 30
0.0
 10
4.3309605771
 20
4.2755722561
 30
0.0
 10
4.3306685005
 20
4.2872329873
 30
0.0
 10
4.3306522398
 20
4.2994307039
 30
0.0
 10
4.3309089344
 20
4.3121001924
 30
0.0
 10
4.3314354521
 20
4.3251728491
 30
0.0
 10
4.3322185066
 20
4.3385784159
 30
0.0
 10
4.333244594
 20
4.3522463444
 30
0.0
 10
4.3349049596
 20
4.370802501
 30
0.0
 10
4.3364164673
 20
4.3847764365
 30
0.0
 10
4.3375219312
 20
4.3941187888
 30
0.0
  0
SPLINE
  5
3B1
100
AcDbEntity
  8
ALL_ASSEMBLY_MEMBERS
100
AcDbSpline
 62
7
  6
CONTINUOUS
 70
0
 71
3
 72
19
 73
15
 74
0
 42
0.0000001
 43
0.0000001
 44
0.0000000001
 40
0.0
 40
0.0
 40
0.0
 40
0.0
 40
0.1553099852
 40
0.2320283875
 40
0.3075754598
 40
0.4536991859
 40
0.5907777936
 40
0.7161023125
 40
0.7736107701
 40
0.827323049
 40
0.8770129931
 40
0.9224818665
 40
0.9635380152
 40
1.0
 40
1.0
 40
1.0
 40
1.0
 10
4.5371389223
 20
4.3941187888
 30
0.0
 10
4.5380795439
 20
4.3847666891
 30
0.0
 10
4.5393748739
 20
4.3707832831
 30
0.0
 10
4.5408038096
 20
4.3522235295
 30
0.0
 10
4.5419743724
 20
4.3342028088
 30
0.0
 10
4.5429295623
 20
4.3125086553
 30
0.0
 10
4.5431650523
 20
4.2877805108
 30
0.0
 10
4.5425627657
 20
4.2684218392
 30
0.0
 10
4.5415951574
 20
4.2541376458
 30
0.0
 10
4.5406877791
 20
4.2444405888
 30
0.0
 10
4.5396000514
 20
4.2354956516
 30
0.0
 10
4.538358697
 20
4.2273445395
 30
0.0
 10
4.5369913844
 20
4.2200266574
 30
0.0
 10
4.5359553627
 20
4.2154494525
 30
0.0
 10
4.5354165672
 20
4.2133095801
 30
0.0
  0
SPLINE
  5
3B2
100
AcDbEntity
  8
ALL_ASSEMBLY_MEMBERS
100
AcDbSpline
 62
7
  6
CONTINUOUS
 70
0
 71
3
 72
9
 73
5
 74
0
 42
0.0000001
 43
0.0000001
 44
0.0000000001
 40
0.0
 40
0.0
 40
0.0
 40
0.0
 40
0.5097369009
 40
1.0
 40
1.0
 40
1.0
 40
1.0
 10
4.520304924
 20
4.3544924452
 30
0.0
 10
4.5209188037
 20
4.3457127914
 30
0.0
 10
4.5219678946
 20
4.3284774713
 30
0.0
 10
4.5226168957
 20
4.3112214746
 30
0.0
 10
4.5228138118
 20
4.3027589099
 30
0.0
  0
SPLINE
  5
3B3
100
AcDbEntity
  8
ALL_ASSEMBLY_MEMBERS
100
AcDbSpline
 62
7
  6
CONTINUOUS
 70
0
 71
3
 72
10
 73
6
 74
0
 42
0.0000001
 43
0.0000001
 44
0.0000000001
 40
0.0
 40
0.0
 40
0.0
 40
0.0
 40
0.4668217322
 40
0.724822958
 40
1.0
 40
1.0
 40
1.0
 40
1.0
 10
4.6753799975
 20
4.2623725111
 30
0.0
 10
4.6746998567
 20
4.2613935811
 30
0.0
 10
4.6734359261
 20
4.2600138031
 30
0.0
 10
4.6714627177
 20
4.2583919018
 30
0.0
 10
4.6703386246
 20
4.2576198357
 30
0.0
 10
4.6697449872
 20
4.2572439117
 30
0.0
  0
LINE
  5
3B4
100
AcDbEntity
  8
ALL_ASSEMBLY_MEMBERS
100
AcDbLine
 62
7
  6
CONTINUOUS
 10
4.6697449872
 20
4.2572439117
 11
4.6674170294
 21
4.2559103982
  0
LINE
  5
3B5
100
AcDbEntity
  8
ALL_ASSEMBLY_MEMBERS
100
AcDbLine
 62
7
  6
CONTINUOUS
 10
4.6674170294
 20
4.2559103982
 11
4.6641161574
 21
4.2543938502
  0
SPLINE
  5
3B6
100
AcDbEntity
  8
ALL_ASSEMBLY_MEMBERS
100
AcDbSpline
 62
7
  6
CONTINUOUS
 70
0
 71
3
 72
13
 73
9
 74
0
 42
0.0000001
 43
0.0000001
 44
0.0000000001
 40
0.0
 40
0.0
 40
0.0
 40
0.0
 40
0.2763832304
 40
0.5385018798
 40
0.6631128085
 40
0.782403917
 40
0.8952215463
 40
1.0
 40
1.0
 40
1.0
 40
1.0
 10
4.5354165309
 20
4.2133096956
 30
0.0
 10
4.5345234446
 20
4.2145193648
 30
0.0
 10
4.5327422238
 20
4.2168461605
 30
0.0
 10
4.5304479597
 20
4.2196315412
 30
0.0
 10
4.5286275927
 20
4.2216970326
 30
0.0
 10
4.5273073401
 20
4.2231198046
 30
0.0
 10
4.5260188043
 20
4.2244236334
 30
0.0
 10
4.5251528955
 20
4.2252316747
 30
0.0
 10
4.5247249476
 20
4.2256082381
 30
0.0
  0
SPLINE
  5
3B7
100
AcDbEntity
  8
ALL_ASSEMBLY_MEMBERS
100
AcDbSpline
 62
7
  6
CONTINUOUS
 70
0
 71
3
 72
9
 73
5
 74
0
 42
0.0000001
 43
0.0000001
 44
0.0000000001
 40
0.0
 40
0.0
 40
0.0
 40
0.0
 40
0.5080216927
 40
1.0
 40
1.0
 40
1.0
 40
1.0
 10
4.5354159146
 20
4.2133095801
 30
0.0
 10
4.5336875288
 20
4.213987699
 30
0.0
 10
4.5302392636
 20
4.2152082866
 30
0.0
 10
4.526712397
 20
4.2161807441
 30
0.0
 10
4.5249617186
 20
4.2165906245
 30
0.0
  0
SPLINE
  5
3B8
100
AcDbEntity
  8
ALL_ASSEMBLY_MEMBERS
100
AcDbSpline
 62
7
  6
CONTINUOUS
 70
0
 71
3
 72
22
 73
18
 74
0
 42
0.0000001
 43
0.0000001
 44
0.0000000001
 40
0.0
 40
0.0
 40
0.0
 40
0.0
 40
0.0788818191
 40
0.1578143696
 40
0.2360255063
 40
0.3128722315
 40
0.3878595891
 40
0.4605033314
 40
0.5303092435
 40
0.5968738695
 40
0.7190772185
 40
0.7744876747
 40
0.8259528046
 40
0.8734780348
 40
0.9174541765
 40
0.9590867898
 40
1.0
 40
1.0
 40
1.0
 40
1.0
 10
4.5012943837
 20
4.1193733614
 30
0.0
 10
4.5019452613
 20
4.1194574822
 30
0.0
 10
4.5032456276
 20
4.1196405913
 30
0.0
 10
4.5051805628
 20
4.1199781015
 30
0.0
 10
4.5070828635
 20
4.1203959547
 30
0.0
 10
4.508926608
 20
4.1209137974
 30
0.0
 10
4.510693134
 20
4.1215232449
 30
0.0
 10
4.5123672278
 20
4.122211371
 30
0.0
 10
4.5139351508
 20
4.1229665164
 30
0.0
 10
4.5158103524
 20
4.1240220145
 30
0.0
 10
4.5174768648
 20
4.1252040111
 30
0.0
 10
4.5188559817
 20
4.1265237749
 30
0.0
 10
4.519687703
 20
4.1275062911
 30
0.0
 10
4.5203448845
 20
4.1285015684
 30
0.0
 10
4.5208211971
 20
4.1295066603
 30
0.0
 10
4.5211034347
 20
4.1305267378
 30
0.0
 10
4.5211551005
 20
4.1312168792
 30
0.0
 10
4.5211470108
 20
4.131557178
 30
0.0
  0
SPLINE
  5
3B9
100
AcDbEntity
  8
ALL_ASSEMBLY_MEMBERS
100
AcDbSpline
 62
7
  6
CONTINUOUS
 70
0
 71
3
 72
21
 73
17
 74
0
 42
0.0000001
 43
0.0000001
 44
0.0000000001
 40
0.0
 40
0.0
 40
0.0
 40
0.0
 40
0.1625791189
 40
0.2423120545
 40
0.3200099279
 40
0.3951198283
 40
0.4672844348
 40
0.5362110675
 40
0.6016599515
 40
0.6633964343
 40
0.7212245211
 40
0.7750665046
 40
0.825198547
 40
0.8721617814
 40
0.9167153236
 40
1.0
 40
1.0
 40
1.0
 40
1.0
 10
4.5012943837
 20
3.9188642162
 30
0.0
 10
4.5025191551
 20
3.9187059207
 30
0.0
 10
4.5043632872
 20
3.91860099
 30
0.0
 10
4.5067936382
 20
3.9186623264
 30
0.0
 10
4.5085562317
 20
3.9187889603
 30
0.0
 10
4.5102535911
 20
3.9189932863
 30
0.0
 10
4.5118717539
 20
3.9192792279
 30
0.0
 10
4.5133974866
 20
3.9196498523
 30
0.0
 10
4.514817276
 20
3.9201053516
 30
0.0
 10
4.5161196201
 20
3.9206376447
 30
0.0
 10
4.5172930485
 20
3.9212400477
 30
0.0
 10
4.5183280633
 20
3.921907237
 30
0.0
 10
4.5192155696
 20
3.9226375381
 30
0.0
 10
4.519948626
 20
3.9234313564
 30
0.0
 10
4.5206855673
 20
3.9245399453
 30
0.0
 10
4.5210148057
 20
3.9254823298
 30
0.0
 10
4.521103029
 20
3.9261087822
 30
0.0
  0
SPLINE
  5
3BA
100
AcDbEntity
  8
ALL_ASSEMBLY_MEMBERS
100
AcDbSpline
 62
7
  6
CONTINUOUS
 70
0
 71
3
 72
22
 73
18
 74
0
 42
0.0000001
 43
0.0000001
 44
0.0000000001
 40
0.0
 40
0.0
 40
0.0
 40
0.0
 40
0.0794576145
 40
0.1589598191
 40
0.2376964622
 40
0.3149956235
 40
0.3903422022
 40
0.4632317689
 40
0.5331500094
 40
0.59968307
 40
0.7213933599
 40
0.7763811815
 40
0.8273390756
 40
0.8743157809
 40
0.91778438
 40
0.9590904427
 40
1.0
 40
1.0
 40
1.0
 40
1.0
 10
4.3560342161
 20
4.1193733614
 30
0.0
 10
4.355370346
 20
4.1194599172
 30
0.0
 10
4.3540440764
 20
4.1196480659
 30
0.0
 10
4.3520711
 20
4.1199948592
 30
0.0
 10
4.3501327094
 20
4.1204248349
 30
0.0
 10
4.3482564645
 20
4.120958901
 30
0.0
 10
4.3464621238
 20
4.1215880382
 30
0.0
 10
4.3447657427
 20
4.1222984269
 30
0.0
 10
4.3431817537
 20
4.1230776464
 30
0.0
 10
4.3412970235
 20
4.1241646802
 30
0.0
 10
4.3396321395
 20
4.1253814705
 30
0.0
 10
4.3382727025
 20
4.1267393772
 30
0.0
 10
4.3374652933
 20
4.1277473514
 30
0.0
 10
4.3368413149
 20
4.1287665711
 30
0.0
 10
4.3364077956
 20
4.1297941356
 30
0.0
 10
4.3361785023
 20
4.1308345278
 30
0.0
 10
4.3361684779
 20
4.1315327866
 30
0.0
 10
4.336197684
 20
4.1318762402
 30
0.0
  0
SPLINE
  5
3BB
100
AcDbEntity
  8
ALL_ASSEMBLY_MEMBERS
100
AcDbSpline
 62
7
  6
CONTINUOUS
 70
0
 71
3
 72
20
 73
16
 74
0
 42
0.0000001
 43
0.0000001
 44
0.0000000001
 40
0.0
 40
0.0
 40
0.0
 40
0.0
 40
0.1625358697
 40
0.2422670371
 40
0.3199749507
 40
0.4671872642
 40
0.5360953445
 40
0.6015233175
 40
0.6632486533
 40
0.7210839788
 40
0.7749348074
 40
0.82503503
 40
0.8719223666
 40
0.9163689904
 40
1.0
 40
1.0
 40
1.0
 40
1.0
 10
4.3560342161
 20
3.9188642162
 30
0.0
 10
4.3548097898
 20
3.9187045782
 30
0.0
 10
4.3529657489
 20
3.9185987679
 30
0.0
 10
4.3505352224
 20
3.9186607596
 30
0.0
 10
4.3482263742
 20
3.91882852
 30
0.0
 10
4.3460113312
 20
3.9191454457
 30
0.0
 10
4.3439310773
 20
3.919649492
 30
0.0
 10
4.3425113245
 20
3.9201046098
 30
0.0
 10
4.3412090356
 20
3.9206370291
 30
0.0
 10
4.3400356075
 20
3.9212399076
 30
0.0
 10
4.3390007313
 20
3.9219073395
 30
0.0
 10
4.3381134226
 20
3.9226369202
 30
0.0
 10
4.3373807433
 20
3.9234289003
 30
0.0
 10
4.3366406895
 20
3.9245373742
 30
0.0
 10
4.3363139534
 20
3.9254829915
 30
0.0
 10
4.3362255013
 20
3.9261121512
 30
0.0
  0
SPLINE
  5
3BC
100
AcDbEntity
  8
ALL_ASSEMBLY_MEMBERS
100
AcDbSpline
 62
7
  6
CONTINUOUS
 70
0
 71
3
 72
41
 73
37
 74
0
 42
0.0000001
 43
0.0000001
 44
0.0000000001
 40
0.0
 40
0.0
 40
0.0
 40
0.0
 40
0.0309629245
 40
0.0597127081
 40
0.086077711
 40
0.1100489242
 40
0.1319033711
 40
0.1422262814
 40
0.152275727
 40
0.1621848687
 40
0.1720895581
 40
0.1821225549
 40
0.1924098417
 40
0.2141424739
 40
0.2379324096
 40
0.2640688084
 40
0.2926158021
 40
0.3234692872
 40
0.3564591328
 40
0.3913636731
 40
0.4279218605
 40
0.4658663061
 40
0.5049137106
 40
0.5851106552
 40
0.6256484352
 40
0.6660595016
 40
0.7060315367
 40
0.7452561856
 40
0.7834340724
 40
0.8202798039
 40
0.855522043
 40
0.8888961059
 40
0.9201748963
 40
0.9491754025
 40
0.9757735312
 40
1.0
 40
1.0
 40
1.0
 40
1.0
 10
4.6728933132
 20
4.2720868548
 30
0.0
 10
4.6738082706
 20
4.2713607459
 30
0.0
 10
4.6755114375
 20
4.2698797228
 30
0.0
 10
4.677723325
 20
4.2674927784
 30
0.0
 10
4.6794616776
 20
4.2650553208
 30
0.0
 10
4.6806763723
 20
4.2626029458
 30
0.0
 10
4.6812322447
 20
4.2605393639
 30
0.0
 10
4.6813597389
 20
4.2589475903
 30
0.0
 10
4.6813033663
 20
4.2578032724
 30
0.0
 10
4.6810989443
 20
4.2566920014
 30
0.0
 10
4.6807485129
 20
4.2556184862
 30
0.0
 10
4.6802544
 20
4.2545873041
 30
0.0
 10
4.679392497
 20
4.2532511107
 30
0.0
 10
4.6779488771
 20
4.2516954361
 30
0.0
 10
4.6757710938
 20
4.2500754977
 30
0.0
 10
4.6731627207
 20
4.2486592044
 30
0.0
 10
4.6701731412
 20
4.2474323022
 30
0.0
 10
4.6668459929
 20
4.2463832674
 30
0.0
 10
4.6632247673
 20
4.2455001043
 30
0.0
 10
4.6593511337
 20
4.2447696205
 30
0.0
 10
4.6552651715
 20
4.2441792319
 30
0.0
 10
4.651005428
 20
4.243719805
 30
0.0
 10
4.6450923773
 20
4.2432643241
 30
0.0
 10
4.6390657123
 20
4.2430432545
 30
0.0
 10
4.6329862265
 20
4.243029615
 30
0.0
 10
4.6284250464
 20
4.2431248547
 30
0.0
 10
4.6239170551
 20
4.2433294477
 30
0.0
 10
4.6194998783
 20
4.2436457249
 30
0.0
 10
4.6152112232
 20
4.244081354
 30
0.0
 10
4.6110889907
 20
4.2446460648
 30
0.0
 10
4.6071715994
 20
4.2453485851
 30
0.0
 10
4.6034988312
 20
4.2462015843
 30
0.0
 10
4.6001121169
 20
4.2472179204
 30
0.0
 10
4.5970541634
 20
4.2484098727
 30
0.0
 10
4.5943698536
 20
4.2497880783
 30
0.0
 10
4.5927902895
 20
4.2508913151
 30
0.0
 10
4.5920916805
 20
4.2514805733
 30
0.0
  0
SPLINE
  5
3BD
100
AcDbEntity
  8
ALL_ASSEMBLY_MEMBERS
100
AcDbSpline
 62
7
  6
CONTINUOUS
 70
0
 71
3
 72
16
 73
12
 74
0
 42
0.0000001
 43
0.0000001
 44
0.0000000001
 40
0.0
 40
0.0
 40
0.0
 40
0.0
 40
0.1308433558
 40
0.1960544271
 40
0.260916978
 40
0.389225906
 40
0.5153475977
 40
0.6392242645
 40
0.7611124267
 40
0.8809243475
 40
1.0
 40
1.0
 40
1.0
 40
1.0
 10
4.3560342161
 20
4.1474644951
 30
0.0
 10
4.3548338334
 20
4.1474731192
 30
0.0
 10
4.3530297007
 20
4.1473513941
 30
0.0
 10
4.3506763044
 20
4.1469016092
 30
0.0
 10
4.348392546
 20
4.1462563754
 30
0.0
 10
4.3456844997
 20
4.1450997793
 30
0.0
 10
4.3427565041
 20
4.1432043412
 30
0.0
 10
4.3402556596
 20
4.1408545797
 30
0.0
 10
4.3382752509
 20
4.1381225203
 30
0.0
 10
4.3368653416
 20
4.1351059854
 30
0.0
 10
4.3363463532
 20
4.1329585286
 30
0.0
 10
4.336197684
 20
4.1318762402
 30
0.0
  0
SPLINE
  5
3BE
100
AcDbEntity
  8
ALL_ASSEMBLY_MEMBERS
100
AcDbSpline
 62
7
  6
CONTINUOUS
 70
0
 71
3
 72
11
 73
7
 74
0
 42
0.0000001
 43
0.0000001
 44
0.0000000001
 40
0.0
 40
0.0
 40
0.0
 40
0.0
 40
0.2500438903
 40
0.5000766566
 40
0.7500676317
 40
1.0
 40
1.0
 40
1.0
 40
1.0
 10
4.3736434222
 20
4.3693542999
 30
0.0
 10
4.3721348817
 20
4.350863493
 30
0.0
 10
4.3690843191
 20
4.3138854528
 30
0.0
 10
4.3645524896
 20
4.2584182811
 30
0.0
 10
4.3601691162
 20
4.202947409
 30
0.0
 10
4.3573893706
 20
4.1659593048
 30
0.0
 10
4.3560400387
 20
4.1474644951
 30
0.0
  0
SPLINE
  5
3BF
100
AcDbEntity
  8
ALL_ASSEMBLY_MEMBERS
100
AcDbSpline
 62
7
  6
CONTINUOUS
 70
0
 71
3
 72
16
 73
12
 74
0
 42
0.0000001
 43
0.0000001
 44
0.0000000001
 40
0.0
 40
0.0
 40
0.0
 40
0.0
 40
0.1305980432
 40
0.1958400974
 40
0.2607653333
 40
0.3890452427
 40
0.5151422763
 40
0.6389853868
 40
0.7607994782
 40
0.8810340206
 40
1.0
 40
1.0
 40
1.0
 40
1.0
 10
4.3736434222
 20
4.3693542994
 30
0.0
 10
4.3724641175
 20
4.3693717896
 30
0.0
 10
4.3706893066
 20
4.3692533399
 30
0.0
 10
4.3683735886
 20
4.3688152996
 30
0.0
 10
4.3661207139
 20
4.368196059
 30
0.0
 10
4.3634444404
 20
4.3670832814
 30
0.0
 10
4.3605435296
 20
4.365248204
 30
0.0
 10
4.3580545493
 20
4.3629681448
 30
0.0
 10
4.3560515497
 20
4.3603154481
 30
0.0
 10
4.3546100412
 20
4.3573694807
 30
0.0
 10
4.3540470341
 20
4.3552672758
 30
0.0
 10
4.3538720819
 20
4.3542072311
 30
0.0
  0
SPLINE
  5
3C0
100
AcDbEntity
  8
ALL_ASSEMBLY_MEMBERS
100
AcDbSpline
 62
7
  6
CONTINUOUS
 70
0
 71
3
 72
17
 73
13
 74
0
 42
0.0000001
 43
0.0000001
 44
0.0000000001
 40
0.0
 40
0.0
 40
0.0
 40
0.0
 40
0.1322190953
 40
0.2635769446
 40
0.3926232775
 40
0.456180359
 40
0.5190154334
 40
0.6424269373
 40
0.7633284719
 40
0.8231188315
 40
0.8825023934
 40
1.0
 40
1.0
 40
1.0
 40
1.0
 10
4.3737518281
 20
4.3703034056
 30
0.0
 10
4.3725107249
 20
4.3703252331
 30
0.0
 10
4.3700282707
 20
4.3701603249
 30
0.0
 10
4.3664244377
 20
4.3693117243
 30
0.0
 10
4.363613827
 20
4.3681042367
 30
0.0
 10
4.3615548511
 20
4.3668692847
 30
0.0
 10
4.3596596651
 20
4.3654829976
 30
0.0
 10
4.3575804833
 20
4.3634584335
 30
0.0
 10
4.355949032
 20
4.361090351
 30
0.0
 10
4.3549728553
 20
4.3590545595
 30
0.0
 10
4.3542223111
 20
4.3569604291
 30
0.0
 10
4.3539071159
 20
4.3553135702
 30
0.0
 10
4.3538176821
 20
4.3542141143
 30
0.0
  0
SPLINE
  5
3C1
100
AcDbEntity
  8
ALL_ASSEMBLY_MEMBERS
100
AcDbSpline
 62
7
  6
CONTINUOUS
 70
0
 71
3
 72
17
 73
13
 74
0
 42
0.0000001
 43
0.0000001
 44
0.0000000001
 40
0.0
 40
0.0
 40
0.0
 40
0.0
 40
0.1340646854
 40
0.2674039227
 40
0.399671614
 40
0.5303057422
 40
0.6583127747
 40
0.7819026198
 40
0.8410977622
 40
0.8977498522
 40
0.9511077358
 40
1.0
 40
1.0
 40
1.0
 40
1.0
 10
4.3447299801
 20
4.3933444462
 30
0.0
 10
4.3452486197
 20
4.3916196699
 30
0.0
 10
4.3462793847
 20
4.388178332
 30
0.0
 10
4.3477985244
 20
4.3830283784
 30
0.0
 10
4.3492696868
 20
4.3779124282
 30
0.0
 10
4.3506643999
 20
4.3728492021
 30
0.0
 10
4.3519359772
 20
4.3678738223
 30
0.0
 10
4.3528454148
 20
4.3637972382
 30
0.0
 10
4.3534118564
 20
4.3606302665
 30
0.0
 10
4.3537192831
 20
4.3583769728
 30
0.0
 10
4.3538841591
 20
4.3562473463
 30
0.0
 10
4.3538711821
 20
4.3548701909
 30
0.0
 10
4.3538178721
 20
4.354215524
 30
0.0
  0
SPLINE
  5
3C2
100
AcDbEntity
  8
ALL_ASSEMBLY_MEMBERS
100
AcDbSpline
 62
7
  6
CONTINUOUS
 70
0
 71
3
 72
19
 73
15
 74
0
 42
0.0000001
 43
0.0000001
 44
0.0000000001
 40
0.0
 40
0.0
 40
0.0
 40
0.0
 40
0.1497482795
 40
0.2965729814
 40
0.4392083013
 40
0.5759466954
 40
0.6413219911
 40
0.7041981165
 40
0.7640298866
 40
0.8202508242
 40
0.8723003337
 40
0.9196341755
 40
0.9620739032
 40
1.0
 40
1.0
 40
1.0
 40
1.0
 10
4.3519264998
 20
4.3988610853
 30
0.0
 10
4.3532515444
 20
4.397600529
 30
0.0
 10
4.3558645204
 20
4.3950921377
 30
0.0
 10
4.3596766823
 20
4.3913180273
 30
0.0
 10
4.3632884343
 20
4.3875691092
 30
0.0
 10
4.3661033132
 20
4.384435816
 30
0.0
 10
4.3681647165
 20
4.3819403423
 30
0.0
 10
4.3695665904
 20
4.3801199666
 30
0.0
 10
4.3708231298
 20
4.3783310222
 30
0.0
 10
4.3719056098
 20
4.3765848363
 30
0.0
 10
4.3727831432
 20
4.3748965846
 30
0.0
 10
4.3734195857
 20
4.3732807415
 30
0.0
 10
4.3737762207
 20
4.3717558554
 30
0.0
 10
4.3738046104
 20
4.3707635811
 30
0.0
 10
4.3737518281
 20
4.3703034098
 30
0.0
  0
LINE
  5
3C3
100
AcDbEntity
  8
ALL_ASSEMBLY_MEMBERS
100
AcDbLine
 62
7
  6
CONTINUOUS
 10
4.3395545529
 20
4.4104911556
 11
4.3447310138
 21
4.3933453764
  0
LINE
  5
3C4
100
AcDbEntity
  8
ALL_ASSEMBLY_MEMBERS
100
AcDbLine
 62
7
  6
CONTINUOUS
 10
4.3395563829
 20
4.410489465
 11
4.3519264998
 21
4.3988610853
  0
SPLINE
  5
3C5
100
AcDbEntity
  8
ALL_ASSEMBLY_MEMBERS
100
AcDbSpline
 62
7
  6
CONTINUOUS
 70
0
 71
3
 72
16
 73
12
 74
0
 42
0.0000001
 43
0.0000001
 44
0.0000000001
 40
0.0
 40
0.0
 40
0.0
 40
0.0
 40
0.1188589472
 40
0.23872716
 40
0.3608076677
 40
0.4849558979
 40
0.6113030707
 40
0.7396676579
 40
0.8044823483
 40
0.8695905461
 40
1.0
 40
1.0
 40
1.0
 40
1.0
 10
4.5211470108
 20
4.131557178
 30
0.0
 10
4.5210018736
 20
4.1326452521
 30
0.0
 10
4.5204861288
 20
4.1348070995
 30
0.0
 10
4.5190795078
 20
4.1378493974
 30
0.0
 10
4.5171010332
 20
4.1406158727
 30
0.0
 10
4.5145993034
 20
4.1430065244
 30
0.0
 10
4.5116683225
 20
4.1449483433
 30
0.0
 10
4.5089549618
 20
4.1461467261
 30
0.0
 10
4.5066654292
 20
4.1468255256
 30
0.0
 10
4.5043078928
 20
4.1473084524
 30
0.0
 10
4.5024987381
 20
4.1474559051
 30
0.0
 10
4.5012943837
 20
4.1474644951
 30
0.0
  0
SPLINE
  5
3C6
100
AcDbEntity
  8
ALL_ASSEMBLY_MEMBERS
100
AcDbSpline
 62
7
  6
CONTINUOUS
 70
0
 71
3
 72
12
 73
8
 74
0
 42
0.0000001
 43
0.0000001
 44
0.0000000001
 40
0.0
 40
0.0
 40
0.0
 40
0.0
 40
0.2493974198
 40
0.3741105484
 40
0.4989192304
 40
0.7490118515
 40
1.0
 40
1.0
 40
1.0
 40
1.0
 10
4.5203249708
 20
4.352573333
 30
0.0
 10
4.5204344342
 20
4.3341998517
 30
0.0
 10
4.520619735
 20
4.3066386984
 30
0.0
 10
4.5208422942
 20
4.2698825902
 30
0.0
 10
4.5210307251
 20
4.2330750714
 30
0.0
 10
4.5211846782
 20
4.1869642385
 30
0.0
 10
4.5211844239
 20
4.15004811
 30
0.0
 10
4.5211470205
 20
4.131557147
 30
0.0
  0
SPLINE
  5
3C7
100
AcDbEntity
  8
ALL_ASSEMBLY_MEMBERS
100
AcDbSpline
 62
7
  6
CONTINUOUS
 70
0
 71
3
 72
15
 73
11
 74
0
 42
0.0000001
 43
0.0000001
 44
0.0000000001
 40
0.0
 40
0.0
 40
0.0
 40
0.0
 40
0.1185378477
 40
0.2386725819
 40
0.3605180578
 40
0.4844867934
 40
0.6107713334
 40
0.7392443119
 40
0.8694385438
 40
1.0
 40
1.0
 40
1.0
 40
1.0
 10
4.5203249708
 20
4.352573333
 30
0.0
 10
4.5202361596
 20
4.3536996462
 30
0.0
 10
4.5198161138
 20
4.3559545642
 30
0.0
 10
4.5185141579
 20
4.3591586479
 30
0.0
 10
4.5165671313
 20
4.362080248
 30
0.0
 10
4.5140600436
 20
4.3646182751
 30
0.0
 10
4.5110756803
 20
4.3666840465
 30
0.0
 10
4.5077196735
 20
4.3682143099
 30
0.0
 10
4.5041103721
 20
4.3691443676
 30
0.0
 10
4.5016201235
 20
4.3693557467
 30
0.0
 10
4.5003757155
 20
4.3693543
 30
0.0
  0
SPLINE
  5
3C8
100
AcDbEntity
  8
ALL_ASSEMBLY_MEMBERS
100
AcDbSpline
 62
7
  6
CONTINUOUS
 70
0
 71
3
 72
11
 73
7
 74
0
 42
0.0000001
 43
0.0000001
 44
0.0000000001
 40
0.0
 40
0.0
 40
0.0
 40
0.0
 40
0.2500022881
 40
0.5000037009
 40
0.7500024495
 40
1.0
 40
1.0
 40
1.0
 40
1.0
 10
4.5003757155
 20
4.3693542999
 30
0.0
 10
4.5004939302
 20
4.3508634646
 30
0.0
 10
4.5007637182
 20
4.3138820857
 30
0.0
 10
4.5011237095
 20
4.258409915
 30
0.0
 10
4.5013342666
 20
4.2029372542
 30
0.0
 10
4.5013309715
 20
4.1659553093
 30
0.0
 10
4.5012885858
 20
4.1474644951
 30
0.0
  0
SPLINE
  5
3C9
100
AcDbEntity
  8
ALL_ASSEMBLY_MEMBERS
100
AcDbSpline
 62
7
  6
CONTINUOUS
 70
0
 71
3
 72
15
 73
11
 74
0
 42
0.0000001
 43
0.0000001
 44
0.0000000001
 40
0.0
 40
0.0
 40
0.0
 40
0.0
 40
0.1166353326
 40
0.2352009557
 40
0.3560463463
 40
0.4797057171
 40
0.6063936344
 40
0.7359076959
 40
0.8676337523
 40
1.0
 40
1.0
 40
1.0
 40
1.0
 10
4.5203050006
 20
4.3544926207
 30
0.0
 10
4.5202170582
 20
4.3555857212
 30
0.0
 10
4.5197973472
 20
4.3577768121
 30
0.0
 10
4.518494315
 20
4.3608852194
 30
0.0
 10
4.5165455235
 20
4.3637161554
 30
0.0
 10
4.514036935
 20
4.3661722267
 30
0.0
 10
4.5110519248
 20
4.3681682014
 30
0.0
 10
4.5076960802
 20
4.369643747
 30
0.0
 10
4.504087705
 20
4.3705367841
 30
0.0
 10
4.5015995424
 20
4.3707359026
 30
0.0
 10
4.5003550112
 20
4.3707317299
 30
0.0
  0
SPLINE
  5
3CA
100
AcDbEntity
  8
ALL_ASSEMBLY_MEMBERS
100
AcDbSpline
 62
7
  6
CONTINUOUS
 70
0
 71
3
 72
19
 73
15
 74
0
 42
0.0000001
 43
0.0000001
 44
0.0000000001
 40
0.0
 40
0.0
 40
0.0
 40
0.0
 40
0.1482985192
 40
0.293836733
 40
0.4354851635
 40
0.5716217354
 40
0.6369200437
 40
0.6998607234
 40
0.759978403
 40
0.8167275325
 40
0.8695184041
 40
0.9178007952
 40
0.9612364488
 40
1.0
 40
1.0
 40
1.0
 40
1.0
 10
4.5229241409
 20
4.3990405535
 30
0.0
 10
4.5215910994
 20
4.3978028257
 30
0.0
 10
4.5189609099
 20
4.3953384031
 30
0.0
 10
4.5151179239
 20
4.3916277264
 30
0.0
 10
4.5114650655
 20
4.3879365446
 30
0.0
 10
4.5086056025
 20
4.3848469608
 30
0.0
 10
4.5064961992
 20
4.3823833371
 30
0.0
 10
4.5050505225
 20
4.3805804626
 30
0.0
 10
4.5037412251
 20
4.3788046391
 30
0.0
 10
4.5025950456
 20
4.3770661787
 30
0.0
 10
4.5016426684
 20
4.3753785169
 30
0.0
 10
4.5009179361
 20
4.3737568305
 30
0.0
 10
4.5004564882
 20
4.3722187665
 30
0.0
 10
4.5003453846
 20
4.3712071188
 30
0.0
 10
4.5003550112
 20
4.3707317352
 30
0.0
  0
SPLINE
  5
3CB
100
AcDbEntity
  8
ALL_ASSEMBLY_MEMBERS
100
AcDbSpline
 62
7
  6
CONTINUOUS
 70
0
 71
3
 72
16
 73
12
 74
0
 42
0.0000001
 43
0.0000001
 44
0.0000000001
 40
0.0
 40
0.0
 40
0.0
 40
0.0
 40
0.2662861124
 40
0.3980825704
 40
0.528344895
 40
0.6561532106
 40
0.7798449999
 40
0.8392655824
 40
0.8963240241
 40
0.9502241017
 40
1.0
 40
1.0
 40
1.0
 40
1.0
 10
4.5300246012
 20
4.3934692715
 30
0.0
 10
4.5289499211
 20
4.3900588417
 30
0.0
 10
4.5273538132
 20
4.3849570426
 30
0.0
 10
4.5253041231
 20
4.3781647739
 30
0.0
 10
4.5238468182
 20
4.3731362657
 30
0.0
 10
4.5225070252
 20
4.3681877871
 30
0.0
 10
4.5215324275
 20
4.3641266302
 30
0.0
 10
4.5209056212
 20
4.3609625805
 30
0.0
 10
4.5205447818
 20
4.3587024897
 30
0.0
 10
4.5203177851
 20
4.3565550056
 30
0.0
 10
4.5202802739
 20
4.3551604343
 30
0.0
 10
4.5203049258
 20
4.3544924876
 30
0.0
  0
SPLINE
  5
3CC
100
AcDbEntity
  8
ALL_ASSEMBLY_MEMBERS
100
AcDbSpline
 62
7
  6
CONTINUOUS
 70
0
 71
3
 72
18
 73
14
 74
0
 42
0.0000001
 43
0.0000001
 44
0.0000000001
 40
0.0
 40
0.0
 40
0.0
 40
0.0
 40
0.1242991803
 40
0.1868056109
 40
0.2492562955
 40
0.3739077018
 40
0.4987504835
 40
0.5613261382
 40
0.6239203322
 40
0.6865459033
 40
0.7492372491
 40
0.874732463
 40
1.0
 40
1.0
 40
1.0
 40
1.0
 10
4.5012943837
 20
5.1441187888
 30
0.0
 10
4.5025973183
 20
5.1441187888
 30
0.0
 10
4.5045622377
 20
5.1439199885
 30
0.0
 10
4.5070983565
 20
5.1432794015
 30
0.0
 10
4.5095621315
 20
5.1423868074
 30
0.0
 10
4.512456894
 20
5.1408174752
 30
0.0
 10
4.5149851746
 20
5.1387061821
 30
0.0
 10
4.5167316521
 20
5.1367475665
 30
0.0
 10
4.5178925205
 20
5.1351536212
 30
0.0
 10
4.518890367
 20
5.1334515661
 30
0.0
 10
4.5199939412
 20
5.1310613312
 30
0.0
 10
4.5209256029
 20
5.1278879452
 30
0.0
 10
4.5211633446
 20
5.125249869
 30
0.0
 10
4.5211470108
 20
5.1239368854
 30
0.0
  0
SPLINE
  5
3CD
100
AcDbEntity
  8
ALL_ASSEMBLY_MEMBERS
100
AcDbSpline
 62
7
  6
CONTINUOUS
 70
0
 71
3
 72
17
 73
13
 74
0
 42
0.0000001
 43
0.0000001
 44
0.0000000001
 40
0.0
 40
0.0
 40
0.0
 40
0.0
 40
0.1142402558
 40
0.23177426
 40
0.3523502876
 40
0.4758748797
 40
0.602408557
 40
0.732086255
 40
0.7981811703
 40
0.865002196
 40
0.9323720688
 40
1.0
 40
1.0
 40
1.0
 40
1.0
 10
4.5354171793
 20
4.5585573214
 30
0.0
 10
4.5334795046
 20
4.5595700566
 30
0.0
 10
4.5296126984
 20
4.5617505672
 30
0.0
 10
4.5239606805
 20
4.5654376623
 30
0.0
 10
4.5184477158
 20
4.5696335803
 30
0.0
 10
4.5131841257
 20
4.5744046977
 30
0.0
 10
4.5083350407
 20
4.5798388458
 30
0.0
 10
4.504877617
 20
4.5849830999
 30
0.0
 10
4.5026697092
 20
4.5895063334
 30
0.0
 10
4.501368804
 20
4.5931216673
 30
0.0
 10
4.5005290875
 20
4.5969032305
 30
0.0
 10
4.5003423818
 20
4.5994926601
 30
0.0
 10
4.5003550513
 20
4.6007868854
 30
0.0
  0
SPLINE
  5
3CE
100
AcDbEntity
  8
ALL_ASSEMBLY_MEMBERS
100
AcDbSpline
 62
7
  6
CONTINUOUS
 70
0
 71
3
 72
15
 73
11
 74
0
 42
0.0000001
 43
0.0000001
 44
0.0000000001
 40
0.0
 40
0.0
 40
0.0
 40
0.0
 40
0.2161214678
 40
0.3295091374
 40
0.4473035298
 40
0.5707797149
 40
0.7019817397
 40
0.7714187813
 40
0.8440223491
 40
1.0
 40
1.0
 40
1.0
 40
1.0
 10
4.5354166773
 20
4.5585572707
 30
0.0
 10
4.5338247143
 20
4.5614286381
 30
0.0
 10
4.5314665637
 20
4.5658457594
 30
0.0
 10
4.52846245
 20
4.5719413882
 30
0.0
 10
4.5262257134
 20
4.5768441124
 30
0.0
 10
4.5240934983
 20
4.5820875439
 30
0.0
 10
4.5225163136
 20
4.5867570218
 30
0.0
 10
4.5214552557
 20
4.5907724995
 30
0.0
 10
4.5205526194
 20
4.5952087995
 30
0.0
 10
4.5202416611
 20
4.5986955784
 30
0.0
 10
4.5203049909
 20
4.6010642262
 30
0.0
  0
SPLINE
  5
3CF
100
AcDbEntity
  8
ALL_ASSEMBLY_MEMBERS
100
AcDbSpline
 62
7
  6
CONTINUOUS
 70
0
 71
3
 72
21
 73
17
 74
0
 42
0.0000001
 43
0.0000001
 44
0.0000000001
 40
0.0
 40
0.0
 40
0.0
 40
0.0
 40
0.1864758396
 40
0.367101888
 40
0.5345675903
 40
0.6831650783
 40
0.7487576818
 40
0.8078082456
 40
0.859818609
 40
0.9042914355
 40
0.9407777725
 40
0.969018933
 40
0.979983858
 40
0.9888132107
 40
0.9954877103
 40
1.0
 40
1.0
 40
1.0
 40
1.0
 10
4.5003550513
 20
4.6007868856
 30
0.0
 10
4.501595652
 20
4.6007782344
 30
0.0
 10
4.5040379741
 20
4.6007663493
 30
0.0
 10
4.5075944839
 20
4.6007639892
 30
0.0
 10
4.5108989606
 20
4.6007777292
 30
0.0
 10
4.5134380315
 20
4.6008025612
 30
0.0
 10
4.5152556915
 20
4.6008311911
 30
0.0
 10
4.5164307349
 20
4.6008552004
 30
0.0
 10
4.5174651551
 20
4.6008823788
 30
0.0
 10
4.5183493162
 20
4.6009123655
 30
0.0
 10
4.5190750987
 20
4.6009450441
 30
0.0
 10
4.519577819
 20
4.600975674
 30
0.0
 10
4.51989625
 20
4.6010027257
 30
0.0
 10
4.5200714099
 20
4.6010214643
 30
0.0
 10
4.5202031636
 20
4.6010404634
 30
0.0
 10
4.5202763237
 20
4.6010553217
 30
0.0
 10
4.5203049935
 20
4.6010642251
 30
0.0
  0
SPLINE
  5
3D0
100
AcDbEntity
  8
ALL_ASSEMBLY_MEMBERS
100
AcDbSpline
 62
7
  6
CONTINUOUS
 70
0
 71
3
 72
12
 73
8
 74
0
 42
0.0000001
 43
0.0000001
 44
0.0000000001
 40
0.0
 40
0.0
 40
0.0
 40
0.0
 40
0.2499758128
 40
0.3749643207
 40
0.4999567135
 40
0.749960642
 40
1.0
 40
1.0
 40
1.0
 40
1.0
 10
4.5203249703
 20
4.6053077756
 30
0.0
 10
4.5204344803
 20
4.6485226271
 30
0.0
 10
4.5206197155
 20
4.7133449531
 30
0.0
 10
4.5208422407
 20
4.7997755281
 30
0.0
 10
4.521030536
 20
4.8862110456
 30
0.0
 10
4.521184482
 20
4.994265058
 30
0.0
 10
4.5211844992
 20
5.0807109287
 30
0.0
 10
4.52114702
 20
5.1239368882
 30
0.0
  0
SPLINE
  5
3D1
100
AcDbEntity
  8
ALL_ASSEMBLY_MEMBERS
100
AcDbSpline
 62
7
  6
CONTINUOUS
 70
0
 71
3
 72
21
 73
17
 74
0
 42
0.0000001
 43
0.0000001
 44
0.0000000001
 40
0.0
 40
0.0
 40
0.0
 40
0.0
 40
0.1851116561
 40
0.3644622768
 40
0.5308487969
 40
0.6786645963
 40
0.7440156901
 40
0.8029460897
 40
0.8549799251
 40
0.8996521109
 40
0.9365639426
 40
0.9655387288
 40
0.9770383573
 40
0.9865632029
 40
0.9941695596
 40
1.0
 40
1.0
 40
1.0
 40
1.0
 10
4.5003757155
 20
4.6038192285
 30
0.0
 10
4.5016157421
 20
4.603815859
 30
0.0
 10
4.5040572931
 20
4.6038282891
 30
0.0
 10
4.5076127621
 20
4.6039017724
 30
0.0
 10
4.5109167134
 20
4.6040290866
 30
0.0
 10
4.5134551013
 20
4.6041798009
 30
0.0
 10
4.5152718827
 20
4.604327822
 30
0.0
 10
4.5164473403
 20
4.6044439782
 30
0.0
 10
4.5174825246
 20
4.6045686483
 30
0.0
 10
4.5183680611
 20
4.6047004238
 30
0.0
 10
4.5190958317
 20
4.6048385496
 30
0.0
 10
4.5195994642
 20
4.6049642411
 30
0.0
 10
4.5199169862
 20
4.6050713545
 30
0.0
 10
4.5200940161
 20
4.605145971
 30
0.0
 10
4.5202286968
 20
4.6052207283
 30
0.0
 10
4.5202994899
 20
4.6052781748
 30
0.0
 10
4.5203249703
 20
4.6053077756
 30
0.0
  0
SPLINE
  5
3D2
100
AcDbEntity
  8
ALL_ASSEMBLY_MEMBERS
100
AcDbSpline
 62
7
  6
CONTINUOUS
 70
0
 71
3
 72
11
 73
7
 74
0
 42
0.0000001
 43
0.0000001
 44
0.0000000001
 40
0.0
 40
0.0
 40
0.0
 40
0.0
 40
0.2499999895
 40
0.4999999922
 40
0.7499999941
 40
1.0
 40
1.0
 40
1.0
 40
1.0
 10
4.5003757155
 20
4.6038192285
 30
0.0
 10
4.50049392
 20
4.6470390497
 30
0.0
 10
4.5007637276
 20
4.7334785971
 30
0.0
 10
4.5011236987
 20
4.8631380613
 30
0.0
 10
4.5013342749
 20
4.9927978878
 30
0.0
 10
4.5013310493
 20
5.0792379144
 30
0.0
 10
4.5012886635
 20
5.1224578792
 30
0.0
  0
SPLINE
  5
3D3
100
AcDbEntity
  8
ALL_ASSEMBLY_MEMBERS
100
AcDbSpline
 62
7
  6
CONTINUOUS
 70
0
 71
3
 72
21
 73
17
 74
0
 42
0.0000001
 43
0.0000001
 44
0.0000000001
 40
0.0
 40
0.0
 40
0.0
 40
0.0
 40
0.1802186399
 40
0.2686582023
 40
0.3548596716
 40
0.5178335359
 40
0.5933137627
 40
0.6639778847
 40
0.7886656056
 40
0.8879390353
 40
0.9269917622
 40
0.9585379653
 40
0.9715061338
 40
0.9826551453
 40
0.9920850158
 40
1.0
 40
1.0
 40
1.0
 40
1.0
 10
4.5012943837
 20
5.1224578792
 30
0.0
 10
4.5024944823
 20
5.1224778864
 30
0.0
 10
4.5042837747
 20
5.1224872386
 30
0.0
 10
4.5066470082
 20
5.1225166297
 30
0.0
 10
4.5088948167
 20
5.1225770803
 30
0.0
 10
4.5110548711
 20
5.122677317
 30
0.0
 10
4.5131103877
 20
5.1227927606
 30
0.0
 10
4.5149104569
 20
5.1229076613
 30
0.0
 10
4.5168665474
 20
5.1230693628
 30
0.0
 10
4.5186037071
 20
5.1233012252
 30
0.0
 10
4.5197191522
 20
5.1234898035
 30
0.0
 10
4.5202660149
 20
5.1235950372
 30
0.0
 10
4.5206249467
 20
5.1236884037
 30
0.0
 10
4.5208371856
 20
5.1237591123
 30
0.0
 10
4.5210104477
 20
5.1238374725
 30
0.0
 10
4.5211074301
 20
5.1239020693
 30
0.0
 10
4.5211470108
 20
5.1239368854
 30
0.0
  0
SPLINE
  5
3D4
100
AcDbEntity
  8
ALL_ASSEMBLY_MEMBERS
100
AcDbSpline
 62
7
  6
CONTINUOUS
 70
0
 71
3
 72
16
 73
12
 74
0
 42
0.0000001
 43
0.0000001
 44
0.0000000001
 40
0.0
 40
0.0
 40
0.0
 40
0.0
 40
0.1055582771
 40
0.2146537256
 40
0.327620107
 40
0.445213842
 40
0.5687484442
 40
0.7003287258
 40
0.7700971518
 40
0.8431234148
 40
1.0
 40
1.0
 40
1.0
 40
1.0
 10
4.339554223
 20
4.5585572518
 30
0.0
 10
4.3403078538
 20
4.5599860756
 30
0.0
 10
4.3418171476
 20
4.5629039279
 30
0.0
 10
4.3440412971
 20
4.5673976095
 30
0.0
 10
4.346244946
 20
4.5721058113
 30
0.0
 10
4.3483961538
 20
4.5770805702
 30
0.0
 10
4.3504396593
 20
4.5824078574
 30
0.0
 10
4.3519356064
 20
4.5871546171
 30
0.0
 10
4.3529207193
 20
4.5912389065
 30
0.0
 10
4.353731376
 20
4.5957525186
 30
0.0
 10
4.3539542333
 20
4.5992942195
 30
0.0
 10
4.3538176895
 20
4.6016910683
 30
0.0
  0
SPLINE
  5
3D5
100
AcDbEntity
  8
ALL_ASSEMBLY_MEMBERS
100
AcDbSpline
 62
7
  6
CONTINUOUS
 70
0
 71
3
 72
17
 73
13
 74
0
 42
0.0000001
 43
0.0000001
 44
0.0000000001
 40
0.0
 40
0.0
 40
0.0
 40
0.0
 40
0.1136969819
 40
0.2309000389
 40
0.3513315182
 40
0.474880189
 40
0.6015959997
 40
0.7315811107
 40
0.797858134
 40
0.8648465545
 40
0.9323362138
 40
1.0
 40
1.0
 40
1.0
 40
1.0
 10
4.3395537915
 20
4.5585573214
 30
0.0
 10
4.341482211
 20
4.5595920411
 30
0.0
 10
4.3453304481
 20
4.5618228791
 30
0.0
 10
4.3509488997
 20
4.5655958027
 30
0.0
 10
4.3564227032
 20
4.5698938477
 30
0.0
 10
4.3616341044
 20
4.5747843963
 30
0.0
 10
4.3664062968
 20
4.5803558031
 30
0.0
 10
4.3697624249
 20
4.5856269616
 30
0.0
 10
4.371852396
 20
4.5902522122
 30
0.0
 10
4.3730407755
 20
4.5939394983
 30
0.0
 10
4.3737419591
 20
4.5977789203
 30
0.0
 10
4.3738207538
 20
4.6003923514
 30
0.0
 10
4.3737517915
 20
4.6016929413
 30
0.0
  0
SPLINE
  5
3D6
100
AcDbEntity
  8
ALL_ASSEMBLY_MEMBERS
100
AcDbSpline
 62
7
  6
CONTINUOUS
 70
0
 71
3
 72
22
 73
18
 74
0
 42
0.0000001
 43
0.0000001
 44
0.0000000001
 40
0.0
 40
0.0
 40
0.0
 40
0.0
 40
0.0047751395
 40
0.0116242795
 40
0.0205793826
 40
0.0316381652
 40
0.0600018766
 40
0.0965516486
 40
0.1410448884
 40
0.1930428649
 40
0.2520551539
 40
0.3175886576
 40
0.3891215999
 40
0.4660223305
 40
0.633288179
 40
0.8137074323
 40
1.0
 40
1.0
 40
1.0
 40
1.0
 10
4.3538176948
 20
4.6016910672
 30
0.0
 10
4.3538458157
 20
4.6016762915
 30
0.0
 10
4.3539195108
 20
4.601650998
 30
0.0
 10
4.3540527803
 20
4.6016199903
 30
0.0
 10
4.3542291782
 20
4.6015904318
 30
0.0
 10
4.3545484305
 20
4.6015496886
 30
0.0
 10
4.355052229
 20
4.6015070047
 30
0.0
 10
4.355778936
 20
4.6014663044
 30
0.0
 10
4.356663468
 20
4.6014344394
 30
0.0
 10
4.3576977116
 20
4.6014114397
 30
0.0
 10
4.3588721011
 20
4.6013977084
 30
0.0
 10
4.3601765125
 20
4.6013934382
 30
0.0
 10
4.3615999213
 20
4.6013988031
 30
0.0
 10
4.3637000106
 20
4.6014192676
 30
0.0
 10
4.3665241567
 20
4.6014693667
 30
0.0
 10
4.3700752191
 20
4.6015631403
 30
0.0
 10
4.372513373
 20
4.6016460935
 30
0.0
 10
4.3737517915
 20
4.6016929415
 30
0.0
  0
SPLINE
  5
3D7
100
AcDbEntity
  8
ALL_ASSEMBLY_MEMBERS
100
AcDbSpline
 62
7
  6
CONTINUOUS
 70
0
 71
3
 72
11
 73
7
 74
0
 42
0.0000001
 43
0.0000001
 44
0.0000000001
 40
0.0
 40
0.0
 40
0.0
 40
0.0
 40
0.2500000544
 40
0.5000001056
 40
0.7500000952
 40
1.0
 40
1.0
 40
1.0
 40
1.0
 10
4.3736434222
 20
4.6038192285
 30
0.0
 10
4.3721349193
 20
4.6470377246
 30
0.0
 10
4.3690842191
 20
4.7334735343
 30
0.0
 10
4.3645520952
 20
4.8631287906
 30
0.0
 10
4.3601686154
 20
4.9927891624
 30
0.0
 10
4.3573892783
 20
5.0792341414
 30
0.0
 10
4.3560401154
 20
5.1224578792
 30
0.0
  0
SPLINE
  5
3D8
100
AcDbEntity
  8
ALL_ASSEMBLY_MEMBERS
100
AcDbSpline
 62
7
  6
CONTINUOUS
 70
0
 71
3
 72
21
 73
17
 74
0
 42
0.0000001
 43
0.0000001
 44
0.0000000001
 40
0.0
 40
0.0
 40
0.0
 40
0.0
 40
0.0058297488
 40
0.0134334983
 40
0.0229539491
 40
0.0344475542
 40
0.0634059916
 40
0.100296638
 40
0.1449439644
 40
0.1969510781
 40
0.2558548618
 40
0.3211814032
 40
0.4689626957
 40
0.6353499874
 40
0.8147562972
 40
1.0
 40
1.0
 40
1.0
 40
1.0
 10
4.3537098823
 20
4.604666708
 30
0.0
 10
4.3537362172
 20
4.6046380117
 30
0.0
 10
4.3538085839
 20
4.6045829974
 30
0.0
 10
4.3539451598
 20
4.6045127609
 30
0.0
 10
4.354123914
 20
4.6044440219
 30
0.0
 10
4.3544436611
 20
4.6043473763
 30
0.0
 10
4.3549494134
 20
4.6042381561
 30
0.0
 10
4.3556788673
 20
4.6041237012
 30
0.0
 10
4.3565653174
 20
4.6040206131
 30
0.0
 10
4.3576006794
 20
4.6039293842
 30
0.0
 10
4.3587756014
 20
4.6038511164
 30
0.0
 10
4.3605907816
 20
4.603761543
 30
0.0
 10
4.3631255526
 20
4.6036922986
 30
0.0
 10
4.3664232527
 20
4.6036707795
 30
0.0
 10
4.3699710703
 20
4.6037109101
 30
0.0
 10
4.3724065445
 20
4.6037763513
 30
0.0
 10
4.3736434222
 20
4.6038192286
 30
0.0
  0
SPLINE
  5
3D9
100
AcDbEntity
  8
ALL_ASSEMBLY_MEMBERS
100
AcDbSpline
 62
7
  6
CONTINUOUS
 70
0
 71
3
 72
12
 73
8
 74
0
 42
0.0000001
 43
0.0000001
 44
0.0000000001
 40
0.0
 40
0.0
 40
0.0
 40
0.0
 40
0.2499760573
 40
0.3749646416
 40
0.4999570696
 40
0.7499609253
 40
1.0
 40
1.0
 40
1.0
 40
1.0
 10
4.3537098823
 20
4.604666708
 30
0.0
 10
4.3522101756
 20
4.6478805041
 30
0.0
 10
4.3499394491
 20
4.7127005576
 30
0.0
 10
4.3469358947
 20
4.7991288649
 30
0.0
 10
4.3439661938
 20
4.885563154
 30
0.0
 10
4.3403346805
 20
4.9936181702
 30
0.0
 10
4.337551868
 20
5.0800687684
 30
0.0
 10
4.3361976733
 20
5.123298275
 30
0.0
  0
SPLINE
  5
3DA
100
AcDbEntity
  8
ALL_ASSEMBLY_MEMBERS
100
AcDbSpline
 62
7
  6
CONTINUOUS
 70
0
 71
3
 72
21
 73
17
 74
0
 42
0.0000001
 43
0.0000001
 44
0.0000000001
 40
0.0
 40
0.0
 40
0.0
 40
0.0
 40
0.0079267428
 40
0.0173599674
 40
0.028507584
 40
0.0414715838
 40
0.0730049589
 40
0.1120420347
 40
0.2112754554
 40
0.3359131343
 40
0.4065550957
 40
0.4820190347
 40
0.6449872864
 40
0.7312026211
 40
0.8196698559
 40
1.0
 40
1.0
 40
1.0
 40
1.0
 10
4.336197684
 20
5.1232982724
 30
0.0
 10
4.3362382499
 20
5.1232647079
 30
0.0
 10
4.3363369976
 20
5.1232032214
 30
0.0
 10
4.3365122805
 20
5.1231305577
 30
0.0
 10
4.3367261105
 20
5.1230669258
 30
0.0
 10
4.3370868108
 20
5.1229855605
 30
0.0
 10
4.3376351266
 20
5.1228984839
 30
0.0
 10
4.3387525716
 20
5.122746087
 30
0.0
 10
4.3404908325
 20
5.1225697382
 30
0.0
 10
4.342445159
 20
5.1224716016
 30
0.0
 10
4.3442425905
 20
5.1224151109
 30
0.0
 10
4.3462949619
 20
5.1223659788
 30
0.0
 10
4.3484512707
 20
5.1223345769
 30
0.0
 10
4.3506940921
 20
5.1223450155
 30
0.0
 10
4.3530517845
 20
5.1223898294
 30
0.0
 10
4.354836588
 20
5.1224377678
 30
0.0
 10
4.3560342161
 20
5.1224578792
 30
0.0
  0
LINE
  5
3DB
100
AcDbEntity
  8
ALL_ASSEMBLY_MEMBERS
100
AcDbLine
 62
7
  6
CONTINUOUS
 10
4.535414467
 20
4.410489465
 11
4.5229241409
 21
4.3990405535
  0
LINE
  5
3DC
100
AcDbEntity
  8
ALL_ASSEMBLY_MEMBERS
100
AcDbLine
 62
7
  6
CONTINUOUS
 10
4.5354163718
 20
4.4104911773
 11
4.5300235226
 21
4.3934702184
  0
SPLINE
  5
3DD
100
AcDbEntity
  8
ALL_ASSEMBLY_MEMBERS
100
AcDbSpline
 62
7
  6
CONTINUOUS
 70
0
 71
3
 72
18
 73
14
 74
0
 42
0.0000001
 43
0.0000001
 44
0.0000000001
 40
0.0
 40
0.0
 40
0.0
 40
0.0
 40
0.1242788004
 40
0.1867901092
 40
0.2492431064
 40
0.3738891666
 40
0.4987325026
 40
0.5613134768
 40
0.6239127239
 40
0.6865435024
 40
0.7492405191
 40
0.8747413136
 40
1.0
 40
1.0
 40
1.0
 40
1.0
 10
4.3560342161
 20
5.1441187888
 30
0.0
 10
4.3547051288
 20
5.1441187888
 30
0.0
 10
4.352700349
 20
5.1439117097
 30
0.0
 10
4.3501161839
 20
5.1432453655
 30
0.0
 10
4.3476088084
 20
5.142317047
 30
0.0
 10
4.3446708392
 20
5.1406859784
 30
0.0
 10
4.3421211975
 20
5.1384953079
 30
0.0
 10
4.3403732933
 20
5.1364669721
 30
0.0
 10
4.3392197121
 20
5.1348184125
 30
0.0
 10
4.338238059
 20
5.133060733
 30
0.0
 10
4.3371679974
 20
5.1305967485
 30
0.0
 10
4.3363010324
 20
5.1273348209
 30
0.0
 10
4.3361384213
 20
5.1246365274
 30
0.0
 10
4.336197684
 20
5.1232982724
 30
0.0
  0
SPLINE
  5
3DE
100
AcDbEntity
  8
ALL_ASSEMBLY_MEMBERS
100
AcDbSpline
 62
7
  6
CONTINUOUS
 70
0
 71
3
 72
18
 73
14
 74
0
 42
0.0000001
 43
0.0000001
 44
0.0000000001
 40
0.0
 40
0.0
 40
0.0
 40
0.0
 40
0.1206044546
 40
0.1774212789
 40
0.2326134267
 40
0.2868687275
 40
0.3409323316
 40
0.3955854889
 40
0.4516062503
 40
0.5700319048
 40
0.7000452778
 40
0.8433712884
 40
1.0
 40
1.0
 40
1.0
 40
1.0
 10
4.5920916805
 20
4.2514805733
 30
0.0
 10
4.5914420528
 20
4.252028517
 30
0.0
 10
4.5905498663
 20
4.2529207998
 30
0.0
 10
4.5896061588
 20
4.2542650901
 30
0.0
 10
4.589056825
 20
4.2553037635
 30
0.0
 10
4.5886558593
 20
4.2563876223
 30
0.0
 10
4.5884063192
 20
4.2575122381
 30
0.0
 10
4.5883110419
 20
4.2586728091
 30
0.0
 10
4.5883948523
 20
4.260289229
 30
0.0
 10
4.5889127915
 20
4.2623925071
 30
0.0
 10
4.5901116318
 20
4.2648956085
 30
0.0
 10
4.5918576365
 20
4.2673849356
 30
0.0
 10
4.5932918752
 20
4.2689454085
 30
0.0
 10
4.5940808296
 20
4.2697172395
 30
0.0
  0
LINE
  5
3DF
100
AcDbEntity
  8
ALL_ASSEMBLY_MEMBERS
100
AcDbLine
 62
7
  6
CONTINUOUS
 10
4.5940808296
 20
4.2697172395
 11
4.5961675876
 21
4.2715912428
  0
SPLINE
  5
3E0
100
AcDbEntity
  8
ALL_ASSEMBLY_MEMBERS
100
AcDbSpline
 62
7
  6
CONTINUOUS
 70
0
 71
3
 72
15
 73
11
 74
0
 42
0.0000001
 43
0.0000001
 44
0.0000000001
 40
0.0
 40
0.0
 40
0.0
 40
0.0
 40
0.0414430635
 40
0.1545441062
 40
0.3155765629
 40
0.4999965755
 40
0.6844174857
 40
0.8454505293
 40
0.9585535984
 40
1.0
 40
1.0
 40
1.0
 40
1.0
 10
5.1848361801
 20
4.8791187888
 30
0.0
 10
5.1824372213
 20
4.8787521191
 30
0.0
 10
5.1734831553
 20
4.8774372385
 30
0.0
 10
5.155141116
 20
4.8751583507
 30
0.0
 10
5.128369741
 20
4.8729403157
 30
0.0
 10
5.0973367294
 20
4.8720381433
 30
0.0
 10
5.0663036813
 20
4.8729402496
 30
0.0
 10
5.0395320972
 20
4.8751582543
 30
0.0
 10
5.0211897094
 20
4.8774371658
 30
0.0
 10
5.0122353321
 20
4.8787520893
 30
0.0
 10
5.0098361801
 20
4.8791187888
 30
0.0
  0
ELLIPSE
  5
3E1
100
AcDbEntity
  8
ALL_ASSEMBLY_MEMBERS
100
AcDbEllipse
 62
7
  6
CONTINUOUS
 10
5.4880694557
 20
4.3941187888
 30
0.0
 11
-0.0
 21
0.48475
 31
0.0
 40
0.2210555332
 41
6.3004893413
 42
6.3175170955
  0
ELLIPSE
  5
3E2
100
AcDbEntity
  8
ALL_ASSEMBLY_MEMBERS
100
AcDbEllipse
 62
7
  6
CONTINUOUS
 10
5.4928902448
 20
4.3941187888
 30
0.0
 11
0.0
 21
0.48475
 31
0.0
 40
0.7957997678
 41
6.2863035852
 42
6.3004893413
  0
ELLIPSE
  5
3E3
100
AcDbEntity
  8
ALL_ASSEMBLY_MEMBERS
100
AcDbEllipse
 62
7
  6
CONTINUOUS
 10
5.5616206989
 20
4.3941187888
 30
0.0
 11
0.0
 21
0.48475
 31
0.0
 40
0.7957996981
 41
-0.0173040341
 42
-0.0031182781
  0
ELLIPSE
  5
3E4
100
AcDbEntity
  8
ALL_ASSEMBLY_MEMBERS
100
AcDbEllipse
 62
7
  6
CONTINUOUS
 10
5.5664414876
 20
4.3941187888
 30
0.0
 11
0.0
 21
0.48475
 31
0.0
 40
0.2210555139
 41
-0.0343317884
 42
-0.0173040341
  0
ELLIPSE
  5
3E5
100
AcDbEntity
  8
ALL_ASSEMBLY_MEMBERS
100
AcDbEllipse
 62
7
  6
CONTINUOUS
 10
5.6458241833
 20
4.3941187888
 30
0.0
 11
3.2147129739
 21
-0.0
 31
0.0
 40
0.1507910672
 41
1.6102429677
 42
1.6130823074
  0
ELLIPSE
  5
3E6
100
AcDbEntity
  8
ALL_ASSEMBLY_MEMBERS
100
AcDbEllipse
 62
7
  6
CONTINUOUS
 10
5.5914649809
 20
4.3941187888
 30
0.0
 11
1.9288162072
 21
-0.0
 31
0.0
 40
0.2513199538
 41
1.6130823074
 42
1.6159220045
  0
ELLIPSE
  5
3E7
100
AcDbEntity
  8
ALL_ASSEMBLY_MEMBERS
100
AcDbEllipse
 62
7
  6
CONTINUOUS
 10
5.5624619566
 20
4.3941187888
 30
0.0
 11
1.2858813755
 21
0.0
 31
0.0
 40
0.3769787861
 41
1.6159220045
 42
1.621602498
  0
ELLIPSE
  5
3E8
100
AcDbEntity
  8
ALL_ASSEMBLY_MEMBERS
100
AcDbEllipse
 62
7
  6
CONTINUOUS
 10
5.52981062
 20
4.3941187888
 30
0.0
 11
0.6429400371
 21
-0.0
 31
0.0
 40
0.7539583352
 41
1.621602498
 42
1.6301263818
  0
ELLIPSE
  5
3E9
100
AcDbEntity
  8
ALL_ASSEMBLY_MEMBERS
100
AcDbEllipse
 62
7
  6
CONTINUOUS
 10
5.5145612849
 20
4.3941187888
 30
0.0
 11
0.0
 21
0.48475
 31
0.0
 40
0.7957993124
 41
0.059330055
 42
0.0735464445
  0
ELLIPSE
  5
3EA
100
AcDbEntity
  8
ALL_ASSEMBLY_MEMBERS
100
AcDbEllipse
 62
7
  6
CONTINUOUS
 10
5.4940891947
 20
4.3941187888
 30
0.0
 11
-0.0
 21
0.48475
 31
0.0
 40
0.2210555332
 41
0.0735464445
 42
0.0906260353
  0
ELLIPSE
  5
3EB
100
AcDbEntity
  8
ALL_ASSEMBLY_MEMBERS
100
AcDbEllipse
 62
7
  6
CONTINUOUS
 10
5.5604217491
 20
4.3941187888
 30
0.0
 11
0.0
 21
0.48475
 31
0.0
 40
0.2210555139
 41
-0.0906260353
 42
-0.0735464445
  0
ELLIPSE
  5
3EC
100
AcDbEntity
  8
ALL_ASSEMBLY_MEMBERS
100
AcDbEllipse
 62
7
  6
CONTINUOUS
 10
5.5399496607
 20
4.3941187888
 30
0.0
 11
-0.0
 21
0.48475
 31
0.0
 40
0.7957992427
 41
-0.0735464445
 42
-0.059330055
  0
ELLIPSE
  5
3ED
100
AcDbEntity
  8
ALL_ASSEMBLY_MEMBERS
100
AcDbEllipse
 62
7
  6
CONTINUOUS
 10
5.524700328
 20
4.3941187888
 30
0.0
 11
0.642939962
 21
-0.0
 31
0.0
 40
0.7539584232
 41
7.794651579
 42
7.8031754627
  0
ELLIPSE
  5
3EE
100
AcDbEntity
  8
ALL_ASSEMBLY_MEMBERS
100
AcDbEllipse
 62
7
  6
CONTINUOUS
 10
5.4920489991
 20
4.3941187888
 30
0.0
 11
1.2858811504
 21
0.0
 31
0.0
 40
0.3769788521
 41
1.5199901556
 42
1.5256706491
  0
ELLIPSE
  5
3EF
100
AcDbEntity
  8
ALL_ASSEMBLY_MEMBERS
100
AcDbEllipse
 62
7
  6
CONTINUOUS
 10
5.4630458833
 20
4.3941187888
 30
0.0
 11
1.9288180083
 21
0.0
 31
0.0
 40
0.2513197191
 41
1.5256706491
 42
1.5285103462
  0
ELLIPSE
  5
3F0
100
AcDbEntity
  8
ALL_ASSEMBLY_MEMBERS
100
AcDbEllipse
 62
7
  6
CONTINUOUS
 10
5.4086867952
 20
4.3941187888
 30
0.0
 11
3.2147120734
 21
0.0
 31
0.0
 40
0.1507911094
 41
1.5285103462
 42
1.5313496859
  0
ELLIPSE
  5
3F1
100
AcDbEntity
  8
ALL_ASSEMBLY_MEMBERS
100
AcDbEllipse
 62
7
  6
CONTINUOUS
 10
5.5726370881
 20
4.3941187888
 30
0.0
 11
0.0
 21
0.48475
 31
0.0
 40
0.2652667178
 41
0.0906260353
 42
0.1048790886
  0
ELLIPSE
  5
3F2
100
AcDbEntity
  8
ALL_ASSEMBLY_MEMBERS
100
AcDbEllipse
 62
7
  6
CONTINUOUS
 10
5.6040472058
 20
4.3941187888
 30
0.0
 11
-0.0
 21
0.48475
 31
0.0
 40
0.8842220554
 41
0.1048790886
 42
0.1134410125
  0
ELLIPSE
  5
3F3
100
AcDbEntity
  8
ALL_ASSEMBLY_MEMBERS
100
AcDbEllipse
 62
7
  6
CONTINUOUS
 10
5.6646967276
 20
4.3941187888
 30
0.0
 11
0.9644099335
 21
0.0
 31
0.0
 40
0.5026389538
 41
1.6842373393
 42
1.6956663613
  0
ELLIPSE
  5
3F4
100
AcDbEntity
  8
ALL_ASSEMBLY_MEMBERS
100
AcDbEllipse
 62
7
  6
CONTINUOUS
 10
6.0250381298
 20
4.3941187888
 30
0.0
 11
3.857654488
 21
-0.0
 31
0.0
 40
0.1256592578
 41
1.6956663613
 42
1.6985261089
  0
ELLIPSE
  5
3F5
100
AcDbEntity
  8
ALL_ASSEMBLY_MEMBERS
100
AcDbEllipse
 62
7
  6
CONTINUOUS
 10
5.0294726984
 20
4.3941187888
 30
0.0
 11
3.8576553886
 21
0.0
 31
0.0
 40
0.1256592285
 41
1.4430665446
 42
1.4459262923
  0
ELLIPSE
  5
3F6
100
AcDbEntity
  8
ALL_ASSEMBLY_MEMBERS
100
AcDbEllipse
 62
7
  6
CONTINUOUS
 10
5.3898142548
 20
4.3941187888
 30
0.0
 11
0.9644095958
 21
0.0
 31
0.0
 40
0.5026391298
 41
1.4459262923
 42
1.4573553143
  0
ELLIPSE
  5
3F7
100
AcDbEntity
  8
ALL_ASSEMBLY_MEMBERS
100
AcDbEllipse
 62
7
  6
CONTINUOUS
 10
5.4504637384
 20
4.3941187888
 30
0.0
 11
0.0
 21
0.48475
 31
0.0
 40
0.8842220554
 41
-0.1134410125
 42
-0.1048790886
  0
ELLIPSE
  5
3F8
100
AcDbEntity
  8
ALL_ASSEMBLY_MEMBERS
100
AcDbEllipse
 62
7
  6
CONTINUOUS
 10
5.4818738561
 20
4.3941187888
 30
0.0
 11
-0.0
 21
0.48475
 31
0.0
 40
0.2652667178
 41
-0.1048790886
 42
-0.0906260353
  0
ELLIPSE
  5
3F9
100
AcDbEntity
  8
ALL_ASSEMBLY_MEMBERS
100
AcDbEllipse
 62
7
  6
CONTINUOUS
 10
5.6394423873
 20
4.3941187888
 30
0.0
 11
0.5716780154
 21
-0.4744956074
 31
0.0
 40
0.1734875795
 41
1.8341228243
 42
1.8564220296
  0
ELLIPSE
  5
3FA
100
AcDbEntity
  8
ALL_ASSEMBLY_MEMBERS
100
AcDbEllipse
 62
7
  6
CONTINUOUS
 10
5.596882212
 20
4.3941187888
 30
0.0
 11
0.5716778757
 21
-0.4744956116
 31
0.0
 40
0.1734875871
 41
1.7601616376
 42
1.7823049235
  0
ELLIPSE
  5
3FB
100
AcDbEntity
  8
ALL_ASSEMBLY_MEMBERS
100
AcDbEllipse
 62
7
  6
CONTINUOUS
 10
5.5402167178
 20
4.3941187888
 30
0.0
 11
0.117123106
 21
0.4846535957
 31
0.0
 40
0.0825387411
 41
1.3243861563
 42
1.3391838673
  0
ELLIPSE
  5
3FC
100
AcDbEntity
  8
ALL_ASSEMBLY_MEMBERS
100
AcDbEllipse
 62
7
  6
CONTINUOUS
 10
5.5602987583
 20
4.3941187888
 30
0.0
 11
0.3205164298
 21
0.4819141273
 31
0.0
 40
0.1633544133
 41
1.4274608739
 42
1.438573063
  0
ELLIPSE
  5
3FD
100
AcDbEntity
  8
ALL_ASSEMBLY_MEMBERS
100
AcDbEllipse
 62
7
  6
CONTINUOUS
 10
5.6050227268
 20
4.3941187888
 30
0.0
 11
0.7387483593
 21
0.4700085841
 31
0.0
 40
0.1605905019
 41
1.5775999118
 42
1.5850154544
  0
ELLIPSE
  5
3FE
100
AcDbEntity
  8
ALL_ASSEMBLY_MEMBERS
100
AcDbEllipse
 62
7
  6
CONTINUOUS
 10
5.6909990785
 20
4.3941187888
 30
0.0
 11
1.4844556253
 21
0.4605286781
 31
0.0
 40
0.1019322549
 41
1.6552211679
 42
1.6589312972
  0
ELLIPSE
  5
3FF
100
AcDbEntity
  8
ALL_ASSEMBLY_MEMBERS
100
AcDbEllipse
 62
7
  6
CONTINUOUS
 10
5.3325038206
 20
4.3941187888
 30
0.0
 11
1.4844549309
 21
-0.4605286823
 31
0.0
 40
0.1019322941
 41
1.4826613836
 42
1.4863715129
  0
ELLIPSE
  5
400
100
AcDbEntity
  8
ALL_ASSEMBLY_MEMBERS
100
AcDbEllipse
 62
7
  6
CONTINUOUS
 10
5.4184800719
 20
4.3941187888
 30
0.0
 11
0.7387485344
 21
-0.47000858
 31
0.0
 40
0.1605904861
 41
1.5565771643
 42
1.5639927069
  0
ELLIPSE
  5
401
100
AcDbEntity
  8
ALL_ASSEMBLY_MEMBERS
100
AcDbEllipse
 62
7
  6
CONTINUOUS
 10
5.4632040591
 20
4.3941187888
 30
0.0
 11
-0.3205164298
 21
0.4819141273
 31
0.0
 40
0.1633544133
 41
-1.438573063
 42
-1.4274608739
  0
ELLIPSE
  5
402
100
AcDbEntity
  8
ALL_ASSEMBLY_MEMBERS
100
AcDbEllipse
 62
7
  6
CONTINUOUS
 10
5.7277227638
 20
4.3941187888
 30
0.0
 11
3.8575848219
 21
0.456341581
 31
0.0
 40
0.0423861521
 41
-1.6322987713
 42
-1.629457479
  0
ELLIPSE
  5
403
100
AcDbEntity
  8
ALL_ASSEMBLY_MEMBERS
100
AcDbEllipse
 62
7
  6
CONTINUOUS
 10
5.4832860997
 20
4.3941187888
 30
0.0
 11
-0.117123106
 21
0.4846535957
 31
0.0
 40
0.0825387411
 41
-1.3391838673
 42
-1.3243861563
  0
ELLIPSE
  5
404
100
AcDbEntity
  8
ALL_ASSEMBLY_MEMBERS
100
AcDbEllipse
 62
7
  6
CONTINUOUS
 10
5.5643763911
 20
4.3941187888
 30
0.0
 11
0.9622071635
 21
0.4656770005
 31
0.0
 40
0.1399266045
 41
-1.7062712763
 42
-1.6949013418
  0
ELLIPSE
  5
405
100
AcDbEntity
  8
ALL_ASSEMBLY_MEMBERS
100
AcDbEllipse
 62
7
  6
CONTINUOUS
 10
5.5280468964
 20
4.3941187888
 30
0.0
 11
0.4203531079
 21
0.479141308
 31
0.0
 40
0.1749164141
 41
-1.8439863269
 42
-1.8354531791
  0
ELLIPSE
  5
406
100
AcDbEntity
  8
ALL_ASSEMBLY_MEMBERS
100
AcDbEllipse
 62
7
  6
CONTINUOUS
 10
5.5051488012
 20
4.3941187888
 30
0.0
 11
0.1217484006
 21
0.4846385345
 31
0.0
 40
0.0853799597
 41
-1.9890427863
 42
-1.9748081556
  0
ELLIPSE
  5
407
100
AcDbEntity
  8
ALL_ASSEMBLY_MEMBERS
100
AcDbEllipse
 62
7
  6
CONTINUOUS
 10
5.5114728807
 20
4.3941187888
 30
0.0
 11
0.9880542361
 21
0.465285186
 31
0.0
 40
0.1376303424
 41
1.5113205669
 42
1.5186896574
  0
ELLIPSE
  5
408
100
AcDbEntity
  8
ALL_ASSEMBLY_MEMBERS
100
AcDbEllipse
 62
7
  6
CONTINUOUS
 10
5.5073097093
 20
4.3941187888
 30
0.0
 11
0.6553159276
 21
0.4721187462
 31
0.0
 40
0.1677639688
 41
1.4631295299
 42
1.4741845703
  0
ELLIPSE
  5
409
100
AcDbEntity
  8
ALL_ASSEMBLY_MEMBERS
100
AcDbEllipse
 62
7
  6
CONTINUOUS
 10
5.498717402
 20
4.3941187888
 30
0.0
 11
0.2873264341
 21
0.4826711449
 31
0.0
 40
0.1560789432
 41
1.3380452399
 42
1.356477401
  0
ELLIPSE
  5
40A
100
AcDbEntity
  8
ALL_ASSEMBLY_MEMBERS
100
AcDbEllipse
 62
7
  6
CONTINUOUS
 10
5.4903826663
 20
4.3941187888
 30
0.0
 11
0.0934735408
 21
0.4847090996
 31
0.0
 40
0.0673658948
 41
1.2768224913
 42
1.2952689988
  0
ELLIPSE
  5
40B
100
AcDbEntity
  8
ALL_ASSEMBLY_MEMBERS
100
AcDbEllipse
 62
7
  6
CONTINUOUS
 10
5.5331201505
 20
4.3941187888
 30
0.0
 11
-0.0934735326
 21
0.4847090996
 31
0.0
 40
0.0673658893
 41
-1.2952689966
 42
-1.2768224891
  0
ELLIPSE
  5
40C
100
AcDbEntity
  8
ALL_ASSEMBLY_MEMBERS
100
AcDbEllipse
 62
7
  6
CONTINUOUS
 10
5.5247854155
 20
4.3941187888
 30
0.0
 11
-0.287326408
 21
0.4826711454
 31
0.0
 40
0.1560789367
 41
-1.3564773887
 42
-1.3380452276
  0
ELLIPSE
  5
40D
100
AcDbEntity
  8
ALL_ASSEMBLY_MEMBERS
100
AcDbEllipse
 62
7
  6
CONTINUOUS
 10
5.5493621431
 20
4.3941187888
 30
0.0
 11
-0.1217484006
 21
0.4846385345
 31
0.0
 40
0.0853799597
 41
-4.3083771516
 42
-4.2941425209
  0
ELLIPSE
  5
40E
100
AcDbEntity
  8
ALL_ASSEMBLY_MEMBERS
100
AcDbEllipse
 62
7
  6
CONTINUOUS
 10
5.5264640478
 20
4.3941187888
 30
0.0
 11
-0.4203531079
 21
0.479141308
 31
0.0
 40
0.1749164141
 41
-4.4477321281
 42
-4.4391989803
  0
ELLIPSE
  5
40F
100
AcDbEntity
  8
ALL_ASSEMBLY_MEMBERS
100
AcDbEllipse
 62
7
  6
CONTINUOUS
 10
5.4901345302
 20
4.3941187888
 30
0.0
 11
0.962207503
 21
-0.4656769952
 31
0.0
 40
0.1399265741
 41
-1.4466913509
 42
-1.4353214165
  0
ELLIPSE
  5
410
100
AcDbEntity
  8
ALL_ASSEMBLY_MEMBERS
100
AcDbEllipse
 62
7
  6
CONTINUOUS
 10
5.3267882274
 20
4.3941187888
 30
0.0
 11
3.8575839213
 21
-0.4563415814
 31
0.0
 40
0.0423861617
 41
-1.5121351722
 42
-1.5092938799
  0
ELLIPSE
  5
411
100
AcDbEntity
  8
ALL_ASSEMBLY_MEMBERS
100
AcDbEllipse
 62
7
  6
CONTINUOUS
 10
5.649370994
 20
4.3941187888
 30
0.0
 11
0.7463252756
 21
-0.4698307894
 31
0.0
 40
0.1599009769
 41
-1.6130857077
 42
-1.5959095904
  0
ELLIPSE
  5
412
100
AcDbEntity
  8
ALL_ASSEMBLY_MEMBERS
100
AcDbEllipse
 62
7
  6
CONTINUOUS
 10
5.5289832757
 20
4.3941187888
 30
0.0
 11
0.5597140252
 21
-0.4748533936
 31
0.0
 40
0.1741096516
 41
-1.4868806225
 42
-1.4159149133
  0
ELLIPSE
  5
413
100
AcDbEntity
  8
ALL_ASSEMBLY_MEMBERS
100
AcDbEllipse
 62
7
  6
CONTINUOUS
 10
5.5257027727
 20
4.3941187888
 30
0.0
 11
0.9622042765
 21
-0.4656770454
 31
0.0
 40
0.139926863
 41
-1.4949495759
 42
-1.489275252
  0
ELLIPSE
  5
414
100
AcDbEntity
  8
ALL_ASSEMBLY_MEMBERS
100
AcDbEllipse
 62
7
  6
CONTINUOUS
 10
5.5033546592
 20
4.3941187888
 30
0.0
 11
2.5716108227
 21
-0.4573304865
 31
0.0
 40
0.0624983615
 41
-1.5457781432
 42
-1.5429408411
  0
ELLIPSE
  5
415
100
AcDbEntity
  8
ALL_ASSEMBLY_MEMBERS
100
AcDbEllipse
 62
7
  6
CONTINUOUS
 10
5.5931084534
 20
4.3941187888
 30
0.0
 11
2.5716108227
 21
0.4573304865
 31
0.0
 40
0.0624983615
 41
-1.5986518125
 42
-1.5958145104
  0
ELLIPSE
  5
416
100
AcDbEntity
  8
ALL_ASSEMBLY_MEMBERS
100
AcDbEllipse
 62
7
  6
CONTINUOUS
 10
5.5662907709
 20
4.3941187888
 30
0.0
 11
0.6379530235
 21
0.4725921354
 31
0.0
 40
0.1691116546
 41
-1.7093280947
 42
-1.6979797282
  0
ELLIPSE
  5
417
100
AcDbEntity
  8
ALL_ASSEMBLY_MEMBERS
100
AcDbEllipse
 62
7
  6
CONTINUOUS
 10
5.5798175403
 20
4.3941187888
 30
0.0
 11
0.10123742
 21
0.4846944896
 31
0.0
 40
0.0724615456
 41
-2.012460577
 42
-1.9953544323
  0
ELLIPSE
  5
418
100
AcDbEntity
  8
ALL_ASSEMBLY_MEMBERS
100
AcDbEllipse
 62
7
  6
CONTINUOUS
 10
5.6097745034
 20
4.3941187888
 30
0.0
 11
0.3768576551
 21
0.4804196369
 31
0.0
 40
0.1715483869
 41
-1.9081086021
 42
-1.8938294856
  0
ELLIPSE
  5
419
100
AcDbEntity
  8
ALL_ASSEMBLY_MEMBERS
100
AcDbEllipse
 62
7
  6
CONTINUOUS
 10
5.5654691977
 20
4.3941187888
 30
0.0
 11
0.3118799231
 21
0.4821211713
 31
0.0
 40
0.1616508637
 41
-1.8182260229
 42
-1.8068779936
  0
ELLIPSE
  5
41A
100
AcDbEntity
  8
ALL_ASSEMBLY_MEMBERS
100
AcDbEllipse
 62
7
  6
CONTINUOUS
 10
5.641075065
 20
4.3941187888
 30
0.0
 11
0.6379533341
 21
0.4725921268
 31
0.0
 40
0.1691116311
 41
-1.8260145634
 42
-1.8174352631
  0
ELLIPSE
  5
41B
100
AcDbEntity
  8
ALL_ASSEMBLY_MEMBERS
100
AcDbEllipse
 62
7
  6
CONTINUOUS
 10
5.7247982161
 20
4.3941187888
 30
0.0
 11
1.2847916974
 21
0.4619431809
 31
0.0
 40
0.1143679302
 41
-1.7482093125
 42
-1.7424844324
  0
ELLIPSE
  5
41C
100
AcDbEntity
  8
ALL_ASSEMBLY_MEMBERS
100
AcDbEllipse
 62
7
  6
CONTINUOUS
 10
5.5673534911
 20
4.3941187888
 30
0.0
 11
0.10123742
 21
0.4846944896
 31
0.0
 40
0.0724615456
 41
-1.89593605
 42
-1.8789114217
  0
ELLIPSE
  5
41D
100
AcDbEntity
  8
ALL_ASSEMBLY_MEMBERS
100
AcDbEllipse
 62
7
  6
CONTINUOUS
 10
5.8121712857
 20
4.3941187888
 30
0.0
 11
1.9284678459
 21
0.4586391126
 31
0.0
 40
0.0813849018
 41
-1.7293289027
 42
-1.7264648042
  0
ELLIPSE
  5
41E
100
AcDbEntity
  8
ALL_ASSEMBLY_MEMBERS
100
AcDbEllipse
 62
7
  6
CONTINUOUS
 10
5.9905627001
 20
4.3941187888
 30
0.0
 11
3.2146291591
 21
0.4566950122
 31
0.0
 40
0.0505558762
 41
-1.7200233845
 42
-1.7171581365
  0
ELLIPSE
  5
41F
100
AcDbEntity
  8
ALL_ASSEMBLY_MEMBERS
100
AcDbEllipse
 62
7
  6
CONTINUOUS
 10
5.0639481153
 20
4.3941187888
 30
0.0
 11
3.2146300597
 21
-0.4566950116
 31
0.0
 40
0.0505558626
 41
-1.4244345211
 42
-1.421569273
  0
ELLIPSE
  5
420
100
AcDbEntity
  8
ALL_ASSEMBLY_MEMBERS
100
AcDbEllipse
 62
7
  6
CONTINUOUS
 10
5.2423399045
 20
4.3941187888
 30
0.0
 11
1.9284660439
 21
-0.458639118
 31
0.0
 40
0.0813849697
 41
-1.4151278149
 42
-1.4122637165
  0
ELLIPSE
  5
421
100
AcDbEntity
  8
ALL_ASSEMBLY_MEMBERS
100
AcDbEllipse
 62
7
  6
CONTINUOUS
 10
5.6159911718
 20
4.3941187888
 30
0.0
 11
0.9622070503
 21
-0.4656770023
 31
0.0
 40
0.1399266146
 41
-1.5716017881
 42
-1.5659156053
  0
ELLIPSE
  5
422
100
AcDbEntity
  8
ALL_ASSEMBLY_MEMBERS
100
AcDbEllipse
 62
7
  6
CONTINUOUS
 10
5.3297126988
 20
4.3941187888
 30
0.0
 11
1.2847919231
 21
-0.461943179
 31
0.0
 40
0.1143679148
 41
-1.3991082341
 42
-1.393383354
  0
ELLIPSE
  5
423
100
AcDbEntity
  8
ALL_ASSEMBLY_MEMBERS
100
AcDbEllipse
 62
7
  6
CONTINUOUS
 10
5.4134358694
 20
4.3941187888
 30
0.0
 11
0.6379534101
 21
-0.4725921247
 31
0.0
 40
0.1691116253
 41
-1.3241574099
 42
-1.3155781096
  0
ELLIPSE
  5
424
100
AcDbEntity
  8
ALL_ASSEMBLY_MEMBERS
100
AcDbEllipse
 62
7
  6
CONTINUOUS
 10
5.582400266
 20
4.3941187888
 30
0.0
 11
-0.4203531079
 21
0.479141308
 31
0.0
 40
0.1749164141
 41
-4.5783263692
 42
-4.5698008357
  0
ELLIPSE
  5
425
100
AcDbEntity
  8
ALL_ASSEMBLY_MEMBERS
100
AcDbEllipse
 62
7
  6
CONTINUOUS
 10
5.4447364361
 20
4.3941187888
 30
0.0
 11
-0.3768576893
 21
0.480419636
 31
0.0
 40
0.1715483905
 41
-4.3893558366
 42
-4.3750767201
  0
ELLIPSE
  5
426
100
AcDbEntity
  8
ALL_ASSEMBLY_MEMBERS
100
AcDbEllipse
 62
7
  6
CONTINUOUS
 10
5.5661429997
 20
4.3941187888
 30
0.0
 11
-0.1217484712
 21
0.4846385342
 31
0.0
 40
0.0853800028
 41
-4.4389790303
 42
-4.4247782581
  0
ELLIPSE
  5
427
100
AcDbEntity
  8
ALL_ASSEMBLY_MEMBERS
100
AcDbEllipse
 62
7
  6
CONTINUOUS
 10
5.4746934018
 20
4.3941187888
 30
0.0
 11
-0.101237429
 21
0.4846944896
 31
0.0
 40
0.0724615514
 41
-4.2878308774
 42
-4.2707247327
  0
ELLIPSE
  5
428
100
AcDbEntity
  8
ALL_ASSEMBLY_MEMBERS
100
AcDbEllipse
 62
7
  6
CONTINUOUS
 10
5.4831099103
 20
4.3941187888
 30
0.0
 11
1.9288162072
 21
0.0
 31
0.0
 40
0.2513199538
 41
7.8400775852
 42
7.8429147916
  0
ELLIPSE
  5
429
100
AcDbEntity
  8
ALL_ASSEMBLY_MEMBERS
100
AcDbEllipse
 62
7
  6
CONTINUOUS
 10
5.465231315
 20
4.3941187888
 30
0.0
 11
3.2147129739
 21
-0.0
 31
0.0
 40
0.1507910672
 41
7.837240283
 42
7.8400775852
  0
ELLIPSE
  5
42A
100
AcDbEntity
  8
ALL_ASSEMBLY_MEMBERS
100
AcDbEllipse
 62
7
  6
CONTINUOUS
 10
5.5892796129
 20
4.3941187888
 30
0.0
 11
3.2147120734
 21
0.0
 31
0.0
 40
0.1507911094
 41
1.5847003756
 42
1.5875376778
  0
ELLIPSE
  5
42B
100
AcDbEntity
  8
ALL_ASSEMBLY_MEMBERS
100
AcDbEllipse
 62
7
  6
CONTINUOUS
 10
5.5051488012
 20
4.3941187888
 30
0.0
 11
-0.0
 21
0.48475
 31
0.0
 40
0.2652664142
 41
0.0763914046
 42
0.0906260353
  0
ELLIPSE
  5
42C
100
AcDbEntity
  8
ALL_ASSEMBLY_MEMBERS
100
AcDbEllipse
 62
7
  6
CONTINUOUS
 10
5.5280468964
 20
4.3941187888
 30
0.0
 11
0.0
 21
0.48475
 31
0.0
 40
0.8842220554
 41
0.0678582568
 42
0.0763914046
  0
ELLIPSE
  5
42D
100
AcDbEntity
  8
ALL_ASSEMBLY_MEMBERS
100
AcDbEllipse
 62
7
  6
CONTINUOUS
 10
5.5643763911
 20
4.3941187888
 30
0.0
 11
0.9644109754
 21
-0.0
 31
0.0
 40
0.5026384108
 41
1.6272846492
 42
1.6386545836
  0
ELLIPSE
  5
42E
100
AcDbEntity
  8
ALL_ASSEMBLY_MEMBERS
100
AcDbEllipse
 62
7
  6
CONTINUOUS
 10
5.5643763911
 20
4.3941187888
 30
0.0
 11
0.9595037988
 21
-0.0
 31
0.0
 40
0.5026384108
 41
1.6275738566
 42
1.6336193552
  0
ELLIPSE
  5
42F
100
AcDbEntity
  8
ALL_ASSEMBLY_MEMBERS
100
AcDbEllipse
 62
7
  6
CONTINUOUS
 10
5.7277227638
 20
4.3941187888
 30
0.0
 11
3.857633315
 21
-0.0
 31
0.0
 40
0.1256599475
 41
1.6244433569
 42
1.6272846492
  0
ELLIPSE
  5
430
100
AcDbEntity
  8
ALL_ASSEMBLY_MEMBERS
100
AcDbEllipse
 62
7
  6
CONTINUOUS
 10
5.7277227638
 20
4.3941187888
 30
0.0
 11
3.8380046625
 21
-0.0
 31
0.0
 40
0.1256599475
 41
1.6247179887
 42
1.6275738566
  0
ELLIPSE
  5
431
100
AcDbEntity
  8
ALL_ASSEMBLY_MEMBERS
100
AcDbEllipse
 62
7
  6
CONTINUOUS
 10
5.5714010551
 20
4.3941187888
 30
0.0
 11
1.9288180083
 21
-0.0
 31
0.0
 40
0.2513197191
 41
1.5818631691
 42
1.5847003756
  0
ELLIPSE
  5
432
100
AcDbEntity
  8
ALL_ASSEMBLY_MEMBERS
100
AcDbEllipse
 62
7
  6
CONTINUOUS
 10
5.5642859195
 20
4.3941187888
 30
0.0
 11
1.2858811504
 21
0.0
 31
0.0
 40
0.3769788521
 41
1.5761890168
 42
1.5818631691
  0
ELLIPSE
  5
433
100
AcDbEntity
  8
ALL_ASSEMBLY_MEMBERS
100
AcDbEllipse
 62
7
  6
CONTINUOUS
 10
5.6248503578
 20
4.3941187888
 30
0.0
 11
0.57167825
 21
-0.4744956005
 31
0.0
 40
0.1734875667
 41
1.8341227539
 42
1.8564219592
  0
ELLIPSE
  5
434
100
AcDbEntity
  8
ALL_ASSEMBLY_MEMBERS
100
AcDbEllipse
 62
7
  6
CONTINUOUS
 10
5.6248503578
 20
4.3941187888
 30
0.0
 11
0.5687694008
 21
-0.4720812421
 31
0.0
 40
0.1734875667
 41
8.1199044316
 42
8.140341655
  0
ELLIPSE
  5
435
100
AcDbEntity
  8
ALL_ASSEMBLY_MEMBERS
100
AcDbEllipse
 62
7
  6
CONTINUOUS
 10
5.5608187537
 20
4.3941187888
 30
0.0
 11
0.642939962
 21
0.0
 31
0.0
 40
0.7539584232
 41
7.8508633559
 42
7.859374324
  0
ELLIPSE
  5
436
100
AcDbEntity
  8
ALL_ASSEMBLY_MEMBERS
100
AcDbEllipse
 62
7
  6
CONTINUOUS
 10
5.5822901654
 20
4.3941187888
 30
0.0
 11
0.5716781103
 21
-0.4744956046
 31
0.0
 40
0.1734875743
 41
1.7601615672
 42
1.7823048532
  0
ELLIPSE
  5
437
100
AcDbEntity
  8
ALL_ASSEMBLY_MEMBERS
100
AcDbEllipse
 62
7
  6
CONTINUOUS
 10
5.5822901654
 20
4.3941187888
 30
0.0
 11
0.5687692618
 21
-0.4720812463
 31
0.0
 40
0.1734875743
 41
8.0454832217
 42
8.0658410218
  0
ELLIPSE
  5
438
100
AcDbEntity
  8
ALL_ASSEMBLY_MEMBERS
100
AcDbEllipse
 62
7
  6
CONTINUOUS
 10
5.5111718498
 20
4.3941187888
 30
0.0
 11
-0.3622025764
 21
0.4808294012
 31
0.0
 40
0.1698707729
 41
-1.3947898515
 42
-1.3800412872
  0
ELLIPSE
  5
439
100
AcDbEntity
  8
ALL_ASSEMBLY_MEMBERS
100
AcDbEllipse
 62
7
  6
CONTINUOUS
 10
5.5111718498
 20
4.3941187888
 30
0.0
 11
-0.3603595945
 21
0.4783828148
 31
0.0
 40
0.1698707729
 41
-1.3950241974
 42
-1.3802000911
  0
ELLIPSE
  5
43A
100
AcDbEntity
  8
ALL_ASSEMBLY_MEMBERS
100
AcDbEllipse
 62
7
  6
CONTINUOUS
 10
5.5225022707
 20
4.3941187888
 30
0.0
 11
-0.1171229363
 21
0.4846535963
 31
0.0
 40
0.082538636
 41
-1.3022224851
 42
-1.2874639355
  0
ELLIPSE
  5
43B
100
AcDbEntity
  8
ALL_ASSEMBLY_MEMBERS
100
AcDbEllipse
 62
7
  6
CONTINUOUS
 10
5.5225022707
 20
4.3941187888
 30
0.0
 11
-0.116526984
 21
0.4821875514
 31
0.0
 40
0.082538636
 41
4.9806527798
 42
4.9954870257
  0
ELLIPSE
  5
43C
100
AcDbEntity
  8
ALL_ASSEMBLY_MEMBERS
100
AcDbEllipse
 62
7
  6
CONTINUOUS
 10
5.4746934018
 20
4.3941187888
 30
0.0
 11
0.0
 21
0.48475
 31
0.0
 40
0.2210555332
 41
-0.10773218
 42
-0.0906260353
  0
ELLIPSE
  5
43D
100
AcDbEntity
  8
ALL_ASSEMBLY_MEMBERS
100
AcDbEllipse
 62
7
  6
CONTINUOUS
 10
5.4746934018
 20
4.3941187888
 30
0.0
 11
0.0
 21
0.4822834646
 31
0.0
 40
0.2210555332
 41
-0.1082853113
 42
-0.0910908057
  0
ELLIPSE
  5
43E
100
AcDbEntity
  8
ALL_ASSEMBLY_MEMBERS
100
AcDbEllipse
 62
7
  6
CONTINUOUS
 10
5.4447364361
 20
4.3941187888
 30
0.0
 11
0.0
 21
0.48475
 31
0.0
 40
0.7958002231
 41
-0.1220112966
 42
-0.10773218
  0
ELLIPSE
  5
43F
100
AcDbEntity
  8
ALL_ASSEMBLY_MEMBERS
100
AcDbEllipse
 62
7
  6
CONTINUOUS
 10
5.4447364361
 20
4.3941187888
 30
0.0
 11
-0.0
 21
0.4822834646
 31
0.0
 40
0.7958002231
 41
-0.1226384364
 42
-0.1082853113
  0
ELLIPSE
  5
440
100
AcDbEntity
  8
ALL_ASSEMBLY_MEMBERS
100
AcDbEllipse
 62
7
  6
CONTINUOUS
 10
5.4134358694
 20
4.3941187888
 30
0.0
 11
0.6429400371
 21
-0.0
 31
0.0
 40
0.7539583352
 41
1.4402057299
 42
1.4487850302
  0
ELLIPSE
  5
441
100
AcDbEntity
  8
ALL_ASSEMBLY_MEMBERS
100
AcDbEllipse
 62
7
  6
CONTINUOUS
 10
5.4134358694
 20
4.3941187888
 30
0.0
 11
0.6396685892
 21
0.0
 31
0.0
 40
0.7539583352
 41
1.4395339999
 42
1.4481578904
  0
ELLIPSE
  5
442
100
AcDbEntity
  8
ALL_ASSEMBLY_MEMBERS
100
AcDbEllipse
 62
7
  6
CONTINUOUS
 10
5.5010005468
 20
4.3941187888
 30
0.0
 11
0.1171229363
 21
0.4846535963
 31
0.0
 40
0.082538636
 41
1.2874639355
 42
1.3022224851
  0
ELLIPSE
  5
443
100
AcDbEntity
  8
ALL_ASSEMBLY_MEMBERS
100
AcDbEllipse
 62
7
  6
CONTINUOUS
 10
5.5010005468
 20
4.3941187888
 30
0.0
 11
0.116526984
 21
0.4821875514
 31
0.0
 40
0.082538636
 41
1.2876982814
 42
1.3025325273
  0
ELLIPSE
  5
444
100
AcDbEntity
  8
ALL_ASSEMBLY_MEMBERS
100
AcDbEllipse
 62
7
  6
CONTINUOUS
 10
5.4818738561
 20
4.3941187888
 30
0.0
 11
-0.1211290532
 21
0.4821725657
 31
0.0
 40
0.0853800458
 41
-4.2918879649
 42
-4.2793511418
  0
ELLIPSE
  5
445
100
AcDbEntity
  8
ALL_ASSEMBLY_MEMBERS
100
AcDbEllipse
 62
7
  6
CONTINUOUS
 10
5.5104425613
 20
4.3941187888
 30
0.0
 11
0.3205164298
 21
0.4819141273
 31
0.0
 40
0.1633544133
 41
1.364678812
 42
1.3757409965
  0
ELLIPSE
  5
446
100
AcDbEntity
  8
ALL_ASSEMBLY_MEMBERS
100
AcDbEllipse
 62
7
  6
CONTINUOUS
 10
5.5104425613
 20
4.3941187888
 30
0.0
 11
0.318885558
 21
0.4794620215
 31
0.0
 40
0.1633544133
 41
1.3648564897
 42
1.3759753424
  0
ELLIPSE
  5
447
100
AcDbEntity
  8
ALL_ASSEMBLY_MEMBERS
100
AcDbEllipse
 62
7
  6
CONTINUOUS
 10
5.53336096
 20
4.3941187888
 30
0.0
 11
0.9880542361
 21
0.465285186
 31
0.0
 40
0.1376303424
 41
1.533430284
 42
1.5408026323
  0
ELLIPSE
  5
448
100
AcDbEntity
  8
ALL_ASSEMBLY_MEMBERS
100
AcDbEllipse
 62
7
  6
CONTINUOUS
 10
5.53336096
 20
4.3941187888
 30
0.0
 11
0.9830267564
 21
0.4629176926
 31
0.0
 40
0.1376303424
 41
1.5335702205
 42
1.5409803099
  0
ELLIPSE
  5
449
100
AcDbEntity
  8
ALL_ASSEMBLY_MEMBERS
100
AcDbEllipse
 62
7
  6
CONTINUOUS
 10
5.4818738561
 20
4.3941187888
 30
0.0
 11
-0.1217485418
 21
0.484638534
 31
0.0
 40
0.0853800458
 41
-4.2941425674
 42
-4.2798895141
  0
ELLIPSE
  5
44A
100
AcDbEntity
  8
ALL_ASSEMBLY_MEMBERS
100
AcDbEllipse
 62
7
  6
CONTINUOUS
 10
5.3297126988
 20
4.3941187888
 30
0.0
 11
1.2858776966
 21
0.0
 31
0.0
 40
0.3769798646
 41
7.7176661569
 42
7.7233910371
  0
ELLIPSE
  5
44B
100
AcDbEntity
  8
ALL_ASSEMBLY_MEMBERS
100
AcDbEllipse
 62
7
  6
CONTINUOUS
 10
5.3297126988
 20
4.3941187888
 30
0.0
 11
1.2793348128
 21
0.0
 31
0.0
 40
0.3769798646
 41
1.4337793091
 42
1.4395339999
  0
ELLIPSE
  5
44C
100
AcDbEntity
  8
ALL_ASSEMBLY_MEMBERS
100
AcDbEllipse
 62
7
  6
CONTINUOUS
 10
5.4504637384
 20
4.3941187888
 30
0.0
 11
-0.4182142408
 21
0.4767033111
 31
0.0
 40
0.1749164141
 41
-4.4101729241
 42
-4.4015666817
  0
ELLIPSE
  5
44D
100
AcDbEntity
  8
ALL_ASSEMBLY_MEMBERS
100
AcDbEllipse
 62
7
  6
CONTINUOUS
 10
5.4504637384
 20
4.3941187888
 30
0.0
 11
-0.4203531079
 21
0.479141308
 31
0.0
 40
0.1749164141
 41
-4.4107112963
 42
-4.4021493725
  0
ELLIPSE
  5
44E
100
AcDbEntity
  8
ALL_ASSEMBLY_MEMBERS
100
AcDbEllipse
 62
7
  6
CONTINUOUS
 10
5.2423399045
 20
4.3941187888
 30
0.0
 11
1.928827244
 21
0.0
 31
0.0
 40
0.2513185157
 41
1.4316167513
 42
1.4344808497
  0
ELLIPSE
  5
44F
100
AcDbEntity
  8
ALL_ASSEMBLY_MEMBERS
100
AcDbEllipse
 62
7
  6
CONTINUOUS
 10
5.3898142548
 20
4.3941187888
 30
0.0
 11
0.9573098206
 21
-0.463307535
 31
0.0
 40
0.1399267287
 41
-1.3891557708
 42
-1.3776674525
  0
ELLIPSE
  5
450
100
AcDbEntity
  8
ALL_ASSEMBLY_MEMBERS
100
AcDbEllipse
 62
7
  6
CONTINUOUS
 10
5.3898142548
 20
4.3941187888
 30
0.0
 11
0.9622057766
 21
-0.4656770221
 31
0.0
 40
0.1399267287
 41
-1.3897384615
 42
-1.3783094395
  0
ELLIPSE
  5
451
100
AcDbEntity
  8
ALL_ASSEMBLY_MEMBERS
100
AcDbEllipse
 62
7
  6
CONTINUOUS
 10
5.2423399045
 20
4.3941187888
 30
0.0
 11
1.9190128639
 21
0.0
 31
0.0
 40
0.2513185157
 41
1.4309002792
 42
1.4337793091
  0
ELLIPSE
  5
452
100
AcDbEntity
  8
ALL_ASSEMBLY_MEMBERS
100
AcDbEllipse
 62
7
  6
CONTINUOUS
 10
5.0294726984
 20
4.3941187888
 30
0.0
 11
3.8379783783
 21
-0.4540195858
 31
0.0
 40
0.0423859163
 41
-1.4402702398
 42
-1.4373956289
  0
ELLIPSE
  5
453
100
AcDbEntity
  8
ALL_ASSEMBLY_MEMBERS
100
AcDbEllipse
 62
7
  6
CONTINUOUS
 10
5.0294726984
 20
4.3941187888
 30
0.0
 11
3.8576068963
 21
-0.4563415717
 31
0.0
 40
0.0423859163
 41
-1.4409122269
 42
-1.4380524792
  0
ELLIPSE
  5
454
100
AcDbEntity
  8
ALL_ASSEMBLY_MEMBERS
100
AcDbEllipse
 62
7
  6
CONTINUOUS
 10
5.4762111137
 20
4.3941187888
 30
0.0
 11
-0.0934736487
 21
0.4847090994
 31
0.0
 40
0.0673659664
 41
-1.3359330152
 42
-1.3174326445
  0
ELLIPSE
  5
455
100
AcDbEntity
  8
ALL_ASSEMBLY_MEMBERS
100
AcDbEllipse
 62
7
  6
CONTINUOUS
 10
5.4762111137
 20
4.3941187888
 30
0.0
 11
-0.0929980302
 21
0.4822427721
 31
0.0
 40
0.0673659664
 41
-1.3364524313
 42
-1.3178566306
  0
ELLIPSE
  5
456
100
AcDbEntity
  8
ALL_ASSEMBLY_MEMBERS
100
AcDbEllipse
 62
7
  6
CONTINUOUS
 10
5.0639481153
 20
4.3941187888
 30
0.0
 11
3.2147129739
 21
-0.0
 31
0.0
 40
0.1507910672
 41
1.4287515033
 42
1.4316167513
  0
ELLIPSE
  5
457
100
AcDbEntity
  8
ALL_ASSEMBLY_MEMBERS
100
AcDbEllipse
 62
7
  6
CONTINUOUS
 10
5.4562027301
 20
4.3941187888
 30
0.0
 11
-0.2873264341
 21
0.4826711449
 31
0.0
 40
0.1560789432
 41
-1.4341230973
 42
-1.4155878961
  0
ELLIPSE
  5
458
100
AcDbEntity
  8
ALL_ASSEMBLY_MEMBERS
100
AcDbEllipse
 62
7
  6
CONTINUOUS
 10
5.4562027301
 20
4.3941187888
 30
0.0
 11
-0.2858644416
 21
0.4802151872
 31
0.0
 40
0.1560789432
 41
-1.4347384861
 42
-1.4161073122
  0
ELLIPSE
  5
459
100
AcDbEntity
  8
ALL_ASSEMBLY_MEMBERS
100
AcDbEllipse
 62
7
  6
CONTINUOUS
 10
5.4128326968
 20
4.3941187888
 30
0.0
 11
0.6553159276
 21
-0.4721187462
 31
0.0
 40
0.1677639688
 41
1.5601896397
 42
1.5713302259
  0
ELLIPSE
  5
45A
100
AcDbEntity
  8
ALL_ASSEMBLY_MEMBERS
100
AcDbEllipse
 62
7
  6
CONTINUOUS
 10
5.4128326968
 20
4.3941187888
 30
0.0
 11
0.6519815079
 21
-0.4697164819
 31
0.0
 40
0.1677639688
 41
1.5595163628
 42
1.5707148371
  0
ELLIPSE
  5
45B
100
AcDbEntity
  8
ALL_ASSEMBLY_MEMBERS
100
AcDbEllipse
 62
7
  6
CONTINUOUS
 10
5.3374511689
 20
4.3941187888
 30
0.0
 11
1.2364591409
 21
-0.462368365
 31
0.0
 40
0.1177519922
 41
1.4764767822
 42
1.4839128544
  0
ELLIPSE
  5
45C
100
AcDbEntity
  8
ALL_ASSEMBLY_MEMBERS
100
AcDbEllipse
 62
7
  6
CONTINUOUS
 10
5.3374511689
 20
4.3941187888
 30
0.0
 11
1.2301677117
 21
-0.4600157132
 31
0.0
 40
0.1177519922
 41
1.475764772
 42
1.4832395775
  0
ELLIPSE
  5
45D
100
AcDbEntity
  8
ALL_ASSEMBLY_MEMBERS
100
AcDbEllipse
 62
7
  6
CONTINUOUS
 10
5.6860516712
 20
4.3941187888
 30
0.0
 11
1.2364593147
 21
0.4623683634
 31
0.0
 40
0.1177519797
 41
1.6576798102
 42
1.6651158823
  0
ELLIPSE
  5
45E
100
AcDbEntity
  8
ALL_ASSEMBLY_MEMBERS
100
AcDbEllipse
 62
7
  6
CONTINUOUS
 10
5.6860516712
 20
4.3941187888
 30
0.0
 11
1.2301678846
 21
0.4600157117
 31
0.0
 40
0.1177519797
 41
1.6583530871
 42
1.6658278925
  0
ELLIPSE
  5
45F
100
AcDbEntity
  8
ALL_ASSEMBLY_MEMBERS
100
AcDbEllipse
 62
7
  6
CONTINUOUS
 10
5.6106701132
 20
4.3941187888
 30
0.0
 11
0.6553158691
 21
0.4721187478
 31
0.0
 40
0.1677639734
 41
1.5702624133
 42
1.5814029995
  0
ELLIPSE
  5
460
100
AcDbEntity
  8
ALL_ASSEMBLY_MEMBERS
100
AcDbEllipse
 62
7
  6
CONTINUOUS
 10
5.6106701132
 20
4.3941187888
 30
0.0
 11
0.6519814497
 21
0.4697164835
 31
0.0
 40
0.1677639734
 41
1.5708778021
 42
1.5820762764
  0
ELLIPSE
  5
461
100
AcDbEntity
  8
ALL_ASSEMBLY_MEMBERS
100
AcDbEllipse
 62
7
  6
CONTINUOUS
 10
5.5673000836
 20
4.3941187888
 30
0.0
 11
0.287326408
 21
0.4826711454
 31
0.0
 40
0.1560789367
 41
1.4155878838
 42
1.434123085
  0
ELLIPSE
  5
462
100
AcDbEntity
  8
ALL_ASSEMBLY_MEMBERS
100
AcDbEllipse
 62
7
  6
CONTINUOUS
 10
5.5673000836
 20
4.3941187888
 30
0.0
 11
0.2858644157
 21
0.4802151878
 31
0.0
 40
0.1560789367
 41
1.4161072999
 42
1.4347384738
  0
ELLIPSE
  5
463
100
AcDbEntity
  8
ALL_ASSEMBLY_MEMBERS
100
AcDbEllipse
 62
7
  6
CONTINUOUS
 10
5.5472917017
 20
4.3941187888
 30
0.0
 11
0.0934736405
 21
0.4847090994
 31
0.0
 40
0.0673659609
 41
1.3174326423
 42
1.335933013
  0
ELLIPSE
  5
464
100
AcDbEntity
  8
ALL_ASSEMBLY_MEMBERS
100
AcDbEllipse
 62
7
  6
CONTINUOUS
 10
5.5472917017
 20
4.3941187888
 30
0.0
 11
0.092998022
 21
0.4822427721
 31
0.0
 40
0.0673659609
 41
1.3178566284
 42
1.3364524291
  0
ELLIPSE
  5
465
100
AcDbEntity
  8
ALL_ASSEMBLY_MEMBERS
100
AcDbEllipse
 62
7
  6
CONTINUOUS
 10
5.0639481153
 20
4.3941187888
 30
0.0
 11
3.1983556692
 21
0.0
 31
0.0
 40
0.1507910672
 41
1.4280200816
 42
1.4309002792
  0
ELLIPSE
  5
466
100
AcDbEntity
  8
ALL_ASSEMBLY_MEMBERS
100
AcDbEllipse
 62
7
  6
CONTINUOUS
 10
6.0250381298
 20
4.3941187888
 30
0.0
 11
3.8379774823
 21
0.4540195862
 31
0.0
 40
0.0423859259
 41
-1.704197027
 42
-1.7013224161
  0
ELLIPSE
  5
467
100
AcDbEntity
  8
ALL_ASSEMBLY_MEMBERS
100
AcDbEllipse
 62
7
  6
CONTINUOUS
 10
6.0250381298
 20
4.3941187888
 30
0.0
 11
3.8576059957
 21
0.4563415721
 31
0.0
 40
0.0423859259
 41
-1.7035401767
 42
-1.700680429
  0
ELLIPSE
  5
468
100
AcDbEntity
  8
ALL_ASSEMBLY_MEMBERS
100
AcDbEllipse
 62
7
  6
CONTINUOUS
 10
5.6646967276
 20
4.3941187888
 30
0.0
 11
0.9573101584
 21
0.4633075297
 31
0.0
 40
0.1399266983
 41
-1.7639251619
 42
-1.7524368436
  0
ELLIPSE
  5
469
100
AcDbEntity
  8
ALL_ASSEMBLY_MEMBERS
100
AcDbEllipse
 62
7
  6
CONTINUOUS
 10
5.6646967276
 20
4.3941187888
 30
0.0
 11
0.9622061161
 21
0.4656770168
 31
0.0
 40
0.1399266983
 41
-1.7632831748
 42
-1.7518541529
  0
ELLIPSE
  5
46A
100
AcDbEntity
  8
ALL_ASSEMBLY_MEMBERS
100
AcDbEllipse
 62
7
  6
CONTINUOUS
 10
5.9905627001
 20
4.3941187888
 30
0.0
 11
3.2147120734
 21
-0.0
 31
0.0
 40
0.1507911094
 41
1.7099759023
 42
1.7128411503
  0
ELLIPSE
  5
46B
100
AcDbEntity
  8
ALL_ASSEMBLY_MEMBERS
100
AcDbEllipse
 62
7
  6
CONTINUOUS
 10
5.9905627001
 20
4.3941187888
 30
0.0
 11
3.1983547732
 21
-0.0
 31
0.0
 40
0.1507911094
 41
1.7106923744
 42
1.713572572
  0
ELLIPSE
  5
46C
100
AcDbEntity
  8
ALL_ASSEMBLY_MEMBERS
100
AcDbEllipse
 62
7
  6
CONTINUOUS
 10
5.8121712857
 20
4.3941187888
 30
0.0
 11
1.9288290452
 21
0.0
 31
0.0
 40
0.251318281
 41
1.7071118038
 42
1.7099759023
  0
ELLIPSE
  5
46D
100
AcDbEntity
  8
ALL_ASSEMBLY_MEMBERS
100
AcDbEllipse
 62
7
  6
CONTINUOUS
 10
5.6040472058
 20
4.3941187888
 30
0.0
 11
0.4182142408
 21
0.4767033111
 31
0.0
 40
0.1749164141
 41
-1.8816186254
 42
-1.8730123831
  0
ELLIPSE
  5
46E
100
AcDbEntity
  8
ALL_ASSEMBLY_MEMBERS
100
AcDbEllipse
 62
7
  6
CONTINUOUS
 10
5.6040472058
 20
4.3941187888
 30
0.0
 11
0.4203531079
 21
0.479141308
 31
0.0
 40
0.1749164141
 41
-1.8810359347
 42
-1.8724740109
  0
ELLIPSE
  5
46F
100
AcDbEntity
  8
ALL_ASSEMBLY_MEMBERS
100
AcDbEllipse
 62
7
  6
CONTINUOUS
 10
5.8121712857
 20
4.3941187888
 30
0.0
 11
1.9190146559
 21
-0.0
 31
0.0
 40
0.251318281
 41
1.7078133445
 42
1.7106923744
  0
ELLIPSE
  5
470
100
AcDbEntity
  8
ALL_ASSEMBLY_MEMBERS
100
AcDbEllipse
 62
7
  6
CONTINUOUS
 10
5.5726370881
 20
4.3941187888
 30
0.0
 11
0.1211290532
 21
0.4821725657
 31
0.0
 40
0.0853800458
 41
-2.0038341653
 42
-1.9912973423
  0
ELLIPSE
  5
471
100
AcDbEntity
  8
ALL_ASSEMBLY_MEMBERS
100
AcDbEllipse
 62
7
  6
CONTINUOUS
 10
5.5726370881
 20
4.3941187888
 30
0.0
 11
0.1217485418
 21
0.484638534
 31
0.0
 40
0.0853800458
 41
-2.0032957931
 42
-1.9890427398
  0
ELLIPSE
  5
472
100
AcDbEntity
  8
ALL_ASSEMBLY_MEMBERS
100
AcDbEllipse
 62
7
  6
CONTINUOUS
 10
5.7247982161
 20
4.3941187888
 30
0.0
 11
1.2858774715
 21
0.0
 31
0.0
 40
0.3769799306
 41
1.7013869237
 42
1.7071118038
  0
ELLIPSE
  5
473
100
AcDbEntity
  8
ALL_ASSEMBLY_MEMBERS
100
AcDbEllipse
 62
7
  6
CONTINUOUS
 10
5.7247982161
 20
4.3941187888
 30
0.0
 11
1.2793345889
 21
0.0
 31
0.0
 40
0.3769799306
 41
1.7020586537
 42
1.7078133445
  0
ELLIPSE
  5
474
100
AcDbEntity
  8
ALL_ASSEMBLY_MEMBERS
100
AcDbEllipse
 62
7
  6
CONTINUOUS
 10
5.641075065
 20
4.3941187888
 30
0.0
 11
0.642939962
 21
-0.0
 31
0.0
 40
0.7539584232
 41
1.6928076234
 42
1.7013869237
  0
ELLIPSE
  5
475
100
AcDbEntity
  8
ALL_ASSEMBLY_MEMBERS
100
AcDbEllipse
 62
7
  6
CONTINUOUS
 10
5.641075065
 20
4.3941187888
 30
0.0
 11
0.6396685145
 21
-0.0
 31
0.0
 40
0.7539584232
 41
1.6934347632
 42
1.7020586537
  0
ELLIPSE
  5
476
100
AcDbEntity
  8
ALL_ASSEMBLY_MEMBERS
100
AcDbEllipse
 62
7
  6
CONTINUOUS
 10
5.6639630137
 20
4.3941187888
 30
0.0
 11
0.7463249724
 21
-0.4698307965
 31
0.0
 40
0.1599010046
 41
-1.6130856485
 42
-1.5959095311
  0
ELLIPSE
  5
477
100
AcDbEntity
  8
ALL_ASSEMBLY_MEMBERS
100
AcDbEllipse
 62
7
  6
CONTINUOUS
 10
5.6639630137
 20
4.3941187888
 30
0.0
 11
0.7425274748
 21
-0.4674401739
 31
0.0
 40
0.1599010046
 41
-1.6138200371
 42
-1.5965544644
  0
ELLIPSE
  5
478
100
AcDbEntity
  8
ALL_ASSEMBLY_MEMBERS
100
AcDbEllipse
 62
7
  6
CONTINUOUS
 10
5.6097745034
 20
4.3941187888
 30
0.0
 11
0.0
 21
0.48475
 31
0.0
 40
0.7958001534
 41
0.10773218
 42
0.1220112966
  0
ELLIPSE
  5
479
100
AcDbEntity
  8
ALL_ASSEMBLY_MEMBERS
100
AcDbEllipse
 62
7
  6
CONTINUOUS
 10
5.6097745034
 20
4.3941187888
 30
0.0
 11
-0.0
 21
0.4822834646
 31
0.0
 40
0.7958001534
 41
0.1082853113
 42
0.1226384364
  0
ELLIPSE
  5
47A
100
AcDbEntity
  8
ALL_ASSEMBLY_MEMBERS
100
AcDbEllipse
 62
7
  6
CONTINUOUS
 10
5.4086867952
 20
4.3941187888
 30
0.0
 11
3.1982722808
 21
-0.4543712279
 31
0.0
 40
0.0505558762
 41
-1.5239656048
 42
-1.5211117194
  0
ELLIPSE
  5
47B
100
AcDbEntity
  8
ALL_ASSEMBLY_MEMBERS
100
AcDbEllipse
 62
7
  6
CONTINUOUS
 10
5.4086867952
 20
4.3941187888
 30
0.0
 11
3.2146291591
 21
-0.4566950122
 31
0.0
 40
0.0505558762
 41
-1.5241674517
 42
-1.521328112
  0
ELLIPSE
  5
47C
100
AcDbEntity
  8
ALL_ASSEMBLY_MEMBERS
100
AcDbEllipse
 62
7
  6
CONTINUOUS
 10
5.5798175403
 20
4.3941187888
 30
0.0
 11
0.0
 21
0.48475
 31
0.0
 40
0.2210555139
 41
0.0906260353
 42
0.10773218
  0
ELLIPSE
  5
47D
100
AcDbEntity
  8
ALL_ASSEMBLY_MEMBERS
100
AcDbEllipse
 62
7
  6
CONTINUOUS
 10
5.5798175403
 20
4.3941187888
 30
0.0
 11
-0.0
 21
0.4822834646
 31
0.0
 40
0.2210555139
 41
0.0910908057
 42
0.1082853113
  0
ELLIPSE
  5
47E
100
AcDbEntity
  8
ALL_ASSEMBLY_MEMBERS
100
AcDbEllipse
 62
7
  6
CONTINUOUS
 10
5.4630458833
 20
4.3941187888
 30
0.0
 11
1.9186443081
 21
-0.4563054692
 31
0.0
 40
0.0813853176
 41
-1.5089407422
 42
-1.5060864941
  0
ELLIPSE
  5
47F
100
AcDbEntity
  8
ALL_ASSEMBLY_MEMBERS
100
AcDbEllipse
 62
7
  6
CONTINUOUS
 10
5.4630458833
 20
4.3941187888
 30
0.0
 11
1.9284568033
 21
-0.4586391457
 31
0.0
 40
0.0813853176
 41
-1.5091571348
 42
-1.5063174377
  0
ELLIPSE
  5
480
100
AcDbEntity
  8
ALL_ASSEMBLY_MEMBERS
100
AcDbEllipse
 62
7
  6
CONTINUOUS
 10
5.4920489991
 20
4.3941187888
 30
0.0
 11
1.2782580077
 21
-0.4595926617
 31
0.0
 40
0.114367678
 41
-1.484342408
 42
-1.4786327952
  0
ELLIPSE
  5
481
100
AcDbEntity
  8
ALL_ASSEMBLY_MEMBERS
100
AcDbEllipse
 62
7
  6
CONTINUOUS
 10
5.4920489991
 20
4.3941187888
 30
0.0
 11
1.2847953844
 21
-0.4619431499
 31
0.0
 40
0.114367678
 41
-1.4845733516
 42
-1.478892858
  0
ELLIPSE
  5
482
100
AcDbEntity
  8
ALL_ASSEMBLY_MEMBERS
100
AcDbEllipse
 62
7
  6
CONTINUOUS
 10
5.524700328
 20
4.3941187888
 30
0.0
 11
0.6347072598
 21
-0.4701874538
 31
0.0
 40
0.1691116311
 41
-1.3951024531
 42
-1.386534842
  0
ELLIPSE
  5
483
100
AcDbEntity
  8
ALL_ASSEMBLY_MEMBERS
100
AcDbEllipse
 62
7
  6
CONTINUOUS
 10
5.524700328
 20
4.3941187888
 30
0.0
 11
0.6379533341
 21
-0.4725921268
 31
0.0
 40
0.1691116311
 41
-1.3953625159
 42
-1.3868386321
  0
ELLIPSE
  5
484
100
AcDbEntity
  8
ALL_ASSEMBLY_MEMBERS
100
AcDbEllipse
 62
7
  6
CONTINUOUS
 10
5.5399496607
 20
4.3941187888
 30
0.0
 11
-0.3749396591
 21
0.4779751482
 31
0.0
 40
0.1715483401
 41
-4.4374539601
 42
-4.4231645383
  0
ELLIPSE
  5
485
100
AcDbEntity
  8
ALL_ASSEMBLY_MEMBERS
100
AcDbEllipse
 62
7
  6
CONTINUOUS
 10
5.5399496607
 20
4.3941187888
 30
0.0
 11
-0.3768572076
 21
0.4804196496
 31
0.0
 40
0.1715483401
 41
-4.4377577502
 42
-4.4235413607
  0
ELLIPSE
  5
486
100
AcDbEntity
  8
ALL_ASSEMBLY_MEMBERS
100
AcDbEllipse
 62
7
  6
CONTINUOUS
 10
5.5604217491
 20
4.3941187888
 30
0.0
 11
-0.1007222974
 21
0.4822282366
 31
0.0
 40
0.0724615456
 41
-4.3045336433
 42
-4.2873661045
  0
ELLIPSE
  5
487
100
AcDbEntity
  8
ALL_ASSEMBLY_MEMBERS
100
AcDbEllipse
 62
7
  6
CONTINUOUS
 10
5.5604217491
 20
4.3941187888
 30
0.0
 11
-0.10123742
 21
0.4846944896
 31
0.0
 40
0.0724615456
 41
-4.3049104657
 42
-4.2878308749
  0
ELLIPSE
  5
488
100
AcDbEntity
  8
ALL_ASSEMBLY_MEMBERS
100
AcDbEllipse
 62
7
  6
CONTINUOUS
 10
5.4936921901
 20
4.3941187888
 30
0.0
 11
0.6429400371
 21
0.0
 31
0.0
 40
0.7539583352
 41
7.8485889439
 42
7.857099912
  0
ELLIPSE
  5
489
100
AcDbEntity
  8
ALL_ASSEMBLY_MEMBERS
100
AcDbEllipse
 62
7
  6
CONTINUOUS
 10
5.3267882274
 20
4.3941187888
 30
0.0
 11
3.8576324144
 21
-0.0
 31
0.0
 40
0.1256599769
 41
1.5143080044
 42
1.5171492967
  0
ELLIPSE
  5
48A
100
AcDbEntity
  8
ALL_ASSEMBLY_MEMBERS
100
AcDbEllipse
 62
7
  6
CONTINUOUS
 10
5.3267882274
 20
4.3941187888
 30
0.0
 11
3.8380037666
 21
-0.0
 31
0.0
 40
0.1256599769
 41
7.7972041041
 42
7.8000599721
  0
ELLIPSE
  5
48B
100
AcDbEntity
  8
ALL_ASSEMBLY_MEMBERS
100
AcDbEllipse
 62
7
  6
CONTINUOUS
 10
5.5735329242
 20
4.3941187888
 30
0.0
 11
-0.0866566919
 21
0.4847194462
 31
0.0
 40
0.0628055002
 41
-4.4316026612
 42
-4.4117214252
  0
ELLIPSE
  5
48C
100
AcDbEntity
  8
ALL_ASSEMBLY_MEMBERS
100
AcDbEllipse
 62
7
  6
CONTINUOUS
 10
5.5735329242
 20
4.3941187888
 30
0.0
 11
-0.0862157599
 21
0.4822530662
 31
0.0
 40
0.0628055002
 41
-4.4318947599
 42
-4.4119116145
  0
ELLIPSE
  5
48D
100
AcDbEntity
  8
ALL_ASSEMBLY_MEMBERS
100
AcDbEllipse
 62
7
  6
CONTINUOUS
 10
5.5866261428
 20
4.3941187888
 30
0.0
 11
-0.3118799231
 21
0.4821211713
 31
0.0
 40
0.1616508637
 41
-4.5359371337
 42
-4.5245667903
  0
ELLIPSE
  5
48E
100
AcDbEntity
  8
ALL_ASSEMBLY_MEMBERS
100
AcDbEllipse
 62
7
  6
CONTINUOUS
 10
5.5866261428
 20
4.3941187888
 30
0.0
 11
-0.310292996
 21
0.4796680121
 31
0.0
 40
0.1616508637
 41
-4.5362876155
 42
-4.524858889
  0
ELLIPSE
  5
48F
100
AcDbEntity
  8
ALL_ASSEMBLY_MEMBERS
100
AcDbEllipse
 62
7
  6
CONTINUOUS
 10
5.6086046466
 20
4.3941187888
 30
0.0
 11
0.6379532564
 21
-0.4725921289
 31
0.0
 40
0.169111637
 41
-1.525970049
 42
-1.5145908343
  0
ELLIPSE
  5
490
100
AcDbEntity
  8
ALL_ASSEMBLY_MEMBERS
100
AcDbEllipse
 62
7
  6
CONTINUOUS
 10
5.6086046466
 20
4.3941187888
 30
0.0
 11
0.6347071826
 21
-0.470187456
 31
0.0
 40
0.169111637
 41
-1.5263790513
 42
-1.5149413162
  0
ELLIPSE
  5
491
100
AcDbEntity
  8
ALL_ASSEMBLY_MEMBERS
100
AcDbEllipse
 62
7
  6
CONTINUOUS
 10
5.7623637293
 20
4.3941187888
 30
0.0
 11
2.5715997839
 21
-0.4573305014
 31
0.0
 40
0.0624986133
 41
-1.6423298464
 42
-1.639483481
  0
ELLIPSE
  5
492
100
AcDbEntity
  8
ALL_ASSEMBLY_MEMBERS
100
AcDbEllipse
 62
7
  6
CONTINUOUS
 10
5.7623637293
 20
4.3941187888
 30
0.0
 11
2.5585148082
 21
-0.4550034836
 31
0.0
 40
0.0624986133
 41
-1.6427535031
 42
-1.6398924833
  0
ELLIPSE
  5
493
100
AcDbEntity
  8
ALL_ASSEMBLY_MEMBERS
100
AcDbEllipse
 62
7
  6
CONTINUOUS
 10
5.4901345302
 20
4.3941187888
 30
0.0
 11
0.9644113131
 21
0.0
 31
0.0
 40
0.5026382348
 41
7.7861233771
 42
7.7974933116
  0
ELLIPSE
  5
494
100
AcDbEntity
  8
ALL_ASSEMBLY_MEMBERS
100
AcDbEllipse
 62
7
  6
CONTINUOUS
 10
5.4901345302
 20
4.3941187888
 30
0.0
 11
0.9595041348
 21
0.0
 31
0.0
 40
0.5026382348
 41
7.7911586055
 42
7.7972041041
  0
ELLIPSE
  5
495
100
AcDbEntity
  8
ALL_ASSEMBLY_MEMBERS
100
AcDbEllipse
 62
7
  6
CONTINUOUS
 10
5.5264640478
 20
4.3941187888
 30
0.0
 11
-0.0
 21
0.48475
 31
0.0
 40
0.8842220554
 41
6.2067939025
 42
6.2153270503
  0
ELLIPSE
  5
496
100
AcDbEntity
  8
ALL_ASSEMBLY_MEMBERS
100
AcDbEllipse
 62
7
  6
CONTINUOUS
 10
5.5493621431
 20
4.3941187888
 30
0.0
 11
-0.0
 21
0.48475
 31
0.0
 40
0.2652664142
 41
6.1925592719
 42
6.2067939025
  0
ELLIPSE
  5
497
100
AcDbEntity
  8
ALL_ASSEMBLY_MEMBERS
100
AcDbEllipse
 62
7
  6
CONTINUOUS
 10
5.4902250235
 20
4.3941187888
 30
0.0
 11
1.2858813755
 21
-0.0
 31
0.0
 40
0.3769787861
 41
7.8429147916
 42
7.8485889439
  0
ELLIPSE
  5
498
100
AcDbEntity
  8
ALL_ASSEMBLY_MEMBERS
100
AcDbEllipse
 62
7
  6
CONTINUOUS
 10
5.4940891947
 20
4.3941187888
 30
0.0
 11
0.1007223063
 21
0.4822282366
 31
0.0
 40
0.0724615514
 41
-1.9958192001
 42
-1.9786516613
  0
ELLIPSE
  5
499
100
AcDbEntity
  8
ALL_ASSEMBLY_MEMBERS
100
AcDbEllipse
 62
7
  6
CONTINUOUS
 10
5.4940891947
 20
4.3941187888
 30
0.0
 11
0.101237429
 21
0.4846944896
 31
0.0
 40
0.0724615514
 41
-1.9953544298
 42
-1.9782748389
  0
ELLIPSE
  5
49A
100
AcDbEntity
  8
ALL_ASSEMBLY_MEMBERS
100
AcDbEllipse
 62
7
  6
CONTINUOUS
 10
5.5573154232
 20
4.3941187888
 30
0.0
 11
0.1217484712
 21
0.4846385342
 31
0.0
 40
0.0853800028
 41
-1.8839500288
 42
-1.8697617145
  0
ELLIPSE
  5
49B
100
AcDbEntity
  8
ALL_ASSEMBLY_MEMBERS
100
AcDbEllipse
 62
7
  6
CONTINUOUS
 10
5.5573154232
 20
4.3941187888
 30
0.0
 11
0.121128983
 21
0.482172566
 31
0.0
 40
0.0853800028
 41
-1.8838760368
 42
-1.8713258838
  0
ELLIPSE
  5
49C
100
AcDbEntity
  8
ALL_ASSEMBLY_MEMBERS
100
AcDbEllipse
 62
7
  6
CONTINUOUS
 10
5.5529750055
 20
4.3941187888
 30
0.0
 11
0.4203531079
 21
0.479141308
 31
0.0
 40
0.1749164141
 41
-1.7616396296
 42
-1.7531282233
  0
ELLIPSE
  5
49D
100
AcDbEntity
  8
ALL_ASSEMBLY_MEMBERS
100
AcDbEllipse
 62
7
  6
CONTINUOUS
 10
5.5529750055
 20
4.3941187888
 30
0.0
 11
0.4182142408
 21
0.4767033111
 31
0.0
 40
0.1749164141
 41
-1.7616091722
 42
-1.7530542313
  0
ELLIPSE
  5
49E
100
AcDbEntity
  8
ALL_ASSEMBLY_MEMBERS
100
AcDbEllipse
 62
7
  6
CONTINUOUS
 10
5.5497842725
 20
4.3941187888
 30
0.0
 11
0.9622070503
 21
0.4656770023
 31
0.0
 40
0.1399266146
 41
-1.6381317277
 42
-1.6324577399
  0
ELLIPSE
  5
49F
100
AcDbEntity
  8
ALL_ASSEMBLY_MEMBERS
100
AcDbEllipse
 62
7
  6
CONTINUOUS
 10
5.5497842725
 20
4.3941187888
 30
0.0
 11
0.9573110879
 21
0.4633075153
 31
0.0
 40
0.1399266146
 41
-1.638130289
 42
-1.6324272825
  0
ELLIPSE
  5
4A0
100
AcDbEntity
  8
ALL_ASSEMBLY_MEMBERS
100
AcDbEllipse
 62
7
  6
CONTINUOUS
 10
5.5467692712
 20
4.3941187888
 30
0.0
 11
1.2847953844
 21
-0.4619431499
 31
0.0
 40
0.114367678
 41
-1.5356543218
 42
-1.5299803341
  0
ELLIPSE
  5
4A1
100
AcDbEntity
  8
ALL_ASSEMBLY_MEMBERS
100
AcDbEllipse
 62
7
  6
CONTINUOUS
 10
5.5467692712
 20
4.3941187888
 30
0.0
 11
1.2782580077
 21
-0.4595926617
 31
0.0
 40
0.114367678
 41
-1.5356847793
 42
-1.5299817728
  0
ELLIPSE
  5
4A2
100
AcDbEntity
  8
ALL_ASSEMBLY_MEMBERS
100
AcDbEllipse
 62
7
  6
CONTINUOUS
 10
5.5425301548
 20
4.3941187888
 30
0.0
 11
0.5681047491
 21
-0.4746020763
 31
0.0
 40
0.1736797508
 41
-1.5122023158
 42
-1.4326628245
  0
ELLIPSE
  5
4A3
100
AcDbEntity
  8
ALL_ASSEMBLY_MEMBERS
100
AcDbEllipse
 62
7
  6
CONTINUOUS
 10
5.5425301548
 20
4.3941187888
 30
0.0
 11
0.5652140828
 21
-0.4721871761
 31
0.0
 40
0.1736797508
 41
-1.5126406373
 42
-1.4326932819
  0
ELLIPSE
  5
4A4
100
AcDbEntity
  8
ALL_ASSEMBLY_MEMBERS
100
AcDbEllipse
 62
7
  6
CONTINUOUS
 10
5.6458241833
 20
4.3941187888
 30
0.0
 11
3.2146300597
 21
0.4566950116
 31
0.0
 40
0.0505558626
 41
-1.6202645376
 42
-1.6174251979
  0
ELLIPSE
  5
4A5
100
AcDbEntity
  8
ALL_ASSEMBLY_MEMBERS
100
AcDbEllipse
 62
7
  6
CONTINUOUS
 10
5.6458241833
 20
4.3941187888
 30
0.0
 11
3.1982731769
 21
0.4543712273
 31
0.0
 40
0.0505558626
 41
-1.6204809302
 42
-1.6176270448
  0
ELLIPSE
  5
4A6
100
AcDbEntity
  8
ALL_ASSEMBLY_MEMBERS
100
AcDbEllipse
 62
7
  6
CONTINUOUS
 10
5.5914649809
 20
4.3941187888
 30
0.0
 11
1.9284550012
 21
0.4586391511
 31
0.0
 40
0.0813853855
 41
-1.6352752504
 42
-1.6324355533
  0
ELLIPSE
  5
4A7
100
AcDbEntity
  8
ALL_ASSEMBLY_MEMBERS
100
AcDbEllipse
 62
7
  6
CONTINUOUS
 10
5.5914649809
 20
4.3941187888
 30
0.0
 11
1.9186425152
 21
0.4563054746
 31
0.0
 40
0.0813853855
 41
-1.635506194
 42
-1.6326519458
  0
ELLIPSE
  5
4A8
100
AcDbEntity
  8
ALL_ASSEMBLY_MEMBERS
100
AcDbEllipse
 62
7
  6
CONTINUOUS
 10
5.5624619566
 20
4.3941187888
 30
0.0
 11
1.28479561
 21
0.461943148
 31
0.0
 40
0.1143676625
 41
-1.6626997827
 42
-1.6570192891
  0
ELLIPSE
  5
4A9
100
AcDbEntity
  8
ALL_ASSEMBLY_MEMBERS
100
AcDbEllipse
 62
7
  6
CONTINUOUS
 10
5.5624619566
 20
4.3941187888
 30
0.0
 11
1.2782582322
 21
0.4595926598
 31
0.0
 40
0.1143676625
 41
-1.6629598455
 42
-1.6572502327
  0
ELLIPSE
  5
4AA
100
AcDbEntity
  8
ALL_ASSEMBLY_MEMBERS
100
AcDbEllipse
 62
7
  6
CONTINUOUS
 10
5.52981062
 20
4.3941187888
 30
0.0
 11
0.6379534101
 21
0.4725921247
 31
0.0
 40
0.1691116253
 41
-1.754754002
 42
-1.7462301183
  0
ELLIPSE
  5
4AB
100
AcDbEntity
  8
ALL_ASSEMBLY_MEMBERS
100
AcDbEllipse
 62
7
  6
CONTINUOUS
 10
5.52981062
 20
4.3941187888
 30
0.0
 11
0.6347073354
 21
0.4701874517
 31
0.0
 40
0.1691116253
 41
-1.7550577922
 42
-1.7464901811
  0
ELLIPSE
  5
4AC
100
AcDbEntity
  8
ALL_ASSEMBLY_MEMBERS
100
AcDbEllipse
 62
7
  6
CONTINUOUS
 10
5.5145612849
 20
4.3941187888
 30
0.0
 11
0.3768572419
 21
0.4804196487
 31
0.0
 40
0.1715483437
 41
-1.8596439314
 42
-1.8454275419
  0
ELLIPSE
  5
4AD
100
AcDbEntity
  8
ALL_ASSEMBLY_MEMBERS
100
AcDbEllipse
 62
7
  6
CONTINUOUS
 10
5.5145612849
 20
4.3941187888
 30
0.0
 11
0.3749396931
 21
0.4779751472
 31
0.0
 40
0.1715483437
 41
-1.8600207538
 42
-1.8457313321
  0
ENDSEC
  0
SECTION
  2
OBJECTS
  0
DICTIONARY
  5
C
100
AcDbDictionary
280
0
281
1
  3
ACAD_GROUP
350
D
  3
ACAD_MLINESTYLE
350
17
  3
ACAD_LAYOUT
350
1A
  3
ACAD_PLOTSETTINGS
350
19
  3
ACAD_PLOTSTYLENAME
350
E
  0
DICTIONARY
  5
D
102
{ACAD_REACTORS
330
C
102
}
100
AcDbDictionary
280
0
281
1
  0
ACDBDICTIONARYWDFLT
  5
E
102
{ACAD_REACTORS
330
C
102
}
100
AcDbDictionary
281
1
  3
Normal
350
F
100
AcDbDictionaryWithDefault
340
F
  0
DICTIONARY
  5
17
102
{ACAD_REACTORS
330
C
102
}
100
AcDbDictionary
280
0
281
1
  3
Standard
350
18
  0
DICTIONARY
  5
19
102
{ACAD_REACTORS
330
C
102
}
100
AcDbDictionary
281
1
  0
DICTIONARY
  5
1A
102
{ACAD_REACTORS
330
C
102
}
100
AcDbDictionary
281
1
  3
Model
350
4AE
  3
Layout1
350
4AF
  0
ACDBPLACEHOLDER
  5
F
102
{ACAD_REACTORS
330
E
102
}
  0
MLINESTYLE
  5
18
102
{ACAD_REACTORS
330
17
102
}
100
AcDbMlineStyle
  2
STANDARD
 70
0
  3

 62
256
 51
90.0
 52
90.0
 71
2
 49
0.5
 62
256
  6
BYLAYER
 49
-0.5
 62
256
  6
BYLAYER
  0
LAYOUT
  5
4AE
102
{ACAD_REACTORS
330
1A
102
}
100
AcDbPlotSettings
  1

  2
none_device
  4
ANSI_A_(11.00_x_8.50_Inches)
  6

 40
0.0
 41
0.0
 42
0.0
 43
0.0
 44
279.4
 45
215.9
 46
0.0
 47
0.0
 48
0.0
 49
0.0
140
0.0
141
0.0
142
1.0
143
1.0
 70
1024
 72
0
 73
0
 74
0
  7

 75
0
147
1.0
148
0.0
149
0.0
100
AcDbLayout
  1
Model
 70
0
 71
0
 10
0.0
 20
0.0
 11
11.0
 21
8.5
 12
0.0
 22
0.0
 32
0.0
 14
0.0
 24
0.0
 34
0.0
 15
0.0
 25
0.0
 35
0.0
146
0.0
 13
0.0
 23
0.0
 33
0.0
 16
1.0
 26
0.0
 36
0.0
 17
0.0
 27
1.0
 37
0.0
 76
0
330
21A
345
0
346
0
  0
LAYOUT
  5
4AF
102
{ACAD_REACTORS
330
1A
102
}
100
AcDbPlotSettings
  1

  2
none_device
  4
ANSI_A_(11.00_x_8.50_Inches)
  6

 40
0.0
 41
0.0
 42
0.0
 43
0.0
 44
279.4
 45
215.9
 46
0.0
 47
0.0
 48
0.0
 49
0.0
140
0.0
141
0.0
142
1.0
143
1.0
 70
0
 72
0
 73
0
 74
0
  7

 75
0
147
1.0
148
0.0
149
0.0
100
AcDbLayout
  1
Layout1
 70
0
 71
1
 10
0.0
 20
0.0
 11
11.0
 21
8.5
 12
0.0
 22
0.0
 32
0.0
 14
0.0
 24
0.0
 34
0.0
 15
0.0
 25
0.0
 35
0.0
146
0.0
 13
0.0
 23
0.0
 33
0.0
 16
1.0
 26
0.0
 36
0.0
 17
0.0
 27
1.0
 37
0.0
 76
0
330
21B
345
0
346
0
  0
ENDSEC
  0
EOF
