999
DXF file: 3-1604tr_TOP.dxf
999
Pro/ENGINEER 2018400 by Parametric Technology Corporation
  0
SECTION
  2
HEADER
  9
$ACADVER
  1
AC1027
  9
$DWGCODEPAGE
  3
ANSI_1252
  9
$EXTMAX
 10
11.0
 20
8.5
 30
0.0
  9
$EXTMIN
 10
0.0
 20
0.0
 30
0.0
  9
$LIMMIN
 10
0.0
 20
0.0
  9
$LIMMAX
 10
11.0
 20
8.5
  9
$VIEWCTR
 10
5.5
 20
4.25
  9
$VIEWSIZE
 40
8.5
  9
$CLAYER
  8
0
  9
$LTSCALE
 40
0.605
  9
$CELTYPE
  6
BYLAYER
  9
$DIMSCALE
 40
1.0
  9
$DIMASZ
 40
0.1
  9
$DIMEXO
 40
0.0625
  9
$DIMDLI
 40
0.418
  9
$DIMEXE
 40
0.125
  9
$DIMCEN
 40
0.099
  9
$DIMLFAC
 40
1.0
  9
$DIMBLK
  1
_FILLED
  9
$DIMALT
 70
1
  9
$DIMALTD
 70
2
  9
$DIMALTTD
 70
2
  9
$DIMALTF
 40
25.4
  9
$DIMTXT
 40
0.08
  9
$DIMTOL
 70
1
  9
$DIMLIM
 70
0
  9
$DIMTFAC
 40
1.0
  9
$DIMTP
 40
0.001
  9
$DIMTM
 40
0.001
  9
$DIMGAP
 40
0.09
  9
$DIMDSEP
 70
46
  9
$AUNITS
 70
0
  9
$PDMODE
 70
3
  9
$PDSIZE
 40
0.3125
  9
$HANDSEED
  5
4AC
  9
$TILEMODE
 70
1
  9
$MEASUREMENT
 70
0
  9
$INSUNITS
 70
1
  0
ENDSEC
  0
SECTION
  2
CLASSES
  0
CLASS
  1
ACDBDICTIONARYWDFLT
  2
AcDbDictionaryWithDefault
  3
AutoCAD 2000
 90
0
 91
1
280
0
281
0
  0
CLASS
  1
ACDBPLACEHOLDER
  2
AcDbPlaceHolder
  3
AutoCAD 2000
 90
0
 91
1
280
0
281
0
  0
CLASS
  1
LAYOUT
  2
AcDbLayout
  3
AutoCAD 2000
 90
0
 91
0
280
0
281
0
  0
ENDSEC
  0
SECTION
  2
TABLES
  0
TABLE
  2
VPORT
  5
8
100
AcDbSymbolTable
 70
2
  0
VPORT
  5
1F4
100
AcDbSymbolTableRecord
100
AcDbViewportTableRecord
  2
*ACTIVE
 70
0
 10
0.0
 20
0.0
 11
1.0
 21
1.0
 12
5.5
 22
4.25
 13
0.0
 23
0.0
 14
1.0
 24
1.0
 15
0.0
 25
0.0
 16
0.0
 26
0.0
 36
1.0
 17
0.0
 27
0.0
 37
0.0
 40
8.5
 41
1.2941176471
 42
50.0
 43
0.0
 44
0.0
 50
0.0
 51
0.0
 71
0
 72
100
 73
1
 74
1
 75
0
 76
0
 77
0
 78
0
  0
ENDTAB
  0
TABLE
  2
LTYPE
  5
5
100
AcDbSymbolTable
 70
6
  0
LTYPE
  5
14
100
AcDbSymbolTableRecord
100
AcDbLinetypeTableRecord
  2
BYBLOCK
 70
0
  3

 72
65
 73
0
 40
0.0
  0
LTYPE
  5
15
100
AcDbSymbolTableRecord
100
AcDbLinetypeTableRecord
  2
BYLAYER
 70
0
  3

 72
65
 73
0
 40
0.0
  0
LTYPE
  5
16
100
AcDbSymbolTableRecord
100
AcDbLinetypeTableRecord
  2
CONTINUOUS
 70
64
  3
Solid line
 72
65
 73
0
 40
0.0
  0
LTYPE
  5
1F5
100
AcDbSymbolTableRecord
100
AcDbLinetypeTableRecord
  2
CENTER
 70
64
  3
____ _ ____ _ ____ _ ____ _ ____ _ ____ _ ____
 72
65
 73
4
 40
0.6
 49
0.375
 74
0
 49
-0.075
 74
0
 49
0.075
 74
0
 49
-0.075
 74
0
  0
LTYPE
  5
1F6
100
AcDbSymbolTableRecord
100
AcDbLinetypeTableRecord
  2
HIDDEN
 70
64
  3
- - - - - - - - - - - - - - - - - - - -
 72
65
 73
2
 40
0.2
 49
0.1
 74
0
 49
-0.1
 74
0
  0
LTYPE
  5
1F7
100
AcDbSymbolTableRecord
100
AcDbLinetypeTableRecord
  2
PHANTOM
 70
64
  3
_____ _ _ _____ _ _ _____ _ _ _____
 72
65
 73
6
 40
0.8
 49
0.45
 74
0
 49
-0.05
 74
0
 49
0.1
 74
0
 49
-0.05
 74
0
 49
0.1
 74
0
 49
-0.05
 74
0
  0
LTYPE
  5
1F8
100
AcDbSymbolTableRecord
100
AcDbLinetypeTableRecord
  2
DOT
 70
64
  3
. . . . . . . . . . . . . . . . . . . .
 72
65
 73
2
 40
0.2
 49
0.1
 74
0
 49
-0.1
 74
0
  0
LTYPE
  5
1F9
100
AcDbSymbolTableRecord
100
AcDbLinetypeTableRecord
  2
DASHED
 70
64
  3
- - - - - - - - - - - - - - - - - - - -
 72
65
 73
2
 40
0.2
 49
0.1
 74
0
 49
-0.1
 74
0
  0
ENDTAB
  0
TABLE
  2
LAYER
  5
2
100
AcDbSymbolTable
 70
36
  0
LAYER
  5
10
100
AcDbSymbolTableRecord
100
AcDbLayerTableRecord
  2
0
 70
0
 62
7
  6
CONTINUOUS
370
-3
390
F
  0
LAYER
  5
1FA
100
AcDbSymbolTableRecord
100
AcDbLayerTableRecord
  2
DEFAULT_1
 70
0
 62
7
  6
CENTER
370
-3
390
F
  0
LAYER
  5
1FB
100
AcDbSymbolTableRecord
100
AcDbLayerTableRecord
  2
DEFAULT_2
 70
0
 62
8
  6
HIDDEN
370
-3
390
F
  0
LAYER
  5
1FC
100
AcDbSymbolTableRecord
100
AcDbLayerTableRecord
  2
DEFAULT_3
 70
0
 62
7
  6
PHANTOM
370
-3
390
F
  0
LAYER
  5
1FD
100
AcDbSymbolTableRecord
100
AcDbLayerTableRecord
  2
ALL_ASSEMBLY_MEMBERS
 70
0
 62
7
  6
CONTINUOUS
370
-3
390
F
  0
LAYER
  5
1FE
100
AcDbSymbolTableRecord
100
AcDbLayerTableRecord
  2
ALL_FEATURES
 70
0
 62
7
  6
CONTINUOUS
370
-3
390
F
  0
LAYER
  5
1FF
100
AcDbSymbolTableRecord
100
AcDbLayerTableRecord
  2
AXES_FEATURES
 70
0
 62
7
  6
CONTINUOUS
370
-3
390
F
  0
LAYER
  5
200
100
AcDbSymbolTableRecord
100
AcDbLayerTableRecord
  2
CHAMFER_FEATURES
 70
0
 62
7
  6
CONTINUOUS
370
-3
390
F
  0
LAYER
  5
201
100
AcDbSymbolTableRecord
100
AcDbLayerTableRecord
  2
COORDINATE_SYSTEMS
 70
0
 62
7
  6
CONTINUOUS
370
-3
390
F
  0
LAYER
  5
202
100
AcDbSymbolTableRecord
100
AcDbLayerTableRecord
  2
CUT_FEATURES
 70
0
 62
7
  6
CONTINUOUS
370
-3
390
F
  0
LAYER
  5
203
100
AcDbSymbolTableRecord
100
AcDbLayerTableRecord
  2
DATUM_CURVES
 70
0
 62
7
  6
CONTINUOUS
370
-3
390
F
  0
LAYER
  5
204
100
AcDbSymbolTableRecord
100
AcDbLayerTableRecord
  2
DATUM_PLANES
 70
0
 62
7
  6
CONTINUOUS
370
-3
390
F
  0
LAYER
  5
205
100
AcDbSymbolTableRecord
100
AcDbLayerTableRecord
  2
DEFAULT_COORDINATE_SYSTEM
 70
0
 62
7
  6
CONTINUOUS
370
-3
390
F
  0
LAYER
  5
206
100
AcDbSymbolTableRecord
100
AcDbLayerTableRecord
  2
DEFAULT_DATUM_AXES
 70
0
 62
7
  6
CONTINUOUS
370
-3
390
F
  0
LAYER
  5
207
100
AcDbSymbolTableRecord
100
AcDbLayerTableRecord
  2
DEFAULT_DATUM_CURVES
 70
0
 62
7
  6
CONTINUOUS
370
-3
390
F
  0
LAYER
  5
208
100
AcDbSymbolTableRecord
100
AcDbLayerTableRecord
  2
DEFAULT_DATUM_PLANES
 70
0
 62
7
  6
CONTINUOUS
370
-3
390
F
  0
LAYER
  5
209
100
AcDbSymbolTableRecord
100
AcDbLayerTableRecord
  2
DEFAULT_SURFACES
 70
0
 62
7
  6
CONTINUOUS
370
-3
390
F
  0
LAYER
  5
20A
100
AcDbSymbolTableRecord
100
AcDbLayerTableRecord
  2
DIMENSIONS
 70
0
 62
7
  6
CONTINUOUS
370
-3
390
F
  0
LAYER
  5
20B
100
AcDbSymbolTableRecord
100
AcDbLayerTableRecord
  2
HOLE_FEATURES
 70
0
 62
7
  6
CONTINUOUS
370
-3
390
F
  0
LAYER
  5
20C
100
AcDbSymbolTableRecord
100
AcDbLayerTableRecord
  2
NOTES
 70
0
 62
7
  6
CONTINUOUS
370
-3
390
F
  0
LAYER
  5
20D
100
AcDbSymbolTableRecord
100
AcDbLayerTableRecord
  2
PART_REFERENCE_DIMENSIONS
 70
0
 62
7
  6
CONTINUOUS
370
-3
390
F
  0
LAYER
  5
20E
100
AcDbSymbolTableRecord
100
AcDbLayerTableRecord
  2
PLATED_SURFACE_AREA
 70
0
 62
7
  6
CONTINUOUS
370
-3
390
F
  0
LAYER
  5
20F
100
AcDbSymbolTableRecord
100
AcDbLayerTableRecord
  2
PROTRUSION
 70
0
 62
7
  6
CONTINUOUS
370
-3
390
F
  0
LAYER
  5
210
100
AcDbSymbolTableRecord
100
AcDbLayerTableRecord
  2
PROTRUSION_FEATURES
 70
0
 62
7
  6
CONTINUOUS
370
-3
390
F
  0
LAYER
  5
211
100
AcDbSymbolTableRecord
100
AcDbLayerTableRecord
  2
QUILT
 70
0
 62
7
  6
CONTINUOUS
370
-3
390
F
  0
LAYER
  5
212
100
AcDbSymbolTableRecord
100
AcDbLayerTableRecord
  2
QUILTS
 70
0
 62
7
  6
CONTINUOUS
370
-3
390
F
  0
LAYER
  5
213
100
AcDbSymbolTableRecord
100
AcDbLayerTableRecord
  2
REFERENCE_DIMENSIONS
 70
0
 62
7
  6
CONTINUOUS
370
-3
390
F
  0
LAYER
  5
214
100
AcDbSymbolTableRecord
100
AcDbLayerTableRecord
  2
ROUND_FEATURES
 70
0
 62
7
  6
CONTINUOUS
370
-3
390
F
  0
LAYER
  5
215
100
AcDbSymbolTableRecord
100
AcDbLayerTableRecord
  2
SHELL_FEATURES
 70
0
 62
7
  6
CONTINUOUS
370
-3
390
F
  0
LAYER
  5
216
100
AcDbSymbolTableRecord
100
AcDbLayerTableRecord
  2
SURFACE_FEATURES
 70
0
 62
7
  6
CONTINUOUS
370
-3
390
F
  0
LAYER
  5
217
100
AcDbSymbolTableRecord
100
AcDbLayerTableRecord
  2
XSEC_DATUMS
 70
0
 62
7
  6
CONTINUOUS
370
-3
390
F
  0
ENDTAB
  0
TABLE
  2
STYLE
  5
3
100
AcDbSymbolTable
 70
1
  0
STYLE
  5
11
100
AcDbSymbolTableRecord
100
AcDbTextStyleTableRecord
  2
STANDARD
 70
0
 40
0.0
 41
0.8
 50
0.0
 71
0
 42
0.2
  3
txt
  4

  0
STYLE
  5
218
100
AcDbSymbolTableRecord
100
AcDbTextStyleTableRecord
  2
TEXTSTYLE_1
 70
0
 40
0.0
 41
0.8
 50
0.0
 71
0
 42
0.2
  3
gdt
  4

  0
ENDTAB
  0
TABLE
  2
VIEW
  5
6
100
AcDbSymbolTable
 70
0
  0
ENDTAB
  0
TABLE
  2
UCS
  5
7
100
AcDbSymbolTable
 70
0
  0
ENDTAB
  0
TABLE
  2
APPID
  5
9
100
AcDbSymbolTable
 70
1
  0
APPID
  5
219
100
AcDbSymbolTableRecord
100
AcDbRegAppTableRecord
  2
ACAD
 70
0
  0
ENDTAB
  0
TABLE
  2
BLOCK_RECORD
  5
1
100
AcDbSymbolTable
 70
0
  0
BLOCK_RECORD
  5
21A
100
AcDbSymbolTableRecord
100
AcDbBlockTableRecord
  2
*Model_Space
  0
BLOCK_RECORD
  5
21B
100
AcDbSymbolTableRecord
100
AcDbBlockTableRecord
  2
*Paper_Space
  0
BLOCK_RECORD
  5
21C
100
AcDbSymbolTableRecord
100
AcDbBlockTableRecord
  2
_FILLED
  0
ENDTAB
  0
TABLE
  2
DIMSTYLE
  5
A
100
AcDbSymbolTable
 70
1
100
AcDbDimStyleTable
 71
0
  0
DIMSTYLE
105
21D
100
AcDbSymbolTableRecord
100
AcDbDimStyleTableRecord
  2
STANDARD
 70
0
  3

  4

 40
1.0
 41
0.1
 42
0.0625
 43
0.38
 44
0.125
 45
0.0
 46
0.0
 47
0.001
 48
0.001
140
0.08
141
0.09
142
0.0
143
25.4
144
1.0
145
0.0
146
1.0
147
0.09
 71
1.0
 72
0.0
 73
1
 74
1
 75
0
 76
0
 77
0
 78
4
 79
1
170
1
171
2
172
0
173
0
174
0
175
0
176
0
177
0
178
0
270
2
179
3
271
3
272
3
273
2
274
2
275
0
280
0
281
0
282
0
283
1
284
4
285
0
286
0
287
3
288
0
340
11
278
46
341
21C
342
21C
343
21C
344
21C
  0
ENDTAB
  0
ENDSEC
  0
SECTION
  2
BLOCKS
  0
BLOCK
  5
20
100
AcDbEntity
  8
0
100
AcDbBlockBegin
  2
*Model_Space
 70
0
 10
0.0
 20
0.0
 30
0.0
  3
*Model_Space
  1

  0
ENDBLK
  5
21
100
AcDbEntity
  8
0
100
AcDbBlockEnd
  0
BLOCK
  5
1C
100
AcDbEntity
  8
0
100
AcDbBlockBegin
  2
*Paper_Space
 70
0
 10
0.0
 20
0.0
 30
0.0
  3
*Paper_Space
  1

  0
ENDBLK
  5
1D
100
AcDbEntity
  8
0
100
AcDbBlockEnd
  0
BLOCK
  5
21E
100
AcDbEntity
  8
0
100
AcDbBlockBegin
  2
_FILLED
 70
64
 10
0.0
 20
0.0
  3
_FILLED
  1

  0
SOLID
  5
21F
100
AcDbEntity
  8
0
  6
BYBLOCK
 62
0
100
AcDbTrace
 10
0.0
 20
0.0
 11
-1.0
 21
0.2
 12
-1.0
 22
-0.2
 13
-1.0
 23
-0.2
  0
ENDBLK
  5
220
100
AcDbEntity
  8
0
  6
BYBLOCK
 62
0
100
AcDbBlockEnd
  0
ENDSEC
  0
SECTION
  2
ENTITIES
  0
MTEXT
  5
221
100
AcDbEntity
  8
0
100
AcDbMText
 62
2
  6
CONTINUOUS
  7
STANDARD
 71
3
 72
1
 10
5.2405861801
 20
3.3148687888
 30
0.0
 11
1.0
 21
0.0
 31
0.0
 73
2
 44
0.9
  1
SCALE  .500
 40
0.08
 41
0.704
  0
LINE
  5
222
100
AcDbEntity
  8
0
100
AcDbLine
 62
7
  6
CONTINUOUS
 10
0.0
 20
0.0
 11
0.0
 21
8.5
  0
LINE
  5
223
100
AcDbEntity
  8
0
100
AcDbLine
 62
7
  6
CONTINUOUS
 10
0.0
 20
0.0
 11
11.0
 21
0.0
  0
LINE
  5
224
100
AcDbEntity
  8
0
100
AcDbLine
 62
7
  6
CONTINUOUS
 10
0.0
 20
8.5
 11
11.0
 21
8.5
  0
LINE
  5
225
100
AcDbEntity
  8
0
100
AcDbLine
 62
7
  6
CONTINUOUS
 10
11.0
 20
0.0
 11
11.0
 21
8.5
  0
LINE
  5
226
100
AcDbEntity
  8
ALL_ASSEMBLY_MEMBERS
100
AcDbLine
 62
7
  6
CONTINUOUS
 10
3.6155861801
 20
5.1926371586
 11
3.6155861801
 21
5.2623687888
  0
LINE
  5
227
100
AcDbEntity
  8
ALL_ASSEMBLY_MEMBERS
100
AcDbLine
 62
7
  6
CONTINUOUS
 10
5.9353813921
 20
3.4901304766
 11
5.9353669032
 21
3.4901269617
  0
LWPOLYLINE
  5
228
100
AcDbEntity
  8
ALL_ASSEMBLY_MEMBERS
100
AcDbPolyline
 62
7
  6
CONTINUOUS
 90
7
 70
0
 10
4.5457755705
 20
3.4901343562
 10
4.5576169027
 20
3.4875277142
 10
4.5711070368
 20
3.4852298511
 10
4.5846339025
 20
3.4836371061
 10
4.5981876831
 20
3.482750801
 10
4.6117544242
 20
3.4825723849
 10
4.6184425853
 20
3.4827451358
  0
LINE
  5
229
100
AcDbEntity
  8
ALL_ASSEMBLY_MEMBERS
100
AcDbLine
 62
7
  6
CONTINUOUS
 10
4.5457909011
 20
3.4901304929
 11
4.5458054832
 21
3.4901269553
  0
LINE
  5
22A
100
AcDbEntity
  8
ALL_ASSEMBLY_MEMBERS
100
AcDbLine
 62
7
  6
CONTINUOUS
 10
4.9853176133
 20
3.5005945475
 11
5.0356245385
 21
3.5031702598
  0
LWPOLYLINE
  5
22B
100
AcDbEntity
  8
ALL_ASSEMBLY_MEMBERS
100
AcDbPolyline
 62
7
  6
CONTINUOUS
 90
7
 70
0
 10
4.6733299515
 20
3.4850124754
 10
4.729359608
 20
3.4875500431
 10
4.7837808875
 20
3.490182582
 10
4.8365987141
 20
3.4928508586
 10
4.8878042817
 20
3.495503478
 10
4.9373784398
 20
3.4980965271
 10
4.9853176133
 20
3.5005945475
  0
LINE
  5
22C
100
AcDbEntity
  8
ALL_ASSEMBLY_MEMBERS
100
AcDbLine
 62
7
  6
CONTINUOUS
 10
4.6733299515
 20
3.4850124754
 11
4.6184463888
 21
3.4827452839
  0
LINE
  5
22D
100
AcDbEntity
  8
ALL_ASSEMBLY_MEMBERS
100
AcDbLine
 62
7
  6
CONTINUOUS
 10
5.1093361801
 20
3.4098687888
 11
5.3718361801
 21
3.4098687888
  0
LINE
  5
22E
100
AcDbEntity
  8
ALL_ASSEMBLY_MEMBERS
100
AcDbLine
 62
7
  6
CONTINUOUS
 10
5.1093361801
 20
3.4248687888
 11
5.3718361801
 21
3.4248687888
  0
LINE
  5
22F
100
AcDbEntity
  8
ALL_ASSEMBLY_MEMBERS
100
AcDbLine
 62
7
  6
CONTINUOUS
 10
5.0843361801
 20
3.4348687888
 11
5.3968361801
 21
3.4348687888
  0
LINE
  5
230
100
AcDbEntity
  8
ALL_ASSEMBLY_MEMBERS
100
AcDbLine
 62
7
  6
CONTINUOUS
 10
5.0405861801
 20
3.4723687888
 11
5.4405861801
 21
3.4723687888
  0
LINE
  5
231
100
AcDbEntity
  8
ALL_ASSEMBLY_MEMBERS
100
AcDbLine
 62
7
  6
CONTINUOUS
 10
5.9506667294
 20
3.5095668248
 11
5.9391937971
 21
3.5095668248
  0
LINE
  5
232
100
AcDbEntity
  8
ALL_ASSEMBLY_MEMBERS
100
AcDbLine
 62
7
  6
CONTINUOUS
 10
5.1248221711
 20
3.5095668248
 11
5.1048221711
 21
3.5095668248
  0
LINE
  5
233
100
AcDbEntity
  8
ALL_ASSEMBLY_MEMBERS
100
AcDbLine
 62
7
  6
CONTINUOUS
 10
4.5305056308
 20
3.5095668248
 11
4.5419785632
 21
3.5095668248
  0
LINE
  5
234
100
AcDbEntity
  8
ALL_ASSEMBLY_MEMBERS
100
AcDbLine
 62
7
  6
CONTINUOUS
 10
5.3563501892
 20
3.5095668248
 11
5.3763501892
 21
3.5095668248
  0
LWPOLYLINE
  5
235
100
AcDbEntity
  8
ALL_ASSEMBLY_MEMBERS
100
AcDbPolyline
 62
7
  6
CONTINUOUS
 90
7
 70
0
 10
5.8627348624
 20
3.4827449512
 10
5.8694787063
 20
3.4825716089
 10
5.8830608725
 20
3.4827537916
 10
5.8966300022
 20
3.4836454829
 10
5.9101721364
 20
3.4852452435
 10
5.9236774925
 20
3.4875517606
 10
5.9353967196
 20
3.4901343521
  0
LWPOLYLINE
  5
236
100
AcDbEntity
  8
ALL_ASSEMBLY_MEMBERS
100
AcDbPolyline
 62
7
  6
CONTINUOUS
 90
9
 70
0
 10
5.4455426687
 20
3.5031705182
 10
5.4958548222
 20
3.5005945436
 10
5.5437939861
 20
3.4980965236
 10
5.5933681341
 20
3.4955034751
 10
5.6445736913
 20
3.4928508563
 10
5.697391507
 20
3.4901825803
 10
5.7518127754
 20
3.487550042
 10
5.8078424205
 20
3.4850124749
 10
5.8627307814
 20
3.48274511
  0
LWPOLYLINE
  5
237
100
AcDbEntity
  8
ALL_ASSEMBLY_MEMBERS
100
AcDbPolyline
 62
7
  6
CONTINUOUS
 90
10
 70
0
 10
5.1224048189
 20
3.4897136117
 10
5.1459793141
 20
3.4871331191
 10
5.1729193082
 20
3.4848915288
 10
5.1999102269
 20
3.4833956787
 10
5.2269303249
 20
3.4826457795
 10
5.2539603408
 20
3.4826419008
 10
5.280980768
 20
3.4833840416
 10
5.3079722803
 20
3.484872127
 10
5.3349129771
 20
3.4871059429
 10
5.3587675398
 20
3.4897135986
  0
LWPOLYLINE
  5
238
100
AcDbEntity
  8
ALL_ASSEMBLY_MEMBERS
100
AcDbPolyline
 62
7
  6
CONTINUOUS
 90
14
 70
0
 10
5.0321087244
 20
3.5056731376
 10
5.0320370598
 20
3.5056974548
 10
5.0321586744
 20
3.5056489079
 10
5.0325096063
 20
3.5054857463
 10
5.0330644219
 20
3.5051831154
 10
5.0338369608
 20
3.5046851028
 10
5.034802825
 20
3.503939709
 10
5.0358881763
 20
3.5029233904
 10
5.0370164747
 20
3.5016206747
 10
5.0381335753
 20
3.4999861527
 10
5.0391390118
 20
3.4980318283
 10
5.0399154743
 20
3.4958660374
 10
5.0404084694
 20
3.4935568464
 10
5.0405857365
 20
3.4912428375
  0
LINE
  5
239
100
AcDbEntity
  8
ALL_ASSEMBLY_MEMBERS
100
AcDbLine
 62
7
  6
CONTINUOUS
 10
4.5305056308
 20
3.5095668248
 11
4.5305056308
 21
3.6548269924
  0
LINE
  5
23A
100
AcDbEntity
  8
ALL_ASSEMBLY_MEMBERS
100
AcDbLine
 62
7
  6
CONTINUOUS
 10
4.5419785632
 20
3.5095727241
 11
4.5419785632
 21
3.6548212722
  0
LINE
  5
23B
100
AcDbEntity
  8
ALL_ASSEMBLY_MEMBERS
100
AcDbLine
 62
7
  6
CONTINUOUS
 10
5.4691912803
 20
3.677105304
 11
5.4471581849
 21
3.6768083148
  0
LWPOLYLINE
  5
23C
100
AcDbEntity
  8
ALL_ASSEMBLY_MEMBERS
100
AcDbPolyline
 62
7
  6
CONTINUOUS
 90
8
 70
0
 10
5.8279130735
 20
3.6816835288
 10
5.7796129561
 20
3.6813471401
 10
5.7303333328
 20
3.680854343
 10
5.680048751
 20
3.680230707
 10
5.62877066
 20
3.6795065488
 10
5.5765404227
 20
3.6787172588
 10
5.5233584638
 20
3.6779022661
 10
5.4691912803
 20
3.677105304
  0
LWPOLYLINE
  5
23D
100
AcDbEntity
  8
ALL_ASSEMBLY_MEMBERS
100
AcDbPolyline
 62
7
  6
CONTINUOUS
 90
7
 70
0
 10
4.6087801735
 20
3.6818380745
 10
4.6062218064
 20
3.6818293521
 10
4.5937363488
 20
3.6814254772
 10
4.5812651551
 20
3.6804224131
 10
4.5688192403
 20
3.6788214008
 10
4.5564063745
 20
3.6766235065
 10
4.5457781659
 20
3.6742600775
  0
LINE
  5
23E
100
AcDbEntity
  8
ALL_ASSEMBLY_MEMBERS
100
AcDbLine
 62
7
  6
CONTINUOUS
 10
5.8279130735
 20
3.6816835288
 11
5.8723858908
 21
3.6818380654
  0
LINE
  5
23F
100
AcDbEntity
  8
ALL_ASSEMBLY_MEMBERS
100
AcDbLine
 62
7
  6
CONTINUOUS
 10
5.9506667294
 20
3.6548269924
 11
5.9391937971
 21
3.6548269924
  0
LINE
  5
240
100
AcDbEntity
  8
ALL_ASSEMBLY_MEMBERS
100
AcDbLine
 62
7
  6
CONTINUOUS
 10
5.1248221711
 20
3.6548269924
 11
5.1048221711
 21
3.6548269924
  0
LINE
  5
241
100
AcDbEntity
  8
ALL_ASSEMBLY_MEMBERS
100
AcDbLine
 62
7
  6
CONTINUOUS
 10
4.5305056308
 20
3.6548269924
 11
4.5419785632
 21
3.6548269924
  0
LINE
  5
242
100
AcDbEntity
  8
ALL_ASSEMBLY_MEMBERS
100
AcDbLine
 62
7
  6
CONTINUOUS
 10
5.3563501892
 20
3.6548269924
 11
5.3763501892
 21
3.6548269924
  0
LINE
  5
243
100
AcDbEntity
  8
ALL_ASSEMBLY_MEMBERS
100
AcDbLine
 62
7
  6
CONTINUOUS
 10
5.0405861801
 20
3.7098687888
 11
5.4405861801
 21
3.7098687888
  0
LINE
  5
244
100
AcDbEntity
  8
ALL_ASSEMBLY_MEMBERS
100
AcDbLine
 62
7
  6
CONTINUOUS
 10
5.0843361801
 20
3.7198687888
 11
5.3968361801
 21
3.7198687888
  0
LWPOLYLINE
  5
245
100
AcDbEntity
  8
ALL_ASSEMBLY_MEMBERS
100
AcDbPolyline
 62
7
  6
CONTINUOUS
 90
10
 70
0
 10
5.0340137242
 20
3.6768083209
 10
5.0119811607
 20
3.6771053029
 10
4.9578139783
 20
3.6779022649
 10
4.9046320173
 20
3.6787172576
 10
4.8524017748
 20
3.6795065477
 10
4.8011236753
 20
3.6802307061
 10
4.7508390818
 20
3.6808543424
 10
4.7015594436
 20
3.6813471398
 10
4.6532593081
 20
3.6816835286
 10
4.6087805993
 20
3.6818380738
  0
LWPOLYLINE
  5
246
100
AcDbEntity
  8
ALL_ASSEMBLY_MEMBERS
100
AcDbPolyline
 62
7
  6
CONTINUOUS
 90
8
 70
0
 10
5.4498118564
 20
3.6751960677
 10
5.4499144306
 20
3.6751668427
 10
5.4499860152
 20
3.6751447589
 10
5.4498968528
 20
3.6751775043
 10
5.4496515209
 20
3.6752789734
 10
5.4492137446
 20
3.6754863695
 10
5.4485958745
 20
3.675825153
 10
5.4477608038
 20
3.6763615841
  0
LINE
  5
247
100
AcDbEntity
  8
ALL_ASSEMBLY_MEMBERS
100
AcDbLine
 62
7
  6
CONTINUOUS
 10
4.6718508874
 20
5.0992315651
 11
4.6718508874
 21
5.1058687888
  0
LINE
  5
248
100
AcDbEntity
  8
ALL_ASSEMBLY_MEMBERS
100
AcDbLine
 62
7
  6
CONTINUOUS
 10
4.6805861801
 20
3.9663687888
 11
4.6805861801
 21
4.0663687888
  0
LINE
  5
249
100
AcDbEntity
  8
ALL_ASSEMBLY_MEMBERS
100
AcDbLine
 62
7
  6
CONTINUOUS
 10
4.7180861801
 20
3.9413687888
 11
4.7180861801
 21
3.9663687888
  0
LINE
  5
24A
100
AcDbEntity
  8
ALL_ASSEMBLY_MEMBERS
100
AcDbLine
 62
7
  6
CONTINUOUS
 10
4.7180861801
 20
4.0663687888
 11
4.7180861801
 21
4.1163687888
  0
LINE
  5
24B
100
AcDbEntity
  8
ALL_ASSEMBLY_MEMBERS
100
AcDbLine
 62
7
  6
CONTINUOUS
 10
4.7480861801
 20
4.7483687888
 11
4.7480861801
 21
5.0263687888
  0
LINE
  5
24C
100
AcDbEntity
  8
ALL_ASSEMBLY_MEMBERS
100
AcDbLine
 62
7
  6
CONTINUOUS
 10
4.5457969874
 20
3.6742647971
 11
4.5458156506
 21
3.6742693173
  0
LINE
  5
24D
100
AcDbEntity
  8
ALL_ASSEMBLY_MEMBERS
100
AcDbLine
 62
7
  6
CONTINUOUS
 10
4.8180861801
 20
3.8663687888
 11
5.6630861801
 21
3.8663687888
  0
LINE
  5
24E
100
AcDbEntity
  8
ALL_ASSEMBLY_MEMBERS
100
AcDbLine
 62
7
  6
CONTINUOUS
 10
4.768088938
 20
3.8913687888
 11
5.7130834222
 21
3.8913687888
  0
LWPOLYLINE
  5
24F
100
AcDbEntity
  8
ALL_ASSEMBLY_MEMBERS
100
AcDbPolyline
 62
7
  6
CONTINUOUS
 90
7
 70
0
 10
5.9353942559
 20
3.6742600755
 10
5.9246345532
 20
3.6766499488
 10
5.9122380018
 20
3.6788389581
 10
5.8998084859
 20
3.680432692
 10
5.8873537865
 20
3.6814300834
 10
5.8748849248
 20
3.6818298877
 10
5.8723859805
 20
3.6818380655
  0
LINE
  5
250
100
AcDbEntity
  8
ALL_ASSEMBLY_MEMBERS
100
AcDbLine
 62
7
  6
CONTINUOUS
 10
5.9353754368
 20
3.6742647815
 11
5.9353566872
 21
3.6742693227
  0
LINE
  5
251
100
AcDbEntity
  8
ALL_ASSEMBLY_MEMBERS
100
AcDbLine
 62
7
  6
CONTINUOUS
 10
4.7555861801
 20
4.1538687888
 11
4.7555861801
 21
4.5788687888
  0
LINE
  5
252
100
AcDbEntity
  8
ALL_ASSEMBLY_MEMBERS
100
AcDbLine
 62
7
  6
CONTINUOUS
 10
4.7558361801
 20
4.7265065841
 11
4.7558361801
 21
4.6379239069
  0
LINE
  5
253
100
AcDbEntity
  8
ALL_ASSEMBLY_MEMBERS
100
AcDbLine
 62
7
  6
CONTINUOUS
 10
4.7560050791
 20
4.7265065841
 11
4.7560050791
 21
4.6379239069
  0
LINE
  5
254
100
AcDbEntity
  8
ALL_ASSEMBLY_MEMBERS
100
AcDbLine
 62
7
  6
CONTINUOUS
 10
4.7583027156
 20
4.7483687888
 11
4.7583027156
 21
4.7265065841
  0
LINE
  5
255
100
AcDbEntity
  8
ALL_ASSEMBLY_MEMBERS
100
AcDbLine
 62
7
  6
CONTINUOUS
 10
4.7583027156
 20
4.6379239069
 11
4.7583027156
 21
4.5788687888
  0
LINE
  5
256
100
AcDbEntity
  8
ALL_ASSEMBLY_MEMBERS
100
AcDbLine
 62
7
  6
CONTINUOUS
 10
4.7584724787
 20
4.7265065841
 11
4.7584724787
 21
4.6379239069
  0
LINE
  5
257
100
AcDbEntity
  8
ALL_ASSEMBLY_MEMBERS
100
AcDbLine
 62
7
  6
CONTINUOUS
 10
4.770591981
 20
4.6652840168
 11
4.770591981
 21
4.6598119953
  0
LINE
  5
258
100
AcDbEntity
  8
ALL_ASSEMBLY_MEMBERS
100
AcDbLine
 62
7
  6
CONTINUOUS
 10
4.7708967873
 20
4.7017641624
 11
4.7708967873
 21
4.696292141
  0
LINE
  5
259
100
AcDbEntity
  8
ALL_ASSEMBLY_MEMBERS
100
AcDbLine
 62
7
  6
CONTINUOUS
 10
4.7721458679
 20
4.6652840168
 11
4.7721458679
 21
4.6598119953
  0
LINE
  5
25A
100
AcDbEntity
  8
ALL_ASSEMBLY_MEMBERS
100
AcDbLine
 62
7
  6
CONTINUOUS
 10
4.7724655912
 20
4.7017641624
 11
4.7724655912
 21
4.6981161481
  0
LINE
  5
25B
100
AcDbEntity
  8
ALL_ASSEMBLY_MEMBERS
100
AcDbLine
 62
7
  6
CONTINUOUS
 10
4.7744728953
 20
4.6652840168
 11
4.7744728953
 21
4.6598119953
  0
LINE
  5
25C
100
AcDbEntity
  8
ALL_ASSEMBLY_MEMBERS
100
AcDbLine
 62
7
  6
CONTINUOUS
 10
4.7747920941
 20
4.7017641624
 11
4.7747920941
 21
4.6981161481
  0
LINE
  5
25D
100
AcDbEntity
  8
ALL_ASSEMBLY_MEMBERS
100
AcDbLine
 62
7
  6
CONTINUOUS
 10
4.7810283744
 20
4.7017641624
 11
4.7810283744
 21
4.6981161481
  0
LINE
  5
25E
100
AcDbEntity
  8
ALL_ASSEMBLY_MEMBERS
100
AcDbLine
 62
7
  6
CONTINUOUS
 10
4.7814220791
 20
4.6652840168
 11
4.7814220791
 21
4.6598119953
  0
LINE
  5
25F
100
AcDbEntity
  8
ALL_ASSEMBLY_MEMBERS
100
AcDbLine
 62
7
  6
CONTINUOUS
 10
4.7830263583
 20
4.7017641624
 11
4.7830263583
 21
4.696292141
  0
LINE
  5
260
100
AcDbEntity
  8
ALL_ASSEMBLY_MEMBERS
100
AcDbLine
 62
7
  6
CONTINUOUS
 10
4.78343479
 20
4.6652840168
 11
4.78343479
 21
4.6598119953
  0
LINE
  5
261
100
AcDbEntity
  8
ALL_ASSEMBLY_MEMBERS
100
AcDbLine
 62
7
  6
CONTINUOUS
 10
4.7853443268
 20
4.7017641624
 11
4.7853443268
 21
4.696292141
  0
LINE
  5
262
100
AcDbEntity
  8
ALL_ASSEMBLY_MEMBERS
100
AcDbLine
 62
7
  6
CONTINUOUS
 10
4.7857526917
 20
4.6652840168
 11
4.7857526917
 21
4.6598119953
  0
LINE
  5
263
100
AcDbEntity
  8
ALL_ASSEMBLY_MEMBERS
100
AcDbLine
 62
7
  6
CONTINUOUS
 10
4.7868082368
 20
4.7236522534
 11
4.7868082368
 21
4.6762280623
  0
LINE
  5
264
100
AcDbEntity
  8
ALL_ASSEMBLY_MEMBERS
100
AcDbLine
 62
7
  6
CONTINUOUS
 10
4.7890123355
 20
4.7145322176
 11
4.7890123355
 21
4.685348098
  0
LINE
  5
265
100
AcDbEntity
  8
ALL_ASSEMBLY_MEMBERS
100
AcDbLine
 62
7
  6
CONTINUOUS
 10
4.7913307396
 20
4.7145322176
 11
4.7913307396
 21
4.6908201195
  0
LINE
  5
266
100
AcDbEntity
  8
ALL_ASSEMBLY_MEMBERS
100
AcDbLine
 62
7
  6
CONTINUOUS
 10
4.8016635772
 20
4.6671080239
 11
4.8016635772
 21
4.6634600096
  0
LINE
  5
267
100
AcDbEntity
  8
ALL_ASSEMBLY_MEMBERS
100
AcDbLine
 62
7
  6
CONTINUOUS
 10
4.8032523905
 20
4.7236522534
 11
4.8032523905
 21
4.7145322176
  0
LINE
  5
268
100
AcDbEntity
  8
ALL_ASSEMBLY_MEMBERS
100
AcDbLine
 62
7
  6
CONTINUOUS
 10
4.8043265239
 20
4.6689320311
 11
4.8043265239
 21
4.6616360025
  0
LINE
  5
269
100
AcDbEntity
  8
ALL_ASSEMBLY_MEMBERS
100
AcDbLine
 62
7
  6
CONTINUOUS
 10
4.8055811616
 20
4.7236522534
 11
4.8055811616
 21
4.7145322176
  0
LINE
  5
26A
100
AcDbEntity
  8
ALL_ASSEMBLY_MEMBERS
100
AcDbLine
 62
7
  6
CONTINUOUS
 10
4.8066564891
 20
4.6689320311
 11
4.8066564891
 21
4.6616360025
  0
LINE
  5
26B
100
AcDbEntity
  8
ALL_ASSEMBLY_MEMBERS
100
AcDbLine
 62
7
  6
CONTINUOUS
 10
4.8180861801
 20
3.8663687888
 11
4.8180861801
 21
3.8913687888
  0
LINE
  5
26C
100
AcDbEntity
  8
ALL_ASSEMBLY_MEMBERS
100
AcDbLine
 62
7
  6
CONTINUOUS
 10
4.8248214728
 20
5.0992315651
 11
4.8248214728
 21
5.1058687888
  0
LINE
  5
26D
100
AcDbEntity
  8
ALL_ASSEMBLY_MEMBERS
100
AcDbLine
 62
7
  6
CONTINUOUS
 10
4.7180861801
 20
3.9413687888
 11
5.7630861801
 21
3.9413687888
  0
LINE
  5
26E
100
AcDbEntity
  8
ALL_ASSEMBLY_MEMBERS
100
AcDbLine
 62
7
  6
CONTINUOUS
 10
4.6805885831
 20
3.9663687888
 11
5.8005837771
 21
3.9663687888
  0
LINE
  5
26F
100
AcDbEntity
  8
ALL_ASSEMBLY_MEMBERS
100
AcDbLine
 62
7
  6
CONTINUOUS
 10
5.4476293837
 20
3.6764541059
 11
5.4477613263
 21
3.6763611819
  0
LINE
  5
270
100
AcDbEntity
  8
ALL_ASSEMBLY_MEMBERS
100
AcDbLine
 62
7
  6
CONTINUOUS
 10
4.9521606029
 20
4.7265065841
 11
4.9521606029
 21
4.6379239069
  0
LINE
  5
271
100
AcDbEntity
  8
ALL_ASSEMBLY_MEMBERS
100
AcDbLine
 62
7
  6
CONTINUOUS
 10
4.9731231553
 20
4.7265065841
 11
4.9731231553
 21
4.6379239069
  0
LINE
  5
272
100
AcDbEntity
  8
ALL_ASSEMBLY_MEMBERS
100
AcDbLine
 62
7
  6
CONTINUOUS
 10
4.9745383975
 20
4.7265065841
 11
4.9745383975
 21
4.6379239069
  0
LINE
  5
273
100
AcDbEntity
  8
ALL_ASSEMBLY_MEMBERS
100
AcDbLine
 62
7
  6
CONTINUOUS
 10
5.2170709857
 20
4.7127082105
 11
5.2129453091
 21
4.7090601962
  0
LINE
  5
274
100
AcDbEntity
  8
ALL_ASSEMBLY_MEMBERS
100
AcDbLine
 62
7
  6
CONTINUOUS
 10
5.2156957615
 20
4.7218282462
 11
5.2088196324
 21
4.7163562248
  0
LINE
  5
275
100
AcDbEntity
  8
ALL_ASSEMBLY_MEMBERS
100
AcDbLine
 62
7
  6
CONTINUOUS
 10
4.6805885831
 20
4.0663687888
 11
5.8005837771
 21
4.0663687888
  0
LINE
  5
276
100
AcDbEntity
  8
ALL_ASSEMBLY_MEMBERS
100
AcDbLine
 62
7
  6
CONTINUOUS
 10
4.7180861801
 20
4.1163687888
 11
5.7630861801
 21
4.1163687888
  0
LINE
  5
277
100
AcDbEntity
  8
ALL_ASSEMBLY_MEMBERS
100
AcDbLine
 62
7
  6
CONTINUOUS
 10
4.7555861801
 20
4.1538687888
 11
5.7255861801
 21
4.1538687888
  0
LINE
  5
278
100
AcDbEntity
  8
ALL_ASSEMBLY_MEMBERS
100
AcDbLine
 62
7
  6
CONTINUOUS
 10
5.4452680545
 20
3.6785413335
 11
5.4453037724
 21
3.6785029376
  0
LWPOLYLINE
  5
279
100
AcDbEntity
  8
ALL_ASSEMBLY_MEMBERS
100
AcDbPolyline
 62
7
  6
CONTINUOUS
 90
8
 70
0
 10
5.445269359
 20
3.6785399356
 10
5.4447587087
 20
3.6791165899
 10
5.4436726515
 20
3.680548172
 10
5.4426519244
 20
3.6822507531
 10
5.4417679497
 20
3.6842123761
 10
5.4411058837
 20
3.6863415056
 10
5.4407048855
 20
3.6885818432
 10
5.4405865087
 20
3.6905100714
  0
LINE
  5
27A
100
AcDbEntity
  8
ALL_ASSEMBLY_MEMBERS
100
AcDbLine
 62
7
  6
CONTINUOUS
 10
4.6830907928
 20
5.0992315651
 11
4.7105861801
 21
5.0263687888
  0
LINE
  5
27B
100
AcDbEntity
  8
ALL_ASSEMBLY_MEMBERS
100
AcDbLine
 62
7
  6
CONTINUOUS
 10
5.0127427538
 20
3.6539083242
 11
5.0127427538
 21
3.5271760309
  0
LINE
  5
27C
100
AcDbEntity
  8
ALL_ASSEMBLY_MEMBERS
100
AcDbLine
 62
7
  6
CONTINUOUS
 10
5.0405861801
 20
3.7098687888
 11
5.0405861801
 21
3.6906726275
  0
LINE
  5
27D
100
AcDbEntity
  8
ALL_ASSEMBLY_MEMBERS
100
AcDbLine
 62
7
  6
CONTINUOUS
 10
5.0405861801
 20
3.4910510628
 11
5.0405861801
 21
3.4723687888
  0
LINE
  5
27E
100
AcDbEntity
  8
ALL_ASSEMBLY_MEMBERS
100
AcDbLine
 62
7
  6
CONTINUOUS
 10
5.0412573037
 20
3.6889473668
 11
5.0412573037
 21
3.4930884749
  0
LINE
  5
27F
100
AcDbEntity
  8
ALL_ASSEMBLY_MEMBERS
100
AcDbLine
 62
7
  6
CONTINUOUS
 10
5.0843361801
 20
3.8663687888
 11
5.0843361801
 21
3.7198687888
  0
LINE
  5
280
100
AcDbEntity
  8
ALL_ASSEMBLY_MEMBERS
100
AcDbLine
 62
7
  6
CONTINUOUS
 10
5.1048221711
 20
3.6548269924
 11
5.1048221711
 21
3.5095668248
  0
LINE
  5
281
100
AcDbEntity
  8
ALL_ASSEMBLY_MEMBERS
100
AcDbLine
 62
7
  6
CONTINUOUS
 10
5.1093361801
 20
3.4248687888
 11
5.1093361801
 21
3.4098687888
  0
LINE
  5
282
100
AcDbEntity
  8
ALL_ASSEMBLY_MEMBERS
100
AcDbLine
 62
7
  6
CONTINUOUS
 10
5.1248221711
 20
3.6548268354
 11
5.1248221711
 21
3.5095668587
  0
LINE
  5
283
100
AcDbEntity
  8
ALL_ASSEMBLY_MEMBERS
100
AcDbLine
 62
7
  6
CONTINUOUS
 10
5.1267443205
 20
3.6751484012
 11
5.1267443205
 21
3.6889494679
  0
LWPOLYLINE
  5
284
100
AcDbEntity
  8
ALL_ASSEMBLY_MEMBERS
100
AcDbPolyline
 62
7
  6
CONTINUOUS
 90
8
 70
0
 10
5.0405859529
 20
3.6905083513
 10
5.0404675043
 20
3.6885810014
 10
5.0400663182
 20
3.6863403418
 10
5.0394039381
 20
3.6842108356
 10
5.038519524
 20
3.6822488497
 10
5.0374983143
 20
3.6805460403
 10
5.0364117977
 20
3.6791143812
 10
5.0359083632
 20
3.678545725
  0
LINE
  5
285
100
AcDbEntity
  8
ALL_ASSEMBLY_MEMBERS
100
AcDbLine
 62
7
  6
CONTINUOUS
 10
5.2019435053
 20
4.7035881747
 11
5.200568279
 21
4.6981161481
  0
LINE
  5
286
100
AcDbEntity
  8
ALL_ASSEMBLY_MEMBERS
100
AcDbLine
 62
7
  6
CONTINUOUS
 10
5.2046939557
 20
4.7108842033
 11
5.2019435053
 21
4.7035881747
  0
LINE
  5
287
100
AcDbEntity
  8
ALL_ASSEMBLY_MEMBERS
100
AcDbLine
 62
7
  6
CONTINUOUS
 10
5.2129453091
 20
4.7090601962
 11
5.2074444081
 21
4.6981161481
  0
LINE
  5
288
100
AcDbEntity
  8
ALL_ASSEMBLY_MEMBERS
100
AcDbLine
 62
7
  6
CONTINUOUS
 10
5.2404498176
 20
4.6634600096
 11
5.2349489167
 21
4.6525159654
  0
LINE
  5
289
100
AcDbEntity
  8
ALL_ASSEMBLY_MEMBERS
100
AcDbLine
 62
7
  6
CONTINUOUS
 10
5.273455231
 20
4.7090601962
 11
5.267954334
 21
4.6981161481
  0
LINE
  5
28A
100
AcDbEntity
  8
ALL_ASSEMBLY_MEMBERS
100
AcDbLine
 62
7
  6
CONTINUOUS
 10
5.1799398957
 20
4.7236522534
 11
5.1716885423
 21
4.7108842033
  0
LINE
  5
28B
100
AcDbEntity
  8
ALL_ASSEMBLY_MEMBERS
100
AcDbLine
 62
7
  6
CONTINUOUS
 10
5.1799398957
 20
4.7090601962
 11
5.1716885423
 21
4.696292141
  0
LINE
  5
28C
100
AcDbEntity
  8
ALL_ASSEMBLY_MEMBERS
100
AcDbLine
 62
7
  6
CONTINUOUS
 10
5.2088196324
 20
4.7163562248
 11
5.2046939557
 21
4.7108842033
  0
LINE
  5
28D
100
AcDbEntity
  8
ALL_ASSEMBLY_MEMBERS
100
AcDbLine
 62
7
  6
CONTINUOUS
 10
5.2693295543
 20
4.7163562248
 11
5.2652038776
 21
4.7108842033
  0
LINE
  5
28E
100
AcDbEntity
  8
ALL_ASSEMBLY_MEMBERS
100
AcDbLine
 62
7
  6
CONTINUOUS
 10
5.243200274
 20
4.6506919583
 11
5.2390745973
 21
4.6452199362
  0
LINE
  5
28F
100
AcDbEntity
  8
ALL_ASSEMBLY_MEMBERS
100
AcDbLine
 62
7
  6
CONTINUOUS
 10
4.7180861801
 20
4.1163687888
 11
4.7555861801
 21
4.1538687888
  0
LINE
  5
290
100
AcDbEntity
  8
ALL_ASSEMBLY_MEMBERS
100
AcDbLine
 62
7
  6
CONTINUOUS
 10
5.2775809077
 20
4.7127082105
 11
5.273455231
 21
4.7090601962
  0
LINE
  5
291
100
AcDbEntity
  8
ALL_ASSEMBLY_MEMBERS
100
AcDbLine
 62
7
  6
CONTINUOUS
 10
5.2349489167
 20
4.6525159654
 11
5.23082324
 21
4.6488679511
  0
LINE
  5
292
100
AcDbEntity
  8
ALL_ASSEMBLY_MEMBERS
100
AcDbLine
 62
7
  6
CONTINUOUS
 10
5.2954588425
 20
4.6525159654
 11
5.2913331659
 21
4.6488679511
  0
LINE
  5
293
100
AcDbEntity
  8
ALL_ASSEMBLY_MEMBERS
100
AcDbLine
 62
7
  6
CONTINUOUS
 10
5.2762056873
 20
4.7218282462
 11
5.2693295543
 21
4.7163562248
  0
LINE
  5
294
100
AcDbEntity
  8
ALL_ASSEMBLY_MEMBERS
100
AcDbLine
 62
7
  6
CONTINUOUS
 10
5.2390745973
 20
4.6452199362
 11
5.2321984682
 21
4.6397479142
  0
LINE
  5
295
100
AcDbEntity
  8
ALL_ASSEMBLY_MEMBERS
100
AcDbLine
 62
7
  6
CONTINUOUS
 10
5.2995845192
 20
4.6452199362
 11
5.292708394
 21
4.6397479142
  0
LINE
  5
296
100
AcDbEntity
  8
ALL_ASSEMBLY_MEMBERS
100
AcDbLine
 62
7
  6
CONTINUOUS
 10
5.1716885423
 20
4.7108842033
 11
5.1716885423
 21
4.696292141
  0
LINE
  5
297
100
AcDbEntity
  8
ALL_ASSEMBLY_MEMBERS
100
AcDbLine
 62
7
  6
CONTINUOUS
 10
5.1799398957
 20
4.7090601962
 11
5.1799398957
 21
4.6379239069
  0
LINE
  5
298
100
AcDbEntity
  8
ALL_ASSEMBLY_MEMBERS
100
AcDbLine
 62
7
  6
CONTINUOUS
 10
5.188191249
 20
4.7236522534
 11
5.188191249
 21
4.6379239069
  0
LINE
  5
299
100
AcDbEntity
  8
ALL_ASSEMBLY_MEMBERS
100
AcDbLine
 62
7
  6
CONTINUOUS
 10
5.1991930528
 20
4.6889961124
 11
5.1991930528
 21
4.672580048
  0
LINE
  5
29A
100
AcDbEntity
  8
ALL_ASSEMBLY_MEMBERS
100
AcDbLine
 62
7
  6
CONTINUOUS
 10
5.20606918
 20
4.6871721052
 11
5.20606918
 21
4.6744040551
  0
LINE
  5
29B
100
AcDbEntity
  8
ALL_ASSEMBLY_MEMBERS
100
AcDbLine
 62
7
  6
CONTINUOUS
 10
5.2110861801
 20
4.314316999
 11
5.2110861801
 21
4.3087889925
  0
LINE
  5
29C
100
AcDbEntity
  8
ALL_ASSEMBLY_MEMBERS
100
AcDbLine
 62
7
  6
CONTINUOUS
 10
5.2305866955
 20
4.8833687888
 11
5.2305866955
 21
4.8033687888
  0
LINE
  5
29D
100
AcDbEntity
  8
ALL_ASSEMBLY_MEMBERS
100
AcDbLine
 62
7
  6
CONTINUOUS
 10
5.2418250458
 20
4.6871721052
 11
5.2418250458
 21
4.6744040551
  0
LINE
  5
29E
100
AcDbEntity
  8
ALL_ASSEMBLY_MEMBERS
100
AcDbLine
 62
7
  6
CONTINUOUS
 10
5.2487011709
 20
4.6889961124
 11
5.2487011709
 21
4.672580048
  0
LINE
  5
29F
100
AcDbEntity
  8
ALL_ASSEMBLY_MEMBERS
100
AcDbLine
 62
7
  6
CONTINUOUS
 10
5.2505856648
 20
4.8833687888
 11
5.2505856648
 21
4.8033687888
  0
LINE
  5
2A0
100
AcDbEntity
  8
ALL_ASSEMBLY_MEMBERS
100
AcDbLine
 62
7
  6
CONTINUOUS
 10
5.1248221712
 20
3.5095668248
 11
5.1224046788
 21
3.4897136986
  0
LWPOLYLINE
  5
2A1
100
AcDbEntity
  8
ALL_ASSEMBLY_MEMBERS
100
AcDbPolyline
 62
7
  6
CONTINUOUS
 90
5
 70
0
 10
5.1231803593
 20
3.4960010361
 10
5.1225054715
 20
3.4904932598
 10
5.1224448187
 20
3.4900123692
 10
5.1224114245
 20
3.4897570711
 10
5.1224046599
 20
3.4897134715
  0
LINE
  5
2A2
100
AcDbEntity
  8
ALL_ASSEMBLY_MEMBERS
100
AcDbLine
 62
7
  6
CONTINUOUS
 10
5.2074444081
 20
4.6981161481
 11
5.20606918
 21
4.6871721052
  0
LINE
  5
2A3
100
AcDbEntity
  8
ALL_ASSEMBLY_MEMBERS
100
AcDbLine
 62
7
  6
CONTINUOUS
 10
5.2418250458
 20
4.6744040551
 11
5.2404498176
 21
4.6634600096
  0
LINE
  5
2A4
100
AcDbEntity
  8
ALL_ASSEMBLY_MEMBERS
100
AcDbLine
 62
7
  6
CONTINUOUS
 10
5.267954334
 20
4.6981161481
 11
5.2665791058
 21
4.6871721052
  0
LINE
  5
2A5
100
AcDbEntity
  8
ALL_ASSEMBLY_MEMBERS
100
AcDbLine
 62
7
  6
CONTINUOUS
 10
5.200568279
 20
4.6981161481
 11
5.1991930528
 21
4.6889961124
  0
LINE
  5
2A6
100
AcDbEntity
  8
ALL_ASSEMBLY_MEMBERS
100
AcDbLine
 62
7
  6
CONTINUOUS
 10
5.2487011709
 20
4.672580048
 11
5.2473259506
 21
4.6634600096
  0
LINE
  5
2A7
100
AcDbEntity
  8
ALL_ASSEMBLY_MEMBERS
100
AcDbLine
 62
7
  6
CONTINUOUS
 10
5.261078201
 20
4.6981161481
 11
5.2597029806
 21
4.6889961124
  0
LINE
  5
2A8
100
AcDbEntity
  8
ALL_ASSEMBLY_MEMBERS
100
AcDbLine
 62
7
  6
CONTINUOUS
 10
5.2473259506
 20
4.6634600096
 11
5.2459507224
 21
4.6579879882
  0
LINE
  5
2A9
100
AcDbEntity
  8
ALL_ASSEMBLY_MEMBERS
100
AcDbLine
 62
7
  6
CONTINUOUS
 10
5.2624534291
 20
4.7035881747
 11
5.261078201
 21
4.6981161481
  0
LINE
  5
2AA
100
AcDbEntity
  8
ALL_ASSEMBLY_MEMBERS
100
AcDbLine
 62
7
  6
CONTINUOUS
 10
5.3078358725
 20
4.6634600096
 11
5.3064606522
 21
4.6579879882
  0
LINE
  5
2AB
100
AcDbEntity
  8
ALL_ASSEMBLY_MEMBERS
100
AcDbLine
 62
7
  6
CONTINUOUS
 10
5.2652038776
 20
4.7108842033
 11
5.2624534291
 21
4.7035881747
  0
LINE
  5
2AC
100
AcDbEntity
  8
ALL_ASSEMBLY_MEMBERS
100
AcDbLine
 62
7
  6
CONTINUOUS
 10
5.2459507224
 20
4.6579879882
 11
5.243200274
 21
4.6506919583
  0
LINE
  5
2AD
100
AcDbEntity
  8
ALL_ASSEMBLY_MEMBERS
100
AcDbLine
 62
7
  6
CONTINUOUS
 10
5.3064606522
 20
4.6579879882
 11
5.3037101959
 21
4.6506919583
  0
LINE
  5
2AE
100
AcDbEntity
  8
ALL_ASSEMBLY_MEMBERS
100
AcDbLine
 62
7
  6
CONTINUOUS
 10
5.3009597474
 20
4.6634600096
 11
5.2954588425
 21
4.6525159654
  0
LINE
  5
2AF
100
AcDbEntity
  8
ALL_ASSEMBLY_MEMBERS
100
AcDbLine
 62
7
  6
CONTINUOUS
 10
5.3037101959
 20
4.6506919583
 11
5.2995845192
 21
4.6452199362
  0
LINE
  5
2B0
100
AcDbEntity
  8
ALL_ASSEMBLY_MEMBERS
100
AcDbLine
 62
7
  6
CONTINUOUS
 10
5.2146429203
 20
4.3158687888
 11
5.26652944
 21
4.3158687888
  0
LINE
  5
2B1
100
AcDbEntity
  8
ALL_ASSEMBLY_MEMBERS
100
AcDbLine
 62
7
  6
CONTINUOUS
 10
5.200568279
 20
4.6634600096
 11
5.1991930528
 21
4.672580048
  0
LINE
  5
2B2
100
AcDbEntity
  8
ALL_ASSEMBLY_MEMBERS
100
AcDbLine
 62
7
  6
CONTINUOUS
 10
5.2074444081
 20
4.6634600096
 11
5.20606918
 21
4.6744040551
  0
LINE
  5
2B3
100
AcDbEntity
  8
ALL_ASSEMBLY_MEMBERS
100
AcDbLine
 62
7
  6
CONTINUOUS
 10
5.2597029806
 20
4.6889961124
 11
5.2597029806
 21
4.672580048
  0
LINE
  5
2B4
100
AcDbEntity
  8
ALL_ASSEMBLY_MEMBERS
100
AcDbLine
 62
7
  6
CONTINUOUS
 10
5.2665791058
 20
4.6871721052
 11
5.2665791058
 21
4.6744040551
  0
LINE
  5
2B5
100
AcDbEntity
  8
ALL_ASSEMBLY_MEMBERS
100
AcDbLine
 62
7
  6
CONTINUOUS
 10
5.2700861801
 20
4.314316999
 11
5.2700861801
 21
4.3087889925
  0
LINE
  5
2B6
100
AcDbEntity
  8
ALL_ASSEMBLY_MEMBERS
100
AcDbLine
 62
7
  6
CONTINUOUS
 10
5.3023349677
 20
4.6871721052
 11
5.3023349677
 21
4.6744040551
  0
LINE
  5
2B7
100
AcDbEntity
  8
ALL_ASSEMBLY_MEMBERS
100
AcDbLine
 62
7
  6
CONTINUOUS
 10
5.3092110929
 20
4.6889961124
 11
5.3092110929
 21
4.672580048
  0
LINE
  5
2B8
100
AcDbEntity
  8
ALL_ASSEMBLY_MEMBERS
100
AcDbLine
 62
7
  6
CONTINUOUS
 10
5.3544280398
 20
3.688949788
 11
5.3544280398
 21
3.675148384
  0
LINE
  5
2B9
100
AcDbEntity
  8
ALL_ASSEMBLY_MEMBERS
100
AcDbLine
 62
7
  6
CONTINUOUS
 10
5.3563501892
 20
3.5095665943
 11
5.3563501892
 21
3.6548274416
  0
LINE
  5
2BA
100
AcDbEntity
  8
ALL_ASSEMBLY_MEMBERS
100
AcDbLine
 62
7
  6
CONTINUOUS
 10
5.3718361801
 20
3.4248687888
 11
5.3718361801
 21
3.4098687888
  0
LINE
  5
2BB
100
AcDbEntity
  8
ALL_ASSEMBLY_MEMBERS
100
AcDbLine
 62
7
  6
CONTINUOUS
 10
5.3763501892
 20
3.5095668248
 11
5.3763501892
 21
3.6548269924
  0
LINE
  5
2BC
100
AcDbEntity
  8
ALL_ASSEMBLY_MEMBERS
100
AcDbLine
 62
7
  6
CONTINUOUS
 10
5.3023349677
 20
4.6744040551
 11
5.3009597474
 21
4.6634600096
  0
LINE
  5
2BD
100
AcDbEntity
  8
ALL_ASSEMBLY_MEMBERS
100
AcDbLine
 62
7
  6
CONTINUOUS
 10
5.3092110929
 20
4.672580048
 11
5.3078358725
 21
4.6634600096
  0
LINE
  5
2BE
100
AcDbEntity
  8
ALL_ASSEMBLY_MEMBERS
100
AcDbLine
 62
7
  6
CONTINUOUS
 10
5.2088196324
 20
4.6452199362
 11
5.2046939557
 21
4.6506919583
  0
LINE
  5
2BF
100
AcDbEntity
  8
ALL_ASSEMBLY_MEMBERS
100
AcDbLine
 62
7
  6
CONTINUOUS
 10
5.2129453091
 20
4.6525159654
 11
5.2074444081
 21
4.6634600096
  0
LINE
  5
2C0
100
AcDbEntity
  8
ALL_ASSEMBLY_MEMBERS
100
AcDbLine
 62
7
  6
CONTINUOUS
 10
5.2404498176
 20
4.6981161481
 11
5.2349489167
 21
4.7090601962
  0
LINE
  5
2C1
100
AcDbEntity
  8
ALL_ASSEMBLY_MEMBERS
100
AcDbLine
 62
7
  6
CONTINUOUS
 10
5.2046939557
 20
4.6506919583
 11
5.2019435053
 21
4.6579879882
  0
LINE
  5
2C2
100
AcDbEntity
  8
ALL_ASSEMBLY_MEMBERS
100
AcDbLine
 62
7
  6
CONTINUOUS
 10
5.2652038776
 20
4.6506919583
 11
5.2624534291
 21
4.6579879882
  0
LINE
  5
2C3
100
AcDbEntity
  8
ALL_ASSEMBLY_MEMBERS
100
AcDbLine
 62
7
  6
CONTINUOUS
 10
5.2459507224
 20
4.7035881747
 11
5.243200274
 21
4.7108842033
  0
LINE
  5
2C4
100
AcDbEntity
  8
ALL_ASSEMBLY_MEMBERS
100
AcDbLine
 62
7
  6
CONTINUOUS
 10
5.2019435053
 20
4.6579879882
 11
5.200568279
 21
4.6634600096
  0
LINE
  5
2C5
100
AcDbEntity
  8
ALL_ASSEMBLY_MEMBERS
100
AcDbLine
 62
7
  6
CONTINUOUS
 10
5.2473259506
 20
4.6981161481
 11
5.2459507224
 21
4.7035881747
  0
LINE
  5
2C6
100
AcDbEntity
  8
ALL_ASSEMBLY_MEMBERS
100
AcDbLine
 62
7
  6
CONTINUOUS
 10
5.2624534291
 20
4.6579879882
 11
5.261078201
 21
4.6634600096
  0
LINE
  5
2C7
100
AcDbEntity
  8
ALL_ASSEMBLY_MEMBERS
100
AcDbLine
 62
7
  6
CONTINUOUS
 10
5.3078358725
 20
4.6981161481
 11
5.3064606522
 21
4.7035881747
  0
LINE
  5
2C8
100
AcDbEntity
  8
ALL_ASSEMBLY_MEMBERS
100
AcDbLine
 62
7
  6
CONTINUOUS
 10
5.2487011709
 20
4.6889961124
 11
5.2473259506
 21
4.6981161481
  0
LINE
  5
2C9
100
AcDbEntity
  8
ALL_ASSEMBLY_MEMBERS
100
AcDbLine
 62
7
  6
CONTINUOUS
 10
5.261078201
 20
4.6634600096
 11
5.2597029806
 21
4.672580048
  0
LINE
  5
2CA
100
AcDbEntity
  8
ALL_ASSEMBLY_MEMBERS
100
AcDbLine
 62
7
  6
CONTINUOUS
 10
5.3092110929
 20
4.6889961124
 11
5.3078358725
 21
4.6981161481
  0
LINE
  5
2CB
100
AcDbEntity
  8
ALL_ASSEMBLY_MEMBERS
100
AcDbLine
 62
7
  6
CONTINUOUS
 10
5.2418250458
 20
4.6871721052
 11
5.2404498176
 21
4.6981161481
  0
LINE
  5
2CC
100
AcDbEntity
  8
ALL_ASSEMBLY_MEMBERS
100
AcDbLine
 62
7
  6
CONTINUOUS
 10
5.267954334
 20
4.6634600096
 11
5.2665791058
 21
4.6744040551
  0
LINE
  5
2CD
100
AcDbEntity
  8
ALL_ASSEMBLY_MEMBERS
100
AcDbLine
 62
7
  6
CONTINUOUS
 10
5.3023349677
 20
4.6871721052
 11
5.3009597474
 21
4.6981161481
  0
LINE
  5
2CE
100
AcDbEntity
  8
ALL_ASSEMBLY_MEMBERS
100
AcDbLine
 62
7
  6
CONTINUOUS
 10
5.3968361801
 20
3.8663687888
 11
5.3968361801
 21
3.7198687888
  0
LINE
  5
2CF
100
AcDbEntity
  8
ALL_ASSEMBLY_MEMBERS
100
AcDbLine
 62
7
  6
CONTINUOUS
 10
5.4399150565
 20
3.4930889916
 11
5.4399150565
 21
3.6889470757
  0
LINE
  5
2D0
100
AcDbEntity
  8
ALL_ASSEMBLY_MEMBERS
100
AcDbLine
 62
7
  6
CONTINUOUS
 10
5.4405861801
 20
3.7098687888
 11
5.4405861801
 21
3.6906715309
  0
LINE
  5
2D1
100
AcDbEntity
  8
ALL_ASSEMBLY_MEMBERS
100
AcDbLine
 62
7
  6
CONTINUOUS
 10
5.4405861801
 20
3.4910545399
 11
5.4405861801
 21
3.4723687888
  0
LINE
  5
2D2
100
AcDbEntity
  8
ALL_ASSEMBLY_MEMBERS
100
AcDbLine
 62
7
  6
CONTINUOUS
 10
5.4684296064
 20
3.5271760309
 11
5.4684296064
 21
3.6539083242
  0
LINE
  5
2D3
100
AcDbEntity
  8
ALL_ASSEMBLY_MEMBERS
100
AcDbLine
 62
7
  6
CONTINUOUS
 10
5.5066339628
 20
4.7265065841
 11
5.5066339628
 21
4.6379239069
  0
LINE
  5
2D4
100
AcDbEntity
  8
ALL_ASSEMBLY_MEMBERS
100
AcDbLine
 62
7
  6
CONTINUOUS
 10
5.508049205
 20
4.7265065841
 11
5.508049205
 21
4.6379239069
  0
LINE
  5
2D5
100
AcDbEntity
  8
ALL_ASSEMBLY_MEMBERS
100
AcDbLine
 62
7
  6
CONTINUOUS
 10
5.2913331659
 20
4.6488679511
 11
5.2844570407
 21
4.647043944
  0
LINE
  5
2D6
100
AcDbEntity
  8
ALL_ASSEMBLY_MEMBERS
100
AcDbLine
 62
7
  6
CONTINUOUS
 10
5.23082324
 20
4.6488679511
 11
5.2239471148
 21
4.647043944
  0
LINE
  5
2D7
100
AcDbEntity
  8
ALL_ASSEMBLY_MEMBERS
100
AcDbLine
 62
7
  6
CONTINUOUS
 10
5.292708394
 20
4.6397479142
 11
5.2844570407
 21
4.6379239069
  0
LINE
  5
2D8
100
AcDbEntity
  8
ALL_ASSEMBLY_MEMBERS
100
AcDbLine
 62
7
  6
CONTINUOUS
 10
5.2321984682
 20
4.6397479142
 11
5.2239471148
 21
4.6379239069
  0
LINE
  5
2D9
100
AcDbEntity
  8
ALL_ASSEMBLY_MEMBERS
100
AcDbLine
 62
7
  6
CONTINUOUS
 10
4.755589011
 20
4.5788687888
 11
5.7255833492
 21
4.5788687888
  0
LINE
  5
2DA
100
AcDbEntity
  8
ALL_ASSEMBLY_MEMBERS
100
AcDbLine
 62
7
  6
CONTINUOUS
 10
5.7253361801
 20
4.6379239069
 11
5.7226998816
 21
4.6379239069
  0
LINE
  5
2DB
100
AcDbEntity
  8
ALL_ASSEMBLY_MEMBERS
100
AcDbLine
 62
7
  6
CONTINUOUS
 10
5.7082424199
 20
4.6379239069
 11
5.7029777893
 21
4.6379239069
  0
LINE
  5
2DC
100
AcDbEntity
  8
ALL_ASSEMBLY_MEMBERS
100
AcDbLine
 62
7
  6
CONTINUOUS
 10
5.6919512802
 20
4.6379239069
 11
5.6856103521
 21
4.6379239069
  0
LINE
  5
2DD
100
AcDbEntity
  8
ALL_ASSEMBLY_MEMBERS
100
AcDbLine
 62
7
  6
CONTINUOUS
 10
5.6776790334
 20
4.6379239069
 11
5.6705752261
 21
4.6379239069
  0
LINE
  5
2DE
100
AcDbEntity
  8
ALL_ASSEMBLY_MEMBERS
100
AcDbLine
 62
7
  6
CONTINUOUS
 10
5.5290117573
 20
4.6379239069
 11
5.5066339628
 21
4.6379239069
  0
LINE
  5
2DF
100
AcDbEntity
  8
ALL_ASSEMBLY_MEMBERS
100
AcDbLine
 62
7
  6
CONTINUOUS
 10
5.188191249
 20
4.6379239069
 11
5.1799398957
 21
4.6379239069
  0
LINE
  5
2E0
100
AcDbEntity
  8
ALL_ASSEMBLY_MEMBERS
100
AcDbLine
 62
7
  6
CONTINUOUS
 10
4.7560050791
 20
4.6379239069
 11
4.7584724787
 21
4.6379239069
  0
LINE
  5
2E1
100
AcDbEntity
  8
ALL_ASSEMBLY_MEMBERS
100
AcDbLine
 62
7
  6
CONTINUOUS
 10
4.7754768513
 20
4.6379239069
 11
4.7799382063
 21
4.6379239069
  0
LINE
  5
2E2
100
AcDbEntity
  8
ALL_ASSEMBLY_MEMBERS
100
AcDbLine
 62
7
  6
CONTINUOUS
 10
4.7936415952
 20
4.6379239069
 11
4.798883439
 21
4.6379239069
  0
LINE
  5
2E3
100
AcDbEntity
  8
ALL_ASSEMBLY_MEMBERS
100
AcDbLine
 62
7
  6
CONTINUOUS
 10
4.9521606029
 20
4.6379239069
 11
4.9745383975
 21
4.6379239069
  0
LINE
  5
2E4
100
AcDbEntity
  8
ALL_ASSEMBLY_MEMBERS
100
AcDbLine
 62
7
  6
CONTINUOUS
 10
5.7026766676
 20
4.6397479142
 11
5.7003568163
 21
4.6397479142
  0
LINE
  5
2E5
100
AcDbEntity
  8
ALL_ASSEMBLY_MEMBERS
100
AcDbLine
 62
7
  6
CONTINUOUS
 10
4.7794830285
 20
4.6397479142
 11
4.7818022767
 21
4.6397479142
  0
LINE
  5
2E6
100
AcDbEntity
  8
ALL_ASSEMBLY_MEMBERS
100
AcDbLine
 62
7
  6
CONTINUOUS
 10
4.7990751188
 20
4.6397479142
 11
4.8013997391
 21
4.6397479142
  0
LINE
  5
2E7
100
AcDbEntity
  8
ALL_ASSEMBLY_MEMBERS
100
AcDbLine
 62
7
  6
CONTINUOUS
 10
5.6998984744
 20
4.6452199362
 11
5.6975800366
 21
4.6452199362
  0
LINE
  5
2E8
100
AcDbEntity
  8
ALL_ASSEMBLY_MEMBERS
100
AcDbLine
 62
7
  6
CONTINUOUS
 10
4.7814220791
 20
4.6452199362
 11
4.7837404654
 21
4.6452199362
  0
LINE
  5
2E9
100
AcDbEntity
  8
ALL_ASSEMBLY_MEMBERS
100
AcDbLine
 62
7
  6
CONTINUOUS
 10
4.8016635772
 20
4.6452199362
 11
4.8039906749
 21
4.6452199362
  0
LINE
  5
2EA
100
AcDbEntity
  8
ALL_ASSEMBLY_MEMBERS
100
AcDbLine
 62
7
  6
CONTINUOUS
 10
5.7082424199
 20
4.647043944
 11
5.7052998514
 21
4.647043944
  0
LINE
  5
2EB
100
AcDbEntity
  8
ALL_ASSEMBLY_MEMBERS
100
AcDbLine
 62
7
  6
CONTINUOUS
 10
4.7965609094
 20
4.647043944
 11
4.7936415952
 21
4.647043944
  0
LINE
  5
2EC
100
AcDbEntity
  8
ALL_ASSEMBLY_MEMBERS
100
AcDbLine
 62
7
  6
CONTINUOUS
 10
4.7772535139
 20
4.647043944
 11
4.7758262659
 21
4.647043944
  0
LINE
  5
2ED
100
AcDbEntity
  8
ALL_ASSEMBLY_MEMBERS
100
AcDbLine
 62
7
  6
CONTINUOUS
 10
5.7100792478
 20
4.6488679511
 11
5.707750343
 21
4.6488679511
  0
LINE
  5
2EE
100
AcDbEntity
  8
ALL_ASSEMBLY_MEMBERS
100
AcDbLine
 62
7
  6
CONTINUOUS
 10
4.7744463848
 20
4.6488679511
 11
4.7767700667
 21
4.6488679511
  0
LINE
  5
2EF
100
AcDbEntity
  8
ALL_ASSEMBLY_MEMBERS
100
AcDbLine
 62
7
  6
CONTINUOUS
 10
4.7917544923
 20
4.6488679511
 11
4.794073988
 21
4.6488679511
  0
LINE
  5
2F0
100
AcDbEntity
  8
ALL_ASSEMBLY_MEMBERS
100
AcDbLine
 62
7
  6
CONTINUOUS
 10
4.7826208701
 20
4.6506919583
 11
4.7849389204
 21
4.6506919583
  0
LINE
  5
2F1
100
AcDbEntity
  8
ALL_ASSEMBLY_MEMBERS
100
AcDbLine
 62
7
  6
CONTINUOUS
 10
5.7113910299
 20
4.6525159654
 11
5.709059433
 21
4.6525159654
  0
LINE
  5
2F2
100
AcDbEntity
  8
ALL_ASSEMBLY_MEMBERS
100
AcDbLine
 62
7
  6
CONTINUOUS
 10
5.6981572757
 20
4.6525159654
 11
5.6958393052
 21
4.6525159654
  0
LINE
  5
2F3
100
AcDbEntity
  8
ALL_ASSEMBLY_MEMBERS
100
AcDbLine
 62
7
  6
CONTINUOUS
 10
4.7731139672
 20
4.6525159654
 11
4.7754394678
 21
4.6525159654
  0
LINE
  5
2F4
100
AcDbEntity
  8
ALL_ASSEMBLY_MEMBERS
100
AcDbLine
 62
7
  6
CONTINUOUS
 10
4.7903701471
 20
4.6525159654
 11
4.792689029
 21
4.6525159654
  0
LINE
  5
2F5
100
AcDbEntity
  8
ALL_ASSEMBLY_MEMBERS
100
AcDbLine
 62
7
  6
CONTINUOUS
 10
4.8032523905
 20
4.6525159654
 11
4.8055811616
 21
4.6525159654
  0
LINE
  5
2F6
100
AcDbEntity
  8
ALL_ASSEMBLY_MEMBERS
100
AcDbLine
 62
7
  6
CONTINUOUS
 10
5.7122340942
 20
4.6579879882
 11
5.7099005359
 21
4.6579879882
  0
LINE
  5
2F7
100
AcDbEntity
  8
ALL_ASSEMBLY_MEMBERS
100
AcDbLine
 62
7
  6
CONTINUOUS
 10
5.7004664979
 20
4.6598119953
 11
5.6946477318
 21
4.6598119953
  0
LINE
  5
2F8
100
AcDbEntity
  8
ALL_ASSEMBLY_MEMBERS
100
AcDbLine
 62
7
  6
CONTINUOUS
 10
4.7721458679
 20
4.6598119953
 11
4.7744728953
 21
4.6598119953
  0
LINE
  5
2F9
100
AcDbEntity
  8
ALL_ASSEMBLY_MEMBERS
100
AcDbLine
 62
7
  6
CONTINUOUS
 10
4.78343479
 20
4.6598119953
 11
4.7857526917
 21
4.6598119953
  0
LINE
  5
2FA
100
AcDbEntity
  8
ALL_ASSEMBLY_MEMBERS
100
AcDbLine
 62
7
  6
CONTINUOUS
 10
4.7868082368
 20
4.6598119953
 11
4.7917805389
 21
4.6598119953
  0
LINE
  5
2FB
100
AcDbEntity
  8
ALL_ASSEMBLY_MEMBERS
100
AcDbLine
 62
7
  6
CONTINUOUS
 10
4.8043265239
 20
4.6616360025
 11
4.8066564891
 21
4.6616360025
  0
LINE
  5
2FC
100
AcDbEntity
  8
ALL_ASSEMBLY_MEMBERS
100
AcDbLine
 62
7
  6
CONTINUOUS
 10
5.712646163
 20
4.6634600096
 11
5.7103115737
 21
4.6634600096
  0
LINE
  5
2FD
100
AcDbEntity
  8
ALL_ASSEMBLY_MEMBERS
100
AcDbLine
 62
7
  6
CONTINUOUS
 10
5.2239471148
 20
4.6379239069
 11
5.2156957615
 21
4.6397479142
  0
LINE
  5
2FE
100
AcDbEntity
  8
ALL_ASSEMBLY_MEMBERS
100
AcDbLine
 62
7
  6
CONTINUOUS
 10
5.2844570407
 20
4.6379239069
 11
5.2762056873
 21
4.6397479142
  0
LINE
  5
2FF
100
AcDbEntity
  8
ALL_ASSEMBLY_MEMBERS
100
AcDbLine
 62
7
  6
CONTINUOUS
 10
5.2239471148
 20
4.647043944
 11
5.2170709857
 21
4.6488679511
  0
LINE
  5
300
100
AcDbEntity
  8
ALL_ASSEMBLY_MEMBERS
100
AcDbLine
 62
7
  6
CONTINUOUS
 10
5.2844570407
 20
4.647043944
 11
5.2775809077
 21
4.6488679511
  0
LINE
  5
301
100
AcDbEntity
  8
ALL_ASSEMBLY_MEMBERS
100
AcDbLine
 62
7
  6
CONTINUOUS
 10
5.2156957615
 20
4.6397479142
 11
5.2088196324
 21
4.6452199362
  0
LINE
  5
302
100
AcDbEntity
  8
ALL_ASSEMBLY_MEMBERS
100
AcDbLine
 62
7
  6
CONTINUOUS
 10
5.2762056873
 20
4.6397479142
 11
5.2693295543
 21
4.6452199362
  0
LINE
  5
303
100
AcDbEntity
  8
ALL_ASSEMBLY_MEMBERS
100
AcDbLine
 62
7
  6
CONTINUOUS
 10
5.2390745973
 20
4.7163562248
 11
5.2321984682
 21
4.7218282462
  0
LINE
  5
304
100
AcDbEntity
  8
ALL_ASSEMBLY_MEMBERS
100
AcDbLine
 62
7
  6
CONTINUOUS
 10
5.2170709857
 20
4.6488679511
 11
5.2129453091
 21
4.6525159654
  0
LINE
  5
305
100
AcDbEntity
  8
ALL_ASSEMBLY_MEMBERS
100
AcDbLine
 62
7
  6
CONTINUOUS
 10
5.2775809077
 20
4.6488679511
 11
5.273455231
 21
4.6525159654
  0
LINE
  5
306
100
AcDbEntity
  8
ALL_ASSEMBLY_MEMBERS
100
AcDbLine
 62
7
  6
CONTINUOUS
 10
5.2349489167
 20
4.7090601962
 11
5.23082324
 21
4.7127082105
  0
LINE
  5
307
100
AcDbEntity
  8
ALL_ASSEMBLY_MEMBERS
100
AcDbLine
 62
7
  6
CONTINUOUS
 10
5.7630861801
 20
4.1163687888
 11
5.7255861801
 21
4.1538687888
  0
LINE
  5
308
100
AcDbEntity
  8
ALL_ASSEMBLY_MEMBERS
100
AcDbLine
 62
7
  6
CONTINUOUS
 10
5.2693295543
 20
4.6452199362
 11
5.2652038776
 21
4.6506919583
  0
LINE
  5
309
100
AcDbEntity
  8
ALL_ASSEMBLY_MEMBERS
100
AcDbLine
 62
7
  6
CONTINUOUS
 10
5.243200274
 20
4.7108842033
 11
5.2390745973
 21
4.7163562248
  0
LINE
  5
30A
100
AcDbEntity
  8
ALL_ASSEMBLY_MEMBERS
100
AcDbLine
 62
7
  6
CONTINUOUS
 10
5.3037101959
 20
4.7108842033
 11
5.2995845192
 21
4.7163562248
  0
LINE
  5
30B
100
AcDbEntity
  8
ALL_ASSEMBLY_MEMBERS
100
AcDbLine
 62
7
  6
CONTINUOUS
 10
5.273455231
 20
4.6525159654
 11
5.267954334
 21
4.6634600096
  0
LINE
  5
30C
100
AcDbEntity
  8
ALL_ASSEMBLY_MEMBERS
100
AcDbLine
 62
7
  6
CONTINUOUS
 10
5.3009597474
 20
4.6981161481
 11
5.2954588425
 21
4.7090601962
  0
LINE
  5
30D
100
AcDbEntity
  8
ALL_ASSEMBLY_MEMBERS
100
AcDbLine
 62
7
  6
CONTINUOUS
 10
5.3064606522
 20
4.7035881747
 11
5.3037101959
 21
4.7108842033
  0
LINE
  5
30E
100
AcDbEntity
  8
ALL_ASSEMBLY_MEMBERS
100
AcDbLine
 62
7
  6
CONTINUOUS
 10
5.5290117573
 20
4.7265065841
 11
5.5290117573
 21
4.6379239069
  0
LWPOLYLINE
  5
30F
100
AcDbEntity
  8
ALL_ASSEMBLY_MEMBERS
100
AcDbPolyline
 62
7
  6
CONTINUOUS
 90
11
 70
0
 10
5.4405866802
 20
3.4912360897
 10
5.4407933676
 20
3.4937530847
 10
5.4413105219
 20
3.4960497633
 10
5.4421055174
 20
3.4981949839
 10
5.443121957
 20
3.5001233411
 10
5.4442423652
 20
3.501731166
 10
5.4453664249
 20
3.5030078225
 10
5.4464409674
 20
3.5039997636
 10
5.447392965
 20
3.5047252531
 10
5.4481507334
 20
3.5052081932
 10
5.4486902303
 20
3.5054993981
  0
LINE
  5
310
100
AcDbEntity
  8
ALL_ASSEMBLY_MEMBERS
100
AcDbLine
 62
7
  6
CONTINUOUS
 10
5.7980815674
 20
5.0992315651
 11
5.7705861801
 21
5.0263687888
  0
LINE
  5
311
100
AcDbEntity
  8
ALL_ASSEMBLY_MEMBERS
100
AcDbLine
 62
7
  6
CONTINUOUS
 10
5.0359528667
 20
3.6785939368
 11
5.0359075794
 21
3.6785448768
  0
LINE
  5
312
100
AcDbEntity
  8
ALL_ASSEMBLY_MEMBERS
100
AcDbLine
 62
7
  6
CONTINUOUS
 10
5.2844570407
 20
4.7145322176
 11
5.2775809077
 21
4.7127082105
  0
LINE
  5
313
100
AcDbEntity
  8
ALL_ASSEMBLY_MEMBERS
100
AcDbLine
 62
7
  6
CONTINUOUS
 10
5.2239471148
 20
4.7145322176
 11
5.2170709857
 21
4.7127082105
  0
LINE
  5
314
100
AcDbEntity
  8
ALL_ASSEMBLY_MEMBERS
100
AcDbLine
 62
7
  6
CONTINUOUS
 10
5.2844570407
 20
4.7236522534
 11
5.2762056873
 21
4.7218282462
  0
LINE
  5
315
100
AcDbEntity
  8
ALL_ASSEMBLY_MEMBERS
100
AcDbLine
 62
7
  6
CONTINUOUS
 10
5.2239471148
 20
4.7236522534
 11
5.2156957615
 21
4.7218282462
  0
LINE
  5
316
100
AcDbEntity
  8
ALL_ASSEMBLY_MEMBERS
100
AcDbLine
 62
7
  6
CONTINUOUS
 10
4.7721458679
 20
4.6652840168
 11
4.7744728953
 21
4.6652840168
  0
LINE
  5
317
100
AcDbEntity
  8
ALL_ASSEMBLY_MEMBERS
100
AcDbLine
 62
7
  6
CONTINUOUS
 10
4.78343479
 20
4.6652840168
 11
4.7857526917
 21
4.6652840168
  0
LINE
  5
318
100
AcDbEntity
  8
ALL_ASSEMBLY_MEMBERS
100
AcDbLine
 62
7
  6
CONTINUOUS
 10
5.712646163
 20
4.6671080239
 11
5.7103115737
 21
4.6671080239
  0
LINE
  5
319
100
AcDbEntity
  8
ALL_ASSEMBLY_MEMBERS
100
AcDbLine
 62
7
  6
CONTINUOUS
 10
4.8043265239
 20
4.6689320311
 11
4.8066564891
 21
4.6689320311
  0
LINE
  5
31A
100
AcDbEntity
  8
ALL_ASSEMBLY_MEMBERS
100
AcDbLine
 62
7
  6
CONTINUOUS
 10
5.7122340942
 20
4.672580048
 11
5.7099005359
 21
4.672580048
  0
LINE
  5
31B
100
AcDbEntity
  8
ALL_ASSEMBLY_MEMBERS
100
AcDbLine
 62
7
  6
CONTINUOUS
 10
4.7731139672
 20
4.672580048
 11
4.7754394678
 21
4.672580048
  0
LINE
  5
31C
100
AcDbEntity
  8
ALL_ASSEMBLY_MEMBERS
100
AcDbLine
 62
7
  6
CONTINUOUS
 10
4.7826208701
 20
4.6744040551
 11
4.7849389204
 21
4.6744040551
  0
LINE
  5
31D
100
AcDbEntity
  8
ALL_ASSEMBLY_MEMBERS
100
AcDbLine
 62
7
  6
CONTINUOUS
 10
5.7010283326
 20
4.6762280623
 11
5.6946477318
 21
4.6762280623
  0
LINE
  5
31E
100
AcDbEntity
  8
ALL_ASSEMBLY_MEMBERS
100
AcDbLine
 62
7
  6
CONTINUOUS
 10
4.7744463848
 20
4.6762280623
 11
4.7767700667
 21
4.6762280623
  0
LINE
  5
31F
100
AcDbEntity
  8
ALL_ASSEMBLY_MEMBERS
100
AcDbLine
 62
7
  6
CONTINUOUS
 10
4.7868082368
 20
4.6762280623
 11
4.7922333027
 21
4.6762280623
  0
LINE
  5
320
100
AcDbEntity
  8
ALL_ASSEMBLY_MEMBERS
100
AcDbLine
 62
7
  6
CONTINUOUS
 10
5.7113910299
 20
4.6780520694
 11
5.709059433
 21
4.6780520694
  0
LINE
  5
321
100
AcDbEntity
  8
ALL_ASSEMBLY_MEMBERS
100
AcDbLine
 62
7
  6
CONTINUOUS
 10
4.7772535139
 20
4.6780520694
 11
4.7758262659
 21
4.6780520694
  0
LINE
  5
322
100
AcDbEntity
  8
ALL_ASSEMBLY_MEMBERS
100
AcDbLine
 62
7
  6
CONTINUOUS
 10
4.8032523905
 20
4.6780520694
 11
4.8055811616
 21
4.6780520694
  0
LINE
  5
323
100
AcDbEntity
  8
ALL_ASSEMBLY_MEMBERS
100
AcDbLine
 62
7
  6
CONTINUOUS
 10
4.7810283744
 20
4.6798760766
 11
4.7833469028
 21
4.6798760766
  0
LINE
  5
324
100
AcDbEntity
  8
ALL_ASSEMBLY_MEMBERS
100
AcDbLine
 62
7
  6
CONTINUOUS
 10
5.7100792478
 20
4.6817000837
 11
5.707750343
 21
4.6817000837
  0
LINE
  5
325
100
AcDbEntity
  8
ALL_ASSEMBLY_MEMBERS
100
AcDbLine
 62
7
  6
CONTINUOUS
 10
4.7802498048
 20
4.6817000837
 11
4.7825686629
 21
4.6817000837
  0
LINE
  5
326
100
AcDbEntity
  8
ALL_ASSEMBLY_MEMBERS
100
AcDbLine
 62
7
  6
CONTINUOUS
 10
4.7917544923
 20
4.6817000837
 11
4.794073988
 21
4.6817000837
  0
LINE
  5
327
100
AcDbEntity
  8
ALL_ASSEMBLY_MEMBERS
100
AcDbLine
 62
7
  6
CONTINUOUS
 10
5.7082424199
 20
4.6835240909
 11
5.7052998514
 21
4.6835240909
  0
LINE
  5
328
100
AcDbEntity
  8
ALL_ASSEMBLY_MEMBERS
100
AcDbLine
 62
7
  6
CONTINUOUS
 10
4.7965609094
 20
4.6835240909
 11
4.7936415952
 21
4.6835240909
  0
LINE
  5
329
100
AcDbEntity
  8
ALL_ASSEMBLY_MEMBERS
100
AcDbLine
 62
7
  6
CONTINUOUS
 10
4.7810283744
 20
4.6835240909
 11
4.7833469028
 21
4.6835240909
  0
LINE
  5
32A
100
AcDbEntity
  8
ALL_ASSEMBLY_MEMBERS
100
AcDbLine
 62
7
  6
CONTINUOUS
 10
4.7772535139
 20
4.685348098
 11
4.7758262659
 21
4.685348098
  0
LINE
  5
32B
100
AcDbEntity
  8
ALL_ASSEMBLY_MEMBERS
100
AcDbLine
 62
7
  6
CONTINUOUS
 10
4.8016635772
 20
4.685348098
 11
4.8039906749
 21
4.685348098
  0
LINE
  5
32C
100
AcDbEntity
  8
ALL_ASSEMBLY_MEMBERS
100
AcDbLine
 62
7
  6
CONTINUOUS
 10
4.7744463848
 20
4.6871721052
 11
4.7767700667
 21
4.6871721052
  0
LINE
  5
32D
100
AcDbEntity
  8
ALL_ASSEMBLY_MEMBERS
100
AcDbLine
 62
7
  6
CONTINUOUS
 10
4.782218328
 20
4.6889961124
 11
4.7845364752
 21
4.6889961124
  0
LINE
  5
32E
100
AcDbEntity
  8
ALL_ASSEMBLY_MEMBERS
100
AcDbLine
 62
7
  6
CONTINUOUS
 10
5.7026766676
 20
4.6908201195
 11
5.7003568163
 21
4.6908201195
  0
LINE
  5
32F
100
AcDbEntity
  8
ALL_ASSEMBLY_MEMBERS
100
AcDbLine
 62
7
  6
CONTINUOUS
 10
4.7990751188
 20
4.6908201195
 11
4.8013997391
 21
4.6908201195
  0
LINE
  5
330
100
AcDbEntity
  8
ALL_ASSEMBLY_MEMBERS
100
AcDbLine
 62
7
  6
CONTINUOUS
 10
5.7082424199
 20
4.6926441267
 11
5.7029777893
 21
4.6926441267
  0
LINE
  5
331
100
AcDbEntity
  8
ALL_ASSEMBLY_MEMBERS
100
AcDbLine
 62
7
  6
CONTINUOUS
 10
4.7731139672
 20
4.6926441267
 11
4.7754394678
 21
4.6926441267
  0
LINE
  5
332
100
AcDbEntity
  8
ALL_ASSEMBLY_MEMBERS
100
AcDbLine
 62
7
  6
CONTINUOUS
 10
4.7936415952
 20
4.6926441267
 11
4.798883439
 21
4.6926441267
  0
LINE
  5
333
100
AcDbEntity
  8
ALL_ASSEMBLY_MEMBERS
100
AcDbLine
 62
7
  6
CONTINUOUS
 10
5.6836866507
 20
4.696292141
 11
5.6813633898
 21
4.696292141
  0
LINE
  5
334
100
AcDbEntity
  8
ALL_ASSEMBLY_MEMBERS
100
AcDbLine
 62
7
  6
CONTINUOUS
 10
5.6679133835
 20
4.696292141
 11
5.6655717033
 21
4.696292141
  0
LINE
  5
335
100
AcDbEntity
  8
ALL_ASSEMBLY_MEMBERS
100
AcDbLine
 62
7
  6
CONTINUOUS
 10
4.7830263583
 20
4.696292141
 11
4.7853443268
 21
4.696292141
  0
LINE
  5
336
100
AcDbEntity
  8
ALL_ASSEMBLY_MEMBERS
100
AcDbLine
 62
7
  6
CONTINUOUS
 10
4.7724655912
 20
4.6981161481
 11
4.7747920941
 21
4.6981161481
  0
LINE
  5
337
100
AcDbEntity
  8
ALL_ASSEMBLY_MEMBERS
100
AcDbLine
 62
7
  6
CONTINUOUS
 10
4.7724655912
 20
4.7017641624
 11
4.7747920941
 21
4.7017641624
  0
LINE
  5
338
100
AcDbEntity
  8
ALL_ASSEMBLY_MEMBERS
100
AcDbLine
 62
7
  6
CONTINUOUS
 10
4.7830263583
 20
4.7017641624
 11
4.7853443268
 21
4.7017641624
  0
LINE
  5
339
100
AcDbEntity
  8
ALL_ASSEMBLY_MEMBERS
100
AcDbLine
 62
7
  6
CONTINUOUS
 10
4.7731139672
 20
4.707236189
 11
4.7754394678
 21
4.707236189
  0
LINE
  5
33A
100
AcDbEntity
  8
ALL_ASSEMBLY_MEMBERS
100
AcDbLine
 62
7
  6
CONTINUOUS
 10
5.6836866507
 20
4.7108842033
 11
5.6813633898
 21
4.7108842033
  0
LINE
  5
33B
100
AcDbEntity
  8
ALL_ASSEMBLY_MEMBERS
100
AcDbLine
 62
7
  6
CONTINUOUS
 10
5.6679133835
 20
4.7108842033
 11
5.6655717033
 21
4.7108842033
  0
LINE
  5
33C
100
AcDbEntity
  8
ALL_ASSEMBLY_MEMBERS
100
AcDbLine
 62
7
  6
CONTINUOUS
 10
4.782218328
 20
4.7108842033
 11
4.7845364752
 21
4.7108842033
  0
LINE
  5
33D
100
AcDbEntity
  8
ALL_ASSEMBLY_MEMBERS
100
AcDbLine
 62
7
  6
CONTINUOUS
 10
4.7744463848
 20
4.7127082105
 11
4.7767700667
 21
4.7127082105
  0
LINE
  5
33E
100
AcDbEntity
  8
ALL_ASSEMBLY_MEMBERS
100
AcDbLine
 62
7
  6
CONTINUOUS
 10
5.7138444298
 20
4.7145322176
 11
5.6998984744
 21
4.7145322176
  0
LINE
  5
33F
100
AcDbEntity
  8
ALL_ASSEMBLY_MEMBERS
100
AcDbLine
 62
7
  6
CONTINUOUS
 10
4.7772535139
 20
4.7145322176
 11
4.7758262659
 21
4.7145322176
  0
LINE
  5
340
100
AcDbEntity
  8
ALL_ASSEMBLY_MEMBERS
100
AcDbLine
 62
7
  6
CONTINUOUS
 10
4.7890123355
 20
4.7145322176
 11
4.8055811616
 21
4.7145322176
  0
LINE
  5
341
100
AcDbEntity
  8
ALL_ASSEMBLY_MEMBERS
100
AcDbLine
 62
7
  6
CONTINUOUS
 10
4.7810283744
 20
4.7163562248
 11
4.7833469028
 21
4.7163562248
  0
LINE
  5
342
100
AcDbEntity
  8
ALL_ASSEMBLY_MEMBERS
100
AcDbLine
 62
7
  6
CONTINUOUS
 10
4.7791040631
 20
4.7218282462
 11
4.7814235291
 21
4.7218282462
  0
LINE
  5
343
100
AcDbEntity
  8
ALL_ASSEMBLY_MEMBERS
100
AcDbLine
 62
7
  6
CONTINUOUS
 10
5.7138444298
 20
4.7236522534
 11
5.6946477318
 21
4.7236522534
  0
LINE
  5
344
100
AcDbEntity
  8
ALL_ASSEMBLY_MEMBERS
100
AcDbLine
 62
7
  6
CONTINUOUS
 10
5.6919512802
 20
4.7236522534
 11
5.6856103521
 21
4.7236522534
  0
LINE
  5
345
100
AcDbEntity
  8
ALL_ASSEMBLY_MEMBERS
100
AcDbLine
 62
7
  6
CONTINUOUS
 10
5.6776790334
 20
4.7236522534
 11
5.6705752261
 21
4.7236522534
  0
LINE
  5
346
100
AcDbEntity
  8
ALL_ASSEMBLY_MEMBERS
100
AcDbLine
 62
7
  6
CONTINUOUS
 10
5.188191249
 20
4.7236522534
 11
5.1799398957
 21
4.7236522534
  0
LINE
  5
347
100
AcDbEntity
  8
ALL_ASSEMBLY_MEMBERS
100
AcDbLine
 62
7
  6
CONTINUOUS
 10
4.7758262659
 20
4.7236522534
 11
4.7795742963
 21
4.7236522534
  0
LINE
  5
348
100
AcDbEntity
  8
ALL_ASSEMBLY_MEMBERS
100
AcDbLine
 62
7
  6
CONTINUOUS
 10
4.7868082368
 20
4.7236522534
 11
4.8055811616
 21
4.7236522534
  0
LINE
  5
349
100
AcDbEntity
  8
ALL_ASSEMBLY_MEMBERS
100
AcDbLine
 62
7
  6
CONTINUOUS
 10
5.7253361801
 20
4.7265065841
 11
5.7226998816
 21
4.7265065841
  0
LINE
  5
34A
100
AcDbEntity
  8
ALL_ASSEMBLY_MEMBERS
100
AcDbLine
 62
7
  6
CONTINUOUS
 10
5.5290117573
 20
4.7265065841
 11
5.5066339628
 21
4.7265065841
  0
LINE
  5
34B
100
AcDbEntity
  8
ALL_ASSEMBLY_MEMBERS
100
AcDbLine
 62
7
  6
CONTINUOUS
 10
4.7560050791
 20
4.7265065841
 11
4.7584724787
 21
4.7265065841
  0
LINE
  5
34C
100
AcDbEntity
  8
ALL_ASSEMBLY_MEMBERS
100
AcDbLine
 62
7
  6
CONTINUOUS
 10
4.9521606029
 20
4.7265065841
 11
4.9745383975
 21
4.7265065841
  0
LINE
  5
34D
100
AcDbEntity
  8
ALL_ASSEMBLY_MEMBERS
100
AcDbLine
 62
7
  6
CONTINUOUS
 10
4.7480861801
 20
4.7483687888
 11
5.7330861801
 21
4.7483687888
  0
LINE
  5
34E
100
AcDbEntity
  8
ALL_ASSEMBLY_MEMBERS
100
AcDbLine
 62
7
  6
CONTINUOUS
 10
5.2321984682
 20
4.7218282462
 11
5.2239471148
 21
4.7236522534
  0
LINE
  5
34F
100
AcDbEntity
  8
ALL_ASSEMBLY_MEMBERS
100
AcDbLine
 62
7
  6
CONTINUOUS
 10
5.292708394
 20
4.7218282462
 11
5.2844570407
 21
4.7236522534
  0
LINE
  5
350
100
AcDbEntity
  8
ALL_ASSEMBLY_MEMBERS
100
AcDbLine
 62
7
  6
CONTINUOUS
 10
5.23082324
 20
4.7127082105
 11
5.2239471148
 21
4.7145322176
  0
LINE
  5
351
100
AcDbEntity
  8
ALL_ASSEMBLY_MEMBERS
100
AcDbLine
 62
7
  6
CONTINUOUS
 10
5.2913331659
 20
4.7127082105
 11
5.2844570407
 21
4.7145322176
  0
LINE
  5
352
100
AcDbEntity
  8
ALL_ASSEMBLY_MEMBERS
100
AcDbLine
 62
7
  6
CONTINUOUS
 10
5.2995845192
 20
4.7163562248
 11
5.292708394
 21
4.7218282462
  0
LINE
  5
353
100
AcDbEntity
  8
ALL_ASSEMBLY_MEMBERS
100
AcDbLine
 62
7
  6
CONTINUOUS
 10
5.2954588425
 20
4.7090601962
 11
5.2913331659
 21
4.7127082105
  0
LINE
  5
354
100
AcDbEntity
  8
ALL_ASSEMBLY_MEMBERS
100
AcDbLine
 62
7
  6
CONTINUOUS
 10
5.6563508874
 20
5.0992315651
 11
5.6563508874
 21
5.1058687888
  0
LINE
  5
355
100
AcDbEntity
  8
ALL_ASSEMBLY_MEMBERS
100
AcDbLine
 62
7
  6
CONTINUOUS
 10
5.6630861801
 20
3.8663687888
 11
5.6630861801
 21
3.8913687888
  0
LINE
  5
356
100
AcDbEntity
  8
ALL_ASSEMBLY_MEMBERS
100
AcDbLine
 62
7
  6
CONTINUOUS
 10
5.6655717033
 20
4.7108842033
 11
5.6655717033
 21
4.696292141
  0
LINE
  5
357
100
AcDbEntity
  8
ALL_ASSEMBLY_MEMBERS
100
AcDbLine
 62
7
  6
CONTINUOUS
 10
5.6679133835
 20
4.7108842033
 11
5.6679133835
 21
4.696292141
  0
LINE
  5
358
100
AcDbEntity
  8
ALL_ASSEMBLY_MEMBERS
100
AcDbLine
 62
7
  6
CONTINUOUS
 10
5.6705752261
 20
4.7030224499
 11
5.6705752261
 21
4.6379239069
  0
LINE
  5
359
100
AcDbEntity
  8
ALL_ASSEMBLY_MEMBERS
100
AcDbLine
 62
7
  6
CONTINUOUS
 10
5.6729099757
 20
4.7090601962
 11
5.6729099757
 21
4.6379239069
  0
LINE
  5
35A
100
AcDbEntity
  8
ALL_ASSEMBLY_MEMBERS
100
AcDbLine
 62
7
  6
CONTINUOUS
 10
5.6776790334
 20
4.7236522534
 11
5.6776790334
 21
4.6379239069
  0
LINE
  5
35B
100
AcDbEntity
  8
ALL_ASSEMBLY_MEMBERS
100
AcDbLine
 62
7
  6
CONTINUOUS
 10
5.6813633898
 20
4.7108842033
 11
5.6813633898
 21
4.696292141
  0
LINE
  5
35C
100
AcDbEntity
  8
ALL_ASSEMBLY_MEMBERS
100
AcDbLine
 62
7
  6
CONTINUOUS
 10
5.6836866507
 20
4.7108842033
 11
5.6836866507
 21
4.696292141
  0
LINE
  5
35D
100
AcDbEntity
  8
ALL_ASSEMBLY_MEMBERS
100
AcDbLine
 62
7
  6
CONTINUOUS
 10
5.6856103521
 20
4.7019984339
 11
5.6856103521
 21
4.6379239069
  0
LINE
  5
35E
100
AcDbEntity
  8
ALL_ASSEMBLY_MEMBERS
100
AcDbLine
 62
7
  6
CONTINUOUS
 10
5.6879306422
 20
4.7090601962
 11
5.6879306422
 21
4.6379239069
  0
LINE
  5
35F
100
AcDbEntity
  8
ALL_ASSEMBLY_MEMBERS
100
AcDbLine
 62
7
  6
CONTINUOUS
 10
5.6919512802
 20
4.7236522534
 11
5.6919512802
 21
4.6379239069
  0
LINE
  5
360
100
AcDbEntity
  8
ALL_ASSEMBLY_MEMBERS
100
AcDbLine
 62
7
  6
CONTINUOUS
 10
5.6946477318
 20
4.7236522534
 11
5.6946477318
 21
4.6762280623
  0
LINE
  5
361
100
AcDbEntity
  8
ALL_ASSEMBLY_MEMBERS
100
AcDbLine
 62
7
  6
CONTINUOUS
 10
5.696965549
 20
4.7236522534
 11
5.696965549
 21
4.6762280623
  0
LINE
  5
362
100
AcDbEntity
  8
ALL_ASSEMBLY_MEMBERS
100
AcDbLine
 62
7
  6
CONTINUOUS
 10
5.6998984744
 20
4.7145322176
 11
5.6998984744
 21
4.685348098
  0
LINE
  5
363
100
AcDbEntity
  8
ALL_ASSEMBLY_MEMBERS
100
AcDbLine
 62
7
  6
CONTINUOUS
 10
5.7103115737
 20
4.6671080239
 11
5.7103115737
 21
4.6634600096
  0
LINE
  5
364
100
AcDbEntity
  8
ALL_ASSEMBLY_MEMBERS
100
AcDbLine
 62
7
  6
CONTINUOUS
 10
5.712646163
 20
4.6671080239
 11
5.712646163
 21
4.6634600096
  0
LINE
  5
365
100
AcDbEntity
  8
ALL_ASSEMBLY_MEMBERS
100
AcDbLine
 62
7
  6
CONTINUOUS
 10
5.7138444298
 20
4.7236522534
 11
5.7138444298
 21
4.7145322176
  0
LINE
  5
366
100
AcDbEntity
  8
ALL_ASSEMBLY_MEMBERS
100
AcDbLine
 62
7
  6
CONTINUOUS
 10
5.7146115658
 20
4.6689320311
 11
5.7146115658
 21
4.6616360025
  0
LINE
  5
367
100
AcDbEntity
  8
ALL_ASSEMBLY_MEMBERS
100
AcDbLine
 62
7
  6
CONTINUOUS
 10
5.7226998816
 20
4.7265065841
 11
5.7226998816
 21
4.6379239069
  0
LINE
  5
368
100
AcDbEntity
  8
ALL_ASSEMBLY_MEMBERS
100
AcDbLine
 62
7
  6
CONTINUOUS
 10
5.7228696447
 20
4.7483687888
 11
5.7228696447
 21
4.7265065841
  0
LINE
  5
369
100
AcDbEntity
  8
ALL_ASSEMBLY_MEMBERS
100
AcDbLine
 62
7
  6
CONTINUOUS
 10
5.7228696447
 20
4.6379239069
 11
5.7228696447
 21
4.5788687888
  0
LINE
  5
36A
100
AcDbEntity
  8
ALL_ASSEMBLY_MEMBERS
100
AcDbLine
 62
7
  6
CONTINUOUS
 10
5.7251672811
 20
4.7265065841
 11
5.7251672811
 21
4.6379239069
  0
LINE
  5
36B
100
AcDbEntity
  8
ALL_ASSEMBLY_MEMBERS
100
AcDbLine
 62
7
  6
CONTINUOUS
 10
5.7253361801
 20
4.7265065841
 11
5.7253361801
 21
4.6379239069
  0
LINE
  5
36C
100
AcDbEntity
  8
ALL_ASSEMBLY_MEMBERS
100
AcDbLine
 62
7
  6
CONTINUOUS
 10
5.7255861801
 20
4.1538687888
 11
5.7255861801
 21
4.5788687888
  0
LINE
  5
36D
100
AcDbEntity
  8
ALL_ASSEMBLY_MEMBERS
100
AcDbLine
 62
7
  6
CONTINUOUS
 10
5.7330861801
 20
4.7483687888
 11
5.7330861801
 21
5.0263687888
  0
LINE
  5
36E
100
AcDbEntity
  8
ALL_ASSEMBLY_MEMBERS
100
AcDbLine
 62
7
  6
CONTINUOUS
 10
5.7630861801
 20
3.9413687888
 11
5.7630861801
 21
3.9663687888
  0
LINE
  5
36F
100
AcDbEntity
  8
ALL_ASSEMBLY_MEMBERS
100
AcDbLine
 62
7
  6
CONTINUOUS
 10
5.7630861801
 20
4.0663687888
 11
5.7630861801
 21
4.1163687888
  0
LINE
  5
370
100
AcDbEntity
  8
ALL_ASSEMBLY_MEMBERS
100
AcDbLine
 62
7
  6
CONTINUOUS
 10
5.0336712535
 20
3.6765466584
 11
5.0334080423
 21
3.6763591825
  0
LWPOLYLINE
  5
371
100
AcDbEntity
  8
ALL_ASSEMBLY_MEMBERS
100
AcDbPolyline
 62
7
  6
CONTINUOUS
 90
3
 70
0
 10
5.0334095148
 20
3.6763602299
 10
5.0325734309
 20
3.6758234126
 10
5.0319557648
 20
3.6754849551
  0
LINE
  5
372
100
AcDbEntity
  8
ALL_ASSEMBLY_MEMBERS
100
AcDbLine
 62
7
  6
CONTINUOUS
 10
5.2505856648
 20
4.8033687888
 11
5.2305866955
 21
4.8033687888
  0
LINE
  5
373
100
AcDbEntity
  8
ALL_ASSEMBLY_MEMBERS
100
AcDbLine
 62
7
  6
CONTINUOUS
 10
5.2305866955
 20
4.8833687888
 11
5.2505856648
 21
4.8833687888
  0
LINE
  5
374
100
AcDbEntity
  8
ALL_ASSEMBLY_MEMBERS
100
AcDbLine
 62
7
  6
CONTINUOUS
 10
5.8005861801
 20
3.9663687888
 11
5.8005861801
 21
4.0663687888
  0
LINE
  5
375
100
AcDbEntity
  8
ALL_ASSEMBLY_MEMBERS
100
AcDbLine
 62
7
  6
CONTINUOUS
 10
5.8093214728
 20
5.0992315651
 11
5.8093214728
 21
5.1058687888
  0
LWPOLYLINE
  5
376
100
AcDbEntity
  8
ALL_ASSEMBLY_MEMBERS
100
AcDbPolyline
 62
7
  6
CONTINUOUS
 90
3
 70
0
 10
5.0319557648
 20
3.6754849551
 10
5.0315188255
 20
3.6752780779
 10
5.0313195377
 20
3.6751946779
  0
LINE
  5
377
100
AcDbEntity
  8
ALL_ASSEMBLY_MEMBERS
100
AcDbLine
 62
7
  6
CONTINUOUS
 10
4.7105861801
 20
5.0263687888
 11
5.7705861801
 21
5.0263687888
  0
LINE
  5
378
100
AcDbEntity
  8
ALL_ASSEMBLY_MEMBERS
100
AcDbLine
 62
7
  6
CONTINUOUS
 10
5.9391937971
 20
3.6548211945
 11
5.9391937971
 21
3.5095726474
  0
LINE
  5
379
100
AcDbEntity
  8
ALL_ASSEMBLY_MEMBERS
100
AcDbLine
 62
7
  6
CONTINUOUS
 10
5.9506667294
 20
3.6548269924
 11
5.9506667294
 21
3.5095668248
  0
LINE
  5
37A
100
AcDbEntity
  8
ALL_ASSEMBLY_MEMBERS
100
AcDbLine
 62
7
  6
CONTINUOUS
 10
4.6718508874
 20
5.0992315651
 11
4.8248214728
 21
5.0992315651
  0
LINE
  5
37B
100
AcDbEntity
  8
ALL_ASSEMBLY_MEMBERS
100
AcDbLine
 62
7
  6
CONTINUOUS
 10
5.6563508874
 20
5.0992315651
 11
5.8093214728
 21
5.0992315651
  0
LINE
  5
37C
100
AcDbEntity
  8
ALL_ASSEMBLY_MEMBERS
100
AcDbLine
 62
7
  6
CONTINUOUS
 10
3.6991644352
 20
5.1058687888
 11
6.782007925
 21
5.1058687888
  0
LINE
  5
37D
100
AcDbEntity
  8
ALL_ASSEMBLY_MEMBERS
100
AcDbLine
 62
7
  6
CONTINUOUS
 10
6.8116952557
 20
5.1268372934
 11
3.6694771045
 21
5.1268372934
  0
LINE
  5
37E
100
AcDbEntity
  8
ALL_ASSEMBLY_MEMBERS
100
AcDbLine
 62
7
  6
CONTINUOUS
 10
6.846362022
 20
5.1636276135
 11
3.6348103383
 21
5.1636276135
  0
LINE
  5
37F
100
AcDbEntity
  8
ALL_ASSEMBLY_MEMBERS
100
AcDbLine
 62
7
  6
CONTINUOUS
 10
6.8655861801
 20
5.1926371586
 11
3.6155861801
 21
5.1926371586
  0
LINE
  5
380
100
AcDbEntity
  8
ALL_ASSEMBLY_MEMBERS
100
AcDbLine
 62
7
  6
CONTINUOUS
 10
3.6155861801
 20
5.2623687888
 11
6.8655861801
 21
5.2623687888
  0
LINE
  5
381
100
AcDbEntity
  8
ALL_ASSEMBLY_MEMBERS
100
AcDbLine
 62
7
  6
CONTINUOUS
 10
6.8655861801
 20
5.1926371586
 11
6.8655861801
 21
5.2623687888
  0
ARC
  5
382
100
AcDbEntity
  8
ALL_ASSEMBLY_MEMBERS
100
AcDbCircle
 62
7
  6
CONTINUOUS
 10
5.0186664165
 20
2.9244735233
 40
0.7493868268
100
AcDbArc
 50
89.5536557543
 51
89.8435684392
  0
ARC
  5
383
100
AcDbEntity
  8
ALL_ASSEMBLY_MEMBERS
100
AcDbCircle
 62
7
  6
CONTINUOUS
 10
5.011129165
 20
3.266434833
 40
0.387476851
100
AcDbArc
 50
89.3612363755
 51
89.7613996953
  0
ARC
  5
384
100
AcDbEntity
  8
ALL_ASSEMBLY_MEMBERS
100
AcDbCircle
 62
7
  6
CONTINUOUS
 10
4.9957826194
 20
3.8423474847
 40
0.3156274567
100
AcDbArc
 50
273.0802528438
 51
273.4270253544
  0
ARC
  5
385
100
AcDbEntity
  8
ALL_ASSEMBLY_MEMBERS
100
AcDbCircle
 62
7
  6
CONTINUOUS
 10
4.9490750152
 20
3.5550269472
 40
0.2224896033
100
AcDbArc
 50
32.9734559369
 51
37.0080407177
  0
ARC
  5
386
100
AcDbEntity
  8
ALL_ASSEMBLY_MEMBERS
100
AcDbCircle
 62
7
  6
CONTINUOUS
 10
5.0408006285
 20
3.6121803468
 40
0.0640357244
100
AcDbArc
 50
97.7316060687
 51
98.1789935718
  0
ARC
  5
387
100
AcDbEntity
  8
ALL_ASSEMBLY_MEMBERS
100
AcDbCircle
 62
7
  6
CONTINUOUS
 10
4.7180861801
 20
3.8913687888
 40
0.05
100
AcDbArc
 50
0.0
 51
90.0
  0
ARC
  5
388
100
AcDbEntity
  8
ALL_ASSEMBLY_MEMBERS
100
AcDbCircle
 62
7
  6
CONTINUOUS
 10
5.0468361801
 20
3.4348687888
 40
0.0375
100
AcDbArc
 50
0.0
 51
90.0
  0
ARC
  5
389
100
AcDbEntity
  8
ALL_ASSEMBLY_MEMBERS
100
AcDbCircle
 62
7
  6
CONTINUOUS
 10
5.0182301445
 20
3.6948340231
 40
0.0237673864
100
AcDbArc
 50
345.1828301818
 51
345.6640752701
  0
ARC
  5
38A
100
AcDbEntity
  8
ALL_ASSEMBLY_MEMBERS
100
AcDbCircle
 62
7
  6
CONTINUOUS
 10
4.5505056308
 20
3.5095668248
 40
0.02
100
AcDbArc
 50
180.0
 51
256.4079406806
  0
ARC
  5
38B
100
AcDbEntity
  8
ALL_ASSEMBLY_MEMBERS
100
AcDbCircle
 62
7
  6
CONTINUOUS
 10
4.5505056308
 20
3.6548269924
 40
0.02
100
AcDbArc
 50
103.5620945919
 51
180.0
  0
ARC
  5
38C
100
AcDbEntity
  8
ALL_ASSEMBLY_MEMBERS
100
AcDbCircle
 62
7
  6
CONTINUOUS
 10
5.1248221711
 20
3.6548269924
 40
0.02
100
AcDbArc
 50
96.9265222859
 51
180.0
  0
ARC
  5
38D
100
AcDbEntity
  8
ALL_ASSEMBLY_MEMBERS
100
AcDbCircle
 62
7
  6
CONTINUOUS
 10
5.1248221711
 20
3.5095668248
 40
0.02
100
AcDbArc
 50
180.0
 51
263.0573636323
  0
ARC
  5
38E
100
AcDbEntity
  8
ALL_ASSEMBLY_MEMBERS
100
AcDbCircle
 62
7
  6
CONTINUOUS
 10
5.0229610363
 20
3.6905257496
 40
0.017639809
100
AcDbArc
 50
319.1839554338
 51
319.8122369867
  0
ARC
  5
38F
100
AcDbEntity
  8
ALL_ASSEMBLY_MEMBERS
100
AcDbCircle
 62
7
  6
CONTINUOUS
 10
5.0232257098
 20
3.6902964951
 40
0.0172896527
100
AcDbArc
 50
317.401641112
 51
319.185623461
  0
ARC
  5
390
100
AcDbEntity
  8
ALL_ASSEMBLY_MEMBERS
100
AcDbCircle
 62
7
  6
CONTINUOUS
 10
4.5493292945
 20
3.5047399417
 40
0.0150309389
100
AcDbArc
 50
256.4305714612
 51
258.58730415
  0
ARC
  5
391
100
AcDbEntity
  8
ALL_ASSEMBLY_MEMBERS
100
AcDbCircle
 62
7
  6
CONTINUOUS
 10
5.0253568844
 20
3.6879311031
 40
0.0140972318
100
AcDbArc
 50
296.8634921981
 51
304.8283130721
  0
ARC
  5
392
100
AcDbEntity
  8
ALL_ASSEMBLY_MEMBERS
100
AcDbCircle
 62
7
  6
CONTINUOUS
 10
5.0993361801
 20
3.4248687888
 40
0.01
100
AcDbArc
 50
0.0
 51
89.9999999937
  0
ARC
  5
393
100
AcDbEntity
  8
ALL_ASSEMBLY_MEMBERS
100
AcDbCircle
 62
7
  6
CONTINUOUS
 10
5.0743361801
 20
3.7198687888
 40
0.01
100
AcDbArc
 50
270.0000000029
 51
360.0
  0
ARC
  5
394
100
AcDbEntity
  8
ALL_ASSEMBLY_MEMBERS
100
AcDbCircle
 62
7
  6
CONTINUOUS
 10
4.9979909321
 20
4.1175844608
 40
0.6107856903
100
AcDbArc
 50
272.1841252933
 51
272.4350417762
  0
ARC
  5
395
100
AcDbEntity
  8
ALL_ASSEMBLY_MEMBERS
100
AcDbCircle
 62
7
  6
CONTINUOUS
 10
3.6103687888
 20
5.1058687888
 40
0.0627173913
100
AcDbArc
 50
19.5319940446
 51
67.0635891141
  0
ARC
  5
396
100
AcDbEntity
  8
ALL_ASSEMBLY_MEMBERS
100
AcDbCircle
 62
7
  6
CONTINUOUS
 10
3.6470861801
 20
5.1926371586
 40
0.0315
100
AcDbArc
 50
180.0
 51
247.0635891141
  0
ARC
  5
397
100
AcDbEntity
  8
ALL_ASSEMBLY_MEMBERS
100
AcDbCircle
 62
7
  6
CONTINUOUS
 10
3.6991644352
 20
5.1373687888
 40
0.0315
100
AcDbArc
 50
199.5319940446
 51
270.0
  0
ARC
  5
398
100
AcDbEntity
  8
ALL_ASSEMBLY_MEMBERS
100
AcDbCircle
 62
7
  6
CONTINUOUS
 10
5.2405886733
 20
2.7026258713
 40
0.9592124682
100
AcDbArc
 50
83.0684251205
 51
96.9318749209
  0
ARC
  5
399
100
AcDbEntity
  8
ALL_ASSEMBLY_MEMBERS
100
AcDbCircle
 62
7
  6
CONTINUOUS
 10
5.4625064782
 20
2.9246993561
 40
0.7491610031
100
AcDbArc
 50
90.1565195748
 51
90.4465199321
  0
ARC
  5
39A
100
AcDbEntity
  8
ALL_ASSEMBLY_MEMBERS
100
AcDbCircle
 62
7
  6
CONTINUOUS
 10
5.4700442395
 20
3.2660104986
 40
0.3879011861
100
AcDbArc
 50
90.238493551
 51
90.6382195727
  0
ARC
  5
39B
100
AcDbEntity
  8
ALL_ASSEMBLY_MEMBERS
100
AcDbCircle
 62
7
  6
CONTINUOUS
 10
5.4854439538
 20
3.8433431244
 40
0.3166245711
100
AcDbArc
 50
266.5739514047
 51
266.9196323811
  0
ARC
  5
39C
100
AcDbEntity
  8
ALL_ASSEMBLY_MEMBERS
100
AcDbCircle
 62
7
  6
CONTINUOUS
 10
5.5319883807
 20
3.5551067176
 40
0.2223547665
100
AcDbArc
 50
142.9914069496
 51
147.0283902914
  0
ARC
  5
39D
100
AcDbEntity
  8
ALL_ASSEMBLY_MEMBERS
100
AcDbCircle
 62
7
  6
CONTINUOUS
 10
5.4404737292
 20
3.6129060839
 40
0.0633028392
100
AcDbArc
 50
81.808625784
 51
82.270686716
  0
ARC
  5
39E
100
AcDbEntity
  8
ALL_ASSEMBLY_MEMBERS
100
AcDbCircle
 62
7
  6
CONTINUOUS
 10
5.7630861801
 20
3.8913687888
 40
0.05
100
AcDbArc
 50
90.0
 51
180.0
  0
ARC
  5
39F
100
AcDbEntity
  8
ALL_ASSEMBLY_MEMBERS
100
AcDbCircle
 62
7
  6
CONTINUOUS
 10
5.4343361801
 20
3.4348687888
 40
0.0375
100
AcDbArc
 50
90.0
 51
180.0
  0
ARC
  5
3A0
100
AcDbEntity
  8
ALL_ASSEMBLY_MEMBERS
100
AcDbCircle
 62
7
  6
CONTINUOUS
 10
5.9306667294
 20
3.5095668248
 40
0.02
100
AcDbArc
 50
283.5921366002
 51
360.0
  0
ARC
  5
3A1
100
AcDbEntity
  8
ALL_ASSEMBLY_MEMBERS
100
AcDbCircle
 62
7
  6
CONTINUOUS
 10
5.9306667294
 20
3.6548269924
 40
0.02
100
AcDbArc
 50
0.0
 51
76.4379715808
  0
ARC
  5
3A2
100
AcDbEntity
  8
ALL_ASSEMBLY_MEMBERS
100
AcDbCircle
 62
7
  6
CONTINUOUS
 10
5.3563501892
 20
3.6548269924
 40
0.02
100
AcDbArc
 50
0.0
 51
83.073476108
  0
ARC
  5
3A3
100
AcDbEntity
  8
ALL_ASSEMBLY_MEMBERS
100
AcDbCircle
 62
7
  6
CONTINUOUS
 10
5.3563501892
 20
3.5095668248
 40
0.02
100
AcDbArc
 50
276.8893629518
 51
360.0
  0
ARC
  5
3A4
100
AcDbEntity
  8
ALL_ASSEMBLY_MEMBERS
100
AcDbCircle
 62
7
  6
CONTINUOUS
 10
5.4565523771
 20
3.6930704564
 40
0.0171403523
100
AcDbArc
 50
193.9133704742
 51
194.7093715212
  0
ARC
  5
3A5
100
AcDbEntity
  8
ALL_ASSEMBLY_MEMBERS
100
AcDbCircle
 62
7
  6
CONTINUOUS
 10
5.93184307
 20
3.5047399512
 40
0.0150309471
100
AcDbArc
 50
281.4188885659
 51
283.5695069628
  0
ARC
  5
3A6
100
AcDbEntity
  8
ALL_ASSEMBLY_MEMBERS
100
AcDbCircle
 62
7
  6
CONTINUOUS
 10
5.3818361801
 20
3.4248687888
 40
0.01
100
AcDbArc
 50
90.0000000063
 51
180.0
  0
ARC
  5
3A7
100
AcDbEntity
  8
ALL_ASSEMBLY_MEMBERS
100
AcDbCircle
 62
7
  6
CONTINUOUS
 10
5.4068361801
 20
3.7198687888
 40
0.01
100
AcDbArc
 50
180.0
 51
269.9999999971
  0
ARC
  5
3A8
100
AcDbEntity
  8
ALL_ASSEMBLY_MEMBERS
100
AcDbCircle
 62
7
  6
CONTINUOUS
 10
5.2405872671
 20
4.4610937427
 40
0.958543149
100
AcDbArc
 50
263.0633456738
 51
276.9365234239
  0
ARC
  5
3A9
100
AcDbEntity
  8
ALL_ASSEMBLY_MEMBERS
100
AcDbCircle
 62
7
  6
CONTINUOUS
 10
5.4831931549
 20
4.1179033589
 40
0.6111047983
100
AcDbArc
 50
267.5651296765
 51
267.8159154938
  0
CIRCLE
  5
3AA
100
AcDbEntity
  8
ALL_ASSEMBLY_MEMBERS
100
AcDbCircle
 62
7
  6
CONTINUOUS
 10
5.2405861801
 20
4.2508687888
 40
0.07
  0
CIRCLE
  5
3AB
100
AcDbEntity
  8
ALL_ASSEMBLY_MEMBERS
100
AcDbCircle
 62
7
  6
CONTINUOUS
 10
5.2405861801
 20
4.2508687888
 40
0.065
  0
ARC
  5
3AC
100
AcDbEntity
  8
ALL_ASSEMBLY_MEMBERS
100
AcDbCircle
 62
7
  6
CONTINUOUS
 10
6.8708035714
 20
5.1058687888
 40
0.0627173913
100
AcDbArc
 50
112.9364108859
 51
160.4680059554
  0
CIRCLE
  5
3AD
100
AcDbEntity
  8
ALL_ASSEMBLY_MEMBERS
100
AcDbCircle
 62
7
  6
CONTINUOUS
 10
5.2405861801
 20
4.2508687888
 40
0.0445454545
  0
ARC
  5
3AE
100
AcDbEntity
  8
ALL_ASSEMBLY_MEMBERS
100
AcDbCircle
 62
7
  6
CONTINUOUS
 10
6.8340861801
 20
5.1926371586
 40
0.0315
100
AcDbArc
 50
292.9364108859
 51
360.0
  0
ARC
  5
3AF
100
AcDbEntity
  8
ALL_ASSEMBLY_MEMBERS
100
AcDbCircle
 62
7
  6
CONTINUOUS
 10
6.782007925
 20
5.1373687888
 40
0.0315
100
AcDbArc
 50
270.0
 51
340.4680059554
  0
SPLINE
  5
3B0
100
AcDbEntity
  8
ALL_ASSEMBLY_MEMBERS
100
AcDbSpline
 62
7
  6
CONTINUOUS
 70
0
 71
3
 72
19
 73
15
 74
0
 42
0.0000001
 43
0.0000001
 44
0.0000000001
 40
0.0
 40
0.0
 40
0.0
 40
0.0
 40
0.1249158798
 40
0.1874766357
 40
0.2500078059
 40
0.3749226349
 40
0.4998388355
 40
0.5623760549
 40
0.624922107
 40
0.6874570601
 40
0.7499641082
 40
0.8124888753
 40
0.8750775682
 40
1.0
 40
1.0
 40
1.0
 40
1.0
 10
5.2505856648
 20
4.8833687888
 30
0.0
 10
5.2505856648
 20
4.8840224777
 30
0.0
 10
5.2504885504
 20
4.8850070702
 30
0.0
 10
5.2501701301
 20
4.8862775794
 30
0.0
 10
5.2497286728
 20
4.887511187
 30
0.0
 10
5.2489528105
 20
4.888962593
 30
0.0
 10
5.2479080347
 20
4.8902343456
 30
0.0
 10
5.2469371213
 20
4.8911138076
 30
0.0
 10
5.2461470645
 20
4.891699456
 30
0.0
 10
5.2453036084
 20
4.892204784
 30
0.0
 10
5.2444142507
 20
4.8926238057
 30
0.0
 10
5.2434877104
 20
4.8929536606
 30
0.0
 10
5.2422180031
 20
4.8932742854
 30
0.0
 10
5.24123367
 20
4.8933785096
 30
0.0
 10
5.2405799468
 20
4.8933785096
 30
0.0
  0
SPLINE
  5
3B1
100
AcDbEntity
  8
ALL_ASSEMBLY_MEMBERS
100
AcDbSpline
 62
7
  6
CONTINUOUS
 70
0
 71
3
 72
19
 73
15
 74
0
 42
0.0000001
 43
0.0000001
 44
0.0000000001
 40
0.0
 40
0.0
 40
0.0
 40
0.0
 40
0.1249852322
 40
0.1876498082
 40
0.2502234468
 40
0.3127340834
 40
0.3752485557
 40
0.4377807889
 40
0.5003042382
 40
0.6251763742
 40
0.750059398
 40
0.8125725634
 40
0.8751106733
 40
1.0
 40
1.0
 40
1.0
 40
1.0
 10
5.2405799468
 20
4.8933785096
 30
0.0
 10
5.2399264027
 20
4.8933785096
 30
0.0
 10
5.2389419561
 20
4.8932743377
 30
0.0
 10
5.237672979
 20
4.89295076
 30
0.0
 10
5.2367473553
 20
4.8926187125
 30
0.0
 10
5.2358589551
 20
4.892199142
 30
0.0
 10
5.2350166198
 20
4.8916937212
 30
0.0
 10
5.2342279799
 20
4.8911078605
 30
0.0
 10
5.2332588707
 20
4.8902284911
 30
0.0
 10
5.2322161634
 20
4.8889573323
 30
0.0
 10
5.2314419105
 20
4.8875071004
 30
0.0
 10
5.2310013954
 20
4.8862746454
 30
0.0
 10
5.2306835593
 20
4.8850054036
 30
0.0
 10
5.2305866955
 20
4.8840218315
 30
0.0
 10
5.2305866955
 20
4.8833687888
 30
0.0
  0
SPLINE
  5
3B2
100
AcDbEntity
  8
ALL_ASSEMBLY_MEMBERS
100
AcDbSpline
 62
7
  6
CONTINUOUS
 70
0
 71
3
 72
19
 73
15
 74
0
 42
0.0000001
 43
0.0000001
 44
0.0000000001
 40
0.0
 40
0.0
 40
0.0
 40
0.0
 40
0.1248897374
 40
0.1874284864
 40
0.2499423405
 40
0.3748263175
 40
0.4996987803
 40
0.5622219563
 40
0.6247539668
 40
0.6872683074
 40
0.7497784126
 40
0.8123512284
 40
0.8750150897
 40
1.0
 40
1.0
 40
1.0
 40
1.0
 10
5.2305866955
 20
4.8033687888
 30
0.0
 10
5.2305866955
 20
4.8027157417
 30
0.0
 10
5.2306835609
 20
4.8017321606
 30
0.0
 10
5.2310014034
 20
4.8004629063
 30
0.0
 10
5.2314419276
 20
4.799230437
 30
0.0
 10
5.2322161973
 20
4.7977801954
 30
0.0
 10
5.2332589199
 20
4.7965090351
 30
0.0
 10
5.2342280379
 20
4.7956296696
 30
0.0
 10
5.2350166833
 20
4.7950438164
 30
0.0
 10
5.2358590166
 20
4.7945383948
 30
0.0
 10
5.2367474167
 20
4.7941188334
 30
0.0
 10
5.2376730398
 20
4.7937868057
 30
0.0
 10
5.2389420156
 20
4.7934632459
 30
0.0
 10
5.2399264591
 20
4.7933590709
 30
0.0
 10
5.2405800038
 20
4.7933590709
 30
0.0
  0
SPLINE
  5
3B3
100
AcDbEntity
  8
ALL_ASSEMBLY_MEMBERS
100
AcDbSpline
 62
7
  6
CONTINUOUS
 70
0
 71
3
 72
19
 73
15
 74
0
 42
0.0000001
 43
0.0000001
 44
0.0000000001
 40
0.0
 40
0.0
 40
0.0
 40
0.0
 40
0.1249225465
 40
0.1875115499
 40
0.2500366903
 40
0.3125439719
 40
0.3750791332
 40
0.4376254688
 40
0.5001629066
 40
0.625079081
 40
0.7499938268
 40
0.8125248195
 40
0.8750850005
 40
1.0
 40
1.0
 40
1.0
 40
1.0
 10
5.2405800038
 20
4.7933590709
 30
0.0
 10
5.2412337253
 20
4.7933590709
 30
0.0
 10
5.2422180577
 20
4.7934632947
 30
0.0
 10
5.2434877613
 20
4.7937839329
 30
0.0
 10
5.2444142992
 20
4.7941137978
 30
0.0
 10
5.2453036573
 20
4.7945328198
 30
0.0
 10
5.2461471112
 20
4.7950381522
 30
0.0
 10
5.2469371656
 20
4.7956238044
 30
0.0
 10
5.2479080703
 20
4.7965032726
 30
0.0
 10
5.2489528386
 20
4.797775024
 30
0.0
 10
5.2497286896
 20
4.799226428
 30
0.0
 10
5.2501701375
 20
4.8004600291
 30
0.0
 10
5.250488556
 20
4.8017305251
 30
0.0
 10
5.2505856648
 20
4.8027151069
 30
0.0
 10
5.2505856648
 20
4.8033687888
 30
0.0
  0
LINE
  5
3B4
100
AcDbEntity
  8
ALL_ASSEMBLY_MEMBERS
100
AcDbLine
 62
7
  6
CONTINUOUS
 10
5.4453037486
 20
3.6785029217
 11
5.4476293471
 21
3.6764540871
  0
LINE
  5
3B5
100
AcDbEntity
  8
ALL_ASSEMBLY_MEMBERS
100
AcDbLine
 62
7
  6
CONTINUOUS
 10
5.0359076133
 20
3.6785448541
 11
5.0336712902
 21
3.6765466333
  0
SPLINE
  5
3B6
100
AcDbEntity
  8
ALL_ASSEMBLY_MEMBERS
100
AcDbSpline
 62
7
  6
CONTINUOUS
 70
0
 71
3
 72
9
 73
5
 74
0
 42
0.0000001
 43
0.0000001
 44
0.0000000001
 40
0.0
 40
0.0
 40
0.0
 40
0.0
 40
0.5000000028
 40
1.0
 40
1.0
 40
1.0
 40
1.0
 10
5.3587668019
 20
3.6746794617
 30
0.0
 10
5.319590346
 20
3.6794492413
 30
0.0
 10
5.2405861799
 20
3.6842274752
 30
0.0
 10
5.1615820122
 20
3.6794492545
 30
0.0
 10
5.1224055568
 20
3.6746794745
 30
0.0
  0
SPLINE
  5
3B7
100
AcDbEntity
  8
ALL_ASSEMBLY_MEMBERS
100
AcDbSpline
 62
7
  6
CONTINUOUS
 70
0
 71
3
 72
11
 73
7
 74
0
 42
0.0000001
 43
0.0000001
 44
0.0000000001
 40
0.0
 40
0.0
 40
0.0
 40
0.0
 40
0.2489300872
 40
0.4979732933
 40
0.7480462895
 40
1.0
 40
1.0
 40
1.0
 40
1.0
 10
4.6184463434
 20
3.4827452762
 30
0.0
 10
4.6127248595
 20
3.4825238487
 30
0.0
 10
4.6012597009
 20
3.4824817091
 30
0.0
 10
4.5840781271
 20
3.4836290812
 30
0.0
 10
4.566950221
 20
3.4859858873
 30
0.0
 10
4.555636858
 20
3.4883518761
 30
0.0
 10
4.5500078915
 20
3.4897304297
 30
0.0
  0
SPLINE
  5
3B8
100
AcDbEntity
  8
ALL_ASSEMBLY_MEMBERS
100
AcDbSpline
 62
7
  6
CONTINUOUS
 70
0
 71
3
 72
13
 73
9
 74
0
 42
0.0000001
 43
0.0000001
 44
0.0000000001
 40
0.0
 40
0.0
 40
0.0
 40
0.0
 40
0.2381993727
 40
0.3675863019
 40
0.5000000174
 40
0.6324137329
 40
0.7618006525
 40
1.0
 40
1.0
 40
1.0
 40
1.0
 10
5.1267443205
 20
3.6889492341
 30
0.0
 10
5.1447206237
 20
3.6913023218
 30
0.0
 10
5.1725735032
 20
3.6941600612
 30
0.0
 10
5.210580119
 20
3.6962064236
 30
0.0
 10
5.2405861821
 20
3.6967523849
 30
0.0
 10
5.2705922498
 20
3.6962065316
 30
0.0
 10
5.3085988511
 20
3.6941599529
 30
0.0
 10
5.3364517354
 20
3.6913023291
 30
0.0
 10
5.3544280398
 20
3.6889492656
 30
0.0
  0
SPLINE
  5
3B9
100
AcDbEntity
  8
ALL_ASSEMBLY_MEMBERS
100
AcDbSpline
 62
7
  6
CONTINUOUS
 70
0
 71
3
 72
11
 73
7
 74
0
 42
0.0000001
 43
0.0000001
 44
0.0000000001
 40
0.0
 40
0.0
 40
0.0
 40
0.0
 40
0.1949262587
 40
0.4258472697
 40
0.6939798658
 40
1.0
 40
1.0
 40
1.0
 40
1.0
 10
5.023941229
 20
3.5073503853
 30
0.0
 10
5.0245032621
 20
3.5070803061
 30
0.0
 10
5.0257747127
 20
3.5065809114
 30
0.0
 10
5.0279109977
 20
3.5059697013
 30
0.0
 10
5.0304331654
 20
3.505440064
 30
0.0
 10
5.0322497936
 20
3.5051637511
 30
0.0
 10
5.0332204738
 20
3.5050368494
 30
0.0
  0
SPLINE
  5
3BA
100
AcDbEntity
  8
ALL_ASSEMBLY_MEMBERS
100
AcDbSpline
 62
7
  6
CONTINUOUS
 70
0
 71
3
 72
11
 73
7
 74
0
 42
0.0000001
 43
0.0000001
 44
0.0000000001
 40
0.0
 40
0.0
 40
0.0
 40
0.0
 40
0.2045762659
 40
0.432116173
 40
0.692914281
 40
1.0
 40
1.0
 40
1.0
 40
1.0
 10
5.4477612886
 20
3.6763611617
 30
0.0
 10
5.4482881515
 20
3.6759945201
 30
0.0
 10
5.4494547687
 20
3.6752940648
 30
0.0
 10
5.4514711987
 20
3.6744583483
 30
0.0
 10
5.4539136526
 20
3.6738911388
 30
0.0
 10
5.4557051885
 20
3.6738026281
 30
0.0
 10
5.4566680713
 20
3.6738375345
 30
0.0
  0
SPLINE
  5
3BB
100
AcDbEntity
  8
ALL_ASSEMBLY_MEMBERS
100
AcDbSpline
 62
7
  6
CONTINUOUS
 70
0
 71
3
 72
10
 73
6
 74
0
 42
0.0000001
 43
0.0000001
 44
0.0000000001
 40
0.0
 40
0.0
 40
0.0
 40
0.0
 40
0.5318169367
 40
0.7715139851
 40
1.0
 40
1.0
 40
1.0
 40
1.0
 10
5.0412573037
 20
3.4930870402
 30
0.0
 10
5.0410512759
 20
3.4927652676
 30
0.0
 10
5.0407949398
 20
3.4922648091
 30
0.0
 10
5.0406161169
 20
3.4915665668
 30
0.0
 10
5.0405862245
 20
3.491229588
 30
0.0
 10
5.0405861801
 20
3.4910654339
 30
0.0
  0
SPLINE
  5
3BC
100
AcDbEntity
  8
ALL_ASSEMBLY_MEMBERS
100
AcDbSpline
 62
7
  6
CONTINUOUS
 70
0
 71
3
 72
11
 73
7
 74
0
 42
0.0000001
 43
0.0000001
 44
0.0000000001
 40
0.0
 40
0.0
 40
0.0
 40
0.0
 40
0.3060187564
 40
0.5741511368
 40
0.8050726517
 40
1.0
 40
1.0
 40
1.0
 40
1.0
 10
5.4479533228
 20
3.5050370745
 30
0.0
 10
5.4489238487
 20
3.5051639705
 30
0.0
 10
5.4507401912
 20
3.5054402632
 30
0.0
 10
5.4532619662
 20
3.5059698406
 30
0.0
 10
5.455397925
 20
3.5065809749
 30
0.0
 10
5.4566691814
 20
3.5070803093
 30
0.0
 10
5.4572311276
 20
3.5073503579
 30
0.0
  0
SPLINE
  5
3BD
100
AcDbEntity
  8
ALL_ASSEMBLY_MEMBERS
100
AcDbSpline
 62
7
  6
CONTINUOUS
 70
0
 71
3
 72
11
 73
7
 74
0
 42
0.0000001
 43
0.0000001
 44
0.0000000001
 40
0.0
 40
0.0
 40
0.0
 40
0.0
 40
0.224087528
 40
0.4610469989
 40
0.7178683141
 40
1.0
 40
1.0
 40
1.0
 40
1.0
 10
5.0405861801
 20
3.6906595005
 30
0.0
 10
5.0405862079
 20
3.6905199485
 30
0.0
 10
5.0406163359
 20
3.6902321623
 30
0.0
 10
5.0407468699
 20
3.6898022566
 30
0.0
 10
5.0409618266
 20
3.6893674843
 30
0.0
 10
5.0411509492
 20
3.6890889997
 30
0.0
 10
5.0412573037
 20
3.6889491461
 30
0.0
  0
SPLINE
  5
3BE
100
AcDbEntity
  8
ALL_ASSEMBLY_MEMBERS
100
AcDbSpline
 62
7
  6
CONTINUOUS
 70
0
 71
3
 72
11
 73
7
 74
0
 42
0.0000001
 43
0.0000001
 44
0.0000000001
 40
0.0
 40
0.0
 40
0.0
 40
0.0
 40
0.2113179413
 40
0.4440061746
 40
0.704528292
 40
1.0
 40
1.0
 40
1.0
 40
1.0
 10
5.0317269495
 20
3.6753551652
 30
0.0
 10
5.0312582977
 20
3.6751182497
 30
0.0
 10
5.030244337
 20
3.6746761514
 30
0.0
 10
5.0285633
 20
3.6741715729
 30
0.0
 10
5.0266243121
 20
3.6738510511
 30
0.0
 10
5.0252380652
 20
3.6738109205
 30
0.0
 10
5.0245042898
 20
3.6738375016
 30
0.0
  0
SPLINE
  5
3BF
100
AcDbEntity
  8
ALL_ASSEMBLY_MEMBERS
100
AcDbSpline
 62
7
  6
CONTINUOUS
 70
0
 71
3
 72
10
 73
6
 74
0
 42
0.0000001
 43
0.0000001
 44
0.0000000001
 40
0.0
 40
0.0
 40
0.0
 40
0.0
 40
0.228490489
 40
0.4681897914
 40
1.0
 40
1.0
 40
1.0
 40
1.0
 10
5.4405861801
 20
3.4910654339
 30
0.0
 10
5.4405861316
 20
3.4912295923
 30
0.0
 10
5.4405562405
 20
3.4915665774
 30
0.0
 10
5.4403774276
 20
3.4922648283
 30
0.0
 10
5.4401210771
 20
3.4927652797
 30
0.0
 10
5.4399150565
 20
3.4930870541
 30
0.0
  0
SPLINE
  5
3C0
100
AcDbEntity
  8
ALL_ASSEMBLY_MEMBERS
100
AcDbSpline
 62
7
  6
CONTINUOUS
 70
0
 71
3
 72
9
 73
5
 74
0
 42
0.0000001
 43
0.0000001
 44
0.0000000001
 40
0.0
 40
0.0
 40
0.0
 40
0.0
 40
0.2517109211
 40
1.0
 40
1.0
 40
1.0
 40
1.0
 10
4.5463550543
 20
3.4900062043
 30
0.0
 10
4.5466567877
 20
3.4899452933
 30
0.0
 10
4.5478625735
 20
3.4897401111
 30
0.0
 10
4.5490941807
 20
3.4896829072
 30
0.0
 10
4.550008044
 20
3.4897302927
 30
0.0
  0
SPLINE
  5
3C1
100
AcDbEntity
  8
ALL_ASSEMBLY_MEMBERS
100
AcDbSpline
 62
7
  6
CONTINUOUS
 70
0
 71
3
 72
11
 73
7
 74
0
 42
0.0000001
 43
0.0000001
 44
0.0000000001
 40
0.0
 40
0.0
 40
0.0
 40
0.0
 40
0.2007629234
 40
0.4339379874
 40
0.7002175146
 40
1.0
 40
1.0
 40
1.0
 40
1.0
 10
5.456668114
 20
3.6738375327
 30
0.0
 10
5.4562105676
 20
3.6740262215
 30
0.0
 10
5.4551994691
 20
3.6743806307
 30
0.0
 10
5.4535318679
 20
3.6748304111
 30
0.0
 10
5.4516025235
 20
3.6752343573
 30
0.0
 10
5.450224603
 20
3.6754577745
 30
0.0
 10
5.4494931129
 20
3.6755630881
 30
0.0
  0
SPLINE
  5
3C2
100
AcDbEntity
  8
ALL_ASSEMBLY_MEMBERS
100
AcDbSpline
 62
7
  6
CONTINUOUS
 70
0
 71
3
 72
11
 73
7
 74
0
 42
0.0000001
 43
0.0000001
 44
0.0000000001
 40
0.0
 40
0.0
 40
0.0
 40
0.0
 40
0.2821210351
 40
0.5389487645
 40
0.7759131773
 40
1.0
 40
1.0
 40
1.0
 40
1.0
 10
5.4399150565
 20
3.6889490717
 30
0.0
 10
5.4400214071
 20
3.6890889272
 30
0.0
 10
5.4402105224
 20
3.6893674254
 30
0.0
 10
5.4404254934
 20
3.6898022112
 30
0.0
 10
5.4405559799
 20
3.6902321536
 30
0.0
 10
5.4405861294
 20
3.6905199444
 30
0.0
 10
5.4405861801
 20
3.6906595005
 30
0.0
  0
SPLINE
  5
3C3
100
AcDbEntity
  8
ALL_ASSEMBLY_MEMBERS
100
AcDbSpline
 62
7
  6
CONTINUOUS
 70
0
 71
3
 72
11
 73
7
 74
0
 42
0.0000001
 43
0.0000001
 44
0.0000000001
 40
0.0
 40
0.0
 40
0.0
 40
0.0
 40
0.2998248708
 40
0.5661182362
 40
0.7992789193
 40
1.0
 40
1.0
 40
1.0
 40
1.0
 10
5.0316905194
 20
3.6755647291
 30
0.0
 10
5.0309577803
 20
3.6754593665
 30
0.0
 10
5.0295775616
 20
3.6752358165
 30
0.0
 10
5.0276450817
 20
3.6748315179
 30
0.0
 10
5.0259749568
 20
3.6743812742
 30
0.0
 10
5.0249624037
 20
3.6740264363
 30
0.0
 10
5.0245042449
 20
3.6738375032
 30
0.0
  0
SPLINE
  5
3C4
100
AcDbEntity
  8
ALL_ASSEMBLY_MEMBERS
100
AcDbSpline
 62
7
  6
CONTINUOUS
 70
0
 71
3
 72
11
 73
7
 74
0
 42
0.0000001
 43
0.0000001
 44
0.0000000001
 40
0.0
 40
0.0
 40
0.0
 40
0.0
 40
0.2519537413
 40
0.5020268196
 40
0.7510700512
 40
1.0
 40
1.0
 40
1.0
 40
1.0
 10
5.9311644622
 20
3.4897304427
 30
0.0
 10
5.9255358874
 20
3.4883519852
 30
0.0
 10
5.9142233212
 20
3.4859861221
 30
0.0
 10
5.8970966287
 20
3.4836293293
 30
0.0
 10
5.8799162683
 20
3.4824818371
 30
0.0
 10
5.8684519128
 20
3.4825237966
 30
0.0
 10
5.8627308271
 20
3.482745103
 30
0.0
  0
SPLINE
  5
3C5
100
AcDbEntity
  8
ALL_ASSEMBLY_MEMBERS
100
AcDbSpline
 62
7
  6
CONTINUOUS
 70
0
 71
3
 72
15
 73
11
 74
0
 42
0.0000001
 43
0.0000001
 44
0.0000000001
 40
0.0
 40
0.0
 40
0.0
 40
0.0
 40
0.1371847907
 40
0.2736086077
 40
0.4076424488
 40
0.537798198
 40
0.6630209129
 40
0.7824095719
 40
0.8950594436
 40
1.0
 40
1.0
 40
1.0
 40
1.0
 10
5.9391937971
 20
3.5095668248
 30
0.0
 10
5.9391828353
 20
3.5088476698
 30
0.0
 10
5.939113951
 20
3.5074137758
 30
0.0
 10
5.9388935948
 20
3.5052871462
 30
0.0
 10
5.9385821237
 20
3.503209358
 30
0.0
 10
5.9381927469
 20
3.5012044754
 30
0.0
 10
5.9377187202
 20
3.4992965544
 30
0.0
 10
5.9371540448
 20
3.4975091839
 30
0.0
 10
5.93650909
 20
3.4958629929
 30
0.0
 10
5.9360182492
 20
3.494831784
 30
0.0
 10
5.9357615583
 20
3.4943451471
 30
0.0
  0
SPLINE
  5
3C6
100
AcDbEntity
  8
ALL_ASSEMBLY_MEMBERS
100
AcDbSpline
 62
7
  6
CONTINUOUS
 70
0
 71
3
 72
9
 73
5
 74
0
 42
0.0000001
 43
0.0000001
 44
0.0000000001
 40
0.0
 40
0.0
 40
0.0
 40
0.0
 40
0.5312345024
 40
1.0
 40
1.0
 40
1.0
 40
1.0
 10
5.9357615583
 20
3.4943451471
 30
0.0
 10
5.9354496703
 20
3.4937538669
 30
0.0
 10
5.9348073711
 20
3.4926683074
 30
0.0
 10
5.9340096851
 20
3.4916847558
 30
0.0
 10
5.9335901812
 20
3.491270049
 30
0.0
  0
LINE
  5
3C7
100
AcDbEntity
  8
ALL_ASSEMBLY_MEMBERS
100
AcDbLine
 62
7
  6
CONTINUOUS
 10
5.9335901812
 20
3.491270049
 11
5.9319627655
 21
3.4900620024
  0
LINE
  5
3C8
100
AcDbEntity
  8
ALL_ASSEMBLY_MEMBERS
100
AcDbLine
 62
7
  6
CONTINUOUS
 10
5.9319627655
 20
3.4900620024
 11
5.9311643163
 21
3.4897302927
  0
SPLINE
  5
3C9
100
AcDbEntity
  8
ALL_ASSEMBLY_MEMBERS
100
AcDbSpline
 62
7
  6
CONTINUOUS
 70
0
 71
3
 72
11
 73
7
 74
0
 42
0.0000001
 43
0.0000001
 44
0.0000000001
 40
0.0
 40
0.0
 40
0.0
 40
0.0
 40
0.2500021619
 40
0.5000037835
 40
0.75000336
 40
1.0
 40
1.0
 40
1.0
 40
1.0
 10
5.4684296064
 20
3.5271760309
 30
0.0
 10
5.5076587525
 20
3.525667535
 30
0.0
 10
5.5861156567
 20
3.5226168247
 30
0.0
 10
5.7038023618
 20
3.5180847344
 30
0.0
 10
5.8214938613
 20
3.5137012404
 30
0.0
 10
5.899959716
 20
3.5109218193
 30
0.0
 10
5.9391937971
 20
3.5095726474
 30
0.0
  0
SPLINE
  5
3CA
100
AcDbEntity
  8
ALL_ASSEMBLY_MEMBERS
100
AcDbSpline
 62
7
  6
CONTINUOUS
 70
0
 71
3
 72
19
 73
15
 74
0
 42
0.0000001
 43
0.0000001
 44
0.0000000001
 40
0.0
 40
0.0
 40
0.0
 40
0.0
 40
0.1627704997
 40
0.3219125544
 40
0.4721759036
 40
0.6097839576
 40
0.6729112535
 40
0.7318890942
 40
0.7865650482
 40
0.8368801869
 40
0.882934725
 40
0.9250656964
 40
0.9638200468
 40
1.0
 40
1.0
 40
1.0
 40
1.0
 10
5.4684296062
 20
3.5271760309
 30
0.0
 10
5.4683905967
 20
3.5259362947
 30
0.0
 10
5.4682149562
 20
3.5234865495
 30
0.0
 10
5.4676738037
 20
3.519925247
 30
0.0
 10
5.4668655356
 20
3.5166114537
 30
0.0
 10
5.4659747559
 20
3.5140827495
 30
0.0
 10
5.4651410506
 20
3.5122863395
 30
0.0
 10
5.4644881261
 20
3.5111065433
 30
0.0
 10
5.4637952447
 20
3.5100648576
 30
0.0
 10
5.4630673443
 20
3.5091704714
 30
0.0
 10
5.4623086934
 20
3.5084327825
 30
0.0
 10
5.4615266842
 20
3.5078572886
 30
0.0
 10
5.4607285978
 20
3.5074492647
 30
0.0
 10
5.4601755039
 20
3.5072893059
 30
0.0
 10
5.4599038077
 20
3.5072424919
 30
0.0
  0
SPLINE
  5
3CB
100
AcDbEntity
  8
ALL_ASSEMBLY_MEMBERS
100
AcDbSpline
 62
7
  6
CONTINUOUS
 70
0
 71
3
 72
12
 73
8
 74
0
 42
0.0000001
 43
0.0000001
 44
0.0000000001
 40
0.0
 40
0.0
 40
0.0
 40
0.0
 40
0.2501339465
 40
0.3751978147
 40
0.5002404244
 40
0.7502199357
 40
1.0
 40
1.0
 40
1.0
 40
1.0
 10
5.4599038077
 20
3.5072424919
 30
0.0
 10
5.4991950846
 20
3.5057425927
 30
0.0
 10
5.5581307216
 20
3.503472115
 30
0.0
 10
5.6367088184
 20
3.500468726
 30
0.0
 10
5.7152639266
 20
3.4974996618
 30
0.0
 10
5.8134128376
 20
3.4938693151
 30
0.0
 10
5.8919234204
 20
3.4910852339
 30
0.0
 10
5.931164301
 20
3.4897302826
 30
0.0
  0
SPLINE
  5
3CC
100
AcDbEntity
  8
ALL_ASSEMBLY_MEMBERS
100
AcDbSpline
 62
7
  6
CONTINUOUS
 70
0
 71
3
 72
18
 73
14
 74
0
 42
0.0000001
 43
0.0000001
 44
0.0000000001
 40
0.0
 40
0.0
 40
0.0
 40
0.0
 40
0.1599360038
 40
0.316551856
 40
0.4648711231
 40
0.6013705156
 40
0.7233856824
 40
0.7785504656
 40
0.8297230487
 40
0.8770275896
 40
0.9207984538
 40
0.9615483067
 40
1.0
 40
1.0
 40
1.0
 40
1.0
 10
5.4665224037
 20
3.5272844368
 30
0.0
 10
5.4664807776
 20
3.5260428344
 30
0.0
 10
5.4662906155
 20
3.5235877751
 30
0.0
 10
5.4657016992
 20
3.5200205234
 30
0.0
 10
5.4648202589
 20
3.5167006547
 30
0.0
 10
5.4636843618
 20
3.5137447564
 30
0.0
 10
5.4625160256
 20
3.5115947579
 30
0.0
 10
5.4614725274
 20
3.5101576066
 30
0.0
 10
5.4606776993
 20
3.5092642508
 30
0.0
 10
5.4598494535
 20
3.5085285589
 30
0.0
 10
5.4589960737
 20
3.5079560671
 30
0.0
 10
5.4581259436
 20
3.5075520272
 30
0.0
 10
5.4575263435
 20
3.5073957687
 30
0.0
 10
5.4572311534
 20
3.5073502908
 30
0.0
  0
SPLINE
  5
3CD
100
AcDbEntity
  8
ALL_ASSEMBLY_MEMBERS
100
AcDbSpline
 62
7
  6
CONTINUOUS
 70
0
 71
3
 72
9
 73
5
 74
0
 42
0.0000001
 43
0.0000001
 44
0.0000000001
 40
0.0
 40
0.0
 40
0.0
 40
0.0
 40
0.2425723798
 40
1.0
 40
1.0
 40
1.0
 40
1.0
 10
5.4419417163
 20
3.4982625888
 30
0.0
 10
5.4421049513
 20
3.4985742671
 30
0.0
 10
5.4428055524
 20
3.499844187
 30
0.0
 10
5.4436317503
 20
3.5010471883
 30
0.0
 10
5.4443326771
 20
3.5018931379
 30
0.0
  0
SPLINE
  5
3CE
100
AcDbEntity
  8
ALL_ASSEMBLY_MEMBERS
100
AcDbSpline
 62
7
  6
CONTINUOUS
 70
0
 71
3
 72
13
 73
9
 74
0
 42
0.0000001
 43
0.0000001
 44
0.0000000001
 40
0.0
 40
0.0
 40
0.0
 40
0.0
 40
0.1925608186
 40
0.4077475568
 40
0.5295224605
 40
0.6654087326
 40
0.8203866458
 40
1.0
 40
1.0
 40
1.0
 40
1.0
 10
5.4443326771
 20
3.5018931379
 30
0.0
 10
5.4449294263
 20
3.5026133554
 30
0.0
 10
5.4463150329
 20
3.5040428599
 30
0.0
 10
5.4484461922
 20
3.5055216896
 30
0.0
 10
5.4505385787
 20
3.5064818885
 30
0.0
 10
5.4524609912
 20
3.5070722591
 30
0.0
 10
5.4547280337
 20
3.5074185543
 30
0.0
 10
5.4563611448
 20
3.5074161905
 30
0.0
 10
5.4572310876
 20
3.5073503553
 30
0.0
  0
SPLINE
  5
3CF
100
AcDbEntity
  8
ALL_ASSEMBLY_MEMBERS
100
AcDbSpline
 62
7
  6
CONTINUOUS
 70
0
 71
3
 72
17
 73
13
 74
0
 42
0.0000001
 43
0.0000001
 44
0.0000000001
 40
0.0
 40
0.0
 40
0.0
 40
0.0
 40
0.2394718627
 40
0.3599995127
 40
0.4813587752
 40
0.5425905196
 40
0.604381539
 40
0.6668842648
 40
0.7303600684
 40
0.7951338569
 40
0.8615181333
 40
1.0
 40
1.0
 40
1.0
 40
1.0
 10
5.442283093
 20
3.5054591084
 30
0.0
 10
5.4431262224
 20
3.5081350494
 30
0.0
 10
5.4447282294
 20
3.5120719263
 30
0.0
 10
5.4476511371
 20
3.5169059355
 30
0.0
 10
5.4498616209
 20
3.5197021878
 30
0.0
 10
5.4518842116
 20
3.5217325461
 30
0.0
 10
5.4535443262
 20
3.5231400731
 30
0.0
 10
5.4553509273
 20
3.5244016234
 30
0.0
 10
5.4573096105
 20
3.5254865062
 30
0.0
 10
5.4594215225
 20
3.5263617894
 30
0.0
 10
5.4624713503
 20
3.5272068526
 30
0.0
 10
5.4649028987
 20
3.5273819007
 30
0.0
 10
5.4665224058
 20
3.5272844368
 30
0.0
  0
LINE
  5
3D0
100
AcDbEntity
  8
ALL_ASSEMBLY_MEMBERS
100
AcDbLine
 62
7
  6
CONTINUOUS
 10
5.4399149177
 20
3.4930871616
 11
5.4407446343
 21
3.4956157209
  0
LINE
  5
3D1
100
AcDbEntity
  8
ALL_ASSEMBLY_MEMBERS
100
AcDbLine
 62
7
  6
CONTINUOUS
 10
5.4407446343
 20
3.4956157209
 11
5.4419421816
 21
3.4982636225
  0
SPLINE
  5
3D2
100
AcDbEntity
  8
ALL_ASSEMBLY_MEMBERS
100
AcDbSpline
 62
7
  6
CONTINUOUS
 70
0
 71
3
 72
11
 73
7
 74
0
 42
0.0000001
 43
0.0000001
 44
0.0000000001
 40
0.0
 40
0.0
 40
0.0
 40
0.0
 40
0.1246958153
 40
0.2488280004
 40
0.4983245256
 40
1.0
 40
1.0
 40
1.0
 40
1.0
 10
5.4399150565
 20
3.4930889916
 30
0.0
 10
5.4399537389
 20
3.4936120253
 30
0.0
 10
5.4400487991
 20
3.4946544489
 30
0.0
 10
5.4402976832
 20
3.496735803
 30
0.0
 10
5.4408832344
 20
3.5003716022
 30
0.0
 10
5.4416485032
 20
3.5034467838
 30
0.0
 10
5.442283093
 20
3.5054591084
 30
0.0
  0
SPLINE
  5
3D3
100
AcDbEntity
  8
ALL_ASSEMBLY_MEMBERS
100
AcDbSpline
 62
7
  6
CONTINUOUS
 70
0
 71
3
 72
11
 73
7
 74
0
 42
0.0000001
 43
0.0000001
 44
0.0000000001
 40
0.0
 40
0.0
 40
0.0
 40
0.0
 40
0.2145385254
 40
0.4533218487
 40
0.7152368211
 40
1.0
 40
1.0
 40
1.0
 40
1.0
 10
5.9317175125
 20
3.6746796195
 30
0.0
 10
5.9319913174
 20
3.6745969643
 30
0.0
 10
5.9325515842
 20
3.6743592832
 30
0.0
 10
5.9333566783
 20
3.6738416169
 30
0.0
 10
5.9341445943
 20
3.6731460898
 30
0.0
 10
5.9346180314
 20
3.6725888583
 30
0.0
 10
5.9348476265
 20
3.6722865286
 30
0.0
  0
LINE
  5
3D4
100
AcDbEntity
  8
ALL_ASSEMBLY_MEMBERS
100
AcDbLine
 62
7
  6
CONTINUOUS
 10
5.9348476265
 20
3.6722865286
 11
5.9361926826
 21
3.6700779692
  0
SPLINE
  5
3D5
100
AcDbEntity
  8
ALL_ASSEMBLY_MEMBERS
100
AcDbSpline
 62
7
  6
CONTINUOUS
 70
0
 71
3
 72
15
 73
11
 74
0
 42
0.0000001
 43
0.0000001
 44
0.0000000001
 40
0.0
 40
0.0
 40
0.0
 40
0.0
 40
0.1042872776
 40
0.2164407373
 40
0.3355147313
 40
0.4606213028
 40
0.5908697551
 40
0.7252097559
 40
0.8621361294
 40
1.0
 40
1.0
 40
1.0
 40
1.0
 10
5.9361926826
 20
3.6700779692
 30
0.0
 10
5.9364362826
 20
3.6695906957
 30
0.0
 10
5.9368989251
 20
3.6685575786
 30
0.0
 10
5.9374976537
 20
3.6669089431
 30
0.0
 10
5.938011961
 20
3.6651185293
 30
0.0
 10
5.9384323181
 20
3.6632071813
 30
0.0
 10
5.9387653044
 20
3.6611981913
 30
0.0
 10
5.9390184368
 20
3.6591154394
 30
0.0
 10
5.9391782277
 20
3.6569833838
 30
0.0
 10
5.9392046937
 20
3.655547078
 30
0.0
 10
5.9391937971
 20
3.6548269924
 30
0.0
  0
SPLINE
  5
3D6
100
AcDbEntity
  8
ALL_ASSEMBLY_MEMBERS
100
AcDbSpline
 62
7
  6
CONTINUOUS
 70
0
 71
3
 72
12
 73
8
 74
0
 42
0.0000001
 43
0.0000001
 44
0.0000000001
 40
0.0
 40
0.0
 40
0.0
 40
0.0
 40
0.2501330663
 40
0.3751963909
 40
0.5002386187
 40
0.7502182051
 40
1.0
 40
1.0
 40
1.0
 40
1.0
 10
5.4604599367
 20
3.6738575795
 30
0.0
 10
5.4997522372
 20
3.6739671095
 30
0.0
 10
5.5586901233
 20
3.6741523211
 30
0.0
 10
5.637270394
 20
3.6743748286
 30
0.0
 10
5.7158266453
 20
3.6745630878
 30
0.0
 10
5.813974577
 20
3.6747170375
 30
0.0
 10
5.8924802425
 20
3.6747171296
 30
0.0
 10
5.9317174979
 20
3.6746796292
 30
0.0
  0
SPLINE
  5
3D7
100
AcDbEntity
  8
ALL_ASSEMBLY_MEMBERS
100
AcDbSpline
 62
7
  6
CONTINUOUS
 70
0
 71
3
 72
19
 73
15
 74
0
 42
0.0000001
 43
0.0000001
 44
0.0000000001
 40
0.0
 40
0.0
 40
0.0
 40
0.0
 40
0.0361553939
 40
0.0747084944
 40
0.1165267955
 40
0.1622160951
 40
0.2121620165
 40
0.2665013007
 40
0.325201061
 40
0.3881279367
 40
0.5256166305
 40
0.6761837114
 40
0.8360716404
 40
1.0
 40
1.0
 40
1.0
 40
1.0
 10
5.4604599367
 20
3.6738575795
 30
0.0
 10
5.4607299308
 20
3.6738124344
 30
0.0
 10
5.4612785698
 20
3.6736559201
 30
0.0
 10
5.4620675129
 20
3.6732510446
 30
0.0
 10
5.4628353493
 20
3.6726777059
 30
0.0
 10
5.463574904
 20
3.6719413522
 30
0.0
 10
5.4642789545
 20
3.671047582
 30
0.0
 10
5.4649435643
 20
3.6700058546
 30
0.0
 10
5.4655640981
 20
3.6688253648
 30
0.0
 10
5.4663486651
 20
3.6670256861
 30
0.0
 10
5.4671688947
 20
3.6644911714
 30
0.0
 10
5.4678829934
 20
3.6611709022
 30
0.0
 10
5.4683219387
 20
3.6576019418
 30
0.0
 10
5.4684265452
 20
3.6551494668
 30
0.0
 10
5.4684296065
 20
3.6539083242
 30
0.0
  0
SPLINE
  5
3D8
100
AcDbEntity
  8
ALL_ASSEMBLY_MEMBERS
100
AcDbSpline
 62
7
  6
CONTINUOUS
 70
0
 71
3
 72
11
 73
7
 74
0
 42
0.0000001
 43
0.0000001
 44
0.0000000001
 40
0.0
 40
0.0
 40
0.0
 40
0.0
 40
0.2500001
 40
0.5000001631
 40
0.7500001269
 40
1.0
 40
1.0
 40
1.0
 40
1.0
 10
5.4684296064
 20
3.6539083242
 30
0.0
 10
5.5076599002
 20
3.6540265387
 30
0.0
 10
5.5861203749
 20
3.6542963276
 30
0.0
 10
5.7038112248
 20
3.6546563199
 30
0.0
 10
5.8215024354
 20
3.6548668752
 30
0.0
 10
5.8999633837
 20
3.6548635804
 30
0.0
 10
5.9391937971
 20
3.6548211945
 30
0.0
  0
SPLINE
  5
3D9
100
AcDbEntity
  8
ALL_ASSEMBLY_MEMBERS
100
AcDbSpline
 62
7
  6
CONTINUOUS
 70
0
 71
3
 72
18
 73
14
 74
0
 42
0.0000001
 43
0.0000001
 44
0.0000000001
 40
0.0
 40
0.0
 40
0.0
 40
0.0
 40
0.039415784
 40
0.0808630983
 40
0.1250798269
 40
0.1726093637
 40
0.2238246353
 40
0.2788923873
 40
0.4004343772
 40
0.5362997577
 40
0.6840141144
 40
0.8402025784
 40
1.0
 40
1.0
 40
1.0
 40
1.0
 10
5.4566681436
 20
3.6738376093
 30
0.0
 10
5.4569713185
 20
3.6737931401
 30
0.0
 10
5.4575854147
 20
3.6736394754
 30
0.0
 10
5.4584755725
 20
3.6732376061
 30
0.0
 10
5.4593438279
 20
3.6726664292
 30
0.0
 10
5.4601814474
 20
3.6719312878
 30
0.0
 10
5.4609798907
 20
3.6710377977
 30
0.0
 10
5.4620196428
 20
3.6696009219
 30
0.0
 10
5.4631695987
 20
3.6674482935
 30
0.0
 10
5.4642626975
 20
3.6644869909
 30
0.0
 10
5.4650813083
 20
3.661160899
 30
0.0
 10
5.4655894018
 20
3.6575869651
 30
0.0
 10
5.4657158852
 20
3.6551298643
 30
0.0
 10
5.4657234819
 20
3.6538876199
 30
0.0
  0
SPLINE
  5
3DA
100
AcDbEntity
  8
ALL_ASSEMBLY_MEMBERS
100
AcDbSpline
 62
7
  6
CONTINUOUS
 70
0
 71
3
 72
17
 73
13
 74
0
 42
0.0000001
 43
0.0000001
 44
0.0000000001
 40
0.0
 40
0.0
 40
0.0
 40
0.0
 40
0.1205993355
 40
0.2414522637
 40
0.362623893
 40
0.4843901975
 40
0.6073773004
 40
0.732797861
 40
0.797122224
 40
0.8628856721
 40
0.9304217856
 40
1.0
 40
1.0
 40
1.0
 40
1.0
 10
5.4422240258
 20
3.6764567496
 30
0.0
 10
5.4426321477
 20
3.6751127328
 30
0.0
 10
5.4435560722
 20
3.6724526696
 30
0.0
 10
5.445290199
 20
3.6685950527
 30
0.0
 10
5.447414336
 20
3.6649190754
 30
0.0
 10
5.4499820119
 20
3.6615018158
 30
0.0
 10
5.4530588317
 20
3.6584562427
 30
0.0
 10
5.4560886397
 20
3.6563859178
 30
0.0
 10
5.4587920409
 20
3.655127962
 30
0.0
 10
5.4609855224
 20
3.6544105455
 30
0.0
 10
5.4633129327
 20
3.6539669479
 30
0.0
 10
5.4649131601
 20
3.6538786301
 30
0.0
 10
5.4657234848
 20
3.6538876199
 30
0.0
  0
SPLINE
  5
3DB
100
AcDbEntity
  8
ALL_ASSEMBLY_MEMBERS
100
AcDbSpline
 62
7
  6
CONTINUOUS
 70
0
 71
3
 72
9
 73
5
 74
0
 42
0.0000001
 43
0.0000001
 44
0.0000000001
 40
0.0
 40
0.0
 40
0.0
 40
0.0
 40
0.2407301356
 40
1.0
 40
1.0
 40
1.0
 40
1.0
 10
5.4419007304
 20
3.6835572099
 30
0.0
 10
5.4421144614
 20
3.6831211209
 30
0.0
 10
5.4430524219
 20
3.6813357979
 30
0.0
 10
5.4442264005
 20
3.6796643785
 30
0.0
 10
5.4452680276
 20
3.6785413158
 30
0.0
  0
SPLINE
  5
3DC
100
AcDbEntity
  8
ALL_ASSEMBLY_MEMBERS
100
AcDbSpline
 62
7
  6
CONTINUOUS
 70
0
 71
3
 72
12
 73
8
 74
0
 42
0.0000001
 43
0.0000001
 44
0.0000000001
 40
0.0
 40
0.0
 40
0.0
 40
0.0
 40
0.1248399979
 40
0.2490360773
 40
0.498556041
 40
0.7489542413
 40
1.0
 40
1.0
 40
1.0
 40
1.0
 10
5.4399150565
 20
3.6889470757
 30
0.0
 10
5.439952906
 20
3.6884188557
 30
0.0
 10
5.4400462619
 20
3.6873663704
 30
0.0
 10
5.4402896816
 20
3.6852653768
 30
0.0
 10
5.4406970209
 20
3.6826479908
 30
0.0
 10
5.4413570052
 20
3.6795299863
 30
0.0
 10
5.4419144027
 20
3.6774756881
 30
0.0
 10
5.4422240258
 20
3.6764567496
 30
0.0
  0
LINE
  5
3DD
100
AcDbEntity
  8
ALL_ASSEMBLY_MEMBERS
100
AcDbLine
 62
7
  6
CONTINUOUS
 10
5.4399737787
 20
3.6887182441
 11
5.4408534088
 21
3.6859846101
  0
LINE
  5
3DE
100
AcDbEntity
  8
ALL_ASSEMBLY_MEMBERS
100
AcDbLine
 62
7
  6
CONTINUOUS
 10
5.4408534088
 20
3.6859846101
 11
5.4419010886
 21
3.6835561313
  0
SPLINE
  5
3DF
100
AcDbEntity
  8
ALL_ASSEMBLY_MEMBERS
100
AcDbSpline
 62
7
  6
CONTINUOUS
 70
0
 71
3
 72
15
 73
11
 74
0
 42
0.0000001
 43
0.0000001
 44
0.0000000001
 40
0.0
 40
0.0
 40
0.0
 40
0.0
 40
0.1378638707
 40
0.2747902441
 40
0.4091302449
 40
0.5393786972
 40
0.6644852687
 40
0.7835592627
 40
0.8957127224
 40
1.0
 40
1.0
 40
1.0
 40
1.0
 10
4.5419785632
 20
3.6548269924
 30
0.0
 10
4.5419676665
 20
3.655547078
 30
0.0
 10
4.5419941325
 20
3.6569833838
 30
0.0
 10
4.5421539235
 20
3.6591154394
 30
0.0
 10
4.5424070558
 20
3.6611981913
 30
0.0
 10
4.5427400421
 20
3.6632071813
 30
0.0
 10
4.5431603993
 20
3.6651185293
 30
0.0
 10
4.5436747065
 20
3.6669089431
 30
0.0
 10
4.5442734351
 20
3.6685575786
 30
0.0
 10
4.5447360776
 20
3.6695906957
 30
0.0
 10
4.5449796776
 20
3.6700779692
 30
0.0
  0
SPLINE
  5
3E0
100
AcDbEntity
  8
ALL_ASSEMBLY_MEMBERS
100
AcDbSpline
 62
7
  6
CONTINUOUS
 70
0
 71
3
 72
9
 73
5
 74
0
 42
0.0000001
 43
0.0000001
 44
0.0000000001
 40
0.0
 40
0.0
 40
0.0
 40
0.0
 40
0.531693168
 40
1.0
 40
1.0
 40
1.0
 40
1.0
 10
4.5449796776
 20
3.6700779692
 30
0.0
 10
4.5452749505
 20
3.6706686044
 30
0.0
 10
4.5458871394
 20
3.6717527706
 30
0.0
 10
4.5466595723
 20
3.6727359334
 30
0.0
 10
4.5470681805
 20
3.6731498266
 30
0.0
  0
LINE
  5
3E1
100
AcDbEntity
  8
ALL_ASSEMBLY_MEMBERS
100
AcDbLine
 62
7
  6
CONTINUOUS
 10
4.5470681805
 20
3.6731498266
 11
4.5486639298
 21
3.6743527843
  0
LINE
  5
3E2
100
AcDbEntity
  8
ALL_ASSEMBLY_MEMBERS
100
AcDbLine
 62
7
  6
CONTINUOUS
 10
4.5486639298
 20
3.6743527843
 11
4.5494548478
 21
3.6746796195
  0
SPLINE
  5
3E3
100
AcDbEntity
  8
ALL_ASSEMBLY_MEMBERS
100
AcDbSpline
 62
7
  6
CONTINUOUS
 70
0
 71
3
 72
11
 73
7
 74
0
 42
0.0000001
 43
0.0000001
 44
0.0000000001
 40
0.0
 40
0.0
 40
0.0
 40
0.0
 40
0.2500000997
 40
0.5000001632
 40
0.7500001267
 40
1.0
 40
1.0
 40
1.0
 40
1.0
 10
5.0127427538
 20
3.6539083242
 30
0.0
 10
4.9735124601
 20
3.6540265287
 30
0.0
 10
4.8950519854
 20
3.6542963362
 30
0.0
 10
4.7773611354
 20
3.6546563074
 30
0.0
 10
4.6596699249
 20
3.6548668836
 30
0.0
 10
4.5812089765
 20
3.654863658
 30
0.0
 10
4.5419785632
 20
3.6548212722
 30
0.0
  0
SPLINE
  5
3E4
100
AcDbEntity
  8
ALL_ASSEMBLY_MEMBERS
100
AcDbSpline
 62
7
  6
CONTINUOUS
 70
0
 71
3
 72
19
 73
15
 74
0
 42
0.0000001
 43
0.0000001
 44
0.0000000001
 40
0.0
 40
0.0
 40
0.0
 40
0.0
 40
0.1639283602
 40
0.3238162893
 40
0.4743833701
 40
0.6118720636
 40
0.6747989392
 40
0.7334986995
 40
0.7878379835
 40
0.8377839049
 40
0.8834732044
 40
0.9252915055
 40
0.963844606
 40
1.0
 40
1.0
 40
1.0
 40
1.0
 10
5.0127427538
 20
3.6539083242
 30
0.0
 10
5.0127458151
 20
3.6551494668
 30
0.0
 10
5.0128504216
 20
3.6576019418
 30
0.0
 10
5.0132893669
 20
3.6611709021
 30
0.0
 10
5.0140034656
 20
3.6644911712
 30
0.0
 10
5.0148236953
 20
3.6670256859
 30
0.0
 10
5.0156082622
 20
3.6688253645
 30
0.0
 10
5.0162287961
 20
3.6700058542
 30
0.0
 10
5.0168934059
 20
3.6710475817
 30
0.0
 10
5.0175974563
 20
3.6719413519
 30
0.0
 10
5.018337011
 20
3.6726777055
 30
0.0
 10
5.0191048474
 20
3.6732510442
 30
0.0
 10
5.0198937905
 20
3.6736559196
 30
0.0
 10
5.0204424295
 20
3.673812434
 30
0.0
 10
5.0207124235
 20
3.673857579
 30
0.0
  0
SPLINE
  5
3E5
100
AcDbEntity
  8
ALL_ASSEMBLY_MEMBERS
100
AcDbSpline
 62
7
  6
CONTINUOUS
 70
0
 71
3
 72
12
 73
8
 74
0
 42
0.0000001
 43
0.0000001
 44
0.0000000001
 40
0.0
 40
0.0
 40
0.0
 40
0.0
 40
0.2501330662
 40
0.3751963908
 40
0.5002386184
 40
0.7502182048
 40
1.0
 40
1.0
 40
1.0
 40
1.0
 10
5.0207124235
 20
3.673857579
 30
0.0
 10
4.981420123
 20
3.6739671032
 30
0.0
 10
4.9224822369
 20
3.6741523194
 30
0.0
 10
4.8439019663
 20
3.6743748335
 30
0.0
 10
4.7653457149
 20
3.6745630922
 30
0.0
 10
4.6671977831
 20
3.6747170373
 30
0.0
 10
4.5886921175
 20
3.6747171287
 30
0.0
 10
4.5494548621
 20
3.6746796287
 30
0.0
  0
SPLINE
  5
3E6
100
AcDbEntity
  8
ALL_ASSEMBLY_MEMBERS
100
AcDbSpline
 62
7
  6
CONTINUOUS
 70
0
 71
3
 72
18
 73
14
 74
0
 42
0.0000001
 43
0.0000001
 44
0.0000000001
 40
0.0
 40
0.0
 40
0.0
 40
0.0
 40
0.1597974247
 40
0.3159859036
 40
0.4637002796
 40
0.5995656768
 40
0.7211076744
 40
0.7761754252
 40
0.8273906916
 40
0.8749202192
 40
0.9191369347
 40
0.9605842332
 40
1.0
 40
1.0
 40
1.0
 40
1.0
 10
5.0154488762
 20
3.6538876046
 30
0.0
 10
5.0154564724
 20
3.6551298499
 30
0.0
 10
5.0155829548
 20
3.6575869527
 30
0.0
 10
5.0160910474
 20
3.6611608896
 30
0.0
 10
5.0169096576
 20
3.6644869847
 30
0.0
 10
5.0180027562
 20
3.6674482902
 30
0.0
 10
5.0191527123
 20
3.6696009207
 30
0.0
 10
5.0201924645
 20
3.671037798
 30
0.0
 10
5.0209909081
 20
3.6719312889
 30
0.0
 10
5.0218285279
 20
3.6726664309
 30
0.0
 10
5.0226967836
 20
3.6732376082
 30
0.0
 10
5.0235869417
 20
3.6736394775
 30
0.0
 10
5.0242010382
 20
3.6737931422
 30
0.0
 10
5.0245042132
 20
3.6738376113
 30
0.0
  0
SPLINE
  5
3E7
100
AcDbEntity
  8
ALL_ASSEMBLY_MEMBERS
100
AcDbSpline
 62
7
  6
CONTINUOUS
 70
0
 71
3
 72
9
 73
5
 74
0
 42
0.0000001
 43
0.0000001
 44
0.0000000001
 40
0.0
 40
0.0
 40
0.0
 40
0.0
 40
0.251866102
 40
1.0
 40
1.0
 40
1.0
 40
1.0
 10
5.9353595237
 20
3.6742675135
 30
0.0
 10
5.9350599389
 20
3.6743397331
 30
0.0
 10
5.9338620355
 20
3.6745898808
 30
0.0
 10
5.9326327822
 20
3.6746929751
 30
0.0
 10
5.9317175125
 20
3.6746796195
 30
0.0
  0
SPLINE
  5
3E8
100
AcDbEntity
  8
ALL_ASSEMBLY_MEMBERS
100
AcDbSpline
 62
7
  6
CONTINUOUS
 70
0
 71
3
 72
9
 73
5
 74
0
 42
0.0000001
 43
0.0000001
 44
0.0000000001
 40
0.0
 40
0.0
 40
0.0
 40
0.0
 40
0.2422607236
 40
1.0
 40
1.0
 40
1.0
 40
1.0
 10
5.0392717216
 20
3.6835570946
 30
0.0
 10
5.0390850432
 20
3.6831761812
 30
0.0
 10
5.0382762719
 20
3.6816235089
 30
0.0
 10
5.0372928726
 20
3.6801564539
 30
0.0
 10
5.0364366838
 20
3.679142877
 30
0.0
  0
SPLINE
  5
3E9
100
AcDbEntity
  8
ALL_ASSEMBLY_MEMBERS
100
AcDbSpline
 62
7
  6
CONTINUOUS
 70
0
 71
3
 72
11
 73
7
 74
0
 42
0.0000001
 43
0.0000001
 44
0.0000000001
 40
0.0
 40
0.0
 40
0.0
 40
0.0
 40
0.2487243018
 40
0.4978597146
 40
0.748073929
 40
1.0
 40
1.0
 40
1.0
 40
1.0
 10
5.8723859541
 20
3.6818380752
 30
0.0
 10
5.8773520437
 20
3.6818456668
 30
0.0
 10
5.8872955311
 20
3.6815582794
 30
0.0
 10
5.9021804336
 20
3.6802182404
 30
0.0
 10
5.9170200657
 20
3.6779700419
 30
0.0
 10
5.9268316725
 20
3.6758746432
 30
0.0
 10
5.9317176423
 20
3.6746794744
 30
0.0
  0
SPLINE
  5
3EA
100
AcDbEntity
  8
ALL_ASSEMBLY_MEMBERS
100
AcDbSpline
 62
7
  6
CONTINUOUS
 70
0
 71
3
 72
9
 73
5
 74
0
 42
0.0000001
 43
0.0000001
 44
0.0000000001
 40
0.0
 40
0.0
 40
0.0
 40
0.0
 40
0.25171113
 40
1.0
 40
1.0
 40
1.0
 40
1.0
 10
5.9348189043
 20
3.4900065272
 30
0.0
 10
5.9345170436
 20
3.4899455566
 30
0.0
 10
5.933310743
 20
3.4897401693
 30
0.0
 10
5.9320785841
 20
3.4896828868
 30
0.0
 10
5.9311643163
 20
3.4897302927
 30
0.0
  0
SPLINE
  5
3EB
100
AcDbEntity
  8
ALL_ASSEMBLY_MEMBERS
100
AcDbSpline
 62
7
  6
CONTINUOUS
 70
0
 71
3
 72
17
 73
13
 74
0
 42
0.0000001
 43
0.0000001
 44
0.0000000001
 40
0.0
 40
0.0
 40
0.0
 40
0.0
 40
0.1206016633
 40
0.2414509599
 40
0.3626186103
 40
0.484382374
 40
0.6073687446
 40
0.732790146
 40
0.7971169059
 40
0.8628820216
 40
0.9304207993
 40
1.0
 40
1.0
 40
1.0
 40
1.0
 10
5.0389426266
 20
3.6764382003
 30
0.0
 10
5.038534485
 20
3.6750949763
 30
0.0
 10
5.037610015
 20
3.6724367565
 30
0.0
 10
5.0358754799
 20
3.6685819774
 30
0.0
 10
5.033751257
 20
3.6649089062
 30
0.0
 10
5.0311838388
 20
3.661494532
 30
0.0
 10
5.028107732
 20
3.6584517032
 30
0.0
 10
5.0250789951
 20
3.6563834077
 30
0.0
 10
5.0223767883
 20
3.655126692
 30
0.0
 10
5.0201843546
 20
3.6544099584
 30
0.0
 10
5.0178581388
 20
3.6539668178
 30
0.0
 10
5.0162587583
 20
3.6538785989
 30
0.0
 10
5.0154488722
 20
3.6538876046
 30
0.0
  0
LINE
  5
3EC
100
AcDbEntity
  8
ALL_ASSEMBLY_MEMBERS
100
AcDbLine
 62
7
  6
CONTINUOUS
 10
5.0412071892
 20
3.6887558592
 11
5.0403023743
 21
3.6859424612
  0
LINE
  5
3ED
100
AcDbEntity
  8
ALL_ASSEMBLY_MEMBERS
100
AcDbLine
 62
7
  6
CONTINUOUS
 10
5.0403023743
 20
3.6859424612
 11
5.0392712373
 21
3.6835565445
  0
SPLINE
  5
3EE
100
AcDbEntity
  8
ALL_ASSEMBLY_MEMBERS
100
AcDbSpline
 62
7
  6
CONTINUOUS
 70
0
 71
3
 72
10
 73
6
 74
0
 42
0.0000001
 43
0.0000001
 44
0.0000000001
 40
0.0
 40
0.0
 40
0.0
 40
0.0
 40
0.2488802989
 40
0.4985693276
 40
1.0
 40
1.0
 40
1.0
 40
1.0
 10
5.0412573037
 20
3.6889473668
 30
0.0
 10
5.0411792097
 20
3.687893111
 30
0.0
 10
5.0409630452
 20
3.6857850878
 30
0.0
 10
5.0403096577
 20
3.6815870145
 30
0.0
 10
5.0395621066
 20
3.6784759988
 30
0.0
 10
5.0389426266
 20
3.6764382003
 30
0.0
  0
SPLINE
  5
3EF
100
AcDbEntity
  8
ALL_ASSEMBLY_MEMBERS
100
AcDbSpline
 62
7
  6
CONTINUOUS
 70
0
 71
3
 72
11
 73
7
 74
0
 42
0.0000001
 43
0.0000001
 44
0.0000000001
 40
0.0
 40
0.0
 40
0.0
 40
0.0
 40
0.2139121716
 40
0.4527286604
 40
0.71495072
 40
1.0
 40
1.0
 40
1.0
 40
1.0
 10
4.550008044
 20
3.4897302927
 30
0.0
 10
4.5497318591
 20
3.4898153352
 30
0.0
 10
4.5491655624
 20
3.4900567144
 30
0.0
 10
4.5483476835
 20
3.4905768789
 30
0.0
 10
4.5475416446
 20
3.4912739218
 30
0.0
 10
4.547053406
 20
3.491832163
 30
0.0
 10
4.5468156403
 20
3.4921350763
 30
0.0
  0
LINE
  5
3F0
100
AcDbEntity
  8
ALL_ASSEMBLY_MEMBERS
100
AcDbLine
 62
7
  6
CONTINUOUS
 10
4.5468156403
 20
3.4921350763
 11
4.5454108021
 21
3.4943451471
  0
SPLINE
  5
3F1
100
AcDbEntity
  8
ALL_ASSEMBLY_MEMBERS
100
AcDbSpline
 62
7
  6
CONTINUOUS
 70
0
 71
3
 72
15
 73
11
 74
0
 42
0.0000001
 43
0.0000001
 44
0.0000000001
 40
0.0
 40
0.0
 40
0.0
 40
0.0
 40
0.1049405563
 40
0.2175904279
 40
0.336979087
 40
0.462201802
 40
0.5923575513
 40
0.7263913924
 40
0.8628152094
 40
1.0
 40
1.0
 40
1.0
 40
1.0
 10
4.5454108021
 20
3.4943451471
 30
0.0
 10
4.5451541112
 20
3.4948317841
 30
0.0
 10
4.5446632703
 20
3.495862993
 30
0.0
 10
4.5440183155
 20
3.4975091839
 30
0.0
 10
4.5434536401
 20
3.4992965544
 30
0.0
 10
4.5429796134
 20
3.5012044754
 30
0.0
 10
4.5425902366
 20
3.503209358
 30
0.0
 10
4.5422787655
 20
3.5052871462
 30
0.0
 10
4.5420584093
 20
3.5074137758
 30
0.0
 10
4.541989525
 20
3.5088476698
 30
0.0
 10
4.5419785632
 20
3.5095668248
 30
0.0
  0
SPLINE
  5
3F2
100
AcDbEntity
  8
ALL_ASSEMBLY_MEMBERS
100
AcDbSpline
 62
7
  6
CONTINUOUS
 70
0
 71
3
 72
12
 73
8
 74
0
 42
0.0000001
 43
0.0000001
 44
0.0000000001
 40
0.0
 40
0.0
 40
0.0
 40
0.0
 40
0.2501339467
 40
0.3751978148
 40
0.5002404246
 40
0.7502199359
 40
1.0
 40
1.0
 40
1.0
 40
1.0
 10
5.0212685526
 20
3.507242491
 30
0.0
 10
4.9819772759
 20
3.5057425861
 30
0.0
 10
4.9230416387
 20
3.5034721131
 30
0.0
 10
4.8444635417
 20
3.5004687307
 30
0.0
 10
4.7659084335
 20
3.4974996662
 30
0.0
 10
4.6677595228
 20
3.4938693149
 30
0.0
 10
4.5892489402
 20
3.4910852329
 30
0.0
 10
4.5500080596
 20
3.489730282
 30
0.0
  0
SPLINE
  5
3F3
100
AcDbEntity
  8
ALL_ASSEMBLY_MEMBERS
100
AcDbSpline
 62
7
  6
CONTINUOUS
 70
0
 71
3
 72
19
 73
15
 74
0
 42
0.0000001
 43
0.0000001
 44
0.0000000001
 40
0.0
 40
0.0
 40
0.0
 40
0.0
 40
0.036179953
 40
0.0749343033
 40
0.1170652748
 40
0.163119813
 40
0.2134349519
 40
0.2681109062
 40
0.3270887472
 40
0.3902160433
 40
0.5278240978
 40
0.6780874472
 40
0.8372295016
 40
1.0
 40
1.0
 40
1.0
 40
1.0
 10
5.0212685526
 20
3.507242491
 30
0.0
 10
5.0209968563
 20
3.5072893049
 30
0.0
 10
5.0204437624
 20
3.5074492637
 30
0.0
 10
5.019645676
 20
3.5078572877
 30
0.0
 10
5.0188636667
 20
3.5084327816
 30
0.0
 10
5.0181050158
 20
3.5091704706
 30
0.0
 10
5.0173771154
 20
3.5100648568
 30
0.0
 10
5.016684234
 20
3.5111065425
 30
0.0
 10
5.0160313094
 20
3.5122863388
 30
0.0
 10
5.0151976042
 20
3.5140827489
 30
0.0
 10
5.0143068244
 20
3.5166114533
 30
0.0
 10
5.0134985564
 20
3.5199252467
 30
0.0
 10
5.0129574039
 20
3.5234865494
 30
0.0
 10
5.0127817635
 20
3.5259362947
 30
0.0
 10
5.012742754
 20
3.5271760309
 30
0.0
  0
SPLINE
  5
3F4
100
AcDbEntity
  8
ALL_ASSEMBLY_MEMBERS
100
AcDbSpline
 62
7
  6
CONTINUOUS
 70
0
 71
3
 72
11
 73
7
 74
0
 42
0.0000001
 43
0.0000001
 44
0.0000000001
 40
0.0
 40
0.0
 40
0.0
 40
0.0
 40
0.2500021624
 40
0.500003784
 40
0.7500033606
 40
1.0
 40
1.0
 40
1.0
 40
1.0
 10
5.0127427538
 20
3.5271760309
 30
0.0
 10
4.9735136082
 20
3.5256675255
 30
0.0
 10
4.8950567037
 20
3.5226168331
 30
0.0
 10
4.7773700001
 20
3.518084722
 30
0.0
 10
4.6596785005
 20
3.5137012488
 30
0.0
 10
4.5812126439
 20
3.5109218958
 30
0.0
 10
4.5419785632
 20
3.5095727241
 30
0.0
  0
SPLINE
  5
3F5
100
AcDbEntity
  8
ALL_ASSEMBLY_MEMBERS
100
AcDbSpline
 62
7
  6
CONTINUOUS
 70
0
 71
3
 72
18
 73
14
 74
0
 42
0.0000001
 43
0.0000001
 44
0.0000000001
 40
0.0
 40
0.0
 40
0.0
 40
0.0
 40
0.0384516767
 40
0.0792015135
 40
0.1229723636
 40
0.1702768938
 40
0.2214494701
 40
0.2766142504
 40
0.3986294221
 40
0.5351288304
 40
0.6834481179
 40
0.8400639885
 40
1.0
 40
1.0
 40
1.0
 40
1.0
 10
5.0239412028
 20
3.5073502902
 30
0.0
 10
5.0236460126
 20
3.5073957679
 30
0.0
 10
5.0230464123
 20
3.5075520262
 30
0.0
 10
5.0221762818
 20
3.507956066
 30
0.0
 10
5.0213229018
 20
3.508528558
 30
0.0
 10
5.0204946556
 20
3.5092642503
 30
0.0
 10
5.0196998273
 20
3.5101576066
 30
0.0
 10
5.0186563287
 20
3.5115947591
 30
0.0
 10
5.0174879922
 20
3.5137447594
 30
0.0
 10
5.0163520951
 20
3.5167006604
 30
0.0
 10
5.0154706551
 20
3.5200205319
 30
0.0
 10
5.0148817396
 20
3.5235877865
 30
0.0
 10
5.0146915782
 20
3.5260428477
 30
0.0
 10
5.0146499526
 20
3.5272844509
 30
0.0
  0
SPLINE
  5
3F6
100
AcDbEntity
  8
ALL_ASSEMBLY_MEMBERS
100
AcDbSpline
 62
7
  6
CONTINUOUS
 70
0
 71
3
 72
18
 73
14
 74
0
 42
0.0000001
 43
0.0000001
 44
0.0000000001
 40
0.0
 40
0.0
 40
0.0
 40
0.0
 40
0.1196931034
 40
0.2397579879
 40
0.3602978726
 40
0.4816424604
 40
0.6045103596
 40
0.6669816842
 40
0.7304200005
 40
0.7951257103
 40
0.8614284121
 40
0.9296412287
 40
1.0
 40
1.0
 40
1.0
 40
1.0
 10
5.0388849805
 20
3.505472626
 30
0.0
 10
5.0384633027
 20
3.506810107
 30
0.0
 10
5.0375072074
 20
3.5094558729
 30
0.0
 10
5.0357121951
 20
3.5132837495
 30
0.0
 10
5.033511561
 20
3.5169199129
 30
0.0
 10
5.0308512663
 20
3.5202807274
 30
0.0
 10
5.028204485
 20
3.5227393731
 30
0.0
 10
5.0258099019
 20
3.5244087285
 30
0.0
 10
5.0238518687
 20
3.525492181
 30
0.0
 10
5.0217416442
 20
3.5263646603
 30
0.0
 10
5.0194856835
 20
3.5269879304
 30
0.0
 10
5.0171021514
 20
3.5273237618
 30
0.0
 10
5.0154728356
 20
3.527333672
 30
0.0
 10
5.0146499507
 20
3.5272844509
 30
0.0
  0
SPLINE
  5
3F7
100
AcDbEntity
  8
ALL_ASSEMBLY_MEMBERS
100
AcDbSpline
 62
7
  6
CONTINUOUS
 70
0
 71
3
 72
9
 73
5
 74
0
 42
0.0000001
 43
0.0000001
 44
0.0000000001
 40
0.0
 40
0.0
 40
0.0
 40
0.0
 40
0.2418460688
 40
1.0
 40
1.0
 40
1.0
 40
1.0
 10
5.0392306251
 20
3.4982626652
 30
0.0
 10
5.0390541653
 20
3.4985995436
 30
0.0
 10
5.0382916614
 20
3.4999745978
 30
0.0
 10
5.0373815879
 20
3.5012713641
 30
0.0
 10
5.0366020521
 20
3.5021733651
 30
0.0
  0
SPLINE
  5
3F8
100
AcDbEntity
  8
ALL_ASSEMBLY_MEMBERS
100
AcDbSpline
 62
7
  6
CONTINUOUS
 70
0
 71
3
 72
14
 73
10
 74
0
 42
0.0000001
 43
0.0000001
 44
0.0000000001
 40
0.0
 40
0.0
 40
0.0
 40
0.0
 40
0.1928920403
 40
0.2971827027
 40
0.4090279365
 40
0.531113431
 40
0.6670947426
 40
0.8216661967
 40
1.0
 40
1.0
 40
1.0
 40
1.0
 10
5.0366020521
 20
3.5021733651
 30
0.0
 10
5.0360046481
 20
3.5028646212
 30
0.0
 10
5.0349976791
 20
3.5038607223
 30
0.0
 10
5.0334425191
 20
3.5050204272
 30
0.0
 10
5.0320607258
 20
3.5058379175
 30
0.0
 10
5.0304537023
 20
3.506547058
 30
0.0
 10
5.0285724604
 20
3.5070989287
 30
0.0
 10
5.0263675732
 20
3.5074206062
 30
0.0
 10
5.0247835303
 20
3.5074142701
 30
0.0
 10
5.0239412713
 20
3.5073503829
 30
0.0
  0
SPLINE
  5
3F9
100
AcDbEntity
  8
ALL_ASSEMBLY_MEMBERS
100
AcDbSpline
 62
7
  6
CONTINUOUS
 70
0
 71
3
 72
12
 73
8
 74
0
 42
0.0000001
 43
0.0000001
 44
0.0000000001
 40
0.0
 40
0.0
 40
0.0
 40
0.0
 40
0.1246848448
 40
0.2487753007
 40
0.4982104485
 40
0.7486911875
 40
1.0
 40
1.0
 40
1.0
 40
1.0
 10
5.0412573037
 20
3.4930884749
 30
0.0
 10
5.0412187296
 20
3.4936121958
 30
0.0
 10
5.0411233957
 20
3.4946558406
 30
0.0
 10
5.040874145
 20
3.4967394906
 30
0.0
 10
5.0404557982
 20
3.4993356363
 30
0.0
 10
5.0397771396
 20
3.5024275866
 30
0.0
 10
5.0392034241
 20
3.5044632192
 30
0.0
 10
5.0388849805
 20
3.505472626
 30
0.0
  0
LINE
  5
3FA
100
AcDbEntity
  8
ALL_ASSEMBLY_MEMBERS
100
AcDbLine
 62
7
  6
CONTINUOUS
 10
5.0412574065
 20
3.4930871205
 11
5.0404267054
 21
3.4956180947
  0
LINE
  5
3FB
100
AcDbEntity
  8
ALL_ASSEMBLY_MEMBERS
100
AcDbLine
 62
7
  6
CONTINUOUS
 10
5.0404267054
 20
3.4956180947
 11
5.0392301307
 21
3.4982634813
  0
SPLINE
  5
3FC
100
AcDbEntity
  8
ALL_ASSEMBLY_MEMBERS
100
AcDbSpline
 62
7
  6
CONTINUOUS
 70
0
 71
3
 72
11
 73
7
 74
0
 42
0.0000001
 43
0.0000001
 44
0.0000000001
 40
0.0
 40
0.0
 40
0.0
 40
0.0
 40
0.2519260747
 40
0.5021404829
 40
0.7512759428
 40
1.0
 40
1.0
 40
1.0
 40
1.0
 10
4.5494546952
 20
3.6746794619
 30
0.0
 10
4.5543401887
 20
3.675874514
 30
0.0
 10
4.5641508333
 20
3.677969745
 30
0.0
 10
4.5789889988
 20
3.6802178762
 30
0.0
 10
4.5938724283
 20
3.6815580101
 30
0.0
 10
4.6038149354
 20
3.6818455628
 30
0.0
 10
4.6087805361
 20
3.6818380836
 30
0.0
  0
LINE
  5
3FD
100
AcDbEntity
  8
ALL_ASSEMBLY_MEMBERS
100
AcDbLine
 62
7
  6
CONTINUOUS
 10
5.3563501891
 20
3.5095668248
 11
5.3587497156
 21
3.4897115236
  0
LINE
  5
3FE
100
AcDbEntity
  8
ALL_ASSEMBLY_MEMBERS
100
AcDbLine
 62
7
  6
CONTINUOUS
 10
5.3544274413
 20
3.688949286
 11
5.3267980569
 21
3.6779749779
  0
LINE
  5
3FF
100
AcDbEntity
  8
ALL_ASSEMBLY_MEMBERS
100
AcDbLine
 62
7
  6
CONTINUOUS
 10
5.3563501891
 20
3.6548269924
 11
5.3587621501
 21
3.6746810076
  0
LINE
  5
400
100
AcDbEntity
  8
ALL_ASSEMBLY_MEMBERS
100
AcDbLine
 62
7
  6
CONTINUOUS
 10
5.1248221712
 20
3.6548269924
 11
5.1224102107
 21
3.6746810076
  0
SPLINE
  5
401
100
AcDbEntity
  8
ALL_ASSEMBLY_MEMBERS
100
AcDbSpline
 62
7
  6
CONTINUOUS
 70
0
 71
3
 72
9
 73
5
 74
0
 42
0.0000001
 43
0.0000001
 44
0.0000000001
 40
0.0
 40
0.0
 40
0.0
 40
0.0
 40
0.2518660538
 40
1.0
 40
1.0
 40
1.0
 40
1.0
 10
4.5458128141
 20
3.6742675081
 30
0.0
 10
4.5461124006
 20
3.6743397285
 30
0.0
 10
4.5473103113
 20
3.674589879
 30
0.0
 10
4.5485395723
 20
3.6746929748
 30
0.0
 10
4.5494548478
 20
3.6746796195
 30
0.0
  0
LINE
  5
402
100
AcDbEntity
  8
ALL_ASSEMBLY_MEMBERS
100
AcDbLine
 62
7
  6
CONTINUOUS
 10
5.1267447103
 20
3.6889492497
 11
5.1543739028
 21
3.6779752267
  0
SPLINE
  5
403
100
AcDbEntity
  8
ALL_ASSEMBLY_MEMBERS
100
AcDbSpline
 62
7
  6
CONTINUOUS
 70
0
 71
3
 72
23
 73
19
 74
0
 42
0.0000001
 43
0.0000001
 44
0.0000000001
 40
0.0
 40
0.0
 40
0.0
 40
0.0
 40
0.062589243
 40
0.125110073
 40
0.1875526136
 40
0.2499534476
 40
0.3123714276
 40
0.3748504495
 40
0.4374002607
 40
0.4999977343
 40
0.5625953806
 40
0.6251453603
 40
0.6876244519
 40
0.7500418216
 40
0.8124421884
 40
0.8748846654
 40
0.937407655
 40
1.0
 40
1.0
 40
1.0
 40
1.0
 10
5.2405861801
 20
4.3383687888
 30
0.0
 10
5.2460910806
 20
4.3383687888
 30
0.0
 10
5.2571336984
 20
4.3371301455
 30
0.0
 10
5.2728418857
 20
4.3317004863
 30
0.0
 10
5.2870314488
 20
4.3230852427
 30
0.0
 10
5.2991739361
 20
4.3117988217
 30
0.0
 10
5.3089181426
 20
4.2983945893
 30
0.0
 10
5.3160280987
 20
4.2834189238
 30
0.0
 10
5.3203522482
 20
4.2674032806
 30
0.0
 10
5.3218032885
 20
4.2508693782
 30
0.0
 10
5.3203524555
 20
4.2343354424
 30
0.0
 10
5.3160284939
 20
4.2183197099
 30
0.0
 10
5.3089187308
 20
4.2033439908
 30
0.0
 10
5.2991747695
 20
4.1899396904
 30
0.0
 10
5.28703252
 20
4.1786531724
 30
0.0
 10
5.272843013
 20
4.1700375493
 30
0.0
 10
5.2571344266
 20
4.1646076165
 30
0.0
 10
5.2460913535
 20
4.1633687888
 30
0.0
 10
5.2405861801
 20
4.1633687888
 30
0.0
  0
SPLINE
  5
404
100
AcDbEntity
  8
ALL_ASSEMBLY_MEMBERS
100
AcDbSpline
 62
7
  6
CONTINUOUS
 70
0
 71
3
 72
23
 73
19
 74
0
 42
0.0000001
 43
0.0000001
 44
0.0000000001
 40
0.0
 40
0.0
 40
0.0
 40
0.0
 40
0.0625889654
 40
0.1251096667
 40
0.1875522743
 40
0.2499531913
 40
0.3123712534
 40
0.3748503195
 40
0.4374001861
 40
0.4999977163
 40
0.5625954191
 40
0.6251454531
 40
0.6876245904
 40
0.7500420426
 40
0.812442492
 40
0.8748850364
 40
0.9374079061
 40
1.0
 40
1.0
 40
1.0
 40
1.0
 10
5.2405861801
 20
4.1633687888
 30
0.0
 10
5.235081304
 20
4.1633687888
 30
0.0
 10
5.2240387213
 20
4.1646074168
 30
0.0
 10
5.2083305593
 20
4.1700370564
 30
0.0
 10
5.1941409813
 20
4.1786522789
 30
0.0
 10
5.1819984692
 20
4.1899387044
 30
0.0
 10
5.1722542421
 20
4.2033429449
 30
0.0
 10
5.1651442727
 20
4.2183186221
 30
0.0
 10
5.1608201146
 20
4.2343342775
 30
0.0
 10
5.1593690709
 20
4.2508681948
 30
0.0
 10
5.1608199057
 20
4.2674021455
 30
0.0
 10
5.1651438741
 20
4.2834178907
 30
0.0
 10
5.1722536491
 20
4.2983936223
 30
0.0
 10
5.1819976295
 20
4.311797932
 30
0.0
 10
5.1941399027
 20
4.3230844558
 30
0.0
 10
5.208329424
 20
4.3317000601
 30
0.0
 10
5.2240379876
 20
4.3371299762
 30
0.0
 10
5.2350810288
 20
4.3383687888
 30
0.0
 10
5.2405861801
 20
4.3383687888
 30
0.0
  0
ELLIPSE
  5
405
100
AcDbEntity
  8
ALL_ASSEMBLY_MEMBERS
100
AcDbEllipse
 62
7
  6
CONTINUOUS
 10
5.2405861801
 20
4.6754263418
 30
0.0
 11
0.4356620756
 21
0.3097087495
 31
0.0
 40
0.6863174071
 41
-3.9803437747
 42
-3.9676270558
  0
ELLIPSE
  5
406
100
AcDbEntity
  8
ALL_ASSEMBLY_MEMBERS
100
AcDbEllipse
 62
7
  6
CONTINUOUS
 10
5.2405861801
 20
4.6856888603
 30
0.0
 11
0.4845296417
 21
0.0531218498
 31
0.0
 40
0.2751161207
 41
2.7138845034
 42
2.7266070117
  0
ELLIPSE
  5
407
100
AcDbEntity
  8
ALL_ASSEMBLY_MEMBERS
100
AcDbEllipse
 62
7
  6
CONTINUOUS
 10
5.2405861801
 20
4.6448791739
 30
0.0
 11
0.4845296416
 21
-0.0531218552
 31
0.0
 40
0.2751161442
 41
-2.726607006
 42
-2.7138844977
  0
ELLIPSE
  5
408
100
AcDbEntity
  8
ALL_ASSEMBLY_MEMBERS
100
AcDbEllipse
 62
7
  6
CONTINUOUS
 10
5.2405861801
 20
4.6551416933
 30
0.0
 11
-0.4356620527
 21
0.3097088087
 31
0.0
 40
0.6863174268
 41
0.8260345095
 42
0.8387512283
  0
ELLIPSE
  5
409
100
AcDbEntity
  8
ALL_ASSEMBLY_MEMBERS
100
AcDbEllipse
 62
7
  6
CONTINUOUS
 10
5.2405861801
 20
4.6672682558
 30
0.0
 11
-0.2110172983
 21
0.9517381511
 31
0.0
 40
0.4585406789
 41
1.4848993014
 42
1.4925274221
  0
ELLIPSE
  5
40A
100
AcDbEntity
  8
ALL_ASSEMBLY_MEMBERS
100
AcDbEllipse
 62
7
  6
CONTINUOUS
 10
5.2405861801
 20
4.6746444451
 30
0.0
 11
-0.1839239125
 21
1.4338152941
 31
0.0
 40
0.3128035903
 41
1.5410292945
 42
1.5461141727
  0
ELLIPSE
  5
40B
100
AcDbEntity
  8
ALL_ASSEMBLY_MEMBERS
100
AcDbEllipse
 62
7
  6
CONTINUOUS
 10
5.2405861801
 20
4.635613859
 30
0.0
 11
0.4841680723
 21
0.069531332
 31
0.0
 40
0.3415053426
 41
2.6695629887
 42
2.6797561081
  0
ELLIPSE
  5
40C
100
AcDbEntity
  8
ALL_ASSEMBLY_MEMBERS
100
AcDbEllipse
 62
7
  6
CONTINUOUS
 10
5.2405861801
 20
4.6135236887
 30
0.0
 11
0.4021127937
 21
0.3867250719
 31
0.0
 40
0.7000252448
 41
-4.164805553
 42
-4.15715572
  0
ELLIPSE
  5
40D
100
AcDbEntity
  8
ALL_ASSEMBLY_MEMBERS
100
AcDbEllipse
 62
7
  6
CONTINUOUS
 10
5.2405861801
 20
4.5647832387
 30
0.0
 11
0.2001645895
 21
1.0730713555
 31
0.0
 40
0.4114299686
 41
1.5606800957
 42
1.5657826121
  0
ELLIPSE
  5
40E
100
AcDbEntity
  8
ALL_ASSEMBLY_MEMBERS
100
AcDbEllipse
 62
7
  6
CONTINUOUS
 10
5.2405861801
 20
4.471579066
 30
0.0
 11
0.173492527
 21
2.1521377604
 31
0.0
 40
0.2103210759
 41
1.498485551
 42
1.5010376571
  0
ELLIPSE
  5
40F
100
AcDbEntity
  8
ALL_ASSEMBLY_MEMBERS
100
AcDbEllipse
 62
7
  6
CONTINUOUS
 10
5.2405861801
 20
4.8589890572
 30
0.0
 11
-0.1734925196
 21
2.1521387659
 31
0.0
 40
0.210320979
 41
-4.6426302942
 42
-4.6400781881
  0
ELLIPSE
  5
410
100
AcDbEntity
  8
ALL_ASSEMBLY_MEMBERS
100
AcDbEllipse
 62
7
  6
CONTINUOUS
 10
5.2405861801
 20
4.7657847757
 30
0.0
 11
-0.2001646079
 21
1.0730711015
 31
0.0
 40
0.4114300582
 41
-4.7073753074
 42
-4.7022727909
  0
ELLIPSE
  5
411
100
AcDbEntity
  8
ALL_ASSEMBLY_MEMBERS
100
AcDbEllipse
 62
7
  6
CONTINUOUS
 10
5.2405861801
 20
4.7170443462
 30
0.0
 11
-0.4021127937
 21
0.3867250719
 31
0.0
 40
0.7000252448
 41
1.0155630664
 42
1.0232128994
  0
ELLIPSE
  5
412
100
AcDbEntity
  8
ALL_ASSEMBLY_MEMBERS
100
AcDbEllipse
 62
7
  6
CONTINUOUS
 10
5.2405861801
 20
4.6949541758
 30
0.0
 11
0.4841680723
 21
-0.069531332
 31
0.0
 40
0.3415053426
 41
-2.6797561081
 42
-2.6695629887
  0
ELLIPSE
  5
413
100
AcDbEntity
  8
ALL_ASSEMBLY_MEMBERS
100
AcDbEllipse
 62
7
  6
CONTINUOUS
 10
5.2405861801
 20
4.6944380864
 30
0.0
 11
0.4841680714
 21
0.0695313633
 31
0.0
 40
0.3415054598
 41
2.7840417005
 42
2.7942212431
  0
ELLIPSE
  5
414
100
AcDbEntity
  8
ALL_ASSEMBLY_MEMBERS
100
AcDbEllipse
 62
7
  6
CONTINUOUS
 10
5.2405861801
 20
4.7089700566
 30
0.0
 11
0.3546536662
 21
0.4793660332
 31
0.0
 40
0.6893673371
 41
-4.2104130135
 42
-4.2002376741
  0
ELLIPSE
  5
415
100
AcDbEntity
  8
ALL_ASSEMBLY_MEMBERS
100
AcDbEllipse
 62
7
  6
CONTINUOUS
 10
5.2405861801
 20
4.7252959632
 30
0.0
 11
0.2001647206
 21
1.0730695455
 31
0.0
 40
0.4114306072
 41
-4.6105355829
 42
-4.6054491537
  0
ELLIPSE
  5
416
100
AcDbEntity
  8
ALL_ASSEMBLY_MEMBERS
100
AcDbEllipse
 62
7
  6
CONTINUOUS
 10
5.2405861801
 20
4.6745843219
 30
0.0
 11
-0.200164647
 21
1.0730705612
 31
0.0
 40
0.4114302488
 41
1.4638566668
 42
1.468943096
  0
ELLIPSE
  5
417
100
AcDbEntity
  8
ALL_ASSEMBLY_MEMBERS
100
AcDbEllipse
 62
7
  6
CONTINUOUS
 10
5.2405861801
 20
4.690910259
 30
0.0
 11
-0.3546536662
 21
0.4793660332
 31
0.0
 40
0.6893673371
 41
1.0586450205
 42
1.06882036
  0
ELLIPSE
  5
418
100
AcDbEntity
  8
ALL_ASSEMBLY_MEMBERS
100
AcDbEllipse
 62
7
  6
CONTINUOUS
 10
5.2405861801
 20
4.7054422293
 30
0.0
 11
0.4841680714
 21
-0.0695313633
 31
0.0
 40
0.3415054598
 41
-2.7942212431
 42
-2.7840417005
  0
ELLIPSE
  5
419
100
AcDbEntity
  8
ALL_ASSEMBLY_MEMBERS
100
AcDbEllipse
 62
7
  6
CONTINUOUS
 10
5.2405861801
 20
4.6561339323
 30
0.0
 11
0.4841680714
 21
0.0695313633
 31
0.0
 40
0.3415054598
 41
2.7840417005
 42
2.7942212431
  0
ELLIPSE
  5
41A
100
AcDbEntity
  8
ALL_ASSEMBLY_MEMBERS
100
AcDbEllipse
 62
7
  6
CONTINUOUS
 10
5.2405861801
 20
4.6633999187
 30
0.0
 11
0.4668511673
 21
0.2089255909
 31
0.0
 40
0.6246664746
 41
2.5502781873
 42
2.5604535267
  0
ELLIPSE
  5
41B
100
AcDbEntity
  8
ALL_ASSEMBLY_MEMBERS
100
AcDbEllipse
 62
7
  6
CONTINUOUS
 10
5.2405861801
 20
4.6815398391
 30
0.0
 11
0.2110171867
 21
0.9517391668
 31
0.0
 40
0.4585402462
 41
-4.5883562274
 42
-4.5807268405
  0
ELLIPSE
  5
41C
100
AcDbEntity
  8
ALL_ASSEMBLY_MEMBERS
100
AcDbEllipse
 62
7
  6
CONTINUOUS
 10
5.2405861801
 20
4.6435561692
 30
0.0
 11
-0.211017168
 21
0.9517393376
 31
0.0
 40
0.4585401734
 41
1.4391342299
 42
1.4467636167
  0
ELLIPSE
  5
41D
100
AcDbEntity
  8
ALL_ASSEMBLY_MEMBERS
100
AcDbEllipse
 62
7
  6
CONTINUOUS
 10
5.2405861801
 20
4.6616960947
 30
0.0
 11
0.4668511673
 21
-0.2089255909
 31
0.0
 40
0.6246664746
 41
-2.5604535267
 42
-2.5502781873
  0
ELLIPSE
  5
41E
100
AcDbEntity
  8
ALL_ASSEMBLY_MEMBERS
100
AcDbEllipse
 62
7
  6
CONTINUOUS
 10
5.2405861801
 20
4.6689620811
 30
0.0
 11
0.4841680714
 21
-0.0695313633
 31
0.0
 40
0.3415054598
 41
-2.7942212431
 42
-2.7840417005
  0
ELLIPSE
  5
41F
100
AcDbEntity
  8
ALL_ASSEMBLY_MEMBERS
100
AcDbEllipse
 62
7
  6
CONTINUOUS
 10
5.2405861801
 20
4.652576066
 30
0.0
 11
0.4668512029
 21
-0.2089254365
 31
0.0
 40
0.6246663258
 41
-2.6063101801
 42
-2.6012078026
  0
ELLIPSE
  5
420
100
AcDbEntity
  8
ALL_ASSEMBLY_MEMBERS
100
AcDbEllipse
 62
7
  6
CONTINUOUS
 10
5.2405861801
 20
4.6216280338
 30
0.0
 11
-0.2578960711
 21
0.7014332479
 31
0.0
 40
0.5851642007
 41
1.2648458323
 42
1.272503669
  0
ELLIPSE
  5
421
100
AcDbEntity
  8
ALL_ASSEMBLY_MEMBERS
100
AcDbEllipse
 62
7
  6
CONTINUOUS
 10
5.2405861801
 20
4.5542599533
 30
0.0
 11
-0.1839239562
 21
1.4338136914
 31
0.0
 40
0.3128039274
 41
1.4315508783
 42
1.436659149
  0
ELLIPSE
  5
422
100
AcDbEntity
  8
ALL_ASSEMBLY_MEMBERS
100
AcDbEllipse
 62
7
  6
CONTINUOUS
 10
5.2405861801
 20
4.7783829665
 30
0.0
 11
0.3259986888
 21
0.53452672
 31
0.0
 40
0.6711697407
 41
-1.3248817727
 42
-1.3025825674
  0
ELLIPSE
  5
423
100
AcDbEntity
  8
ALL_ASSEMBLY_MEMBERS
100
AcDbEllipse
 62
7
  6
CONTINUOUS
 10
5.2405861801
 20
4.8793044965
 30
0.0
 11
0.1770586083
 21
1.7931568303
 31
0.0
 40
0.2516550235
 41
-4.5935119134
 42
-4.5884036427
  0
ELLIPSE
  5
424
100
AcDbEntity
  8
ALL_ASSEMBLY_MEMBERS
100
AcDbEllipse
 62
7
  6
CONTINUOUS
 10
5.2405861801
 20
4.7782522818
 30
0.0
 11
0.2578960711
 21
0.7014332479
 31
0.0
 40
0.5851642007
 41
-4.4140963225
 42
-4.4064384859
  0
ELLIPSE
  5
425
100
AcDbEntity
  8
ALL_ASSEMBLY_MEMBERS
100
AcDbEllipse
 62
7
  6
CONTINUOUS
 10
5.2405861801
 20
4.7534938572
 30
0.0
 11
0.4356621873
 21
0.3097084593
 31
0.0
 40
0.6863173103
 41
-3.8709533301
 42
-3.8582013196
  0
ELLIPSE
  5
426
100
AcDbEntity
  8
ALL_ASSEMBLY_MEMBERS
100
AcDbEllipse
 62
7
  6
CONTINUOUS
 10
5.2405861801
 20
4.7323834499
 30
0.0
 11
0.4845296421
 21
0.0531218233
 31
0.0
 40
0.2751160055
 41
2.8232569308
 42
2.835996958
  0
ELLIPSE
  5
427
100
AcDbEntity
  8
ALL_ASSEMBLY_MEMBERS
100
AcDbEllipse
 62
7
  6
CONTINUOUS
 10
5.2405861801
 20
4.7358227741
 30
0.0
 11
0.3259987817
 21
0.5345265359
 31
0.0
 40
0.671169814
 41
-1.2507643659
 42
-1.2286210799
  0
ELLIPSE
  5
428
100
AcDbEntity
  8
ALL_ASSEMBLY_MEMBERS
100
AcDbEllipse
 62
7
  6
CONTINUOUS
 10
5.2405861801
 20
4.6647044585
 30
0.0
 11
0.4630591816
 21
0.2245111552
 31
0.0
 40
0.6386464466
 41
-0.6183052266
 42
-0.6035566623
  0
ELLIPSE
  5
429
100
AcDbEntity
  8
ALL_ASSEMBLY_MEMBERS
100
AcDbEllipse
 62
7
  6
CONTINUOUS
 10
5.2405861801
 20
4.6760348794
 30
0.0
 11
0.4846322909
 21
0.0448829864
 31
0.0
 40
0.2379966242
 41
-0.3253141803
 42
-0.3105556307
  0
ELLIPSE
  5
42A
100
AcDbEntity
  8
ALL_ASSEMBLY_MEMBERS
100
AcDbEllipse
 62
7
  6
CONTINUOUS
 10
5.2405861801
 20
4.6545331555
 30
0.0
 11
0.4846322909
 21
-0.0448829864
 31
0.0
 40
0.2379966242
 41
0.3105556307
 42
0.3253141803
  0
ELLIPSE
  5
42B
100
AcDbEntity
  8
ALL_ASSEMBLY_MEMBERS
100
AcDbEllipse
 62
7
  6
CONTINUOUS
 10
5.2405861801
 20
4.66397517
 30
0.0
 11
0.4734427814
 21
-0.1768432279
 31
0.0
 40
0.588594106
 41
0.5196885314
 42
0.5307507159
  0
ELLIPSE
  5
42C
100
AcDbEntity
  8
ALL_ASSEMBLY_MEMBERS
100
AcDbEllipse
 62
7
  6
CONTINUOUS
 10
5.2405861801
 20
4.6868935687
 30
0.0
 11
-0.207495773
 21
0.9858241387
 31
0.0
 40
0.4443956471
 41
-1.6987885097
 42
-1.6914161614
  0
ELLIPSE
  5
42D
100
AcDbEntity
  8
ALL_ASSEMBLY_MEMBERS
100
AcDbEllipse
 62
7
  6
CONTINUOUS
 10
5.2405861801
 20
4.6297437224
 30
0.0
 11
0.4847035227
 21
0.0351495033
 31
0.0
 40
0.1909698234
 41
-0.2802019056
 42
-0.2617015349
  0
ELLIPSE
  5
42E
100
AcDbEntity
  8
ALL_ASSEMBLY_MEMBERS
100
AcDbEllipse
 62
7
  6
CONTINUOUS
 10
5.2405861801
 20
4.6097353388
 30
0.0
 11
0.4782981758
 21
0.1456294577
 31
0.0
 40
0.5412725914
 41
-0.4111891223
 42
-0.3926539211
  0
ELLIPSE
  5
42F
100
AcDbEntity
  8
ALL_ASSEMBLY_MEMBERS
100
AcDbEllipse
 62
7
  6
CONTINUOUS
 10
5.2405861801
 20
4.5663653055
 30
0.0
 11
0.2800134072
 21
0.636735321
 31
0.0
 40
0.6214444929
 41
-1.1842741772
 42
-1.1731335909
  0
ELLIPSE
  5
430
100
AcDbEntity
  8
ALL_ASSEMBLY_MEMBERS
100
AcDbEllipse
 62
7
  6
CONTINUOUS
 10
5.2405861801
 20
4.4909837776
 30
0.0
 11
0.190868369
 21
1.2357421379
 31
0.0
 40
0.3605861895
 41
-1.3842710587
 42
-1.3768349866
  0
ELLIPSE
  5
431
100
AcDbEntity
  8
ALL_ASSEMBLY_MEMBERS
100
AcDbEllipse
 62
7
  6
CONTINUOUS
 10
5.2405861801
 20
4.8395842799
 30
0.0
 11
-0.1908683611
 21
1.2357423122
 31
0.0
 40
0.3605861413
 41
-1.7647576494
 42
-1.7573215773
  0
ELLIPSE
  5
432
100
AcDbEntity
  8
ALL_ASSEMBLY_MEMBERS
100
AcDbEllipse
 62
7
  6
CONTINUOUS
 10
5.2405861801
 20
4.7642027219
 30
0.0
 11
-0.2800134331
 21
0.6367352539
 31
0.0
 40
0.6214445296
 41
-1.968459128
 42
-1.9573185418
  0
ELLIPSE
  5
433
100
AcDbEntity
  8
ALL_ASSEMBLY_MEMBERS
100
AcDbEllipse
 62
7
  6
CONTINUOUS
 10
5.2405861801
 20
4.7208326923
 30
0.0
 11
0.4782981788
 21
-0.1456294353
 31
0.0
 40
0.541272552
 41
0.3926538838
 42
0.411189085
  0
ELLIPSE
  5
434
100
AcDbEntity
  8
ALL_ASSEMBLY_MEMBERS
100
AcDbEllipse
 62
7
  6
CONTINUOUS
 10
5.2405861801
 20
4.7008243104
 30
0.0
 11
0.4847035227
 21
-0.0351495
 31
0.0
 40
0.1909698069
 41
0.2617015324
 42
0.2802019031
  0
ELLIPSE
  5
435
100
AcDbEntity
  8
ALL_ASSEMBLY_MEMBERS
100
AcDbEllipse
 62
7
  6
CONTINUOUS
 10
5.2405861801
 20
4.628827908
 30
0.0
 11
0.484529642
 21
-0.0531218287
 31
0.0
 40
0.275116029
 41
-2.8385463295
 42
-2.8258040739
  0
ELLIPSE
  5
436
100
AcDbEntity
  8
ALL_ASSEMBLY_MEMBERS
100
AcDbEllipse
 62
7
  6
CONTINUOUS
 10
5.2405861801
 20
4.6069878933
 30
0.0
 11
-0.4356621459
 21
0.3097085669
 31
0.0
 40
0.6863173461
 41
0.7140568349
 42
0.7268114943
  0
ELLIPSE
  5
437
100
AcDbEntity
  8
ALL_ASSEMBLY_MEMBERS
100
AcDbEllipse
 62
7
  6
CONTINUOUS
 10
5.2405861801
 20
4.5814998605
 30
0.0
 11
-0.2578960294
 21
0.701433387
 31
0.0
 40
0.5851641221
 41
1.2622921148
 42
1.2699517446
  0
ELLIPSE
  5
438
100
AcDbEntity
  8
ALL_ASSEMBLY_MEMBERS
100
AcDbEllipse
 62
7
  6
CONTINUOUS
 10
5.2405861801
 20
4.4777117253
 30
0.0
 11
-0.1770586193
 21
1.7931559956
 31
0.0
 40
0.2516551382
 41
1.4442558639
 42
1.4493654161
  0
ELLIPSE
  5
439
100
AcDbEntity
  8
ALL_ASSEMBLY_MEMBERS
100
AcDbEllipse
 62
7
  6
CONTINUOUS
 10
5.2405861801
 20
4.8473843124
 30
0.0
 11
0.177058616
 21
1.7931562471
 31
0.0
 40
0.2516551037
 41
-4.5909580771
 42
-4.5858485249
  0
ELLIPSE
  5
43A
100
AcDbEntity
  8
ALL_ASSEMBLY_MEMBERS
100
AcDbEllipse
 62
7
  6
CONTINUOUS
 10
5.2405861801
 20
4.7262981201
 30
0.0
 11
0.3546537589
 21
0.4793658574
 31
0.0
 40
0.6893673822
 41
-4.1543810131
 42
-4.1441693573
  0
ELLIPSE
  5
43B
100
AcDbEntity
  8
ALL_ASSEMBLY_MEMBERS
100
AcDbEllipse
 62
7
  6
CONTINUOUS
 10
5.2405861801
 20
4.7108241014
 30
0.0
 11
0.4668512029
 21
0.2089254365
 31
0.0
 40
0.6246663258
 41
2.6012078026
 42
2.6063101801
  0
ELLIPSE
  5
43C
100
AcDbEntity
  8
ALL_ASSEMBLY_MEMBERS
100
AcDbEllipse
 62
7
  6
CONTINUOUS
 10
5.2405861801
 20
4.6557380319
 30
0.0
 11
0.4817044942
 21
-0.0691776629
 31
0.0
 40
0.3415058114
 41
-2.7050160301
 42
-2.6947853447
  0
ELLIPSE
  5
43D
100
AcDbEntity
  8
ALL_ASSEMBLY_MEMBERS
100
AcDbEllipse
 62
7
  6
CONTINUOUS
 10
5.2405861801
 20
4.6233919425
 30
0.0
 11
0.4644757236
 21
-0.2078624458
 31
0.0
 40
0.6246664002
 41
-2.6016242452
 42
-2.5913732513
  0
ELLIPSE
  5
43E
100
AcDbEntity
  8
ALL_ASSEMBLY_MEMBERS
100
AcDbEllipse
 62
7
  6
CONTINUOUS
 10
5.2405861801
 20
4.6233919425
 30
0.0
 11
0.4668511851
 21
-0.2089255137
 31
0.0
 40
0.6246664002
 41
-2.601207666
 42
-2.5910091369
  0
ELLIPSE
  5
43F
100
AcDbEntity
  8
ALL_ASSEMBLY_MEMBERS
100
AcDbEllipse
 62
7
  6
CONTINUOUS
 10
5.2405861801
 20
4.6361299491
 30
0.0
 11
0.4817044969
 21
-0.0691775694
 31
0.0
 40
0.3415054598
 41
-2.8149612884
 42
-2.8098396765
  0
ELLIPSE
  5
440
100
AcDbEntity
  8
ALL_ASSEMBLY_MEMBERS
100
AcDbEllipse
 62
7
  6
CONTINUOUS
 10
5.2405861801
 20
4.6361299491
 30
0.0
 11
0.4841680714
 21
-0.0695313633
 31
0.0
 40
0.3415054598
 41
-2.8145971741
 42
-2.804406043
  0
ELLIPSE
  5
441
100
AcDbEntity
  8
ALL_ASSEMBLY_MEMBERS
100
AcDbEllipse
 62
7
  6
CONTINUOUS
 10
5.2405861801
 20
4.6557380319
 30
0.0
 11
0.4841680686
 21
-0.0695314572
 31
0.0
 40
0.3415058114
 41
-2.7052120566
 42
-2.6950335265
  0
ELLIPSE
  5
442
100
AcDbEntity
  8
ALL_ASSEMBLY_MEMBERS
100
AcDbEllipse
 62
7
  6
CONTINUOUS
 10
5.2405861801
 20
4.792974996
 30
0.0
 11
0.3259988447
 21
0.534526411
 31
0.0
 40
0.6711698637
 41
-1.3248813381
 42
-1.3025821329
  0
ELLIPSE
  5
443
100
AcDbEntity
  8
ALL_ASSEMBLY_MEMBERS
100
AcDbEllipse
 62
7
  6
CONTINUOUS
 10
5.2405861801
 20
4.792974996
 30
0.0
 11
0.3243400769
 21
0.5318066001
 31
0.0
 40
0.6711698637
 41
-1.3256157268
 42
-1.3032004624
  0
ELLIPSE
  5
444
100
AcDbEntity
  8
ALL_ASSEMBLY_MEMBERS
100
AcDbEllipse
 62
7
  6
CONTINUOUS
 10
5.2405861801
 20
4.701788192
 30
0.0
 11
0.4820642286
 21
-0.0528514816
 31
0.0
 40
0.2751158134
 41
-2.6982804374
 42
-2.6854723786
  0
ELLIPSE
  5
445
100
AcDbEntity
  8
ALL_ASSEMBLY_MEMBERS
100
AcDbEllipse
 62
7
  6
CONTINUOUS
 10
5.2405861801
 20
4.701788192
 30
0.0
 11
0.4845296428
 21
-0.0531217792
 31
0.0
 40
0.2751158134
 41
-2.6986070031
 42
-2.6858644385
  0
ELLIPSE
  5
446
100
AcDbEntity
  8
ALL_ASSEMBLY_MEMBERS
100
AcDbEllipse
 62
7
  6
CONTINUOUS
 10
5.2405861801
 20
4.7237243746
 30
0.0
 11
-0.4334453124
 21
0.30813287
 31
0.0
 40
0.6863174071
 41
0.879885828
 42
0.8927065257
  0
ELLIPSE
  5
447
100
AcDbEntity
  8
ALL_ASSEMBLY_MEMBERS
100
AcDbEllipse
 62
7
  6
CONTINUOUS
 10
5.2405861801
 20
4.7237243746
 30
0.0
 11
-0.4356620756
 21
0.3097087495
 31
0.0
 40
0.6863174071
 41
0.879493768
 42
0.8922487784
  0
ELLIPSE
  5
448
100
AcDbEntity
  8
ALL_ASSEMBLY_MEMBERS
100
AcDbEllipse
 62
7
  6
CONTINUOUS
 10
5.2405861801
 20
4.7706286801
 30
0.0
 11
-0.2099434945
 21
0.9468962978
 31
0.0
 40
0.4585403189
 41
1.5591997581
 42
1.5668991476
  0
ELLIPSE
  5
449
100
AcDbEntity
  8
ALL_ASSEMBLY_MEMBERS
100
AcDbEllipse
 62
7
  6
CONTINUOUS
 10
5.2405861801
 20
4.7706286801
 30
0.0
 11
-0.2110172055
 21
0.951738996
 31
0.0
 40
0.4585403189
 41
1.5587420108
 42
1.5664018812
  0
ELLIPSE
  5
44A
100
AcDbEntity
  8
ALL_ASSEMBLY_MEMBERS
100
AcDbEllipse
 62
7
  6
CONTINUOUS
 10
5.2405861801
 20
4.7504148207
 30
0.0
 11
0.3259989376
 21
0.5345262269
 31
0.0
 40
0.6711699369
 41
-1.2507639313
 42
-1.2286206453
  0
ELLIPSE
  5
44B
100
AcDbEntity
  8
ALL_ASSEMBLY_MEMBERS
100
AcDbEllipse
 62
7
  6
CONTINUOUS
 10
5.2405861801
 20
4.7504148207
 30
0.0
 11
0.3243401693
 21
0.5318064169
 31
0.0
 40
0.6711699369
 41
-1.2511147927
 42
-1.2288578778
  0
ELLIPSE
  5
44C
100
AcDbEntity
  8
ALL_ASSEMBLY_MEMBERS
100
AcDbEllipse
 62
7
  6
CONTINUOUS
 10
5.2405861801
 20
4.6748300029
 30
0.0
 11
0.4817044942
 21
0.0691776629
 31
0.0
 40
0.3415058114
 41
8.9779706519
 42
8.9882013373
  0
ELLIPSE
  5
44D
100
AcDbEntity
  8
ALL_ASSEMBLY_MEMBERS
100
AcDbEllipse
 62
7
  6
CONTINUOUS
 10
5.2405861801
 20
4.7163802611
 30
0.0
 11
0.4820642278
 21
-0.0528515343
 31
0.0
 40
0.2751160439
 41
-2.8133316337
 42
-2.8005427031
  0
ELLIPSE
  5
44E
100
AcDbEntity
  8
ALL_ASSEMBLY_MEMBERS
100
AcDbEllipse
 62
7
  6
CONTINUOUS
 10
5.2405861801
 20
4.6748300029
 30
0.0
 11
0.4841680686
 21
0.0695314572
 31
0.0
 40
0.3415058114
 41
2.6950335265
 42
2.7052120566
  0
ELLIPSE
  5
44F
100
AcDbEntity
  8
ALL_ASSEMBLY_MEMBERS
100
AcDbEllipse
 62
7
  6
CONTINUOUS
 10
5.2405861801
 20
4.7163802611
 30
0.0
 11
0.484529642
 21
-0.0531218322
 31
0.0
 40
0.2751160439
 41
-2.8130721217
 42
-2.8003483937
  0
ELLIPSE
  5
450
100
AcDbEntity
  8
ALL_ASSEMBLY_MEMBERS
100
AcDbEllipse
 62
7
  6
CONTINUOUS
 10
5.2405861801
 20
4.6610898708
 30
0.0
 11
0.3528493905
 21
0.4769263331
 31
0.0
 40
0.6893674814
 41
-4.2792623293
 42
-4.2690356602
  0
ELLIPSE
  5
451
100
AcDbEntity
  8
ALL_ASSEMBLY_MEMBERS
100
AcDbEllipse
 62
7
  6
CONTINUOUS
 10
5.2405861801
 20
4.7054842956
 30
0.0
 11
-0.4334454607
 21
0.308132485
 31
0.0
 40
0.686317278
 41
0.7648147469
 42
0.777597438
  0
ELLIPSE
  5
452
100
AcDbEntity
  8
ALL_ASSEMBLY_MEMBERS
100
AcDbEllipse
 62
7
  6
CONTINUOUS
 10
5.2405861801
 20
4.7054842956
 30
0.0
 11
-0.4356622246
 21
0.3097083626
 31
0.0
 40
0.686317278
 41
0.7650090563
 42
0.7777266395
  0
ELLIPSE
  5
453
100
AcDbEntity
  8
ALL_ASSEMBLY_MEMBERS
100
AcDbEllipse
 62
7
  6
CONTINUOUS
 10
5.2405861801
 20
4.6610898708
 30
0.0
 11
0.3546539631
 21
0.4793654706
 31
0.0
 40
0.6893674814
 41
-4.2790663028
 42
-4.2688917277
  0
ELLIPSE
  5
454
100
AcDbEntity
  8
ALL_ASSEMBLY_MEMBERS
100
AcDbEllipse
 62
7
  6
CONTINUOUS
 10
5.2405861801
 20
4.6982363394
 30
0.0
 11
-0.2565838281
 21
0.6978641712
 31
0.0
 40
0.5851642007
 41
1.3334926163
 42
1.3411601046
  0
ELLIPSE
  5
455
100
AcDbEntity
  8
ALL_ASSEMBLY_MEMBERS
100
AcDbEllipse
 62
7
  6
CONTINUOUS
 10
5.2405861801
 20
4.8516334286
 30
0.0
 11
-0.176157672
 21
1.7840339535
 31
0.0
 40
0.251654861
 41
-4.6398114528
 42
-4.6346753393
  0
ELLIPSE
  5
456
100
AcDbEntity
  8
ALL_ASSEMBLY_MEMBERS
100
AcDbEllipse
 62
7
  6
CONTINUOUS
 10
5.2405861801
 20
4.6982363394
 30
0.0
 11
-0.2578960711
 21
0.7014332479
 31
0.0
 40
0.5851642007
 41
1.3336218178
 42
1.3412502738
  0
ELLIPSE
  5
457
100
AcDbEntity
  8
ALL_ASSEMBLY_MEMBERS
100
AcDbEllipse
 62
7
  6
CONTINUOUS
 10
5.2405861801
 20
4.6937493265
 30
0.0
 11
0.4846322902
 21
-0.0448830582
 31
0.0
 40
0.2379969588
 41
0.2735943692
 42
0.2883920801
  0
ELLIPSE
  5
458
100
AcDbEntity
  8
ALL_ASSEMBLY_MEMBERS
100
AcDbEllipse
 62
7
  6
CONTINUOUS
 10
5.2405861801
 20
4.6937493265
 30
0.0
 11
0.4821663537
 21
-0.0446546814
 31
0.0
 40
0.2379969588
 41
6.5562793864
 42
6.5711534012
  0
ELLIPSE
  5
459
100
AcDbEntity
  8
ALL_ASSEMBLY_MEMBERS
100
AcDbEllipse
 62
7
  6
CONTINUOUS
 10
5.2405861801
 20
4.6792645409
 30
0.0
 11
-0.1761576992
 21
1.7840318986
 31
0.0
 40
0.2516551449
 41
1.5282335062
 42
1.533344561
  0
ELLIPSE
  5
45A
100
AcDbEntity
  8
ALL_ASSEMBLY_MEMBERS
100
AcDbEllipse
 62
7
  6
CONTINUOUS
 10
5.2405861801
 20
4.713831367
 30
0.0
 11
0.4734427814
 21
-0.1768432279
 31
0.0
 40
0.588594106
 41
0.4568564648
 42
0.4679686539
  0
ELLIPSE
  5
45B
100
AcDbEntity
  8
ALL_ASSEMBLY_MEMBERS
100
AcDbEllipse
 62
7
  6
CONTINUOUS
 10
5.2405861801
 20
4.713831367
 30
0.0
 11
0.47103378
 21
-0.175943403
 31
0.0
 40
0.588594106
 41
0.4562987307
 42
0.467468364
  0
ELLIPSE
  5
45C
100
AcDbEntity
  8
ALL_ASSEMBLY_MEMBERS
100
AcDbEllipse
 62
7
  6
CONTINUOUS
 10
5.2405861801
 20
4.7585553355
 30
0.0
 11
-0.2501318493
 21
0.728790877
 31
0.0
 40
0.569753021
 41
-1.8799443451
 42
-1.8725288025
  0
ELLIPSE
  5
45D
100
AcDbEntity
  8
ALL_ASSEMBLY_MEMBERS
100
AcDbEllipse
 62
7
  6
CONTINUOUS
 10
5.2405861801
 20
4.7585553355
 30
0.0
 11
-0.2488591127
 21
0.7250825974
 31
0.0
 40
0.569753021
 41
-1.880540491
 42
-1.8730865367
  0
ELLIPSE
  5
45E
100
AcDbEntity
  8
ALL_ASSEMBLY_MEMBERS
100
AcDbEllipse
 62
7
  6
CONTINUOUS
 10
5.2405861801
 20
4.8445316872
 30
0.0
 11
-0.1826258381
 21
1.484169538
 31
0.0
 40
0.3025481177
 41
-1.7277547305
 42
-1.7240446013
  0
ELLIPSE
  5
45F
100
AcDbEntity
  8
ALL_ASSEMBLY_MEMBERS
100
AcDbEllipse
 62
7
  6
CONTINUOUS
 10
5.2405861801
 20
4.8445316872
 30
0.0
 11
-0.1816965899
 21
1.4766176932
 31
0.0
 40
0.3025481177
 41
-1.7283701194
 42
-1.7246407472
  0
ELLIPSE
  5
460
100
AcDbEntity
  8
ALL_ASSEMBLY_MEMBERS
100
AcDbEllipse
 62
7
  6
CONTINUOUS
 10
5.2405861801
 20
4.4860364292
 30
0.0
 11
0.1826258551
 21
1.4841688429
 31
0.0
 40
0.3025482548
 41
-1.4175480146
 42
-1.4138378854
  0
ELLIPSE
  5
461
100
AcDbEntity
  8
ALL_ASSEMBLY_MEMBERS
100
AcDbEllipse
 62
7
  6
CONTINUOUS
 10
5.2405861801
 20
4.4860364292
 30
0.0
 11
0.1816966067
 21
1.4766170017
 31
0.0
 40
0.3025482548
 41
-1.4169518687
 42
-1.4132224965
  0
ELLIPSE
  5
462
100
AcDbEntity
  8
ALL_ASSEMBLY_MEMBERS
100
AcDbEllipse
 62
7
  6
CONTINUOUS
 10
5.2405861801
 20
4.5720126806
 30
0.0
 11
0.250131799
 21
0.7287910644
 31
0.0
 40
0.5697529161
 41
-1.269063972
 42
-1.2616484294
  0
ELLIPSE
  5
463
100
AcDbEntity
  8
ALL_ASSEMBLY_MEMBERS
100
AcDbEllipse
 62
7
  6
CONTINUOUS
 10
5.2405861801
 20
4.5720126806
 30
0.0
 11
0.2488590627
 21
0.7250827838
 31
0.0
 40
0.5697529161
 41
-1.2685062378
 42
-1.2610522835
  0
ELLIPSE
  5
464
100
AcDbEntity
  8
ALL_ASSEMBLY_MEMBERS
100
AcDbEllipse
 62
7
  6
CONTINUOUS
 10
5.2405861801
 20
4.6167366678
 30
0.0
 11
0.4734427814
 21
0.1768432279
 31
0.0
 40
0.588594106
 41
-0.4679686539
 42
-0.4568564648
  0
ELLIPSE
  5
465
100
AcDbEntity
  8
ALL_ASSEMBLY_MEMBERS
100
AcDbEllipse
 62
7
  6
CONTINUOUS
 10
5.2405861801
 20
4.6167366678
 30
0.0
 11
0.47103378
 21
0.175943403
 31
0.0
 40
0.588594106
 41
-0.467468364
 42
-0.4562987307
  0
ELLIPSE
  5
466
100
AcDbEntity
  8
ALL_ASSEMBLY_MEMBERS
100
AcDbEllipse
 62
7
  6
CONTINUOUS
 10
5.2405861801
 20
4.6368187084
 30
0.0
 11
0.4846322902
 21
0.0448830582
 31
0.0
 40
0.2379969588
 41
-0.2883920801
 42
-0.2735943692
  0
ELLIPSE
  5
467
100
AcDbEntity
  8
ALL_ASSEMBLY_MEMBERS
100
AcDbEllipse
 62
7
  6
CONTINUOUS
 10
5.2405861801
 20
4.6368187084
 30
0.0
 11
0.4821663537
 21
0.0446546814
 31
0.0
 40
0.2379969588
 41
-0.287968094
 42
-0.2730940792
  0
ELLIPSE
  5
468
100
AcDbEntity
  8
ALL_ASSEMBLY_MEMBERS
100
AcDbEllipse
 62
7
  6
CONTINUOUS
 10
5.2405861801
 20
4.8516334286
 30
0.0
 11
-0.1770585927
 21
1.7931580129
 31
0.0
 40
0.251654861
 41
-4.6403087193
 42
-4.6351990007
  0
ELLIPSE
  5
469
100
AcDbEntity
  8
ALL_ASSEMBLY_MEMBERS
100
AcDbEllipse
 62
7
  6
CONTINUOUS
 10
5.2405861801
 20
4.6792645409
 30
0.0
 11
-0.17705862
 21
1.7931559474
 31
0.0
 40
0.2516551449
 41
1.5283236754
 42
1.5334087178
  0
ELLIPSE
  5
46A
100
AcDbEntity
  8
ALL_ASSEMBLY_MEMBERS
100
AcDbEllipse
 62
7
  6
CONTINUOUS
 10
5.2405861801
 20
4.7142918281
 30
0.0
 11
0.182988122
 21
1.4265173665
 31
0.0
 40
0.3128040763
 41
-4.6596770866
 42
-4.6545660318
  0
ELLIPSE
  5
46B
100
AcDbEntity
  8
ALL_ASSEMBLY_MEMBERS
100
AcDbEllipse
 62
7
  6
CONTINUOUS
 10
5.2405861801
 20
4.7254462125
 30
0.0
 11
0.4817044969
 21
0.0691775694
 31
0.0
 40
0.3415054598
 41
9.0930249837
 42
9.0981465956
  0
ELLIPSE
  5
46C
100
AcDbEntity
  8
ALL_ASSEMBLY_MEMBERS
100
AcDbEllipse
 62
7
  6
CONTINUOUS
 10
5.2405861801
 20
4.7142918281
 30
0.0
 11
0.1839239755
 21
1.4338129838
 31
0.0
 40
0.3128040763
 41
-4.6597412434
 42
-4.654656201
  0
ELLIPSE
  5
46D
100
AcDbEntity
  8
ALL_ASSEMBLY_MEMBERS
100
AcDbEllipse
 62
7
  6
CONTINUOUS
 10
5.2405861801
 20
4.7254462125
 30
0.0
 11
0.4841680714
 21
0.0695313633
 31
0.0
 40
0.3415054598
 41
2.804406043
 42
2.8145971741
  0
ELLIPSE
  5
46E
100
AcDbEntity
  8
ALL_ASSEMBLY_MEMBERS
100
AcDbEllipse
 62
7
  6
CONTINUOUS
 10
5.2405861801
 20
4.7016439763
 30
0.0
 11
0.2565838281
 21
0.6978641712
 31
0.0
 40
0.5851642007
 41
-4.4827527582
 42
-4.4750852699
  0
ELLIPSE
  5
46F
100
AcDbEntity
  8
ALL_ASSEMBLY_MEMBERS
100
AcDbEllipse
 62
7
  6
CONTINUOUS
 10
5.2405861801
 20
4.7016439763
 30
0.0
 11
0.2578960711
 21
0.7014332479
 31
0.0
 40
0.5851642007
 41
-4.4828429274
 42
-4.4752144714
  0
ELLIPSE
  5
470
100
AcDbEntity
  8
ALL_ASSEMBLY_MEMBERS
100
AcDbEllipse
 62
7
  6
CONTINUOUS
 10
5.2405861801
 20
4.6650054894
 30
0.0
 11
-0.207495773
 21
0.9858241387
 31
0.0
 40
0.4443956471
 41
-1.6766755349
 42
-1.6693064443
  0
ELLIPSE
  5
471
100
AcDbEntity
  8
ALL_ASSEMBLY_MEMBERS
100
AcDbEllipse
 62
7
  6
CONTINUOUS
 10
5.2405861801
 20
4.6650054894
 30
0.0
 11
-0.2064399799
 21
0.9808080064
 31
0.0
 40
0.4443956471
 41
-1.676740052
 42
-1.6693332706
  0
ELLIPSE
  5
472
100
AcDbEntity
  8
ALL_ASSEMBLY_MEMBERS
100
AcDbEllipse
 62
7
  6
CONTINUOUS
 10
5.2405861801
 20
4.660842318
 30
0.0
 11
-0.2800134072
 21
0.636735321
 31
0.0
 40
0.6214444929
 41
-1.8612406191
 42
-1.8501855787
  0
ELLIPSE
  5
473
100
AcDbEntity
  8
ALL_ASSEMBLY_MEMBERS
100
AcDbEllipse
 62
7
  6
CONTINUOUS
 10
5.2405861801
 20
4.660842318
 30
0.0
 11
-0.2785886254
 21
0.6334954443
 31
0.0
 40
0.6214444929
 41
-1.8613616941
 42
-1.8502500958
  0
ELLIPSE
  5
474
100
AcDbEntity
  8
ALL_ASSEMBLY_MEMBERS
100
AcDbEllipse
 62
7
  6
CONTINUOUS
 10
5.2405861801
 20
4.6522500107
 30
0.0
 11
0.4782981758
 21
-0.1456294577
 31
0.0
 40
0.5412725914
 41
0.4702996175
 42
0.4887317785
  0
ELLIPSE
  5
475
100
AcDbEntity
  8
ALL_ASSEMBLY_MEMBERS
100
AcDbEllipse
 62
7
  6
CONTINUOUS
 10
5.2405861801
 20
4.6522500107
 30
0.0
 11
0.475864469
 21
-0.1448884567
 31
0.0
 40
0.5412725914
 41
0.4700841696
 42
0.4886107035
  0
ELLIPSE
  5
476
100
AcDbEntity
  8
ALL_ASSEMBLY_MEMBERS
100
AcDbEllipse
 62
7
  6
CONTINUOUS
 10
5.2405861801
 20
4.643915275
 30
0.0
 11
0.4847035229
 21
-0.0351494601
 31
0.0
 40
0.1909696071
 41
0.3023654898
 42
0.3208119973
  0
ELLIPSE
  5
477
100
AcDbEntity
  8
ALL_ASSEMBLY_MEMBERS
100
AcDbEllipse
 62
7
  6
CONTINUOUS
 10
5.2405861801
 20
4.643915275
 30
0.0
 11
0.482237224
 21
-0.0349706104
 31
0.0
 40
0.1909696071
 41
0.3020554476
 42
0.3205965494
  0
ELLIPSE
  5
478
100
AcDbEntity
  8
ALL_ASSEMBLY_MEMBERS
100
AcDbEllipse
 62
7
  6
CONTINUOUS
 10
5.2405861801
 20
4.7509222234
 30
0.0
 11
0.3528491689
 21
0.4769267529
 31
0.0
 40
0.6893673732
 41
-4.1693178615
 42
-4.1590668675
  0
ELLIPSE
  5
479
100
AcDbEntity
  8
ALL_ASSEMBLY_MEMBERS
100
AcDbEllipse
 62
7
  6
CONTINUOUS
 10
5.2405861801
 20
4.6925840293
 30
0.0
 11
0.4644757768
 21
0.2078622154
 31
0.0
 40
0.6246661769
 41
2.545321506
 42
2.5504339689
  0
ELLIPSE
  5
47A
100
AcDbEntity
  8
ALL_ASSEMBLY_MEMBERS
100
AcDbEllipse
 62
7
  6
CONTINUOUS
 10
5.2405861801
 20
4.6925840293
 30
0.0
 11
0.4668512386
 21
0.2089252821
 31
0.0
 40
0.6246661769
 41
2.5451923044
 42
2.5502787336
  0
ELLIPSE
  5
47B
100
AcDbEntity
  8
ALL_ASSEMBLY_MEMBERS
100
AcDbEllipse
 62
7
  6
CONTINUOUS
 10
5.2405861801
 20
4.7509222234
 30
0.0
 11
0.3546537404
 21
0.4793658925
 31
0.0
 40
0.6893673732
 41
-4.1696819759
 42
-4.1594834467
  0
ELLIPSE
  5
47C
100
AcDbEntity
  8
ALL_ASSEMBLY_MEMBERS
100
AcDbEllipse
 62
7
  6
CONTINUOUS
 10
5.2405861801
 20
4.6708161382
 30
0.0
 11
0.4644757768
 21
-0.2078622154
 31
0.0
 40
0.6246661769
 41
-2.5504339689
 42
-2.545321506
  0
ELLIPSE
  5
47D
100
AcDbEntity
  8
ALL_ASSEMBLY_MEMBERS
100
AcDbEllipse
 62
7
  6
CONTINUOUS
 10
5.2405861801
 20
4.6708161382
 30
0.0
 11
0.4668512386
 21
-0.2089252821
 31
0.0
 40
0.6246661769
 41
-2.5502787336
 42
-2.5451923044
  0
ELLIPSE
  5
47E
100
AcDbEntity
  8
ALL_ASSEMBLY_MEMBERS
100
AcDbEllipse
 62
7
  6
CONTINUOUS
 10
5.2405861801
 20
4.6662861593
 30
0.0
 11
-0.3528490951
 21
0.4769268928
 31
0.0
 40
0.6893673371
 41
1.0737775876
 42
1.0840006492
  0
ELLIPSE
  5
47F
100
AcDbEntity
  8
ALL_ASSEMBLY_MEMBERS
100
AcDbEllipse
 62
7
  6
CONTINUOUS
 10
5.2405861801
 20
4.6662861593
 30
0.0
 11
-0.3546536662
 21
0.4793660332
 31
0.0
 40
0.6893673371
 41
1.0739067891
 42
1.0840778115
  0
ELLIPSE
  5
480
100
AcDbEntity
  8
ALL_ASSEMBLY_MEMBERS
100
AcDbEllipse
 62
7
  6
CONTINUOUS
 10
5.2405861801
 20
4.7946083237
 30
0.0
 11
0.1991461286
 21
1.0676108832
 31
0.0
 40
0.4114301116
 41
-4.5541034629
 42
-4.5489748047
  0
ELLIPSE
  5
481
100
AcDbEntity
  8
ALL_ASSEMBLY_MEMBERS
100
AcDbEllipse
 62
7
  6
CONTINUOUS
 10
5.2405861801
 20
4.6473444142
 30
0.0
 11
-0.1761577058
 21
1.7840313981
 31
0.0
 40
0.251655214
 41
1.5307890648
 42
1.5358999382
  0
ELLIPSE
  5
482
100
AcDbEntity
  8
ALL_ASSEMBLY_MEMBERS
100
AcDbEllipse
 62
7
  6
CONTINUOUS
 10
5.2405861801
 20
4.7946083237
 30
0.0
 11
0.2001646188
 21
1.0730709503
 31
0.0
 40
0.4114301116
 41
-4.5545200421
 42
-4.5494176646
  0
ELLIPSE
  5
483
100
AcDbEntity
  8
ALL_ASSEMBLY_MEMBERS
100
AcDbEllipse
 62
7
  6
CONTINUOUS
 10
5.2405861801
 20
4.6473444142
 30
0.0
 11
-0.1770586266
 21
1.7931554444
 31
0.0
 40
0.251655214
 41
1.530866227
 42
1.5359510908
  0
ELLIPSE
  5
484
100
AcDbEntity
  8
ALL_ASSEMBLY_MEMBERS
100
AcDbEllipse
 62
7
  6
CONTINUOUS
 10
5.2405861801
 20
4.6777515954
 30
0.0
 11
0.1761577091
 21
1.7840311479
 31
0.0
 40
0.2516552486
 41
1.6056927228
 42
1.6108035962
  0
ELLIPSE
  5
485
100
AcDbEntity
  8
ALL_ASSEMBLY_MEMBERS
100
AcDbEllipse
 62
7
  6
CONTINUOUS
 10
5.2405861801
 20
4.6777515954
 30
0.0
 11
0.1770586299
 21
1.7931551929
 31
0.0
 40
0.2516552486
 41
-4.677543737
 42
-4.6724588732
  0
ELLIPSE
  5
486
100
AcDbEntity
  8
ALL_ASSEMBLY_MEMBERS
100
AcDbEllipse
 62
7
  6
CONTINUOUS
 10
5.2405861801
 20
4.661515818
 30
0.0
 11
0.2565838006
 21
0.6978642627
 31
0.0
 40
0.5851641487
 41
-4.4853083988
 42
-4.4776413078
  0
ELLIPSE
  5
487
100
AcDbEntity
  8
ALL_ASSEMBLY_MEMBERS
100
AcDbEllipse
 62
7
  6
CONTINUOUS
 10
5.2405861801
 20
4.661515818
 30
0.0
 11
0.2578960435
 21
0.70143334
 31
0.0
 40
0.5851641487
 41
-4.485385561
 42
-4.4777574963
  0
ELLIPSE
  5
488
100
AcDbEntity
  8
ALL_ASSEMBLY_MEMBERS
100
AcDbEllipse
 62
7
  6
CONTINUOUS
 10
5.2405861801
 20
4.6866527592
 30
0.0
 11
0.4847035229
 21
0.0351494568
 31
0.0
 40
0.1909695906
 41
-0.3208119948
 42
-0.3023654873
  0
ELLIPSE
  5
489
100
AcDbEntity
  8
ALL_ASSEMBLY_MEMBERS
100
AcDbEllipse
 62
7
  6
CONTINUOUS
 10
5.2405861801
 20
4.6866527592
 30
0.0
 11
0.482237224
 21
0.0349706071
 31
0.0
 40
0.1909695906
 41
-0.3205965469
 42
-0.3020554451
  0
ELLIPSE
  5
48A
100
AcDbEntity
  8
ALL_ASSEMBLY_MEMBERS
100
AcDbEllipse
 62
7
  6
CONTINUOUS
 10
5.2405861801
 20
4.6783180242
 30
0.0
 11
0.4782981788
 21
0.1456294353
 31
0.0
 40
0.541272552
 41
-0.4887317412
 42
-0.4702995801
  0
ELLIPSE
  5
48B
100
AcDbEntity
  8
ALL_ASSEMBLY_MEMBERS
100
AcDbEllipse
 62
7
  6
CONTINUOUS
 10
5.2405861801
 20
4.6783180242
 30
0.0
 11
0.4758644719
 21
0.1448884344
 31
0.0
 40
0.541272552
 41
-0.4732157386
 42
-0.4700841322
  0
ELLIPSE
  5
48C
100
AcDbEntity
  8
ALL_ASSEMBLY_MEMBERS
100
AcDbEllipse
 62
7
  6
CONTINUOUS
 10
5.2405861801
 20
4.6549974687
 30
0.0
 11
0.4334452897
 21
0.3081329288
 31
0.0
 40
0.6863174268
 41
-3.9217468707
 42
-3.9089651839
  0
ELLIPSE
  5
48D
100
AcDbEntity
  8
ALL_ASSEMBLY_MEMBERS
100
AcDbEllipse
 62
7
  6
CONTINUOUS
 10
5.2405861801
 20
4.6549974687
 30
0.0
 11
0.4356620527
 21
0.3097088087
 31
0.0
 40
0.6863174268
 41
-3.9218630593
 42
-3.9091464651
  0
ELLIPSE
  5
48E
100
AcDbEntity
  8
ALL_ASSEMBLY_MEMBERS
100
AcDbEllipse
 62
7
  6
CONTINUOUS
 10
5.2405861801
 20
4.6052720736
 30
0.0
 11
-0.1991462019
 21
1.0676098726
 31
0.0
 40
0.41143047
 41
1.4073819844
 42
1.4125106426
  0
ELLIPSE
  5
48F
100
AcDbEntity
  8
ALL_ASSEMBLY_MEMBERS
100
AcDbEllipse
 62
7
  6
CONTINUOUS
 10
5.2405861801
 20
4.6052720736
 30
0.0
 11
-0.2001646924
 21
1.0730699345
 31
0.0
 40
0.41143047
 41
1.4078248443
 42
1.4129272218
  0
ELLIPSE
  5
490
100
AcDbEntity
  8
ALL_ASSEMBLY_MEMBERS
100
AcDbEllipse
 62
7
  6
CONTINUOUS
 10
5.2405861801
 20
4.6448310962
 30
0.0
 11
0.482064228
 21
0.0528515221
 31
0.0
 40
0.2751159905
 41
2.797985741
 42
2.8107732586
  0
ELLIPSE
  5
491
100
AcDbEntity
  8
ALL_ASSEMBLY_MEMBERS
100
AcDbEllipse
 62
7
  6
CONTINUOUS
 10
5.2405861801
 20
4.6448310962
 30
0.0
 11
0.4845296422
 21
0.0531218199
 31
0.0
 40
0.2751159905
 41
2.7978044598
 42
2.8105267963
  0
ELLIPSE
  5
492
100
AcDbEntity
  8
ALL_ASSEMBLY_MEMBERS
100
AcDbEllipse
 62
7
  6
CONTINUOUS
 10
5.2405861801
 20
4.4789346305
 30
0.0
 11
0.1761576753
 21
1.7840337033
 31
0.0
 40
0.2516548955
 41
1.4930826931
 42
1.4982188066
  0
ELLIPSE
  5
493
100
AcDbEntity
  8
ALL_ASSEMBLY_MEMBERS
100
AcDbEllipse
 62
7
  6
CONTINUOUS
 10
5.2405861801
 20
4.6489580923
 30
0.0
 11
-0.3528491689
 21
0.4769267529
 31
0.0
 40
0.6893673732
 41
1.017474214
 42
1.0277252079
  0
ELLIPSE
  5
494
100
AcDbEntity
  8
ALL_ASSEMBLY_MEMBERS
100
AcDbEllipse
 62
7
  6
CONTINUOUS
 10
5.2405861801
 20
4.6489580923
 30
0.0
 11
-0.3546537404
 21
0.4793658925
 31
0.0
 40
0.6893673732
 41
1.0178907931
 42
1.0280893223
  0
ELLIPSE
  5
495
100
AcDbEntity
  8
ALL_ASSEMBLY_MEMBERS
100
AcDbEllipse
 62
7
  6
CONTINUOUS
 10
5.2405861801
 20
4.6744341032
 30
0.0
 11
0.4817044969
 21
-0.0691775694
 31
0.0
 40
0.3415054598
 41
-2.8149612884
 42
-2.8098396765
  0
ELLIPSE
  5
496
100
AcDbEntity
  8
ALL_ASSEMBLY_MEMBERS
100
AcDbEllipse
 62
7
  6
CONTINUOUS
 10
5.2405861801
 20
4.4789346305
 30
0.0
 11
0.177058596
 21
1.7931577614
 31
0.0
 40
0.2516548955
 41
1.4936063544
 42
1.498716073
  0
ELLIPSE
  5
497
100
AcDbEntity
  8
ALL_ASSEMBLY_MEMBERS
100
AcDbEllipse
 62
7
  6
CONTINUOUS
 10
5.2405861801
 20
4.6744341032
 30
0.0
 11
0.4841680714
 21
-0.0695313633
 31
0.0
 40
0.3415054598
 41
-2.8145971741
 42
-2.804406043
  0
ELLIPSE
  5
498
100
AcDbEntity
  8
ALL_ASSEMBLY_MEMBERS
100
AcDbEllipse
 62
7
  6
CONTINUOUS
 10
5.2405861801
 20
4.5599393466
 30
0.0
 11
0.2099434851
 21
0.9468963828
 31
0.0
 40
0.4585402825
 41
-4.7084918227
 42
-4.7007924332
  0
ELLIPSE
  5
499
100
AcDbEntity
  8
ALL_ASSEMBLY_MEMBERS
100
AcDbEllipse
 62
7
  6
CONTINUOUS
 10
5.2405861801
 20
4.5599393466
 30
0.0
 11
0.2110171961
 21
0.9517390814
 31
0.0
 40
0.4585402825
 41
-4.7079945563
 42
-4.7003346858
  0
ELLIPSE
  5
49A
100
AcDbEntity
  8
ALL_ASSEMBLY_MEMBERS
100
AcDbEllipse
 62
7
  6
CONTINUOUS
 10
5.2405861801
 20
4.6068436563
 30
0.0
 11
0.4334452897
 21
0.3081329288
 31
0.0
 40
0.6863174268
 41
-4.0342992866
 42
-4.0214785888
  0
ELLIPSE
  5
49B
100
AcDbEntity
  8
ALL_ASSEMBLY_MEMBERS
100
AcDbEllipse
 62
7
  6
CONTINUOUS
 10
5.2405861801
 20
4.6068436563
 30
0.0
 11
0.4356620527
 21
0.3097088087
 31
0.0
 40
0.6863174268
 41
-4.0338415392
 42
-4.0210865289
  0
ELLIPSE
  5
49C
100
AcDbEntity
  8
ALL_ASSEMBLY_MEMBERS
100
AcDbEllipse
 62
7
  6
CONTINUOUS
 10
5.2405861801
 20
4.6287798408
 30
0.0
 11
0.4820642285
 21
0.052851487
 31
0.0
 40
0.2751158369
 41
2.6854723729
 42
2.6982804317
  0
ELLIPSE
  5
49D
100
AcDbEntity
  8
ALL_ASSEMBLY_MEMBERS
100
AcDbEllipse
 62
7
  6
CONTINUOUS
 10
5.2405861801
 20
4.6287798408
 30
0.0
 11
0.4845296427
 21
0.0531217846
 31
0.0
 40
0.2751158369
 41
2.6858644329
 42
2.6986069975
  0
ELLIPSE
  5
49E
100
AcDbEntity
  8
ALL_ASSEMBLY_MEMBERS
100
AcDbEllipse
 62
7
  6
CONTINUOUS
 10
5.2405861801
 20
4.6889660643
 30
0.0
 11
0.4817044969
 21
0.0691775694
 31
0.0
 40
0.3415054598
 41
9.0930249837
 42
9.0981465956
  0
ELLIPSE
  5
49F
100
AcDbEntity
  8
ALL_ASSEMBLY_MEMBERS
100
AcDbEllipse
 62
7
  6
CONTINUOUS
 10
5.2405861801
 20
4.6965324402
 30
0.0
 11
-0.182988171
 21
1.4265155693
 31
0.0
 40
0.3128044563
 41
1.5564159305
 42
1.5615284492
  0
ELLIPSE
  5
4A0
100
AcDbEntity
  8
ALL_ASSEMBLY_MEMBERS
100
AcDbEllipse
 62
7
  6
CONTINUOUS
 10
5.2405861801
 20
4.6889660643
 30
0.0
 11
0.4841680714
 21
0.0695313633
 31
0.0
 40
0.3415054598
 41
2.804406043
 42
2.8145971741
  0
ELLIPSE
  5
4A1
100
AcDbEntity
  8
ALL_ASSEMBLY_MEMBERS
100
AcDbEllipse
 62
7
  6
CONTINUOUS
 10
5.2405861801
 20
4.6965324402
 30
0.0
 11
-0.1839240248
 21
1.4338111775
 31
0.0
 40
0.3128044563
 41
1.556285014
 42
1.5613714981
  0
ELLIPSE
  5
4A2
100
AcDbEntity
  8
ALL_ASSEMBLY_MEMBERS
100
AcDbEllipse
 62
7
  6
CONTINUOUS
 10
5.2405861801
 20
4.7017040709
 30
0.0
 11
0.4644757236
 21
0.2078624458
 31
0.0
 40
0.6246664002
 41
2.5913732513
 42
2.6016242452
  0
ELLIPSE
  5
4A3
100
AcDbEntity
  8
ALL_ASSEMBLY_MEMBERS
100
AcDbEllipse
 62
7
  6
CONTINUOUS
 10
5.2405861801
 20
4.7017040709
 30
0.0
 11
0.4668511851
 21
0.2089255137
 31
0.0
 40
0.6246664002
 41
2.5910091369
 42
2.601207666
  0
ELLIPSE
  5
4A4
100
AcDbEntity
  8
ALL_ASSEMBLY_MEMBERS
100
AcDbEllipse
 62
7
  6
CONTINUOUS
 10
5.2405861801
 20
4.7502441223
 30
0.0
 11
0.2099434699
 21
0.946896522
 31
0.0
 40
0.4585402229
 41
-4.5293809328
 42
-4.5216870953
  0
ELLIPSE
  5
4A5
100
AcDbEntity
  8
ALL_ASSEMBLY_MEMBERS
100
AcDbEllipse
 62
7
  6
CONTINUOUS
 10
5.2405861801
 20
4.7502441223
 30
0.0
 11
0.2110171808
 21
0.9517392213
 31
0.0
 40
0.4585402229
 41
-4.529797512
 42
-4.5221431086
  0
ELLIPSE
  5
4A6
100
AcDbEntity
  8
ALL_ASSEMBLY_MEMBERS
100
AcDbEllipse
 62
7
  6
CONTINUOUS
 10
5.2405861801
 20
4.6671881491
 30
0.0
 11
-0.4000667381
 21
0.3847573131
 31
0.0
 40
0.7000252448
 41
0.972439552
 42
0.9801098693
  0
ELLIPSE
  5
4A7
100
AcDbEntity
  8
ALL_ASSEMBLY_MEMBERS
100
AcDbEllipse
 62
7
  6
CONTINUOUS
 10
5.2405861801
 20
4.5748519047
 30
0.0
 11
-0.2099434885
 21
0.9468963521
 31
0.0
 40
0.4585402957
 41
1.3800943987
 42
1.3877882363
  0
ELLIPSE
  5
4A8
100
AcDbEntity
  8
ALL_ASSEMBLY_MEMBERS
100
AcDbEllipse
 62
7
  6
CONTINUOUS
 10
5.2405861801
 20
4.6671881491
 30
0.0
 11
-0.4021127937
 21
0.3867250719
 31
0.0
 40
0.7000252448
 41
0.9722826009
 42
0.9799138428
  0
ELLIPSE
  5
4A9
100
AcDbEntity
  8
ALL_ASSEMBLY_MEMBERS
100
AcDbEllipse
 62
7
  6
CONTINUOUS
 10
5.2405861801
 20
4.5748519047
 30
0.0
 11
-0.2110171995
 21
0.9517390505
 31
0.0
 40
0.4585402957
 41
1.380550412
 42
1.3882048155
  0
ENDSEC
  0
SECTION
  2
OBJECTS
  0
DICTIONARY
  5
C
100
AcDbDictionary
280
0
281
1
  3
ACAD_GROUP
350
D
  3
ACAD_MLINESTYLE
350
17
  3
ACAD_LAYOUT
350
1A
  3
ACAD_PLOTSETTINGS
350
19
  3
ACAD_PLOTSTYLENAME
350
E
  0
DICTIONARY
  5
D
102
{ACAD_REACTORS
330
C
102
}
100
AcDbDictionary
280
0
281
1
  0
ACDBDICTIONARYWDFLT
  5
E
102
{ACAD_REACTORS
330
C
102
}
100
AcDbDictionary
281
1
  3
Normal
350
F
100
AcDbDictionaryWithDefault
340
F
  0
DICTIONARY
  5
17
102
{ACAD_REACTORS
330
C
102
}
100
AcDbDictionary
280
0
281
1
  3
Standard
350
18
  0
DICTIONARY
  5
19
102
{ACAD_REACTORS
330
C
102
}
100
AcDbDictionary
281
1
  0
DICTIONARY
  5
1A
102
{ACAD_REACTORS
330
C
102
}
100
AcDbDictionary
281
1
  3
Model
350
4AA
  3
Layout1
350
4AB
  0
ACDBPLACEHOLDER
  5
F
102
{ACAD_REACTORS
330
E
102
}
  0
MLINESTYLE
  5
18
102
{ACAD_REACTORS
330
17
102
}
100
AcDbMlineStyle
  2
STANDARD
 70
0
  3

 62
256
 51
90.0
 52
90.0
 71
2
 49
0.5
 62
256
  6
BYLAYER
 49
-0.5
 62
256
  6
BYLAYER
  0
LAYOUT
  5
4AA
102
{ACAD_REACTORS
330
1A
102
}
100
AcDbPlotSettings
  1

  2
none_device
  4
ANSI_A_(11.00_x_8.50_Inches)
  6

 40
0.0
 41
0.0
 42
0.0
 43
0.0
 44
279.4
 45
215.9
 46
0.0
 47
0.0
 48
0.0
 49
0.0
140
0.0
141
0.0
142
1.0
143
1.0
 70
1024
 72
0
 73
0
 74
0
  7

 75
0
147
1.0
148
0.0
149
0.0
100
AcDbLayout
  1
Model
 70
0
 71
0
 10
0.0
 20
0.0
 11
11.0
 21
8.5
 12
0.0
 22
0.0
 32
0.0
 14
0.0
 24
0.0
 34
0.0
 15
0.0
 25
0.0
 35
0.0
146
0.0
 13
0.0
 23
0.0
 33
0.0
 16
1.0
 26
0.0
 36
0.0
 17
0.0
 27
1.0
 37
0.0
 76
0
330
21A
345
0
346
0
  0
LAYOUT
  5
4AB
102
{ACAD_REACTORS
330
1A
102
}
100
AcDbPlotSettings
  1

  2
none_device
  4
ANSI_A_(11.00_x_8.50_Inches)
  6

 40
0.0
 41
0.0
 42
0.0
 43
0.0
 44
279.4
 45
215.9
 46
0.0
 47
0.0
 48
0.0
 49
0.0
140
0.0
141
0.0
142
1.0
143
1.0
 70
0
 72
0
 73
0
 74
0
  7

 75
0
147
1.0
148
0.0
149
0.0
100
AcDbLayout
  1
Layout1
 70
0
 71
1
 10
0.0
 20
0.0
 11
11.0
 21
8.5
 12
0.0
 22
0.0
 32
0.0
 14
0.0
 24
0.0
 34
0.0
 15
0.0
 25
0.0
 35
0.0
146
0.0
 13
0.0
 23
0.0
 33
0.0
 16
1.0
 26
0.0
 36
0.0
 17
0.0
 27
1.0
 37
0.0
 76
0
330
21B
345
0
346
0
  0
ENDSEC
  0
EOF
