999
DXF file: 3-1605_TOP.dxf
999
Pro/ENGINEER 2018400 by Parametric Technology Corporation
  0
SECTION
  2
HEADER
  9
$ACADVER
  1
AC1027
  9
$DWGCODEPAGE
  3
ANSI_1252
  9
$EXTMAX
 10
11.0
 20
8.5
 30
0.0
  9
$EXTMIN
 10
0.0
 20
0.0
 30
0.0
  9
$LIMMIN
 10
0.0
 20
0.0
  9
$LIMMAX
 10
11.0
 20
8.5
  9
$VIEWCTR
 10
5.5
 20
4.25
  9
$VIEWSIZE
 40
8.5
  9
$CLAYER
  8
0
  9
$LTSCALE
 40
0.605
  9
$CELTYPE
  6
BYLAYER
  9
$DIMSCALE
 40
1.0
  9
$DIMASZ
 40
0.1
  9
$DIMEXO
 40
0.0625
  9
$DIMDLI
 40
0.418
  9
$DIMEXE
 40
0.125
  9
$DIMCEN
 40
0.099
  9
$DIMLFAC
 40
1.0
  9
$DIMBLK
  1
_FILLED
  9
$DIMALT
 70
1
  9
$DIMALTD
 70
2
  9
$DIMALTTD
 70
2
  9
$DIMALTF
 40
25.4
  9
$DIMTXT
 40
0.08
  9
$DIMTOL
 70
1
  9
$DIMLIM
 70
0
  9
$DIMTFAC
 40
1.0
  9
$DIMTP
 40
0.001
  9
$DIMTM
 40
0.001
  9
$DIMGAP
 40
0.09
  9
$DIMDSEP
 70
46
  9
$AUNITS
 70
0
  9
$PDMODE
 70
3
  9
$PDSIZE
 40
0.3125
  9
$HANDSEED
  5
5F4
  9
$TILEMODE
 70
1
  9
$MEASUREMENT
 70
0
  9
$INSUNITS
 70
1
  0
ENDSEC
  0
SECTION
  2
CLASSES
  0
CLASS
  1
ACDBDICTIONARYWDFLT
  2
AcDbDictionaryWithDefault
  3
AutoCAD 2000
 90
0
 91
1
280
0
281
0
  0
CLASS
  1
ACDBPLACEHOLDER
  2
AcDbPlaceHolder
  3
AutoCAD 2000
 90
0
 91
1
280
0
281
0
  0
CLASS
  1
LAYOUT
  2
AcDbLayout
  3
AutoCAD 2000
 90
0
 91
0
280
0
281
0
  0
ENDSEC
  0
SECTION
  2
TABLES
  0
TABLE
  2
VPORT
  5
8
100
AcDbSymbolTable
 70
2
  0
VPORT
  5
1F4
100
AcDbSymbolTableRecord
100
AcDbViewportTableRecord
  2
*ACTIVE
 70
0
 10
0.0
 20
0.0
 11
1.0
 21
1.0
 12
5.5
 22
4.25
 13
0.0
 23
0.0
 14
1.0
 24
1.0
 15
0.0
 25
0.0
 16
0.0
 26
0.0
 36
1.0
 17
0.0
 27
0.0
 37
0.0
 40
8.5
 41
1.2941176471
 42
50.0
 43
0.0
 44
0.0
 50
0.0
 51
0.0
 71
0
 72
100
 73
1
 74
1
 75
0
 76
0
 77
0
 78
0
  0
ENDTAB
  0
TABLE
  2
LTYPE
  5
5
100
AcDbSymbolTable
 70
6
  0
LTYPE
  5
14
100
AcDbSymbolTableRecord
100
AcDbLinetypeTableRecord
  2
BYBLOCK
 70
0
  3

 72
65
 73
0
 40
0.0
  0
LTYPE
  5
15
100
AcDbSymbolTableRecord
100
AcDbLinetypeTableRecord
  2
BYLAYER
 70
0
  3

 72
65
 73
0
 40
0.0
  0
LTYPE
  5
16
100
AcDbSymbolTableRecord
100
AcDbLinetypeTableRecord
  2
CONTINUOUS
 70
64
  3
Solid line
 72
65
 73
0
 40
0.0
  0
LTYPE
  5
1F5
100
AcDbSymbolTableRecord
100
AcDbLinetypeTableRecord
  2
CENTER
 70
64
  3
____ _ ____ _ ____ _ ____ _ ____ _ ____ _ ____
 72
65
 73
4
 40
0.6
 49
0.375
 74
0
 49
-0.075
 74
0
 49
0.075
 74
0
 49
-0.075
 74
0
  0
LTYPE
  5
1F6
100
AcDbSymbolTableRecord
100
AcDbLinetypeTableRecord
  2
HIDDEN
 70
64
  3
- - - - - - - - - - - - - - - - - - - -
 72
65
 73
2
 40
0.2
 49
0.1
 74
0
 49
-0.1
 74
0
  0
LTYPE
  5
1F7
100
AcDbSymbolTableRecord
100
AcDbLinetypeTableRecord
  2
PHANTOM
 70
64
  3
_____ _ _ _____ _ _ _____ _ _ _____
 72
65
 73
6
 40
0.8
 49
0.45
 74
0
 49
-0.05
 74
0
 49
0.1
 74
0
 49
-0.05
 74
0
 49
0.1
 74
0
 49
-0.05
 74
0
  0
LTYPE
  5
1F8
100
AcDbSymbolTableRecord
100
AcDbLinetypeTableRecord
  2
DOT
 70
64
  3
. . . . . . . . . . . . . . . . . . . .
 72
65
 73
2
 40
0.2
 49
0.1
 74
0
 49
-0.1
 74
0
  0
LTYPE
  5
1F9
100
AcDbSymbolTableRecord
100
AcDbLinetypeTableRecord
  2
DASHED
 70
64
  3
- - - - - - - - - - - - - - - - - - - -
 72
65
 73
2
 40
0.2
 49
0.1
 74
0
 49
-0.1
 74
0
  0
ENDTAB
  0
TABLE
  2
LAYER
  5
2
100
AcDbSymbolTable
 70
36
  0
LAYER
  5
10
100
AcDbSymbolTableRecord
100
AcDbLayerTableRecord
  2
0
 70
0
 62
7
  6
CONTINUOUS
370
-3
390
F
  0
LAYER
  5
1FA
100
AcDbSymbolTableRecord
100
AcDbLayerTableRecord
  2
DEFAULT_1
 70
0
 62
7
  6
CENTER
370
-3
390
F
  0
LAYER
  5
1FB
100
AcDbSymbolTableRecord
100
AcDbLayerTableRecord
  2
DEFAULT_2
 70
0
 62
8
  6
HIDDEN
370
-3
390
F
  0
LAYER
  5
1FC
100
AcDbSymbolTableRecord
100
AcDbLayerTableRecord
  2
DEFAULT_3
 70
0
 62
7
  6
PHANTOM
370
-3
390
F
  0
LAYER
  5
1FD
100
AcDbSymbolTableRecord
100
AcDbLayerTableRecord
  2
ADATUM
 70
0
 62
7
  6
CONTINUOUS
370
-3
390
F
  0
LAYER
  5
1FE
100
AcDbSymbolTableRecord
100
AcDbLayerTableRecord
  2
ALL_ASSEMBLY_MEMBERS
 70
0
 62
7
  6
CONTINUOUS
370
-3
390
F
  0
LAYER
  5
1FF
100
AcDbSymbolTableRecord
100
AcDbLayerTableRecord
  2
ALL_FEATURES
 70
0
 62
7
  6
CONTINUOUS
370
-3
390
F
  0
LAYER
  5
200
100
AcDbSymbolTableRecord
100
AcDbLayerTableRecord
  2
AXES_FEATURES
 70
0
 62
7
  6
CONTINUOUS
370
-3
390
F
  0
LAYER
  5
201
100
AcDbSymbolTableRecord
100
AcDbLayerTableRecord
  2
BLANK_ME
 70
0
 62
7
  6
CONTINUOUS
370
-3
390
F
  0
LAYER
  5
202
100
AcDbSymbolTableRecord
100
AcDbLayerTableRecord
  2
CHAMFER_FEATURES
 70
0
 62
7
  6
CONTINUOUS
370
-3
390
F
  0
LAYER
  5
203
100
AcDbSymbolTableRecord
100
AcDbLayerTableRecord
  2
CROSS_CUT
 70
0
 62
7
  6
CONTINUOUS
370
-3
390
F
  0
LAYER
  5
204
100
AcDbSymbolTableRecord
100
AcDbLayerTableRecord
  2
CUT_FEATURES
 70
0
 62
7
  6
CONTINUOUS
370
-3
390
F
  0
LAYER
  5
205
100
AcDbSymbolTableRecord
100
AcDbLayerTableRecord
  2
DATUM_CURVES
 70
0
 62
7
  6
CONTINUOUS
370
-3
390
F
  0
LAYER
  5
206
100
AcDbSymbolTableRecord
100
AcDbLayerTableRecord
  2
DATUM_PLANES
 70
0
 62
7
  6
CONTINUOUS
370
-3
390
F
  0
LAYER
  5
207
100
AcDbSymbolTableRecord
100
AcDbLayerTableRecord
  2
DATUM_POINTS
 70
0
 62
7
  6
CONTINUOUS
370
-3
390
F
  0
LAYER
  5
208
100
AcDbSymbolTableRecord
100
AcDbLayerTableRecord
  2
DEFAULT_COORDINATE_SYSTEM
 70
0
 62
7
  6
CONTINUOUS
370
-3
390
F
  0
LAYER
  5
209
100
AcDbSymbolTableRecord
100
AcDbLayerTableRecord
  2
DEFAULT_DATUM_AXES
 70
0
 62
7
  6
CONTINUOUS
370
-3
390
F
  0
LAYER
  5
20A
100
AcDbSymbolTableRecord
100
AcDbLayerTableRecord
  2
DEFAULT_DATUM_CURVES
 70
0
 62
7
  6
CONTINUOUS
370
-3
390
F
  0
LAYER
  5
20B
100
AcDbSymbolTableRecord
100
AcDbLayerTableRecord
  2
DEFAULT_DATUM_PLANES
 70
0
 62
7
  6
CONTINUOUS
370
-3
390
F
  0
LAYER
  5
20C
100
AcDbSymbolTableRecord
100
AcDbLayerTableRecord
  2
DEFAULT_SURFACES
 70
0
 62
7
  6
CONTINUOUS
370
-3
390
F
  0
LAYER
  5
20D
100
AcDbSymbolTableRecord
100
AcDbLayerTableRecord
  2
DEF_DTM0
 70
0
 62
7
  6
CONTINUOUS
370
-3
390
F
  0
LAYER
  5
20E
100
AcDbSymbolTableRecord
100
AcDbLayerTableRecord
  2
DIMENSIONS
 70
0
 62
7
  6
CONTINUOUS
370
-3
390
F
  0
LAYER
  5
20F
100
AcDbSymbolTableRecord
100
AcDbLayerTableRecord
  2
DRW_DTM
 70
0
 62
7
  6
CONTINUOUS
370
-3
390
F
  0
LAYER
  5
210
100
AcDbSymbolTableRecord
100
AcDbLayerTableRecord
  2
HOLE_FEATURES
 70
0
 62
7
  6
CONTINUOUS
370
-3
390
F
  0
LAYER
  5
211
100
AcDbSymbolTableRecord
100
AcDbLayerTableRecord
  2
PART_REFERENCE_DIMENSIONS
 70
0
 62
7
  6
CONTINUOUS
370
-3
390
F
  0
LAYER
  5
212
100
AcDbSymbolTableRecord
100
AcDbLayerTableRecord
  2
POINTS
 70
0
 62
7
  6
CONTINUOUS
370
-3
390
F
  0
LAYER
  5
213
100
AcDbSymbolTableRecord
100
AcDbLayerTableRecord
  2
PROTRUSION_FEATURES
 70
0
 62
7
  6
CONTINUOUS
370
-3
390
F
  0
LAYER
  5
214
100
AcDbSymbolTableRecord
100
AcDbLayerTableRecord
  2
QUILTS
 70
0
 62
7
  6
CONTINUOUS
370
-3
390
F
  0
LAYER
  5
215
100
AcDbSymbolTableRecord
100
AcDbLayerTableRecord
  2
REFERENCE_DIMENSIONS
 70
0
 62
7
  6
CONTINUOUS
370
-3
390
F
  0
LAYER
  5
216
100
AcDbSymbolTableRecord
100
AcDbLayerTableRecord
  2
ROUND_FEATURES
 70
0
 62
7
  6
CONTINUOUS
370
-3
390
F
  0
LAYER
  5
217
100
AcDbSymbolTableRecord
100
AcDbLayerTableRecord
  2
SHELL_FEATURES
 70
0
 62
7
  6
CONTINUOUS
370
-3
390
F
  0
LAYER
  5
218
100
AcDbSymbolTableRecord
100
AcDbLayerTableRecord
  2
WETTED_SURFACE_AREA
 70
0
 62
7
  6
CONTINUOUS
370
-3
390
F
  0
ENDTAB
  0
TABLE
  2
STYLE
  5
3
100
AcDbSymbolTable
 70
1
  0
STYLE
  5
11
100
AcDbSymbolTableRecord
100
AcDbTextStyleTableRecord
  2
STANDARD
 70
0
 40
0.0
 41
0.8
 50
0.0
 71
0
 42
0.2
  3
txt
  4

  0
STYLE
  5
219
100
AcDbSymbolTableRecord
100
AcDbTextStyleTableRecord
  2
TEXTSTYLE_1
 70
0
 40
0.0
 41
0.8
 50
0.0
 71
0
 42
0.2
  3
gdt
  4

  0
ENDTAB
  0
TABLE
  2
VIEW
  5
6
100
AcDbSymbolTable
 70
0
  0
ENDTAB
  0
TABLE
  2
UCS
  5
7
100
AcDbSymbolTable
 70
0
  0
ENDTAB
  0
TABLE
  2
APPID
  5
9
100
AcDbSymbolTable
 70
1
  0
APPID
  5
21A
100
AcDbSymbolTableRecord
100
AcDbRegAppTableRecord
  2
ACAD
 70
0
  0
ENDTAB
  0
TABLE
  2
BLOCK_RECORD
  5
1
100
AcDbSymbolTable
 70
0
  0
BLOCK_RECORD
  5
21B
100
AcDbSymbolTableRecord
100
AcDbBlockTableRecord
  2
*Model_Space
  0
BLOCK_RECORD
  5
21C
100
AcDbSymbolTableRecord
100
AcDbBlockTableRecord
  2
*Paper_Space
  0
BLOCK_RECORD
  5
21D
100
AcDbSymbolTableRecord
100
AcDbBlockTableRecord
  2
_FILLED
  0
ENDTAB
  0
TABLE
  2
DIMSTYLE
  5
A
100
AcDbSymbolTable
 70
1
100
AcDbDimStyleTable
 71
0
  0
DIMSTYLE
105
21E
100
AcDbSymbolTableRecord
100
AcDbDimStyleTableRecord
  2
STANDARD
 70
0
  3

  4

 40
1.0
 41
0.1
 42
0.0625
 43
0.38
 44
0.125
 45
0.0
 46
0.0
 47
0.001
 48
0.001
140
0.08
141
0.09
142
0.0
143
25.4
144
1.0
145
0.0
146
1.0
147
0.09
 71
1.0
 72
0.0
 73
1
 74
1
 75
0
 76
0
 77
0
 78
4
 79
1
170
1
171
2
172
0
173
0
174
0
175
0
176
0
177
0
178
0
270
2
179
3
271
3
272
3
273
2
274
2
275
0
280
0
281
0
282
0
283
1
284
4
285
0
286
0
287
3
288
0
340
11
278
46
341
21D
342
21D
343
21D
344
21D
  0
ENDTAB
  0
ENDSEC
  0
SECTION
  2
BLOCKS
  0
BLOCK
  5
20
100
AcDbEntity
  8
0
100
AcDbBlockBegin
  2
*Model_Space
 70
0
 10
0.0
 20
0.0
 30
0.0
  3
*Model_Space
  1

  0
ENDBLK
  5
21
100
AcDbEntity
  8
0
100
AcDbBlockEnd
  0
BLOCK
  5
1C
100
AcDbEntity
  8
0
100
AcDbBlockBegin
  2
*Paper_Space
 70
0
 10
0.0
 20
0.0
 30
0.0
  3
*Paper_Space
  1

  0
ENDBLK
  5
1D
100
AcDbEntity
  8
0
100
AcDbBlockEnd
  0
BLOCK
  5
21F
100
AcDbEntity
  8
0
100
AcDbBlockBegin
  2
_FILLED
 70
64
 10
0.0
 20
0.0
  3
_FILLED
  1

  0
SOLID
  5
220
100
AcDbEntity
  8
0
  6
BYBLOCK
 62
0
100
AcDbTrace
 10
0.0
 20
0.0
 11
-1.0
 21
0.2
 12
-1.0
 22
-0.2
 13
-1.0
 23
-0.2
  0
ENDBLK
  5
221
100
AcDbEntity
  8
0
  6
BYBLOCK
 62
0
100
AcDbBlockEnd
  0
ENDSEC
  0
SECTION
  2
ENTITIES
  0
MTEXT
  5
222
100
AcDbEntity
  8
0
100
AcDbMText
 62
2
  6
CONTINUOUS
  7
STANDARD
 71
3
 72
1
 10
2.934685559
 20
1.8539405598
 30
0.0
 11
1.0
 21
0.0
 31
0.0
 73
2
 44
0.9
  1
SCALE  .500
 40
0.08
 41
0.704
  0
LINE
  5
223
100
AcDbEntity
  8
0
100
AcDbLine
 62
7
  6
CONTINUOUS
 10
0.0
 20
0.0
 11
0.0
 21
8.5
  0
LINE
  5
224
100
AcDbEntity
  8
0
100
AcDbLine
 62
7
  6
CONTINUOUS
 10
0.0
 20
0.0
 11
11.0
 21
0.0
  0
LINE
  5
225
100
AcDbEntity
  8
0
100
AcDbLine
 62
7
  6
CONTINUOUS
 10
0.0
 20
8.5
 11
11.0
 21
8.5
  0
LINE
  5
226
100
AcDbEntity
  8
0
100
AcDbLine
 62
7
  6
CONTINUOUS
 10
11.0
 20
0.0
 11
11.0
 21
8.5
  0
LINE
  5
227
100
AcDbEntity
  8
ALL_ASSEMBLY_MEMBERS
100
AcDbLine
 62
7
  6
CONTINUOUS
 10
2.3890630843
 20
4.7726363582
 11
2.3890630843
 21
4.9178965258
  0
LINE
  5
228
100
AcDbEntity
  8
ALL_ASSEMBLY_MEMBERS
100
AcDbLine
 62
7
  6
CONTINUOUS
 10
2.4005360166
 20
4.7726422575
 11
2.4005360166
 21
4.9178908056
  0
LINE
  5
229
100
AcDbEntity
  8
ALL_ASSEMBLY_MEMBERS
100
AcDbLine
 62
7
  6
CONTINUOUS
 10
2.4741436335
 20
6.0069383222
 11
2.4741436335
 21
6.0819383222
  0
LINE
  5
22A
100
AcDbEntity
  8
ALL_ASSEMBLY_MEMBERS
100
AcDbLine
 62
7
  6
CONTINUOUS
 10
2.4741529258
 20
5.8819383222
 11
2.4741529258
 21
5.8444383222
  0
LINE
  5
22B
100
AcDbEntity
  8
ALL_ASSEMBLY_MEMBERS
100
AcDbLine
 62
7
  6
CONTINUOUS
 10
2.4744147119
 20
5.8819383222
 11
2.4744147119
 21
5.8444383222
  0
LINE
  5
22C
100
AcDbEntity
  8
ALL_ASSEMBLY_MEMBERS
100
AcDbLine
 62
7
  6
CONTINUOUS
 10
2.4746525946
 20
5.8819383222
 11
2.4746525946
 21
5.8444383222
  0
LINE
  5
22D
100
AcDbEntity
  8
ALL_ASSEMBLY_MEMBERS
100
AcDbLine
 62
7
  6
CONTINUOUS
 10
2.4754376339
 20
5.8819383222
 11
2.4754376339
 21
5.8444383222
  0
LINE
  5
22E
100
AcDbEntity
  8
ALL_ASSEMBLY_MEMBERS
100
AcDbLine
 62
7
  6
CONTINUOUS
 10
2.4759131095
 20
5.8819383222
 11
2.4759131095
 21
5.8444383222
  0
LINE
  5
22F
100
AcDbEntity
  8
ALL_ASSEMBLY_MEMBERS
100
AcDbLine
 62
7
  6
CONTINUOUS
 10
2.4772204457
 20
5.8819383222
 11
2.4772204457
 21
5.8444383222
  0
LINE
  5
230
100
AcDbEntity
  8
ALL_ASSEMBLY_MEMBERS
100
AcDbLine
 62
7
  6
CONTINUOUS
 10
2.4779329349
 20
5.8819383222
 11
2.4779329349
 21
5.8444383222
  0
LINE
  5
231
100
AcDbEntity
  8
ALL_ASSEMBLY_MEMBERS
100
AcDbLine
 62
7
  6
CONTINUOUS
 10
2.479760975
 20
5.8819383222
 11
2.479760975
 21
5.8444383222
  0
LINE
  5
232
100
AcDbEntity
  8
ALL_ASSEMBLY_MEMBERS
100
AcDbLine
 62
7
  6
CONTINUOUS
 10
2.4807096098
 20
5.8819383222
 11
2.4807096098
 21
5.8444383222
  0
LINE
  5
233
100
AcDbEntity
  8
ALL_ASSEMBLY_MEMBERS
100
AcDbLine
 62
7
  6
CONTINUOUS
 10
2.4830561267
 20
5.8819383222
 11
2.4830561267
 21
5.8444383222
  0
LINE
  5
234
100
AcDbEntity
  8
ALL_ASSEMBLY_MEMBERS
100
AcDbLine
 62
7
  6
CONTINUOUS
 10
2.4842397512
 20
5.8819383222
 11
2.4842397512
 21
5.8444383222
  0
LINE
  5
235
100
AcDbEntity
  8
ALL_ASSEMBLY_MEMBERS
100
AcDbLine
 62
7
  6
CONTINUOUS
 10
2.4871018862
 20
5.8819383222
 11
2.4871018862
 21
5.8444383222
  0
LINE
  5
236
100
AcDbEntity
  8
ALL_ASSEMBLY_MEMBERS
100
AcDbLine
 62
7
  6
CONTINUOUS
 10
2.4885190584
 20
5.8819383222
 11
2.4885190584
 21
5.8444383222
  0
LINE
  5
237
100
AcDbEntity
  8
ALL_ASSEMBLY_MEMBERS
100
AcDbLine
 62
7
  6
CONTINUOUS
 10
2.4918933242
 20
5.8819383222
 11
2.4918933242
 21
5.8444383222
  0
LINE
  5
238
100
AcDbEntity
  8
ALL_ASSEMBLY_MEMBERS
100
AcDbLine
 62
7
  6
CONTINUOUS
 10
2.4935423175
 20
5.8819383222
 11
2.4935423175
 21
5.8444383222
  0
LINE
  5
239
100
AcDbEntity
  8
ALL_ASSEMBLY_MEMBERS
100
AcDbLine
 62
7
  6
CONTINUOUS
 10
2.4974246032
 20
5.8819383222
 11
2.4974246032
 21
5.8444383222
  0
LINE
  5
23A
100
AcDbEntity
  8
ALL_ASSEMBLY_MEMBERS
100
AcDbLine
 62
7
  6
CONTINUOUS
 10
2.4991436335
 20
5.8819383222
 11
2.4991436335
 21
5.9819383222
  0
LINE
  5
23B
100
AcDbEntity
  8
ALL_ASSEMBLY_MEMBERS
100
AcDbLine
 62
7
  6
CONTINUOUS
 10
2.4993034085
 20
5.8819383222
 11
2.4993034085
 21
5.8444383222
  0
LINE
  5
23C
100
AcDbEntity
  8
ALL_ASSEMBLY_MEMBERS
100
AcDbLine
 62
7
  6
CONTINUOUS
 10
2.5036889841
 20
5.8819383222
 11
2.5036889841
 21
5.8444383222
  0
LINE
  5
23D
100
AcDbEntity
  8
ALL_ASSEMBLY_MEMBERS
100
AcDbLine
 62
7
  6
CONTINUOUS
 10
2.5057953125
 20
5.8819383222
 11
2.5057953125
 21
5.8444383222
  0
LINE
  5
23E
100
AcDbEntity
  8
ALL_ASSEMBLY_MEMBERS
100
AcDbLine
 62
7
  6
CONTINUOUS
 10
2.5106788348
 20
5.8819383222
 11
2.5106788348
 21
5.8444383222
  0
LINE
  5
23F
100
AcDbEntity
  8
ALL_ASSEMBLY_MEMBERS
100
AcDbLine
 62
7
  6
CONTINUOUS
 10
2.51301012
 20
5.8819383222
 11
2.51301012
 21
5.8444383222
  0
LINE
  5
240
100
AcDbEntity
  8
ALL_ASSEMBLY_MEMBERS
100
AcDbLine
 62
7
  6
CONTINUOUS
 10
2.5183856392
 20
5.8819383222
 11
2.5183856392
 21
5.8444383222
  0
LINE
  5
241
100
AcDbEntity
  8
ALL_ASSEMBLY_MEMBERS
100
AcDbLine
 62
7
  6
CONTINUOUS
 10
2.5209390409
 20
5.8819383222
 11
2.5209390409
 21
5.8444383222
  0
LINE
  5
242
100
AcDbEntity
  8
ALL_ASSEMBLY_MEMBERS
100
AcDbLine
 62
7
  6
CONTINUOUS
 10
2.5268000078
 20
5.8819383222
 11
2.5268000078
 21
5.8444383222
  0
LINE
  5
243
100
AcDbEntity
  8
ALL_ASSEMBLY_MEMBERS
100
AcDbLine
 62
7
  6
CONTINUOUS
 10
2.529572415
 20
5.8819383222
 11
2.529572415
 21
5.8444383222
  0
LINE
  5
244
100
AcDbEntity
  8
ALL_ASSEMBLY_MEMBERS
100
AcDbLine
 62
7
  6
CONTINUOUS
 10
2.5359116889
 20
5.8819383222
 11
2.5359116889
 21
5.8444383222
  0
LINE
  5
245
100
AcDbEntity
  8
ALL_ASSEMBLY_MEMBERS
100
AcDbLine
 62
7
  6
CONTINUOUS
 10
2.5388997239
 20
5.8819383222
 11
2.5388997239
 21
5.8444383222
  0
LINE
  5
246
100
AcDbEntity
  8
ALL_ASSEMBLY_MEMBERS
100
AcDbLine
 62
7
  6
CONTINUOUS
 10
2.5457095814
 20
5.8819383222
 11
2.5457095814
 21
5.8444383222
  0
LINE
  5
247
100
AcDbEntity
  8
ALL_ASSEMBLY_MEMBERS
100
AcDbLine
 62
7
  6
CONTINUOUS
 10
2.5489096037
 20
5.8819383222
 11
2.5489096037
 21
5.8444383222
  0
LINE
  5
248
100
AcDbEntity
  8
ALL_ASSEMBLY_MEMBERS
100
AcDbLine
 62
7
  6
CONTINUOUS
 10
2.556181748
 20
5.8819383222
 11
2.556181748
 21
5.8444383222
  0
LINE
  5
249
100
AcDbEntity
  8
ALL_ASSEMBLY_MEMBERS
100
AcDbLine
 62
7
  6
CONTINUOUS
 10
2.559589859
 20
5.8819383222
 11
2.559589859
 21
5.8444383222
  0
LINE
  5
24A
100
AcDbEntity
  8
ALL_ASSEMBLY_MEMBERS
100
AcDbLine
 62
7
  6
CONTINUOUS
 10
2.5673154301
 20
5.8819383222
 11
2.5673154301
 21
5.8444383222
  0
LINE
  5
24B
100
AcDbEntity
  8
ALL_ASSEMBLY_MEMBERS
100
AcDbLine
 62
7
  6
CONTINUOUS
 10
2.5709274773
 20
5.8819383222
 11
2.5709274773
 21
5.8444383222
  0
LINE
  5
24C
100
AcDbEntity
  8
ALL_ASSEMBLY_MEMBERS
100
AcDbLine
 62
7
  6
CONTINUOUS
 10
2.5790970629
 20
5.8819383222
 11
2.5790970629
 21
5.8444383222
  0
LINE
  5
24D
100
AcDbEntity
  8
ALL_ASSEMBLY_MEMBERS
100
AcDbLine
 62
7
  6
CONTINUOUS
 10
2.5829086458
 20
5.8819383222
 11
2.5829086458
 21
5.8444383222
  0
LINE
  5
24E
100
AcDbEntity
  8
ALL_ASSEMBLY_MEMBERS
100
AcDbLine
 62
7
  6
CONTINUOUS
 10
2.5866436335
 20
5.2944383222
 11
2.5866436335
 21
5.3944383222
  0
LINE
  5
24F
100
AcDbEntity
  8
ALL_ASSEMBLY_MEMBERS
100
AcDbLine
 62
7
  6
CONTINUOUS
 10
2.5915122923
 20
5.8819383222
 11
2.5915122923
 21
5.8444383222
  0
LINE
  5
250
100
AcDbEntity
  8
ALL_ASSEMBLY_MEMBERS
100
AcDbLine
 62
7
  6
CONTINUOUS
 10
2.595518767
 20
5.8819383222
 11
2.595518767
 21
5.8444383222
  0
LINE
  5
251
100
AcDbEntity
  8
ALL_ASSEMBLY_MEMBERS
100
AcDbLine
 62
7
  6
CONTINUOUS
 10
2.6045459923
 20
5.8819383222
 11
2.6045459923
 21
5.8444383222
  0
LINE
  5
252
100
AcDbEntity
  8
ALL_ASSEMBLY_MEMBERS
100
AcDbLine
 62
7
  6
CONTINUOUS
 10
2.6087424775
 20
5.8819383222
 11
2.6087424775
 21
5.8444383222
  0
LINE
  5
253
100
AcDbEntity
  8
ALL_ASSEMBLY_MEMBERS
100
AcDbLine
 62
7
  6
CONTINUOUS
 10
2.6181822834
 20
5.8819383222
 11
2.6181822834
 21
5.8444383222
  0
LINE
  5
254
100
AcDbEntity
  8
ALL_ASSEMBLY_MEMBERS
100
AcDbLine
 62
7
  6
CONTINUOUS
 10
2.6225636663
 20
5.8819383222
 11
2.6225636663
 21
5.8444383222
  0
LINE
  5
255
100
AcDbEntity
  8
ALL_ASSEMBLY_MEMBERS
100
AcDbLine
 62
7
  6
CONTINUOUS
 10
2.6241436335
 20
5.2694383222
 11
2.6241436335
 21
5.2944383222
  0
LINE
  5
256
100
AcDbEntity
  8
ALL_ASSEMBLY_MEMBERS
100
AcDbLine
 62
7
  6
CONTINUOUS
 10
2.6241436335
 20
5.3944383222
 11
2.6241436335
 21
5.4444383222
  0
LINE
  5
257
100
AcDbEntity
  8
ALL_ASSEMBLY_MEMBERS
100
AcDbLine
 62
7
  6
CONTINUOUS
 10
2.6324045518
 20
5.8819383222
 11
2.6324045518
 21
5.8444383222
  0
LINE
  5
258
100
AcDbEntity
  8
ALL_ASSEMBLY_MEMBERS
100
AcDbLine
 62
7
  6
CONTINUOUS
 10
2.6369654944
 20
5.8819383222
 11
2.6369654944
 21
5.8444383222
  0
LINE
  5
259
100
AcDbEntity
  8
ALL_ASSEMBLY_MEMBERS
100
AcDbLine
 62
7
  6
CONTINUOUS
 10
2.6471954698
 20
5.8819383222
 11
2.6471954698
 21
5.8444383222
  0
LINE
  5
25A
100
AcDbEntity
  8
ALL_ASSEMBLY_MEMBERS
100
AcDbLine
 62
7
  6
CONTINUOUS
 10
2.6519304154
 20
5.8819383222
 11
2.6519304154
 21
5.8444383222
  0
LINE
  5
25B
100
AcDbEntity
  8
ALL_ASSEMBLY_MEMBERS
100
AcDbLine
 62
7
  6
CONTINUOUS
 10
2.6616436335
 20
5.4819383222
 11
2.6616436335
 21
5.7444383222
  0
LINE
  5
25C
100
AcDbEntity
  8
ALL_ASSEMBLY_MEMBERS
100
AcDbLine
 62
7
  6
CONTINUOUS
 10
2.6625370171
 20
5.8819383222
 11
2.6625370171
 21
5.8444383222
  0
LINE
  5
25D
100
AcDbEntity
  8
ALL_ASSEMBLY_MEMBERS
100
AcDbLine
 62
7
  6
CONTINUOUS
 10
2.6674401968
 20
5.8819383222
 11
2.6674401968
 21
5.8444383222
  0
LINE
  5
25E
100
AcDbEntity
  8
ALL_ASSEMBLY_MEMBERS
100
AcDbLine
 62
7
  6
CONTINUOUS
 10
2.6780403372
 20
5.8444383222
 11
2.6780403372
 21
5.8819383222
  0
LINE
  5
25F
100
AcDbEntity
  8
ALL_ASSEMBLY_MEMBERS
100
AcDbLine
 62
7
  6
CONTINUOUS
 10
2.6784105023
 20
5.8819383222
 11
2.6784105023
 21
5.8444383222
  0
LINE
  5
260
100
AcDbEntity
  8
ALL_ASSEMBLY_MEMBERS
100
AcDbLine
 62
7
  6
CONTINUOUS
 10
2.6834759423
 20
5.8819383222
 11
2.6834759423
 21
5.8444383222
  0
LINE
  5
261
100
AcDbEntity
  8
ALL_ASSEMBLY_MEMBERS
100
AcDbLine
 62
7
  6
CONTINUOUS
 10
2.6940567069
 20
5.8444383222
 11
2.6940567069
 21
5.8819383222
  0
LINE
  5
262
100
AcDbEntity
  8
ALL_ASSEMBLY_MEMBERS
100
AcDbLine
 62
7
  6
CONTINUOUS
 10
2.694796586
 20
5.8819383222
 11
2.694796586
 21
5.8444383222
  0
LINE
  5
263
100
AcDbEntity
  8
ALL_ASSEMBLY_MEMBERS
100
AcDbLine
 62
7
  6
CONTINUOUS
 10
2.7000181149
 20
5.8819383222
 11
2.7000181149
 21
5.8444383222
  0
LINE
  5
264
100
AcDbEntity
  8
ALL_ASSEMBLY_MEMBERS
100
AcDbLine
 62
7
  6
CONTINUOUS
 10
2.6241436335
 20
5.4444383222
 11
2.6616436335
 21
5.4819383222
  0
LINE
  5
265
100
AcDbEntity
  8
ALL_ASSEMBLY_MEMBERS
100
AcDbLine
 62
7
  6
CONTINUOUS
 10
2.7105666125
 20
5.8444383222
 11
2.7105666125
 21
5.8819383222
  0
LINE
  5
266
100
AcDbEntity
  8
ALL_ASSEMBLY_MEMBERS
100
AcDbLine
 62
7
  6
CONTINUOUS
 10
2.7116753043
 20
5.8819383222
 11
2.7116753043
 21
5.8444383222
  0
LINE
  5
267
100
AcDbEntity
  8
ALL_ASSEMBLY_MEMBERS
100
AcDbLine
 62
7
  6
CONTINUOUS
 10
2.7170465604
 20
5.8819383222
 11
2.7170465604
 21
5.8444383222
  0
LINE
  5
268
100
AcDbEntity
  8
ALL_ASSEMBLY_MEMBERS
100
AcDbLine
 62
7
  6
CONTINUOUS
 10
2.7241436335
 20
5.1944383222
 11
2.7241436335
 21
5.2194383222
  0
LINE
  5
269
100
AcDbEntity
  8
ALL_ASSEMBLY_MEMBERS
100
AcDbLine
 62
7
  6
CONTINUOUS
 10
2.7275499394
 20
5.8444383222
 11
2.7275499394
 21
5.8819383222
  0
LINE
  5
26A
100
AcDbEntity
  8
ALL_ASSEMBLY_MEMBERS
100
AcDbLine
 62
7
  6
CONTINUOUS
 10
2.729026093
 20
5.8819383222
 11
2.729026093
 21
5.8444383222
  0
LINE
  5
26B
100
AcDbEntity
  8
ALL_ASSEMBLY_MEMBERS
100
AcDbLine
 62
7
  6
CONTINUOUS
 10
2.7345405324
 20
5.8819383222
 11
2.7345405324
 21
5.8444383222
  0
LINE
  5
26C
100
AcDbEntity
  8
ALL_ASSEMBLY_MEMBERS
100
AcDbLine
 62
7
  6
CONTINUOUS
 10
2.744985996
 20
5.8444383222
 11
2.744985996
 21
5.8819383222
  0
LINE
  5
26D
100
AcDbEntity
  8
ALL_ASSEMBLY_MEMBERS
100
AcDbLine
 62
7
  6
CONTINUOUS
 10
2.746827813
 20
5.8819383222
 11
2.746827813
 21
5.8444383222
  0
LINE
  5
26E
100
AcDbEntity
  8
ALL_ASSEMBLY_MEMBERS
100
AcDbLine
 62
7
  6
CONTINUOUS
 10
2.752478717
 20
5.8819383222
 11
2.752478717
 21
5.8444383222
  0
LINE
  5
26F
100
AcDbEntity
  8
ALL_ASSEMBLY_MEMBERS
100
AcDbLine
 62
7
  6
CONTINUOUS
 10
2.7628535391
 20
5.8444383222
 11
2.7628535391
 21
5.8819383222
  0
LINE
  5
270
100
AcDbEntity
  8
ALL_ASSEMBLY_MEMBERS
100
AcDbLine
 62
7
  6
CONTINUOUS
 10
2.7650587756
 20
5.8819383222
 11
2.7650587756
 21
5.8444383222
  0
LINE
  5
271
100
AcDbEntity
  8
ALL_ASSEMBLY_MEMBERS
100
AcDbLine
 62
7
  6
CONTINUOUS
 10
2.7708392595
 20
5.8819383222
 11
2.7708392595
 21
5.8444383222
  0
LINE
  5
272
100
AcDbEntity
  8
ALL_ASSEMBLY_MEMBERS
100
AcDbLine
 62
7
  6
CONTINUOUS
 10
2.7811307998
 20
5.8444383222
 11
2.7811307998
 21
5.8819383222
  0
LINE
  5
273
100
AcDbEntity
  8
ALL_ASSEMBLY_MEMBERS
100
AcDbLine
 62
7
  6
CONTINUOUS
 10
2.783696769
 20
5.8819383222
 11
2.783696769
 21
5.8444383222
  0
LINE
  5
274
100
AcDbEntity
  8
ALL_ASSEMBLY_MEMBERS
100
AcDbLine
 62
7
  6
CONTINUOUS
 10
2.7895997903
 20
5.8819383222
 11
2.7895997903
 21
5.8444383222
  0
LINE
  5
275
100
AcDbEntity
  8
ALL_ASSEMBLY_MEMBERS
100
AcDbLine
 62
7
  6
CONTINUOUS
 10
2.7997955103
 20
5.8444383222
 11
2.7997955103
 21
5.8819383222
  0
LINE
  5
276
100
AcDbEntity
  8
ALL_ASSEMBLY_MEMBERS
100
AcDbLine
 62
7
  6
CONTINUOUS
 10
2.8027190859
 20
5.8819383222
 11
2.8027190859
 21
5.8444383222
  0
LINE
  5
277
100
AcDbEntity
  8
ALL_ASSEMBLY_MEMBERS
100
AcDbLine
 62
7
  6
CONTINUOUS
 10
2.8087374526
 20
5.8819383222
 11
2.8087374526
 21
5.8444383222
  0
LINE
  5
278
100
AcDbEntity
  8
ALL_ASSEMBLY_MEMBERS
100
AcDbLine
 62
7
  6
CONTINUOUS
 10
2.8188249303
 20
5.8444383222
 11
2.8188249303
 21
5.8819383222
  0
LINE
  5
279
100
AcDbEntity
  8
ALL_ASSEMBLY_MEMBERS
100
AcDbLine
 62
7
  6
CONTINUOUS
 10
2.8221025504
 20
5.8819383222
 11
2.8221025504
 21
5.8444383222
  0
LINE
  5
27A
100
AcDbEntity
  8
ALL_ASSEMBLY_MEMBERS
100
AcDbLine
 62
7
  6
CONTINUOUS
 10
2.8282289301
 20
5.8819383222
 11
2.8282289301
 21
5.8444383222
  0
LINE
  5
27B
100
AcDbEntity
  8
ALL_ASSEMBLY_MEMBERS
100
AcDbLine
 62
7
  6
CONTINUOUS
 10
2.8381958754
 20
5.8444383222
 11
2.8381958754
 21
5.8819383222
  0
LINE
  5
27C
100
AcDbEntity
  8
ALL_ASSEMBLY_MEMBERS
100
AcDbLine
 62
7
  6
CONTINUOUS
 10
2.8418235469
 20
5.8819383222
 11
2.8418235469
 21
5.8444383222
  0
LINE
  5
27D
100
AcDbEntity
  8
ALL_ASSEMBLY_MEMBERS
100
AcDbLine
 62
7
  6
CONTINUOUS
 10
2.8480504754
 20
5.8819383222
 11
2.8480504754
 21
5.8444383222
  0
LINE
  5
27E
100
AcDbEntity
  8
ALL_ASSEMBLY_MEMBERS
100
AcDbLine
 62
7
  6
CONTINUOUS
 10
2.8578847452
 20
5.8444383222
 11
2.8578847452
 21
5.8819383222
  0
LINE
  5
27F
100
AcDbEntity
  8
ALL_ASSEMBLY_MEMBERS
100
AcDbLine
 62
7
  6
CONTINUOUS
 10
2.8618580482
 20
5.8819383222
 11
2.8618580482
 21
5.8444383222
  0
LINE
  5
280
100
AcDbEntity
  8
ALL_ASSEMBLY_MEMBERS
100
AcDbLine
 62
7
  6
CONTINUOUS
 10
2.868177939
 20
5.8819383222
 11
2.868177939
 21
5.8444383222
  0
LINE
  5
281
100
AcDbEntity
  8
ALL_ASSEMBLY_MEMBERS
100
AcDbLine
 62
7
  6
CONTINUOUS
 10
2.8713002073
 20
4.9169778576
 11
2.8713002073
 21
4.7902455643
  0
LINE
  5
282
100
AcDbEntity
  8
ALL_ASSEMBLY_MEMBERS
100
AcDbLine
 62
7
  6
CONTINUOUS
 10
2.8778675518
 20
5.8444383222
 11
2.8778675518
 21
5.8819383222
  0
LINE
  5
283
100
AcDbEntity
  8
ALL_ASSEMBLY_MEMBERS
100
AcDbLine
 62
7
  6
CONTINUOUS
 10
2.8821816454
 20
5.8819383222
 11
2.8821816454
 21
5.8444383222
  0
LINE
  5
284
100
AcDbEntity
  8
ALL_ASSEMBLY_MEMBERS
100
AcDbLine
 62
7
  6
CONTINUOUS
 10
2.8885867988
 20
5.8819383222
 11
2.8885867988
 21
5.8444383222
  0
LINE
  5
285
100
AcDbEntity
  8
ALL_ASSEMBLY_MEMBERS
100
AcDbLine
 62
7
  6
CONTINUOUS
 10
2.8981199493
 20
5.8444383222
 11
2.8981199493
 21
5.8819383222
  0
LINE
  5
286
100
AcDbEntity
  8
ALL_ASSEMBLY_MEMBERS
100
AcDbLine
 62
7
  6
CONTINUOUS
 10
2.8991436335
 20
4.9729383222
 11
2.8991436335
 21
4.9537421609
  0
LINE
  5
287
100
AcDbEntity
  8
ALL_ASSEMBLY_MEMBERS
100
AcDbLine
 62
7
  6
CONTINUOUS
 10
2.8991436335
 20
4.7541205962
 11
2.8991436335
 21
4.7354383222
  0
LINE
  5
288
100
AcDbEntity
  8
ALL_ASSEMBLY_MEMBERS
100
AcDbLine
 62
7
  6
CONTINUOUS
 10
2.8991436335
 20
5.1444383222
 11
2.8991436335
 21
5.1944383222
  0
LINE
  5
289
100
AcDbEntity
  8
ALL_ASSEMBLY_MEMBERS
100
AcDbLine
 62
7
  6
CONTINUOUS
 10
2.8998147572
 20
4.9520169002
 11
2.8998147572
 21
4.7561580083
  0
LINE
  5
28A
100
AcDbEntity
  8
ALL_ASSEMBLY_MEMBERS
100
AcDbLine
 62
7
  6
CONTINUOUS
 10
2.9027695774
 20
5.8819383222
 11
2.9027695774
 21
5.8444383222
  0
LINE
  5
28B
100
AcDbEntity
  8
ALL_ASSEMBLY_MEMBERS
100
AcDbLine
 62
7
  6
CONTINUOUS
 10
2.9092521896
 20
5.8819383222
 11
2.9092521896
 21
5.8444383222
  0
LINE
  5
28C
100
AcDbEntity
  8
ALL_ASSEMBLY_MEMBERS
100
AcDbLine
 62
7
  6
CONTINUOUS
 10
2.9186172631
 20
5.8444383222
 11
2.9186172631
 21
5.8819383222
  0
LINE
  5
28D
100
AcDbEntity
  8
ALL_ASSEMBLY_MEMBERS
100
AcDbLine
 62
7
  6
CONTINUOUS
 10
2.923596761
 20
5.8819383222
 11
2.923596761
 21
5.8444383222
  0
LWPOLYLINE
  5
28E
100
AcDbEntity
  8
ALL_ASSEMBLY_MEMBERS
100
AcDbPolyline
 62
7
  6
CONTINUOUS
 90
8
 70
0
 10
2.8991434063
 20
4.9535778847
 10
2.8990249578
 20
4.9516505348
 10
2.8986237717
 20
4.9494098751
 10
2.8979613915
 20
4.947280369
 10
2.8970769775
 20
4.9453183831
 10
2.8960557677
 20
4.9436155737
 10
2.8949692511
 20
4.9421839146
 10
2.8944658166
 20
4.9416152584
  0
LINE
  5
28F
100
AcDbEntity
  8
ALL_ASSEMBLY_MEMBERS
100
AcDbLine
 62
7
  6
CONTINUOUS
 10
3.6991436335
 20
5.9819383222
 11
3.7241436335
 21
6.0069383222
  0
LINE
  5
290
100
AcDbEntity
  8
ALL_ASSEMBLY_MEMBERS
100
AcDbLine
 62
7
  6
CONTINUOUS
 10
2.9301489339
 20
5.8819383222
 11
2.9301489339
 21
5.8444383222
  0
LINE
  5
291
100
AcDbEntity
  8
ALL_ASSEMBLY_MEMBERS
100
AcDbLine
 62
7
  6
CONTINUOUS
 10
2.9393345205
 20
5.8444383222
 11
2.9393345205
 21
5.8819383222
  0
LINE
  5
292
100
AcDbEntity
  8
ALL_ASSEMBLY_MEMBERS
100
AcDbLine
 62
7
  6
CONTINUOUS
 10
2.9428936335
 20
5.1294383222
 11
2.9428936335
 21
4.9829383222
  0
LINE
  5
293
100
AcDbEntity
  8
ALL_ASSEMBLY_MEMBERS
100
AcDbLine
 62
7
  6
CONTINUOUS
 10
2.9446378213
 20
5.8819383222
 11
2.9446378213
 21
5.8444383222
  0
LINE
  5
294
100
AcDbEntity
  8
ALL_ASSEMBLY_MEMBERS
100
AcDbLine
 62
7
  6
CONTINUOUS
 10
2.9512515723
 20
5.8819383222
 11
2.9512515723
 21
5.8444383222
  0
LINE
  5
295
100
AcDbEntity
  8
ALL_ASSEMBLY_MEMBERS
100
AcDbLine
 62
7
  6
CONTINUOUS
 10
2.9602464806
 20
5.8444383222
 11
2.9602464806
 21
5.8819383222
  0
LINE
  5
296
100
AcDbEntity
  8
ALL_ASSEMBLY_MEMBERS
100
AcDbLine
 62
7
  6
CONTINUOUS
 10
2.9633796245
 20
4.9178965258
 11
2.9633796245
 21
4.7726363582
  0
LINE
  5
297
100
AcDbEntity
  8
ALL_ASSEMBLY_MEMBERS
100
AcDbLine
 62
7
  6
CONTINUOUS
 10
2.9658671232
 20
5.8819383222
 11
2.9658671232
 21
5.8444383222
  0
LINE
  5
298
100
AcDbEntity
  8
ALL_ASSEMBLY_MEMBERS
100
AcDbLine
 62
7
  6
CONTINUOUS
 10
2.9678936335
 20
4.6879383222
 11
2.9678936335
 21
4.6729383222
  0
LINE
  5
299
100
AcDbEntity
  8
ALL_ASSEMBLY_MEMBERS
100
AcDbLine
 62
7
  6
CONTINUOUS
 10
2.9725343943
 20
5.8819383222
 11
2.9725343943
 21
5.8444383222
  0
LINE
  5
29A
100
AcDbEntity
  8
ALL_ASSEMBLY_MEMBERS
100
AcDbLine
 62
7
  6
CONTINUOUS
 10
2.9813276656
 20
5.8444383222
 11
2.9813276656
 21
5.8819383222
  0
LINE
  5
29B
100
AcDbEntity
  8
ALL_ASSEMBLY_MEMBERS
100
AcDbLine
 62
7
  6
CONTINUOUS
 10
2.9833796245
 20
4.9178963688
 11
2.9833796245
 21
4.7726363921
  0
LINE
  5
29C
100
AcDbEntity
  8
ALL_ASSEMBLY_MEMBERS
100
AcDbLine
 62
7
  6
CONTINUOUS
 10
2.9853017739
 20
4.9382179346
 11
2.9853017739
 21
4.9520190013
  0
LINE
  5
29D
100
AcDbEntity
  8
ALL_ASSEMBLY_MEMBERS
100
AcDbLine
 62
7
  6
CONTINUOUS
 10
2.987258802
 20
5.8819383222
 11
2.987258802
 21
5.8444383222
  0
LINE
  5
29E
100
AcDbEntity
  8
ALL_ASSEMBLY_MEMBERS
100
AcDbLine
 62
7
  6
CONTINUOUS
 10
2.9939714701
 20
5.8819383222
 11
2.9939714701
 21
5.8444383222
  0
LINE
  5
29F
100
AcDbEntity
  8
ALL_ASSEMBLY_MEMBERS
100
AcDbLine
 62
7
  6
CONTINUOUS
 10
3.0025523912
 20
5.8444383222
 11
3.0025523912
 21
5.8819383222
  0
LINE
  5
2A0
100
AcDbEntity
  8
ALL_ASSEMBLY_MEMBERS
100
AcDbLine
 62
7
  6
CONTINUOUS
 10
3.0087867952
 20
5.8819383222
 11
3.0087867952
 21
5.8444383222
  0
LINE
  5
2A1
100
AcDbEntity
  8
ALL_ASSEMBLY_MEMBERS
100
AcDbLine
 62
7
  6
CONTINUOUS
 10
3.0155366821
 20
5.8819383222
 11
3.0155366821
 21
5.8444383222
  0
LINE
  5
2A2
100
AcDbEntity
  8
ALL_ASSEMBLY_MEMBERS
100
AcDbLine
 62
7
  6
CONTINUOUS
 10
3.0238947983
 20
5.8444383222
 11
3.0238947983
 21
5.8819383222
  0
LINE
  5
2A3
100
AcDbEntity
  8
ALL_ASSEMBLY_MEMBERS
100
AcDbLine
 62
7
  6
CONTINUOUS
 10
3.0304248744
 20
5.8819383222
 11
3.0304248744
 21
5.8444383222
  0
LINE
  5
2A4
100
AcDbEntity
  8
ALL_ASSEMBLY_MEMBERS
100
AcDbLine
 62
7
  6
CONTINUOUS
 10
3.0372037562
 20
5.8819383222
 11
3.0372037562
 21
5.8444383222
  0
LINE
  5
2A5
100
AcDbEntity
  8
ALL_ASSEMBLY_MEMBERS
100
AcDbLine
 62
7
  6
CONTINUOUS
 10
3.0453288845
 20
5.8444383222
 11
3.0453288845
 21
5.8819383222
  0
LINE
  5
2A6
100
AcDbEntity
  8
ALL_ASSEMBLY_MEMBERS
100
AcDbLine
 62
7
  6
CONTINUOUS
 10
3.0521466767
 20
5.8819383222
 11
3.0521466767
 21
5.8444383222
  0
LINE
  5
2A7
100
AcDbEntity
  8
ALL_ASSEMBLY_MEMBERS
100
AcDbLine
 62
7
  6
CONTINUOUS
 10
3.0589462946
 20
5.8819383222
 11
3.0589462946
 21
5.8444383222
  0
LINE
  5
2A8
100
AcDbEntity
  8
ALL_ASSEMBLY_MEMBERS
100
AcDbLine
 62
7
  6
CONTINUOUS
 10
3.0668285358
 20
5.8444383222
 11
3.0668285358
 21
5.8819383222
  0
LINE
  5
2A9
100
AcDbEntity
  8
ALL_ASSEMBLY_MEMBERS
100
AcDbLine
 62
7
  6
CONTINUOUS
 10
3.0739257376
 20
5.8819383222
 11
3.0739257376
 21
5.8444383222
  0
LINE
  5
2AA
100
AcDbEntity
  8
ALL_ASSEMBLY_MEMBERS
100
AcDbLine
 62
7
  6
CONTINUOUS
 10
3.0807378072
 20
5.8819383222
 11
3.0807378072
 21
5.8444383222
  0
LINE
  5
2AB
100
AcDbEntity
  8
ALL_ASSEMBLY_MEMBERS
100
AcDbLine
 62
7
  6
CONTINUOUS
 10
3.088367558
 20
5.8444383222
 11
3.088367558
 21
5.8819383222
  0
LINE
  5
2AC
100
AcDbEntity
  8
ALL_ASSEMBLY_MEMBERS
100
AcDbLine
 62
7
  6
CONTINUOUS
 10
3.0957355226
 20
5.8819383222
 11
3.0957355226
 21
5.8444383222
  0
LINE
  5
2AD
100
AcDbEntity
  8
ALL_ASSEMBLY_MEMBERS
100
AcDbLine
 62
7
  6
CONTINUOUS
 10
3.1025517445
 20
5.8819383222
 11
3.1025517445
 21
5.8444383222
  0
LINE
  5
2AE
100
AcDbEntity
  8
ALL_ASSEMBLY_MEMBERS
100
AcDbLine
 62
7
  6
CONTINUOUS
 10
3.1099197091
 20
5.8444383222
 11
3.1099197091
 21
5.8819383222
  0
LINE
  5
2AF
100
AcDbEntity
  8
ALL_ASSEMBLY_MEMBERS
100
AcDbLine
 62
7
  6
CONTINUOUS
 10
3.1175494599
 20
5.8819383222
 11
3.1175494599
 21
5.8444383222
  0
LINE
  5
2B0
100
AcDbEntity
  8
ALL_ASSEMBLY_MEMBERS
100
AcDbLine
 62
7
  6
CONTINUOUS
 10
3.1243615295
 20
5.8819383222
 11
3.1243615295
 21
5.8444383222
  0
LINE
  5
2B1
100
AcDbEntity
  8
ALL_ASSEMBLY_MEMBERS
100
AcDbLine
 62
7
  6
CONTINUOUS
 10
3.1314587313
 20
5.8444383222
 11
3.1314587313
 21
5.8819383222
  0
LINE
  5
2B2
100
AcDbEntity
  8
ALL_ASSEMBLY_MEMBERS
100
AcDbLine
 62
7
  6
CONTINUOUS
 10
3.1393409725
 20
5.8819383222
 11
3.1393409725
 21
5.8444383222
  0
LINE
  5
2B3
100
AcDbEntity
  8
ALL_ASSEMBLY_MEMBERS
100
AcDbLine
 62
7
  6
CONTINUOUS
 10
2.9833796246
 20
4.7726363582
 11
2.9817378127
 21
4.7590705695
  0
LINE
  5
2B4
100
AcDbEntity
  8
ALL_ASSEMBLY_MEMBERS
100
AcDbLine
 62
7
  6
CONTINUOUS
 10
2.9833796246
 20
4.7726363582
 11
2.9809621322
 21
4.752783232
  0
LWPOLYLINE
  5
2B5
100
AcDbEntity
  8
ALL_ASSEMBLY_MEMBERS
100
AcDbPolyline
 62
7
  6
CONTINUOUS
 90
5
 70
0
 10
2.9817378127
 20
4.7590705695
 10
2.9810629249
 20
4.7535627932
 10
2.9810022721
 20
4.7530819026
 10
2.980968878
 20
4.7528266045
 10
2.9809621133
 20
4.7527830049
  0
LINE
  5
2B6
100
AcDbEntity
  8
ALL_ASSEMBLY_MEMBERS
100
AcDbLine
 62
7
  6
CONTINUOUS
 10
2.8945103201
 20
4.9416634702
 11
2.8944650328
 21
4.9416144102
  0
LINE
  5
2B7
100
AcDbEntity
  8
ALL_ASSEMBLY_MEMBERS
100
AcDbLine
 62
7
  6
CONTINUOUS
 10
3.1461405904
 20
5.8819383222
 11
3.1461405904
 21
5.8444383222
  0
LINE
  5
2B8
100
AcDbEntity
  8
ALL_ASSEMBLY_MEMBERS
100
AcDbLine
 62
7
  6
CONTINUOUS
 10
3.1529583825
 20
5.8444383222
 11
3.1529583825
 21
5.8819383222
  0
LINE
  5
2B9
100
AcDbEntity
  8
ALL_ASSEMBLY_MEMBERS
100
AcDbLine
 62
7
  6
CONTINUOUS
 10
3.1610835108
 20
5.8819383222
 11
3.1610835108
 21
5.8444383222
  0
LINE
  5
2BA
100
AcDbEntity
  8
ALL_ASSEMBLY_MEMBERS
100
AcDbLine
 62
7
  6
CONTINUOUS
 10
3.1678623927
 20
5.8819383222
 11
3.1678623927
 21
5.8444383222
  0
LINE
  5
2BB
100
AcDbEntity
  8
ALL_ASSEMBLY_MEMBERS
100
AcDbLine
 62
7
  6
CONTINUOUS
 10
3.1743924688
 20
5.8444383222
 11
3.1743924688
 21
5.8819383222
  0
LINE
  5
2BC
100
AcDbEntity
  8
ALL_ASSEMBLY_MEMBERS
100
AcDbLine
 62
7
  6
CONTINUOUS
 10
3.182750585
 20
5.8819383222
 11
3.182750585
 21
5.8444383222
  0
LINE
  5
2BD
100
AcDbEntity
  8
ALL_ASSEMBLY_MEMBERS
100
AcDbLine
 62
7
  6
CONTINUOUS
 10
3.1895004718
 20
5.8819383222
 11
3.1895004718
 21
5.8444383222
  0
LINE
  5
2BE
100
AcDbEntity
  8
ALL_ASSEMBLY_MEMBERS
100
AcDbLine
 62
7
  6
CONTINUOUS
 10
3.1957348759
 20
5.8444383222
 11
3.1957348759
 21
5.8819383222
  0
LINE
  5
2BF
100
AcDbEntity
  8
ALL_ASSEMBLY_MEMBERS
100
AcDbLine
 62
7
  6
CONTINUOUS
 10
3.2043157969
 20
5.8819383222
 11
3.2043157969
 21
5.8444383222
  0
LINE
  5
2C0
100
AcDbEntity
  8
ALL_ASSEMBLY_MEMBERS
100
AcDbLine
 62
7
  6
CONTINUOUS
 10
3.2110284651
 20
5.8819383222
 11
3.2110284651
 21
5.8444383222
  0
LINE
  5
2C1
100
AcDbEntity
  8
ALL_ASSEMBLY_MEMBERS
100
AcDbLine
 62
7
  6
CONTINUOUS
 10
3.2129854932
 20
4.9520193214
 11
3.2129854932
 21
4.9382179174
  0
LINE
  5
2C2
100
AcDbEntity
  8
ALL_ASSEMBLY_MEMBERS
100
AcDbLine
 62
7
  6
CONTINUOUS
 10
3.2149076426
 20
4.7726361277
 11
3.2149076426
 21
4.917896975
  0
LINE
  5
2C3
100
AcDbEntity
  8
ALL_ASSEMBLY_MEMBERS
100
AcDbLine
 62
7
  6
CONTINUOUS
 10
3.2169596015
 20
5.8444383222
 11
3.2169596015
 21
5.8819383222
  0
LINE
  5
2C4
100
AcDbEntity
  8
ALL_ASSEMBLY_MEMBERS
100
AcDbLine
 62
7
  6
CONTINUOUS
 10
3.2257528728
 20
5.8819383222
 11
3.2257528728
 21
5.8444383222
  0
LINE
  5
2C5
100
AcDbEntity
  8
ALL_ASSEMBLY_MEMBERS
100
AcDbLine
 62
7
  6
CONTINUOUS
 10
3.2303936335
 20
4.6879383222
 11
3.2303936335
 21
4.6729383222
  0
LINE
  5
2C6
100
AcDbEntity
  8
ALL_ASSEMBLY_MEMBERS
100
AcDbLine
 62
7
  6
CONTINUOUS
 10
3.2324201439
 20
5.8819383222
 11
3.2324201439
 21
5.8444383222
  0
LINE
  5
2C7
100
AcDbEntity
  8
ALL_ASSEMBLY_MEMBERS
100
AcDbLine
 62
7
  6
CONTINUOUS
 10
3.2349076426
 20
4.7726363582
 11
3.2349076426
 21
4.9178965258
  0
LINE
  5
2C8
100
AcDbEntity
  8
ALL_ASSEMBLY_MEMBERS
100
AcDbLine
 62
7
  6
CONTINUOUS
 10
3.2380407864
 20
5.8444383222
 11
3.2380407864
 21
5.8819383222
  0
LINE
  5
2C9
100
AcDbEntity
  8
ALL_ASSEMBLY_MEMBERS
100
AcDbLine
 62
7
  6
CONTINUOUS
 10
3.2470356948
 20
5.8819383222
 11
3.2470356948
 21
5.8444383222
  0
LINE
  5
2CA
100
AcDbEntity
  8
ALL_ASSEMBLY_MEMBERS
100
AcDbLine
 62
7
  6
CONTINUOUS
 10
3.2536494458
 20
5.8819383222
 11
3.2536494458
 21
5.8444383222
  0
LINE
  5
2CB
100
AcDbEntity
  8
ALL_ASSEMBLY_MEMBERS
100
AcDbLine
 62
7
  6
CONTINUOUS
 10
3.2553936335
 20
5.1294383222
 11
3.2553936335
 21
4.9829383222
  0
LINE
  5
2CC
100
AcDbEntity
  8
ALL_ASSEMBLY_MEMBERS
100
AcDbLine
 62
7
  6
CONTINUOUS
 10
3.2589527466
 20
5.8444383222
 11
3.2589527466
 21
5.8819383222
  0
LINE
  5
2CD
100
AcDbEntity
  8
ALL_ASSEMBLY_MEMBERS
100
AcDbLine
 62
7
  6
CONTINUOUS
 10
3.2681383332
 20
5.8819383222
 11
3.2681383332
 21
5.8444383222
  0
LINE
  5
2CE
100
AcDbEntity
  8
ALL_ASSEMBLY_MEMBERS
100
AcDbLine
 62
7
  6
CONTINUOUS
 10
3.2746905061
 20
5.8819383222
 11
3.2746905061
 21
5.8444383222
  0
LINE
  5
2CF
100
AcDbEntity
  8
ALL_ASSEMBLY_MEMBERS
100
AcDbLine
 62
7
  6
CONTINUOUS
 10
3.279670004
 20
5.8444383222
 11
3.279670004
 21
5.8819383222
  0
LINE
  5
2D0
100
AcDbEntity
  8
ALL_ASSEMBLY_MEMBERS
100
AcDbLine
 62
7
  6
CONTINUOUS
 10
3.2890350775
 20
5.8819383222
 11
3.2890350775
 21
5.8444383222
  0
LINE
  5
2D1
100
AcDbEntity
  8
ALL_ASSEMBLY_MEMBERS
100
AcDbLine
 62
7
  6
CONTINUOUS
 10
3.2955176897
 20
5.8819383222
 11
3.2955176897
 21
5.8444383222
  0
LINE
  5
2D2
100
AcDbEntity
  8
ALL_ASSEMBLY_MEMBERS
100
AcDbLine
 62
7
  6
CONTINUOUS
 10
3.2984725099
 20
4.756158525
 11
3.2984725099
 21
4.9520166091
  0
LINE
  5
2D3
100
AcDbEntity
  8
ALL_ASSEMBLY_MEMBERS
100
AcDbLine
 62
7
  6
CONTINUOUS
 10
3.2991436335
 20
4.9729383222
 11
3.2991436335
 21
4.9537410643
  0
LINE
  5
2D4
100
AcDbEntity
  8
ALL_ASSEMBLY_MEMBERS
100
AcDbLine
 62
7
  6
CONTINUOUS
 10
3.2991436335
 20
4.7541240733
 11
3.2991436335
 21
4.7354383222
  0
LINE
  5
2D5
100
AcDbEntity
  8
ALL_ASSEMBLY_MEMBERS
100
AcDbLine
 62
7
  6
CONTINUOUS
 10
3.2991436335
 20
5.1444383222
 11
3.2991436335
 21
5.1944383222
  0
LINE
  5
2D6
100
AcDbEntity
  8
ALL_ASSEMBLY_MEMBERS
100
AcDbLine
 62
7
  6
CONTINUOUS
 10
3.3001673178
 20
5.8444383222
 11
3.3001673178
 21
5.8819383222
  0
LINE
  5
2D7
100
AcDbEntity
  8
ALL_ASSEMBLY_MEMBERS
100
AcDbLine
 62
7
  6
CONTINUOUS
 10
3.3097004683
 20
5.8819383222
 11
3.3097004683
 21
5.8444383222
  0
LINE
  5
2D8
100
AcDbEntity
  8
ALL_ASSEMBLY_MEMBERS
100
AcDbLine
 62
7
  6
CONTINUOUS
 10
3.3161056217
 20
5.8819383222
 11
3.3161056217
 21
5.8444383222
  0
LINE
  5
2D9
100
AcDbEntity
  8
ALL_ASSEMBLY_MEMBERS
100
AcDbLine
 62
7
  6
CONTINUOUS
 10
3.3204197152
 20
5.8444383222
 11
3.3204197152
 21
5.8819383222
  0
LINE
  5
2DA
100
AcDbEntity
  8
ALL_ASSEMBLY_MEMBERS
100
AcDbLine
 62
7
  6
CONTINUOUS
 10
3.3269870598
 20
4.7902455643
 11
3.3269870598
 21
4.9169778576
  0
LINE
  5
2DB
100
AcDbEntity
  8
ALL_ASSEMBLY_MEMBERS
100
AcDbLine
 62
7
  6
CONTINUOUS
 10
3.3301093281
 20
5.8819383222
 11
3.3301093281
 21
5.8444383222
  0
LINE
  5
2DC
100
AcDbEntity
  8
ALL_ASSEMBLY_MEMBERS
100
AcDbLine
 62
7
  6
CONTINUOUS
 10
3.3364292189
 20
5.8819383222
 11
3.3364292189
 21
5.8444383222
  0
LINE
  5
2DD
100
AcDbEntity
  8
ALL_ASSEMBLY_MEMBERS
100
AcDbLine
 62
7
  6
CONTINUOUS
 10
3.3404025218
 20
5.8444383222
 11
3.3404025218
 21
5.8819383222
  0
LINE
  5
2DE
100
AcDbEntity
  8
ALL_ASSEMBLY_MEMBERS
100
AcDbLine
 62
7
  6
CONTINUOUS
 10
3.3502367917
 20
5.8819383222
 11
3.3502367917
 21
5.8444383222
  0
LINE
  5
2DF
100
AcDbEntity
  8
ALL_ASSEMBLY_MEMBERS
100
AcDbLine
 62
7
  6
CONTINUOUS
 10
3.3564637202
 20
5.8819383222
 11
3.3564637202
 21
5.8444383222
  0
LWPOLYLINE
  5
2E0
100
AcDbEntity
  8
ALL_ASSEMBLY_MEMBERS
100
AcDbPolyline
 62
7
  6
CONTINUOUS
 90
11
 70
0
 10
3.2991441336
 20
4.7543056231
 10
3.299350821
 20
4.7568226181
 10
3.2998679753
 20
4.7591192967
 10
3.3006629708
 20
4.7612645173
 10
3.3016794104
 20
4.7631928745
 10
3.3027998186
 20
4.7648006994
 10
3.3039238783
 20
4.7660773559
 10
3.3049984208
 20
4.767069297
 10
3.3059504184
 20
4.7677947865
 10
3.3067081868
 20
4.7682777266
 10
3.3072476837
 20
4.7685689315
  0
LINE
  5
2E1
100
AcDbEntity
  8
ALL_ASSEMBLY_MEMBERS
100
AcDbLine
 62
7
  6
CONTINUOUS
 10
2.8922287069
 20
4.9396161918
 11
2.8919654957
 21
4.9394287159
  0
LWPOLYLINE
  5
2E2
100
AcDbEntity
  8
ALL_ASSEMBLY_MEMBERS
100
AcDbPolyline
 62
7
  6
CONTINUOUS
 90
3
 70
0
 10
2.8919669682
 20
4.9394297633
 10
2.8911308843
 20
4.938892946
 10
2.8905132182
 20
4.9385544885
  0
LINE
  5
2E3
100
AcDbEntity
  8
ALL_ASSEMBLY_MEMBERS
100
AcDbLine
 62
7
  6
CONTINUOUS
 10
3.3600913917
 20
5.8444383222
 11
3.3600913917
 21
5.8819383222
  0
LINE
  5
2E4
100
AcDbEntity
  8
ALL_ASSEMBLY_MEMBERS
100
AcDbLine
 62
7
  6
CONTINUOUS
 10
3.370058337
 20
5.8819383222
 11
3.370058337
 21
5.8444383222
  0
LINE
  5
2E5
100
AcDbEntity
  8
ALL_ASSEMBLY_MEMBERS
100
AcDbLine
 62
7
  6
CONTINUOUS
 10
3.3761847166
 20
5.8819383222
 11
3.3761847166
 21
5.8444383222
  0
LINE
  5
2E6
100
AcDbEntity
  8
ALL_ASSEMBLY_MEMBERS
100
AcDbLine
 62
7
  6
CONTINUOUS
 10
3.3794623368
 20
5.8444383222
 11
3.3794623368
 21
5.8819383222
  0
LINE
  5
2E7
100
AcDbEntity
  8
ALL_ASSEMBLY_MEMBERS
100
AcDbLine
 62
7
  6
CONTINUOUS
 10
3.3895498145
 20
5.8819383222
 11
3.3895498145
 21
5.8444383222
  0
LINE
  5
2E8
100
AcDbEntity
  8
ALL_ASSEMBLY_MEMBERS
100
AcDbLine
 62
7
  6
CONTINUOUS
 10
3.3955681812
 20
5.8819383222
 11
3.3955681812
 21
5.8444383222
  0
LINE
  5
2E9
100
AcDbEntity
  8
ALL_ASSEMBLY_MEMBERS
100
AcDbLine
 62
7
  6
CONTINUOUS
 10
3.3984917568
 20
5.8444383222
 11
3.3984917568
 21
5.8819383222
  0
LINE
  5
2EA
100
AcDbEntity
  8
ALL_ASSEMBLY_MEMBERS
100
AcDbLine
 62
7
  6
CONTINUOUS
 10
3.4086874768
 20
5.8819383222
 11
3.4086874768
 21
5.8444383222
  0
LINE
  5
2EB
100
AcDbEntity
  8
ALL_ASSEMBLY_MEMBERS
100
AcDbLine
 62
7
  6
CONTINUOUS
 10
3.4145904981
 20
5.8819383222
 11
3.4145904981
 21
5.8444383222
  0
LINE
  5
2EC
100
AcDbEntity
  8
ALL_ASSEMBLY_MEMBERS
100
AcDbLine
 62
7
  6
CONTINUOUS
 10
3.4171564672
 20
5.8444383222
 11
3.4171564672
 21
5.8819383222
  0
LINE
  5
2ED
100
AcDbEntity
  8
ALL_ASSEMBLY_MEMBERS
100
AcDbLine
 62
7
  6
CONTINUOUS
 10
3.4274480076
 20
5.8819383222
 11
3.4274480076
 21
5.8444383222
  0
LINE
  5
2EE
100
AcDbEntity
  8
ALL_ASSEMBLY_MEMBERS
100
AcDbLine
 62
7
  6
CONTINUOUS
 10
3.4332284915
 20
5.8819383222
 11
3.4332284915
 21
5.8444383222
  0
LINE
  5
2EF
100
AcDbEntity
  8
ALL_ASSEMBLY_MEMBERS
100
AcDbLine
 62
7
  6
CONTINUOUS
 10
3.435433728
 20
5.8444383222
 11
3.435433728
 21
5.8819383222
  0
LINE
  5
2F0
100
AcDbEntity
  8
ALL_ASSEMBLY_MEMBERS
100
AcDbLine
 62
7
  6
CONTINUOUS
 10
3.44580855
 20
5.8819383222
 11
3.44580855
 21
5.8444383222
  0
LINE
  5
2F1
100
AcDbEntity
  8
ALL_ASSEMBLY_MEMBERS
100
AcDbLine
 62
7
  6
CONTINUOUS
 10
3.4514594541
 20
5.8819383222
 11
3.4514594541
 21
5.8444383222
  0
LINE
  5
2F2
100
AcDbEntity
  8
ALL_ASSEMBLY_MEMBERS
100
AcDbLine
 62
7
  6
CONTINUOUS
 10
3.4533012711
 20
5.8444383222
 11
3.4533012711
 21
5.8819383222
  0
LINE
  5
2F3
100
AcDbEntity
  8
ALL_ASSEMBLY_MEMBERS
100
AcDbLine
 62
7
  6
CONTINUOUS
 10
3.4637467347
 20
5.8819383222
 11
3.4637467347
 21
5.8444383222
  0
LINE
  5
2F4
100
AcDbEntity
  8
ALL_ASSEMBLY_MEMBERS
100
AcDbLine
 62
7
  6
CONTINUOUS
 10
3.469261174
 20
5.8819383222
 11
3.469261174
 21
5.8444383222
  0
LINE
  5
2F5
100
AcDbEntity
  8
ALL_ASSEMBLY_MEMBERS
100
AcDbLine
 62
7
  6
CONTINUOUS
 10
3.4707373277
 20
5.8444383222
 11
3.4707373277
 21
5.8819383222
  0
LINE
  5
2F6
100
AcDbEntity
  8
ALL_ASSEMBLY_MEMBERS
100
AcDbLine
 62
7
  6
CONTINUOUS
 10
3.4741436335
 20
5.1944383222
 11
3.4741436335
 21
5.2194383222
  0
LINE
  5
2F7
100
AcDbEntity
  8
ALL_ASSEMBLY_MEMBERS
100
AcDbLine
 62
7
  6
CONTINUOUS
 10
3.4812407067
 20
5.8819383222
 11
3.4812407067
 21
5.8444383222
  0
LINE
  5
2F8
100
AcDbEntity
  8
ALL_ASSEMBLY_MEMBERS
100
AcDbLine
 62
7
  6
CONTINUOUS
 10
3.4866119628
 20
5.8819383222
 11
3.4866119628
 21
5.8444383222
  0
LINE
  5
2F9
100
AcDbEntity
  8
ALL_ASSEMBLY_MEMBERS
100
AcDbLine
 62
7
  6
CONTINUOUS
 10
3.4877206546
 20
5.8444383222
 11
3.4877206546
 21
5.8819383222
  0
LINE
  5
2FA
100
AcDbEntity
  8
ALL_ASSEMBLY_MEMBERS
100
AcDbLine
 62
7
  6
CONTINUOUS
 10
3.4982691522
 20
5.8819383222
 11
3.4982691522
 21
5.8444383222
  0
LINE
  5
2FB
100
AcDbEntity
  8
ALL_ASSEMBLY_MEMBERS
100
AcDbLine
 62
7
  6
CONTINUOUS
 10
3.5034906811
 20
5.8819383222
 11
3.5034906811
 21
5.8444383222
  0
LINE
  5
2FC
100
AcDbEntity
  8
ALL_ASSEMBLY_MEMBERS
100
AcDbLine
 62
7
  6
CONTINUOUS
 10
3.5042305602
 20
5.8444383222
 11
3.5042305602
 21
5.8819383222
  0
LINE
  5
2FD
100
AcDbEntity
  8
ALL_ASSEMBLY_MEMBERS
100
AcDbLine
 62
7
  6
CONTINUOUS
 10
3.5148113248
 20
5.8819383222
 11
3.5148113248
 21
5.8444383222
  0
LINE
  5
2FE
100
AcDbEntity
  8
ALL_ASSEMBLY_MEMBERS
100
AcDbLine
 62
7
  6
CONTINUOUS
 10
3.5198767648
 20
5.8819383222
 11
3.5198767648
 21
5.8444383222
  0
LINE
  5
2FF
100
AcDbEntity
  8
ALL_ASSEMBLY_MEMBERS
100
AcDbLine
 62
7
  6
CONTINUOUS
 10
3.5202469298
 20
5.8444383222
 11
3.5202469298
 21
5.8819383222
  0
LINE
  5
300
100
AcDbEntity
  8
ALL_ASSEMBLY_MEMBERS
100
AcDbLine
 62
7
  6
CONTINUOUS
 10
3.5308470703
 20
5.8819383222
 11
3.5308470703
 21
5.8444383222
  0
LINE
  5
301
100
AcDbEntity
  8
ALL_ASSEMBLY_MEMBERS
100
AcDbLine
 62
7
  6
CONTINUOUS
 10
3.53575025
 20
5.8819383222
 11
3.53575025
 21
5.8444383222
  0
LINE
  5
302
100
AcDbEntity
  8
ALL_ASSEMBLY_MEMBERS
100
AcDbLine
 62
7
  6
CONTINUOUS
 10
3.5366436335
 20
5.4819383222
 11
3.5366436335
 21
5.7444383222
  0
LINE
  5
303
100
AcDbEntity
  8
ALL_ASSEMBLY_MEMBERS
100
AcDbLine
 62
7
  6
CONTINUOUS
 10
3.5463568517
 20
5.8819383222
 11
3.5463568517
 21
5.8444383222
  0
LINE
  5
304
100
AcDbEntity
  8
ALL_ASSEMBLY_MEMBERS
100
AcDbLine
 62
7
  6
CONTINUOUS
 10
3.5510917973
 20
5.8819383222
 11
3.5510917973
 21
5.8444383222
  0
LINE
  5
305
100
AcDbEntity
  8
ALL_ASSEMBLY_MEMBERS
100
AcDbLine
 62
7
  6
CONTINUOUS
 10
3.5613217727
 20
5.8819383222
 11
3.5613217727
 21
5.8444383222
  0
LINE
  5
306
100
AcDbEntity
  8
ALL_ASSEMBLY_MEMBERS
100
AcDbLine
 62
7
  6
CONTINUOUS
 10
3.5658827153
 20
5.8819383222
 11
3.5658827153
 21
5.8444383222
  0
LINE
  5
307
100
AcDbEntity
  8
ALL_ASSEMBLY_MEMBERS
100
AcDbLine
 62
7
  6
CONTINUOUS
 10
3.5741436335
 20
5.2694383222
 11
3.5741436335
 21
5.2944383222
  0
LINE
  5
308
100
AcDbEntity
  8
ALL_ASSEMBLY_MEMBERS
100
AcDbLine
 62
7
  6
CONTINUOUS
 10
3.5741436335
 20
5.3944383222
 11
3.5741436335
 21
5.4444383222
  0
LINE
  5
309
100
AcDbEntity
  8
ALL_ASSEMBLY_MEMBERS
100
AcDbLine
 62
7
  6
CONTINUOUS
 10
3.5757236007
 20
5.8819383222
 11
3.5757236007
 21
5.8444383222
  0
LWPOLYLINE
  5
30A
100
AcDbEntity
  8
ALL_ASSEMBLY_MEMBERS
100
AcDbPolyline
 62
7
  6
CONTINUOUS
 90
3
 70
0
 10
2.8905132182
 20
4.9385544885
 10
2.8900762789
 20
4.9383476113
 10
2.8898769911
 20
4.9382642113
  0
LINE
  5
30B
100
AcDbEntity
  8
ALL_ASSEMBLY_MEMBERS
100
AcDbLine
 62
7
  6
CONTINUOUS
 10
3.5801049837
 20
5.8819383222
 11
3.5801049837
 21
5.8444383222
  0
LINE
  5
30C
100
AcDbEntity
  8
ALL_ASSEMBLY_MEMBERS
100
AcDbLine
 62
7
  6
CONTINUOUS
 10
3.5895447896
 20
5.8819383222
 11
3.5895447896
 21
5.8444383222
  0
LINE
  5
30D
100
AcDbEntity
  8
ALL_ASSEMBLY_MEMBERS
100
AcDbLine
 62
7
  6
CONTINUOUS
 10
3.5937412748
 20
5.8819383222
 11
3.5937412748
 21
5.8444383222
  0
LINE
  5
30E
100
AcDbEntity
  8
ALL_ASSEMBLY_MEMBERS
100
AcDbLine
 62
7
  6
CONTINUOUS
 10
3.6027685001
 20
5.8819383222
 11
3.6027685001
 21
5.8444383222
  0
LINE
  5
30F
100
AcDbEntity
  8
ALL_ASSEMBLY_MEMBERS
100
AcDbLine
 62
7
  6
CONTINUOUS
 10
3.6067749748
 20
5.8819383222
 11
3.6067749748
 21
5.8444383222
  0
LINE
  5
310
100
AcDbEntity
  8
ALL_ASSEMBLY_MEMBERS
100
AcDbLine
 62
7
  6
CONTINUOUS
 10
3.6116436335
 20
5.2944383222
 11
3.6116436335
 21
5.3944383222
  0
LINE
  5
311
100
AcDbEntity
  8
ALL_ASSEMBLY_MEMBERS
100
AcDbLine
 62
7
  6
CONTINUOUS
 10
3.6153786213
 20
5.8819383222
 11
3.6153786213
 21
5.8444383222
  0
LINE
  5
312
100
AcDbEntity
  8
ALL_ASSEMBLY_MEMBERS
100
AcDbLine
 62
7
  6
CONTINUOUS
 10
3.6191902042
 20
5.8819383222
 11
3.6191902042
 21
5.8444383222
  0
LINE
  5
313
100
AcDbEntity
  8
ALL_ASSEMBLY_MEMBERS
100
AcDbLine
 62
7
  6
CONTINUOUS
 10
3.6273597897
 20
5.8819383222
 11
3.6273597897
 21
5.8444383222
  0
LINE
  5
314
100
AcDbEntity
  8
ALL_ASSEMBLY_MEMBERS
100
AcDbLine
 62
7
  6
CONTINUOUS
 10
3.630971837
 20
5.8819383222
 11
3.630971837
 21
5.8444383222
  0
LINE
  5
315
100
AcDbEntity
  8
ALL_ASSEMBLY_MEMBERS
100
AcDbLine
 62
7
  6
CONTINUOUS
 10
3.6386974081
 20
5.8819383222
 11
3.6386974081
 21
5.8444383222
  0
LINE
  5
316
100
AcDbEntity
  8
ALL_ASSEMBLY_MEMBERS
100
AcDbLine
 62
7
  6
CONTINUOUS
 10
3.642105519
 20
5.8819383222
 11
3.642105519
 21
5.8444383222
  0
LINE
  5
317
100
AcDbEntity
  8
ALL_ASSEMBLY_MEMBERS
100
AcDbLine
 62
7
  6
CONTINUOUS
 10
3.6493776634
 20
5.8819383222
 11
3.6493776634
 21
5.8444383222
  0
LINE
  5
318
100
AcDbEntity
  8
ALL_ASSEMBLY_MEMBERS
100
AcDbLine
 62
7
  6
CONTINUOUS
 10
3.6525776857
 20
5.8819383222
 11
3.6525776857
 21
5.8444383222
  0
LINE
  5
319
100
AcDbEntity
  8
ALL_ASSEMBLY_MEMBERS
100
AcDbLine
 62
7
  6
CONTINUOUS
 10
3.6593875432
 20
5.8819383222
 11
3.6593875432
 21
5.8444383222
  0
LINE
  5
31A
100
AcDbEntity
  8
ALL_ASSEMBLY_MEMBERS
100
AcDbLine
 62
7
  6
CONTINUOUS
 10
3.6623755782
 20
5.8819383222
 11
3.6623755782
 21
5.8444383222
  0
LINE
  5
31B
100
AcDbEntity
  8
ALL_ASSEMBLY_MEMBERS
100
AcDbLine
 62
7
  6
CONTINUOUS
 10
3.6687148521
 20
5.8819383222
 11
3.6687148521
 21
5.8444383222
  0
LINE
  5
31C
100
AcDbEntity
  8
ALL_ASSEMBLY_MEMBERS
100
AcDbLine
 62
7
  6
CONTINUOUS
 10
3.6714872593
 20
5.8819383222
 11
3.6714872593
 21
5.8444383222
  0
LINE
  5
31D
100
AcDbEntity
  8
ALL_ASSEMBLY_MEMBERS
100
AcDbLine
 62
7
  6
CONTINUOUS
 10
3.6773482262
 20
5.8819383222
 11
3.6773482262
 21
5.8444383222
  0
LINE
  5
31E
100
AcDbEntity
  8
ALL_ASSEMBLY_MEMBERS
100
AcDbLine
 62
7
  6
CONTINUOUS
 10
3.6799016278
 20
5.8819383222
 11
3.6799016278
 21
5.8444383222
  0
LINE
  5
31F
100
AcDbEntity
  8
ALL_ASSEMBLY_MEMBERS
100
AcDbLine
 62
7
  6
CONTINUOUS
 10
3.6852771471
 20
5.8819383222
 11
3.6852771471
 21
5.8444383222
  0
LINE
  5
320
100
AcDbEntity
  8
ALL_ASSEMBLY_MEMBERS
100
AcDbLine
 62
7
  6
CONTINUOUS
 10
3.6876084323
 20
5.8819383222
 11
3.6876084323
 21
5.8444383222
  0
LINE
  5
321
100
AcDbEntity
  8
ALL_ASSEMBLY_MEMBERS
100
AcDbLine
 62
7
  6
CONTINUOUS
 10
3.6924919546
 20
5.8819383222
 11
3.6924919546
 21
5.8444383222
  0
LINE
  5
322
100
AcDbEntity
  8
ALL_ASSEMBLY_MEMBERS
100
AcDbLine
 62
7
  6
CONTINUOUS
 10
3.694598283
 20
5.8819383222
 11
3.694598283
 21
5.8444383222
  0
LINE
  5
323
100
AcDbEntity
  8
ALL_ASSEMBLY_MEMBERS
100
AcDbLine
 62
7
  6
CONTINUOUS
 10
3.6989838585
 20
5.8819383222
 11
3.6989838585
 21
5.8444383222
  0
LINE
  5
324
100
AcDbEntity
  8
ALL_ASSEMBLY_MEMBERS
100
AcDbLine
 62
7
  6
CONTINUOUS
 10
3.6991436335
 20
5.8819383222
 11
3.6991436335
 21
5.9819383222
  0
LINE
  5
325
100
AcDbEntity
  8
ALL_ASSEMBLY_MEMBERS
100
AcDbLine
 62
7
  6
CONTINUOUS
 10
3.7008626639
 20
5.8819383222
 11
3.7008626639
 21
5.8444383222
  0
LINE
  5
326
100
AcDbEntity
  8
ALL_ASSEMBLY_MEMBERS
100
AcDbLine
 62
7
  6
CONTINUOUS
 10
3.7047449496
 20
5.8819383222
 11
3.7047449496
 21
5.8444383222
  0
LINE
  5
327
100
AcDbEntity
  8
ALL_ASSEMBLY_MEMBERS
100
AcDbLine
 62
7
  6
CONTINUOUS
 10
3.7063939429
 20
5.8819383222
 11
3.7063939429
 21
5.8444383222
  0
LINE
  5
328
100
AcDbEntity
  8
ALL_ASSEMBLY_MEMBERS
100
AcDbLine
 62
7
  6
CONTINUOUS
 10
3.7097682087
 20
5.8819383222
 11
3.7097682087
 21
5.8444383222
  0
LINE
  5
329
100
AcDbEntity
  8
ALL_ASSEMBLY_MEMBERS
100
AcDbLine
 62
7
  6
CONTINUOUS
 10
3.7111853809
 20
5.8819383222
 11
3.7111853809
 21
5.8444383222
  0
LINE
  5
32A
100
AcDbEntity
  8
ALL_ASSEMBLY_MEMBERS
100
AcDbLine
 62
7
  6
CONTINUOUS
 10
3.7140475158
 20
5.8819383222
 11
3.7140475158
 21
5.8444383222
  0
LINE
  5
32B
100
AcDbEntity
  8
ALL_ASSEMBLY_MEMBERS
100
AcDbLine
 62
7
  6
CONTINUOUS
 10
3.7152311403
 20
5.8819383222
 11
3.7152311403
 21
5.8444383222
  0
LINE
  5
32C
100
AcDbEntity
  8
ALL_ASSEMBLY_MEMBERS
100
AcDbLine
 62
7
  6
CONTINUOUS
 10
3.7175776573
 20
5.8819383222
 11
3.7175776573
 21
5.8444383222
  0
LINE
  5
32D
100
AcDbEntity
  8
ALL_ASSEMBLY_MEMBERS
100
AcDbLine
 62
7
  6
CONTINUOUS
 10
3.7185262921
 20
5.8819383222
 11
3.7185262921
 21
5.8444383222
  0
LINE
  5
32E
100
AcDbEntity
  8
ALL_ASSEMBLY_MEMBERS
100
AcDbLine
 62
7
  6
CONTINUOUS
 10
3.7203543322
 20
5.8819383222
 11
3.7203543322
 21
5.8444383222
  0
LINE
  5
32F
100
AcDbEntity
  8
ALL_ASSEMBLY_MEMBERS
100
AcDbLine
 62
7
  6
CONTINUOUS
 10
3.7210668214
 20
5.8819383222
 11
3.7210668214
 21
5.8444383222
  0
LINE
  5
330
100
AcDbEntity
  8
ALL_ASSEMBLY_MEMBERS
100
AcDbLine
 62
7
  6
CONTINUOUS
 10
3.7223741575
 20
5.8819383222
 11
3.7223741575
 21
5.8444383222
  0
LINE
  5
331
100
AcDbEntity
  8
ALL_ASSEMBLY_MEMBERS
100
AcDbLine
 62
7
  6
CONTINUOUS
 10
3.7228496331
 20
5.8819383222
 11
3.7228496331
 21
5.8444383222
  0
LINE
  5
332
100
AcDbEntity
  8
ALL_ASSEMBLY_MEMBERS
100
AcDbLine
 62
7
  6
CONTINUOUS
 10
3.7236346725
 20
5.8819383222
 11
3.7236346725
 21
5.8444383222
  0
LINE
  5
333
100
AcDbEntity
  8
ALL_ASSEMBLY_MEMBERS
100
AcDbLine
 62
7
  6
CONTINUOUS
 10
3.7238725552
 20
5.8819383222
 11
3.7238725552
 21
5.8444383222
  0
LINE
  5
334
100
AcDbEntity
  8
ALL_ASSEMBLY_MEMBERS
100
AcDbLine
 62
7
  6
CONTINUOUS
 10
3.7241343413
 20
5.8819383222
 11
3.7241343413
 21
5.8444383222
  0
LINE
  5
335
100
AcDbEntity
  8
ALL_ASSEMBLY_MEMBERS
100
AcDbLine
 62
7
  6
CONTINUOUS
 10
3.7241436335
 20
6.0069383222
 11
3.7241436335
 21
6.0819383222
  0
LINE
  5
336
100
AcDbEntity
  8
ALL_ASSEMBLY_MEMBERS
100
AcDbLine
 62
7
  6
CONTINUOUS
 10
3.7977512505
 20
4.9178907279
 11
3.7977512505
 21
4.7726421808
  0
LINE
  5
337
100
AcDbEntity
  8
ALL_ASSEMBLY_MEMBERS
100
AcDbLine
 62
7
  6
CONTINUOUS
 10
3.8092241828
 20
4.9178965258
 11
3.8092241828
 21
4.7726363582
  0
LWPOLYLINE
  5
338
100
AcDbEntity
  8
ALL_ASSEMBLY_MEMBERS
100
AcDbPolyline
 62
7
  6
CONTINUOUS
 90
8
 70
0
 10
3.3038268124
 20
4.9416094689
 10
3.3033161621
 20
4.9421861232
 10
3.3022301049
 20
4.9436177054
 10
3.3012093778
 20
4.9453202865
 10
3.3003254031
 20
4.9472819095
 10
3.2996633371
 20
4.949411039
 10
3.2992623389
 20
4.9516513765
 10
3.2991439621
 20
4.9535796048
  0
LINE
  5
339
100
AcDbEntity
  8
ALL_ASSEMBLY_MEMBERS
100
AcDbLine
 62
7
  6
CONTINUOUS
 10
3.3038255079
 20
4.9416108669
 11
3.3038612258
 21
4.941572471
  0
LINE
  5
33A
100
AcDbEntity
  8
ALL_FEATURES
100
AcDbLine
 62
7
  6
CONTINUOUS
 10
4.692584394
 20
2.7378499246
 11
4.6926436335
 21
2.737118846
  0
LINE
  5
33B
100
AcDbEntity
  8
ALL_FEATURES
100
AcDbLine
 62
7
  6
CONTINUOUS
 10
4.6417029296
 20
3.8216642422
 11
4.6488936335
 21
3.7129383222
  0
LWPOLYLINE
  5
33C
100
AcDbEntity
  8
ALL_FEATURES
100
AcDbPolyline
 62
7
  6
CONTINUOUS
 90
9
 70
0
 10
4.6530007531
 20
3.6135490078
 10
4.6574920027
 20
3.5075404996
 10
4.6621549286
 20
3.4000313887
 10
4.6669778979
 20
3.2911668118
 10
4.6719479403
 20
3.1810597923
 10
4.6770496085
 20
3.0698213732
 10
4.6822648425
 20
2.9575715548
 10
4.6875747699
 20
2.8444258996
 10
4.6926436368
 20
2.7371188461
  0
LINE
  5
33D
100
AcDbEntity
  8
ALL_FEATURES
100
AcDbLine
 62
7
  6
CONTINUOUS
 10
4.6530007531
 20
3.6135490078
 11
4.6488936335
 21
3.7129383222
  0
LINE
  5
33E
100
AcDbEntity
  8
ALL_FEATURES
100
AcDbLine
 62
7
  6
CONTINUOUS
 10
4.6801696347
 20
3.7129383222
 11
4.6801176549
 21
3.7142222319
  0
LINE
  5
33F
100
AcDbEntity
  8
ALL_FEATURES
100
AcDbLine
 62
7
  6
CONTINUOUS
 10
4.6801654238
 20
3.7129381794
 11
4.6801218703
 21
3.7142223749
  0
LWPOLYLINE
  5
340
100
AcDbEntity
  8
ALL_FEATURES
100
AcDbPolyline
 62
7
  6
CONTINUOUS
 90
20
 70
0
 10
4.6758045968
 20
3.0969680106
 10
4.6758446922
 20
3.0937451801
 10
4.6758909884
 20
3.0889714877
 10
4.675921987
 20
3.0843923456
 10
4.6759379064
 20
3.0800093625
 10
4.6759390022
 20
3.0758249126
 10
4.675925552
 20
3.0718436311
 10
4.6758979406
 20
3.0680655883
 10
4.67585655
 20
3.0644927966
 10
4.6758019841
 20
3.0611332883
 10
4.6757347759
 20
3.0579842748
 10
4.6756556673
 20
3.0550490438
 10
4.6755660392
 20
3.0523447079
 10
4.6754669391
 20
3.0498663065
 10
4.6753597637
 20
3.0476164712
 10
4.6752478242
 20
3.0456231667
 10
4.6751330531
 20
3.0438763196
 10
4.6750185592
 20
3.0423800584
 10
4.6749122162
 20
3.0411817176
 10
4.6748446179
 20
3.0405089837
  0
LINE
  5
341
100
AcDbEntity
  8
ALL_FEATURES
100
AcDbLine
 62
7
  6
CONTINUOUS
 10
4.6488936352
 20
3.7129383223
 11
4.6580387997
 21
3.7133185645
  0
LINE
  5
342
100
AcDbEntity
  8
ALL_FEATURES
100
AcDbLine
 62
7
  6
CONTINUOUS
 10
4.6580387997
 20
3.7133185645
 11
4.6801176549
 21
3.7142222319
  0
LINE
  5
343
100
AcDbEntity
  8
ALL_FEATURES
100
AcDbLine
 62
7
  6
CONTINUOUS
 10
4.648945623
 20
3.7116641194
 11
4.6801696347
 21
3.7129383222
  0
LINE
  5
344
100
AcDbEntity
  8
ALL_FEATURES
100
AcDbLine
 62
7
  6
CONTINUOUS
 10
5.4551176324
 20
3.7129383222
 11
4.6801696347
 21
3.7129383222
  0
LINE
  5
345
100
AcDbEntity
  8
ALL_FEATURES
100
AcDbLine
 62
7
  6
CONTINUOUS
 10
5.4551176324
 20
3.7129383222
 11
5.4863416441
 21
3.7116641194
  0
LINE
  5
346
100
AcDbEntity
  8
ALL_FEATURES
100
AcDbLine
 62
7
  6
CONTINUOUS
 10
5.4551696122
 20
3.7142222319
 11
5.4772484657
 21
3.7133185646
  0
LINE
  5
347
100
AcDbEntity
  8
ALL_FEATURES
100
AcDbLine
 62
7
  6
CONTINUOUS
 10
5.4772484657
 20
3.7133185646
 11
5.4863936318
 21
3.7129383223
  0
LINE
  5
348
100
AcDbEntity
  8
ALL_ASSEMBLY_MEMBERS
100
AcDbLine
 62
7
  6
CONTINUOUS
 10
3.3061868371
 20
4.9395236392
 11
3.3063187797
 21
4.9394307152
  0
LINE
  5
349
100
AcDbEntity
  8
ALL_ASSEMBLY_MEMBERS
100
AcDbLine
 62
7
  6
CONTINUOUS
 10
2.4991436335
 20
5.9819383222
 11
2.4741436335
 21
6.0069383222
  0
LINE
  5
34A
100
AcDbEntity
  8
ALL_FEATURES
100
AcDbLine
 62
7
  6
CONTINUOUS
 10
4.3801436335
 20
6.1129383222
 11
4.3956436335
 21
5.9879383222
  0
LWPOLYLINE
  5
34B
100
AcDbEntity
  8
ALL_ASSEMBLY_MEMBERS
100
AcDbPolyline
 62
7
  6
CONTINUOUS
 90
14
 70
0
 10
2.8906661779
 20
4.768742671
 10
2.8905945133
 20
4.7687669882
 10
2.8907161278
 20
4.7687184413
 10
2.8910670597
 20
4.7685552797
 10
2.8916218753
 20
4.7682526488
 10
2.8923944142
 20
4.7677546362
 10
2.8933602784
 20
4.7670092424
 10
2.8944456297
 20
4.7659929238
 10
2.8955739281
 20
4.7646902081
 10
2.8966910288
 20
4.7630556861
 10
2.8976964652
 20
4.7611013617
 10
2.8984729277
 20
4.7589355708
 10
2.8989659228
 20
4.7566263798
 10
2.8991431899
 20
4.7543123709
  0
LINE
  5
34C
100
AcDbEntity
  8
ALL_ASSEMBLY_MEMBERS
100
AcDbLine
 62
7
  6
CONTINUOUS
 10
3.5741436335
 20
5.4444383222
 11
3.5366436335
 21
5.4819383222
  0
LWPOLYLINE
  5
34D
100
AcDbEntity
  8
ALL_FEATURES
100
AcDbPolyline
 62
7
  6
CONTINUOUS
 90
18
 70
0
 10
4.4113936335
 20
5.9879383222
 10
4.4318345917
 20
5.8455436149
 10
4.4519722581
 20
5.6996645429
 10
4.4709169992
 20
5.5567705006
 10
4.4886988562
 20
5.4170641214
 10
4.5053900549
 20
5.2804117144
 10
4.5210969468
 20
5.146339885
 10
4.5358643207
 20
5.0148350304
 10
4.5497270166
 20
4.8859615322
 10
4.5627627666
 20
4.7593555498
 10
4.5750066046
 20
4.6350156982
 10
4.5864886403
 20
4.512982501
 10
4.5972690716
 20
4.3929499392
 10
4.6073780853
 20
4.2748993096
 10
4.6168394658
 20
4.1588797835
 10
4.6256965601
 20
4.0446837455
 10
4.6339784509
 20
3.932249916
 10
4.6417029296
 20
3.8216642422
  0
LINE
  5
34E
100
AcDbEntity
  8
ALL_ASSEMBLY_MEMBERS
100
AcDbLine
 62
7
  6
CONTINUOUS
 10
7.7309388456
 20
4.75320001
 11
7.7309243566
 21
4.7531964951
  0
LWPOLYLINE
  5
34F
100
AcDbEntity
  8
ALL_ASSEMBLY_MEMBERS
100
AcDbPolyline
 62
7
  6
CONTINUOUS
 90
7
 70
0
 10
2.404333024
 20
4.7532038896
 10
2.4161743561
 20
4.7505972476
 10
2.4296644902
 20
4.7482993845
 10
2.4431913559
 20
4.7467066395
 10
2.4567451365
 20
4.7458203344
 10
2.4703118777
 20
4.7456419183
 10
2.4770000387
 20
4.7458146692
  0
LINE
  5
350
100
AcDbEntity
  8
ALL_ASSEMBLY_MEMBERS
100
AcDbLine
 62
7
  6
CONTINUOUS
 10
2.4043483545
 20
4.7532000263
 11
2.4043629367
 21
4.7531964887
  0
LWPOLYLINE
  5
351
100
AcDbEntity
  8
ALL_FEATURES
100
AcDbPolyline
 62
7
  6
CONTINUOUS
 90
5
 70
0
 10
5.4618026879
 20
3.038272275
 10
5.4613183209
 20
3.0393934146
 10
5.4609125057
 20
3.0403469352
 10
5.4605257136
 20
3.0412719624
 10
5.4603226101
 20
3.041768307
  0
LINE
  5
352
100
AcDbEntity
  8
ALL_FEATURES
100
AcDbLine
 62
7
  6
CONTINUOUS
 10
4.6749642028
 20
3.0417675354
 11
4.6747607734
 21
3.0412703525
  0
LWPOLYLINE
  5
353
100
AcDbEntity
  8
ALL_FEATURES
100
AcDbPolyline
 62
7
  6
CONTINUOUS
 90
3
 70
0
 10
4.6747607734
 20
3.0412703525
 10
4.6743739775
 20
3.0403452264
 10
4.6739683911
 20
3.0393921673
  0
LINE
  5
354
100
AcDbEntity
  8
ALL_FEATURES
100
AcDbLine
 62
7
  6
CONTINUOUS
 10
4.6739683911
 20
3.0393921673
 11
4.6734845554
 21
3.0382722204
  0
LINE
  5
355
100
AcDbEntity
  8
ALL_ASSEMBLY_MEMBERS
100
AcDbLine
 62
7
  6
CONTINUOUS
 10
6.5611436335
 20
5.4444383222
 11
6.5986436335
 21
5.4819383222
  0
LWPOLYLINE
  5
356
100
AcDbEntity
  8
ALL_ASSEMBLY_MEMBERS
100
AcDbPolyline
 62
7
  6
CONTINUOUS
 90
3
 70
0
 10
6.8275132182
 20
4.9385544885
 10
6.8270762789
 20
4.9383476113
 10
6.8268769911
 20
4.9382642113
  0
LWPOLYLINE
  5
357
100
AcDbEntity
  8
ALL_ASSEMBLY_MEMBERS
100
AcDbPolyline
 62
7
  6
CONTINUOUS
 90
8
 70
0
 10
3.3083693098
 20
4.9382656011
 10
3.308471884
 20
4.9382363761
 10
3.3085434686
 20
4.9382142923
 10
3.3084543062
 20
4.9382470377
 10
3.3082089743
 20
4.9383485068
 10
3.307771198
 20
4.9385559029
 10
3.3071533279
 20
4.9388946864
 10
3.3063182572
 20
4.9394311175
  0
LWPOLYLINE
  5
358
100
AcDbEntity
  8
ALL_FEATURES
100
AcDbPolyline
 62
7
  6
CONTINUOUS
 90
21
 70
0
 10
5.460574592
 20
3.0394060172
 10
5.4605567431
 20
3.0395362814
 10
5.4604937073
 20
3.0400480512
 10
5.4604014597
 20
3.0409125685
 10
5.4602967153
 20
3.042049338
 10
5.4601853516
 20
3.0434488461
 10
5.4600703984
 20
3.0451273055
 10
5.4599580796
 20
3.0470421989
 10
5.4598508091
 20
3.0491893311
 10
5.4597501773
 20
3.0515761036
 10
5.4596586963
 20
3.0541770974
 10
5.4595774925
 20
3.0569884257
 10
5.4595073343
 20
3.0600139316
 10
5.459449233
 20
3.0632395828
 10
5.4594037488
 20
3.0666620293
 10
5.4593712947
 20
3.0702827421
 10
5.4593523003
 20
3.0740953865
 10
5.4593470661
 20
3.0780976784
 10
5.4593558836
 20
3.0822889559
 10
5.459378942
 20
3.0866660073
 10
5.4594164609
 20
3.0912263223
  0
LINE
  5
359
100
AcDbEntity
  8
ALL_FEATURES
100
AcDbLine
 62
7
  6
CONTINUOUS
 10
5.4594164609
 20
3.0912263223
 11
5.4594819783
 21
3.0969532966
  0
LINE
  5
35A
100
AcDbEntity
  8
ALL_FEATURES
100
AcDbLine
 62
7
  6
CONTINUOUS
 10
5.4551218433
 20
3.7129381794
 11
5.4551653968
 21
3.7142223749
  0
LINE
  5
35B
100
AcDbEntity
  8
ALL_FEATURES
100
AcDbLine
 62
7
  6
CONTINUOUS
 10
5.4551176324
 20
3.7129383222
 11
5.4551696122
 21
3.7142222319
  0
LWPOLYLINE
  5
35C
100
AcDbEntity
  8
ALL_FEATURES
100
AcDbPolyline
 62
7
  6
CONTINUOUS
 90
10
 70
0
 10
5.4427683117
 20
2.7397531817
 10
5.4477088983
 20
2.8443488542
 10
5.4530193777
 20
2.9575061428
 10
5.4582351387
 20
3.0697669984
 10
5.4633373301
 20
3.1810160275
 10
5.468307863
 20
3.2911331605
 10
5.4731312815
 20
3.4000072901
 10
5.4777946091
 20
3.5075252571
 10
5.4822862109
 20
3.6135418125
 10
5.4863936321
 20
3.7129382878
  0
LINE
  5
35D
100
AcDbEntity
  8
ALL_FEATURES
100
AcDbLine
 62
7
  6
CONTINUOUS
 10
5.4426436321
 20
2.7371188461
 11
5.4427684411
 21
2.7397559808
  0
LWPOLYLINE
  5
35E
100
AcDbEntity
  8
ALL_FEATURES
100
AcDbPolyline
 62
7
  6
CONTINUOUS
 90
19
 70
0
 10
5.4863936335
 20
3.7129383222
 10
5.4935843373
 20
3.8216642389
 10
5.5013088158
 20
3.932249911
 10
5.5095907066
 20
4.0446837406
 10
5.5184478011
 20
4.1588797812
 10
5.527909182
 20
4.2748993116
 10
5.5380181959
 20
4.3929499443
 10
5.5487986274
 20
4.5129825067
 10
5.560280663
 20
4.6350157035
 10
5.572524501
 20
4.7593555544
 10
5.5855602509
 20
4.8859615364
 10
5.5994229468
 20
5.0148350341
 10
5.6141903206
 20
5.1463398882
 10
5.6298972125
 20
5.2804117171
 10
5.6465884111
 20
5.4170641237
 10
5.6643702681
 20
5.5567705023
 10
5.6833150091
 20
5.6996645441
 10
5.7034526755
 20
5.8455436155
 10
5.7238936335
 20
5.9879383222
  0
LINE
  5
35F
100
AcDbEntity
  8
ALL_FEATURES
100
AcDbLine
 62
7
  6
CONTINUOUS
 10
5.7551436335
 20
6.1129383222
 11
5.7396436335
 21
5.9879383222
  0
LWPOLYLINE
  5
360
100
AcDbEntity
  8
ALL_ASSEMBLY_MEMBERS
100
AcDbPolyline
 62
7
  6
CONTINUOUS
 90
3
 70
0
 10
6.8289669682
 20
4.9394297633
 10
6.8281308843
 20
4.938892946
 10
6.8275132182
 20
4.9385544885
  0
LINE
  5
361
100
AcDbEntity
  8
ALL_ASSEMBLY_MEMBERS
100
AcDbLine
 62
7
  6
CONTINUOUS
 10
6.3413544408
 20
4.9373343305
 11
6.341373104
 21
4.9373388507
  0
LINE
  5
362
100
AcDbEntity
  8
ALL_ASSEMBLY_MEMBERS
100
AcDbLine
 62
7
  6
CONTINUOUS
 10
6.7808750667
 20
4.7636640809
 11
6.8311819919
 21
4.7662397932
  0
LWPOLYLINE
  5
363
100
AcDbEntity
  8
ALL_ASSEMBLY_MEMBERS
100
AcDbPolyline
 62
7
  6
CONTINUOUS
 90
7
 70
0
 10
6.4688874049
 20
4.7480820088
 10
6.5249170614
 20
4.7506195765
 10
6.5793383409
 20
4.7532521154
 10
6.6321561675
 20
4.755920392
 10
6.6833617351
 20
4.7585730114
 10
6.7329358932
 20
4.7611660605
 10
6.7808750667
 20
4.7636640809
  0
LINE
  5
364
100
AcDbEntity
  8
ALL_ASSEMBLY_MEMBERS
100
AcDbLine
 62
7
  6
CONTINUOUS
 10
6.4688874049
 20
4.7480820088
 11
6.4140038422
 21
4.7458148173
  0
LINE
  5
365
100
AcDbEntity
  8
ALL_ASSEMBLY_MEMBERS
100
AcDbLine
 62
7
  6
CONTINUOUS
 10
2.9678936335
 20
4.6729383222
 11
3.2303936335
 21
4.6729383222
  0
LINE
  5
366
100
AcDbEntity
  8
ALL_ASSEMBLY_MEMBERS
100
AcDbLine
 62
7
  6
CONTINUOUS
 10
6.9048936335
 20
4.6729383222
 11
7.1673936335
 21
4.6729383222
  0
LINE
  5
367
100
AcDbEntity
  8
ALL_ASSEMBLY_MEMBERS
100
AcDbLine
 62
7
  6
CONTINUOUS
 10
2.9678936335
 20
4.6879383222
 11
3.2303936335
 21
4.6879383222
  0
LINE
  5
368
100
AcDbEntity
  8
ALL_ASSEMBLY_MEMBERS
100
AcDbLine
 62
7
  6
CONTINUOUS
 10
6.9048936335
 20
4.6879383222
 11
7.1673936335
 21
4.6879383222
  0
LINE
  5
369
100
AcDbEntity
  8
ALL_ASSEMBLY_MEMBERS
100
AcDbLine
 62
7
  6
CONTINUOUS
 10
2.9428936335
 20
4.6979383222
 11
3.2553936335
 21
4.6979383222
  0
LINE
  5
36A
100
AcDbEntity
  8
ALL_ASSEMBLY_MEMBERS
100
AcDbLine
 62
7
  6
CONTINUOUS
 10
6.8798936335
 20
4.6979383222
 11
7.1923936335
 21
4.6979383222
  0
LWPOLYLINE
  5
36B
100
AcDbEntity
  8
ALL_ASSEMBLY_MEMBERS
100
AcDbPolyline
 62
7
  6
CONTINUOUS
 90
7
 70
0
 10
3.7212923159
 20
4.7458144846
 10
3.7280361597
 20
4.7456411423
 10
3.7416183259
 20
4.745823325
 10
3.7551874556
 20
4.7467150163
 10
3.7687295898
 20
4.7483147769
 10
3.782234946
 20
4.750621294
 10
3.793954173
 20
4.7532038855
  0
LWPOLYLINE
  5
36C
100
AcDbEntity
  8
ALL_ASSEMBLY_MEMBERS
100
AcDbPolyline
 62
7
  6
CONTINUOUS
 90
9
 70
0
 10
3.3041001221
 20
4.7662400516
 10
3.3544122756
 20
4.763664077
 10
3.4023514395
 20
4.761166057
 10
3.4519255875
 20
4.7585730085
 10
3.5031311447
 20
4.7559203897
 10
3.5559489604
 20
4.7532521137
 10
3.6103702288
 20
4.7506195754
 10
3.666399874
 20
4.7480820082
 10
3.7212882348
 20
4.7458146434
  0
LWPOLYLINE
  5
36D
100
AcDbEntity
  8
ALL_ASSEMBLY_MEMBERS
100
AcDbPolyline
 62
7
  6
CONTINUOUS
 90
10
 70
0
 10
2.9809622723
 20
4.7527831451
 10
3.0045367675
 20
4.7502026525
 10
3.0314767616
 20
4.7479610622
 10
3.0584676803
 20
4.7464652121
 10
3.0854877783
 20
4.7457153129
 10
3.1125177943
 20
4.7457114342
 10
3.1395382214
 20
4.746453575
 10
3.1665297337
 20
4.7479416604
 10
3.1934704305
 20
4.7501754763
 10
3.2173249932
 20
4.752783132
  0
LWPOLYLINE
  5
36E
100
AcDbEntity
  8
ALL_ASSEMBLY_MEMBERS
100
AcDbPolyline
 62
7
  6
CONTINUOUS
 90
7
 70
0
 10
3.7939517093
 20
4.9373296089
 10
3.7831920066
 20
4.9397194822
 10
3.7707954553
 20
4.9419084915
 10
3.7583659393
 20
4.9435022254
 10
3.7459112399
 20
4.9444996168
 10
3.7334423782
 20
4.9448994211
 10
3.7309434339
 20
4.9449075989
  0
LINE
  5
36F
100
AcDbEntity
  8
ALL_ASSEMBLY_MEMBERS
100
AcDbLine
 62
7
  6
CONTINUOUS
 10
3.7939328902
 20
4.9373343149
 11
3.7939141406
 21
4.9373388561
  0
LINE
  5
370
100
AcDbEntity
  8
ALL_FEATURES
100
AcDbLine
 62
7
  6
CONTINUOUS
 10
5.4428487357
 20
2.739746625
 11
5.4426436335
 21
2.737118846
  0
LINE
  5
371
100
AcDbEntity
  8
ALL_FEATURES
100
AcDbLine
 62
7
  6
CONTINUOUS
 10
5.4428565156
 20
2.7397460345
 11
5.4426436335
 21
2.737118846
  0
LINE
  5
372
100
AcDbEntity
  8
ALL_ASSEMBLY_MEMBERS
100
AcDbLine
 62
7
  6
CONTINUOUS
 10
7.6361436335
 20
5.9819383222
 11
7.6611436335
 21
6.0069383222
  0
LINE
  5
373
100
AcDbEntity
  8
ALL_ASSEMBLY_MEMBERS
100
AcDbLine
 62
7
  6
CONTINUOUS
 10
6.8292287069
 20
4.9396161918
 11
6.8289654957
 21
4.9394287159
  0
LINE
  5
374
100
AcDbEntity
  8
ALL_ASSEMBLY_MEMBERS
100
AcDbLine
 62
7
  6
CONTINUOUS
 10
2.8438750667
 20
4.7636640809
 11
2.8941819919
 21
4.7662397932
  0
LWPOLYLINE
  5
375
100
AcDbEntity
  8
ALL_ASSEMBLY_MEMBERS
100
AcDbPolyline
 62
7
  6
CONTINUOUS
 90
7
 70
0
 10
2.5318874049
 20
4.7480820088
 10
2.5879170614
 20
4.7506195765
 10
2.6423383409
 20
4.7532521154
 10
2.6951561675
 20
4.755920392
 10
2.7463617351
 20
4.7585730114
 10
2.7959358932
 20
4.7611660605
 10
2.8438750667
 20
4.7636640809
  0
LINE
  5
376
100
AcDbEntity
  8
ALL_ASSEMBLY_MEMBERS
100
AcDbLine
 62
7
  6
CONTINUOUS
 10
2.5318874049
 20
4.7480820088
 11
2.4770038422
 21
4.7458148173
  0
LINE
  5
377
100
AcDbEntity
  8
ALL_ASSEMBLY_MEMBERS
100
AcDbLine
 62
7
  6
CONTINUOUS
 10
7.2647487337
 20
4.9401748374
 11
7.2427156384
 21
4.9398778482
  0
LWPOLYLINE
  5
378
100
AcDbEntity
  8
ALL_ASSEMBLY_MEMBERS
100
AcDbPolyline
 62
7
  6
CONTINUOUS
 90
9
 70
0
 10
7.6679292681
 20
4.9449071716
 10
7.6234705269
 20
4.9447530621
 10
7.5751704096
 20
4.9444166735
 10
7.5258907862
 20
4.9439238764
 10
7.4756062045
 20
4.9433002404
 10
7.4243281134
 20
4.9425760822
 10
7.3720978762
 20
4.9417867922
 10
7.3189159172
 20
4.9409717995
 10
7.2647487337
 20
4.9401748374
  0
LINE
  5
379
100
AcDbEntity
  8
ALL_ASSEMBLY_MEMBERS
100
AcDbLine
 62
7
  6
CONTINUOUS
 10
2.8991436335
 20
4.7354383222
 11
3.2991436335
 21
4.7354383222
  0
LINE
  5
37A
100
AcDbEntity
  8
ALL_ASSEMBLY_MEMBERS
100
AcDbLine
 62
7
  6
CONTINUOUS
 10
6.8361436335
 20
4.7354383222
 11
7.2361436335
 21
4.7354383222
  0
LINE
  5
37B
100
AcDbEntity
  8
ALL_ASSEMBLY_MEMBERS
100
AcDbLine
 62
7
  6
CONTINUOUS
 10
7.7462241828
 20
4.7726363582
 11
7.7347512505
 21
4.7726363582
  0
LINE
  5
37C
100
AcDbEntity
  8
ALL_ASSEMBLY_MEMBERS
100
AcDbLine
 62
7
  6
CONTINUOUS
 10
6.9203796245
 20
4.7726363582
 11
6.9003796245
 21
4.7726363582
  0
LINE
  5
37D
100
AcDbEntity
  8
ALL_ASSEMBLY_MEMBERS
100
AcDbLine
 62
7
  6
CONTINUOUS
 10
3.8092241828
 20
4.7726363582
 11
3.7977512505
 21
4.7726363582
  0
LINE
  5
37E
100
AcDbEntity
  8
ALL_ASSEMBLY_MEMBERS
100
AcDbLine
 62
7
  6
CONTINUOUS
 10
2.9833796245
 20
4.7726363582
 11
2.9633796245
 21
4.7726363582
  0
LINE
  5
37F
100
AcDbEntity
  8
ALL_ASSEMBLY_MEMBERS
100
AcDbLine
 62
7
  6
CONTINUOUS
 10
2.3890630843
 20
4.7726363582
 11
2.4005360166
 21
4.7726363582
  0
LINE
  5
380
100
AcDbEntity
  8
ALL_ASSEMBLY_MEMBERS
100
AcDbLine
 62
7
  6
CONTINUOUS
 10
3.2149076426
 20
4.7726363582
 11
3.2349076426
 21
4.7726363582
  0
LINE
  5
381
100
AcDbEntity
  8
ALL_ASSEMBLY_MEMBERS
100
AcDbLine
 62
7
  6
CONTINUOUS
 10
6.3260630843
 20
4.7726363582
 11
6.3375360166
 21
4.7726363582
  0
LINE
  5
382
100
AcDbEntity
  8
ALL_ASSEMBLY_MEMBERS
100
AcDbLine
 62
7
  6
CONTINUOUS
 10
7.1519076426
 20
4.7726363582
 11
7.1719076426
 21
4.7726363582
  0
LINE
  5
383
100
AcDbEntity
  8
ALL_ASSEMBLY_MEMBERS
100
AcDbLine
 62
7
  6
CONTINUOUS
 10
7.7462241828
 20
4.9178965258
 11
7.7347512505
 21
4.9178965258
  0
LINE
  5
384
100
AcDbEntity
  8
ALL_ASSEMBLY_MEMBERS
100
AcDbLine
 62
7
  6
CONTINUOUS
 10
6.9203796245
 20
4.9178965258
 11
6.9003796245
 21
4.9178965258
  0
LINE
  5
385
100
AcDbEntity
  8
ALL_ASSEMBLY_MEMBERS
100
AcDbLine
 62
7
  6
CONTINUOUS
 10
3.8092241828
 20
4.9178965258
 11
3.7977512505
 21
4.9178965258
  0
LINE
  5
386
100
AcDbEntity
  8
ALL_ASSEMBLY_MEMBERS
100
AcDbLine
 62
7
  6
CONTINUOUS
 10
2.9833796245
 20
4.9178965258
 11
2.9633796245
 21
4.9178965258
  0
LINE
  5
387
100
AcDbEntity
  8
ALL_ASSEMBLY_MEMBERS
100
AcDbLine
 62
7
  6
CONTINUOUS
 10
2.3890630843
 20
4.9178965258
 11
2.4005360166
 21
4.9178965258
  0
LINE
  5
388
100
AcDbEntity
  8
ALL_ASSEMBLY_MEMBERS
100
AcDbLine
 62
7
  6
CONTINUOUS
 10
3.2149076426
 20
4.9178965258
 11
3.2349076426
 21
4.9178965258
  0
LINE
  5
389
100
AcDbEntity
  8
ALL_ASSEMBLY_MEMBERS
100
AcDbLine
 62
7
  6
CONTINUOUS
 10
6.3260630843
 20
4.9178965258
 11
6.3375360166
 21
4.9178965258
  0
LINE
  5
38A
100
AcDbEntity
  8
ALL_ASSEMBLY_MEMBERS
100
AcDbLine
 62
7
  6
CONTINUOUS
 10
7.1519076426
 20
4.9178965258
 11
7.1719076426
 21
4.9178965258
  0
LWPOLYLINE
  5
38B
100
AcDbEntity
  8
ALL_ASSEMBLY_MEMBERS
100
AcDbPolyline
 62
7
  6
CONTINUOUS
 90
10
 70
0
 10
2.8925711776
 20
4.9398778543
 10
2.8705386141
 20
4.9401748363
 10
2.8163714317
 20
4.9409717983
 10
2.7631894707
 20
4.941786791
 10
2.7109592282
 20
4.9425760811
 10
2.6596811287
 20
4.9433002395
 10
2.6093965352
 20
4.9439238758
 10
2.560116897
 20
4.9444166732
 10
2.5118167615
 20
4.944753062
 10
2.4673579985
 20
4.9449071716
  0
LWPOLYLINE
  5
38C
100
AcDbEntity
  8
ALL_ASSEMBLY_MEMBERS
100
AcDbPolyline
 62
7
  6
CONTINUOUS
 90
7
 70
0
 10
7.6582923159
 20
4.7458144846
 10
7.6650361597
 20
4.7456411423
 10
7.6786183259
 20
4.745823325
 10
7.6921874556
 20
4.7467150163
 10
7.7057295898
 20
4.7483147769
 10
7.719234946
 20
4.750621294
 10
7.730954173
 20
4.7532038855
  0
LWPOLYLINE
  5
38D
100
AcDbEntity
  8
ALL_ASSEMBLY_MEMBERS
100
AcDbPolyline
 62
7
  6
CONTINUOUS
 90
9
 70
0
 10
7.2411001221
 20
4.7662400516
 10
7.2914122756
 20
4.763664077
 10
7.3393514395
 20
4.761166057
 10
7.3889255875
 20
4.7585730085
 10
7.4401311447
 20
4.7559203897
 10
7.4929489604
 20
4.7532521137
 10
7.5473702288
 20
4.7506195754
 10
7.603399874
 20
4.7480820082
 10
7.6582882348
 20
4.7458146434
  0
LINE
  5
38E
100
AcDbEntity
  8
ALL_ASSEMBLY_MEMBERS
100
AcDbLine
 62
7
  6
CONTINUOUS
 10
6.8315103201
 20
4.9416634702
 11
6.8314650328
 21
4.9416144102
  0
LINE
  5
38F
100
AcDbEntity
  8
ALL_ASSEMBLY_MEMBERS
100
AcDbLine
 62
7
  6
CONTINUOUS
 10
3.7939388456
 20
4.75320001
 11
3.7939243566
 21
4.7531964951
  0
LINE
  5
390
100
AcDbEntity
  8
ALL_ASSEMBLY_MEMBERS
100
AcDbLine
 62
7
  6
CONTINUOUS
 10
3.3277487337
 20
4.9401748374
 11
3.3057156384
 21
4.9398778482
  0
LWPOLYLINE
  5
391
100
AcDbEntity
  8
ALL_ASSEMBLY_MEMBERS
100
AcDbPolyline
 62
7
  6
CONTINUOUS
 90
8
 70
0
 10
3.6864705269
 20
4.9447530621
 10
3.6381704096
 20
4.9444166735
 10
3.5888907862
 20
4.9439238764
 10
3.5386062045
 20
4.9433002404
 10
3.4873281134
 20
4.9425760822
 10
3.4350978762
 20
4.9417867922
 10
3.3819159172
 20
4.9409717995
 10
3.3277487337
 20
4.9401748374
  0
LWPOLYLINE
  5
392
100
AcDbEntity
  8
ALL_ASSEMBLY_MEMBERS
100
AcDbPolyline
 62
7
  6
CONTINUOUS
 90
7
 70
0
 10
6.4043376269
 20
4.9449076079
 10
6.4017792598
 20
4.9448988855
 10
6.3892938022
 20
4.9444950106
 10
6.3768226085
 20
4.9434919465
 10
6.3643766937
 20
4.9418909342
 10
6.3519638279
 20
4.9396930399
 10
6.3413356193
 20
4.9373296109
  0
LWPOLYLINE
  5
393
100
AcDbEntity
  8
ALL_ASSEMBLY_MEMBERS
100
AcDbPolyline
 62
7
  6
CONTINUOUS
 90
7
 70
0
 10
2.4673376269
 20
4.9449076079
 10
2.4647792598
 20
4.9448988855
 10
2.4522938022
 20
4.9444950106
 10
2.4398226085
 20
4.9434919465
 10
2.4273766937
 20
4.9418909342
 10
2.4149638279
 20
4.9396930399
 10
2.4043356193
 20
4.9373296109
  0
LINE
  5
394
100
AcDbEntity
  8
ALL_ASSEMBLY_MEMBERS
100
AcDbLine
 62
7
  6
CONTINUOUS
 10
7.66792917
 20
4.9449075767
 11
7.6679433442
 21
4.9449075988
  0
LINE
  5
395
100
AcDbEntity
  8
ALL_ASSEMBLY_MEMBERS
100
AcDbLine
 62
7
  6
CONTINUOUS
 10
3.6864705269
 20
4.9447530621
 11
3.7309433442
 21
4.9449075988
  0
LINE
  5
396
100
AcDbEntity
  8
ALL_ASSEMBLY_MEMBERS
100
AcDbLine
 62
7
  6
CONTINUOUS
 10
2.8991436335
 20
4.9729383222
 11
3.2991436335
 21
4.9729383222
  0
LINE
  5
397
100
AcDbEntity
  8
ALL_ASSEMBLY_MEMBERS
100
AcDbLine
 62
7
  6
CONTINUOUS
 10
6.8361436335
 20
4.9729383222
 11
7.2361436335
 21
4.9729383222
  0
LINE
  5
398
100
AcDbEntity
  8
ALL_ASSEMBLY_MEMBERS
100
AcDbLine
 62
7
  6
CONTINUOUS
 10
2.9428936335
 20
4.9829383222
 11
3.2553936335
 21
4.9829383222
  0
LINE
  5
399
100
AcDbEntity
  8
ALL_ASSEMBLY_MEMBERS
100
AcDbLine
 62
7
  6
CONTINUOUS
 10
6.8798936335
 20
4.9829383222
 11
7.1923936335
 21
4.9829383222
  0
LINE
  5
39A
100
AcDbEntity
  8
ALL_ASSEMBLY_MEMBERS
100
AcDbLine
 62
7
  6
CONTINUOUS
 10
2.9428936335
 20
5.1294383222
 11
3.2553936335
 21
5.1294383222
  0
LINE
  5
39B
100
AcDbEntity
  8
ALL_ASSEMBLY_MEMBERS
100
AcDbLine
 62
7
  6
CONTINUOUS
 10
6.8798936335
 20
5.1294383222
 11
7.1923936335
 21
5.1294383222
  0
LINE
  5
39C
100
AcDbEntity
  8
ALL_ASSEMBLY_MEMBERS
100
AcDbLine
 62
7
  6
CONTINUOUS
 10
7.2361436335
 20
5.1444383222
 11
6.8361436335
 21
5.1444383222
  0
LINE
  5
39D
100
AcDbEntity
  8
ALL_ASSEMBLY_MEMBERS
100
AcDbLine
 62
7
  6
CONTINUOUS
 10
3.2991436335
 20
5.1444383222
 11
2.8991436335
 21
5.1444383222
  0
LINE
  5
39E
100
AcDbEntity
  8
ALL_ASSEMBLY_MEMBERS
100
AcDbLine
 62
7
  6
CONTINUOUS
 10
2.4673380527
 20
4.9449076072
 11
2.467358097
 21
4.9449075762
  0
LWPOLYLINE
  5
39F
100
AcDbEntity
  8
ALL_ASSEMBLY_MEMBERS
100
AcDbPolyline
 62
7
  6
CONTINUOUS
 90
10
 70
0
 10
6.8295711776
 20
4.9398778543
 10
6.8075386141
 20
4.9401748363
 10
6.7533714317
 20
4.9409717983
 10
6.7001894707
 20
4.941786791
 10
6.6479592282
 20
4.9425760811
 10
6.5966811287
 20
4.9433002395
 10
6.5463965352
 20
4.9439238758
 10
6.497116897
 20
4.9444166732
 10
6.4488167615
 20
4.944753062
 10
6.4043380527
 20
4.9449076072
  0
LWPOLYLINE
  5
3A0
100
AcDbEntity
  8
ALL_ASSEMBLY_MEMBERS
100
AcDbPolyline
 62
7
  6
CONTINUOUS
 90
10
 70
0
 10
6.9179622723
 20
4.7527831451
 10
6.9415367675
 20
4.7502026525
 10
6.9684767616
 20
4.7479610622
 10
6.9954676803
 20
4.7464652121
 10
7.0224877783
 20
4.7457153129
 10
7.0495177943
 20
4.7457114342
 10
7.0765382214
 20
4.746453575
 10
7.1035297337
 20
4.7479416604
 10
7.1304704305
 20
4.7501754763
 10
7.1543249932
 20
4.752783132
  0
LWPOLYLINE
  5
3A1
100
AcDbEntity
  8
ALL_ASSEMBLY_MEMBERS
100
AcDbPolyline
 62
7
  6
CONTINUOUS
 90
7
 70
0
 10
6.341333024
 20
4.7532038896
 10
6.3531743561
 20
4.7505972476
 10
6.3666644902
 20
4.7482993845
 10
6.3801913559
 20
4.7467066395
 10
6.3937451365
 20
4.7458203344
 10
6.4073118777
 20
4.7456419183
 10
6.4140000387
 20
4.7458146692
  0
LINE
  5
3A2
100
AcDbEntity
  8
ALL_ASSEMBLY_MEMBERS
100
AcDbLine
 62
7
  6
CONTINUOUS
 10
6.3413483545
 20
4.7532000263
 11
6.3413629367
 21
4.7531964887
  0
LINE
  5
3A3
100
AcDbEntity
  8
ALL_ASSEMBLY_MEMBERS
100
AcDbLine
 62
7
  6
CONTINUOUS
 10
7.4111436335
 20
5.1944383222
 11
6.6611436335
 21
5.1944383222
  0
LINE
  5
3A4
100
AcDbEntity
  8
ALL_ASSEMBLY_MEMBERS
100
AcDbLine
 62
7
  6
CONTINUOUS
 10
3.4741436335
 20
5.1944383222
 11
2.7241436335
 21
5.1944383222
  0
LINE
  5
3A5
100
AcDbEntity
  8
ALL_ASSEMBLY_MEMBERS
100
AcDbLine
 62
7
  6
CONTINUOUS
 10
7.4611436335
 20
5.2194383222
 11
6.6111436335
 21
5.2194383222
  0
LINE
  5
3A6
100
AcDbEntity
  8
ALL_ASSEMBLY_MEMBERS
100
AcDbLine
 62
7
  6
CONTINUOUS
 10
3.5241436335
 20
5.2194383222
 11
2.6741436335
 21
5.2194383222
  0
LINE
  5
3A7
100
AcDbEntity
  8
ALL_ASSEMBLY_MEMBERS
100
AcDbLine
 62
7
  6
CONTINUOUS
 10
7.5111436335
 20
5.2694383222
 11
6.5611436335
 21
5.2694383222
  0
LINE
  5
3A8
100
AcDbEntity
  8
ALL_ASSEMBLY_MEMBERS
100
AcDbLine
 62
7
  6
CONTINUOUS
 10
3.5741436335
 20
5.2694383222
 11
2.6241436335
 21
5.2694383222
  0
LINE
  5
3A9
100
AcDbEntity
  8
ALL_ASSEMBLY_MEMBERS
100
AcDbLine
 62
7
  6
CONTINUOUS
 10
7.5486436335
 20
5.2944383222
 11
6.5236436335
 21
5.2944383222
  0
LINE
  5
3AA
100
AcDbEntity
  8
ALL_ASSEMBLY_MEMBERS
100
AcDbLine
 62
7
  6
CONTINUOUS
 10
3.6116436335
 20
5.2944383222
 11
2.5866436335
 21
5.2944383222
  0
LWPOLYLINE
  5
3AB
100
AcDbEntity
  8
ALL_ASSEMBLY_MEMBERS
100
AcDbPolyline
 62
7
  6
CONTINUOUS
 90
14
 70
0
 10
6.8276661779
 20
4.768742671
 10
6.8275945133
 20
4.7687669882
 10
6.8277161278
 20
4.7687184413
 10
6.8280670597
 20
4.7685552797
 10
6.8286218753
 20
4.7682526488
 10
6.8293944142
 20
4.7677546362
 10
6.8303602784
 20
4.7670092424
 10
6.8314456297
 20
4.7659929238
 10
6.8325739281
 20
4.7646902081
 10
6.8336910288
 20
4.7630556861
 10
6.8346964652
 20
4.7611013617
 10
6.8354729277
 20
4.7589355708
 10
6.8359659228
 20
4.7566263798
 10
6.8361431899
 20
4.7543123709
  0
LINE
  5
3AC
100
AcDbEntity
  8
ALL_ASSEMBLY_MEMBERS
100
AcDbLine
 62
7
  6
CONTINUOUS
 10
6.3260630843
 20
4.7726363582
 11
6.3260630843
 21
4.9178965258
  0
LINE
  5
3AD
100
AcDbEntity
  8
ALL_ASSEMBLY_MEMBERS
100
AcDbLine
 62
7
  6
CONTINUOUS
 10
6.3375360166
 20
4.7726422575
 11
6.3375360166
 21
4.9178908056
  0
LINE
  5
3AE
100
AcDbEntity
  8
ALL_ASSEMBLY_MEMBERS
100
AcDbLine
 62
7
  6
CONTINUOUS
 10
2.4043544408
 20
4.9373343305
 11
2.404373104
 21
4.9373388507
  0
LINE
  5
3AF
100
AcDbEntity
  8
ALL_ASSEMBLY_MEMBERS
100
AcDbLine
 62
7
  6
CONTINUOUS
 10
7.5486436335
 20
5.3944383222
 11
6.5236436335
 21
5.3944383222
  0
LINE
  5
3B0
100
AcDbEntity
  8
ALL_ASSEMBLY_MEMBERS
100
AcDbLine
 62
7
  6
CONTINUOUS
 10
3.6116436335
 20
5.3944383222
 11
2.5866436335
 21
5.3944383222
  0
LINE
  5
3B1
100
AcDbEntity
  8
ALL_ASSEMBLY_MEMBERS
100
AcDbLine
 62
7
  6
CONTINUOUS
 10
7.5111436335
 20
5.4444383222
 11
6.5611436335
 21
5.4444383222
  0
LINE
  5
3B2
100
AcDbEntity
  8
ALL_ASSEMBLY_MEMBERS
100
AcDbLine
 62
7
  6
CONTINUOUS
 10
3.5741436335
 20
5.4444383222
 11
2.6241436335
 21
5.4444383222
  0
LINE
  5
3B3
100
AcDbEntity
  8
ALL_ASSEMBLY_MEMBERS
100
AcDbLine
 62
7
  6
CONTINUOUS
 10
7.4736436335
 20
5.4819383222
 11
6.5986436335
 21
5.4819383222
  0
LINE
  5
3B4
100
AcDbEntity
  8
ALL_ASSEMBLY_MEMBERS
100
AcDbLine
 62
7
  6
CONTINUOUS
 10
3.5366436335
 20
5.4819383222
 11
2.6616436335
 21
5.4819383222
  0
LWPOLYLINE
  5
3B5
100
AcDbEntity
  8
ALL_ASSEMBLY_MEMBERS
100
AcDbPolyline
 62
7
  6
CONTINUOUS
 90
7
 70
0
 10
7.7309517093
 20
4.9373296089
 10
7.7201920066
 20
4.9397194822
 10
7.7077954553
 20
4.9419084915
 10
7.6953659393
 20
4.9435022254
 10
7.6829112399
 20
4.9444996168
 10
7.6704423782
 20
4.9448994211
 10
7.6679434339
 20
4.9449075989
  0
LINE
  5
3B6
100
AcDbEntity
  8
ALL_ASSEMBLY_MEMBERS
100
AcDbLine
 62
7
  6
CONTINUOUS
 10
7.7309328902
 20
4.9373343149
 11
7.7309141406
 21
4.9373388561
  0
LWPOLYLINE
  5
3B7
100
AcDbEntity
  8
ALL_ASSEMBLY_MEMBERS
100
AcDbPolyline
 62
7
  6
CONTINUOUS
 90
8
 70
0
 10
7.2453693098
 20
4.9382656011
 10
7.245471884
 20
4.9382363761
 10
7.2455434686
 20
4.9382142923
 10
7.2454543062
 20
4.9382470377
 10
7.2452089743
 20
4.9383485068
 10
7.244771198
 20
4.9385559029
 10
7.2441533279
 20
4.9388946864
 10
7.2433182572
 20
4.9394311175
  0
LINE
  5
3B8
100
AcDbEntity
  8
ALL_ASSEMBLY_MEMBERS
100
AcDbLine
 62
7
  6
CONTINUOUS
 10
6.4111436335
 20
6.0069383222
 11
6.4111436335
 21
6.0819383222
  0
LINE
  5
3B9
100
AcDbEntity
  8
ALL_ASSEMBLY_MEMBERS
100
AcDbLine
 62
7
  6
CONTINUOUS
 10
6.4111529258
 20
5.8819383222
 11
6.4111529258
 21
5.8444383222
  0
LINE
  5
3BA
100
AcDbEntity
  8
ALL_ASSEMBLY_MEMBERS
100
AcDbLine
 62
7
  6
CONTINUOUS
 10
6.4114147119
 20
5.8819383222
 11
6.4114147119
 21
5.8444383222
  0
LINE
  5
3BB
100
AcDbEntity
  8
ALL_ASSEMBLY_MEMBERS
100
AcDbLine
 62
7
  6
CONTINUOUS
 10
6.4116525946
 20
5.8819383222
 11
6.4116525946
 21
5.8444383222
  0
LINE
  5
3BC
100
AcDbEntity
  8
ALL_ASSEMBLY_MEMBERS
100
AcDbLine
 62
7
  6
CONTINUOUS
 10
6.4124376339
 20
5.8819383222
 11
6.4124376339
 21
5.8444383222
  0
LINE
  5
3BD
100
AcDbEntity
  8
ALL_ASSEMBLY_MEMBERS
100
AcDbLine
 62
7
  6
CONTINUOUS
 10
6.4129131095
 20
5.8819383222
 11
6.4129131095
 21
5.8444383222
  0
LINE
  5
3BE
100
AcDbEntity
  8
ALL_ASSEMBLY_MEMBERS
100
AcDbLine
 62
7
  6
CONTINUOUS
 10
6.4142204457
 20
5.8819383222
 11
6.4142204457
 21
5.8444383222
  0
LINE
  5
3BF
100
AcDbEntity
  8
ALL_ASSEMBLY_MEMBERS
100
AcDbLine
 62
7
  6
CONTINUOUS
 10
6.4149329349
 20
5.8819383222
 11
6.4149329349
 21
5.8444383222
  0
LINE
  5
3C0
100
AcDbEntity
  8
ALL_ASSEMBLY_MEMBERS
100
AcDbLine
 62
7
  6
CONTINUOUS
 10
6.416760975
 20
5.8819383222
 11
6.416760975
 21
5.8444383222
  0
LINE
  5
3C1
100
AcDbEntity
  8
ALL_ASSEMBLY_MEMBERS
100
AcDbLine
 62
7
  6
CONTINUOUS
 10
6.4177096098
 20
5.8819383222
 11
6.4177096098
 21
5.8444383222
  0
LINE
  5
3C2
100
AcDbEntity
  8
ALL_ASSEMBLY_MEMBERS
100
AcDbLine
 62
7
  6
CONTINUOUS
 10
6.4200561267
 20
5.8819383222
 11
6.4200561267
 21
5.8444383222
  0
LINE
  5
3C3
100
AcDbEntity
  8
ALL_ASSEMBLY_MEMBERS
100
AcDbLine
 62
7
  6
CONTINUOUS
 10
6.4212397512
 20
5.8819383222
 11
6.4212397512
 21
5.8444383222
  0
LINE
  5
3C4
100
AcDbEntity
  8
ALL_ASSEMBLY_MEMBERS
100
AcDbLine
 62
7
  6
CONTINUOUS
 10
6.4241018862
 20
5.8819383222
 11
6.4241018862
 21
5.8444383222
  0
LINE
  5
3C5
100
AcDbEntity
  8
ALL_ASSEMBLY_MEMBERS
100
AcDbLine
 62
7
  6
CONTINUOUS
 10
6.4255190584
 20
5.8819383222
 11
6.4255190584
 21
5.8444383222
  0
LINE
  5
3C6
100
AcDbEntity
  8
ALL_ASSEMBLY_MEMBERS
100
AcDbLine
 62
7
  6
CONTINUOUS
 10
6.4288933242
 20
5.8819383222
 11
6.4288933242
 21
5.8444383222
  0
LINE
  5
3C7
100
AcDbEntity
  8
ALL_ASSEMBLY_MEMBERS
100
AcDbLine
 62
7
  6
CONTINUOUS
 10
6.4305423175
 20
5.8819383222
 11
6.4305423175
 21
5.8444383222
  0
LINE
  5
3C8
100
AcDbEntity
  8
ALL_ASSEMBLY_MEMBERS
100
AcDbLine
 62
7
  6
CONTINUOUS
 10
6.4344246032
 20
5.8819383222
 11
6.4344246032
 21
5.8444383222
  0
LINE
  5
3C9
100
AcDbEntity
  8
ALL_ASSEMBLY_MEMBERS
100
AcDbLine
 62
7
  6
CONTINUOUS
 10
6.4361436335
 20
5.8819383222
 11
6.4361436335
 21
5.9819383222
  0
LINE
  5
3CA
100
AcDbEntity
  8
ALL_ASSEMBLY_MEMBERS
100
AcDbLine
 62
7
  6
CONTINUOUS
 10
6.4363034085
 20
5.8819383222
 11
6.4363034085
 21
5.8444383222
  0
LINE
  5
3CB
100
AcDbEntity
  8
ALL_ASSEMBLY_MEMBERS
100
AcDbLine
 62
7
  6
CONTINUOUS
 10
6.4406889841
 20
5.8819383222
 11
6.4406889841
 21
5.8444383222
  0
LINE
  5
3CC
100
AcDbEntity
  8
ALL_ASSEMBLY_MEMBERS
100
AcDbLine
 62
7
  6
CONTINUOUS
 10
6.4427953125
 20
5.8819383222
 11
6.4427953125
 21
5.8444383222
  0
LINE
  5
3CD
100
AcDbEntity
  8
ALL_ASSEMBLY_MEMBERS
100
AcDbLine
 62
7
  6
CONTINUOUS
 10
6.4476788348
 20
5.8819383222
 11
6.4476788348
 21
5.8444383222
  0
LINE
  5
3CE
100
AcDbEntity
  8
ALL_ASSEMBLY_MEMBERS
100
AcDbLine
 62
7
  6
CONTINUOUS
 10
6.45001012
 20
5.8819383222
 11
6.45001012
 21
5.8444383222
  0
LINE
  5
3CF
100
AcDbEntity
  8
ALL_ASSEMBLY_MEMBERS
100
AcDbLine
 62
7
  6
CONTINUOUS
 10
6.4553856392
 20
5.8819383222
 11
6.4553856392
 21
5.8444383222
  0
LINE
  5
3D0
100
AcDbEntity
  8
ALL_ASSEMBLY_MEMBERS
100
AcDbLine
 62
7
  6
CONTINUOUS
 10
6.4579390409
 20
5.8819383222
 11
6.4579390409
 21
5.8444383222
  0
LINE
  5
3D1
100
AcDbEntity
  8
ALL_ASSEMBLY_MEMBERS
100
AcDbLine
 62
7
  6
CONTINUOUS
 10
6.4638000078
 20
5.8819383222
 11
6.4638000078
 21
5.8444383222
  0
LINE
  5
3D2
100
AcDbEntity
  8
ALL_ASSEMBLY_MEMBERS
100
AcDbLine
 62
7
  6
CONTINUOUS
 10
6.466572415
 20
5.8819383222
 11
6.466572415
 21
5.8444383222
  0
LINE
  5
3D3
100
AcDbEntity
  8
ALL_ASSEMBLY_MEMBERS
100
AcDbLine
 62
7
  6
CONTINUOUS
 10
6.4729116889
 20
5.8819383222
 11
6.4729116889
 21
5.8444383222
  0
LINE
  5
3D4
100
AcDbEntity
  8
ALL_ASSEMBLY_MEMBERS
100
AcDbLine
 62
7
  6
CONTINUOUS
 10
6.4758997239
 20
5.8819383222
 11
6.4758997239
 21
5.8444383222
  0
LINE
  5
3D5
100
AcDbEntity
  8
ALL_ASSEMBLY_MEMBERS
100
AcDbLine
 62
7
  6
CONTINUOUS
 10
6.4827095814
 20
5.8819383222
 11
6.4827095814
 21
5.8444383222
  0
LINE
  5
3D6
100
AcDbEntity
  8
ALL_ASSEMBLY_MEMBERS
100
AcDbLine
 62
7
  6
CONTINUOUS
 10
6.4859096037
 20
5.8819383222
 11
6.4859096037
 21
5.8444383222
  0
LINE
  5
3D7
100
AcDbEntity
  8
ALL_ASSEMBLY_MEMBERS
100
AcDbLine
 62
7
  6
CONTINUOUS
 10
6.493181748
 20
5.8819383222
 11
6.493181748
 21
5.8444383222
  0
LINE
  5
3D8
100
AcDbEntity
  8
ALL_ASSEMBLY_MEMBERS
100
AcDbLine
 62
7
  6
CONTINUOUS
 10
6.496589859
 20
5.8819383222
 11
6.496589859
 21
5.8444383222
  0
LINE
  5
3D9
100
AcDbEntity
  8
ALL_ASSEMBLY_MEMBERS
100
AcDbLine
 62
7
  6
CONTINUOUS
 10
6.5043154301
 20
5.8819383222
 11
6.5043154301
 21
5.8444383222
  0
LINE
  5
3DA
100
AcDbEntity
  8
ALL_ASSEMBLY_MEMBERS
100
AcDbLine
 62
7
  6
CONTINUOUS
 10
6.5079274773
 20
5.8819383222
 11
6.5079274773
 21
5.8444383222
  0
LINE
  5
3DB
100
AcDbEntity
  8
ALL_ASSEMBLY_MEMBERS
100
AcDbLine
 62
7
  6
CONTINUOUS
 10
6.5160970629
 20
5.8819383222
 11
6.5160970629
 21
5.8444383222
  0
LINE
  5
3DC
100
AcDbEntity
  8
ALL_ASSEMBLY_MEMBERS
100
AcDbLine
 62
7
  6
CONTINUOUS
 10
6.5199086458
 20
5.8819383222
 11
6.5199086458
 21
5.8444383222
  0
LINE
  5
3DD
100
AcDbEntity
  8
ALL_ASSEMBLY_MEMBERS
100
AcDbLine
 62
7
  6
CONTINUOUS
 10
6.5236436335
 20
5.2944383222
 11
6.5236436335
 21
5.3944383222
  0
LINE
  5
3DE
100
AcDbEntity
  8
ALL_ASSEMBLY_MEMBERS
100
AcDbLine
 62
7
  6
CONTINUOUS
 10
6.5285122923
 20
5.8819383222
 11
6.5285122923
 21
5.8444383222
  0
LINE
  5
3DF
100
AcDbEntity
  8
ALL_ASSEMBLY_MEMBERS
100
AcDbLine
 62
7
  6
CONTINUOUS
 10
6.532518767
 20
5.8819383222
 11
6.532518767
 21
5.8444383222
  0
LINE
  5
3E0
100
AcDbEntity
  8
ALL_ASSEMBLY_MEMBERS
100
AcDbLine
 62
7
  6
CONTINUOUS
 10
6.5415459923
 20
5.8819383222
 11
6.5415459923
 21
5.8444383222
  0
LINE
  5
3E1
100
AcDbEntity
  8
ALL_ASSEMBLY_MEMBERS
100
AcDbLine
 62
7
  6
CONTINUOUS
 10
6.5457424775
 20
5.8819383222
 11
6.5457424775
 21
5.8444383222
  0
LINE
  5
3E2
100
AcDbEntity
  8
ALL_ASSEMBLY_MEMBERS
100
AcDbLine
 62
7
  6
CONTINUOUS
 10
6.5551822834
 20
5.8819383222
 11
6.5551822834
 21
5.8444383222
  0
LINE
  5
3E3
100
AcDbEntity
  8
ALL_ASSEMBLY_MEMBERS
100
AcDbLine
 62
7
  6
CONTINUOUS
 10
6.5595636663
 20
5.8819383222
 11
6.5595636663
 21
5.8444383222
  0
LINE
  5
3E4
100
AcDbEntity
  8
ALL_ASSEMBLY_MEMBERS
100
AcDbLine
 62
7
  6
CONTINUOUS
 10
6.5611436335
 20
5.2694383222
 11
6.5611436335
 21
5.2944383222
  0
LINE
  5
3E5
100
AcDbEntity
  8
ALL_ASSEMBLY_MEMBERS
100
AcDbLine
 62
7
  6
CONTINUOUS
 10
6.5611436335
 20
5.3944383222
 11
6.5611436335
 21
5.4444383222
  0
LINE
  5
3E6
100
AcDbEntity
  8
ALL_ASSEMBLY_MEMBERS
100
AcDbLine
 62
7
  6
CONTINUOUS
 10
6.5694045518
 20
5.8819383222
 11
6.5694045518
 21
5.8444383222
  0
LINE
  5
3E7
100
AcDbEntity
  8
ALL_ASSEMBLY_MEMBERS
100
AcDbLine
 62
7
  6
CONTINUOUS
 10
6.5739654944
 20
5.8819383222
 11
6.5739654944
 21
5.8444383222
  0
LINE
  5
3E8
100
AcDbEntity
  8
ALL_ASSEMBLY_MEMBERS
100
AcDbLine
 62
7
  6
CONTINUOUS
 10
6.5841954698
 20
5.8819383222
 11
6.5841954698
 21
5.8444383222
  0
LINE
  5
3E9
100
AcDbEntity
  8
ALL_ASSEMBLY_MEMBERS
100
AcDbLine
 62
7
  6
CONTINUOUS
 10
6.5889304154
 20
5.8819383222
 11
6.5889304154
 21
5.8444383222
  0
LINE
  5
3EA
100
AcDbEntity
  8
ALL_ASSEMBLY_MEMBERS
100
AcDbLine
 62
7
  6
CONTINUOUS
 10
6.5986436335
 20
5.4819383222
 11
6.5986436335
 21
5.7444383222
  0
LINE
  5
3EB
100
AcDbEntity
  8
ALL_ASSEMBLY_MEMBERS
100
AcDbLine
 62
7
  6
CONTINUOUS
 10
6.5995370171
 20
5.8819383222
 11
6.5995370171
 21
5.8444383222
  0
LINE
  5
3EC
100
AcDbEntity
  8
ALL_ASSEMBLY_MEMBERS
100
AcDbLine
 62
7
  6
CONTINUOUS
 10
6.6044401968
 20
5.8819383222
 11
6.6044401968
 21
5.8444383222
  0
LINE
  5
3ED
100
AcDbEntity
  8
ALL_ASSEMBLY_MEMBERS
100
AcDbLine
 62
7
  6
CONTINUOUS
 10
6.6150403372
 20
5.8444383222
 11
6.6150403372
 21
5.8819383222
  0
LINE
  5
3EE
100
AcDbEntity
  8
ALL_ASSEMBLY_MEMBERS
100
AcDbLine
 62
7
  6
CONTINUOUS
 10
6.6154105023
 20
5.8819383222
 11
6.6154105023
 21
5.8444383222
  0
LINE
  5
3EF
100
AcDbEntity
  8
ALL_ASSEMBLY_MEMBERS
100
AcDbLine
 62
7
  6
CONTINUOUS
 10
2.6366436335
 20
5.7444383222
 11
3.5616436335
 21
5.7444383222
  0
LINE
  5
3F0
100
AcDbEntity
  8
ALL_ASSEMBLY_MEMBERS
100
AcDbLine
 62
7
  6
CONTINUOUS
 10
6.5736436335
 20
5.7444383222
 11
7.4986436335
 21
5.7444383222
  0
LINE
  5
3F1
100
AcDbEntity
  8
ALL_ASSEMBLY_MEMBERS
100
AcDbLine
 62
7
  6
CONTINUOUS
 10
2.5616436335
 20
5.7944383222
 11
3.6366436335
 21
5.7944383222
  0
LINE
  5
3F2
100
AcDbEntity
  8
ALL_ASSEMBLY_MEMBERS
100
AcDbLine
 62
7
  6
CONTINUOUS
 10
6.4986436335
 20
5.7944383222
 11
7.5736436335
 21
5.7944383222
  0
LINE
  5
3F3
100
AcDbEntity
  8
ALL_ASSEMBLY_MEMBERS
100
AcDbLine
 62
7
  6
CONTINUOUS
 10
6.6204759423
 20
5.8819383222
 11
6.6204759423
 21
5.8444383222
  0
LINE
  5
3F4
100
AcDbEntity
  8
ALL_ASSEMBLY_MEMBERS
100
AcDbLine
 62
7
  6
CONTINUOUS
 10
6.6310567069
 20
5.8444383222
 11
6.6310567069
 21
5.8819383222
  0
LINE
  5
3F5
100
AcDbEntity
  8
ALL_ASSEMBLY_MEMBERS
100
AcDbLine
 62
7
  6
CONTINUOUS
 10
6.631796586
 20
5.8819383222
 11
6.631796586
 21
5.8444383222
  0
LINE
  5
3F6
100
AcDbEntity
  8
ALL_ASSEMBLY_MEMBERS
100
AcDbLine
 62
7
  6
CONTINUOUS
 10
6.6370181149
 20
5.8819383222
 11
6.6370181149
 21
5.8444383222
  0
LINE
  5
3F7
100
AcDbEntity
  8
ALL_ASSEMBLY_MEMBERS
100
AcDbLine
 62
7
  6
CONTINUOUS
 10
6.6475666125
 20
5.8444383222
 11
6.6475666125
 21
5.8819383222
  0
LINE
  5
3F8
100
AcDbEntity
  8
ALL_ASSEMBLY_MEMBERS
100
AcDbLine
 62
7
  6
CONTINUOUS
 10
6.6486753043
 20
5.8819383222
 11
6.6486753043
 21
5.8444383222
  0
LINE
  5
3F9
100
AcDbEntity
  8
ALL_ASSEMBLY_MEMBERS
100
AcDbLine
 62
7
  6
CONTINUOUS
 10
6.6540465604
 20
5.8819383222
 11
6.6540465604
 21
5.8444383222
  0
LINE
  5
3FA
100
AcDbEntity
  8
ALL_ASSEMBLY_MEMBERS
100
AcDbLine
 62
7
  6
CONTINUOUS
 10
6.6611436335
 20
5.1944383222
 11
6.6611436335
 21
5.2194383222
  0
LINE
  5
3FB
100
AcDbEntity
  8
ALL_ASSEMBLY_MEMBERS
100
AcDbLine
 62
7
  6
CONTINUOUS
 10
6.6645499394
 20
5.8444383222
 11
6.6645499394
 21
5.8819383222
  0
LINE
  5
3FC
100
AcDbEntity
  8
ALL_ASSEMBLY_MEMBERS
100
AcDbLine
 62
7
  6
CONTINUOUS
 10
6.666026093
 20
5.8819383222
 11
6.666026093
 21
5.8444383222
  0
LINE
  5
3FD
100
AcDbEntity
  8
ALL_ASSEMBLY_MEMBERS
100
AcDbLine
 62
7
  6
CONTINUOUS
 10
6.6715405324
 20
5.8819383222
 11
6.6715405324
 21
5.8444383222
  0
LINE
  5
3FE
100
AcDbEntity
  8
ALL_ASSEMBLY_MEMBERS
100
AcDbLine
 62
7
  6
CONTINUOUS
 10
6.681985996
 20
5.8444383222
 11
6.681985996
 21
5.8819383222
  0
LINE
  5
3FF
100
AcDbEntity
  8
ALL_ASSEMBLY_MEMBERS
100
AcDbLine
 62
7
  6
CONTINUOUS
 10
6.683827813
 20
5.8819383222
 11
6.683827813
 21
5.8444383222
  0
LINE
  5
400
100
AcDbEntity
  8
ALL_ASSEMBLY_MEMBERS
100
AcDbLine
 62
7
  6
CONTINUOUS
 10
6.689478717
 20
5.8819383222
 11
6.689478717
 21
5.8444383222
  0
LINE
  5
401
100
AcDbEntity
  8
ALL_ASSEMBLY_MEMBERS
100
AcDbLine
 62
7
  6
CONTINUOUS
 10
6.6998535391
 20
5.8444383222
 11
6.6998535391
 21
5.8819383222
  0
LINE
  5
402
100
AcDbEntity
  8
ALL_ASSEMBLY_MEMBERS
100
AcDbLine
 62
7
  6
CONTINUOUS
 10
6.7020587756
 20
5.8819383222
 11
6.7020587756
 21
5.8444383222
  0
LINE
  5
403
100
AcDbEntity
  8
ALL_ASSEMBLY_MEMBERS
100
AcDbLine
 62
7
  6
CONTINUOUS
 10
6.7078392595
 20
5.8819383222
 11
6.7078392595
 21
5.8444383222
  0
LINE
  5
404
100
AcDbEntity
  8
ALL_ASSEMBLY_MEMBERS
100
AcDbLine
 62
7
  6
CONTINUOUS
 10
6.7181307998
 20
5.8444383222
 11
6.7181307998
 21
5.8819383222
  0
LINE
  5
405
100
AcDbEntity
  8
ALL_ASSEMBLY_MEMBERS
100
AcDbLine
 62
7
  6
CONTINUOUS
 10
6.720696769
 20
5.8819383222
 11
6.720696769
 21
5.8444383222
  0
LINE
  5
406
100
AcDbEntity
  8
ALL_ASSEMBLY_MEMBERS
100
AcDbLine
 62
7
  6
CONTINUOUS
 10
6.7265997903
 20
5.8819383222
 11
6.7265997903
 21
5.8444383222
  0
LINE
  5
407
100
AcDbEntity
  8
ALL_ASSEMBLY_MEMBERS
100
AcDbLine
 62
7
  6
CONTINUOUS
 10
6.7367955103
 20
5.8444383222
 11
6.7367955103
 21
5.8819383222
  0
LINE
  5
408
100
AcDbEntity
  8
ALL_ASSEMBLY_MEMBERS
100
AcDbLine
 62
7
  6
CONTINUOUS
 10
6.7397190859
 20
5.8819383222
 11
6.7397190859
 21
5.8444383222
  0
LINE
  5
409
100
AcDbEntity
  8
ALL_ASSEMBLY_MEMBERS
100
AcDbLine
 62
7
  6
CONTINUOUS
 10
6.7457374526
 20
5.8819383222
 11
6.7457374526
 21
5.8444383222
  0
LINE
  5
40A
100
AcDbEntity
  8
ALL_ASSEMBLY_MEMBERS
100
AcDbLine
 62
7
  6
CONTINUOUS
 10
6.7558249303
 20
5.8444383222
 11
6.7558249303
 21
5.8819383222
  0
LINE
  5
40B
100
AcDbEntity
  8
ALL_ASSEMBLY_MEMBERS
100
AcDbLine
 62
7
  6
CONTINUOUS
 10
6.7591025504
 20
5.8819383222
 11
6.7591025504
 21
5.8444383222
  0
LINE
  5
40C
100
AcDbEntity
  8
ALL_ASSEMBLY_MEMBERS
100
AcDbLine
 62
7
  6
CONTINUOUS
 10
6.7652289301
 20
5.8819383222
 11
6.7652289301
 21
5.8444383222
  0
LINE
  5
40D
100
AcDbEntity
  8
ALL_ASSEMBLY_MEMBERS
100
AcDbLine
 62
7
  6
CONTINUOUS
 10
6.7751958754
 20
5.8444383222
 11
6.7751958754
 21
5.8819383222
  0
LINE
  5
40E
100
AcDbEntity
  8
ALL_ASSEMBLY_MEMBERS
100
AcDbLine
 62
7
  6
CONTINUOUS
 10
6.7788235469
 20
5.8819383222
 11
6.7788235469
 21
5.8444383222
  0
LINE
  5
40F
100
AcDbEntity
  8
ALL_ASSEMBLY_MEMBERS
100
AcDbLine
 62
7
  6
CONTINUOUS
 10
6.7850504754
 20
5.8819383222
 11
6.7850504754
 21
5.8444383222
  0
LINE
  5
410
100
AcDbEntity
  8
ALL_ASSEMBLY_MEMBERS
100
AcDbLine
 62
7
  6
CONTINUOUS
 10
6.7948847452
 20
5.8444383222
 11
6.7948847452
 21
5.8819383222
  0
LINE
  5
411
100
AcDbEntity
  8
ALL_ASSEMBLY_MEMBERS
100
AcDbLine
 62
7
  6
CONTINUOUS
 10
6.7988580482
 20
5.8819383222
 11
6.7988580482
 21
5.8444383222
  0
LINE
  5
412
100
AcDbEntity
  8
ALL_ASSEMBLY_MEMBERS
100
AcDbLine
 62
7
  6
CONTINUOUS
 10
6.805177939
 20
5.8819383222
 11
6.805177939
 21
5.8444383222
  0
LINE
  5
413
100
AcDbEntity
  8
ALL_ASSEMBLY_MEMBERS
100
AcDbLine
 62
7
  6
CONTINUOUS
 10
6.8083002073
 20
4.9169778576
 11
6.8083002073
 21
4.7902455643
  0
LINE
  5
414
100
AcDbEntity
  8
ALL_ASSEMBLY_MEMBERS
100
AcDbLine
 62
7
  6
CONTINUOUS
 10
6.8148675518
 20
5.8444383222
 11
6.8148675518
 21
5.8819383222
  0
LINE
  5
415
100
AcDbEntity
  8
ALL_ASSEMBLY_MEMBERS
100
AcDbLine
 62
7
  6
CONTINUOUS
 10
6.8191816454
 20
5.8819383222
 11
6.8191816454
 21
5.8444383222
  0
LINE
  5
416
100
AcDbEntity
  8
ALL_ASSEMBLY_MEMBERS
100
AcDbLine
 62
7
  6
CONTINUOUS
 10
6.8255867988
 20
5.8819383222
 11
6.8255867988
 21
5.8444383222
  0
LWPOLYLINE
  5
417
100
AcDbEntity
  8
ALL_ASSEMBLY_MEMBERS
100
AcDbPolyline
 62
7
  6
CONTINUOUS
 90
8
 70
0
 10
6.8361434063
 20
4.9535778847
 10
6.8360249578
 20
4.9516505348
 10
6.8356237717
 20
4.9494098751
 10
6.8349613915
 20
4.947280369
 10
6.8340769775
 20
4.9453183831
 10
6.8330557677
 20
4.9436155737
 10
6.8319692511
 20
4.9421839146
 10
6.8314658166
 20
4.9416152584
  0
LINE
  5
418
100
AcDbEntity
  8
ALL_ASSEMBLY_MEMBERS
100
AcDbLine
 62
7
  6
CONTINUOUS
 10
2.4741529258
 20
5.8444383222
 11
2.4744491881
 21
5.8444383222
  0
LINE
  5
419
100
AcDbEntity
  8
ALL_ASSEMBLY_MEMBERS
100
AcDbLine
 62
7
  6
CONTINUOUS
 10
2.4746525946
 20
5.8444383222
 11
3.7241343413
 21
5.8444383222
  0
LINE
  5
41A
100
AcDbEntity
  8
ALL_ASSEMBLY_MEMBERS
100
AcDbLine
 62
7
  6
CONTINUOUS
 10
6.4111529258
 20
5.8444383222
 11
6.4114491881
 21
5.8444383222
  0
LINE
  5
41B
100
AcDbEntity
  8
ALL_ASSEMBLY_MEMBERS
100
AcDbLine
 62
7
  6
CONTINUOUS
 10
6.4116525946
 20
5.8444383222
 11
7.6611343413
 21
5.8444383222
  0
LINE
  5
41C
100
AcDbEntity
  8
ALL_ASSEMBLY_MEMBERS
100
AcDbLine
 62
7
  6
CONTINUOUS
 10
3.7238380623
 20
5.8819383222
 11
3.7241343413
 21
5.8819383222
  0
LINE
  5
41D
100
AcDbEntity
  8
ALL_ASSEMBLY_MEMBERS
100
AcDbLine
 62
7
  6
CONTINUOUS
 10
2.4741529258
 20
5.8819383222
 11
3.7236346725
 21
5.8819383222
  0
LINE
  5
41E
100
AcDbEntity
  8
ALL_ASSEMBLY_MEMBERS
100
AcDbLine
 62
7
  6
CONTINUOUS
 10
7.6608380623
 20
5.8819383222
 11
7.6611343413
 21
5.8819383222
  0
LINE
  5
41F
100
AcDbEntity
  8
ALL_ASSEMBLY_MEMBERS
100
AcDbLine
 62
7
  6
CONTINUOUS
 10
6.4111529258
 20
5.8819383222
 11
7.6606346725
 21
5.8819383222
  0
LINE
  5
420
100
AcDbEntity
  8
ALL_ASSEMBLY_MEMBERS
100
AcDbLine
 62
7
  6
CONTINUOUS
 10
2.4991436335
 20
5.9819383222
 11
3.6991436335
 21
5.9819383222
  0
LINE
  5
421
100
AcDbEntity
  8
ALL_ASSEMBLY_MEMBERS
100
AcDbLine
 62
7
  6
CONTINUOUS
 10
6.4361436335
 20
5.9819383222
 11
7.6361436335
 21
5.9819383222
  0
LINE
  5
422
100
AcDbEntity
  8
ALL_FEATURES
100
AcDbLine
 62
7
  6
CONTINUOUS
 10
4.3956446552
 20
5.9879383222
 11
5.7396426119
 21
5.9879383222
  0
LINE
  5
423
100
AcDbEntity
  8
ALL_ASSEMBLY_MEMBERS
100
AcDbLine
 62
7
  6
CONTINUOUS
 10
2.4741436335
 20
6.0069383222
 11
3.7241436335
 21
6.0069383222
  0
LINE
  5
424
100
AcDbEntity
  8
ALL_ASSEMBLY_MEMBERS
100
AcDbLine
 62
7
  6
CONTINUOUS
 10
6.4111436335
 20
6.0069383222
 11
7.6611436335
 21
6.0069383222
  0
LINE
  5
425
100
AcDbEntity
  8
ALL_ASSEMBLY_MEMBERS
100
AcDbLine
 62
7
  6
CONTINUOUS
 10
6.8351199493
 20
5.8444383222
 11
6.8351199493
 21
5.8819383222
  0
LINE
  5
426
100
AcDbEntity
  8
ALL_ASSEMBLY_MEMBERS
100
AcDbLine
 62
7
  6
CONTINUOUS
 10
6.8361436335
 20
4.9729383222
 11
6.8361436335
 21
4.9537421609
  0
LINE
  5
427
100
AcDbEntity
  8
ALL_ASSEMBLY_MEMBERS
100
AcDbLine
 62
7
  6
CONTINUOUS
 10
6.8361436335
 20
4.7541205962
 11
6.8361436335
 21
4.7354383222
  0
LINE
  5
428
100
AcDbEntity
  8
ALL_ASSEMBLY_MEMBERS
100
AcDbLine
 62
7
  6
CONTINUOUS
 10
6.8361436335
 20
5.1444383222
 11
6.8361436335
 21
5.1944383222
  0
LINE
  5
429
100
AcDbEntity
  8
ALL_ASSEMBLY_MEMBERS
100
AcDbLine
 62
7
  6
CONTINUOUS
 10
6.8368147572
 20
4.9520169002
 11
6.8368147572
 21
4.7561580083
  0
LINE
  5
42A
100
AcDbEntity
  8
ALL_ASSEMBLY_MEMBERS
100
AcDbLine
 62
7
  6
CONTINUOUS
 10
6.8397695774
 20
5.8819383222
 11
6.8397695774
 21
5.8444383222
  0
LINE
  5
42B
100
AcDbEntity
  8
ALL_ASSEMBLY_MEMBERS
100
AcDbLine
 62
7
  6
CONTINUOUS
 10
6.8462521896
 20
5.8819383222
 11
6.8462521896
 21
5.8444383222
  0
LINE
  5
42C
100
AcDbEntity
  8
ALL_ASSEMBLY_MEMBERS
100
AcDbLine
 62
7
  6
CONTINUOUS
 10
6.8556172631
 20
5.8444383222
 11
6.8556172631
 21
5.8819383222
  0
LINE
  5
42D
100
AcDbEntity
  8
ALL_ASSEMBLY_MEMBERS
100
AcDbLine
 62
7
  6
CONTINUOUS
 10
6.860596761
 20
5.8819383222
 11
6.860596761
 21
5.8444383222
  0
LINE
  5
42E
100
AcDbEntity
  8
ALL_ASSEMBLY_MEMBERS
100
AcDbLine
 62
7
  6
CONTINUOUS
 10
6.8671489339
 20
5.8819383222
 11
6.8671489339
 21
5.8444383222
  0
LINE
  5
42F
100
AcDbEntity
  8
ALL_ASSEMBLY_MEMBERS
100
AcDbLine
 62
7
  6
CONTINUOUS
 10
6.8763345205
 20
5.8444383222
 11
6.8763345205
 21
5.8819383222
  0
LINE
  5
430
100
AcDbEntity
  8
ALL_ASSEMBLY_MEMBERS
100
AcDbLine
 62
7
  6
CONTINUOUS
 10
6.8798936335
 20
5.1294383222
 11
6.8798936335
 21
4.9829383222
  0
LINE
  5
431
100
AcDbEntity
  8
ALL_ASSEMBLY_MEMBERS
100
AcDbLine
 62
7
  6
CONTINUOUS
 10
6.8816378213
 20
5.8819383222
 11
6.8816378213
 21
5.8444383222
  0
LINE
  5
432
100
AcDbEntity
  8
ALL_ASSEMBLY_MEMBERS
100
AcDbLine
 62
7
  6
CONTINUOUS
 10
6.8882515723
 20
5.8819383222
 11
6.8882515723
 21
5.8444383222
  0
LINE
  5
433
100
AcDbEntity
  8
ALL_ASSEMBLY_MEMBERS
100
AcDbLine
 62
7
  6
CONTINUOUS
 10
6.8972464806
 20
5.8444383222
 11
6.8972464806
 21
5.8819383222
  0
LINE
  5
434
100
AcDbEntity
  8
ALL_ASSEMBLY_MEMBERS
100
AcDbLine
 62
7
  6
CONTINUOUS
 10
6.9003796245
 20
4.9178965258
 11
6.9003796245
 21
4.7726363582
  0
LINE
  5
435
100
AcDbEntity
  8
ALL_ASSEMBLY_MEMBERS
100
AcDbLine
 62
7
  6
CONTINUOUS
 10
6.9028671232
 20
5.8819383222
 11
6.9028671232
 21
5.8444383222
  0
LINE
  5
436
100
AcDbEntity
  8
ALL_ASSEMBLY_MEMBERS
100
AcDbLine
 62
7
  6
CONTINUOUS
 10
6.9048936335
 20
4.6879383222
 11
6.9048936335
 21
4.6729383222
  0
LINE
  5
437
100
AcDbEntity
  8
ALL_ASSEMBLY_MEMBERS
100
AcDbLine
 62
7
  6
CONTINUOUS
 10
6.9095343943
 20
5.8819383222
 11
6.9095343943
 21
5.8444383222
  0
LINE
  5
438
100
AcDbEntity
  8
ALL_ASSEMBLY_MEMBERS
100
AcDbLine
 62
7
  6
CONTINUOUS
 10
6.9183276656
 20
5.8444383222
 11
6.9183276656
 21
5.8819383222
  0
LINE
  5
439
100
AcDbEntity
  8
ALL_ASSEMBLY_MEMBERS
100
AcDbLine
 62
7
  6
CONTINUOUS
 10
6.9203796245
 20
4.9178963688
 11
6.9203796245
 21
4.7726363921
  0
LINE
  5
43A
100
AcDbEntity
  8
ALL_ASSEMBLY_MEMBERS
100
AcDbLine
 62
7
  6
CONTINUOUS
 10
6.9223017739
 20
4.9382179346
 11
6.9223017739
 21
4.9520190013
  0
LINE
  5
43B
100
AcDbEntity
  8
ALL_ASSEMBLY_MEMBERS
100
AcDbLine
 62
7
  6
CONTINUOUS
 10
6.924258802
 20
5.8819383222
 11
6.924258802
 21
5.8444383222
  0
LINE
  5
43C
100
AcDbEntity
  8
ALL_ASSEMBLY_MEMBERS
100
AcDbLine
 62
7
  6
CONTINUOUS
 10
6.9309714701
 20
5.8819383222
 11
6.9309714701
 21
5.8444383222
  0
LINE
  5
43D
100
AcDbEntity
  8
ALL_ASSEMBLY_MEMBERS
100
AcDbLine
 62
7
  6
CONTINUOUS
 10
6.9395523912
 20
5.8444383222
 11
6.9395523912
 21
5.8819383222
  0
LINE
  5
43E
100
AcDbEntity
  8
ALL_ASSEMBLY_MEMBERS
100
AcDbLine
 62
7
  6
CONTINUOUS
 10
6.9457867952
 20
5.8819383222
 11
6.9457867952
 21
5.8444383222
  0
LINE
  5
43F
100
AcDbEntity
  8
ALL_ASSEMBLY_MEMBERS
100
AcDbLine
 62
7
  6
CONTINUOUS
 10
6.9525366821
 20
5.8819383222
 11
6.9525366821
 21
5.8444383222
  0
LINE
  5
440
100
AcDbEntity
  8
ALL_ASSEMBLY_MEMBERS
100
AcDbLine
 62
7
  6
CONTINUOUS
 10
6.9608947983
 20
5.8444383222
 11
6.9608947983
 21
5.8819383222
  0
LINE
  5
441
100
AcDbEntity
  8
ALL_ASSEMBLY_MEMBERS
100
AcDbLine
 62
7
  6
CONTINUOUS
 10
6.9674248744
 20
5.8819383222
 11
6.9674248744
 21
5.8444383222
  0
LINE
  5
442
100
AcDbEntity
  8
ALL_ASSEMBLY_MEMBERS
100
AcDbLine
 62
7
  6
CONTINUOUS
 10
6.9742037562
 20
5.8819383222
 11
6.9742037562
 21
5.8444383222
  0
LINE
  5
443
100
AcDbEntity
  8
ALL_ASSEMBLY_MEMBERS
100
AcDbLine
 62
7
  6
CONTINUOUS
 10
6.9823288845
 20
5.8444383222
 11
6.9823288845
 21
5.8819383222
  0
LINE
  5
444
100
AcDbEntity
  8
ALL_ASSEMBLY_MEMBERS
100
AcDbLine
 62
7
  6
CONTINUOUS
 10
6.9891466767
 20
5.8819383222
 11
6.9891466767
 21
5.8444383222
  0
LINE
  5
445
100
AcDbEntity
  8
ALL_ASSEMBLY_MEMBERS
100
AcDbLine
 62
7
  6
CONTINUOUS
 10
6.9959462946
 20
5.8819383222
 11
6.9959462946
 21
5.8444383222
  0
LINE
  5
446
100
AcDbEntity
  8
ALL_ASSEMBLY_MEMBERS
100
AcDbLine
 62
7
  6
CONTINUOUS
 10
7.0038285358
 20
5.8444383222
 11
7.0038285358
 21
5.8819383222
  0
LINE
  5
447
100
AcDbEntity
  8
ALL_ASSEMBLY_MEMBERS
100
AcDbLine
 62
7
  6
CONTINUOUS
 10
7.0109257376
 20
5.8819383222
 11
7.0109257376
 21
5.8444383222
  0
LINE
  5
448
100
AcDbEntity
  8
ALL_ASSEMBLY_MEMBERS
100
AcDbLine
 62
7
  6
CONTINUOUS
 10
7.0177378072
 20
5.8819383222
 11
7.0177378072
 21
5.8444383222
  0
LINE
  5
449
100
AcDbEntity
  8
ALL_ASSEMBLY_MEMBERS
100
AcDbLine
 62
7
  6
CONTINUOUS
 10
7.025367558
 20
5.8444383222
 11
7.025367558
 21
5.8819383222
  0
LINE
  5
44A
100
AcDbEntity
  8
ALL_ASSEMBLY_MEMBERS
100
AcDbLine
 62
7
  6
CONTINUOUS
 10
7.0327355226
 20
5.8819383222
 11
7.0327355226
 21
5.8444383222
  0
LINE
  5
44B
100
AcDbEntity
  8
ALL_ASSEMBLY_MEMBERS
100
AcDbLine
 62
7
  6
CONTINUOUS
 10
7.0395517445
 20
5.8819383222
 11
7.0395517445
 21
5.8444383222
  0
LINE
  5
44C
100
AcDbEntity
  8
ALL_ASSEMBLY_MEMBERS
100
AcDbLine
 62
7
  6
CONTINUOUS
 10
7.0469197091
 20
5.8444383222
 11
7.0469197091
 21
5.8819383222
  0
LINE
  5
44D
100
AcDbEntity
  8
ALL_ASSEMBLY_MEMBERS
100
AcDbLine
 62
7
  6
CONTINUOUS
 10
6.9203796246
 20
4.7726363582
 11
6.9187378127
 21
4.7590705695
  0
LINE
  5
44E
100
AcDbEntity
  8
ALL_ASSEMBLY_MEMBERS
100
AcDbLine
 62
7
  6
CONTINUOUS
 10
6.9203796246
 20
4.7726363582
 11
6.9179621322
 21
4.752783232
  0
LWPOLYLINE
  5
44F
100
AcDbEntity
  8
ALL_ASSEMBLY_MEMBERS
100
AcDbPolyline
 62
7
  6
CONTINUOUS
 90
5
 70
0
 10
6.9187378127
 20
4.7590705695
 10
6.9180629249
 20
4.7535627932
 10
6.9180022721
 20
4.7530819026
 10
6.917968878
 20
4.7528266045
 10
6.9179621133
 20
4.7527830049
  0
LINE
  5
450
100
AcDbEntity
  8
ALL_ASSEMBLY_MEMBERS
100
AcDbLine
 62
7
  6
CONTINUOUS
 10
2.4741436335
 20
6.0819383222
 11
3.7241436335
 21
6.0819383222
  0
LINE
  5
451
100
AcDbEntity
  8
ALL_ASSEMBLY_MEMBERS
100
AcDbLine
 62
7
  6
CONTINUOUS
 10
6.4111436335
 20
6.0819383222
 11
7.6611436335
 21
6.0819383222
  0
LINE
  5
452
100
AcDbEntity
  8
ALL_FEATURES
100
AcDbLine
 62
7
  6
CONTINUOUS
 10
4.3801446788
 20
6.1129383222
 11
5.7551425883
 21
6.1129383222
  0
LINE
  5
453
100
AcDbEntity
  8
ALL_ASSEMBLY_MEMBERS
100
AcDbLine
 62
7
  6
CONTINUOUS
 10
7.2431868371
 20
4.9395236392
 11
7.2433187797
 21
4.9394307152
  0
LINE
  5
454
100
AcDbEntity
  8
ALL_ASSEMBLY_MEMBERS
100
AcDbLine
 62
7
  6
CONTINUOUS
 10
7.0545494599
 20
5.8819383222
 11
7.0545494599
 21
5.8444383222
  0
LINE
  5
455
100
AcDbEntity
  8
ALL_ASSEMBLY_MEMBERS
100
AcDbLine
 62
7
  6
CONTINUOUS
 10
7.0613615295
 20
5.8819383222
 11
7.0613615295
 21
5.8444383222
  0
LINE
  5
456
100
AcDbEntity
  8
ALL_ASSEMBLY_MEMBERS
100
AcDbLine
 62
7
  6
CONTINUOUS
 10
7.0684587313
 20
5.8444383222
 11
7.0684587313
 21
5.8819383222
  0
LINE
  5
457
100
AcDbEntity
  8
ALL_ASSEMBLY_MEMBERS
100
AcDbLine
 62
7
  6
CONTINUOUS
 10
7.0763409725
 20
5.8819383222
 11
7.0763409725
 21
5.8444383222
  0
LINE
  5
458
100
AcDbEntity
  8
ALL_ASSEMBLY_MEMBERS
100
AcDbLine
 62
7
  6
CONTINUOUS
 10
7.0831405904
 20
5.8819383222
 11
7.0831405904
 21
5.8444383222
  0
LINE
  5
459
100
AcDbEntity
  8
ALL_ASSEMBLY_MEMBERS
100
AcDbLine
 62
7
  6
CONTINUOUS
 10
7.0899583825
 20
5.8444383222
 11
7.0899583825
 21
5.8819383222
  0
LINE
  5
45A
100
AcDbEntity
  8
ALL_ASSEMBLY_MEMBERS
100
AcDbLine
 62
7
  6
CONTINUOUS
 10
7.0980835108
 20
5.8819383222
 11
7.0980835108
 21
5.8444383222
  0
LINE
  5
45B
100
AcDbEntity
  8
ALL_ASSEMBLY_MEMBERS
100
AcDbLine
 62
7
  6
CONTINUOUS
 10
7.1048623927
 20
5.8819383222
 11
7.1048623927
 21
5.8444383222
  0
LINE
  5
45C
100
AcDbEntity
  8
ALL_ASSEMBLY_MEMBERS
100
AcDbLine
 62
7
  6
CONTINUOUS
 10
7.1113924688
 20
5.8444383222
 11
7.1113924688
 21
5.8819383222
  0
LINE
  5
45D
100
AcDbEntity
  8
ALL_ASSEMBLY_MEMBERS
100
AcDbLine
 62
7
  6
CONTINUOUS
 10
7.119750585
 20
5.8819383222
 11
7.119750585
 21
5.8444383222
  0
LINE
  5
45E
100
AcDbEntity
  8
ALL_ASSEMBLY_MEMBERS
100
AcDbLine
 62
7
  6
CONTINUOUS
 10
7.1265004718
 20
5.8819383222
 11
7.1265004718
 21
5.8444383222
  0
LINE
  5
45F
100
AcDbEntity
  8
ALL_ASSEMBLY_MEMBERS
100
AcDbLine
 62
7
  6
CONTINUOUS
 10
7.1327348759
 20
5.8444383222
 11
7.1327348759
 21
5.8819383222
  0
LINE
  5
460
100
AcDbEntity
  8
ALL_ASSEMBLY_MEMBERS
100
AcDbLine
 62
7
  6
CONTINUOUS
 10
7.1413157969
 20
5.8819383222
 11
7.1413157969
 21
5.8444383222
  0
LINE
  5
461
100
AcDbEntity
  8
ALL_ASSEMBLY_MEMBERS
100
AcDbLine
 62
7
  6
CONTINUOUS
 10
7.1480284651
 20
5.8819383222
 11
7.1480284651
 21
5.8444383222
  0
LINE
  5
462
100
AcDbEntity
  8
ALL_ASSEMBLY_MEMBERS
100
AcDbLine
 62
7
  6
CONTINUOUS
 10
7.1499854932
 20
4.9520193214
 11
7.1499854932
 21
4.9382179174
  0
LINE
  5
463
100
AcDbEntity
  8
ALL_ASSEMBLY_MEMBERS
100
AcDbLine
 62
7
  6
CONTINUOUS
 10
7.1519076426
 20
4.7726361277
 11
7.1519076426
 21
4.917896975
  0
LINE
  5
464
100
AcDbEntity
  8
ALL_ASSEMBLY_MEMBERS
100
AcDbLine
 62
7
  6
CONTINUOUS
 10
7.1539596015
 20
5.8444383222
 11
7.1539596015
 21
5.8819383222
  0
LINE
  5
465
100
AcDbEntity
  8
ALL_ASSEMBLY_MEMBERS
100
AcDbLine
 62
7
  6
CONTINUOUS
 10
7.1627528728
 20
5.8819383222
 11
7.1627528728
 21
5.8444383222
  0
LINE
  5
466
100
AcDbEntity
  8
ALL_ASSEMBLY_MEMBERS
100
AcDbLine
 62
7
  6
CONTINUOUS
 10
7.1673936335
 20
4.6879383222
 11
7.1673936335
 21
4.6729383222
  0
LINE
  5
467
100
AcDbEntity
  8
ALL_ASSEMBLY_MEMBERS
100
AcDbLine
 62
7
  6
CONTINUOUS
 10
7.1694201439
 20
5.8819383222
 11
7.1694201439
 21
5.8444383222
  0
LINE
  5
468
100
AcDbEntity
  8
ALL_ASSEMBLY_MEMBERS
100
AcDbLine
 62
7
  6
CONTINUOUS
 10
7.1719076426
 20
4.7726363582
 11
7.1719076426
 21
4.9178965258
  0
LINE
  5
469
100
AcDbEntity
  8
ALL_ASSEMBLY_MEMBERS
100
AcDbLine
 62
7
  6
CONTINUOUS
 10
7.1750407864
 20
5.8444383222
 11
7.1750407864
 21
5.8819383222
  0
LINE
  5
46A
100
AcDbEntity
  8
ALL_ASSEMBLY_MEMBERS
100
AcDbLine
 62
7
  6
CONTINUOUS
 10
7.1840356948
 20
5.8819383222
 11
7.1840356948
 21
5.8444383222
  0
LINE
  5
46B
100
AcDbEntity
  8
ALL_ASSEMBLY_MEMBERS
100
AcDbLine
 62
7
  6
CONTINUOUS
 10
7.1906494458
 20
5.8819383222
 11
7.1906494458
 21
5.8444383222
  0
LINE
  5
46C
100
AcDbEntity
  8
ALL_ASSEMBLY_MEMBERS
100
AcDbLine
 62
7
  6
CONTINUOUS
 10
7.1923936335
 20
5.1294383222
 11
7.1923936335
 21
4.9829383222
  0
LINE
  5
46D
100
AcDbEntity
  8
ALL_ASSEMBLY_MEMBERS
100
AcDbLine
 62
7
  6
CONTINUOUS
 10
7.1959527466
 20
5.8444383222
 11
7.1959527466
 21
5.8819383222
  0
LINE
  5
46E
100
AcDbEntity
  8
ALL_ASSEMBLY_MEMBERS
100
AcDbLine
 62
7
  6
CONTINUOUS
 10
7.2051383332
 20
5.8819383222
 11
7.2051383332
 21
5.8444383222
  0
LINE
  5
46F
100
AcDbEntity
  8
ALL_ASSEMBLY_MEMBERS
100
AcDbLine
 62
7
  6
CONTINUOUS
 10
7.2116905061
 20
5.8819383222
 11
7.2116905061
 21
5.8444383222
  0
LINE
  5
470
100
AcDbEntity
  8
ALL_ASSEMBLY_MEMBERS
100
AcDbLine
 62
7
  6
CONTINUOUS
 10
7.216670004
 20
5.8444383222
 11
7.216670004
 21
5.8819383222
  0
LINE
  5
471
100
AcDbEntity
  8
ALL_ASSEMBLY_MEMBERS
100
AcDbLine
 62
7
  6
CONTINUOUS
 10
7.2260350775
 20
5.8819383222
 11
7.2260350775
 21
5.8444383222
  0
LINE
  5
472
100
AcDbEntity
  8
ALL_ASSEMBLY_MEMBERS
100
AcDbLine
 62
7
  6
CONTINUOUS
 10
7.2325176897
 20
5.8819383222
 11
7.2325176897
 21
5.8444383222
  0
LINE
  5
473
100
AcDbEntity
  8
ALL_ASSEMBLY_MEMBERS
100
AcDbLine
 62
7
  6
CONTINUOUS
 10
7.2354725099
 20
4.756158525
 11
7.2354725099
 21
4.9520166091
  0
LINE
  5
474
100
AcDbEntity
  8
ALL_ASSEMBLY_MEMBERS
100
AcDbLine
 62
7
  6
CONTINUOUS
 10
7.2361436335
 20
4.9729383222
 11
7.2361436335
 21
4.9537410643
  0
LINE
  5
475
100
AcDbEntity
  8
ALL_ASSEMBLY_MEMBERS
100
AcDbLine
 62
7
  6
CONTINUOUS
 10
7.2361436335
 20
4.7541240733
 11
7.2361436335
 21
4.7354383222
  0
LINE
  5
476
100
AcDbEntity
  8
ALL_ASSEMBLY_MEMBERS
100
AcDbLine
 62
7
  6
CONTINUOUS
 10
7.2361436335
 20
5.1444383222
 11
7.2361436335
 21
5.1944383222
  0
LINE
  5
477
100
AcDbEntity
  8
ALL_ASSEMBLY_MEMBERS
100
AcDbLine
 62
7
  6
CONTINUOUS
 10
7.2371673178
 20
5.8444383222
 11
7.2371673178
 21
5.8819383222
  0
LINE
  5
478
100
AcDbEntity
  8
ALL_ASSEMBLY_MEMBERS
100
AcDbLine
 62
7
  6
CONTINUOUS
 10
7.2467004683
 20
5.8819383222
 11
7.2467004683
 21
5.8444383222
  0
LINE
  5
479
100
AcDbEntity
  8
ALL_ASSEMBLY_MEMBERS
100
AcDbLine
 62
7
  6
CONTINUOUS
 10
7.2531056217
 20
5.8819383222
 11
7.2531056217
 21
5.8444383222
  0
LINE
  5
47A
100
AcDbEntity
  8
ALL_ASSEMBLY_MEMBERS
100
AcDbLine
 62
7
  6
CONTINUOUS
 10
7.2574197152
 20
5.8444383222
 11
7.2574197152
 21
5.8819383222
  0
LINE
  5
47B
100
AcDbEntity
  8
ALL_ASSEMBLY_MEMBERS
100
AcDbLine
 62
7
  6
CONTINUOUS
 10
7.2639870598
 20
4.7902455643
 11
7.2639870598
 21
4.9169778576
  0
LINE
  5
47C
100
AcDbEntity
  8
ALL_ASSEMBLY_MEMBERS
100
AcDbLine
 62
7
  6
CONTINUOUS
 10
7.2671093281
 20
5.8819383222
 11
7.2671093281
 21
5.8444383222
  0
LWPOLYLINE
  5
47D
100
AcDbEntity
  8
ALL_ASSEMBLY_MEMBERS
100
AcDbPolyline
 62
7
  6
CONTINUOUS
 90
11
 70
0
 10
7.2361441336
 20
4.7543056231
 10
7.236350821
 20
4.7568226181
 10
7.2368679753
 20
4.7591192967
 10
7.2376629708
 20
4.7612645173
 10
7.2386794104
 20
4.7631928745
 10
7.2397998186
 20
4.7648006994
 10
7.2409238783
 20
4.7660773559
 10
7.2419984208
 20
4.767069297
 10
7.2429504184
 20
4.7677947865
 10
7.2437081868
 20
4.7682777266
 10
7.2442476837
 20
4.7685689315
  0
LINE
  5
47E
100
AcDbEntity
  8
ALL_ASSEMBLY_MEMBERS
100
AcDbLine
 62
7
  6
CONTINUOUS
 10
6.4361436335
 20
5.9819383222
 11
6.4111436335
 21
6.0069383222
  0
LINE
  5
47F
100
AcDbEntity
  8
ALL_ASSEMBLY_MEMBERS
100
AcDbLine
 62
7
  6
CONTINUOUS
 10
7.2408255079
 20
4.9416108669
 11
7.2408612258
 21
4.941572471
  0
LWPOLYLINE
  5
480
100
AcDbEntity
  8
ALL_ASSEMBLY_MEMBERS
100
AcDbPolyline
 62
7
  6
CONTINUOUS
 90
8
 70
0
 10
7.2408268124
 20
4.9416094689
 10
7.2403161621
 20
4.9421861232
 10
7.2392301049
 20
4.9436177054
 10
7.2382093778
 20
4.9453202865
 10
7.2373254031
 20
4.9472819095
 10
7.2366633371
 20
4.949411039
 10
7.2362623389
 20
4.9516513765
 10
7.2361439621
 20
4.9535796048
  0
LINE
  5
481
100
AcDbEntity
  8
ALL_ASSEMBLY_MEMBERS
100
AcDbLine
 62
7
  6
CONTINUOUS
 10
7.2734292189
 20
5.8819383222
 11
7.2734292189
 21
5.8444383222
  0
LINE
  5
482
100
AcDbEntity
  8
ALL_ASSEMBLY_MEMBERS
100
AcDbLine
 62
7
  6
CONTINUOUS
 10
7.2774025218
 20
5.8444383222
 11
7.2774025218
 21
5.8819383222
  0
LINE
  5
483
100
AcDbEntity
  8
ALL_ASSEMBLY_MEMBERS
100
AcDbLine
 62
7
  6
CONTINUOUS
 10
7.2872367917
 20
5.8819383222
 11
7.2872367917
 21
5.8444383222
  0
LINE
  5
484
100
AcDbEntity
  8
ALL_ASSEMBLY_MEMBERS
100
AcDbLine
 62
7
  6
CONTINUOUS
 10
7.2934637202
 20
5.8819383222
 11
7.2934637202
 21
5.8444383222
  0
LINE
  5
485
100
AcDbEntity
  8
ALL_ASSEMBLY_MEMBERS
100
AcDbLine
 62
7
  6
CONTINUOUS
 10
7.2970913917
 20
5.8444383222
 11
7.2970913917
 21
5.8819383222
  0
LINE
  5
486
100
AcDbEntity
  8
ALL_ASSEMBLY_MEMBERS
100
AcDbLine
 62
7
  6
CONTINUOUS
 10
7.307058337
 20
5.8819383222
 11
7.307058337
 21
5.8444383222
  0
LINE
  5
487
100
AcDbEntity
  8
ALL_ASSEMBLY_MEMBERS
100
AcDbLine
 62
7
  6
CONTINUOUS
 10
7.3131847166
 20
5.8819383222
 11
7.3131847166
 21
5.8444383222
  0
LINE
  5
488
100
AcDbEntity
  8
ALL_ASSEMBLY_MEMBERS
100
AcDbLine
 62
7
  6
CONTINUOUS
 10
7.3164623368
 20
5.8444383222
 11
7.3164623368
 21
5.8819383222
  0
LINE
  5
489
100
AcDbEntity
  8
ALL_ASSEMBLY_MEMBERS
100
AcDbLine
 62
7
  6
CONTINUOUS
 10
7.3265498145
 20
5.8819383222
 11
7.3265498145
 21
5.8444383222
  0
LINE
  5
48A
100
AcDbEntity
  8
ALL_ASSEMBLY_MEMBERS
100
AcDbLine
 62
7
  6
CONTINUOUS
 10
7.3325681812
 20
5.8819383222
 11
7.3325681812
 21
5.8444383222
  0
LINE
  5
48B
100
AcDbEntity
  8
ALL_ASSEMBLY_MEMBERS
100
AcDbLine
 62
7
  6
CONTINUOUS
 10
7.3354917568
 20
5.8444383222
 11
7.3354917568
 21
5.8819383222
  0
LINE
  5
48C
100
AcDbEntity
  8
ALL_ASSEMBLY_MEMBERS
100
AcDbLine
 62
7
  6
CONTINUOUS
 10
7.3456874768
 20
5.8819383222
 11
7.3456874768
 21
5.8444383222
  0
LINE
  5
48D
100
AcDbEntity
  8
ALL_ASSEMBLY_MEMBERS
100
AcDbLine
 62
7
  6
CONTINUOUS
 10
7.3515904981
 20
5.8819383222
 11
7.3515904981
 21
5.8444383222
  0
LINE
  5
48E
100
AcDbEntity
  8
ALL_ASSEMBLY_MEMBERS
100
AcDbLine
 62
7
  6
CONTINUOUS
 10
7.3541564672
 20
5.8444383222
 11
7.3541564672
 21
5.8819383222
  0
LINE
  5
48F
100
AcDbEntity
  8
ALL_ASSEMBLY_MEMBERS
100
AcDbLine
 62
7
  6
CONTINUOUS
 10
7.3644480076
 20
5.8819383222
 11
7.3644480076
 21
5.8444383222
  0
LINE
  5
490
100
AcDbEntity
  8
ALL_ASSEMBLY_MEMBERS
100
AcDbLine
 62
7
  6
CONTINUOUS
 10
7.3702284915
 20
5.8819383222
 11
7.3702284915
 21
5.8444383222
  0
LINE
  5
491
100
AcDbEntity
  8
ALL_ASSEMBLY_MEMBERS
100
AcDbLine
 62
7
  6
CONTINUOUS
 10
7.372433728
 20
5.8444383222
 11
7.372433728
 21
5.8819383222
  0
LINE
  5
492
100
AcDbEntity
  8
ALL_ASSEMBLY_MEMBERS
100
AcDbLine
 62
7
  6
CONTINUOUS
 10
7.38280855
 20
5.8819383222
 11
7.38280855
 21
5.8444383222
  0
LINE
  5
493
100
AcDbEntity
  8
ALL_ASSEMBLY_MEMBERS
100
AcDbLine
 62
7
  6
CONTINUOUS
 10
7.3884594541
 20
5.8819383222
 11
7.3884594541
 21
5.8444383222
  0
LINE
  5
494
100
AcDbEntity
  8
ALL_ASSEMBLY_MEMBERS
100
AcDbLine
 62
7
  6
CONTINUOUS
 10
7.3903012711
 20
5.8444383222
 11
7.3903012711
 21
5.8819383222
  0
LINE
  5
495
100
AcDbEntity
  8
ALL_ASSEMBLY_MEMBERS
100
AcDbLine
 62
7
  6
CONTINUOUS
 10
7.4007467347
 20
5.8819383222
 11
7.4007467347
 21
5.8444383222
  0
LINE
  5
496
100
AcDbEntity
  8
ALL_ASSEMBLY_MEMBERS
100
AcDbLine
 62
7
  6
CONTINUOUS
 10
7.406261174
 20
5.8819383222
 11
7.406261174
 21
5.8444383222
  0
LINE
  5
497
100
AcDbEntity
  8
ALL_ASSEMBLY_MEMBERS
100
AcDbLine
 62
7
  6
CONTINUOUS
 10
7.4077373277
 20
5.8444383222
 11
7.4077373277
 21
5.8819383222
  0
LINE
  5
498
100
AcDbEntity
  8
ALL_ASSEMBLY_MEMBERS
100
AcDbLine
 62
7
  6
CONTINUOUS
 10
7.4111436335
 20
5.1944383222
 11
7.4111436335
 21
5.2194383222
  0
LINE
  5
499
100
AcDbEntity
  8
ALL_ASSEMBLY_MEMBERS
100
AcDbLine
 62
7
  6
CONTINUOUS
 10
7.4182407067
 20
5.8819383222
 11
7.4182407067
 21
5.8444383222
  0
LINE
  5
49A
100
AcDbEntity
  8
ALL_ASSEMBLY_MEMBERS
100
AcDbLine
 62
7
  6
CONTINUOUS
 10
7.4236119628
 20
5.8819383222
 11
7.4236119628
 21
5.8444383222
  0
LINE
  5
49B
100
AcDbEntity
  8
ALL_ASSEMBLY_MEMBERS
100
AcDbLine
 62
7
  6
CONTINUOUS
 10
7.4247206546
 20
5.8444383222
 11
7.4247206546
 21
5.8819383222
  0
LINE
  5
49C
100
AcDbEntity
  8
ALL_ASSEMBLY_MEMBERS
100
AcDbLine
 62
7
  6
CONTINUOUS
 10
7.4352691522
 20
5.8819383222
 11
7.4352691522
 21
5.8444383222
  0
LINE
  5
49D
100
AcDbEntity
  8
ALL_ASSEMBLY_MEMBERS
100
AcDbLine
 62
7
  6
CONTINUOUS
 10
7.4404906811
 20
5.8819383222
 11
7.4404906811
 21
5.8444383222
  0
LINE
  5
49E
100
AcDbEntity
  8
ALL_ASSEMBLY_MEMBERS
100
AcDbLine
 62
7
  6
CONTINUOUS
 10
7.4412305602
 20
5.8444383222
 11
7.4412305602
 21
5.8819383222
  0
LINE
  5
49F
100
AcDbEntity
  8
ALL_ASSEMBLY_MEMBERS
100
AcDbLine
 62
7
  6
CONTINUOUS
 10
7.4518113248
 20
5.8819383222
 11
7.4518113248
 21
5.8444383222
  0
LINE
  5
4A0
100
AcDbEntity
  8
ALL_ASSEMBLY_MEMBERS
100
AcDbLine
 62
7
  6
CONTINUOUS
 10
7.4568767648
 20
5.8819383222
 11
7.4568767648
 21
5.8444383222
  0
LINE
  5
4A1
100
AcDbEntity
  8
ALL_ASSEMBLY_MEMBERS
100
AcDbLine
 62
7
  6
CONTINUOUS
 10
7.4572469298
 20
5.8444383222
 11
7.4572469298
 21
5.8819383222
  0
LINE
  5
4A2
100
AcDbEntity
  8
ALL_ASSEMBLY_MEMBERS
100
AcDbLine
 62
7
  6
CONTINUOUS
 10
7.4678470703
 20
5.8819383222
 11
7.4678470703
 21
5.8444383222
  0
LINE
  5
4A3
100
AcDbEntity
  8
ALL_ASSEMBLY_MEMBERS
100
AcDbLine
 62
7
  6
CONTINUOUS
 10
7.47275025
 20
5.8819383222
 11
7.47275025
 21
5.8444383222
  0
LINE
  5
4A4
100
AcDbEntity
  8
ALL_ASSEMBLY_MEMBERS
100
AcDbLine
 62
7
  6
CONTINUOUS
 10
7.4736436335
 20
5.4819383222
 11
7.4736436335
 21
5.7444383222
  0
LINE
  5
4A5
100
AcDbEntity
  8
ALL_ASSEMBLY_MEMBERS
100
AcDbLine
 62
7
  6
CONTINUOUS
 10
7.4833568517
 20
5.8819383222
 11
7.4833568517
 21
5.8444383222
  0
LINE
  5
4A6
100
AcDbEntity
  8
ALL_ASSEMBLY_MEMBERS
100
AcDbLine
 62
7
  6
CONTINUOUS
 10
7.4880917973
 20
5.8819383222
 11
7.4880917973
 21
5.8444383222
  0
LINE
  5
4A7
100
AcDbEntity
  8
ALL_ASSEMBLY_MEMBERS
100
AcDbLine
 62
7
  6
CONTINUOUS
 10
7.4983217727
 20
5.8819383222
 11
7.4983217727
 21
5.8444383222
  0
LINE
  5
4A8
100
AcDbEntity
  8
ALL_ASSEMBLY_MEMBERS
100
AcDbLine
 62
7
  6
CONTINUOUS
 10
7.5028827153
 20
5.8819383222
 11
7.5028827153
 21
5.8444383222
  0
LINE
  5
4A9
100
AcDbEntity
  8
ALL_ASSEMBLY_MEMBERS
100
AcDbLine
 62
7
  6
CONTINUOUS
 10
7.5111436335
 20
5.2694383222
 11
7.5111436335
 21
5.2944383222
  0
LINE
  5
4AA
100
AcDbEntity
  8
ALL_ASSEMBLY_MEMBERS
100
AcDbLine
 62
7
  6
CONTINUOUS
 10
7.5111436335
 20
5.3944383222
 11
7.5111436335
 21
5.4444383222
  0
LINE
  5
4AB
100
AcDbEntity
  8
ALL_ASSEMBLY_MEMBERS
100
AcDbLine
 62
7
  6
CONTINUOUS
 10
7.5127236007
 20
5.8819383222
 11
7.5127236007
 21
5.8444383222
  0
LINE
  5
4AC
100
AcDbEntity
  8
ALL_ASSEMBLY_MEMBERS
100
AcDbLine
 62
7
  6
CONTINUOUS
 10
7.5171049837
 20
5.8819383222
 11
7.5171049837
 21
5.8444383222
  0
LINE
  5
4AD
100
AcDbEntity
  8
ALL_ASSEMBLY_MEMBERS
100
AcDbLine
 62
7
  6
CONTINUOUS
 10
7.5265447896
 20
5.8819383222
 11
7.5265447896
 21
5.8444383222
  0
LINE
  5
4AE
100
AcDbEntity
  8
ALL_ASSEMBLY_MEMBERS
100
AcDbLine
 62
7
  6
CONTINUOUS
 10
7.5307412748
 20
5.8819383222
 11
7.5307412748
 21
5.8444383222
  0
LINE
  5
4AF
100
AcDbEntity
  8
ALL_ASSEMBLY_MEMBERS
100
AcDbLine
 62
7
  6
CONTINUOUS
 10
7.5397685001
 20
5.8819383222
 11
7.5397685001
 21
5.8444383222
  0
LINE
  5
4B0
100
AcDbEntity
  8
ALL_ASSEMBLY_MEMBERS
100
AcDbLine
 62
7
  6
CONTINUOUS
 10
7.5437749748
 20
5.8819383222
 11
7.5437749748
 21
5.8444383222
  0
LINE
  5
4B1
100
AcDbEntity
  8
ALL_ASSEMBLY_MEMBERS
100
AcDbLine
 62
7
  6
CONTINUOUS
 10
7.5486436335
 20
5.2944383222
 11
7.5486436335
 21
5.3944383222
  0
LINE
  5
4B2
100
AcDbEntity
  8
ALL_ASSEMBLY_MEMBERS
100
AcDbLine
 62
7
  6
CONTINUOUS
 10
7.5523786213
 20
5.8819383222
 11
7.5523786213
 21
5.8444383222
  0
LINE
  5
4B3
100
AcDbEntity
  8
ALL_ASSEMBLY_MEMBERS
100
AcDbLine
 62
7
  6
CONTINUOUS
 10
7.5561902042
 20
5.8819383222
 11
7.5561902042
 21
5.8444383222
  0
LINE
  5
4B4
100
AcDbEntity
  8
ALL_ASSEMBLY_MEMBERS
100
AcDbLine
 62
7
  6
CONTINUOUS
 10
7.5643597897
 20
5.8819383222
 11
7.5643597897
 21
5.8444383222
  0
LINE
  5
4B5
100
AcDbEntity
  8
ALL_ASSEMBLY_MEMBERS
100
AcDbLine
 62
7
  6
CONTINUOUS
 10
7.567971837
 20
5.8819383222
 11
7.567971837
 21
5.8444383222
  0
LINE
  5
4B6
100
AcDbEntity
  8
ALL_ASSEMBLY_MEMBERS
100
AcDbLine
 62
7
  6
CONTINUOUS
 10
7.5756974081
 20
5.8819383222
 11
7.5756974081
 21
5.8444383222
  0
LINE
  5
4B7
100
AcDbEntity
  8
ALL_ASSEMBLY_MEMBERS
100
AcDbLine
 62
7
  6
CONTINUOUS
 10
7.579105519
 20
5.8819383222
 11
7.579105519
 21
5.8444383222
  0
LINE
  5
4B8
100
AcDbEntity
  8
ALL_ASSEMBLY_MEMBERS
100
AcDbLine
 62
7
  6
CONTINUOUS
 10
7.5863776634
 20
5.8819383222
 11
7.5863776634
 21
5.8444383222
  0
LINE
  5
4B9
100
AcDbEntity
  8
ALL_ASSEMBLY_MEMBERS
100
AcDbLine
 62
7
  6
CONTINUOUS
 10
7.5895776857
 20
5.8819383222
 11
7.5895776857
 21
5.8444383222
  0
LINE
  5
4BA
100
AcDbEntity
  8
ALL_ASSEMBLY_MEMBERS
100
AcDbLine
 62
7
  6
CONTINUOUS
 10
7.5963875432
 20
5.8819383222
 11
7.5963875432
 21
5.8444383222
  0
LINE
  5
4BB
100
AcDbEntity
  8
ALL_ASSEMBLY_MEMBERS
100
AcDbLine
 62
7
  6
CONTINUOUS
 10
7.5993755782
 20
5.8819383222
 11
7.5993755782
 21
5.8444383222
  0
LINE
  5
4BC
100
AcDbEntity
  8
ALL_ASSEMBLY_MEMBERS
100
AcDbLine
 62
7
  6
CONTINUOUS
 10
7.6057148521
 20
5.8819383222
 11
7.6057148521
 21
5.8444383222
  0
LINE
  5
4BD
100
AcDbEntity
  8
ALL_ASSEMBLY_MEMBERS
100
AcDbLine
 62
7
  6
CONTINUOUS
 10
7.6084872593
 20
5.8819383222
 11
7.6084872593
 21
5.8444383222
  0
LINE
  5
4BE
100
AcDbEntity
  8
ALL_ASSEMBLY_MEMBERS
100
AcDbLine
 62
7
  6
CONTINUOUS
 10
7.6143482262
 20
5.8819383222
 11
7.6143482262
 21
5.8444383222
  0
LINE
  5
4BF
100
AcDbEntity
  8
ALL_ASSEMBLY_MEMBERS
100
AcDbLine
 62
7
  6
CONTINUOUS
 10
7.6169016278
 20
5.8819383222
 11
7.6169016278
 21
5.8444383222
  0
LINE
  5
4C0
100
AcDbEntity
  8
ALL_ASSEMBLY_MEMBERS
100
AcDbLine
 62
7
  6
CONTINUOUS
 10
7.6222771471
 20
5.8819383222
 11
7.6222771471
 21
5.8444383222
  0
LINE
  5
4C1
100
AcDbEntity
  8
ALL_ASSEMBLY_MEMBERS
100
AcDbLine
 62
7
  6
CONTINUOUS
 10
7.6246084323
 20
5.8819383222
 11
7.6246084323
 21
5.8444383222
  0
LINE
  5
4C2
100
AcDbEntity
  8
ALL_ASSEMBLY_MEMBERS
100
AcDbLine
 62
7
  6
CONTINUOUS
 10
7.6294919546
 20
5.8819383222
 11
7.6294919546
 21
5.8444383222
  0
LINE
  5
4C3
100
AcDbEntity
  8
ALL_ASSEMBLY_MEMBERS
100
AcDbLine
 62
7
  6
CONTINUOUS
 10
7.631598283
 20
5.8819383222
 11
7.631598283
 21
5.8444383222
  0
LINE
  5
4C4
100
AcDbEntity
  8
ALL_ASSEMBLY_MEMBERS
100
AcDbLine
 62
7
  6
CONTINUOUS
 10
7.6359838585
 20
5.8819383222
 11
7.6359838585
 21
5.8444383222
  0
LINE
  5
4C5
100
AcDbEntity
  8
ALL_ASSEMBLY_MEMBERS
100
AcDbLine
 62
7
  6
CONTINUOUS
 10
7.6361436335
 20
5.8819383222
 11
7.6361436335
 21
5.9819383222
  0
LINE
  5
4C6
100
AcDbEntity
  8
ALL_ASSEMBLY_MEMBERS
100
AcDbLine
 62
7
  6
CONTINUOUS
 10
7.6378626639
 20
5.8819383222
 11
7.6378626639
 21
5.8444383222
  0
LINE
  5
4C7
100
AcDbEntity
  8
ALL_ASSEMBLY_MEMBERS
100
AcDbLine
 62
7
  6
CONTINUOUS
 10
7.6417449496
 20
5.8819383222
 11
7.6417449496
 21
5.8444383222
  0
LINE
  5
4C8
100
AcDbEntity
  8
ALL_ASSEMBLY_MEMBERS
100
AcDbLine
 62
7
  6
CONTINUOUS
 10
7.6433939429
 20
5.8819383222
 11
7.6433939429
 21
5.8444383222
  0
LINE
  5
4C9
100
AcDbEntity
  8
ALL_ASSEMBLY_MEMBERS
100
AcDbLine
 62
7
  6
CONTINUOUS
 10
7.6467682087
 20
5.8819383222
 11
7.6467682087
 21
5.8444383222
  0
LINE
  5
4CA
100
AcDbEntity
  8
ALL_ASSEMBLY_MEMBERS
100
AcDbLine
 62
7
  6
CONTINUOUS
 10
7.6481853809
 20
5.8819383222
 11
7.6481853809
 21
5.8444383222
  0
LINE
  5
4CB
100
AcDbEntity
  8
ALL_ASSEMBLY_MEMBERS
100
AcDbLine
 62
7
  6
CONTINUOUS
 10
7.6510475158
 20
5.8819383222
 11
7.6510475158
 21
5.8444383222
  0
LINE
  5
4CC
100
AcDbEntity
  8
ALL_ASSEMBLY_MEMBERS
100
AcDbLine
 62
7
  6
CONTINUOUS
 10
7.6522311403
 20
5.8819383222
 11
7.6522311403
 21
5.8444383222
  0
LINE
  5
4CD
100
AcDbEntity
  8
ALL_ASSEMBLY_MEMBERS
100
AcDbLine
 62
7
  6
CONTINUOUS
 10
7.6545776573
 20
5.8819383222
 11
7.6545776573
 21
5.8444383222
  0
LINE
  5
4CE
100
AcDbEntity
  8
ALL_ASSEMBLY_MEMBERS
100
AcDbLine
 62
7
  6
CONTINUOUS
 10
7.6555262921
 20
5.8819383222
 11
7.6555262921
 21
5.8444383222
  0
LINE
  5
4CF
100
AcDbEntity
  8
ALL_ASSEMBLY_MEMBERS
100
AcDbLine
 62
7
  6
CONTINUOUS
 10
7.6573543322
 20
5.8819383222
 11
7.6573543322
 21
5.8444383222
  0
LINE
  5
4D0
100
AcDbEntity
  8
ALL_ASSEMBLY_MEMBERS
100
AcDbLine
 62
7
  6
CONTINUOUS
 10
7.6580668214
 20
5.8819383222
 11
7.6580668214
 21
5.8444383222
  0
LINE
  5
4D1
100
AcDbEntity
  8
ALL_ASSEMBLY_MEMBERS
100
AcDbLine
 62
7
  6
CONTINUOUS
 10
7.6593741575
 20
5.8819383222
 11
7.6593741575
 21
5.8444383222
  0
LINE
  5
4D2
100
AcDbEntity
  8
ALL_ASSEMBLY_MEMBERS
100
AcDbLine
 62
7
  6
CONTINUOUS
 10
7.6598496331
 20
5.8819383222
 11
7.6598496331
 21
5.8444383222
  0
LINE
  5
4D3
100
AcDbEntity
  8
ALL_ASSEMBLY_MEMBERS
100
AcDbLine
 62
7
  6
CONTINUOUS
 10
7.6606346725
 20
5.8819383222
 11
7.6606346725
 21
5.8444383222
  0
LINE
  5
4D4
100
AcDbEntity
  8
ALL_ASSEMBLY_MEMBERS
100
AcDbLine
 62
7
  6
CONTINUOUS
 10
7.6608725552
 20
5.8819383222
 11
7.6608725552
 21
5.8444383222
  0
LINE
  5
4D5
100
AcDbEntity
  8
ALL_ASSEMBLY_MEMBERS
100
AcDbLine
 62
7
  6
CONTINUOUS
 10
7.6611343413
 20
5.8819383222
 11
7.6611343413
 21
5.8444383222
  0
LINE
  5
4D6
100
AcDbEntity
  8
ALL_ASSEMBLY_MEMBERS
100
AcDbLine
 62
7
  6
CONTINUOUS
 10
7.6611436335
 20
6.0069383222
 11
7.6611436335
 21
6.0819383222
  0
LINE
  5
4D7
100
AcDbEntity
  8
ALL_ASSEMBLY_MEMBERS
100
AcDbLine
 62
7
  6
CONTINUOUS
 10
7.5111436335
 20
5.4444383222
 11
7.4736436335
 21
5.4819383222
  0
LINE
  5
4D8
100
AcDbEntity
  8
ALL_ASSEMBLY_MEMBERS
100
AcDbLine
 62
7
  6
CONTINUOUS
 10
7.7347512505
 20
4.9178907279
 11
7.7347512505
 21
4.7726421808
  0
LINE
  5
4D9
100
AcDbEntity
  8
ALL_ASSEMBLY_MEMBERS
100
AcDbLine
 62
7
  6
CONTINUOUS
 10
7.7462241828
 20
4.9178965258
 11
7.7462241828
 21
4.7726363582
  0
ARC
  5
4DA
100
AcDbEntity
  8
ALL_ASSEMBLY_MEMBERS
100
AcDbCircle
 62
7
  6
CONTINUOUS
 10
3.0991461267
 20
3.9656954047
 40
0.9592124682
100
AcDbArc
 50
83.0684251205
 51
96.9318749209
  0
ARC
  5
4DB
100
AcDbEntity
  8
ALL_ASSEMBLY_MEMBERS
100
AcDbCircle
 62
7
  6
CONTINUOUS
 10
2.8772238699
 20
4.1875430567
 40
0.7493868268
100
AcDbArc
 50
89.5536557543
 51
89.8435684392
  0
ARC
  5
4DC
100
AcDbEntity
  8
ALL_ASSEMBLY_MEMBERS
100
AcDbCircle
 62
7
  6
CONTINUOUS
 10
3.3210639316
 20
4.1877688898
 40
0.7491610028
100
AcDbArc
 50
90.1565195747
 51
90.4465199321
  0
ARC
  5
4DD
100
AcDbEntity
  8
ALL_FEATURES
100
AcDbCircle
 62
7
  6
CONTINUOUS
 10
4.2199829053
 20
3.0624062459
 40
0.4560061415
100
AcDbArc
 50
357.4964785516
 51
358.3122372839
  0
ARC
  5
4DE
100
AcDbEntity
  8
0
100
AcDbCircle
 62
7
  6
CONTINUOUS
 10
5.0135405387
 20
2.7496465616
 40
0.4285496127
100
AcDbArc
 50
347.2338473658
 51
347.4973986872
  0
ARC
  5
4DF
100
AcDbEntity
  8
ALL_FEATURES
100
AcDbCircle
 62
7
  6
CONTINUOUS
 10
4.5061977168
 20
3.0759161388
 40
0.1758557993
100
AcDbArc
 50
341.1614824498
 51
341.5370105874
  0
ARC
  5
4E0
100
AcDbEntity
  8
ALL_FEATURES
100
AcDbCircle
 62
7
  6
CONTINUOUS
 10
4.7353426781
 20
3.0247535536
 40
0.0625050742
100
AcDbArc
 50
168.3302834408
 51
184.1556838432
  0
ARC
  5
4E1
100
AcDbEntity
  8
ALL_FEATURES
100
AcDbCircle
 62
7
  6
CONTINUOUS
 10
4.7348878483
 20
3.0237235244
 40
0.0624236014
100
AcDbArc
 50
168.3847093968
 51
184.2182092589
  0
ARC
  5
4E2
100
AcDbEntity
  8
ALL_FEATURES
100
AcDbCircle
 62
7
  6
CONTINUOUS
 10
4.7346947722
 20
3.0248547801
 40
0.0618500938
100
AcDbArc
 50
162.9775317202
 51
168.3007160896
  0
ARC
  5
4E3
100
AcDbEntity
  8
ALL_FEATURES
100
AcDbCircle
 62
7
  6
CONTINUOUS
 10
4.7341824047
 20
3.023837426
 40
0.0617096789
100
AcDbArc
 50
164.1496635058
 51
168.3564239826
  0
ARC
  5
4E4
100
AcDbEntity
  8
ALL_FEATURES
100
AcDbCircle
 62
7
  6
CONTINUOUS
 10
4.7290637097
 20
3.0140727583
 40
0.0606190505
100
AcDbArc
 50
156.4714267741
 51
185.014397437
  0
ARC
  5
4E5
100
AcDbEntity
  8
ALL_ASSEMBLY_MEMBERS
100
AcDbCircle
 62
7
  6
CONTINUOUS
 10
2.8696866185
 20
4.5295043664
 40
0.387476851
100
AcDbArc
 50
89.3612363755
 51
89.7613996953
  0
ARC
  5
4E6
100
AcDbEntity
  8
ALL_ASSEMBLY_MEMBERS
100
AcDbCircle
 62
7
  6
CONTINUOUS
 10
2.8543400728
 20
5.1054170181
 40
0.3156274567
100
AcDbArc
 50
273.0802528438
 51
273.4270253544
  0
ARC
  5
4E7
100
AcDbEntity
  8
ALL_ASSEMBLY_MEMBERS
100
AcDbCircle
 62
7
  6
CONTINUOUS
 10
2.8076324686
 20
4.8180964806
 40
0.2224896033
100
AcDbArc
 50
32.9734559369
 51
37.0080407177
  0
ARC
  5
4E8
100
AcDbEntity
  8
ALL_ASSEMBLY_MEMBERS
100
AcDbCircle
 62
7
  6
CONTINUOUS
 10
2.8993580819
 20
4.8752498802
 40
0.0640357245
100
AcDbArc
 50
97.7316060687
 51
98.1789935716
  0
ARC
  5
4E9
100
AcDbEntity
  8
ALL_ASSEMBLY_MEMBERS
100
AcDbCircle
 62
7
  6
CONTINUOUS
 10
2.9053936335
 20
4.6979383222
 40
0.0375
100
AcDbArc
 50
0.0
 51
90.0
  0
ARC
  5
4EA
100
AcDbEntity
  8
ALL_ASSEMBLY_MEMBERS
100
AcDbCircle
 62
7
  6
CONTINUOUS
 10
2.8767875978
 20
4.9579035565
 40
0.0237673865
100
AcDbArc
 50
345.1828301827
 51
345.6640752693
  0
ARC
  5
4EB
100
AcDbEntity
  8
ALL_ASSEMBLY_MEMBERS
100
AcDbCircle
 62
7
  6
CONTINUOUS
 10
2.4090630843
 20
4.7726363582
 40
0.02
100
AcDbArc
 50
180.0
 51
256.4079406806
  0
ARC
  5
4EC
100
AcDbEntity
  8
ALL_ASSEMBLY_MEMBERS
100
AcDbCircle
 62
7
  6
CONTINUOUS
 10
2.4090630843
 20
4.9178965258
 40
0.02
100
AcDbArc
 50
103.5620945919
 51
180.0
  0
ARC
  5
4ED
100
AcDbEntity
  8
ALL_ASSEMBLY_MEMBERS
100
AcDbCircle
 62
7
  6
CONTINUOUS
 10
2.9833796245
 20
4.9178965258
 40
0.02
100
AcDbArc
 50
96.9265222859
 51
180.0
  0
ARC
  5
4EE
100
AcDbEntity
  8
ALL_ASSEMBLY_MEMBERS
100
AcDbCircle
 62
7
  6
CONTINUOUS
 10
2.9833796245
 20
4.7726363582
 40
0.02
100
AcDbArc
 50
180.0
 51
263.0573636323
  0
ARC
  5
4EF
100
AcDbEntity
  8
ALL_ASSEMBLY_MEMBERS
100
AcDbCircle
 62
7
  6
CONTINUOUS
 10
2.8815184897
 20
4.953595283
 40
0.017639809
100
AcDbArc
 50
319.1839554337
 51
319.8122369871
  0
ARC
  5
4F0
100
AcDbEntity
  8
ALL_ASSEMBLY_MEMBERS
100
AcDbCircle
 62
7
  6
CONTINUOUS
 10
2.8817831632
 20
4.9533660284
 40
0.0172896527
100
AcDbArc
 50
317.4016411119
 51
319.1856234608
  0
ARC
  5
4F1
100
AcDbEntity
  8
ALL_ASSEMBLY_MEMBERS
100
AcDbCircle
 62
7
  6
CONTINUOUS
 10
2.4078867479
 20
4.7678094751
 40
0.0150309389
100
AcDbArc
 50
256.4305714611
 51
258.5873041502
  0
ARC
  5
4F2
100
AcDbEntity
  8
ALL_ASSEMBLY_MEMBERS
100
AcDbCircle
 62
7
  6
CONTINUOUS
 10
2.8839143378
 20
4.9510006365
 40
0.0140972318
100
AcDbArc
 50
296.863492198
 51
304.8283130722
  0
ARC
  5
4F3
100
AcDbEntity
  8
ALL_ASSEMBLY_MEMBERS
100
AcDbCircle
 62
7
  6
CONTINUOUS
 10
2.9578936335
 20
4.6879383222
 40
0.01
100
AcDbArc
 50
0.0
 51
89.9999999937
  0
ARC
  5
4F4
100
AcDbEntity
  8
ALL_ASSEMBLY_MEMBERS
100
AcDbCircle
 62
7
  6
CONTINUOUS
 10
2.9328936335
 20
4.9829383222
 40
0.01
100
AcDbArc
 50
270.0000000029
 51
360.0
  0
ARC
  5
4F5
100
AcDbEntity
  8
ALL_ASSEMBLY_MEMBERS
100
AcDbCircle
 62
7
  6
CONTINUOUS
 10
2.8565483856
 20
5.3806539938
 40
0.61078569
100
AcDbArc
 50
272.1841252932
 51
272.4350417763
  0
ARC
  5
4F6
100
AcDbEntity
  8
ALL_ASSEMBLY_MEMBERS
100
AcDbCircle
 62
7
  6
CONTINUOUS
 10
2.5116436335
 20
5.7944383222
 40
0.05
100
AcDbArc
 50
0.0
 51
85.7794654335
  0
ARC
  5
4F7
100
AcDbEntity
  8
ALL_ASSEMBLY_MEMBERS
100
AcDbCircle
 62
7
  6
CONTINUOUS
 10
2.5866436335
 20
5.7444383222
 40
0.05
100
AcDbArc
 50
0.0
 51
90.0
  0
ARC
  5
4F8
100
AcDbEntity
  8
ALL_ASSEMBLY_MEMBERS
100
AcDbCircle
 62
7
  6
CONTINUOUS
 10
2.6241436335
 20
5.2194383222
 40
0.05
100
AcDbArc
 50
0.0
 51
90.0
  0
ARC
  5
4F9
100
AcDbEntity
  8
ALL_ASSEMBLY_MEMBERS
100
AcDbCircle
 62
7
  6
CONTINUOUS
 10
3.328601693
 20
4.529080032
 40
0.3879011861
100
AcDbArc
 50
90.238493551
 51
90.6382195727
  0
ARC
  5
4FA
100
AcDbEntity
  8
ALL_ASSEMBLY_MEMBERS
100
AcDbCircle
 62
7
  6
CONTINUOUS
 10
3.3440014072
 20
5.1064126578
 40
0.3166245711
100
AcDbArc
 50
266.5739514047
 51
266.9196323811
  0
ARC
  5
4FB
100
AcDbEntity
  8
ALL_ASSEMBLY_MEMBERS
100
AcDbCircle
 62
7
  6
CONTINUOUS
 10
3.3905458341
 20
4.818176251
 40
0.2223547665
100
AcDbArc
 50
142.9914069496
 51
147.0283902914
  0
ARC
  5
4FC
100
AcDbEntity
  8
ALL_ASSEMBLY_MEMBERS
100
AcDbCircle
 62
7
  6
CONTINUOUS
 10
3.2990311826
 20
4.8759756173
 40
0.0633028392
100
AcDbArc
 50
81.808625784
 51
82.2706867161
  0
ARC
  5
4FD
100
AcDbEntity
  8
ALL_ASSEMBLY_MEMBERS
100
AcDbCircle
 62
7
  6
CONTINUOUS
 10
3.2928936335
 20
4.6979383222
 40
0.0375
100
AcDbArc
 50
90.0
 51
180.0
  0
ARC
  5
4FE
100
AcDbEntity
  8
ALL_ASSEMBLY_MEMBERS
100
AcDbCircle
 62
7
  6
CONTINUOUS
 10
3.7892241828
 20
4.7726363582
 40
0.02
100
AcDbArc
 50
283.5921366002
 51
360.0
  0
ARC
  5
4FF
100
AcDbEntity
  8
ALL_ASSEMBLY_MEMBERS
100
AcDbCircle
 62
7
  6
CONTINUOUS
 10
3.7892241828
 20
4.9178965258
 40
0.02
100
AcDbArc
 50
0.0
 51
76.4379715808
  0
ARC
  5
500
100
AcDbEntity
  8
ALL_ASSEMBLY_MEMBERS
100
AcDbCircle
 62
7
  6
CONTINUOUS
 10
3.2149076426
 20
4.9178965258
 40
0.02
100
AcDbArc
 50
0.0
 51
83.073476108
  0
ARC
  5
501
100
AcDbEntity
  8
ALL_ASSEMBLY_MEMBERS
100
AcDbCircle
 62
7
  6
CONTINUOUS
 10
3.2149076426
 20
4.7726363582
 40
0.02
100
AcDbArc
 50
276.8893629518
 51
360.0
  0
ARC
  5
502
100
AcDbEntity
  8
ALL_ASSEMBLY_MEMBERS
100
AcDbCircle
 62
7
  6
CONTINUOUS
 10
3.3151098305
 20
4.9561399898
 40
0.0171403523
100
AcDbArc
 50
193.9133704744
 51
194.7093715209
  0
ARC
  5
503
100
AcDbEntity
  8
ALL_ASSEMBLY_MEMBERS
100
AcDbCircle
 62
7
  6
CONTINUOUS
 10
3.7904005234
 20
4.7678094846
 40
0.0150309471
100
AcDbArc
 50
281.4188885661
 51
283.5695069628
  0
ARC
  5
504
100
AcDbEntity
  8
ALL_ASSEMBLY_MEMBERS
100
AcDbCircle
 62
7
  6
CONTINUOUS
 10
3.2403936335
 20
4.6879383222
 40
0.01
100
AcDbArc
 50
90.0000000063
 51
180.0
  0
ARC
  5
505
100
AcDbEntity
  8
ALL_ASSEMBLY_MEMBERS
100
AcDbCircle
 62
7
  6
CONTINUOUS
 10
3.2653936335
 20
4.9829383222
 40
0.01
100
AcDbArc
 50
180.0
 51
269.9999999971
  0
ARC
  5
506
100
AcDbEntity
  8
ALL_ASSEMBLY_MEMBERS
100
AcDbCircle
 62
7
  6
CONTINUOUS
 10
3.0991447205
 20
5.7241632761
 40
0.958543149
100
AcDbArc
 50
263.0633456738
 51
276.9365234239
  0
ARC
  5
507
100
AcDbEntity
  8
ALL_ASSEMBLY_MEMBERS
100
AcDbCircle
 62
7
  6
CONTINUOUS
 10
3.3417506083
 20
5.3809728923
 40
0.6111047983
100
AcDbArc
 50
267.5651296765
 51
267.8159154938
  0
ARC
  5
508
100
AcDbEntity
  8
ALL_ASSEMBLY_MEMBERS
100
AcDbCircle
 62
7
  6
CONTINUOUS
 10
3.6866436335
 20
5.7944383222
 40
0.05
100
AcDbArc
 50
94.2857142857
 51
180.0
  0
ARC
  5
509
100
AcDbEntity
  8
ALL_ASSEMBLY_MEMBERS
100
AcDbCircle
 62
7
  6
CONTINUOUS
 10
3.6116436335
 20
5.7444383222
 40
0.05
100
AcDbArc
 50
90.0
 51
180.0
  0
ARC
  5
50A
100
AcDbEntity
  8
ALL_ASSEMBLY_MEMBERS
100
AcDbCircle
 62
7
  6
CONTINUOUS
 10
3.5741436335
 20
5.2194383222
 40
0.05
100
AcDbArc
 50
90.0
 51
180.0
  0
ARC
  5
50B
100
AcDbEntity
  8
ALL_ASSEMBLY_MEMBERS
100
AcDbCircle
 62
7
  6
CONTINUOUS
 10
7.0361461267
 20
3.9656954047
 40
0.9592124682
100
AcDbArc
 50
83.0684251205
 51
96.9318749209
  0
ARC
  5
50C
100
AcDbEntity
  8
ALL_ASSEMBLY_MEMBERS
100
AcDbCircle
 62
7
  6
CONTINUOUS
 10
6.8142238699
 20
4.1875430567
 40
0.7493868268
100
AcDbArc
 50
89.5536557543
 51
89.8435684392
  0
ARC
  5
50D
100
AcDbEntity
  8
ALL_ASSEMBLY_MEMBERS
100
AcDbCircle
 62
7
  6
CONTINUOUS
 10
7.2580639316
 20
4.1877688898
 40
0.7491610028
100
AcDbArc
 50
90.1565195747
 51
90.4465199321
  0
ARC
  5
50E
100
AcDbEntity
  8
ALL_FEATURES
100
AcDbCircle
 62
7
  6
CONTINUOUS
 10
5.9154819999
 20
3.0624145053
 40
0.4561838459
100
AcDbArc
 50
181.6870449595
 51
182.502661811
  0
ARC
  5
50F
100
AcDbEntity
  8
0
100
AcDbCircle
 62
7
  6
CONTINUOUS
 10
5.1189331171
 20
2.749015502
 40
0.4256659829
100
AcDbArc
 50
192.5016637962
 51
193.2392179298
  0
ARC
  5
510
100
AcDbEntity
  8
ALL_FEATURES
100
AcDbCircle
 62
7
  6
CONTINUOUS
 10
5.6292188227
 20
3.075938605
 40
0.1759854024
100
AcDbArc
 50
198.4563830893
 51
198.8318494426
  0
ARC
  5
511
100
AcDbEntity
  8
ALL_FEATURES
100
AcDbCircle
 62
7
  6
CONTINUOUS
 10
5.3999458379
 20
3.0247543132
 40
0.0625037505
100
AcDbArc
 50
355.844144926
 51
11.6696904785
  0
ARC
  5
512
100
AcDbEntity
  8
ALL_FEATURES
100
AcDbCircle
 62
7
  6
CONTINUOUS
 10
5.4005492584
 20
3.0237267836
 40
0.0622744084
100
AcDbArc
 50
355.7686612162
 51
15.8035327144
  0
ARC
  5
513
100
AcDbEntity
  8
ALL_FEATURES
100
AcDbCircle
 62
7
  6
CONTINUOUS
 10
5.4007229685
 20
3.0248860006
 40
0.0617160533
100
AcDbArc
 50
11.6958932107
 51
14.1302268896
  0
ARC
  5
514
100
AcDbEntity
  8
ALL_FEATURES
100
AcDbCircle
 62
7
  6
CONTINUOUS
 10
5.4059231373
 20
3.0139621703
 40
0.0609385292
100
AcDbArc
 50
21.770254332
 51
23.511201407
  0
ARC
  5
515
100
AcDbEntity
  8
ALL_FEATURES
100
AcDbCircle
 62
7
  6
CONTINUOUS
 10
5.4062431869
 20
3.0140750726
 40
0.0605995255
100
AcDbArc
 50
354.98180054
 51
21.7833511045
  0
ARC
  5
516
100
AcDbEntity
  8
ALL_ASSEMBLY_MEMBERS
100
AcDbCircle
 62
7
  6
CONTINUOUS
 10
6.8066866185
 20
4.5295043663
 40
0.3874768512
100
AcDbArc
 50
89.3612363756
 51
89.7613996952
  0
ARC
  5
517
100
AcDbEntity
  8
ALL_ASSEMBLY_MEMBERS
100
AcDbCircle
 62
7
  6
CONTINUOUS
 10
6.7913400728
 20
5.1054170181
 40
0.3156274567
100
AcDbArc
 50
273.0802528438
 51
273.4270253544
  0
ARC
  5
518
100
AcDbEntity
  8
ALL_ASSEMBLY_MEMBERS
100
AcDbCircle
 62
7
  6
CONTINUOUS
 10
6.7446324686
 20
4.8180964806
 40
0.2224896033
100
AcDbArc
 50
32.9734559369
 51
37.0080407177
  0
ARC
  5
519
100
AcDbEntity
  8
ALL_ASSEMBLY_MEMBERS
100
AcDbCircle
 62
7
  6
CONTINUOUS
 10
6.8363580819
 20
4.8752498803
 40
0.0640357243
100
AcDbArc
 50
97.7316060683
 51
98.1789935721
  0
ARC
  5
51A
100
AcDbEntity
  8
ALL_ASSEMBLY_MEMBERS
100
AcDbCircle
 62
7
  6
CONTINUOUS
 10
6.8423936335
 20
4.6979383222
 40
0.0375
100
AcDbArc
 50
0.0
 51
90.0
  0
ARC
  5
51B
100
AcDbEntity
  8
ALL_ASSEMBLY_MEMBERS
100
AcDbCircle
 62
7
  6
CONTINUOUS
 10
6.8137875979
 20
4.9579035565
 40
0.0237673864
100
AcDbArc
 50
345.1828301818
 51
345.6640752705
  0
ARC
  5
51C
100
AcDbEntity
  8
ALL_ASSEMBLY_MEMBERS
100
AcDbCircle
 62
7
  6
CONTINUOUS
 10
6.3460630843
 20
4.7726363582
 40
0.02
100
AcDbArc
 50
180.0
 51
256.4079406806
  0
ARC
  5
51D
100
AcDbEntity
  8
ALL_ASSEMBLY_MEMBERS
100
AcDbCircle
 62
7
  6
CONTINUOUS
 10
6.3460630843
 20
4.9178965258
 40
0.02
100
AcDbArc
 50
103.5620945919
 51
180.0
  0
ARC
  5
51E
100
AcDbEntity
  8
ALL_ASSEMBLY_MEMBERS
100
AcDbCircle
 62
7
  6
CONTINUOUS
 10
6.9203796245
 20
4.9178965258
 40
0.02
100
AcDbArc
 50
96.9265222859
 51
180.0
  0
ARC
  5
51F
100
AcDbEntity
  8
ALL_ASSEMBLY_MEMBERS
100
AcDbCircle
 62
7
  6
CONTINUOUS
 10
6.9203796245
 20
4.7726363582
 40
0.02
100
AcDbArc
 50
180.0
 51
263.0573636323
  0
ARC
  5
520
100
AcDbEntity
  8
ALL_ASSEMBLY_MEMBERS
100
AcDbCircle
 62
7
  6
CONTINUOUS
 10
6.8185184897
 20
4.9535952829
 40
0.017639809
100
AcDbArc
 50
319.1839554327
 51
319.8122369868
  0
ARC
  5
521
100
AcDbEntity
  8
ALL_ASSEMBLY_MEMBERS
100
AcDbCircle
 62
7
  6
CONTINUOUS
 10
6.8187831632
 20
4.9533660285
 40
0.0172896527
100
AcDbArc
 50
317.4016411128
 51
319.1856234603
  0
ARC
  5
522
100
AcDbEntity
  8
ALL_ASSEMBLY_MEMBERS
100
AcDbCircle
 62
7
  6
CONTINUOUS
 10
6.3448867479
 20
4.7678094751
 40
0.0150309389
100
AcDbArc
 50
256.4305714609
 51
258.5873041502
  0
ARC
  5
523
100
AcDbEntity
  8
ALL_ASSEMBLY_MEMBERS
100
AcDbCircle
 62
7
  6
CONTINUOUS
 10
6.8209143378
 20
4.9510006365
 40
0.0140972318
100
AcDbArc
 50
296.8634921981
 51
304.828313072
  0
ARC
  5
524
100
AcDbEntity
  8
ALL_ASSEMBLY_MEMBERS
100
AcDbCircle
 62
7
  6
CONTINUOUS
 10
6.8948936335
 20
4.6879383222
 40
0.01
100
AcDbArc
 50
0.0
 51
89.9999999937
  0
ARC
  5
525
100
AcDbEntity
  8
ALL_ASSEMBLY_MEMBERS
100
AcDbCircle
 62
7
  6
CONTINUOUS
 10
6.8698936335
 20
4.9829383222
 40
0.01
100
AcDbArc
 50
270.0000000029
 51
360.0
  0
ARC
  5
526
100
AcDbEntity
  8
ALL_ASSEMBLY_MEMBERS
100
AcDbCircle
 62
7
  6
CONTINUOUS
 10
6.7935483856
 20
5.3806539935
 40
0.6107856896
100
AcDbArc
 50
272.1841252931
 51
272.4350417764
  0
ARC
  5
527
100
AcDbEntity
  8
ALL_ASSEMBLY_MEMBERS
100
AcDbCircle
 62
7
  6
CONTINUOUS
 10
6.4486436335
 20
5.7944383222
 40
0.05
100
AcDbArc
 50
0.0
 51
85.7794654335
  0
ARC
  5
528
100
AcDbEntity
  8
ALL_ASSEMBLY_MEMBERS
100
AcDbCircle
 62
7
  6
CONTINUOUS
 10
6.5236436335
 20
5.7444383222
 40
0.05
100
AcDbArc
 50
0.0
 51
90.0
  0
ARC
  5
529
100
AcDbEntity
  8
ALL_ASSEMBLY_MEMBERS
100
AcDbCircle
 62
7
  6
CONTINUOUS
 10
6.5611436335
 20
5.2194383222
 40
0.05
100
AcDbArc
 50
0.0
 51
90.0
  0
ARC
  5
52A
100
AcDbEntity
  8
ALL_ASSEMBLY_MEMBERS
100
AcDbCircle
 62
7
  6
CONTINUOUS
 10
7.265601693
 20
4.529080032
 40
0.3879011861
100
AcDbArc
 50
90.238493551
 51
90.6382195727
  0
ARC
  5
52B
100
AcDbEntity
  8
ALL_ASSEMBLY_MEMBERS
100
AcDbCircle
 62
7
  6
CONTINUOUS
 10
7.2810014072
 20
5.1064126578
 40
0.3166245711
100
AcDbArc
 50
266.5739514047
 51
266.9196323811
  0
ARC
  5
52C
100
AcDbEntity
  8
ALL_ASSEMBLY_MEMBERS
100
AcDbCircle
 62
7
  6
CONTINUOUS
 10
7.3275458341
 20
4.818176251
 40
0.2223547665
100
AcDbArc
 50
142.9914069496
 51
147.0283902914
  0
ARC
  5
52D
100
AcDbEntity
  8
ALL_ASSEMBLY_MEMBERS
100
AcDbCircle
 62
7
  6
CONTINUOUS
 10
7.2360311826
 20
4.8759756175
 40
0.0633028391
100
AcDbArc
 50
81.8086257836
 51
82.2706867166
  0
ARC
  5
52E
100
AcDbEntity
  8
ALL_ASSEMBLY_MEMBERS
100
AcDbCircle
 62
7
  6
CONTINUOUS
 10
7.2298936335
 20
4.6979383222
 40
0.0375
100
AcDbArc
 50
90.0
 51
180.0
  0
ARC
  5
52F
100
AcDbEntity
  8
ALL_ASSEMBLY_MEMBERS
100
AcDbCircle
 62
7
  6
CONTINUOUS
 10
7.7262241828
 20
4.7726363582
 40
0.02
100
AcDbArc
 50
283.5921366002
 51
360.0
  0
ARC
  5
530
100
AcDbEntity
  8
ALL_ASSEMBLY_MEMBERS
100
AcDbCircle
 62
7
  6
CONTINUOUS
 10
7.7262241828
 20
4.9178965258
 40
0.02
100
AcDbArc
 50
0.0
 51
76.4379715808
  0
ARC
  5
531
100
AcDbEntity
  8
ALL_ASSEMBLY_MEMBERS
100
AcDbCircle
 62
7
  6
CONTINUOUS
 10
7.1519076426
 20
4.9178965258
 40
0.02
100
AcDbArc
 50
0.0
 51
83.073476108
  0
ARC
  5
532
100
AcDbEntity
  8
ALL_ASSEMBLY_MEMBERS
100
AcDbCircle
 62
7
  6
CONTINUOUS
 10
7.1519076426
 20
4.7726363582
 40
0.02
100
AcDbArc
 50
276.8893629518
 51
360.0
  0
ARC
  5
533
100
AcDbEntity
  8
ALL_ASSEMBLY_MEMBERS
100
AcDbCircle
 62
7
  6
CONTINUOUS
 10
7.2521098304
 20
4.9561399898
 40
0.0171403523
100
AcDbArc
 50
193.9133704736
 51
194.7093715225
  0
ARC
  5
534
100
AcDbEntity
  8
ALL_ASSEMBLY_MEMBERS
100
AcDbCircle
 62
7
  6
CONTINUOUS
 10
7.7274005234
 20
4.7678094846
 40
0.0150309471
100
AcDbArc
 50
281.418888566
 51
283.5695069627
  0
ARC
  5
535
100
AcDbEntity
  8
ALL_ASSEMBLY_MEMBERS
100
AcDbCircle
 62
7
  6
CONTINUOUS
 10
7.1773936335
 20
4.6879383222
 40
0.01
100
AcDbArc
 50
90.0000000063
 51
180.0
  0
ARC
  5
536
100
AcDbEntity
  8
ALL_ASSEMBLY_MEMBERS
100
AcDbCircle
 62
7
  6
CONTINUOUS
 10
7.2023936335
 20
4.9829383222
 40
0.01
100
AcDbArc
 50
180.0
 51
269.9999999971
  0
ARC
  5
537
100
AcDbEntity
  8
ALL_ASSEMBLY_MEMBERS
100
AcDbCircle
 62
7
  6
CONTINUOUS
 10
7.0361447205
 20
5.7241632761
 40
0.958543149
100
AcDbArc
 50
263.0633456738
 51
276.9365234239
  0
ARC
  5
538
100
AcDbEntity
  8
ALL_ASSEMBLY_MEMBERS
100
AcDbCircle
 62
7
  6
CONTINUOUS
 10
7.2787506083
 20
5.3809728923
 40
0.6111047983
100
AcDbArc
 50
267.5651296765
 51
267.8159154938
  0
ARC
  5
539
100
AcDbEntity
  8
ALL_ASSEMBLY_MEMBERS
100
AcDbCircle
 62
7
  6
CONTINUOUS
 10
7.6236436335
 20
5.7944383222
 40
0.05
100
AcDbArc
 50
94.2857142857
 51
180.0
  0
ARC
  5
53A
100
AcDbEntity
  8
ALL_ASSEMBLY_MEMBERS
100
AcDbCircle
 62
7
  6
CONTINUOUS
 10
7.5486436335
 20
5.7444383222
 40
0.05
100
AcDbArc
 50
90.0
 51
180.0
  0
ARC
  5
53B
100
AcDbEntity
  8
ALL_ASSEMBLY_MEMBERS
100
AcDbCircle
 62
7
  6
CONTINUOUS
 10
7.5111436335
 20
5.2194383222
 40
0.05
100
AcDbArc
 50
90.0
 51
180.0
  0
LINE
  5
53C
100
AcDbEntity
  8
ALL_ASSEMBLY_MEMBERS
100
AcDbLine
 62
7
  6
CONTINUOUS
 10
7.2408612021
 20
4.9415724551
 11
7.2431868005
 21
4.9395236205
  0
LINE
  5
53D
100
AcDbEntity
  8
ALL_ASSEMBLY_MEMBERS
100
AcDbLine
 62
7
  6
CONTINUOUS
 10
6.8314650667
 20
4.9416143874
 11
6.8292287436
 21
4.9396161667
  0
SPLINE
  5
53E
100
AcDbEntity
  8
ALL_ASSEMBLY_MEMBERS
100
AcDbSpline
 62
7
  6
CONTINUOUS
 70
0
 71
3
 72
9
 73
5
 74
0
 42
0.0000001
 43
0.0000001
 44
0.0000000001
 40
0.0
 40
0.0
 40
0.0
 40
0.0
 40
0.5000000028
 40
1.0
 40
1.0
 40
1.0
 40
1.0
 10
7.1543242553
 20
4.9377489951
 30
0.0
 10
7.1151477994
 20
4.9425187747
 30
0.0
 10
7.0361436334
 20
4.9472970086
 30
0.0
 10
6.9571394657
 20
4.9425187879
 30
0.0
 10
6.9179630103
 20
4.9377490079
 30
0.0
  0
SPLINE
  5
53F
100
AcDbEntity
  8
ALL_ASSEMBLY_MEMBERS
100
AcDbSpline
 62
7
  6
CONTINUOUS
 70
0
 71
3
 72
11
 73
7
 74
0
 42
0.0000001
 43
0.0000001
 44
0.0000000001
 40
0.0
 40
0.0
 40
0.0
 40
0.0
 40
0.2489300872
 40
0.4979732933
 40
0.7480462895
 40
1.0
 40
1.0
 40
1.0
 40
1.0
 10
6.4140037968
 20
4.7458148096
 30
0.0
 10
6.4082823129
 20
4.7455933821
 30
0.0
 10
6.3968171543
 20
4.7455512425
 30
0.0
 10
6.3796355805
 20
4.7466986146
 30
0.0
 10
6.3625076744
 20
4.7490554207
 30
0.0
 10
6.3511943115
 20
4.7514214095
 30
0.0
 10
6.3455653449
 20
4.7527999631
 30
0.0
  0
SPLINE
  5
540
100
AcDbEntity
  8
ALL_ASSEMBLY_MEMBERS
100
AcDbSpline
 62
7
  6
CONTINUOUS
 70
0
 71
3
 72
13
 73
9
 74
0
 42
0.0000001
 43
0.0000001
 44
0.0000000001
 40
0.0
 40
0.0
 40
0.0
 40
0.0
 40
0.2381993727
 40
0.3675863019
 40
0.5000000174
 40
0.6324137329
 40
0.7618006525
 40
1.0
 40
1.0
 40
1.0
 40
1.0
 10
6.9223017739
 20
4.9520187675
 30
0.0
 10
6.9402780771
 20
4.9543718552
 30
0.0
 10
6.9681309566
 20
4.9572295946
 30
0.0
 10
7.0061375724
 20
4.959275957
 30
0.0
 10
7.0361436355
 20
4.9598219183
 30
0.0
 10
7.0661497032
 20
4.959276065
 30
0.0
 10
7.1041563045
 20
4.9572294863
 30
0.0
 10
7.1320091888
 20
4.9543718625
 30
0.0
 10
7.1499854932
 20
4.952018799
 30
0.0
  0
SPLINE
  5
541
100
AcDbEntity
  8
ALL_ASSEMBLY_MEMBERS
100
AcDbSpline
 62
7
  6
CONTINUOUS
 70
0
 71
3
 72
11
 73
7
 74
0
 42
0.0000001
 43
0.0000001
 44
0.0000000001
 40
0.0
 40
0.0
 40
0.0
 40
0.0
 40
0.1949262587
 40
0.4258472697
 40
0.6939798658
 40
1.0
 40
1.0
 40
1.0
 40
1.0
 10
6.8194986824
 20
4.7704199187
 30
0.0
 10
6.8200607155
 20
4.7701498395
 30
0.0
 10
6.8213321661
 20
4.7696504448
 30
0.0
 10
6.8234684512
 20
4.7690392347
 30
0.0
 10
6.8259906189
 20
4.7685095974
 30
0.0
 10
6.827807247
 20
4.7682332845
 30
0.0
 10
6.8287779272
 20
4.7681063828
 30
0.0
  0
SPLINE
  5
542
100
AcDbEntity
  8
ALL_ASSEMBLY_MEMBERS
100
AcDbSpline
 62
7
  6
CONTINUOUS
 70
0
 71
3
 72
11
 73
7
 74
0
 42
0.0000001
 43
0.0000001
 44
0.0000000001
 40
0.0
 40
0.0
 40
0.0
 40
0.0
 40
0.2045762659
 40
0.432116173
 40
0.692914281
 40
1.0
 40
1.0
 40
1.0
 40
1.0
 10
7.243318742
 20
4.9394306951
 30
0.0
 10
7.243845605
 20
4.9390640535
 30
0.0
 10
7.2450122221
 20
4.9383635982
 30
0.0
 10
7.2470286521
 20
4.9375278817
 30
0.0
 10
7.2494711061
 20
4.9369606722
 30
0.0
 10
7.2512626419
 20
4.9368721615
 30
0.0
 10
7.2522255247
 20
4.9369070679
 30
0.0
  0
SPLINE
  5
543
100
AcDbEntity
  8
ALL_ASSEMBLY_MEMBERS
100
AcDbSpline
 62
7
  6
CONTINUOUS
 70
0
 71
3
 72
10
 73
6
 74
0
 42
0.0000001
 43
0.0000001
 44
0.0000000001
 40
0.0
 40
0.0
 40
0.0
 40
0.0
 40
0.5318169367
 40
0.7715139851
 40
1.0
 40
1.0
 40
1.0
 40
1.0
 10
6.8368147572
 20
4.7561565736
 30
0.0
 10
6.8366087294
 20
4.755834801
 30
0.0
 10
6.8363523932
 20
4.7553343425
 30
0.0
 10
6.8361735704
 20
4.7546361002
 30
0.0
 10
6.8361436779
 20
4.7542991214
 30
0.0
 10
6.8361436335
 20
4.7541349673
 30
0.0
  0
SPLINE
  5
544
100
AcDbEntity
  8
ALL_ASSEMBLY_MEMBERS
100
AcDbSpline
 62
7
  6
CONTINUOUS
 70
0
 71
3
 72
11
 73
7
 74
0
 42
0.0000001
 43
0.0000001
 44
0.0000000001
 40
0.0
 40
0.0
 40
0.0
 40
0.0
 40
0.3060187564
 40
0.5741511368
 40
0.8050726517
 40
1.0
 40
1.0
 40
1.0
 40
1.0
 10
7.2435107762
 20
4.7681066079
 30
0.0
 10
7.2444813021
 20
4.7682335039
 30
0.0
 10
7.2462976446
 20
4.7685097966
 30
0.0
 10
7.2488194196
 20
4.769039374
 30
0.0
 10
7.2509553784
 20
4.7696505083
 30
0.0
 10
7.2522266348
 20
4.7701498427
 30
0.0
 10
7.252788581
 20
4.7704198913
 30
0.0
  0
SPLINE
  5
545
100
AcDbEntity
  8
ALL_ASSEMBLY_MEMBERS
100
AcDbSpline
 62
7
  6
CONTINUOUS
 70
0
 71
3
 72
11
 73
7
 74
0
 42
0.0000001
 43
0.0000001
 44
0.0000000001
 40
0.0
 40
0.0
 40
0.0
 40
0.0
 40
0.224087528
 40
0.4610469989
 40
0.7178683141
 40
1.0
 40
1.0
 40
1.0
 40
1.0
 10
6.8361436335
 20
4.9537290339
 30
0.0
 10
6.8361436613
 20
4.9535894819
 30
0.0
 10
6.8361737893
 20
4.9533016957
 30
0.0
 10
6.8363043233
 20
4.95287179
 30
0.0
 10
6.83651928
 20
4.9524370177
 30
0.0
 10
6.8367084026
 20
4.9521585331
 30
0.0
 10
6.8368147572
 20
4.9520186795
 30
0.0
  0
SPLINE
  5
546
100
AcDbEntity
  8
ALL_ASSEMBLY_MEMBERS
100
AcDbSpline
 62
7
  6
CONTINUOUS
 70
0
 71
3
 72
11
 73
7
 74
0
 42
0.0000001
 43
0.0000001
 44
0.0000000001
 40
0.0
 40
0.0
 40
0.0
 40
0.0
 40
0.2113179413
 40
0.4440061746
 40
0.704528292
 40
1.0
 40
1.0
 40
1.0
 40
1.0
 10
6.8272844029
 20
4.9384246986
 30
0.0
 10
6.8268157511
 20
4.9381877831
 30
0.0
 10
6.8258017904
 20
4.9377456848
 30
0.0
 10
6.8241207534
 20
4.9372411063
 30
0.0
 10
6.8221817655
 20
4.9369205845
 30
0.0
 10
6.8207955186
 20
4.9368804539
 30
0.0
 10
6.8200617432
 20
4.936907035
 30
0.0
  0
SPLINE
  5
547
100
AcDbEntity
  8
ALL_ASSEMBLY_MEMBERS
100
AcDbSpline
 62
7
  6
CONTINUOUS
 70
0
 71
3
 72
10
 73
6
 74
0
 42
0.0000001
 43
0.0000001
 44
0.0000000001
 40
0.0
 40
0.0
 40
0.0
 40
0.0
 40
0.228490489
 40
0.4681897914
 40
1.0
 40
1.0
 40
1.0
 40
1.0
 10
7.2361436335
 20
4.7541349673
 30
0.0
 10
7.236143585
 20
4.7542991257
 30
0.0
 10
7.2361136939
 20
4.7546361107
 30
0.0
 10
7.235934881
 20
4.7553343617
 30
0.0
 10
7.2356785305
 20
4.7558348131
 30
0.0
 10
7.2354725099
 20
4.7561565875
 30
0.0
  0
SPLINE
  5
548
100
AcDbEntity
  8
ALL_ASSEMBLY_MEMBERS
100
AcDbSpline
 62
7
  6
CONTINUOUS
 70
0
 71
3
 72
9
 73
5
 74
0
 42
0.0000001
 43
0.0000001
 44
0.0000000001
 40
0.0
 40
0.0
 40
0.0
 40
0.0
 40
0.2517109211
 40
1.0
 40
1.0
 40
1.0
 40
1.0
 10
6.3419125077
 20
4.7530757377
 30
0.0
 10
6.3422142411
 20
4.7530148267
 30
0.0
 10
6.3434200269
 20
4.7528096445
 30
0.0
 10
6.3446516341
 20
4.7527524406
 30
0.0
 10
6.3455654974
 20
4.7527998261
 30
0.0
  0
SPLINE
  5
549
100
AcDbEntity
  8
ALL_ASSEMBLY_MEMBERS
100
AcDbSpline
 62
7
  6
CONTINUOUS
 70
0
 71
3
 72
11
 73
7
 74
0
 42
0.0000001
 43
0.0000001
 44
0.0000000001
 40
0.0
 40
0.0
 40
0.0
 40
0.0
 40
0.2007629234
 40
0.4339379874
 40
0.7002175146
 40
1.0
 40
1.0
 40
1.0
 40
1.0
 10
7.2522255674
 20
4.9369070661
 30
0.0
 10
7.251768021
 20
4.9370957549
 30
0.0
 10
7.2507569225
 20
4.9374501641
 30
0.0
 10
7.2490893213
 20
4.9378999445
 30
0.0
 10
7.2471599769
 20
4.9383038907
 30
0.0
 10
7.2457820564
 20
4.9385273079
 30
0.0
 10
7.2450505663
 20
4.9386326215
 30
0.0
  0
SPLINE
  5
54A
100
AcDbEntity
  8
ALL_ASSEMBLY_MEMBERS
100
AcDbSpline
 62
7
  6
CONTINUOUS
 70
0
 71
3
 72
11
 73
7
 74
0
 42
0.0000001
 43
0.0000001
 44
0.0000000001
 40
0.0
 40
0.0
 40
0.0
 40
0.0
 40
0.2821210351
 40
0.5389487645
 40
0.7759131773
 40
1.0
 40
1.0
 40
1.0
 40
1.0
 10
7.2354725099
 20
4.9520186051
 30
0.0
 10
7.2355788605
 20
4.9521584606
 30
0.0
 10
7.2357679758
 20
4.9524369588
 30
0.0
 10
7.2359829469
 20
4.9528717446
 30
0.0
 10
7.2361134333
 20
4.953301687
 30
0.0
 10
7.2361435828
 20
4.9535894778
 30
0.0
 10
7.2361436335
 20
4.9537290339
 30
0.0
  0
SPLINE
  5
54B
100
AcDbEntity
  8
ALL_ASSEMBLY_MEMBERS
100
AcDbSpline
 62
7
  6
CONTINUOUS
 70
0
 71
3
 72
11
 73
7
 74
0
 42
0.0000001
 43
0.0000001
 44
0.0000000001
 40
0.0
 40
0.0
 40
0.0
 40
0.0
 40
0.2998248708
 40
0.5661182362
 40
0.7992789193
 40
1.0
 40
1.0
 40
1.0
 40
1.0
 10
6.8272479729
 20
4.9386342625
 30
0.0
 10
6.8265152337
 20
4.9385288999
 30
0.0
 10
6.8251350151
 20
4.9383053499
 30
0.0
 10
6.8232025351
 20
4.9379010513
 30
0.0
 10
6.8215324102
 20
4.9374508075
 30
0.0
 10
6.8205198571
 20
4.9370959697
 30
0.0
 10
6.8200616983
 20
4.9369070366
 30
0.0
  0
SPLINE
  5
54C
100
AcDbEntity
  8
ALL_ASSEMBLY_MEMBERS
100
AcDbSpline
 62
7
  6
CONTINUOUS
 70
0
 71
3
 72
11
 73
7
 74
0
 42
0.0000001
 43
0.0000001
 44
0.0000000001
 40
0.0
 40
0.0
 40
0.0
 40
0.0
 40
0.2519537413
 40
0.5020268196
 40
0.7510700512
 40
1.0
 40
1.0
 40
1.0
 40
1.0
 10
7.7267219156
 20
4.752799976
 30
0.0
 10
7.7210933408
 20
4.7514215186
 30
0.0
 10
7.7097807746
 20
4.7490556555
 30
0.0
 10
7.6926540821
 20
4.7466988627
 30
0.0
 10
7.6754737218
 20
4.7455513705
 30
0.0
 10
7.6640093663
 20
4.74559333
 30
0.0
 10
7.6582882805
 20
4.7458146364
 30
0.0
  0
SPLINE
  5
54D
100
AcDbEntity
  8
ALL_ASSEMBLY_MEMBERS
100
AcDbSpline
 62
7
  6
CONTINUOUS
 70
0
 71
3
 72
15
 73
11
 74
0
 42
0.0000001
 43
0.0000001
 44
0.0000000001
 40
0.0
 40
0.0
 40
0.0
 40
0.0
 40
0.1371847907
 40
0.2736086077
 40
0.4076424488
 40
0.537798198
 40
0.6630209129
 40
0.7824095719
 40
0.8950594436
 40
1.0
 40
1.0
 40
1.0
 40
1.0
 10
7.7347512505
 20
4.7726363582
 30
0.0
 10
7.7347402887
 20
4.7719172032
 30
0.0
 10
7.7346714044
 20
4.7704833092
 30
0.0
 10
7.7344510482
 20
4.7683566796
 30
0.0
 10
7.7341395772
 20
4.7662788914
 30
0.0
 10
7.7337502003
 20
4.7642740088
 30
0.0
 10
7.7332761736
 20
4.7623660878
 30
0.0
 10
7.7327114982
 20
4.7605787173
 30
0.0
 10
7.7320665434
 20
4.7589325263
 30
0.0
 10
7.7315757026
 20
4.7579013174
 30
0.0
 10
7.7313190117
 20
4.7574146805
 30
0.0
  0
SPLINE
  5
54E
100
AcDbEntity
  8
ALL_ASSEMBLY_MEMBERS
100
AcDbSpline
 62
7
  6
CONTINUOUS
 70
0
 71
3
 72
9
 73
5
 74
0
 42
0.0000001
 43
0.0000001
 44
0.0000000001
 40
0.0
 40
0.0
 40
0.0
 40
0.0
 40
0.5312345024
 40
1.0
 40
1.0
 40
1.0
 40
1.0
 10
7.7313190117
 20
4.7574146805
 30
0.0
 10
7.7310071237
 20
4.7568234003
 30
0.0
 10
7.7303648245
 20
4.7557378408
 30
0.0
 10
7.7295671385
 20
4.7547542892
 30
0.0
 10
7.7291476346
 20
4.7543395824
 30
0.0
  0
LINE
  5
54F
100
AcDbEntity
  8
ALL_ASSEMBLY_MEMBERS
100
AcDbLine
 62
7
  6
CONTINUOUS
 10
7.7291476346
 20
4.7543395824
 11
7.7275202189
 21
4.7531315358
  0
LINE
  5
550
100
AcDbEntity
  8
ALL_ASSEMBLY_MEMBERS
100
AcDbLine
 62
7
  6
CONTINUOUS
 10
7.7275202189
 20
4.7531315358
 11
7.7267217697
 21
4.7527998261
  0
SPLINE
  5
551
100
AcDbEntity
  8
ALL_ASSEMBLY_MEMBERS
100
AcDbSpline
 62
7
  6
CONTINUOUS
 70
0
 71
3
 72
11
 73
7
 74
0
 42
0.0000001
 43
0.0000001
 44
0.0000000001
 40
0.0
 40
0.0
 40
0.0
 40
0.0
 40
0.2500021619
 40
0.5000037835
 40
0.75000336
 40
1.0
 40
1.0
 40
1.0
 40
1.0
 10
7.2639870598
 20
4.7902455643
 30
0.0
 10
7.303216206
 20
4.7887370684
 30
0.0
 10
7.3816731101
 20
4.7856863581
 30
0.0
 10
7.4993598152
 20
4.7811542678
 30
0.0
 10
7.6170513147
 20
4.7767707738
 30
0.0
 10
7.6955171694
 20
4.7739913526
 30
0.0
 10
7.7347512505
 20
4.7726421808
 30
0.0
  0
SPLINE
  5
552
100
AcDbEntity
  8
ALL_ASSEMBLY_MEMBERS
100
AcDbSpline
 62
7
  6
CONTINUOUS
 70
0
 71
3
 72
19
 73
15
 74
0
 42
0.0000001
 43
0.0000001
 44
0.0000000001
 40
0.0
 40
0.0
 40
0.0
 40
0.0
 40
0.1627704997
 40
0.3219125544
 40
0.4721759036
 40
0.6097839576
 40
0.6729112535
 40
0.7318890942
 40
0.7865650482
 40
0.8368801869
 40
0.882934725
 40
0.9250656964
 40
0.9638200468
 40
1.0
 40
1.0
 40
1.0
 40
1.0
 10
7.2639870596
 20
4.7902455643
 30
0.0
 10
7.2639480501
 20
4.7890058281
 30
0.0
 10
7.2637724096
 20
4.7865560829
 30
0.0
 10
7.2632312571
 20
4.7829947804
 30
0.0
 10
7.262422989
 20
4.7796809871
 30
0.0
 10
7.2615322093
 20
4.7771522829
 30
0.0
 10
7.2606985041
 20
4.7753558729
 30
0.0
 10
7.2600455795
 20
4.7741760766
 30
0.0
 10
7.2593526982
 20
4.773134391
 30
0.0
 10
7.2586247977
 20
4.7722400048
 30
0.0
 10
7.2578661468
 20
4.7715023159
 30
0.0
 10
7.2570841377
 20
4.770926822
 30
0.0
 10
7.2562860513
 20
4.7705187981
 30
0.0
 10
7.2557329573
 20
4.7703588393
 30
0.0
 10
7.2554612611
 20
4.7703120253
 30
0.0
  0
SPLINE
  5
553
100
AcDbEntity
  8
ALL_ASSEMBLY_MEMBERS
100
AcDbSpline
 62
7
  6
CONTINUOUS
 70
0
 71
3
 72
12
 73
8
 74
0
 42
0.0000001
 43
0.0000001
 44
0.0000000001
 40
0.0
 40
0.0
 40
0.0
 40
0.0
 40
0.2501339465
 40
0.3751978147
 40
0.5002404244
 40
0.7502199357
 40
1.0
 40
1.0
 40
1.0
 40
1.0
 10
7.2554612611
 20
4.7703120253
 30
0.0
 10
7.294752538
 20
4.7688121261
 30
0.0
 10
7.353688175
 20
4.7665416484
 30
0.0
 10
7.4322662719
 20
4.7635382594
 30
0.0
 10
7.51082138
 20
4.7605691952
 30
0.0
 10
7.608970291
 20
4.7569388485
 30
0.0
 10
7.6874808738
 20
4.7541547673
 30
0.0
 10
7.7267217544
 20
4.752799816
 30
0.0
  0
SPLINE
  5
554
100
AcDbEntity
  8
ALL_ASSEMBLY_MEMBERS
100
AcDbSpline
 62
7
  6
CONTINUOUS
 70
0
 71
3
 72
18
 73
14
 74
0
 42
0.0000001
 43
0.0000001
 44
0.0000000001
 40
0.0
 40
0.0
 40
0.0
 40
0.0
 40
0.1599360038
 40
0.316551856
 40
0.4648711231
 40
0.6013705156
 40
0.7233856824
 40
0.7785504656
 40
0.8297230487
 40
0.8770275896
 40
0.9207984538
 40
0.9615483067
 40
1.0
 40
1.0
 40
1.0
 40
1.0
 10
7.2620798571
 20
4.7903539702
 30
0.0
 10
7.2620382311
 20
4.7891123678
 30
0.0
 10
7.2618480689
 20
4.7866573085
 30
0.0
 10
7.2612591527
 20
4.7830900568
 30
0.0
 10
7.2603777123
 20
4.7797701881
 30
0.0
 10
7.2592418152
 20
4.7768142898
 30
0.0
 10
7.258073479
 20
4.7746642913
 30
0.0
 10
7.2570299808
 20
4.77322714
 30
0.0
 10
7.2562351527
 20
4.7723337842
 30
0.0
 10
7.2554069069
 20
4.7715980923
 30
0.0
 10
7.2545535272
 20
4.7710256005
 30
0.0
 10
7.2536833971
 20
4.7706215606
 30
0.0
 10
7.253083797
 20
4.770465302
 30
0.0
 10
7.2527886068
 20
4.7704198242
 30
0.0
  0
SPLINE
  5
555
100
AcDbEntity
  8
ALL_ASSEMBLY_MEMBERS
100
AcDbSpline
 62
7
  6
CONTINUOUS
 70
0
 71
3
 72
9
 73
5
 74
0
 42
0.0000001
 43
0.0000001
 44
0.0000000001
 40
0.0
 40
0.0
 40
0.0
 40
0.0
 40
0.2425723798
 40
1.0
 40
1.0
 40
1.0
 40
1.0
 10
7.2374991697
 20
4.7613321222
 30
0.0
 10
7.2376624047
 20
4.7616438005
 30
0.0
 10
7.2383630058
 20
4.7629137204
 30
0.0
 10
7.2391892037
 20
4.7641167217
 30
0.0
 10
7.2398901305
 20
4.7649626713
 30
0.0
  0
SPLINE
  5
556
100
AcDbEntity
  8
ALL_ASSEMBLY_MEMBERS
100
AcDbSpline
 62
7
  6
CONTINUOUS
 70
0
 71
3
 72
13
 73
9
 74
0
 42
0.0000001
 43
0.0000001
 44
0.0000000001
 40
0.0
 40
0.0
 40
0.0
 40
0.0
 40
0.1925608186
 40
0.4077475568
 40
0.5295224605
 40
0.6654087326
 40
0.8203866458
 40
1.0
 40
1.0
 40
1.0
 40
1.0
 10
7.2398901305
 20
4.7649626713
 30
0.0
 10
7.2404868797
 20
4.7656828888
 30
0.0
 10
7.2418724864
 20
4.7671123933
 30
0.0
 10
7.2440036456
 20
4.768591223
 30
0.0
 10
7.2460960321
 20
4.7695514219
 30
0.0
 10
7.2480184446
 20
4.7701417925
 30
0.0
 10
7.2502854871
 20
4.7704880877
 30
0.0
 10
7.2519185982
 20
4.7704857239
 30
0.0
 10
7.252788541
 20
4.7704198887
 30
0.0
  0
SPLINE
  5
557
100
AcDbEntity
  8
ALL_ASSEMBLY_MEMBERS
100
AcDbSpline
 62
7
  6
CONTINUOUS
 70
0
 71
3
 72
17
 73
13
 74
0
 42
0.0000001
 43
0.0000001
 44
0.0000000001
 40
0.0
 40
0.0
 40
0.0
 40
0.0
 40
0.2394718627
 40
0.3599995127
 40
0.4813587752
 40
0.5425905196
 40
0.604381539
 40
0.6668842648
 40
0.7303600684
 40
0.7951338569
 40
0.8615181333
 40
1.0
 40
1.0
 40
1.0
 40
1.0
 10
7.2378405465
 20
4.7685286418
 30
0.0
 10
7.2386836758
 20
4.7712045828
 30
0.0
 10
7.2402856829
 20
4.7751414597
 30
0.0
 10
7.2432085905
 20
4.7799754688
 30
0.0
 10
7.2454190743
 20
4.7827717212
 30
0.0
 10
7.247441665
 20
4.7848020795
 30
0.0
 10
7.2491017796
 20
4.7862096065
 30
0.0
 10
7.2509083807
 20
4.7874711568
 30
0.0
 10
7.2528670639
 20
4.7885560396
 30
0.0
 10
7.2549789759
 20
4.7894313228
 30
0.0
 10
7.2580288037
 20
4.790276386
 30
0.0
 10
7.2604603521
 20
4.7904514341
 30
0.0
 10
7.2620798592
 20
4.7903539702
 30
0.0
  0
LINE
  5
558
100
AcDbEntity
  8
ALL_ASSEMBLY_MEMBERS
100
AcDbLine
 62
7
  6
CONTINUOUS
 10
7.2354723711
 20
4.756156695
 11
7.2363020878
 21
4.7586852543
  0
LINE
  5
559
100
AcDbEntity
  8
ALL_ASSEMBLY_MEMBERS
100
AcDbLine
 62
7
  6
CONTINUOUS
 10
7.2363020878
 20
4.7586852543
 11
7.237499635
 21
4.7613331559
  0
SPLINE
  5
55A
100
AcDbEntity
  8
ALL_ASSEMBLY_MEMBERS
100
AcDbSpline
 62
7
  6
CONTINUOUS
 70
0
 71
3
 72
11
 73
7
 74
0
 42
0.0000001
 43
0.0000001
 44
0.0000000001
 40
0.0
 40
0.0
 40
0.0
 40
0.0
 40
0.1246958153
 40
0.2488280004
 40
0.4983245256
 40
1.0
 40
1.0
 40
1.0
 40
1.0
 10
7.2354725099
 20
4.756158525
 30
0.0
 10
7.2355111923
 20
4.7566815587
 30
0.0
 10
7.2356062525
 20
4.7577239822
 30
0.0
 10
7.2358551366
 20
4.7598053364
 30
0.0
 10
7.2364406879
 20
4.7634411356
 30
0.0
 10
7.2372059566
 20
4.7665163172
 30
0.0
 10
7.2378405465
 20
4.7685286418
 30
0.0
  0
SPLINE
  5
55B
100
AcDbEntity
  8
ALL_ASSEMBLY_MEMBERS
100
AcDbSpline
 62
7
  6
CONTINUOUS
 70
0
 71
3
 72
11
 73
7
 74
0
 42
0.0000001
 43
0.0000001
 44
0.0000000001
 40
0.0
 40
0.0
 40
0.0
 40
0.0
 40
0.2145385254
 40
0.4533218487
 40
0.7152368211
 40
1.0
 40
1.0
 40
1.0
 40
1.0
 10
7.7272749659
 20
4.9377491529
 30
0.0
 10
7.7275487708
 20
4.9376664977
 30
0.0
 10
7.7281090376
 20
4.9374288166
 30
0.0
 10
7.7289141317
 20
4.9369111503
 30
0.0
 10
7.7297020477
 20
4.9362156232
 30
0.0
 10
7.7301754848
 20
4.9356583917
 30
0.0
 10
7.7304050799
 20
4.935356062
 30
0.0
  0
LINE
  5
55C
100
AcDbEntity
  8
ALL_ASSEMBLY_MEMBERS
100
AcDbLine
 62
7
  6
CONTINUOUS
 10
7.7304050799
 20
4.935356062
 11
7.7317501361
 21
4.9331475026
  0
SPLINE
  5
55D
100
AcDbEntity
  8
ALL_ASSEMBLY_MEMBERS
100
AcDbSpline
 62
7
  6
CONTINUOUS
 70
0
 71
3
 72
15
 73
11
 74
0
 42
0.0000001
 43
0.0000001
 44
0.0000000001
 40
0.0
 40
0.0
 40
0.0
 40
0.0
 40
0.1042872776
 40
0.2164407373
 40
0.3355147313
 40
0.4606213028
 40
0.5908697551
 40
0.7252097559
 40
0.8621361294
 40
1.0
 40
1.0
 40
1.0
 40
1.0
 10
7.7317501361
 20
4.9331475026
 30
0.0
 10
7.731993736
 20
4.9326602291
 30
0.0
 10
7.7324563786
 20
4.931627112
 30
0.0
 10
7.7330551071
 20
4.9299784765
 30
0.0
 10
7.7335694144
 20
4.9281880627
 30
0.0
 10
7.7339897715
 20
4.9262767147
 30
0.0
 10
7.7343227578
 20
4.9242677247
 30
0.0
 10
7.7345758902
 20
4.9221849728
 30
0.0
 10
7.7347356811
 20
4.9200529172
 30
0.0
 10
7.7347621471
 20
4.9186166114
 30
0.0
 10
7.7347512505
 20
4.9178965258
 30
0.0
  0
SPLINE
  5
55E
100
AcDbEntity
  8
ALL_ASSEMBLY_MEMBERS
100
AcDbSpline
 62
7
  6
CONTINUOUS
 70
0
 71
3
 72
12
 73
8
 74
0
 42
0.0000001
 43
0.0000001
 44
0.0000000001
 40
0.0
 40
0.0
 40
0.0
 40
0.0
 40
0.2501330663
 40
0.3751963909
 40
0.5002386187
 40
0.7502182051
 40
1.0
 40
1.0
 40
1.0
 40
1.0
 10
7.2560173901
 20
4.9369271128
 30
0.0
 10
7.2953096906
 20
4.9370366429
 30
0.0
 10
7.3542475767
 20
4.9372218545
 30
0.0
 10
7.4328278474
 20
4.937444362
 30
0.0
 10
7.5113840987
 20
4.9376326212
 30
0.0
 10
7.6095320305
 20
4.9377865709
 30
0.0
 10
7.6880376959
 20
4.937786663
 30
0.0
 10
7.7272749513
 20
4.9377491626
 30
0.0
  0
SPLINE
  5
55F
100
AcDbEntity
  8
ALL_ASSEMBLY_MEMBERS
100
AcDbSpline
 62
7
  6
CONTINUOUS
 70
0
 71
3
 72
19
 73
15
 74
0
 42
0.0000001
 43
0.0000001
 44
0.0000000001
 40
0.0
 40
0.0
 40
0.0
 40
0.0
 40
0.0361553939
 40
0.0747084944
 40
0.1165267955
 40
0.1622160951
 40
0.2121620165
 40
0.2665013007
 40
0.325201061
 40
0.3881279367
 40
0.5256166305
 40
0.6761837114
 40
0.8360716404
 40
1.0
 40
1.0
 40
1.0
 40
1.0
 10
7.2560173901
 20
4.9369271128
 30
0.0
 10
7.2562873842
 20
4.9368819678
 30
0.0
 10
7.2568360232
 20
4.9367254535
 30
0.0
 10
7.2576249663
 20
4.936320578
 30
0.0
 10
7.2583928027
 20
4.9357472393
 30
0.0
 10
7.2591323574
 20
4.9350108856
 30
0.0
 10
7.2598364079
 20
4.9341171154
 30
0.0
 10
7.2605010177
 20
4.933075388
 30
0.0
 10
7.2611215516
 20
4.9318948982
 30
0.0
 10
7.2619061185
 20
4.9300952195
 30
0.0
 10
7.2627263481
 20
4.9275607048
 30
0.0
 10
7.2634404468
 20
4.9242404356
 30
0.0
 10
7.2638793921
 20
4.9206714752
 30
0.0
 10
7.2639839986
 20
4.9182190002
 30
0.0
 10
7.2639870599
 20
4.9169778576
 30
0.0
  0
SPLINE
  5
560
100
AcDbEntity
  8
ALL_ASSEMBLY_MEMBERS
100
AcDbSpline
 62
7
  6
CONTINUOUS
 70
0
 71
3
 72
11
 73
7
 74
0
 42
0.0000001
 43
0.0000001
 44
0.0000000001
 40
0.0
 40
0.0
 40
0.0
 40
0.0
 40
0.2500001
 40
0.5000001631
 40
0.7500001269
 40
1.0
 40
1.0
 40
1.0
 40
1.0
 10
7.2639870598
 20
4.9169778576
 30
0.0
 10
7.3032173536
 20
4.9170960721
 30
0.0
 10
7.3816778283
 20
4.917365861
 30
0.0
 10
7.4993686782
 20
4.9177258533
 30
0.0
 10
7.6170598888
 20
4.9179364086
 30
0.0
 10
7.6955208371
 20
4.9179331138
 30
0.0
 10
7.7347512505
 20
4.9178907279
 30
0.0
  0
SPLINE
  5
561
100
AcDbEntity
  8
ALL_ASSEMBLY_MEMBERS
100
AcDbSpline
 62
7
  6
CONTINUOUS
 70
0
 71
3
 72
18
 73
14
 74
0
 42
0.0000001
 43
0.0000001
 44
0.0000000001
 40
0.0
 40
0.0
 40
0.0
 40
0.0
 40
0.039415784
 40
0.0808630983
 40
0.1250798269
 40
0.1726093637
 40
0.2238246353
 40
0.2788923873
 40
0.4004343772
 40
0.5362997577
 40
0.6840141144
 40
0.8402025784
 40
1.0
 40
1.0
 40
1.0
 40
1.0
 10
7.252225597
 20
4.9369071427
 30
0.0
 10
7.2525287719
 20
4.9368626735
 30
0.0
 10
7.2531428681
 20
4.9367090088
 30
0.0
 10
7.254033026
 20
4.9363071395
 30
0.0
 10
7.2549012813
 20
4.9357359626
 30
0.0
 10
7.2557389008
 20
4.9350008212
 30
0.0
 10
7.2565373441
 20
4.9341073311
 30
0.0
 10
7.2575770962
 20
4.9326704553
 30
0.0
 10
7.2587270521
 20
4.9305178269
 30
0.0
 10
7.2598201509
 20
4.9275565243
 30
0.0
 10
7.2606387617
 20
4.9242304324
 30
0.0
 10
7.2611468552
 20
4.9206564985
 30
0.0
 10
7.2612733386
 20
4.9181993977
 30
0.0
 10
7.2612809353
 20
4.9169571533
 30
0.0
  0
SPLINE
  5
562
100
AcDbEntity
  8
ALL_ASSEMBLY_MEMBERS
100
AcDbSpline
 62
7
  6
CONTINUOUS
 70
0
 71
3
 72
17
 73
13
 74
0
 42
0.0000001
 43
0.0000001
 44
0.0000000001
 40
0.0
 40
0.0
 40
0.0
 40
0.0
 40
0.1205993355
 40
0.2414522637
 40
0.362623893
 40
0.4843901975
 40
0.6073773004
 40
0.732797861
 40
0.797122224
 40
0.8628856721
 40
0.9304217856
 40
1.0
 40
1.0
 40
1.0
 40
1.0
 10
7.2377814792
 20
4.939526283
 30
0.0
 10
7.2381896011
 20
4.9381822662
 30
0.0
 10
7.2391135256
 20
4.935522203
 30
0.0
 10
7.2408476524
 20
4.9316645861
 30
0.0
 10
7.2429717894
 20
4.9279886088
 30
0.0
 10
7.2455394653
 20
4.9245713492
 30
0.0
 10
7.2486162851
 20
4.9215257761
 30
0.0
 10
7.2516460931
 20
4.9194554512
 30
0.0
 10
7.2543494943
 20
4.9181974954
 30
0.0
 10
7.2565429758
 20
4.9174800789
 30
0.0
 10
7.2588703861
 20
4.9170364813
 30
0.0
 10
7.2604706135
 20
4.9169481635
 30
0.0
 10
7.2612809382
 20
4.9169571533
 30
0.0
  0
SPLINE
  5
563
100
AcDbEntity
  8
ALL_ASSEMBLY_MEMBERS
100
AcDbSpline
 62
7
  6
CONTINUOUS
 70
0
 71
3
 72
9
 73
5
 74
0
 42
0.0000001
 43
0.0000001
 44
0.0000000001
 40
0.0
 40
0.0
 40
0.0
 40
0.0
 40
0.2407301356
 40
1.0
 40
1.0
 40
1.0
 40
1.0
 10
7.2374581838
 20
4.9466267433
 30
0.0
 10
7.2376719148
 20
4.9461906543
 30
0.0
 10
7.2386098753
 20
4.9444053313
 30
0.0
 10
7.2397838539
 20
4.9427339119
 30
0.0
 10
7.240825481
 20
4.9416108492
 30
0.0
  0
SPLINE
  5
564
100
AcDbEntity
  8
ALL_ASSEMBLY_MEMBERS
100
AcDbSpline
 62
7
  6
CONTINUOUS
 70
0
 71
3
 72
12
 73
8
 74
0
 42
0.0000001
 43
0.0000001
 44
0.0000000001
 40
0.0
 40
0.0
 40
0.0
 40
0.0
 40
0.1248399979
 40
0.2490360773
 40
0.498556041
 40
0.7489542413
 40
1.0
 40
1.0
 40
1.0
 40
1.0
 10
7.2354725099
 20
4.9520166091
 30
0.0
 10
7.2355103594
 20
4.9514883891
 30
0.0
 10
7.2356037153
 20
4.9504359038
 30
0.0
 10
7.2358471351
 20
4.9483349102
 30
0.0
 10
7.2362544744
 20
4.9457175242
 30
0.0
 10
7.2369144586
 20
4.9425995197
 30
0.0
 10
7.2374718561
 20
4.9405452214
 30
0.0
 10
7.2377814792
 20
4.939526283
 30
0.0
  0
LINE
  5
565
100
AcDbEntity
  8
ALL_ASSEMBLY_MEMBERS
100
AcDbLine
 62
7
  6
CONTINUOUS
 10
7.2355312321
 20
4.9517877775
 11
7.2364108622
 21
4.9490541435
  0
LINE
  5
566
100
AcDbEntity
  8
ALL_ASSEMBLY_MEMBERS
100
AcDbLine
 62
7
  6
CONTINUOUS
 10
7.2364108622
 20
4.9490541435
 11
7.237458542
 21
4.9466256647
  0
SPLINE
  5
567
100
AcDbEntity
  8
ALL_ASSEMBLY_MEMBERS
100
AcDbSpline
 62
7
  6
CONTINUOUS
 70
0
 71
3
 72
15
 73
11
 74
0
 42
0.0000001
 43
0.0000001
 44
0.0000000001
 40
0.0
 40
0.0
 40
0.0
 40
0.0
 40
0.1378638707
 40
0.2747902441
 40
0.4091302449
 40
0.5393786972
 40
0.6644852687
 40
0.7835592627
 40
0.8957127224
 40
1.0
 40
1.0
 40
1.0
 40
1.0
 10
6.3375360166
 20
4.9178965258
 30
0.0
 10
6.33752512
 20
4.9186166114
 30
0.0
 10
6.3375515859
 20
4.9200529172
 30
0.0
 10
6.3377113769
 20
4.9221849728
 30
0.0
 10
6.3379645092
 20
4.9242677247
 30
0.0
 10
6.3382974955
 20
4.9262767147
 30
0.0
 10
6.3387178527
 20
4.9281880627
 30
0.0
 10
6.3392321599
 20
4.9299784765
 30
0.0
 10
6.3398308885
 20
4.931627112
 30
0.0
 10
6.3402935311
 20
4.9326602291
 30
0.0
 10
6.340537131
 20
4.9331475026
 30
0.0
  0
SPLINE
  5
568
100
AcDbEntity
  8
ALL_ASSEMBLY_MEMBERS
100
AcDbSpline
 62
7
  6
CONTINUOUS
 70
0
 71
3
 72
9
 73
5
 74
0
 42
0.0000001
 43
0.0000001
 44
0.0000000001
 40
0.0
 40
0.0
 40
0.0
 40
0.0
 40
0.531693168
 40
1.0
 40
1.0
 40
1.0
 40
1.0
 10
6.340537131
 20
4.9331475026
 30
0.0
 10
6.340832404
 20
4.9337381378
 30
0.0
 10
6.3414445928
 20
4.934822304
 30
0.0
 10
6.3422170257
 20
4.9358054668
 30
0.0
 10
6.3426256339
 20
4.93621936
 30
0.0
  0
LINE
  5
569
100
AcDbEntity
  8
ALL_ASSEMBLY_MEMBERS
100
AcDbLine
 62
7
  6
CONTINUOUS
 10
6.3426256339
 20
4.93621936
 11
6.3442213832
 21
4.9374223177
  0
LINE
  5
56A
100
AcDbEntity
  8
ALL_ASSEMBLY_MEMBERS
100
AcDbLine
 62
7
  6
CONTINUOUS
 10
6.3442213832
 20
4.9374223177
 11
6.3450123012
 21
4.9377491529
  0
SPLINE
  5
56B
100
AcDbEntity
  8
ALL_ASSEMBLY_MEMBERS
100
AcDbSpline
 62
7
  6
CONTINUOUS
 70
0
 71
3
 72
11
 73
7
 74
0
 42
0.0000001
 43
0.0000001
 44
0.0000000001
 40
0.0
 40
0.0
 40
0.0
 40
0.0
 40
0.2500000997
 40
0.5000001632
 40
0.7500001267
 40
1.0
 40
1.0
 40
1.0
 40
1.0
 10
6.8083002073
 20
4.9169778576
 30
0.0
 10
6.7690699135
 20
4.9170960621
 30
0.0
 10
6.6906094388
 20
4.9173658696
 30
0.0
 10
6.5729185888
 20
4.9177258408
 30
0.0
 10
6.4552273783
 20
4.917936417
 30
0.0
 10
6.37676643
 20
4.9179331914
 30
0.0
 10
6.3375360166
 20
4.9178908056
 30
0.0
  0
SPLINE
  5
56C
100
AcDbEntity
  8
ALL_ASSEMBLY_MEMBERS
100
AcDbSpline
 62
7
  6
CONTINUOUS
 70
0
 71
3
 72
19
 73
15
 74
0
 42
0.0000001
 43
0.0000001
 44
0.0000000001
 40
0.0
 40
0.0
 40
0.0
 40
0.0
 40
0.1639283602
 40
0.3238162893
 40
0.4743833701
 40
0.6118720636
 40
0.6747989392
 40
0.7334986995
 40
0.7878379835
 40
0.8377839049
 40
0.8834732044
 40
0.9252915055
 40
0.963844606
 40
1.0
 40
1.0
 40
1.0
 40
1.0
 10
6.8083002072
 20
4.9169778576
 30
0.0
 10
6.8083032685
 20
4.9182190002
 30
0.0
 10
6.8084078751
 20
4.9206714752
 30
0.0
 10
6.8088468204
 20
4.9242404355
 30
0.0
 10
6.809560919
 20
4.9275607046
 30
0.0
 10
6.8103811487
 20
4.9300952193
 30
0.0
 10
6.8111657156
 20
4.9318948979
 30
0.0
 10
6.8117862495
 20
4.9330753876
 30
0.0
 10
6.8124508593
 20
4.9341171151
 30
0.0
 10
6.8131549098
 20
4.9350108853
 30
0.0
 10
6.8138944644
 20
4.9357472389
 30
0.0
 10
6.8146623008
 20
4.9363205776
 30
0.0
 10
6.8154512439
 20
4.936725453
 30
0.0
 10
6.8159998829
 20
4.9368819674
 30
0.0
 10
6.816269877
 20
4.9369271124
 30
0.0
  0
SPLINE
  5
56D
100
AcDbEntity
  8
ALL_ASSEMBLY_MEMBERS
100
AcDbSpline
 62
7
  6
CONTINUOUS
 70
0
 71
3
 72
12
 73
8
 74
0
 42
0.0000001
 43
0.0000001
 44
0.0000000001
 40
0.0
 40
0.0
 40
0.0
 40
0.0
 40
0.2501330662
 40
0.3751963908
 40
0.5002386184
 40
0.7502182048
 40
1.0
 40
1.0
 40
1.0
 40
1.0
 10
6.816269877
 20
4.9369271124
 30
0.0
 10
6.7769775764
 20
4.9370366366
 30
0.0
 10
6.7180396904
 20
4.9372218527
 30
0.0
 10
6.6394594197
 20
4.9374443669
 30
0.0
 10
6.5609031683
 20
4.9376326256
 30
0.0
 10
6.4627552365
 20
4.9377865707
 30
0.0
 10
6.3842495709
 20
4.9377866621
 30
0.0
 10
6.3450123155
 20
4.9377491621
 30
0.0
  0
SPLINE
  5
56E
100
AcDbEntity
  8
ALL_ASSEMBLY_MEMBERS
100
AcDbSpline
 62
7
  6
CONTINUOUS
 70
0
 71
3
 72
18
 73
14
 74
0
 42
0.0000001
 43
0.0000001
 44
0.0000000001
 40
0.0
 40
0.0
 40
0.0
 40
0.0
 40
0.1597974247
 40
0.3159859036
 40
0.4637002796
 40
0.5995656768
 40
0.7211076744
 40
0.7761754252
 40
0.8273906916
 40
0.8749202192
 40
0.9191369347
 40
0.9605842332
 40
1.0
 40
1.0
 40
1.0
 40
1.0
 10
6.8110063296
 20
4.916957138
 30
0.0
 10
6.8110139258
 20
4.9181993833
 30
0.0
 10
6.8111404083
 20
4.9206564861
 30
0.0
 10
6.8116485008
 20
4.924230423
 30
0.0
 10
6.812467111
 20
4.9275565181
 30
0.0
 10
6.8135602096
 20
4.9305178236
 30
0.0
 10
6.8147101657
 20
4.9326704541
 30
0.0
 10
6.815749918
 20
4.9341073314
 30
0.0
 10
6.8165483615
 20
4.9350008223
 30
0.0
 10
6.8173859813
 20
4.9357359642
 30
0.0
 10
6.818254237
 20
4.9363071416
 30
0.0
 10
6.8191443951
 20
4.9367090109
 30
0.0
 10
6.8197584916
 20
4.9368626756
 30
0.0
 10
6.8200616666
 20
4.9369071447
 30
0.0
  0
SPLINE
  5
56F
100
AcDbEntity
  8
ALL_ASSEMBLY_MEMBERS
100
AcDbSpline
 62
7
  6
CONTINUOUS
 70
0
 71
3
 72
9
 73
5
 74
0
 42
0.0000001
 43
0.0000001
 44
0.0000000001
 40
0.0
 40
0.0
 40
0.0
 40
0.0
 40
0.251866102
 40
1.0
 40
1.0
 40
1.0
 40
1.0
 10
7.7309169771
 20
4.9373370469
 30
0.0
 10
7.7306173923
 20
4.9374092665
 30
0.0
 10
7.7294194889
 20
4.9376594142
 30
0.0
 10
7.7281902356
 20
4.9377625085
 30
0.0
 10
7.7272749659
 20
4.9377491529
 30
0.0
  0
SPLINE
  5
570
100
AcDbEntity
  8
ALL_ASSEMBLY_MEMBERS
100
AcDbSpline
 62
7
  6
CONTINUOUS
 70
0
 71
3
 72
9
 73
5
 74
0
 42
0.0000001
 43
0.0000001
 44
0.0000000001
 40
0.0
 40
0.0
 40
0.0
 40
0.0
 40
0.2422607236
 40
1.0
 40
1.0
 40
1.0
 40
1.0
 10
6.834829175
 20
4.946626628
 30
0.0
 10
6.8346424966
 20
4.9462457146
 30
0.0
 10
6.8338337254
 20
4.9446930423
 30
0.0
 10
6.832850326
 20
4.9432259873
 30
0.0
 10
6.8319941372
 20
4.9422124104
 30
0.0
  0
SPLINE
  5
571
100
AcDbEntity
  8
ALL_ASSEMBLY_MEMBERS
100
AcDbSpline
 62
7
  6
CONTINUOUS
 70
0
 71
3
 72
11
 73
7
 74
0
 42
0.0000001
 43
0.0000001
 44
0.0000000001
 40
0.0
 40
0.0
 40
0.0
 40
0.0
 40
0.2487243018
 40
0.4978597146
 40
0.748073929
 40
1.0
 40
1.0
 40
1.0
 40
1.0
 10
7.6679434075
 20
4.9449076086
 30
0.0
 10
7.6729094971
 20
4.9449152002
 30
0.0
 10
7.6828529845
 20
4.9446278128
 30
0.0
 10
7.697737887
 20
4.9432877738
 30
0.0
 10
7.7125775191
 20
4.9410395753
 30
0.0
 10
7.7223891259
 20
4.9389441765
 30
0.0
 10
7.7272750957
 20
4.9377490078
 30
0.0
  0
SPLINE
  5
572
100
AcDbEntity
  8
ALL_ASSEMBLY_MEMBERS
100
AcDbSpline
 62
7
  6
CONTINUOUS
 70
0
 71
3
 72
9
 73
5
 74
0
 42
0.0000001
 43
0.0000001
 44
0.0000000001
 40
0.0
 40
0.0
 40
0.0
 40
0.0
 40
0.25171113
 40
1.0
 40
1.0
 40
1.0
 40
1.0
 10
7.7303763577
 20
4.7530760606
 30
0.0
 10
7.730074497
 20
4.75301509
 30
0.0
 10
7.7288681964
 20
4.7528097027
 30
0.0
 10
7.7276360376
 20
4.7527524202
 30
0.0
 10
7.7267217697
 20
4.7527998261
 30
0.0
  0
SPLINE
  5
573
100
AcDbEntity
  8
ALL_ASSEMBLY_MEMBERS
100
AcDbSpline
 62
7
  6
CONTINUOUS
 70
0
 71
3
 72
17
 73
13
 74
0
 42
0.0000001
 43
0.0000001
 44
0.0000000001
 40
0.0
 40
0.0
 40
0.0
 40
0.0
 40
0.1206016633
 40
0.2414509599
 40
0.3626186103
 40
0.484382374
 40
0.6073687446
 40
0.732790146
 40
0.7971169059
 40
0.8628820216
 40
0.9304207993
 40
1.0
 40
1.0
 40
1.0
 40
1.0
 10
6.83450008
 20
4.9395077337
 30
0.0
 10
6.8340919384
 20
4.9381645097
 30
0.0
 10
6.8331674684
 20
4.9355062899
 30
0.0
 10
6.8314329334
 20
4.9316515108
 30
0.0
 10
6.8293087104
 20
4.9279784396
 30
0.0
 10
6.8267412922
 20
4.9245640654
 30
0.0
 10
6.8236651854
 20
4.9215212366
 30
0.0
 10
6.8206364485
 20
4.9194529411
 30
0.0
 10
6.8179342417
 20
4.9181962254
 30
0.0
 10
6.815741808
 20
4.9174794918
 30
0.0
 10
6.8134155922
 20
4.9170363512
 30
0.0
 10
6.8118162117
 20
4.9169481323
 30
0.0
 10
6.8110063257
 20
4.916957138
 30
0.0
  0
LINE
  5
574
100
AcDbEntity
  8
ALL_ASSEMBLY_MEMBERS
100
AcDbLine
 62
7
  6
CONTINUOUS
 10
6.8367646426
 20
4.9518253926
 11
6.8358598277
 21
4.9490119946
  0
LINE
  5
575
100
AcDbEntity
  8
ALL_ASSEMBLY_MEMBERS
100
AcDbLine
 62
7
  6
CONTINUOUS
 10
6.8358598277
 20
4.9490119946
 11
6.8348286908
 21
4.9466260779
  0
SPLINE
  5
576
100
AcDbEntity
  8
ALL_ASSEMBLY_MEMBERS
100
AcDbSpline
 62
7
  6
CONTINUOUS
 70
0
 71
3
 72
10
 73
6
 74
0
 42
0.0000001
 43
0.0000001
 44
0.0000000001
 40
0.0
 40
0.0
 40
0.0
 40
0.0
 40
0.2488802989
 40
0.4985693276
 40
1.0
 40
1.0
 40
1.0
 40
1.0
 10
6.8368147572
 20
4.9520169002
 30
0.0
 10
6.8367366631
 20
4.9509626444
 30
0.0
 10
6.8365204986
 20
4.9488546212
 30
0.0
 10
6.8358671111
 20
4.9446565479
 30
0.0
 10
6.83511956
 20
4.9415455322
 30
0.0
 10
6.83450008
 20
4.9395077337
 30
0.0
  0
SPLINE
  5
577
100
AcDbEntity
  8
ALL_ASSEMBLY_MEMBERS
100
AcDbSpline
 62
7
  6
CONTINUOUS
 70
0
 71
3
 72
11
 73
7
 74
0
 42
0.0000001
 43
0.0000001
 44
0.0000000001
 40
0.0
 40
0.0
 40
0.0
 40
0.0
 40
0.2139121716
 40
0.4527286604
 40
0.71495072
 40
1.0
 40
1.0
 40
1.0
 40
1.0
 10
6.3455654974
 20
4.7527998261
 30
0.0
 10
6.3452893125
 20
4.7528848686
 30
0.0
 10
6.3447230158
 20
4.7531262478
 30
0.0
 10
6.3439051369
 20
4.7536464123
 30
0.0
 10
6.343099098
 20
4.7543434552
 30
0.0
 10
6.3426108594
 20
4.7549016964
 30
0.0
 10
6.3423730937
 20
4.7552046097
 30
0.0
  0
LINE
  5
578
100
AcDbEntity
  8
ALL_ASSEMBLY_MEMBERS
100
AcDbLine
 62
7
  6
CONTINUOUS
 10
6.3423730937
 20
4.7552046097
 11
6.3409682555
 21
4.7574146805
  0
SPLINE
  5
579
100
AcDbEntity
  8
ALL_ASSEMBLY_MEMBERS
100
AcDbSpline
 62
7
  6
CONTINUOUS
 70
0
 71
3
 72
15
 73
11
 74
0
 42
0.0000001
 43
0.0000001
 44
0.0000000001
 40
0.0
 40
0.0
 40
0.0
 40
0.0
 40
0.1049405563
 40
0.2175904279
 40
0.336979087
 40
0.462201802
 40
0.5923575513
 40
0.7263913924
 40
0.8628152094
 40
1.0
 40
1.0
 40
1.0
 40
1.0
 10
6.3409682555
 20
4.7574146805
 30
0.0
 10
6.3407115646
 20
4.7579013175
 30
0.0
 10
6.3402207237
 20
4.7589325264
 30
0.0
 10
6.339575769
 20
4.7605787173
 30
0.0
 10
6.3390110935
 20
4.7623660878
 30
0.0
 10
6.3385370668
 20
4.7642740088
 30
0.0
 10
6.33814769
 20
4.7662788914
 30
0.0
 10
6.337836219
 20
4.7683566796
 30
0.0
 10
6.3376158627
 20
4.7704833092
 30
0.0
 10
6.3375469784
 20
4.7719172032
 30
0.0
 10
6.3375360166
 20
4.7726363582
 30
0.0
  0
SPLINE
  5
57A
100
AcDbEntity
  8
ALL_ASSEMBLY_MEMBERS
100
AcDbSpline
 62
7
  6
CONTINUOUS
 70
0
 71
3
 72
12
 73
8
 74
0
 42
0.0000001
 43
0.0000001
 44
0.0000000001
 40
0.0
 40
0.0
 40
0.0
 40
0.0
 40
0.2501339467
 40
0.3751978148
 40
0.5002404246
 40
0.7502199359
 40
1.0
 40
1.0
 40
1.0
 40
1.0
 10
6.816826006
 20
4.7703120243
 30
0.0
 10
6.7775347293
 20
4.7688121195
 30
0.0
 10
6.7185990921
 20
4.7665416465
 30
0.0
 10
6.6400209951
 20
4.7635382641
 30
0.0
 10
6.5614658869
 20
4.7605691996
 30
0.0
 10
6.4633169762
 20
4.7569388483
 30
0.0
 10
6.3848063936
 20
4.7541547663
 30
0.0
 10
6.345565513
 20
4.7527998154
 30
0.0
  0
SPLINE
  5
57B
100
AcDbEntity
  8
ALL_ASSEMBLY_MEMBERS
100
AcDbSpline
 62
7
  6
CONTINUOUS
 70
0
 71
3
 72
19
 73
15
 74
0
 42
0.0000001
 43
0.0000001
 44
0.0000000001
 40
0.0
 40
0.0
 40
0.0
 40
0.0
 40
0.036179953
 40
0.0749343033
 40
0.1170652748
 40
0.163119813
 40
0.2134349519
 40
0.2681109062
 40
0.3270887472
 40
0.3902160433
 40
0.5278240978
 40
0.6780874472
 40
0.8372295016
 40
1.0
 40
1.0
 40
1.0
 40
1.0
 10
6.816826006
 20
4.7703120243
 30
0.0
 10
6.8165543097
 20
4.7703588383
 30
0.0
 10
6.8160012158
 20
4.7705187971
 30
0.0
 10
6.8152031294
 20
4.7709268211
 30
0.0
 10
6.8144211201
 20
4.7715023149
 30
0.0
 10
6.8136624693
 20
4.772240004
 30
0.0
 10
6.8129345688
 20
4.7731343902
 30
0.0
 10
6.8122416874
 20
4.7741760759
 30
0.0
 10
6.8115887629
 20
4.7753558722
 30
0.0
 10
6.8107550576
 20
4.7771522823
 30
0.0
 10
6.8098642779
 20
4.7796809867
 30
0.0
 10
6.8090560098
 20
4.7829947801
 30
0.0
 10
6.8085148573
 20
4.7865560828
 30
0.0
 10
6.8083392169
 20
4.7890058281
 30
0.0
 10
6.8083002074
 20
4.7902455643
 30
0.0
  0
SPLINE
  5
57C
100
AcDbEntity
  8
ALL_ASSEMBLY_MEMBERS
100
AcDbSpline
 62
7
  6
CONTINUOUS
 70
0
 71
3
 72
11
 73
7
 74
0
 42
0.0000001
 43
0.0000001
 44
0.0000000001
 40
0.0
 40
0.0
 40
0.0
 40
0.0
 40
0.2500021624
 40
0.500003784
 40
0.7500033606
 40
1.0
 40
1.0
 40
1.0
 40
1.0
 10
6.8083002073
 20
4.7902455643
 30
0.0
 10
6.7690710616
 20
4.7887370589
 30
0.0
 10
6.6906141571
 20
4.7856863665
 30
0.0
 10
6.5729274535
 20
4.7811542554
 30
0.0
 10
6.4552359539
 20
4.7767707822
 30
0.0
 10
6.3767700974
 20
4.7739914292
 30
0.0
 10
6.3375360166
 20
4.7726422575
 30
0.0
  0
SPLINE
  5
57D
100
AcDbEntity
  8
ALL_ASSEMBLY_MEMBERS
100
AcDbSpline
 62
7
  6
CONTINUOUS
 70
0
 71
3
 72
18
 73
14
 74
0
 42
0.0000001
 43
0.0000001
 44
0.0000000001
 40
0.0
 40
0.0
 40
0.0
 40
0.0
 40
0.0384516767
 40
0.0792015135
 40
0.1229723636
 40
0.1702768938
 40
0.2214494701
 40
0.2766142504
 40
0.3986294221
 40
0.5351288304
 40
0.6834481179
 40
0.8400639885
 40
1.0
 40
1.0
 40
1.0
 40
1.0
 10
6.8194986562
 20
4.7704198236
 30
0.0
 10
6.819203466
 20
4.7704653013
 30
0.0
 10
6.8186038657
 20
4.7706215596
 30
0.0
 10
6.8177337352
 20
4.7710255994
 30
0.0
 10
6.8168803552
 20
4.7715980914
 30
0.0
 10
6.816052109
 20
4.7723337837
 30
0.0
 10
6.8152572807
 20
4.77322714
 30
0.0
 10
6.8142137821
 20
4.7746642925
 30
0.0
 10
6.8130454456
 20
4.7768142928
 30
0.0
 10
6.8119095485
 20
4.7797701937
 30
0.0
 10
6.8110281085
 20
4.7830900653
 30
0.0
 10
6.810439193
 20
4.7866573199
 30
0.0
 10
6.8102490316
 20
4.7891123811
 30
0.0
 10
6.8102074061
 20
4.7903539843
 30
0.0
  0
SPLINE
  5
57E
100
AcDbEntity
  8
ALL_ASSEMBLY_MEMBERS
100
AcDbSpline
 62
7
  6
CONTINUOUS
 70
0
 71
3
 72
18
 73
14
 74
0
 42
0.0000001
 43
0.0000001
 44
0.0000000001
 40
0.0
 40
0.0
 40
0.0
 40
0.0
 40
0.1196931034
 40
0.2397579879
 40
0.3602978726
 40
0.4816424604
 40
0.6045103596
 40
0.6669816842
 40
0.7304200005
 40
0.7951257103
 40
0.8614284121
 40
0.9296412287
 40
1.0
 40
1.0
 40
1.0
 40
1.0
 10
6.834442434
 20
4.7685421594
 30
0.0
 10
6.8340207561
 20
4.7698796404
 30
0.0
 10
6.8330646608
 20
4.7725254062
 30
0.0
 10
6.8312696486
 20
4.7763532829
 30
0.0
 10
6.8290690144
 20
4.7799894463
 30
0.0
 10
6.8264087197
 20
4.7833502608
 30
0.0
 10
6.8237619384
 20
4.7858089065
 30
0.0
 10
6.8213673553
 20
4.7874782619
 30
0.0
 10
6.8194093221
 20
4.7885617144
 30
0.0
 10
6.8172990976
 20
4.7894341937
 30
0.0
 10
6.8150431369
 20
4.7900574638
 30
0.0
 10
6.8126596048
 20
4.7903932952
 30
0.0
 10
6.811030289
 20
4.7904032054
 30
0.0
 10
6.8102074041
 20
4.7903539843
 30
0.0
  0
SPLINE
  5
57F
100
AcDbEntity
  8
ALL_ASSEMBLY_MEMBERS
100
AcDbSpline
 62
7
  6
CONTINUOUS
 70
0
 71
3
 72
9
 73
5
 74
0
 42
0.0000001
 43
0.0000001
 44
0.0000000001
 40
0.0
 40
0.0
 40
0.0
 40
0.0
 40
0.2418460688
 40
1.0
 40
1.0
 40
1.0
 40
1.0
 10
6.8347880785
 20
4.7613321986
 30
0.0
 10
6.8346116188
 20
4.7616690769
 30
0.0
 10
6.8338491149
 20
4.7630441312
 30
0.0
 10
6.8329390413
 20
4.7643408975
 30
0.0
 10
6.8321595055
 20
4.7652428985
 30
0.0
  0
SPLINE
  5
580
100
AcDbEntity
  8
ALL_ASSEMBLY_MEMBERS
100
AcDbSpline
 62
7
  6
CONTINUOUS
 70
0
 71
3
 72
14
 73
10
 74
0
 42
0.0000001
 43
0.0000001
 44
0.0000000001
 40
0.0
 40
0.0
 40
0.0
 40
0.0
 40
0.1928920403
 40
0.2971827027
 40
0.4090279365
 40
0.531113431
 40
0.6670947426
 40
0.8216661967
 40
1.0
 40
1.0
 40
1.0
 40
1.0
 10
6.8321595055
 20
4.7652428985
 30
0.0
 10
6.8315621016
 20
4.7659341546
 30
0.0
 10
6.8305551325
 20
4.7669302557
 30
0.0
 10
6.8289999725
 20
4.7680899606
 30
0.0
 10
6.8276181792
 20
4.7689074509
 30
0.0
 10
6.8260111557
 20
4.7696165914
 30
0.0
 10
6.8241299138
 20
4.7701684621
 30
0.0
 10
6.8219250266
 20
4.7704901395
 30
0.0
 10
6.8203409837
 20
4.7704838035
 30
0.0
 10
6.8194987247
 20
4.7704199163
 30
0.0
  0
SPLINE
  5
581
100
AcDbEntity
  8
ALL_ASSEMBLY_MEMBERS
100
AcDbSpline
 62
7
  6
CONTINUOUS
 70
0
 71
3
 72
12
 73
8
 74
0
 42
0.0000001
 43
0.0000001
 44
0.0000000001
 40
0.0
 40
0.0
 40
0.0
 40
0.0
 40
0.1246848448
 40
0.2487753007
 40
0.4982104485
 40
0.7486911875
 40
1.0
 40
1.0
 40
1.0
 40
1.0
 10
6.8368147572
 20
4.7561580083
 30
0.0
 10
6.8367761831
 20
4.7566817292
 30
0.0
 10
6.8366808491
 20
4.7577253739
 30
0.0
 10
6.8364315984
 20
4.759809024
 30
0.0
 10
6.8360132516
 20
4.7624051697
 30
0.0
 10
6.835334593
 20
4.76549712
 30
0.0
 10
6.8347608775
 20
4.7675327526
 30
0.0
 10
6.834442434
 20
4.7685421594
 30
0.0
  0
LINE
  5
582
100
AcDbEntity
  8
ALL_ASSEMBLY_MEMBERS
100
AcDbLine
 62
7
  6
CONTINUOUS
 10
6.8368148599
 20
4.7561566539
 11
6.8359841588
 21
4.7586876281
  0
LINE
  5
583
100
AcDbEntity
  8
ALL_ASSEMBLY_MEMBERS
100
AcDbLine
 62
7
  6
CONTINUOUS
 10
6.8359841588
 20
4.7586876281
 11
6.8347875841
 21
4.7613330147
  0
SPLINE
  5
584
100
AcDbEntity
  8
ALL_ASSEMBLY_MEMBERS
100
AcDbSpline
 62
7
  6
CONTINUOUS
 70
0
 71
3
 72
11
 73
7
 74
0
 42
0.0000001
 43
0.0000001
 44
0.0000000001
 40
0.0
 40
0.0
 40
0.0
 40
0.0
 40
0.2519260747
 40
0.5021404829
 40
0.7512759428
 40
1.0
 40
1.0
 40
1.0
 40
1.0
 10
6.3450121486
 20
4.9377489953
 30
0.0
 10
6.3498976421
 20
4.9389440474
 30
0.0
 10
6.3597082867
 20
4.9410392784
 30
0.0
 10
6.3745464522
 20
4.9432874096
 30
0.0
 10
6.3894298817
 20
4.9446275435
 30
0.0
 10
6.3993723888
 20
4.9449150962
 30
0.0
 10
6.4043379895
 20
4.944907617
 30
0.0
  0
LINE
  5
585
100
AcDbEntity
  8
ALL_ASSEMBLY_MEMBERS
100
AcDbLine
 62
7
  6
CONTINUOUS
 10
7.1519076425
 20
4.7726363582
 11
7.154307169
 21
4.7527810569
  0
LINE
  5
586
100
AcDbEntity
  8
ALL_ASSEMBLY_MEMBERS
100
AcDbLine
 62
7
  6
CONTINUOUS
 10
7.1499848947
 20
4.9520188194
 11
7.1223555103
 21
4.9410445113
  0
LINE
  5
587
100
AcDbEntity
  8
ALL_ASSEMBLY_MEMBERS
100
AcDbLine
 62
7
  6
CONTINUOUS
 10
7.1519076425
 20
4.9178965258
 11
7.1543196036
 21
4.937750541
  0
LINE
  5
588
100
AcDbEntity
  8
ALL_ASSEMBLY_MEMBERS
100
AcDbLine
 62
7
  6
CONTINUOUS
 10
6.9203796246
 20
4.9178965258
 11
6.9179676641
 21
4.937750541
  0
SPLINE
  5
589
100
AcDbEntity
  8
ALL_ASSEMBLY_MEMBERS
100
AcDbSpline
 62
7
  6
CONTINUOUS
 70
0
 71
3
 72
9
 73
5
 74
0
 42
0.0000001
 43
0.0000001
 44
0.0000000001
 40
0.0
 40
0.0
 40
0.0
 40
0.0
 40
0.2518660538
 40
1.0
 40
1.0
 40
1.0
 40
1.0
 10
6.3413702675
 20
4.9373370415
 30
0.0
 10
6.3416698541
 20
4.9374092619
 30
0.0
 10
6.3428677647
 20
4.9376594124
 30
0.0
 10
6.3440970257
 20
4.9377625082
 30
0.0
 10
6.3450123012
 20
4.9377491529
 30
0.0
  0
LINE
  5
58A
100
AcDbEntity
  8
ALL_ASSEMBLY_MEMBERS
100
AcDbLine
 62
7
  6
CONTINUOUS
 10
6.9223021637
 20
4.9520187831
 11
6.9499313562
 21
4.9410447601
  0
LINE
  5
58B
100
AcDbEntity
  8
ALL_ASSEMBLY_MEMBERS
100
AcDbLine
 62
7
  6
CONTINUOUS
 10
3.3038612021
 20
4.9415724551
 11
3.3061868005
 21
4.9395236205
  0
LINE
  5
58C
100
AcDbEntity
  8
ALL_ASSEMBLY_MEMBERS
100
AcDbLine
 62
7
  6
CONTINUOUS
 10
2.8944650667
 20
4.9416143874
 11
2.8922287436
 21
4.9396161667
  0
SPLINE
  5
58D
100
AcDbEntity
  8
ALL_ASSEMBLY_MEMBERS
100
AcDbSpline
 62
7
  6
CONTINUOUS
 70
0
 71
3
 72
9
 73
5
 74
0
 42
0.0000001
 43
0.0000001
 44
0.0000000001
 40
0.0
 40
0.0
 40
0.0
 40
0.0
 40
0.5000000028
 40
1.0
 40
1.0
 40
1.0
 40
1.0
 10
3.2173242553
 20
4.9377489951
 30
0.0
 10
3.1781477994
 20
4.9425187747
 30
0.0
 10
3.0991436334
 20
4.9472970086
 30
0.0
 10
3.0201394657
 20
4.9425187879
 30
0.0
 10
2.9809630103
 20
4.9377490079
 30
0.0
  0
SPLINE
  5
58E
100
AcDbEntity
  8
ALL_ASSEMBLY_MEMBERS
100
AcDbSpline
 62
7
  6
CONTINUOUS
 70
0
 71
3
 72
11
 73
7
 74
0
 42
0.0000001
 43
0.0000001
 44
0.0000000001
 40
0.0
 40
0.0
 40
0.0
 40
0.0
 40
0.2489300872
 40
0.4979732933
 40
0.7480462895
 40
1.0
 40
1.0
 40
1.0
 40
1.0
 10
2.4770037968
 20
4.7458148096
 30
0.0
 10
2.4712823129
 20
4.7455933821
 30
0.0
 10
2.4598171543
 20
4.7455512425
 30
0.0
 10
2.4426355805
 20
4.7466986146
 30
0.0
 10
2.4255076744
 20
4.7490554207
 30
0.0
 10
2.4141943115
 20
4.7514214095
 30
0.0
 10
2.4085653449
 20
4.7527999631
 30
0.0
  0
SPLINE
  5
58F
100
AcDbEntity
  8
ALL_ASSEMBLY_MEMBERS
100
AcDbSpline
 62
7
  6
CONTINUOUS
 70
0
 71
3
 72
13
 73
9
 74
0
 42
0.0000001
 43
0.0000001
 44
0.0000000001
 40
0.0
 40
0.0
 40
0.0
 40
0.0
 40
0.2381993727
 40
0.3675863019
 40
0.5000000174
 40
0.6324137329
 40
0.7618006525
 40
1.0
 40
1.0
 40
1.0
 40
1.0
 10
2.9853017739
 20
4.9520187675
 30
0.0
 10
3.0032780771
 20
4.9543718552
 30
0.0
 10
3.0311309566
 20
4.9572295946
 30
0.0
 10
3.0691375724
 20
4.959275957
 30
0.0
 10
3.0991436355
 20
4.9598219183
 30
0.0
 10
3.1291497032
 20
4.959276065
 30
0.0
 10
3.1671563045
 20
4.9572294863
 30
0.0
 10
3.1950091888
 20
4.9543718625
 30
0.0
 10
3.2129854932
 20
4.952018799
 30
0.0
  0
SPLINE
  5
590
100
AcDbEntity
  8
ALL_ASSEMBLY_MEMBERS
100
AcDbSpline
 62
7
  6
CONTINUOUS
 70
0
 71
3
 72
11
 73
7
 74
0
 42
0.0000001
 43
0.0000001
 44
0.0000000001
 40
0.0
 40
0.0
 40
0.0
 40
0.0
 40
0.1949262587
 40
0.4258472697
 40
0.6939798658
 40
1.0
 40
1.0
 40
1.0
 40
1.0
 10
2.8824986824
 20
4.7704199187
 30
0.0
 10
2.8830607155
 20
4.7701498395
 30
0.0
 10
2.8843321661
 20
4.7696504448
 30
0.0
 10
2.8864684512
 20
4.7690392347
 30
0.0
 10
2.8889906189
 20
4.7685095974
 30
0.0
 10
2.890807247
 20
4.7682332845
 30
0.0
 10
2.8917779272
 20
4.7681063828
 30
0.0
  0
SPLINE
  5
591
100
AcDbEntity
  8
ALL_ASSEMBLY_MEMBERS
100
AcDbSpline
 62
7
  6
CONTINUOUS
 70
0
 71
3
 72
11
 73
7
 74
0
 42
0.0000001
 43
0.0000001
 44
0.0000000001
 40
0.0
 40
0.0
 40
0.0
 40
0.0
 40
0.2045762659
 40
0.432116173
 40
0.692914281
 40
1.0
 40
1.0
 40
1.0
 40
1.0
 10
3.306318742
 20
4.9394306951
 30
0.0
 10
3.306845605
 20
4.9390640535
 30
0.0
 10
3.3080122221
 20
4.9383635982
 30
0.0
 10
3.3100286521
 20
4.9375278817
 30
0.0
 10
3.3124711061
 20
4.9369606722
 30
0.0
 10
3.3142626419
 20
4.9368721615
 30
0.0
 10
3.3152255247
 20
4.9369070679
 30
0.0
  0
SPLINE
  5
592
100
AcDbEntity
  8
ALL_ASSEMBLY_MEMBERS
100
AcDbSpline
 62
7
  6
CONTINUOUS
 70
0
 71
3
 72
10
 73
6
 74
0
 42
0.0000001
 43
0.0000001
 44
0.0000000001
 40
0.0
 40
0.0
 40
0.0
 40
0.0
 40
0.5318169367
 40
0.7715139851
 40
1.0
 40
1.0
 40
1.0
 40
1.0
 10
2.8998147572
 20
4.7561565736
 30
0.0
 10
2.8996087294
 20
4.755834801
 30
0.0
 10
2.8993523932
 20
4.7553343425
 30
0.0
 10
2.8991735704
 20
4.7546361002
 30
0.0
 10
2.8991436779
 20
4.7542991214
 30
0.0
 10
2.8991436335
 20
4.7541349673
 30
0.0
  0
SPLINE
  5
593
100
AcDbEntity
  8
ALL_ASSEMBLY_MEMBERS
100
AcDbSpline
 62
7
  6
CONTINUOUS
 70
0
 71
3
 72
11
 73
7
 74
0
 42
0.0000001
 43
0.0000001
 44
0.0000000001
 40
0.0
 40
0.0
 40
0.0
 40
0.0
 40
0.3060187564
 40
0.5741511368
 40
0.8050726517
 40
1.0
 40
1.0
 40
1.0
 40
1.0
 10
3.3065107762
 20
4.7681066079
 30
0.0
 10
3.3074813021
 20
4.7682335039
 30
0.0
 10
3.3092976446
 20
4.7685097966
 30
0.0
 10
3.3118194196
 20
4.769039374
 30
0.0
 10
3.3139553784
 20
4.7696505083
 30
0.0
 10
3.3152266348
 20
4.7701498427
 30
0.0
 10
3.315788581
 20
4.7704198913
 30
0.0
  0
SPLINE
  5
594
100
AcDbEntity
  8
ALL_ASSEMBLY_MEMBERS
100
AcDbSpline
 62
7
  6
CONTINUOUS
 70
0
 71
3
 72
11
 73
7
 74
0
 42
0.0000001
 43
0.0000001
 44
0.0000000001
 40
0.0
 40
0.0
 40
0.0
 40
0.0
 40
0.224087528
 40
0.4610469989
 40
0.7178683141
 40
1.0
 40
1.0
 40
1.0
 40
1.0
 10
2.8991436335
 20
4.9537290339
 30
0.0
 10
2.8991436613
 20
4.9535894819
 30
0.0
 10
2.8991737893
 20
4.9533016957
 30
0.0
 10
2.8993043233
 20
4.95287179
 30
0.0
 10
2.89951928
 20
4.9524370177
 30
0.0
 10
2.8997084026
 20
4.9521585331
 30
0.0
 10
2.8998147572
 20
4.9520186795
 30
0.0
  0
SPLINE
  5
595
100
AcDbEntity
  8
ALL_ASSEMBLY_MEMBERS
100
AcDbSpline
 62
7
  6
CONTINUOUS
 70
0
 71
3
 72
11
 73
7
 74
0
 42
0.0000001
 43
0.0000001
 44
0.0000000001
 40
0.0
 40
0.0
 40
0.0
 40
0.0
 40
0.2113179413
 40
0.4440061746
 40
0.704528292
 40
1.0
 40
1.0
 40
1.0
 40
1.0
 10
2.8902844029
 20
4.9384246986
 30
0.0
 10
2.8898157511
 20
4.9381877831
 30
0.0
 10
2.8888017904
 20
4.9377456848
 30
0.0
 10
2.8871207534
 20
4.9372411063
 30
0.0
 10
2.8851817655
 20
4.9369205845
 30
0.0
 10
2.8837955186
 20
4.9368804539
 30
0.0
 10
2.8830617432
 20
4.936907035
 30
0.0
  0
SPLINE
  5
596
100
AcDbEntity
  8
ALL_ASSEMBLY_MEMBERS
100
AcDbSpline
 62
7
  6
CONTINUOUS
 70
0
 71
3
 72
10
 73
6
 74
0
 42
0.0000001
 43
0.0000001
 44
0.0000000001
 40
0.0
 40
0.0
 40
0.0
 40
0.0
 40
0.228490489
 40
0.4681897914
 40
1.0
 40
1.0
 40
1.0
 40
1.0
 10
3.2991436335
 20
4.7541349673
 30
0.0
 10
3.299143585
 20
4.7542991257
 30
0.0
 10
3.2991136939
 20
4.7546361107
 30
0.0
 10
3.298934881
 20
4.7553343617
 30
0.0
 10
3.2986785305
 20
4.7558348131
 30
0.0
 10
3.2984725099
 20
4.7561565875
 30
0.0
  0
SPLINE
  5
597
100
AcDbEntity
  8
ALL_ASSEMBLY_MEMBERS
100
AcDbSpline
 62
7
  6
CONTINUOUS
 70
0
 71
3
 72
9
 73
5
 74
0
 42
0.0000001
 43
0.0000001
 44
0.0000000001
 40
0.0
 40
0.0
 40
0.0
 40
0.0
 40
0.2517109211
 40
1.0
 40
1.0
 40
1.0
 40
1.0
 10
2.4049125077
 20
4.7530757377
 30
0.0
 10
2.4052142411
 20
4.7530148267
 30
0.0
 10
2.4064200269
 20
4.7528096445
 30
0.0
 10
2.4076516341
 20
4.7527524406
 30
0.0
 10
2.4085654974
 20
4.7527998261
 30
0.0
  0
SPLINE
  5
598
100
AcDbEntity
  8
ALL_ASSEMBLY_MEMBERS
100
AcDbSpline
 62
7
  6
CONTINUOUS
 70
0
 71
3
 72
11
 73
7
 74
0
 42
0.0000001
 43
0.0000001
 44
0.0000000001
 40
0.0
 40
0.0
 40
0.0
 40
0.0
 40
0.2007629234
 40
0.4339379874
 40
0.7002175146
 40
1.0
 40
1.0
 40
1.0
 40
1.0
 10
3.3152255674
 20
4.9369070661
 30
0.0
 10
3.314768021
 20
4.9370957549
 30
0.0
 10
3.3137569225
 20
4.9374501641
 30
0.0
 10
3.3120893213
 20
4.9378999445
 30
0.0
 10
3.3101599769
 20
4.9383038907
 30
0.0
 10
3.3087820564
 20
4.9385273079
 30
0.0
 10
3.3080505663
 20
4.9386326215
 30
0.0
  0
SPLINE
  5
599
100
AcDbEntity
  8
ALL_ASSEMBLY_MEMBERS
100
AcDbSpline
 62
7
  6
CONTINUOUS
 70
0
 71
3
 72
11
 73
7
 74
0
 42
0.0000001
 43
0.0000001
 44
0.0000000001
 40
0.0
 40
0.0
 40
0.0
 40
0.0
 40
0.2821210351
 40
0.5389487645
 40
0.7759131773
 40
1.0
 40
1.0
 40
1.0
 40
1.0
 10
3.2984725099
 20
4.9520186051
 30
0.0
 10
3.2985788605
 20
4.9521584606
 30
0.0
 10
3.2987679758
 20
4.9524369588
 30
0.0
 10
3.2989829469
 20
4.9528717446
 30
0.0
 10
3.2991134333
 20
4.953301687
 30
0.0
 10
3.2991435828
 20
4.9535894778
 30
0.0
 10
3.2991436335
 20
4.9537290339
 30
0.0
  0
SPLINE
  5
59A
100
AcDbEntity
  8
ALL_ASSEMBLY_MEMBERS
100
AcDbSpline
 62
7
  6
CONTINUOUS
 70
0
 71
3
 72
11
 73
7
 74
0
 42
0.0000001
 43
0.0000001
 44
0.0000000001
 40
0.0
 40
0.0
 40
0.0
 40
0.0
 40
0.2998248708
 40
0.5661182362
 40
0.7992789193
 40
1.0
 40
1.0
 40
1.0
 40
1.0
 10
2.8902479729
 20
4.9386342625
 30
0.0
 10
2.8895152337
 20
4.9385288999
 30
0.0
 10
2.8881350151
 20
4.9383053499
 30
0.0
 10
2.8862025351
 20
4.9379010513
 30
0.0
 10
2.8845324102
 20
4.9374508075
 30
0.0
 10
2.8835198571
 20
4.9370959697
 30
0.0
 10
2.8830616983
 20
4.9369070366
 30
0.0
  0
SPLINE
  5
59B
100
AcDbEntity
  8
ALL_ASSEMBLY_MEMBERS
100
AcDbSpline
 62
7
  6
CONTINUOUS
 70
0
 71
3
 72
11
 73
7
 74
0
 42
0.0000001
 43
0.0000001
 44
0.0000000001
 40
0.0
 40
0.0
 40
0.0
 40
0.0
 40
0.2519537413
 40
0.5020268196
 40
0.7510700512
 40
1.0
 40
1.0
 40
1.0
 40
1.0
 10
3.7897219156
 20
4.752799976
 30
0.0
 10
3.7840933408
 20
4.7514215186
 30
0.0
 10
3.7727807746
 20
4.7490556555
 30
0.0
 10
3.7556540821
 20
4.7466988627
 30
0.0
 10
3.7384737218
 20
4.7455513705
 30
0.0
 10
3.7270093663
 20
4.74559333
 30
0.0
 10
3.7212882805
 20
4.7458146364
 30
0.0
  0
SPLINE
  5
59C
100
AcDbEntity
  8
ALL_ASSEMBLY_MEMBERS
100
AcDbSpline
 62
7
  6
CONTINUOUS
 70
0
 71
3
 72
15
 73
11
 74
0
 42
0.0000001
 43
0.0000001
 44
0.0000000001
 40
0.0
 40
0.0
 40
0.0
 40
0.0
 40
0.1371847907
 40
0.2736086077
 40
0.4076424488
 40
0.537798198
 40
0.6630209129
 40
0.7824095719
 40
0.8950594436
 40
1.0
 40
1.0
 40
1.0
 40
1.0
 10
3.7977512505
 20
4.7726363582
 30
0.0
 10
3.7977402887
 20
4.7719172032
 30
0.0
 10
3.7976714044
 20
4.7704833092
 30
0.0
 10
3.7974510482
 20
4.7683566796
 30
0.0
 10
3.7971395772
 20
4.7662788914
 30
0.0
 10
3.7967502003
 20
4.7642740088
 30
0.0
 10
3.7962761736
 20
4.7623660878
 30
0.0
 10
3.7957114982
 20
4.7605787173
 30
0.0
 10
3.7950665434
 20
4.7589325263
 30
0.0
 10
3.7945757026
 20
4.7579013174
 30
0.0
 10
3.7943190117
 20
4.7574146805
 30
0.0
  0
SPLINE
  5
59D
100
AcDbEntity
  8
ALL_ASSEMBLY_MEMBERS
100
AcDbSpline
 62
7
  6
CONTINUOUS
 70
0
 71
3
 72
9
 73
5
 74
0
 42
0.0000001
 43
0.0000001
 44
0.0000000001
 40
0.0
 40
0.0
 40
0.0
 40
0.0
 40
0.5312345024
 40
1.0
 40
1.0
 40
1.0
 40
1.0
 10
3.7943190117
 20
4.7574146805
 30
0.0
 10
3.7940071237
 20
4.7568234003
 30
0.0
 10
3.7933648245
 20
4.7557378408
 30
0.0
 10
3.7925671385
 20
4.7547542892
 30
0.0
 10
3.7921476346
 20
4.7543395824
 30
0.0
  0
LINE
  5
59E
100
AcDbEntity
  8
ALL_ASSEMBLY_MEMBERS
100
AcDbLine
 62
7
  6
CONTINUOUS
 10
3.7921476346
 20
4.7543395824
 11
3.7905202189
 21
4.7531315358
  0
LINE
  5
59F
100
AcDbEntity
  8
ALL_ASSEMBLY_MEMBERS
100
AcDbLine
 62
7
  6
CONTINUOUS
 10
3.7905202189
 20
4.7531315358
 11
3.7897217697
 21
4.7527998261
  0
SPLINE
  5
5A0
100
AcDbEntity
  8
ALL_ASSEMBLY_MEMBERS
100
AcDbSpline
 62
7
  6
CONTINUOUS
 70
0
 71
3
 72
11
 73
7
 74
0
 42
0.0000001
 43
0.0000001
 44
0.0000000001
 40
0.0
 40
0.0
 40
0.0
 40
0.0
 40
0.2500021619
 40
0.5000037835
 40
0.75000336
 40
1.0
 40
1.0
 40
1.0
 40
1.0
 10
3.3269870598
 20
4.7902455643
 30
0.0
 10
3.366216206
 20
4.7887370684
 30
0.0
 10
3.4446731101
 20
4.7856863581
 30
0.0
 10
3.5623598152
 20
4.7811542678
 30
0.0
 10
3.6800513147
 20
4.7767707738
 30
0.0
 10
3.7585171694
 20
4.7739913526
 30
0.0
 10
3.7977512505
 20
4.7726421808
 30
0.0
  0
SPLINE
  5
5A1
100
AcDbEntity
  8
ALL_ASSEMBLY_MEMBERS
100
AcDbSpline
 62
7
  6
CONTINUOUS
 70
0
 71
3
 72
19
 73
15
 74
0
 42
0.0000001
 43
0.0000001
 44
0.0000000001
 40
0.0
 40
0.0
 40
0.0
 40
0.0
 40
0.1627704997
 40
0.3219125544
 40
0.4721759036
 40
0.6097839576
 40
0.6729112535
 40
0.7318890942
 40
0.7865650482
 40
0.8368801869
 40
0.882934725
 40
0.9250656964
 40
0.9638200468
 40
1.0
 40
1.0
 40
1.0
 40
1.0
 10
3.3269870596
 20
4.7902455643
 30
0.0
 10
3.3269480501
 20
4.7890058281
 30
0.0
 10
3.3267724096
 20
4.7865560829
 30
0.0
 10
3.3262312571
 20
4.7829947804
 30
0.0
 10
3.325422989
 20
4.7796809871
 30
0.0
 10
3.3245322093
 20
4.7771522829
 30
0.0
 10
3.3236985041
 20
4.7753558729
 30
0.0
 10
3.3230455795
 20
4.7741760766
 30
0.0
 10
3.3223526982
 20
4.773134391
 30
0.0
 10
3.3216247977
 20
4.7722400048
 30
0.0
 10
3.3208661468
 20
4.7715023159
 30
0.0
 10
3.3200841377
 20
4.770926822
 30
0.0
 10
3.3192860513
 20
4.7705187981
 30
0.0
 10
3.3187329573
 20
4.7703588393
 30
0.0
 10
3.3184612611
 20
4.7703120253
 30
0.0
  0
SPLINE
  5
5A2
100
AcDbEntity
  8
ALL_ASSEMBLY_MEMBERS
100
AcDbSpline
 62
7
  6
CONTINUOUS
 70
0
 71
3
 72
12
 73
8
 74
0
 42
0.0000001
 43
0.0000001
 44
0.0000000001
 40
0.0
 40
0.0
 40
0.0
 40
0.0
 40
0.2501339465
 40
0.3751978147
 40
0.5002404244
 40
0.7502199357
 40
1.0
 40
1.0
 40
1.0
 40
1.0
 10
3.3184612611
 20
4.7703120253
 30
0.0
 10
3.357752538
 20
4.7688121261
 30
0.0
 10
3.416688175
 20
4.7665416484
 30
0.0
 10
3.4952662719
 20
4.7635382594
 30
0.0
 10
3.57382138
 20
4.7605691952
 30
0.0
 10
3.671970291
 20
4.7569388485
 30
0.0
 10
3.7504808738
 20
4.7541547673
 30
0.0
 10
3.7897217544
 20
4.752799816
 30
0.0
  0
SPLINE
  5
5A3
100
AcDbEntity
  8
ALL_ASSEMBLY_MEMBERS
100
AcDbSpline
 62
7
  6
CONTINUOUS
 70
0
 71
3
 72
18
 73
14
 74
0
 42
0.0000001
 43
0.0000001
 44
0.0000000001
 40
0.0
 40
0.0
 40
0.0
 40
0.0
 40
0.1599360038
 40
0.316551856
 40
0.4648711231
 40
0.6013705156
 40
0.7233856824
 40
0.7785504656
 40
0.8297230487
 40
0.8770275896
 40
0.9207984538
 40
0.9615483067
 40
1.0
 40
1.0
 40
1.0
 40
1.0
 10
3.3250798571
 20
4.7903539702
 30
0.0
 10
3.3250382311
 20
4.7891123678
 30
0.0
 10
3.3248480689
 20
4.7866573085
 30
0.0
 10
3.3242591527
 20
4.7830900568
 30
0.0
 10
3.3233777123
 20
4.7797701881
 30
0.0
 10
3.3222418152
 20
4.7768142898
 30
0.0
 10
3.321073479
 20
4.7746642913
 30
0.0
 10
3.3200299808
 20
4.77322714
 30
0.0
 10
3.3192351527
 20
4.7723337842
 30
0.0
 10
3.3184069069
 20
4.7715980923
 30
0.0
 10
3.3175535272
 20
4.7710256005
 30
0.0
 10
3.3166833971
 20
4.7706215606
 30
0.0
 10
3.316083797
 20
4.770465302
 30
0.0
 10
3.3157886068
 20
4.7704198242
 30
0.0
  0
SPLINE
  5
5A4
100
AcDbEntity
  8
ALL_ASSEMBLY_MEMBERS
100
AcDbSpline
 62
7
  6
CONTINUOUS
 70
0
 71
3
 72
9
 73
5
 74
0
 42
0.0000001
 43
0.0000001
 44
0.0000000001
 40
0.0
 40
0.0
 40
0.0
 40
0.0
 40
0.2425723798
 40
1.0
 40
1.0
 40
1.0
 40
1.0
 10
3.3004991697
 20
4.7613321222
 30
0.0
 10
3.3006624047
 20
4.7616438005
 30
0.0
 10
3.3013630058
 20
4.7629137204
 30
0.0
 10
3.3021892037
 20
4.7641167217
 30
0.0
 10
3.3028901305
 20
4.7649626713
 30
0.0
  0
SPLINE
  5
5A5
100
AcDbEntity
  8
ALL_ASSEMBLY_MEMBERS
100
AcDbSpline
 62
7
  6
CONTINUOUS
 70
0
 71
3
 72
13
 73
9
 74
0
 42
0.0000001
 43
0.0000001
 44
0.0000000001
 40
0.0
 40
0.0
 40
0.0
 40
0.0
 40
0.1925608186
 40
0.4077475568
 40
0.5295224605
 40
0.6654087326
 40
0.8203866458
 40
1.0
 40
1.0
 40
1.0
 40
1.0
 10
3.3028901305
 20
4.7649626713
 30
0.0
 10
3.3034868797
 20
4.7656828888
 30
0.0
 10
3.3048724864
 20
4.7671123933
 30
0.0
 10
3.3070036456
 20
4.768591223
 30
0.0
 10
3.3090960321
 20
4.7695514219
 30
0.0
 10
3.3110184446
 20
4.7701417925
 30
0.0
 10
3.3132854871
 20
4.7704880877
 30
0.0
 10
3.3149185982
 20
4.7704857239
 30
0.0
 10
3.315788541
 20
4.7704198887
 30
0.0
  0
SPLINE
  5
5A6
100
AcDbEntity
  8
ALL_ASSEMBLY_MEMBERS
100
AcDbSpline
 62
7
  6
CONTINUOUS
 70
0
 71
3
 72
17
 73
13
 74
0
 42
0.0000001
 43
0.0000001
 44
0.0000000001
 40
0.0
 40
0.0
 40
0.0
 40
0.0
 40
0.2394718627
 40
0.3599995127
 40
0.4813587752
 40
0.5425905196
 40
0.604381539
 40
0.6668842648
 40
0.7303600684
 40
0.7951338569
 40
0.8615181333
 40
1.0
 40
1.0
 40
1.0
 40
1.0
 10
3.3008405465
 20
4.7685286418
 30
0.0
 10
3.3016836758
 20
4.7712045828
 30
0.0
 10
3.3032856829
 20
4.7751414597
 30
0.0
 10
3.3062085905
 20
4.7799754688
 30
0.0
 10
3.3084190743
 20
4.7827717212
 30
0.0
 10
3.310441665
 20
4.7848020795
 30
0.0
 10
3.3121017796
 20
4.7862096065
 30
0.0
 10
3.3139083807
 20
4.7874711568
 30
0.0
 10
3.3158670639
 20
4.7885560396
 30
0.0
 10
3.3179789759
 20
4.7894313228
 30
0.0
 10
3.3210288037
 20
4.790276386
 30
0.0
 10
3.3234603521
 20
4.7904514341
 30
0.0
 10
3.3250798592
 20
4.7903539702
 30
0.0
  0
LINE
  5
5A7
100
AcDbEntity
  8
ALL_ASSEMBLY_MEMBERS
100
AcDbLine
 62
7
  6
CONTINUOUS
 10
3.2984723711
 20
4.756156695
 11
3.2993020878
 21
4.7586852543
  0
LINE
  5
5A8
100
AcDbEntity
  8
ALL_ASSEMBLY_MEMBERS
100
AcDbLine
 62
7
  6
CONTINUOUS
 10
3.2993020878
 20
4.7586852543
 11
3.300499635
 21
4.7613331559
  0
SPLINE
  5
5A9
100
AcDbEntity
  8
ALL_ASSEMBLY_MEMBERS
100
AcDbSpline
 62
7
  6
CONTINUOUS
 70
0
 71
3
 72
11
 73
7
 74
0
 42
0.0000001
 43
0.0000001
 44
0.0000000001
 40
0.0
 40
0.0
 40
0.0
 40
0.0
 40
0.1246958153
 40
0.2488280004
 40
0.4983245256
 40
1.0
 40
1.0
 40
1.0
 40
1.0
 10
3.2984725099
 20
4.756158525
 30
0.0
 10
3.2985111923
 20
4.7566815587
 30
0.0
 10
3.2986062525
 20
4.7577239822
 30
0.0
 10
3.2988551366
 20
4.7598053364
 30
0.0
 10
3.2994406879
 20
4.7634411356
 30
0.0
 10
3.3002059566
 20
4.7665163172
 30
0.0
 10
3.3008405465
 20
4.7685286418
 30
0.0
  0
SPLINE
  5
5AA
100
AcDbEntity
  8
ALL_ASSEMBLY_MEMBERS
100
AcDbSpline
 62
7
  6
CONTINUOUS
 70
0
 71
3
 72
11
 73
7
 74
0
 42
0.0000001
 43
0.0000001
 44
0.0000000001
 40
0.0
 40
0.0
 40
0.0
 40
0.0
 40
0.2145385254
 40
0.4533218487
 40
0.7152368211
 40
1.0
 40
1.0
 40
1.0
 40
1.0
 10
3.7902749659
 20
4.9377491529
 30
0.0
 10
3.7905487708
 20
4.9376664977
 30
0.0
 10
3.7911090376
 20
4.9374288166
 30
0.0
 10
3.7919141317
 20
4.9369111503
 30
0.0
 10
3.7927020477
 20
4.9362156232
 30
0.0
 10
3.7931754848
 20
4.9356583917
 30
0.0
 10
3.7934050799
 20
4.935356062
 30
0.0
  0
LINE
  5
5AB
100
AcDbEntity
  8
ALL_ASSEMBLY_MEMBERS
100
AcDbLine
 62
7
  6
CONTINUOUS
 10
3.7934050799
 20
4.935356062
 11
3.7947501361
 21
4.9331475026
  0
SPLINE
  5
5AC
100
AcDbEntity
  8
ALL_ASSEMBLY_MEMBERS
100
AcDbSpline
 62
7
  6
CONTINUOUS
 70
0
 71
3
 72
15
 73
11
 74
0
 42
0.0000001
 43
0.0000001
 44
0.0000000001
 40
0.0
 40
0.0
 40
0.0
 40
0.0
 40
0.1042872776
 40
0.2164407373
 40
0.3355147313
 40
0.4606213028
 40
0.5908697551
 40
0.7252097559
 40
0.8621361294
 40
1.0
 40
1.0
 40
1.0
 40
1.0
 10
3.7947501361
 20
4.9331475026
 30
0.0
 10
3.794993736
 20
4.9326602291
 30
0.0
 10
3.7954563786
 20
4.931627112
 30
0.0
 10
3.7960551071
 20
4.9299784765
 30
0.0
 10
3.7965694144
 20
4.9281880627
 30
0.0
 10
3.7969897715
 20
4.9262767147
 30
0.0
 10
3.7973227578
 20
4.9242677247
 30
0.0
 10
3.7975758902
 20
4.9221849728
 30
0.0
 10
3.7977356811
 20
4.9200529172
 30
0.0
 10
3.7977621471
 20
4.9186166114
 30
0.0
 10
3.7977512505
 20
4.9178965258
 30
0.0
  0
SPLINE
  5
5AD
100
AcDbEntity
  8
ALL_ASSEMBLY_MEMBERS
100
AcDbSpline
 62
7
  6
CONTINUOUS
 70
0
 71
3
 72
12
 73
8
 74
0
 42
0.0000001
 43
0.0000001
 44
0.0000000001
 40
0.0
 40
0.0
 40
0.0
 40
0.0
 40
0.2501330663
 40
0.3751963909
 40
0.5002386187
 40
0.7502182051
 40
1.0
 40
1.0
 40
1.0
 40
1.0
 10
3.3190173901
 20
4.9369271128
 30
0.0
 10
3.3583096906
 20
4.9370366429
 30
0.0
 10
3.4172475767
 20
4.9372218545
 30
0.0
 10
3.4958278474
 20
4.937444362
 30
0.0
 10
3.5743840987
 20
4.9376326212
 30
0.0
 10
3.6725320305
 20
4.9377865709
 30
0.0
 10
3.7510376959
 20
4.937786663
 30
0.0
 10
3.7902749513
 20
4.9377491626
 30
0.0
  0
SPLINE
  5
5AE
100
AcDbEntity
  8
ALL_ASSEMBLY_MEMBERS
100
AcDbSpline
 62
7
  6
CONTINUOUS
 70
0
 71
3
 72
19
 73
15
 74
0
 42
0.0000001
 43
0.0000001
 44
0.0000000001
 40
0.0
 40
0.0
 40
0.0
 40
0.0
 40
0.0361553939
 40
0.0747084944
 40
0.1165267955
 40
0.1622160951
 40
0.2121620165
 40
0.2665013007
 40
0.325201061
 40
0.3881279367
 40
0.5256166305
 40
0.6761837114
 40
0.8360716404
 40
1.0
 40
1.0
 40
1.0
 40
1.0
 10
3.3190173901
 20
4.9369271128
 30
0.0
 10
3.3192873842
 20
4.9368819678
 30
0.0
 10
3.3198360232
 20
4.9367254535
 30
0.0
 10
3.3206249663
 20
4.936320578
 30
0.0
 10
3.3213928027
 20
4.9357472393
 30
0.0
 10
3.3221323574
 20
4.9350108856
 30
0.0
 10
3.3228364079
 20
4.9341171154
 30
0.0
 10
3.3235010177
 20
4.933075388
 30
0.0
 10
3.3241215516
 20
4.9318948982
 30
0.0
 10
3.3249061185
 20
4.9300952195
 30
0.0
 10
3.3257263481
 20
4.9275607048
 30
0.0
 10
3.3264404468
 20
4.9242404356
 30
0.0
 10
3.3268793921
 20
4.9206714752
 30
0.0
 10
3.3269839986
 20
4.9182190002
 30
0.0
 10
3.3269870599
 20
4.9169778576
 30
0.0
  0
SPLINE
  5
5AF
100
AcDbEntity
  8
ALL_ASSEMBLY_MEMBERS
100
AcDbSpline
 62
7
  6
CONTINUOUS
 70
0
 71
3
 72
11
 73
7
 74
0
 42
0.0000001
 43
0.0000001
 44
0.0000000001
 40
0.0
 40
0.0
 40
0.0
 40
0.0
 40
0.2500001
 40
0.5000001631
 40
0.7500001269
 40
1.0
 40
1.0
 40
1.0
 40
1.0
 10
3.3269870598
 20
4.9169778576
 30
0.0
 10
3.3662173536
 20
4.9170960721
 30
0.0
 10
3.4446778283
 20
4.917365861
 30
0.0
 10
3.5623686782
 20
4.9177258533
 30
0.0
 10
3.6800598888
 20
4.9179364086
 30
0.0
 10
3.7585208371
 20
4.9179331138
 30
0.0
 10
3.7977512505
 20
4.9178907279
 30
0.0
  0
SPLINE
  5
5B0
100
AcDbEntity
  8
ALL_ASSEMBLY_MEMBERS
100
AcDbSpline
 62
7
  6
CONTINUOUS
 70
0
 71
3
 72
18
 73
14
 74
0
 42
0.0000001
 43
0.0000001
 44
0.0000000001
 40
0.0
 40
0.0
 40
0.0
 40
0.0
 40
0.039415784
 40
0.0808630983
 40
0.1250798269
 40
0.1726093637
 40
0.2238246353
 40
0.2788923873
 40
0.4004343772
 40
0.5362997577
 40
0.6840141144
 40
0.8402025784
 40
1.0
 40
1.0
 40
1.0
 40
1.0
 10
3.315225597
 20
4.9369071427
 30
0.0
 10
3.3155287719
 20
4.9368626735
 30
0.0
 10
3.3161428681
 20
4.9367090088
 30
0.0
 10
3.317033026
 20
4.9363071395
 30
0.0
 10
3.3179012813
 20
4.9357359626
 30
0.0
 10
3.3187389008
 20
4.9350008212
 30
0.0
 10
3.3195373441
 20
4.9341073311
 30
0.0
 10
3.3205770962
 20
4.9326704553
 30
0.0
 10
3.3217270521
 20
4.9305178269
 30
0.0
 10
3.3228201509
 20
4.9275565243
 30
0.0
 10
3.3236387617
 20
4.9242304324
 30
0.0
 10
3.3241468552
 20
4.9206564985
 30
0.0
 10
3.3242733386
 20
4.9181993977
 30
0.0
 10
3.3242809353
 20
4.9169571533
 30
0.0
  0
SPLINE
  5
5B1
100
AcDbEntity
  8
ALL_ASSEMBLY_MEMBERS
100
AcDbSpline
 62
7
  6
CONTINUOUS
 70
0
 71
3
 72
17
 73
13
 74
0
 42
0.0000001
 43
0.0000001
 44
0.0000000001
 40
0.0
 40
0.0
 40
0.0
 40
0.0
 40
0.1205993355
 40
0.2414522637
 40
0.362623893
 40
0.4843901975
 40
0.6073773004
 40
0.732797861
 40
0.797122224
 40
0.8628856721
 40
0.9304217856
 40
1.0
 40
1.0
 40
1.0
 40
1.0
 10
3.3007814792
 20
4.939526283
 30
0.0
 10
3.3011896011
 20
4.9381822662
 30
0.0
 10
3.3021135256
 20
4.935522203
 30
0.0
 10
3.3038476524
 20
4.9316645861
 30
0.0
 10
3.3059717894
 20
4.9279886088
 30
0.0
 10
3.3085394653
 20
4.9245713492
 30
0.0
 10
3.3116162851
 20
4.9215257761
 30
0.0
 10
3.3146460931
 20
4.9194554512
 30
0.0
 10
3.3173494943
 20
4.9181974954
 30
0.0
 10
3.3195429758
 20
4.9174800789
 30
0.0
 10
3.3218703861
 20
4.9170364813
 30
0.0
 10
3.3234706135
 20
4.9169481635
 30
0.0
 10
3.3242809382
 20
4.9169571533
 30
0.0
  0
SPLINE
  5
5B2
100
AcDbEntity
  8
ALL_ASSEMBLY_MEMBERS
100
AcDbSpline
 62
7
  6
CONTINUOUS
 70
0
 71
3
 72
9
 73
5
 74
0
 42
0.0000001
 43
0.0000001
 44
0.0000000001
 40
0.0
 40
0.0
 40
0.0
 40
0.0
 40
0.2407301356
 40
1.0
 40
1.0
 40
1.0
 40
1.0
 10
3.3004581838
 20
4.9466267433
 30
0.0
 10
3.3006719148
 20
4.9461906543
 30
0.0
 10
3.3016098753
 20
4.9444053313
 30
0.0
 10
3.3027838539
 20
4.9427339119
 30
0.0
 10
3.303825481
 20
4.9416108492
 30
0.0
  0
SPLINE
  5
5B3
100
AcDbEntity
  8
ALL_ASSEMBLY_MEMBERS
100
AcDbSpline
 62
7
  6
CONTINUOUS
 70
0
 71
3
 72
12
 73
8
 74
0
 42
0.0000001
 43
0.0000001
 44
0.0000000001
 40
0.0
 40
0.0
 40
0.0
 40
0.0
 40
0.1248399979
 40
0.2490360773
 40
0.498556041
 40
0.7489542413
 40
1.0
 40
1.0
 40
1.0
 40
1.0
 10
3.2984725099
 20
4.9520166091
 30
0.0
 10
3.2985103594
 20
4.9514883891
 30
0.0
 10
3.2986037153
 20
4.9504359038
 30
0.0
 10
3.2988471351
 20
4.9483349102
 30
0.0
 10
3.2992544744
 20
4.9457175242
 30
0.0
 10
3.2999144586
 20
4.9425995197
 30
0.0
 10
3.3004718561
 20
4.9405452214
 30
0.0
 10
3.3007814792
 20
4.939526283
 30
0.0
  0
LINE
  5
5B4
100
AcDbEntity
  8
ALL_ASSEMBLY_MEMBERS
100
AcDbLine
 62
7
  6
CONTINUOUS
 10
3.2985312321
 20
4.9517877775
 11
3.2994108622
 21
4.9490541435
  0
LINE
  5
5B5
100
AcDbEntity
  8
ALL_ASSEMBLY_MEMBERS
100
AcDbLine
 62
7
  6
CONTINUOUS
 10
3.2994108622
 20
4.9490541435
 11
3.300458542
 21
4.9466256647
  0
SPLINE
  5
5B6
100
AcDbEntity
  8
ALL_ASSEMBLY_MEMBERS
100
AcDbSpline
 62
7
  6
CONTINUOUS
 70
0
 71
3
 72
15
 73
11
 74
0
 42
0.0000001
 43
0.0000001
 44
0.0000000001
 40
0.0
 40
0.0
 40
0.0
 40
0.0
 40
0.1378638707
 40
0.2747902441
 40
0.4091302449
 40
0.5393786972
 40
0.6644852687
 40
0.7835592627
 40
0.8957127224
 40
1.0
 40
1.0
 40
1.0
 40
1.0
 10
2.4005360166
 20
4.9178965258
 30
0.0
 10
2.40052512
 20
4.9186166114
 30
0.0
 10
2.4005515859
 20
4.9200529172
 30
0.0
 10
2.4007113769
 20
4.9221849728
 30
0.0
 10
2.4009645092
 20
4.9242677247
 30
0.0
 10
2.4012974955
 20
4.9262767147
 30
0.0
 10
2.4017178527
 20
4.9281880627
 30
0.0
 10
2.4022321599
 20
4.9299784765
 30
0.0
 10
2.4028308885
 20
4.931627112
 30
0.0
 10
2.4032935311
 20
4.9326602291
 30
0.0
 10
2.403537131
 20
4.9331475026
 30
0.0
  0
SPLINE
  5
5B7
100
AcDbEntity
  8
ALL_ASSEMBLY_MEMBERS
100
AcDbSpline
 62
7
  6
CONTINUOUS
 70
0
 71
3
 72
9
 73
5
 74
0
 42
0.0000001
 43
0.0000001
 44
0.0000000001
 40
0.0
 40
0.0
 40
0.0
 40
0.0
 40
0.531693168
 40
1.0
 40
1.0
 40
1.0
 40
1.0
 10
2.403537131
 20
4.9331475026
 30
0.0
 10
2.403832404
 20
4.9337381378
 30
0.0
 10
2.4044445928
 20
4.934822304
 30
0.0
 10
2.4052170257
 20
4.9358054668
 30
0.0
 10
2.4056256339
 20
4.93621936
 30
0.0
  0
LINE
  5
5B8
100
AcDbEntity
  8
ALL_ASSEMBLY_MEMBERS
100
AcDbLine
 62
7
  6
CONTINUOUS
 10
2.4056256339
 20
4.93621936
 11
2.4072213832
 21
4.9374223177
  0
LINE
  5
5B9
100
AcDbEntity
  8
ALL_ASSEMBLY_MEMBERS
100
AcDbLine
 62
7
  6
CONTINUOUS
 10
2.4072213832
 20
4.9374223177
 11
2.4080123012
 21
4.9377491529
  0
SPLINE
  5
5BA
100
AcDbEntity
  8
ALL_ASSEMBLY_MEMBERS
100
AcDbSpline
 62
7
  6
CONTINUOUS
 70
0
 71
3
 72
11
 73
7
 74
0
 42
0.0000001
 43
0.0000001
 44
0.0000000001
 40
0.0
 40
0.0
 40
0.0
 40
0.0
 40
0.2500000997
 40
0.5000001632
 40
0.7500001267
 40
1.0
 40
1.0
 40
1.0
 40
1.0
 10
2.8713002073
 20
4.9169778576
 30
0.0
 10
2.8320699135
 20
4.9170960621
 30
0.0
 10
2.7536094388
 20
4.9173658696
 30
0.0
 10
2.6359185888
 20
4.9177258408
 30
0.0
 10
2.5182273783
 20
4.917936417
 30
0.0
 10
2.43976643
 20
4.9179331914
 30
0.0
 10
2.4005360166
 20
4.9178908056
 30
0.0
  0
SPLINE
  5
5BB
100
AcDbEntity
  8
ALL_ASSEMBLY_MEMBERS
100
AcDbSpline
 62
7
  6
CONTINUOUS
 70
0
 71
3
 72
19
 73
15
 74
0
 42
0.0000001
 43
0.0000001
 44
0.0000000001
 40
0.0
 40
0.0
 40
0.0
 40
0.0
 40
0.1639283602
 40
0.3238162893
 40
0.4743833701
 40
0.6118720636
 40
0.6747989392
 40
0.7334986995
 40
0.7878379835
 40
0.8377839049
 40
0.8834732044
 40
0.9252915055
 40
0.963844606
 40
1.0
 40
1.0
 40
1.0
 40
1.0
 10
2.8713002072
 20
4.9169778576
 30
0.0
 10
2.8713032685
 20
4.9182190002
 30
0.0
 10
2.8714078751
 20
4.9206714752
 30
0.0
 10
2.8718468204
 20
4.9242404355
 30
0.0
 10
2.872560919
 20
4.9275607046
 30
0.0
 10
2.8733811487
 20
4.9300952193
 30
0.0
 10
2.8741657156
 20
4.9318948979
 30
0.0
 10
2.8747862495
 20
4.9330753876
 30
0.0
 10
2.8754508593
 20
4.9341171151
 30
0.0
 10
2.8761549098
 20
4.9350108853
 30
0.0
 10
2.8768944644
 20
4.9357472389
 30
0.0
 10
2.8776623008
 20
4.9363205776
 30
0.0
 10
2.8784512439
 20
4.936725453
 30
0.0
 10
2.8789998829
 20
4.9368819674
 30
0.0
 10
2.879269877
 20
4.9369271124
 30
0.0
  0
SPLINE
  5
5BC
100
AcDbEntity
  8
ALL_ASSEMBLY_MEMBERS
100
AcDbSpline
 62
7
  6
CONTINUOUS
 70
0
 71
3
 72
12
 73
8
 74
0
 42
0.0000001
 43
0.0000001
 44
0.0000000001
 40
0.0
 40
0.0
 40
0.0
 40
0.0
 40
0.2501330662
 40
0.3751963908
 40
0.5002386184
 40
0.7502182048
 40
1.0
 40
1.0
 40
1.0
 40
1.0
 10
2.879269877
 20
4.9369271124
 30
0.0
 10
2.8399775764
 20
4.9370366366
 30
0.0
 10
2.7810396904
 20
4.9372218527
 30
0.0
 10
2.7024594197
 20
4.9374443669
 30
0.0
 10
2.6239031683
 20
4.9376326256
 30
0.0
 10
2.5257552365
 20
4.9377865707
 30
0.0
 10
2.4472495709
 20
4.9377866621
 30
0.0
 10
2.4080123155
 20
4.9377491621
 30
0.0
  0
SPLINE
  5
5BD
100
AcDbEntity
  8
ALL_ASSEMBLY_MEMBERS
100
AcDbSpline
 62
7
  6
CONTINUOUS
 70
0
 71
3
 72
18
 73
14
 74
0
 42
0.0000001
 43
0.0000001
 44
0.0000000001
 40
0.0
 40
0.0
 40
0.0
 40
0.0
 40
0.1597974247
 40
0.3159859036
 40
0.4637002796
 40
0.5995656768
 40
0.7211076744
 40
0.7761754252
 40
0.8273906916
 40
0.8749202192
 40
0.9191369347
 40
0.9605842332
 40
1.0
 40
1.0
 40
1.0
 40
1.0
 10
2.8740063296
 20
4.916957138
 30
0.0
 10
2.8740139258
 20
4.9181993833
 30
0.0
 10
2.8741404083
 20
4.9206564861
 30
0.0
 10
2.8746485008
 20
4.924230423
 30
0.0
 10
2.875467111
 20
4.9275565181
 30
0.0
 10
2.8765602096
 20
4.9305178236
 30
0.0
 10
2.8777101657
 20
4.9326704541
 30
0.0
 10
2.878749918
 20
4.9341073314
 30
0.0
 10
2.8795483615
 20
4.9350008223
 30
0.0
 10
2.8803859813
 20
4.9357359642
 30
0.0
 10
2.881254237
 20
4.9363071416
 30
0.0
 10
2.8821443951
 20
4.9367090109
 30
0.0
 10
2.8827584916
 20
4.9368626756
 30
0.0
 10
2.8830616666
 20
4.9369071447
 30
0.0
  0
SPLINE
  5
5BE
100
AcDbEntity
  8
ALL_ASSEMBLY_MEMBERS
100
AcDbSpline
 62
7
  6
CONTINUOUS
 70
0
 71
3
 72
9
 73
5
 74
0
 42
0.0000001
 43
0.0000001
 44
0.0000000001
 40
0.0
 40
0.0
 40
0.0
 40
0.0
 40
0.251866102
 40
1.0
 40
1.0
 40
1.0
 40
1.0
 10
3.7939169771
 20
4.9373370469
 30
0.0
 10
3.7936173923
 20
4.9374092665
 30
0.0
 10
3.7924194889
 20
4.9376594142
 30
0.0
 10
3.7911902356
 20
4.9377625085
 30
0.0
 10
3.7902749659
 20
4.9377491529
 30
0.0
  0
SPLINE
  5
5BF
100
AcDbEntity
  8
ALL_ASSEMBLY_MEMBERS
100
AcDbSpline
 62
7
  6
CONTINUOUS
 70
0
 71
3
 72
9
 73
5
 74
0
 42
0.0000001
 43
0.0000001
 44
0.0000000001
 40
0.0
 40
0.0
 40
0.0
 40
0.0
 40
0.2422607236
 40
1.0
 40
1.0
 40
1.0
 40
1.0
 10
2.897829175
 20
4.946626628
 30
0.0
 10
2.8976424966
 20
4.9462457146
 30
0.0
 10
2.8968337254
 20
4.9446930423
 30
0.0
 10
2.895850326
 20
4.9432259873
 30
0.0
 10
2.8949941372
 20
4.9422124104
 30
0.0
  0
SPLINE
  5
5C0
100
AcDbEntity
  8
ALL_ASSEMBLY_MEMBERS
100
AcDbSpline
 62
7
  6
CONTINUOUS
 70
0
 71
3
 72
11
 73
7
 74
0
 42
0.0000001
 43
0.0000001
 44
0.0000000001
 40
0.0
 40
0.0
 40
0.0
 40
0.0
 40
0.2487243018
 40
0.4978597146
 40
0.748073929
 40
1.0
 40
1.0
 40
1.0
 40
1.0
 10
3.7309434075
 20
4.9449076086
 30
0.0
 10
3.7359094971
 20
4.9449152002
 30
0.0
 10
3.7458529845
 20
4.9446278128
 30
0.0
 10
3.760737887
 20
4.9432877738
 30
0.0
 10
3.7755775191
 20
4.9410395753
 30
0.0
 10
3.7853891259
 20
4.9389441765
 30
0.0
 10
3.7902750957
 20
4.9377490078
 30
0.0
  0
SPLINE
  5
5C1
100
AcDbEntity
  8
ALL_ASSEMBLY_MEMBERS
100
AcDbSpline
 62
7
  6
CONTINUOUS
 70
0
 71
3
 72
9
 73
5
 74
0
 42
0.0000001
 43
0.0000001
 44
0.0000000001
 40
0.0
 40
0.0
 40
0.0
 40
0.0
 40
0.25171113
 40
1.0
 40
1.0
 40
1.0
 40
1.0
 10
3.7933763577
 20
4.7530760606
 30
0.0
 10
3.793074497
 20
4.75301509
 30
0.0
 10
3.7918681964
 20
4.7528097027
 30
0.0
 10
3.7906360376
 20
4.7527524202
 30
0.0
 10
3.7897217697
 20
4.7527998261
 30
0.0
  0
SPLINE
  5
5C2
100
AcDbEntity
  8
ALL_ASSEMBLY_MEMBERS
100
AcDbSpline
 62
7
  6
CONTINUOUS
 70
0
 71
3
 72
17
 73
13
 74
0
 42
0.0000001
 43
0.0000001
 44
0.0000000001
 40
0.0
 40
0.0
 40
0.0
 40
0.0
 40
0.1206016633
 40
0.2414509599
 40
0.3626186103
 40
0.484382374
 40
0.6073687446
 40
0.732790146
 40
0.7971169059
 40
0.8628820216
 40
0.9304207993
 40
1.0
 40
1.0
 40
1.0
 40
1.0
 10
2.89750008
 20
4.9395077337
 30
0.0
 10
2.8970919384
 20
4.9381645097
 30
0.0
 10
2.8961674684
 20
4.9355062899
 30
0.0
 10
2.8944329334
 20
4.9316515108
 30
0.0
 10
2.8923087104
 20
4.9279784396
 30
0.0
 10
2.8897412922
 20
4.9245640654
 30
0.0
 10
2.8866651854
 20
4.9215212366
 30
0.0
 10
2.8836364485
 20
4.9194529411
 30
0.0
 10
2.8809342417
 20
4.9181962254
 30
0.0
 10
2.878741808
 20
4.9174794918
 30
0.0
 10
2.8764155922
 20
4.9170363512
 30
0.0
 10
2.8748162117
 20
4.9169481323
 30
0.0
 10
2.8740063257
 20
4.916957138
 30
0.0
  0
LINE
  5
5C3
100
AcDbEntity
  8
ALL_ASSEMBLY_MEMBERS
100
AcDbLine
 62
7
  6
CONTINUOUS
 10
2.8997646426
 20
4.9518253926
 11
2.8988598277
 21
4.9490119946
  0
LINE
  5
5C4
100
AcDbEntity
  8
ALL_ASSEMBLY_MEMBERS
100
AcDbLine
 62
7
  6
CONTINUOUS
 10
2.8988598277
 20
4.9490119946
 11
2.8978286908
 21
4.9466260779
  0
SPLINE
  5
5C5
100
AcDbEntity
  8
ALL_ASSEMBLY_MEMBERS
100
AcDbSpline
 62
7
  6
CONTINUOUS
 70
0
 71
3
 72
10
 73
6
 74
0
 42
0.0000001
 43
0.0000001
 44
0.0000000001
 40
0.0
 40
0.0
 40
0.0
 40
0.0
 40
0.2488802989
 40
0.4985693276
 40
1.0
 40
1.0
 40
1.0
 40
1.0
 10
2.8998147572
 20
4.9520169002
 30
0.0
 10
2.8997366631
 20
4.9509626444
 30
0.0
 10
2.8995204986
 20
4.9488546212
 30
0.0
 10
2.8988671111
 20
4.9446565479
 30
0.0
 10
2.89811956
 20
4.9415455322
 30
0.0
 10
2.89750008
 20
4.9395077337
 30
0.0
  0
SPLINE
  5
5C6
100
AcDbEntity
  8
ALL_ASSEMBLY_MEMBERS
100
AcDbSpline
 62
7
  6
CONTINUOUS
 70
0
 71
3
 72
11
 73
7
 74
0
 42
0.0000001
 43
0.0000001
 44
0.0000000001
 40
0.0
 40
0.0
 40
0.0
 40
0.0
 40
0.2139121716
 40
0.4527286604
 40
0.71495072
 40
1.0
 40
1.0
 40
1.0
 40
1.0
 10
2.4085654974
 20
4.7527998261
 30
0.0
 10
2.4082893125
 20
4.7528848686
 30
0.0
 10
2.4077230158
 20
4.7531262478
 30
0.0
 10
2.4069051369
 20
4.7536464123
 30
0.0
 10
2.406099098
 20
4.7543434552
 30
0.0
 10
2.4056108594
 20
4.7549016964
 30
0.0
 10
2.4053730937
 20
4.7552046097
 30
0.0
  0
LINE
  5
5C7
100
AcDbEntity
  8
ALL_ASSEMBLY_MEMBERS
100
AcDbLine
 62
7
  6
CONTINUOUS
 10
2.4053730937
 20
4.7552046097
 11
2.4039682555
 21
4.7574146805
  0
SPLINE
  5
5C8
100
AcDbEntity
  8
ALL_ASSEMBLY_MEMBERS
100
AcDbSpline
 62
7
  6
CONTINUOUS
 70
0
 71
3
 72
15
 73
11
 74
0
 42
0.0000001
 43
0.0000001
 44
0.0000000001
 40
0.0
 40
0.0
 40
0.0
 40
0.0
 40
0.1049405563
 40
0.2175904279
 40
0.336979087
 40
0.462201802
 40
0.5923575513
 40
0.7263913924
 40
0.8628152094
 40
1.0
 40
1.0
 40
1.0
 40
1.0
 10
2.4039682555
 20
4.7574146805
 30
0.0
 10
2.4037115646
 20
4.7579013175
 30
0.0
 10
2.4032207237
 20
4.7589325264
 30
0.0
 10
2.402575769
 20
4.7605787173
 30
0.0
 10
2.4020110935
 20
4.7623660878
 30
0.0
 10
2.4015370668
 20
4.7642740088
 30
0.0
 10
2.40114769
 20
4.7662788914
 30
0.0
 10
2.400836219
 20
4.7683566796
 30
0.0
 10
2.4006158627
 20
4.7704833092
 30
0.0
 10
2.4005469784
 20
4.7719172032
 30
0.0
 10
2.4005360166
 20
4.7726363582
 30
0.0
  0
SPLINE
  5
5C9
100
AcDbEntity
  8
ALL_ASSEMBLY_MEMBERS
100
AcDbSpline
 62
7
  6
CONTINUOUS
 70
0
 71
3
 72
12
 73
8
 74
0
 42
0.0000001
 43
0.0000001
 44
0.0000000001
 40
0.0
 40
0.0
 40
0.0
 40
0.0
 40
0.2501339467
 40
0.3751978148
 40
0.5002404246
 40
0.7502199359
 40
1.0
 40
1.0
 40
1.0
 40
1.0
 10
2.879826006
 20
4.7703120243
 30
0.0
 10
2.8405347293
 20
4.7688121195
 30
0.0
 10
2.7815990921
 20
4.7665416465
 30
0.0
 10
2.7030209951
 20
4.7635382641
 30
0.0
 10
2.6244658869
 20
4.7605691996
 30
0.0
 10
2.5263169762
 20
4.7569388483
 30
0.0
 10
2.4478063936
 20
4.7541547663
 30
0.0
 10
2.408565513
 20
4.7527998154
 30
0.0
  0
SPLINE
  5
5CA
100
AcDbEntity
  8
ALL_ASSEMBLY_MEMBERS
100
AcDbSpline
 62
7
  6
CONTINUOUS
 70
0
 71
3
 72
19
 73
15
 74
0
 42
0.0000001
 43
0.0000001
 44
0.0000000001
 40
0.0
 40
0.0
 40
0.0
 40
0.0
 40
0.036179953
 40
0.0749343033
 40
0.1170652748
 40
0.163119813
 40
0.2134349519
 40
0.2681109062
 40
0.3270887472
 40
0.3902160433
 40
0.5278240978
 40
0.6780874472
 40
0.8372295016
 40
1.0
 40
1.0
 40
1.0
 40
1.0
 10
2.879826006
 20
4.7703120243
 30
0.0
 10
2.8795543097
 20
4.7703588383
 30
0.0
 10
2.8790012158
 20
4.7705187971
 30
0.0
 10
2.8782031294
 20
4.7709268211
 30
0.0
 10
2.8774211201
 20
4.7715023149
 30
0.0
 10
2.8766624693
 20
4.772240004
 30
0.0
 10
2.8759345688
 20
4.7731343902
 30
0.0
 10
2.8752416874
 20
4.7741760759
 30
0.0
 10
2.8745887629
 20
4.7753558722
 30
0.0
 10
2.8737550576
 20
4.7771522823
 30
0.0
 10
2.8728642779
 20
4.7796809867
 30
0.0
 10
2.8720560098
 20
4.7829947801
 30
0.0
 10
2.8715148573
 20
4.7865560828
 30
0.0
 10
2.8713392169
 20
4.7890058281
 30
0.0
 10
2.8713002074
 20
4.7902455643
 30
0.0
  0
SPLINE
  5
5CB
100
AcDbEntity
  8
ALL_ASSEMBLY_MEMBERS
100
AcDbSpline
 62
7
  6
CONTINUOUS
 70
0
 71
3
 72
11
 73
7
 74
0
 42
0.0000001
 43
0.0000001
 44
0.0000000001
 40
0.0
 40
0.0
 40
0.0
 40
0.0
 40
0.2500021624
 40
0.500003784
 40
0.7500033606
 40
1.0
 40
1.0
 40
1.0
 40
1.0
 10
2.8713002073
 20
4.7902455643
 30
0.0
 10
2.8320710616
 20
4.7887370589
 30
0.0
 10
2.7536141571
 20
4.7856863665
 30
0.0
 10
2.6359274535
 20
4.7811542554
 30
0.0
 10
2.5182359539
 20
4.7767707822
 30
0.0
 10
2.4397700974
 20
4.7739914292
 30
0.0
 10
2.4005360166
 20
4.7726422575
 30
0.0
  0
SPLINE
  5
5CC
100
AcDbEntity
  8
ALL_ASSEMBLY_MEMBERS
100
AcDbSpline
 62
7
  6
CONTINUOUS
 70
0
 71
3
 72
18
 73
14
 74
0
 42
0.0000001
 43
0.0000001
 44
0.0000000001
 40
0.0
 40
0.0
 40
0.0
 40
0.0
 40
0.0384516767
 40
0.0792015135
 40
0.1229723636
 40
0.1702768938
 40
0.2214494701
 40
0.2766142504
 40
0.3986294221
 40
0.5351288304
 40
0.6834481179
 40
0.8400639885
 40
1.0
 40
1.0
 40
1.0
 40
1.0
 10
2.8824986562
 20
4.7704198236
 30
0.0
 10
2.882203466
 20
4.7704653013
 30
0.0
 10
2.8816038657
 20
4.7706215596
 30
0.0
 10
2.8807337352
 20
4.7710255994
 30
0.0
 10
2.8798803552
 20
4.7715980914
 30
0.0
 10
2.879052109
 20
4.7723337837
 30
0.0
 10
2.8782572807
 20
4.77322714
 30
0.0
 10
2.8772137821
 20
4.7746642925
 30
0.0
 10
2.8760454456
 20
4.7768142928
 30
0.0
 10
2.8749095485
 20
4.7797701937
 30
0.0
 10
2.8740281085
 20
4.7830900653
 30
0.0
 10
2.873439193
 20
4.7866573199
 30
0.0
 10
2.8732490316
 20
4.7891123811
 30
0.0
 10
2.8732074061
 20
4.7903539843
 30
0.0
  0
SPLINE
  5
5CD
100
AcDbEntity
  8
ALL_ASSEMBLY_MEMBERS
100
AcDbSpline
 62
7
  6
CONTINUOUS
 70
0
 71
3
 72
18
 73
14
 74
0
 42
0.0000001
 43
0.0000001
 44
0.0000000001
 40
0.0
 40
0.0
 40
0.0
 40
0.0
 40
0.1196931034
 40
0.2397579879
 40
0.3602978726
 40
0.4816424604
 40
0.6045103596
 40
0.6669816842
 40
0.7304200005
 40
0.7951257103
 40
0.8614284121
 40
0.9296412287
 40
1.0
 40
1.0
 40
1.0
 40
1.0
 10
2.897442434
 20
4.7685421594
 30
0.0
 10
2.8970207561
 20
4.7698796404
 30
0.0
 10
2.8960646608
 20
4.7725254062
 30
0.0
 10
2.8942696486
 20
4.7763532829
 30
0.0
 10
2.8920690144
 20
4.7799894463
 30
0.0
 10
2.8894087197
 20
4.7833502608
 30
0.0
 10
2.8867619384
 20
4.7858089065
 30
0.0
 10
2.8843673553
 20
4.7874782619
 30
0.0
 10
2.8824093221
 20
4.7885617144
 30
0.0
 10
2.8802990976
 20
4.7894341937
 30
0.0
 10
2.8780431369
 20
4.7900574638
 30
0.0
 10
2.8756596048
 20
4.7903932952
 30
0.0
 10
2.874030289
 20
4.7904032054
 30
0.0
 10
2.8732074041
 20
4.7903539843
 30
0.0
  0
SPLINE
  5
5CE
100
AcDbEntity
  8
ALL_ASSEMBLY_MEMBERS
100
AcDbSpline
 62
7
  6
CONTINUOUS
 70
0
 71
3
 72
9
 73
5
 74
0
 42
0.0000001
 43
0.0000001
 44
0.0000000001
 40
0.0
 40
0.0
 40
0.0
 40
0.0
 40
0.2418460688
 40
1.0
 40
1.0
 40
1.0
 40
1.0
 10
2.8977880785
 20
4.7613321986
 30
0.0
 10
2.8976116188
 20
4.7616690769
 30
0.0
 10
2.8968491149
 20
4.7630441312
 30
0.0
 10
2.8959390413
 20
4.7643408975
 30
0.0
 10
2.8951595055
 20
4.7652428985
 30
0.0
  0
SPLINE
  5
5CF
100
AcDbEntity
  8
ALL_ASSEMBLY_MEMBERS
100
AcDbSpline
 62
7
  6
CONTINUOUS
 70
0
 71
3
 72
14
 73
10
 74
0
 42
0.0000001
 43
0.0000001
 44
0.0000000001
 40
0.0
 40
0.0
 40
0.0
 40
0.0
 40
0.1928920403
 40
0.2971827027
 40
0.4090279365
 40
0.531113431
 40
0.6670947426
 40
0.8216661967
 40
1.0
 40
1.0
 40
1.0
 40
1.0
 10
2.8951595055
 20
4.7652428985
 30
0.0
 10
2.8945621016
 20
4.7659341546
 30
0.0
 10
2.8935551325
 20
4.7669302557
 30
0.0
 10
2.8919999725
 20
4.7680899606
 30
0.0
 10
2.8906181792
 20
4.7689074509
 30
0.0
 10
2.8890111557
 20
4.7696165914
 30
0.0
 10
2.8871299138
 20
4.7701684621
 30
0.0
 10
2.8849250266
 20
4.7704901395
 30
0.0
 10
2.8833409837
 20
4.7704838035
 30
0.0
 10
2.8824987247
 20
4.7704199163
 30
0.0
  0
SPLINE
  5
5D0
100
AcDbEntity
  8
ALL_ASSEMBLY_MEMBERS
100
AcDbSpline
 62
7
  6
CONTINUOUS
 70
0
 71
3
 72
12
 73
8
 74
0
 42
0.0000001
 43
0.0000001
 44
0.0000000001
 40
0.0
 40
0.0
 40
0.0
 40
0.0
 40
0.1246848448
 40
0.2487753007
 40
0.4982104485
 40
0.7486911875
 40
1.0
 40
1.0
 40
1.0
 40
1.0
 10
2.8998147572
 20
4.7561580083
 30
0.0
 10
2.8997761831
 20
4.7566817292
 30
0.0
 10
2.8996808491
 20
4.7577253739
 30
0.0
 10
2.8994315984
 20
4.759809024
 30
0.0
 10
2.8990132516
 20
4.7624051697
 30
0.0
 10
2.898334593
 20
4.76549712
 30
0.0
 10
2.8977608775
 20
4.7675327526
 30
0.0
 10
2.897442434
 20
4.7685421594
 30
0.0
  0
LINE
  5
5D1
100
AcDbEntity
  8
ALL_ASSEMBLY_MEMBERS
100
AcDbLine
 62
7
  6
CONTINUOUS
 10
2.8998148599
 20
4.7561566539
 11
2.8989841588
 21
4.7586876281
  0
LINE
  5
5D2
100
AcDbEntity
  8
ALL_ASSEMBLY_MEMBERS
100
AcDbLine
 62
7
  6
CONTINUOUS
 10
2.8989841588
 20
4.7586876281
 11
2.8977875841
 21
4.7613330147
  0
SPLINE
  5
5D3
100
AcDbEntity
  8
ALL_ASSEMBLY_MEMBERS
100
AcDbSpline
 62
7
  6
CONTINUOUS
 70
0
 71
3
 72
11
 73
7
 74
0
 42
0.0000001
 43
0.0000001
 44
0.0000000001
 40
0.0
 40
0.0
 40
0.0
 40
0.0
 40
0.2519260747
 40
0.5021404829
 40
0.7512759428
 40
1.0
 40
1.0
 40
1.0
 40
1.0
 10
2.4080121486
 20
4.9377489953
 30
0.0
 10
2.4128976421
 20
4.9389440474
 30
0.0
 10
2.4227082867
 20
4.9410392784
 30
0.0
 10
2.4375464522
 20
4.9432874096
 30
0.0
 10
2.4524298817
 20
4.9446275435
 30
0.0
 10
2.4623723888
 20
4.9449150962
 30
0.0
 10
2.4673379895
 20
4.944907617
 30
0.0
  0
LINE
  5
5D4
100
AcDbEntity
  8
ALL_ASSEMBLY_MEMBERS
100
AcDbLine
 62
7
  6
CONTINUOUS
 10
3.2149076425
 20
4.7726363582
 11
3.217307169
 21
4.7527810569
  0
LINE
  5
5D5
100
AcDbEntity
  8
ALL_ASSEMBLY_MEMBERS
100
AcDbLine
 62
7
  6
CONTINUOUS
 10
3.2129848947
 20
4.9520188194
 11
3.1853555103
 21
4.9410445113
  0
LINE
  5
5D6
100
AcDbEntity
  8
ALL_ASSEMBLY_MEMBERS
100
AcDbLine
 62
7
  6
CONTINUOUS
 10
3.2149076425
 20
4.9178965258
 11
3.2173196036
 21
4.937750541
  0
LINE
  5
5D7
100
AcDbEntity
  8
ALL_ASSEMBLY_MEMBERS
100
AcDbLine
 62
7
  6
CONTINUOUS
 10
2.9833796246
 20
4.9178965258
 11
2.9809676641
 21
4.937750541
  0
SPLINE
  5
5D8
100
AcDbEntity
  8
ALL_ASSEMBLY_MEMBERS
100
AcDbSpline
 62
7
  6
CONTINUOUS
 70
0
 71
3
 72
9
 73
5
 74
0
 42
0.0000001
 43
0.0000001
 44
0.0000000001
 40
0.0
 40
0.0
 40
0.0
 40
0.0
 40
0.2518660538
 40
1.0
 40
1.0
 40
1.0
 40
1.0
 10
2.4043702675
 20
4.9373370415
 30
0.0
 10
2.4046698541
 20
4.9374092619
 30
0.0
 10
2.4058677647
 20
4.9376594124
 30
0.0
 10
2.4070970257
 20
4.9377625082
 30
0.0
 10
2.4080123012
 20
4.9377491529
 30
0.0
  0
LINE
  5
5D9
100
AcDbEntity
  8
ALL_ASSEMBLY_MEMBERS
100
AcDbLine
 62
7
  6
CONTINUOUS
 10
2.9853021637
 20
4.9520187831
 11
3.0129313562
 21
4.9410447601
  0
SPLINE
  5
5DA
100
AcDbEntity
  8
ALL_FEATURES
100
AcDbSpline
 62
7
  6
CONTINUOUS
 70
0
 71
3
 72
9
 73
5
 74
0
 42
0.0000001
 43
0.0000001
 44
0.0000000001
 40
0.0
 40
0.0
 40
0.0
 40
0.0
 40
0.5004528219
 40
1.0
 40
1.0
 40
1.0
 40
1.0
 10
5.4289623559
 20
2.6555878949
 30
0.0
 10
5.432979627
 20
2.6688065212
 30
0.0
 10
5.4390562677
 20
2.6958355835
 30
0.0
 10
5.4418765285
 20
2.7233496084
 30
0.0
 10
5.4426451546
 20
2.7371187612
 30
0.0
  0
SPLINE
  5
5DB
100
AcDbEntity
  8
ALL_FEATURES
100
AcDbSpline
 62
7
  6
CONTINUOUS
 70
0
 71
3
 72
10
 73
6
 74
0
 42
0.0000001
 43
0.0000001
 44
0.0000000001
 40
0.0
 40
0.0
 40
0.0
 40
0.0
 40
0.250001431
 40
0.5000040489
 40
1.0
 40
1.0
 40
1.0
 40
1.0
 10
5.4666104216
 20
3.0087743015
 30
0.0
 10
5.4646369454
 20
2.9863545463
 30
0.0
 10
5.4605790483
 20
2.9415246485
 30
0.0
 10
5.4523254972
 20
2.8518790613
 30
0.0
 10
5.4463604899
 20
2.7846216928
 30
0.0
 10
5.4428487357
 20
2.739746625
 30
0.0
  0
SPLINE
  5
5DC
100
AcDbEntity
  8
ALL_FEATURES
100
AcDbSpline
 62
7
  6
CONTINUOUS
 70
0
 71
3
 72
10
 73
6
 74
0
 42
0.0000001
 43
0.0000001
 44
0.0000000001
 40
0.0
 40
0.0
 40
0.0
 40
0.0
 40
0.2500015215
 40
0.5000042133
 40
1.0
 40
1.0
 40
1.0
 40
1.0
 10
4.6686768455
 20
3.0087743016
 30
0.0
 10
4.6706642225
 20
2.9861966262
 30
0.0
 10
4.6747514853
 20
2.9410510244
 30
0.0
 10
4.6830635189
 20
2.8507740764
 30
0.0
 10
4.6890634581
 20
2.783042261
 30
0.0
 10
4.6925866668
 20
2.7378500965
 30
0.0
  0
SPLINE
  5
5DD
100
AcDbEntity
  8
0
100
AcDbSpline
 62
7
  6
CONTINUOUS
 70
0
 71
3
 72
9
 73
5
 74
0
 42
0.0000001
 43
0.0000001
 44
0.0000000001
 40
0.0
 40
0.0
 40
0.0
 40
0.0
 40
0.2499747269
 40
1.0
 40
1.0
 40
1.0
 40
1.0
 10
4.6943372352
 20
2.7147274096
 30
0.0
 10
4.6948038084
 20
2.7098690811
 30
0.0
 10
4.6969344871
 20
2.6904609707
 30
0.0
 10
4.7001895115
 20
2.6711691849
 30
0.0
 10
4.7033597932
 20
2.6568724533
 30
0.0
  0
SPLINE
  5
5DE
100
AcDbEntity
  8
0
100
AcDbSpline
 62
7
  6
CONTINUOUS
 70
0
 71
3
 72
48
 73
44
 74
0
 42
0.0000001
 43
0.0000001
 44
0.0000000001
 40
0.0
 40
0.0
 40
0.0
 40
0.0
 40
0.0309897939
 40
0.0619895493
 40
0.0930305272
 40
0.1241070917
 40
0.1396662058
 40
0.1552402134
 40
0.1708271345
 40
0.1864254609
 40
0.2020349868
 40
0.2176576955
 40
0.2332947372
 40
0.248944156
 40
0.2646013819
 40
0.280265618
 40
0.3116194916
 40
0.3430003409
 40
0.3743943408
 40
0.4058087616
 40
0.4372188477
 40
0.5000343718
 40
0.5314577239
 40
0.5628694421
 40
0.5942805925
 40
0.6256936113
 40
0.6570850159
 40
0.6884646923
 40
0.719813303
 40
0.7354754638
 40
0.7511313147
 40
0.766778169
 40
0.7824119261
 40
0.7980313373
 40
0.8136381551
 40
0.8292338905
 40
0.8448179652
 40
0.8603886375
 40
0.8759444263
 40
0.8914894455
 40
0.9070267797
 40
0.9380620914
 40
1.0
 40
1.0
 40
1.0
 40
1.0
 10
4.7045803261
 20
2.6515306646
 30
0.0
 10
4.7068729155
 20
2.6417871544
 30
0.0
 10
4.7121558329
 20
2.6224515392
 30
0.0
 10
4.7223726571
 20
2.5941561158
 30
0.0
 10
4.7350773514
 20
2.5668484671
 30
0.0
 10
4.7478110152
 20
2.5451776964
 30
0.0
 10
4.7593073326
 20
2.5286882205
 30
0.0
 10
4.7685859661
 20
2.516778162
 30
0.0
 10
4.7784907224
 20
2.5053671688
 30
0.0
 10
4.788998516
 20
2.4944925678
 30
0.0
 10
4.8000878585
 20
2.484194511
 30
0.0
 10
4.8117246541
 20
2.4745002981
 30
0.0
 10
4.823861198
 20
2.4654187126
 30
0.0
 10
4.8364533377
 20
2.4569607516
 30
0.0
 10
4.8494593449
 20
2.44913711
 30
0.0
 10
4.8672980635
 20
2.4395526954
 30
0.0
 10
4.8904143891
 20
2.4291260716
 30
0.0
 10
4.9191122789
 20
2.4189912608
 30
0.0
 10
4.9485175727
 20
2.4110837193
 30
0.0
 10
4.9784044854
 20
2.4052309813
 30
0.0
 10
5.0186572645
 20
2.3999193465
 30
0.0
 10
5.0592891307
 20
2.3980728407
 30
0.0
 10
5.0998696131
 20
2.3991738271
 30
0.0
 10
5.1302294013
 20
2.4016201397
 30
0.0
 10
5.1603949591
 20
2.4058146343
 30
0.0
 10
5.1902348967
 20
2.4118974122
 30
0.0
 10
5.2195704399
 20
2.4200567459
 30
0.0
 10
5.2481690937
 20
2.430461639
 30
0.0
 10
5.2711745179
 20
2.4411260921
 30
0.0
 10
5.2889031551
 20
2.4509071202
 30
0.0
 10
5.3018159385
 20
2.4588801442
 30
0.0
 10
5.3143056108
 20
2.4674846746
 30
0.0
 10
5.3263292169
 20
2.4767105449
 30
0.0
 10
5.3378425833
 20
2.4865465751
 30
0.0
 10
5.3487978251
 20
2.4969831704
 30
0.0
 10
5.3591668449
 20
2.5079864455
 30
0.0
 10
5.3689271821
 20
2.5195175718
 30
0.0
 10
5.3780557632
 20
2.5315388316
 30
0.0
 10
5.3865281766
 20
2.5440157212
 30
0.0
 10
5.3943439738
 20
2.5569009079
 30
0.0
 10
5.4038956746
 20
2.574553875
 30
0.0
 10
5.418355533
 20
2.6065287143
 30
0.0
 10
5.4270756628
 20
2.6354377577
 30
0.0
 10
5.4314964322
 20
2.6549489288
 30
0.0
  0
SPLINE
  5
5DF
100
AcDbEntity
  8
0
100
AcDbSpline
 62
7
  6
CONTINUOUS
 70
0
 71
3
 72
9
 73
5
 74
0
 42
0.0000001
 43
0.0000001
 44
0.0000000001
 40
0.0
 40
0.0
 40
0.0
 40
0.0
 40
0.2501494681
 40
1.0
 40
1.0
 40
1.0
 40
1.0
 10
5.4319276028
 20
2.6568724534
 30
0.0
 10
5.4329851531
 20
2.6616416643
 30
0.0
 10
5.4368880669
 20
2.6807785977
 30
0.0
 10
5.439551429
 20
2.7001609576
 30
0.0
 10
5.4409510024
 20
2.7147374174
 30
0.0
  0
SPLINE
  5
5E0
100
AcDbEntity
  8
ALL_FEATURES
100
AcDbSpline
 62
7
  6
CONTINUOUS
 70
0
 71
3
 72
9
 73
5
 74
0
 42
0.0000001
 43
0.0000001
 44
0.0000000001
 40
0.0
 40
0.0
 40
0.0
 40
0.0
 40
0.4995162363
 40
1.0
 40
1.0
 40
1.0
 40
1.0
 10
4.692642855
 20
2.7371188026
 30
0.0
 10
4.693444192
 20
2.7227677441
 30
0.0
 10
4.6964406022
 20
2.6940901109
 30
0.0
 10
4.7030059111
 20
2.6659575705
 30
0.0
 10
4.7073679119
 20
2.6522328095
 30
0.0
  0
LINE
  5
5E1
100
AcDbEntity
  8
ALL_FEATURES
100
AcDbLine
 62
7
  6
CONTINUOUS
 10
5.4626539235
 20
3.0191319484
 11
5.4666104216
 21
3.0087743015
  0
SPLINE
  5
5E2
100
AcDbEntity
  8
ALL_FEATURES
100
AcDbSpline
 62
7
  6
CONTINUOUS
 70
0
 71
3
 72
45
 73
41
 74
0
 42
0.0000001
 43
0.0000001
 44
0.0000000001
 40
0.0
 40
0.0
 40
0.0
 40
0.0
 40
0.0305843456
 40
0.0612929926
 40
0.0766986857
 40
0.0921361319
 40
0.1076110385
 40
0.123121179
 40
0.1386620629
 40
0.1542300067
 40
0.1698280906
 40
0.1854562533
 40
0.2011067639
 40
0.2167718301
 40
0.2481527233
 40
0.2795862563
 40
0.3110485059
 40
0.3425349012
 40
0.3740352924
 40
0.4370491647
 40
0.4685651778
 40
0.5000817319
 40
0.5631100257
 40
0.5946236138
 40
0.6261313611
 40
0.6576296467
 40
0.6891121553
 40
0.720568522
 40
0.7519947751
 40
0.78336333
 40
0.799023887
 40
0.814669362
 40
0.8302899731
 40
0.8458798049
 40
0.8614405752
 40
0.8769738051
 40
0.9079242747
 40
0.9387359371
 40
0.9694271769
 40
1.0
 40
1.0
 40
1.0
 40
1.0
 10
4.7073679119
 20
2.6522328095
 30
0.0
 10
4.7100566922
 20
2.6437727313
 30
0.0
 10
4.7162751658
 20
2.6270660746
 30
0.0
 10
4.7263273001
 20
2.6071433819
 30
0.0
 10
4.7357781956
 20
2.5919710842
 30
0.0
 10
4.7435931549
 20
2.5810204071
 30
0.0
 10
4.752119361
 20
2.5705750942
 30
0.0
 10
4.7613137206
 20
2.560672139
 30
0.0
 10
4.7711363285
 20
2.5513525246
 30
0.0
 10
4.7815509229
 20
2.5426600181
 30
0.0
 10
4.7924962991
 20
2.5346048512
 30
0.0
 10
4.803908057
 20
2.5271827445
 30
0.0
 10
4.8157273513
 20
2.5203901605
 30
0.0
 10
4.8319645859
 20
2.5121587304
 30
0.0
 10
4.8530115312
 20
2.5033572591
 30
0.0
 10
4.8790709353
 20
2.4949262449
 30
0.0
 10
4.9056867383
 20
2.4883596781
 30
0.0
 10
4.9326591857
 20
2.4833855295
 30
0.0
 10
4.9689220347
 20
2.478553772
 30
0.0
 10
5.0054460941
 20
2.4759758374
 30
0.0
 10
5.0420166189
 20
2.4749111032
 30
0.0
 10
5.0786059782
 20
2.4746465585
 30
0.0
 10
5.1152030145
 20
2.4753101636
 30
0.0
 10
5.1517268404
 20
2.4775388057
 30
0.0
 10
5.179041336
 20
2.4801709479
 30
0.0
 10
5.2062134459
 20
2.4839605481
 30
0.0
 10
5.2331460082
 20
2.489130625
 30
0.0
 10
5.2596997966
 20
2.4959274456
 30
0.0
 10
5.2856656449
 20
2.5046224935
 30
0.0
 10
5.3066002099
 20
2.5136741
 30
0.0
 10
5.3227192317
 20
2.5221215433
 30
0.0
 10
5.3344358598
 20
2.5290803577
 30
0.0
 10
5.3457299192
 20
2.5366698827
 30
0.0
 10
5.3565415141
 20
2.5448929534
 30
0.0
 10
5.3668043128
 20
2.5537549028
 30
0.0
 10
5.3796656913
 20
2.5663736212
 30
0.0
 10
5.394161903
 20
2.5835851196
 30
0.0
 10
5.4086965381
 20
2.6062244096
 30
0.0
 10
5.4203947502
 20
2.6303155323
 30
0.0
 10
5.4263820694
 20
2.6470975935
 30
0.0
 10
5.4289623559
 20
2.6555878949
 30
0.0
  0
SPLINE
  5
5E3
100
AcDbEntity
  8
ALL_FEATURES
100
AcDbSpline
 62
7
  6
CONTINUOUS
 70
0
 71
3
 72
10
 73
6
 74
0
 42
0.0000001
 43
0.0000001
 44
0.0000000001
 40
0.0
 40
0.0
 40
0.0
 40
0.0
 40
0.5451379142
 40
0.7847678519
 40
1.0
 40
1.0
 40
1.0
 40
1.0
 10
4.6759632658
 20
3.0935158818
 30
0.0
 10
4.6760663404
 20
3.0854224563
 30
0.0
 10
4.6761472992
 20
3.0737699573
 30
0.0
 10
4.6760262143
 20
3.058922454
 30
0.0
 10
4.6758859856
 20
3.0521699198
 30
0.0
 10
4.6757912192
 20
3.048975608
 30
0.0
  0
SPLINE
  5
5E4
100
AcDbEntity
  8
ALL_FEATURES
100
AcDbSpline
 62
7
  6
CONTINUOUS
 70
0
 71
3
 72
13
 73
9
 74
0
 42
0.0000001
 43
0.0000001
 44
0.0000000001
 40
0.0
 40
0.0
 40
0.0
 40
0.0
 40
0.3383332688
 40
0.6188865697
 40
0.7368626918
 40
0.8397283526
 40
0.927418886
 40
1.0
 40
1.0
 40
1.0
 40
1.0
 10
4.6755538066
 20
3.0424875375
 30
0.0
 10
4.6754415016
 20
3.0399574177
 30
0.0
 10
4.6751898419
 20
3.0353311619
 30
0.0
 10
4.6747209198
 20
3.0298334978
 30
0.0
 10
4.6742546188
 20
3.0261088744
 30
0.0
 10
4.6738907149
 20
3.0238275255
 30
0.0
 10
4.6734922155
 20
3.0218978491
 30
0.0
 10
4.6731742083
 20
3.0207392966
 30
0.0
 10
4.6730019428
 20
3.02022402
 30
0.0
  0
LINE
  5
5E5
100
AcDbEntity
  8
ALL_FEATURES
100
AcDbLine
 62
7
  6
CONTINUOUS
 10
4.672633343
 20
3.0191319469
 11
4.6686768455
 21
3.0087743016
  0
SPLINE
  5
5E6
100
AcDbEntity
  8
ALL_FEATURES
100
AcDbSpline
 62
7
  6
CONTINUOUS
 70
0
 71
3
 72
18
 73
14
 74
0
 42
0.0000001
 43
0.0000001
 44
0.0000000001
 40
0.0
 40
0.0
 40
0.0
 40
0.0
 40
0.1283209146
 40
0.2561216743
 40
0.3830057296
 40
0.5087635988
 40
0.5711853262
 40
0.6332999858
 40
0.6951095831
 40
0.7566215278
 40
0.817849579
 40
0.8788080732
 40
1.0
 40
1.0
 40
1.0
 40
1.0
 10
4.6488936352
 20
3.7129383223
 30
0.0
 10
4.6449259797
 20
3.8101976571
 30
0.0
 10
4.6372491911
 20
4.004332139
 30
0.0
 10
4.626796291
 20
4.2946810209
 30
0.0
 10
4.6177836187
 20
4.583133482
 30
0.0
 10
4.6117544922
 20
4.822056814
 30
0.0
 10
4.6079904764
 20
5.0118852726
 30
0.0
 10
4.6057160119
 20
5.1532235612
 30
0.0
 10
4.6040071135
 20
5.2938796575
 30
0.0
 10
4.6028675081
 20
5.4338689257
 30
0.0
 10
4.6022740003
 20
5.5732159506
 30
0.0
 10
4.6021913651
 20
5.7578355635
 30
0.0
 10
4.6028748508
 20
5.8960088167
 30
0.0
 10
4.6036048084
 20
5.9879383222
 30
0.0
  0
SPLINE
  5
5E7
100
AcDbEntity
  8
ALL_FEATURES
100
AcDbSpline
 62
7
  6
CONTINUOUS
 70
0
 71
3
 72
16
 73
12
 74
0
 42
0.0000001
 43
0.0000001
 44
0.0000000001
 40
0.0
 40
0.0
 40
0.0
 40
0.0
 40
0.2568777314
 40
0.3840031987
 40
0.5098702572
 40
0.6343573465
 40
0.6960789743
 40
0.7574612282
 40
0.8185218079
 40
0.8792795502
 40
1.0
 40
1.0
 40
1.0
 40
1.0
 10
4.6801176549
 20
3.7142222319
 30
0.0
 10
4.6722375176
 20
3.9088672112
 30
0.0
 10
4.6602996229
 20
4.1998331012
 30
0.0
 10
4.6450533
 20
4.5861950275
 30
0.0
 10
4.6342877995
 20
4.8722561579
 30
0.0
 10
4.6260223734
 20
5.1087763754
 30
0.0
 10
4.6200033263
 20
5.2964417716
 30
0.0
 10
4.6158377673
 20
5.4360417443
 30
0.0
 10
4.6120598985
 20
5.5749216008
 30
0.0
 10
4.6076176305
 20
5.7587985155
 30
0.0
 10
4.6049901297
 20
5.8963998877
 30
0.0
 10
4.6036048084
 20
5.9879383222
 30
0.0
  0
SPLINE
  5
5E8
100
AcDbEntity
  8
ALL_FEATURES
100
AcDbSpline
 62
7
  6
CONTINUOUS
 70
0
 71
3
 72
11
 73
7
 74
0
 42
0.0000001
 43
0.0000001
 44
0.0000000001
 40
0.0
 40
0.0
 40
0.0
 40
0.0
 40
0.2455044199
 40
0.4946914873
 40
0.7466079068
 40
1.0
 40
1.0
 40
1.0
 40
1.0
 10
4.7238540354
 20
2.7299134538
 30
0.0
 10
4.7200761334
 20
2.8103499701
 30
0.0
 10
4.7124924469
 20
2.972430939
 30
0.0
 10
4.701310677
 20
3.2170621961
 30
0.0
 10
4.6904354451
 20
3.4642970166
 30
0.0
 10
4.6835245951
 20
3.6298937289
 30
0.0
 10
4.6801696347
 20
3.7129383222
 30
0.0
  0
SPLINE
  5
5E9
100
AcDbEntity
  8
ALL_FEATURES
100
AcDbSpline
 62
7
  6
CONTINUOUS
 70
0
 71
3
 72
11
 73
7
 74
0
 42
0.0000001
 43
0.0000001
 44
0.0000000001
 40
0.0
 40
0.0
 40
0.0
 40
0.0
 40
0.2174211322
 40
0.4483955639
 40
0.7060800799
 40
1.0
 40
1.0
 40
1.0
 40
1.0
 10
4.6926436368
 20
2.7371188461
 30
0.0
 10
4.6926574587
 20
2.7368511399
 30
0.0
 10
4.6927692782
 20
2.7363003429
 30
0.0
 10
4.6931773745
 20
2.7355208941
 30
0.0
 10
4.6938149087
 20
2.7347875712
 30
0.0
 10
4.6943497209
 20
2.734362271
 30
0.0
 10
4.6946468618
 20
2.7341548432
 30
0.0
  0
SPLINE
  5
5EA
100
AcDbEntity
  8
ALL_FEATURES
100
AcDbSpline
 62
7
  6
CONTINUOUS
 70
0
 71
3
 72
16
 73
12
 74
0
 42
0.0000001
 43
0.0000001
 44
0.0000000001
 40
0.0
 40
0.0
 40
0.0
 40
0.0
 40
0.0761772557
 40
0.1695631946
 40
0.2794404297
 40
0.4041400719
 40
0.4713287593
 40
0.54131823
 40
0.6883757147
 40
0.8424918222
 40
1.0
 40
1.0
 40
1.0
 40
1.0
 10
4.6946468618
 20
2.7341548432
 30
0.0
 10
4.6952686822
 20
2.7337207638
 30
0.0
 10
4.6967743224
 20
2.732931638
 30
0.0
 10
4.6993952897
 20
2.7319882121
 30
0.0
 10
4.7025641723
 20
2.7311838593
 30
0.0
 10
4.7055256899
 20
2.7306666038
 30
0.0
 10
4.708111974
 20
2.7303362363
 30
0.0
 10
4.7109286092
 20
2.730061977
 30
0.0
 10
4.7146188789
 20
2.7298503972
 30
0.0
 10
4.7191851357
 20
2.7297645549
 30
0.0
 10
4.7222879589
 20
2.7298359605
 30
0.0
 10
4.7238540354
 20
2.7299134538
 30
0.0
  0
SPLINE
  5
5EB
100
AcDbEntity
  8
ALL_FEATURES
100
AcDbSpline
 62
7
  6
CONTINUOUS
 70
0
 71
3
 72
50
 73
46
 74
0
 42
0.0000001
 43
0.0000001
 44
0.0000000001
 40
0.0
 40
0.0
 40
0.0
 40
0.0
 40
0.0305248067
 40
0.0610262358
 40
0.0915292527
 40
0.106796856
 40
0.1220938832
 40
0.1527652562
 40
0.1681825271
 40
0.1836578238
 40
0.1991897839
 40
0.2147811473
 40
0.2304346612
 40
0.2461380251
 40
0.2776526239
 40
0.2934713823
 40
0.3093070132
 40
0.3410234499
 40
0.3727856109
 40
0.4045753654
 40
0.4363795402
 40
0.4681902575
 40
0.5000032388
 40
0.5159102574
 40
0.5318168414
 40
0.5636274958
 40
0.5954315598
 40
0.6272207695
 40
0.6589816447
 40
0.6906967799
 40
0.7065307909
 40
0.7223476739
 40
0.7538610765
 40
0.7695642616
 40
0.7852178982
 40
0.8008095216
 40
0.8163417064
 40
0.8318172339
 40
0.8472347529
 40
0.8779063276
 40
0.8932035188
 40
0.9084711752
 40
0.9389739809
 40
0.9694753151
 40
1.0
 40
1.0
 40
1.0
 40
1.0
 10
4.7238539595
 20
2.7299134689
 30
0.0
 10
4.7243913143
 20
2.7202841193
 30
0.0
 10
4.7261278243
 20
2.7010589945
 30
0.0
 10
4.7311639529
 20
2.6725437034
 30
0.0
 10
4.7377572317
 20
2.649306008
 30
0.0
 10
4.744728748
 20
2.6313005769
 30
0.0
 10
4.7529222733
 20
2.6137620518
 30
0.0
 10
4.763025419
 20
2.5970996962
 30
0.0
 10
4.7750675569
 20
2.5818018053
 30
0.0
 10
4.7850496923
 20
2.5710320826
 30
0.0
 10
4.7959041875
 20
2.561061748
 30
0.0
 10
4.8075598381
 20
2.5519513561
 30
0.0
 10
4.8198967198
 20
2.5436925392
 30
0.0
 10
4.8371352627
 20
2.5337966294
 30
0.0
 10
4.8553280822
 20
2.5255604752
 30
0.0
 10
4.8741011121
 20
2.5187717217
 30
0.0
 10
4.8932345597
 20
2.5128494998
 30
0.0
 10
4.9176230575
 20
2.5069738923
 30
0.0
 10
4.9473124989
 20
2.5019152157
 30
0.0
 10
4.9772562145
 20
2.4984814665
 30
0.0
 10
5.0073316005
 20
2.4963538871
 30
0.0
 10
5.0374668648
 20
2.4952622695
 30
0.0
 10
5.0625956325
 20
2.4950149597
 30
0.0
 10
5.0826985196
 20
2.4951155515
 30
0.0
 10
5.102798341
 20
2.4954418522
 30
0.0
 10
5.1279107122
 20
2.4963509802
 30
0.0
 10
5.1579859017
 20
2.4984767756
 30
0.0
 10
5.187929316
 20
2.5019079375
 30
0.0
 10
5.2176181818
 20
2.5069640038
 30
0.0
 10
5.2420061343
 20
2.5128359765
 30
0.0
 10
5.2611392374
 20
2.5187541887
 30
0.0
 10
5.2799119419
 20
2.525539488
 30
0.0
 10
5.2981054511
 20
2.5337715085
 30
0.0
 10
5.3153458709
 20
2.5436633564
 30
0.0
 10
5.3276846558
 20
2.5519194388
 30
0.0
 10
5.3393427257
 20
2.5610270242
 30
0.0
 10
5.3502001564
 20
2.570994495
 30
0.0
 10
5.3601853378
 20
2.5817616921
 30
0.0
 10
5.3722320938
 20
2.5970562166
 30
0.0
 10
5.3823397461
 20
2.6137161165
 30
0.0
 10
5.3905376698
 20
2.6312527304
 30
0.0
 10
5.3975135992
 20
2.6492564588
 30
0.0
 10
5.4041119592
 20
2.6724926632
 30
0.0
 10
5.40915341
 20
2.7010069067
 30
0.0
 10
5.4108925622
 20
2.7202317632
 30
0.0
 10
5.4114308428
 20
2.7298610226
 30
0.0
  0
SPLINE
  5
5EC
100
AcDbEntity
  8
ALL_FEATURES
100
AcDbSpline
 62
7
  6
CONTINUOUS
 70
0
 71
3
 72
22
 73
18
 74
0
 42
0.0000001
 43
0.0000001
 44
0.0000000001
 40
0.0
 40
0.0
 40
0.0
 40
0.0
 40
0.1792630538
 40
0.2668810483
 40
0.3519579756
 40
0.4338201426
 40
0.5118473344
 40
0.5854503843
 40
0.6540531327
 40
0.7171222493
 40
0.7742298703
 40
0.8250063327
 40
0.8693861306
 40
0.907951961
 40
0.941861095
 40
0.9722176539
 40
1.0
 40
1.0
 40
1.0
 40
1.0
 10
5.4114308428
 20
2.7298610226
 30
0.0
 10
5.4134380168
 20
2.7297595554
 30
0.0
 10
5.4164322551
 20
2.7297183221
 30
0.0
 10
5.420377061
 20
2.7298100307
 30
0.0
 10
5.4232282901
 20
2.7299404783
 30
0.0
 10
5.4259674785
 20
2.7301450768
 30
0.0
 10
5.4285698134
 20
2.7304344671
 30
0.0
 10
5.43101123
 20
2.7308078629
 30
0.0
 10
5.4332690557
 20
2.7312579363
 30
0.0
 10
5.4353214393
 20
2.7317790875
 30
0.0
 10
5.4371491172
 20
2.7323601934
 30
0.0
 10
5.4387380208
 20
2.7329887768
 30
0.0
 10
5.440078998
 20
2.7336653025
 30
0.0
 10
5.4411630659
 20
2.7344118284
 30
0.0
 10
5.44196785
 20
2.7352515263
 30
0.0
 10
5.4424819249
 20
2.7361597469
 30
0.0
 10
5.4426290939
 20
2.7368077048
 30
0.0
 10
5.4426451546
 20
2.7371187612
 30
0.0
  0
SPLINE
  5
5ED
100
AcDbEntity
  8
ALL_FEATURES
100
AcDbSpline
 62
7
  6
CONTINUOUS
 70
0
 71
3
 72
11
 73
7
 74
0
 42
0.0000001
 43
0.0000001
 44
0.0000000001
 40
0.0
 40
0.0
 40
0.0
 40
0.0
 40
0.2455040144
 40
0.4946909989
 40
0.7466075766
 40
1.0
 40
1.0
 40
1.0
 40
1.0
 10
5.4114306554
 20
2.7298610032
 30
0.0
 10
5.4152087624
 20
2.8103016788
 30
0.0
 10
5.4227929568
 20
2.9723911325
 30
0.0
 10
5.4339754162
 20
3.2170353323
 30
0.0
 10
5.4448512393
 20
3.4642834799
 30
0.0
 10
5.4517624834
 20
3.629889189
 30
0.0
 10
5.4551176324
 20
3.7129383222
 30
0.0
  0
SPLINE
  5
5EE
100
AcDbEntity
  8
ALL_FEATURES
100
AcDbSpline
 62
7
  6
CONTINUOUS
 70
0
 71
3
 72
16
 73
12
 74
0
 42
0.0000001
 43
0.0000001
 44
0.0000000001
 40
0.0
 40
0.0
 40
0.0
 40
0.0
 40
0.2568775566
 40
0.3840029668
 40
0.5098699653
 40
0.6343571061
 40
0.6960787233
 40
0.7574610391
 40
0.8185217074
 40
0.8792794888
 40
1.0
 40
1.0
 40
1.0
 40
1.0
 10
5.4551696122
 20
3.7142222319
 30
0.0
 10
5.4630497502
 20
3.9088670785
 30
0.0
 10
5.4749876473
 20
4.1998327925
 30
0.0
 10
5.4902339226
 20
4.586194499
 30
0.0
 10
5.5009995038
 20
4.8722555767
 30
0.0
 10
5.5092647816
 20
5.1087757847
 30
0.0
 10
5.5152839654
 20
5.2964412544
 30
0.0
 10
5.5194495476
 20
5.4360413326
 30
0.0
 10
5.5232273797
 20
5.574921334
 30
0.0
 10
5.5276695379
 20
5.7587983949
 30
0.0
 10
5.5302970961
 20
5.8963998418
 30
0.0
 10
5.5316824587
 20
5.9879383222
 30
0.0
  0
SPLINE
  5
5EF
100
AcDbEntity
  8
ALL_FEATURES
100
AcDbSpline
 62
7
  6
CONTINUOUS
 70
0
 71
3
 72
18
 73
14
 74
0
 42
0.0000001
 43
0.0000001
 44
0.0000000001
 40
0.0
 40
0.0
 40
0.0
 40
0.0
 40
0.128320871
 40
0.2561215098
 40
0.3830055113
 40
0.5087633293
 40
0.5711850608
 40
0.6332997563
 40
0.6951093574
 40
0.7566213586
 40
0.8178494832
 40
0.8788080147
 40
1.0
 40
1.0
 40
1.0
 40
1.0
 10
5.4863936318
 20
3.7129383223
 30
0.0
 10
5.4903612893
 20
3.8101976239
 30
0.0
 10
5.4980380696
 20
4.0043319813
 30
0.0
 10
5.5084909521
 20
4.2946806979
 30
0.0
 10
5.5175036699
 20
4.5831329864
 30
0.0
 10
5.5235326836
 20
4.8220562444
 30
0.0
 10
5.527296802
 20
5.0118846922
 30
0.0
 10
5.5295713619
 20
5.1532230128
 30
0.0
 10
5.5312800344
 20
5.2938791849
 30
0.0
 10
5.532419687
 20
5.4338685537
 30
0.0
 10
5.5330133016
 20
5.573215705
 30
0.0
 10
5.5330958682
 20
5.7578354464
 30
0.0
 10
5.5324123759
 20
5.896008772
 30
0.0
 10
5.5316824587
 20
5.9879383222
 30
0.0
  0
SPLINE
  5
5F0
100
AcDbEntity
  8
ALL_FEATURES
100
AcDbSpline
 62
7
  6
CONTINUOUS
 70
0
 71
3
 72
10
 73
6
 74
0
 42
0.0000001
 43
0.0000001
 44
0.0000000001
 40
0.0
 40
0.0
 40
0.0
 40
0.0
 40
0.5451252556
 40
0.7847578773
 40
1.0
 40
1.0
 40
1.0
 40
1.0
 10
5.4593240024
 20
3.0935164021
 30
0.0
 10
5.4592209589
 20
3.085424658
 30
0.0
 10
5.4591400217
 20
3.0737744578
 30
0.0
 10
5.4592610265
 20
3.0589296941
 30
0.0
 10
5.4594011773
 20
3.0521782173
 30
0.0
 10
5.4594958904
 20
3.0489843458
 30
0.0
  0
SPLINE
  5
5F1
100
AcDbEntity
  8
ALL_FEATURES
100
AcDbSpline
 62
7
  6
CONTINUOUS
 70
0
 71
3
 72
13
 73
9
 74
0
 42
0.0000001
 43
0.0000001
 44
0.0000000001
 40
0.0
 40
0.0
 40
0.0
 40
0.0
 40
0.3383236005
 40
0.618872551
 40
0.7368489657
 40
0.8397170049
 40
0.9274121069
 40
1.0
 40
1.0
 40
1.0
 40
1.0
 10
5.4597332648
 20
3.0424948725
 30
0.0
 10
5.4598455614
 20
3.0399640771
 30
0.0
 10
5.4600972127
 20
3.0353365575
 30
0.0
 10
5.4605661465
 20
3.0298373651
 30
0.0
 10
5.4610324711
 20
3.0261116418
 30
0.0
 10
5.4613964005
 20
3.0238295526
 30
0.0
 10
5.461794933
 20
3.021899185
 30
0.0
 10
5.4621129635
 20
3.0207401849
 30
0.0
 10
5.4622852394
 20
3.0202246893
 30
0.0
  0
ENDSEC
  0
SECTION
  2
OBJECTS
  0
DICTIONARY
  5
C
100
AcDbDictionary
280
0
281
1
  3
ACAD_GROUP
350
D
  3
ACAD_MLINESTYLE
350
17
  3
ACAD_LAYOUT
350
1A
  3
ACAD_PLOTSETTINGS
350
19
  3
ACAD_PLOTSTYLENAME
350
E
  0
DICTIONARY
  5
D
102
{ACAD_REACTORS
330
C
102
}
100
AcDbDictionary
280
0
281
1
  0
ACDBDICTIONARYWDFLT
  5
E
102
{ACAD_REACTORS
330
C
102
}
100
AcDbDictionary
281
1
  3
Normal
350
F
100
AcDbDictionaryWithDefault
340
F
  0
DICTIONARY
  5
17
102
{ACAD_REACTORS
330
C
102
}
100
AcDbDictionary
280
0
281
1
  3
Standard
350
18
  0
DICTIONARY
  5
19
102
{ACAD_REACTORS
330
C
102
}
100
AcDbDictionary
281
1
  0
DICTIONARY
  5
1A
102
{ACAD_REACTORS
330
C
102
}
100
AcDbDictionary
281
1
  3
Model
350
5F2
  3
Layout1
350
5F3
  0
ACDBPLACEHOLDER
  5
F
102
{ACAD_REACTORS
330
E
102
}
  0
MLINESTYLE
  5
18
102
{ACAD_REACTORS
330
17
102
}
100
AcDbMlineStyle
  2
STANDARD
 70
0
  3

 62
256
 51
90.0
 52
90.0
 71
2
 49
0.5
 62
256
  6
BYLAYER
 49
-0.5
 62
256
  6
BYLAYER
  0
LAYOUT
  5
5F2
102
{ACAD_REACTORS
330
1A
102
}
100
AcDbPlotSettings
  1

  2
none_device
  4
ANSI_A_(11.00_x_8.50_Inches)
  6

 40
0.0
 41
0.0
 42
0.0
 43
0.0
 44
279.4
 45
215.9
 46
0.0
 47
0.0
 48
0.0
 49
0.0
140
0.0
141
0.0
142
1.0
143
1.0
 70
1024
 72
0
 73
0
 74
0
  7

 75
0
147
1.0
148
0.0
149
0.0
100
AcDbLayout
  1
Model
 70
0
 71
0
 10
0.0
 20
0.0
 11
11.0
 21
8.5
 12
0.0
 22
0.0
 32
0.0
 14
0.0
 24
0.0
 34
0.0
 15
0.0
 25
0.0
 35
0.0
146
0.0
 13
0.0
 23
0.0
 33
0.0
 16
1.0
 26
0.0
 36
0.0
 17
0.0
 27
1.0
 37
0.0
 76
0
330
21B
345
0
346
0
  0
LAYOUT
  5
5F3
102
{ACAD_REACTORS
330
1A
102
}
100
AcDbPlotSettings
  1

  2
none_device
  4
ANSI_A_(11.00_x_8.50_Inches)
  6

 40
0.0
 41
0.0
 42
0.0
 43
0.0
 44
279.4
 45
215.9
 46
0.0
 47
0.0
 48
0.0
 49
0.0
140
0.0
141
0.0
142
1.0
143
1.0
 70
0
 72
0
 73
0
 74
0
  7

 75
0
147
1.0
148
0.0
149
0.0
100
AcDbLayout
  1
Layout1
 70
0
 71
1
 10
0.0
 20
0.0
 11
11.0
 21
8.5
 12
0.0
 22
0.0
 32
0.0
 14
0.0
 24
0.0
 34
0.0
 15
0.0
 25
0.0
 35
0.0
146
0.0
 13
0.0
 23
0.0
 33
0.0
 16
1.0
 26
0.0
 36
0.0
 17
0.0
 27
1.0
 37
0.0
 76
0
330
21C
345
0
346
0
  0
ENDSEC
  0
EOF
