999
DXF file: E:\BT Custom\CADOUTPUT\_RIGHT.dxf
999
Pro/ENGINEER 2018400 by Parametric Technology Corporation
  0
SECTION
  2
HEADER
  9
$ACADVER
  1
AC1018
  9
$DWGCODEPAGE
  3
ANSI_1252
  9
$EXTMAX
 10
22.0
 20
17.0
 30
0.0
  9
$EXTMIN
 10
0.0
 20
0.0
 30
0.0
  9
$LIMMIN
 10
0.0
 20
0.0
  9
$LIMMAX
 10
22.0
 20
17.0
  9
$VIEWCTR
 10
11.0
 20
8.5
  9
$VIEWSIZE
 40
17.0
  9
$CLAYER
  8
0
  9
$LTSCALE
 40
1.21
  9
$CELTYPE
  6
BYLAYER
  9
$DIMSCALE
 40
1.0
  9
$DIMASZ
 40
0.1
  9
$DIMEXO
 40
0.0625
  9
$DIMDLI
 40
0.836
  9
$DIMEXE
 40
0.125
  9
$DIMCEN
 40
0.198
  9
$DIMLFAC
 40
1.0
  9
$DIMBLK
  1
_FILLED
  9
$DIMALT
 70
1
  9
$DIMALTD
 70
2
  9
$DIMALTTD
 70
2
  9
$DIMALTF
 40
25.4
  9
$DIMTXT
 40
0.08
  9
$DIMTOL
 70
1
  9
$DIMLIM
 70
0
  9
$DIMTFAC
 40
1.0
  9
$DIMTP
 40
0.001
  9
$DIMTM
 40
0.001
  9
$DIMGAP
 40
0.09
  9
$DIMDSEP
 70
46
  9
$AUNITS
 70
0
  9
$PDMODE
 70
3
  9
$PDSIZE
 40
0.06
  9
$HANDSEED
  5
4DF
  9
$TILEMODE
 70
1
  9
$MEASUREMENT
 70
0
  9
$INSUNITS
 70
1
  0
ENDSEC
  0
SECTION
  2
CLASSES
  0
CLASS
  1
ACDBDICTIONARYWDFLT
  2
AcDbDictionaryWithDefault
  3
AutoCAD 2000
 90
0
 91
1
280
0
281
0
  0
CLASS
  1
ACDBPLACEHOLDER
  2
AcDbPlaceHolder
  3
AutoCAD 2000
 90
0
 91
1
280
0
281
0
  0
CLASS
  1
LAYOUT
  2
AcDbLayout
  3
AutoCAD 2000
 90
0
 91
0
280
0
281
0
  0
ENDSEC
  0
SECTION
  2
TABLES
  0
TABLE
  2
VPORT
  5
8
100
AcDbSymbolTable
 70
2
  0
VPORT
  5
1F4
100
AcDbSymbolTableRecord
100
AcDbViewportTableRecord
  2
*ACTIVE
 70
0
 10
0.0
 20
0.0
 11
1.0
 21
1.0
 12
11.0
 22
8.5
 13
0.0
 23
0.0
 14
1.0
 24
1.0
 15
0.0
 25
0.0
 16
0.0
 26
0.0
 36
1.0
 17
0.0
 27
0.0
 37
0.0
 40
17.0
 41
1.2941176471
 42
50.0
 43
0.0
 44
0.0
 50
0.0
 51
0.0
 71
0
 72
100
 73
1
 74
1
 75
0
 76
0
 77
0
 78
0
  0
ENDTAB
  0
TABLE
  2
LTYPE
  5
5
100
AcDbSymbolTable
 70
6
  0
LTYPE
  5
14
100
AcDbSymbolTableRecord
100
AcDbLinetypeTableRecord
  2
BYBLOCK
 70
0
  3

 72
65
 73
0
 40
0.0
  0
LTYPE
  5
15
100
AcDbSymbolTableRecord
100
AcDbLinetypeTableRecord
  2
BYLAYER
 70
0
  3

 72
65
 73
0
 40
0.0
  0
LTYPE
  5
16
100
AcDbSymbolTableRecord
100
AcDbLinetypeTableRecord
  2
CONTINUOUS
 70
64
  3
Solid line
 72
65
 73
0
 40
0.0
  0
LTYPE
  5
1F5
100
AcDbSymbolTableRecord
100
AcDbLinetypeTableRecord
  2
CENTER
 70
64
  3
____ _ ____ _ ____ _ ____ _ ____ _ ____ _ ____
 72
65
 73
4
 40
0.6
 49
0.375
 74
0
 49
-0.075
 74
0
 49
0.075
 74
0
 49
-0.075
 74
0
  0
LTYPE
  5
1F6
100
AcDbSymbolTableRecord
100
AcDbLinetypeTableRecord
  2
HIDDEN
 70
64
  3
- - - - - - - - - - - - - - - - - - - -
 72
65
 73
2
 40
0.2
 49
0.1
 74
0
 49
-0.1
 74
0
  0
LTYPE
  5
1F7
100
AcDbSymbolTableRecord
100
AcDbLinetypeTableRecord
  2
PHANTOM
 70
64
  3
_____ _ _ _____ _ _ _____ _ _ _____
 72
65
 73
6
 40
0.8
 49
0.45
 74
0
 49
-0.05
 74
0
 49
0.1
 74
0
 49
-0.05
 74
0
 49
0.1
 74
0
 49
-0.05
 74
0
  0
LTYPE
  5
1F8
100
AcDbSymbolTableRecord
100
AcDbLinetypeTableRecord
  2
DOT
 70
64
  3
. . . . . . . . . . . . . . . . . . . .
 72
65
 73
2
 40
0.2
 49
0.1
 74
0
 49
-0.1
 74
0
  0
LTYPE
  5
1F9
100
AcDbSymbolTableRecord
100
AcDbLinetypeTableRecord
  2
DASHED
 70
64
  3
- - - - - - - - - - - - - - - - - - - -
 72
65
 73
2
 40
0.2
 49
0.1
 74
0
 49
-0.1
 74
0
  0
ENDTAB
  0
TABLE
  2
LAYER
  5
2
100
AcDbSymbolTable
 70
36
  0
LAYER
  5
10
100
AcDbSymbolTableRecord
100
AcDbLayerTableRecord
  2
0
 70
0
 62
7
  6
CONTINUOUS
370
-3
390
F
  0
LAYER
  5
1FA
100
AcDbSymbolTableRecord
100
AcDbLayerTableRecord
  2
DEFAULT_1
 70
0
 62
7
  6
CENTER
370
-3
390
F
  0
LAYER
  5
1FB
100
AcDbSymbolTableRecord
100
AcDbLayerTableRecord
  2
DEFAULT_2
 70
0
 62
8
  6
HIDDEN
370
-3
390
F
  0
LAYER
  5
1FC
100
AcDbSymbolTableRecord
100
AcDbLayerTableRecord
  2
DEFAULT_3
 70
0
 62
7
  6
PHANTOM
370
-3
390
F
  0
LAYER
  5
1FD
100
AcDbSymbolTableRecord
100
AcDbLayerTableRecord
  2
ALL_FEATURES
 70
0
 62
7
  6
CONTINUOUS
370
-3
390
F
  0
LAYER
  5
1FE
100
AcDbSymbolTableRecord
100
AcDbLayerTableRecord
  2
AXES_FEATURES
 70
0
 62
7
  6
CONTINUOUS
370
-3
390
F
  0
LAYER
  5
1FF
100
AcDbSymbolTableRecord
100
AcDbLayerTableRecord
  2
DIMENSIONS
 70
0
 62
7
  6
CONTINUOUS
370
-3
390
F
  0
ENDTAB
  0
TABLE
  2
STYLE
  5
3
100
AcDbSymbolTable
 70
1
  0
STYLE
  5
11
100
AcDbSymbolTableRecord
100
AcDbTextStyleTableRecord
  2
STANDARD
 70
0
 40
0.0
 41
0.8
 50
0.0
 71
0
 42
0.2
  3
txt
  4

  0
STYLE
  5
200
100
AcDbSymbolTableRecord
100
AcDbTextStyleTableRecord
  2
TEXTSTYLE_1
 70
0
 40
0.0
 41
0.8
 50
0.0
 71
0
 42
0.2
  3
gdt
  4

  0
ENDTAB
  0
TABLE
  2
VIEW
  5
6
100
AcDbSymbolTable
 70
0
  0
ENDTAB
  0
TABLE
  2
UCS
  5
7
100
AcDbSymbolTable
 70
0
  0
ENDTAB
  0
TABLE
  2
APPID
  5
9
100
AcDbSymbolTable
 70
1
  0
APPID
  5
201
100
AcDbSymbolTableRecord
100
AcDbRegAppTableRecord
  2
ACAD
 70
0
  0
ENDTAB
  0
TABLE
  2
BLOCK_RECORD
  5
1
100
AcDbSymbolTable
 70
0
  0
BLOCK_RECORD
  5
202
100
AcDbSymbolTableRecord
100
AcDbBlockTableRecord
  2
*Model_Space
  0
BLOCK_RECORD
  5
203
100
AcDbSymbolTableRecord
100
AcDbBlockTableRecord
  2
*Paper_Space
  0
BLOCK_RECORD
  5
204
100
AcDbSymbolTableRecord
100
AcDbBlockTableRecord
  2
_FILLED
  0
ENDTAB
  0
TABLE
  2
DIMSTYLE
  5
A
100
AcDbSymbolTable
 70
1
100
AcDbDimStyleTable
 71
0
  0
DIMSTYLE
105
205
100
AcDbSymbolTableRecord
100
AcDbDimStyleTableRecord
  2
STANDARD
 70
0
  3

  4

 40
1.0
 41
0.1
 42
0.0625
 43
0.38
 44
0.125
 45
0.0
 46
0.0
 47
0.001
 48
0.001
140
0.08
141
0.09
142
0.0
143
25.4
144
1.0
145
0.0
146
1.0
147
0.09
 71
1.0
 72
0.0
 73
1
 74
1
 75
0
 76
0
 77
0
 78
4
 79
1
170
1
171
2
172
0
173
0
174
0
175
0
176
0
177
0
178
0
270
2
179
3
271
3
272
3
273
2
274
2
275
0
280
0
281
0
282
0
283
1
284
4
285
0
286
0
287
3
288
0
340
11
278
46
341
204
342
204
343
204
344
204
  0
ENDTAB
  0
ENDSEC
  0
SECTION
  2
BLOCKS
  0
BLOCK
  5
20
100
AcDbEntity
  8
0
100
AcDbBlockBegin
  2
*Model_Space
 70
0
 10
0.0
 20
0.0
 30
0.0
  3
*Model_Space
  1

  0
ENDBLK
  5
21
100
AcDbEntity
  8
0
100
AcDbBlockEnd
  0
BLOCK
  5
1C
100
AcDbEntity
  8
0
100
AcDbBlockBegin
  2
*Paper_Space
 70
0
 10
0.0
 20
0.0
 30
0.0
  3
*Paper_Space
  1

  0
ENDBLK
  5
1D
100
AcDbEntity
  8
0
100
AcDbBlockEnd
  0
BLOCK
  5
206
100
AcDbEntity
  8
0
100
AcDbBlockBegin
  2
_FILLED
 70
64
 10
0.0
 20
0.0
  3
_FILLED
  1

  0
SOLID
  5
207
100
AcDbEntity
  8
0
  6
BYBLOCK
 62
0
100
AcDbTrace
 10
0.0
 20
0.0
 11
-1.0
 21
0.2
 12
-1.0
 22
-0.2
 13
-1.0
 23
-0.2
  0
ENDBLK
  5
208
100
AcDbEntity
  8
0
  6
BYBLOCK
 62
0
100
AcDbBlockEnd
  0
ENDSEC
  0
SECTION
  2
ENTITIES
  0
LINE
  5
209
100
AcDbEntity
  8
0
100
AcDbLine
 62
7
  6
CONTINUOUS
 10
5.1129855116
 20
10.2730378257
 11
5.1044076257
 21
10.2086063126
  0
LINE
  5
20A
100
AcDbEntity
  8
0
100
AcDbLine
 62
7
  6
CONTINUOUS
 10
5.1053417069
 20
10.2084819567
 11
5.1139195928
 21
10.2729134697
  0
LINE
  5
20B
100
AcDbEntity
  8
0
100
AcDbLine
 62
7
  6
CONTINUOUS
 10
5.115108451
 20
10.2727551948
 11
5.1065305651
 21
10.2083236818
  0
LINE
  5
20C
100
AcDbEntity
  8
0
100
AcDbLine
 62
7
  6
CONTINUOUS
 10
5.1093291225
 20
10.2079511047
 11
5.1179070084
 21
10.2723826177
  0
LINE
  5
20D
100
AcDbEntity
  8
0
100
AcDbLine
 62
7
  6
CONTINUOUS
 10
5.1202800328
 20
10.2720666926
 11
5.111702147
 21
10.2076351796
  0
LINE
  5
20E
100
AcDbEntity
  8
0
100
AcDbLine
 62
7
  6
CONTINUOUS
 10
5.1163541359
 20
10.2070158517
 11
5.1249320217
 21
10.2714473648
  0
LINE
  5
20F
100
AcDbEntity
  8
0
100
AcDbLine
 62
7
  6
CONTINUOUS
 10
5.1284798473
 20
10.2709750362
 11
5.1199019614
 21
10.2065435232
  0
LINE
  5
210
100
AcDbEntity
  8
0
100
AcDbLine
 62
7
  6
CONTINUOUS
 10
5.1263890225
 20
10.2056798888
 11
5.1349669084
 21
10.2701114019
  0
LINE
  5
211
100
AcDbEntity
  8
0
100
AcDbLine
 62
7
  6
CONTINUOUS
 10
5.1396755333
 20
10.269484534
 11
5.1310976474
 21
10.2050530209
  0
LINE
  5
212
100
AcDbEntity
  8
0
100
AcDbLine
 62
7
  6
CONTINUOUS
 10
5.1393941793
 20
10.2039484884
 11
5.1479720652
 21
10.2683800014
  0
LINE
  5
213
100
AcDbEntity
  8
0
100
AcDbLine
 62
7
  6
CONTINUOUS
 10
5.1538229067
 20
10.2676010681
 11
5.1452450208
 21
10.2031695551
  0
LINE
  5
214
100
AcDbEntity
  8
0
100
AcDbLine
 62
7
  6
CONTINUOUS
 10
5.1553182809
 20
10.2018284834
 11
5.1638961667
 21
10.2662599965
  0
LINE
  5
215
100
AcDbEntity
  8
0
100
AcDbLine
 62
7
  6
CONTINUOUS
 10
5.1708661343
 20
10.2653320719
 11
5.1622882484
 21
10.2009005588
  0
LINE
  5
216
100
AcDbEntity
  8
0
100
AcDbLine
 62
7
  6
CONTINUOUS
 10
5.174098482
 20
10.1993282407
 11
5.1826763679
 21
10.2637597537
  0
LINE
  5
217
100
AcDbEntity
  8
0
100
AcDbLine
 62
7
  6
CONTINUOUS
 10
5.1907379542
 20
10.2626864999
 11
5.1821600683
 21
10.1982549869
  0
LINE
  5
218
100
AcDbEntity
  8
0
100
AcDbLine
 62
7
  6
CONTINUOUS
 10
5.1956606659
 20
10.1964576275
 11
5.2042385518
 21
10.2608891405
  0
LINE
  5
219
100
AcDbEntity
  8
0
100
AcDbLine
 62
7
  6
CONTINUOUS
 10
5.2133599414
 20
10.2596747931
 11
5.2047820555
 21
10.1952432801
  0
LWPOLYLINE
  5
21A
100
AcDbEntity
  8
0
100
AcDbPolyline
 62
7
  6
CONTINUOUS
 90
4
 70
0
 10
5.3111774616
 20
10.8267711695
 10
5.2629135079
 20
10.6479830673
 10
5.2199619317
 20
10.4472470624
 10
5.1906172
 20
10.2627025761
  0
LINE
  5
21B
100
AcDbEntity
  8
0
100
AcDbLine
 62
7
  6
CONTINUOUS
 10
5.2199197364
 20
10.1932279728
 11
5.2284976223
 21
10.2576594858
  0
LINE
  5
21C
100
AcDbEntity
  8
0
100
AcDbLine
 62
7
  6
CONTINUOUS
 10
5.2386428173
 20
10.2563088374
 11
5.2300649314
 21
10.1918773243
  0
LINE
  5
21D
100
AcDbEntity
  8
0
100
AcDbLine
 62
7
  6
CONTINUOUS
 10
5.2467799541
 20
10.1896520226
 11
5.25535784
 21
10.2540835356
  0
LINE
  5
21E
100
AcDbEntity
  8
0
100
AcDbLine
 62
7
  6
CONTINUOUS
 10
5.2664868019
 20
10.2526019165
 11
5.257908916
 21
10.1881704034
  0
LINE
  5
21F
100
AcDbEntity
  8
0
100
AcDbLine
 62
7
  6
CONTINUOUS
 10
5.2594810366
 20
10.1879611041
 11
5.2350670537
 21
10.0045791054
  0
LINE
  5
220
100
AcDbEntity
  8
0
100
AcDbLine
 62
7
  6
CONTINUOUS
 10
5.2761353139
 20
10.1857438895
 11
5.2847131998
 21
10.2501754026
  0
LINE
  5
221
100
AcDbEntity
  8
0
100
AcDbLine
 62
7
  6
CONTINUOUS
 10
5.2967820077
 20
10.24856866
 11
5.2882041218
 21
10.1841371469
  0
LINE
  5
222
100
AcDbEntity
  8
0
100
AcDbLine
 62
7
  6
CONTINUOUS
 10
5.3078699637
 20
10.1815189972
 11
5.3164478496
 21
10.2459505103
  0
LINE
  5
223
100
AcDbEntity
  8
0
100
AcDbLine
 62
7
  6
CONTINUOUS
 10
5.3294088735
 20
10.2442249853
 11
5.3208309876
 21
10.1797934723
  0
LINE
  5
224
100
AcDbEntity
  8
0
100
AcDbLine
 62
7
  6
CONTINUOUS
 10
5.3418586613
 20
10.1769940194
 11
5.3504365472
 21
10.2414255324
  0
LINE
  5
225
100
AcDbEntity
  8
0
100
AcDbLine
 62
7
  6
CONTINUOUS
 10
5.3642386358
 20
10.239588035
 11
5.3556607499
 21
10.1751565219
  0
LINE
  5
226
100
AcDbEntity
  8
0
100
AcDbLine
 62
7
  6
CONTINUOUS
 10
5.3766469303
 20
10.1723625931
 11
5.3852248162
 21
10.2367941062
  0
LINE
  5
227
100
AcDbEntity
  8
0
100
AcDbLine
 62
7
  6
CONTINUOUS
 10
5.3779672689
 20
10.172186814
 11
5.3865451548
 21
10.236618327
  0
LINE
  5
228
100
AcDbEntity
  8
0
100
AcDbLine
 62
7
  6
CONTINUOUS
 10
5.4011338374
 20
10.2346761089
 11
5.3925559516
 21
10.1702445958
  0
LINE
  5
229
100
AcDbEntity
  8
0
100
AcDbLine
 62
7
  6
CONTINUOUS
 10
5.4134178158
 20
10.1674672175
 11
5.4219957017
 21
10.2318987305
  0
LINE
  5
22A
100
AcDbEntity
  8
0
100
AcDbLine
 62
7
  6
CONTINUOUS
 10
5.4160532822
 20
10.167116353
 11
5.4246311681
 21
10.231547866
  0
LINE
  5
22B
100
AcDbEntity
  8
0
100
AcDbLine
 62
7
  6
CONTINUOUS
 10
5.43994887
 20
10.2295085922
 11
5.4313709842
 21
10.1650770791
  0
LINE
  5
22C
100
AcDbEntity
  8
0
100
AcDbLine
 62
7
  6
CONTINUOUS
 10
5.4520262
 20
10.1623272122
 11
5.4606040859
 21
10.2267587253
  0
LINE
  5
22D
100
AcDbEntity
  8
0
100
AcDbLine
 62
7
  6
CONTINUOUS
 10
5.4559663931
 20
10.1618026471
 11
5.464544279
 21
10.2262341601
  0
LINE
  5
22E
100
AcDbEntity
  8
0
100
AcDbLine
 62
7
  6
CONTINUOUS
 10
5.4805305483
 20
10.2241058787
 11
5.4719526624
 21
10.1596743656
  0
LINE
  5
22F
100
AcDbEntity
  8
0
100
AcDbLine
 62
7
  6
CONTINUOUS
 10
5.4923197132
 20
10.1569628627
 11
5.500897599
 21
10.2213943757
  0
LINE
  5
230
100
AcDbEntity
  8
0
100
AcDbLine
 62
7
  6
CONTINUOUS
 10
5.497549083
 20
10.1562666671
 11
5.5061269688
 21
10.2206981801
  0
LINE
  5
231
100
AcDbEntity
  8
0
100
AcDbLine
 62
7
  6
CONTINUOUS
 10
5.522718715
 20
10.2184892904
 11
5.5141408291
 21
10.1540577774
  0
LINE
  5
232
100
AcDbEntity
  8
0
100
AcDbLine
 62
7
  6
CONTINUOUS
 10
5.5341393352
 20
10.1513953395
 11
5.5427172211
 21
10.2158268525
  0
LINE
  5
233
100
AcDbEntity
  8
0
100
AcDbLine
 62
7
  6
CONTINUOUS
 10
5.5406372438
 20
10.1505302609
 11
5.5492151296
 21
10.214961774
  0
LINE
  5
234
100
AcDbEntity
  8
0
100
AcDbLine
 62
7
  6
CONTINUOUS
 10
5.5663468725
 20
10.2126809935
 11
5.5577689866
 21
10.1482494805
  0
LINE
  5
235
100
AcDbEntity
  8
0
100
AcDbLine
 62
7
  6
CONTINUOUS
 10
5.5773200233
 20
10.145646615
 11
5.5858979091
 21
10.2100781281
  0
LINE
  5
236
100
AcDbEntity
  8
0
100
AcDbLine
 62
7
  6
CONTINUOUS
 10
5.5850608262
 20
10.1446160677
 11
5.5936387121
 21
10.2090475807
  0
LINE
  5
237
100
AcDbEntity
  8
0
100
AcDbLine
 62
7
  6
CONTINUOUS
 10
5.6112428406
 20
10.2067039107
 11
5.6026649547
 21
10.1422723977
  0
LINE
  5
238
100
AcDbEntity
  8
0
100
AcDbLine
 62
7
  6
CONTINUOUS
 10
5.6216913628
 20
10.1397393769
 11
5.6302692487
 21
10.20417089
  0
LINE
  5
239
100
AcDbEntity
  8
0
100
AcDbLine
 62
7
  6
CONTINUOUS
 10
5.6306445108
 20
10.1385474279
 11
5.6392223967
 21
10.2029789409
  0
LINE
  5
23A
100
AcDbEntity
  8
0
100
AcDbLine
 62
7
  6
CONTINUOUS
 10
5.6572294354
 20
10.2005816307
 11
5.6486515495
 21
10.1361501177
  0
LINE
  5
23B
100
AcDbEntity
  8
0
100
AcDbLine
 62
7
  6
CONTINUOUS
 10
5.6670782405
 20
10.1336969384
 11
5.6756561263
 21
10.1981284515
  0
LINE
  5
23C
100
AcDbEntity
  8
0
100
AcDbLine
 62
7
  6
CONTINUOUS
 10
5.6772083995
 20
10.1323482917
 11
5.6857862854
 21
10.1967798048
  0
LINE
  5
23D
100
AcDbEntity
  8
0
100
AcDbLine
 62
7
  6
CONTINUOUS
 10
5.7041251687
 20
10.1943383155
 11
5.6955472828
 21
10.1299068024
  0
LINE
  5
23E
100
AcDbEntity
  8
0
100
AcDbLine
 62
7
  6
CONTINUOUS
 10
5.7133015349
 20
10.1275431462
 11
5.7218794208
 21
10.1919746592
  0
LINE
  5
23F
100
AcDbEntity
  8
0
100
AcDbLine
 62
7
  6
CONTINUOUS
 10
5.724568726
 20
10.1260431243
 11
5.7331466119
 21
10.1904746374
  0
LINE
  5
240
100
AcDbEntity
  8
0
100
AcDbLine
 62
7
  6
CONTINUOUS
 10
5.7517449645
 20
10.1879986044
 11
5.7431670786
 21
10.1235670914
  0
LINE
  5
241
100
AcDbEntity
  8
0
100
AcDbLine
 62
7
  6
CONTINUOUS
 10
5.760178824
 20
10.1213022864
 11
5.7687567099
 21
10.1857337995
  0
LINE
  5
242
100
AcDbEntity
  8
0
100
AcDbLine
 62
7
  6
CONTINUOUS
 10
5.7725385806
 20
10.1196568093
 11
5.7811164665
 21
10.1840883224
  0
LINE
  5
243
100
AcDbEntity
  8
0
100
AcDbLine
 62
7
  6
CONTINUOUS
 10
5.7999008893
 20
10.1815875176
 11
5.7913230034
 21
10.1171560045
  0
LINE
  5
244
100
AcDbEntity
  8
0
100
AcDbLine
 62
7
  6
CONTINUOUS
 10
5.8075251045
 20
10.114998989
 11
5.8161029904
 21
10.179430502
  0
LINE
  5
245
100
AcDbEntity
  8
0
100
AcDbLine
 62
7
  6
CONTINUOUS
 10
5.8209286482
 20
10.1132145506
 11
5.8295065341
 21
10.1776460636
  0
LINE
  5
246
100
AcDbEntity
  8
0
100
AcDbLine
 62
7
  6
CONTINUOUS
 10
5.8484028936
 20
10.1751303565
 11
5.8398250078
 21
10.1106988435
  0
LINE
  5
247
100
AcDbEntity
  8
0
100
AcDbLine
 62
7
  6
CONTINUOUS
 10
5.8551535222
 20
10.1086581301
 11
5.8637314081
 21
10.1730896432
  0
LINE
  5
248
100
AcDbEntity
  8
0
100
AcDbLine
 62
7
  6
CONTINUOUS
 10
5.8695479554
 20
10.1067417727
 11
5.8781258413
 21
10.1711732858
  0
LINE
  5
249
100
AcDbEntity
  8
0
100
AcDbLine
 62
7
  6
CONTINUOUS
 10
5.8970595622
 20
10.1686526047
 11
5.8884816763
 21
10.1042210916
  0
LINE
  5
24A
100
AcDbEntity
  8
0
100
AcDbLine
 62
7
  6
CONTINUOUS
 10
5.9028761096
 20
10.1023047343
 11
5.9114539954
 21
10.1667362473
  0
LINE
  5
24B
100
AcDbEntity
  8
0
100
AcDbLine
 62
7
  6
CONTINUOUS
 10
5.918204624
 20
10.1002640209
 11
5.9267825099
 21
10.164695534
  0
LINE
  5
24C
100
AcDbEntity
  8
0
100
AcDbLine
 62
7
  6
CONTINUOUS
 10
5.9456788694
 20
10.1621798269
 11
5.9371009836
 21
10.0977483138
  0
LINE
  5
24D
100
AcDbEntity
  8
0
100
AcDbLine
 62
7
  6
CONTINUOUS
 10
5.9505045273
 20
10.0959638754
 11
5.9590824131
 21
10.1603953884
  0
LINE
  5
24E
100
AcDbEntity
  8
0
100
AcDbLine
 62
7
  6
CONTINUOUS
 10
5.9667066284
 20
10.0938068599
 11
5.9752845142
 21
10.1582383729
  0
LINE
  5
24F
100
AcDbEntity
  8
0
100
AcDbLine
 62
7
  6
CONTINUOUS
 10
5.9940689371
 20
10.1557375681
 11
5.9854910512
 21
10.0913060551
  0
LINE
  5
250
100
AcDbEntity
  8
0
100
AcDbLine
 62
7
  6
CONTINUOUS
 10
5.9978508077
 20
10.089660578
 11
6.0064286936
 21
10.154092091
  0
LINE
  5
251
100
AcDbEntity
  8
0
100
AcDbLine
 62
9
  6
CONTINUOUS
 10
5.9781521598
 20
10.737983887
 11
6.0626161801
 21
11.2678243537
  0
LINE
  5
252
100
AcDbEntity
  8
0
100
AcDbLine
 62
7
  6
CONTINUOUS
 10
6.0148625532
 20
10.087395773
 11
6.023440439
 21
10.151827286
  0
LINE
  5
253
100
AcDbEntity
  8
0
100
AcDbLine
 62
7
  6
CONTINUOUS
 10
6.0420387917
 20
10.1493512531
 11
6.0334609058
 21
10.0849197401
  0
LINE
  5
254
100
AcDbEntity
  8
0
100
AcDbLine
 62
7
  6
CONTINUOUS
 10
6.0447280968
 20
10.0834197182
 11
6.0533059827
 21
10.1478512313
  0
LINE
  5
255
100
AcDbEntity
  8
0
100
AcDbLine
 62
7
  6
CONTINUOUS
 10
6.062482349
 20
10.0810560619
 11
6.0710602349
 21
10.145487575
  0
LINE
  5
256
100
AcDbEntity
  8
0
100
AcDbLine
 62
7
  6
CONTINUOUS
 10
6.0893991181
 20
10.1430460857
 11
6.0808212322
 21
10.0786145727
  0
LINE
  5
257
100
AcDbEntity
  8
0
100
AcDbLine
 62
7
  6
CONTINUOUS
 10
6.0909513913
 20
10.077265926
 11
6.0995292772
 21
10.141697439
  0
LINE
  5
258
100
AcDbEntity
  8
0
100
AcDbLine
 62
7
  6
CONTINUOUS
 10
6.1093780823
 20
10.0748127467
 11
6.1179559682
 21
10.1392442597
  0
LINE
  5
259
100
AcDbEntity
  8
0
100
AcDbLine
 62
7
  6
CONTINUOUS
 10
6.1359630068
 20
10.1368469496
 11
6.127385121
 21
10.0724154365
  0
LINE
  5
25A
100
AcDbEntity
  8
0
100
AcDbLine
 62
7
  6
CONTINUOUS
 10
6.136338269
 20
10.0712234874
 11
6.1449161549
 21
10.1356550005
  0
LINE
  5
25B
100
AcDbEntity
  8
0
100
AcDbLine
 62
7
  6
CONTINUOUS
 10
6.1553646771
 20
10.0686904667
 11
6.1639425629
 21
10.1331219798
  0
LINE
  5
25C
100
AcDbEntity
  8
0
100
AcDbLine
 62
7
  6
CONTINUOUS
 10
6.1815466914
 20
10.1307783098
 11
6.1729688055
 21
10.0663467967
  0
LINE
  5
25D
100
AcDbEntity
  8
0
100
AcDbLine
 62
7
  6
CONTINUOUS
 10
6.1807096085
 20
10.0653162494
 11
6.1892874944
 21
10.1297477624
  0
LINE
  5
25E
100
AcDbEntity
  8
0
100
AcDbLine
 62
7
  6
CONTINUOUS
 10
6.2002606451
 20
10.0627133839
 11
6.208838531
 21
10.1271448969
  0
LINE
  5
25F
100
AcDbEntity
  8
0
100
AcDbLine
 62
7
  6
CONTINUOUS
 10
6.2259702739
 20
10.1248641165
 11
6.217392388
 21
10.0604326034
  0
LINE
  5
260
100
AcDbEntity
  8
0
100
AcDbLine
 62
7
  6
CONTINUOUS
 10
6.2238902966
 20
10.0595675249
 11
6.2324681824
 21
10.123999038
  0
LINE
  5
261
100
AcDbEntity
  8
0
100
AcDbLine
 62
7
  6
CONTINUOUS
 10
6.2438888027
 20
10.056905087
 11
6.2524666886
 21
10.1213366
  0
LINE
  5
262
100
AcDbEntity
  8
0
100
AcDbLine
 62
7
  6
CONTINUOUS
 10
6.2690584347
 20
10.1191277104
 11
6.2604805488
 21
10.0546961973
  0
LINE
  5
263
100
AcDbEntity
  8
0
100
AcDbLine
 62
7
  6
CONTINUOUS
 10
6.2657099186
 20
10.0540000017
 11
6.2742878045
 21
10.1184315147
  0
LINE
  5
264
100
AcDbEntity
  8
0
100
AcDbLine
 62
7
  6
CONTINUOUS
 10
6.2860769693
 20
10.0512884988
 11
6.2946548552
 21
10.1157200118
  0
LINE
  5
265
100
AcDbEntity
  8
0
100
AcDbLine
 62
7
  6
CONTINUOUS
 10
6.3106411245
 20
10.1135917304
 11
6.3020632386
 21
10.0491602173
  0
LINE
  5
266
100
AcDbEntity
  8
0
100
AcDbLine
 62
7
  6
CONTINUOUS
 10
6.3060034318
 20
10.0486356521
 11
6.3145813177
 21
10.1130671652
  0
LINE
  5
267
100
AcDbEntity
  8
0
100
AcDbLine
 62
7
  6
CONTINUOUS
 10
6.3266586476
 20
10.0458857853
 11
6.3352365335
 21
10.1103172983
  0
LINE
  5
268
100
AcDbEntity
  8
0
100
AcDbLine
 62
7
  6
CONTINUOUS
 10
6.3505542355
 20
10.1082780245
 11
6.3419763496
 21
10.0438465114
  0
LINE
  5
269
100
AcDbEntity
  8
0
100
AcDbLine
 62
7
  6
CONTINUOUS
 10
6.344611816
 20
10.0434956469
 11
6.3531897018
 21
10.10792716
  0
LINE
  5
26A
100
AcDbEntity
  8
0
100
AcDbLine
 62
7
  6
CONTINUOUS
 10
6.3654736802
 20
10.0407182686
 11
6.3740515661
 21
10.1051497816
  0
LINE
  5
26B
100
AcDbEntity
  8
0
100
AcDbLine
 62
7
  6
CONTINUOUS
 10
6.3886402488
 20
10.1032075634
 11
6.3800623629
 21
10.0387760504
  0
LINE
  5
26C
100
AcDbEntity
  8
0
100
AcDbLine
 62
7
  6
CONTINUOUS
 10
6.3813827015
 20
10.0386002713
 11
6.3899605874
 21
10.1030317843
  0
LINE
  5
26D
100
AcDbEntity
  8
0
100
AcDbLine
 62
7
  6
CONTINUOUS
 10
6.4023688819
 20
10.0358063425
 11
6.4109467678
 21
10.1002378555
  0
LINE
  5
26E
100
AcDbEntity
  8
0
100
AcDbLine
 62
7
  6
CONTINUOUS
 10
6.4247488563
 20
10.0984003581
 11
6.4161709705
 21
10.033968845
  0
LINE
  5
26F
100
AcDbEntity
  8
0
100
AcDbLine
 62
7
  6
CONTINUOUS
 10
6.4371986442
 20
10.0311693921
 11
6.4457765301
 21
10.0956009052
  0
LINE
  5
270
100
AcDbEntity
  8
0
100
AcDbLine
 62
7
  6
CONTINUOUS
 10
6.4587375539
 20
10.0938753802
 11
6.4501596681
 21
10.0294438672
  0
LINE
  5
271
100
AcDbEntity
  8
0
100
AcDbLine
 62
7
  6
CONTINUOUS
 10
6.4698255099
 20
10.0268257175
 11
6.4784033958
 21
10.0912572305
  0
LINE
  5
272
100
AcDbEntity
  8
0
100
AcDbLine
 62
7
  6
CONTINUOUS
 10
6.4904722037
 20
10.0896504879
 11
6.4818943179
 21
10.0252189749
  0
LINE
  5
273
100
AcDbEntity
  8
0
100
AcDbLine
 62
7
  6
CONTINUOUS
 10
6.4985485952
 20
10.0230017603
 11
6.4741346123
 21
9.8396197616
  0
LINE
  5
274
100
AcDbEntity
  8
0
100
AcDbLine
 62
7
  6
CONTINUOUS
 10
6.5001207158
 20
10.022792461
 11
6.5086986017
 21
10.087223974
  0
LINE
  5
275
100
AcDbEntity
  8
0
100
AcDbLine
 62
7
  6
CONTINUOUS
 10
6.5198275636
 20
10.0857423548
 11
6.5112496777
 21
10.0213108418
  0
LINE
  5
276
100
AcDbEntity
  8
0
100
AcDbLine
 62
7
  6
CONTINUOUS
 10
6.5279647004
 20
10.0190855401
 11
6.5365425863
 21
10.0835170531
  0
LINE
  5
277
100
AcDbEntity
  8
0
100
AcDbLine
 62
7
  6
CONTINUOUS
 10
6.5466877813
 20
10.0821664046
 11
6.5381098954
 21
10.0177348916
  0
LINE
  5
278
100
AcDbEntity
  8
0
100
AcDbLine
 62
7
  6
CONTINUOUS
 10
6.5532475763
 20
10.0157195843
 11
6.5618254622
 21
10.0801510973
  0
LINE
  5
279
100
AcDbEntity
  8
0
100
AcDbLine
 62
7
  6
CONTINUOUS
 10
6.5709468518
 20
10.07893675
 11
6.5623689659
 21
10.0145052369
  0
LINE
  5
27A
100
AcDbEntity
  8
0
100
AcDbLine
 62
7
  6
CONTINUOUS
 10
6.5758695635
 20
10.0127078775
 11
6.5844474494
 21
10.0771393906
  0
LINE
  5
27B
100
AcDbEntity
  8
0
100
AcDbLine
 62
7
  6
CONTINUOUS
 10
6.5925090357
 20
10.0760661367
 11
6.5839311498
 21
10.0116346237
  0
LINE
  5
27C
100
AcDbEntity
  8
0
100
AcDbLine
 62
7
  6
CONTINUOUS
 10
6.5957413834
 20
10.0100623056
 11
6.6043192693
 21
10.0744938186
  0
LINE
  5
27D
100
AcDbEntity
  8
0
100
AcDbLine
 62
7
  6
CONTINUOUS
 10
6.6112892368
 20
10.073565894
 11
6.6027113509
 21
10.009134381
  0
LINE
  5
27E
100
AcDbEntity
  8
0
100
AcDbLine
 62
7
  6
CONTINUOUS
 10
6.612784611
 20
10.0077933093
 11
6.6213624968
 21
10.0722248224
  0
LINE
  5
27F
100
AcDbEntity
  8
0
100
AcDbLine
 62
7
  6
CONTINUOUS
 10
6.6272133384
 20
10.0714458891
 11
6.6186354525
 21
10.007014376
  0
LINE
  5
280
100
AcDbEntity
  8
0
100
AcDbLine
 62
7
  6
CONTINUOUS
 10
6.6269319844
 20
10.0059098435
 11
6.6355098702
 21
10.0703413565
  0
LINE
  5
281
100
AcDbEntity
  8
0
100
AcDbLine
 62
7
  6
CONTINUOUS
 10
6.6402184952
 20
10.0697144886
 11
6.6316406093
 21
10.0052829756
  0
LINE
  5
282
100
AcDbEntity
  8
0
100
AcDbLine
 62
7
  6
CONTINUOUS
 10
6.6381276704
 20
10.0044193412
 11
6.6467055563
 21
10.0688508542
  0
LINE
  5
283
100
AcDbEntity
  8
0
100
AcDbLine
 62
7
  6
CONTINUOUS
 10
6.6502533818
 20
10.0683785257
 11
6.6416754959
 21
10.0039470126
  0
LINE
  5
284
100
AcDbEntity
  8
0
100
AcDbLine
 62
7
  6
CONTINUOUS
 10
6.6463274848
 20
10.0033276848
 11
6.6549053707
 21
10.0677591979
  0
LINE
  5
285
100
AcDbEntity
  8
0
100
AcDbLine
 62
7
  6
CONTINUOUS
 10
6.6572783952
 20
10.0674432727
 11
6.6487005093
 21
10.0030117597
  0
LINE
  5
286
100
AcDbEntity
  8
0
100
AcDbLine
 62
7
  6
CONTINUOUS
 10
6.6514990667
 20
10.0026391826
 11
6.6600769526
 21
10.0670706956
  0
LINE
  5
287
100
AcDbEntity
  8
0
100
AcDbLine
 62
7
  6
CONTINUOUS
 10
6.6612658107
 20
10.0669124208
 11
6.6526879248
 21
10.0024809077
  0
LINE
  5
288
100
AcDbEntity
  8
0
100
AcDbLine
 62
7
  6
CONTINUOUS
 10
6.6536220061
 20
10.0023565518
 11
6.662199892
 21
10.0667880648
  0
LWPOLYLINE
  5
289
100
AcDbEntity
  8
0
100
AcDbPolyline
 62
7
  6
CONTINUOUS
 90
4
 70
0
 10
6.5850399418
 20
10.0790984537
 10
6.592689454
 20
10.1111264968
 10
6.6044781694
 20
10.163242456
 10
6.6114568577
 20
10.1958733445
  0
LINE
  5
28A
100
AcDbEntity
  8
0
100
AcDbLine
 62
9
  6
CONTINUOUS
 10
7.7503175862
 20
10.130047467
 11
8.0390551579
 21
11.1712018056
  0
LINE
  5
28B
100
AcDbEntity
  8
0
100
AcDbLine
 62
7
  6
CONTINUOUS
 10
13.4656191022
 20
6.6897204498
 11
16.3156152979
 21
6.6897204498
  0
LINE
  5
28C
100
AcDbEntity
  8
0
100
AcDbLine
 62
7
  6
CONTINUOUS
 10
16.3156172
 20
6.8397204498
 11
13.4656172
 21
6.8397204498
  0
LINE
  5
28D
100
AcDbEntity
  8
0
100
AcDbLine
 62
7
  6
CONTINUOUS
 10
13.5156172
 20
6.8897204498
 11
16.2656172
 21
6.8897204498
  0
LINE
  5
28E
100
AcDbEntity
  8
0
100
AcDbLine
 62
7
  6
CONTINUOUS
 10
13.466863915
 20
7.0897204498
 11
13.4684339937
 21
7.0897204498
  0
LINE
  5
28F
100
AcDbEntity
  8
0
100
AcDbLine
 62
7
  6
CONTINUOUS
 10
16.1377286955
 20
7.0897204498
 11
16.1395992779
 21
7.0897204498
  0
LINE
  5
290
100
AcDbEntity
  8
0
100
AcDbLine
 62
7
  6
CONTINUOUS
 10
13.4693217317
 20
7.0897204498
 11
16.137078248
 21
7.0897204498
  0
LINE
  5
291
100
AcDbEntity
  8
0
100
AcDbLine
 62
7
  6
CONTINUOUS
 10
16.1400750434
 20
7.0897204498
 11
16.3003416248
 21
7.0897204498
  0
LINE
  5
292
100
AcDbEntity
  8
0
100
AcDbLine
 62
7
  6
CONTINUOUS
 10
16.3155830142
 20
7.0897204498
 11
16.3156134016
 21
7.0897204498
  0
LINE
  5
293
100
AcDbEntity
  8
0
100
AcDbLine
 62
7
  6
CONTINUOUS
 10
16.3123716965
 20
7.0897204498
 11
16.314370485
 21
7.0897204498
  0
LINE
  5
294
100
AcDbEntity
  8
0
100
AcDbLine
 62
7
  6
CONTINUOUS
 10
16.3022033465
 20
7.0897204498
 11
16.3114233318
 21
7.0897204498
  0
LINE
  5
295
100
AcDbEntity
  8
0
100
AcDbLine
 62
7
  6
CONTINUOUS
 10
16.314370485
 20
7.1647204498
 11
16.3128004064
 21
7.1647204498
  0
LINE
  5
296
100
AcDbEntity
  8
0
100
AcDbLine
 62
7
  6
CONTINUOUS
 10
16.3119126684
 20
7.1647204498
 11
16.1400750434
 21
7.1647204498
  0
LINE
  5
297
100
AcDbEntity
  8
0
100
AcDbLine
 62
7
  6
CONTINUOUS
 10
13.6435057046
 20
7.1647204498
 11
13.6416351221
 21
7.1647204498
  0
LINE
  5
298
100
AcDbEntity
  8
0
100
AcDbLine
 62
7
  6
CONTINUOUS
 10
13.4656513859
 20
7.1647204498
 11
13.4656209985
 21
7.1647204498
  0
LINE
  5
299
100
AcDbEntity
  8
0
100
AcDbLine
 62
7
  6
CONTINUOUS
 10
13.4688627035
 20
7.1647204498
 11
13.466863915
 21
7.1647204498
  0
LINE
  5
29A
100
AcDbEntity
  8
0
100
AcDbLine
 62
7
  6
CONTINUOUS
 10
13.4790310536
 20
7.1647204498
 11
13.4698110682
 21
7.1647204498
  0
LINE
  5
29B
100
AcDbEntity
  8
0
100
AcDbLine
 62
7
  6
CONTINUOUS
 10
13.6413014354
 20
7.1647204498
 11
13.4808927753
 21
7.1647204498
  0
LINE
  5
29C
100
AcDbEntity
  8
0
100
AcDbLine
 62
7
  6
CONTINUOUS
 10
13.644156152
 20
7.1647204498
 11
16.1395992779
 21
7.1647204498
  0
LINE
  5
29D
100
AcDbEntity
  8
0
100
AcDbLine
 62
7
  6
CONTINUOUS
 10
16.0530869612
 20
7.2647204498
 11
13.7281474389
 21
7.2647204498
  0
LINE
  5
29E
100
AcDbEntity
  8
0
100
AcDbLine
 62
7
  6
CONTINUOUS
 10
15.8156162083
 20
7.3647204498
 11
13.9656181918
 21
7.3647204498
  0
LINE
  5
29F
100
AcDbEntity
  8
0
100
AcDbLine
 62
9
  6
CONTINUOUS
 10
16.0031172
 20
7.7757204498
 11
15.7656172
 21
7.7757204498
  0
LINE
  5
2A0
100
AcDbEntity
  8
0
100
AcDbLine
 62
9
  6
CONTINUOUS
 10
14.0156172
 20
7.7757204498
 11
13.7781172
 21
7.7757204498
  0
LINE
  5
2A1
100
AcDbEntity
  8
0
100
AcDbLine
 62
7
  6
CONTINUOUS
 10
13.7281172
 20
7.8007204498
 11
14.0156172
 21
7.8007204498
  0
LINE
  5
2A2
100
AcDbEntity
  8
0
100
AcDbLine
 62
7
  6
CONTINUOUS
 10
15.7656172
 20
7.8007204498
 11
16.0531172
 21
7.8007204498
  0
LINE
  5
2A3
100
AcDbEntity
  8
0
100
AcDbLine
 62
7
  6
CONTINUOUS
 10
15.7656172
 20
7.8897204498
 11
14.0156172
 21
7.8897204498
  0
LINE
  5
2A4
100
AcDbEntity
  8
0
100
AcDbLine
 62
7
  6
CONTINUOUS
 10
13.9406172
 20
7.9647204498
 11
15.8406172
 21
7.9647204498
  0
LINE
  5
2A5
100
AcDbEntity
  8
0
100
AcDbLine
 62
7
  6
CONTINUOUS
 10
13.8656181929
 20
8.0647204498
 11
15.9156162072
 21
8.0647204498
  0
LINE
  5
2A6
100
AcDbEntity
  8
0
100
AcDbLine
 62
9
  6
CONTINUOUS
 10
16.1635375085
 20
8.1072785608
 11
15.9156172
 21
8.1072785608
  0
LINE
  5
2A7
100
AcDbEntity
  8
0
100
AcDbLine
 62
9
  6
CONTINUOUS
 10
13.8656172
 20
8.1072785608
 11
13.6176968915
 21
8.1072785608
  0
LINE
  5
2A8
100
AcDbEntity
  8
0
100
AcDbLine
 62
9
  6
CONTINUOUS
 10
13.611089641
 20
8.1242109784
 11
13.8656172
 21
8.1242109784
  0
LINE
  5
2A9
100
AcDbEntity
  8
0
100
AcDbLine
 62
9
  6
CONTINUOUS
 10
15.9156172
 20
8.1242109784
 11
16.1701447591
 21
8.1242109784
  0
LINE
  5
2AA
100
AcDbEntity
  8
0
100
AcDbLine
 62
7
  6
CONTINUOUS
 10
15.9156162072
 20
8.2647204498
 11
13.8656181929
 21
8.2647204498
  0
LINE
  5
2AB
100
AcDbEntity
  8
0
100
AcDbLine
 62
7
  6
CONTINUOUS
 10
15.8406172
 20
8.3147204498
 11
13.9406172
 21
8.3147204498
  0
LINE
  5
2AC
100
AcDbEntity
  8
0
100
AcDbLine
 62
7
  6
CONTINUOUS
 10
15.7406163128
 20
8.4147204498
 11
14.0406180873
 21
8.4147204498
  0
LINE
  5
2AD
100
AcDbEntity
  8
0
100
AcDbLine
 62
7
  6
CONTINUOUS
 10
15.6406049621
 20
8.4647204498
 11
14.140629438
 21
8.4647204498
  0
LINE
  5
2AE
100
AcDbEntity
  8
0
100
AcDbLine
 62
7
  6
CONTINUOUS
 10
15.2906164284
 20
8.5647204498
 11
14.4906179717
 21
8.5647204498
  0
LINE
  5
2AF
100
AcDbEntity
  8
0
100
AcDbLine
 62
7
  6
CONTINUOUS
 10
14.5781292872
 20
8.5947204498
 11
15.2031051129
 21
8.5947204498
  0
LINE
  5
2B0
100
AcDbEntity
  8
0
100
AcDbLine
 62
9
  6
CONTINUOUS
 10
15.4150998898
 20
9.3479972353
 11
15.5155456728
 21
9.3586198795
  0
LWPOLYLINE
  5
2B1
100
AcDbEntity
  8
0
100
AcDbPolyline
 62
7
  6
CONTINUOUS
 90
4
 70
0
 10
15.515544772
 20
9.3586207832
 10
15.3222777422
 20
9.3431969829
 10
15.1380726536
 20
9.3270122812
 10
14.9733351784
 20
9.3129946849
  0
LWPOLYLINE
  5
2B2
100
AcDbEntity
  8
0
100
AcDbPolyline
 62
7
  6
CONTINUOUS
 90
4
 70
0
 10
13.4306727036
 20
8.9637821342
 10
13.7434762466
 20
8.9656208602
 10
14.0971607652
 20
8.9698432493
 10
14.4501748605
 20
8.9743159872
  0
LINE
  5
2B3
100
AcDbEntity
  8
0
100
AcDbLine
 62
9
  6
CONTINUOUS
 10
15.2031172
 20
8.8877204498
 11
14.5781172
 21
8.8877204498
  0
LINE
  5
2B4
100
AcDbEntity
  8
0
100
AcDbLine
 62
7
  6
CONTINUOUS
 10
14.4906179717
 20
8.9077204498
 11
15.2906164284
 21
8.9077204498
  0
LINE
  5
2B5
100
AcDbEntity
  8
0
100
AcDbLine
 62
9
  6
CONTINUOUS
 10
15.8611263454
 20
9.0178040426
 11
15.8411263454
 21
9.0178040426
  0
LINE
  5
2B6
100
AcDbEntity
  8
0
100
AcDbLine
 62
9
  6
CONTINUOUS
 10
13.4339389684
 20
9.0178040426
 11
13.3906172
 21
9.0178040426
  0
LINE
  5
2B7
100
AcDbEntity
  8
0
100
AcDbLine
 62
9
  6
CONTINUOUS
 10
15.3839258104
 20
9.0178040426
 11
15.4401080547
 21
9.0178040426
  0
LINE
  5
2B8
100
AcDbEntity
  8
0
100
AcDbLine
 62
7
  6
CONTINUOUS
 10
15.6165429782
 20
8.963784394
 11
15.6165373884
 21
8.9637844094
  0
LINE
  5
2B9
100
AcDbEntity
  8
0
100
AcDbLine
 62
7
  6
CONTINUOUS
 10
15.4327684902
 20
8.9659802276
 11
15.6165430468
 21
8.9637877006
  0
LINE
  5
2BA
100
AcDbEntity
  8
0
100
AcDbLine
 62
9
  6
CONTINUOUS
 10
15.8611263454
 20
9.3083243778
 11
15.8411263454
 21
9.3083243778
  0
LINE
  5
2BB
100
AcDbEntity
  8
0
100
AcDbLine
 62
9
  6
CONTINUOUS
 10
13.4339389684
 20
9.3083243778
 11
13.3906172
 21
9.3083243778
  0
LINE
  5
2BC
100
AcDbEntity
  8
0
100
AcDbLine
 62
9
  6
CONTINUOUS
 10
15.3839258104
 20
9.3083243778
 11
15.4401080547
 21
9.3083243778
  0
LINE
  5
2BD
100
AcDbEntity
  8
0
100
AcDbLine
 62
7
  6
CONTINUOUS
 10
15.2906164284
 20
9.3827204498
 11
14.4906179717
 21
9.3827204498
  0
LINE
  5
2BE
100
AcDbEntity
  8
0
100
AcDbLine
 62
7
  6
CONTINUOUS
 10
15.2031051129
 20
9.4577204498
 11
14.5781292872
 21
9.4577204498
  0
LWPOLYLINE
  5
2BF
100
AcDbEntity
  8
0
100
AcDbPolyline
 62
7
  6
CONTINUOUS
 90
3
 70
0
 10
15.076129033
 20
8.9747028703
 10
15.2457532209
 20
8.9704647492
 10
15.4327684902
 20
8.9659802276
  0
LWPOLYLINE
  5
2C0
100
AcDbEntity
  8
0
100
AcDbPolyline
 62
7
  6
CONTINUOUS
 90
7
 70
0
 10
14.4501748608
 20
8.9743159926
 10
14.4589249032
 20
8.9734462054
 10
14.4701758957
 20
8.9692105236
 10
14.4796661187
 20
8.9618168131
 10
14.4865293974
 20
8.9519341834
 10
14.4901417452
 20
8.9404674878
 10
14.4906172064
 20
8.9343184363
  0
LINE
  5
2C1
100
AcDbEntity
  8
0
100
AcDbLine
 62
7
  6
CONTINUOUS
 10
5.2454315552
 20
9.8518757923
 11
6.4241798683
 21
9.6949468606
  0
LINE
  5
2C2
100
AcDbEntity
  8
0
100
AcDbLine
 62
9
  6
CONTINUOUS
 10
6.4346218278
 20
9.7007625828
 11
5.2368748453
 21
9.8602208423
  0
LINE
  5
2C3
100
AcDbEntity
  8
0
100
AcDbLine
 62
9
  6
CONTINUOUS
 10
5.2350670537
 20
10.0045791054
 11
6.4741346123
 21
9.8396197616
  0
LINE
  5
2C4
100
AcDbEntity
  8
0
100
AcDbLine
 62
7
  6
CONTINUOUS
 10
5.1043497782
 20
10.208614014
 11
5.3766469303
 21
10.1723625931
  0
LINE
  5
2C5
100
AcDbEntity
  8
0
100
AcDbLine
 62
7
  6
CONTINUOUS
 10
5.3779672689
 20
10.172186814
 11
6.3800623629
 21
10.0387760504
  0
LINE
  5
2C6
100
AcDbEntity
  8
0
100
AcDbLine
 62
7
  6
CONTINUOUS
 10
6.3813827015
 20
10.0386002713
 11
6.6463274848
 21
10.0033276848
  0
LINE
  5
2C7
100
AcDbEntity
  8
0
100
AcDbLine
 62
7
  6
CONTINUOUS
 10
6.6479605243
 20
10.0031102752
 11
6.6536220061
 21
10.0023565518
  0
LINE
  5
2C8
100
AcDbEntity
  8
0
100
AcDbLine
 62
7
  6
CONTINUOUS
 10
6.8825001498
 20
10.3625784483
 11
13.4257944023
 21
8.6093080375
  0
LINE
  5
2C9
100
AcDbEntity
  8
0
100
AcDbLine
 62
7
  6
CONTINUOUS
 10
6.8464385526
 20
10.5053191902
 11
12.9665052593
 21
8.8654626121
  0
LINE
  5
2CA
100
AcDbEntity
  8
0
100
AcDbLine
 62
9
  6
CONTINUOUS
 10
14.6281172
 20
9.4777204498
 11
15.1531172
 21
9.4777204498
  0
LINE
  5
2CB
100
AcDbEntity
  8
0
100
AcDbLine
 62
7
  6
CONTINUOUS
 10
15.1531062445
 20
9.5077204498
 11
14.6281281556
 21
9.5077204498
  0
LINE
  5
2CC
100
AcDbEntity
  8
0
100
AcDbLine
 62
9
  6
CONTINUOUS
 10
16.1701447591
 20
9.6595564816
 11
14.2962453272
 21
9.6595564816
  0
LINE
  5
2CD
100
AcDbEntity
  8
0
100
AcDbLine
 62
9
  6
CONTINUOUS
 10
16.1517955756
 20
9.683655543
 11
13.6294388232
 21
9.6836555436
  0
LWPOLYLINE
  5
2CE
100
AcDbEntity
  8
0
100
AcDbPolyline
 62
7
  6
CONTINUOUS
 90
4
 70
0
 10
14.4488884327
 20
9.3190889881
 10
14.0968598675
 20
9.3348804472
 10
13.744046051
 20
9.350447604
 10
13.4319609583
 20
9.3623334956
  0
LINE
  5
2CF
100
AcDbEntity
  8
0
100
AcDbLine
 62
7
  6
CONTINUOUS
 10
6.3886402488
 20
10.1032075634
 11
5.3865451548
 21
10.236618327
  0
LINE
  5
2D0
100
AcDbEntity
  8
0
100
AcDbLine
 62
7
  6
CONTINUOUS
 10
5.1186469933
 20
10.2722841022
 11
5.1129855116
 21
10.2730378257
  0
LINE
  5
2D1
100
AcDbEntity
  8
0
100
AcDbLine
 62
7
  6
CONTINUOUS
 10
5.1202800328
 20
10.2720666926
 11
5.3852248162
 21
10.2367941062
  0
LINE
  5
2D2
100
AcDbEntity
  8
0
100
AcDbLine
 62
7
  6
CONTINUOUS
 10
6.3899605874
 20
10.1030317843
 11
6.6622577394
 21
10.0667803635
  0
LINE
  5
2D3
100
AcDbEntity
  8
0
100
AcDbLine
 62
7
  6
CONTINUOUS
 10
15.8506172218
 20
10.0117204498
 11
13.9306171778
 21
10.0117204498
  0
LINE
  5
2D4
100
AcDbEntity
  8
0
100
AcDbLine
 62
9
  6
CONTINUOUS
 10
14.0056172
 20
10.0367204498
 11
15.7756172
 21
10.0367204498
  0
LINE
  5
2D5
100
AcDbEntity
  8
0
100
AcDbLine
 62
7
  6
CONTINUOUS
 10
15.7756172
 20
10.1097204498
 11
14.0056172
 21
10.1097204498
  0
LINE
  5
2D6
100
AcDbEntity
  8
0
100
AcDbLine
 62
9
  6
CONTINUOUS
 10
14.3906172
 20
10.1347204498
 11
15.3906172
 21
10.1347204498
  0
LINE
  5
2D7
100
AcDbEntity
  8
0
100
AcDbLine
 62
7
  6
CONTINUOUS
 10
15.3906172
 20
10.2697204498
 11
14.3906172
 21
10.2697204498
  0
LINE
  5
2D8
100
AcDbEntity
  8
0
100
AcDbLine
 62
7
  6
CONTINUOUS
 10
13.5772476
 20
9.6435791809
 11
13.5770257066
 21
9.6436256847
  0
LINE
  5
2D9
100
AcDbEntity
  8
0
100
AcDbLine
 62
7
  6
CONTINUOUS
 10
13.5772681706
 20
9.6435700253
 11
13.54536261
 21
9.6504122786
  0
LWPOLYLINE
  5
2DA
100
AcDbEntity
  8
0
100
AcDbPolyline
 62
7
  6
CONTINUOUS
 90
4
 70
0
 10
13.54536261
 20
9.6504122786
 10
13.4495026467
 20
9.6726861926
 10
13.3799365113
 20
9.690402504
 10
13.3396494949
 20
9.7012364974
  0
LINE
  5
2DB
100
AcDbEntity
  8
0
100
AcDbLine
 62
7
  6
CONTINUOUS
 10
13.2431172
 20
9.5922331522
 11
8.0040957804
 21
11.0451423787
  0
LINE
  5
2DC
100
AcDbEntity
  8
0
100
AcDbLine
 62
7
  6
CONTINUOUS
 10
14.4906427965
 20
10.5197204498
 11
15.2905916036
 21
10.5197204498
  0
LINE
  5
2DD
100
AcDbEntity
  8
0
100
AcDbLine
 62
7
  6
CONTINUOUS
 10
8.0390551579
 20
11.1712018056
 11
13.3396494949
 21
9.7012364974
  0
LINE
  5
2DE
100
AcDbEntity
  8
0
100
AcDbLine
 62
7
  6
CONTINUOUS
 10
14.0156172
 20
7.8897204498
 11
13.9406172
 21
7.9647204498
  0
LINE
  5
2DF
100
AcDbEntity
  8
0
100
AcDbLine
 62
7
  6
CONTINUOUS
 10
15.2905916036
 20
10.8947204498
 11
14.4906427965
 21
10.8947204498
  0
LINE
  5
2E0
100
AcDbEntity
  8
0
100
AcDbLine
 62
7
  6
CONTINUOUS
 10
15.2031154092
 20
10.9697204498
 11
14.5781189909
 21
10.9697204498
  0
LINE
  5
2E1
100
AcDbEntity
  8
0
100
AcDbLine
 62
7
  6
CONTINUOUS
 10
15.1531156957
 20
11.0197204498
 11
14.6281187043
 21
11.0197204498
  0
LINE
  5
2E2
100
AcDbEntity
  8
0
100
AcDbLine
 62
7
  6
CONTINUOUS
 10
16.0906172
 20
6.8897204498
 11
16.1406172
 21
6.8397204498
  0
LINE
  5
2E3
100
AcDbEntity
  8
0
100
AcDbLine
 62
7
  6
CONTINUOUS
 10
16.2656172
 20
6.8897204498
 11
16.3156172
 21
6.8397204498
  0
LINE
  5
2E4
100
AcDbEntity
  8
0
100
AcDbLine
 62
9
  6
CONTINUOUS
 10
13.4319609945
 20
9.3623367993
 11
13.4322579821
 21
9.3479972151
  0
LINE
  5
2E5
100
AcDbEntity
  8
0
100
AcDbLine
 62
7
  6
CONTINUOUS
 10
13.3906172
 20
9.0037818517
 11
13.3906172
 21
9.3223562837
  0
LINE
  5
2E6
100
AcDbEntity
  8
0
100
AcDbLine
 62
9
  6
CONTINUOUS
 10
13.4339390202
 20
9.0178247231
 11
13.4339389166
 21
9.3083036756
  0
LINE
  5
2E7
100
AcDbEntity
  8
0
100
AcDbLine
 62
7
  6
CONTINUOUS
 10
13.4656172
 20
6.6897204498
 11
13.4656172
 21
6.8397204498
  0
LINE
  5
2E8
100
AcDbEntity
  8
0
100
AcDbLine
 62
7
  6
CONTINUOUS
 10
13.4656513859
 20
7.1647204498
 11
13.4656513859
 21
7.0897204498
  0
LINE
  5
2E9
100
AcDbEntity
  8
0
100
AcDbLine
 62
7
  6
CONTINUOUS
 10
13.466863915
 20
7.1647204498
 11
13.466863915
 21
7.0897204498
  0
LINE
  5
2EA
100
AcDbEntity
  8
0
100
AcDbLine
 62
7
  6
CONTINUOUS
 10
13.4684339937
 20
7.0897204498
 11
13.4684339937
 21
7.1647204498
  0
LINE
  5
2EB
100
AcDbEntity
  8
0
100
AcDbLine
 62
7
  6
CONTINUOUS
 10
13.4698110682
 20
7.1647204498
 11
13.4698110682
 21
7.0897204498
  0
LINE
  5
2EC
100
AcDbEntity
  8
0
100
AcDbLine
 62
7
  6
CONTINUOUS
 10
13.4724257405
 20
7.0897204498
 11
13.4724257405
 21
7.1647204498
  0
LINE
  5
2ED
100
AcDbEntity
  8
0
100
AcDbLine
 62
7
  6
CONTINUOUS
 10
13.4744892549
 20
7.1647204498
 11
13.4744892549
 21
7.0897204498
  0
LINE
  5
2EE
100
AcDbEntity
  8
0
100
AcDbLine
 62
7
  6
CONTINUOUS
 10
13.4781453352
 20
7.0897204498
 11
13.4781453352
 21
7.1647204498
  0
LINE
  5
2EF
100
AcDbEntity
  8
0
100
AcDbLine
 62
7
  6
CONTINUOUS
 10
13.4808927753
 20
7.1647204498
 11
13.4808927753
 21
7.0897204498
  0
LINE
  5
2F0
100
AcDbEntity
  8
0
100
AcDbLine
 62
7
  6
CONTINUOUS
 10
13.4855858092
 20
7.0897204498
 11
13.4855858092
 21
7.1647204498
  0
LINE
  5
2F1
100
AcDbEntity
  8
0
100
AcDbLine
 62
7
  6
CONTINUOUS
 10
13.4890138277
 20
7.1647204498
 11
13.4890138277
 21
7.0897204498
  0
LINE
  5
2F2
100
AcDbEntity
  8
0
100
AcDbLine
 62
7
  6
CONTINUOUS
 10
13.4947380976
 20
7.0897204498
 11
13.4947380976
 21
7.1647204498
  0
LINE
  5
2F3
100
AcDbEntity
  8
0
100
AcDbLine
 62
7
  6
CONTINUOUS
 10
13.498842518
 20
7.1647204498
 11
13.498842518
 21
7.0897204498
  0
LINE
  5
2F4
100
AcDbEntity
  8
0
100
AcDbLine
 62
7
  6
CONTINUOUS
 10
13.5055910496
 20
7.0897204498
 11
13.5055910496
 21
7.1647204498
  0
LINE
  5
2F5
100
AcDbEntity
  8
0
100
AcDbLine
 62
7
  6
CONTINUOUS
 10
13.5103668713
 20
7.1647204498
 11
13.5103668713
 21
7.0897204498
  0
LINE
  5
2F6
100
AcDbEntity
  8
0
100
AcDbLine
 62
7
  6
CONTINUOUS
 10
13.5156172
 20
6.8897204498
 11
13.5156172
 21
7.0897204498
  0
LINE
  5
2F7
100
AcDbEntity
  8
0
100
AcDbLine
 62
7
  6
CONTINUOUS
 10
13.5181314427
 20
7.0897204498
 11
13.5181314427
 21
7.1647204498
  0
LINE
  5
2F8
100
AcDbEntity
  8
0
100
AcDbLine
 62
7
  6
CONTINUOUS
 10
13.5235728471
 20
7.1647204498
 11
13.5235728471
 21
7.0897204498
  0
LINE
  5
2F9
100
AcDbEntity
  8
0
100
AcDbLine
 62
7
  6
CONTINUOUS
 10
13.5323439982
 20
7.0897204498
 11
13.5323439982
 21
7.1647204498
  0
LINE
  5
2FA
100
AcDbEntity
  8
0
100
AcDbLine
 62
7
  6
CONTINUOUS
 10
13.5384443558
 20
7.1647204498
 11
13.5384443558
 21
7.0897204498
  0
LINE
  5
2FB
100
AcDbEntity
  8
0
100
AcDbLine
 62
7
  6
CONTINUOUS
 10
13.5482114004
 20
7.0897204498
 11
13.5482114004
 21
7.1647204498
  0
LINE
  5
2FC
100
AcDbEntity
  8
0
100
AcDbLine
 62
7
  6
CONTINUOUS
 10
13.5549632788
 20
7.1647204498
 11
13.5549632788
 21
7.0897204498
  0
LINE
  5
2FD
100
AcDbEntity
  8
0
100
AcDbLine
 62
7
  6
CONTINUOUS
 10
13.5657143173
 20
7.0897204498
 11
13.5657143173
 21
7.1647204498
  0
LINE
  5
2FE
100
AcDbEntity
  8
0
100
AcDbLine
 62
7
  6
CONTINUOUS
 10
13.5731094904
 20
7.1647204498
 11
13.5731094904
 21
7.0897204498
  0
LINE
  5
2FF
100
AcDbEntity
  8
0
100
AcDbLine
 62
7
  6
CONTINUOUS
 10
13.5848314242
 20
7.0897204498
 11
13.5848314242
 21
7.1647204498
  0
LINE
  5
300
100
AcDbEntity
  8
0
100
AcDbLine
 62
7
  6
CONTINUOUS
 10
13.5928608822
 20
7.1647204498
 11
13.5928608822
 21
7.0897204498
  0
LINE
  5
301
100
AcDbEntity
  8
0
100
AcDbLine
 62
9
  6
CONTINUOUS
 10
13.4309808371
 20
8.9780989892
 11
13.4306727011
 21
8.9637788217
  0
LINE
  5
302
100
AcDbEntity
  8
0
100
AcDbLine
 62
7
  6
CONTINUOUS
 10
13.60553943
 20
7.0897204498
 11
13.60553943
 21
7.1647204498
  0
LINE
  5
303
100
AcDbEntity
  8
0
100
AcDbLine
 62
7
  6
CONTINUOUS
 10
13.611089641
 20
8.3678265809
 11
13.611089641
 21
8.1242109784
  0
LINE
  5
304
100
AcDbEntity
  8
0
100
AcDbLine
 62
7
  6
CONTINUOUS
 10
13.6141933901
 20
7.1647204498
 11
13.6141933901
 21
7.0897204498
  0
LINE
  5
305
100
AcDbEntity
  8
0
100
AcDbLine
 62
7
  6
CONTINUOUS
 10
13.6278131051
 20
7.0897204498
 11
13.6278131051
 21
7.1647204498
  0
LINE
  5
306
100
AcDbEntity
  8
0
100
AcDbLine
 62
7
  6
CONTINUOUS
 10
13.6370810239
 20
7.1647204498
 11
13.6370810239
 21
7.0897204498
  0
LINE
  5
307
100
AcDbEntity
  8
0
100
AcDbLine
 62
7
  6
CONTINUOUS
 10
13.6406172
 20
6.6897204498
 11
13.6406172
 21
6.8397204498
  0
LINE
  5
308
100
AcDbEntity
  8
0
100
AcDbLine
 62
7
  6
CONTINUOUS
 10
13.6406357845
 20
7.1647204498
 11
13.6406357845
 21
7.0897204498
  0
LINE
  5
309
100
AcDbEntity
  8
0
100
AcDbLine
 62
7
  6
CONTINUOUS
 10
13.6411593567
 20
7.0897204498
 11
13.6411593567
 21
7.1647204498
  0
LINE
  5
30A
100
AcDbEntity
  8
0
100
AcDbLine
 62
7
  6
CONTINUOUS
 10
13.6416351221
 20
7.1647204498
 11
13.6416351221
 21
7.0897204498
  0
LINE
  5
30B
100
AcDbEntity
  8
0
100
AcDbLine
 62
7
  6
CONTINUOUS
 10
13.6432052008
 20
7.0897204498
 11
13.6432052008
 21
7.1647204498
  0
LINE
  5
30C
100
AcDbEntity
  8
0
100
AcDbLine
 62
7
  6
CONTINUOUS
 10
13.644156152
 20
7.1647204498
 11
13.644156152
 21
7.0897204498
  0
LINE
  5
30D
100
AcDbEntity
  8
0
100
AcDbLine
 62
7
  6
CONTINUOUS
 10
13.6467708243
 20
7.0897204498
 11
13.6467708243
 21
7.1647204498
  0
LINE
  5
30E
100
AcDbEntity
  8
0
100
AcDbLine
 62
7
  6
CONTINUOUS
 10
13.6481958027
 20
7.1647204498
 11
13.6481958027
 21
7.0897204498
  0
LINE
  5
30F
100
AcDbEntity
  8
0
100
AcDbLine
 62
7
  6
CONTINUOUS
 10
13.651851883
 20
7.0897204498
 11
13.651851883
 21
7.1647204498
  0
LINE
  5
310
100
AcDbEntity
  8
0
100
AcDbLine
 62
7
  6
CONTINUOUS
 10
13.6537491525
 20
7.1647204498
 11
13.6537491525
 21
7.0897204498
  0
LINE
  5
311
100
AcDbEntity
  8
0
100
AcDbLine
 62
7
  6
CONTINUOUS
 10
13.6584421864
 20
7.0897204498
 11
13.6584421864
 21
7.1647204498
  0
LINE
  5
312
100
AcDbEntity
  8
0
100
AcDbLine
 62
7
  6
CONTINUOUS
 10
13.6608094354
 20
7.1647204498
 11
13.6608094354
 21
7.0897204498
  0
LINE
  5
313
100
AcDbEntity
  8
0
100
AcDbLine
 62
7
  6
CONTINUOUS
 10
13.6665337053
 20
7.0897204498
 11
13.6665337053
 21
7.1647204498
  0
LINE
  5
314
100
AcDbEntity
  8
0
100
AcDbLine
 62
7
  6
CONTINUOUS
 10
13.6693680497
 20
7.1647204498
 11
13.6693680497
 21
7.0897204498
  0
LINE
  5
315
100
AcDbEntity
  8
0
100
AcDbLine
 62
7
  6
CONTINUOUS
 10
13.6761165813
 20
7.0897204498
 11
13.6761165813
 21
7.1647204498
  0
LINE
  5
316
100
AcDbEntity
  8
0
100
AcDbLine
 62
7
  6
CONTINUOUS
 10
13.679414568
 20
7.1647204498
 11
13.679414568
 21
7.0897204498
  0
LINE
  5
317
100
AcDbEntity
  8
0
100
AcDbLine
 62
7
  6
CONTINUOUS
 10
13.6871791393
 20
7.0897204498
 11
13.6871791393
 21
7.1647204498
  0
LINE
  5
318
100
AcDbEntity
  8
0
100
AcDbLine
 62
7
  6
CONTINUOUS
 10
13.6906172
 20
6.8897204498
 11
13.6906172
 21
7.0897204498
  0
LINE
  5
319
100
AcDbEntity
  8
0
100
AcDbLine
 62
7
  6
CONTINUOUS
 10
13.69093675
 20
7.1647204498
 11
13.69093675
 21
7.0897204498
  0
LINE
  5
31A
100
AcDbEntity
  8
0
100
AcDbLine
 62
7
  6
CONTINUOUS
 10
13.6997079012
 20
7.0897204498
 11
13.6997079012
 21
7.1647204498
  0
LINE
  5
31B
100
AcDbEntity
  8
0
100
AcDbLine
 62
7
  6
CONTINUOUS
 10
13.703920558
 20
7.1647204498
 11
13.703920558
 21
7.0897204498
  0
LINE
  5
31C
100
AcDbEntity
  8
0
100
AcDbLine
 62
7
  6
CONTINUOUS
 10
13.7136876026
 20
7.0897204498
 11
13.7136876026
 21
7.1647204498
  0
LINE
  5
31D
100
AcDbEntity
  8
0
100
AcDbLine
 62
7
  6
CONTINUOUS
 10
13.7183501729
 20
7.1647204498
 11
13.7183501729
 21
7.0897204498
  0
LINE
  5
31E
100
AcDbEntity
  8
0
100
AcDbLine
 62
7
  6
CONTINUOUS
 10
13.7291012114
 20
7.0897204498
 11
13.7291012114
 21
7.1647204498
  0
LINE
  5
31F
100
AcDbEntity
  8
0
100
AcDbLine
 62
7
  6
CONTINUOUS
 10
13.7342080147
 20
7.1647204498
 11
13.7342080147
 21
7.0897204498
  0
LINE
  5
320
100
AcDbEntity
  8
0
100
AcDbLine
 62
7
  6
CONTINUOUS
 10
13.7459299486
 20
7.0897204498
 11
13.7459299486
 21
7.1647204498
  0
LINE
  5
321
100
AcDbEntity
  8
0
100
AcDbLine
 62
7
  6
CONTINUOUS
 10
13.751474763
 20
7.1647204498
 11
13.751474763
 21
7.0897204498
  0
LINE
  5
322
100
AcDbEntity
  8
0
100
AcDbLine
 62
7
  6
CONTINUOUS
 10
13.7641533108
 20
7.0897204498
 11
13.7641533108
 21
7.1647204498
  0
LINE
  5
323
100
AcDbEntity
  8
0
100
AcDbLine
 62
7
  6
CONTINUOUS
 10
13.7701293808
 20
7.1647204498
 11
13.7701293808
 21
7.0897204498
  0
LINE
  5
324
100
AcDbEntity
  8
0
100
AcDbLine
 62
7
  6
CONTINUOUS
 10
13.7781172
 20
7.7757204498
 11
13.7781172
 21
7.2647204498
  0
LINE
  5
325
100
AcDbEntity
  8
0
100
AcDbLine
 62
7
  6
CONTINUOUS
 10
13.7837490958
 20
7.0897204498
 11
13.7837490958
 21
7.1647204498
  0
LINE
  5
326
100
AcDbEntity
  8
0
100
AcDbLine
 62
7
  6
CONTINUOUS
 10
13.7901491404
 20
7.1647204498
 11
13.7901491404
 21
7.0897204498
  0
LINE
  5
327
100
AcDbEntity
  8
0
100
AcDbLine
 62
7
  6
CONTINUOUS
 10
13.804693429
 20
7.0897204498
 11
13.804693429
 21
7.1647204498
  0
LINE
  5
328
100
AcDbEntity
  8
0
100
AcDbLine
 62
7
  6
CONTINUOUS
 10
13.8115096509
 20
7.1647204498
 11
13.8115096509
 21
7.0897204498
  0
LINE
  5
329
100
AcDbEntity
  8
0
100
AcDbLine
 62
7
  6
CONTINUOUS
 10
13.8269607931
 20
7.0897204498
 11
13.8269607931
 21
7.1647204498
  0
LINE
  5
32A
100
AcDbEntity
  8
0
100
AcDbLine
 62
7
  6
CONTINUOUS
 10
13.8341848876
 20
7.1647204498
 11
13.8341848876
 21
7.0897204498
  0
LINE
  5
32B
100
AcDbEntity
  8
0
100
AcDbLine
 62
7
  6
CONTINUOUS
 10
13.8505240587
 20
7.0897204498
 11
13.8505240587
 21
7.1647204498
  0
LINE
  5
32C
100
AcDbEntity
  8
0
100
AcDbLine
 62
7
  6
CONTINUOUS
 10
13.8581472245
 20
7.1647204498
 11
13.8581472245
 21
7.0897204498
  0
LINE
  5
32D
100
AcDbEntity
  8
0
100
AcDbLine
 62
7
  6
CONTINUOUS
 10
13.8656172
 20
8.0647204498
 11
13.8656172
 21
8.2647204498
  0
LINE
  5
32E
100
AcDbEntity
  8
0
100
AcDbLine
 62
7
  6
CONTINUOUS
 10
13.8753545176
 20
7.0897204498
 11
13.8753545176
 21
7.1647204498
  0
LINE
  5
32F
100
AcDbEntity
  8
0
100
AcDbLine
 62
7
  6
CONTINUOUS
 10
13.8833674669
 20
7.1647204498
 11
13.8833674669
 21
7.0897204498
  0
LINE
  5
330
100
AcDbEntity
  8
0
100
AcDbLine
 62
7
  6
CONTINUOUS
 10
13.9014219176
 20
7.0897204498
 11
13.9014219176
 21
7.1647204498
  0
LINE
  5
331
100
AcDbEntity
  8
0
100
AcDbLine
 62
7
  6
CONTINUOUS
 10
13.909814888
 20
7.1647204498
 11
13.909814888
 21
7.0897204498
  0
LINE
  5
332
100
AcDbEntity
  8
0
100
AcDbLine
 62
7
  6
CONTINUOUS
 10
13.9286944997
 20
7.0897204498
 11
13.9286944997
 21
7.1647204498
  0
LINE
  5
333
100
AcDbEntity
  8
0
100
AcDbLine
 62
7
  6
CONTINUOUS
 10
13.9374572656
 20
7.1647204498
 11
13.9374572656
 21
7.0897204498
  0
LINE
  5
334
100
AcDbEntity
  8
0
100
AcDbLine
 62
7
  6
CONTINUOUS
 10
13.9406172
 20
7.9647204498
 11
13.9406172
 21
8.0647204498
  0
LINE
  5
335
100
AcDbEntity
  8
0
100
AcDbLine
 62
7
  6
CONTINUOUS
 10
13.9406172
 20
8.2647204498
 11
13.9406172
 21
8.3147204498
  0
LINE
  5
336
100
AcDbEntity
  8
0
100
AcDbLine
 62
7
  6
CONTINUOUS
 10
13.9571390365
 20
7.0897204498
 11
13.9571390365
 21
7.1647204498
  0
LINE
  5
337
100
AcDbEntity
  8
0
100
AcDbLine
 62
7
  6
CONTINUOUS
 10
13.9662609218
 20
7.1647204498
 11
13.9662609218
 21
7.0897204498
  0
LINE
  5
338
100
AcDbEntity
  8
0
100
AcDbLine
 62
7
  6
CONTINUOUS
 10
13.9867208726
 20
7.0897204498
 11
13.9867208726
 21
7.1647204498
  0
LINE
  5
339
100
AcDbEntity
  8
0
100
AcDbLine
 62
7
  6
CONTINUOUS
 10
13.9961907637
 20
7.1647204498
 11
13.9961907637
 21
7.0897204498
  0
LINE
  5
33A
100
AcDbEntity
  8
0
100
AcDbLine
 62
7
  6
CONTINUOUS
 10
14.0056172
 20
10.1097204498
 11
14.0056172
 21
10.0367204498
  0
LINE
  5
33B
100
AcDbEntity
  8
0
100
AcDbLine
 62
7
  6
CONTINUOUS
 10
14.0156172
 20
7.3647204498
 11
14.0156172
 21
7.8897204498
  0
LINE
  5
33C
100
AcDbEntity
  8
0
100
AcDbLine
 62
7
  6
CONTINUOUS
 10
14.0174039672
 20
7.0897204498
 11
14.0174039672
 21
7.1647204498
  0
LINE
  5
33D
100
AcDbEntity
  8
0
100
AcDbLine
 62
7
  6
CONTINUOUS
 10
14.0272103265
 20
7.1647204498
 11
14.0272103265
 21
7.0897204498
  0
LINE
  5
33E
100
AcDbEntity
  8
0
100
AcDbLine
 62
7
  6
CONTINUOUS
 10
14.0484106074
 20
7.0897204498
 11
14.0484106074
 21
7.1647204498
  0
LINE
  5
33F
100
AcDbEntity
  8
0
100
AcDbLine
 62
7
  6
CONTINUOUS
 10
14.0491509375
 20
7.0897204498
 11
14.0491509375
 21
7.1647204498
  0
LINE
  5
340
100
AcDbEntity
  8
0
100
AcDbLine
 62
7
  6
CONTINUOUS
 10
14.0592818175
 20
7.1647204498
 11
14.0592818175
 21
7.0897204498
  0
LINE
  5
341
100
AcDbEntity
  8
0
100
AcDbLine
 62
7
  6
CONTINUOUS
 10
14.0804433467
 20
7.0897204498
 11
14.0804433467
 21
7.1647204498
  0
LINE
  5
342
100
AcDbEntity
  8
0
100
AcDbLine
 62
7
  6
CONTINUOUS
 10
14.0819231049
 20
7.0897204498
 11
14.0819231049
 21
7.1647204498
  0
LINE
  5
343
100
AcDbEntity
  8
0
100
AcDbLine
 62
7
  6
CONTINUOUS
 10
14.0923661627
 20
7.1647204498
 11
14.0923661627
 21
7.0897204498
  0
LINE
  5
344
100
AcDbEntity
  8
0
100
AcDbLine
 62
7
  6
CONTINUOUS
 10
14.113463158
 20
7.0897204498
 11
14.113463158
 21
7.1647204498
  0
LINE
  5
345
100
AcDbEntity
  8
0
100
AcDbLine
 62
7
  6
CONTINUOUS
 10
14.1156805415
 20
7.0897204498
 11
14.1156805415
 21
7.1647204498
  0
LINE
  5
346
100
AcDbEntity
  8
0
100
AcDbLine
 62
7
  6
CONTINUOUS
 10
14.1264230537
 20
7.1647204498
 11
14.1264230537
 21
7.0897204498
  0
LINE
  5
347
100
AcDbEntity
  8
0
100
AcDbLine
 62
7
  6
CONTINUOUS
 10
14.1406172
 20
8.4147204498
 11
14.1406172
 21
8.4647204498
  0
LINE
  5
348
100
AcDbEntity
  8
0
100
AcDbLine
 62
7
  6
CONTINUOUS
 10
14.1474298117
 20
7.0897204498
 11
14.1474298117
 21
7.1647204498
  0
LINE
  5
349
100
AcDbEntity
  8
0
100
AcDbLine
 62
7
  6
CONTINUOUS
 10
14.150382119
 20
7.0897204498
 11
14.150382119
 21
7.1647204498
  0
LINE
  5
34A
100
AcDbEntity
  8
0
100
AcDbLine
 62
7
  6
CONTINUOUS
 10
14.1614109977
 20
7.1647204498
 11
14.1614109977
 21
7.0897204498
  0
LINE
  5
34B
100
AcDbEntity
  8
0
100
AcDbLine
 62
7
  6
CONTINUOUS
 10
14.1823019249
 20
7.0897204498
 11
14.1823019249
 21
7.1647204498
  0
LINE
  5
34C
100
AcDbEntity
  8
0
100
AcDbLine
 62
7
  6
CONTINUOUS
 10
14.185985559
 20
7.0897204498
 11
14.185985559
 21
7.1647204498
  0
LINE
  5
34D
100
AcDbEntity
  8
0
100
AcDbLine
 62
7
  6
CONTINUOUS
 10
14.197287367
 20
7.1647204498
 11
14.197287367
 21
7.0897204498
  0
LINE
  5
34E
100
AcDbEntity
  8
0
100
AcDbLine
 62
7
  6
CONTINUOUS
 10
14.2180370111
 20
7.0897204498
 11
14.2180370111
 21
7.1647204498
  0
LINE
  5
34F
100
AcDbEntity
  8
0
100
AcDbLine
 62
7
  6
CONTINUOUS
 10
14.2224474841
 20
7.0897204498
 11
14.2224474841
 21
7.1647204498
  0
LINE
  5
350
100
AcDbEntity
  8
0
100
AcDbLine
 62
7
  6
CONTINUOUS
 10
14.234008452
 20
7.1647204498
 11
14.234008452
 21
7.0897204498
  0
LINE
  5
351
100
AcDbEntity
  8
0
100
AcDbLine
 62
7
  6
CONTINUOUS
 10
14.2545915326
 20
7.0897204498
 11
14.2545915326
 21
7.1647204498
  0
LINE
  5
352
100
AcDbEntity
  8
0
100
AcDbLine
 62
7
  6
CONTINUOUS
 10
14.259723471
 20
7.0897204498
 11
14.259723471
 21
7.1647204498
  0
LINE
  5
353
100
AcDbEntity
  8
0
100
AcDbLine
 62
7
  6
CONTINUOUS
 10
14.2715295136
 20
7.1647204498
 11
14.2715295136
 21
7.0897204498
  0
LINE
  5
354
100
AcDbEntity
  8
0
100
AcDbLine
 62
7
  6
CONTINUOUS
 10
14.2919209535
 20
7.0897204498
 11
14.2919209535
 21
7.1647204498
  0
LINE
  5
355
100
AcDbEntity
  8
0
100
AcDbLine
 62
7
  6
CONTINUOUS
 10
14.2977681048
 20
7.0897204498
 11
14.2977681048
 21
7.1647204498
  0
LINE
  5
356
100
AcDbEntity
  8
0
100
AcDbLine
 62
7
  6
CONTINUOUS
 10
14.3098048381
 20
7.1647204498
 11
14.3098048381
 21
7.0897204498
  0
LINE
  5
357
100
AcDbEntity
  8
0
100
AcDbLine
 62
7
  6
CONTINUOUS
 10
14.3299797935
 20
7.0897204498
 11
14.3299797935
 21
7.1647204498
  0
LINE
  5
358
100
AcDbEntity
  8
0
100
AcDbLine
 62
7
  6
CONTINUOUS
 10
14.3365350338
 20
7.0897204498
 11
14.3365350338
 21
7.1647204498
  0
LINE
  5
359
100
AcDbEntity
  8
0
100
AcDbLine
 62
7
  6
CONTINUOUS
 10
14.3487877931
 20
7.1647204498
 11
14.3487877931
 21
7.0897204498
  0
LINE
  5
35A
100
AcDbEntity
  8
0
100
AcDbLine
 62
7
  6
CONTINUOUS
 10
14.3687216838
 20
7.0897204498
 11
14.3687216838
 21
7.1647204498
  0
LINE
  5
35B
100
AcDbEntity
  8
0
100
AcDbLine
 62
7
  6
CONTINUOUS
 10
14.3759770267
 20
7.0897204498
 11
14.3759770267
 21
7.1647204498
  0
LINE
  5
35C
100
AcDbEntity
  8
0
100
AcDbLine
 62
7
  6
CONTINUOUS
 10
14.3884308837
 20
7.1647204498
 11
14.3884308837
 21
7.0897204498
  0
LINE
  5
35D
100
AcDbEntity
  8
0
100
AcDbLine
 62
7
  6
CONTINUOUS
 10
14.3906172
 20
10.2697204498
 11
14.3906172
 21
10.1347204498
  0
LINE
  5
35E
100
AcDbEntity
  8
0
100
AcDbLine
 62
7
  6
CONTINUOUS
 10
13.5156172
 20
6.8897204498
 11
13.4656172
 21
6.8397204498
  0
LINE
  5
35F
100
AcDbEntity
  8
0
100
AcDbLine
 62
7
  6
CONTINUOUS
 10
13.6906172
 20
6.8897204498
 11
13.6406172
 21
6.8397204498
  0
LINE
  5
360
100
AcDbEntity
  8
0
100
AcDbLine
 62
7
  6
CONTINUOUS
 10
14.4080994234
 20
7.0897204498
 11
14.4080994234
 21
7.1647204498
  0
LINE
  5
361
100
AcDbEntity
  8
0
100
AcDbLine
 62
7
  6
CONTINUOUS
 10
14.4160460293
 20
7.0897204498
 11
14.4160460293
 21
7.1647204498
  0
LINE
  5
362
100
AcDbEntity
  8
0
100
AcDbLine
 62
7
  6
CONTINUOUS
 10
14.428685811
 20
7.1647204498
 11
14.428685811
 21
7.0897204498
  0
LINE
  5
363
100
AcDbEntity
  8
0
100
AcDbLine
 62
7
  6
CONTINUOUS
 10
14.4480650366
 20
7.0897204498
 11
14.4480650366
 21
7.1647204498
  0
LINE
  5
364
100
AcDbEntity
  8
0
100
AcDbLine
 62
7
  6
CONTINUOUS
 10
14.4566932238
 20
7.0897204498
 11
14.4566932238
 21
7.1647204498
  0
LINE
  5
365
100
AcDbEntity
  8
0
100
AcDbLine
 62
7
  6
CONTINUOUS
 10
14.4695035305
 20
7.1647204498
 11
14.4695035305
 21
7.0897204498
  0
LINE
  5
366
100
AcDbEntity
  8
0
100
AcDbLine
 62
9
  6
CONTINUOUS
 10
14.4712163206
 20
9.2730525604
 11
14.4712163206
 21
9.0196948226
  0
LINE
  5
367
100
AcDbEntity
  8
0
100
AcDbLine
 62
7
  6
CONTINUOUS
 10
14.4885698315
 20
7.0897204498
 11
14.4885698315
 21
7.1647204498
  0
LINE
  5
368
100
AcDbEntity
  8
0
100
AcDbLine
 62
7
  6
CONTINUOUS
 10
14.4906172
 20
10.8947204498
 11
14.4906172
 21
10.5197204498
  0
LINE
  5
369
100
AcDbEntity
  8
0
100
AcDbLine
 62
7
  6
CONTINUOUS
 10
14.4906172
 20
9.3827204498
 11
14.4906172
 21
9.3590516093
  0
LINE
  5
36A
100
AcDbEntity
  8
0
100
AcDbLine
 62
7
  6
CONTINUOUS
 10
14.4906172
 20
8.9343184364
 11
14.4906172
 21
8.9077204498
  0
LINE
  5
36B
100
AcDbEntity
  8
0
100
AcDbLine
 62
7
  6
CONTINUOUS
 10
14.4906172
 20
8.4647204498
 11
14.4906172
 21
8.5647204498
  0
LINE
  5
36C
100
AcDbEntity
  8
0
100
AcDbLine
 62
7
  6
CONTINUOUS
 10
14.4978690878
 20
7.0897204498
 11
14.4978690878
 21
7.1647204498
  0
LINE
  5
36D
100
AcDbEntity
  8
0
100
AcDbLine
 62
7
  6
CONTINUOUS
 10
14.5108343122
 20
7.1647204498
 11
14.5108343122
 21
7.0897204498
  0
LINE
  5
36E
100
AcDbEntity
  8
0
100
AcDbLine
 62
7
  6
CONTINUOUS
 10
14.5295644591
 20
7.0897204498
 11
14.5295644591
 21
7.1647204498
  0
LINE
  5
36F
100
AcDbEntity
  8
0
100
AcDbLine
 62
7
  6
CONTINUOUS
 10
14.5395234549
 20
7.0897204498
 11
14.5395234549
 21
7.1647204498
  0
LINE
  5
370
100
AcDbEntity
  8
0
100
AcDbLine
 62
7
  6
CONTINUOUS
 10
14.5526278008
 20
7.1647204498
 11
14.5526278008
 21
7.0897204498
  0
LINE
  5
371
100
AcDbEntity
  8
0
100
AcDbLine
 62
9
  6
CONTINUOUS
 10
14.5617400393
 20
8.9495594248
 11
14.5617400393
 21
9.3412843745
  0
LINE
  5
372
100
AcDbEntity
  8
0
100
AcDbLine
 62
7
  6
CONTINUOUS
 10
14.5709989739
 20
7.0897204498
 11
14.5709989739
 21
7.1647204498
  0
LINE
  5
373
100
AcDbEntity
  8
0
100
AcDbLine
 62
7
  6
CONTINUOUS
 10
14.5781172
 20
8.8877204498
 11
14.5781172
 21
8.5947204498
  0
LINE
  5
374
100
AcDbEntity
  8
0
100
AcDbLine
 62
7
  6
CONTINUOUS
 10
14.5816055756
 20
7.0897204498
 11
14.5816055756
 21
7.1647204498
  0
LINE
  5
375
100
AcDbEntity
  8
0
100
AcDbLine
 62
7
  6
CONTINUOUS
 10
14.5948330775
 20
7.1647204498
 11
14.5948330775
 21
7.0897204498
  0
LINE
  5
376
100
AcDbEntity
  8
0
100
AcDbLine
 62
7
  6
CONTINUOUS
 10
14.6128228942
 20
7.0897204498
 11
14.6128228942
 21
7.1647204498
  0
LINE
  5
377
100
AcDbEntity
  8
0
100
AcDbLine
 62
7
  6
CONTINUOUS
 10
14.6240641794
 20
7.0897204498
 11
14.6240641794
 21
7.1647204498
  0
LINE
  5
378
100
AcDbEntity
  8
0
100
AcDbLine
 62
7
  6
CONTINUOUS
 10
14.6281172
 20
11.0197204498
 11
14.6281172
 21
10.9697204498
  0
LINE
  5
379
100
AcDbEntity
  8
0
100
AcDbLine
 62
7
  6
CONTINUOUS
 10
14.6281172
 20
9.5077204498
 11
14.6281172
 21
9.4777204498
  0
LINE
  5
37A
100
AcDbEntity
  8
0
100
AcDbLine
 62
7
  6
CONTINUOUS
 10
14.6373987215
 20
7.1647204498
 11
14.6373987215
 21
7.0897204498
  0
LINE
  5
37B
100
AcDbEntity
  8
0
100
AcDbLine
 62
7
  6
CONTINUOUS
 10
14.6531172
 20
10.5197204498
 11
14.6531172
 21
10.2697204498
  0
LINE
  5
37C
100
AcDbEntity
  8
0
100
AcDbLine
 62
7
  6
CONTINUOUS
 10
14.6549852642
 20
7.0897204498
 11
14.6549852642
 21
7.1647204498
  0
LINE
  5
37D
100
AcDbEntity
  8
0
100
AcDbLine
 62
7
  6
CONTINUOUS
 10
14.666847537
 20
7.0897204498
 11
14.666847537
 21
7.1647204498
  0
LINE
  5
37E
100
AcDbEntity
  8
0
100
AcDbLine
 62
7
  6
CONTINUOUS
 10
14.6802728732
 20
7.1647204498
 11
14.6802728732
 21
7.0897204498
  0
LINE
  5
37F
100
AcDbEntity
  8
0
100
AcDbLine
 62
7
  6
CONTINUOUS
 10
14.6906172
 20
8.5947204498
 11
14.6906172
 21
8.5647204498
  0
LINE
  5
380
100
AcDbEntity
  8
0
100
AcDbLine
 62
7
  6
CONTINUOUS
 10
14.6974347153
 20
7.0897204498
 11
14.6974347153
 21
7.1647204498
  0
LINE
  5
381
100
AcDbEntity
  8
0
100
AcDbLine
 62
7
  6
CONTINUOUS
 10
14.7099035235
 20
7.0897204498
 11
14.7099035235
 21
7.1647204498
  0
LINE
  5
382
100
AcDbEntity
  8
0
100
AcDbLine
 62
7
  6
CONTINUOUS
 10
14.7234032971
 20
7.1647204498
 11
14.7234032971
 21
7.0897204498
  0
LINE
  5
383
100
AcDbEntity
  8
0
100
AcDbLine
 62
7
  6
CONTINUOUS
 10
14.7401195296
 20
7.0897204498
 11
14.7401195296
 21
7.1647204498
  0
LINE
  5
384
100
AcDbEntity
  8
0
100
AcDbLine
 62
7
  6
CONTINUOUS
 10
14.7531796817
 20
7.0897204498
 11
14.7531796817
 21
7.1647204498
  0
LINE
  5
385
100
AcDbEntity
  8
0
100
AcDbLine
 62
7
  6
CONTINUOUS
 10
14.7667374454
 20
7.1647204498
 11
14.7667374454
 21
7.0897204498
  0
LINE
  5
386
100
AcDbEntity
  8
0
100
AcDbLine
 62
7
  6
CONTINUOUS
 10
14.782987702
 20
7.0897204498
 11
14.782987702
 21
7.1647204498
  0
LINE
  5
387
100
AcDbEntity
  8
0
100
AcDbLine
 62
7
  6
CONTINUOUS
 10
14.7966232864
 20
7.0897204498
 11
14.7966232864
 21
7.1647204498
  0
LWPOLYLINE
  5
388
100
AcDbEntity
  8
0
100
AcDbPolyline
 62
7
  6
CONTINUOUS
 90
7
 70
0
 10
14.4906172066
 20
9.3590516093
 10
14.490103005
 20
9.3526585095
 10
14.4863290338
 20
9.3410331353
 10
14.4792130784
 20
9.3310824092
 10
14.4694240099
 20
9.323748575
 10
14.4578856072
 20
9.3197175211
 10
14.4488884327
 20
9.3190889827
  0
LINE
  5
389
100
AcDbEntity
  8
0
100
AcDbLine
 62
9
  6
CONTINUOUS
 10
14.8906164701
 20
9.3453337286
 11
14.8921659782
 21
9.3309316985
  0
LINE
  5
38A
100
AcDbEntity
  8
0
100
AcDbLine
 62
7
  6
CONTINUOUS
 10
14.8102225221
 20
7.1647204498
 11
14.8102225221
 21
7.0897204498
  0
LINE
  5
38B
100
AcDbEntity
  8
0
100
AcDbLine
 62
7
  6
CONTINUOUS
 10
14.8259870045
 20
7.0897204498
 11
14.8259870045
 21
7.1647204498
  0
LINE
  5
38C
100
AcDbEntity
  8
0
100
AcDbLine
 62
7
  6
CONTINUOUS
 10
14.8401814082
 20
7.0897204498
 11
14.8401814082
 21
7.1647204498
  0
LINE
  5
38D
100
AcDbEntity
  8
0
100
AcDbLine
 62
7
  6
CONTINUOUS
 10
14.8538055473
 20
7.1647204498
 11
14.8538055473
 21
7.0897204498
  0
LINE
  5
38E
100
AcDbEntity
  8
0
100
AcDbLine
 62
9
  6
CONTINUOUS
 10
14.8578745426
 20
9.3412831058
 11
14.8578745426
 21
8.94956027
  0
LINE
  5
38F
100
AcDbEntity
  8
0
100
AcDbLine
 62
7
  6
CONTINUOUS
 10
14.8690650489
 20
7.0897204498
 11
14.8690650489
 21
7.1647204498
  0
LINE
  5
390
100
AcDbEntity
  8
0
100
AcDbLine
 62
7
  6
CONTINUOUS
 10
14.8838009782
 20
7.0897204498
 11
14.8838009782
 21
7.1647204498
  0
LINE
  5
391
100
AcDbEntity
  8
0
100
AcDbLine
 62
7
  6
CONTINUOUS
 10
14.8974334219
 20
7.1647204498
 11
14.8974334219
 21
7.0897204498
  0
LINE
  5
392
100
AcDbEntity
  8
0
100
AcDbLine
 62
7
  6
CONTINUOUS
 10
14.9121693512
 20
7.0897204498
 11
14.9121693512
 21
7.1647204498
  0
LINE
  5
393
100
AcDbEntity
  8
0
100
AcDbLine
 62
7
  6
CONTINUOUS
 10
14.9274288527
 20
7.0897204498
 11
14.9274288527
 21
7.1647204498
  0
LINE
  5
394
100
AcDbEntity
  8
0
100
AcDbLine
 62
9
  6
CONTINUOUS
 10
14.9401461778
 20
9.0196948102
 11
14.9401461778
 21
9.27305255
  0
LINE
  5
395
100
AcDbEntity
  8
0
100
AcDbLine
 62
7
  6
CONTINUOUS
 10
14.9410529919
 20
7.1647204498
 11
14.9410529919
 21
7.0897204498
  0
LINE
  5
396
100
AcDbEntity
  8
0
100
AcDbLine
 62
7
  6
CONTINUOUS
 10
14.9552473956
 20
7.0897204498
 11
14.9552473956
 21
7.1647204498
  0
LINE
  5
397
100
AcDbEntity
  8
0
100
AcDbLine
 62
7
  6
CONTINUOUS
 10
14.971011878
 20
7.0897204498
 11
14.971011878
 21
7.1647204498
  0
LINE
  5
398
100
AcDbEntity
  8
0
100
AcDbLine
 62
7
  6
CONTINUOUS
 10
14.9846111137
 20
7.1647204498
 11
14.9846111137
 21
7.0897204498
  0
LINE
  5
399
100
AcDbEntity
  8
0
100
AcDbLine
 62
7
  6
CONTINUOUS
 10
14.998246698
 20
7.0897204498
 11
14.998246698
 21
7.1647204498
  0
LINE
  5
39A
100
AcDbEntity
  8
0
100
AcDbLine
 62
7
  6
CONTINUOUS
 10
15.0144969546
 20
7.0897204498
 11
15.0144969546
 21
7.1647204498
  0
LINE
  5
39B
100
AcDbEntity
  8
0
100
AcDbLine
 62
7
  6
CONTINUOUS
 10
15.0280547184
 20
7.1647204498
 11
15.0280547184
 21
7.0897204498
  0
LINE
  5
39C
100
AcDbEntity
  8
0
100
AcDbLine
 62
7
  6
CONTINUOUS
 10
15.0411148705
 20
7.0897204498
 11
15.0411148705
 21
7.1647204498
  0
LINE
  5
39D
100
AcDbEntity
  8
0
100
AcDbLine
 62
7
  6
CONTINUOUS
 10
15.0578311029
 20
7.0897204498
 11
15.0578311029
 21
7.1647204498
  0
LINE
  5
39E
100
AcDbEntity
  8
0
100
AcDbLine
 62
7
  6
CONTINUOUS
 10
15.0713308766
 20
7.1647204498
 11
15.0713308766
 21
7.0897204498
  0
LINE
  5
39F
100
AcDbEntity
  8
0
100
AcDbLine
 62
7
  6
CONTINUOUS
 10
15.0837996848
 20
7.0897204498
 11
15.0837996848
 21
7.1647204498
  0
LINE
  5
3A0
100
AcDbEntity
  8
0
100
AcDbLine
 62
7
  6
CONTINUOUS
 10
15.0906172
 20
8.5947204498
 11
15.0906172
 21
8.5647204498
  0
LINE
  5
3A1
100
AcDbEntity
  8
0
100
AcDbLine
 62
7
  6
CONTINUOUS
 10
15.1009615268
 20
7.0897204498
 11
15.1009615268
 21
7.1647204498
  0
LINE
  5
3A2
100
AcDbEntity
  8
0
100
AcDbLine
 62
7
  6
CONTINUOUS
 10
15.1143868631
 20
7.1647204498
 11
15.1143868631
 21
7.0897204498
  0
LINE
  5
3A3
100
AcDbEntity
  8
0
100
AcDbLine
 62
7
  6
CONTINUOUS
 10
15.1262491359
 20
7.0897204498
 11
15.1262491359
 21
7.1647204498
  0
LINE
  5
3A4
100
AcDbEntity
  8
0
100
AcDbLine
 62
7
  6
CONTINUOUS
 10
15.1281172
 20
10.5197204498
 11
15.1281172
 21
10.2697204498
  0
LINE
  5
3A5
100
AcDbEntity
  8
0
100
AcDbLine
 62
7
  6
CONTINUOUS
 10
15.1438356786
 20
7.0897204498
 11
15.1438356786
 21
7.1647204498
  0
LINE
  5
3A6
100
AcDbEntity
  8
0
100
AcDbLine
 62
7
  6
CONTINUOUS
 10
15.1531172
 20
11.0197204498
 11
15.1531172
 21
10.9697204498
  0
LINE
  5
3A7
100
AcDbEntity
  8
0
100
AcDbLine
 62
7
  6
CONTINUOUS
 10
15.1531172
 20
9.5077204498
 11
15.1531172
 21
9.4777204498
  0
LINE
  5
3A8
100
AcDbEntity
  8
0
100
AcDbLine
 62
7
  6
CONTINUOUS
 10
15.1571702207
 20
7.1647204498
 11
15.1571702207
 21
7.0897204498
  0
LINE
  5
3A9
100
AcDbEntity
  8
0
100
AcDbLine
 62
7
  6
CONTINUOUS
 10
15.1684115058
 20
7.0897204498
 11
15.1684115058
 21
7.1647204498
  0
LINE
  5
3AA
100
AcDbEntity
  8
0
100
AcDbLine
 62
7
  6
CONTINUOUS
 10
15.1864013226
 20
7.0897204498
 11
15.1864013226
 21
7.1647204498
  0
LINE
  5
3AB
100
AcDbEntity
  8
0
100
AcDbLine
 62
7
  6
CONTINUOUS
 10
15.1996288245
 20
7.1647204498
 11
15.1996288245
 21
7.0897204498
  0
LINE
  5
3AC
100
AcDbEntity
  8
0
100
AcDbLine
 62
7
  6
CONTINUOUS
 10
15.2031172
 20
8.8877204498
 11
15.2031172
 21
8.5947204498
  0
LINE
  5
3AD
100
AcDbEntity
  8
0
100
AcDbLine
 62
7
  6
CONTINUOUS
 10
15.2102354262
 20
7.0897204498
 11
15.2102354262
 21
7.1647204498
  0
LINE
  5
3AE
100
AcDbEntity
  8
0
100
AcDbLine
 62
9
  6
CONTINUOUS
 10
14.8906165966
 20
8.9461325585
 11
14.891916299
 21
8.9603446582
  0
LINE
  5
3AF
100
AcDbEntity
  8
0
100
AcDbLine
 62
7
  6
CONTINUOUS
 10
15.7656172
 20
7.8897204498
 11
15.8406172
 21
7.9647204498
  0
LINE
  5
3B0
100
AcDbEntity
  8
0
100
AcDbLine
 62
7
  6
CONTINUOUS
 10
15.2286065993
 20
7.0897204498
 11
15.2286065993
 21
7.1647204498
  0
LINE
  5
3B1
100
AcDbEntity
  8
0
100
AcDbLine
 62
7
  6
CONTINUOUS
 10
15.2417109452
 20
7.1647204498
 11
15.2417109452
 21
7.0897204498
  0
LINE
  5
3B2
100
AcDbEntity
  8
0
100
AcDbLine
 62
7
  6
CONTINUOUS
 10
15.251669941
 20
7.0897204498
 11
15.251669941
 21
7.1647204498
  0
LINE
  5
3B3
100
AcDbEntity
  8
0
100
AcDbLine
 62
9
  6
CONTINUOUS
 10
15.2522359406
 20
8.9495602408
 11
15.2522359406
 21
8.9703092972
  0
LINE
  5
3B4
100
AcDbEntity
  8
0
100
AcDbLine
 62
9
  6
CONTINUOUS
 10
15.2522359406
 20
9.3370429419
 11
15.2522359406
 21
9.3412835522
  0
LINE
  5
3B5
100
AcDbEntity
  8
0
100
AcDbLine
 62
7
  6
CONTINUOUS
 10
15.2704000879
 20
7.0897204498
 11
15.2704000879
 21
7.1647204498
  0
LINE
  5
3B6
100
AcDbEntity
  8
0
100
AcDbLine
 62
7
  6
CONTINUOUS
 10
15.2833653123
 20
7.1647204498
 11
15.2833653123
 21
7.0897204498
  0
LINE
  5
3B7
100
AcDbEntity
  8
0
100
AcDbLine
 62
7
  6
CONTINUOUS
 10
15.2906172
 20
10.8947204498
 11
15.2906172
 21
10.5197204498
  0
LINE
  5
3B8
100
AcDbEntity
  8
0
100
AcDbLine
 62
7
  6
CONTINUOUS
 10
15.2906172
 20
9.3827204498
 11
15.2906172
 21
9.3404152116
  0
LINE
  5
3B9
100
AcDbEntity
  8
0
100
AcDbLine
 62
7
  6
CONTINUOUS
 10
15.2906172
 20
8.969388936
 11
15.2906172
 21
8.9077204498
  0
LINE
  5
3BA
100
AcDbEntity
  8
0
100
AcDbLine
 62
7
  6
CONTINUOUS
 10
15.2906172
 20
8.4647204498
 11
15.2906172
 21
8.5647204498
  0
LINE
  5
3BB
100
AcDbEntity
  8
0
100
AcDbLine
 62
7
  6
CONTINUOUS
 10
15.2926645686
 20
7.0897204498
 11
15.2926645686
 21
7.1647204498
  0
LINE
  5
3BC
100
AcDbEntity
  8
0
100
AcDbLine
 62
7
  6
CONTINUOUS
 10
15.3117308696
 20
7.0897204498
 11
15.3117308696
 21
7.1647204498
  0
LINE
  5
3BD
100
AcDbEntity
  8
0
100
AcDbLine
 62
7
  6
CONTINUOUS
 10
15.3245411763
 20
7.1647204498
 11
15.3245411763
 21
7.0897204498
  0
LINE
  5
3BE
100
AcDbEntity
  8
0
100
AcDbLine
 62
7
  6
CONTINUOUS
 10
15.3331693634
 20
7.0897204498
 11
15.3331693634
 21
7.1647204498
  0
LINE
  5
3BF
100
AcDbEntity
  8
0
100
AcDbLine
 62
7
  6
CONTINUOUS
 10
15.3525485891
 20
7.0897204498
 11
15.3525485891
 21
7.1647204498
  0
LINE
  5
3C0
100
AcDbEntity
  8
0
100
AcDbLine
 62
7
  6
CONTINUOUS
 10
15.3651883708
 20
7.1647204498
 11
15.3651883708
 21
7.0897204498
  0
LINE
  5
3C1
100
AcDbEntity
  8
0
100
AcDbLine
 62
7
  6
CONTINUOUS
 10
15.3731349767
 20
7.0897204498
 11
15.3731349767
 21
7.1647204498
  0
LINE
  5
3C2
100
AcDbEntity
  8
0
100
AcDbLine
 62
9
  6
CONTINUOUS
 10
15.3839258339
 20
9.308303589
 11
15.383925787
 21
9.0178246371
  0
LINE
  5
3C3
100
AcDbEntity
  8
0
100
AcDbLine
 62
7
  6
CONTINUOUS
 10
15.3906172
 20
10.2697204498
 11
15.3906172
 21
10.1347204498
  0
LINE
  5
3C4
100
AcDbEntity
  8
0
100
AcDbLine
 62
7
  6
CONTINUOUS
 10
15.3928035164
 20
7.0897204498
 11
15.3928035164
 21
7.1647204498
  0
LINE
  5
3C5
100
AcDbEntity
  8
0
100
AcDbLine
 62
7
  6
CONTINUOUS
 10
15.4052573734
 20
7.1647204498
 11
15.4052573734
 21
7.0897204498
  0
LINE
  5
3C6
100
AcDbEntity
  8
0
100
AcDbLine
 62
7
  6
CONTINUOUS
 10
15.4125127163
 20
7.0897204498
 11
15.4125127163
 21
7.1647204498
  0
LINE
  5
3C7
100
AcDbEntity
  8
0
100
AcDbLine
 62
7
  6
CONTINUOUS
 10
15.432446607
 20
7.0897204498
 11
15.432446607
 21
7.1647204498
  0
LINE
  5
3C8
100
AcDbEntity
  8
0
100
AcDbLine
 62
9
  6
CONTINUOUS
 10
15.4401080627
 20
9.3083251274
 11
15.4401080635
 21
9.0178031544
  0
LINE
  5
3C9
100
AcDbEntity
  8
0
100
AcDbLine
 62
7
  6
CONTINUOUS
 10
15.4446993662
 20
7.1647204498
 11
15.4446993662
 21
7.0897204498
  0
LINE
  5
3CA
100
AcDbEntity
  8
0
100
AcDbLine
 62
7
  6
CONTINUOUS
 10
15.4512546066
 20
7.0897204498
 11
15.4512546066
 21
7.1647204498
  0
LINE
  5
3CB
100
AcDbEntity
  8
0
100
AcDbLine
 62
7
  6
CONTINUOUS
 10
15.471429562
 20
7.0897204498
 11
15.471429562
 21
7.1647204498
  0
LINE
  5
3CC
100
AcDbEntity
  8
0
100
AcDbLine
 62
7
  6
CONTINUOUS
 10
15.4834662953
 20
7.1647204498
 11
15.4834662953
 21
7.0897204498
  0
LINE
  5
3CD
100
AcDbEntity
  8
0
100
AcDbLine
 62
7
  6
CONTINUOUS
 10
15.4893134466
 20
7.0897204498
 11
15.4893134466
 21
7.1647204498
  0
LINE
  5
3CE
100
AcDbEntity
  8
0
100
AcDbLine
 62
7
  6
CONTINUOUS
 10
15.5097048865
 20
7.0897204498
 11
15.5097048865
 21
7.1647204498
  0
LINE
  5
3CF
100
AcDbEntity
  8
0
100
AcDbLine
 62
7
  6
CONTINUOUS
 10
15.5215109291
 20
7.1647204498
 11
15.5215109291
 21
7.0897204498
  0
LINE
  5
3D0
100
AcDbEntity
  8
0
100
AcDbLine
 62
7
  6
CONTINUOUS
 10
15.5266428675
 20
7.0897204498
 11
15.5266428675
 21
7.1647204498
  0
LINE
  5
3D1
100
AcDbEntity
  8
0
100
AcDbLine
 62
7
  6
CONTINUOUS
 10
15.5472259481
 20
7.0897204498
 11
15.5472259481
 21
7.1647204498
  0
LINE
  5
3D2
100
AcDbEntity
  8
0
100
AcDbLine
 62
7
  6
CONTINUOUS
 10
15.558786916
 20
7.1647204498
 11
15.558786916
 21
7.0897204498
  0
LINE
  5
3D3
100
AcDbEntity
  8
0
100
AcDbLine
 62
7
  6
CONTINUOUS
 10
15.563197389
 20
7.0897204498
 11
15.563197389
 21
7.1647204498
  0
LINE
  5
3D4
100
AcDbEntity
  8
0
100
AcDbLine
 62
7
  6
CONTINUOUS
 10
15.583947033
 20
7.0897204498
 11
15.583947033
 21
7.1647204498
  0
LINE
  5
3D5
100
AcDbEntity
  8
0
100
AcDbLine
 62
7
  6
CONTINUOUS
 10
15.5952488411
 20
7.1647204498
 11
15.5952488411
 21
7.0897204498
  0
LINE
  5
3D6
100
AcDbEntity
  8
0
100
AcDbLine
 62
7
  6
CONTINUOUS
 10
15.5989324752
 20
7.0897204498
 11
15.5989324752
 21
7.1647204498
  0
LINE
  5
3D7
100
AcDbEntity
  8
0
100
AcDbLine
 62
7
  6
CONTINUOUS
 10
15.6198234024
 20
7.0897204498
 11
15.6198234024
 21
7.1647204498
  0
LINE
  5
3D8
100
AcDbEntity
  8
0
100
AcDbLine
 62
7
  6
CONTINUOUS
 10
15.630852281
 20
7.1647204498
 11
15.630852281
 21
7.0897204498
  0
LINE
  5
3D9
100
AcDbEntity
  8
0
100
AcDbLine
 62
7
  6
CONTINUOUS
 10
15.6338045883
 20
7.0897204498
 11
15.6338045883
 21
7.1647204498
  0
LINE
  5
3DA
100
AcDbEntity
  8
0
100
AcDbLine
 62
7
  6
CONTINUOUS
 10
15.6406172
 20
8.4147204498
 11
15.6406172
 21
8.4647204498
  0
LINE
  5
3DB
100
AcDbEntity
  8
0
100
AcDbLine
 62
7
  6
CONTINUOUS
 10
15.6548113463
 20
7.0897204498
 11
15.6548113463
 21
7.1647204498
  0
LINE
  5
3DC
100
AcDbEntity
  8
0
100
AcDbLine
 62
7
  6
CONTINUOUS
 10
15.6655538586
 20
7.1647204498
 11
15.6655538586
 21
7.0897204498
  0
LINE
  5
3DD
100
AcDbEntity
  8
0
100
AcDbLine
 62
7
  6
CONTINUOUS
 10
15.6677712421
 20
7.0897204498
 11
15.6677712421
 21
7.1647204498
  0
LINE
  5
3DE
100
AcDbEntity
  8
0
100
AcDbLine
 62
7
  6
CONTINUOUS
 10
15.6888682374
 20
7.0897204498
 11
15.6888682374
 21
7.1647204498
  0
LINE
  5
3DF
100
AcDbEntity
  8
0
100
AcDbLine
 62
7
  6
CONTINUOUS
 10
15.6993112951
 20
7.1647204498
 11
15.6993112951
 21
7.0897204498
  0
LINE
  5
3E0
100
AcDbEntity
  8
0
100
AcDbLine
 62
7
  6
CONTINUOUS
 10
15.7007910534
 20
7.0897204498
 11
15.7007910534
 21
7.1647204498
  0
LINE
  5
3E1
100
AcDbEntity
  8
0
100
AcDbLine
 62
7
  6
CONTINUOUS
 10
15.7219525825
 20
7.0897204498
 11
15.7219525825
 21
7.1647204498
  0
LINE
  5
3E2
100
AcDbEntity
  8
0
100
AcDbLine
 62
7
  6
CONTINUOUS
 10
15.7320834625
 20
7.1647204498
 11
15.7320834625
 21
7.0897204498
  0
LINE
  5
3E3
100
AcDbEntity
  8
0
100
AcDbLine
 62
7
  6
CONTINUOUS
 10
15.7328237927
 20
7.0897204498
 11
15.7328237927
 21
7.1647204498
  0
LINE
  5
3E4
100
AcDbEntity
  8
0
100
AcDbLine
 62
7
  6
CONTINUOUS
 10
15.7540240736
 20
7.0897204498
 11
15.7540240736
 21
7.1647204498
  0
LINE
  5
3E5
100
AcDbEntity
  8
0
100
AcDbLine
 62
7
  6
CONTINUOUS
 10
15.7638304329
 20
7.1647204498
 11
15.7638304329
 21
7.0897204498
  0
LINE
  5
3E6
100
AcDbEntity
  8
0
100
AcDbLine
 62
7
  6
CONTINUOUS
 10
15.7656172
 20
7.3647204498
 11
15.7656172
 21
7.8897204498
  0
LINE
  5
3E7
100
AcDbEntity
  8
0
100
AcDbLine
 62
7
  6
CONTINUOUS
 10
15.7756172
 20
10.1097204498
 11
15.7756172
 21
10.0367204498
  0
LINE
  5
3E8
100
AcDbEntity
  8
0
100
AcDbLine
 62
7
  6
CONTINUOUS
 10
15.7850436363
 20
7.0897204498
 11
15.7850436363
 21
7.1647204498
  0
LINE
  5
3E9
100
AcDbEntity
  8
0
100
AcDbLine
 62
7
  6
CONTINUOUS
 10
15.7945135275
 20
7.1647204498
 11
15.7945135275
 21
7.0897204498
  0
LINE
  5
3EA
100
AcDbEntity
  8
0
100
AcDbLine
 62
7
  6
CONTINUOUS
 10
15.8149734783
 20
7.0897204498
 11
15.8149734783
 21
7.1647204498
  0
LINE
  5
3EB
100
AcDbEntity
  8
0
100
AcDbLine
 62
7
  6
CONTINUOUS
 10
15.8240953636
 20
7.1647204498
 11
15.8240953636
 21
7.0897204498
  0
LINE
  5
3EC
100
AcDbEntity
  8
0
100
AcDbLine
 62
7
  6
CONTINUOUS
 10
15.8406172
 20
7.9647204498
 11
15.8406172
 21
8.0647204498
  0
LINE
  5
3ED
100
AcDbEntity
  8
0
100
AcDbLine
 62
7
  6
CONTINUOUS
 10
15.8406172
 20
8.2647204498
 11
15.8406172
 21
8.3147204498
  0
LINE
  5
3EE
100
AcDbEntity
  8
0
100
AcDbLine
 62
9
  6
CONTINUOUS
 10
15.8411263373
 20
9.0178030189
 11
15.8411263367
 21
9.3083254221
  0
LINE
  5
3EF
100
AcDbEntity
  8
0
100
AcDbLine
 62
7
  6
CONTINUOUS
 10
15.8437771344
 20
7.0897204498
 11
15.8437771344
 21
7.1647204498
  0
LINE
  5
3F0
100
AcDbEntity
  8
0
100
AcDbLine
 62
7
  6
CONTINUOUS
 10
15.8525399003
 20
7.1647204498
 11
15.8525399003
 21
7.0897204498
  0
LINE
  5
3F1
100
AcDbEntity
  8
0
100
AcDbLine
 62
7
  6
CONTINUOUS
 10
15.8611263454
 20
9.0178040426
 11
15.8611263454
 21
9.3083243778
  0
LINE
  5
3F2
100
AcDbEntity
  8
0
100
AcDbLine
 62
7
  6
CONTINUOUS
 10
15.8714195121
 20
7.0897204498
 11
15.8714195121
 21
7.1647204498
  0
LINE
  5
3F3
100
AcDbEntity
  8
0
100
AcDbLine
 62
7
  6
CONTINUOUS
 10
15.8798124825
 20
7.1647204498
 11
15.8798124825
 21
7.0897204498
  0
LINE
  5
3F4
100
AcDbEntity
  8
0
100
AcDbLine
 62
7
  6
CONTINUOUS
 10
15.8978669332
 20
7.0897204498
 11
15.8978669332
 21
7.1647204498
  0
LINE
  5
3F5
100
AcDbEntity
  8
0
100
AcDbLine
 62
7
  6
CONTINUOUS
 10
15.9058798825
 20
7.1647204498
 11
15.9058798825
 21
7.0897204498
  0
LINE
  5
3F6
100
AcDbEntity
  8
0
100
AcDbLine
 62
7
  6
CONTINUOUS
 10
15.9156172
 20
8.0647204498
 11
15.9156172
 21
8.2647204498
  0
LINE
  5
3F7
100
AcDbEntity
  8
0
100
AcDbLine
 62
7
  6
CONTINUOUS
 10
15.9230871756
 20
7.0897204498
 11
15.9230871756
 21
7.1647204498
  0
LINE
  5
3F8
100
AcDbEntity
  8
0
100
AcDbLine
 62
7
  6
CONTINUOUS
 10
15.9307103414
 20
7.1647204498
 11
15.9307103414
 21
7.0897204498
  0
LINE
  5
3F9
100
AcDbEntity
  8
0
100
AcDbLine
 62
7
  6
CONTINUOUS
 10
15.9470495124
 20
7.0897204498
 11
15.9470495124
 21
7.1647204498
  0
LINE
  5
3FA
100
AcDbEntity
  8
0
100
AcDbLine
 62
7
  6
CONTINUOUS
 10
15.954273607
 20
7.1647204498
 11
15.954273607
 21
7.0897204498
  0
LINE
  5
3FB
100
AcDbEntity
  8
0
100
AcDbLine
 62
7
  6
CONTINUOUS
 10
15.9697247492
 20
7.0897204498
 11
15.9697247492
 21
7.1647204498
  0
LINE
  5
3FC
100
AcDbEntity
  8
0
100
AcDbLine
 62
7
  6
CONTINUOUS
 10
15.976540971
 20
7.1647204498
 11
15.976540971
 21
7.0897204498
  0
LINE
  5
3FD
100
AcDbEntity
  8
0
100
AcDbLine
 62
7
  6
CONTINUOUS
 10
15.9910852597
 20
7.0897204498
 11
15.9910852597
 21
7.1647204498
  0
LINE
  5
3FE
100
AcDbEntity
  8
0
100
AcDbLine
 62
7
  6
CONTINUOUS
 10
15.9974853043
 20
7.1647204498
 11
15.9974853043
 21
7.0897204498
  0
LINE
  5
3FF
100
AcDbEntity
  8
0
100
AcDbLine
 62
7
  6
CONTINUOUS
 10
16.0031172
 20
7.7757204498
 11
16.0031172
 21
7.2647204498
  0
LINE
  5
400
100
AcDbEntity
  8
0
100
AcDbLine
 62
7
  6
CONTINUOUS
 10
16.0111050193
 20
7.0897204498
 11
16.0111050193
 21
7.1647204498
  0
LINE
  5
401
100
AcDbEntity
  8
0
100
AcDbLine
 62
7
  6
CONTINUOUS
 10
16.0170810893
 20
7.1647204498
 11
16.0170810893
 21
7.0897204498
  0
LINE
  5
402
100
AcDbEntity
  8
0
100
AcDbLine
 62
7
  6
CONTINUOUS
 10
16.0297596371
 20
7.0897204498
 11
16.0297596371
 21
7.1647204498
  0
LINE
  5
403
100
AcDbEntity
  8
0
100
AcDbLine
 62
7
  6
CONTINUOUS
 10
16.0353044515
 20
7.1647204498
 11
16.0353044515
 21
7.0897204498
  0
LINE
  5
404
100
AcDbEntity
  8
0
100
AcDbLine
 62
7
  6
CONTINUOUS
 10
16.0470263854
 20
7.0897204498
 11
16.0470263854
 21
7.1647204498
  0
LINE
  5
405
100
AcDbEntity
  8
0
100
AcDbLine
 62
7
  6
CONTINUOUS
 10
16.0521331887
 20
7.1647204498
 11
16.0521331887
 21
7.0897204498
  0
LINE
  5
406
100
AcDbEntity
  8
0
100
AcDbLine
 62
7
  6
CONTINUOUS
 10
16.0628842271
 20
7.0897204498
 11
16.0628842271
 21
7.1647204498
  0
LINE
  5
407
100
AcDbEntity
  8
0
100
AcDbLine
 62
7
  6
CONTINUOUS
 10
16.0675467975
 20
7.1647204498
 11
16.0675467975
 21
7.0897204498
  0
LINE
  5
408
100
AcDbEntity
  8
0
100
AcDbLine
 62
7
  6
CONTINUOUS
 10
16.0773138421
 20
7.0897204498
 11
16.0773138421
 21
7.1647204498
  0
LINE
  5
409
100
AcDbEntity
  8
0
100
AcDbLine
 62
7
  6
CONTINUOUS
 10
16.0815264989
 20
7.1647204498
 11
16.0815264989
 21
7.0897204498
  0
LINE
  5
40A
100
AcDbEntity
  8
0
100
AcDbLine
 62
7
  6
CONTINUOUS
 10
16.09029765
 20
7.0897204498
 11
16.09029765
 21
7.1647204498
  0
LINE
  5
40B
100
AcDbEntity
  8
0
100
AcDbLine
 62
7
  6
CONTINUOUS
 10
16.0906172
 20
6.8897204498
 11
16.0906172
 21
7.0897204498
  0
LINE
  5
40C
100
AcDbEntity
  8
0
100
AcDbLine
 62
7
  6
CONTINUOUS
 10
16.0940552608
 20
7.1647204498
 11
16.0940552608
 21
7.0897204498
  0
LINE
  5
40D
100
AcDbEntity
  8
0
100
AcDbLine
 62
7
  6
CONTINUOUS
 10
16.1018198321
 20
7.0897204498
 11
16.1018198321
 21
7.1647204498
  0
LINE
  5
40E
100
AcDbEntity
  8
0
100
AcDbLine
 62
7
  6
CONTINUOUS
 10
16.1051178187
 20
7.1647204498
 11
16.1051178187
 21
7.0897204498
  0
LINE
  5
40F
100
AcDbEntity
  8
0
100
AcDbLine
 62
7
  6
CONTINUOUS
 10
16.1118663504
 20
7.0897204498
 11
16.1118663504
 21
7.1647204498
  0
LINE
  5
410
100
AcDbEntity
  8
0
100
AcDbLine
 62
7
  6
CONTINUOUS
 10
16.1147006948
 20
7.1647204498
 11
16.1147006948
 21
7.0897204498
  0
LINE
  5
411
100
AcDbEntity
  8
0
100
AcDbLine
 62
7
  6
CONTINUOUS
 10
16.1204249646
 20
7.0897204498
 11
16.1204249646
 21
7.1647204498
  0
LINE
  5
412
100
AcDbEntity
  8
0
100
AcDbLine
 62
7
  6
CONTINUOUS
 10
16.1227922137
 20
7.1647204498
 11
16.1227922137
 21
7.0897204498
  0
LINE
  5
413
100
AcDbEntity
  8
0
100
AcDbLine
 62
7
  6
CONTINUOUS
 10
16.1274852476
 20
7.0897204498
 11
16.1274852476
 21
7.1647204498
  0
LINE
  5
414
100
AcDbEntity
  8
0
100
AcDbLine
 62
7
  6
CONTINUOUS
 10
16.1293825171
 20
7.1647204498
 11
16.1293825171
 21
7.0897204498
  0
LINE
  5
415
100
AcDbEntity
  8
0
100
AcDbLine
 62
7
  6
CONTINUOUS
 10
16.1330385974
 20
7.0897204498
 11
16.1330385974
 21
7.1647204498
  0
LINE
  5
416
100
AcDbEntity
  8
0
100
AcDbLine
 62
7
  6
CONTINUOUS
 10
16.1344635758
 20
7.1647204498
 11
16.1344635758
 21
7.0897204498
  0
LINE
  5
417
100
AcDbEntity
  8
0
100
AcDbLine
 62
7
  6
CONTINUOUS
 10
16.137078248
 20
7.0897204498
 11
16.137078248
 21
7.1647204498
  0
LINE
  5
418
100
AcDbEntity
  8
0
100
AcDbLine
 62
7
  6
CONTINUOUS
 10
16.1380291992
 20
7.1647204498
 11
16.1380291992
 21
7.0897204498
  0
LINE
  5
419
100
AcDbEntity
  8
0
100
AcDbLine
 62
7
  6
CONTINUOUS
 10
16.1395992779
 20
7.0897204498
 11
16.1395992779
 21
7.1647204498
  0
LINE
  5
41A
100
AcDbEntity
  8
0
100
AcDbLine
 62
7
  6
CONTINUOUS
 10
16.1400750434
 20
7.1647204498
 11
16.1400750434
 21
7.0897204498
  0
LINE
  5
41B
100
AcDbEntity
  8
0
100
AcDbLine
 62
7
  6
CONTINUOUS
 10
16.1405986155
 20
7.0897204498
 11
16.1405986155
 21
7.1647204498
  0
LINE
  5
41C
100
AcDbEntity
  8
0
100
AcDbLine
 62
7
  6
CONTINUOUS
 10
16.1406172
 20
6.6897204498
 11
16.1406172
 21
6.8397204498
  0
LINE
  5
41D
100
AcDbEntity
  8
0
100
AcDbLine
 62
7
  6
CONTINUOUS
 10
16.1441533762
 20
7.0897204498
 11
16.1441533762
 21
7.1647204498
  0
LINE
  5
41E
100
AcDbEntity
  8
0
100
AcDbLine
 62
7
  6
CONTINUOUS
 10
16.1534212949
 20
7.1647204498
 11
16.1534212949
 21
7.0897204498
  0
LINE
  5
41F
100
AcDbEntity
  8
0
100
AcDbLine
 62
7
  6
CONTINUOUS
 10
16.1670410099
 20
7.0897204498
 11
16.1670410099
 21
7.1647204498
  0
LINE
  5
420
100
AcDbEntity
  8
0
100
AcDbLine
 62
7
  6
CONTINUOUS
 10
16.1701447591
 20
9.6595564816
 11
16.1701447591
 21
8.1242109784
  0
LINE
  5
421
100
AcDbEntity
  8
0
100
AcDbLine
 62
7
  6
CONTINUOUS
 10
16.17569497
 20
7.1647204498
 11
16.17569497
 21
7.0897204498
  0
LINE
  5
422
100
AcDbEntity
  8
0
100
AcDbLine
 62
7
  6
CONTINUOUS
 10
16.1883735179
 20
7.0897204498
 11
16.1883735179
 21
7.1647204498
  0
LINE
  5
423
100
AcDbEntity
  8
0
100
AcDbLine
 62
7
  6
CONTINUOUS
 10
16.1964029758
 20
7.1647204498
 11
16.1964029758
 21
7.0897204498
  0
LINE
  5
424
100
AcDbEntity
  8
0
100
AcDbLine
 62
7
  6
CONTINUOUS
 10
16.2081249097
 20
7.0897204498
 11
16.2081249097
 21
7.1647204498
  0
LINE
  5
425
100
AcDbEntity
  8
0
100
AcDbLine
 62
7
  6
CONTINUOUS
 10
16.2155200828
 20
7.1647204498
 11
16.2155200828
 21
7.0897204498
  0
LINE
  5
426
100
AcDbEntity
  8
0
100
AcDbLine
 62
7
  6
CONTINUOUS
 10
16.2262711213
 20
7.0897204498
 11
16.2262711213
 21
7.1647204498
  0
LINE
  5
427
100
AcDbEntity
  8
0
100
AcDbLine
 62
7
  6
CONTINUOUS
 10
16.2330229997
 20
7.1647204498
 11
16.2330229997
 21
7.0897204498
  0
LINE
  5
428
100
AcDbEntity
  8
0
100
AcDbLine
 62
7
  6
CONTINUOUS
 10
16.2427900443
 20
7.0897204498
 11
16.2427900443
 21
7.1647204498
  0
LINE
  5
429
100
AcDbEntity
  8
0
100
AcDbLine
 62
7
  6
CONTINUOUS
 10
16.2488904019
 20
7.1647204498
 11
16.2488904019
 21
7.0897204498
  0
LINE
  5
42A
100
AcDbEntity
  8
0
100
AcDbLine
 62
7
  6
CONTINUOUS
 10
16.257661553
 20
7.0897204498
 11
16.257661553
 21
7.1647204498
  0
LINE
  5
42B
100
AcDbEntity
  8
0
100
AcDbLine
 62
7
  6
CONTINUOUS
 10
16.2631029574
 20
7.1647204498
 11
16.2631029574
 21
7.0897204498
  0
LINE
  5
42C
100
AcDbEntity
  8
0
100
AcDbLine
 62
7
  6
CONTINUOUS
 10
16.2656172
 20
6.8897204498
 11
16.2656172
 21
7.0897204498
  0
LINE
  5
42D
100
AcDbEntity
  8
0
100
AcDbLine
 62
7
  6
CONTINUOUS
 10
16.2708675288
 20
7.0897204498
 11
16.2708675288
 21
7.1647204498
  0
LINE
  5
42E
100
AcDbEntity
  8
0
100
AcDbLine
 62
7
  6
CONTINUOUS
 10
16.2756433505
 20
7.1647204498
 11
16.2756433505
 21
7.0897204498
  0
LINE
  5
42F
100
AcDbEntity
  8
0
100
AcDbLine
 62
7
  6
CONTINUOUS
 10
16.2823918821
 20
7.0897204498
 11
16.2823918821
 21
7.1647204498
  0
LINE
  5
430
100
AcDbEntity
  8
0
100
AcDbLine
 62
7
  6
CONTINUOUS
 10
16.2864963025
 20
7.1647204498
 11
16.2864963025
 21
7.0897204498
  0
LINE
  5
431
100
AcDbEntity
  8
0
100
AcDbLine
 62
7
  6
CONTINUOUS
 10
16.2922205724
 20
7.0897204498
 11
16.2922205724
 21
7.1647204498
  0
LINE
  5
432
100
AcDbEntity
  8
0
100
AcDbLine
 62
7
  6
CONTINUOUS
 10
16.2956485909
 20
7.1647204498
 11
16.2956485909
 21
7.0897204498
  0
LINE
  5
433
100
AcDbEntity
  8
0
100
AcDbLine
 62
7
  6
CONTINUOUS
 10
16.3003416248
 20
7.0897204498
 11
16.3003416248
 21
7.1647204498
  0
LINE
  5
434
100
AcDbEntity
  8
0
100
AcDbLine
 62
7
  6
CONTINUOUS
 10
16.3030890649
 20
7.1647204498
 11
16.3030890649
 21
7.0897204498
  0
LINE
  5
435
100
AcDbEntity
  8
0
100
AcDbLine
 62
7
  6
CONTINUOUS
 10
16.3067451452
 20
7.0897204498
 11
16.3067451452
 21
7.1647204498
  0
LINE
  5
436
100
AcDbEntity
  8
0
100
AcDbLine
 62
7
  6
CONTINUOUS
 10
16.3088086595
 20
7.1647204498
 11
16.3088086595
 21
7.0897204498
  0
LINE
  5
437
100
AcDbEntity
  8
0
100
AcDbLine
 62
7
  6
CONTINUOUS
 10
16.3114233318
 20
7.0897204498
 11
16.3114233318
 21
7.1647204498
  0
LINE
  5
438
100
AcDbEntity
  8
0
100
AcDbLine
 62
7
  6
CONTINUOUS
 10
16.3128004064
 20
7.1647204498
 11
16.3128004064
 21
7.0897204498
  0
LINE
  5
439
100
AcDbEntity
  8
0
100
AcDbLine
 62
7
  6
CONTINUOUS
 10
16.314370485
 20
7.0897204498
 11
16.314370485
 21
7.1647204498
  0
LINE
  5
43A
100
AcDbEntity
  8
0
100
AcDbLine
 62
7
  6
CONTINUOUS
 10
16.3155830142
 20
7.0897204498
 11
16.3155830142
 21
7.1647204498
  0
LINE
  5
43B
100
AcDbEntity
  8
0
100
AcDbLine
 62
7
  6
CONTINUOUS
 10
16.3156172
 20
6.6897204498
 11
16.3156172
 21
6.8397204498
  0
ARC
  5
43C
100
AcDbEntity
  8
0
100
AcDbCircle
 62
9
  6
CONTINUOUS
 10
4.5082495885
 20
-270.3176209595
 40
279.8079627394
100
AcDbArc
 50
87.9598167931
 51
88.1723367547
  0
ARC
  5
43D
100
AcDbEntity
  8
0
100
AcDbCircle
 62
9
  6
CONTINUOUS
 10
6.3531527372
 20
-214.3252748068
 40
223.745647908
100
AcDbArc
 50
87.9207064024
 51
88.1864813174
  0
ARC
  5
43E
100
AcDbEntity
  8
0
100
AcDbCircle
 62
7
  6
CONTINUOUS
 10
6.8364915156
 20
6.8348803969
 40
4.5000000048
100
AcDbArc
 50
99.9025432303
 51
108.5556763691
  0
ARC
  5
43F
100
AcDbEntity
  8
0
100
AcDbCircle
 62
9
  6
CONTINUOUS
 10
8.2751093782
 20
9.1173567464
 40
6.3124364014
100
AcDbArc
 50
356.074282463
 51
357.2223596752
  0
ARC
  5
440
100
AcDbEntity
  8
0
100
AcDbCircle
 62
7
  6
CONTINUOUS
 10
8.8499199038
 20
9.7754632209
 40
3.6916048644
100
AcDbArc
 50
158.9581017503
 51
163.4540955449
  0
ARC
  5
441
100
AcDbEntity
  8
0
100
AcDbCircle
 62
7
  6
CONTINUOUS
 10
5.7306940771
 20
9.9385953679
 40
0.5
100
AcDbArc
 50
172.4166999999
 51
189.0182495989
  0
ARC
  5
442
100
AcDbEntity
  8
0
100
AcDbCircle
 62
7
  6
CONTINUOUS
 10
5.9785075889
 20
9.9056034991
 40
0.5
100
AcDbArc
 50
335.8151504011
 51
352.4166999999
  0
ARC
  5
443
100
AcDbEntity
  8
0
100
AcDbCircle
 62
7
  6
CONTINUOUS
 10
6.402157692
 20
9.9529111065
 40
0.3884411479
100
AcDbArc
 50
148.6071051372
 51
149.7781732029
  0
ARC
  5
444
100
AcDbEntity
  8
0
100
AcDbCircle
 62
7
  6
CONTINUOUS
 10
6.3878460317
 20
9.9612927788
 40
0.3718557782
100
AcDbArc
 50
149.7841360177
 51
150.1707388008
  0
ARC
  5
445
100
AcDbEntity
  8
0
100
AcDbCircle
 62
9
  6
CONTINUOUS
 10
6.321097163
 20
10.3906960648
 40
0.2923551492
100
AcDbArc
 50
281.6416470877
 51
283.2301162112
  0
ARC
  5
446
100
AcDbEntity
  8
0
100
AcDbCircle
 62
7
  6
CONTINUOUS
 10
6.8258995649
 20
10.1509154839
 40
0.2191130009
100
AcDbArc
 50
75.0288838356
 51
168.1594661394
  0
ARC
  5
447
100
AcDbEntity
  8
0
100
AcDbCircle
 62
7
  6
CONTINUOUS
 10
6.4254995431
 20
9.7048594011
 40
0.01
100
AcDbArc
 50
262.4167
 51
335.8151503995
  0
ARC
  5
448
100
AcDbEntity
  8
0
100
AcDbCircle
 62
7
  6
CONTINUOUS
 10
5.2467512299
 20
9.8617883328
 40
0.01
100
AcDbArc
 50
189.0182496005
 51
262.4167
  0
ARC
  5
449
100
AcDbEntity
  8
0
100
AcDbCircle
 62
9
  6
CONTINUOUS
 10
15.281657837
 20
6.0441272324
 40
3.3242791754
100
AcDbArc
 50
96.7554272944
 51
97.3240668499
  0
ARC
  5
44A
100
AcDbEntity
  8
0
100
AcDbCircle
 62
9
  6
CONTINUOUS
 10
14.4016343948
 20
7.3568791958
 40
1.9572714925
100
AcDbArc
 50
87.8379972431
 51
88.0123263892
  0
ARC
  5
44B
100
AcDbEntity
  8
0
100
AcDbCircle
 62
7
  6
CONTINUOUS
 10
15.6206287153
 20
7.8832287763
 40
1.4791289253
100
AcDbArc
 50
81.9918540486
 51
94.0739032341
  0
ARC
  5
44C
100
AcDbEntity
  8
0
100
AcDbCircle
 62
9
  6
CONTINUOUS
 10
15.6406182472
 20
7.8828614915
 40
1.4394954066
100
AcDbArc
 50
81.9932127316
 51
98.0068714776
  0
ARC
  5
44D
100
AcDbEntity
  8
0
100
AcDbCircle
 62
7
  6
CONTINUOUS
 10
13.3086987008
 20
7.8228139441
 40
0.42
100
AcDbArc
 50
356.9846464087
 51
42.6327575958
  0
ARC
  5
44E
100
AcDbEntity
  8
0
100
AcDbCircle
 62
7
  6
CONTINUOUS
 10
13.7156172
 20
7.2647204498
 40
0.1
100
AcDbArc
 50
274.1983587504
 51
360.0
  0
ARC
  5
44F
100
AcDbEntity
  8
0
100
AcDbCircle
 62
7
  6
CONTINUOUS
 10
13.8656172
 20
7.3647204498
 40
0.1
100
AcDbArc
 50
270.0
 51
360.0
  0
ARC
  5
450
100
AcDbEntity
  8
0
100
AcDbCircle
 62
7
  6
CONTINUOUS
 10
13.6281172
 20
7.2647204498
 40
0.1
100
AcDbArc
 50
275.0935820824
 51
360.0
  0
ARC
  5
451
100
AcDbEntity
  8
0
100
AcDbCircle
 62
7
  6
CONTINUOUS
 10
13.636089641
 20
8.1242109784
 40
0.025
100
AcDbArc
 50
180.0
 51
222.6327575959
  0
ARC
  5
452
100
AcDbEntity
  8
0
100
AcDbCircle
 62
7
  6
CONTINUOUS
 10
13.7531172
 20
7.7757204498
 40
0.025
100
AcDbArc
 50
0.0
 51
90.0
  0
ARC
  5
453
100
AcDbEntity
  8
0
100
AcDbCircle
 62
9
  6
CONTINUOUS
 10
18.4286253307
 20
-31.8325420142
 40
41.2533561494
100
AcDbArc
 50
94.2325573662
 51
94.8508565524
  0
ARC
  5
454
100
AcDbEntity
  8
0
100
AcDbCircle
 62
7
  6
CONTINUOUS
 10
15.950445403
 20
-12.7638309834
 40
22.341894536
100
AcDbArc
 50
94.4605193555
 51
94.593461327
  0
ARC
  5
455
100
AcDbEntity
  8
0
100
AcDbCircle
 62
9
  6
CONTINUOUS
 10
16.6547994562
 20
7.3254300239
 40
2.4221364211
100
AcDbArc
 50
137.0893238938
 51
137.8914942332
  0
ARC
  5
456
100
AcDbEntity
  8
0
100
AcDbCircle
 62
7
  6
CONTINUOUS
 10
16.4725356993
 20
7.8228139441
 40
0.42
100
AcDbArc
 50
137.3672424042
 51
183.0153535913
  0
ARC
  5
457
100
AcDbEntity
  8
0
100
AcDbCircle
 62
7
  6
CONTINUOUS
 10
16.0656172
 20
7.2647204498
 40
0.1
100
AcDbArc
 50
180.0
 51
265.8016412497
  0
ARC
  5
458
100
AcDbEntity
  8
0
100
AcDbCircle
 62
7
  6
CONTINUOUS
 10
15.9156172
 20
7.3647204498
 40
0.1
100
AcDbArc
 50
180.0
 51
270.0
  0
ARC
  5
459
100
AcDbEntity
  8
0
100
AcDbCircle
 62
7
  6
CONTINUOUS
 10
16.1531172
 20
7.2647204498
 40
0.1
100
AcDbArc
 50
180.0
 51
264.9064179176
  0
ARC
  5
45A
100
AcDbEntity
  8
0
100
AcDbCircle
 62
7
  6
CONTINUOUS
 10
16.0281172
 20
7.7757204498
 40
0.025
100
AcDbArc
 50
90.0
 51
180.0
  0
ARC
  5
45B
100
AcDbEntity
  8
0
100
AcDbCircle
 62
7
  6
CONTINUOUS
 10
16.1451447591
 20
8.1242109784
 40
0.025
100
AcDbArc
 50
317.3672424041
 51
360.0
  0
ARC
  5
45C
100
AcDbEntity
  8
0
100
AcDbCircle
 62
7
  6
CONTINUOUS
 10
14.5167390555
 20
14.739687742
 40
6.077101874
100
AcDbArc
 50
265.1360295012
 51
266.5994412276
  0
ARC
  5
45D
100
AcDbEntity
  8
0
100
AcDbCircle
 62
7
  6
CONTINUOUS
 10
14.5057189284
 20
14.6204469245
 40
5.9573473197
100
AcDbArc
 50
257.3626144869
 51
265.1443658143
  0
ARC
  5
45E
100
AcDbEntity
  8
0
100
AcDbCircle
 62
7
  6
CONTINUOUS
 10
14.4985620122
 20
14.5831267564
 40
5.9193665757
100
AcDbArc
 50
254.9997887914
 51
257.3511818716
  0
ARC
  5
45F
100
AcDbEntity
  8
0
100
AcDbCircle
 62
9
  6
CONTINUOUS
 10
11.8453353716
 20
9.2165956409
 40
2.7368614307
100
AcDbArc
 50
4.4578227799
 51
5.0452454244
  0
ARC
  5
460
100
AcDbEntity
  8
0
100
AcDbCircle
 62
9
  6
CONTINUOUS
 10
12.2164663512
 20
9.250231321
 40
2.3642105318
100
AcDbArc
 50
5.0242287961
 51
6.6319130119
  0
ARC
  5
461
100
AcDbEntity
  8
0
100
AcDbCircle
 62
9
  6
CONTINUOUS
 10
14.4632657193
 20
10.9366219767
 40
1.9568854277
100
AcDbArc
 50
270.14563272
 51
270.3941180009
  0
ARC
  5
462
100
AcDbEntity
  8
0
100
AcDbCircle
 62
7
  6
CONTINUOUS
 10
14.1201469972
 20
10.6964407687
 40
1.1896659253
100
AcDbArc
 50
274.4700965995
 51
275.2623697392
  0
ARC
  5
463
100
AcDbEntity
  8
0
100
AcDbCircle
 62
9
  6
CONTINUOUS
 10
14.46726685
 20
10.0443560618
 40
1.0247222946
100
AcDbArc
 50
270.2208293796
 51
270.5599349026
  0
ARC
  5
464
100
AcDbEntity
  8
0
100
AcDbCircle
 62
9
  6
CONTINUOUS
 10
14.4214092075
 20
8.2540231131
 40
1.0202992671
100
AcDbArc
 50
86.9628101961
 51
87.2019266127
  0
ARC
  5
465
100
AcDbEntity
  8
0
100
AcDbCircle
 62
9
  6
CONTINUOUS
 10
14.9767573888
 20
9.4572245461
 40
0.4774914133
100
AcDbArc
 50
269.1734913208
 51
269.6341677617
  0
ARC
  5
466
100
AcDbEntity
  8
0
100
AcDbCircle
 62
7
  6
CONTINUOUS
 10
13.5176983401
 20
10.0885185721
 40
0.4200000088
100
AcDbArc
 50
285.4292798119
 51
349.4640339142
  0
ARC
  5
467
100
AcDbEntity
  8
0
100
AcDbCircle
 62
9
  6
CONTINUOUS
 10
14.0916751352
 20
8.7917736772
 40
0.3504796249
100
AcDbArc
 50
275.7526201643
 51
278.0134162452
  0
ARC
  5
468
100
AcDbEntity
  8
0
100
AcDbCircle
 62
7
  6
CONTINUOUS
 10
13.3610141736
 20
8.367768448
 40
0.2500772445
100
AcDbArc
 50
0.0133488693
 51
74.9867457638
  0
ARC
  5
469
100
AcDbEntity
  8
0
100
AcDbCircle
 62
9
  6
CONTINUOUS
 10
14.9423017194
 20
9.2551999525
 40
0.2355684312
100
AcDbArc
 50
268.8055903662
 51
269.4756990276
  0
ARC
  5
46A
100
AcDbEntity
  8
0
100
AcDbCircle
 62
7
  6
CONTINUOUS
 10
13.5276488423
 20
9.8564343925
 40
0.1997575008
100
AcDbArc
 50
266.1027137268
 51
298.8470507086
  0
ARC
  5
46B
100
AcDbEntity
  8
0
100
AcDbCircle
 62
7
  6
CONTINUOUS
 10
13.9406172
 20
8.4147204498
 40
0.1
100
AcDbArc
 50
270.0
 51
360.0
  0
ARC
  5
46C
100
AcDbEntity
  8
0
100
AcDbCircle
 62
7
  6
CONTINUOUS
 10
14.5031172
 20
9.4577204498
 40
0.075
100
AcDbArc
 50
270.0
 51
360.0
  0
ARC
  5
46D
100
AcDbEntity
  8
0
100
AcDbCircle
 62
7
  6
CONTINUOUS
 10
14.5031172
 20
10.9697204498
 40
0.075
100
AcDbArc
 50
270.0
 51
360.0
  0
ARC
  5
46E
100
AcDbEntity
  8
0
100
AcDbCircle
 62
7
  6
CONTINUOUS
 10
13.4306175861
 20
9.0037788004
 40
0.0400000166
100
AcDbArc
 50
180.0
 51
270.0789464149
  0
ARC
  5
46F
100
AcDbEntity
  8
0
100
AcDbCircle
 62
7
  6
CONTINUOUS
 10
13.4306175635
 20
9.3223593505
 40
0.0400000152
100
AcDbArc
 50
88.0753155539
 51
180.0
  0
ARC
  5
470
100
AcDbEntity
  8
0
100
AcDbCircle
 62
9
  6
CONTINUOUS
 10
13.4302634113
 20
9.3082906776
 40
0.0396465628
100
AcDbArc
 50
161.4167965918
 51
179.9514404352
  0
ARC
  5
471
100
AcDbEntity
  8
0
100
AcDbCircle
 62
9
  6
CONTINUOUS
 10
13.4302477965
 20
9.017834457
 40
0.039630608
100
AcDbArc
 50
180.0437475573
 51
198.0556070974
  0
ARC
  5
472
100
AcDbEntity
  8
0
100
AcDbCircle
 62
7
  6
CONTINUOUS
 10
13.6360903104
 20
9.6595560733
 40
0.0250000009
100
AcDbArc
 50
105.4304920069
 51
118.8378439269
  0
ARC
  5
473
100
AcDbEntity
  8
0
100
AcDbCircle
 62
7
  6
CONTINUOUS
 10
13.9806172
 20
10.0367204498
 40
0.025
100
AcDbArc
 50
270.0
 51
360.0
  0
ARC
  5
474
100
AcDbEntity
  8
0
100
AcDbCircle
 62
7
  6
CONTINUOUS
 10
14.3656172
 20
10.1347204498
 40
0.025
100
AcDbArc
 50
270.0
 51
360.0
  0
ARC
  5
475
100
AcDbEntity
  8
0
100
AcDbCircle
 62
7
  6
CONTINUOUS
 10
14.5581172
 20
8.8877204498
 40
0.02
100
AcDbArc
 50
0.0
 51
90.0
  0
ARC
  5
476
100
AcDbEntity
  8
0
100
AcDbCircle
 62
7
  6
CONTINUOUS
 10
14.6081172
 20
9.4777204498
 40
0.02
100
AcDbArc
 50
270.0
 51
360.0
  0
ARC
  5
477
100
AcDbEntity
  8
0
100
AcDbCircle
 62
9
  6
CONTINUOUS
 10
13.5094095814
 20
286.7059634999
 40
277.7278757259
100
AcDbArc
 50
269.98381996
 51
270.1978088421
  0
ARC
  5
478
100
AcDbEntity
  8
0
100
AcDbCircle
 62
9
  6
CONTINUOUS
 10
13.5520750858
 20
231.1407971449
 40
222.1230040495
100
AcDbArc
 50
269.9695272521
 51
270.2370896434
  0
ARC
  5
479
100
AcDbEntity
  8
0
100
AcDbCircle
 62
9
  6
CONTINUOUS
 10
15.3334654241
 20
49.6978241819
 40
40.6800308409
100
AcDbArc
 50
269.4460209722
 51
270.071070904
  0
ARC
  5
47A
100
AcDbEntity
  8
0
100
AcDbCircle
 62
9
  6
CONTINUOUS
 10
15.3621224047
 20
47.8543628699
 40
38.8762995055
100
AcDbArc
 50
269.5828840042
 51
270.0790216157
  0
ARC
  5
47B
100
AcDbEntity
  8
0
100
AcDbCircle
 62
9
  6
CONTINUOUS
 10
15.3557405161
 20
13.5565130227
 40
4.6337770836
100
AcDbArc
 50
263.832074784
 51
264.239144097
  0
ARC
  5
47C
100
AcDbEntity
  8
0
100
AcDbCircle
 62
9
  6
CONTINUOUS
 10
18.4811485362
 20
9.0172830903
 40
4.3475717116
100
AcDbArc
 50
173.5417219327
 51
175.8380448982
  0
ARC
  5
47D
100
AcDbEntity
  8
0
100
AcDbCircle
 62
7
  6
CONTINUOUS
 10
15.620519022
 20
10.4454877515
 40
1.4817088634
100
AcDbArc
 50
269.8460357007
 51
277.9982549228
  0
ARC
  5
47E
100
AcDbEntity
  8
0
100
AcDbCircle
 62
9
  6
CONTINUOUS
 10
15.6207854403
 20
10.4388715356
 40
1.4750934724
100
AcDbArc
 50
262.0096499774
 51
269.8349965288
  0
ARC
  5
47F
100
AcDbEntity
  8
0
100
AcDbCircle
 62
9
  6
CONTINUOUS
 10
15.6406176823
 20
10.4442764794
 40
1.4404951941
100
AcDbArc
 50
261.998744822
 51
278.0012164647
  0
ARC
  5
480
100
AcDbEntity
  8
0
100
AcDbCircle
 62
7
  6
CONTINUOUS
 10
16.2635360784
 20
10.0885186541
 40
0.4199999923
100
AcDbArc
 50
190.5359766322
 51
254.570708042
  0
ARC
  5
481
100
AcDbEntity
  8
0
100
AcDbCircle
 62
9
  6
CONTINUOUS
 10
15.3906922792
 20
9.1441096079
 40
0.2409313357
100
AcDbArc
 50
125.0768030649
 51
127.0203109244
  0
ARC
  5
482
100
AcDbEntity
  8
0
100
AcDbCircle
 62
9
  6
CONTINUOUS
 10
15.3950667972
 20
9.2836939813
 40
0.1540039268
100
AcDbArc
 50
158.0406576819
 51
159.7884455689
  0
ARC
  5
483
100
AcDbEntity
  8
0
100
AcDbCircle
 62
7
  6
CONTINUOUS
 10
15.8406172
 20
8.4147204498
 40
0.1
100
AcDbArc
 50
180.0
 51
270.0
  0
ARC
  5
484
100
AcDbEntity
  8
0
100
AcDbCircle
 62
7
  6
CONTINUOUS
 10
15.2781172
 20
9.4577204498
 40
0.075
100
AcDbArc
 50
180.0
 51
270.0
  0
ARC
  5
485
100
AcDbEntity
  8
0
100
AcDbCircle
 62
7
  6
CONTINUOUS
 10
15.2781172
 20
10.9697204498
 40
0.075
100
AcDbArc
 50
180.0
 51
270.0
  0
ARC
  5
486
100
AcDbEntity
  8
0
100
AcDbCircle
 62
7
  6
CONTINUOUS
 10
15.8211266909
 20
9.3083247021
 40
0.0399991579
100
AcDbArc
 50
359.9995614485
 51
82.0019818205
  0
ARC
  5
487
100
AcDbEntity
  8
0
100
AcDbCircle
 62
7
  6
CONTINUOUS
 10
15.8211282573
 20
9.0178030877
 40
0.0399977992
100
AcDbArc
 50
277.9484329445
 51
0.0013678832
  0
ARC
  5
488
100
AcDbEntity
  8
0
100
AcDbCircle
 62
7
  6
CONTINUOUS
 10
15.8212978953
 20
9.3086119048
 40
0.039665424
100
AcDbArc
 50
57.7463943206
 51
63.3994387461
  0
ARC
  5
489
100
AcDbEntity
  8
0
100
AcDbCircle
 62
7
  6
CONTINUOUS
 10
15.8006172
 20
10.0367204498
 40
0.025
100
AcDbArc
 50
180.0
 51
270.0
  0
ARC
  5
48A
100
AcDbEntity
  8
0
100
AcDbCircle
 62
7
  6
CONTINUOUS
 10
15.4156172
 20
10.1347204498
 40
0.025
100
AcDbArc
 50
180.0
 51
270.0
  0
ARC
  5
48B
100
AcDbEntity
  8
0
100
AcDbCircle
 62
7
  6
CONTINUOUS
 10
16.1451429606
 20
9.6595553042
 40
0.0249999917
100
AcDbArc
 50
359.9999895721
 51
74.5674870623
  0
ARC
  5
48C
100
AcDbEntity
  8
0
100
AcDbCircle
 62
7
  6
CONTINUOUS
 10
15.2231172
 20
8.8877204498
 40
0.02
100
AcDbArc
 50
90.0
 51
180.0
  0
ARC
  5
48D
100
AcDbEntity
  8
0
100
AcDbCircle
 62
7
  6
CONTINUOUS
 10
15.1731172
 20
9.4777204498
 40
0.02
100
AcDbArc
 50
180.0
 51
270.0
  0
LINE
  5
48E
100
AcDbEntity
  8
0
100
AcDbLine
 62
7
  6
CONTINUOUS
 10
14.9730713689
 20
9.312973138
 11
14.9704266686
 21
9.3127574476
  0
SPLINE
  5
48F
100
AcDbEntity
  8
0
100
AcDbSpline
 62
9
  6
CONTINUOUS
 70
0
 71
3
 72
15
 73
11
 74
0
 42
0.0000001
 43
0.0000001
 44
0.0000000001
 40
0.0
 40
0.0
 40
0.0
 40
0.0
 40
0.1334836624
 40
0.200562396
 40
0.2672033747
 40
0.3976176792
 40
0.5245230669
 40
0.6481494022
 40
0.7686381412
 40
1.0
 40
1.0
 40
1.0
 40
1.0
 10
14.4767263907
 20
8.9797828202
 30
0.0
 10
14.4807807967
 20
8.9798911922
 30
0.0
 10
14.4868966088
 20
8.9794437631
 30
0.0
 10
14.4948891369
 20
8.9780107375
 30
0.0
 10
14.5026983898
 20
8.9761410222
 30
0.0
 10
14.5120982062
 20
8.9731781547
 30
0.0
 10
14.5228693519
 20
8.9689249947
 30
0.0
 10
14.5331661711
 20
8.9643290393
 30
0.0
 10
14.5461521211
 20
8.9579937821
 30
0.0
 10
14.555594405
 20
8.952971842
 30
0.0
 10
14.5617404848
 20
8.9495594416
 30
0.0
  0
SPLINE
  5
490
100
AcDbEntity
  8
0
100
AcDbSpline
 62
9
  6
CONTINUOUS
 70
0
 71
3
 72
17
 73
13
 74
0
 42
0.0000001
 43
0.0000001
 44
0.0000000001
 40
0.0
 40
0.0
 40
0.0
 40
0.0
 40
0.0676374344
 40
0.1350143705
 40
0.2018389319
 40
0.2679359608
 40
0.3976171969
 40
0.5241490707
 40
0.6476686868
 40
0.7682366789
 40
0.885766763
 40
1.0
 40
1.0
 40
1.0
 40
1.0
 10
14.4772810022
 20
9.0196827015
 30
0.0
 10
14.4798698002
 20
9.0197079148
 30
0.0
 10
14.4850492664
 20
9.0193347598
 30
0.0
 10
14.4926130823
 20
9.0176549509
 30
0.0
 10
14.4998440295
 20
9.0150526478
 30
0.0
 10
14.5088905684
 20
9.0106363333
 30
0.0
 10
14.5191788443
 20
9.0037210309
 30
0.0
 10
14.5300467237
 20
8.9940227652
 30
0.0
 10
14.5395886782
 20
8.983496229
 30
0.0
 10
14.5479800725
 20
8.9724709161
 30
0.0
 10
14.5553546098
 20
8.961168081
 30
0.0
 10
14.559715039
 20
8.9534346528
 30
0.0
 10
14.5617400393
 20
8.9495593945
 30
0.0
  0
SPLINE
  5
491
100
AcDbEntity
  8
0
100
AcDbSpline
 62
9
  6
CONTINUOUS
 70
0
 71
3
 72
17
 73
13
 74
0
 42
0.0000001
 43
0.0000001
 44
0.0000000001
 40
0.0
 40
0.0
 40
0.0
 40
0.0
 40
0.0676787555
 40
0.1351787024
 40
0.2021753372
 40
0.2684569987
 40
0.3984474268
 40
0.5251583965
 40
0.6486993395
 40
0.7691193962
 40
0.8863185402
 40
1.0
 40
1.0
 40
1.0
 40
1.0
 10
14.4754688877
 20
9.2728892294
 30
0.0
 10
14.4780705648
 20
9.2727501349
 30
0.0
 10
14.4832986551
 20
9.2729068189
 30
0.0
 10
14.4909780005
 20
9.2743132144
 30
0.0
 10
14.4983534471
 20
9.2766896211
 30
0.0
 10
14.5076043238
 20
9.2808704293
 30
0.0
 10
14.5181466195
 20
9.287582824
 30
0.0
 10
14.5292889763
 20
9.2971271791
 30
0.0
 10
14.5390693004
 20
9.307549328
 30
0.0
 10
14.5476641265
 20
9.3184966536
 30
0.0
 10
14.5552095191
 20
9.3297323633
 30
0.0
 10
14.5596699426
 20
9.3374285696
 30
0.0
 10
14.5617400393
 20
9.3412843445
 30
0.0
  0
SPLINE
  5
492
100
AcDbEntity
  8
0
100
AcDbSpline
 62
9
  6
CONTINUOUS
 70
0
 71
3
 72
22
 73
18
 74
0
 42
0.0000001
 43
0.0000001
 44
0.0000000001
 40
0.0
 40
0.0
 40
0.0
 40
0.0
 40
0.0043256014
 40
0.0105027012
 40
0.0186297465
 40
0.0287778313
 40
0.0553741297
 40
0.0907369226
 40
0.1351189334
 40
0.1881090492
 40
0.249127149
 40
0.3175905333
 40
0.3927875382
 40
0.4734944798
 40
0.6460271932
 40
0.8246546311
 40
1.0
 40
1.0
 40
1.0
 40
1.0
 10
14.4754726821
 20
9.3127574135
 30
0.0
 10
14.4754994503
 20
9.3127064657
 30
0.0
 10
14.4755466137
 20
9.3125739299
 30
0.0
 10
14.4756053339
 20
9.3123331812
 30
0.0
 10
14.4756622424
 20
9.3120126003
 30
0.0
 10
14.4757425035
 20
9.3114209614
 30
0.0
 10
14.4758286017
 20
9.3104650337
 30
0.0
 10
14.4759122499
 20
9.3090525876
 30
0.0
 10
14.4759789861
 20
9.3072876953
 30
0.0
 10
14.4760284515
 20
9.3051808632
 30
0.0
 10
14.4760587016
 20
9.3027532329
 30
0.0
 10
14.4760683461
 20
9.3000299842
 30
0.0
 10
14.4760561837
 20
9.2970447887
 30
0.0
 10
14.4760114791
 20
9.2926751645
 30
0.0
 10
14.4759069916
 20
9.2869300435
 30
0.0
 10
14.4757183499
 20
9.2799273887
 30
0.0
 10
14.4755570934
 20
9.2752205136
 30
0.0
 10
14.4754689023
 20
9.27288922
 30
0.0
  0
LINE
  5
493
100
AcDbEntity
  8
0
100
AcDbLine
 62
9
  6
CONTINUOUS
 10
14.4754726866
 20
9.3127574155
 11
14.4488884324
 21
9.3190889827
  0
SPLINE
  5
494
100
AcDbEntity
  8
0
100
AcDbSpline
 62
9
  6
CONTINUOUS
 70
0
 71
3
 72
15
 73
11
 74
0
 42
0.0000001
 43
0.0000001
 44
0.0000000001
 40
0.0
 40
0.0
 40
0.0
 40
0.0
 40
0.2301293927
 40
0.3503992365
 40
0.474079673
 40
0.601263971
 40
0.7321214355
 40
0.7990267984
 40
0.8663421802
 40
1.0
 40
1.0
 40
1.0
 40
1.0
 10
14.5617405543
 20
9.341284136
 30
0.0
 10
14.5555101538
 20
9.3379978225
 30
0.0
 10
14.5459377336
 20
9.3331523205
 30
0.0
 10
14.5327685964
 20
9.3270536212
 30
0.0
 10
14.5223014176
 20
9.3226324221
 30
0.0
 10
14.5113443554
 20
9.3185589758
 30
0.0
 10
14.5017841234
 20
9.3157684001
 30
0.0
 10
14.4938474981
 20
9.3140602432
 30
0.0
 10
14.4857428941
 20
9.3128099131
 30
0.0
 10
14.4795570699
 20
9.3125238304
 30
0.0
 10
14.4754726408
 20
9.3127574813
 30
0.0
  0
SPLINE
  5
495
100
AcDbEntity
  8
0
100
AcDbSpline
 62
9
  6
CONTINUOUS
 70
0
 71
3
 72
19
 73
15
 74
0
 42
0.0000001
 43
0.0000001
 44
0.0000000001
 40
0.0
 40
0.0
 40
0.0
 40
0.0
 40
0.0398813614
 40
0.0814393842
 40
0.1255243447
 40
0.172800909
 40
0.2237477668
 40
0.2786335003
 40
0.337561804
 40
0.4004331882
 40
0.5368029581
 40
0.68494473
 40
0.8410439003
 40
1.0
 40
1.0
 40
1.0
 40
1.0
 10
15.4150999067
 20
9.3479971004
 30
0.0
 10
15.4157696396
 20
9.3480521692
 30
0.0
 10
15.4171524085
 20
9.3480215109
 30
0.0
 10
15.4192296036
 20
9.3475675688
 30
0.0
 10
15.4213116301
 20
9.3467146727
 30
0.0
 10
15.4233704592
 20
9.3454694902
 30
0.0
 10
15.4253873541
 20
9.3438506451
 30
0.0
 10
15.427346669
 20
9.341876718
 30
0.0
 10
15.4292299557
 20
9.3395655749
 30
0.0
 10
15.4316837278
 20
9.3359684561
 30
0.0
 10
15.4344179146
 20
9.3307699835
 30
0.0
 10
15.4370494523
 20
9.323811522
 30
0.0
 10
15.439012526
 20
9.3162438143
 30
0.0
 10
15.4398299978
 20
9.3109881005
 30
0.0
 10
15.4401080627
 20
9.3083241949
 30
0.0
  0
SPLINE
  5
496
100
AcDbEntity
  8
0
100
AcDbSpline
 62
9
  6
CONTINUOUS
 70
0
 71
3
 72
15
 73
11
 74
0
 42
0.0000001
 43
0.0000001
 44
0.0000000001
 40
0.0
 40
0.0
 40
0.0
 40
0.0
 40
0.1308430901
 40
0.2608883857
 40
0.3892007248
 40
0.51532345
 40
0.6391678622
 40
0.7610055088
 40
0.8811735996
 40
1.0
 40
1.0
 40
1.0
 40
1.0
 10
15.383925781
 20
9.3083243778
 30
0.0
 10
15.3838933635
 20
9.3107246154
 30
0.0
 10
15.3842193454
 20
9.3155250686
 30
0.0
 10
15.3858752021
 20
9.322503784
 30
0.0
 10
15.3886548012
 20
9.3290244969
 30
0.0
 10
15.3924463602
 20
9.3348792655
 30
0.0
 10
15.3971432494
 20
9.3398788796
 30
0.0
 10
15.4026075827
 20
9.3438475262
 30
0.0
 10
15.4086463869
 20
9.3466554794
 30
0.0
 10
15.412940424
 20
9.347698733
 30
0.0
 10
15.4150999067
 20
9.3479971004
 30
0.0
  0
SPLINE
  5
497
100
AcDbEntity
  8
0
100
AcDbSpline
 62
9
  6
CONTINUOUS
 70
0
 71
3
 72
15
 73
11
 74
0
 42
0.0000001
 43
0.0000001
 44
0.0000000001
 40
0.0
 40
0.0
 40
0.0
 40
0.0
 40
0.1186119257
 40
0.2388096092
 40
0.3608493472
 40
0.4849813152
 40
0.611333628
 40
0.7396968679
 40
0.8695815154
 40
1.0
 40
1.0
 40
1.0
 40
1.0
 10
15.4157381295
 20
8.9780991219
 30
0.0
 10
15.4135672886
 20
8.978392159
 30
0.0
 10
15.4092449988
 20
8.9794279057
 30
0.0
 10
15.4031541468
 20
8.9822278235
 30
0.0
 10
15.3976211115
 20
8.9861929429
 30
0.0
 10
15.392842068
 20
8.991194682
 30
0.0
 10
15.3889575125
 20
8.9970556571
 30
0.0
 10
15.3860792633
 20
9.0035868098
 30
0.0
 10
15.3843211069
 20
9.0105789783
 30
0.0
 10
15.3839262094
 20
9.0153954367
 30
0.0
 10
15.383925787
 20
9.0178040105
 30
0.0
  0
SPLINE
  5
498
100
AcDbEntity
  8
0
100
AcDbSpline
 62
9
  6
CONTINUOUS
 70
0
 71
3
 72
18
 73
14
 74
0
 42
0.0000001
 43
0.0000001
 44
0.0000000001
 40
0.0
 40
0.0
 40
0.0
 40
0.0
 40
0.0399445233
 40
0.0818253498
 40
0.1739638827
 40
0.225432697
 40
0.280762319
 40
0.3400172231
 40
0.4030777089
 40
0.539406446
 40
0.6869881584
 40
0.842146875
 40
1.0
 40
1.0
 40
1.0
 40
1.0
 10
15.4157381336
 20
8.9780990159
 30
0.0
 10
15.4164024613
 20
8.9780869965
 30
0.0
 10
15.4177688694
 20
8.9782012402
 30
0.0
 10
15.4205722591
 20
8.9789691753
 30
0.0
 10
15.4232927901
 20
8.9805340842
 30
0.0
 10
15.4258173199
 20
8.9826771527
 30
0.0
 10
15.4277251469
 20
8.9846823462
 30
0.0
 10
15.4295551152
 20
8.9870068991
 30
0.0
 10
15.4319344735
 20
8.990596107
 30
0.0
 10
15.4345835605
 20
8.9957447357
 30
0.0
 10
15.4371346413
 20
9.0026034159
 30
0.0
 10
15.4390393152
 20
9.010037383
 30
0.0
 10
15.4398357366
 20
9.015192564
 30
0.0
 10
15.440108242
 20
9.0178041107
 30
0.0
  0
SPLINE
  5
499
100
AcDbEntity
  8
0
100
AcDbSpline
 62
9
  6
CONTINUOUS
 70
0
 71
3
 72
20
 73
16
 74
0
 42
0.0000001
 43
0.0000001
 44
0.0000000001
 40
0.0
 40
0.0
 40
0.0
 40
0.0
 40
0.1552166333
 40
0.3075040066
 40
0.453697959
 40
0.5235862506
 40
0.5908545115
 40
0.6551615626
 40
0.7162178469
 40
0.7737460505
 40
0.8274699573
 40
0.8771337734
 40
0.9225539227
 40
0.963564113
 40
1.0
 40
1.0
 40
1.0
 40
1.0
 10
14.8906178562
 20
8.9461390069
 30
0.0
 10
14.909311041
 20
8.9442588596
 30
0.0
 10
14.9463731366
 20
8.9408059333
 30
0.0
 10
15.0011512937
 20
8.9368475515
 30
0.0
 10
15.04570495
 20
8.9349048512
 30
0.0
 10
15.0799979321
 20
8.9342907717
 30
0.0
 10
15.1043848624
 20
8.9343127609
 30
0.0
 10
15.1276972318
 20
8.9348276273
 30
0.0
 10
15.1498148275
 20
8.9358049485
 30
0.0
 10
15.1706255738
 20
8.9372129723
 30
0.0
 10
15.1900212825
 20
8.9390198325
 30
0.0
 10
15.2079036576
 20
8.941196211
 30
0.0
 10
15.2241909188
 20
8.9436811741
 30
0.0
 10
15.2388124544
 20
8.9464131327
 30
0.0
 10
15.2479585565
 20
8.9484829126
 30
0.0
 10
15.2522353009
 20
8.9495597039
 30
0.0
  0
SPLINE
  5
49A
100
AcDbEntity
  8
0
100
AcDbSpline
 62
9
  6
CONTINUOUS
 70
0
 71
3
 72
18
 73
14
 74
0
 42
0.0000001
 43
0.0000001
 44
0.0000000001
 40
0.0
 40
0.0
 40
0.0
 40
0.0
 40
0.040854367
 40
0.0828199036
 40
0.1269070297
 40
0.1738744365
 40
0.2780944044
 40
0.3360162228
 40
0.3977946913
 40
0.5322901257
 40
0.6797468016
 40
0.8371436167
 40
1.0
 40
1.0
 40
1.0
 40
1.0
 10
15.8266921932
 20
8.9781941659
 30
0.0
 10
15.8273059352
 20
8.9782808779
 30
0.0
 10
15.828536242
 20
8.9785765422
 30
0.0
 10
15.8303021217
 20
8.9793682725
 30
0.0
 10
15.8319824503
 20
8.9805025613
 30
0.0
 10
15.8341644572
 20
8.9825201768
 30
0.0
 10
15.8360290972
 20
8.9851300119
 30
0.0
 10
15.8375819446
 20
8.9881536128
 30
0.0
 10
15.8390393612
 20
8.9917296312
 30
0.0
 10
15.8404272965
 20
8.9967757625
 30
0.0
 10
15.8413922911
 20
9.0033850164
 30
0.0
 10
15.8416654489
 20
9.0104874636
 30
0.0
 10
15.8413851105
 20
9.0153467952
 30
0.0
 10
15.8411263296
 20
9.0178040426
 30
0.0
  0
SPLINE
  5
49B
100
AcDbEntity
  8
0
100
AcDbSpline
 62
9
  6
CONTINUOUS
 70
0
 71
3
 72
18
 73
14
 74
0
 42
0.0000001
 43
0.0000001
 44
0.0000000001
 40
0.0
 40
0.0
 40
0.0
 40
0.0
 40
0.0387695865
 40
0.0822175326
 40
0.1305044411
 40
0.1833024795
 40
0.2400529038
 40
0.3001777319
 40
0.4284030598
 40
0.5645375208
 40
0.7061759343
 40
0.8517158158
 40
1.0
 40
1.0
 40
1.0
 40
1.0
 10
14.937391312
 20
9.0196828185
 30
0.0
 10
14.9364406803
 20
9.0197021058
 30
0.0
 10
14.9344175781
 20
9.019479539
 30
0.0
 10
14.9313417189
 20
9.0185572393
 30
0.0
 10
14.9280987713
 20
9.0171078775
 30
0.0
 10
14.9247242597
 20
9.0152034337
 30
0.0
 10
14.9212476678
 20
9.0129120992
 30
0.0
 10
14.916408252
 20
9.0093430764
 30
0.0
 10
14.9102990427
 20
9.0042331979
 30
0.0
 10
14.9029886351
 20
8.9974697567
 30
0.0
 10
14.8956081994
 20
8.9901662961
 30
0.0
 10
14.8881893754
 20
8.9824832196
 30
0.0
 10
14.8832623199
 20
8.9772244917
 30
0.0
 10
14.8807878066
 20
8.9745594889
 30
0.0
  0
LINE
  5
49C
100
AcDbEntity
  8
0
100
AcDbLine
 62
9
  6
CONTINUOUS
 10
14.8919157412
 20
8.9603443149
 11
14.8578744022
 21
8.9495607394
  0
SPLINE
  5
49D
100
AcDbEntity
  8
0
100
AcDbSpline
 62
9
  6
CONTINUOUS
 70
0
 71
3
 72
9
 73
5
 74
0
 42
0.0000001
 43
0.0000001
 44
0.0000000001
 40
0.0
 40
0.0
 40
0.0
 40
0.0
 40
0.4831442128
 40
1.0
 40
1.0
 40
1.0
 40
1.0
 10
14.8919157565
 20
8.9603445108
 30
0.0
 10
14.8899901976
 20
8.9625238566
 30
0.0
 10
14.8861429747
 20
8.9671575852
 30
0.0
 10
14.8825528071
 20
8.9719937245
 30
0.0
 10
14.8807774509
 20
8.974548492
 30
0.0
  0
SPLINE
  5
49E
100
AcDbEntity
  8
0
100
AcDbSpline
 62
9
  6
CONTINUOUS
 70
0
 71
3
 72
18
 73
14
 74
0
 42
0.0000001
 43
0.0000001
 44
0.0000000001
 40
0.0
 40
0.0
 40
0.0
 40
0.0
 40
0.0409642942
 40
0.0830258325
 40
0.1738163263
 40
0.2241200216
 40
0.2781430196
 40
0.3360592763
 40
0.3978438007
 40
0.5323487638
 40
0.6797922902
 40
0.8371584771
 40
1.0
 40
1.0
 40
1.0
 40
1.0
 10
15.8266961918
 20
9.3479328103
 30
0.0
 10
15.8273115052
 20
9.3478457375
 30
0.0
 10
15.8285447974
 20
9.3475494286
 30
0.0
 10
15.8309634478
 20
9.3464676418
 30
0.0
 10
15.8331523854
 20
9.3446717238
 30
0.0
 10
15.835038856
 20
9.3423871508
 30
0.0
 10
15.8363805134
 20
9.3403167264
 30
0.0
 10
15.8375849731
 20
9.3379685788
 30
0.0
 10
15.839041725
 20
9.3343934739
 30
0.0
 10
15.8404306238
 20
9.3293476535
 30
0.0
 10
15.8413948114
 20
9.3227394956
 30
0.0
 10
15.8416637607
 20
9.3156383711
 30
0.0
 10
15.8413829309
 20
9.3107804968
 30
0.0
 10
15.8411263993
 20
9.3083234852
 30
0.0
  0
SPLINE
  5
49F
100
AcDbEntity
  8
0
100
AcDbSpline
 62
9
  6
CONTINUOUS
 70
0
 71
3
 72
16
 73
12
 74
0
 42
0.0000001
 43
0.0000001
 44
0.0000000001
 40
0.0
 40
0.0
 40
0.0
 40
0.0
 40
0.2870970584
 40
0.4258610005
 40
0.5598569326
 40
0.6875410734
 40
0.8058894358
 40
0.8605193543
 40
0.9114202226
 40
0.9580581724
 40
1.0
 40
1.0
 40
1.0
 40
1.0
 10
14.8919165844
 20
8.9603439268
 30
0.0
 10
14.8992705166
 20
8.9626613975
 30
0.0
 10
14.9101823928
 20
8.9660887713
 30
0.0
 10
14.9245857791
 20
8.9704047759
 30
0.0
 10
14.9349286707
 20
8.9733535507
 30
0.0
 10
14.944794836
 20
8.9759690033
 30
0.0
 10
14.952668268
 20
8.9777756249
 30
0.0
 10
14.9585828155
 20
8.9788629227
 30
0.0
 10
14.9626294086
 20
8.9794449093
 30
0.0
 10
14.9663620464
 20
8.9797824303
 30
0.0
 10
14.968744405
 20
8.979824556
 30
0.0
 10
14.9698700526
 20
8.9797830042
 30
0.0
  0
SPLINE
  5
4A0
100
AcDbEntity
  8
0
100
AcDbSpline
 62
9
  6
CONTINUOUS
 70
0
 71
3
 72
9
 73
5
 74
0
 42
0.0000001
 43
0.0000001
 44
0.0000000001
 40
0.0
 40
0.0
 40
0.0
 40
0.0
 40
0.5100604666
 40
1.0
 40
1.0
 40
1.0
 40
1.0
 10
14.9698697304
 20
8.9797830604
 30
0.0
 10
14.9879139309
 20
8.9785220298
 30
0.0
 10
15.0233146204
 20
8.976376761
 30
0.0
 10
15.0587587406
 20
8.9750793613
 30
0.0
 10
15.0761293329
 20
8.9747032085
 30
0.0
  0
LINE
  5
4A1
100
AcDbEntity
  8
0
100
AcDbLine
 62
9
  6
CONTINUOUS
 10
14.8921659782
 20
9.3309316985
 11
14.8578747987
 21
9.3412831223
  0
LINE
  5
4A2
100
AcDbEntity
  8
0
100
AcDbLine
 62
9
  6
CONTINUOUS
 10
14.4501748605
 20
8.9743159926
 11
14.4767263605
 21
8.9797828345
  0
LINE
  5
4A3
100
AcDbEntity
  8
0
100
AcDbLine
 62
9
  6
CONTINUOUS
 10
14.9737080556
 20
8.979742912
 11
15.07640234
 21
8.979100021
  0
LINE
  5
4A4
100
AcDbEntity
  8
0
100
AcDbLine
 62
9
  6
CONTINUOUS
 10
15.07640234
 20
8.979100021
 11
15.0791035215
 21
8.9790830601
  0
SPLINE
  5
4A5
100
AcDbEntity
  8
0
100
AcDbSpline
 62
9
  6
CONTINUOUS
 70
0
 71
3
 72
14
 73
10
 74
0
 42
0.0000001
 43
0.0000001
 44
0.0000000001
 40
0.0
 40
0.0
 40
0.0
 40
0.0
 40
0.1115925592
 40
0.2301506754
 40
0.3552213911
 40
0.4849605017
 40
0.6172541602
 40
0.7493259047
 40
1.0
 40
1.0
 40
1.0
 40
1.0
 10
14.9737075322
 20
8.9797429151
 30
0.0
 10
14.9715868307
 20
8.9799101729
 30
0.0
 10
14.9672371666
 20
8.9806901635
 30
0.0
 10
14.9608890001
 20
8.9831729808
 30
0.0
 10
14.9548917557
 20
8.9870953166
 30
0.0
 10
14.9495740247
 20
8.9922801398
 30
0.0
 10
14.9453214886
 20
8.9985327302
 30
0.0
 10
14.9413137086
 20
9.0075371232
 30
0.0
 10
14.940134943
 20
9.0149162272
 30
0.0
 10
14.9401462722
 20
9.0196948096
 30
0.0
  0
SPLINE
  5
4A6
100
AcDbEntity
  8
0
100
AcDbSpline
 62
9
  6
CONTINUOUS
 70
0
 71
3
 72
14
 73
10
 74
0
 42
0.0000001
 43
0.0000001
 44
0.0000000001
 40
0.0
 40
0.0
 40
0.0
 40
0.0
 40
0.2512384693
 40
0.383205316
 40
0.5152279516
 40
0.644659321
 40
0.7695289764
 40
0.8881115092
 40
1.0
 40
1.0
 40
1.0
 40
1.0
 10
14.9401470023
 20
9.2730526157
 30
0.0
 10
14.9400706917
 20
9.2778104696
 30
0.0
 10
14.9411392369
 20
9.285167926
 30
0.0
 10
14.9450143809
 20
9.29416603
 30
0.0
 10
14.9491688985
 20
9.3004112821
 30
0.0
 10
14.9544016855
 20
9.3055946628
 30
0.0
 10
14.9603313641
 20
9.3095206287
 30
0.0
 10
14.966632029
 20
9.3120121828
 30
0.0
 10
14.9709576133
 20
9.3128002825
 30
0.0
 10
14.9730697355
 20
9.3129729971
 30
0.0
  0
SPLINE
  5
4A7
100
AcDbEntity
  8
0
100
AcDbSpline
 62
9
  6
CONTINUOUS
 70
0
 71
3
 72
15
 73
11
 74
0
 42
0.0000001
 43
0.0000001
 44
0.0000000001
 40
0.0
 40
0.0
 40
0.0
 40
0.0
 40
0.124449989
 40
0.2542156549
 40
0.3868371223
 40
0.5190337709
 40
0.6480804326
 40
0.7720746787
 40
0.8894453779
 40
1.0
 40
1.0
 40
1.0
 40
1.0
 10
14.9382479874
 20
9.2728891275
 30
0.0
 10
14.9382069087
 20
9.275224693
 30
0.0
 10
14.9384989284
 20
9.2800095872
 30
0.0
 10
14.9400913107
 20
9.2871283805
 30
0.0
 10
14.9429734986
 20
9.293993504
 30
0.0
 10
14.9470284763
 20
9.3002298051
 30
0.0
 10
14.9521449514
 20
9.3054082705
 30
0.0
 10
14.957947913
 20
9.3093267724
 30
0.0
 10
14.9641189636
 20
9.3118091238
 30
0.0
 10
14.9683583495
 20
9.3125892175
 30
0.0
 10
14.9704266292
 20
9.3127574523
 30
0.0
  0
SPLINE
  5
4A8
100
AcDbEntity
  8
0
100
AcDbSpline
 62
9
  6
CONTINUOUS
 70
0
 71
3
 72
9
 73
5
 74
0
 42
0.0000001
 43
0.0000001
 44
0.0000000001
 40
0.0
 40
0.0
 40
0.0
 40
0.0
 40
0.5010346481
 40
1.0
 40
1.0
 40
1.0
 40
1.0
 10
15.4151019645
 20
9.3479973956
 30
0.0
 10
15.3412430392
 20
9.3425997566
 30
0.0
 10
15.1938764332
 20
9.331191138
 30
0.0
 10
15.046576604
 20
9.318969822
 30
0.0
 10
14.9730707717
 20
9.3129730816
 30
0.0
  0
SPLINE
  5
4A9
100
AcDbEntity
  8
0
100
AcDbSpline
 62
9
  6
CONTINUOUS
 70
0
 71
3
 72
15
 73
11
 74
0
 42
0.0000001
 43
0.0000001
 44
0.0000000001
 40
0.0
 40
0.0
 40
0.0
 40
0.0
 40
0.1096857441
 40
0.2265484401
 40
0.3504349254
 40
0.4797064557
 40
0.6123270833
 40
0.7453947248
 40
0.8754710621
 40
1.0
 40
1.0
 40
1.0
 40
1.0
 10
14.9698696313
 20
8.979782797
 30
0.0
 10
14.9678137812
 20
8.9799481873
 30
0.0
 10
14.9635921738
 20
8.9807257655
 30
0.0
 10
14.9574379947
 20
8.9832062102
 30
0.0
 10
14.9516300348
 20
8.9871251397
 30
0.0
 10
14.9464848196
 20
8.9923060258
 30
0.0
 10
14.9423769294
 20
8.9985466405
 30
0.0
 10
14.9394218629
 20
9.0054181358
 30
0.0
 10
14.9377415872
 20
9.0125453202
 30
0.0
 10
14.9373834914
 20
9.0173412331
 30
0.0
 10
14.9373913454
 20
9.0196828181
 30
0.0
  0
LINE
  5
4AA
100
AcDbEntity
  8
0
100
AcDbLine
 62
9
  6
CONTINUOUS
 10
14.8578755487
 20
9.3412841765
 11
14.8811436112
 21
9.316531347
  0
LINE
  5
4AB
100
AcDbEntity
  8
0
100
AcDbLine
 62
9
  6
CONTINUOUS
 10
14.9382479678
 20
9.272889222
 11
14.9401461481
 21
9.2731059539
  0
SPLINE
  5
4AC
100
AcDbEntity
  8
0
100
AcDbSpline
 62
9
  6
CONTINUOUS
 70
0
 71
3
 72
31
 73
27
 74
0
 42
0.0000001
 43
0.0000001
 44
0.0000000001
 40
0.0
 40
0.0
 40
0.0
 40
0.0
 40
0.226654653
 40
0.4267123158
 40
0.5163420285
 40
0.5988101897
 40
0.6739443614
 40
0.7415713911
 40
0.8015342461
 40
0.8537425185
 40
0.8981223747
 40
0.9173535328
 40
0.9345998251
 40
0.9498519768
 40
0.9631007037
 40
0.9743367115
 40
0.9835506965
 40
0.9873965205
 40
0.9907333456
 40
0.993560006
 40
0.9958753356
 40
0.9976781674
 40
0.9989673342
 40
0.9994189282
 40
0.9997416679
 40
1.0
 40
1.0
 40
1.0
 40
1.0
 10
14.5617406539
 20
9.3412842693
 30
0.0
 10
14.5563360961
 20
9.342497924
 30
0.0
 10
14.5461730652
 20
9.3448361355
 30
0.0
 10
14.5339047466
 20
9.3477901245
 30
0.0
 10
14.5250776457
 20
9.3499814541
 30
0.0
 10
14.5192197419
 20
9.3514617847
 30
0.0
 10
14.513888324
 20
9.352830596
 30
0.0
 10
14.5090937277
 20
9.3540784689
 30
0.0
 10
14.5048442651
 20
9.3551963616
 30
0.0
 10
14.5011467546
 20
9.3561792214
 30
0.0
 10
14.4984131282
 20
9.3569133204
 30
0.0
 10
14.4965057147
 20
9.3574296043
 30
0.0
 10
14.495285838
 20
9.3577614431
 30
0.0
 10
14.4942074049
 20
9.3580562574
 30
0.0
 10
14.4932709809
 20
9.3583135039
 30
0.0
 10
14.4924771083
 20
9.35853265
 30
0.0
 10
14.4919049737
 20
9.3586913361
 30
0.0
 10
14.4915189042
 20
9.3587988302
 30
0.0
 10
14.4912833829
 20
9.3588645417
 30
0.0
 10
14.4910835669
 20
9.358920485
 30
0.0
 10
14.4909208803
 20
9.3589659665
 30
0.0
 10
14.4907917759
 20
9.3590025907
 30
0.0
 10
14.4907123298
 20
9.3590242624
 30
0.0
 10
14.4906585345
 20
9.3590403902
 30
0.0
 10
14.4906434811
 20
9.3590429841
 30
0.0
 10
14.4906119606
 20
9.3590551015
 30
0.0
 10
14.4906172067
 20
9.3590515891
 30
0.0
  0
SPLINE
  5
4AD
100
AcDbEntity
  8
0
100
AcDbSpline
 62
9
  6
CONTINUOUS
 70
0
 71
3
 72
19
 73
15
 74
0
 42
0.0000001
 43
0.0000001
 44
0.0000000001
 40
0.0
 40
0.0
 40
0.0
 40
0.0
 40
0.0379083681
 40
0.0802888901
 40
0.1275762538
 40
0.1795794162
 40
0.2357809634
 40
0.2955993168
 40
0.3584471576
 40
0.4238436103
 40
0.560599928
 40
0.7032872023
 40
0.8501712368
 40
1.0
 40
1.0
 40
1.0
 40
1.0
 10
14.9382479628
 20
9.2728891255
 30
0.0
 10
14.9373281494
 20
9.2727842558
 30
0.0
 10
14.9353458945
 20
9.2728378623
 30
0.0
 10
14.9322998523
 20
9.2735526542
 30
0.0
 10
14.9290719392
 20
9.2748224544
 30
0.0
 10
14.9256973784
 20
9.2765739697
 30
0.0
 10
14.922206877
 20
9.278736847
 30
0.0
 10
14.9186304406
 20
9.2812479603
 30
0.0
 10
14.9149897398
 20
9.2840495747
 30
0.0
 10
14.9100001365
 20
9.2881725513
 30
0.0
 10
14.9037317997
 20
9.2938012944
 30
0.0
 10
14.8962331691
 20
9.3010257846
 30
0.0
 10
14.8886828607
 20
9.3086518104
 30
0.0
 10
14.8836642957
 20
9.3138789228
 30
0.0
 10
14.8811421373
 20
9.3165297928
 30
0.0
  0
SPLINE
  5
4AE
100
AcDbEntity
  8
0
100
AcDbSpline
 62
9
  6
CONTINUOUS
 70
0
 71
3
 72
9
 73
5
 74
0
 42
0.0000001
 43
0.0000001
 44
0.0000000001
 40
0.0
 40
0.0
 40
0.0
 40
0.0
 40
0.5169726382
 40
1.0
 40
1.0
 40
1.0
 40
1.0
 10
14.8811339695
 20
9.31653825
 30
0.0
 10
14.8828856916
 20
9.3191277528
 30
0.0
 10
14.8864353944
 20
9.3240288006
 30
0.0
 10
14.8902521014
 20
9.3287243549
 30
0.0
 10
14.8921651699
 20
9.3309317976
 30
0.0
  0
SPLINE
  5
4AF
100
AcDbEntity
  8
0
100
AcDbSpline
 62
9
  6
CONTINUOUS
 70
0
 71
3
 72
20
 73
16
 74
0
 42
0.0000001
 43
0.0000001
 44
0.0000000001
 40
0.0
 40
0.0
 40
0.0
 40
0.0
 40
0.0366931741
 40
0.0778631402
 40
0.1233688796
 40
0.173064141
 40
0.2267825877
 40
0.2842803411
 40
0.3452904618
 40
0.4095438228
 40
0.4767576047
 40
0.5465930725
 40
0.6926848129
 40
0.8448736749
 40
1.0
 40
1.0
 40
1.0
 40
1.0
 10
15.252235339
 20
9.3412841126
 30
0.0
 10
15.2479737668
 20
9.342558454
 30
0.0
 10
15.238851105
 20
9.344999252
 30
0.0
 10
15.2242392408
 20
9.3482034399
 30
0.0
 10
15.2079598554
 20
9.3511007369
 30
0.0
 10
15.1900815373
 20
9.3536265625
 30
0.0
 10
15.1706846271
 20
9.3557170022
 30
0.0
 10
15.1498675182
 20
9.3573414071
 30
0.0
 10
15.1277388387
 20
9.3584661761
 30
0.0
 10
15.1044114113
 20
9.3590577912
 30
0.0
 10
15.080006864
 20
9.3590842068
 30
0.0
 10
15.0456890186
 20
9.3583794181
 30
0.0
 10
15.001110113
 20
9.3561424502
 30
0.0
 10
14.9463307625
 20
9.3515662361
 30
0.0
 10
14.9092925113
 20
9.3475369428
 30
0.0
 10
14.8906180411
 20
9.345327215
 30
0.0
  0
SPLINE
  5
4B0
100
AcDbEntity
  8
0
100
AcDbSpline
 62
9
  6
CONTINUOUS
 70
0
 71
3
 72
16
 73
12
 74
0
 42
0.0000001
 43
0.0000001
 44
0.0000000001
 40
0.0
 40
0.0
 40
0.0
 40
0.0
 40
0.0409356134
 40
0.0867000897
 40
0.1369004416
 40
0.1910229253
 40
0.308928275
 40
0.4367656409
 40
0.5712904798
 40
0.7108489563
 40
1.0
 40
1.0
 40
1.0
 40
1.0
 10
14.9704269788
 20
9.3127572728
 30
0.0
 10
14.9693306768
 20
9.3126680301
 30
0.0
 10
14.9669969587
 20
9.3126209528
 30
0.0
 10
14.963322887
 20
9.3128420647
 30
0.0
 10
14.9593163652
 20
9.3133171078
 30
0.0
 10
14.9534208701
 20
9.3142726568
 30
0.0
 10
14.9455342836
 20
9.3159411477
 30
0.0
 10
14.9356195733
 20
9.3184138945
 30
0.0
 10
14.9251937203
 20
9.3212320667
 30
0.0
 10
14.9106403609
 20
9.3253848372
 30
0.0
 10
14.8996066469
 20
9.3286952297
 30
0.0
 10
14.8921663284
 20
9.3309324915
 30
0.0
  0
SPLINE
  5
4B1
100
AcDbEntity
  8
0
100
AcDbSpline
 62
9
  6
CONTINUOUS
 70
0
 71
3
 72
9
 73
5
 74
0
 42
0.0000001
 43
0.0000001
 44
0.0000000001
 40
0.0
 40
0.0
 40
0.0
 40
0.0
 40
0.4919681019
 40
1.0
 40
1.0
 40
1.0
 40
1.0
 10
15.2456649059
 20
8.9705054574
 30
0.0
 10
15.2464853159
 20
8.9669979484
 30
0.0
 10
15.2484328695
 20
8.9599318189
 30
0.0
 10
15.2508773404
 20
8.9530230329
 30
0.0
 10
15.2522359406
 20
8.9495602163
 30
0.0
  0
SPLINE
  5
4B2
100
AcDbEntity
  8
0
100
AcDbSpline
 62
9
  6
CONTINUOUS
 70
0
 71
3
 72
12
 73
8
 74
0
 42
0.0000001
 43
0.0000001
 44
0.0000000001
 40
0.0
 40
0.0
 40
0.0
 40
0.0
 40
0.1019068571
 40
0.2125832202
 40
0.4553133583
 40
0.7195487183
 40
1.0
 40
1.0
 40
1.0
 40
1.0
 10
15.2276192545
 20
8.9709586814
 30
0.0
 10
15.2283532618
 20
8.9701265148
 30
0.0
 10
15.2299333342
 20
8.9684335741
 30
0.0
 10
15.2334543295
 20
8.9649422084
 30
0.0
 10
15.2384544033
 20
8.9604390956
 30
0.0
 10
15.2450682161
 20
8.9549802706
 30
0.0
 10
15.2497799997
 20
8.9513757688
 30
0.0
 10
15.2522352328
 20
8.949559982
 30
0.0
  0
SPLINE
  5
4B3
100
AcDbEntity
  8
0
100
AcDbSpline
 62
9
  6
CONTINUOUS
 70
0
 71
3
 72
31
 73
27
 74
0
 42
0.0000001
 43
0.0000001
 44
0.0000000001
 40
0.0
 40
0.0
 40
0.0
 40
0.0
 40
0.0002575279
 40
0.0005792769
 40
0.0010294997
 40
0.0023148185
 40
0.0041123881
 40
0.0064211126
 40
0.0092398969
 40
0.0125676464
 40
0.0164032673
 40
0.0255937499
 40
0.0368026058
 40
0.0500211055
 40
0.0652405294
 40
0.0824521682
 40
0.1016473223
 40
0.1459534211
 40
0.1980894434
 40
0.2579861666
 40
0.3255581764
 40
0.4006549569
 40
0.4831102715
 40
0.5727586227
 40
0.7729758877
 40
1.0
 40
1.0
 40
1.0
 40
1.0
 10
14.4906172064
 20
8.9343184546
 30
0.0
 10
14.4906118741
 20
8.9343152046
 30
0.0
 10
14.4906434819
 20
8.9343260698
 30
0.0
 10
14.490658424
 20
8.9343281805
 30
0.0
 10
14.4907121548
 20
8.9343423351
 30
0.0
 10
14.4907914074
 20
8.9343611687
 30
0.0
 10
14.4909202732
 20
8.9343931293
 30
0.0
 10
14.4910826392
 20
8.934432756
 30
0.0
 10
14.4912820809
 20
8.9344815033
 30
0.0
 10
14.4915171684
 20
8.9345387386
 30
0.0
 10
14.4919025609
 20
8.9346323457
 30
0.0
 10
14.4924737339
 20
8.9347704643
 30
0.0
 10
14.4932663251
 20
8.9349610867
 30
0.0
 10
14.494201325
 20
8.9351847122
 30
0.0
 10
14.49527822
 20
8.9354408353
 30
0.0
 10
14.4964964731
 20
8.9357289407
 30
0.0
 10
14.498401677
 20
8.9361769276
 30
0.0
 10
14.50113255
 20
8.9368132602
 30
0.0
 10
14.5048268345
 20
8.9376640291
 30
0.0
 10
14.5090734243
 20
8.9386303451
 30
0.0
 10
14.5138657797
 20
8.9397074708
 30
0.0
 10
14.5191958193
 20
8.9408866923
 30
0.0
 10
14.5250534858
 20
8.9421590035
 30
0.0
 10
14.5338840906
 20
8.9440377034
 30
0.0
 10
14.5461620546
 20
8.9465581144
 30
0.0
 10
14.5563315289
 20
8.9485368178
 30
0.0
 10
14.5617406796
 20
8.9495595479
 30
0.0
  0
SPLINE
  5
4B4
100
AcDbEntity
  8
0
100
AcDbSpline
 62
9
  6
CONTINUOUS
 70
0
 71
3
 72
20
 73
16
 74
0
 42
0.0000001
 43
0.0000001
 44
0.0000000001
 40
0.0
 40
0.0
 40
0.0
 40
0.0
 40
0.0053122221
 40
0.0122231024
 40
0.0314987775
 40
0.0587331508
 40
0.0944866918
 40
0.1390696013
 40
0.1921084282
 40
0.2530463669
 40
0.3213162537
 40
0.4765502258
 40
0.6481592759
 40
0.8257311056
 40
1.0
 40
1.0
 40
1.0
 40
1.0
 10
14.4695214145
 20
9.3129729954
 30
0.0
 10
14.4695737756
 20
9.3129249319
 30
0.0
 10
14.4696757365
 20
9.3127946981
 30
0.0
 10
14.4698750061
 20
9.3124224547
 30
0.0
 10
14.4701019206
 20
9.3117405897
 30
0.0
 10
14.4703472459
 20
9.3106676276
 30
0.0
 10
14.4705785285
 20
9.3092460057
 30
0.0
 10
14.470791056
 20
9.3074740013
 30
0.0
 10
14.4709821751
 20
9.3053608696
 30
0.0
 10
14.4711477852
 20
9.3029279498
 30
0.0
 10
14.4713368604
 20
9.2991267211
 30
0.0
 10
14.4714748769
 20
9.2938413673
 30
0.0
 10
14.4715123245
 20
9.2870922029
 30
0.0
 10
14.4714247115
 20
9.2800888197
 30
0.0
 10
14.4712955066
 20
9.2753828839
 30
0.0
 10
14.471214468
 20
9.2730526262
 30
0.0
  0
SPLINE
  5
4B5
100
AcDbEntity
  8
0
100
AcDbSpline
 62
9
  6
CONTINUOUS
 70
0
 71
3
 72
19
 73
15
 74
0
 42
0.0000001
 43
0.0000001
 44
0.0000000001
 40
0.0
 40
0.0
 40
0.0
 40
0.0
 40
0.0075011163
 40
0.0168162715
 40
0.0410274649
 40
0.0727216368
 40
0.111788103
 40
0.15796487
 40
0.2109272482
 40
0.335618823
 40
0.4817690996
 40
0.6447669097
 40
0.8195814015
 40
1.0
 40
1.0
 40
1.0
 40
1.0
 10
13.4322579404
 20
9.3479972755
 30
0.0
 10
13.4323113294
 20
9.347913171
 30
0.0
 10
13.4324136446
 20
9.3477137114
 30
0.0
 10
13.4326113621
 20
9.3472055102
 30
0.0
 10
13.4328354716
 20
9.3463666713
 30
0.0
 10
13.4330707092
 20
9.3451271775
 30
0.0
 10
13.4332812305
 20
9.343587919
 30
0.0
 10
13.4334711761
 20
9.3417621796
 30
0.0
 10
13.4337128146
 20
9.3387992482
 30
0.0
 10
13.4339637295
 20
9.3345056525
 30
0.0
 10
13.4341404423
 20
9.3287460033
 30
0.0
 10
13.4341747964
 20
9.3223183681
 30
0.0
 10
13.4341175418
 20
9.3154360838
 30
0.0
 10
13.434013368
 20
9.3107192865
 30
0.0
 10
13.4339390276
 20
9.3083243778
 30
0.0
  0
SPLINE
  5
4B6
100
AcDbEntity
  8
0
100
AcDbSpline
 62
9
  6
CONTINUOUS
 70
0
 71
3
 72
13
 73
9
 74
0
 42
0.0000001
 43
0.0000001
 44
0.0000000001
 40
0.0
 40
0.0
 40
0.0
 40
0.0
 40
0.2502364455
 40
0.500156484
 40
0.6253221904
 40
0.750343275
 40
0.8751911806
 40
1.0
 40
1.0
 40
1.0
 40
1.0
 10
13.4322579821
 20
9.3479972151
 30
0.0
 10
13.4279840653
 20
9.3481714117
 30
0.0
 10
13.4193261271
 20
9.3471442846
 30
0.0
 10
13.4094793966
 20
9.3425103179
 30
0.0
 10
13.4028142068
 20
9.337107604
 30
0.0
 10
13.3985187794
 20
9.3323096034
 30
0.0
 10
13.3950603761
 20
9.3268875637
 30
0.0
 10
13.3933645483
 20
9.3229472718
 30
0.0
 10
13.392683946
 20
9.3209253017
 30
0.0
  0
SPLINE
  5
4B7
100
AcDbEntity
  8
0
100
AcDbSpline
 62
9
  6
CONTINUOUS
 70
0
 71
3
 72
19
 73
15
 74
0
 42
0.0000001
 43
0.0000001
 44
0.0000000001
 40
0.0
 40
0.0
 40
0.0
 40
0.0
 40
0.1802737362
 40
0.3549888589
 40
0.5180112156
 40
0.664180832
 40
0.7888745533
 40
0.8418944512
 40
0.8881591477
 40
0.9272979452
 40
0.9590187115
 40
0.9832140375
 40
0.9925114773
 40
1.0
 40
1.0
 40
1.0
 40
1.0
 10
13.4339389439
 20
9.0178040426
 30
0.0
 10
13.4339367087
 20
9.0154035323
 30
0.0
 10
13.4339053257
 20
9.0106764536
 30
0.0
 10
13.4337411404
 20
9.0037801581
 30
0.0
 10
13.4334572247
 20
8.9973423829
 30
0.0
 10
13.4331195611
 20
8.9915745667
 30
0.0
 10
13.4327646999
 20
8.9872753058
 30
0.0
 10
13.4324134265
 20
8.9843132521
 30
0.0
 10
13.4321488429
 20
8.9824889205
 30
0.0
 10
13.431876409
 20
8.9809527767
 30
0.0
 10
13.4316014251
 20
8.9797171374
 30
0.0
 10
13.4313555881
 20
8.9788821831
 30
0.0
 10
13.4311449453
 20
8.9783782962
 30
0.0
 10
13.431036967
 20
8.9781815438
 30
0.0
 10
13.4309808359
 20
8.9780991259
 30
0.0
  0
SPLINE
  5
4B8
100
AcDbEntity
  8
0
100
AcDbSpline
 62
9
  6
CONTINUOUS
 70
0
 71
3
 72
13
 73
9
 74
0
 42
0.0000001
 43
0.0000001
 44
0.0000000001
 40
0.0
 40
0.0
 40
0.0
 40
0.0
 40
0.2502559693
 40
0.5001806268
 40
0.6253336011
 40
0.7503457408
 40
0.8751939313
 40
1.0
 40
1.0
 40
1.0
 40
1.0
 10
13.4309808359
 20
8.9780991259
 30
0.0
 10
13.4267786063
 20
8.9780611824
 30
0.0
 10
13.4183113118
 20
8.9793149147
 30
0.0
 10
13.4087525977
 20
8.9840885362
 30
0.0
 10
13.4023084246
 20
8.9895191871
 30
0.0
 10
13.3981674368
 20
8.9943001781
 30
0.0
 10
13.3948430854
 20
8.9996712757
 30
0.0
 10
13.3932189754
 20
9.0035589747
 30
0.0
 10
13.3925687518
 20
9.0055513514
 30
0.0
  0
SPLINE
  5
4B9
100
AcDbEntity
  8
0
100
AcDbSpline
 62
9
  6
CONTINUOUS
 70
0
 71
3
 72
20
 73
16
 74
0
 42
0.0000001
 43
0.0000001
 44
0.0000000001
 40
0.0
 40
0.0
 40
0.0
 40
0.0
 40
0.1741046008
 40
0.3516091934
 40
0.5232333573
 40
0.6785291542
 40
0.7468351187
 40
0.8078079954
 40
0.8608780053
 40
0.9054857131
 40
0.9412557477
 40
0.9684992465
 40
0.9877782188
 40
0.9946889582
 40
1.0
 40
1.0
 40
1.0
 40
1.0
 10
14.4712161723
 20
9.0196948221
 30
0.0
 10
14.4712227782
 20
9.017359165
 30
0.0
 10
14.4712015409
 20
9.0126420829
 30
0.0
 10
14.4710649372
 20
9.0056237478
 30
0.0
 10
14.4708109864
 20
8.9988611571
 30
0.0
 10
14.4705030894
 20
8.9935673635
 30
0.0
 10
14.4701915587
 20
8.989762258
 30
0.0
 10
14.4699474418
 20
8.9873280588
 30
0.0
 10
14.4696880233
 20
8.9852153037
 30
0.0
 10
14.4694181155
 20
8.9834453406
 30
0.0
 10
14.4691406826
 20
8.9820274056
 30
0.0
 10
14.4688604033
 20
8.9809596109
 30
0.0
 10
14.4686111653
 20
8.9802833732
 30
0.0
 10
14.468399588
 20
8.9799166582
 30
0.0
 10
14.4682932735
 20
8.9797894029
 30
0.0
 10
14.46823928
 20
8.9797429146
 30
0.0
  0
SPLINE
  5
4BA
100
AcDbEntity
  8
0
100
AcDbSpline
 62
9
  6
CONTINUOUS
 70
0
 71
3
 72
20
 73
16
 74
0
 42
0.0000001
 43
0.0000001
 44
0.0000000001
 40
0.0
 40
0.0
 40
0.0
 40
0.0
 40
0.1754962768
 40
0.3543232776
 40
0.5270730613
 40
0.6831650549
 40
0.7516955455
 40
0.8127556171
 40
0.8657574628
 40
0.9101140715
 40
0.9454044669
 40
0.9718680612
 40
0.9899164723
 40
0.9959220457
 40
1.0
 40
1.0
 40
1.0
 40
1.0
 10
14.4772810045
 20
9.0196827004
 30
0.0
 10
14.4772972891
 20
9.0173475931
 30
0.0
 10
14.477320848
 20
9.0126329915
 30
0.0
 10
14.4773275893
 20
9.0056197048
 30
0.0
 10
14.4773011052
 20
8.9988646598
 30
0.0
 10
14.4772509706
 20
8.99357739
 30
0.0
 10
14.4771905784
 20
8.989776546
 30
0.0
 10
14.477139886
 20
8.9873474813
 30
0.0
 10
14.4770831343
 20
8.9852402908
 30
0.0
 10
14.4770213788
 20
8.9834763452
 30
0.0
 10
14.4769558243
 20
8.9820658211
 30
0.0
 10
14.476886949
 20
8.9810063189
 30
0.0
 10
14.4768255939
 20
8.9803364261
 30
0.0
 10
14.4767702023
 20
8.9799662971
 30
0.0
 10
14.4767424552
 20
8.9798346523
 30
0.0
 10
14.4767263633
 20
8.9797828318
 30
0.0
  0
SPLINE
  5
4BB
100
AcDbEntity
  8
0
100
AcDbSpline
 62
7
  6
CONTINUOUS
 70
0
 71
3
 72
15
 73
11
 74
0
 42
0.0000001
 43
0.0000001
 44
0.0000000001
 40
0.0
 40
0.0
 40
0.0
 40
0.0
 40
0.1175238736
 40
0.2403699545
 40
0.3668816265
 40
0.4954687605
 40
0.6246294128
 40
0.7528456386
 40
0.878517922
 40
1.0
 40
1.0
 40
1.0
 40
1.0
 10
6.0626161801
 20
11.2678243537
 30
0.0
 10
6.1395947888
 20
11.2812625907
 30
0.0
 10
6.297832926
 20
11.3043538544
 30
0.0
 10
6.5408401654
 20
11.326884668
 30
0.0
 10
6.7920688833
 20
11.3367622232
 30
0.0
 10
7.0476806069
 20
11.3325105994
 30
0.0
 10
7.3036950999
 20
11.3126729655
 30
0.0
 10
7.5562450201
 20
11.2787255345
 30
0.0
 10
7.8015616837
 20
11.23213775
 30
0.0
 10
7.9612182756
 20
11.1927878821
 30
0.0
 10
8.0390551579
 20
11.1712018056
 30
0.0
  0
SPLINE
  5
4BC
100
AcDbEntity
  8
0
100
AcDbSpline
 62
9
  6
CONTINUOUS
 70
0
 71
3
 72
48
 73
44
 74
0
 42
0.0000001
 43
0.0000001
 44
0.0000000001
 40
0.0
 40
0.0
 40
0.0
 40
0.0
 40
0.0003135334
 40
0.0010795355
 40
0.0023758642
 40
0.0042775408
 40
0.0068052463
 40
0.0097012605
 40
0.0127856141
 40
0.0162674106
 40
0.0207750344
 40
0.0267715068
 40
0.0341260432
 40
0.0378503157
 40
0.0413283705
 40
0.0444824632
 40
0.0474541573
 40
0.0504623392
 40
0.0537313921
 40
0.0574248789
 40
0.061515967
 40
0.0702867721
 40
0.0788953393
 40
0.0871149706
 40
0.0953795458
 40
0.1042531009
 40
0.113838547
 40
0.1239083751
 40
0.1448466946
 40
0.1671800844
 40
0.1911486991
 40
0.2169417561
 40
0.2447361553
 40
0.2747127885
 40
0.3069338296
 40
0.3414003146
 40
0.3780903293
 40
0.4580553378
 40
0.5468896144
 40
0.6448301832
 40
0.7526381898
 40
0.8710820374
 40
1.0
 40
1.0
 40
1.0
 40
1.0
 10
6.8824974556
 20
10.3625791702
 30
0.0
 10
6.8825129649
 20
10.3625749834
 30
0.0
 10
6.8825581312
 20
10.3626293102
 30
0.0
 10
6.8826274313
 20
10.3627126054
 30
0.0
 10
6.8827671419
 20
10.3628706061
 30
0.0
 10
6.8829814278
 20
10.3630665886
 30
0.0
 10
6.8832770592
 20
10.3633000572
 30
0.0
 10
6.8835883978
 20
10.3636071691
 30
0.0
 10
6.8838412405
 20
10.3640329554
 30
0.0
 10
6.8839025845
 20
10.3646159967
 30
0.0
 10
6.8836805804
 20
10.3653105182
 30
0.0
 10
6.883228657
 20
10.366108337
 30
0.0
 10
6.8827109495
 20
10.3668148131
 30
0.0
 10
6.882318385
 20
10.3674495367
 30
0.0
 10
6.8820886681
 20
10.3679303819
 30
0.0
 10
6.8819736497
 20
10.3684139223
 30
0.0
 10
6.8819904537
 20
10.3688879156
 30
0.0
 10
6.8821441576
 20
10.3693428552
 30
0.0
 10
6.8824321972
 20
10.3697708419
 30
0.0
 10
6.8828404624
 20
10.3701666217
 30
0.0
 10
6.8835056442
 20
10.3706933505
 30
0.0
 10
6.8844038953
 20
10.371329596
 30
0.0
 10
6.8853704219
 20
10.3722248635
 30
0.0
 10
6.8861068323
 20
10.3733019279
 30
0.0
 10
6.8864557386
 20
10.3745731606
 30
0.0
 10
6.8865243093
 20
10.3759454007
 30
0.0
 10
6.8864383868
 20
10.3774050943
 30
0.0
 10
6.8862945053
 20
10.379480824
 30
0.0
 10
6.8864098424
 20
10.3822175139
 30
0.0
 10
6.8867036214
 20
10.3856486243
 30
0.0
 10
6.8869942808
 20
10.3893319846
 30
0.0
 10
6.8871224707
 20
10.3933054091
 30
0.0
 10
6.887018816
 20
10.3975884504
 30
0.0
 10
6.8866147536
 20
10.4021843363
 30
0.0
 10
6.8859270114
 20
10.4070908452
 30
0.0
 10
6.8849682492
 20
10.4123014725
 30
0.0
 10
6.8832980544
 20
10.419863378
 30
0.0
 10
6.8805607743
 20
10.4300361965
 30
0.0
 10
6.8763290695
 20
10.443036743
 30
0.0
 10
6.8709836776
 20
10.4571584926
 30
0.0
 10
6.8642864697
 20
10.4723685302
 30
0.0
 10
6.8560453271
 20
10.4886019018
 30
0.0
 10
6.8497982845
 20
10.4996342131
 30
0.0
 10
6.8464357925
 20
10.5053196428
 30
0.0
  0
SPLINE
  5
4BD
100
AcDbEntity
  8
0
100
AcDbSpline
 62
9
  6
CONTINUOUS
 70
0
 71
3
 72
13
 73
9
 74
0
 42
0.0000001
 43
0.0000001
 44
0.0000000001
 40
0.0
 40
0.0
 40
0.0
 40
0.0
 40
0.2495012176
 40
0.3745991686
 40
0.4997974853
 40
0.62501889
 40
0.7501867124
 40
1.0
 40
1.0
 40
1.0
 40
1.0
 10
5.9781521843
 20
10.737983736
 30
0.0
 10
5.9796215899
 20
10.6898414418
 30
0.0
 10
5.9821691476
 20
10.6175714926
 30
0.0
 10
5.9858447064
 20
10.5211587079
 30
0.0
 10
5.9886814136
 20
10.4487227626
 30
0.0
 10
5.9916110398
 20
10.3762770273
 30
0.0
 10
5.9956578192
 20
10.279800753
 30
0.0
 10
5.9987668211
 20
10.2074796436
 30
0.0
 10
6.0007472161
 20
10.1592953671
 30
0.0
  0
LINE
  5
4BE
100
AcDbEntity
  8
0
100
AcDbLine
 62
9
  6
CONTINUOUS
 10
6.0007472161
 20
10.1592953671
 11
6.0009307279
 21
10.1548240451
  0
SPLINE
  5
4BF
100
AcDbEntity
  8
0
100
AcDbSpline
 62
9
  6
CONTINUOUS
 70
0
 71
3
 72
61
 73
57
 74
0
 42
0.0000001
 43
0.0000001
 44
0.0000000001
 40
0.0
 40
0.0
 40
0.0
 40
0.0
 40
0.0055307472
 40
0.0078241536
 40
0.0101796947
 40
0.0128100905
 40
0.0158636493
 40
0.0194994672
 40
0.0238470474
 40
0.0288999562
 40
0.0345924907
 40
0.0407944286
 40
0.0440013799
 40
0.0471687693
 40
0.0502504765
 40
0.0532939228
 40
0.0564176329
 40
0.0596928134
 40
0.0676836216
 40
0.0724810883
 40
0.0773720596
 40
0.0822320982
 40
0.0871671338
 40
0.0976563884
 40
0.1094661841
 40
0.1228020631
 40
0.1367125767
 40
0.1436370945
 40
0.1504258226
 40
0.1569740067
 40
0.1633151105
 40
0.1696197834
 40
0.1760255975
 40
0.1890812657
 40
0.2022438319
 40
0.208990918
 40
0.2159503852
 40
0.230487364
 40
0.2455947036
 40
0.261168568
 40
0.2772680464
 40
0.2938987805
 40
0.3286076166
 40
0.3648791135
 40
0.4023995069
 40
0.4410769008
 40
0.4809488014
 40
0.5220636207
 40
0.5644343875
 40
0.60802279
 40
0.6528202294
 40
0.6988415522
 40
0.7945592761
 40
0.8442314809
 40
0.8950750311
 40
1.0
 40
1.0
 40
1.0
 40
1.0
 10
6.6114568361
 20
10.195873255
 30
0.0
 10
6.6113680601
 20
10.1954734608
 30
0.0
 10
6.6111846677
 20
10.1948987238
 30
0.0
 10
6.6106685561
 20
10.1943356935
 30
0.0
 10
6.6102090203
 20
10.1940455287
 30
0.0
 10
6.6096575522
 20
10.1938179805
 30
0.0
 10
6.6090016525
 20
10.1936036428
 30
0.0
 10
6.6082345057
 20
10.1933201433
 30
0.0
 10
6.60735765
 20
10.1929147882
 30
0.0
 10
6.606360987
 20
10.1924092014
 30
0.0
 10
6.6052497568
 20
10.1918261655
 30
0.0
 10
6.6042496837
 20
10.1913254246
 30
0.0
 10
6.6033958622
 20
10.1909518864
 30
0.0
 10
6.6027299077
 20
10.1907321796
 30
0.0
 10
6.6020472581
 20
10.19061114
 30
0.0
 10
6.6013595131
 20
10.1906554214
 30
0.0
 10
6.6006699691
 20
10.1907581902
 30
0.0
 10
6.5995905751
 20
10.1907811681
 30
0.0
 10
6.5984897154
 20
10.1902044473
 30
0.0
 10
6.5974079845
 20
10.1894849657
 30
0.0
 10
6.5964982746
 20
10.1889033623
 30
0.0
 10
6.5955557487
 20
10.188361605
 30
0.0
 10
6.5942404891
 20
10.1876360949
 30
0.0
 10
6.592478954
 20
10.186653739
 30
0.0
 10
6.5902791993
 20
10.1851871303
 30
0.0
 10
6.5880575712
 20
10.1833324052
 30
0.0
 10
6.5861046809
 20
10.181723605
 30
0.0
 10
6.5844713543
 20
10.1804915232
 30
0.0
 10
6.5832352011
 20
10.1796399897
 30
0.0
 10
6.5819775719
 20
10.1789008091
 30
0.0
 10
6.5806975813
 20
10.1782809537
 30
0.0
 10
6.5794053121
 20
10.1777151705
 30
0.0
 10
6.5776623639
 20
10.1769394431
 30
0.0
 10
6.5754547804
 20
10.1759560697
 30
0.0
 10
6.5731637189
 20
10.1751113772
 30
0.0
 10
6.5713048924
 20
10.1744020143
 30
0.0
 10
6.5693745869
 20
10.1735962119
 30
0.0
 10
6.5669154137
 20
10.1724555857
 30
0.0
 10
6.5638828481
 20
10.171036672
 30
0.0
 10
6.5607398018
 20
10.1695804637
 30
0.0
 10
6.5575067489
 20
10.1680505333
 30
0.0
 10
6.5530106103
 20
10.1658775541
 30
0.0
 10
6.5472069656
 20
10.1629786745
 30
0.0
 10
6.5400016952
 20
10.1594242824
 30
0.0
 10
6.532458633
 20
10.1558929347
 30
0.0
 10
6.5245901561
 20
10.15243393
 30
0.0
 10
6.5164144384
 20
10.1490169345
 30
0.0
 10
6.5079398967
 20
10.1456082849
 30
0.0
 10
6.4991739734
 20
10.1421879438
 30
0.0
 10
6.4901104162
 20
10.1387821909
 30
0.0
 10
6.4807551092
 20
10.1353864461
 30
0.0
 10
6.467732047
 20
10.1307837908
 30
0.0
 10
6.4543195716
 20
10.1262012041
 30
0.0
 10
6.4405311242
 20
10.1216170562
 30
0.0
 10
6.4260705721
 20
10.1168954356
 30
0.0
 10
6.4150619548
 20
10.113445934
 30
0.0
 10
6.4075993616
 20
10.1112844454
 30
0.0
  0
SPLINE
  5
4C0
100
AcDbEntity
  8
0
100
AcDbSpline
 62
9
  6
CONTINUOUS
 70
0
 71
3
 72
9
 73
5
 74
0
 42
0.0000001
 43
0.0000001
 44
0.0000000001
 40
0.0
 40
0.0
 40
0.0
 40
0.0
 40
0.2475941228
 40
1.0
 40
1.0
 40
1.0
 40
1.0
 10
6.4075993616
 20
10.1112844454
 30
0.0
 10
6.4059926235
 20
10.1108190649
 30
0.0
 10
6.3994947869
 20
10.1089691737
 30
0.0
 10
6.3929549527
 20
10.1072629124
 30
0.0
 10
6.3880063161
 20
10.1061003894
 30
0.0
  0
LINE
  5
4C1
100
AcDbEntity
  8
0
100
AcDbLine
 62
9
  6
CONTINUOUS
 10
6.0625425065
 20
10.1466214059
 11
6.0622357203
 21
10.149041399
  0
LINE
  5
4C2
100
AcDbEntity
  8
0
100
AcDbLine
 62
9
  6
CONTINUOUS
 10
6.0622357203
 20
10.149041399
 11
6.0618607018
 21
10.1519937204
  0
SPLINE
  5
4C3
100
AcDbEntity
  8
0
100
AcDbSpline
 62
9
  6
CONTINUOUS
 70
0
 71
3
 72
10
 73
6
 74
0
 42
0.0000001
 43
0.0000001
 44
0.0000000001
 40
0.0
 40
0.0
 40
0.0
 40
0.0
 40
0.2510661506
 40
0.6273844058
 40
1.0
 40
1.0
 40
1.0
 40
1.0
 10
6.0618607018
 20
10.1519937204
 30
0.0
 10
6.0556114146
 20
10.201137376
 30
0.0
 10
6.0391613128
 20
10.3238359696
 30
0.0
 10
6.0107184
 20
10.519093804
 30
0.0
 10
5.9888302793
 20
10.665240368
 30
0.0
 10
5.9781529474
 20
10.7379840029
 30
0.0
  0
SPLINE
  5
4C4
100
AcDbEntity
  8
0
100
AcDbSpline
 62
7
  6
CONTINUOUS
 70
0
 71
3
 72
24
 73
20
 74
0
 42
0.0000001
 43
0.0000001
 44
0.0000000001
 40
0.0
 40
0.0
 40
0.0
 40
0.0
 40
0.0625018922
 40
0.1249890426
 40
0.1874640082
 40
0.2499386361
 40
0.312416588
 40
0.3749031802
 40
0.4998187232
 40
0.5623381992
 40
0.6248676148
 40
0.7498831126
 40
0.8124204295
 40
0.8436919675
 40
0.8749619058
 40
0.9062273494
 40
0.9374885107
 40
0.9687501688
 40
1.0
 40
1.0
 40
1.0
 40
1.0
 10
6.8469816524
 20
10.5052075047
 30
0.0
 10
6.8287600691
 20
10.5100898808
 30
0.0
 10
6.7917712821
 20
10.5179131715
 30
0.0
 10
6.7354081318
 20
10.5238363641
 30
0.0
 10
6.6787444114
 20
10.5240961782
 30
0.0
 10
6.622328428
 20
10.518949914
 30
0.0
 10
6.5666119592
 20
10.5087106286
 30
0.0
 10
6.4938058933
 20
10.4887545758
 30
0.0
 10
6.4236792783
 20
10.4600387381
 30
0.0
 10
6.357267347
 20
10.4241575524
 30
0.0
 10
6.2933677796
 20
10.3839022308
 30
0.0
 10
6.2334336657
 20
10.3376572734
 30
0.0
 10
6.1848906159
 20
10.2928296772
 30
0.0
 10
6.1583296159
 20
10.2659945298
 30
0.0
 10
6.1390421075
 20
10.2452608515
 30
0.0
 10
6.1204650568
 20
10.2238913727
 30
0.0
 10
6.1026906241
 20
10.2018503007
 30
0.0
 10
6.0858882051
 20
10.1790639986
 30
0.0
 10
6.0754905001
 20
10.1633032968
 30
0.0
 10
6.0705783462
 20
10.155251569
 30
0.0
  0
SPLINE
  5
4C5
100
AcDbEntity
  8
0
100
AcDbSpline
 62
9
  6
CONTINUOUS
 70
0
 71
3
 72
28
 73
24
 74
0
 42
0.0000001
 43
0.0000001
 44
0.0000000001
 40
0.0
 40
0.0
 40
0.0
 40
0.0
 40
0.0862621159
 40
0.1735459227
 40
0.2610412481
 40
0.3479182733
 40
0.4333154414
 40
0.5162906784
 40
0.5958730794
 40
0.6710822589
 40
0.740935324
 40
0.8044628913
 40
0.860694768
 40
0.8857703748
 40
0.908656092
 40
0.929233009
 40
0.9473963275
 40
0.9630446385
 40
0.9760763553
 40
0.9863897263
 40
0.9938828458
 40
0.9984536648
 40
1.0
 40
1.0
 40
1.0
 40
1.0
 10
5.9781538458
 20
10.7379899973
 30
0.0
 10
5.9594275129
 20
10.7430076066
 30
0.0
 10
5.9215842606
 20
10.7524799969
 30
0.0
 10
5.8642848687
 20
10.7651053525
 30
0.0
 10
5.8065525663
 20
10.7763190648
 30
0.0
 10
5.7490026991
 20
10.7861652248
 30
0.0
 10
5.6922696308
 20
10.7946858487
 30
0.0
 10
5.6370182717
 20
10.8019670674
 30
0.0
 10
5.583931617
 20
10.8080917671
 30
0.0
 10
5.533695712
 20
10.8131429217
 30
0.0
 10
5.4869912267
 20
10.8172035344
 30
0.0
 10
5.4444944818
 20
10.8203771706
 30
0.0
 10
5.4120082117
 20
10.8224427183
 30
0.0
 10
5.3886282264
 20
10.8237445926
 30
0.0
 10
5.3732426877
 20
10.8245262649
 30
0.0
 10
5.3594129115
 20
10.8251644927
 30
0.0
 10
5.3471825466
 20
10.8256732958
 30
0.0
 10
5.3367139723
 20
10.8260649709
 30
0.0
 10
5.3278080985
 20
10.8263576449
 30
0.0
 10
5.3212667483
 20
10.8265533429
 30
0.0
 10
5.3153454574
 20
10.8266950311
 30
0.0
 10
5.313885428
 20
10.8267357807
 30
0.0
 10
5.3108334562
 20
10.8267883649
 30
0.0
 10
5.3111809428
 20
10.8267828874
 30
0.0
  0
SPLINE
  5
4C6
100
AcDbEntity
  8
0
100
AcDbSpline
 62
9
  6
CONTINUOUS
 70
0
 71
3
 72
37
 73
33
 74
0
 42
0.0000001
 43
0.0000001
 44
0.0000000001
 40
0.0
 40
0.0
 40
0.0
 40
0.0
 40
0.0000675689
 40
0.0002696196
 40
0.000605977
 40
0.0010764665
 40
0.0016809133
 40
0.0024191427
 40
0.0042962518
 40
0.0067063991
 40
0.0096481919
 40
0.0131202393
 40
0.017121152
 40
0.0216495427
 40
0.0267040259
 40
0.0383857354
 40
0.0521552351
 40
0.068001508
 40
0.085911336
 40
0.1058625977
 40
0.127830954
 40
0.1517920801
 40
0.2055953965
 40
0.267078281
 40
0.3360268834
 40
0.4121483866
 40
0.4951306542
 40
0.5846621195
 40
0.6804160994
 40
0.7820041399
 40
0.8888886149
 40
1.0
 40
1.0
 40
1.0
 40
1.0
 10
13.6110898199
 20
8.3678267104
 30
0.0
 10
13.6111015121
 20
8.3678256479
 30
0.0
 10
13.6111471463
 20
8.3678423299
 30
0.0
 10
13.6112509402
 20
8.3678544496
 30
0.0
 10
13.6114229376
 20
8.3678915689
 30
0.0
 10
13.6116639424
 20
8.3679354075
 30
0.0
 10
13.6119734479
 20
8.3679947788
 30
0.0
 10
13.6125231946
 20
8.3680982667
 30
0.0
 10
13.6133813412
 20
8.3682598737
 30
0.0
 10
13.6146160231
 20
8.3684906487
 30
0.0
 10
13.6161233956
 20
8.3687709348
 30
0.0
 10
13.6179028609
 20
8.3690998342
 30
0.0
 10
13.6199538093
 20
8.3694766984
 30
0.0
 10
13.6222756353
 20
8.3699007927
 30
0.0
 10
13.625911015
 20
8.370560823
 30
0.0
 10
13.6311278278
 20
8.3714989688
 30
0.0
 10
13.6381928512
 20
8.3727539159
 30
0.0
 10
13.646326452
 20
8.3741806009
 30
0.0
 10
13.6555214724
 20
8.3757729814
 30
0.0
 10
13.6657682089
 20
8.3775260785
 30
0.0
 10
13.6770550634
 20
8.3794345123
 30
0.0
 10
13.69414697
 20
8.382291242
 30
0.0
 10
13.718022163
 20
8.3862112604
 30
0.0
 10
13.7496292712
 20
8.3912842409
 30
0.0
 10
13.7850854186
 20
8.3968447809
 30
0.0
 10
13.8242554326
 20
8.4028333388
 30
0.0
 10
13.8669870728
 20
8.4091878407
 30
0.0
 10
13.9131219516
 20
8.4158454612
 30
0.0
 10
13.962488467
 20
8.4227402975
 30
0.0
 10
14.0148811515
 20
8.4297604286
 30
0.0
 10
14.0699661247
 20
8.4367737855
 30
0.0
 10
14.107602709
 20
8.4410596698
 30
0.0
 10
14.1268049478
 20
8.4430592215
 30
0.0
  0
SPLINE
  5
4C7
100
AcDbEntity
  8
0
100
AcDbSpline
 62
9
  6
CONTINUOUS
 70
0
 71
3
 72
15
 73
11
 74
0
 42
0.0000001
 43
0.0000001
 44
0.0000000001
 40
0.0
 40
0.0
 40
0.0
 40
0.0
 40
0.1250637877
 40
0.2502019265
 40
0.3751729223
 40
0.5001344595
 40
0.6251426078
 40
0.7501088509
 40
0.8750544409
 40
1.0
 40
1.0
 40
1.0
 40
1.0
 10
14.5648569881
 20
9.5232750083
 30
0.0
 10
14.5650875328
 20
9.5253820887
 30
0.0
 10
14.5654118436
 20
9.5296136069
 30
0.0
 10
14.5654865369
 20
9.5359767642
 30
0.0
 10
14.5651125014
 20
9.5423270465
 30
0.0
 10
14.5644290552
 20
9.5486456778
 30
0.0
 10
14.5636646725
 20
9.5549541715
 30
0.0
 10
14.5630169668
 20
9.5612757736
 30
0.0
 10
14.5624246572
 20
9.5676013651
 30
0.0
 10
14.562029345
 20
9.5718182096
 30
0.0
 10
14.5618219835
 20
9.5739256841
 30
0.0
  0
SPLINE
  5
4C8
100
AcDbEntity
  8
0
100
AcDbSpline
 62
9
  6
CONTINUOUS
 70
0
 71
3
 72
12
 73
8
 74
0
 42
0.0000001
 43
0.0000001
 44
0.0000000001
 40
0.0
 40
0.0
 40
0.0
 40
0.0
 40
0.2570260516
 40
0.3840047605
 40
0.5098321697
 40
0.7577223723
 40
1.0
 40
1.0
 40
1.0
 40
1.0
 10
14.5618219835
 20
9.5739256841
 30
0.0
 10
14.5389940233
 20
9.5810294397
 30
0.0
 10
14.5048792877
 20
9.5916136915
 30
0.0
 10
14.4596440286
 20
9.6058514923
 30
0.0
 10
14.4152763885
 20
9.6200140884
 30
0.0
 10
14.3608030319
 20
9.6377845294
 30
0.0
 10
14.3175828132
 20
9.6523054704
 30
0.0
 10
14.2962453272
 20
9.6595564816
 30
0.0
  0
SPLINE
  5
4C9
100
AcDbEntity
  8
0
100
AcDbSpline
 62
9
  6
CONTINUOUS
 70
0
 71
3
 72
17
 73
13
 74
0
 42
0.0000001
 43
0.0000001
 44
0.0000000001
 40
0.0
 40
0.0
 40
0.0
 40
0.0
 40
0.0919204912
 40
0.1960127375
 40
0.2530088616
 40
0.3131316219
 40
0.4415581743
 40
0.5093021294
 40
0.5787682616
 40
0.7205154623
 40
0.8622729185
 40
1.0
 40
1.0
 40
1.0
 40
1.0
 10
14.0014602412
 20
8.6844799661
 30
0.0
 10
14.0094867461
 20
8.6810872351
 30
0.0
 10
14.0257672791
 20
8.6718016347
 30
0.0
 10
14.0440080628
 20
8.6560237923
 30
0.0
 10
14.0580197104
 20
8.6403949742
 30
0.0
 10
14.0721616288
 20
8.6218805235
 30
0.0
 10
14.0847427409
 20
8.600987251
 30
0.0
 10
14.0955962479
 20
8.5782516659
 30
0.0
 10
14.105541422
 20
8.5537327634
 30
0.0
 10
14.115503853
 20
8.5217124972
 30
0.0
 10
14.1233401088
 20
8.4824941002
 30
0.0
 10
14.1260742932
 20
8.4560953834
 30
0.0
 10
14.1268052378
 20
8.4430592878
 30
0.0
  0
SPLINE
  5
4CA
100
AcDbEntity
  8
0
100
AcDbSpline
 62
9
  6
CONTINUOUS
 70
0
 71
3
 72
36
 73
32
 74
0
 42
0.0000001
 43
0.0000001
 44
0.0000000001
 40
0.0
 40
0.0
 40
0.0
 40
0.0
 40
0.2133797073
 40
0.3144097906
 40
0.4101061917
 40
0.4999133613
 40
0.5833580878
 40
0.6600501015
 40
0.7296040937
 40
0.7916985767
 40
0.8461033451
 40
0.8703523251
 40
0.892596162
 40
0.912809984
 40
0.930969158
 40
0.9470490471
 40
0.961025012
 40
0.9728734968
 40
0.9779960817
 40
0.9825838315
 40
0.9866364827
 40
0.9901537691
 40
0.9931354223
 40
0.9955811717
 40
0.997490746
 40
0.9982443832
 40
0.9988638761
 40
0.9993491936
 40
0.9997003085
 40
0.9999172092
 40
1.0
 40
1.0
 40
1.0
 40
1.0
 10
14.0014568934
 20
8.6844797002
 30
0.0
 10
13.9604926417
 20
8.6792732139
 30
0.0
 10
13.9000826695
 20
8.672002019
 30
0.0
 10
13.8213163195
 20
8.6622743405
 30
0.0
 10
13.7662944911
 20
8.6553905164
 30
0.0
 10
13.7146612686
 20
8.6488359167
 30
0.0
 10
13.6666881207
 20
8.6426539286
 30
0.0
 10
13.6226138312
 20
8.6368839045
 30
0.0
 10
13.5826482001
 20
8.6315603473
 30
0.0
 10
13.5469696876
 20
8.6267185783
 30
0.0
 10
13.519988088
 20
8.6229901002
 30
0.0
 10
13.5006511733
 20
8.6202795445
 30
0.0
 10
13.4878692357
 20
8.61847104
 30
0.0
 10
13.4762564229
 20
8.6168119397
 30
0.0
 10
13.4658266372
 20
8.6153065426
 30
0.0
 10
13.4565937443
 20
8.6139590727
 30
0.0
 10
13.4485713621
 20
8.6127739906
 30
0.0
 10
13.4426485652
 20
8.6118862592
 30
0.0
 10
13.4385236042
 20
8.6112607378
 30
0.0
 10
13.4358906634
 20
8.6108587652
 30
0.0
 10
13.4335651562
 20
8.6105015104
 30
0.0
 10
13.4315471149
 20
8.6101898361
 30
0.0
 10
13.4298365619
 20
8.6099244953
 30
0.0
 10
13.428433554
 20
8.6097065159
 30
0.0
 10
13.4274565318
 20
8.6095545506
 30
0.0
 10
13.4268287308
 20
8.6094580782
 30
0.0
 10
13.4264731032
 20
8.6094029251
 30
0.0
 10
13.4261947818
 20
8.6093629662
 30
0.0
 10
13.4259924254
 20
8.6093287571
 30
0.0
 10
13.4258688681
 20
8.609320116
 30
0.0
 10
13.4258098782
 20
8.6093038907
 30
0.0
 10
13.4257944023
 20
8.6093080375
 30
0.0
  0
SPLINE
  5
4CB
100
AcDbEntity
  8
0
100
AcDbSpline
 62
9
  6
CONTINUOUS
 70
0
 71
3
 72
16
 73
12
 74
0
 42
0.0000001
 43
0.0000001
 44
0.0000000001
 40
0.0
 40
0.0
 40
0.0
 40
0.0
 40
0.214678312
 40
0.4102449534
 40
0.5827990863
 40
0.7289839068
 40
0.8457695875
 40
0.9309189963
 40
0.9610205925
 40
0.9826217287
 40
1.0
 40
1.0
 40
1.0
 40
1.0
 10
12.9665052593
 20
8.8654626121
 30
0.0
 10
12.9236207492
 20
8.8689442663
 30
0.0
 10
12.8416185133
 20
8.874984454
 30
0.0
 10
12.7250213406
 20
8.8819816836
 30
0.0
 10
12.6220608466
 20
8.8869207745
 30
0.0
 10
12.5348318055
 20
8.8901553854
 30
0.0
 10
12.4650866997
 20
8.892050478
 30
0.0
 10
12.4185889465
 20
8.8928881856
 30
0.0
 10
12.3911626785
 20
8.893181073
 30
0.0
 10
12.3773177647
 20
8.893271675
 30
0.0
 10
12.3695055438
 20
8.8932804341
 30
0.0
 10
12.3660225913
 20
8.8932730384
 30
0.0
  0
SPLINE
  5
4CC
100
AcDbEntity
  8
0
100
AcDbSpline
 62
7
  6
CONTINUOUS
 70
0
 71
3
 72
15
 73
11
 74
0
 42
0.0000001
 43
0.0000001
 44
0.0000000001
 40
0.0
 40
0.0
 40
0.0
 40
0.0
 40
0.1260897113
 40
0.2497491573
 40
0.3720472576
 40
0.4940349794
 40
0.616743544
 40
0.7412374858
 40
0.8686172071
 40
1.0
 40
1.0
 40
1.0
 40
1.0
 10
8.0041094241
 20
11.0451710871
 30
0.0
 10
7.924273813
 20
11.0673115542
 30
0.0
 10
7.7650693666
 20
11.1074149787
 30
0.0
 10
7.5252603513
 20
11.1553563004
 30
0.0
 10
7.2860318014
 20
11.19095239
 30
0.0
 10
7.0459894331
 20
11.2148311951
 30
0.0
 10
6.8036574878
 20
11.2276267459
 30
0.0
 10
6.5574387694
 20
11.228792492
 30
0.0
 10
6.305762635
 20
11.2177918674
 30
0.0
 10
6.1363753913
 20
11.2022777331
 30
0.0
 10
6.0506074214
 20
11.1924719522
 30
0.0
  0
SPLINE
  5
4CD
100
AcDbEntity
  8
0
100
AcDbSpline
 62
7
  6
CONTINUOUS
 70
0
 71
3
 72
15
 73
11
 74
0
 42
0.0000001
 43
0.0000001
 44
0.0000000001
 40
0.0
 40
0.0
 40
0.0
 40
0.0
 40
0.1781204121
 40
0.3547724666
 40
0.5227085112
 40
0.6753327073
 40
0.8061752382
 40
0.9086286301
 40
0.9758253894
 40
1.0
 40
1.0
 40
1.0
 40
1.0
 10
6.0506012708
 20
11.1924458885
 30
0.0
 10
6.0121033834
 20
11.1880451653
 30
0.0
 10
5.9354909701
 20
11.1786990016
 30
0.0
 10
5.8227696723
 20
11.1637204012
 30
0.0
 10
5.7156617445
 20
11.148633432
 30
0.0
 10
5.6185091672
 20
11.1343334759
 30
0.0
 10
5.5355104527
 20
11.121704911
 30
0.0
 10
5.4709249798
 20
11.1116091211
 30
0.0
 10
5.4292864576
 20
11.1049665661
 30
0.0
 10
5.4096666116
 20
11.1017791249
 30
0.0
 10
5.4044764153
 20
11.1009313053
 30
0.0
  0
SPLINE
  5
4CE
100
AcDbEntity
  8
0
100
AcDbSpline
 62
7
  6
CONTINUOUS
 70
0
 71
3
 72
11
 73
7
 74
0
 42
0.0000001
 43
0.0000001
 44
0.0000000001
 40
0.0
 40
0.0
 40
0.0
 40
0.0
 40
0.2532688105
 40
0.5031551863
 40
0.7514562414
 40
1.0
 40
1.0
 40
1.0
 40
1.0
 10
14.1611909802
 20
9.506301932
 30
0.0
 10
14.0832146077
 20
9.5000733353
 30
0.0
 10
13.927699748
 20
9.4941553622
 30
0.0
 10
13.6955930107
 20
9.5055252478
 30
0.0
 10
13.466844795
 20
9.5371901768
 30
0.0
 10
13.317082252
 20
9.5717229739
 30
0.0
 10
13.2431088136
 20
9.5922376206
 30
0.0
  0
SPLINE
  5
4CF
100
AcDbEntity
  8
0
100
AcDbSpline
 62
9
  6
CONTINUOUS
 70
0
 71
3
 72
16
 73
12
 74
0
 42
0.0000001
 43
0.0000001
 44
0.0000000001
 40
0.0
 40
0.0
 40
0.0
 40
0.0
 40
0.2180508309
 40
0.414736117
 40
0.5871356497
 40
0.6633093943
 40
0.7323066495
 40
0.8475799605
 40
0.9314387558
 40
0.9826549131
 40
1.0
 40
1.0
 40
1.0
 40
1.0
 10
13.2431088136
 20
9.5922376206
 30
0.0
 10
13.1992488807
 20
9.6156064923
 30
0.0
 10
13.1155084788
 20
9.6594599731
 30
0.0
 10
12.9961909968
 20
9.7200491131
 30
0.0
 10
12.9052477521
 20
9.7650825611
 30
0.0
 10
12.8402130224
 20
9.7968508731
 30
0.0
 10
12.7868152515
 20
9.8227775548
 30
0.0
 10
12.7318065395
 20
9.8493964274
 30
0.0
 10
12.680402092
 20
9.8741596176
 30
0.0
 10
12.6490824637
 20
9.8891885207
 30
0.0
 10
12.6349830335
 20
9.8959251569
 30
0.0
 10
12.6314152094
 20
9.8976276482
 30
0.0
  0
SPLINE
  5
4D0
100
AcDbEntity
  8
0
100
AcDbSpline
 62
9
  6
CONTINUOUS
 70
0
 71
3
 72
16
 73
12
 74
0
 42
0.0000001
 43
0.0000001
 44
0.0000000001
 40
0.0
 40
0.0
 40
0.0
 40
0.0
 40
0.1676249213
 40
0.3277426841
 40
0.4770469048
 40
0.5466655058
 40
0.6126073327
 40
0.7327962612
 40
0.7869644529
 40
0.8371841187
 40
1.0
 40
1.0
 40
1.0
 40
1.0
 10
14.2128681094
 20
9.5103936326
 30
0.0
 10
14.1767742522
 20
9.5143401918
 30
0.0
 10
14.106443636
 20
9.5243469207
 30
0.0
 10
14.004932976
 20
9.5437875709
 30
0.0
 10
13.9248295578
 20
9.5618395122
 30
0.0
 10
13.8648197975
 20
9.5761997931
 30
0.0
 10
13.811009289
 20
9.5893651041
 30
0.0
 10
13.7604533363
 20
9.6017498788
 30
0.0
 10
13.7131502482
 20
9.6130988876
 30
0.0
 10
13.6568026905
 20
9.6263227081
 30
0.0
 10
13.6117552341
 20
9.6363502437
 30
0.0
 10
13.5772383558
 20
9.6435867813
 30
0.0
  0
SPLINE
  5
4D1
100
AcDbEntity
  8
0
100
AcDbSpline
 62
9
  6
CONTINUOUS
 70
0
 71
3
 72
15
 73
11
 74
0
 42
0.0000001
 43
0.0000001
 44
0.0000000001
 40
0.0
 40
0.0
 40
0.0
 40
0.0
 40
0.1290901656
 40
0.260982448
 40
0.393570467
 40
0.5247791594
 40
0.6526600046
 40
0.7755510068
 40
0.891852155
 40
1.0
 40
1.0
 40
1.0
 40
1.0
 10
14.296217887
 20
9.65955532
 30
0.0
 10
14.2946381972
 20
9.6527013489
 30
0.0
 10
14.2910932931
 20
9.6389234601
 30
0.0
 10
14.2847704458
 20
9.6184246956
 30
0.0
 10
14.2774403381
 20
9.5981403472
 30
0.0
 10
14.2691879209
 20
9.5784485277
 30
0.0
 10
14.2600904924
 20
9.5597173293
 30
0.0
 10
14.2503533415
 20
9.5422343619
 30
0.0
 10
14.2401767369
 20
9.5262649884
 30
0.0
 10
14.2329342521
 20
9.5163951834
 30
0.0
 10
14.2292591152
 20
9.511789107
 30
0.0
  0
SPLINE
  5
4D2
100
AcDbEntity
  8
0
100
AcDbSpline
 62
9
  6
CONTINUOUS
 70
0
 71
3
 72
15
 73
11
 74
0
 42
0.0000001
 43
0.0000001
 44
0.0000000001
 40
0.0
 40
0.0
 40
0.0
 40
0.0
 40
0.1837562268
 40
0.3547658718
 40
0.4349172974
 40
0.5111273526
 40
0.6506138517
 40
0.7710068321
 40
0.8703178923
 40
1.0
 40
1.0
 40
1.0
 40
1.0
 10
14.296245438
 20
9.6595542804
 30
0.0
 10
14.256395479
 20
9.6610579117
 30
0.0
 10
14.1794715451
 20
9.6642649417
 30
0.0
 10
14.0851744697
 20
9.6683291795
 30
0.0
 10
14.0141856827
 20
9.6711644583
 30
0.0
 10
13.9500244228
 20
9.6735144536
 30
0.0
 10
13.8771246566
 20
9.675867462
 30
0.0
 10
13.7992023234
 20
9.6779779885
 30
0.0
 10
13.7233989388
 20
9.6797074772
 30
0.0
 10
13.6737115009
 20
9.6806127886
 30
0.0
 10
13.6455723557
 20
9.6810955813
 30
0.0
  0
LINE
  5
4D3
100
AcDbEntity
  8
0
100
AcDbLine
 62
9
  6
CONTINUOUS
 10
13.6455723557
 20
9.6810955813
 11
13.6240309248
 21
9.6814553755
  0
SPLINE
  5
4D4
100
AcDbEntity
  8
0
100
AcDbSpline
 62
7
  6
CONTINUOUS
 70
0
 71
3
 72
13
 73
9
 74
0
 42
0.0000001
 43
0.0000001
 44
0.0000000001
 40
0.0
 40
0.0
 40
0.0
 40
0.0
 40
0.2471251646
 40
0.3715552414
 40
0.4964867859
 40
0.6218534268
 40
0.74761454
 40
1.0
 40
1.0
 40
1.0
 40
1.0
 10
14.5618219874
 20
9.5739256841
 30
0.0
 10
14.5346793272
 20
9.5675027059
 30
0.0
 10
14.4938565257
 20
9.5578984276
 30
0.0
 10
14.4391493471
 20
9.5457583785
 30
0.0
 10
14.3977497174
 20
9.5370981968
 30
0.0
 10
14.3560556489
 20
9.5291321075
 30
0.0
 10
14.3000046684
 20
9.5197403496
 30
0.0
 10
14.2576253627
 20
9.5143954484
 30
0.0
 10
14.2292588972
 20
9.5117887617
 30
0.0
  0
LINE
  5
4D5
100
AcDbEntity
  8
0
100
AcDbLine
 62
9
  6
CONTINUOUS
 10
14.5727345899
 20
8.6851877813
 11
14.5692800234
 21
8.6812541875
  0
SPLINE
  5
4D6
100
AcDbEntity
  8
0
100
AcDbSpline
 62
9
  6
CONTINUOUS
 70
0
 71
3
 72
35
 73
31
 74
0
 42
0.0000001
 43
0.0000001
 44
0.0000000001
 40
0.0
 40
0.0
 40
0.0
 40
0.0
 40
0.0163622372
 40
0.0326264119
 40
0.048824211
 40
0.0569124589
 40
0.0650008542
 40
0.0730904904
 40
0.0811786603
 40
0.0973442301
 40
0.1134958137
 40
0.1296341798
 40
0.1457595059
 40
0.1618711203
 40
0.1940522166
 40
0.226175211
 40
0.2582373367
 40
0.3221672888
 40
0.3858182595
 40
0.449164045
 40
0.5121748479
 40
0.5748207498
 40
0.6370682678
 40
0.6988834355
 40
0.7602186374
 40
0.7907030377
 40
0.8210598939
 40
0.8813326461
 40
0.9409717756
 40
1.0
 40
1.0
 40
1.0
 40
1.0
 10
14.5692800234
 20
8.6812541875
 30
0.0
 10
14.5682998737
 20
8.6794800189
 30
0.0
 10
14.5659037593
 20
8.6761781567
 30
0.0
 10
14.5615231979
 20
8.6719840642
 30
0.0
 10
14.5575600835
 20
8.6688930671
 30
0.0
 10
14.5543690713
 20
8.6664642779
 30
0.0
 10
14.5520075732
 20
8.6646039237
 30
0.0
 10
14.5496702045
 20
8.6627136968
 30
0.0
 10
14.5465609564
 20
8.6601867358
 30
0.0
 10
14.5426636883
 20
8.6570459316
 30
0.0
 10
14.5379711111
 20
8.6533028739
 30
0.0
 10
14.5332676776
 20
8.6495815194
 30
0.0
 10
14.5285615999
 20
8.6458715008
 30
0.0
 10
14.5222774168
 20
8.6409533036
 30
0.0
 10
14.5144046108
 20
8.6348495866
 30
0.0
 10
14.5049261517
 20
8.6275923942
 30
0.0
 10
14.4922640862
 20
8.6180242489
 30
0.0
 10
14.4763713089
 20
8.6062539068
 30
0.0
 10
14.4571731021
 20
8.5924387502
 30
0.0
 10
14.4378687675
 20
8.5789700613
 30
0.0
 10
14.4184594479
 20
8.5658742932
 30
0.0
 10
14.3989492471
 20
8.5531765759
 30
0.0
 10
14.3793349425
 20
8.5409175574
 30
0.0
 10
14.3596394237
 20
8.5291010513
 30
0.0
 10
14.3430919571
 20
8.5196957436
 30
0.0
 10
14.3298224456
 20
8.5124162466
 30
0.0
 10
14.3166010452
 20
8.505324368
 30
0.0
 10
14.3000317704
 20
8.4968325685
 30
0.0
 10
14.2799412284
 20
8.4874568872
 30
0.0
 10
14.266479043
 20
8.4815510564
 30
0.0
 10
14.2597702135
 20
8.4786423166
 30
0.0
  0
SPLINE
  5
4D7
100
AcDbEntity
  8
0
100
AcDbSpline
 62
7
  6
CONTINUOUS
 70
0
 71
3
 72
34
 73
30
 74
0
 42
0.0000001
 43
0.0000001
 44
0.0000000001
 40
0.0
 40
0.0
 40
0.0
 40
0.0
 40
0.1263869408
 40
0.2525219983
 40
0.3783279792
 40
0.4410847984
 40
0.5037315636
 40
0.5662594955
 40
0.6286600835
 40
0.690925123
 40
0.7220044746
 40
0.7530470173
 40
0.784051819
 40
0.8150179807
 40
0.8459445793
 40
0.8768309145
 40
0.9076756456
 40
0.9230834952
 40
0.930782217
 40
0.9384768743
 40
0.9461704487
 40
0.9538675421
 40
0.9692387253
 40
0.9769057515
 40
0.980746265
 40
0.9846002733
 40
0.9884813817
 40
0.9923663731
 40
1.0
 40
1.0
 40
1.0
 40
1.0
 10
14.1570549575
 20
8.6732250861
 30
0.0
 10
14.1744042451
 20
8.6721906901
 30
0.0
 10
14.2090861738
 20
8.6704127075
 30
0.0
 10
14.2610839078
 20
8.6686310272
 30
0.0
 10
14.3043571746
 20
8.6679495827
 30
0.0
 10
14.33890273
 20
8.667918796
 30
0.0
 10
14.364745475
 20
8.6681616491
 30
0.0
 10
14.3905352132
 20
8.6686782616
 30
0.0
 10
14.4162652523
 20
8.6694772464
 30
0.0
 10
14.4376637741
 20
8.6703855075
 30
0.0
 10
14.4547464914
 20
8.6712612235
 30
0.0
 10
14.4675319621
 20
8.6719929944
 30
0.0
 10
14.480297254
 20
8.6728008167
 30
0.0
 10
14.4930414735
 20
8.6736854603
 30
0.0
 10
14.5057637687
 20
8.6746471749
 30
0.0
 10
14.5184632188
 20
8.6756865127
 30
0.0
 10
14.5290298728
 20
8.6766199785
 30
0.0
 10
14.5364182512
 20
8.6772946767
 30
0.0
 10
14.5406341001
 20
8.677704019
 30
0.0
 10
14.5437921023
 20
8.6780296174
 30
0.0
 10
14.5469509221
 20
8.6783480164
 30
0.0
 10
14.5511653532
 20
8.6787042852
 30
0.0
 10
14.5553869494
 20
8.6790028892
 30
0.0
 10
14.559031682
 20
8.6796285878
 30
0.0
 10
14.5611204328
 20
8.679943942
 30
0.0
 10
14.5627021659
 20
8.6801282715
 30
0.0
 10
14.5643000143
 20
8.6802072802
 30
0.0
 10
14.5664106887
 20
8.6802723021
 30
0.0
 10
14.5680134608
 20
8.6804943188
 30
0.0
 10
14.5689910612
 20
8.6808767418
 30
0.0
  0
SPLINE
  5
4D8
100
AcDbEntity
  8
0
100
AcDbSpline
 62
9
  6
CONTINUOUS
 70
0
 71
3
 72
9
 73
5
 74
0
 42
0.0000001
 43
0.0000001
 44
0.0000000001
 40
0.0
 40
0.0
 40
0.0
 40
0.0
 40
0.2522370744
 40
1.0
 40
1.0
 40
1.0
 40
1.0
 10
14.2597702135
 20
8.4786423166
 30
0.0
 10
14.2566269442
 20
8.4773351959
 30
0.0
 10
14.2441247835
 20
8.4722517197
 30
0.0
 10
14.2314537981
 20
8.467579638
 30
0.0
 10
14.2218884957
 20
8.4643623054
 30
0.0
  0
SPLINE
  5
4D9
100
AcDbEntity
  8
0
100
AcDbSpline
 62
9
  6
CONTINUOUS
 70
0
 71
3
 72
15
 73
11
 74
0
 42
0.0000001
 43
0.0000001
 44
0.0000000001
 40
0.0
 40
0.0
 40
0.0
 40
0.0
 40
0.1080030032
 40
0.2232984702
 40
0.344720468
 40
0.4711012621
 40
0.6012138766
 40
0.7337359892
 40
0.8672392139
 40
1.0
 40
1.0
 40
1.0
 40
1.0
 10
14.1570546974
 20
8.6732254748
 30
0.0
 10
14.1626638684
 20
8.667518183
 30
0.0
 10
14.17370623
 20
8.6551656169
 30
0.0
 10
14.1891970534
 20
8.634831027
 30
0.0
 10
14.2039552592
 20
8.6123123891
 30
0.0
 10
14.2177802647
 20
8.5879422
 30
0.0
 10
14.2304779713
 20
8.5620482933
 30
0.0
 10
14.2418812299
 20
8.5349858431
 30
0.0
 10
14.2518130574
 20
8.5071425256
 30
0.0
 10
14.2574055322
 20
8.4882106932
 30
0.0
 10
14.2599189799
 20
8.4787006078
 30
0.0
  0
SPLINE
  5
4DA
100
AcDbEntity
  8
0
100
AcDbSpline
 62
9
  6
CONTINUOUS
 70
0
 71
3
 72
11
 73
7
 74
0
 42
0.0000001
 43
0.0000001
 44
0.0000000001
 40
0.0
 40
0.0
 40
0.0
 40
0.0
 40
0.2431579744
 40
0.4929388908
 40
0.7462712288
 40
1.0
 40
1.0
 40
1.0
 40
1.0
 10
13.2023702384
 20
8.8074544151
 30
0.0
 10
13.2015104277
 20
8.8711763343
 30
0.0
 10
13.2023883131
 20
9.0003992982
 30
0.0
 10
13.2102161876
 20
9.1958560137
 30
0.0
 10
13.22378812
 20
9.3937702287
 30
0.0
 10
13.2361773535
 20
9.5260980306
 30
0.0
 10
13.2431177048
 20
9.5922330123
 30
0.0
  0
SPLINE
  5
4DB
100
AcDbEntity
  8
0
100
AcDbSpline
 62
9
  6
CONTINUOUS
 70
0
 71
3
 72
9
 73
5
 74
0
 42
0.0000001
 43
0.0000001
 44
0.0000000001
 40
0.0
 40
0.0
 40
0.0
 40
0.0
 40
0.2501180193
 40
1.0
 40
1.0
 40
1.0
 40
1.0
 10
14.1373427784
 20
8.9703493292
 30
0.0
 10
14.1380437045
 20
8.945539286
 30
0.0
 10
14.141808793
 20
8.8463735998
 30
0.0
 10
14.1491660741
 20
8.7473593353
 30
0.0
 10
14.1562690194
 20
8.6732861282
 30
0.0
  0
SPLINE
  5
4DC
100
AcDbEntity
  8
0
100
AcDbSpline
 62
9
  6
CONTINUOUS
 70
0
 71
3
 72
11
 73
7
 74
0
 42
0.0000001
 43
0.0000001
 44
0.0000000001
 40
0.0
 40
0.0
 40
0.0
 40
0.0
 40
0.2422283397
 40
0.491946028
 40
0.7457153687
 40
1.0
 40
1.0
 40
1.0
 40
1.0
 10
12.9664921775
 20
8.8654675416
 30
0.0
 10
12.9661205948
 20
8.929352219
 30
0.0
 10
12.9682803937
 20
9.0591233156
 30
0.0
 10
12.978714518
 20
9.2555563069
 30
0.0
 10
12.9955201755
 20
9.4547326263
 30
0.0
 10
13.0104298967
 20
9.5879130543
 30
0.0
 10
13.018718643
 20
9.6544643797
 30
0.0
  0
ENDSEC
  0
SECTION
  2
OBJECTS
  0
DICTIONARY
  5
C
100
AcDbDictionary
280
0
281
1
  3
ACAD_GROUP
350
D
  3
ACAD_MLINESTYLE
350
17
  3
ACAD_LAYOUT
350
1A
  3
ACAD_PLOTSETTINGS
350
19
  3
ACAD_PLOTSTYLENAME
350
E
  0
DICTIONARY
  5
D
102
{ACAD_REACTORS
330
C
102
}
100
AcDbDictionary
280
0
281
1
  0
ACDBDICTIONARYWDFLT
  5
E
102
{ACAD_REACTORS
330
C
102
}
100
AcDbDictionary
281
1
  3
Normal
350
F
100
AcDbDictionaryWithDefault
340
F
  0
DICTIONARY
  5
17
102
{ACAD_REACTORS
330
C
102
}
100
AcDbDictionary
280
0
281
1
  3
Standard
350
18
  0
DICTIONARY
  5
19
102
{ACAD_REACTORS
330
C
102
}
100
AcDbDictionary
281
1
  0
DICTIONARY
  5
1A
102
{ACAD_REACTORS
330
C
102
}
100
AcDbDictionary
281
1
  3
Model
350
4DD
  3
Layout1
350
4DE
  0
ACDBPLACEHOLDER
  5
F
102
{ACAD_REACTORS
330
E
102
}
  0
MLINESTYLE
  5
18
102
{ACAD_REACTORS
330
17
102
}
100
AcDbMlineStyle
  2
STANDARD
 70
0
  3

 62
256
 51
90.0
 52
90.0
 71
2
 49
0.5
 62
256
  6
BYLAYER
 49
-0.5
 62
256
  6
BYLAYER
  0
LAYOUT
  5
4DD
102
{ACAD_REACTORS
330
1A
102
}
100
AcDbPlotSettings
  1

  2
none_device
  4
ANSI_C_(22.00_x_17.00_Inches)
  6

 40
0.0
 41
0.0
 42
0.0
 43
0.0
 44
558.8
 45
431.8
 46
0.0
 47
0.0
 48
0.0
 49
0.0
140
0.0
141
0.0
142
1.0
143
1.0
 70
1024
 72
0
 73
0
 74
0
  7

 75
0
147
1.0
148
0.0
149
0.0
100
AcDbLayout
  1
Model
 70
0
 71
0
 10
0.0
 20
0.0
 11
22.0
 21
17.0
 12
0.0
 22
0.0
 32
0.0
 14
0.0
 24
0.0
 34
0.0
 15
0.0
 25
0.0
 35
0.0
146
0.0
 13
0.0
 23
0.0
 33
0.0
 16
1.0
 26
0.0
 36
0.0
 17
0.0
 27
1.0
 37
0.0
 76
0
330
202
345
0
346
0
  0
LAYOUT
  5
4DE
102
{ACAD_REACTORS
330
1A
102
}
100
AcDbPlotSettings
  1

  2
none_device
  4
ANSI_C_(22.00_x_17.00_Inches)
  6

 40
0.0
 41
0.0
 42
0.0
 43
0.0
 44
558.8
 45
431.8
 46
0.0
 47
0.0
 48
0.0
 49
0.0
140
0.0
141
0.0
142
1.0
143
1.0
 70
0
 72
0
 73
0
 74
0
  7

 75
0
147
1.0
148
0.0
149
0.0
100
AcDbLayout
  1
Layout1
 70
0
 71
1
 10
0.0
 20
0.0
 11
22.0
 21
17.0
 12
0.0
 22
0.0
 32
0.0
 14
0.0
 24
0.0
 34
0.0
 15
0.0
 25
0.0
 35
0.0
146
0.0
 13
0.0
 23
0.0
 33
0.0
 16
1.0
 26
0.0
 36
0.0
 17
0.0
 27
1.0
 37
0.0
 76
0
330
203
345
0
346
0
  0
ENDSEC
  0
EOF
