999
DXF file: E:\BT Custom\CADOUTPUT\_TOP.dxf
999
Pro/ENGINEER 2018400 by Parametric Technology Corporation
  0
SECTION
  2
HEADER
  9
$ACADVER
  1
AC1018
  9
$DWGCODEPAGE
  3
ANSI_1252
  9
$EXTMAX
 10
22.0
 20
17.0
 30
0.0
  9
$EXTMIN
 10
0.0
 20
0.0
 30
0.0
  9
$LIMMIN
 10
0.0
 20
0.0
  9
$LIMMAX
 10
22.0
 20
17.0
  9
$VIEWCTR
 10
11.0
 20
8.5
  9
$VIEWSIZE
 40
17.0
  9
$CLAYER
  8
0
  9
$LTSCALE
 40
1.21
  9
$CELTYPE
  6
BYLAYER
  9
$DIMSCALE
 40
1.0
  9
$DIMASZ
 40
0.1
  9
$DIMEXO
 40
0.0625
  9
$DIMDLI
 40
0.836
  9
$DIMEXE
 40
0.125
  9
$DIMCEN
 40
0.198
  9
$DIMLFAC
 40
1.0
  9
$DIMBLK
  1
_FILLED
  9
$DIMALT
 70
1
  9
$DIMALTD
 70
2
  9
$DIMALTTD
 70
2
  9
$DIMALTF
 40
25.4
  9
$DIMTXT
 40
0.08
  9
$DIMTOL
 70
1
  9
$DIMLIM
 70
0
  9
$DIMTFAC
 40
1.0
  9
$DIMTP
 40
0.001
  9
$DIMTM
 40
0.001
  9
$DIMGAP
 40
0.09
  9
$DIMDSEP
 70
46
  9
$AUNITS
 70
0
  9
$PDMODE
 70
3
  9
$PDSIZE
 40
0.06
  9
$HANDSEED
  5
3A7
  9
$TILEMODE
 70
1
  9
$MEASUREMENT
 70
0
  9
$INSUNITS
 70
1
  0
ENDSEC
  0
SECTION
  2
CLASSES
  0
CLASS
  1
ACDBDICTIONARYWDFLT
  2
AcDbDictionaryWithDefault
  3
AutoCAD 2000
 90
0
 91
1
280
0
281
0
  0
CLASS
  1
ACDBPLACEHOLDER
  2
AcDbPlaceHolder
  3
AutoCAD 2000
 90
0
 91
1
280
0
281
0
  0
CLASS
  1
LAYOUT
  2
AcDbLayout
  3
AutoCAD 2000
 90
0
 91
0
280
0
281
0
  0
ENDSEC
  0
SECTION
  2
TABLES
  0
TABLE
  2
VPORT
  5
8
100
AcDbSymbolTable
 70
2
  0
VPORT
  5
1F4
100
AcDbSymbolTableRecord
100
AcDbViewportTableRecord
  2
*ACTIVE
 70
0
 10
0.0
 20
0.0
 11
1.0
 21
1.0
 12
11.0
 22
8.5
 13
0.0
 23
0.0
 14
1.0
 24
1.0
 15
0.0
 25
0.0
 16
0.0
 26
0.0
 36
1.0
 17
0.0
 27
0.0
 37
0.0
 40
17.0
 41
1.2941176471
 42
50.0
 43
0.0
 44
0.0
 50
0.0
 51
0.0
 71
0
 72
100
 73
1
 74
1
 75
0
 76
0
 77
0
 78
0
  0
ENDTAB
  0
TABLE
  2
LTYPE
  5
5
100
AcDbSymbolTable
 70
6
  0
LTYPE
  5
14
100
AcDbSymbolTableRecord
100
AcDbLinetypeTableRecord
  2
BYBLOCK
 70
0
  3

 72
65
 73
0
 40
0.0
  0
LTYPE
  5
15
100
AcDbSymbolTableRecord
100
AcDbLinetypeTableRecord
  2
BYLAYER
 70
0
  3

 72
65
 73
0
 40
0.0
  0
LTYPE
  5
16
100
AcDbSymbolTableRecord
100
AcDbLinetypeTableRecord
  2
CONTINUOUS
 70
64
  3
Solid line
 72
65
 73
0
 40
0.0
  0
LTYPE
  5
1F5
100
AcDbSymbolTableRecord
100
AcDbLinetypeTableRecord
  2
CENTER
 70
64
  3
____ _ ____ _ ____ _ ____ _ ____ _ ____ _ ____
 72
65
 73
4
 40
0.6
 49
0.375
 74
0
 49
-0.075
 74
0
 49
0.075
 74
0
 49
-0.075
 74
0
  0
LTYPE
  5
1F6
100
AcDbSymbolTableRecord
100
AcDbLinetypeTableRecord
  2
HIDDEN
 70
64
  3
- - - - - - - - - - - - - - - - - - - -
 72
65
 73
2
 40
0.2
 49
0.1
 74
0
 49
-0.1
 74
0
  0
LTYPE
  5
1F7
100
AcDbSymbolTableRecord
100
AcDbLinetypeTableRecord
  2
PHANTOM
 70
64
  3
_____ _ _ _____ _ _ _____ _ _ _____
 72
65
 73
6
 40
0.8
 49
0.45
 74
0
 49
-0.05
 74
0
 49
0.1
 74
0
 49
-0.05
 74
0
 49
0.1
 74
0
 49
-0.05
 74
0
  0
LTYPE
  5
1F8
100
AcDbSymbolTableRecord
100
AcDbLinetypeTableRecord
  2
DOT
 70
64
  3
. . . . . . . . . . . . . . . . . . . .
 72
65
 73
2
 40
0.2
 49
0.1
 74
0
 49
-0.1
 74
0
  0
LTYPE
  5
1F9
100
AcDbSymbolTableRecord
100
AcDbLinetypeTableRecord
  2
DASHED
 70
64
  3
- - - - - - - - - - - - - - - - - - - -
 72
65
 73
2
 40
0.2
 49
0.1
 74
0
 49
-0.1
 74
0
  0
ENDTAB
  0
TABLE
  2
LAYER
  5
2
100
AcDbSymbolTable
 70
36
  0
LAYER
  5
10
100
AcDbSymbolTableRecord
100
AcDbLayerTableRecord
  2
0
 70
0
 62
7
  6
CONTINUOUS
370
-3
390
F
  0
LAYER
  5
1FA
100
AcDbSymbolTableRecord
100
AcDbLayerTableRecord
  2
DEFAULT_1
 70
0
 62
7
  6
CENTER
370
-3
390
F
  0
LAYER
  5
1FB
100
AcDbSymbolTableRecord
100
AcDbLayerTableRecord
  2
DEFAULT_2
 70
0
 62
8
  6
HIDDEN
370
-3
390
F
  0
LAYER
  5
1FC
100
AcDbSymbolTableRecord
100
AcDbLayerTableRecord
  2
DEFAULT_3
 70
0
 62
7
  6
PHANTOM
370
-3
390
F
  0
LAYER
  5
1FD
100
AcDbSymbolTableRecord
100
AcDbLayerTableRecord
  2
ALL_FEATURES
 70
0
 62
7
  6
CONTINUOUS
370
-3
390
F
  0
LAYER
  5
1FE
100
AcDbSymbolTableRecord
100
AcDbLayerTableRecord
  2
AXES_FEATURES
 70
0
 62
7
  6
CONTINUOUS
370
-3
390
F
  0
LAYER
  5
1FF
100
AcDbSymbolTableRecord
100
AcDbLayerTableRecord
  2
DEFAULT_COORDINATE_SYSTEM
 70
0
 62
7
  6
CONTINUOUS
370
-3
390
F
  0
LAYER
  5
200
100
AcDbSymbolTableRecord
100
AcDbLayerTableRecord
  2
DEFAULT_DATUM_AXES
 70
0
 62
7
  6
CONTINUOUS
370
-3
390
F
  0
LAYER
  5
201
100
AcDbSymbolTableRecord
100
AcDbLayerTableRecord
  2
DEFAULT_DATUM_PLANES
 70
0
 62
7
  6
CONTINUOUS
370
-3
390
F
  0
LAYER
  5
202
100
AcDbSymbolTableRecord
100
AcDbLayerTableRecord
  2
DIMENSIONS
 70
0
 62
7
  6
CONTINUOUS
370
-3
390
F
  0
ENDTAB
  0
TABLE
  2
STYLE
  5
3
100
AcDbSymbolTable
 70
1
  0
STYLE
  5
11
100
AcDbSymbolTableRecord
100
AcDbTextStyleTableRecord
  2
STANDARD
 70
0
 40
0.0
 41
0.8
 50
0.0
 71
0
 42
0.2
  3
txt
  4

  0
STYLE
  5
203
100
AcDbSymbolTableRecord
100
AcDbTextStyleTableRecord
  2
TEXTSTYLE_1
 70
0
 40
0.0
 41
0.8
 50
0.0
 71
0
 42
0.2
  3
gdt
  4

  0
ENDTAB
  0
TABLE
  2
VIEW
  5
6
100
AcDbSymbolTable
 70
0
  0
ENDTAB
  0
TABLE
  2
UCS
  5
7
100
AcDbSymbolTable
 70
0
  0
ENDTAB
  0
TABLE
  2
APPID
  5
9
100
AcDbSymbolTable
 70
1
  0
APPID
  5
204
100
AcDbSymbolTableRecord
100
AcDbRegAppTableRecord
  2
ACAD
 70
0
  0
ENDTAB
  0
TABLE
  2
BLOCK_RECORD
  5
1
100
AcDbSymbolTable
 70
0
  0
BLOCK_RECORD
  5
205
100
AcDbSymbolTableRecord
100
AcDbBlockTableRecord
  2
*Model_Space
  0
BLOCK_RECORD
  5
206
100
AcDbSymbolTableRecord
100
AcDbBlockTableRecord
  2
*Paper_Space
  0
BLOCK_RECORD
  5
207
100
AcDbSymbolTableRecord
100
AcDbBlockTableRecord
  2
_FILLED
  0
ENDTAB
  0
TABLE
  2
DIMSTYLE
  5
A
100
AcDbSymbolTable
 70
1
100
AcDbDimStyleTable
 71
0
  0
DIMSTYLE
105
208
100
AcDbSymbolTableRecord
100
AcDbDimStyleTableRecord
  2
STANDARD
 70
0
  3

  4

 40
1.0
 41
0.1
 42
0.0625
 43
0.38
 44
0.125
 45
0.0
 46
0.0
 47
0.001
 48
0.001
140
0.08
141
0.09
142
0.0
143
25.4
144
1.0
145
0.0
146
1.0
147
0.09
 71
1.0
 72
0.0
 73
1
 74
1
 75
0
 76
0
 77
0
 78
4
 79
1
170
1
171
2
172
0
173
0
174
0
175
0
176
0
177
0
178
0
270
2
179
3
271
3
272
3
273
2
274
2
275
0
280
0
281
0
282
0
283
1
284
4
285
0
286
0
287
3
288
0
340
11
278
46
341
207
342
207
343
207
344
207
  0
ENDTAB
  0
ENDSEC
  0
SECTION
  2
BLOCKS
  0
BLOCK
  5
20
100
AcDbEntity
  8
0
100
AcDbBlockBegin
  2
*Model_Space
 70
0
 10
0.0
 20
0.0
 30
0.0
  3
*Model_Space
  1

  0
ENDBLK
  5
21
100
AcDbEntity
  8
0
100
AcDbBlockEnd
  0
BLOCK
  5
1C
100
AcDbEntity
  8
0
100
AcDbBlockBegin
  2
*Paper_Space
 70
0
 10
0.0
 20
0.0
 30
0.0
  3
*Paper_Space
  1

  0
ENDBLK
  5
1D
100
AcDbEntity
  8
0
100
AcDbBlockEnd
  0
BLOCK
  5
209
100
AcDbEntity
  8
0
100
AcDbBlockBegin
  2
_FILLED
 70
64
 10
0.0
 20
0.0
  3
_FILLED
  1

  0
SOLID
  5
20A
100
AcDbEntity
  8
0
  6
BYBLOCK
 62
0
100
AcDbTrace
 10
0.0
 20
0.0
 11
-1.0
 21
0.2
 12
-1.0
 22
-0.2
 13
-1.0
 23
-0.2
  0
ENDBLK
  5
20B
100
AcDbEntity
  8
0
  6
BYBLOCK
 62
0
100
AcDbBlockEnd
  0
ENDSEC
  0
SECTION
  2
ENTITIES
  0
LINE
  5
20C
100
AcDbEntity
  8
0
100
AcDbLine
 62
7
  6
CONTINUOUS
 10
7.7973183383
 20
11.4303077147
 11
7.7973183383
 21
11.5697709751
  0
LINE
  5
20D
100
AcDbEntity
  8
0
100
AcDbLine
 62
7
  6
CONTINUOUS
 10
10.1723183383
 20
10.0567709751
 11
10.0973183383
 21
9.9817709751
  0
LINE
  5
20E
100
AcDbEntity
  8
0
100
AcDbLine
 62
7
  6
CONTINUOUS
 10
9.0473183383
 20
5.4293944618
 11
9.0473183383
 21
4.8325377656
  0
LINE
  5
20F
100
AcDbEntity
  8
0
100
AcDbLine
 62
7
  6
CONTINUOUS
 10
12.2973183383
 20
11.1067709751
 11
12.2473183383
 21
11.0567709751
  0
LINE
  5
210
100
AcDbEntity
  8
0
100
AcDbLine
 62
7
  6
CONTINUOUS
 10
9.7973183383
 20
11.2567709751
 11
9.7973183383
 21
11.1067709751
  0
LINE
  5
211
100
AcDbEntity
  8
0
100
AcDbLine
 62
7
  6
CONTINUOUS
 10
9.7973369228
 20
10.8567709751
 11
9.7973369228
 21
10.7817709751
  0
LINE
  5
212
100
AcDbEntity
  8
0
100
AcDbLine
 62
7
  6
CONTINUOUS
 10
9.797860495
 20
10.8567709751
 11
9.797860495
 21
10.7817709751
  0
LINE
  5
213
100
AcDbEntity
  8
0
100
AcDbLine
 62
7
  6
CONTINUOUS
 10
9.7983362604
 20
10.8567709751
 11
9.7983362604
 21
10.7817709751
  0
LINE
  5
214
100
AcDbEntity
  8
0
100
AcDbLine
 62
7
  6
CONTINUOUS
 10
9.7999063391
 20
10.8567709751
 11
9.7999063391
 21
10.7817709751
  0
LINE
  5
215
100
AcDbEntity
  8
0
100
AcDbLine
 62
7
  6
CONTINUOUS
 10
9.8008572903
 20
10.8567709751
 11
9.8008572903
 21
10.7817709751
  0
LINE
  5
216
100
AcDbEntity
  8
0
100
AcDbLine
 62
7
  6
CONTINUOUS
 10
9.8034719626
 20
10.8567709751
 11
9.8034719626
 21
10.7817709751
  0
LINE
  5
217
100
AcDbEntity
  8
0
100
AcDbLine
 62
7
  6
CONTINUOUS
 10
9.8048969409
 20
10.8567709751
 11
9.8048969409
 21
10.7817709751
  0
LINE
  5
218
100
AcDbEntity
  8
0
100
AcDbLine
 62
7
  6
CONTINUOUS
 10
9.8085530213
 20
10.8567709751
 11
9.8085530213
 21
10.7817709751
  0
LINE
  5
219
100
AcDbEntity
  8
0
100
AcDbLine
 62
7
  6
CONTINUOUS
 10
9.8104502907
 20
10.8567709751
 11
9.8104502907
 21
10.7817709751
  0
LINE
  5
21A
100
AcDbEntity
  8
0
100
AcDbLine
 62
7
  6
CONTINUOUS
 10
9.8151433247
 20
10.8567709751
 11
9.8151433247
 21
10.7817709751
  0
LINE
  5
21B
100
AcDbEntity
  8
0
100
AcDbLine
 62
7
  6
CONTINUOUS
 10
9.8175105737
 20
10.8567709751
 11
9.8175105737
 21
10.7817709751
  0
LINE
  5
21C
100
AcDbEntity
  8
0
100
AcDbLine
 62
7
  6
CONTINUOUS
 10
9.8232348435
 20
10.8567709751
 11
9.8232348435
 21
10.7817709751
  0
LINE
  5
21D
100
AcDbEntity
  8
0
100
AcDbLine
 62
7
  6
CONTINUOUS
 10
9.8260691879
 20
10.8567709751
 11
9.8260691879
 21
10.7817709751
  0
LINE
  5
21E
100
AcDbEntity
  8
0
100
AcDbLine
 62
7
  6
CONTINUOUS
 10
9.8328177196
 20
10.8567709751
 11
9.8328177196
 21
10.7817709751
  0
LINE
  5
21F
100
AcDbEntity
  8
0
100
AcDbLine
 62
7
  6
CONTINUOUS
 10
9.8361157062
 20
10.8567709751
 11
9.8361157062
 21
10.7817709751
  0
LINE
  5
220
100
AcDbEntity
  8
0
100
AcDbLine
 62
7
  6
CONTINUOUS
 10
9.8438802776
 20
10.8567709751
 11
9.8438802776
 21
10.7817709751
  0
LINE
  5
221
100
AcDbEntity
  8
0
100
AcDbLine
 62
7
  6
CONTINUOUS
 10
9.8473183383
 20
11.0567709751
 11
9.8473183383
 21
10.8567709751
  0
LINE
  5
222
100
AcDbEntity
  8
0
100
AcDbLine
 62
7
  6
CONTINUOUS
 10
9.8476378883
 20
10.8567709751
 11
9.8476378883
 21
10.7817709751
  0
LINE
  5
223
100
AcDbEntity
  8
0
100
AcDbLine
 62
7
  6
CONTINUOUS
 10
9.8564090394
 20
10.8567709751
 11
9.8564090394
 21
10.7817709751
  0
LINE
  5
224
100
AcDbEntity
  8
0
100
AcDbLine
 62
7
  6
CONTINUOUS
 10
9.8573183383
 20
11.5697709751
 11
9.8573183383
 21
11.3375977279
  0
LINE
  5
225
100
AcDbEntity
  8
0
100
AcDbLine
 62
7
  6
CONTINUOUS
 10
9.8606216962
 20
10.8567709751
 11
9.8606216962
 21
10.7817709751
  0
LINE
  5
226
100
AcDbEntity
  8
0
100
AcDbLine
 62
7
  6
CONTINUOUS
 10
9.8703887408
 20
10.8567709751
 11
9.8703887408
 21
10.7817709751
  0
LINE
  5
227
100
AcDbEntity
  8
0
100
AcDbLine
 62
7
  6
CONTINUOUS
 10
9.8750513112
 20
10.8567709751
 11
9.8750513112
 21
10.7817709751
  0
LINE
  5
228
100
AcDbEntity
  8
0
100
AcDbLine
 62
7
  6
CONTINUOUS
 10
9.8858023497
 20
10.8567709751
 11
9.8858023497
 21
10.7817709751
  0
LINE
  5
229
100
AcDbEntity
  8
0
100
AcDbLine
 62
7
  6
CONTINUOUS
 10
9.890909153
 20
10.8567709751
 11
9.890909153
 21
10.7817709751
  0
LINE
  5
22A
100
AcDbEntity
  8
0
100
AcDbLine
 62
7
  6
CONTINUOUS
 10
9.9026310868
 20
10.8567709751
 11
9.9026310868
 21
10.7817709751
  0
LINE
  5
22B
100
AcDbEntity
  8
0
100
AcDbLine
 62
7
  6
CONTINUOUS
 10
9.9081759012
 20
10.8567709751
 11
9.9081759012
 21
10.7817709751
  0
LINE
  5
22C
100
AcDbEntity
  8
0
100
AcDbLine
 62
7
  6
CONTINUOUS
 10
9.9208544491
 20
10.8567709751
 11
9.9208544491
 21
10.7817709751
  0
LINE
  5
22D
100
AcDbEntity
  8
0
100
AcDbLine
 62
7
  6
CONTINUOUS
 10
9.926830519
 20
10.8567709751
 11
9.926830519
 21
10.7817709751
  0
LINE
  5
22E
100
AcDbEntity
  8
0
100
AcDbLine
 62
7
  6
CONTINUOUS
 10
9.940450234
 20
10.8567709751
 11
9.940450234
 21
10.7817709751
  0
LINE
  5
22F
100
AcDbEntity
  8
0
100
AcDbLine
 62
7
  6
CONTINUOUS
 10
9.9468502787
 20
10.8567709751
 11
9.9468502787
 21
10.7817709751
  0
LINE
  5
230
100
AcDbEntity
  8
0
100
AcDbLine
 62
7
  6
CONTINUOUS
 10
9.9613945673
 20
10.8567709751
 11
9.9613945673
 21
10.7817709751
  0
LINE
  5
231
100
AcDbEntity
  8
0
100
AcDbLine
 62
7
  6
CONTINUOUS
 10
9.9682107891
 20
10.8567709751
 11
9.9682107891
 21
10.7817709751
  0
LINE
  5
232
100
AcDbEntity
  8
0
100
AcDbLine
 62
7
  6
CONTINUOUS
 10
9.9836619314
 20
10.8567709751
 11
9.9836619314
 21
10.7817709751
  0
LINE
  5
233
100
AcDbEntity
  8
0
100
AcDbLine
 62
7
  6
CONTINUOUS
 10
9.9908860259
 20
10.8567709751
 11
9.9908860259
 21
10.7817709751
  0
LINE
  5
234
100
AcDbEntity
  8
0
100
AcDbLine
 62
7
  6
CONTINUOUS
 10
10.0072251969
 20
10.8567709751
 11
10.0072251969
 21
10.7817709751
  0
LINE
  5
235
100
AcDbEntity
  8
0
100
AcDbLine
 62
7
  6
CONTINUOUS
 10
10.0148483627
 20
10.8567709751
 11
10.0148483627
 21
10.7817709751
  0
LINE
  5
236
100
AcDbEntity
  8
0
100
AcDbLine
 62
7
  6
CONTINUOUS
 10
10.0223183383
 20
9.8817709751
 11
10.0223183383
 21
9.6817709751
  0
LINE
  5
237
100
AcDbEntity
  8
0
100
AcDbLine
 62
7
  6
CONTINUOUS
 10
10.0320556558
 20
10.8567709751
 11
10.0320556558
 21
10.7817709751
  0
LINE
  5
238
100
AcDbEntity
  8
0
100
AcDbLine
 62
7
  6
CONTINUOUS
 10
10.0400686052
 20
10.8567709751
 11
10.0400686052
 21
10.7817709751
  0
LINE
  5
239
100
AcDbEntity
  8
0
100
AcDbLine
 62
7
  6
CONTINUOUS
 10
10.1892535856
 20
7.0771822534
 11
10.2098183383
 21
6.7697709751
  0
LINE
  5
23A
100
AcDbEntity
  8
0
100
AcDbLine
 62
7
  6
CONTINUOUS
 10
10.2112413773
 20
6.7353603022
 11
10.2098183383
 21
6.7697709751
  0
LINE
  5
23B
100
AcDbEntity
  8
0
100
AcDbLine
 62
9
  6
CONTINUOUS
 10
10.2723703406
 20
6.7697709751
 11
10.272266381
 21
6.7723387946
  0
LINE
  5
23C
100
AcDbEntity
  8
0
100
AcDbLine
 62
7
  6
CONTINUOUS
 10
10.0581230559
 20
10.8567709751
 11
10.0581230559
 21
10.7817709751
  0
LINE
  5
23D
100
AcDbEntity
  8
0
100
AcDbLine
 62
7
  6
CONTINUOUS
 10
10.0665160263
 20
10.8567709751
 11
10.0665160263
 21
10.7817709751
  0
LINE
  5
23E
100
AcDbEntity
  8
0
100
AcDbLine
 62
7
  6
CONTINUOUS
 10
10.085395638
 20
10.8567709751
 11
10.085395638
 21
10.7817709751
  0
LINE
  5
23F
100
AcDbEntity
  8
0
100
AcDbLine
 62
7
  6
CONTINUOUS
 10
10.0941584039
 20
10.8567709751
 11
10.0941584039
 21
10.7817709751
  0
LINE
  5
240
100
AcDbEntity
  8
0
100
AcDbLine
 62
7
  6
CONTINUOUS
 10
10.0973183383
 20
9.9817709751
 11
10.0973183383
 21
9.8817709751
  0
LINE
  5
241
100
AcDbEntity
  8
0
100
AcDbLine
 62
7
  6
CONTINUOUS
 10
10.0973183383
 20
9.6817709751
 11
10.0973183383
 21
9.6317709751
  0
LINE
  5
242
100
AcDbEntity
  8
0
100
AcDbLine
 62
7
  6
CONTINUOUS
 10
10.1138401747
 20
10.8567709751
 11
10.1138401747
 21
10.7817709751
  0
LINE
  5
243
100
AcDbEntity
  8
0
100
AcDbLine
 62
7
  6
CONTINUOUS
 10
10.1229620601
 20
10.8567709751
 11
10.1229620601
 21
10.7817709751
  0
LINE
  5
244
100
AcDbEntity
  8
0
100
AcDbLine
 62
7
  6
CONTINUOUS
 10
10.1434220109
 20
10.8567709751
 11
10.1434220109
 21
10.7817709751
  0
LINE
  5
245
100
AcDbEntity
  8
0
100
AcDbLine
 62
7
  6
CONTINUOUS
 10
10.152891902
 20
10.8567709751
 11
10.152891902
 21
10.7817709751
  0
LINE
  5
246
100
AcDbEntity
  8
0
100
AcDbLine
 62
7
  6
CONTINUOUS
 10
10.1723183383
 20
10.5817709751
 11
10.1723183383
 21
10.0567709751
  0
LINE
  5
247
100
AcDbEntity
  8
0
100
AcDbLine
 62
7
  6
CONTINUOUS
 10
10.1741051054
 20
10.8567709751
 11
10.1741051054
 21
10.7817709751
  0
LINE
  5
248
100
AcDbEntity
  8
0
100
AcDbLine
 62
7
  6
CONTINUOUS
 10
10.1839114647
 20
10.8567709751
 11
10.1839114647
 21
10.7817709751
  0
LINE
  5
249
100
AcDbEntity
  8
0
100
AcDbLine
 62
7
  6
CONTINUOUS
 10
10.2051117457
 20
10.7817709751
 11
10.2051117457
 21
10.8567709751
  0
LINE
  5
24A
100
AcDbEntity
  8
0
100
AcDbLine
 62
7
  6
CONTINUOUS
 10
10.2058520758
 20
10.8567709751
 11
10.2058520758
 21
10.7817709751
  0
LINE
  5
24B
100
AcDbEntity
  8
0
100
AcDbLine
 62
7
  6
CONTINUOUS
 10
10.2159829558
 20
10.8567709751
 11
10.2159829558
 21
10.7817709751
  0
LINE
  5
24C
100
AcDbEntity
  8
0
100
AcDbLine
 62
7
  6
CONTINUOUS
 10
10.2371444849
 20
10.7817709751
 11
10.2371444849
 21
10.8567709751
  0
LINE
  5
24D
100
AcDbEntity
  8
0
100
AcDbLine
 62
7
  6
CONTINUOUS
 10
10.2386242432
 20
10.8567709751
 11
10.2386242432
 21
10.7817709751
  0
LINE
  5
24E
100
AcDbEntity
  8
0
100
AcDbLine
 62
7
  6
CONTINUOUS
 10
10.2490673009
 20
10.8567709751
 11
10.2490673009
 21
10.7817709751
  0
LINE
  5
24F
100
AcDbEntity
  8
0
100
AcDbLine
 62
7
  6
CONTINUOUS
 10
10.2701642962
 20
10.7817709751
 11
10.2701642962
 21
10.8567709751
  0
LINE
  5
250
100
AcDbEntity
  8
0
100
AcDbLine
 62
7
  6
CONTINUOUS
 10
10.2723816798
 20
10.8567709751
 11
10.2723816798
 21
10.7817709751
  0
LINE
  5
251
100
AcDbEntity
  8
0
100
AcDbLine
 62
7
  6
CONTINUOUS
 10
10.283124192
 20
10.8567709751
 11
10.283124192
 21
10.7817709751
  0
LINE
  5
252
100
AcDbEntity
  8
0
100
AcDbLine
 62
7
  6
CONTINUOUS
 10
10.2973183383
 20
9.5317709751
 11
10.2973183383
 21
9.4817709751
  0
LINE
  5
253
100
AcDbEntity
  8
0
100
AcDbLine
 62
7
  6
CONTINUOUS
 10
10.30413095
 20
10.7817709751
 11
10.30413095
 21
10.8567709751
  0
LINE
  5
254
100
AcDbEntity
  8
0
100
AcDbLine
 62
7
  6
CONTINUOUS
 10
10.3070832573
 20
10.8567709751
 11
10.3070832573
 21
10.7817709751
  0
LINE
  5
255
100
AcDbEntity
  8
0
100
AcDbLine
 62
7
  6
CONTINUOUS
 10
10.3181121359
 20
10.8567709751
 11
10.3181121359
 21
10.7817709751
  0
LINE
  5
256
100
AcDbEntity
  8
0
100
AcDbLine
 62
7
  6
CONTINUOUS
 10
10.3390030631
 20
10.7817709751
 11
10.3390030631
 21
10.8567709751
  0
LINE
  5
257
100
AcDbEntity
  8
0
100
AcDbLine
 62
7
  6
CONTINUOUS
 10
10.3426866972
 20
10.8567709751
 11
10.3426866972
 21
10.7817709751
  0
LINE
  5
258
100
AcDbEntity
  8
0
100
AcDbLine
 62
7
  6
CONTINUOUS
 10
10.3539885053
 20
10.8567709751
 11
10.3539885053
 21
10.7817709751
  0
LINE
  5
259
100
AcDbEntity
  8
0
100
AcDbLine
 62
7
  6
CONTINUOUS
 10
10.3747381493
 20
10.7817709751
 11
10.3747381493
 21
10.8567709751
  0
LINE
  5
25A
100
AcDbEntity
  8
0
100
AcDbLine
 62
7
  6
CONTINUOUS
 10
10.3791486223
 20
10.8567709751
 11
10.3791486223
 21
10.7817709751
  0
LINE
  5
25B
100
AcDbEntity
  8
0
100
AcDbLine
 62
7
  6
CONTINUOUS
 10
10.3907095902
 20
10.8567709751
 11
10.3907095902
 21
10.7817709751
  0
LINE
  5
25C
100
AcDbEntity
  8
0
100
AcDbLine
 62
9
  6
CONTINUOUS
 10
10.2098183417
 20
6.7697709753
 11
10.272266381
 21
6.7723387946
  0
LINE
  5
25D
100
AcDbEntity
  8
0
100
AcDbLine
 62
9
  6
CONTINUOUS
 10
10.2099223171
 20
6.7672225695
 11
10.2723703406
 21
6.7697709751
  0
LINE
  5
25E
100
AcDbEntity
  8
0
100
AcDbLine
 62
7
  6
CONTINUOUS
 10
11.0473305528
 20
6.4967721482
 11
11.0473493819
 21
6.4967721489
  0
LINE
  5
25F
100
AcDbEntity
  8
0
100
AcDbLine
 62
9
  6
CONTINUOUS
 10
11.822266336
 20
6.7697709751
 11
11.7709714092
 21
6.7697709751
  0
LINE
  5
260
100
AcDbEntity
  8
0
100
AcDbLine
 62
9
  6
CONTINUOUS
 10
10.3244546809
 20
6.7697709751
 11
10.2723703406
 21
6.7697709751
  0
LINE
  5
261
100
AcDbEntity
  8
0
100
AcDbLine
 62
9
  6
CONTINUOUS
 10
11.822266336
 20
6.7697709751
 11
11.8847143584
 21
6.7672225696
  0
LINE
  5
262
100
AcDbEntity
  8
0
100
AcDbLine
 62
9
  6
CONTINUOUS
 10
11.8223702955
 20
6.7723387946
 11
11.8848183349
 21
6.7697709753
  0
LINE
  5
263
100
AcDbEntity
  8
0
100
AcDbLine
 62
7
  6
CONTINUOUS
 10
9.7437492552
 20
11.2567709751
 11
9.8004024068
 21
10.857131318
  0
LWPOLYLINE
  5
264
100
AcDbEntity
  8
0
100
AcDbPolyline
 62
7
  6
CONTINUOUS
 90
11
 70
0
 10
9.8104729336
 20
10.7820263037
 10
9.861785097
 20
10.3961907661
 10
9.9154822423
 20
9.9657007414
 10
9.9636112648
 20
9.5541959787
 10
10.0068469391
 20
9.15972455
 10
10.0457721867
 20
8.7804138488
 10
10.080832819
 20
8.4150841147
 10
10.1123956153
 20
8.0629118437
 10
10.1407956383
 20
7.7230320033
 10
10.1663276777
 20
7.3946817054
 10
10.1892535856
 20
7.0771822534
  0
LINE
  5
265
100
AcDbEntity
  8
0
100
AcDbLine
 62
7
  6
CONTINUOUS
 10
10.4112926709
 20
10.7817709751
 11
10.4112926709
 21
10.8567709751
  0
LINE
  5
266
100
AcDbEntity
  8
0
100
AcDbLine
 62
7
  6
CONTINUOUS
 10
10.4164246093
 20
10.8567709751
 11
10.4164246093
 21
10.7817709751
  0
LINE
  5
267
100
AcDbEntity
  8
0
100
AcDbLine
 62
7
  6
CONTINUOUS
 10
10.4282306518
 20
10.8567709751
 11
10.4282306518
 21
10.7817709751
  0
LINE
  5
268
100
AcDbEntity
  8
0
100
AcDbLine
 62
7
  6
CONTINUOUS
 10
10.4486220917
 20
10.7817709751
 11
10.4486220917
 21
10.8567709751
  0
LINE
  5
269
100
AcDbEntity
  8
0
100
AcDbLine
 62
7
  6
CONTINUOUS
 10
10.454469243
 20
10.8567709751
 11
10.454469243
 21
10.7817709751
  0
LINE
  5
26A
100
AcDbEntity
  8
0
100
AcDbLine
 62
7
  6
CONTINUOUS
 10
10.4665059764
 20
10.8567709751
 11
10.4665059764
 21
10.7817709751
  0
LINE
  5
26B
100
AcDbEntity
  8
0
100
AcDbLine
 62
7
  6
CONTINUOUS
 10
10.4723183383
 20
6.5833927287
 11
10.4723183383
 21
5.9187123544
  0
LINE
  5
26C
100
AcDbEntity
  8
0
100
AcDbLine
 62
7
  6
CONTINUOUS
 10
10.4866809317
 20
10.7817709751
 11
10.4866809317
 21
10.8567709751
  0
LINE
  5
26D
100
AcDbEntity
  8
0
100
AcDbLine
 62
7
  6
CONTINUOUS
 10
10.4932361721
 20
10.8567709751
 11
10.4932361721
 21
10.7817709751
  0
LINE
  5
26E
100
AcDbEntity
  8
0
100
AcDbLine
 62
7
  6
CONTINUOUS
 10
10.5054889313
 20
10.8567709751
 11
10.5054889313
 21
10.7817709751
  0
LINE
  5
26F
100
AcDbEntity
  8
0
100
AcDbLine
 62
7
  6
CONTINUOUS
 10
10.525422822
 20
10.7817709751
 11
10.525422822
 21
10.8567709751
  0
LINE
  5
270
100
AcDbEntity
  8
0
100
AcDbLine
 62
7
  6
CONTINUOUS
 10
10.5326781649
 20
10.8567709751
 11
10.5326781649
 21
10.7817709751
  0
LINE
  5
271
100
AcDbEntity
  8
0
100
AcDbLine
 62
7
  6
CONTINUOUS
 10
10.5451320219
 20
10.8567709751
 11
10.5451320219
 21
10.7817709751
  0
LINE
  5
272
100
AcDbEntity
  8
0
100
AcDbLine
 62
7
  6
CONTINUOUS
 10
10.5648005617
 20
10.7817709751
 11
10.5648005617
 21
10.8567709751
  0
LINE
  5
273
100
AcDbEntity
  8
0
100
AcDbLine
 62
7
  6
CONTINUOUS
 10
10.5727471675
 20
10.8567709751
 11
10.5727471675
 21
10.7817709751
  0
LINE
  5
274
100
AcDbEntity
  8
0
100
AcDbLine
 62
7
  6
CONTINUOUS
 10
10.5853869492
 20
10.8567709751
 11
10.5853869492
 21
10.7817709751
  0
LINE
  5
275
100
AcDbEntity
  8
0
100
AcDbLine
 62
7
  6
CONTINUOUS
 10
10.5948183383
 20
7.099580679
 11
10.5948183383
 21
6.8718018917
  0
LINE
  5
276
100
AcDbEntity
  8
0
100
AcDbLine
 62
7
  6
CONTINUOUS
 10
10.6047661749
 20
10.7817709751
 11
10.6047661749
 21
10.8567709751
  0
LINE
  5
277
100
AcDbEntity
  8
0
100
AcDbLine
 62
7
  6
CONTINUOUS
 10
10.613394362
 20
10.8567709751
 11
10.613394362
 21
10.7817709751
  0
LINE
  5
278
100
AcDbEntity
  8
0
100
AcDbLine
 62
7
  6
CONTINUOUS
 10
10.6262046688
 20
10.8567709751
 11
10.6262046688
 21
10.7817709751
  0
LINE
  5
279
100
AcDbEntity
  8
0
100
AcDbLine
 62
7
  6
CONTINUOUS
 10
10.6410683383
 20
11.1529138728
 11
10.6410683383
 21
7.3050312398
  0
LINE
  5
27A
100
AcDbEntity
  8
0
100
AcDbLine
 62
7
  6
CONTINUOUS
 10
10.6410683383
 20
7.2229198375
 11
10.6410683383
 21
7.2055226075
  0
LINE
  5
27B
100
AcDbEntity
  8
0
100
AcDbLine
 62
7
  6
CONTINUOUS
 10
10.6410683383
 20
7.1716912649
 11
10.6410683383
 21
7.1558051891
  0
LINE
  5
27C
100
AcDbEntity
  8
0
100
AcDbLine
 62
7
  6
CONTINUOUS
 10
10.6410683383
 20
7.1203914145
 11
10.6410683383
 21
7.1060759891
  0
LINE
  5
27D
100
AcDbEntity
  8
0
100
AcDbLine
 62
7
  6
CONTINUOUS
 10
10.6410685839
 20
7.2745153568
 11
10.6410683383
 21
7.2553113224
  0
LINE
  5
27E
100
AcDbEntity
  8
0
100
AcDbLine
 62
9
  6
CONTINUOUS
 10
10.6410685839
 20
7.2745153568
 11
10.6434889297
 21
7.2755015777
  0
LINE
  5
27F
100
AcDbEntity
  8
0
100
AcDbLine
 62
7
  6
CONTINUOUS
 10
11.1568904109
 20
6.70074893
 11
11.1568904109
 21
6.5613584903
  0
LINE
  5
280
100
AcDbEntity
  8
0
100
AcDbLine
 62
7
  6
CONTINUOUS
 10
11.1770814628
 20
6.187295183
 11
11.1770814628
 21
5.9398078096
  0
LINE
  5
281
100
AcDbEntity
  8
0
100
AcDbLine
 62
7
  6
CONTINUOUS
 10
11.3727462656
 20
6.7888717137
 11
11.3727462656
 21
6.649481274
  0
LINE
  5
282
100
AcDbEntity
  8
0
100
AcDbLine
 62
7
  6
CONTINUOUS
 10
11.4535683383
 20
7.248564301
 11
11.4535683383
 21
7.2304236074
  0
LINE
  5
283
100
AcDbEntity
  8
0
100
AcDbLine
 62
7
  6
CONTINUOUS
 10
11.4535683383
 20
7.1972989
 11
11.4535683383
 21
7.1807444905
  0
LINE
  5
284
100
AcDbEntity
  8
0
100
AcDbLine
 62
7
  6
CONTINUOUS
 10
11.4535683383
 20
7.1459607326
 11
11.4535683383
 21
7.1309424461
  0
LINE
  5
285
100
AcDbEntity
  8
0
100
AcDbLine
 62
7
  6
CONTINUOUS
 10
11.4675552138
 20
6.3058805952
 11
11.4675552138
 21
6.0583932218
  0
LINE
  5
286
100
AcDbEntity
  8
0
100
AcDbLine
 62
7
  6
CONTINUOUS
 10
11.4684320078
 20
10.8567709751
 11
11.4684320078
 21
10.7817709751
  0
LINE
  5
287
100
AcDbEntity
  8
0
100
AcDbLine
 62
7
  6
CONTINUOUS
 10
11.4812423145
 20
10.8567709751
 11
11.4812423145
 21
10.7817709751
  0
LINE
  5
288
100
AcDbEntity
  8
0
100
AcDbLine
 62
7
  6
CONTINUOUS
 10
11.4898705017
 20
10.7817709751
 11
11.4898705017
 21
10.8567709751
  0
LINE
  5
289
100
AcDbEntity
  8
0
100
AcDbLine
 62
7
  6
CONTINUOUS
 10
11.4998183383
 20
7.099580679
 11
11.4998183383
 21
6.8718018917
  0
LINE
  5
28A
100
AcDbEntity
  8
0
100
AcDbLine
 62
7
  6
CONTINUOUS
 10
11.5092497273
 20
10.8567709751
 11
11.5092497273
 21
10.7817709751
  0
LINE
  5
28B
100
AcDbEntity
  8
0
100
AcDbLine
 62
7
  6
CONTINUOUS
 10
11.521889509
 20
10.8567709751
 11
11.521889509
 21
10.7817709751
  0
LINE
  5
28C
100
AcDbEntity
  8
0
100
AcDbLine
 62
7
  6
CONTINUOUS
 10
11.5298361149
 20
10.7817709751
 11
11.5298361149
 21
10.8567709751
  0
LINE
  5
28D
100
AcDbEntity
  8
0
100
AcDbLine
 62
7
  6
CONTINUOUS
 10
11.5495046546
 20
10.8567709751
 11
11.5495046546
 21
10.7817709751
  0
LINE
  5
28E
100
AcDbEntity
  8
0
100
AcDbLine
 62
7
  6
CONTINUOUS
 10
11.5619585116
 20
10.8567709751
 11
11.5619585116
 21
10.7817709751
  0
LINE
  5
28F
100
AcDbEntity
  8
0
100
AcDbLine
 62
7
  6
CONTINUOUS
 10
11.5692138545
 20
10.7817709751
 11
11.5692138545
 21
10.8567709751
  0
LINE
  5
290
100
AcDbEntity
  8
0
100
AcDbLine
 62
7
  6
CONTINUOUS
 10
11.5891477453
 20
10.8567709751
 11
11.5891477453
 21
10.7817709751
  0
LINE
  5
291
100
AcDbEntity
  8
0
100
AcDbLine
 62
7
  6
CONTINUOUS
 10
11.6014005045
 20
10.8567709751
 11
11.6014005045
 21
10.7817709751
  0
LINE
  5
292
100
AcDbEntity
  8
0
100
AcDbLine
 62
7
  6
CONTINUOUS
 10
11.6079557448
 20
10.7817709751
 11
11.6079557448
 21
10.8567709751
  0
LINE
  5
293
100
AcDbEntity
  8
0
100
AcDbLine
 62
7
  6
CONTINUOUS
 10
11.6223183383
 20
6.5833927287
 11
11.6223183383
 21
5.9187123544
  0
LINE
  5
294
100
AcDbEntity
  8
0
100
AcDbLine
 62
7
  6
CONTINUOUS
 10
11.6281307002
 20
10.8567709751
 11
11.6281307002
 21
10.7817709751
  0
LINE
  5
295
100
AcDbEntity
  8
0
100
AcDbLine
 62
7
  6
CONTINUOUS
 10
11.6401674335
 20
10.8567709751
 11
11.6401674335
 21
10.7817709751
  0
LINE
  5
296
100
AcDbEntity
  8
0
100
AcDbLine
 62
7
  6
CONTINUOUS
 10
11.6460145849
 20
10.7817709751
 11
11.6460145849
 21
10.8567709751
  0
LINE
  5
297
100
AcDbEntity
  8
0
100
AcDbLine
 62
7
  6
CONTINUOUS
 10
11.6664060248
 20
10.8567709751
 11
11.6664060248
 21
10.7817709751
  0
LINE
  5
298
100
AcDbEntity
  8
0
100
AcDbLine
 62
7
  6
CONTINUOUS
 10
11.6782120673
 20
10.8567709751
 11
11.6782120673
 21
10.7817709751
  0
LINE
  5
299
100
AcDbEntity
  8
0
100
AcDbLine
 62
7
  6
CONTINUOUS
 10
11.6833440057
 20
10.7817709751
 11
11.6833440057
 21
10.8567709751
  0
LINE
  5
29A
100
AcDbEntity
  8
0
100
AcDbLine
 62
7
  6
CONTINUOUS
 10
11.7039270863
 20
10.8567709751
 11
11.7039270863
 21
10.7817709751
  0
LINE
  5
29B
100
AcDbEntity
  8
0
100
AcDbLine
 62
7
  6
CONTINUOUS
 10
11.7154880543
 20
10.8567709751
 11
11.7154880543
 21
10.7817709751
  0
LINE
  5
29C
100
AcDbEntity
  8
0
100
AcDbLine
 62
7
  6
CONTINUOUS
 10
11.7198985272
 20
10.7817709751
 11
11.7198985272
 21
10.8567709751
  0
LINE
  5
29D
100
AcDbEntity
  8
0
100
AcDbLine
 62
7
  6
CONTINUOUS
 10
11.7406481713
 20
10.8567709751
 11
11.7406481713
 21
10.7817709751
  0
LINE
  5
29E
100
AcDbEntity
  8
0
100
AcDbLine
 62
7
  6
CONTINUOUS
 10
11.7519499793
 20
10.8567709751
 11
11.7519499793
 21
10.7817709751
  0
LINE
  5
29F
100
AcDbEntity
  8
0
100
AcDbLine
 62
7
  6
CONTINUOUS
 10
11.7556336134
 20
10.7817709751
 11
11.7556336134
 21
10.8567709751
  0
LINE
  5
2A0
100
AcDbEntity
  8
0
100
AcDbLine
 62
7
  6
CONTINUOUS
 10
11.7765245406
 20
10.8567709751
 11
11.7765245406
 21
10.7817709751
  0
LINE
  5
2A1
100
AcDbEntity
  8
0
100
AcDbLine
 62
7
  6
CONTINUOUS
 10
11.7875534193
 20
10.8567709751
 11
11.7875534193
 21
10.7817709751
  0
LINE
  5
2A2
100
AcDbEntity
  8
0
100
AcDbLine
 62
7
  6
CONTINUOUS
 10
11.4535683383
 20
11.1529138728
 11
11.4535680927
 21
7.304715385
  0
LINE
  5
2A3
100
AcDbEntity
  8
0
100
AcDbLine
 62
7
  6
CONTINUOUS
 10
11.7905057266
 20
10.7817709751
 11
11.7905057266
 21
10.8567709751
  0
LINE
  5
2A4
100
AcDbEntity
  8
0
100
AcDbLine
 62
7
  6
CONTINUOUS
 10
11.7973183383
 20
9.5317709751
 11
11.7973183383
 21
9.4817709751
  0
LINE
  5
2A5
100
AcDbEntity
  8
0
100
AcDbLine
 62
7
  6
CONTINUOUS
 10
11.8115124846
 20
10.8567709751
 11
11.8115124846
 21
10.7817709751
  0
LINE
  5
2A6
100
AcDbEntity
  8
0
100
AcDbLine
 62
7
  6
CONTINUOUS
 10
11.8222549968
 20
10.8567709751
 11
11.8222549968
 21
10.7817709751
  0
LINE
  5
2A7
100
AcDbEntity
  8
0
100
AcDbLine
 62
7
  6
CONTINUOUS
 10
11.8244723804
 20
10.7817709751
 11
11.8244723804
 21
10.8567709751
  0
LINE
  5
2A8
100
AcDbEntity
  8
0
100
AcDbLine
 62
7
  6
CONTINUOUS
 10
11.8455693756
 20
10.8567709751
 11
11.8455693756
 21
10.7817709751
  0
LINE
  5
2A9
100
AcDbEntity
  8
0
100
AcDbLine
 62
7
  6
CONTINUOUS
 10
11.8560124334
 20
10.8567709751
 11
11.8560124334
 21
10.7817709751
  0
LINE
  5
2AA
100
AcDbEntity
  8
0
100
AcDbLine
 62
7
  6
CONTINUOUS
 10
11.8574921916
 20
10.7817709751
 11
11.8574921916
 21
10.8567709751
  0
LINE
  5
2AB
100
AcDbEntity
  8
0
100
AcDbLine
 62
7
  6
CONTINUOUS
 10
11.8786537208
 20
10.8567709751
 11
11.8786537208
 21
10.7817709751
  0
LINE
  5
2AC
100
AcDbEntity
  8
0
100
AcDbLine
 62
7
  6
CONTINUOUS
 10
11.8887846008
 20
10.8567709751
 11
11.8887846008
 21
10.7817709751
  0
LINE
  5
2AD
100
AcDbEntity
  8
0
100
AcDbLine
 62
7
  6
CONTINUOUS
 10
11.8895249309
 20
10.7817709751
 11
11.8895249309
 21
10.8567709751
  0
LINE
  5
2AE
100
AcDbEntity
  8
0
100
AcDbLine
 62
7
  6
CONTINUOUS
 10
11.9107252118
 20
10.8567709751
 11
11.9107252118
 21
10.7817709751
  0
LINE
  5
2AF
100
AcDbEntity
  8
0
100
AcDbLine
 62
7
  6
CONTINUOUS
 10
11.9205315711
 20
10.8567709751
 11
11.9205315711
 21
10.7817709751
  0
LINE
  5
2B0
100
AcDbEntity
  8
0
100
AcDbLine
 62
7
  6
CONTINUOUS
 10
11.9223183383
 20
10.5817709751
 11
11.9223183383
 21
10.0567709751
  0
LINE
  5
2B1
100
AcDbEntity
  8
0
100
AcDbLine
 62
7
  6
CONTINUOUS
 10
11.9417447746
 20
10.8567709751
 11
11.9417447746
 21
10.7817709751
  0
LINE
  5
2B2
100
AcDbEntity
  8
0
100
AcDbLine
 62
7
  6
CONTINUOUS
 10
11.9512146657
 20
10.8567709751
 11
11.9512146657
 21
10.7817709751
  0
LINE
  5
2B3
100
AcDbEntity
  8
0
100
AcDbLine
 62
7
  6
CONTINUOUS
 10
11.9716746165
 20
10.8567709751
 11
11.9716746165
 21
10.7817709751
  0
LINE
  5
2B4
100
AcDbEntity
  8
0
100
AcDbLine
 62
7
  6
CONTINUOUS
 10
11.9807965018
 20
10.8567709751
 11
11.9807965018
 21
10.7817709751
  0
LINE
  5
2B5
100
AcDbEntity
  8
0
100
AcDbLine
 62
7
  6
CONTINUOUS
 10
11.9973183383
 20
9.9817709751
 11
11.9973183383
 21
9.8817709751
  0
LINE
  5
2B6
100
AcDbEntity
  8
0
100
AcDbLine
 62
7
  6
CONTINUOUS
 10
11.9973183383
 20
9.6817709751
 11
11.9973183383
 21
9.6317709751
  0
LINE
  5
2B7
100
AcDbEntity
  8
0
100
AcDbLine
 62
7
  6
CONTINUOUS
 10
12.0004782727
 20
10.8567709751
 11
12.0004782727
 21
10.7817709751
  0
LINE
  5
2B8
100
AcDbEntity
  8
0
100
AcDbLine
 62
7
  6
CONTINUOUS
 10
12.0092410386
 20
10.8567709751
 11
12.0092410386
 21
10.7817709751
  0
LINE
  5
2B9
100
AcDbEntity
  8
0
100
AcDbLine
 62
7
  6
CONTINUOUS
 10
12.0281206503
 20
10.8567709751
 11
12.0281206503
 21
10.7817709751
  0
LINE
  5
2BA
100
AcDbEntity
  8
0
100
AcDbLine
 62
7
  6
CONTINUOUS
 10
12.0365136207
 20
10.8567709751
 11
12.0365136207
 21
10.7817709751
  0
LINE
  5
2BB
100
AcDbEntity
  8
0
100
AcDbLine
 62
7
  6
CONTINUOUS
 10
12.0545680714
 20
10.8567709751
 11
12.0545680714
 21
10.7817709751
  0
LINE
  5
2BC
100
AcDbEntity
  8
0
100
AcDbLine
 62
7
  6
CONTINUOUS
 10
12.0625810208
 20
10.8567709751
 11
12.0625810208
 21
10.7817709751
  0
LINE
  5
2BD
100
AcDbEntity
  8
0
100
AcDbLine
 62
7
  6
CONTINUOUS
 10
12.0723183383
 20
9.8817709751
 11
12.0723183383
 21
9.6817709751
  0
LINE
  5
2BE
100
AcDbEntity
  8
0
100
AcDbLine
 62
7
  6
CONTINUOUS
 10
12.0797883139
 20
10.8567709751
 11
12.0797883139
 21
10.7817709751
  0
LINE
  5
2BF
100
AcDbEntity
  8
0
100
AcDbLine
 62
7
  6
CONTINUOUS
 10
12.0874114796
 20
10.8567709751
 11
12.0874114796
 21
10.7817709751
  0
LINE
  5
2C0
100
AcDbEntity
  8
0
100
AcDbLine
 62
7
  6
CONTINUOUS
 10
12.1037506507
 20
10.8567709751
 11
12.1037506507
 21
10.7817709751
  0
LINE
  5
2C1
100
AcDbEntity
  8
0
100
AcDbLine
 62
7
  6
CONTINUOUS
 10
12.1109747452
 20
10.8567709751
 11
12.1109747452
 21
10.7817709751
  0
LINE
  5
2C2
100
AcDbEntity
  8
0
100
AcDbLine
 62
7
  6
CONTINUOUS
 10
12.1264258874
 20
10.8567709751
 11
12.1264258874
 21
10.7817709751
  0
LINE
  5
2C3
100
AcDbEntity
  8
0
100
AcDbLine
 62
7
  6
CONTINUOUS
 10
12.1332421093
 20
10.8567709751
 11
12.1332421093
 21
10.7817709751
  0
LINE
  5
2C4
100
AcDbEntity
  8
0
100
AcDbLine
 62
9
  6
CONTINUOUS
 10
11.822266336
 20
6.7697709751
 11
11.8223702955
 21
6.7723387946
  0
LINE
  5
2C5
100
AcDbEntity
  8
0
100
AcDbLine
 62
7
  6
CONTINUOUS
 10
11.8834008782
 20
6.7354951281
 11
11.8848183383
 21
6.7697709751
  0
LWPOLYLINE
  5
2C6
100
AcDbEntity
  8
0
100
AcDbPolyline
 62
7
  6
CONTINUOUS
 90
11
 70
0
 10
11.8848183383
 20
6.7697709751
 10
11.905383092
 20
7.0771822692
 10
11.9283089993
 20
7.394681712
 10
11.9538410376
 20
7.7230319956
 10
11.9822410603
 20
8.0629118328
 10
12.0138038566
 20
8.4150841044
 10
12.0488644889
 20
8.7804138391
 10
12.0877897366
 20
9.1597245414
 10
12.131025411
 20
9.5541959714
 10
12.1791544336
 20
9.9657007357
 10
12.2328515791
 20
10.3961907622
  0
LINE
  5
2C7
100
AcDbEntity
  8
0
100
AcDbLine
 62
7
  6
CONTINUOUS
 10
12.2328515791
 20
10.3961907622
 11
12.2841637429
 21
10.7820263037
  0
LINE
  5
2C8
100
AcDbEntity
  8
0
100
AcDbLine
 62
7
  6
CONTINUOUS
 10
12.2942248971
 20
10.8570652019
 11
12.3508874214
 21
11.2567709751
  0
LINE
  5
2C9
100
AcDbEntity
  8
0
100
AcDbLine
 62
7
  6
CONTINUOUS
 10
12.1477863979
 20
10.8567709751
 11
12.1477863979
 21
10.7817709751
  0
LINE
  5
2CA
100
AcDbEntity
  8
0
100
AcDbLine
 62
7
  6
CONTINUOUS
 10
12.1541864425
 20
10.8567709751
 11
12.1541864425
 21
10.7817709751
  0
LINE
  5
2CB
100
AcDbEntity
  8
0
100
AcDbLine
 62
7
  6
CONTINUOUS
 10
12.1678061575
 20
10.8567709751
 11
12.1678061575
 21
10.7817709751
  0
LINE
  5
2CC
100
AcDbEntity
  8
0
100
AcDbLine
 62
7
  6
CONTINUOUS
 10
12.1737822275
 20
10.8567709751
 11
12.1737822275
 21
10.7817709751
  0
LINE
  5
2CD
100
AcDbEntity
  8
0
100
AcDbLine
 62
7
  6
CONTINUOUS
 10
12.1864607754
 20
10.8567709751
 11
12.1864607754
 21
10.7817709751
  0
LINE
  5
2CE
100
AcDbEntity
  8
0
100
AcDbLine
 62
7
  6
CONTINUOUS
 10
12.1920055898
 20
10.8567709751
 11
12.1920055898
 21
10.7817709751
  0
LINE
  5
2CF
100
AcDbEntity
  8
0
100
AcDbLine
 62
7
  6
CONTINUOUS
 10
12.2037275236
 20
10.8567709751
 11
12.2037275236
 21
10.7817709751
  0
LINE
  5
2D0
100
AcDbEntity
  8
0
100
AcDbLine
 62
7
  6
CONTINUOUS
 10
12.2088343269
 20
10.8567709751
 11
12.2088343269
 21
10.7817709751
  0
LINE
  5
2D1
100
AcDbEntity
  8
0
100
AcDbLine
 62
7
  6
CONTINUOUS
 10
12.2195853654
 20
10.8567709751
 11
12.2195853654
 21
10.7817709751
  0
LINE
  5
2D2
100
AcDbEntity
  8
0
100
AcDbLine
 62
7
  6
CONTINUOUS
 10
12.2242479357
 20
10.8567709751
 11
12.2242479357
 21
10.7817709751
  0
LINE
  5
2D3
100
AcDbEntity
  8
0
100
AcDbLine
 62
7
  6
CONTINUOUS
 10
12.2340149804
 20
10.8567709751
 11
12.2340149804
 21
10.7817709751
  0
LINE
  5
2D4
100
AcDbEntity
  8
0
100
AcDbLine
 62
7
  6
CONTINUOUS
 10
12.2373183383
 20
11.5697709751
 11
12.2373183383
 21
11.3375977279
  0
LINE
  5
2D5
100
AcDbEntity
  8
0
100
AcDbLine
 62
7
  6
CONTINUOUS
 10
12.2382276371
 20
10.8567709751
 11
12.2382276371
 21
10.7817709751
  0
LINE
  5
2D6
100
AcDbEntity
  8
0
100
AcDbLine
 62
7
  6
CONTINUOUS
 10
12.2469987883
 20
10.8567709751
 11
12.2469987883
 21
10.7817709751
  0
LINE
  5
2D7
100
AcDbEntity
  8
0
100
AcDbLine
 62
7
  6
CONTINUOUS
 10
12.2473183383
 20
11.0567709751
 11
12.2473183383
 21
10.8567709751
  0
LINE
  5
2D8
100
AcDbEntity
  8
0
100
AcDbLine
 62
7
  6
CONTINUOUS
 10
12.250756399
 20
10.8567709751
 11
12.250756399
 21
10.7817709751
  0
LINE
  5
2D9
100
AcDbEntity
  8
0
100
AcDbLine
 62
7
  6
CONTINUOUS
 10
12.2585209704
 20
10.8567709751
 11
12.2585209704
 21
10.7817709751
  0
LINE
  5
2DA
100
AcDbEntity
  8
0
100
AcDbLine
 62
7
  6
CONTINUOUS
 10
12.261818957
 20
10.8567709751
 11
12.261818957
 21
10.7817709751
  0
LINE
  5
2DB
100
AcDbEntity
  8
0
100
AcDbLine
 62
7
  6
CONTINUOUS
 10
12.2685674886
 20
10.8567709751
 11
12.2685674886
 21
10.7817709751
  0
LINE
  5
2DC
100
AcDbEntity
  8
0
100
AcDbLine
 62
7
  6
CONTINUOUS
 10
12.271401833
 20
10.8567709751
 11
12.271401833
 21
10.7817709751
  0
LINE
  5
2DD
100
AcDbEntity
  8
0
100
AcDbLine
 62
7
  6
CONTINUOUS
 10
12.2771261029
 20
10.8567709751
 11
12.2771261029
 21
10.7817709751
  0
LINE
  5
2DE
100
AcDbEntity
  8
0
100
AcDbLine
 62
7
  6
CONTINUOUS
 10
12.2794933519
 20
10.8567709751
 11
12.2794933519
 21
10.7817709751
  0
LINE
  5
2DF
100
AcDbEntity
  8
0
100
AcDbLine
 62
7
  6
CONTINUOUS
 10
12.2841863859
 20
10.8567709751
 11
12.2841863859
 21
10.7817709751
  0
LINE
  5
2E0
100
AcDbEntity
  8
0
100
AcDbLine
 62
7
  6
CONTINUOUS
 10
12.2860836553
 20
10.8567709751
 11
12.2860836553
 21
10.7817709751
  0
LINE
  5
2E1
100
AcDbEntity
  8
0
100
AcDbLine
 62
7
  6
CONTINUOUS
 10
12.2897397356
 20
10.8567709751
 11
12.2897397356
 21
10.7817709751
  0
LINE
  5
2E2
100
AcDbEntity
  8
0
100
AcDbLine
 62
7
  6
CONTINUOUS
 10
12.291164714
 20
10.8567709751
 11
12.291164714
 21
10.7817709751
  0
LINE
  5
2E3
100
AcDbEntity
  8
0
100
AcDbLine
 62
7
  6
CONTINUOUS
 10
12.2937793863
 20
10.8567709751
 11
12.2937793863
 21
10.7817709751
  0
LINE
  5
2E4
100
AcDbEntity
  8
0
100
AcDbLine
 62
7
  6
CONTINUOUS
 10
12.2947303375
 20
10.8567709751
 11
12.2947303375
 21
10.7817709751
  0
LINE
  5
2E5
100
AcDbEntity
  8
0
100
AcDbLine
 62
7
  6
CONTINUOUS
 10
12.2963004162
 20
10.8567709751
 11
12.2963004162
 21
10.7817709751
  0
LINE
  5
2E6
100
AcDbEntity
  8
0
100
AcDbLine
 62
7
  6
CONTINUOUS
 10
12.2967761816
 20
10.8567709751
 11
12.2967761816
 21
10.7817709751
  0
LINE
  5
2E7
100
AcDbEntity
  8
0
100
AcDbLine
 62
7
  6
CONTINUOUS
 10
12.2972997538
 20
10.8567709751
 11
12.2972997538
 21
10.7817709751
  0
LINE
  5
2E8
100
AcDbEntity
  8
0
100
AcDbLine
 62
7
  6
CONTINUOUS
 10
12.2973183383
 20
11.2567709751
 11
12.2973183383
 21
11.1067709751
  0
LINE
  5
2E9
100
AcDbEntity
  8
0
100
AcDbLine
 62
7
  6
CONTINUOUS
 10
11.4675552138
 20
6.3058805952
 11
11.1770814628
 21
6.187295183
  0
LINE
  5
2EA
100
AcDbEntity
  8
0
100
AcDbLine
 62
7
  6
CONTINUOUS
 10
11.4675552138
 20
6.0583932218
 11
11.1770814628
 21
5.9398078096
  0
LINE
  5
2EB
100
AcDbEntity
  8
0
100
AcDbLine
 62
7
  6
CONTINUOUS
 10
9.7973183383
 20
11.1067709751
 11
9.8473183383
 21
11.0567709751
  0
LINE
  5
2EC
100
AcDbEntity
  8
0
100
AcDbLine
 62
7
  6
CONTINUOUS
 10
13.0473183383
 20
5.4293944618
 11
13.0473183383
 21
4.8325377656
  0
LINE
  5
2ED
100
AcDbEntity
  8
0
100
AcDbLine
 62
9
  6
CONTINUOUS
 10
11.4535683383
 20
9.3197709751
 11
10.6410683383
 21
9.3197709751
  0
LINE
  5
2EE
100
AcDbEntity
  8
0
100
AcDbLine
 62
7
  6
CONTINUOUS
 10
10.6410683383
 20
9.4817709751
 11
10.2973184162
 21
9.4817709751
  0
LINE
  5
2EF
100
AcDbEntity
  8
0
100
AcDbLine
 62
7
  6
CONTINUOUS
 10
11.4535683383
 20
9.4817709751
 11
11.7973182603
 21
9.4817709751
  0
LINE
  5
2F0
100
AcDbEntity
  8
0
100
AcDbLine
 62
7
  6
CONTINUOUS
 10
10.6410683383
 20
9.5317709751
 11
10.1973183383
 21
9.5317709751
  0
LINE
  5
2F1
100
AcDbEntity
  8
0
100
AcDbLine
 62
7
  6
CONTINUOUS
 10
11.4535683383
 20
9.5317709751
 11
11.8973183383
 21
9.5317709751
  0
LINE
  5
2F2
100
AcDbEntity
  8
0
100
AcDbLine
 62
7
  6
CONTINUOUS
 10
10.6410683383
 20
9.6317709751
 11
10.0973183383
 21
9.6317709751
  0
LINE
  5
2F3
100
AcDbEntity
  8
0
100
AcDbLine
 62
7
  6
CONTINUOUS
 10
11.4535683383
 20
9.6317709751
 11
11.9973183383
 21
9.6317709751
  0
LINE
  5
2F4
100
AcDbEntity
  8
0
100
AcDbLine
 62
7
  6
CONTINUOUS
 10
10.6410683383
 20
9.6817709751
 11
10.0223183383
 21
9.6817709751
  0
LINE
  5
2F5
100
AcDbEntity
  8
0
100
AcDbLine
 62
7
  6
CONTINUOUS
 10
11.4535683383
 20
9.6817709751
 11
12.0723183383
 21
9.6817709751
  0
LINE
  5
2F6
100
AcDbEntity
  8
0
100
AcDbLine
 62
7
  6
CONTINUOUS
 10
10.6410683383
 20
9.8817709751
 11
10.0223183383
 21
9.8817709751
  0
LINE
  5
2F7
100
AcDbEntity
  8
0
100
AcDbLine
 62
7
  6
CONTINUOUS
 10
11.4535683383
 20
9.8817709751
 11
12.0723183383
 21
9.8817709751
  0
LINE
  5
2F8
100
AcDbEntity
  8
0
100
AcDbLine
 62
7
  6
CONTINUOUS
 10
11.9223183383
 20
10.0567709751
 11
11.9973183383
 21
9.9817709751
  0
LINE
  5
2F9
100
AcDbEntity
  8
0
100
AcDbLine
 62
7
  6
CONTINUOUS
 10
10.6410683383
 20
9.9817709751
 11
10.0973183383
 21
9.9817709751
  0
LINE
  5
2FA
100
AcDbEntity
  8
0
100
AcDbLine
 62
7
  6
CONTINUOUS
 10
11.4535683383
 20
9.9817709751
 11
11.9973183383
 21
9.9817709751
  0
LINE
  5
2FB
100
AcDbEntity
  8
0
100
AcDbLine
 62
7
  6
CONTINUOUS
 10
10.6410683383
 20
10.0567709751
 11
10.1723183383
 21
10.0567709751
  0
LINE
  5
2FC
100
AcDbEntity
  8
0
100
AcDbLine
 62
7
  6
CONTINUOUS
 10
11.4535683383
 20
10.0567709751
 11
11.9223183383
 21
10.0567709751
  0
LINE
  5
2FD
100
AcDbEntity
  8
0
100
AcDbLine
 62
7
  6
CONTINUOUS
 10
11.9723181299
 20
10.5817709751
 11
11.4535683383
 21
10.5817709751
  0
LINE
  5
2FE
100
AcDbEntity
  8
0
100
AcDbLine
 62
7
  6
CONTINUOUS
 10
10.1223185467
 20
10.5817709751
 11
10.6410683383
 21
10.5817709751
  0
LINE
  5
2FF
100
AcDbEntity
  8
0
100
AcDbLine
 62
7
  6
CONTINUOUS
 10
14.2973183383
 20
11.4303077147
 11
14.2973183383
 21
11.5697709751
  0
LINE
  5
300
100
AcDbEntity
  8
0
100
AcDbLine
 62
7
  6
CONTINUOUS
 10
12.1223181043
 20
10.6817709751
 11
11.4535683383
 21
10.6817709751
  0
LINE
  5
301
100
AcDbEntity
  8
0
100
AcDbLine
 62
7
  6
CONTINUOUS
 10
9.9723185722
 20
10.6817709751
 11
10.6410683383
 21
10.6817709751
  0
LINE
  5
302
100
AcDbEntity
  8
0
100
AcDbLine
 62
7
  6
CONTINUOUS
 10
9.7973369228
 20
10.7817709751
 11
9.7981611628
 21
10.7817709751
  0
LINE
  5
303
100
AcDbEntity
  8
0
100
AcDbLine
 62
7
  6
CONTINUOUS
 10
9.7983362604
 20
10.7817709751
 11
10.6410683383
 21
10.7817709751
  0
LINE
  5
304
100
AcDbEntity
  8
0
100
AcDbLine
 62
7
  6
CONTINUOUS
 10
11.4535683383
 20
10.7817709751
 11
12.2972997538
 21
10.7817709751
  0
LINE
  5
305
100
AcDbEntity
  8
0
100
AcDbLine
 62
7
  6
CONTINUOUS
 10
9.7973369228
 20
10.8567709751
 11
10.6410683383
 21
10.8567709751
  0
LINE
  5
306
100
AcDbEntity
  8
0
100
AcDbLine
 62
7
  6
CONTINUOUS
 10
12.2964755138
 20
10.8567709751
 11
12.2972997538
 21
10.8567709751
  0
LINE
  5
307
100
AcDbEntity
  8
0
100
AcDbLine
 62
7
  6
CONTINUOUS
 10
11.4535683383
 20
10.8567709751
 11
12.2963004162
 21
10.8567709751
  0
LINE
  5
308
100
AcDbEntity
  8
0
100
AcDbLine
 62
7
  6
CONTINUOUS
 10
11.4945333056
 20
11.1529138728
 11
11.4978849088
 21
11.1531016814
  0
LINE
  5
309
100
AcDbEntity
  8
0
100
AcDbLine
 62
7
  6
CONTINUOUS
 10
12.2473183383
 20
11.0567709751
 11
11.4535683383
 21
11.0567709751
  0
LINE
  5
30A
100
AcDbEntity
  8
0
100
AcDbLine
 62
7
  6
CONTINUOUS
 10
9.8473183383
 20
11.0567709751
 11
10.6410683383
 21
11.0567709751
  0
LINE
  5
30B
100
AcDbEntity
  8
0
100
AcDbLine
 62
7
  6
CONTINUOUS
 10
12.2973183383
 20
11.1067709751
 11
11.4535683383
 21
11.1067709751
  0
LINE
  5
30C
100
AcDbEntity
  8
0
100
AcDbLine
 62
7
  6
CONTINUOUS
 10
9.7973183383
 20
11.1067709751
 11
10.6410683383
 21
11.1067709751
  0
LINE
  5
30D
100
AcDbEntity
  8
0
100
AcDbLine
 62
7
  6
CONTINUOUS
 10
10.600103371
 20
11.1529138728
 11
11.4945333056
 21
11.1529138728
  0
LINE
  5
30E
100
AcDbEntity
  8
0
100
AcDbLine
 62
9
  6
CONTINUOUS
 10
11.4978849088
 20
11.1531016814
 11
10.5967517678
 21
11.1531016814
  0
LINE
  5
30F
100
AcDbEntity
  8
0
100
AcDbLine
 62
7
  6
CONTINUOUS
 10
14.130161828
 20
11.2567709751
 11
12.0735231461
 21
11.2567709751
  0
LINE
  5
310
100
AcDbEntity
  8
0
100
AcDbLine
 62
7
  6
CONTINUOUS
 10
10.0211135305
 20
11.2567709751
 11
7.9644748485
 21
11.2567709751
  0
LINE
  5
311
100
AcDbEntity
  8
0
100
AcDbLine
 62
9
  6
CONTINUOUS
 10
12.2007135508
 20
11.2894254508
 11
9.8939231258
 21
11.2894254508
  0
LINE
  5
312
100
AcDbEntity
  8
0
100
AcDbLine
 62
9
  6
CONTINUOUS
 10
14.1895364896
 20
11.2987079848
 11
12.2186664536
 21
11.2987079848
  0
LINE
  5
313
100
AcDbEntity
  8
0
100
AcDbLine
 62
9
  6
CONTINUOUS
 10
9.875970223
 20
11.2987079848
 11
7.9051001869
 21
11.2987079848
  0
LINE
  5
314
100
AcDbEntity
  8
0
100
AcDbLine
 62
9
  6
CONTINUOUS
 10
12.2373183383
 20
11.3375977279
 11
9.8573183383
 21
11.3375977279
  0
LINE
  5
315
100
AcDbEntity
  8
0
100
AcDbLine
 62
7
  6
CONTINUOUS
 10
10.600103371
 20
11.1529138728
 11
10.5967517678
 21
11.1531016814
  0
LINE
  5
316
100
AcDbEntity
  8
0
100
AcDbLine
 62
9
  6
CONTINUOUS
 10
14.2588700226
 20
11.3722886248
 11
12.2373183383
 21
11.3722886248
  0
LINE
  5
317
100
AcDbEntity
  8
0
100
AcDbLine
 62
9
  6
CONTINUOUS
 10
9.8573183383
 20
11.3722886248
 11
7.8357666539
 21
11.3722886248
  0
LINE
  5
318
100
AcDbEntity
  8
0
100
AcDbLine
 62
9
  6
CONTINUOUS
 10
14.2973183383
 20
11.4303077147
 11
12.2373183383
 21
11.4303077147
  0
LINE
  5
319
100
AcDbEntity
  8
0
100
AcDbLine
 62
9
  6
CONTINUOUS
 10
9.8573183383
 20
11.4303077147
 11
7.7973183383
 21
11.4303077147
  0
LINE
  5
31A
100
AcDbEntity
  8
0
100
AcDbLine
 62
7
  6
CONTINUOUS
 10
7.7973192759
 20
11.5697709751
 11
14.2973174007
 21
11.5697709751
  0
ARC
  5
31B
100
AcDbEntity
  8
0
100
AcDbCircle
 62
9
  6
CONTINUOUS
 10
10.9947325646
 20
6.5576157098
 40
2.4239367165
100
AcDbArc
 50
251.2737010476
 51
257.2406717752
  0
ARC
  5
31C
100
AcDbEntity
  8
0
100
AcDbCircle
 62
9
  6
CONTINUOUS
 10
10.9754998754
 20
4.9453968451
 40
1.3577590548
100
AcDbArc
 50
111.7591393768
 51
112.2075107892
  0
ARC
  5
31D
100
AcDbEntity
  8
0
100
AcDbCircle
 62
7
  6
CONTINUOUS
 10
10.8179869408
 20
6.5337706425
 40
0.2331729404
100
AcDbArc
 50
171.5377781627
 51
175.9470952328
  0
ARC
  5
31E
100
AcDbEntity
  8
0
100
AcDbCircle
 62
7
  6
CONTINUOUS
 10
10.8452288073
 20
7.3050660706
 40
0.2041604717
100
AcDbArc
 50
180.0097749445
 51
188.574382824
  0
ARC
  5
31F
100
AcDbEntity
  8
0
100
AcDbCircle
 62
7
  6
CONTINUOUS
 10
10.8345518815
 20
7.155859271
 40
0.1934835059
100
AcDbArc
 50
180.0160151508
 51
190.3371798509
  0
ARC
  5
320
100
AcDbEntity
  8
0
100
AcDbCircle
 62
7
  6
CONTINUOUS
 10
10.834444519
 20
7.2055709528
 40
0.1933761868
100
AcDbArc
 50
180.0143243372
 51
189.9226967747
  0
ARC
  5
321
100
AcDbEntity
  8
0
100
AcDbCircle
 62
7
  6
CONTINUOUS
 10
10.8343359412
 20
7.2553538921
 40
0.1932676056
100
AcDbArc
 50
180.0126201499
 51
189.5123586564
  0
ARC
  5
322
100
AcDbEntity
  8
0
100
AcDbCircle
 62
7
  6
CONTINUOUS
 10
10.8333147071
 20
7.222933637
 40
0.1922463694
100
AcDbArc
 50
180.0041127014
 51
185.1807563841
  0
ARC
  5
323
100
AcDbEntity
  8
0
100
AcDbCircle
 62
7
  6
CONTINUOUS
 10
10.8332672619
 20
7.1203804123
 40
0.1921988788
100
AcDbArc
 50
174.6798681583
 51
179.996720144
  0
ARC
  5
324
100
AcDbEntity
  8
0
100
AcDbCircle
 62
7
  6
CONTINUOUS
 10
10.8332330373
 20
7.1717022013
 40
0.1921646993
100
AcDbArc
 50
180.0032608047
 51
184.7316604427
  0
ARC
  5
325
100
AcDbEntity
  8
0
100
AcDbCircle
 62
7
  6
CONTINUOUS
 10
10.8330750148
 20
7.1716876815
 40
0.1920066766
100
AcDbArc
 50
174.9429811784
 51
179.9989306825
  0
ARC
  5
326
100
AcDbEntity
  8
0
100
AcDbCircle
 62
7
  6
CONTINUOUS
 10
10.8330431592
 20
7.2229168428
 40
0.1919748209
100
AcDbArc
 50
175.2984191347
 51
179.9991061982
  0
ARC
  5
327
100
AcDbEntity
  8
0
100
AcDbCircle
 62
7
  6
CONTINUOUS
 10
10.8330283854
 20
7.2742047035
 40
0.1919600529
100
AcDbArc
 50
175.4983186473
 51
179.9072768826
  0
ARC
  5
328
100
AcDbEntity
  8
0
100
AcDbCircle
 62
7
  6
CONTINUOUS
 10
10.8329849496
 20
7.1203922747
 40
0.1919165661
100
AcDbArc
 50
180.0002567823
 51
184.2557354504
  0
ARC
  5
329
100
AcDbEntity
  8
0
100
AcDbCircle
 62
7
  6
CONTINUOUS
 10
10.0973183383
 20
9.5317709751
 40
0.1
100
AcDbArc
 50
0.0
 51
90.0
  0
ARC
  5
32A
100
AcDbEntity
  8
0
100
AcDbCircle
 62
9
  6
CONTINUOUS
 10
-89.4095246052
 20
13.1014838207
 40
101.4013959391
100
AcDbArc
 50
358.2666939644
 51
358.576403725
  0
ARC
  5
32B
100
AcDbEntity
  8
0
100
AcDbCircle
 62
7
  6
CONTINUOUS
 10
-60.1722626066
 20
10.6596257593
 40
72.150342401
100
AcDbArc
 50
359.479995371
 51
359.9641277992
  0
ARC
  5
32C
100
AcDbEntity
  8
0
100
AcDbCircle
 62
7
  6
CONTINUOUS
 10
10.9951444261
 20
15.6249303909
 40
4.5
100
AcDbArc
 50
276.4144817261
 51
285.5395954904
  0
ARC
  5
32D
100
AcDbEntity
  8
0
100
AcDbCircle
 62
7
  6
CONTINUOUS
 10
7.7868835557
 20
11.2567709751
 40
0.1254347826
100
AcDbArc
 50
19.5319940446
 51
67.0635891141
  0
ARC
  5
32E
100
AcDbEntity
  8
0
100
AcDbCircle
 62
7
  6
CONTINUOUS
 10
9.8723183383
 20
10.6817709751
 40
0.1
100
AcDbArc
 50
0.0
 51
85.7819271135
  0
ARC
  5
32F
100
AcDbEntity
  8
0
100
AcDbCircle
 62
7
  6
CONTINUOUS
 10
10.0223183383
 20
10.5817709751
 40
0.1
100
AcDbArc
 50
0.0
 51
90.0
  0
ARC
  5
330
100
AcDbEntity
  8
0
100
AcDbCircle
 62
7
  6
CONTINUOUS
 10
7.8603183383
 20
11.4303077147
 40
0.063
100
AcDbArc
 50
180.0
 51
247.0635891141
  0
ARC
  5
331
100
AcDbEntity
  8
0
100
AcDbCircle
 62
7
  6
CONTINUOUS
 10
7.9644748485
 20
11.3197709751
 40
0.063
100
AcDbArc
 50
199.5319940446
 51
270.0
  0
ARC
  5
332
100
AcDbEntity
  8
0
100
AcDbCircle
 62
7
  6
CONTINUOUS
 10
9.9073183383
 20
11.3375977279
 40
0.05
100
AcDbArc
 50
180.0
 51
254.4604045097
  0
ARC
  5
333
100
AcDbEntity
  8
0
100
AcDbCircle
 62
7
  6
CONTINUOUS
 10
11.0761469533
 20
6.8082662941
 40
0.5620319909
100
AcDbArc
 50
291.191005032
 51
292.2069121102
  0
ARC
  5
334
100
AcDbEntity
  8
0
100
AcDbCircle
 62
7
  6
CONTINUOUS
 10
11.078328902
 20
6.7765660098
 40
0.5298330263
100
AcDbArc
 50
292.205478931
 51
293.2841416694
  0
ARC
  5
335
100
AcDbEntity
  8
0
100
AcDbCircle
 62
7
  6
CONTINUOUS
 10
11.0472788636
 20
6.4164910984
 40
0.4890463565
100
AcDbArc
 50
28.6909618198
 51
34.9078803139
  0
ARC
  5
336
100
AcDbEntity
  8
0
100
AcDbCircle
 62
7
  6
CONTINUOUS
 10
11.0473543554
 20
6.4164931745
 40
0.4890423268
100
AcDbArc
 50
145.0930674069
 51
151.3090570666
  0
ARC
  5
337
100
AcDbEntity
  8
0
100
AcDbCircle
 62
7
  6
CONTINUOUS
 10
11.2758854505
 20
6.5336810993
 40
0.2339420702
100
AcDbArc
 50
4.7147071095
 51
8.6559144208
  0
ARC
  5
338
100
AcDbEntity
  8
0
100
AcDbCircle
 62
7
  6
CONTINUOUS
 10
11.2378963436
 20
7.2485395789
 40
0.2156719961
100
AcDbArc
 50
0.0065677211
 51
7.6304875235
  0
ARC
  5
339
100
AcDbEntity
  8
0
100
AcDbCircle
 62
7
  6
CONTINUOUS
 10
11.2379590424
 20
7.1807856724
 40
0.2156092998
100
AcDbArc
 50
350.8398368536
 51
359.9890563791
  0
ARC
  5
33A
100
AcDbEntity
  8
0
100
AcDbCircle
 62
7
  6
CONTINUOUS
 10
11.2379979835
 20
7.2304594204
 40
0.2155703577
100
AcDbArc
 50
351.2740984856
 51
359.9904813734
  0
ARC
  5
33B
100
AcDbEntity
  8
0
100
AcDbCircle
 62
7
  6
CONTINUOUS
 10
11.2382446437
 20
7.1459494914
 40
0.2153236949
100
AcDbArc
 50
0.0029911643
 51
4.6386633341
  0
ARC
  5
33C
100
AcDbEntity
  8
0
100
AcDbCircle
 62
7
  6
CONTINUOUS
 10
11.2383531531
 20
7.1972889605
 40
0.2152151855
100
AcDbArc
 50
0.0026461598
 51
4.4241470917
  0
ARC
  5
33D
100
AcDbEntity
  8
0
100
AcDbCircle
 62
7
  6
CONTINUOUS
 10
11.2384717787
 20
7.2485677918
 40
0.2150965596
100
AcDbArc
 50
355.1736689434
 51
359.9990701478
  0
ARC
  5
33E
100
AcDbEntity
  8
0
100
AcDbCircle
 62
7
  6
CONTINUOUS
 10
11.2385136013
 20
7.1459629301
 40
0.215054737
100
AcDbArc
 50
356.004675814
 51
359.9994145358
  0
ARC
  5
33F
100
AcDbEntity
  8
0
100
AcDbCircle
 62
7
  6
CONTINUOUS
 10
11.2385399175
 20
7.1973016981
 40
0.2150284208
100
AcDbArc
 50
355.5949062613
 51
359.9992544325
  0
ARC
  5
340
100
AcDbEntity
  8
0
100
AcDbCircle
 62
7
  6
CONTINUOUS
 10
11.9973183383
 20
9.5317709751
 40
0.1
100
AcDbArc
 50
90.0
 51
180.0
  0
ARC
  5
341
100
AcDbEntity
  8
0
100
AcDbCircle
 62
9
  6
CONTINUOUS
 10
111.5033964825
 20
13.1014699866
 40
101.4006310938
100
AcDbArc
 50
181.4235992208
 51
181.7333112945
  0
ARC
  5
342
100
AcDbEntity
  8
0
100
AcDbCircle
 62
7
  6
CONTINUOUS
 10
82.2674418629
 20
10.6596325094
 40
72.1508850624
100
AcDbArc
 50
180.0358770496
 51
180.5200061005
  0
ARC
  5
343
100
AcDbEntity
  8
0
100
AcDbCircle
 62
7
  6
CONTINUOUS
 10
11.0994922504
 20
15.6249303909
 40
4.5
100
AcDbArc
 50
254.4604045096
 51
263.5855182739
  0
ARC
  5
344
100
AcDbEntity
  8
0
100
AcDbCircle
 62
7
  6
CONTINUOUS
 10
14.3077531209
 20
11.2567709751
 40
0.1254347826
100
AcDbArc
 50
112.9364108859
 51
160.4680059554
  0
ARC
  5
345
100
AcDbEntity
  8
0
100
AcDbCircle
 62
7
  6
CONTINUOUS
 10
12.2223183383
 20
10.6817709751
 40
0.1
100
AcDbArc
 50
94.2180728865
 51
180.0
  0
ARC
  5
346
100
AcDbEntity
  8
0
100
AcDbCircle
 62
7
  6
CONTINUOUS
 10
12.0723183383
 20
10.5817709751
 40
0.1
100
AcDbArc
 50
90.0
 51
180.0
  0
ARC
  5
347
100
AcDbEntity
  8
0
100
AcDbCircle
 62
7
  6
CONTINUOUS
 10
14.2343183383
 20
11.4303077147
 40
0.063
100
AcDbArc
 50
292.9364108859
 51
360.0
  0
ARC
  5
348
100
AcDbEntity
  8
0
100
AcDbCircle
 62
7
  6
CONTINUOUS
 10
14.130161828
 20
11.3197709751
 40
0.063
100
AcDbArc
 50
270.0
 51
340.4680059554
  0
ARC
  5
349
100
AcDbEntity
  8
0
100
AcDbCircle
 62
7
  6
CONTINUOUS
 10
12.1873183383
 20
11.3375977279
 40
0.05
100
AcDbArc
 50
285.5395954903
 51
360.0
  0
SPLINE
  5
34A
100
AcDbEntity
  8
0
100
AcDbSpline
 62
7
  6
CONTINUOUS
 70
0
 71
3
 72
26
 73
22
 74
0
 42
0.0000001
 43
0.0000001
 44
0.0000000001
 40
0.0
 40
0.0
 40
0.0
 40
0.0
 40
0.0253240261
 40
0.0507140945
 40
0.0762351387
 40
0.1019498671
 40
0.1279177722
 40
0.1541942792
 40
0.1808299924
 40
0.207870308
 40
0.2632922911
 40
0.3207319364
 40
0.3803374238
 40
0.4421643583
 40
0.5061838979
 40
0.5722920436
 40
0.6403202036
 40
0.7100451171
 40
0.7811990511
 40
0.8534796701
 40
1.0
 40
1.0
 40
1.0
 40
1.0
 10
10.6410683402
 20
7.1060759891
 30
0.0
 10
10.6410683264
 20
7.1015042119
 30
0.0
 10
10.6413957902
 20
7.0923453876
 30
0.0
 10
10.6428669082
 20
7.0786503417
 30
0.0
 10
10.6453148452
 20
7.0650235535
 30
0.0
 10
10.648733211
 20
7.0515001268
 30
0.0
 10
10.6531133418
 20
7.0381135842
 30
0.0
 10
10.6584444389
 20
7.024897626
 30
0.0
 10
10.6647132007
 20
7.0118845293
 30
0.0
 10
10.6743780101
 20
6.9947105041
 30
0.0
 10
10.6888003466
 20
6.9738956581
 30
0.0
 10
10.7094028106
 20
6.9504683246
 30
0.0
 10
10.7332433432
 20
6.928601539
 30
0.0
 10
10.760088048
 20
6.9085089239
 30
0.0
 10
10.7896786423
 20
6.890383741
 30
0.0
 10
10.8217313892
 20
6.8744027206
 30
0.0
 10
10.8559402626
 20
6.8607228828
 30
0.0
 10
10.8919774821
 20
6.8494804448
 30
0.0
 10
10.9295031826
 20
6.8407883407
 30
0.0
 10
10.9812492967
 20
6.8326858432
 30
0.0
 10
11.0208718642
 20
6.8307337847
 30
0.0
 10
11.0473183383
 20
6.8312490384
 30
0.0
  0
SPLINE
  5
34B
100
AcDbEntity
  8
0
100
AcDbSpline
 62
7
  6
CONTINUOUS
 70
0
 71
3
 72
14
 73
10
 74
0
 42
0.0000001
 43
0.0000001
 44
0.0000000001
 40
0.0
 40
0.0
 40
0.0
 40
0.0
 40
0.1195389983
 40
0.2401514873
 40
0.3621132418
 40
0.4856782711
 40
0.6110721655
 40
0.738498474
 40
1.0
 40
1.0
 40
1.0
 40
1.0
 10
10.6442088443
 20
7.1211404686
 30
0.0
 10
10.6450487756
 20
7.1165236563
 30
0.0
 10
10.6470688365
 20
7.1073057406
 30
0.0
 10
10.6510818477
 20
7.0936575922
 30
0.0
 10
10.6560791447
 20
7.0801691786
 30
0.0
 10
10.6620477192
 20
7.0668764421
 30
0.0
 10
10.6689725753
 20
7.0538120809
 30
0.0
 10
10.6795444032
 20
7.0365997303
 30
0.0
 10
10.6887353389
 20
7.024348776
 30
0.0
 10
10.6953467171
 20
7.0164958174
 30
0.0
  0
SPLINE
  5
34C
100
AcDbEntity
  8
0
100
AcDbSpline
 62
7
  6
CONTINUOUS
 70
0
 71
3
 72
25
 73
21
 74
0
 42
0.0000001
 43
0.0000001
 44
0.0000000001
 40
0.0
 40
0.0
 40
0.0
 40
0.0
 40
0.0251998926
 40
0.0505956774
 40
0.0762362948
 40
0.1021674729
 40
0.155041947
 40
0.2095270265
 40
0.2658323848
 40
0.3240927296
 40
0.3539860675
 40
0.3843855454
 40
0.4466744328
 40
0.51090881
 40
0.5769690912
 40
0.6446896989
 40
0.713866226
 40
0.7842625383
 40
0.8556179183
 40
1.0
 40
1.0
 40
1.0
 40
1.0
 10
10.6439610192
 20
7.1722484995
 30
0.0
 10
10.6446948928
 20
7.1680433172
 30
0.0
 10
10.6464441069
 20
7.1596458219
 30
0.0
 10
10.6498853188
 20
7.1471901963
 30
0.0
 10
10.6541451491
 20
7.1348583851
 30
0.0
 10
10.6609466291
 20
7.1185151076
 30
0.0
 10
10.6715089775
 20
7.0984943328
 30
0.0
 10
10.6871882989
 20
7.0755631069
 30
0.0
 10
10.7058211355
 20
7.053750722
 30
0.0
 10
10.7235285248
 20
7.036801589
 30
0.0
 10
10.7389729804
 20
7.023956439
 30
0.0
 10
10.7555287635
 20
7.0114127276
 30
0.0
 10
10.7777643522
 20
6.9967820043
 30
0.0
 10
10.8064316503
 20
6.9811411872
 30
0.0
 10
10.8370678833
 20
6.9674035742
 30
0.0
 10
10.8694216209
 20
6.9556865051
 30
0.0
 10
10.9032282839
 20
6.9460901996
 30
0.0
 10
10.9382151664
 20
6.9386978139
 30
0.0
 10
10.98622192
 20
6.9318433734
 30
0.0
 10
11.0228653768
 20
6.9302279325
 30
0.0
 10
11.0473183383
 20
6.9307051892
 30
0.0
  0
SPLINE
  5
34D
100
AcDbEntity
  8
0
100
AcDbSpline
 62
7
  6
CONTINUOUS
 70
0
 71
3
 72
22
 73
18
 74
0
 42
0.0000001
 43
0.0000001
 44
0.0000000001
 40
0.0
 40
0.0
 40
0.0
 40
0.0
 40
0.0615560036
 40
0.1231198216
 40
0.1847032936
 40
0.246319119
 40
0.3079875169
 40
0.3697332204
 40
0.4315886628
 40
0.4935920461
 40
0.5557861967
 40
0.6182178267
 40
0.6809332797
 40
0.7439765634
 40
0.8073871825
 40
0.8711928483
 40
1.0
 40
1.0
 40
1.0
 40
1.0
 10
11.4998183383
 20
6.8718018917
 30
0.0
 10
11.4998183383
 20
6.862689105
 30
0.0
 10
11.499039148
 20
6.8444528111
 30
0.0
 10
11.4955458653
 20
6.8173016821
 30
0.0
 10
11.4897668665
 20
6.790533121
 30
0.0
 10
11.4817640835
 20
6.7643284911
 30
0.0
 10
11.471619882
 20
6.7388512413
 30
0.0
 10
11.4594326803
 20
6.7142474614
 30
0.0
 10
11.4453124666
 20
6.6906435148
 30
0.0
 10
11.4293766784
 20
6.6681456151
 30
0.0
 10
11.411745813
 20
6.6468409606
 30
0.0
 10
11.3925407562
 20
6.6267994807
 30
0.0
 10
11.3718800333
 20
6.6080764372
 30
0.0
 10
11.3498796755
 20
6.5907154168
 30
0.0
 10
11.3266496424
 20
6.5747502481
 30
0.0
 10
11.2940939777
 20
6.5553071186
 30
0.0
 10
11.268279832
 20
6.5429824895
 30
0.0
 10
11.2506256592
 20
6.5357752037
 30
0.0
  0
LINE
  5
34E
100
AcDbEntity
  8
0
100
AcDbLine
 62
7
  6
CONTINUOUS
 10
11.0473305528
 20
6.496772159
 11
11.0466661219
 21
6.4967725362
  0
SPLINE
  5
34F
100
AcDbEntity
  8
0
100
AcDbSpline
 62
7
  6
CONTINUOUS
 70
0
 71
3
 72
28
 73
24
 74
0
 42
0.0000001
 43
0.0000001
 44
0.0000000001
 40
0.0
 40
0.0
 40
0.0
 40
0.0
 40
0.0654540445
 40
0.1307412994
 40
0.1957105981
 40
0.260236007
 40
0.3242261269
 40
0.387629842
 40
0.4504399768
 40
0.5126882972
 40
0.5744396265
 40
0.6357815185
 40
0.6968071508
 40
0.7272427285
 40
0.7576334519
 40
0.7879884066
 40
0.8183157356
 40
0.8486218552
 40
0.8789123681
 40
0.909192374
 40
0.939465717
 40
0.9697322704
 40
1.0
 40
1.0
 40
1.0
 40
1.0
 10
11.0466661219
 20
6.4967725362
 30
0.0
 10
11.0324468178
 20
6.4967890126
 30
0.0
 10
11.0040338021
 20
6.4978998162
 30
0.0
 10
10.9617602469
 20
6.5027948335
 30
0.0
 10
10.9201845437
 20
6.5108985307
 30
0.0
 10
10.8796475829
 20
6.522180422
 30
0.0
 10
10.8404773926
 20
6.5366010666
 30
0.0
 10
10.802995604
 20
6.5541134907
 30
0.0
 10
10.7675204869
 20
6.5746626517
 30
0.0
 10
10.7343736572
 20
6.5981811849
 30
0.0
 10
10.7038859895
 20
6.6245822342
 30
0.0
 10
10.6764052103
 20
6.6537412239
 30
0.0
 10
10.6562835697
 20
6.680232628
 30
0.0
 10
10.6420713742
 20
6.7025788692
 30
0.0
 10
10.6323949173
 20
6.7198756131
 30
0.0
 10
10.6237376171
 20
6.7376779405
 30
0.0
 10
10.6161402008
 20
6.7559383503
 30
0.0
 10
10.6096408014
 20
6.7746032218
 30
0.0
 10
10.6042730855
 20
6.7936140579
 30
0.0
 10
10.6000662399
 20
6.8129078911
 30
0.0
 10
10.5970443
 20
6.8324175328
 30
0.0
 10
10.595223652
 20
6.8520723542
 30
0.0
 10
10.5948183383
 20
6.8652264945
 30
0.0
 10
10.5948183383
 20
6.8718018917
 30
0.0
  0
SPLINE
  5
350
100
AcDbEntity
  8
0
100
AcDbSpline
 62
7
  6
CONTINUOUS
 70
0
 71
3
 72
11
 73
7
 74
0
 42
0.0000001
 43
0.0000001
 44
0.0000000001
 40
0.0
 40
0.0
 40
0.0
 40
0.0
 40
0.2470580453
 40
0.4965259357
 40
0.7477874897
 40
1.0
 40
1.0
 40
1.0
 40
1.0
 10
11.2506256592
 20
6.5357752037
 30
0.0
 10
11.2347522603
 20
6.5292949157
 30
0.0
 10
11.2021510958
 20
6.517923402
 30
0.0
 10
11.1516251245
 20
6.5057448197
 30
0.0
 10
11.0998140831
 20
6.498407014
 30
0.0
 10
11.0648523196
 20
6.4967731554
 30
0.0
 10
11.0473493819
 20
6.4967721598
 30
0.0
  0
SPLINE
  5
351
100
AcDbEntity
  8
0
100
AcDbSpline
 62
7
  6
CONTINUOUS
 70
0
 71
3
 72
15
 73
11
 74
0
 42
0.0000001
 43
0.0000001
 44
0.0000000001
 40
0.0
 40
0.0
 40
0.0
 40
0.0
 40
0.1211573392
 40
0.2427052557
 40
0.365025423
 40
0.4884825638
 40
0.6134170505
 40
0.7401385373
 40
0.8689211095
 40
1.0
 40
1.0
 40
1.0
 40
1.0
 10
11.4998183032
 20
7.099580679
 30
0.0
 10
11.4998182776
 20
7.1056530499
 30
0.0
 10
11.4993277183
 20
7.1178230242
 30
0.0
 10
11.4971234667
 20
7.1360034317
 30
0.0
 10
11.493458228
 20
7.1540649264
 30
0.0
 10
11.4883445955
 20
7.1719466545
 30
0.0
 10
11.4817999875
 20
7.1895904565
 30
0.0
 10
11.4738462898
 20
7.2069389514
 30
0.0
 10
11.4645109378
 20
7.2239349947
 30
0.0
 10
11.4574513225
 20
7.2348942663
 30
0.0
 10
11.4537110766
 20
7.2402952551
 30
0.0
  0
SPLINE
  5
352
100
AcDbEntity
  8
0
100
AcDbSpline
 62
7
  6
CONTINUOUS
 70
0
 71
3
 72
15
 73
11
 74
0
 42
0.0000001
 43
0.0000001
 44
0.0000000001
 40
0.0
 40
0.0
 40
0.0
 40
0.0
 40
0.1211085461
 40
0.2426129253
 40
0.364899945
 40
0.4883389985
 40
0.6132742106
 40
0.7400184095
 40
0.8688482027
 40
1.0
 40
1.0
 40
1.0
 40
1.0
 10
10.5948183734
 20
7.099580679
 30
0.0
 10
10.5948183476
 20
7.1056956316
 30
0.0
 10
10.5953159861
 20
7.1179512954
 30
0.0
 10
10.5975511846
 20
7.1362586567
 30
0.0
 10
10.6012679529
 20
7.1544445637
 30
0.0
 10
10.6064533141
 20
7.1724468382
 30
0.0
 10
10.6130891962
 20
7.1902061413
 30
0.0
 10
10.6211530329
 20
7.2076639506
 30
0.0
 10
10.6306168281
 20
7.2247618809
 30
0.0
 10
10.637772171
 20
7.235781781
 30
0.0
 10
10.6415627753
 20
7.2412115954
 30
0.0
  0
SPLINE
  5
353
100
AcDbEntity
  8
0
100
AcDbSpline
 62
7
  6
CONTINUOUS
 70
0
 71
3
 72
21
 73
17
 74
0
 42
0.0000001
 43
0.0000001
 44
0.0000000001
 40
0.0
 40
0.0
 40
0.0
 40
0.0
 40
0.055431209
 40
0.1110880284
 40
0.1671896857
 40
0.2239431362
 40
0.2815377838
 40
0.3401415081
 40
0.399897588
 40
0.460922933
 40
0.5233072565
 40
0.587112976
 40
0.7190395292
 40
0.7872247504
 40
0.8568281285
 40
1.0
 40
1.0
 40
1.0
 40
1.0
 10
11.5098183024
 20
6.5692505931
 30
0.0
 10
11.5098183318
 20
6.562270942
 30
0.0
 10
11.5091834793
 20
6.548275024
 30
0.0
 10
11.5063331206
 20
6.5273899179
 30
0.0
 10
11.5015965007
 20
6.5066783488
 30
0.0
 10
11.4949944176
 20
6.4862288123
 30
0.0
 10
11.4865555541
 20
6.4661253186
 30
0.0
 10
11.4763162638
 20
6.4464507037
 30
0.0
 10
11.4643200485
 20
6.4272852747
 30
0.0
 10
11.450617672
 20
6.4087072368
 30
0.0
 10
11.4352653455
 20
6.39079102
 30
0.0
 10
11.4124338562
 20
6.3676309608
 30
0.0
 10
11.3867531304
 20
6.3463705539
 30
0.0
 10
11.3587325182
 20
6.3271563246
 30
0.0
 10
11.3284233058
 20
6.3088794026
 30
0.0
 10
11.3043265091
 20
6.2970111514
 30
0.0
 10
11.287767277
 20
6.2898847971
 30
0.0
  0
SPLINE
  5
354
100
AcDbEntity
  8
0
100
AcDbSpline
 62
7
  6
CONTINUOUS
 70
0
 71
3
 72
21
 73
17
 74
0
 42
0.0000001
 43
0.0000001
 44
0.0000000001
 40
0.0
 40
0.0
 40
0.0
 40
0.0
 40
0.0552266285
 40
0.1106882501
 40
0.1666128736
 40
0.2232151646
 40
0.280690823
 40
0.3392122298
 40
0.3989253619
 40
0.4599478536
 40
0.5223683348
 40
0.5862464314
 40
0.7184063092
 40
0.7867418194
 40
0.8565070358
 40
1.0
 40
1.0
 40
1.0
 40
1.0
 10
11.6223183383
 20
5.9187123544
 30
0.0
 10
11.6223183387
 20
5.9098388535
 30
0.0
 10
11.6214928921
 20
5.8920431842
 30
0.0
 10
11.6177867934
 20
5.8654944096
 30
0.0
 10
11.6116291039
 20
5.8391765543
 30
0.0
 10
11.6030481702
 20
5.8132072397
 30
0.0
 10
11.5920830763
 20
5.7876980003
 30
0.0
 10
11.5787831878
 20
5.762758707
 30
0.0
 10
11.5632075929
 20
5.738495739
 30
0.0
 10
11.5454251895
 20
5.7150125184
 30
0.0
 10
11.5255122859
 20
5.6924073617
 30
0.0
 10
11.4959102453
 20
5.6632433637
 30
0.0
 10
11.4626550753
 20
5.6365884302
 30
0.0
 10
11.4264195938
 20
5.6126250695
 30
0.0
 10
11.3872555125
 20
5.589927522
 30
0.0
 10
11.3561637079
 20
5.5753124146
 30
0.0
 10
11.3348183383
 20
5.5665982039
 30
0.0
  0
SPLINE
  5
355
100
AcDbEntity
  8
0
100
AcDbSpline
 62
7
  6
CONTINUOUS
 70
0
 71
3
 72
21
 73
17
 74
0
 42
0.0000001
 43
0.0000001
 44
0.0000000001
 40
0.0
 40
0.0
 40
0.0
 40
0.0
 40
0.0587073844
 40
0.1175177135
 40
0.1765327273
 40
0.2358515699
 40
0.2955698594
 40
0.3557785065
 40
0.4165627932
 40
0.4780016701
 40
0.5401669742
 40
0.6031232625
 40
0.6669268415
 40
0.7316263844
 40
0.8638308673
 40
1.0
 40
1.0
 40
1.0
 40
1.0
 10
10.4723183385
 20
6.5833927287
 30
0.0
 10
10.4723183335
 20
6.5890769849
 30
0.0
 10
10.4726562258
 20
6.6004583396
 30
0.0
 10
10.4741748338
 20
6.6174927711
 30
0.0
 10
10.476703057
 20
6.6344672332
 30
0.0
 10
10.4802359565
 20
6.6513508634
 30
0.0
 10
10.4847673068
 20
6.6681139349
 30
0.0
 10
10.4902888964
 20
6.6847267284
 30
0.0
 10
10.4967906097
 20
6.7011599941
 30
0.0
 10
10.5042610375
 20
6.7173846282
 30
0.0
 10
10.512686434
 20
6.7333722936
 30
0.0
 10
10.5220520875
 20
6.7490945981
 30
0.0
 10
10.5323411552
 20
6.7645244823
 30
0.0
 10
10.5473729148
 20
6.7848144517
 30
0.0
 10
10.5684335152
 20
6.8093030618
 30
0.0
 10
10.5871197975
 20
6.8274143327
 30
0.0
 10
10.5969647789
 20
6.8361838315
 30
0.0
  0
SPLINE
  5
356
100
AcDbEntity
  8
0
100
AcDbSpline
 62
7
  6
CONTINUOUS
 70
0
 71
3
 72
14
 73
10
 74
0
 42
0.0000001
 43
0.0000001
 44
0.0000000001
 40
0.0
 40
0.0
 40
0.0
 40
0.0
 40
0.1266686244
 40
0.2531312657
 40
0.5047369667
 40
0.6296363045
 40
0.7538334048
 40
0.8772922177
 40
1.0
 40
1.0
 40
1.0
 40
1.0
 10
10.2098183417
 20
6.7697709753
 30
0.0
 10
10.2048963574
 20
6.8904238178
 30
0.0
 10
10.1952471645
 20
7.1315410321
 30
0.0
 10
10.1769441566
 20
7.6123586332
 30
0.0
 10
10.1604012574
 20
8.0915553837
 30
0.0
 10
10.1463134843
 20
8.56866769
 30
0.0
 10
10.1371787094
 20
8.9237081108
 30
0.0
 10
10.1296067964
 20
9.2766957016
 30
0.0
 10
10.1256501638
 20
9.5113339924
 30
0.0
 10
10.1239624358
 20
9.6282991419
 30
0.0
  0
LINE
  5
357
100
AcDbEntity
  8
0
100
AcDbLine
 62
7
  6
CONTINUOUS
 10
10.1239624358
 20
9.6282991419
 11
10.1239068387
 21
9.6321593644
  0
SPLINE
  5
358
100
AcDbEntity
  8
0
100
AcDbSpline
 62
7
  6
CONTINUOUS
 70
0
 71
3
 72
14
 73
10
 74
0
 42
0.0000001
 43
0.0000001
 44
0.0000000001
 40
0.0
 40
0.0
 40
0.0
 40
0.0
 40
0.126668625
 40
0.2531312669
 40
0.5047369676
 40
0.6296363029
 40
0.7538334072
 40
0.8772922218
 40
1.0
 40
1.0
 40
1.0
 40
1.0
 10
11.8848183349
 20
6.7697709753
 30
0.0
 10
11.8897403232
 20
6.8904238166
 30
0.0
 10
11.8993895066
 20
7.1315410292
 30
0.0
 10
11.9176925252
 20
7.6123586245
 30
0.0
 10
11.9342353834
 20
8.0915553679
 30
0.0
 10
11.9483232414
 20
8.5686676668
 30
0.0
 10
11.9574578737
 20
8.9237080895
 30
0.0
 10
11.9650299639
 20
9.276695673
 30
0.0
 10
11.9689865686
 20
9.5113339593
 30
0.0
 10
11.9706742659
 20
9.6282991039
 30
0.0
  0
LINE
  5
359
100
AcDbEntity
  8
0
100
AcDbLine
 62
7
  6
CONTINUOUS
 10
11.9706742659
 20
9.6282991039
 11
11.9707298618
 21
9.6321593087
  0
SPLINE
  5
35A
100
AcDbEntity
  8
0
100
AcDbSpline
 62
7
  6
CONTINUOUS
 70
0
 71
3
 72
35
 73
31
 74
0
 42
0.0000001
 43
0.0000001
 44
0.0000000001
 40
0.0
 40
0.0
 40
0.0
 40
0.0
 40
0.0620003882
 40
0.0939857499
 40
0.1265665173
 40
0.1932734164
 40
0.2272983426
 40
0.2616662983
 40
0.3310897273
 40
0.4008960233
 40
0.4703858891
 40
0.5388677247
 40
0.5725374936
 40
0.6057181951
 40
0.6383418968
 40
0.6703481038
 40
0.7016850388
 40
0.7323110574
 40
0.762195838
 40
0.7913218125
 40
0.8196855144
 40
0.8472986967
 40
0.8741894479
 40
0.8873803951
 40
0.9004091674
 40
0.9260080844
 40
0.9510720881
 40
0.9634365261
 40
0.97570441
 40
1.0
 40
1.0
 40
1.0
 40
1.0
 10
11.3431286757
 20
7.0773044706
 30
0.0
 10
11.3296658809
 20
7.0668087741
 30
0.0
 10
11.3081298819
 20
7.0522916788
 30
0.0
 10
11.2775565757
 20
7.0355421508
 30
0.0
 10
11.2448643885
 20
7.0200842593
 30
0.0
 10
11.2103642386
 20
7.0072937848
 30
0.0
 10
11.174549617
 20
6.9971992299
 30
0.0
 10
11.137520597
 20
6.9888397072
 30
0.0
 10
11.0901323705
 20
6.9819492137
 30
0.0
 10
11.0326265394
 20
6.9794244337
 30
0.0
 10
10.9754147329
 20
6.9826384899
 30
0.0
 10
10.9286513781
 20
6.9900735401
 30
0.0
 10
10.8924182919
 20
6.9988300368
 30
0.0
 10
10.8661695779
 20
7.0066982232
 30
0.0
 10
10.8408307021
 20
7.0158607302
 30
0.0
 10
10.8165279566
 20
7.0262693472
 30
0.0
 10
10.7933834812
 20
7.0378694398
 30
0.0
 10
10.7715133947
 20
7.0506005994
 30
0.0
 10
10.7510275634
 20
7.0643969054
 30
0.0
 10
10.7320290916
 20
7.0791871395
 30
0.0
 10
10.7146136395
 20
7.0948955988
 30
0.0
 10
10.6988700802
 20
7.1114408693
 30
0.0
 10
10.6871340354
 20
7.1259504137
 30
0.0
 10
10.6786807907
 20
7.1378874211
 30
0.0
 10
10.6709462147
 20
7.1498808095
 30
0.0
 10
10.6624271383
 20
7.165237862
 30
0.0
 10
10.6554446774
 20
7.1811549799
 30
0.0
 10
10.6508726464
 20
7.1940569017
 30
0.0
 10
10.6470001682
 20
7.2069635849
 30
0.0
 10
10.6448288776
 20
7.2168166721
 30
0.0
 10
10.6437257694
 20
7.2234144213
 30
0.0
  0
SPLINE
  5
35B
100
AcDbEntity
  8
0
100
AcDbSpline
 62
7
  6
CONTINUOUS
 70
0
 71
3
 72
17
 73
13
 74
0
 42
0.0000001
 43
0.0000001
 44
0.0000000001
 40
0.0
 40
0.0
 40
0.0
 40
0.0
 40
0.058100457
 40
0.1164667564
 40
0.1751862374
 40
0.2343418441
 40
0.3542257116
 40
0.4767167049
 40
0.6022626549
 40
0.7311975284
 40
0.86374092
 40
1.0
 40
1.0
 40
1.0
 40
1.0
 10
11.4451621721
 20
7.2480167786
 30
0.0
 10
11.4447356529
 20
7.2440875199
 30
0.0
 10
11.4436549333
 20
7.2362336882
 30
0.0
 10
11.4413637302
 20
7.2245327654
 30
0.0
 10
11.4384032796
 20
7.2129083223
 30
0.0
 10
11.4335520678
 20
7.1974721062
 30
0.0
 10
11.4258087192
 20
7.1784319379
 30
0.0
 10
11.4140008066
 20
7.1563167631
 30
0.0
 10
11.399721765
 20
7.1349679413
 30
0.0
 10
11.3830750828
 20
7.1145235715
 30
0.0
 10
11.3641796898
 20
7.0951134761
 30
0.0
 10
11.3503574615
 20
7.08310636
 30
0.0
 10
11.3431286757
 20
7.0773044706
 30
0.0
  0
SPLINE
  5
35C
100
AcDbEntity
  8
0
100
AcDbSpline
 62
7
  6
CONTINUOUS
 70
0
 71
3
 72
11
 73
7
 74
0
 42
0.0000001
 43
0.0000001
 44
0.0000000001
 40
0.0
 40
0.0
 40
0.0
 40
0.0
 40
0.2455659975
 40
0.4929683975
 40
0.7439316989
 40
1.0
 40
1.0
 40
1.0
 40
1.0
 10
11.4535680927
 20
7.304715385
 30
0.0
 10
11.4535552053
 20
7.2964275225
 30
0.0
 10
11.4525066439
 20
7.2797738318
 30
0.0
 10
11.4478848665
 20
7.2550355568
 30
0.0
 10
11.4402533738
 20
7.2306845755
 30
0.0
 10
11.4332793717
 20
7.2150116356
 30
0.0
 10
11.4293433939
 20
7.2073176199
 30
0.0
  0
SPLINE
  5
35D
100
AcDbEntity
  8
0
100
AcDbSpline
 62
7
  6
CONTINUOUS
 70
0
 71
3
 72
21
 73
17
 74
0
 42
0.0000001
 43
0.0000001
 44
0.0000000001
 40
0.0
 40
0.0
 40
0.0
 40
0.0
 40
0.0525037492
 40
0.1063084814
 40
0.1615376145
 40
0.2182733314
 40
0.3363119275
 40
0.3976704923
 40
0.4604873847
 40
0.5246708058
 40
0.590103775
 40
0.6566474349
 40
0.72414438
 40
0.7924223157
 40
0.861295734
 40
1.0
 40
1.0
 40
1.0
 40
1.0
 10
11.4293433939
 20
7.2073176199
 30
0.0
 10
11.4257811191
 20
7.2003541156
 30
0.0
 10
11.4178719965
 20
7.1866003844
 30
0.0
 10
11.4039802087
 20
7.1669122885
 30
0.0
 10
11.3880050063
 20
7.1480379853
 30
0.0
 10
11.363745798
 20
7.1237950512
 30
0.0
 10
11.3359450925
 20
7.1019825782
 30
0.0
 10
11.3053615427
 20
7.0827991177
 30
0.0
 10
11.2806166716
 20
7.0695183387
 30
0.0
 10
11.2545164316
 20
7.0576150612
 30
0.0
 10
11.2272097772
 20
7.0471556171
 30
0.0
 10
11.1988562731
 20
7.0382009649
 30
0.0
 10
11.1696211846
 20
7.0308026719
 30
0.0
 10
11.1396726672
 20
7.0250034542
 30
0.0
 10
11.0989415011
 20
7.0194363622
 30
0.0
 10
11.0679818878
 20
7.0177691099
 30
0.0
 10
11.0473183383
 20
7.0177691099
 30
0.0
  0
SPLINE
  5
35E
100
AcDbEntity
  8
0
100
AcDbSpline
 62
7
  6
CONTINUOUS
 70
0
 71
3
 72
25
 73
21
 74
0
 42
0.0000001
 43
0.0000001
 44
0.0000000001
 40
0.0
 40
0.0
 40
0.0
 40
0.0
 40
0.1430919014
 40
0.2139337163
 40
0.2839022518
 40
0.3527366217
 40
0.4202013556
 40
0.4860936983
 40
0.5502507192
 40
0.6125562958
 40
0.6729486144
 40
0.7314267689
 40
0.788057102
 40
0.8429773495
 40
0.8698704163
 40
0.8964209875
 40
0.9226665055
 40
0.9486480706
 40
0.9744098792
 40
1.0
 40
1.0
 40
1.0
 40
1.0
 10
11.0473183383
 20
7.0177691099
 30
0.0
 10
11.0226106991
 20
7.0177691099
 30
0.0
 10
10.9856091188
 20
7.0201499357
 30
0.0
 10
10.9372125744
 20
7.0281051879
 30
0.0
 10
10.9019371226
 20
7.0363642566
 30
0.0
 10
10.8678741211
 20
7.0468652696
 30
0.0
 10
10.8353033262
 20
7.059522249
 30
0.0
 10
10.8044965474
 20
7.0742311095
 30
0.0
 10
10.7757099359
 20
7.0908713747
 30
0.0
 10
10.7491834447
 20
7.1093071585
 30
0.0
 10
10.7251389823
 20
7.1293880403
 30
0.0
 10
10.70377851
 20
7.1509513721
 30
0.0
 10
10.685284743
 20
7.1738190143
 30
0.0
 10
10.6723011483
 20
7.1939548861
 30
0.0
 10
10.663544492
 20
7.2105006249
 30
0.0
 10
10.6578258631
 20
7.2230250592
 30
0.0
 10
10.652923762
 20
7.2357223569
 30
0.0
 10
10.6488489439
 20
7.2485665172
 30
0.0
 10
10.645609798
 20
7.2615294512
 30
0.0
 10
10.6440079349
 20
7.2702577093
 30
0.0
 10
10.6433502086
 20
7.274627122
 30
0.0
  0
SPLINE
  5
35F
100
AcDbEntity
  8
0
100
AcDbSpline
 62
7
  6
CONTINUOUS
 70
0
 71
3
 72
30
 73
26
 74
0
 42
0.0000001
 43
0.0000001
 44
0.0000000001
 40
0.0
 40
0.0
 40
0.0
 40
0.0
 40
0.0281041271
 40
0.0562328322
 40
0.0844096675
 40
0.1126586602
 40
0.1410033164
 40
0.1694664542
 40
0.1980703376
 40
0.226836436
 40
0.2557853053
 40
0.2849365247
 40
0.34390611
 40
0.4038912032
 40
0.4343058087
 40
0.4650140445
 40
0.5273407584
 40
0.5909461192
 40
0.6232460682
 40
0.655878354
 40
0.7221347587
 40
0.7897158774
 40
0.858591324
 40
0.9287091249
 40
1.0
 40
1.0
 40
1.0
 40
1.0
 10
13.0473183383
 20
4.8325377656
 30
0.0
 10
13.0473183383
 20
4.8165697263
 30
0.0
 10
13.0465819339
 20
4.7846148037
 30
0.0
 10
13.0432710688
 20
4.7367537281
 30
0.0
 10
13.0377586711
 20
4.6890122028
 30
0.0
 10
13.0300536178
 20
4.6414513274
 30
0.0
 10
13.0201684403
 20
4.5941292703
 30
0.0
 10
13.0081179815
 20
4.5471038641
 30
0.0
 10
12.9939211157
 20
4.5004312484
 30
0.0
 10
12.9775989449
 20
4.4541665408
 30
0.0
 10
12.9591747845
 20
4.4083622682
 30
0.0
 10
12.9317412266
 20
4.3477485629
 30
0.0
 10
12.8922332632
 20
4.2733335807
 30
0.0
 10
12.8464722234
 20
4.2017500514
 30
0.0
 10
12.8061147775
 20
4.1459997293
 30
0.0
 10
12.762854147
 20
4.090769762
 30
0.0
 10
12.7040929889
 20
4.0238153922
 30
0.0
 10
12.6401022637
 20
3.9605593043
 30
0.0
 10
12.5856295442
 20
3.9118968341
 30
0.0
 10
12.5284204834
 20
3.8640970907
 30
0.0
 10
12.4529118237
 20
3.8070211615
 30
0.0
 10
12.3568529663
 20
3.7433500922
 30
0.0
 10
12.2552895583
 20
3.6843883999
 30
0.0
 10
12.1486568373
 20
3.6303636203
 30
0.0
 10
12.0750564266
 20
3.5980267718
 30
0.0
 10
12.0375554962
 20
3.5827170811
 30
0.0
  0
SPLINE
  5
360
100
AcDbEntity
  8
0
100
AcDbSpline
 62
7
  6
CONTINUOUS
 70
0
 71
3
 72
45
 73
41
 74
0
 42
0.0000001
 43
0.0000001
 44
0.0000000001
 40
0.0
 40
0.0
 40
0.0
 40
0.0
 40
0.0662899083
 40
0.1000611054
 40
0.1341669403
 40
0.1685453041
 40
0.2031305399
 40
0.2378544375
 40
0.2726470739
 40
0.3074376895
 40
0.3421555492
 40
0.3767308054
 40
0.4110953676
 40
0.4451837671
 40
0.4789340388
 40
0.5122885849
 40
0.5451950626
 40
0.5776072443
 40
0.6094859044
 40
0.6407996411
 40
0.6715257023
 40
0.7016507079
 40
0.7164883442
 40
0.7311753526
 40
0.7600987947
 40
0.7884432068
 40
0.8024093989
 40
0.816242717
 40
0.8435274714
 40
0.8703529453
 40
0.8836148583
 40
0.8967852954
 40
0.9098731181
 40
0.922887624
 40
0.9358385237
 40
0.948735882
 40
0.9615900141
 40
0.9744115413
 40
0.9872113219
 40
1.0
 40
1.0
 40
1.0
 40
1.0
 10
12.0375554962
 20
3.5827170811
 30
0.0
 10
11.9611972886
 20
3.5515439734
 30
0.0
 10
11.8433096895
 20
3.5106379803
 30
0.0
 10
11.6819310016
 20
3.4677970521
 30
0.0
 10
11.5574635429
 20
3.4411928564
 30
0.0
 10
11.4308712839
 20
3.4204309122
 30
0.0
 10
11.3026739154
 20
3.4055907842
 30
0.0
 10
11.1734093317
 20
3.3967321038
 30
0.0
 10
11.0436173017
 20
3.393889902
 30
0.0
 10
10.9138407886
 20
3.3970755438
 30
0.0
 10
10.7846224697
 20
3.4062763266
 30
0.0
 10
10.6565025409
 20
3.4214556582
 30
0.0
 10
10.5300162142
 20
3.4425533094
 30
0.0
 10
10.405691341
 20
3.4694857895
 30
0.0
 10
10.2840461497
 20
3.5021470162
 30
0.0
 10
10.1655871016
 20
3.540409091
 30
0.0
 10
10.0508069757
 20
3.5841231545
 30
0.0
 10
9.940183029
 20
3.6331204542
 30
0.0
 10
9.8341758368
 20
3.6872130778
 30
0.0
 10
9.7332269409
 20
3.746195888
 30
0.0
 10
9.6377621922
 20
3.8098441
 30
0.0
 10
9.5627315335
 20
3.8668646567
 30
0.0
 10
9.5058898506
 20
3.9145992782
 30
0.0
 10
9.4517682524
 20
3.9631859293
 30
0.0
 10
9.3881950699
 20
4.0263242751
 30
0.0
 10
9.3298256849
 20
4.0931272032
 30
0.0
 10
9.2868563307
 20
4.1482191983
 30
0.0
 10
9.2467703974
 20
4.2038251486
 30
0.0
 10
9.2013203638
 20
4.2752098409
 30
0.0
 10
9.1620857971
 20
4.3493983212
 30
0.0
 10
9.1348431089
 20
4.4098194865
 30
0.0
 10
9.1165472526
 20
4.4554756575
 30
0.0
 10
9.1003392163
 20
4.5015875201
 30
0.0
 10
9.0862419373
 20
4.548103045
 30
0.0
 10
9.0742762908
 20
4.5949676837
 30
0.0
 10
9.0644608521
 20
4.6421258566
 30
0.0
 10
9.0568102723
 20
4.6895203304
 30
0.0
 10
9.051336916
 20
4.737093543
 30
0.0
 10
9.0480495145
 20
4.7847850382
 30
0.0
 10
9.0473183383
 20
4.8166264035
 30
0.0
 10
9.0473183383
 20
4.8325377656
 30
0.0
  0
SPLINE
  5
361
100
AcDbEntity
  8
0
100
AcDbSpline
 62
7
  6
CONTINUOUS
 70
0
 71
3
 72
30
 73
26
 74
0
 42
0.0000001
 43
0.0000001
 44
0.0000000001
 40
0.0
 40
0.0
 40
0.0
 40
0.0
 40
0.0281041271
 40
0.0562328322
 40
0.0844096675
 40
0.1126586602
 40
0.1410033164
 40
0.1694664542
 40
0.1980703376
 40
0.226836436
 40
0.2557853053
 40
0.2849365247
 40
0.34390611
 40
0.4038912032
 40
0.4343058087
 40
0.4650140445
 40
0.5273407584
 40
0.5909461192
 40
0.6232460682
 40
0.655878354
 40
0.7221347587
 40
0.7897158774
 40
0.858591324
 40
0.9287091249
 40
1.0
 40
1.0
 40
1.0
 40
1.0
 10
9.0473183383
 20
5.4293944618
 30
0.0
 10
9.0473183383
 20
5.4453625011
 30
0.0
 10
9.0480547426
 20
5.4773174237
 30
0.0
 10
9.0513656077
 20
5.5251784993
 30
0.0
 10
9.0568780054
 20
5.5729200246
 30
0.0
 10
9.0645830588
 20
5.6204809
 30
0.0
 10
9.0744682363
 20
5.6678029571
 30
0.0
 10
9.0865186951
 20
5.7148283633
 30
0.0
 10
9.1007155608
 20
5.7615009791
 30
0.0
 10
9.1170377316
 20
5.8077656866
 30
0.0
 10
9.1354618921
 20
5.8535699592
 30
0.0
 10
9.1628954499
 20
5.9141836645
 30
0.0
 10
9.2024034133
 20
5.9885986468
 30
0.0
 10
9.2481644532
 20
6.060182176
 30
0.0
 10
9.2885218991
 20
6.1159324981
 30
0.0
 10
9.3317825295
 20
6.1711624655
 30
0.0
 10
9.3905436877
 20
6.2381168353
 30
0.0
 10
9.4545344129
 20
6.3013729232
 30
0.0
 10
9.5090071324
 20
6.3500353933
 30
0.0
 10
9.5662161932
 20
6.3978351368
 30
0.0
 10
9.6417248529
 20
6.454911066
 30
0.0
 10
9.7377837103
 20
6.5185821352
 30
0.0
 10
9.8393471183
 20
6.5775438275
 30
0.0
 10
9.9459798393
 20
6.6315686072
 30
0.0
 10
10.01958025
 20
6.6639054556
 30
0.0
 10
10.0570811804
 20
6.6792151464
 30
0.0
  0
SPLINE
  5
362
100
AcDbEntity
  8
0
100
AcDbSpline
 62
7
  6
CONTINUOUS
 70
0
 71
3
 72
11
 73
7
 74
0
 42
0.0000001
 43
0.0000001
 44
0.0000000001
 40
0.0
 40
0.0
 40
0.0
 40
0.0
 40
0.2450834862
 40
0.4937741542
 40
0.7455917216
 40
1.0
 40
1.0
 40
1.0
 40
1.0
 10
10.0570811804
 20
6.6792151464
 30
0.0
 10
10.0989581507
 20
6.6963113479
 30
0.0
 10
10.1843615977
 20
6.7282773229
 30
0.0
 10
10.3158195226
 20
6.7691773842
 30
0.0
 10
10.4509909955
 20
6.8032212562
 30
0.0
 10
10.5427335472
 20
6.8211604185
 30
0.0
 10
10.5890343505
 20
6.828960747
 30
0.0
  0
SPLINE
  5
363
100
AcDbEntity
  8
0
100
AcDbSpline
 62
7
  6
CONTINUOUS
 70
0
 71
3
 72
30
 73
26
 74
0
 42
0.0000001
 43
0.0000001
 44
0.0000000001
 40
0.0
 40
0.0
 40
0.0
 40
0.0
 40
0.0722861159
 40
0.1436886539
 40
0.2140076915
 40
0.2830668825
 40
0.3507184267
 40
0.4168478565
 40
0.4813786993
 40
0.5442765908
 40
0.6055527472
 40
0.6356071971
 40
0.6652825658
 40
0.6945938856
 40
0.7235591749
 40
0.7521993538
 40
0.780538126
 40
0.8086018126
 40
0.8364191419
 40
0.8640210381
 40
0.891440371
 40
0.9187116426
 40
0.9458706108
 40
0.9729543165
 40
1.0
 40
1.0
 40
1.0
 40
1.0
 10
11.5058814486
 20
6.8289136917
 30
0.0
 10
11.5595273576
 20
6.8198700941
 30
0.0
 10
11.665648143
 20
6.7986500692
 30
0.0
 10
11.8214078256
 20
6.7572583329
 30
0.0
 10
11.9718994138
 20
6.706727136
 30
0.0
 10
12.1160933806
 20
6.6473764884
 30
0.0
 10
12.253012761
 20
6.5795768084
 30
0.0
 10
12.3817241894
 20
6.5037474796
 30
0.0
 10
12.5013468705
 20
6.4203509023
 30
0.0
 10
12.6110435223
 20
6.3299006009
 30
0.0
 10
12.6940849323
 20
6.2485644914
 30
0.0
 10
12.7546569089
 20
6.1805224919
 30
0.0
 10
12.7968493527
 20
6.1284266313
 30
0.0
 10
12.8360098293
 20
6.0750281034
 30
0.0
 10
12.8720617239
 20
6.0204129056
 30
0.0
 10
12.9049310388
 20
5.964672069
 30
0.0
 10
12.9345483329
 20
5.9079002805
 30
0.0
 10
12.960848918
 20
5.8501966442
 30
0.0
 10
12.9837733812
 20
5.7916646149
 30
0.0
 10
13.0032681218
 20
5.7324120515
 30
0.0
 10
13.0192860048
 20
5.6725510036
 30
0.0
 10
13.0317871806
 20
5.6121978616
 30
0.0
 10
13.0407400164
 20
5.5514714926
 30
0.0
 10
13.0461211434
 20
5.4904972845
 30
0.0
 10
13.0473183383
 20
5.4497491631
 30
0.0
 10
13.0473183383
 20
5.4293944618
 30
0.0
  0
LINE
  5
364
100
AcDbEntity
  8
0
100
AcDbLine
 62
7
  6
CONTINUOUS
 10
11.8834164842
 20
6.7354902806
 11
11.8847143511
 21
6.7672225698
  0
SPLINE
  5
365
100
AcDbEntity
  8
0
100
AcDbSpline
 62
7
  6
CONTINUOUS
 70
0
 71
3
 72
18
 73
14
 74
0
 42
0.0000001
 43
0.0000001
 44
0.0000000001
 40
0.0
 40
0.0
 40
0.0
 40
0.0
 40
0.053664652
 40
0.108677107
 40
0.1650612995
 40
0.2228258017
 40
0.3423483967
 40
0.4040643586
 40
0.4669726871
 40
0.5959546618
 40
0.728480153
 40
0.8635331387
 40
1.0
 40
1.0
 40
1.0
 40
1.0
 10
10.6953467171
 20
7.0164958174
 30
0.0
 10
10.6998293669
 20
7.0111740362
 30
0.0
 10
10.7093207906
 20
7.0007387494
 30
0.0
 10
10.7248290258
 20
6.9859662958
 30
0.0
 10
10.7417180907
 20
6.9719454594
 30
0.0
 10
10.7662513855
 20
6.9541387539
 30
0.0
 10
10.7930047156
 20
6.9383267415
 30
0.0
 10
10.8215282262
 20
6.9245710339
 30
0.0
 10
10.8518987001
 20
6.9119264083
 30
0.0
 10
10.8919750727
 20
6.8988872396
 30
0.0
 10
10.9422872957
 20
6.8879023267
 30
0.0
 10
10.9943754288
 20
6.8816456057
 30
0.0
 10
11.0296275188
 20
6.8807114496
 30
0.0
 10
11.0473183383
 20
6.8810576983
 30
0.0
  0
SPLINE
  5
366
100
AcDbEntity
  8
0
100
AcDbSpline
 62
7
  6
CONTINUOUS
 70
0
 71
3
 72
13
 73
9
 74
0
 42
0.0000001
 43
0.0000001
 44
0.0000000001
 40
0.0
 40
0.0
 40
0.0
 40
0.0
 40
0.2570881209
 40
0.3848516092
 40
0.5115202664
 40
0.6367143981
 40
0.7600836963
 40
1.0
 40
1.0
 40
1.0
 40
1.0
 10
11.0473183383
 20
6.8312490384
 30
0.0
 10
11.0692798747
 20
6.8316769126
 30
0.0
 10
11.1021613944
 20
6.8342012291
 30
0.0
 10
11.1452980252
 20
6.8413298931
 30
0.0
 10
11.1769514003
 20
6.848501201
 30
0.0
 10
11.2077555307
 20
6.8574657039
 30
0.0
 10
11.2470431342
 20
6.8715973413
 30
0.0
 10
11.2752276326
 20
6.8848888071
 30
0.0
 10
11.2930994135
 20
6.8949282041
 30
0.0
  0
SPLINE
  5
367
100
AcDbEntity
  8
0
100
AcDbSpline
 62
7
  6
CONTINUOUS
 70
0
 71
3
 72
20
 73
16
 74
0
 42
0.0000001
 43
0.0000001
 44
0.0000000001
 40
0.0
 40
0.0
 40
0.0
 40
0.0
 40
0.1403524478
 40
0.2758296097
 40
0.4063159294
 40
0.4697568548
 40
0.5320337076
 40
0.5932126103
 40
0.6533783863
 40
0.7126344144
 40
0.7711015784
 40
0.8289164481
 40
0.8862291331
 40
0.9432007758
 40
1.0
 40
1.0
 40
1.0
 40
1.0
 10
11.2930994135
 20
6.8949282041
 30
0.0
 10
11.3053045684
 20
6.901784398
 30
0.0
 10
11.328654998
 20
6.9164406559
 30
0.0
 10
11.360564165
 20
6.9415479554
 30
0.0
 10
11.3839551399
 20
6.9647444386
 30
0.0
 10
11.4003440919
 20
6.9843703698
 30
0.0
 10
11.4113551478
 20
6.9994294711
 30
0.0
 10
11.4211607023
 20
7.0149148478
 30
0.0
 10
11.429727986
 20
7.0307775597
 30
0.0
 10
11.4370277583
 20
7.0469665071
 30
0.0
 10
11.4430351945
 20
7.0634295098
 30
0.0
 10
11.4477294761
 20
7.080113174
 30
0.0
 10
11.4510942159
 20
7.0969636067
 30
0.0
 10
11.4531178448
 20
7.1139243226
 30
0.0
 10
11.4535683382
 20
7.1252771743
 30
0.0
 10
11.4535683383
 20
7.1309424461
 30
0.0
  0
SPLINE
  5
368
100
AcDbEntity
  8
0
100
AcDbSpline
 62
7
  6
CONTINUOUS
 70
0
 71
3
 72
24
 73
20
 74
0
 42
0.0000001
 43
0.0000001
 44
0.0000000001
 40
0.0
 40
0.0
 40
0.0
 40
0.0
 40
0.1414396296
 40
0.211608227
 40
0.2810168985
 40
0.3494121351
 40
0.4165650561
 40
0.4822781846
 40
0.5463920388
 40
0.6087917203
 40
0.6694134069
 40
0.7282507307
 40
0.7853597661
 40
0.8408630628
 40
0.8949503881
 40
0.9215516427
 40
0.9478994111
 40
0.9740343922
 40
1.0
 40
1.0
 40
1.0
 40
1.0
 10
11.0473183383
 20
6.8810576983
 30
0.0
 10
11.071883099
 20
6.8815384853
 30
0.0
 10
11.1086486144
 20
6.8846125882
 30
0.0
 10
11.156688242
 20
6.8934158131
 30
0.0
 10
11.1917407486
 20
6.9022819728
 30
0.0
 10
11.2256059229
 20
6.913360422
 30
0.0
 10
11.2580094452
 20
6.9265676863
 30
0.0
 10
11.2886845597
 20
6.9418025169
 30
0.0
 10
11.31737965
 20
6.9589477131
 30
0.0
 10
11.3438586749
 20
6.9778708537
 30
0.0
 10
11.3679032178
 20
6.9984255755
 30
0.0
 10
11.3893136944
 20
7.0204522533
 30
0.0
 10
11.407911022
 20
7.0437802321
 30
0.0
 10
11.4235364297
 20
7.0682241344
 30
0.0
 10
11.4340292832
 20
7.0894899116
 30
0.0
 10
11.4407733509
 20
7.1068266373
 30
0.0
 10
11.4449912339
 20
7.1199097921
 30
0.0
 10
11.4483867624
 20
7.1331153534
 30
0.0
 10
11.4501020445
 20
7.142008608
 30
0.0
 10
11.4508187176
 20
7.1464617911
 30
0.0
  0
SPLINE
  5
369
100
AcDbEntity
  8
0
100
AcDbSpline
 62
7
  6
CONTINUOUS
 70
0
 71
3
 72
25
 73
21
 74
0
 42
0.0000001
 43
0.0000001
 44
0.0000000001
 40
0.0
 40
0.0
 40
0.0
 40
0.0
 40
0.1415197728
 40
0.2117234491
 40
0.2811609653
 40
0.3495771665
 40
0.4167418966
 40
0.4824568765
 40
0.5465624807
 40
0.6089442873
 40
0.6695398508
 40
0.7283449576
 40
0.7854188085
 40
0.8408879322
 40
0.8680896353
 40
0.894968685
 40
0.9215596196
 40
0.9479004644
 40
0.974032568
 40
1.0
 40
1.0
 40
1.0
 40
1.0
 10
11.0473183383
 20
6.9307051892
 30
0.0
 10
11.0719758915
 20
6.931186439
 30
0.0
 10
11.1088799205
 20
6.9342795927
 30
0.0
 10
11.1570932001
 20
6.9431448716
 30
0.0
 10
11.1922648158
 20
6.9520745006
 30
0.0
 10
11.2262357641
 20
6.9632325612
 30
0.0
 10
11.2587287946
 20
6.976534302
 30
0.0
 10
11.2894743965
 20
6.9918769618
 30
0.0
 10
11.3182184504
 20
7.0091415789
 30
0.0
 10
11.3447227434
 20
7.0281938698
 30
0.0
 10
11.3687668478
 20
7.0488851043
 30
0.0
 10
11.3901499832
 20
7.0710542911
 30
0.0
 10
11.4086905144
 20
7.0945251062
 30
0.0
 10
11.4217278969
 20
7.1151561677
 30
0.0
 10
11.4305439467
 20
7.1320993033
 30
0.0
 10
11.4363164941
 20
7.1449267667
 30
0.0
 10
11.441278995
 20
7.1579282334
 30
0.0
 10
11.4454206978
 20
7.171078061
 30
0.0
 10
11.4487330745
 20
7.1843485456
 30
0.0
 10
11.4503878601
 20
7.1932826708
 30
0.0
 10
11.4510732019
 20
7.1977557438
 30
0.0
  0
SPLINE
  5
36A
100
AcDbEntity
  8
0
100
AcDbSpline
 62
7
  6
CONTINUOUS
 70
0
 71
3
 72
21
 73
17
 74
0
 42
0.0000001
 43
0.0000001
 44
0.0000000001
 40
0.0
 40
0.0
 40
0.0
 40
0.0
 40
0.1361723208
 40
0.2683781213
 40
0.3330782825
 40
0.3968822551
 40
0.4598386569
 40
0.5220039193
 40
0.5834425795
 40
0.6442264351
 40
0.7044345162
 40
0.7641521159
 40
0.8234701389
 40
0.8824842244
 40
0.9412935962
 40
1.0
 40
1.0
 40
1.0
 40
1.0
 10
11.4976341428
 20
6.836217446
 30
0.0
 10
11.5074819829
 20
6.8274472442
 30
0.0
 10
11.5261737957
 20
6.8093345405
 30
0.0
 10
11.5472406886
 20
6.7848432568
 30
0.0
 10
11.5622769822
 20
6.7645508985
 30
0.0
 10
11.5725691989
 20
6.7491191029
 30
0.0
 10
11.5819377026
 20
6.7333947357
 30
0.0
 10
11.5903656882
 20
6.7174048953
 30
0.0
 10
11.5978384366
 20
6.7011779795
 30
0.0
 10
11.6043421501
 20
6.6847423233
 30
0.0
 10
11.6098654815
 20
6.6681270687
 30
0.0
 10
11.6143982207
 20
6.6513614492
 30
0.0
 10
11.6179322556
 20
6.6344752293
 30
0.0
 10
11.6204612471
 20
6.6174981251
 30
0.0
 10
11.6219803533
 20
6.6004610269
 30
0.0
 10
11.622318333
 20
6.5890778787
 30
0.0
 10
11.622318338
 20
6.5833927287
 30
0.0
  0
SPLINE
  5
36B
100
AcDbEntity
  8
0
100
AcDbSpline
 62
7
  6
CONTINUOUS
 70
0
 71
3
 72
35
 73
31
 74
0
 42
0.0000001
 43
0.0000001
 44
0.0000000001
 40
0.0
 40
0.0
 40
0.0
 40
0.0
 40
0.0667176106
 40
0.1007491293
 40
0.1351402755
 40
0.204709592
 40
0.2397643499
 40
0.2748942149
 40
0.3450599605
 40
0.3799653366
 40
0.4146486642
 40
0.4830511228
 40
0.5166608121
 40
0.5497904952
 40
0.5823881505
 40
0.6144084764
 40
0.6458138662
 40
0.6765752891
 40
0.7066732358
 40
0.7360986224
 40
0.7648536279
 40
0.7929524745
 40
0.820422018
 40
0.8473021387
 40
0.8736458071
 40
0.8995187222
 40
0.924998488
 40
0.9501732031
 40
0.975139487
 40
1.0
 40
1.0
 40
1.0
 40
1.0
 10
11.3348183383
 20
5.5665982039
 30
0.0
 10
11.3127712055
 20
5.5575974996
 30
0.0
 10
11.2787205093
 20
5.5457793513
 30
0.0
 10
11.2320911556
 20
5.5333842066
 30
0.0
 10
11.1839141147
 20
5.5230616526
 30
0.0
 10
11.1346883305
 20
5.5161682021
 30
0.0
 10
11.0849118224
 20
5.5127053154
 30
0.0
 10
11.03481521
 20
5.5115468461
 30
0.0
 10
10.9847411914
 20
5.513857653
 30
0.0
 10
10.9351790236
 20
5.5196375266
 30
0.0
 10
10.8865663911
 20
5.5276436251
 30
0.0
 10
10.8390212691
 20
5.5390045228
 30
0.0
 10
10.7930644494
 20
5.5537111369
 30
0.0
 10
10.7598770597
 20
5.566239372
 30
0.0
 10
10.7279173828
 20
5.5802748215
 30
0.0
 10
10.6973205216
 20
5.5957584343
 30
0.0
 10
10.668217424
 20
5.6126245571
 30
0.0
 10
10.6407323103
 20
5.6308018983
 30
0.0
 10
10.6149827342
 20
5.6502136682
 30
0.0
 10
10.5910789886
 20
5.6707779308
 30
0.0
 10
10.5691237423
 20
5.692407925
 30
0.0
 10
10.5492116562
 20
5.7150123709
 30
0.0
 10
10.5314290423
 20
5.7384957749
 30
0.0
 10
10.5158535002
 20
5.7627586948
 30
0.0
 10
10.5025536002
 20
5.7876980006
 30
0.0
 10
10.4915885065
 20
5.8132072355
 30
0.0
 10
10.4830075749
 20
5.8391765521
 30
0.0
 10
10.4768498827
 20
5.8654944052
 30
0.0
 10
10.4731437853
 20
5.8920431817
 30
0.0
 10
10.4723183387
 20
5.9098388511
 30
0.0
 10
10.4723183383
 20
5.9187123544
 30
0.0
  0
SPLINE
  5
36C
100
AcDbEntity
  8
0
100
AcDbSpline
 62
7
  6
CONTINUOUS
 70
0
 71
3
 72
31
 73
27
 74
0
 42
0.0000001
 43
0.0000001
 44
0.0000000001
 40
0.0
 40
0.0
 40
0.0
 40
0.0
 40
0.0667239569
 40
0.1007585078
 40
0.1351529058
 40
0.2047287164
 40
0.2749010178
 40
0.34507331
 40
0.4146491565
 40
0.483058004
 40
0.5166708214
 40
0.5498036027
 40
0.6144034373
 40
0.6458117579
 40
0.6765760517
 40
0.7360739652
 40
0.764831662
 40
0.7929331348
 40
0.8204052414
 40
0.8472878729
 40
0.873633999
 40
0.8995093348
 40
0.9249914868
 40
0.950168552
 40
0.9751371733
 40
1.0
 40
1.0
 40
1.0
 40
1.0
 10
11.2785683383
 20
6.2860283416
 30
0.0
 10
11.2608347449
 20
6.2787886324
 30
0.0
 10
11.2334460681
 20
6.2692827144
 30
0.0
 10
11.1959400664
 20
6.2593127707
 30
0.0
 10
11.1571880745
 20
6.2510096963
 30
0.0
 10
11.1076002878
 20
6.2440654663
 30
0.0
 10
11.0473189356
 20
6.2412838176
 30
0.0
 10
10.9870340028
 20
6.244065852
 30
0.0
 10
10.9277710237
 20
6.2523647224
 30
0.0
 10
10.8797763307
 20
6.2638330539
 30
0.0
 10
10.8428088202
 20
6.2756630408
 30
0.0
 10
10.8075218954
 20
6.2889838276
 30
0.0
 10
10.7738918828
 20
6.3047927523
 30
0.0
 10
10.7423888552
 20
6.323049978
 30
0.0
 10
10.713243264
 20
6.3423248145
 30
0.0
 10
10.686494412
 20
6.3637646784
 30
0.0
 10
10.6626840858
 20
6.3872226651
 30
0.0
 10
10.6466671725
 20
6.4054050706
 30
0.0
 10
10.6323639447
 20
6.4242937521
 30
0.0
 10
10.6198357567
 20
6.4438096213
 30
0.0
 10
10.6091380201
 20
6.4638694859
 30
0.0
 10
10.6003182559
 20
6.4843877823
 30
0.0
 10
10.5934161798
 20
6.5052761401
 30
0.0
 10
10.5884632526
 20
6.5264448504
 30
0.0
 10
10.5854822749
 20
6.5477993051
 30
0.0
 10
10.5848184043
 20
6.5621132126
 30
0.0
 10
10.5848183742
 20
6.5692505931
 30
0.0
  0
SPLINE
  5
36D
100
AcDbEntity
  8
0
100
AcDbSpline
 62
7
  6
CONTINUOUS
 70
0
 71
3
 72
18
 73
14
 74
0
 42
0.0000001
 43
0.0000001
 44
0.0000000001
 40
0.0
 40
0.0
 40
0.0
 40
0.0
 40
0.1411486342
 40
0.2778020581
 40
0.4096058924
 40
0.5364122893
 40
0.6583220768
 40
0.7175779708
 40
0.7757727473
 40
0.8329968629
 40
0.889358019
 40
0.9449797586
 40
1.0
 40
1.0
 40
1.0
 40
1.0
 10
11.2201279562
 20
6.44947808
 30
0.0
 10
11.2311082147
 20
6.4539607518
 30
0.0
 10
11.2523421144
 20
6.4637498394
 30
0.0
 10
11.2821253092
 20
6.4811048814
 30
0.0
 10
11.3090122303
 20
6.5007104273
 30
0.0
 10
11.3326621744
 20
6.5223277347
 30
0.0
 10
11.3495900729
 20
6.5419983868
 30
0.0
 10
11.3611621171
 20
6.5584635688
 30
0.0
 10
11.3687827329
 20
6.5710210351
 30
0.0
 10
11.3754001262
 20
6.5838619709
 30
0.0
 10
11.3809937275
 20
6.5969469861
 30
0.0
 10
11.3855449675
 20
6.6102340383
 30
0.0
 10
11.3878854567
 20
6.6192424343
 30
0.0
 10
11.3888736389
 20
6.6237586718
 30
0.0
  0
SPLINE
  5
36E
100
AcDbEntity
  8
0
100
AcDbSpline
 62
7
  6
CONTINUOUS
 70
0
 71
3
 72
26
 73
22
 74
0
 42
0.0000001
 43
0.0000001
 44
0.0000000001
 40
0.0
 40
0.0
 40
0.0
 40
0.0
 40
0.026006459
 40
0.0521278864
 40
0.0784147591
 40
0.1049150642
 40
0.1587075431
 40
0.2138452643
 40
0.2420085119
 40
0.2705933564
 40
0.2996184725
 40
0.3290978786
 40
0.3894342737
 40
0.4516408883
 40
0.515669657
 40
0.5814118414
 40
0.6487059849
 40
0.7173454183
 40
0.787086289
 40
0.8576555146
 40
1.0
 40
1.0
 40
1.0
 40
1.0
 10
11.4529331288
 20
7.1807858665
 30
0.0
 10
11.452574324
 20
7.1761250142
 30
0.0
 10
11.4515508332
 20
7.1668033117
 30
0.0
 10
11.449110865
 20
7.1529118592
 30
0.0
 10
11.4457687589
 20
7.1391172146
 30
0.0
 10
11.4400944085
 20
7.1208081143
 30
0.0
 10
11.4307320303
 20
7.0982673414
 30
0.0
 10
11.4186337679
 20
7.0767339631
 30
0.0
 10
11.4073554745
 20
7.0600727869
 30
0.0
 10
11.3980291905
 20
7.0477861243
 30
0.0
 10
11.3879178916
 20
7.0358261902
 30
0.0
 10
11.3733085177
 20
7.0202308915
 30
0.0
 10
11.3531601779
 20
7.0017034825
 30
0.0
 10
11.3264487393
 20
6.9813543895
 30
0.0
 10
11.2972521414
 20
6.9628825811
 30
0.0
 10
11.2658326826
 20
6.9464442594
 30
0.0
 10
11.2324694755
 20
6.9321758345
 30
0.0
 10
11.1974604912
 20
6.9201959013
 30
0.0
 10
11.1611131607
 20
6.9106022632
 30
0.0
 10
11.1111799271
 20
6.9010728932
 30
0.0
 10
11.0728995143
 20
6.897751842
 30
0.0
 10
11.0473183383
 20
6.8972387401
 30
0.0
  0
SPLINE
  5
36F
100
AcDbEntity
  8
0
100
AcDbSpline
 62
9
  6
CONTINUOUS
 70
0
 71
3
 72
44
 73
40
 74
0
 42
0.0000001
 43
0.0000001
 44
0.0000000001
 40
0.0
 40
0.0
 40
0.0
 40
0.0
 40
0.0124255379
 40
0.0248643593
 40
0.0373296509
 40
0.0498343999
 40
0.0623913036
 40
0.0750126843
 40
0.0877103939
 40
0.1004957595
 40
0.1133794971
 40
0.1263716651
 40
0.1527123801
 40
0.1795894909
 40
0.2070559529
 40
0.2351516409
 40
0.2639034137
 40
0.2933254929
 40
0.3234200654
 40
0.3541780408
 40
0.3855799092
 40
0.4175966465
 40
0.4501906387
 40
0.4833166062
 40
0.5169225168
 40
0.5509504891
 40
0.5853376728
 40
0.6200171091
 40
0.6549185733
 40
0.6899694033
 40
0.7250953192
 40
0.7602212352
 40
0.7952720652
 40
0.8301735294
 40
0.8648529672
 40
0.8992401398
 40
0.9332681641
 40
0.9668739092
 40
1.0
 40
1.0
 40
1.0
 40
1.0
 10
9.0473183383
 20
4.8325377656
 30
0.0
 10
9.0473183383
 20
4.8171097123
 30
0.0
 10
9.0480333168
 20
4.7862323516
 30
0.0
 10
9.0512485618
 20
4.7399782817
 30
0.0
 10
9.0566035248
 20
4.6938229255
 30
0.0
 10
9.0640923028
 20
4.6478173098
 30
0.0
 10
9.0737065234
 20
4.6020105588
 30
0.0
 10
9.0854360451
 20
4.5564521476
 30
0.0
 10
9.0992677094
 20
4.5111908601
 30
0.0
 10
9.1151866307
 20
4.4662756233
 30
0.0
 10
9.1331758953
 20
4.4217537879
 30
0.0
 10
9.1600143153
 20
4.3627173478
 30
0.0
 10
9.1987458146
 20
4.2900879859
 30
0.0
 10
9.2529205424
 20
4.2056981215
 30
0.0
 10
9.3147734725
 20
4.1240159493
 30
0.0
 10
9.3840327683
 20
4.0453919842
 30
0.0
 10
9.4603987944
 20
3.9701571119
 30
0.0
 10
9.5435422091
 20
3.8986292195
 30
0.0
 10
9.6331059719
 20
3.8311100209
 30
0.0
 10
9.7287063853
 20
3.7678845084
 30
0.0
 10
9.8299346386
 20
3.709219745
 30
0.0
 10
9.9363583307
 20
3.6553637848
 30
0.0
 10
10.0475231649
 20
3.6065445947
 30
0.0
 10
10.1629547576
 20
3.5629690483
 30
0.0
 10
10.2821605508
 20
3.5248219058
 30
0.0
 10
10.4046319004
 20
3.4922650559
 30
0.0
 10
10.5298462132
 20
3.465436773
 30
0.0
 10
10.6572691562
 20
3.4444510798
 30
0.0
 10
10.786356927
 20
3.4293972383
 30
0.0
 10
10.9165585671
 20
3.4203392599
 30
0.0
 10
11.0473183385
 20
3.4173156479
 30
0.0
 10
11.1780781086
 20
3.4203392595
 30
0.0
 10
11.3082797525
 20
3.42939724
 30
0.0
 10
11.4373675111
 20
3.4444510732
 30
0.0
 10
11.5647904941
 20
3.4654367961
 30
0.0
 10
11.6900046671
 20
3.4922649804
 30
0.0
 10
11.8124765785
 20
3.5248221532
 30
0.0
 10
11.9316797424
 20
3.5629681095
 30
0.0
 10
12.0092387079
 20
3.5922469502
 30
0.0
 10
12.0473183383
 20
3.6077928942
 30
0.0
  0
SPLINE
  5
370
100
AcDbEntity
  8
0
100
AcDbSpline
 62
9
  6
CONTINUOUS
 70
0
 71
3
 72
44
 73
40
 74
0
 42
0.0000001
 43
0.0000001
 44
0.0000000001
 40
0.0
 40
0.0
 40
0.0
 40
0.0
 40
0.0124255379
 40
0.0248643593
 40
0.037329651
 40
0.0498344
 40
0.0623913036
 40
0.0750126843
 40
0.0877103939
 40
0.1004957595
 40
0.1133794971
 40
0.1263716651
 40
0.1527123801
 40
0.1795894909
 40
0.2070559529
 40
0.2351516409
 40
0.2639034137
 40
0.2933254929
 40
0.3234200654
 40
0.3541780408
 40
0.3855799092
 40
0.4175966466
 40
0.4501906387
 40
0.4833166062
 40
0.5169225168
 40
0.5509504891
 40
0.5853376728
 40
0.620017109
 40
0.6549185733
 40
0.6899694033
 40
0.7250953192
 40
0.7602212352
 40
0.7952720652
 40
0.8301735294
 40
0.8648529672
 40
0.8992401398
 40
0.9332681641
 40
0.9668739092
 40
1.0
 40
1.0
 40
1.0
 40
1.0
 10
9.0473183383
 20
5.4293944618
 30
0.0
 10
9.0473183383
 20
5.4139664085
 30
0.0
 10
9.0480333168
 20
5.3830890479
 30
0.0
 10
9.0512485618
 20
5.3368349779
 30
0.0
 10
9.0566035248
 20
5.2906796217
 30
0.0
 10
9.0640923028
 20
5.2446740061
 30
0.0
 10
9.0737065234
 20
5.1988672551
 30
0.0
 10
9.0854360451
 20
5.1533088438
 30
0.0
 10
9.0992677094
 20
5.1080475563
 30
0.0
 10
9.1151866307
 20
5.0631323195
 30
0.0
 10
9.1331758953
 20
5.0186104842
 30
0.0
 10
9.1600143152
 20
4.9595740441
 30
0.0
 10
9.1987458146
 20
4.8869446822
 30
0.0
 10
9.2529205424
 20
4.8025548178
 30
0.0
 10
9.3147734725
 20
4.7208726455
 30
0.0
 10
9.3840327683
 20
4.6422486805
 30
0.0
 10
9.4603987944
 20
4.5670138082
 30
0.0
 10
9.5435422091
 20
4.4954859158
 30
0.0
 10
9.6331059719
 20
4.4279667172
 30
0.0
 10
9.7287063853
 20
4.3647412047
 30
0.0
 10
9.8299346386
 20
4.3060764413
 30
0.0
 10
9.9363583307
 20
4.2522204811
 30
0.0
 10
10.0475231649
 20
4.203401291
 30
0.0
 10
10.1629547576
 20
4.1598257446
 30
0.0
 10
10.2821605508
 20
4.1216786021
 30
0.0
 10
10.4046319004
 20
4.0891217521
 30
0.0
 10
10.5298462132
 20
4.0622934693
 30
0.0
 10
10.6572691562
 20
4.041307776
 30
0.0
 10
10.7863569269
 20
4.0262539345
 30
0.0
 10
10.9165585671
 20
4.0171959562
 30
0.0
 10
11.0473183385
 20
4.0141723442
 30
0.0
 10
11.1780781086
 20
4.0171959558
 30
0.0
 10
11.3082797525
 20
4.0262539363
 30
0.0
 10
11.4373675111
 20
4.0413077694
 30
0.0
 10
11.564790494
 20
4.0622934924
 30
0.0
 10
11.690004667
 20
4.0891216767
 30
0.0
 10
11.8124765785
 20
4.1216788495
 30
0.0
 10
11.9316797424
 20
4.1598248058
 30
0.0
 10
12.0092387079
 20
4.1891036465
 30
0.0
 10
12.0473183383
 20
4.2046495904
 30
0.0
  0
SPLINE
  5
371
100
AcDbEntity
  8
0
100
AcDbSpline
 62
9
  6
CONTINUOUS
 70
0
 71
3
 72
28
 73
24
 74
0
 42
0.0000001
 43
0.0000001
 44
0.0000000001
 40
0.0
 40
0.0
 40
0.0
 40
0.0
 40
0.0276006138
 40
0.0552307338
 40
0.0829196517
 40
0.1106962155
 40
0.1385886293
 40
0.1666242649
 40
0.1948294486
 40
0.2232293408
 40
0.2518477448
 40
0.2807070032
 40
0.3392171381
 40
0.3989187589
 40
0.4599294943
 40
0.5223379179
 40
0.58620369
 40
0.651558401
 40
0.7184069125
 40
0.7867290001
 40
0.8564814955
 40
0.9275993044
 40
1.0
 40
1.0
 40
1.0
 40
1.0
 10
13.0473183383
 20
5.4293944618
 30
0.0
 10
13.0473183383
 20
5.4139664085
 30
0.0
 10
13.0466033597
 20
5.3830890479
 30
0.0
 10
13.0433881147
 20
5.3368349779
 30
0.0
 10
13.0380331518
 20
5.2906796217
 30
0.0
 10
13.0305443738
 20
5.2446740061
 30
0.0
 10
13.0209301531
 20
5.1988672551
 30
0.0
 10
13.0092006315
 20
5.1533088438
 30
0.0
 10
12.9953689671
 20
5.1080475563
 30
0.0
 10
12.9794500458
 20
5.0631323195
 30
0.0
 10
12.9614607813
 20
5.0186104842
 30
0.0
 10
12.9346223613
 20
4.9595740441
 30
0.0
 10
12.8958908619
 20
4.8869446822
 30
0.0
 10
12.8417161342
 20
4.8025548178
 30
0.0
 10
12.7798632039
 20
4.7208726455
 30
0.0
 10
12.7106039089
 20
4.6422486807
 30
0.0
 10
12.6342378796
 20
4.5670138077
 30
0.0
 10
12.5510944765
 20
4.4954859166
 30
0.0
 10
12.4615306735
 20
4.4279667156
 30
0.0
 10
12.3659304024
 20
4.3647412172
 30
0.0
 10
12.2647015922
 20
4.3060763255
 30
0.0
 10
12.1582804595
 20
4.2522212913
 30
0.0
 10
12.0847864438
 20
4.2199458805
 30
0.0
 10
12.0473183383
 20
4.2046495904
 30
0.0
  0
SPLINE
  5
372
100
AcDbEntity
  8
0
100
AcDbSpline
 62
7
  6
CONTINUOUS
 70
0
 71
3
 72
23
 73
19
 74
0
 42
0.0000001
 43
0.0000001
 44
0.0000000001
 40
0.0
 40
0.0
 40
0.0
 40
0.0
 40
0.117206524
 40
0.1475908136
 40
0.1783525818
 40
0.2408913328
 40
0.3045998252
 40
0.369212163
 40
0.434439915
 40
0.4999794486
 40
0.5655197189
 40
0.6307496589
 40
0.6953655884
 40
0.7590789835
 40
0.8216238224
 40
0.8523890291
 40
0.8827769868
 40
1.0
 40
1.0
 40
1.0
 40
1.0
 10
10.7769122453
 20
7.0905538274
 30
0.0
 10
10.7951903784
 20
7.0777325361
 30
0.0
 10
10.8197901767
 20
7.0637235793
 30
0.0
 10
10.8508316623
 20
7.0499210588
 30
0.0
 10
10.8727293786
 20
7.0412073041
 30
0.0
 10
10.9011460425
 20
7.0317816422
 30
0.0
 10
10.9364389742
 20
7.0229204828
 30
0.0
 10
10.9727813005
 20
7.016529117
 30
0.0
 10
11.0098283694
 20
7.012667722
 30
0.0
 10
11.0472301013
 20
7.0113724728
 30
0.0
 10
11.0846326674
 20
7.0126555883
 30
0.0
 10
11.1216822325
 20
7.0165049594
 30
0.0
 10
11.1580286924
 20
7.0228845271
 30
0.0
 10
11.1933273559
 20
7.0317342259
 30
0.0
 10
11.2217499808
 20
7.0411506121
 30
0.0
 10
11.2436532474
 20
7.0498572046
 30
0.0
 10
11.2747040672
 20
7.0636497967
 30
0.0
 10
11.2993127626
 20
7.0776507163
 30
0.0
 10
11.3175990168
 20
7.0904658962
 30
0.0
  0
SPLINE
  5
373
100
AcDbEntity
  8
0
100
AcDbSpline
 62
7
  6
CONTINUOUS
 70
0
 71
3
 72
21
 73
17
 74
0
 42
0.0000001
 43
0.0000001
 44
0.0000000001
 40
0.0
 40
0.0
 40
0.0
 40
0.0
 40
0.1158040685
 40
0.1762543593
 40
0.2381405328
 40
0.3012458851
 40
0.3653268028
 40
0.4301195449
 40
0.4953469186
 40
0.5607244543
 40
0.6259670145
 40
0.690794683
 40
0.754939442
 40
0.8181511809
 40
0.8802043933
 40
1.0
 40
1.0
 40
1.0
 40
1.0
 10
10.7819068965
 20
7.0447082971
 30
0.0
 10
10.7995952125
 20
7.0331408576
 30
0.0
 10
10.8281593097
 20
7.0179348491
 30
0.0
 10
10.8686340553
 20
7.0020400119
 30
0.0
 10
10.9009992993
 20
6.9920291366
 30
0.0
 10
10.9346345878
 20
6.9842025254
 30
0.0
 10
10.9692537767
 20
6.9786310306
 30
0.0
 10
11.0045542673
 20
6.9753699116
 30
0.0
 10
11.0402296576
 20
6.9744534908
 30
0.0
 10
11.075969765
 20
6.9758961706
 30
0.0
 10
11.1114638727
 20
6.9796918372
 30
0.0
 10
11.1464040022
 20
6.9858143638
 30
0.0
 10
11.1804850935
 20
6.9942166058
 30
0.0
 10
11.2134169174
 20
7.0048354676
 30
0.0
 10
11.2548952405
 20
7.0216243143
 30
0.0
 10
11.2842328906
 20
7.037534639
 30
0.0
 10
11.3024835371
 20
7.0495728811
 30
0.0
  0
SPLINE
  5
374
100
AcDbEntity
  8
0
100
AcDbSpline
 62
7
  6
CONTINUOUS
 70
0
 71
3
 72
21
 73
17
 74
0
 42
0.0000001
 43
0.0000001
 44
0.0000000001
 40
0.0
 40
0.0
 40
0.0
 40
0.0
 40
0.1170784911
 40
0.1778517057
 40
0.2398692907
 40
0.3029355047
 40
0.3668353468
 40
0.4313391502
 40
0.4962076135
 40
0.5611965426
 40
0.6260612465
 40
0.6905615721
 40
0.7544661319
 40
0.817557271
 40
0.8796358144
 40
1.0
 40
1.0
 40
1.0
 40
1.0
 10
10.7999945539
 20
6.9847352752
 30
0.0
 10
10.8172003304
 20
6.9747936301
 30
0.0
 10
10.8445930266
 20
6.9617674406
 30
0.0
 10
10.8829986253
 20
6.9482044133
 30
0.0
 10
10.9134114394
 20
6.9397299548
 30
0.0
 10
10.9448280734
 20
6.9331554989
 30
0.0
 10
10.9770173564
 20
6.928533231
 30
0.0
 10
11.0097364054
 20
6.9259032826
 30
0.0
 10
11.0427399622
 20
6.9252902726
 30
0.0
 10
11.0757802251
 20
6.92670397
 30
0.0
 10
11.1086091808
 20
6.9301389198
 30
0.0
 10
11.1409808067
 20
6.9355747912
 30
0.0
 10
11.1726511
 20
6.9429756719
 30
0.0
 10
11.2033869134
 20
6.9522935803
 30
0.0
 10
11.2423892737
 20
6.9670256128
 30
0.0
 10
11.2702089382
 20
6.980947724
 30
0.0
 10
11.2877137748
 20
6.9914800705
 30
0.0
  0
SPLINE
  5
375
100
AcDbEntity
  8
0
100
AcDbSpline
 62
7
  6
CONTINUOUS
 70
0
 71
3
 72
36
 73
32
 74
0
 42
0.0000001
 43
0.0000001
 44
0.0000000001
 40
0.0
 40
0.0
 40
0.0
 40
0.0
 40
0.0248354481
 40
0.0498082127
 40
0.075049097
 40
0.1006805351
 40
0.1268100135
 40
0.1535287267
 40
0.1809092385
 40
0.2090048499
 40
0.2378496452
 40
0.2674591565
 40
0.2978313436
 40
0.3289480791
 40
0.3607764747
 40
0.3932705142
 40
0.426372639
 40
0.4600151883
 40
0.4941220253
 40
0.5286099606
 40
0.5983447797
 40
0.6334276872
 40
0.6685167365
 40
0.7383004161
 40
0.7728302847
 40
0.8069900189
 40
0.840695617
 40
0.8738699303
 40
0.9064443207
 40
0.938359406
 40
1.0
 40
1.0
 40
1.0
 40
1.0
 10
10.6410683386
 20
7.274199502
 30
0.0
 10
10.6410683506
 20
7.2670553268
 30
0.0
 10
10.6418267389
 20
7.2527160971
 30
0.0
 10
10.6452291229
 20
7.2313594594
 30
0.0
 10
10.650876721
 20
7.2102456401
 30
0.0
 10
10.6587348797
 20
7.1894974561
 30
0.0
 10
10.6687569286
 20
7.1692303752
 30
0.0
 10
10.6808838712
 20
7.149557251
 30
0.0
 10
10.6950456908
 20
7.1305864563
 30
0.0
 10
10.711161598
 20
7.1124219702
 30
0.0
 10
10.7291406503
 20
7.095163007
 30
0.0
 10
10.748882122
 20
7.0789036961
 30
0.0
 10
10.7702760023
 20
7.0637327132
 30
0.0
 10
10.7932034424
 20
7.0497328697
 30
0.0
 10
10.8175373425
 20
7.0369806729
 30
0.0
 10
10.8431429242
 20
7.0255459234
 30
0.0
 10
10.8698785664
 20
7.0154912881
 30
0.0
 10
10.8975959726
 20
7.0068720198
 30
0.0
 10
10.9261431578
 20
6.9997352255
 30
0.0
 10
10.9652350889
 20
6.9922229021
 30
0.0
 10
11.0051620305
 20
6.9878688168
 30
0.0
 10
11.04540474
 20
6.9866747072
 30
0.0
 10
11.0856685934
 20
6.9876010921
 30
0.0
 10
11.1256513545
 20
6.9916903347
 30
0.0
 10
11.1648346519
 20
6.9989408799
 30
0.0
 10
11.193475377
 20
7.0058872916
 30
0.0
 10
11.2213062242
 20
7.0143217211
 30
0.0
 10
11.2481737526
 20
7.0241975021
 30
0.0
 10
11.2739320098
 20
7.0354623522
 30
0.0
 10
11.3062164729
 20
7.0520493456
 30
0.0
 10
11.3289515167
 20
7.06665476
 30
0.0
 10
11.3431286757
 20
7.0773044706
 30
0.0
  0
SPLINE
  5
376
100
AcDbEntity
  8
0
100
AcDbSpline
 62
9
  6
CONTINUOUS
 70
0
 71
3
 72
26
 73
22
 74
0
 42
0.0000001
 43
0.0000001
 44
0.0000000001
 40
0.0
 40
0.0
 40
0.0
 40
0.0
 40
0.0257136514
 40
0.0514890181
 40
0.0773868089
 40
0.1034656792
 40
0.1297813568
 40
0.1563858792
 40
0.1833267881
 40
0.210646803
 40
0.2665437813
 40
0.3243344237
 40
0.3841589244
 40
0.4460694666
 40
0.5100369113
 40
0.5759594306
 40
0.6436719939
 40
0.7129560356
 40
0.7835489068
 40
0.8551536932
 40
1.0
 40
1.0
 40
1.0
 40
1.0
 10
11.4535683383
 20
8.082334108
 30
0.0
 10
11.4535683383
 20
8.0776328491
 30
0.0
 10
11.4532409812
 20
8.0682157912
 30
0.0
 10
11.4517701282
 20
8.0541329552
 30
0.0
 10
11.4493226988
 20
8.0401182941
 30
0.0
 10
11.4459049144
 20
8.026206877
 30
0.0
 10
11.4415255124
 20
8.0124321835
 30
0.0
 10
11.4361951675
 20
7.9988279179
 30
0.0
 10
11.4299271683
 20
7.9854263554
 30
0.0
 10
11.4202690717
 20
7.9677403952
 30
0.0
 10
11.405859519
 20
7.9462837645
 30
0.0
 10
11.3852608778
 20
7.9220766135
 30
0.0
 10
11.3614227757
 20
7.8994295598
 30
0.0
 10
11.3345792399
 20
7.8785567213
 30
0.0
 10
11.304988881
 20
7.8596517076
 30
0.0
 10
11.2729357622
 20
7.8428914073
 30
0.0
 10
11.2387261759
 20
7.828432857
 30
0.0
 10
11.2026881444
 20
7.8164122505
 30
0.0
 10
11.1651616419
 20
7.8069423484
 30
0.0
 10
11.1134512881
 20
7.7978054601
 30
0.0
 10
11.0738007692
 20
7.7950719782
 30
0.0
 10
11.0473183383
 20
7.7950719782
 30
0.0
  0
SPLINE
  5
377
100
AcDbEntity
  8
0
100
AcDbSpline
 62
9
  6
CONTINUOUS
 70
0
 71
3
 72
14
 73
10
 74
0
 42
0.0000001
 43
0.0000001
 44
0.0000000001
 40
0.0
 40
0.0
 40
0.0
 40
0.0
 40
0.253451505
 40
0.3796269261
 40
0.505218803
 40
0.6301148352
 40
0.7542372728
 40
0.8775392761
 40
1.0
 40
1.0
 40
1.0
 40
1.0
 10
10.272266381
 20
6.7723387946
 30
0.0
 10
10.2625699163
 20
7.0118483483
 30
0.0
 10
10.2479262655
 20
7.3705877509
 30
0.0
 10
10.2286298276
 20
7.8480166049
 30
0.0
 10
10.2144433604
 20
8.2039693241
 30
0.0
 10
10.2006412908
 20
8.5579940729
 30
0.0
 10
10.1873261532
 20
8.909870295
 30
0.0
 10
10.1746231166
 20
9.2594644425
 30
0.0
 10
10.1666067919
 20
9.4917603314
 30
0.0
 10
10.1627443081
 20
9.6075150663
 30
0.0
  0
SPLINE
  5
378
100
AcDbEntity
  8
0
100
AcDbSpline
 62
7
  6
CONTINUOUS
 70
0
 71
3
 72
26
 73
22
 74
0
 42
0.0000001
 43
0.0000001
 44
0.0000000001
 40
0.0
 40
0.0
 40
0.0
 40
0.0
 40
0.0260150176
 40
0.0521398508
 40
0.0784255263
 40
0.1049206602
 40
0.1586931756
 40
0.2138028483
 40
0.2419507096
 40
0.2705199331
 40
0.2995297263
 40
0.3289945478
 40
0.3893053675
 40
0.4514935019
 40
0.5155124626
 40
0.5812542987
 40
0.6485575556
 40
0.7172149226
 40
0.7869814049
 40
0.8575823127
 40
1.0
 40
1.0
 40
1.0
 40
1.0
 10
11.4530456993
 20
7.1309789775
 30
0.0
 10
11.4527191327
 20
7.1263006421
 30
0.0
 10
11.4517581607
 20
7.1169427613
 30
0.0
 10
11.4494048195
 20
7.1029929063
 30
0.0
 10
11.4461425402
 20
7.0891373968
 30
0.0
 10
11.4405659992
 20
7.0707451246
 30
0.0
 10
11.4313080294
 20
7.0480945484
 30
0.0
 10
11.4192879173
 20
7.0264479691
 30
0.0
 10
11.4080582311
 20
7.0096965441
 30
0.0
 10
11.3987616599
 20
6.9973418095
 30
0.0
 10
11.388672983
 20
6.9853141747
 30
0.0
 10
11.3740843632
 20
6.9696284377
 30
0.0
 10
11.3539440498
 20
6.9509903077
 30
0.0
 10
11.3272170845
 20
6.9305166482
 30
0.0
 10
11.2979810613
 20
6.9119291152
 30
0.0
 10
11.2665004541
 20
6.8953859779
 30
0.0
 10
11.2330568311
 20
6.8810254701
 30
0.0
 10
11.1979509226
 20
6.8689677908
 30
0.0
 10
11.1614931115
 20
6.8593120876
 30
0.0
 10
11.1113974654
 20
6.8497219872
 30
0.0
 10
11.072986797
 20
6.8463823879
 30
0.0
 10
11.0473183383
 20
6.8458689443
 30
0.0
  0
LINE
  5
379
100
AcDbEntity
  8
0
100
AcDbLine
 62
9
  6
CONTINUOUS
 10
10.2729660909
 20
6.7550389262
 11
10.2723703406
 21
6.7697709751
  0
LINE
  5
37A
100
AcDbEntity
  8
0
100
AcDbLine
 62
9
  6
CONTINUOUS
 10
11.8216629853
 20
6.7548511882
 11
11.822266336
 21
6.7697709751
  0
SPLINE
  5
37B
100
AcDbEntity
  8
0
100
AcDbSpline
 62
9
  6
CONTINUOUS
 70
0
 71
3
 72
14
 73
10
 74
0
 42
0.0000001
 43
0.0000001
 44
0.0000000001
 40
0.0
 40
0.0
 40
0.0
 40
0.0
 40
0.253451506
 40
0.3796269249
 40
0.5052188032
 40
0.6301148329
 40
0.7542372711
 40
0.877539281
 40
1.0
 40
1.0
 40
1.0
 40
1.0
 10
11.8223702955
 20
6.7723387946
 30
0.0
 10
11.8320667677
 20
7.011848348
 30
0.0
 10
11.8467103985
 20
7.3705877487
 30
0.0
 10
11.8660068595
 20
7.8480165999
 30
0.0
 10
11.8801933024
 20
8.2039693154
 30
0.0
 10
11.8939954087
 20
8.5579940609
 30
0.0
 10
11.9073105022
 20
8.9098702875
 30
0.0
 10
11.9200135812
 20
9.2594644341
 30
0.0
 10
11.9280299083
 20
9.4917603235
 30
0.0
 10
11.931892384
 20
9.6075150536
 30
0.0
  0
SPLINE
  5
37C
100
AcDbEntity
  8
0
100
AcDbSpline
 62
7
  6
CONTINUOUS
 70
0
 71
3
 72
15
 73
11
 74
0
 42
0.0000001
 43
0.0000001
 44
0.0000000001
 40
0.0
 40
0.0
 40
0.0
 40
0.0
 40
0.1292110755
 40
0.2567983042
 40
0.3829505701
 40
0.507875966
 40
0.6317994436
 40
0.7549599135
 40
0.8776075688
 40
1.0
 40
1.0
 40
1.0
 40
1.0
 10
11.4762810399
 20
6.6512749795
 30
0.0
 10
11.4788250143
 20
6.6466265359
 30
0.0
 10
11.4836163292
 20
6.6372400673
 30
0.0
 10
11.4899158987
 20
6.6228438849
 30
0.0
 10
11.4952665575
 20
6.6082548737
 30
0.0
 10
11.499656314
 20
6.5935050696
 30
0.0
 10
11.5030756084
 20
6.5786261823
 30
0.0
 10
11.5055165314
 20
6.5636501275
 30
0.0
 10
11.5069740671
 20
6.5486102308
 30
0.0
 10
11.5072877567
 20
6.538557357
 30
0.0
 10
11.5072799812
 20
6.5335379598
 30
0.0
  0
SPLINE
  5
37D
100
AcDbEntity
  8
0
100
AcDbSpline
 62
9
  6
CONTINUOUS
 70
0
 71
3
 72
28
 73
24
 74
0
 42
0.0000001
 43
0.0000001
 44
0.0000000001
 40
0.0
 40
0.0
 40
0.0
 40
0.0
 40
0.0251805042
 40
0.0504416338
 40
0.075862226
 40
0.1015176256
 40
0.1274781409
 40
0.1538078019
 40
0.1805633733
 40
0.2077936005
 40
0.2355387639
 40
0.2638305449
 40
0.3221117079
 40
0.382750971
 40
0.4457094029
 40
0.5108393793
 40
0.5779014355
 40
0.6465809687
 40
0.7165047512
 40
0.7872567948
 40
0.8583936126
 40
0.9294586618
 40
1.0
 40
1.0
 40
1.0
 40
1.0
 10
10.5948183548
 20
6.8718018917
 30
0.0
 10
10.5948183222
 20
6.8657496648
 30
0.0
 10
10.5953058016
 20
6.8536202354
 30
0.0
 10
10.5974953205
 20
6.8354998902
 30
0.0
 10
10.601136235
 20
6.817497244
 30
0.0
 10
10.6062162108
 20
6.7996726191
 30
0.0
 10
10.6127179371
 20
6.7820835063
 30
0.0
 10
10.6206195378
 20
6.7647869251
 30
0.0
 10
10.6298948051
 20
6.7478385742
 30
0.0
 10
10.6405129297
 20
6.7312930097
 30
0.0
 10
10.6524394473
 20
6.7152025872
 30
0.0
 10
10.6702054892
 20
6.6942210494
 30
0.0
 10
10.6955763494
 20
6.6694237165
 30
0.0
 10
10.7301997376
 20
6.6425961852
 30
0.0
 10
10.7688647329
 20
6.6187230498
 30
0.0
 10
10.8110735229
 20
6.5981030789
 30
0.0
 10
10.8562895843
 20
6.5809914946
 30
0.0
 10
10.9039372776
 20
6.5676020849
 30
0.0
 10
10.9534105715
 20
6.558102688
 30
0.0
 10
11.0040794237
 20
6.5526127568
 30
0.0
 10
11.0552997611
 20
6.5512015493
 30
0.0
 10
11.1064149737
 20
6.5538861388
 30
0.0
 10
11.1401935511
 20
6.5584118831
 30
0.0
 10
11.1568904109
 20
6.5613584903
 30
0.0
  0
SPLINE
  5
37E
100
AcDbEntity
  8
0
100
AcDbSpline
 62
7
  6
CONTINUOUS
 70
0
 71
3
 72
18
 73
14
 74
0
 42
0.0000001
 43
0.0000001
 44
0.0000000001
 40
0.0
 40
0.0
 40
0.0
 40
0.0
 40
0.1364726914
 40
0.2715272505
 40
0.4040512076
 40
0.5330297792
 40
0.5959361481
 40
0.6576502066
 40
0.7771699011
 40
0.8349338829
 40
0.8913184584
 40
0.9463324377
 40
1.0
 40
1.0
 40
1.0
 40
1.0
 10
11.0473183383
 20
6.8458689443
 30
0.0
 10
11.0296279868
 20
6.845515086
 30
0.0
 10
10.9943766383
 20
6.8464347378
 30
0.0
 10
10.942288549
 20
6.8526721176
 30
0.0
 10
10.8919762331
 20
6.8636402818
 30
0.0
 10
10.8518995887
 20
6.8766677249
 30
0.0
 10
10.8215289749
 20
6.8893044101
 30
0.0
 10
10.79300528
 20
6.9030533214
 30
0.0
 10
10.7662516979
 20
6.9188600171
 30
0.0
 10
10.7417183334
 20
6.9366628527
 30
0.0
 10
10.7248291101
 20
6.9506817205
 30
0.0
 10
10.7093207196
 20
6.9654530546
 30
0.0
 10
10.6998293381
 20
6.9758880169
 30
0.0
 10
10.6953467171
 20
6.9812097639
 30
0.0
  0
SPLINE
  5
37F
100
AcDbEntity
  8
0
100
AcDbSpline
 62
7
  6
CONTINUOUS
 70
0
 71
3
 72
28
 73
24
 74
0
 42
0.0000001
 43
0.0000001
 44
0.0000000001
 40
0.0
 40
0.0
 40
0.0
 40
0.0
 40
0.1455724037
 40
0.2174444747
 40
0.2882679726
 40
0.3577604008
 40
0.4256687533
 40
0.4917779829
 40
0.5559197261
 40
0.6179807501
 40
0.6779120967
 40
0.7070931062
 40
0.7357570987
 40
0.7639197376
 40
0.791601869
 40
0.8188297854
 40
0.8456352004
 40
0.8720550596
 40
0.8981315346
 40
0.9239114052
 40
0.9494457902
 40
0.9747894175
 40
1.0
 40
1.0
 40
1.0
 40
1.0
 10
11.0473183383
 20
6.8972387401
 30
0.0
 10
11.0218204056
 20
6.8967273078
 30
0.0
 10
10.9836144394
 20
6.8984939431
 30
0.0
 10
10.9336398034
 20
6.9059614651
 30
0.0
 10
10.8973120954
 20
6.9140014765
 30
0.0
 10
10.8623205475
 20
6.9244246379
 30
0.0
 10
10.8289719019
 20
6.9371330577
 30
0.0
 10
10.7975633194
 20
6.9520083462
 30
0.0
 10
10.768373027
 20
6.9689143993
 30
0.0
 10
10.7416625889
 20
6.9876955519
 30
0.0
 10
10.7214871477
 20
7.0049241748
 30
0.0
 10
10.7068564592
 20
7.0194845322
 30
0.0
 10
10.6967405724
 20
7.0306616808
 30
0.0
 10
10.687408632
 20
7.0421651038
 30
0.0
 10
10.678881645
 20
7.053968829
 30
0.0
 10
10.671178921
 20
7.0660455769
 30
0.0
 10
10.6643179095
 20
7.0783675611
 30
0.0
 10
10.6583145309
 20
7.0909065101
 30
0.0
 10
10.653182213
 20
7.1036333379
 30
0.0
 10
10.6489332572
 20
7.1165187272
 30
0.0
 10
10.645577085
 20
7.1295328611
 30
0.0
 10
10.6431219396
 20
7.1426447557
 30
0.0
 10
10.6420874617
 20
7.1514490468
 30
0.0
 10
10.6417232435
 20
7.1558506858
 30
0.0
  0
SPLINE
  5
380
100
AcDbEntity
  8
0
100
AcDbSpline
 62
7
  6
CONTINUOUS
 70
0
 71
3
 72
25
 73
21
 74
0
 42
0.0000001
 43
0.0000001
 44
0.0000000001
 40
0.0
 40
0.0
 40
0.0
 40
0.0
 40
0.1454852735
 40
0.2173200369
 40
0.2881136394
 40
0.3575854636
 40
0.4254839478
 40
0.4915949074
 40
0.555750131
 40
0.6178357193
 40
0.6778010355
 40
0.7356670149
 40
0.791533474
 40
0.8455842173
 40
0.8720220988
 40
0.8981138356
 40
0.9239054114
 40
0.9494471616
 40
0.9747930235
 40
1.0
 40
1.0
 40
1.0
 40
1.0
 10
11.0473183383
 20
6.9484784872
 30
0.0
 10
11.0219106588
 20
6.9479679443
 30
0.0
 10
10.9838395182
 20
6.9497181389
 30
0.0
 10
10.9340340299
 20
6.9571277029
 30
0.0
 10
10.8978211928
 20
6.9651078524
 30
0.0
 10
10.8629305584
 20
6.9754555563
 30
0.0
 10
10.8296658657
 20
6.9880742402
 30
0.0
 10
10.7983212898
 20
7.0028472784
 30
0.0
 10
10.7691730278
 20
7.01963989
 30
0.0
 10
10.7424786081
 20
7.0383003459
 30
0.0
 10
10.7184748892
 20
7.058661039
 30
0.0
 10
10.6973760825
 20
7.0805411746
 30
0.0
 10
10.6793746474
 20
7.1037428735
 30
0.0
 10
10.6669985766
 20
7.1241653819
 30
0.0
 10
10.6588560895
 20
7.1409187676
 30
0.0
 10
10.6536562246
 20
7.1535832407
 30
0.0
 10
10.6493325935
 20
7.1664077729
 30
0.0
 10
10.6458943471
 20
7.1793633224
 30
0.0
 10
10.6433500632
 20
7.1924191913
 30
0.0
 10
10.6422511536
 20
7.2011890735
 30
0.0
 10
10.641853706
 20
7.2055741565
 30
0.0
  0
SPLINE
  5
381
100
AcDbEntity
  8
0
100
AcDbSpline
 62
9
  6
CONTINUOUS
 70
0
 71
3
 72
26
 73
22
 74
0
 42
0.0000001
 43
0.0000001
 44
0.0000000001
 40
0.0
 40
0.0
 40
0.0
 40
0.0
 40
0.1448463068
 40
0.2164510932
 40
0.2870439644
 40
0.3563280061
 40
0.4240405694
 40
0.4899630887
 40
0.5539305334
 40
0.6158410756
 40
0.6756655763
 40
0.7334562187
 40
0.789353197
 40
0.8166732119
 40
0.8436141208
 40
0.8702186432
 40
0.8965343208
 40
0.9226131911
 40
0.9485109819
 40
0.9742863486
 40
1.0
 40
1.0
 40
1.0
 40
1.0
 10
11.0473183383
 20
7.7950719782
 30
0.0
 10
11.0208359074
 20
7.7950719782
 30
0.0
 10
10.9811853885
 20
7.7978054601
 30
0.0
 10
10.9294750347
 20
7.8069423484
 30
0.0
 10
10.8919485322
 20
7.8164122505
 30
0.0
 10
10.8559105006
 20
7.828432857
 30
0.0
 10
10.8217009144
 20
7.8428914073
 30
0.0
 10
10.7896477955
 20
7.8596517076
 30
0.0
 10
10.7600574367
 20
7.8785567213
 30
0.0
 10
10.7332139009
 20
7.8994295598
 30
0.0
 10
10.7093757988
 20
7.9220766135
 30
0.0
 10
10.6887771575
 20
7.9462837645
 30
0.0
 10
10.6743676049
 20
7.9677403952
 30
0.0
 10
10.6647095082
 20
7.9854263554
 30
0.0
 10
10.658441509
 20
7.9988279179
 30
0.0
 10
10.6531111641
 20
8.0124321835
 30
0.0
 10
10.6487317622
 20
8.026206877
 30
0.0
 10
10.6453139777
 20
8.0401182941
 30
0.0
 10
10.6428665483
 20
8.0541329552
 30
0.0
 10
10.6413956954
 20
8.0682157912
 30
0.0
 10
10.6410683383
 20
8.0776328491
 30
0.0
 10
10.6410683383
 20
8.082334108
 30
0.0
  0
SPLINE
  5
382
100
AcDbEntity
  8
0
100
AcDbSpline
 62
7
  6
CONTINUOUS
 70
0
 71
3
 72
21
 73
17
 74
0
 42
0.0000001
 43
0.0000001
 44
0.0000000001
 40
0.0
 40
0.0
 40
0.0
 40
0.0
 40
0.1177935412
 40
0.1786448614
 40
0.2405840944
 40
0.3034431572
 40
0.3670396049
 40
0.4311803845
 40
0.4956650849
 40
0.5602891669
 40
0.6248475651
 40
0.6891375713
 40
0.7529623568
 40
0.8161343173
 40
0.8784781204
 40
1.0
 40
1.0
 40
1.0
 40
1.0
 10
10.8146269473
 20
6.9279838658
 30
0.0
 10
10.8308867714
 20
6.9194561886
 30
0.0
 10
10.8565029158
 20
6.9082661271
 30
0.0
 10
10.8921431024
 20
6.8965599952
 30
0.0
 10
10.9201576593
 20
6.8892326279
 30
0.0
 10
10.9489758755
 20
6.8835078876
 30
0.0
 10
10.9784188074
 20
6.8794245294
 30
0.0
 10
11.008299203
 20
6.8770126456
 30
0.0
 10
11.0384281963
 20
6.8762913573
 30
0.0
 10
11.0686150512
 20
6.8772692786
 30
0.0
 10
11.0986686638
 20
6.8799442399
 30
0.0
 10
11.1283990736
 20
6.884303517
 30
0.0
 10
11.157617312
 20
6.8903233449
 30
0.0
 10
11.1861416843
 20
6.8979711287
 30
0.0
 10
11.2226787905
 20
6.9101689696
 30
0.0
 10
11.2490061253
 20
6.9217550277
 30
0.0
 10
11.2657814638
 20
6.930550965
 30
0.0
  0
LINE
  5
383
100
AcDbEntity
  8
0
100
AcDbLine
 62
7
  6
CONTINUOUS
 10
10.5873525293
 20
6.5680837355
 11
10.5874460967
 21
6.5687074004
  0
SPLINE
  5
384
100
AcDbEntity
  8
0
100
AcDbSpline
 62
7
  6
CONTINUOUS
 70
0
 71
3
 72
11
 73
7
 74
0
 42
0.0000001
 43
0.0000001
 44
0.0000000001
 40
0.0
 40
0.0
 40
0.0
 40
0.0
 40
0.2451105614
 40
0.4928915679
 40
0.7442514638
 40
1.0
 40
1.0
 40
1.0
 40
1.0
 10
10.5874460967
 20
6.5687074004
 30
0.0
 10
10.5885336248
 20
6.5758905234
 30
0.0
 10
10.5913926034
 20
6.5902418225
 30
0.0
 10
10.5976554993
 20
6.6114230632
 30
0.0
 10
10.6058815015
 20
6.6322602842
 30
0.0
 10
10.6125869413
 20
6.6457353891
 30
0.0
 10
10.6162385274
 20
6.6523781812
 30
0.0
  0
SPLINE
  5
385
100
AcDbEntity
  8
0
100
AcDbSpline
 62
7
  6
CONTINUOUS
 70
0
 71
3
 72
9
 73
5
 74
0
 42
0.0000001
 43
0.0000001
 44
0.0000000001
 40
0.0
 40
0.0
 40
0.0
 40
0.0
 40
0.4938603994
 40
1.0
 40
1.0
 40
1.0
 40
1.0
 10
10.6162385274
 20
6.6523781812
 30
0.0
 10
10.6204741042
 20
6.6600833412
 30
0.0
 10
10.6297950074
 20
6.6752856362
 30
0.0
 10
10.6404351667
 20
6.689591313
 30
0.0
 10
10.6461113805
 20
6.6965900557
 30
0.0
  0
SPLINE
  5
386
100
AcDbEntity
  8
0
100
AcDbSpline
 62
7
  6
CONTINUOUS
 70
0
 71
3
 72
15
 73
11
 74
0
 42
0.0000001
 43
0.0000001
 44
0.0000000001
 40
0.0
 40
0.0
 40
0.0
 40
0.0
 40
0.1209719739
 40
0.2423546765
 40
0.3645491139
 40
0.4879375555
 40
0.6128751029
 40
0.7396832936
 40
0.8686449102
 40
1.0
 40
1.0
 40
1.0
 40
1.0
 10
10.5848183742
 20
6.5692505931
 30
0.0
 10
10.5848183473
 20
6.5756215232
 30
0.0
 10
10.5853469127
 20
6.5883912618
 30
0.0
 10
10.5877208767
 20
6.6074634027
 30
0.0
 10
10.5916679751
 20
6.6264039873
 30
0.0
 10
10.5971739035
 20
6.6451457001
 30
0.0
 10
10.6042187011
 20
6.6636243478
 30
0.0
 10
10.6127774303
 20
6.6817766714
 30
0.0
 10
10.622819159
 20
6.6995396737
 30
0.0
 10
10.6304071245
 20
6.71097355
 30
0.0
 10
10.634426021
 20
6.7166041593
 30
0.0
  0
SPLINE
  5
387
100
AcDbEntity
  8
0
100
AcDbSpline
 62
9
  6
CONTINUOUS
 70
0
 71
3
 72
37
 73
33
 74
0
 42
0.0000001
 43
0.0000001
 44
0.0000000001
 40
0.0
 40
0.0
 40
0.0
 40
0.0
 40
0.0718662189
 40
0.1068139173
 40
0.1410473805
 40
0.1745433131
 40
0.2072900173
 40
0.2392883666
 40
0.2705526796
 40
0.3011114296
 40
0.3310077055
 40
0.3602993277
 40
0.389058511
 40
0.4173709723
 40
0.4453344104
 40
0.473056333
 40
0.500651279
 40
0.5282375672
 40
0.5559337764
 40
0.5838552061
 40
0.6121105721
 40
0.6407991503
 40
0.67000851
 40
0.6998128989
 40
0.7302722654
 40
0.761431844
 40
0.7933222102
 40
0.8259596985
 40
0.8593471002
 40
0.8934744649
 40
0.9283201917
 40
1.0
 40
1.0
 40
1.0
 40
1.0
 10
11.6226020191
 20
6.2063617049
 30
0.0
 10
11.6664793158
 20
6.1888423212
 30
0.0
 10
11.7304270944
 20
6.1593820734
 30
0.0
 10
11.8110464039
 20
6.1134943421
 30
0.0
 10
11.8676749574
 20
6.0766776983
 30
0.0
 10
11.9207669427
 20
6.0373069831
 30
0.0
 10
11.9700966396
 20
5.9955479552
 30
0.0
 10
12.0154493558
 20
5.9515789025
 30
0.0
 10
12.0566281184
 20
5.905586914
 30
0.0
 10
12.0934528641
 20
5.8577680502
 30
0.0
 10
12.1257615307
 20
5.8083265526
 30
0.0
 10
12.1534106645
 20
5.7574743471
 30
0.0
 10
12.176276217
 20
5.7054304855
 30
0.0
 10
12.1942543977
 20
5.6524205424
 30
0.0
 10
12.2072626197
 20
5.5986758579
 30
0.0
 10
12.2152404685
 20
5.54443254
 30
0.0
 10
12.2181505752
 20
5.4899301671
 30
0.0
 10
12.2159792432
 20
5.4354102076
 30
0.0
 10
12.2087366962
 20
5.3811142609
 30
0.0
 10
12.1964568923
 20
5.3272822838
 30
0.0
 10
12.1791969453
 20
5.2741509766
 30
0.0
 10
12.1570362772
 20
5.221952441
 30
0.0
 10
12.1300756559
 20
5.1709131417
 30
0.0
 10
12.0984362388
 20
5.121253118
 30
0.0
 10
12.0622587057
 20
5.0731853668
 30
0.0
 10
12.0217024538
 20
5.0269152788
 30
0.0
 10
11.9769449829
 20
4.9826401513
 30
0.0
 10
11.928180805
 20
4.9405483805
 30
0.0
 10
11.875622255
 20
4.900819697
 30
0.0
 10
11.8194927997
 20
4.8636212764
 30
0.0
 10
11.7394873955
 20
4.8171851232
 30
0.0
 10
11.6759457994
 20
4.787298091
 30
0.0
 10
11.6323183383
 20
4.7694872546
 30
0.0
  0
SPLINE
  5
388
100
AcDbEntity
  8
0
100
AcDbSpline
 62
9
  6
CONTINUOUS
 70
0
 71
3
 72
56
 73
52
 74
0
 42
0.0000001
 43
0.0000001
 44
0.0000000001
 40
0.0
 40
0.0
 40
0.0
 40
0.0
 40
0.0335631139
 40
0.0500063013
 40
0.0662079906
 40
0.097847346
 40
0.1132834969
 40
0.1284584725
 40
0.1580215843
 40
0.1724299746
 40
0.1865975646
 40
0.2005364331
 40
0.2142615155
 40
0.227790561
 40
0.241144033
 40
0.2543449313
 40
0.2674185513
 40
0.2803921728
 40
0.2932946848
 40
0.3061561449
 40
0.3190072941
 40
0.3318790466
 40
0.3448019714
 40
0.3578057864
 40
0.3709188898
 40
0.3841679415
 40
0.3975775055
 40
0.4111697565
 40
0.4249642642
 40
0.4389778504
 40
0.4532245056
 40
0.4677153569
 40
0.4824586797
 40
0.4974599639
 40
0.5127220048
 40
0.5440181603
 40
0.5600540025
 40
0.5763372148
 40
0.6096016246
 40
0.6437272091
 40
0.678596842
 40
0.7140729784
 40
0.7500022116
 40
0.7862197421
 40
0.8225536862
 40
0.8588293458
 40
0.8948734249
 40
0.9305182863
 40
0.9481442741
 40
0.9656121898
 40
1.0
 40
1.0
 40
1.0
 40
1.0
 10
10.4623183383
 20
6.2024387541
 30
0.0
 10
10.4295889908
 20
6.1890770539
 30
0.0
 10
10.3815704491
 20
6.1672467651
 30
0.0
 10
10.3200167273
 20
6.1344347322
 30
0.0
 10
10.2616760487
 20
6.1000371481
 30
0.0
 10
10.2065263513
 20
6.0624157429
 30
0.0
 10
10.1551203204
 20
6.0216782858
 30
0.0
 10
10.1074154535
 20
5.9799198208
 30
0.0
 10
10.0636619702
 20
5.9353800644
 30
0.0
 10
10.0244579651
 20
5.8883039623
 30
0.0
 10
9.9977625754
 20
5.8523187811
 30
0.0
 10
9.9735953304
 20
5.8154470242
 30
0.0
 10
9.9520140902
 20
5.7777758064
 30
0.0
 10
9.9330722426
 20
5.7393959658
 30
0.0
 10
9.9168163797
 20
5.7003998891
 30
0.0
 10
9.9032868318
 20
5.6608817763
 30
0.0
 10
9.8925173383
 20
5.6209373286
 30
0.0
 10
9.8845349643
 20
5.5806635544
 30
0.0
 10
9.879359761
 20
5.5401585404
 30
0.0
 10
9.8770047333
 20
5.4995211223
 30
0.0
 10
9.8774758349
 20
5.458850569
 30
0.0
 10
9.8807719177
 20
5.4182462653
 30
0.0
 10
9.8868847095
 20
5.3778073885
 30
0.0
 10
9.8957987123
 20
5.3376325448
 30
0.0
 10
9.9074915068
 20
5.2978194784
 30
0.0
 10
9.9219338538
 20
5.2584647982
 30
0.0
 10
9.9390898746
 20
5.2196637562
 30
0.0
 10
9.9589170675
 20
5.1815099748
 30
0.0
 10
9.9813665157
 20
5.1440952469
 30
0.0
 10
10.0063831641
 20
5.1075093989
 30
0.0
 10
10.0339059187
 20
5.0718401437
 30
0.0
 10
10.0638679284
 20
5.037172831
 30
0.0
 10
10.096196113
 20
5.0035905687
 30
0.0
 10
10.1308134121
 20
4.9711726377
 30
0.0
 10
10.1803151773
 20
4.9292614104
 30
0.0
 10
10.2337029201
 20
4.890380759
 30
0.0
 10
10.2904106729
 20
4.8546588664
 30
0.0
 10
10.350435245
 20
4.8204289929
 30
0.0
 10
10.4297389991
 20
4.7817294332
 30
0.0
 10
10.5301226028
 20
4.7423903258
 30
0.0
 10
10.6354529791
 20
4.7101863105
 30
0.0
 10
10.744719176
 20
4.6854241795
 30
0.0
 10
10.8568783223
 20
4.6683372466
 30
0.0
 10
10.970858154
 20
4.6590880025
 30
0.0
 10
11.0855688123
 20
4.6577637946
 30
0.0
 10
11.1999145584
 20
4.6643776046
 30
0.0
 10
11.3127984009
 20
4.678865852
 30
0.0
 10
11.4051078272
 20
4.6974587472
 30
0.0
 10
11.47724489
 20
4.7161702091
 30
0.0
 10
11.5473635046
 20
4.737170325
 30
0.0
 10
11.5987847814
 20
4.7557972373
 30
0.0
 10
11.6323183383
 20
4.7694872546
 30
0.0
  0
SPLINE
  5
389
100
AcDbEntity
  8
0
100
AcDbSpline
 62
9
  6
CONTINUOUS
 70
0
 71
3
 72
28
 73
24
 74
0
 42
0.0000001
 43
0.0000001
 44
0.0000000001
 40
0.0
 40
0.0
 40
0.0
 40
0.0
 40
0.0724006956
 40
0.1435185045
 40
0.2132709999
 40
0.2815930875
 40
0.348441599
 40
0.41379631
 40
0.4776620821
 40
0.5400705057
 40
0.6010812411
 40
0.6607828618
 40
0.7192929968
 40
0.7481522552
 40
0.7767706592
 40
0.8051705514
 40
0.8333757351
 40
0.8614113706
 40
0.8893037845
 40
0.9170803483
 40
0.9447692662
 40
0.9723993862
 40
1.0
 40
1.0
 40
1.0
 40
1.0
 10
12.0473183383
 20
3.6077928942
 30
0.0
 10
12.0847864438
 20
3.6230891842
 30
0.0
 10
12.1582804595
 20
3.6553645951
 30
0.0
 10
12.2647015922
 20
3.7092196292
 30
0.0
 10
12.3659304024
 20
3.767884521
 30
0.0
 10
12.4615306735
 20
3.8311100194
 30
0.0
 10
12.5510944765
 20
3.8986292203
 30
0.0
 10
12.6342378796
 20
3.9701571114
 30
0.0
 10
12.7106039089
 20
4.0453919844
 30
0.0
 10
12.7798632039
 20
4.1240159492
 30
0.0
 10
12.8417161342
 20
4.2056981215
 30
0.0
 10
12.8958908619
 20
4.2900879859
 30
0.0
 10
12.9346223613
 20
4.3627173478
 30
0.0
 10
12.9614607813
 20
4.4217537879
 30
0.0
 10
12.9794500458
 20
4.4662756232
 30
0.0
 10
12.9953689671
 20
4.51119086
 30
0.0
 10
13.0092006315
 20
4.5564521475
 30
0.0
 10
13.0209301531
 20
4.6020105588
 30
0.0
 10
13.0305443738
 20
4.6478173098
 30
0.0
 10
13.0380331518
 20
4.6938229254
 30
0.0
 10
13.0433881147
 20
4.7399782816
 30
0.0
 10
13.0466033597
 20
4.7862323516
 30
0.0
 10
13.0473183383
 20
4.8171097123
 30
0.0
 10
13.0473183383
 20
4.8325377656
 30
0.0
  0
SPLINE
  5
38A
100
AcDbEntity
  8
0
100
AcDbSpline
 62
9
  6
CONTINUOUS
 70
0
 71
3
 72
11
 73
7
 74
0
 42
0.0000001
 43
0.0000001
 44
0.0000000001
 40
0.0
 40
0.0
 40
0.0
 40
0.0
 40
0.2450385718
 40
0.4936874616
 40
0.7455037699
 40
1.0
 40
1.0
 40
1.0
 40
1.0
 10
10.0873183383
 20
6.6617180809
 30
0.0
 10
10.1246128631
 20
6.6769435069
 30
0.0
 10
10.2005992148
 20
6.7055820953
 30
0.0
 10
10.3174306356
 20
6.7427717316
 30
0.0
 10
10.437502998
 20
6.7743727171
 30
0.0
 10
10.5189875438
 20
6.7915423599
 30
0.0
 10
10.5601232599
 20
6.7991729848
 30
0.0
  0
SPLINE
  5
38B
100
AcDbEntity
  8
0
100
AcDbSpline
 62
9
  6
CONTINUOUS
 70
0
 71
3
 72
51
 73
47
 74
0
 42
0.0000001
 43
0.0000001
 44
0.0000000001
 40
0.0
 40
0.0
 40
0.0
 40
0.0
 40
0.0378911711
 40
0.0753990872
 40
0.1124559973
 40
0.1489992941
 40
0.1849724269
 40
0.2203258352
 40
0.2550179031
 40
0.2890159185
 40
0.3222970362
 40
0.3548492237
 40
0.386672163
 40
0.4177780684
 40
0.4481923623
 40
0.4779541308
 40
0.5071162833
 40
0.5214958326
 40
0.535751528
 40
0.5498936769
 40
0.5639333301
 40
0.5778821966
 40
0.5917526093
 40
0.6055574343
 40
0.6193099959
 40
0.6330239943
 40
0.6467134005
 40
0.6603923673
 40
0.6740751229
 40
0.6877758659
 40
0.7015086666
 40
0.7152873647
 40
0.7291254675
 40
0.7430360728
 40
0.7570317649
 40
0.7711245579
 40
0.7853258179
 40
0.7996461998
 40
0.814095621
 40
0.8434114118
 40
0.8733422462
 40
0.9039373608
 40
0.919498046
 40
0.9352369279
 40
0.9672532885
 40
1.0
 40
1.0
 40
1.0
 40
1.0
 10
11.5345176551
 20
6.7991721986
 30
0.0
 10
11.5742840671
 20
6.7917955107
 30
0.0
 10
11.6530836948
 20
6.7752577923
 30
0.0
 10
11.7692850622
 20
6.7449858798
 30
0.0
 10
11.8824937612
 20
6.7094816606
 30
0.0
 10
11.9922367739
 20
6.6688922591
 30
0.0
 10
12.0980597737
 20
6.6233848841
 30
0.0
 10
12.1995235039
 20
6.5731470539
 30
0.0
 10
12.2962069999
 20
6.5183855762
 30
0.0
 10
12.387708836
 20
6.4593256598
 30
0.0
 10
12.4736487587
 20
6.3962099398
 30
0.0
 10
12.5536690577
 20
6.3292975368
 30
0.0
 10
12.6274359269
 20
6.2588629045
 30
0.0
 10
12.6946404289
 20
6.1851953749
 30
0.0
 10
12.7550004616
 20
6.1085963576
 30
0.0
 10
12.8082587693
 20
6.0293851913
 30
0.0
 10
12.8467185543
 20
5.9611399307
 30
0.0
 10
12.8736429881
 20
5.9056162565
 30
0.0
 10
12.8918432527
 20
5.8637248099
 30
0.0
 10
12.908122313
 20
5.8214389574
 30
0.0
 10
12.9224638291
 20
5.7788021973
 30
0.0
 10
12.9348521222
 20
5.7358590691
 30
0.0
 10
12.9452744393
 20
5.692654472
 30
0.0
 10
12.9537195711
 20
5.6492335189
 30
0.0
 10
12.9601785014
 20
5.6056416183
 30
0.0
 10
12.9646446315
 20
5.5619244161
 30
0.0
 10
12.9671128137
 20
5.5181276426
 30
0.0
 10
12.967580848
 20
5.4742971908
 30
0.0
 10
12.9660479114
 20
5.4304789542
 30
0.0
 10
12.9625157749
 20
5.3867188327
 30
0.0
 10
12.9569882765
 20
5.3430626256
 30
0.0
 10
12.9494710053
 20
5.2995560744
 30
0.0
 10
12.9399723397
 20
5.2562446169
 30
0.0
 10
12.9285019474
 20
5.2131736172
 30
0.0
 10
12.9150722805
 20
5.1703880106
 30
0.0
 10
12.899697398
 20
5.1279324291
 30
0.0
 10
12.8823935712
 20
5.0858513908
 30
0.0
 10
12.8631788098
 20
5.0441879108
 30
0.0
 10
12.8349060189
 20
4.9889929731
 30
0.0
 10
12.7947906811
 20
4.9212213233
 30
0.0
 10
12.7396205506
 20
4.8426760564
 30
0.0
 10
12.6880686452
 20
4.7798197957
 30
0.0
 10
12.6435092264
 20
4.7310280222
 30
0.0
 10
12.5962143804
 20
4.6827335802
 30
0.0
 10
12.5329705469
 20
4.6244651504
 30
0.0
 10
12.4791505034
 20
4.5809978189
 30
0.0
 10
12.4512952146
 20
4.5598828848
 30
0.0
  0
SPLINE
  5
38C
100
AcDbEntity
  8
0
100
AcDbSpline
 62
9
  6
CONTINUOUS
 70
0
 71
3
 72
11
 73
7
 74
0
 42
0.0000001
 43
0.0000001
 44
0.0000000001
 40
0.0
 40
0.0
 40
0.0
 40
0.0
 40
0.2414945537
 40
0.4888526394
 40
0.7418085051
 40
1.0
 40
1.0
 40
1.0
 40
1.0
 10
12.4512952146
 20
4.5598828848
 30
0.0
 10
12.4185323959
 20
4.5350479328
 30
0.0
 10
12.3503702976
 20
4.487161207
 30
0.0
 10
12.2422646823
 20
4.42171378
 30
0.0
 10
12.127622025
 20
4.3621090525
 30
0.0
 10
12.0480120502
 20
4.3268210661
 30
0.0
 10
12.0073183383
 20
4.3102079278
 30
0.0
  0
SPLINE
  5
38D
100
AcDbEntity
  8
0
100
AcDbSpline
 62
9
  6
CONTINUOUS
 70
0
 71
3
 72
38
 73
34
 74
0
 42
0.0000001
 43
0.0000001
 44
0.0000000001
 40
0.0
 40
0.0
 40
0.0
 40
0.0
 40
0.0733870344
 40
0.1092241102
 40
0.1444456609
 40
0.1790313749
 40
0.2129680087
 40
0.2462499847
 40
0.2788798853
 40
0.310868927
 40
0.3422373398
 40
0.3730146341
 40
0.4032397167
 40
0.432960811
 40
0.46223514
 40
0.4911283343
 40
0.5197135406
 40
0.5480702265
 40
0.576282699
 40
0.6044383876
 40
0.6326259665
 40
0.6609334097
 40
0.6894460846
 40
0.7182449804
 40
0.7474051551
 40
0.7769944563
 40
0.8070725436
 40
0.8376902144
 40
0.868889013
 40
0.9007010882
 40
0.933149258
 40
0.966247239
 40
1.0
 40
1.0
 40
1.0
 40
1.0
 10
10.0873183383
 20
6.6617180809
 30
0.0
 10
10.0259746525
 20
6.636674626
 30
0.0
 10
9.9362551887
 20
6.5952849784
 30
0.0
 10
9.8220878369
 20
6.5321673692
 30
0.0
 10
9.7409784324
 20
6.4818932809
 30
0.0
 10
9.6639840111
 20
6.4284767647
 30
0.0
 10
9.5913433966
 20
6.3720825999
 30
0.0
 10
9.5232869486
 20
6.3128873648
 30
0.0
 10
9.4600296387
 20
6.2510756675
 30
0.0
 10
9.4017720809
 20
6.1868404876
 30
0.0
 10
9.3486995433
 20
6.1203824412
 30
0.0
 10
9.3009815245
 20
6.0519093484
 30
0.0
 10
9.2587712002
 20
5.9816357365
 30
0.0
 10
9.2222048982
 20
5.9097823659
 30
0.0
 10
9.1914015419
 20
5.8365757326
 30
0.0
 10
9.1664620664
 20
5.7622475265
 30
0.0
 10
9.1474688136
 20
5.6870340034
 30
0.0
 10
9.134484935
 20
5.6111752361
 30
0.0
 10
9.1275538527
 20
5.5349142234
 30
0.0
 10
9.1266988378
 20
5.4584958589
 30
0.0
 10
9.1319227655
 20
5.3821657934
 30
0.0
 10
9.1432080843
 20
5.3061692518
 30
0.0
 10
9.1605170026
 20
5.2307498753
 30
0.0
 10
9.1837918662
 20
5.156148656
 30
0.0
 10
9.2129556711
 20
5.0826030045
 30
0.0
 10
9.2479126482
 20
5.0103459631
 30
0.0
 10
9.2885488754
 20
4.939605544
 30
0.0
 10
9.3347328497
 20
4.870604181
 30
0.0
 10
9.3863161256
 20
4.8035581671
 30
0.0
 10
9.4431335603
 20
4.738677394
 30
0.0
 10
9.5050049636
 20
4.676164026
 30
0.0
 10
9.5717313019
 20
4.6162152664
 30
0.0
 10
9.6188583319
 20
4.5784473155
 30
0.0
 10
9.6431411885
 20
4.5600347206
 30
0.0
  0
SPLINE
  5
38E
100
AcDbEntity
  8
0
100
AcDbSpline
 62
9
  6
CONTINUOUS
 70
0
 71
3
 72
13
 73
9
 74
0
 42
0.0000001
 43
0.0000001
 44
0.0000000001
 40
0.0
 40
0.0
 40
0.0
 40
0.0
 40
0.2396693586
 40
0.3622625533
 40
0.4866093961
 40
0.6126440042
 40
0.7402887273
 40
1.0
 40
1.0
 40
1.0
 40
1.0
 10
9.6431411885
 20
4.5600347206
 30
0.0
 10
9.6844484571
 20
4.5287132818
 30
0.0
 10
9.74908627
 20
4.4841928817
 30
0.0
 10
9.8393637895
 20
4.4300479541
 30
0.0
 10
9.9102133536
 20
4.3914172729
 30
0.0
 10
9.9835266795
 20
4.3551635509
 30
0.0
 10
10.0849224623
 20
4.3098420596
 30
0.0
 10
10.1633387976
 20
4.2800480672
 30
0.0
 10
10.2165331854
 20
4.2619948936
 30
0.0
  0
SPLINE
  5
38F
100
AcDbEntity
  8
0
100
AcDbSpline
 62
9
  6
CONTINUOUS
 70
0
 71
3
 72
20
 73
16
 74
0
 42
0.0000001
 43
0.0000001
 44
0.0000000001
 40
0.0
 40
0.0
 40
0.0
 40
0.0
 40
0.1249936074
 40
0.1880473099
 40
0.2513549053
 40
0.3783701954
 40
0.4419273022
 40
0.5053949611
 40
0.5686873894
 40
0.6317199996
 40
0.6944100126
 40
0.7566770193
 40
0.8184437078
 40
0.8796361138
 40
1.0
 40
1.0
 40
1.0
 40
1.0
 10
10.4593910496
 20
4.1935347746
 30
0.0
 10
10.5234064543
 20
4.178974367
 30
0.0
 10
10.6206178995
 20
4.1608099065
 30
0.0
 10
10.7515712179
 20
4.1438980563
 30
0.0
 10
10.8841258836
 20
4.1317858996
 30
0.0
 10
11.0175317528
 20
4.1270469208
 30
0.0
 10
11.150957886
 20
4.129680917
 30
0.0
 10
11.2507820806
 20
4.1353435001
 30
0.0
 10
11.3500517201
 20
4.1446770616
 30
0.0
 10
11.448499568
 20
4.1576563279
 30
0.0
 10
11.5458578783
 20
4.1742462232
 30
0.0
 10
11.6418613412
 20
4.1944014216
 30
0.0
 10
11.7362532087
 20
4.2180687
 30
0.0
 10
11.8589157346
 20
4.2540156828
 30
0.0
 10
11.9487891493
 20
4.2863134865
 30
0.0
 10
12.0073183383
 20
4.3102079278
 30
0.0
  0
SPLINE
  5
390
100
AcDbEntity
  8
0
100
AcDbSpline
 62
9
  6
CONTINUOUS
 70
0
 71
3
 72
39
 73
35
 74
0
 42
0.0000001
 43
0.0000001
 44
0.0000000001
 40
0.0
 40
0.0
 40
0.0
 40
0.0
 40
0.0714821556
 40
0.1062245981
 40
0.1402505019
 40
0.1735414444
 40
0.1899108611
 40
0.2060949722
 40
0.237907701
 40
0.2690027882
 40
0.2994127386
 40
0.3291841928
 40
0.3583779101
 40
0.3870682962
 40
0.4153423878
 40
0.4432982369
 40
0.471042688
 40
0.4986886145
 40
0.526351753
 40
0.5541473375
 40
0.582186769
 40
0.6105745504
 40
0.6394056717
 40
0.668763565
 40
0.6987186687
 40
0.7293275819
 40
0.7606327367
 40
0.7926624981
 40
0.8089564449
 40
0.8254359469
 40
0.8589461123
 40
0.893186928
 40
0.9281367629
 40
1.0
 40
1.0
 40
1.0
 40
1.0
 10
11.6225928846
 20
6.1766472218
 30
0.0
 10
11.6630801246
 20
6.1593759801
 30
0.0
 10
11.721991665
 20
6.1305509535
 30
0.0
 10
11.7960520128
 20
6.0860549118
 30
0.0
 10
11.8479467021
 20
6.050536761
 30
0.0
 10
11.8886228474
 20
6.0188375932
 30
0.0
 10
11.9193569754
 20
5.9923820499
 30
0.0
 10
11.9485296285
 20
5.9655418415
 30
0.0
 10
11.982692469
 20
5.930771508
 30
0.0
 10
12.0199964987
 20
5.8869984048
 30
0.0
 10
12.0532183879
 20
5.8415945898
 30
0.0
 10
12.0822145015
 20
5.794749993
 30
0.0
 10
12.1068595999
 20
5.7466599885
 30
0.0
 10
12.1270457995
 20
5.6975265216
 30
0.0
 10
12.1426838032
 20
5.6475571101
 30
0.0
 10
12.1537036228
 20
5.5969642259
 30
0.0
 10
12.1600554451
 20
5.5459643136
 30
0.0
 10
12.1617103426
 20
5.4947765862
 30
0.0
 10
12.158660751
 20
5.4436215844
 30
0.0
 10
12.1509206004
 20
5.3927196149
 30
0.0
 10
12.1385250757
 20
5.3422892114
 30
0.0
 10
12.1215300541
 20
5.2925457534
 30
0.0
 10
12.1000113463
 20
5.2437003384
 30
0.0
 10
12.0740638199
 20
5.1959588734
 30
0.0
 10
12.0438006879
 20
5.1495215089
 30
0.0
 10
12.0093523116
 20
5.1045816759
 30
0.0
 10
11.9708672224
 20
5.0613271953
 30
0.0
 10
11.9357671048
 20
5.0270297131
 30
0.0
 10
11.9058698789
 20
5.0005912673
 30
0.0
 10
11.8744239317
 20
4.9745599618
 30
0.0
 10
11.832897435
 20
4.9434225849
 30
0.0
 10
11.7800489623
 20
4.908617624
 30
0.0
 10
11.7048111729
 20
4.8651468028
 30
0.0
 10
11.6451179524
 20
4.8371205681
 30
0.0
 10
11.604148705
 20
4.8203949429
 30
0.0
  0
SPLINE
  5
391
100
AcDbEntity
  8
0
100
AcDbSpline
 62
9
  6
CONTINUOUS
 70
0
 71
3
 72
52
 73
48
 74
0
 42
0.0000001
 43
0.0000001
 44
0.0000000001
 40
0.0
 40
0.0
 40
0.0
 40
0.0
 40
0.033411219
 40
0.0497737841
 40
0.0658928644
 40
0.0973646149
 40
0.1127175367
 40
0.1278108108
 40
0.1572185228
 40
0.171554976
 40
0.185655546
 40
0.1995330812
 40
0.2132032253
 40
0.2266843604
 40
0.2399974929
 40
0.2531660568
 40
0.2662156573
 40
0.2791737492
 40
0.2920692535
 40
0.3049321111
 40
0.3177928011
 40
0.3306818388
 40
0.34362927
 40
0.3566641856
 40
0.369814276
 40
0.3831054346
 40
0.3965614176
 40
0.4102035813
 40
0.4240506916
 40
0.4381187941
 40
0.4524211341
 40
0.481757158
 40
0.5121205208
 40
0.5435195699
 40
0.5759244223
 40
0.6092713762
 40
0.6434676311
 40
0.6783959867
 40
0.7139194549
 40
0.749885725
 40
0.786131491
 40
0.8224866768
 40
0.8587785921
 40
0.8948360537
 40
0.930493529
 40
0.9655951944
 40
1.0
 40
1.0
 40
1.0
 40
1.0
 10
10.4720703155
 20
6.1766585107
 30
0.0
 10
10.4414645824
 20
6.163603227
 30
0.0
 10
10.3966019757
 20
6.1423506407
 30
0.0
 10
10.3391817875
 20
6.1105502425
 30
0.0
 10
10.2848369491
 20
6.0773076681
 30
0.0
 10
10.2335607642
 20
6.0410676283
 30
0.0
 10
10.1858744077
 20
6.001938986
 30
0.0
 10
10.1416952382
 20
5.9618961984
 30
0.0
 10
10.1012908871
 20
5.9192794265
 30
0.0
 10
10.0652215135
 20
5.8743313707
 30
0.0
 10
10.040728265
 20
5.8400100559
 30
0.0
 10
10.0186303698
 20
5.8048814502
 30
0.0
 10
9.9989801045
 20
5.7690275567
 30
0.0
 10
9.9818255864
 20
5.7325338363
 30
0.0
 10
9.9672085146
 20
5.6954871427
 30
0.0
 10
9.9551647479
 20
5.657975947
 30
0.0
 10
9.9457240072
 20
5.6200900449
 30
0.0
 10
9.9389097742
 20
5.5819203845
 30
0.0
 10
9.934738897
 20
5.5435588492
 30
0.0
 10
9.933221741
 20
5.505097919
 30
0.0
 10
9.9343621159
 20
5.4666303988
 30
0.0
 10
9.9381572813
 20
5.428249134
 30
0.0
 10
9.9445976949
 20
5.3900466774
 30
0.0
 10
9.9536672823
 20
5.3521149818
 30
0.0
 10
9.9653435778
 20
5.3145451446
 30
0.0
 10
9.979597874
 20
5.2774271835
 30
0.0
 10
9.9963951221
 20
5.2408497694
 30
0.0
 10
10.0156942844
 20
5.2048999371
 30
0.0
 10
10.0374482265
 20
5.1696633347
 30
0.0
 10
10.0616052517
 20
5.1352226359
 30
0.0
 10
10.0972349693
 20
5.0900984021
 30
0.0
 10
10.1476422855
 20
5.0361265375
 30
0.0
 10
10.2161217664
 20
4.9763997811
 30
0.0
 10
10.2924598259
 20
4.9216961253
 30
0.0
 10
10.37592594
 20
4.8725265357
 30
0.0
 10
10.4657315737
 20
4.8293436408
 30
0.0
 10
10.561028126
 20
4.792548544
 30
0.0
 10
10.6609162601
 20
4.7624835571
 30
0.0
 10
10.7644531641
 20
4.7394291593
 30
0.0
 10
10.8706614661
 20
4.7236010673
 30
0.0
 10
10.9785382617
 20
4.7151473139
 30
0.0
 10
11.0870646774
 20
4.7141473685
 30
0.0
 10
11.195215809
 20
4.7206103849
 30
0.0
 10
11.3019695536
 20
4.7344758514
 30
0.0
 10
11.4063199216
 20
4.7556144189
 30
0.0
 10
11.5072739091
 20
4.7838253349
 30
0.0
 10
11.5724269734
 20
4.8074446002
 30
0.0
 10
11.604148705
 20
4.8203949429
 30
0.0
  0
SPLINE
  5
392
100
AcDbEntity
  8
0
100
AcDbSpline
 62
7
  6
CONTINUOUS
 70
0
 71
3
 72
29
 73
25
 74
0
 42
0.0000001
 43
0.0000001
 44
0.0000000001
 40
0.0
 40
0.0
 40
0.0
 40
0.0
 40
0.0707256167
 40
0.1419085397
 40
0.2131032388
 40
0.2838620077
 40
0.3537514487
 40
0.4223666005
 40
0.4893456306
 40
0.5543853557
 40
0.6172569372
 40
0.6478436763
 40
0.6778452555
 40
0.7360730754
 40
0.7643474651
 40
0.7920820204
 40
0.8193085165
 40
0.8460671654
 40
0.872406359
 40
0.8983822302
 40
0.9240579742
 40
0.9495028685
 40
0.9747910445
 40
1.0
 40
1.0
 40
1.0
 40
1.0
 10
11.1770814628
 20
6.187295183
 30
0.0
 10
11.1559872976
 20
6.1838399169
 30
0.0
 10
11.113359731
 20
6.1786376289
 30
0.0
 10
11.0489455188
 20
6.1759546131
 30
0.0
 10
10.9845066749
 20
6.1783809084
 30
0.0
 10
10.9208540878
 20
6.1858871178
 30
0.0
 10
10.8587819091
 20
6.1983806026
 30
0.0
 10
10.7990662671
 20
6.2157066237
 30
0.0
 10
10.7424518851
 20
6.2376530977
 30
0.0
 10
10.6896495866
 20
6.2639480654
 30
0.0
 10
10.6489955296
 20
6.2894559643
 30
0.0
 10
10.6190609294
 20
6.3117601358
 30
0.0
 10
10.5914772341
 20
6.3347725489
 30
0.0
 10
10.5663784287
 20
6.3596094617
 30
0.0
 10
10.5442050216
 20
6.3860981979
 30
0.0
 10
10.529320442
 20
6.4064015791
 30
0.0
 10
10.5160713563
 20
6.4272674922
 30
0.0
 10
10.5044994943
 20
6.4486312428
 30
0.0
 10
10.4946426267
 20
6.4704252736
 30
0.0
 10
10.4865329643
 20
6.4925807786
 30
0.0
 10
10.4801973452
 20
6.5150272544
 30
0.0
 10
10.475656693
 20
6.5376935841
 30
0.0
 10
10.4729261423
 20
6.5605052905
 30
0.0
 10
10.4723183453
 20
6.5757738694
 30
0.0
 10
10.4723183385
 20
6.5833927287
 30
0.0
  0
SPLINE
  5
393
100
AcDbEntity
  8
0
100
AcDbSpline
 62
7
  6
CONTINUOUS
 70
0
 71
3
 72
31
 73
27
 74
0
 42
0.0000001
 43
0.0000001
 44
0.0000000001
 40
0.0
 40
0.0
 40
0.0
 40
0.0
 40
0.0616605196
 40
0.1215256887
 40
0.1509013676
 40
0.1799614162
 40
0.2087603239
 40
0.2373565319
 40
0.2658116295
 40
0.2941894149
 40
0.3225549241
 40
0.3509733928
 40
0.379509207
 40
0.408224889
 40
0.4371801791
 40
0.4664311179
 40
0.4960294582
 40
0.526021985
 40
0.5564500661
 40
0.5873494967
 40
0.6506524169
 40
0.7161249188
 40
0.7838433275
 40
0.8537983136
 40
0.9259014825
 40
1.0
 40
1.0
 40
1.0
 40
1.0
 10
11.4732432798
 20
6.7436957999
 30
0.0
 10
11.4803812505
 20
6.7342129851
 30
0.0
 10
11.4934396618
 20
6.7147341645
 30
0.0
 10
11.5066800026
 20
6.6887943568
 30
0.0
 10
11.5150779285
 20
6.6676132782
 30
0.0
 10
11.5202594501
 20
6.6516281956
 30
0.0
 10
11.5243490536
 20
6.6354843979
 30
0.0
 10
11.527337461
 20
6.6192189829
 30
0.0
 10
11.5292174587
 20
6.6028699559
 30
0.0
 10
11.5299842494
 20
6.5864754126
 30
0.0
 10
11.5296363561
 20
6.5700736748
 30
0.0
 10
11.5281743261
 20
6.5537030496
 30
0.0
 10
11.5256017649
 20
6.5374017705
 30
0.0
 10
11.5219250377
 20
6.5212077871
 30
0.0
 10
11.5171526183
 20
6.5051588577
 30
0.0
 10
11.5112962592
 20
6.4892921306
 30
0.0
 10
11.5043696706
 20
6.4736443438
 30
0.0
 10
11.4963893021
 20
6.4582517604
 30
0.0
 10
11.4873737962
 20
6.4431492622
 30
0.0
 10
11.4738952593
 20
6.4232898093
 30
0.0
 10
11.4544929757
 20
6.3993651895
 30
0.0
 10
11.4276670182
 20
6.3726118706
 30
0.0
 10
11.3973560212
 20
6.3478130216
 30
0.0
 10
11.3638416304
 20
6.3251929149
 30
0.0
 10
11.327434223
 20
6.3049537623
 30
0.0
 10
11.3017735384
 20
6.2933140289
 30
0.0
 10
11.2885683383
 20
6.2879230285
 30
0.0
  0
SPLINE
  5
394
100
AcDbEntity
  8
0
100
AcDbSpline
 62
7
  6
CONTINUOUS
 70
0
 71
3
 72
39
 73
35
 74
0
 42
0.0000001
 43
0.0000001
 44
0.0000000001
 40
0.0
 40
0.0
 40
0.0
 40
0.0
 40
0.0695862869
 40
0.1051518331
 40
0.1410867048
 40
0.1772818719
 40
0.2136237694
 40
0.2499965479
 40
0.2862838271
 40
0.3223706242
 40
0.3581451922
 40
0.3935009596
 40
0.4283384342
 40
0.4625672143
 40
0.4961080005
 40
0.528894703
 40
0.5608765592
 40
0.5920202904
 40
0.6072758577
 40
0.6223185128
 40
0.6517664597
 40
0.680401529
 40
0.7082791917
 40
0.7354797072
 40
0.7621073677
 40
0.7882884054
 40
0.8141672327
 40
0.8399011932
 40
0.8656539819
 40
0.8915884747
 40
0.9178595858
 40
0.9446079843
 40
0.971955149
 40
1.0
 40
1.0
 40
1.0
 40
1.0
 10
11.2793092649
 20
6.2842385906
 30
0.0
 10
11.256349575
 20
6.2753362583
 30
0.0
 10
11.2207375511
 20
6.2641224322
 30
0.0
 10
11.171953524
 20
6.2534162145
 30
0.0
 10
11.1342909285
 20
6.247432216
 30
0.0
 10
11.0960769226
 20
6.2435945251
 30
0.0
 10
11.0575512508
 20
6.2419265079
 30
0.0
 10
11.0189605646
 20
6.2424389954
 30
0.0
 10
10.9805506051
 20
6.2451286755
 30
0.0
 10
10.9425663115
 20
6.2499785003
 30
0.0
 10
10.9052497851
 20
6.2569577185
 30
0.0
 10
10.8688388667
 20
6.266022113
 30
0.0
 10
10.8335655871
 20
6.2771143016
 30
0.0
 10
10.7996546825
 20
6.290164185
 30
0.0
 10
10.7673223203
 20
6.3050893098
 30
0.0
 10
10.7367742783
 20
6.3217959007
 30
0.0
 10
10.7082065702
 20
6.3401779101
 30
0.0
 10
10.6860484033
 20
6.3569130032
 30
0.0
 10
10.6695093251
 20
6.3710357689
 30
0.0
 10
10.6540006315
 20
6.3854132262
 30
0.0
 10
10.6361352441
 20
6.4041821608
 30
0.0
 10
10.6171735285
 20
6.4280220936
 30
0.0
 10
10.600962158
 20
6.4528722409
 30
0.0
 10
10.5876101001
 20
6.4785744821
 30
0.0
 10
10.5772078396
 20
6.5049648231
 30
0.0
 10
10.5698276053
 20
6.5318726334
 30
0.0
 10
10.5655216161
 20
6.5591218677
 30
0.0
 10
10.5643208543
 20
6.5865324045
 30
0.0
 10
10.5662340122
 20
6.6139220498
 30
0.0
 10
10.5712472696
 20
6.6411089356
 30
0.0
 10
10.5793245477
 20
6.6679135412
 30
0.0
 10
10.5904094232
 20
6.6941616266
 30
0.0
 10
10.6044234364
 20
6.7196814381
 30
0.0
 10
10.6155110546
 20
6.7358886357
 30
0.0
 10
10.6214832074
 20
6.7438151171
 30
0.0
  0
SPLINE
  5
395
100
AcDbEntity
  8
0
100
AcDbSpline
 62
7
  6
CONTINUOUS
 70
0
 71
3
 72
10
 73
6
 74
0
 42
0.0000001
 43
0.0000001
 44
0.0000000001
 40
0.0
 40
0.0
 40
0.0
 40
0.0
 40
0.2446842429
 40
0.6188665633
 40
1.0
 40
1.0
 40
1.0
 40
1.0
 10
11.3348183383
 20
5.9837912048
 30
0.0
 10
11.322430141
 20
5.9787337444
 30
0.0
 10
11.290706017
 20
5.9668845703
 30
0.0
 10
11.2381652936
 20
5.9514851376
 30
0.0
 10
11.1976499832
 20
5.9431769739
 30
0.0
 10
11.1770814628
 20
5.9398078096
 30
0.0
  0
SPLINE
  5
396
100
AcDbEntity
  8
0
100
AcDbSpline
 62
7
  6
CONTINUOUS
 70
0
 71
3
 72
10
 73
6
 74
0
 42
0.0000001
 43
0.0000001
 44
0.0000000001
 40
0.0
 40
0.0
 40
0.0
 40
0.0
 40
0.4887327762
 40
0.7417546144
 40
1.0
 40
1.0
 40
1.0
 40
1.0
 10
11.4675552138
 20
6.0583932218
 30
0.0
 10
11.4477321833
 20
6.0433842053
 30
0.0
 10
11.4159396623
 20
6.0227718895
 30
0.0
 10
11.3707811858
 20
5.9993050652
 30
0.0
 10
11.3469818878
 20
5.9887569531
 30
0.0
 10
11.3348183383
 20
5.9837912048
 30
0.0
  0
SPLINE
  5
397
100
AcDbEntity
  8
0
100
AcDbSpline
 62
7
  6
CONTINUOUS
 70
0
 71
3
 72
9
 73
5
 74
0
 42
0.0000001
 43
0.0000001
 44
0.0000000001
 40
0.0
 40
0.0
 40
0.0
 40
0.0
 40
0.5061403697
 40
1.0
 40
1.0
 40
1.0
 40
1.0
 10
11.4484436556
 20
6.6966907225
 30
0.0
 10
11.4541219995
 20
6.6896950311
 30
0.0
 10
11.464767015
 20
6.6753955696
 30
0.0
 10
11.4740938937
 20
6.6601993851
 30
0.0
 10
11.478332732
 20
6.652497194
 30
0.0
  0
SPLINE
  5
398
100
AcDbEntity
  8
0
100
AcDbSpline
 62
7
  6
CONTINUOUS
 70
0
 71
3
 72
11
 73
7
 74
0
 42
0.0000001
 43
0.0000001
 44
0.0000000001
 40
0.0
 40
0.0
 40
0.0
 40
0.0
 40
0.255752969
 40
0.5071156056
 40
0.7548957033
 40
1.0
 40
1.0
 40
1.0
 40
1.0
 10
11.478332732
 20
6.652497194
 30
0.0
 10
11.4819856382
 20
6.6458596722
 30
0.0
 10
11.4886945622
 20
6.6323952284
 30
0.0
 10
11.4969285933
 20
6.6115740983
 30
0.0
 10
11.5032022475
 20
6.5904087332
 30
0.0
 10
11.5060704294
 20
6.5760676209
 30
0.0
 10
11.5071629159
 20
6.5688894254
 30
0.0
  0
SPLINE
  5
399
100
AcDbEntity
  8
0
100
AcDbSpline
 62
7
  6
CONTINUOUS
 70
0
 71
3
 72
15
 73
11
 74
0
 42
0.0000001
 43
0.0000001
 44
0.0000000001
 40
0.0
 40
0.0
 40
0.0
 40
0.0
 40
0.131359907
 40
0.2603246863
 40
0.3871345005
 40
0.5120721048
 40
0.6354592609
 40
0.7576515013
 40
0.8790313195
 40
1.0
 40
1.0
 40
1.0
 40
1.0
 10
11.4601665461
 20
6.7166659567
 30
0.0
 10
11.4641889598
 20
6.7110334647
 30
0.0
 10
11.4717834238
 20
6.699595474
 30
0.0
 10
11.4818341001
 20
6.6818256857
 30
0.0
 10
11.4904005251
 20
6.6636660338
 30
0.0
 10
11.4974516016
 20
6.6451795751
 30
0.0
 10
11.5029624372
 20
6.6264296983
 30
0.0
 10
11.5069131471
 20
6.6074807047
 30
0.0
 10
11.5092893784
 20
6.5883999638
 30
0.0
 10
11.5098182755
 20
6.5756244092
 30
0.0
 10
11.5098183024
 20
6.5692505931
 30
0.0
  0
SPLINE
  5
39A
100
AcDbEntity
  8
0
100
AcDbSpline
 62
7
  6
CONTINUOUS
 70
0
 71
3
 72
15
 73
11
 74
0
 42
0.0000001
 43
0.0000001
 44
0.0000000001
 40
0.0
 40
0.0
 40
0.0
 40
0.0
 40
0.1223695521
 40
0.2450161396
 40
0.3681895299
 40
0.4921318798
 40
0.6170747726
 40
0.7432357328
 40
0.8708164093
 40
1.0
 40
1.0
 40
1.0
 40
1.0
 10
10.5873604074
 20
6.5352506949
 30
0.0
 10
10.5873895478
 20
6.5401992472
 30
0.0
 10
10.5877682028
 20
6.5501086283
 30
0.0
 10
10.5892944914
 20
6.5649296152
 30
0.0
 10
10.5917763919
 20
6.5796858259
 30
0.0
 10
10.5952081304
 20
6.5943454963
 30
0.0
 10
10.5995827064
 20
6.6088779299
 30
0.0
 10
10.6048904323
 20
6.6232528833
 30
0.0
 10
10.6111198549
 20
6.6374396817
 30
0.0
 10
10.6158476217
 20
6.6466921833
 30
0.0
 10
10.6183556728
 20
6.6512749696
 30
0.0
  0
SPLINE
  5
39B
100
AcDbEntity
  8
0
100
AcDbSpline
 62
9
  6
CONTINUOUS
 70
0
 71
3
 72
26
 73
22
 74
0
 42
0.0000001
 43
0.0000001
 44
0.0000000001
 40
0.0
 40
0.0
 40
0.0
 40
0.0
 40
0.0656267212
 40
0.1328231667
 40
0.2011584296
 40
0.2701547944
 40
0.3393104297
 40
0.4081176332
 40
0.4760816263
 40
0.5427395606
 40
0.6076801735
 40
0.6705638416
 40
0.731143811
 40
0.7892875136
 40
0.8449974203
 40
0.8719986409
 40
0.8984632803
 40
0.924436185
 40
0.9499722878
 40
0.9751359548
 40
1.0
 40
1.0
 40
1.0
 40
1.0
 10
11.2201279562
 20
6.44947808
 30
0.0
 10
11.207849915
 20
6.4444655907
 30
0.0
 10
11.1824819761
 20
6.4355495596
 30
0.0
 10
11.1429979648
 20
6.4256652142
 30
0.0
 10
11.1021178968
 20
6.4192218203
 30
0.0
 10
11.0604411742
 20
6.4163138801
 30
0.0
 10
11.0185731533
 20
6.4169826646
 30
0.0
 10
10.9771236249
 20
6.4212188345
 30
0.0
 10
10.9366956438
 20
6.4289612029
 30
0.0
 10
10.8978773794
 20
6.4400990204
 30
0.0
 10
10.8612330591
 20
6.4544728908
 30
0.0
 10
10.8272958314
 20
6.4718783888
 30
0.0
 10
10.7965590951
 20
6.4920707111
 30
0.0
 10
10.7694760892
 20
6.5147620968
 30
0.0
 10
10.7500780978
 20
6.5357184015
 30
0.0
 10
10.7368531611
 20
6.5533973215
 30
0.0
 10
10.7281776238
 20
6.5669216981
 30
0.0
 10
10.7206778635
 20
6.5807964022
 30
0.0
 10
10.7143817344
 20
6.5949712846
 30
0.0
 10
10.7093137432
 20
6.6093924833
 30
0.0
 10
10.7067537499
 20
6.6191868355
 30
0.0
 10
10.7056892524
 20
6.6240972864
 30
0.0
  0
SPLINE
  5
39C
100
AcDbEntity
  8
0
100
AcDbSpline
 62
7
  6
CONTINUOUS
 70
0
 71
3
 72
31
 73
27
 74
0
 42
0.0000001
 43
0.0000001
 44
0.0000000001
 40
0.0
 40
0.0
 40
0.0
 40
0.0
 40
0.0667239565
 40
0.1007585075
 40
0.1351529056
 40
0.2047287163
 40
0.2749010176
 40
0.3450733098
 40
0.4146491564
 40
0.4830580038
 40
0.5166708212
 40
0.5498036026
 40
0.6144034372
 40
0.6458117578
 40
0.6765760516
 40
0.7360739651
 40
0.7648316619
 40
0.7929331348
 40
0.8204052413
 40
0.8472878728
 40
0.873633999
 40
0.8995093348
 40
0.9249914868
 40
0.950168552
 40
0.9751371733
 40
1.0
 40
1.0
 40
1.0
 40
1.0
 10
11.2735683383
 20
6.8224821519
 30
0.0
 10
11.256218174
 20
6.815398977
 30
0.0
 10
11.2294216849
 20
6.8060985923
 30
0.0
 10
11.1927266238
 20
6.796344215
 30
0.0
 10
11.1548125129
 20
6.7882206665
 30
0.0
 10
11.1062968944
 20
6.781426582
 30
0.0
 10
11.0473189228
 20
6.778705077
 30
0.0
 10
10.988337448
 20
6.7814269593
 30
0.0
 10
10.9303558306
 20
6.7895463946
 30
0.0
 10
10.8833988607
 20
6.8007667622
 30
0.0
 10
10.8472306477
 20
6.8123409657
 30
0.0
 10
10.8127066834
 20
6.8253737354
 30
0.0
 10
10.7798038062
 20
6.8408408455
 30
0.0
 10
10.7489819251
 20
6.8587033204
 30
0.0
 10
10.7204665089
 20
6.8775614037
 30
0.0
 10
10.6942960104
 20
6.8985377029
 30
0.0
 10
10.6710005021
 20
6.92148849
 30
0.0
 10
10.6553299004
 20
6.9392777624
 30
0.0
 10
10.6413359316
 20
6.9577580399
 30
0.0
 10
10.6290786234
 20
6.9768519444
 30
0.0
 10
10.6186121891
 20
6.9964780821
 30
0.0
 10
10.6099831225
 20
7.0165527398
 30
0.0
 10
10.6032302806
 20
7.0369894574
 30
0.0
 10
10.5983844436
 20
7.0577004659
 30
0.0
 10
10.5954679195
 20
7.0785932026
 30
0.0
 10
10.5948184028
 20
7.0925976202
 30
0.0
 10
10.5948183734
 20
7.099580679
 30
0.0
  0
SPLINE
  5
39D
100
AcDbEntity
  8
0
100
AcDbSpline
 62
7
  6
CONTINUOUS
 70
0
 71
3
 72
19
 73
15
 74
0
 42
0.0000001
 43
0.0000001
 44
0.0000000001
 40
0.0
 40
0.0
 40
0.0
 40
0.0
 40
0.0579658353
 40
0.1160590071
 40
0.1744049335
 40
0.2331251494
 40
0.2923356334
 40
0.3521453525
 40
0.4126546858
 40
0.4739546111
 40
0.5991876295
 40
0.728413325
 40
0.861963477
 40
1.0
 40
1.0
 40
1.0
 40
1.0
 10
11.622318338
 20
6.5833927287
 30
0.0
 10
11.6223183437
 20
6.5770281907
 30
0.0
 10
11.621894574
 20
6.5642810969
 30
0.0
 10
11.6199901567
 20
6.545213363
 30
0.0
 10
11.6168209465
 20
6.5262299651
 30
0.0
 10
11.6123941444
 20
6.5073743515
 30
0.0
 10
11.6067201274
 20
6.4886880295
 30
0.0
 10
11.5998116497
 20
6.4702127632
 30
0.0
 10
11.5916841209
 20
6.4519887999
 30
0.0
 10
11.5791608303
 20
6.4279126047
 30
0.0
 10
11.5604632069
 20
6.3986190979
 30
0.0
 10
11.5336783983
 20
6.3653881117
 30
0.0
 10
11.5026274367
 20
6.334101898
 30
0.0
 10
11.4796385324
 20
6.3150294854
 30
0.0
 10
11.4675552138
 20
6.3058805952
 30
0.0
  0
SPLINE
  5
39E
100
AcDbEntity
  8
0
100
AcDbSpline
 62
7
  6
CONTINUOUS
 70
0
 71
3
 72
21
 73
17
 74
0
 42
0.0000001
 43
0.0000001
 44
0.0000000001
 40
0.0
 40
0.0
 40
0.0
 40
0.0
 40
0.1434931983
 40
0.213258092
 40
0.2815937044
 40
0.4137535897
 40
0.4776316711
 40
0.5400521238
 40
0.6010746131
 40
0.6607877447
 40
0.7193091851
 40
0.7767848474
 40
0.8333871467
 40
0.8893117596
 40
0.944773367
 40
1.0
 40
1.0
 40
1.0
 40
1.0
 10
11.2735683383
 20
6.8224821519
 30
0.0
 10
11.2903662433
 20
6.8293398678
 30
0.0
 10
11.314834137
 20
6.8408413082
 30
0.0
 10
11.3456545471
 20
6.8587033256
 30
0.0
 10
11.3741702929
 20
6.8775614009
 30
0.0
 10
11.4003406874
 20
6.8985376707
 30
0.0
 10
11.4236361798
 20
6.9214884897
 30
0.0
 10
11.4393067393
 20
6.9392777828
 30
0.0
 10
11.4533007149
 20
6.9577580519
 30
0.0
 10
11.4655580513
 20
6.9768519434
 30
0.0
 10
11.4760245186
 20
6.9964780697
 30
0.0
 10
11.484653597
 20
7.0165527281
 30
0.0
 10
11.4914063933
 20
7.0369894584
 30
0.0
 10
11.4962521992
 20
7.0577004717
 30
0.0
 10
11.4991686878
 20
7.0785932036
 30
0.0
 10
11.4998183326
 20
7.0925976191
 30
0.0
 10
11.4998183032
 20
7.099580679
 30
0.0
  0
SPLINE
  5
39F
100
AcDbEntity
  8
0
100
AcDbSpline
 62
9
  6
CONTINUOUS
 70
0
 71
3
 72
19
 73
15
 74
0
 42
0.0000001
 43
0.0000001
 44
0.0000000001
 40
0.0
 40
0.0
 40
0.0
 40
0.0
 40
0.1384143916
 40
0.2722444532
 40
0.401633172
 40
0.5269031564
 40
0.5881757572
 40
0.6486284949
 40
0.7083546369
 40
0.7674577734
 40
0.8260506446
 40
0.8842536098
 40
0.9421931834
 40
1.0
 40
1.0
 40
1.0
 40
1.0
 10
11.3727462656
 20
6.649481274
 30
0.0
 10
11.3826423222
 20
6.6567240867
 30
0.0
 10
11.4014795054
 20
6.6718565477
 30
0.0
 10
11.426955374
 20
6.6967846382
 30
0.0
 10
11.4489508794
 20
6.7233447094
 30
0.0
 10
11.4643210018
 20
6.746820666
 30
0.0
 10
11.4746190616
 20
6.7661426836
 30
0.0
 10
11.4813025437
 20
6.7807757182
 30
0.0
 10
11.4869846728
 20
6.7956202001
 30
0.0
 10
11.491652415
 20
6.810642217
 30
0.0
 10
11.4952946513
 20
6.8258067222
 30
0.0
 10
11.4979023703
 20
6.8410788006
 30
0.0
 10
11.4994696634
 20
6.8564218584
 30
0.0
 10
11.4998182941
 20
6.8666802678
 30
0.0
 10
11.4998183218
 20
6.8718018917
 30
0.0
  0
SPLINE
  5
3A0
100
AcDbEntity
  8
0
100
AcDbSpline
 62
7
  6
CONTINUOUS
 70
0
 71
3
 72
27
 73
23
 74
0
 42
0.0000001
 43
0.0000001
 44
0.0000000001
 40
0.0
 40
0.0
 40
0.0
 40
0.0
 40
0.150041355
 40
0.2231609427
 40
0.2948306809
 40
0.3648951089
 40
0.4331728859
 40
0.4994495168
 40
0.5634880304
 40
0.6250361381
 40
0.6838510502
 40
0.7397723637
 40
0.7666767765
 40
0.7929186656
 40
0.8185820906
 40
0.8438037457
 40
0.8687788572
 40
0.8937615096
 40
0.9190569298
 40
0.9449915793
 40
0.9718880065
 40
1.0
 40
1.0
 40
1.0
 40
1.0
 10
11.2648183383
 20
6.5494120702
 30
0.0
 10
11.2590515228
 20
6.5470577776
 30
0.0
 10
11.25034905
 20
6.5438483917
 30
0.0
 10
11.2386371624
 20
6.540284523
 30
0.0
 10
11.230001049
 20
6.538042308
 30
0.0
 10
11.2214685441
 20
6.5362351825
 30
0.0
 10
11.2130758398
 20
6.5348969623
 30
0.0
 10
11.2048675278
 20
6.5340708877
 30
0.0
 10
11.1968997423
 20
6.5338087637
 30
0.0
 10
11.189242853
 20
6.5341737541
 30
0.0
 10
11.1819892314
 20
6.5352417124
 30
0.0
 10
11.1763005547
 20
6.5368148
 30
0.0
 10
11.1721081625
 20
6.5385384303
 30
0.0
 10
11.1692017749
 20
6.5400517907
 30
0.0
 10
11.1665214071
 20
6.541814476
 30
0.0
 10
11.1640976399
 20
6.5438370545
 30
0.0
 10
11.1619646589
 20
6.546127649
 30
0.0
 10
11.1601578994
 20
6.548688645
 30
0.0
 10
11.1587127941
 20
6.5515154072
 30
0.0
 10
11.157660408
 20
6.5545949439
 30
0.0
 10
11.1570246479
 20
6.5579046885
 30
0.0
 10
11.1568904109
 20
6.5601914385
 30
0.0
 10
11.1568904109
 20
6.5613584903
 30
0.0
  0
SPLINE
  5
3A1
100
AcDbEntity
  8
0
100
AcDbSpline
 62
7
  6
CONTINUOUS
 70
0
 71
3
 72
24
 73
20
 74
0
 42
0.0000001
 43
0.0000001
 44
0.0000000001
 40
0.0
 40
0.0
 40
0.0
 40
0.0
 40
0.0491206211
 40
0.0755393887
 40
0.1031169436
 40
0.131750395
 40
0.1613165448
 40
0.1916821062
 40
0.2227177512
 40
0.2863141939
 40
0.3513096321
 40
0.4170923311
 40
0.4832211905
 40
0.5493817345
 40
0.6153509612
 40
0.6809648272
 40
0.7460974195
 40
0.8745221176
 40
1.0
 40
1.0
 40
1.0
 40
1.0
 10
11.3727462656
 20
6.649481274
 30
0.0
 10
11.3727462656
 20
6.6469715863
 30
0.0
 10
11.372259303
 20
6.6431036012
 30
0.0
 10
11.3708806125
 20
6.6380162355
 30
0.0
 10
11.3694373478
 20
6.6340431549
 30
0.0
 10
11.3676397325
 20
6.630042709
 30
0.0
 10
11.3655196266
 20
6.6260418557
 30
0.0
 10
11.3631095361
 20
6.6220651398
 30
0.0
 10
11.3595229627
 20
6.6167781827
 30
0.0
 10
11.3544831058
 20
6.6103526236
 30
0.0
 10
11.3477839783
 20
6.6030116175
 30
0.0
 10
11.3405441034
 20
6.5960177823
 30
0.0
 10
11.3328905164
 20
6.5893902475
 30
0.0
 10
11.3249200083
 20
6.5831333261
 30
0.0
 10
11.3167068749
 20
6.5772445894
 30
0.0
 10
11.3083086079
 20
6.5717185697
 30
0.0
 10
11.2969792715
 20
6.5648588527
 30
0.0
 10
11.2825936637
 20
6.5571648484
 30
0.0
 10
11.2707537332
 20
6.551835185
 30
0.0
 10
11.2648183383
 20
6.5494120702
 30
0.0
  0
SPLINE
  5
3A2
100
AcDbEntity
  8
0
100
AcDbSpline
 62
7
  6
CONTINUOUS
 70
0
 71
3
 72
26
 73
22
 74
0
 42
0.0000001
 43
0.0000001
 44
0.0000000001
 40
0.0
 40
0.0
 40
0.0
 40
0.0
 40
0.0260017097
 40
0.0521235282
 40
0.0784153099
 40
0.1049243523
 40
0.158743343
 40
0.2139146851
 40
0.2420956289
 40
0.2706980866
 40
0.2997401895
 40
0.3292354891
 40
0.3895989797
 40
0.451824226
 40
0.5158615626
 40
0.5816016174
 40
0.6488830366
 40
0.7174999463
 40
0.7872098588
 40
0.8577414541
 40
1.0
 40
1.0
 40
1.0
 40
1.0
 10
11.4528056702
 20
7.2304704736
 30
0.0
 10
11.4524138884
 20
7.2258267804
 30
0.0
 10
11.4513264759
 20
7.2165406433
 30
0.0
 10
11.4487980047
 20
7.2027067287
 30
0.0
 10
11.4453744082
 20
7.1889721483
 30
0.0
 10
11.4396002844
 20
7.1707453267
 30
0.0
 10
11.4301316431
 20
7.1483134106
 30
0.0
 10
11.4179539444
 20
7.1268922011
 30
0.0
 10
11.4066263374
 20
7.1103205351
 30
0.0
 10
11.397270049
 20
7.0981015048
 30
0.0
 10
11.3871360087
 20
7.0862088743
 30
0.0
 10
11.3725060648
 20
7.0707036161
 30
0.0
 10
11.3523503682
 20
7.0522864907
 30
0.0
 10
11.3256557284
 20
7.0320614436
 30
0.0
 10
11.2965003859
 20
7.0137049544
 30
0.0
 10
11.2651444084
 20
6.9973711607
 30
0.0
 10
11.2318643826
 20
6.98319465
 30
0.0
 10
11.1969554472
 20
6.971292424
 30
0.0
 10
11.1607220091
 20
6.9617609523
 30
0.0
 10
11.110956115
 20
6.952292681
 30
0.0
 10
11.0728096695
 20
6.9489907109
 30
0.0
 10
11.0473183383
 20
6.9484784872
 30
0.0
  0
SPLINE
  5
3A3
100
AcDbEntity
  8
0
100
AcDbSpline
 62
7
  6
CONTINUOUS
 70
0
 71
3
 72
15
 73
11
 74
0
 42
0.0000001
 43
0.0000001
 44
0.0000000001
 40
0.0
 40
0.0
 40
0.0
 40
0.0
 40
0.1194662098
 40
0.2397612131
 40
0.3613044341
 40
0.4844867005
 40
0.6096611243
 40
0.7371346863
 40
0.8671831032
 40
1.0
 40
1.0
 40
1.0
 40
1.0
 10
10.6415975432
 20
7.1061504693
 30
0.0
 10
10.6420058817
 20
7.1006602702
 30
0.0
 10
10.6432992242
 20
7.0896713234
 30
0.0
 10
10.6466443405
 20
7.0733417241
 30
0.0
 10
10.6513865427
 20
7.0571826139
 30
0.0
 10
10.6575083066
 20
7.0412541124
 30
0.0
 10
10.6649872854
 20
7.0256134301
 30
0.0
 10
10.6737964724
 20
7.0103160452
 30
0.0
 10
10.6839037598
 20
6.9954181156
 30
0.0
 10
10.6914024618
 20
6.9858900028
 30
0.0
 10
10.6953467171
 20
6.9812097639
 30
0.0
  0
ELLIPSE
  5
3A4
100
AcDbEntity
  8
0
100
AcDbEllipse
 62
7
  6
CONTINUOUS
 10
11.0473183383
 20
6.7036008815
 30
0.0
 11
0.4522967215
 21
0.1611958191
 31
0.0
 40
0.084133201
 41
4.9269927592
 42
5.4850315861
  0
ENDSEC
  0
SECTION
  2
OBJECTS
  0
DICTIONARY
  5
C
100
AcDbDictionary
280
0
281
1
  3
ACAD_GROUP
350
D
  3
ACAD_MLINESTYLE
350
17
  3
ACAD_LAYOUT
350
1A
  3
ACAD_PLOTSETTINGS
350
19
  3
ACAD_PLOTSTYLENAME
350
E
  0
DICTIONARY
  5
D
102
{ACAD_REACTORS
330
C
102
}
100
AcDbDictionary
280
0
281
1
  0
ACDBDICTIONARYWDFLT
  5
E
102
{ACAD_REACTORS
330
C
102
}
100
AcDbDictionary
281
1
  3
Normal
350
F
100
AcDbDictionaryWithDefault
340
F
  0
DICTIONARY
  5
17
102
{ACAD_REACTORS
330
C
102
}
100
AcDbDictionary
280
0
281
1
  3
Standard
350
18
  0
DICTIONARY
  5
19
102
{ACAD_REACTORS
330
C
102
}
100
AcDbDictionary
281
1
  0
DICTIONARY
  5
1A
102
{ACAD_REACTORS
330
C
102
}
100
AcDbDictionary
281
1
  3
Model
350
3A5
  3
Layout1
350
3A6
  0
ACDBPLACEHOLDER
  5
F
102
{ACAD_REACTORS
330
E
102
}
  0
MLINESTYLE
  5
18
102
{ACAD_REACTORS
330
17
102
}
100
AcDbMlineStyle
  2
STANDARD
 70
0
  3

 62
256
 51
90.0
 52
90.0
 71
2
 49
0.5
 62
256
  6
BYLAYER
 49
-0.5
 62
256
  6
BYLAYER
  0
LAYOUT
  5
3A5
102
{ACAD_REACTORS
330
1A
102
}
100
AcDbPlotSettings
  1

  2
none_device
  4
ANSI_C_(22.00_x_17.00_Inches)
  6

 40
0.0
 41
0.0
 42
0.0
 43
0.0
 44
558.8
 45
431.8
 46
0.0
 47
0.0
 48
0.0
 49
0.0
140
0.0
141
0.0
142
1.0
143
1.0
 70
1024
 72
0
 73
0
 74
0
  7

 75
0
147
1.0
148
0.0
149
0.0
100
AcDbLayout
  1
Model
 70
0
 71
0
 10
0.0
 20
0.0
 11
22.0
 21
17.0
 12
0.0
 22
0.0
 32
0.0
 14
0.0
 24
0.0
 34
0.0
 15
0.0
 25
0.0
 35
0.0
146
0.0
 13
0.0
 23
0.0
 33
0.0
 16
1.0
 26
0.0
 36
0.0
 17
0.0
 27
1.0
 37
0.0
 76
0
330
205
345
0
346
0
  0
LAYOUT
  5
3A6
102
{ACAD_REACTORS
330
1A
102
}
100
AcDbPlotSettings
  1

  2
none_device
  4
ANSI_C_(22.00_x_17.00_Inches)
  6

 40
0.0
 41
0.0
 42
0.0
 43
0.0
 44
558.8
 45
431.8
 46
0.0
 47
0.0
 48
0.0
 49
0.0
140
0.0
141
0.0
142
1.0
143
1.0
 70
0
 72
0
 73
0
 74
0
  7

 75
0
147
1.0
148
0.0
149
0.0
100
AcDbLayout
  1
Layout1
 70
0
 71
1
 10
0.0
 20
0.0
 11
22.0
 21
17.0
 12
0.0
 22
0.0
 32
0.0
 14
0.0
 24
0.0
 34
0.0
 15
0.0
 25
0.0
 35
0.0
146
0.0
 13
0.0
 23
0.0
 33
0.0
 16
1.0
 26
0.0
 36
0.0
 17
0.0
 27
1.0
 37
0.0
 76
0
330
206
345
0
346
0
  0
ENDSEC
  0
EOF
