999
DXF file: E:\BT Custom\CADOUTPUT\_RIGHT.dxf
999
Pro/ENGINEER 2018400 by Parametric Technology Corporation
  0
SECTION
  2
HEADER
  9
$ACADVER
  1
AC1018
  9
$DWGCODEPAGE
  3
ANSI_1252
  9
$EXTMAX
 10
22.0
 20
17.0
 30
0.0
  9
$EXTMIN
 10
0.0
 20
0.0
 30
0.0
  9
$LIMMIN
 10
0.0
 20
0.0
  9
$LIMMAX
 10
22.0
 20
17.0
  9
$VIEWCTR
 10
11.0
 20
8.5
  9
$VIEWSIZE
 40
17.0
  9
$CLAYER
  8
0
  9
$LTSCALE
 40
1.21
  9
$CELTYPE
  6
BYLAYER
  9
$DIMSCALE
 40
1.0
  9
$DIMASZ
 40
0.1
  9
$DIMEXO
 40
0.0625
  9
$DIMDLI
 40
0.836
  9
$DIMEXE
 40
0.125
  9
$DIMCEN
 40
0.198
  9
$DIMLFAC
 40
1.0
  9
$DIMBLK
  1
_FILLED
  9
$DIMALT
 70
1
  9
$DIMALTD
 70
2
  9
$DIMALTTD
 70
2
  9
$DIMALTF
 40
25.4
  9
$DIMTXT
 40
0.08
  9
$DIMTOL
 70
1
  9
$DIMLIM
 70
0
  9
$DIMTFAC
 40
1.0
  9
$DIMTP
 40
0.001
  9
$DIMTM
 40
0.001
  9
$DIMGAP
 40
0.09
  9
$DIMDSEP
 70
46
  9
$AUNITS
 70
0
  9
$PDMODE
 70
3
  9
$PDSIZE
 40
0.06
  9
$HANDSEED
  5
647
  9
$TILEMODE
 70
1
  9
$MEASUREMENT
 70
0
  9
$INSUNITS
 70
1
  0
ENDSEC
  0
SECTION
  2
CLASSES
  0
CLASS
  1
ACDBDICTIONARYWDFLT
  2
AcDbDictionaryWithDefault
  3
AutoCAD 2000
 90
0
 91
1
280
0
281
0
  0
CLASS
  1
ACDBPLACEHOLDER
  2
AcDbPlaceHolder
  3
AutoCAD 2000
 90
0
 91
1
280
0
281
0
  0
CLASS
  1
LAYOUT
  2
AcDbLayout
  3
AutoCAD 2000
 90
0
 91
0
280
0
281
0
  0
ENDSEC
  0
SECTION
  2
TABLES
  0
TABLE
  2
VPORT
  5
8
100
AcDbSymbolTable
 70
2
  0
VPORT
  5
1F4
100
AcDbSymbolTableRecord
100
AcDbViewportTableRecord
  2
*ACTIVE
 70
0
 10
0.0
 20
0.0
 11
1.0
 21
1.0
 12
11.0
 22
8.5
 13
0.0
 23
0.0
 14
1.0
 24
1.0
 15
0.0
 25
0.0
 16
0.0
 26
0.0
 36
1.0
 17
0.0
 27
0.0
 37
0.0
 40
17.0
 41
1.2941176471
 42
50.0
 43
0.0
 44
0.0
 50
0.0
 51
0.0
 71
0
 72
100
 73
1
 74
1
 75
0
 76
0
 77
0
 78
0
  0
ENDTAB
  0
TABLE
  2
LTYPE
  5
5
100
AcDbSymbolTable
 70
6
  0
LTYPE
  5
14
100
AcDbSymbolTableRecord
100
AcDbLinetypeTableRecord
  2
BYBLOCK
 70
0
  3

 72
65
 73
0
 40
0.0
  0
LTYPE
  5
15
100
AcDbSymbolTableRecord
100
AcDbLinetypeTableRecord
  2
BYLAYER
 70
0
  3

 72
65
 73
0
 40
0.0
  0
LTYPE
  5
16
100
AcDbSymbolTableRecord
100
AcDbLinetypeTableRecord
  2
CONTINUOUS
 70
64
  3
Solid line
 72
65
 73
0
 40
0.0
  0
LTYPE
  5
1F5
100
AcDbSymbolTableRecord
100
AcDbLinetypeTableRecord
  2
CENTER
 70
64
  3
____ _ ____ _ ____ _ ____ _ ____ _ ____ _ ____
 72
65
 73
4
 40
0.6
 49
0.375
 74
0
 49
-0.075
 74
0
 49
0.075
 74
0
 49
-0.075
 74
0
  0
LTYPE
  5
1F6
100
AcDbSymbolTableRecord
100
AcDbLinetypeTableRecord
  2
HIDDEN
 70
64
  3
- - - - - - - - - - - - - - - - - - - -
 72
65
 73
2
 40
0.2
 49
0.1
 74
0
 49
-0.1
 74
0
  0
LTYPE
  5
1F7
100
AcDbSymbolTableRecord
100
AcDbLinetypeTableRecord
  2
PHANTOM
 70
64
  3
_____ _ _ _____ _ _ _____ _ _ _____
 72
65
 73
6
 40
0.8
 49
0.45
 74
0
 49
-0.05
 74
0
 49
0.1
 74
0
 49
-0.05
 74
0
 49
0.1
 74
0
 49
-0.05
 74
0
  0
LTYPE
  5
1F8
100
AcDbSymbolTableRecord
100
AcDbLinetypeTableRecord
  2
DOT
 70
64
  3
. . . . . . . . . . . . . . . . . . . .
 72
65
 73
2
 40
0.2
 49
0.1
 74
0
 49
-0.1
 74
0
  0
LTYPE
  5
1F9
100
AcDbSymbolTableRecord
100
AcDbLinetypeTableRecord
  2
DASHED
 70
64
  3
- - - - - - - - - - - - - - - - - - - -
 72
65
 73
2
 40
0.2
 49
0.1
 74
0
 49
-0.1
 74
0
  0
ENDTAB
  0
TABLE
  2
LAYER
  5
2
100
AcDbSymbolTable
 70
36
  0
LAYER
  5
10
100
AcDbSymbolTableRecord
100
AcDbLayerTableRecord
  2
0
 70
0
 62
7
  6
CONTINUOUS
370
-3
390
F
  0
LAYER
  5
1FA
100
AcDbSymbolTableRecord
100
AcDbLayerTableRecord
  2
DEFAULT_1
 70
0
 62
7
  6
CENTER
370
-3
390
F
  0
LAYER
  5
1FB
100
AcDbSymbolTableRecord
100
AcDbLayerTableRecord
  2
DEFAULT_2
 70
0
 62
8
  6
HIDDEN
370
-3
390
F
  0
LAYER
  5
1FC
100
AcDbSymbolTableRecord
100
AcDbLayerTableRecord
  2
DEFAULT_3
 70
0
 62
7
  6
PHANTOM
370
-3
390
F
  0
LAYER
  5
1FD
100
AcDbSymbolTableRecord
100
AcDbLayerTableRecord
  2
ALL_FEATURES
 70
0
 62
7
  6
CONTINUOUS
370
-3
390
F
  0
LAYER
  5
1FE
100
AcDbSymbolTableRecord
100
AcDbLayerTableRecord
  2
AXES_FEATURES
 70
0
 62
7
  6
CONTINUOUS
370
-3
390
F
  0
LAYER
  5
1FF
100
AcDbSymbolTableRecord
100
AcDbLayerTableRecord
  2
DEFAULT_COORDINATE_SYSTEM
 70
0
 62
7
  6
CONTINUOUS
370
-3
390
F
  0
LAYER
  5
200
100
AcDbSymbolTableRecord
100
AcDbLayerTableRecord
  2
DEFAULT_DATUM_AXES
 70
0
 62
7
  6
CONTINUOUS
370
-3
390
F
  0
LAYER
  5
201
100
AcDbSymbolTableRecord
100
AcDbLayerTableRecord
  2
DEFAULT_DATUM_PLANES
 70
0
 62
7
  6
CONTINUOUS
370
-3
390
F
  0
LAYER
  5
202
100
AcDbSymbolTableRecord
100
AcDbLayerTableRecord
  2
DIMENSIONS
 70
0
 62
7
  6
CONTINUOUS
370
-3
390
F
  0
ENDTAB
  0
TABLE
  2
STYLE
  5
3
100
AcDbSymbolTable
 70
1
  0
STYLE
  5
11
100
AcDbSymbolTableRecord
100
AcDbTextStyleTableRecord
  2
STANDARD
 70
0
 40
0.0
 41
0.8
 50
0.0
 71
0
 42
0.2
  3
txt
  4

  0
STYLE
  5
203
100
AcDbSymbolTableRecord
100
AcDbTextStyleTableRecord
  2
TEXTSTYLE_1
 70
0
 40
0.0
 41
0.8
 50
0.0
 71
0
 42
0.2
  3
gdt
  4

  0
ENDTAB
  0
TABLE
  2
VIEW
  5
6
100
AcDbSymbolTable
 70
0
  0
ENDTAB
  0
TABLE
  2
UCS
  5
7
100
AcDbSymbolTable
 70
0
  0
ENDTAB
  0
TABLE
  2
APPID
  5
9
100
AcDbSymbolTable
 70
1
  0
APPID
  5
204
100
AcDbSymbolTableRecord
100
AcDbRegAppTableRecord
  2
ACAD
 70
0
  0
ENDTAB
  0
TABLE
  2
BLOCK_RECORD
  5
1
100
AcDbSymbolTable
 70
0
  0
BLOCK_RECORD
  5
205
100
AcDbSymbolTableRecord
100
AcDbBlockTableRecord
  2
*Model_Space
  0
BLOCK_RECORD
  5
206
100
AcDbSymbolTableRecord
100
AcDbBlockTableRecord
  2
*Paper_Space
  0
BLOCK_RECORD
  5
207
100
AcDbSymbolTableRecord
100
AcDbBlockTableRecord
  2
_FILLED
  0
ENDTAB
  0
TABLE
  2
DIMSTYLE
  5
A
100
AcDbSymbolTable
 70
1
100
AcDbDimStyleTable
 71
0
  0
DIMSTYLE
105
208
100
AcDbSymbolTableRecord
100
AcDbDimStyleTableRecord
  2
STANDARD
 70
0
  3

  4

 40
1.0
 41
0.1
 42
0.0625
 43
0.38
 44
0.125
 45
0.0
 46
0.0
 47
0.001
 48
0.001
140
0.08
141
0.09
142
0.0
143
25.4
144
1.0
145
0.0
146
1.0
147
0.09
 71
1.0
 72
0.0
 73
1
 74
1
 75
0
 76
0
 77
0
 78
4
 79
1
170
1
171
2
172
0
173
0
174
0
175
0
176
0
177
0
178
0
270
2
179
3
271
3
272
3
273
2
274
2
275
0
280
0
281
0
282
0
283
1
284
4
285
0
286
0
287
3
288
0
340
11
278
46
341
207
342
207
343
207
344
207
  0
ENDTAB
  0
ENDSEC
  0
SECTION
  2
BLOCKS
  0
BLOCK
  5
20
100
AcDbEntity
  8
0
100
AcDbBlockBegin
  2
*Model_Space
 70
0
 10
0.0
 20
0.0
 30
0.0
  3
*Model_Space
  1

  0
ENDBLK
  5
21
100
AcDbEntity
  8
0
100
AcDbBlockEnd
  0
BLOCK
  5
1C
100
AcDbEntity
  8
0
100
AcDbBlockBegin
  2
*Paper_Space
 70
0
 10
0.0
 20
0.0
 30
0.0
  3
*Paper_Space
  1

  0
ENDBLK
  5
1D
100
AcDbEntity
  8
0
100
AcDbBlockEnd
  0
BLOCK
  5
209
100
AcDbEntity
  8
0
100
AcDbBlockBegin
  2
_FILLED
 70
64
 10
0.0
 20
0.0
  3
_FILLED
  1

  0
SOLID
  5
20A
100
AcDbEntity
  8
0
  6
BYBLOCK
 62
0
100
AcDbTrace
 10
0.0
 20
0.0
 11
-1.0
 21
0.2
 12
-1.0
 22
-0.2
 13
-1.0
 23
-0.2
  0
ENDBLK
  5
20B
100
AcDbEntity
  8
0
  6
BYBLOCK
 62
0
100
AcDbBlockEnd
  0
ENDSEC
  0
SECTION
  2
ENTITIES
  0
LINE
  5
20C
100
AcDbEntity
  8
0
100
AcDbLine
 62
7
  6
CONTINUOUS
 10
14.7974226038
 20
0.7902240319
 11
14.6579593435
 21
0.7902240319
  0
LINE
  5
20D
100
AcDbEntity
  8
0
100
AcDbLine
 62
7
  6
CONTINUOUS
 10
12.184000381
 20
1.1902240319
 11
11.8151647464
 21
1.1902240319
  0
LINE
  5
20E
100
AcDbEntity
  8
0
100
AcDbLine
 62
9
  6
CONTINUOUS
 10
12.166738295
 20
1.2316266775
 11
11.8324308243
 21
1.2316266775
  0
LINE
  5
20F
100
AcDbEntity
  8
0
100
AcDbLine
 62
7
  6
CONTINUOUS
 10
7.2428325282
 20
14.2889348151
 11
6.6459758319
 21
13.6920781188
  0
LINE
  5
210
100
AcDbEntity
  8
0
100
AcDbLine
 62
7
  6
CONTINUOUS
 10
14.3344226038
 20
2.7902240319
 11
14.4844226038
 21
2.7902240319
  0
LINE
  5
211
100
AcDbEntity
  8
0
100
AcDbLine
 62
7
  6
CONTINUOUS
 10
14.0844226038
 20
2.7902426164
 11
14.0094226038
 21
2.7902426164
  0
LINE
  5
212
100
AcDbEntity
  8
0
100
AcDbLine
 62
7
  6
CONTINUOUS
 10
14.0844226038
 20
2.7907661885
 11
14.0094226038
 21
2.7907661885
  0
LINE
  5
213
100
AcDbEntity
  8
0
100
AcDbLine
 62
7
  6
CONTINUOUS
 10
14.0844226038
 20
2.791241954
 11
14.0094226038
 21
2.791241954
  0
LINE
  5
214
100
AcDbEntity
  8
0
100
AcDbLine
 62
7
  6
CONTINUOUS
 10
14.0844226038
 20
2.7928120327
 11
14.0094226038
 21
2.7928120327
  0
LINE
  5
215
100
AcDbEntity
  8
0
100
AcDbLine
 62
7
  6
CONTINUOUS
 10
14.0844226038
 20
2.7937629839
 11
14.0094226038
 21
2.7937629839
  0
LINE
  5
216
100
AcDbEntity
  8
0
100
AcDbLine
 62
7
  6
CONTINUOUS
 10
14.0844226038
 20
2.7963776561
 11
14.0094226038
 21
2.7963776561
  0
LINE
  5
217
100
AcDbEntity
  8
0
100
AcDbLine
 62
7
  6
CONTINUOUS
 10
14.0844226038
 20
2.7978026345
 11
14.0094226038
 21
2.7978026345
  0
LINE
  5
218
100
AcDbEntity
  8
0
100
AcDbLine
 62
7
  6
CONTINUOUS
 10
14.0844226038
 20
2.8014587148
 11
14.0094226038
 21
2.8014587148
  0
LINE
  5
219
100
AcDbEntity
  8
0
100
AcDbLine
 62
7
  6
CONTINUOUS
 10
14.0844226038
 20
2.8033559843
 11
14.0094226038
 21
2.8033559843
  0
LINE
  5
21A
100
AcDbEntity
  8
0
100
AcDbLine
 62
7
  6
CONTINUOUS
 10
14.0844226038
 20
2.8080490182
 11
14.0094226038
 21
2.8080490182
  0
LINE
  5
21B
100
AcDbEntity
  8
0
100
AcDbLine
 62
7
  6
CONTINUOUS
 10
14.0844226038
 20
2.8104162672
 11
14.0094226038
 21
2.8104162672
  0
LINE
  5
21C
100
AcDbEntity
  8
0
100
AcDbLine
 62
7
  6
CONTINUOUS
 10
14.0844226038
 20
2.8161405371
 11
14.0094226038
 21
2.8161405371
  0
LINE
  5
21D
100
AcDbEntity
  8
0
100
AcDbLine
 62
7
  6
CONTINUOUS
 10
14.0844226038
 20
2.8189748815
 11
14.0094226038
 21
2.8189748815
  0
LINE
  5
21E
100
AcDbEntity
  8
0
100
AcDbLine
 62
7
  6
CONTINUOUS
 10
14.0844226038
 20
2.8257234132
 11
14.0094226038
 21
2.8257234132
  0
LINE
  5
21F
100
AcDbEntity
  8
0
100
AcDbLine
 62
7
  6
CONTINUOUS
 10
14.0844226038
 20
2.8290213998
 11
14.0094226038
 21
2.8290213998
  0
LINE
  5
220
100
AcDbEntity
  8
0
100
AcDbLine
 62
7
  6
CONTINUOUS
 10
14.0844226038
 20
2.8367859711
 11
14.0094226038
 21
2.8367859711
  0
LINE
  5
221
100
AcDbEntity
  8
0
100
AcDbLine
 62
7
  6
CONTINUOUS
 10
14.0844226038
 20
2.8402240319
 11
14.2844226038
 21
2.8402240319
  0
LINE
  5
222
100
AcDbEntity
  8
0
100
AcDbLine
 62
7
  6
CONTINUOUS
 10
14.0844226038
 20
2.8405435819
 11
14.0094226038
 21
2.8405435819
  0
LINE
  5
223
100
AcDbEntity
  8
0
100
AcDbLine
 62
7
  6
CONTINUOUS
 10
14.0844226038
 20
2.849314733
 11
14.0094226038
 21
2.849314733
  0
LINE
  5
224
100
AcDbEntity
  8
0
100
AcDbLine
 62
7
  6
CONTINUOUS
 10
14.0844226038
 20
2.8535273898
 11
14.0094226038
 21
2.8535273898
  0
LINE
  5
225
100
AcDbEntity
  8
0
100
AcDbLine
 62
7
  6
CONTINUOUS
 10
14.0844226038
 20
2.8632944344
 11
14.0094226038
 21
2.8632944344
  0
LINE
  5
226
100
AcDbEntity
  8
0
100
AcDbLine
 62
7
  6
CONTINUOUS
 10
14.0844226038
 20
2.8679570048
 11
14.0094226038
 21
2.8679570048
  0
LINE
  5
227
100
AcDbEntity
  8
0
100
AcDbLine
 62
7
  6
CONTINUOUS
 10
14.0844226038
 20
2.8787080432
 11
14.0094226038
 21
2.8787080432
  0
LINE
  5
228
100
AcDbEntity
  8
0
100
AcDbLine
 62
7
  6
CONTINUOUS
 10
14.0844226038
 20
2.8838148465
 11
14.0094226038
 21
2.8838148465
  0
LINE
  5
229
100
AcDbEntity
  8
0
100
AcDbLine
 62
7
  6
CONTINUOUS
 10
14.0844226038
 20
2.8955367804
 11
14.0094226038
 21
2.8955367804
  0
LINE
  5
22A
100
AcDbEntity
  8
0
100
AcDbLine
 62
7
  6
CONTINUOUS
 10
14.0844226038
 20
2.9010815948
 11
14.0094226038
 21
2.9010815948
  0
LINE
  5
22B
100
AcDbEntity
  8
0
100
AcDbLine
 62
7
  6
CONTINUOUS
 10
14.0844226038
 20
2.9137601426
 11
14.0094226038
 21
2.9137601426
  0
LINE
  5
22C
100
AcDbEntity
  8
0
100
AcDbLine
 62
7
  6
CONTINUOUS
 10
14.0844226038
 20
2.9197362126
 11
14.0094226038
 21
2.9197362126
  0
LINE
  5
22D
100
AcDbEntity
  8
0
100
AcDbLine
 62
7
  6
CONTINUOUS
 10
14.0844226038
 20
2.9333559276
 11
14.0094226038
 21
2.9333559276
  0
LINE
  5
22E
100
AcDbEntity
  8
0
100
AcDbLine
 62
7
  6
CONTINUOUS
 10
14.0844226038
 20
2.9397559722
 11
14.0094226038
 21
2.9397559722
  0
LINE
  5
22F
100
AcDbEntity
  8
0
100
AcDbLine
 62
7
  6
CONTINUOUS
 10
14.0844226038
 20
2.9543002608
 11
14.0094226038
 21
2.9543002608
  0
LINE
  5
230
100
AcDbEntity
  8
0
100
AcDbLine
 62
7
  6
CONTINUOUS
 10
14.0844226038
 20
2.9611164827
 11
14.0094226038
 21
2.9611164827
  0
LINE
  5
231
100
AcDbEntity
  8
0
100
AcDbLine
 62
7
  6
CONTINUOUS
 10
6.7904497756
 20
13.4078337778
 11
6.7657577365
 21
13.3831417388
  0
LINE
  5
232
100
AcDbEntity
  8
0
100
AcDbLine
 62
7
  6
CONTINUOUS
 10
6.8293417933
 20
13.3689417601
 11
6.8046497543
 21
13.344249721
  0
LINE
  5
233
100
AcDbEntity
  8
0
100
AcDbLine
 62
7
  6
CONTINUOUS
 10
6.9433674199
 20
13.2549161335
 11
6.9186753808
 21
13.2302240945
  0
LINE
  5
234
100
AcDbEntity
  8
0
100
AcDbLine
 62
7
  6
CONTINUOUS
 10
6.9152366559
 20
13.1955403401
 11
6.9049196111
 21
13.1852232953
  0
LINE
  5
235
100
AcDbEntity
  8
0
100
AcDbLine
 62
7
  6
CONTINUOUS
 10
6.9814803098
 20
13.1280490867
 11
6.9717870648
 21
13.1183558416
  0
LINE
  5
236
100
AcDbEntity
  8
0
100
AcDbLine
 62
7
  6
CONTINUOUS
 10
7.0511330355
 20
13.1288354121
 11
7.0355985493
 21
13.1133009259
  0
LINE
  5
237
100
AcDbEntity
  8
0
100
AcDbLine
 62
7
  6
CONTINUOUS
 10
12.2539778652
 20
3.6385935402
 11
12.2616499254
 21
3.6399401644
  0
LINE
  5
238
100
AcDbEntity
  8
0
100
AcDbLine
 62
7
  6
CONTINUOUS
 10
12.2616728337
 20
3.6399415268
 11
12.2664226038
 21
3.6402240142
  0
LINE
  5
239
100
AcDbEntity
  8
0
100
AcDbLine
 62
7
  6
CONTINUOUS
 10
14.0844226038
 20
2.9765676249
 11
14.0094226038
 21
2.9765676249
  0
LINE
  5
23A
100
AcDbEntity
  8
0
100
AcDbLine
 62
7
  6
CONTINUOUS
 10
14.0844226038
 20
2.9837917195
 11
14.0094226038
 21
2.9837917195
  0
LINE
  5
23B
100
AcDbEntity
  8
0
100
AcDbLine
 62
7
  6
CONTINUOUS
 10
14.0844226038
 20
3.0001308905
 11
14.0094226038
 21
3.0001308905
  0
LINE
  5
23C
100
AcDbEntity
  8
0
100
AcDbLine
 62
7
  6
CONTINUOUS
 10
14.0844226038
 20
3.0077540563
 11
14.0094226038
 21
3.0077540563
  0
LINE
  5
23D
100
AcDbEntity
  8
0
100
AcDbLine
 62
7
  6
CONTINUOUS
 10
12.9094226038
 20
3.0152240319
 11
13.1094226038
 21
3.0152240319
  0
LINE
  5
23E
100
AcDbEntity
  8
0
100
AcDbLine
 62
7
  6
CONTINUOUS
 10
14.0844226038
 20
3.0249613494
 11
14.0094226038
 21
3.0249613494
  0
LINE
  5
23F
100
AcDbEntity
  8
0
100
AcDbLine
 62
7
  6
CONTINUOUS
 10
14.0844226038
 20
3.0329742987
 11
14.0094226038
 21
3.0329742987
  0
LINE
  5
240
100
AcDbEntity
  8
0
100
AcDbLine
 62
7
  6
CONTINUOUS
 10
14.0844226038
 20
3.0510287494
 11
14.0094226038
 21
3.0510287494
  0
LINE
  5
241
100
AcDbEntity
  8
0
100
AcDbLine
 62
7
  6
CONTINUOUS
 10
14.0844226038
 20
3.0594217198
 11
14.0094226038
 21
3.0594217198
  0
LINE
  5
242
100
AcDbEntity
  8
0
100
AcDbLine
 62
7
  6
CONTINUOUS
 10
14.0844226038
 20
3.0783013316
 11
14.0094226038
 21
3.0783013316
  0
LINE
  5
243
100
AcDbEntity
  8
0
100
AcDbLine
 62
7
  6
CONTINUOUS
 10
14.0844226038
 20
3.0870640975
 11
14.0094226038
 21
3.0870640975
  0
LINE
  5
244
100
AcDbEntity
  8
0
100
AcDbLine
 62
7
  6
CONTINUOUS
 10
12.8594226038
 20
3.0902240319
 11
12.9094226038
 21
3.0902240319
  0
LINE
  5
245
100
AcDbEntity
  8
0
100
AcDbLine
 62
7
  6
CONTINUOUS
 10
13.1094226038
 20
3.0902240319
 11
13.2094226038
 21
3.0902240319
  0
LINE
  5
246
100
AcDbEntity
  8
0
100
AcDbLine
 62
7
  6
CONTINUOUS
 10
14.0844226038
 20
3.1067458683
 11
14.0094226038
 21
3.1067458683
  0
LINE
  5
247
100
AcDbEntity
  8
0
100
AcDbLine
 62
7
  6
CONTINUOUS
 10
14.0844226038
 20
3.1158677536
 11
14.0094226038
 21
3.1158677536
  0
LINE
  5
248
100
AcDbEntity
  8
0
100
AcDbLine
 62
7
  6
CONTINUOUS
 10
14.0844226038
 20
3.1363277044
 11
14.0094226038
 21
3.1363277044
  0
LINE
  5
249
100
AcDbEntity
  8
0
100
AcDbLine
 62
7
  6
CONTINUOUS
 10
14.0844226038
 20
3.1457975956
 11
14.0094226038
 21
3.1457975956
  0
LINE
  5
24A
100
AcDbEntity
  8
0
100
AcDbLine
 62
7
  6
CONTINUOUS
 10
13.2844226038
 20
3.1652240319
 11
13.8094226038
 21
3.1652240319
  0
LINE
  5
24B
100
AcDbEntity
  8
0
100
AcDbLine
 62
7
  6
CONTINUOUS
 10
14.0844226038
 20
3.167010799
 11
14.0094226038
 21
3.167010799
  0
LINE
  5
24C
100
AcDbEntity
  8
0
100
AcDbLine
 62
7
  6
CONTINUOUS
 10
14.0844226038
 20
3.1768171583
 11
14.0094226038
 21
3.1768171583
  0
LINE
  5
24D
100
AcDbEntity
  8
0
100
AcDbLine
 62
7
  6
CONTINUOUS
 10
14.0094226038
 20
3.1980174392
 11
14.0844226038
 21
3.1980174392
  0
LINE
  5
24E
100
AcDbEntity
  8
0
100
AcDbLine
 62
7
  6
CONTINUOUS
 10
14.0844226038
 20
3.1987577694
 11
14.0094226038
 21
3.1987577694
  0
LINE
  5
24F
100
AcDbEntity
  8
0
100
AcDbLine
 62
7
  6
CONTINUOUS
 10
14.0844226038
 20
3.2088886494
 11
14.0094226038
 21
3.2088886494
  0
LINE
  5
250
100
AcDbEntity
  8
0
100
AcDbLine
 62
7
  6
CONTINUOUS
 10
14.0094226038
 20
3.2300501785
 11
14.0844226038
 21
3.2300501785
  0
LINE
  5
251
100
AcDbEntity
  8
0
100
AcDbLine
 62
7
  6
CONTINUOUS
 10
14.0844226038
 20
3.2315299368
 11
14.0094226038
 21
3.2315299368
  0
LINE
  5
252
100
AcDbEntity
  8
0
100
AcDbLine
 62
7
  6
CONTINUOUS
 10
14.0844226038
 20
3.2419729945
 11
14.0094226038
 21
3.2419729945
  0
LINE
  5
253
100
AcDbEntity
  8
0
100
AcDbLine
 62
7
  6
CONTINUOUS
 10
14.0094226038
 20
3.2630699898
 11
14.0844226038
 21
3.2630699898
  0
LINE
  5
254
100
AcDbEntity
  8
0
100
AcDbLine
 62
7
  6
CONTINUOUS
 10
14.0844226038
 20
3.2652873733
 11
14.0094226038
 21
3.2652873733
  0
LINE
  5
255
100
AcDbEntity
  8
0
100
AcDbLine
 62
7
  6
CONTINUOUS
 10
14.0844226038
 20
3.2760298856
 11
14.0094226038
 21
3.2760298856
  0
LINE
  5
256
100
AcDbEntity
  8
0
100
AcDbLine
 62
7
  6
CONTINUOUS
 10
12.7094226038
 20
3.2902240319
 11
12.7594226038
 21
3.2902240319
  0
LINE
  5
257
100
AcDbEntity
  8
0
100
AcDbLine
 62
7
  6
CONTINUOUS
 10
14.0094226038
 20
3.2970366436
 11
14.0844226038
 21
3.2970366436
  0
LINE
  5
258
100
AcDbEntity
  8
0
100
AcDbLine
 62
7
  6
CONTINUOUS
 10
14.0844226038
 20
3.2999889509
 11
14.0094226038
 21
3.2999889509
  0
LINE
  5
259
100
AcDbEntity
  8
0
100
AcDbLine
 62
7
  6
CONTINUOUS
 10
14.0844226038
 20
3.3110178295
 11
14.0094226038
 21
3.3110178295
  0
LINE
  5
25A
100
AcDbEntity
  8
0
100
AcDbLine
 62
7
  6
CONTINUOUS
 10
14.0094226038
 20
3.3319087567
 11
14.0844226038
 21
3.3319087567
  0
LINE
  5
25B
100
AcDbEntity
  8
0
100
AcDbLine
 62
7
  6
CONTINUOUS
 10
14.0844226038
 20
3.3355923908
 11
14.0094226038
 21
3.3355923908
  0
LINE
  5
25C
100
AcDbEntity
  8
0
100
AcDbLine
 62
7
  6
CONTINUOUS
 10
14.0844226038
 20
3.3468941989
 11
14.0094226038
 21
3.3468941989
  0
LINE
  5
25D
100
AcDbEntity
  8
0
100
AcDbLine
 62
7
  6
CONTINUOUS
 10
14.0094226038
 20
3.3676438429
 11
14.0844226038
 21
3.3676438429
  0
LINE
  5
25E
100
AcDbEntity
  8
0
100
AcDbLine
 62
7
  6
CONTINUOUS
 10
14.0844226038
 20
3.3720543159
 11
14.0094226038
 21
3.3720543159
  0
LINE
  5
25F
100
AcDbEntity
  8
0
100
AcDbLine
 62
7
  6
CONTINUOUS
 10
14.0844226038
 20
3.3836152838
 11
14.0094226038
 21
3.3836152838
  0
LINE
  5
260
100
AcDbEntity
  8
0
100
AcDbLine
 62
7
  6
CONTINUOUS
 10
14.0094226038
 20
3.4041983644
 11
14.0844226038
 21
3.4041983644
  0
LINE
  5
261
100
AcDbEntity
  8
0
100
AcDbLine
 62
7
  6
CONTINUOUS
 10
14.0844226038
 20
3.4093303028
 11
14.0094226038
 21
3.4093303028
  0
LINE
  5
262
100
AcDbEntity
  8
0
100
AcDbLine
 62
7
  6
CONTINUOUS
 10
14.0844226038
 20
3.4211363454
 11
14.0094226038
 21
3.4211363454
  0
LINE
  5
263
100
AcDbEntity
  8
0
100
AcDbLine
 62
7
  6
CONTINUOUS
 10
14.0094226038
 20
3.4415277853
 11
14.0844226038
 21
3.4415277853
  0
LINE
  5
264
100
AcDbEntity
  8
0
100
AcDbLine
 62
7
  6
CONTINUOUS
 10
14.0844226038
 20
3.4473749366
 11
14.0094226038
 21
3.4473749366
  0
LINE
  5
265
100
AcDbEntity
  8
0
100
AcDbLine
 62
7
  6
CONTINUOUS
 10
14.0844226038
 20
3.4594116699
 11
14.0094226038
 21
3.4594116699
  0
LINE
  5
266
100
AcDbEntity
  8
0
100
AcDbLine
 62
7
  6
CONTINUOUS
 10
14.0094226038
 20
3.4795866253
 11
14.0844226038
 21
3.4795866253
  0
LINE
  5
267
100
AcDbEntity
  8
0
100
AcDbLine
 62
7
  6
CONTINUOUS
 10
14.0844226038
 20
3.4861418657
 11
14.0094226038
 21
3.4861418657
  0
LINE
  5
268
100
AcDbEntity
  8
0
100
AcDbLine
 62
7
  6
CONTINUOUS
 10
14.0844226038
 20
3.4983946249
 11
14.0094226038
 21
3.4983946249
  0
LINE
  5
269
100
AcDbEntity
  8
0
100
AcDbLine
 62
7
  6
CONTINUOUS
 10
14.0094226038
 20
3.5183285156
 11
14.0844226038
 21
3.5183285156
  0
LINE
  5
26A
100
AcDbEntity
  8
0
100
AcDbLine
 62
7
  6
CONTINUOUS
 10
14.0844226038
 20
3.5255838585
 11
14.0094226038
 21
3.5255838585
  0
LINE
  5
26B
100
AcDbEntity
  8
0
100
AcDbLine
 62
7
  6
CONTINUOUS
 10
14.0844226038
 20
3.5380377155
 11
14.0094226038
 21
3.5380377155
  0
LINE
  5
26C
100
AcDbEntity
  8
0
100
AcDbLine
 62
7
  6
CONTINUOUS
 10
14.0094226038
 20
3.5577062552
 11
14.0844226038
 21
3.5577062552
  0
LINE
  5
26D
100
AcDbEntity
  8
0
100
AcDbLine
 62
7
  6
CONTINUOUS
 10
14.0844226038
 20
3.5656528611
 11
14.0094226038
 21
3.5656528611
  0
LINE
  5
26E
100
AcDbEntity
  8
0
100
AcDbLine
 62
7
  6
CONTINUOUS
 10
14.0844226038
 20
3.5782926428
 11
14.0094226038
 21
3.5782926428
  0
LINE
  5
26F
100
AcDbEntity
  8
0
100
AcDbLine
 62
7
  6
CONTINUOUS
 10
7.1979237935
 20
12.7610566359
 11
7.1974064799
 21
12.7605054698
  0
LINE
  5
270
100
AcDbEntity
  8
0
100
AcDbLine
 62
7
  6
CONTINUOUS
 10
7.1247559972
 20
13.0735275562
 11
7.1000639581
 21
13.0488355172
  0
LINE
  5
271
100
AcDbEntity
  8
0
100
AcDbLine
 62
7
  6
CONTINUOUS
 10
7.0864875027
 20
13.0326165621
 11
7.0720069235
 21
13.0181359829
  0
LINE
  5
272
100
AcDbEntity
  8
0
100
AcDbLine
 62
7
  6
CONTINUOUS
 10
7.1106583107
 20
12.9988710858
 11
7.1009650657
 21
12.9891778407
  0
LINE
  5
273
100
AcDbEntity
  8
0
100
AcDbLine
 62
7
  6
CONTINUOUS
 10
7.08087269
 20
12.9410399817
 11
7.0760815031
 21
12.9362487948
  0
LINE
  5
274
100
AcDbEntity
  8
0
100
AcDbLine
 62
7
  6
CONTINUOUS
 10
7.2346780325
 20
12.9496032545
 11
7.2169871266
 21
12.9319123486
  0
LINE
  5
275
100
AcDbEntity
  8
0
100
AcDbLine
 62
7
  6
CONTINUOUS
 10
7.2169736246
 20
12.9047466822
 11
7.2011849244
 21
12.888957982
  0
LINE
  5
276
100
AcDbEntity
  8
0
100
AcDbLine
 62
7
  6
CONTINUOUS
 10
7.1799438803
 20
12.7783772244
 11
7.1612153506
 21
12.7596486947
  0
LINE
  5
277
100
AcDbEntity
  8
0
100
AcDbLine
 62
7
  6
CONTINUOUS
 10
7.1974058508
 20
12.7605052327
 11
7.1788823317
 21
12.7419817136
  0
LINE
  5
278
100
AcDbEntity
  8
0
100
AcDbLine
 62
7
  6
CONTINUOUS
 10
7.3135127865
 20
12.8363549999
 11
7.2836503465
 21
12.8064925599
  0
LINE
  5
279
100
AcDbEntity
  8
0
100
AcDbLine
 62
7
  6
CONTINUOUS
 10
7.3611461935
 20
12.83713736
 11
7.3364541544
 21
12.8124453209
  0
LINE
  5
27A
100
AcDbEntity
  8
0
100
AcDbLine
 62
7
  6
CONTINUOUS
 10
7.2514243263
 20
12.7052139636
 11
7.233537204
 21
12.6873268413
  0
LINE
  5
27B
100
AcDbEntity
  8
0
100
AcDbLine
 62
7
  6
CONTINUOUS
 10
7.3935634503
 20
12.7159659462
 11
7.3838702053
 21
12.7062727011
  0
LINE
  5
27C
100
AcDbEntity
  8
0
100
AcDbLine
 62
7
  6
CONTINUOUS
 10
7.3384612425
 20
12.5918111623
 11
7.3337570628
 21
12.5871069826
  0
LINE
  5
27D
100
AcDbEntity
  8
0
100
AcDbLine
 62
7
  6
CONTINUOUS
 10
7.4738799504
 20
12.7160247798
 11
7.4533773229
 21
12.6955221523
  0
LINE
  5
27E
100
AcDbEntity
  8
0
100
AcDbLine
 62
7
  6
CONTINUOUS
 10
7.3484960034
 20
12.5797703371
 11
7.3447948558
 21
12.5760691896
  0
LWPOLYLINE
  5
27F
100
AcDbEntity
  8
0
100
AcDbPolyline
 62
7
  6
CONTINUOUS
 90
5
 70
0
 10
7.338458801
 20
12.591811864
 10
7.3395429413
 20
12.5927682777
 10
7.3416004207
 20
12.5940430071
 10
7.3437591889
 20
12.5948295664
 10
7.3458132353
 20
12.5951561376
  0
LINE
  5
280
100
AcDbEntity
  8
0
100
AcDbLine
 62
7
  6
CONTINUOUS
 10
14.0094226038
 20
3.5976718685
 11
14.0844226038
 21
3.5976718685
  0
LINE
  5
281
100
AcDbEntity
  8
0
100
AcDbLine
 62
7
  6
CONTINUOUS
 10
14.0844226038
 20
3.6063000556
 11
14.0094226038
 21
3.6063000556
  0
LINE
  5
282
100
AcDbEntity
  8
0
100
AcDbLine
 62
7
  6
CONTINUOUS
 10
14.0844226038
 20
3.6191103623
 11
14.0094226038
 21
3.6191103623
  0
LINE
  5
283
100
AcDbEntity
  8
0
100
AcDbLine
 62
7
  6
CONTINUOUS
 10
14.0094226038
 20
3.6381766633
 11
14.0844226038
 21
3.6381766633
  0
LINE
  5
284
100
AcDbEntity
  8
0
100
AcDbLine
 62
7
  6
CONTINUOUS
 10
11.7936321188
 20
3.6402240319
 11
11.7914226038
 21
3.6402240319
  0
LINE
  5
285
100
AcDbEntity
  8
0
100
AcDbLine
 62
7
  6
CONTINUOUS
 10
12.6094226038
 20
3.6402240319
 11
12.7094226038
 21
3.6402240319
  0
LINE
  5
286
100
AcDbEntity
  8
0
100
AcDbLine
 62
7
  6
CONTINUOUS
 10
14.0844226038
 20
3.6474759196
 11
14.0094226038
 21
3.6474759196
  0
LINE
  5
287
100
AcDbEntity
  8
0
100
AcDbLine
 62
7
  6
CONTINUOUS
 10
14.0844226038
 20
3.660441144
 11
14.0094226038
 21
3.660441144
  0
LINE
  5
288
100
AcDbEntity
  8
0
100
AcDbLine
 62
9
  6
CONTINUOUS
 10
11.887051194
 20
3.6705526707
 11
12.1750907527
 21
3.6705526707
  0
LINE
  5
289
100
AcDbEntity
  8
0
100
AcDbLine
 62
7
  6
CONTINUOUS
 10
14.0094226038
 20
3.6791712909
 11
14.0844226038
 21
3.6791712909
  0
LINE
  5
28A
100
AcDbEntity
  8
0
100
AcDbLine
 62
7
  6
CONTINUOUS
 10
14.0844226038
 20
3.6891302867
 11
14.0094226038
 21
3.6891302867
  0
LINE
  5
28B
100
AcDbEntity
  8
0
100
AcDbLine
 62
7
  6
CONTINUOUS
 10
14.0844226038
 20
3.7022346326
 11
14.0094226038
 21
3.7022346326
  0
LINE
  5
28C
100
AcDbEntity
  8
0
100
AcDbLine
 62
9
  6
CONTINUOUS
 10
11.8125923068
 20
3.7169337255
 11
12.2506279489
 21
3.7169337255
  0
LINE
  5
28D
100
AcDbEntity
  8
0
100
AcDbLine
 62
7
  6
CONTINUOUS
 10
14.0094226038
 20
3.7206058057
 11
14.0844226038
 21
3.7206058057
  0
LINE
  5
28E
100
AcDbEntity
  8
0
100
AcDbLine
 62
7
  6
CONTINUOUS
 10
12.5794226038
 20
3.7277240319
 11
12.2864226038
 21
3.7277240319
  0
LINE
  5
28F
100
AcDbEntity
  8
0
100
AcDbLine
 62
7
  6
CONTINUOUS
 10
14.0844226038
 20
3.7312124074
 11
14.0094226038
 21
3.7312124074
  0
LINE
  5
290
100
AcDbEntity
  8
0
100
AcDbLine
 62
7
  6
CONTINUOUS
 10
14.0844226038
 20
3.7444399093
 11
14.0094226038
 21
3.7444399093
  0
LINE
  5
291
100
AcDbEntity
  8
0
100
AcDbLine
 62
7
  6
CONTINUOUS
 10
14.0094226038
 20
3.7624297261
 11
14.0844226038
 21
3.7624297261
  0
LINE
  5
292
100
AcDbEntity
  8
0
100
AcDbLine
 62
7
  6
CONTINUOUS
 10
14.0844226038
 20
3.7736710112
 11
14.0094226038
 21
3.7736710112
  0
LINE
  5
293
100
AcDbEntity
  8
0
100
AcDbLine
 62
7
  6
CONTINUOUS
 10
11.6964226038
 20
3.7777240319
 11
11.6664226038
 21
3.7777240319
  0
LINE
  5
294
100
AcDbEntity
  8
0
100
AcDbLine
 62
7
  6
CONTINUOUS
 10
14.0844226038
 20
3.7870055533
 11
14.0094226038
 21
3.7870055533
  0
LINE
  5
295
100
AcDbEntity
  8
0
100
AcDbLine
 62
7
  6
CONTINUOUS
 10
14.0094226038
 20
3.804592096
 11
14.0844226038
 21
3.804592096
  0
LINE
  5
296
100
AcDbEntity
  8
0
100
AcDbLine
 62
7
  6
CONTINUOUS
 10
14.0844226038
 20
3.8164543688
 11
14.0094226038
 21
3.8164543688
  0
LINE
  5
297
100
AcDbEntity
  8
0
100
AcDbLine
 62
7
  6
CONTINUOUS
 10
14.0844226038
 20
3.8298797051
 11
14.0094226038
 21
3.8298797051
  0
LINE
  5
298
100
AcDbEntity
  8
0
100
AcDbLine
 62
7
  6
CONTINUOUS
 10
12.6094226038
 20
3.8402240319
 11
12.5794226038
 21
3.8402240319
  0
LINE
  5
299
100
AcDbEntity
  8
0
100
AcDbLine
 62
7
  6
CONTINUOUS
 10
14.0094226038
 20
3.8470415471
 11
14.0844226038
 21
3.8470415471
  0
LINE
  5
29A
100
AcDbEntity
  8
0
100
AcDbLine
 62
7
  6
CONTINUOUS
 10
14.0844226038
 20
3.8595103553
 11
14.0094226038
 21
3.8595103553
  0
LINE
  5
29B
100
AcDbEntity
  8
0
100
AcDbLine
 62
7
  6
CONTINUOUS
 10
14.0844226038
 20
3.873010129
 11
14.0094226038
 21
3.873010129
  0
LINE
  5
29C
100
AcDbEntity
  8
0
100
AcDbLine
 62
7
  6
CONTINUOUS
 10
14.0094226038
 20
3.8897263614
 11
14.0844226038
 21
3.8897263614
  0
LINE
  5
29D
100
AcDbEntity
  8
0
100
AcDbLine
 62
7
  6
CONTINUOUS
 10
14.0844226038
 20
3.9027865135
 11
14.0094226038
 21
3.9027865135
  0
LINE
  5
29E
100
AcDbEntity
  8
0
100
AcDbLine
 62
7
  6
CONTINUOUS
 10
14.0844226038
 20
3.9163442773
 11
14.0094226038
 21
3.9163442773
  0
LINE
  5
29F
100
AcDbEntity
  8
0
100
AcDbLine
 62
7
  6
CONTINUOUS
 10
14.0094226038
 20
3.9325945339
 11
14.0844226038
 21
3.9325945339
  0
LINE
  5
2A0
100
AcDbEntity
  8
0
100
AcDbLine
 62
7
  6
CONTINUOUS
 10
14.0844226038
 20
3.9462301182
 11
14.0094226038
 21
3.9462301182
  0
LINE
  5
2A1
100
AcDbEntity
  8
0
100
AcDbLine
 62
7
  6
CONTINUOUS
 10
14.0844226038
 20
3.9598293539
 11
14.0094226038
 21
3.9598293539
  0
LINE
  5
2A2
100
AcDbEntity
  8
0
100
AcDbLine
 62
7
  6
CONTINUOUS
 10
14.0094226038
 20
3.9755938363
 11
14.0844226038
 21
3.9755938363
  0
LINE
  5
2A3
100
AcDbEntity
  8
0
100
AcDbLine
 62
7
  6
CONTINUOUS
 10
14.0844226038
 20
3.98978824
 11
14.0094226038
 21
3.98978824
  0
LINE
  5
2A4
100
AcDbEntity
  8
0
100
AcDbLine
 62
7
  6
CONTINUOUS
 10
14.0844226038
 20
4.0034123792
 11
14.0094226038
 21
4.0034123792
  0
LINE
  5
2A5
100
AcDbEntity
  8
0
100
AcDbLine
 62
7
  6
CONTINUOUS
 10
14.0094226038
 20
4.0186718807
 11
14.0844226038
 21
4.0186718807
  0
LINE
  5
2A6
100
AcDbEntity
  8
0
100
AcDbLine
 62
7
  6
CONTINUOUS
 10
14.0844226038
 20
4.03340781
 11
14.0094226038
 21
4.03340781
  0
LINE
  5
2A7
100
AcDbEntity
  8
0
100
AcDbLine
 62
7
  6
CONTINUOUS
 10
14.0844226038
 20
4.0470402537
 11
14.0094226038
 21
4.0470402537
  0
LINE
  5
2A8
100
AcDbEntity
  8
0
100
AcDbLine
 62
7
  6
CONTINUOUS
 10
14.0094226038
 20
4.061776183
 11
14.0844226038
 21
4.061776183
  0
LINE
  5
2A9
100
AcDbEntity
  8
0
100
AcDbLine
 62
7
  6
CONTINUOUS
 10
14.0844226038
 20
4.0770356846
 11
14.0094226038
 21
4.0770356846
  0
LINE
  5
2AA
100
AcDbEntity
  8
0
100
AcDbLine
 62
7
  6
CONTINUOUS
 10
14.0844226038
 20
4.0906598237
 11
14.0094226038
 21
4.0906598237
  0
LINE
  5
2AB
100
AcDbEntity
  8
0
100
AcDbLine
 62
7
  6
CONTINUOUS
 10
14.0094226038
 20
4.1048542274
 11
14.0844226038
 21
4.1048542274
  0
LINE
  5
2AC
100
AcDbEntity
  8
0
100
AcDbLine
 62
7
  6
CONTINUOUS
 10
14.0844226038
 20
4.1206187098
 11
14.0094226038
 21
4.1206187098
  0
LINE
  5
2AD
100
AcDbEntity
  8
0
100
AcDbLine
 62
7
  6
CONTINUOUS
 10
14.0844226038
 20
4.1342179455
 11
14.0094226038
 21
4.1342179455
  0
LINE
  5
2AE
100
AcDbEntity
  8
0
100
AcDbLine
 62
7
  6
CONTINUOUS
 10
14.0094226038
 20
4.1478535299
 11
14.0844226038
 21
4.1478535299
  0
LINE
  5
2AF
100
AcDbEntity
  8
0
100
AcDbLine
 62
7
  6
CONTINUOUS
 10
14.0844226038
 20
4.1641037865
 11
14.0094226038
 21
4.1641037865
  0
LINE
  5
2B0
100
AcDbEntity
  8
0
100
AcDbLine
 62
7
  6
CONTINUOUS
 10
14.0844226038
 20
4.1776615502
 11
14.0094226038
 21
4.1776615502
  0
LINE
  5
2B1
100
AcDbEntity
  8
0
100
AcDbLine
 62
7
  6
CONTINUOUS
 10
14.0094226038
 20
4.1907217023
 11
14.0844226038
 21
4.1907217023
  0
LINE
  5
2B2
100
AcDbEntity
  8
0
100
AcDbLine
 62
7
  6
CONTINUOUS
 10
7.3499079636
 20
12.5438918226
 11
7.3148438385
 21
12.4686965635
  0
LINE
  5
2B3
100
AcDbEntity
  8
0
100
AcDbLine
 62
7
  6
CONTINUOUS
 10
7.5349836731
 20
12.6103401649
 11
7.5073932073
 21
12.5827496991
  0
LINE
  5
2B4
100
AcDbEntity
  8
0
100
AcDbLine
 62
7
  6
CONTINUOUS
 10
9.4044579583
 20
14.4353059188
 11
8.739777584
 21
13.7706255445
  0
LINE
  5
2B5
100
AcDbEntity
  8
0
100
AcDbLine
 62
7
  6
CONTINUOUS
 10
9.4149468117
 20
14.4248170654
 11
9.1674594383
 21
14.177329692
  0
LINE
  5
2B6
100
AcDbEntity
  8
0
100
AcDbLine
 62
7
  6
CONTINUOUS
 10
7.6364284075
 20
12.5618551459
 11
7.6117363684
 21
12.5371631068
  0
LINE
  5
2B7
100
AcDbEntity
  8
0
100
AcDbLine
 62
7
  6
CONTINUOUS
 10
7.6173063111
 20
12.4922230854
 11
7.6076130661
 21
12.4825298404
  0
LINE
  5
2B8
100
AcDbEntity
  8
0
100
AcDbLine
 62
7
  6
CONTINUOUS
 10
10.0072664892
 20
14.8648732884
 11
9.7794877019
 21
14.6370945011
  0
LINE
  5
2B9
100
AcDbEntity
  8
0
100
AcDbLine
 62
7
  6
CONTINUOUS
 10
9.9284005587
 20
14.7669625236
 11
9.789010119
 21
14.6275720839
  0
LINE
  5
2BA
100
AcDbEntity
  8
0
100
AcDbLine
 62
7
  6
CONTINUOUS
 10
11.0227236069
 20
15.8149230288
 11
10.2454207387
 21
15.0376201605
  0
LINE
  5
2BB
100
AcDbEntity
  8
0
100
AcDbLine
 62
7
  6
CONTINUOUS
 10
10.2145890009
 20
15.0067884228
 11
10.2081343686
 21
15.0003337905
  0
LINE
  5
2BC
100
AcDbEntity
  8
0
100
AcDbLine
 62
7
  6
CONTINUOUS
 10
10.1761301159
 20
14.9683295378
 11
10.158356818
 21
14.9505562398
  0
LINE
  5
2BD
100
AcDbEntity
  8
0
100
AcDbLine
 62
7
  6
CONTINUOUS
 10
10.1248903688
 20
14.9170897907
 11
10.108709327
 21
14.9009087489
  0
LINE
  5
2BE
100
AcDbEntity
  8
0
100
AcDbLine
 62
7
  6
CONTINUOUS
 10
10.0735205731
 20
14.8657199949
 11
10.0589006671
 21
14.851100089
  0
LINE
  5
2BF
100
AcDbEntity
  8
0
100
AcDbLine
 62
7
  6
CONTINUOUS
 10
9.533532224
 20
14.3062316531
 11
9.2860448505
 21
14.0587442797
  0
LINE
  5
2C0
100
AcDbEntity
  8
0
100
AcDbLine
 62
7
  6
CONTINUOUS
 10
10.2394545027
 20
15.0001257316
 11
10.2520834298
 21
15.0127546587
  0
LINE
  5
2C1
100
AcDbEntity
  8
0
100
AcDbLine
 62
7
  6
CONTINUOUS
 10
10.2152325529
 20
14.9738730984
 11
10.2028102918
 21
14.9614508373
  0
LINE
  5
2C2
100
AcDbEntity
  8
0
100
AcDbLine
 62
7
  6
CONTINUOUS
 10
10.1659894907
 20
14.9220974
 11
10.1535681935
 21
14.9096761028
  0
LINE
  5
2C3
100
AcDbEntity
  8
0
100
AcDbLine
 62
7
  6
CONTINUOUS
 10
10.1169713055
 20
14.8700960468
 11
10.1045512622
 21
14.8576760035
  0
LINE
  5
2C4
100
AcDbEntity
  8
0
100
AcDbLine
 62
7
  6
CONTINUOUS
 10
10.0676769244
 20
14.8183770157
 11
10.0607198431
 21
14.8114199345
  0
LINE
  5
2C5
100
AcDbEntity
  8
0
100
AcDbLine
 62
7
  6
CONTINUOUS
 10
7.6119663421
 20
12.3361976077
 11
7.5983163899
 21
12.3225476555
  0
LINE
  5
2C6
100
AcDbEntity
  8
0
100
AcDbLine
 62
7
  6
CONTINUOUS
 10
7.752438513
 20
12.4440189143
 11
7.728659537
 21
12.4202399383
  0
LINE
  5
2C7
100
AcDbEntity
  8
0
100
AcDbLine
 62
7
  6
CONTINUOUS
 10
10.0165233424
 20
14.67883974
 11
9.8771329027
 21
14.5394493003
  0
LINE
  5
2C8
100
AcDbEntity
  8
0
100
AcDbLine
 62
7
  6
CONTINUOUS
 10
7.7820035831
 20
12.3582546058
 11
7.7569459418
 21
12.3331969646
  0
LINE
  5
2C9
100
AcDbEntity
  8
0
100
AcDbLine
 62
7
  6
CONTINUOUS
 10
7.7074703114
 20
12.2312618595
 11
7.6985362486
 21
12.2223277967
  0
LINE
  5
2CA
100
AcDbEntity
  8
0
100
AcDbLine
 62
7
  6
CONTINUOUS
 10
7.7631223469
 20
12.1814910724
 11
7.7512476599
 21
12.1696163854
  0
LINE
  5
2CB
100
AcDbEntity
  8
0
100
AcDbLine
 62
7
  6
CONTINUOUS
 10
7.8796026371
 20
12.2554139424
 11
7.8571658006
 21
12.2329771058
  0
LINE
  5
2CC
100
AcDbEntity
  8
0
100
AcDbLine
 62
7
  6
CONTINUOUS
 10
7.9318426114
 20
12.2664409421
 11
7.9071505723
 21
12.241748903
  0
LWPOLYLINE
  5
2CD
100
AcDbEntity
  8
0
100
AcDbPolyline
 62
7
  6
CONTINUOUS
 90
8
 70
0
 10
7.7074705255
 20
12.2312641999
 10
7.7089846306
 20
12.2325202833
 10
7.711151776
 20
12.2336570037
 10
7.7132043265
 20
12.234203959
 10
7.7148475213
 20
12.2343134612
 10
7.7159550067
 20
12.2342104207
 10
7.7165597109
 20
12.2340764351
 10
7.7167058274
 20
12.234030377
  0
LINE
  5
2CE
100
AcDbEntity
  8
0
100
AcDbLine
 62
7
  6
CONTINUOUS
 10
14.0844226038
 20
4.2074379348
 11
14.0094226038
 21
4.2074379348
  0
LINE
  5
2CF
100
AcDbEntity
  8
0
100
AcDbLine
 62
7
  6
CONTINUOUS
 10
14.0844226038
 20
4.2209377084
 11
14.0094226038
 21
4.2209377084
  0
LINE
  5
2D0
100
AcDbEntity
  8
0
100
AcDbLine
 62
7
  6
CONTINUOUS
 10
14.0094226038
 20
4.2334065166
 11
14.0844226038
 21
4.2334065166
  0
LINE
  5
2D1
100
AcDbEntity
  8
0
100
AcDbLine
 62
7
  6
CONTINUOUS
 10
12.6094226038
 20
4.2402240319
 11
12.5794226038
 21
4.2402240319
  0
LINE
  5
2D2
100
AcDbEntity
  8
0
100
AcDbLine
 62
7
  6
CONTINUOUS
 10
14.0844226038
 20
4.2505683587
 11
14.0094226038
 21
4.2505683587
  0
LINE
  5
2D3
100
AcDbEntity
  8
0
100
AcDbLine
 62
7
  6
CONTINUOUS
 10
14.0844226038
 20
4.2639936949
 11
14.0094226038
 21
4.2639936949
  0
LINE
  5
2D4
100
AcDbEntity
  8
0
100
AcDbLine
 62
7
  6
CONTINUOUS
 10
14.0094226038
 20
4.2758559677
 11
14.0844226038
 21
4.2758559677
  0
LINE
  5
2D5
100
AcDbEntity
  8
0
100
AcDbLine
 62
7
  6
CONTINUOUS
 10
14.0844226038
 20
4.2934425104
 11
14.0094226038
 21
4.2934425104
  0
LINE
  5
2D6
100
AcDbEntity
  8
0
100
AcDbLine
 62
7
  6
CONTINUOUS
 10
11.6964226038
 20
4.3027240319
 11
11.6664226038
 21
4.3027240319
  0
LINE
  5
2D7
100
AcDbEntity
  8
0
100
AcDbLine
 62
7
  6
CONTINUOUS
 10
14.0844226038
 20
4.3067770525
 11
14.0094226038
 21
4.3067770525
  0
LINE
  5
2D8
100
AcDbEntity
  8
0
100
AcDbLine
 62
7
  6
CONTINUOUS
 10
14.0094226038
 20
4.3180183377
 11
14.0844226038
 21
4.3180183377
  0
LINE
  5
2D9
100
AcDbEntity
  8
0
100
AcDbLine
 62
7
  6
CONTINUOUS
 10
14.0844226038
 20
4.3360081544
 11
14.0094226038
 21
4.3360081544
  0
LINE
  5
2DA
100
AcDbEntity
  8
0
100
AcDbLine
 62
7
  6
CONTINUOUS
 10
14.0844226038
 20
4.3492356563
 11
14.0094226038
 21
4.3492356563
  0
LINE
  5
2DB
100
AcDbEntity
  8
0
100
AcDbLine
 62
7
  6
CONTINUOUS
 10
12.5794226038
 20
4.3527240319
 11
12.2864226038
 21
4.3527240319
  0
LINE
  5
2DC
100
AcDbEntity
  8
0
100
AcDbLine
 62
7
  6
CONTINUOUS
 10
14.0094226038
 20
4.359842258
 11
14.0844226038
 21
4.359842258
  0
LINE
  5
2DD
100
AcDbEntity
  8
0
100
AcDbLine
 62
7
  6
CONTINUOUS
 10
14.0844226038
 20
4.3782134311
 11
14.0094226038
 21
4.3782134311
  0
LINE
  5
2DE
100
AcDbEntity
  8
0
100
AcDbLine
 62
7
  6
CONTINUOUS
 10
14.0844226038
 20
4.391317777
 11
14.0094226038
 21
4.391317777
  0
LINE
  5
2DF
100
AcDbEntity
  8
0
100
AcDbLine
 62
7
  6
CONTINUOUS
 10
14.0094226038
 20
4.4012767728
 11
14.0844226038
 21
4.4012767728
  0
LINE
  5
2E0
100
AcDbEntity
  8
0
100
AcDbLine
 62
7
  6
CONTINUOUS
 10
14.0844226038
 20
4.4200069197
 11
14.0094226038
 21
4.4200069197
  0
LINE
  5
2E1
100
AcDbEntity
  8
0
100
AcDbLine
 62
7
  6
CONTINUOUS
 10
14.0844226038
 20
4.4329721441
 11
14.0094226038
 21
4.4329721441
  0
LINE
  5
2E2
100
AcDbEntity
  8
0
100
AcDbLine
 62
7
  6
CONTINUOUS
 10
12.2664226038
 20
4.4402240319
 11
11.7914226038
 21
4.4402240319
  0
LINE
  5
2E3
100
AcDbEntity
  8
0
100
AcDbLine
 62
7
  6
CONTINUOUS
 10
12.6094226038
 20
4.4402240319
 11
12.7094226038
 21
4.4402240319
  0
LINE
  5
2E4
100
AcDbEntity
  8
0
100
AcDbLine
 62
7
  6
CONTINUOUS
 10
14.0094226038
 20
4.4422714004
 11
14.0844226038
 21
4.4422714004
  0
LINE
  5
2E5
100
AcDbEntity
  8
0
100
AcDbLine
 62
7
  6
CONTINUOUS
 10
14.0844226038
 20
4.4613377014
 11
14.0094226038
 21
4.4613377014
  0
LINE
  5
2E6
100
AcDbEntity
  8
0
100
AcDbLine
 62
7
  6
CONTINUOUS
 10
14.0844226038
 20
4.4741480081
 11
14.0094226038
 21
4.4741480081
  0
LINE
  5
2E7
100
AcDbEntity
  8
0
100
AcDbLine
 62
7
  6
CONTINUOUS
 10
14.0094226038
 20
4.4827761953
 11
14.0844226038
 21
4.4827761953
  0
LINE
  5
2E8
100
AcDbEntity
  8
0
100
AcDbLine
 62
7
  6
CONTINUOUS
 10
14.0844226038
 20
4.5021554209
 11
14.0094226038
 21
4.5021554209
  0
LINE
  5
2E9
100
AcDbEntity
  8
0
100
AcDbLine
 62
7
  6
CONTINUOUS
 10
14.0844226038
 20
4.5147952026
 11
14.0094226038
 21
4.5147952026
  0
LINE
  5
2EA
100
AcDbEntity
  8
0
100
AcDbLine
 62
7
  6
CONTINUOUS
 10
14.0094226038
 20
4.5227418085
 11
14.0844226038
 21
4.5227418085
  0
LINE
  5
2EB
100
AcDbEntity
  8
0
100
AcDbLine
 62
7
  6
CONTINUOUS
 10
14.0844226038
 20
4.5424103482
 11
14.0094226038
 21
4.5424103482
  0
LINE
  5
2EC
100
AcDbEntity
  8
0
100
AcDbLine
 62
7
  6
CONTINUOUS
 10
14.0844226038
 20
4.5548642052
 11
14.0094226038
 21
4.5548642052
  0
LINE
  5
2ED
100
AcDbEntity
  8
0
100
AcDbLine
 62
7
  6
CONTINUOUS
 10
14.0094226038
 20
4.5621195481
 11
14.0844226038
 21
4.5621195481
  0
LINE
  5
2EE
100
AcDbEntity
  8
0
100
AcDbLine
 62
7
  6
CONTINUOUS
 10
14.0844226038
 20
4.5820534388
 11
14.0094226038
 21
4.5820534388
  0
LINE
  5
2EF
100
AcDbEntity
  8
0
100
AcDbLine
 62
7
  6
CONTINUOUS
 10
14.0844226038
 20
4.5943061981
 11
14.0094226038
 21
4.5943061981
  0
LINE
  5
2F0
100
AcDbEntity
  8
0
100
AcDbLine
 62
7
  6
CONTINUOUS
 10
14.0094226038
 20
4.6008614384
 11
14.0844226038
 21
4.6008614384
  0
LINE
  5
2F1
100
AcDbEntity
  8
0
100
AcDbLine
 62
7
  6
CONTINUOUS
 10
14.0844226038
 20
4.6210363938
 11
14.0094226038
 21
4.6210363938
  0
LINE
  5
2F2
100
AcDbEntity
  8
0
100
AcDbLine
 62
7
  6
CONTINUOUS
 10
14.0844226038
 20
4.6330731271
 11
14.0094226038
 21
4.6330731271
  0
LINE
  5
2F3
100
AcDbEntity
  8
0
100
AcDbLine
 62
7
  6
CONTINUOUS
 10
14.0094226038
 20
4.6389202784
 11
14.0844226038
 21
4.6389202784
  0
LINE
  5
2F4
100
AcDbEntity
  8
0
100
AcDbLine
 62
7
  6
CONTINUOUS
 10
14.0844226038
 20
4.6593117183
 11
14.0094226038
 21
4.6593117183
  0
LINE
  5
2F5
100
AcDbEntity
  8
0
100
AcDbLine
 62
7
  6
CONTINUOUS
 10
14.0844226038
 20
4.6711177609
 11
14.0094226038
 21
4.6711177609
  0
LINE
  5
2F6
100
AcDbEntity
  8
0
100
AcDbLine
 62
7
  6
CONTINUOUS
 10
14.0094226038
 20
4.6762496993
 11
14.0844226038
 21
4.6762496993
  0
LINE
  5
2F7
100
AcDbEntity
  8
0
100
AcDbLine
 62
7
  6
CONTINUOUS
 10
14.0844226038
 20
4.6968327799
 11
14.0094226038
 21
4.6968327799
  0
LINE
  5
2F8
100
AcDbEntity
  8
0
100
AcDbLine
 62
7
  6
CONTINUOUS
 10
14.0844226038
 20
4.7083937478
 11
14.0094226038
 21
4.7083937478
  0
LINE
  5
2F9
100
AcDbEntity
  8
0
100
AcDbLine
 62
7
  6
CONTINUOUS
 10
14.0094226038
 20
4.7128042208
 11
14.0844226038
 21
4.7128042208
  0
LINE
  5
2FA
100
AcDbEntity
  8
0
100
AcDbLine
 62
7
  6
CONTINUOUS
 10
14.0844226038
 20
4.7335538649
 11
14.0094226038
 21
4.7335538649
  0
LINE
  5
2FB
100
AcDbEntity
  8
0
100
AcDbLine
 62
7
  6
CONTINUOUS
 10
14.0844226038
 20
4.7448556729
 11
14.0094226038
 21
4.7448556729
  0
LINE
  5
2FC
100
AcDbEntity
  8
0
100
AcDbLine
 62
7
  6
CONTINUOUS
 10
14.0094226038
 20
4.748539307
 11
14.0844226038
 21
4.748539307
  0
LINE
  5
2FD
100
AcDbEntity
  8
0
100
AcDbLine
 62
7
  6
CONTINUOUS
 10
14.0844226038
 20
4.7694302342
 11
14.0094226038
 21
4.7694302342
  0
LINE
  5
2FE
100
AcDbEntity
  8
0
100
AcDbLine
 62
7
  6
CONTINUOUS
 10
14.0844226038
 20
4.7804591128
 11
14.0094226038
 21
4.7804591128
  0
LINE
  5
2FF
100
AcDbEntity
  8
0
100
AcDbLine
 62
7
  6
CONTINUOUS
 10
14.0094226038
 20
4.7834114202
 11
14.0844226038
 21
4.7834114202
  0
LINE
  5
300
100
AcDbEntity
  8
0
100
AcDbLine
 62
7
  6
CONTINUOUS
 10
12.7094226038
 20
4.7902240319
 11
12.7594226038
 21
4.7902240319
  0
LINE
  5
301
100
AcDbEntity
  8
0
100
AcDbLine
 62
7
  6
CONTINUOUS
 10
14.0844226038
 20
4.8044181782
 11
14.0094226038
 21
4.8044181782
  0
LINE
  5
302
100
AcDbEntity
  8
0
100
AcDbLine
 62
7
  6
CONTINUOUS
 10
6.759992122
 20
13.3692223139
 11
6.759992122
 21
13.3576907286
  0
LINE
  5
303
100
AcDbEntity
  8
0
100
AcDbLine
 62
7
  6
CONTINUOUS
 10
6.7988841397
 20
13.3303294514
 11
6.7988841397
 21
13.3187986743
  0
LINE
  5
304
100
AcDbEntity
  8
0
100
AcDbLine
 62
7
  6
CONTINUOUS
 10
6.8991539965
 20
13.1713034655
 11
6.8991539965
 21
13.1597721854
  0
LINE
  5
305
100
AcDbEntity
  8
0
100
AcDbLine
 62
7
  6
CONTINUOUS
 10
6.9129097663
 20
13.2163038249
 11
6.9129097663
 21
13.2047730478
  0
LINE
  5
306
100
AcDbEntity
  8
0
100
AcDbLine
 62
7
  6
CONTINUOUS
 10
6.9660214502
 20
13.1044360029
 11
6.9660214502
 21
13.0929047317
  0
LINE
  5
307
100
AcDbEntity
  8
0
100
AcDbLine
 62
7
  6
CONTINUOUS
 10
7.0942983436
 20
13.0349152476
 11
7.0942983436
 21
13.0233844704
  0
LINE
  5
308
100
AcDbEntity
  8
0
100
AcDbLine
 62
7
  6
CONTINUOUS
 10
7.0951994511
 20
12.975258002
 11
7.0951994511
 21
12.9637267308
  0
LINE
  5
309
100
AcDbEntity
  8
0
100
AcDbLine
 62
7
  6
CONTINUOUS
 10
10.7826563731
 20
14.4573356383
 11
10.7826503061
 21
14.4573294015
  0
LINE
  5
30A
100
AcDbEntity
  8
0
100
AcDbLine
 62
7
  6
CONTINUOUS
 10
7.8621757751
 20
12.0801047831
 11
7.8514675186
 21
12.0693965267
  0
LINE
  5
30B
100
AcDbEntity
  8
0
100
AcDbLine
 62
7
  6
CONTINUOUS
 10
7.917228463
 20
12.0237656516
 11
7.9071634284
 21
12.013700617
  0
LINE
  5
30C
100
AcDbEntity
  8
0
100
AcDbLine
 62
7
  6
CONTINUOUS
 10
8.0487657799
 20
12.1495177735
 11
8.0240737408
 21
12.1248257344
  0
LINE
  5
30D
100
AcDbEntity
  8
0
100
AcDbLine
 62
7
  6
CONTINUOUS
 10
8.0377387802
 20
12.0972777993
 11
8.0153019437
 21
12.0748409628
  0
LINE
  5
30E
100
AcDbEntity
  8
0
100
AcDbLine
 62
7
  6
CONTINUOUS
 10
8.0199011107
 20
11.9259985818
 11
8.0073832871
 21
11.9134807582
  0
LINE
  5
30F
100
AcDbEntity
  8
0
100
AcDbLine
 62
7
  6
CONTINUOUS
 10
8.1405794437
 20
11.9996787453
 11
8.1155218024
 21
11.974621104
  0
LINE
  5
310
100
AcDbEntity
  8
0
100
AcDbLine
 62
7
  6
CONTINUOUS
 10
8.2263437521
 20
11.9701136751
 11
8.2025647761
 21
11.9463346991
  0
LINE
  5
311
100
AcDbEntity
  8
0
100
AcDbLine
 62
7
  6
CONTINUOUS
 10
10.6140074562
 20
14.297297359
 11
10.626427152
 21
14.3097170548
  0
LINE
  5
312
100
AcDbEntity
  8
0
100
AcDbLine
 62
7
  6
CONTINUOUS
 10
10.6658456136
 20
14.3464796802
 11
10.6782663692
 21
14.3589004358
  0
LINE
  5
313
100
AcDbEntity
  8
0
100
AcDbLine
 62
7
  6
CONTINUOUS
 10
10.7176537834
 20
14.3956846176
 11
10.7300755093
 21
14.4081063435
  0
LINE
  5
314
100
AcDbEntity
  8
0
100
AcDbLine
 62
7
  6
CONTINUOUS
 10
10.7695039638
 20
14.444852426
 11
10.7819267232
 21
14.4572751854
  0
LINE
  5
315
100
AcDbEntity
  8
0
100
AcDbLine
 62
7
  6
CONTINUOUS
 10
10.7826503061
 20
14.4573294015
 11
10.7950794966
 21
14.469758592
  0
LINE
  5
316
100
AcDbEntity
  8
0
100
AcDbLine
 62
7
  6
CONTINUOUS
 10
11.5972478666
 20
15.2403987691
 11
10.8199449984
 21
14.4630959008
  0
LINE
  5
317
100
AcDbEntity
  8
0
100
AcDbLine
 62
7
  6
CONTINUOUS
 10
10.7763016711
 20
14.4194525735
 11
10.7577856511
 21
14.4009365535
  0
LINE
  5
318
100
AcDbEntity
  8
0
100
AcDbLine
 62
7
  6
CONTINUOUS
 10
10.7250186981
 20
14.3681696006
 11
10.7080285344
 21
14.3511794368
  0
LINE
  5
319
100
AcDbEntity
  8
0
100
AcDbLine
 62
7
  6
CONTINUOUS
 10
10.6737585339
 20
14.3169094364
 11
10.6582865541
 21
14.3014374565
  0
LINE
  5
31A
100
AcDbEntity
  8
0
100
AcDbLine
 62
7
  6
CONTINUOUS
 10
10.6224832631
 20
14.2656341655
 11
10.6144944376
 21
14.25764534
  0
LINE
  5
31B
100
AcDbEntity
  8
0
100
AcDbLine
 62
7
  6
CONTINUOUS
 10
10.6471981262
 20
14.2249416514
 11
10.4194193389
 21
13.9971628641
  0
LINE
  5
31C
100
AcDbEntity
  8
0
100
AcDbLine
 62
7
  6
CONTINUOUS
 10
8.2745479232
 20
11.8349814733
 11
8.2648546782
 21
11.8252882282
  0
LINE
  5
31D
100
AcDbEntity
  8
0
100
AcDbLine
 62
7
  6
CONTINUOUS
 10
8.3441799837
 20
11.8541035697
 11
8.3194879447
 21
11.8294115306
  0
LINE
  5
31E
100
AcDbEntity
  8
0
100
AcDbLine
 62
7
  6
CONTINUOUS
 10
10.2176307566
 20
13.6221331205
 11
9.5529503823
 21
12.9574527461
  0
LWPOLYLINE
  5
31F
100
AcDbEntity
  8
0
100
AcDbPolyline
 62
7
  6
CONTINUOUS
 90
7
 70
0
 10
8.0199000415
 20
11.9259969438
 10
8.0213231412
 20
11.9271884947
 10
8.0234122762
 20
11.9283129982
 10
8.0254024027
 20
11.9288697639
 10
8.0269623684
 20
11.9289912652
 10
8.0279136651
 20
11.9289120979
 10
8.0282118939
 20
11.9288526455
  0
LWPOLYLINE
  5
320
100
AcDbEntity
  8
0
100
AcDbPolyline
 62
7
  6
CONTINUOUS
 90
7
 70
0
 10
7.8621722583
 20
12.0801040313
 10
7.8636263381
 20
12.0813163941
 10
7.8658155763
 20
12.0824689443
 10
7.8678969093
 20
12.0830096887
 10
7.8694919748
 20
12.0830943002
 10
7.8704368836
 20
12.0829910208
 10
7.8707395465
 20
12.0829231244
  0
LINE
  5
321
100
AcDbEntity
  8
0
100
AcDbLine
 62
7
  6
CONTINUOUS
 10
14.0844226038
 20
4.8151606904
 11
14.0094226038
 21
4.8151606904
  0
LINE
  5
322
100
AcDbEntity
  8
0
100
AcDbLine
 62
7
  6
CONTINUOUS
 10
14.0094226038
 20
4.8173780739
 11
14.0844226038
 21
4.8173780739
  0
LINE
  5
323
100
AcDbEntity
  8
0
100
AcDbLine
 62
7
  6
CONTINUOUS
 10
14.0844226038
 20
4.8384750692
 11
14.0094226038
 21
4.8384750692
  0
LINE
  5
324
100
AcDbEntity
  8
0
100
AcDbLine
 62
7
  6
CONTINUOUS
 10
14.0844226038
 20
4.848918127
 11
14.0094226038
 21
4.848918127
  0
LINE
  5
325
100
AcDbEntity
  8
0
100
AcDbLine
 62
7
  6
CONTINUOUS
 10
14.0094226038
 20
4.8503978852
 11
14.0844226038
 21
4.8503978852
  0
LINE
  5
326
100
AcDbEntity
  8
0
100
AcDbLine
 62
7
  6
CONTINUOUS
 10
14.0844226038
 20
4.8715594144
 11
14.0094226038
 21
4.8715594144
  0
LINE
  5
327
100
AcDbEntity
  8
0
100
AcDbLine
 62
7
  6
CONTINUOUS
 10
14.0844226038
 20
4.8816902944
 11
14.0094226038
 21
4.8816902944
  0
LINE
  5
328
100
AcDbEntity
  8
0
100
AcDbLine
 62
7
  6
CONTINUOUS
 10
14.0094226038
 20
4.8824306245
 11
14.0844226038
 21
4.8824306245
  0
LINE
  5
329
100
AcDbEntity
  8
0
100
AcDbLine
 62
7
  6
CONTINUOUS
 10
14.0844226038
 20
4.9036309054
 11
14.0094226038
 21
4.9036309054
  0
LINE
  5
32A
100
AcDbEntity
  8
0
100
AcDbLine
 62
7
  6
CONTINUOUS
 10
14.0844226038
 20
4.9134372647
 11
14.0094226038
 21
4.9134372647
  0
LINE
  5
32B
100
AcDbEntity
  8
0
100
AcDbLine
 62
7
  6
CONTINUOUS
 10
13.2844226038
 20
4.9152240319
 11
13.8094226038
 21
4.9152240319
  0
LINE
  5
32C
100
AcDbEntity
  8
0
100
AcDbLine
 62
7
  6
CONTINUOUS
 10
14.0844226038
 20
4.9346504682
 11
14.0094226038
 21
4.9346504682
  0
LINE
  5
32D
100
AcDbEntity
  8
0
100
AcDbLine
 62
7
  6
CONTINUOUS
 10
14.0844226038
 20
4.9441203593
 11
14.0094226038
 21
4.9441203593
  0
LINE
  5
32E
100
AcDbEntity
  8
0
100
AcDbLine
 62
7
  6
CONTINUOUS
 10
14.0844226038
 20
4.9645803101
 11
14.0094226038
 21
4.9645803101
  0
LINE
  5
32F
100
AcDbEntity
  8
0
100
AcDbLine
 62
7
  6
CONTINUOUS
 10
14.0844226038
 20
4.9737021954
 11
14.0094226038
 21
4.9737021954
  0
LINE
  5
330
100
AcDbEntity
  8
0
100
AcDbLine
 62
7
  6
CONTINUOUS
 10
12.8594226038
 20
4.9902240319
 11
12.9094226038
 21
4.9902240319
  0
LINE
  5
331
100
AcDbEntity
  8
0
100
AcDbLine
 62
7
  6
CONTINUOUS
 10
13.1094226038
 20
4.9902240319
 11
13.2094226038
 21
4.9902240319
  0
LINE
  5
332
100
AcDbEntity
  8
0
100
AcDbLine
 62
7
  6
CONTINUOUS
 10
14.0844226038
 20
4.9933839663
 11
14.0094226038
 21
4.9933839663
  0
LINE
  5
333
100
AcDbEntity
  8
0
100
AcDbLine
 62
7
  6
CONTINUOUS
 10
14.0844226038
 20
5.0021467322
 11
14.0094226038
 21
5.0021467322
  0
LINE
  5
334
100
AcDbEntity
  8
0
100
AcDbLine
 62
7
  6
CONTINUOUS
 10
14.0844226038
 20
5.0210263439
 11
14.0094226038
 21
5.0210263439
  0
LINE
  5
335
100
AcDbEntity
  8
0
100
AcDbLine
 62
7
  6
CONTINUOUS
 10
14.0844226038
 20
5.0294193143
 11
14.0094226038
 21
5.0294193143
  0
LINE
  5
336
100
AcDbEntity
  8
0
100
AcDbLine
 62
7
  6
CONTINUOUS
 10
14.0844226038
 20
5.047473765
 11
14.0094226038
 21
5.047473765
  0
LINE
  5
337
100
AcDbEntity
  8
0
100
AcDbLine
 62
7
  6
CONTINUOUS
 10
14.0844226038
 20
5.0554867143
 11
14.0094226038
 21
5.0554867143
  0
LINE
  5
338
100
AcDbEntity
  8
0
100
AcDbLine
 62
7
  6
CONTINUOUS
 10
12.9094226038
 20
5.0652240319
 11
13.1094226038
 21
5.0652240319
  0
LINE
  5
339
100
AcDbEntity
  8
0
100
AcDbLine
 62
7
  6
CONTINUOUS
 10
14.0844226038
 20
5.0726940074
 11
14.0094226038
 21
5.0726940074
  0
LINE
  5
33A
100
AcDbEntity
  8
0
100
AcDbLine
 62
7
  6
CONTINUOUS
 10
14.0844226038
 20
5.0803171732
 11
14.0094226038
 21
5.0803171732
  0
LINE
  5
33B
100
AcDbEntity
  8
0
100
AcDbLine
 62
7
  6
CONTINUOUS
 10
14.0844226038
 20
5.0966563443
 11
14.0094226038
 21
5.0966563443
  0
LINE
  5
33C
100
AcDbEntity
  8
0
100
AcDbLine
 62
7
  6
CONTINUOUS
 10
14.0844226038
 20
5.1038804388
 11
14.0094226038
 21
5.1038804388
  0
LINE
  5
33D
100
AcDbEntity
  8
0
100
AcDbLine
 62
7
  6
CONTINUOUS
 10
14.0844226038
 20
5.119331581
 11
14.0094226038
 21
5.119331581
  0
LINE
  5
33E
100
AcDbEntity
  8
0
100
AcDbLine
 62
7
  6
CONTINUOUS
 10
14.0844226038
 20
5.1261478029
 11
14.0094226038
 21
5.1261478029
  0
LINE
  5
33F
100
AcDbEntity
  8
0
100
AcDbLine
 62
7
  6
CONTINUOUS
 10
14.0844226038
 20
5.1406920915
 11
14.0094226038
 21
5.1406920915
  0
LINE
  5
340
100
AcDbEntity
  8
0
100
AcDbLine
 62
7
  6
CONTINUOUS
 10
14.0844226038
 20
5.1470921361
 11
14.0094226038
 21
5.1470921361
  0
LINE
  5
341
100
AcDbEntity
  8
0
100
AcDbLine
 62
7
  6
CONTINUOUS
 10
14.0844226038
 20
5.1607118511
 11
14.0094226038
 21
5.1607118511
  0
LINE
  5
342
100
AcDbEntity
  8
0
100
AcDbLine
 62
7
  6
CONTINUOUS
 10
14.0844226038
 20
5.1666879211
 11
14.0094226038
 21
5.1666879211
  0
LINE
  5
343
100
AcDbEntity
  8
0
100
AcDbLine
 62
7
  6
CONTINUOUS
 10
14.0844226038
 20
5.1793664689
 11
14.0094226038
 21
5.1793664689
  0
LINE
  5
344
100
AcDbEntity
  8
0
100
AcDbLine
 62
7
  6
CONTINUOUS
 10
14.0844226038
 20
5.1849112833
 11
14.0094226038
 21
5.1849112833
  0
LINE
  5
345
100
AcDbEntity
  8
0
100
AcDbLine
 62
7
  6
CONTINUOUS
 10
14.0844226038
 20
5.1966332172
 11
14.0094226038
 21
5.1966332172
  0
LINE
  5
346
100
AcDbEntity
  8
0
100
AcDbLine
 62
7
  6
CONTINUOUS
 10
14.0844226038
 20
5.2017400205
 11
14.0094226038
 21
5.2017400205
  0
LINE
  5
347
100
AcDbEntity
  8
0
100
AcDbLine
 62
7
  6
CONTINUOUS
 10
14.0844226038
 20
5.212491059
 11
14.0094226038
 21
5.212491059
  0
LINE
  5
348
100
AcDbEntity
  8
0
100
AcDbLine
 62
7
  6
CONTINUOUS
 10
14.0844226038
 20
5.2171536293
 11
14.0094226038
 21
5.2171536293
  0
LINE
  5
349
100
AcDbEntity
  8
0
100
AcDbLine
 62
7
  6
CONTINUOUS
 10
14.0844226038
 20
5.2269206739
 11
14.0094226038
 21
5.2269206739
  0
LINE
  5
34A
100
AcDbEntity
  8
0
100
AcDbLine
 62
7
  6
CONTINUOUS
 10
14.0844226038
 20
5.2311333307
 11
14.0094226038
 21
5.2311333307
  0
LINE
  5
34B
100
AcDbEntity
  8
0
100
AcDbLine
 62
7
  6
CONTINUOUS
 10
14.0844226038
 20
5.2399044819
 11
14.0094226038
 21
5.2399044819
  0
LINE
  5
34C
100
AcDbEntity
  8
0
100
AcDbLine
 62
7
  6
CONTINUOUS
 10
14.0844226038
 20
5.2402240319
 11
14.2844226038
 21
5.2402240319
  0
LINE
  5
34D
100
AcDbEntity
  8
0
100
AcDbLine
 62
7
  6
CONTINUOUS
 10
14.0844226038
 20
5.2436620926
 11
14.0094226038
 21
5.2436620926
  0
LINE
  5
34E
100
AcDbEntity
  8
0
100
AcDbLine
 62
7
  6
CONTINUOUS
 10
14.0844226038
 20
5.2514266639
 11
14.0094226038
 21
5.2514266639
  0
LINE
  5
34F
100
AcDbEntity
  8
0
100
AcDbLine
 62
7
  6
CONTINUOUS
 10
14.0844226038
 20
5.2547246506
 11
14.0094226038
 21
5.2547246506
  0
LINE
  5
350
100
AcDbEntity
  8
0
100
AcDbLine
 62
7
  6
CONTINUOUS
 10
14.0844226038
 20
5.2614731822
 11
14.0094226038
 21
5.2614731822
  0
LINE
  5
351
100
AcDbEntity
  8
0
100
AcDbLine
 62
7
  6
CONTINUOUS
 10
14.0844226038
 20
5.2643075266
 11
14.0094226038
 21
5.2643075266
  0
LINE
  5
352
100
AcDbEntity
  8
0
100
AcDbLine
 62
7
  6
CONTINUOUS
 10
14.0844226038
 20
5.2700317965
 11
14.0094226038
 21
5.2700317965
  0
LINE
  5
353
100
AcDbEntity
  8
0
100
AcDbLine
 62
7
  6
CONTINUOUS
 10
14.0844226038
 20
5.2723990455
 11
14.0094226038
 21
5.2723990455
  0
LINE
  5
354
100
AcDbEntity
  8
0
100
AcDbLine
 62
7
  6
CONTINUOUS
 10
14.0844226038
 20
5.2770920794
 11
14.0094226038
 21
5.2770920794
  0
LINE
  5
355
100
AcDbEntity
  8
0
100
AcDbLine
 62
7
  6
CONTINUOUS
 10
14.0844226038
 20
5.2789893489
 11
14.0094226038
 21
5.2789893489
  0
LINE
  5
356
100
AcDbEntity
  8
0
100
AcDbLine
 62
7
  6
CONTINUOUS
 10
14.0844226038
 20
5.2826454292
 11
14.0094226038
 21
5.2826454292
  0
LINE
  5
357
100
AcDbEntity
  8
0
100
AcDbLine
 62
7
  6
CONTINUOUS
 10
14.0844226038
 20
5.2840704076
 11
14.0094226038
 21
5.2840704076
  0
LINE
  5
358
100
AcDbEntity
  8
0
100
AcDbLine
 62
7
  6
CONTINUOUS
 10
14.0844226038
 20
5.2866850799
 11
14.0094226038
 21
5.2866850799
  0
LINE
  5
359
100
AcDbEntity
  8
0
100
AcDbLine
 62
7
  6
CONTINUOUS
 10
14.0844226038
 20
5.2876360311
 11
14.0094226038
 21
5.2876360311
  0
LINE
  5
35A
100
AcDbEntity
  8
0
100
AcDbLine
 62
7
  6
CONTINUOUS
 10
14.0844226038
 20
5.2892061098
 11
14.0094226038
 21
5.2892061098
  0
LINE
  5
35B
100
AcDbEntity
  8
0
100
AcDbLine
 62
7
  6
CONTINUOUS
 10
14.0844226038
 20
5.2896818752
 11
14.0094226038
 21
5.2896818752
  0
LINE
  5
35C
100
AcDbEntity
  8
0
100
AcDbLine
 62
7
  6
CONTINUOUS
 10
14.0844226038
 20
5.2902054474
 11
14.0094226038
 21
5.2902054474
  0
LINE
  5
35D
100
AcDbEntity
  8
0
100
AcDbLine
 62
7
  6
CONTINUOUS
 10
14.3344226038
 20
5.2902240319
 11
14.4844226038
 21
5.2902240319
  0
LINE
  5
35E
100
AcDbEntity
  8
0
100
AcDbLine
 62
7
  6
CONTINUOUS
 10
7.1577559819
 20
12.751296978
 11
7.1577559819
 21
12.7332427578
  0
LINE
  5
35F
100
AcDbEntity
  8
0
100
AcDbLine
 62
7
  6
CONTINUOUS
 10
7.175422963
 20
12.7336299969
 11
7.175422963
 21
12.7155757292
  0
LINE
  5
360
100
AcDbEntity
  8
0
100
AcDbLine
 62
7
  6
CONTINUOUS
 10
7.2300778353
 20
12.6789751246
 11
7.2300778353
 21
12.6609208569
  0
LINE
  5
361
100
AcDbEntity
  8
0
100
AcDbLine
 62
7
  6
CONTINUOUS
 10
7.277884732
 20
12.7925727211
 11
7.277884732
 21
12.78104145
  0
LINE
  5
362
100
AcDbEntity
  8
0
100
AcDbLine
 62
7
  6
CONTINUOUS
 10
7.3306885398
 20
12.7985250513
 11
7.3306885398
 21
12.7869942742
  0
LINE
  5
363
100
AcDbEntity
  8
0
100
AcDbLine
 62
7
  6
CONTINUOUS
 10
7.341335487
 20
12.5677174728
 11
7.341335487
 21
12.5496632052
  0
LINE
  5
364
100
AcDbEntity
  8
0
100
AcDbLine
 62
7
  6
CONTINUOUS
 10
7.3729509498
 20
12.3841174498
 11
7.3729509498
 21
12.3725861725
  0
LINE
  5
365
100
AcDbEntity
  8
0
100
AcDbLine
 62
7
  6
CONTINUOUS
 10
7.5016275928
 20
12.5688298603
 11
7.5016275928
 21
12.5572985892
  0
LINE
  5
366
100
AcDbEntity
  8
0
100
AcDbLine
 62
7
  6
CONTINUOUS
 10
7.5514863306
 20
12.2055820666
 11
7.5514863306
 21
12.1940507916
  0
LINE
  5
367
100
AcDbEntity
  8
0
100
AcDbLine
 62
7
  6
CONTINUOUS
 10
7.5948570211
 20
12.3141959387
 11
7.5948570211
 21
12.2961416717
  0
LINE
  5
368
100
AcDbEntity
  8
0
100
AcDbLine
 62
7
  6
CONTINUOUS
 10
7.6059707539
 20
12.5232428372
 11
7.6059707539
 21
12.5117120601
  0
LINE
  5
369
100
AcDbEntity
  8
0
100
AcDbLine
 62
7
  6
CONTINUOUS
 10
8.3926650028
 20
11.7526588353
 11
8.3650745369
 21
11.7250683695
  0
LINE
  5
36A
100
AcDbEntity
  8
0
100
AcDbLine
 62
7
  6
CONTINUOUS
 10
8.321509906
 20
11.6099962138
 11
8.3161888688
 21
11.6046751766
  0
LINE
  5
36B
100
AcDbEntity
  8
0
100
AcDbLine
 62
7
  6
CONTINUOUS
 10
8.4983496176
 20
11.6915551125
 11
8.4778469902
 21
11.6710524851
  0
LINE
  5
36C
100
AcDbEntity
  8
0
100
AcDbLine
 62
7
  6
CONTINUOUS
 10
8.498290784
 20
11.6112386125
 11
8.488597539
 21
11.6015453674
  0
LINE
  5
36D
100
AcDbEntity
  8
0
100
AcDbLine
 62
7
  6
CONTINUOUS
 10
8.4336775793
 20
11.5217241696
 11
8.4164087275
 21
11.5044553178
  0
LINE
  5
36E
100
AcDbEntity
  8
0
100
AcDbLine
 62
7
  6
CONTINUOUS
 10
8.6194621978
 20
11.5788213556
 11
8.5947701587
 21
11.5541293166
  0
LINE
  5
36F
100
AcDbEntity
  8
0
100
AcDbLine
 62
7
  6
CONTINUOUS
 10
8.5114201094
 20
11.4457672163
 11
8.4932584692
 21
11.4276055761
  0
LINE
  5
370
100
AcDbEntity
  8
0
100
AcDbLine
 62
7
  6
CONTINUOUS
 10
8.6186798377
 20
11.5311879487
 11
8.5888173977
 21
11.5013255087
  0
LINE
  5
371
100
AcDbEntity
  8
0
100
AcDbLine
 62
7
  6
CONTINUOUS
 10
8.5536127139
 20
11.4045470768
 11
8.5349648412
 21
11.3858992041
  0
LINE
  5
372
100
AcDbEntity
  8
0
100
AcDbLine
 62
7
  6
CONTINUOUS
 10
8.68707152
 20
11.4346487868
 11
8.6712828198
 21
11.4188600866
  0
LINE
  5
373
100
AcDbEntity
  8
0
100
AcDbLine
 62
7
  6
CONTINUOUS
 10
8.7319280924
 20
11.4523531947
 11
8.7142371864
 21
11.4346622888
  0
LINE
  5
374
100
AcDbEntity
  8
0
100
AcDbLine
 62
7
  6
CONTINUOUS
 10
8.7233648195
 20
11.2985478522
 11
8.7185736326
 21
11.2937566653
  0
LINE
  5
375
100
AcDbEntity
  8
0
100
AcDbLine
 62
7
  6
CONTINUOUS
 10
8.7811959236
 20
11.3283334729
 11
8.7715026786
 21
11.3186402278
  0
LINE
  5
376
100
AcDbEntity
  8
0
100
AcDbLine
 62
7
  6
CONTINUOUS
 10
8.5536124097
 20
11.4045476133
 11
8.5539009719
 21
11.4048267802
  0
LWPOLYLINE
  5
377
100
AcDbEntity
  8
0
100
AcDbPolyline
 62
7
  6
CONTINUOUS
 90
10
 70
0
 10
8.5114208069
 20
11.4457672291
 10
8.5124683307
 20
11.4466961342
 10
8.5145382292
 20
11.4479915948
 10
8.5167251091
 20
11.4487956381
 10
8.5187631764
 20
11.4491236884
 10
8.5204107493
 20
11.4491129851
 10
8.5215805869
 20
11.4489492233
 10
8.5223451664
 20
11.4487629282
 10
8.5227847088
 20
11.4486201649
 10
8.5229596799
 20
11.4485529115
  0
LWPOLYLINE
  5
378
100
AcDbEntity
  8
0
100
AcDbPolyline
 62
7
  6
CONTINUOUS
 90
9
 70
0
 10
8.4336746711
 20
11.5217226543
 10
8.4348964032
 20
11.5227817929
 10
8.436949143
 20
11.5240023033
 10
8.439036576
 20
11.5247175971
 10
8.4408981219
 20
11.5249834476
 10
8.4423165752
 20
11.5249573362
 10
8.4432315548
 20
11.5248228782
 10
8.4437075628
 20
11.5247056878
 10
8.4438210246
 20
11.5246697682
  0
LWPOLYLINE
  5
379
100
AcDbEntity
  8
0
100
AcDbPolyline
 62
7
  6
CONTINUOUS
 90
9
 70
0
 10
8.5539009719
 20
11.4048267802
 10
8.5554235966
 20
11.4060298074
 10
8.5570664718
 20
11.4069417678
 10
8.5587677883
 20
11.4075619913
 10
8.5604425395
 20
11.4079008423
 10
8.5619962248
 20
11.4079951075
 10
8.5633971559
 20
11.4079019377
 10
8.5646240249
 20
11.4076772329
 10
8.5656431051
 20
11.4073818486
  0
LINE
  5
37A
100
AcDbEntity
  8
0
100
AcDbLine
 62
7
  6
CONTINUOUS
 10
8.3209699252
 20
11.565136533
 11
8.2510214013
 21
11.5325190006
  0
LINE
  5
37B
100
AcDbEntity
  8
0
100
AcDbLine
 62
7
  6
CONTINUOUS
 10
7.7477882912
 20
12.1612646687
 11
7.7477882912
 21
12.143210401
  0
LINE
  5
37C
100
AcDbEntity
  8
0
100
AcDbLine
 62
7
  6
CONTINUOUS
 10
7.7511803273
 20
12.3192771258
 11
7.7511803273
 21
12.3077458547
  0
LINE
  5
37D
100
AcDbEntity
  8
0
100
AcDbLine
 62
7
  6
CONTINUOUS
 10
7.8039734876
 20
11.953094912
 11
7.8039734876
 21
11.9415636347
  0
LINE
  5
37E
100
AcDbEntity
  8
0
100
AcDbLine
 62
7
  6
CONTINUOUS
 10
7.9013849577
 20
12.2278286336
 11
7.9013849577
 21
12.2162978563
  0
LINE
  5
37F
100
AcDbEntity
  8
0
100
AcDbLine
 62
7
  6
CONTINUOUS
 10
7.9037040596
 20
12.0053489002
 11
7.9037040596
 21
11.9872946326
  0
LINE
  5
380
100
AcDbEntity
  8
0
100
AcDbLine
 62
7
  6
CONTINUOUS
 10
7.9825088684
 20
11.7691614928
 11
7.9825088684
 21
11.7630282538
  0
LINE
  5
381
100
AcDbEntity
  8
0
100
AcDbLine
 62
7
  6
CONTINUOUS
 10
8.0095363291
 20
12.0609211239
 11
8.0095363291
 21
12.0493898529
  0
LINE
  5
382
100
AcDbEntity
  8
0
100
AcDbLine
 62
7
  6
CONTINUOUS
 10
8.1967991616
 20
11.9324144295
 11
8.1967991616
 21
11.9208836524
  0
LINE
  5
383
100
AcDbEntity
  8
0
100
AcDbLine
 62
7
  6
CONTINUOUS
 10
8.2590890636
 20
11.8113683895
 11
8.2590890636
 21
11.7998371183
  0
LINE
  5
384
100
AcDbEntity
  8
0
100
AcDbLine
 62
7
  6
CONTINUOUS
 10
8.3127295
 20
11.5963234598
 11
8.3127295
 21
11.5782691921
  0
LINE
  5
385
100
AcDbEntity
  8
0
100
AcDbLine
 62
7
  6
CONTINUOUS
 10
8.8149413999
 20
11.3041626648
 11
8.8004608207
 21
11.2896820857
  0
LINE
  5
386
100
AcDbEntity
  8
0
100
AcDbLine
 62
7
  6
CONTINUOUS
 10
8.8558523941
 20
11.3424311594
 11
8.831160355
 21
11.3177391203
  0
LINE
  5
387
100
AcDbEntity
  8
0
100
AcDbLine
 62
7
  6
CONTINUOUS
 10
8.9111602499
 20
11.2688081977
 11
8.8956257638
 21
11.2532737115
  0
LINE
  5
388
100
AcDbEntity
  8
0
100
AcDbLine
 62
7
  6
CONTINUOUS
 10
8.9103739245
 20
11.199155472
 11
8.9006806795
 21
11.1894622269
  0
LINE
  5
389
100
AcDbEntity
  8
0
100
AcDbLine
 62
7
  6
CONTINUOUS
 10
8.9778651779
 20
11.132911818
 11
8.9675481332
 21
11.1225947733
  0
LINE
  5
38A
100
AcDbEntity
  8
0
100
AcDbLine
 62
7
  6
CONTINUOUS
 10
9.0372409714
 20
11.1610425821
 11
9.0125489323
 21
11.136350543
  0
LINE
  5
38B
100
AcDbEntity
  8
0
100
AcDbLine
 62
7
  6
CONTINUOUS
 10
9.1512665979
 20
11.0470169555
 11
9.1265745588
 21
11.0223249164
  0
LWPOLYLINE
  5
38C
100
AcDbEntity
  8
0
100
AcDbPolyline
 62
7
  6
CONTINUOUS
 90
8
 70
0
 10
7.2004206523
 20
12.7718007674
 10
7.2006492639
 20
12.7708190097
 10
7.2008074797
 20
12.7695798453
 10
7.2008167878
 20
12.76808174
 10
7.2005868874
 20
12.7663686152
 10
7.2000433897
 20
12.7645437357
 10
7.19915709
 20
12.7627425277
 10
7.1979237935
 20
12.7610566359
  0
LWPOLYLINE
  5
38D
100
AcDbEntity
  8
0
100
AcDbPolyline
 62
7
  6
CONTINUOUS
 90
7
 70
0
 10
7.1829439983
 20
12.7899898585
 10
7.1833578172
 20
12.7877626625
 10
7.1833362119
 20
12.7854763813
 10
7.1828588809
 20
12.7831855398
 10
7.1819379032
 20
12.7810328423
 10
7.1806175677
 20
12.779110984
 10
7.1799432278
 20
12.7783779382
  0
LINE
  5
38E
100
AcDbEntity
  8
0
100
AcDbLine
 62
7
  6
CONTINUOUS
 10
8.4720813756
 20
11.6571322155
 11
8.4720813756
 21
11.6456014384
  0
LINE
  5
38F
100
AcDbEntity
  8
0
100
AcDbLine
 62
7
  6
CONTINUOUS
 10
8.4828319244
 20
11.5876255287
 11
8.4828319244
 21
11.5760942575
  0
LINE
  5
390
100
AcDbEntity
  8
0
100
AcDbLine
 62
7
  6
CONTINUOUS
 10
8.6655172053
 20
11.4049402478
 11
8.6655172053
 21
11.3934089767
  0
LINE
  5
391
100
AcDbEntity
  8
0
100
AcDbLine
 62
7
  6
CONTINUOUS
 10
8.7084715719
 20
11.4207420192
 11
8.7084715719
 21
11.4092112421
  0
LINE
  5
392
100
AcDbEntity
  8
0
100
AcDbLine
 62
7
  6
CONTINUOUS
 10
8.7946952062
 20
11.2757622469
 11
8.7946952062
 21
11.2642309758
  0
LINE
  5
393
100
AcDbEntity
  8
0
100
AcDbLine
 62
7
  6
CONTINUOUS
 10
8.8898601492
 20
11.2393534419
 11
8.8898601492
 21
11.2278226648
  0
LINE
  5
394
100
AcDbEntity
  8
0
100
AcDbLine
 62
7
  6
CONTINUOUS
 10
9.3188050041
 20
10.9029249891
 11
9.2967960914
 21
10.8809160764
  0
LINE
  5
395
100
AcDbEntity
  8
0
100
AcDbLine
 62
7
  6
CONTINUOUS
 10
10.0712596529
 20
11.4605076904
 11
9.4744029567
 21
10.8636509941
  0
LINE
  5
396
100
AcDbEntity
  8
0
100
AcDbLine
 62
7
  6
CONTINUOUS
 10
14.2844226038
 20
2.8402240319
 11
14.3344226038
 21
2.7902240319
  0
LINE
  5
397
100
AcDbEntity
  8
0
100
AcDbLine
 62
7
  6
CONTINUOUS
 10
7.1821349375
 20
12.7920534334
 11
7.1829439983
 21
12.7899898585
  0
LWPOLYLINE
  5
398
100
AcDbEntity
  8
0
100
AcDbPolyline
 62
7
  6
CONTINUOUS
 90
8
 70
0
 10
7.7660029429
 20
12.1897349883
 10
7.7659527386
 20
12.1898815902
 10
7.7660141916
 20
12.1896005039
 10
7.7661060723
 20
12.1886769154
 10
7.7660096982
 20
12.1871251226
 10
7.7654787465
 20
12.1851172924
 10
7.7643678185
 20
12.1829942091
 10
7.7631193336
 20
12.1814875143
  0
LWPOLYLINE
  5
399
100
AcDbEntity
  8
0
100
AcDbPolyline
 62
7
  6
CONTINUOUS
 90
8
 70
0
 10
7.6148888244
 20
12.3444419318
 10
7.6148433689
 20
12.3445815075
 10
7.6149075742
 20
12.3442650398
 10
7.6149859943
 20
12.3433205525
 10
7.6148669375
 20
12.3417642292
 10
7.614316212
 20
12.3397731899
 10
7.6131975438
 20
12.3376739711
 10
7.6119688433
 20
12.3361994047
  0
LINE
  5
39A
100
AcDbEntity
  8
0
100
AcDbLine
 62
7
  6
CONTINUOUS
 10
9.5141927789
 20
12.9775383364
 11
9.517498764
 21
12.1602198131
  0
LINE
  5
39B
100
AcDbEntity
  8
0
100
AcDbLine
 62
7
  6
CONTINUOUS
 10
9.0038857757
 20
11.1253278154
 11
9.0038857757
 21
11.1137970383
  0
LINE
  5
39C
100
AcDbEntity
  8
0
100
AcDbLine
 62
7
  6
CONTINUOUS
 10
14.7974226038
 20
7.2902240319
 11
14.6579593435
 21
7.2902240319
  0
LWPOLYLINE
  5
39D
100
AcDbEntity
  8
0
100
AcDbPolyline
 62
7
  6
CONTINUOUS
 90
6
 70
0
 10
7.1999057425
 20
12.7732011397
 10
7.1998743805
 20
12.7732588431
 10
7.1999015765
 20
12.7732042011
 10
7.2000080972
 20
12.7729711713
 10
7.2001907864
 20
12.7725121056
 10
7.2004206523
 20
12.7718007674
  0
LWPOLYLINE
  5
39E
100
AcDbEntity
  8
0
100
AcDbPolyline
 62
7
  6
CONTINUOUS
 90
8
 70
0
 10
7.9200354673
 20
12.0325174539
 10
7.9200314452
 20
12.0325257849
 10
7.9201278982
 20
12.0321095502
 10
7.9202336722
 20
12.0311196427
 10
7.9201437435
 20
12.0295005292
 10
7.9195900733
 20
12.0273934275
 10
7.9184197161
 20
12.02518938
 10
7.9172268387
 20
12.02376444
  0
LWPOLYLINE
  5
39F
100
AcDbEntity
  8
0
100
AcDbPolyline
 62
7
  6
CONTINUOUS
 90
11
 70
0
 10
7.2543477998
 20
12.7160901272
 10
7.2542937456
 20
12.7162115078
 10
7.2543127665
 20
12.7161603757
 10
7.2544165548
 20
12.7158413976
 10
7.2545762025
 20
12.7151937369
 10
7.2547289688
 20
12.714153194
 10
7.254757061
 20
12.7126256495
 10
7.2544717066
 20
12.7106543137
 10
7.2537095163
 20
12.7084701358
 10
7.2524329013
 20
12.7063655085
 10
7.25142555
 20
12.7052152932
  0
LINE
  5
3A0
100
AcDbEntity
  8
0
100
AcDbLine
 62
7
  6
CONTINUOUS
 10
9.7244237768
 20
14.5041584262
 11
9.7244237768
 21
14.4308422614
  0
LINE
  5
3A1
100
AcDbEntity
  8
0
100
AcDbLine
 62
7
  6
CONTINUOUS
 10
10.1086580185
 20
14.9001977741
 11
10.108709327
 21
14.9009087489
  0
LINE
  5
3A2
100
AcDbEntity
  8
0
100
AcDbLine
 62
7
  6
CONTINUOUS
 10
10.0588497922
 20
14.8503960729
 11
10.0589006671
 21
14.851100089
  0
LINE
  5
3A3
100
AcDbEntity
  8
0
100
AcDbLine
 62
7
  6
CONTINUOUS
 10
10.1583057582
 20
14.9498497821
 11
10.158356818
 21
14.9505562398
  0
LINE
  5
3A4
100
AcDbEntity
  8
0
100
AcDbLine
 62
7
  6
CONTINUOUS
 10
10.2081343686
 20
15.0003337905
 11
10.2080835027
 21
14.9996299063
  0
LINE
  5
3A5
100
AcDbEntity
  8
0
100
AcDbLine
 62
7
  6
CONTINUOUS
 10
13.2094226038
 20
4.9902240319
 11
13.2844226038
 21
4.9152240319
  0
LINE
  5
3A6
100
AcDbEntity
  8
0
100
AcDbLine
 62
7
  6
CONTINUOUS
 10
7.0760815031
 20
12.9362487948
 11
7.1812284708
 21
12.793553993
  0
LINE
  5
3A7
100
AcDbEntity
  8
0
100
AcDbLine
 62
7
  6
CONTINUOUS
 10
7.1810121325
 20
12.7938531048
 11
7.1821349375
 21
12.7920534334
  0
LINE
  5
3A8
100
AcDbEntity
  8
0
100
AcDbLine
 62
7
  6
CONTINUOUS
 10
10.6224832631
 20
14.2656341655
 11
10.6225374057
 21
14.2663830478
  0
LINE
  5
3A9
100
AcDbEntity
  8
0
100
AcDbLine
 62
7
  6
CONTINUOUS
 10
10.6738131144
 20
14.3176639644
 11
10.6737585339
 21
14.3169094364
  0
LINE
  5
3AA
100
AcDbEntity
  8
0
100
AcDbLine
 62
7
  6
CONTINUOUS
 10
10.7250727324
 20
14.3689170636
 11
10.7250186981
 21
14.3681696006
  0
LINE
  5
3AB
100
AcDbEntity
  8
0
100
AcDbLine
 62
7
  6
CONTINUOUS
 10
10.7763558069
 20
14.4202013527
 11
10.7763016711
 21
14.4194525735
  0
LINE
  5
3AC
100
AcDbEntity
  8
0
100
AcDbLine
 62
7
  6
CONTINUOUS
 10
7.3787206625
 20
12.3586635308
 11
7.5314304499
 21
12.2059537434
  0
LINE
  5
3AD
100
AcDbEntity
  8
0
100
AcDbLine
 62
7
  6
CONTINUOUS
 10
7.5572529997
 20
12.1801311936
 11
7.7099688745
 21
12.0274153188
  0
LINE
  5
3AE
100
AcDbEntity
  8
0
100
AcDbLine
 62
7
  6
CONTINUOUS
 10
7.8097401602
 20
11.9276440331
 11
7.9624560279
 21
11.7749281654
  0
LINE
  5
3AF
100
AcDbEntity
  8
0
100
AcDbLine
 62
7
  6
CONTINUOUS
 10
7.9882784825
 20
11.7491057108
 11
8.1409884672
 21
11.5963957261
  0
LINE
  5
3B0
100
AcDbEntity
  8
0
100
AcDbLine
 62
9
  6
CONTINUOUS
 10
7.9763756295
 20
11.7691614928
 11
7.8039734876
 21
11.9415636347
  0
LINE
  5
3B1
100
AcDbEntity
  8
0
100
AcDbLine
 62
9
  6
CONTINUOUS
 10
7.7238884725
 20
12.0216486497
 11
7.5514863306
 21
12.1940507916
  0
LINE
  5
3B2
100
AcDbEntity
  8
0
100
AcDbLine
 62
9
  6
CONTINUOUS
 10
7.5453530917
 20
12.2001840306
 11
7.3729509498
 21
12.3725861725
  0
LINE
  5
3B3
100
AcDbEntity
  8
0
100
AcDbLine
 62
9
  6
CONTINUOUS
 10
7.7308483877
 20
12.0216486497
 11
7.8039734876
 21
11.9485235498
  0
LINE
  5
3B4
100
AcDbEntity
  8
0
100
AcDbLine
 62
9
  6
CONTINUOUS
 10
8.1664422853
 20
11.5906261119
 11
7.8039734876
 21
11.953094912
  0
LINE
  5
3B5
100
AcDbEntity
  8
0
100
AcDbLine
 62
9
  6
CONTINUOUS
 10
7.7354197475
 20
12.0216486497
 11
7.3729509498
 21
12.3841174498
  0
LINE
  5
3B6
100
AcDbEntity
  8
0
100
AcDbLine
 62
7
  6
CONTINUOUS
 10
7.318764954
 20
12.4464580889
 11
8.2287829268
 21
11.5364401162
  0
LINE
  5
3B7
100
AcDbEntity
  8
0
100
AcDbLine
 62
9
  6
CONTINUOUS
 10
8.2510214013
 20
11.5325190006
 11
7.3148438385
 21
12.4686965635
  0
LINE
  5
3B8
100
AcDbEntity
  8
0
100
AcDbLine
 62
9
  6
CONTINUOUS
 10
7.9825088684
 20
11.7630282538
 11
8.1549110103
 21
11.5906261119
  0
LINE
  5
3B9
100
AcDbEntity
  8
0
100
AcDbLine
 62
7
  6
CONTINUOUS
 10
6.6733056714
 20
13.5484243218
 11
6.6430927884
 21
13.5819791278
  0
LWPOLYLINE
  5
3BA
100
AcDbEntity
  8
0
100
AcDbPolyline
 62
7
  6
CONTINUOUS
 90
11
 70
0
 10
8.3238005624
 20
11.6223196761
 10
8.3237989515
 20
11.622322019
 10
8.3239106255
 20
11.6221140576
 10
8.3241531516
 20
11.6215687751
 10
8.324448382
 20
11.6206864851
 10
8.3247101906
 20
11.6194365438
 10
8.3248167617
 20
11.6177633604
 10
8.3245831165
 20
11.6156668372
 10
8.3238326933
 20
11.6133610097
 10
8.3225266148
 20
11.6111612823
 10
8.3215085538
 20
11.6099942469
  0
LINE
  5
3BB
100
AcDbEntity
  8
0
100
AcDbLine
 62
7
  6
CONTINUOUS
 10
9.3307491597
 20
10.8909808336
 11
9.3643039657
 21
10.8607679505
  0
LINE
  5
3BC
100
AcDbEntity
  8
0
100
AcDbLine
 62
7
  6
CONTINUOUS
 10
7.1612141433
 20
12.7248923149
 11
7.2989961109
 21
12.5871103473
  0
LINE
  5
3BD
100
AcDbEntity
  8
0
100
AcDbLine
 62
7
  6
CONTINUOUS
 10
7.3447950914
 20
12.5413113669
 11
7.3474613708
 21
12.5386450874
  0
LINE
  5
3BE
100
AcDbEntity
  8
0
100
AcDbLine
 62
7
  6
CONTINUOUS
 10
7.5983175473
 20
12.2877889109
 11
7.663777504
 21
12.2223289542
  0
LINE
  5
3BF
100
AcDbEntity
  8
0
100
AcDbLine
 62
7
  6
CONTINUOUS
 10
7.7512485277
 20
12.1348579305
 11
7.8167090637
 21
12.0693973945
  0
LINE
  5
3C0
100
AcDbEntity
  8
0
100
AcDbLine
 62
7
  6
CONTINUOUS
 10
7.9071639587
 20
11.9789424995
 11
7.9726251697
 21
11.9134812886
  0
LINE
  5
3C1
100
AcDbEntity
  8
0
100
AcDbLine
 62
7
  6
CONTINUOUS
 10
8.316190629
 20
11.5699158292
 11
8.3882175553
 21
11.4978889029
  0
LINE
  5
3C2
100
AcDbEntity
  8
0
100
AcDbLine
 62
7
  6
CONTINUOUS
 10
8.3930400035
 20
11.4930664547
 11
8.5002136686
 21
11.3858927896
  0
LINE
  5
3C3
100
AcDbEntity
  8
0
100
AcDbLine
 62
9
  6
CONTINUOUS
 10
7.341335487
 20
12.5496632052
 11
7.349017174
 21
12.5419815182
  0
LINE
  5
3C4
100
AcDbEntity
  8
0
100
AcDbLine
 62
9
  6
CONTINUOUS
 10
7.9809773027
 20
11.9100213895
 11
7.9037040596
 21
11.9872946326
  0
LINE
  5
3C5
100
AcDbEntity
  8
0
100
AcDbLine
 62
9
  6
CONTINUOUS
 10
7.8250615342
 20
12.065937158
 11
7.7477882912
 21
12.143210401
  0
LINE
  5
3C6
100
AcDbEntity
  8
0
100
AcDbLine
 62
9
  6
CONTINUOUS
 10
7.6721302649
 20
12.218868428
 11
7.5948570211
 21
12.2961416717
  0
LINE
  5
3C7
100
AcDbEntity
  8
0
100
AcDbLine
 62
9
  6
CONTINUOUS
 10
7.3073510784
 20
12.5836476138
 11
7.1577559819
 21
12.7332427578
  0
LINE
  5
3C8
100
AcDbEntity
  8
0
100
AcDbLine
 62
9
  6
CONTINUOUS
 10
7.3499079636
 20
12.5438918226
 11
7.5948570211
 21
12.2989427648
  0
LINE
  5
3C9
100
AcDbEntity
  8
0
100
AcDbLine
 62
9
  6
CONTINUOUS
 10
7.674931358
 20
12.218868428
 11
7.7477882912
 21
12.1460114948
  0
LINE
  5
3CA
100
AcDbEntity
  8
0
100
AcDbLine
 62
9
  6
CONTINUOUS
 10
7.827862628
 20
12.065937158
 11
7.9037040596
 21
11.9900957263
  0
LINE
  5
3CB
100
AcDbEntity
  8
0
100
AcDbLine
 62
9
  6
CONTINUOUS
 10
7.9837783965
 20
11.9100213895
 11
8.3127295
 21
11.5810702882
  0
LINE
  5
3CC
100
AcDbEntity
  8
0
100
AcDbLine
 62
9
  6
CONTINUOUS
 10
7.341335487
 20
12.5677174728
 11
7.3532390174
 21
12.5558139425
  0
LINE
  5
3CD
100
AcDbEntity
  8
0
100
AcDbLine
 62
9
  6
CONTINUOUS
 10
8.5266131245
 20
11.3824398354
 11
8.3127295
 21
11.5963234598
  0
LINE
  5
3CE
100
AcDbEntity
  8
0
100
AcDbLine
 62
9
  6
CONTINUOUS
 10
7.9990315704
 20
11.9100213895
 11
7.9037040596
 21
12.0053489002
  0
LINE
  5
3CF
100
AcDbEntity
  8
0
100
AcDbLine
 62
9
  6
CONTINUOUS
 10
7.8431158019
 20
12.065937158
 11
7.7477882912
 21
12.1612646687
  0
LINE
  5
3D0
100
AcDbEntity
  8
0
100
AcDbLine
 62
9
  6
CONTINUOUS
 10
7.6901845318
 20
12.218868428
 11
7.5948570211
 21
12.3141959387
  0
LINE
  5
3D1
100
AcDbEntity
  8
0
100
AcDbLine
 62
9
  6
CONTINUOUS
 10
7.325405346
 20
12.5836476138
 11
7.1577559819
 21
12.751296978
  0
LINE
  5
3D2
100
AcDbEntity
  8
0
100
AcDbLine
 62
9
  6
CONTINUOUS
 10
8.5349648412
 20
11.3858992041
 11
8.3161888688
 21
11.6046751766
  0
LINE
  5
3D3
100
AcDbEntity
  8
0
100
AcDbLine
 62
9
  6
CONTINUOUS
 10
8.0073832871
 20
11.9134807582
 11
7.9071634284
 21
12.013700617
  0
LINE
  5
3D4
100
AcDbEntity
  8
0
100
AcDbLine
 62
9
  6
CONTINUOUS
 10
7.8514675186
 20
12.0693965267
 11
7.7512476599
 21
12.1696163854
  0
LINE
  5
3D5
100
AcDbEntity
  8
0
100
AcDbLine
 62
9
  6
CONTINUOUS
 10
7.6985362486
 20
12.2223277967
 11
7.5983163899
 21
12.3225476555
  0
LINE
  5
3D6
100
AcDbEntity
  8
0
100
AcDbLine
 62
9
  6
CONTINUOUS
 10
7.3527636632
 20
12.5681003821
 11
7.3447948558
 21
12.5760691896
  0
LINE
  5
3D7
100
AcDbEntity
  8
0
100
AcDbLine
 62
9
  6
CONTINUOUS
 10
7.3337570628
 20
12.5871069826
 11
7.1612153506
 21
12.7596486947
  0
LINE
  5
3D8
100
AcDbEntity
  8
0
100
AcDbLine
 62
7
  6
CONTINUOUS
 10
7.3447325042
 20
12.585417968
 11
7.6029596033
 21
12.3271908689
  0
LINE
  5
3D9
100
AcDbEntity
  8
0
100
AcDbLine
 62
7
  6
CONTINUOUS
 10
7.7031794621
 20
12.2269710102
 11
7.7558908733
 21
12.1742595989
  0
LINE
  5
3DA
100
AcDbEntity
  8
0
100
AcDbLine
 62
7
  6
CONTINUOUS
 10
7.8561107321
 20
12.0740397401
 11
7.9119153543
 21
12.0182351179
  0
LINE
  5
3DB
100
AcDbEntity
  8
0
100
AcDbLine
 62
7
  6
CONTINUOUS
 10
8.0120265006
 20
11.9181239717
 11
8.3208320822
 21
11.60931839
  0
LINE
  5
3DC
100
AcDbEntity
  8
0
100
AcDbLine
 62
7
  6
CONTINUOUS
 10
7.0725308167
 20
12.949381855
 11
8.7317066928
 21
11.2902059789
  0
LINE
  5
3DD
100
AcDbEntity
  8
0
100
AcDbLine
 62
7
  6
CONTINUOUS
 10
8.8054528958
 20
11.2381568757
 11
7.0204817135
 21
13.0231280579
  0
LINE
  5
3DE
100
AcDbEntity
  8
0
100
AcDbLine
 62
7
  6
CONTINUOUS
 10
6.9049130165
 20
13.1458598112
 11
6.9657759857
 21
13.084996842
  0
LINE
  5
3DF
100
AcDbEntity
  8
0
100
AcDbLine
 62
7
  6
CONTINUOUS
 10
6.9717888634
 20
13.0789839643
 11
7.0326350462
 21
13.0181377815
  0
LINE
  5
3E0
100
AcDbEntity
  8
0
100
AcDbLine
 62
7
  6
CONTINUOUS
 10
7.1009668862
 20
12.9498059415
 11
7.1618130252
 21
12.8889598025
  0
LINE
  5
3E1
100
AcDbEntity
  8
0
100
AcDbLine
 62
7
  6
CONTINUOUS
 10
7.2836510144
 20
12.7671218132
 11
7.3444994586
 21
12.7062733691
  0
LINE
  5
3E2
100
AcDbEntity
  8
0
100
AcDbLine
 62
7
  6
CONTINUOUS
 10
7.5073943894
 20
12.5433784383
 11
7.5682418053
 21
12.4825310224
  0
LINE
  5
3E3
100
AcDbEntity
  8
0
100
AcDbLine
 62
7
  6
CONTINUOUS
 10
7.7569470703
 20
12.2938257574
 11
7.8177945934
 21
12.2329782343
  0
LINE
  5
3E4
100
AcDbEntity
  8
0
100
AcDbLine
 62
7
  6
CONTINUOUS
 10
8.015303069
 20
12.0354697586
 11
8.0761505983
 21
11.9746222294
  0
LINE
  5
3E5
100
AcDbEntity
  8
0
100
AcDbLine
 62
7
  6
CONTINUOUS
 10
8.2648558733
 20
11.7859169544
 11
8.3257032631
 21
11.7250695646
  0
LINE
  5
3E6
100
AcDbEntity
  8
0
100
AcDbLine
 62
7
  6
CONTINUOUS
 10
8.4885981692
 20
11.5621746585
 11
8.5494466887
 21
11.5013261389
  0
LINE
  5
3E7
100
AcDbEntity
  8
0
100
AcDbLine
 62
7
  6
CONTINUOUS
 10
8.6712845176
 20
11.37948831
 11
8.732130902
 21
11.3186419257
  0
LINE
  5
3E8
100
AcDbEntity
  8
0
100
AcDbLine
 62
7
  6
CONTINUOUS
 10
8.800462628
 20
11.2503101997
 11
8.8613087934
 21
11.1894640342
  0
LINE
  5
3E9
100
AcDbEntity
  8
0
100
AcDbLine
 62
7
  6
CONTINUOUS
 10
8.8673218135
 20
11.1834510142
 11
8.928172735
 21
11.1226000927
  0
LINE
  5
3EA
100
AcDbEntity
  8
0
100
AcDbLine
 62
9
  6
CONTINUOUS
 10
8.795804457
 20
11.2577961647
 11
8.7396167576
 21
11.3139838641
  0
LINE
  5
3EB
100
AcDbEntity
  8
0
100
AcDbLine
 62
9
  6
CONTINUOUS
 10
8.6666264561
 20
11.3869741656
 11
8.5569314767
 21
11.4966691449
  0
LINE
  5
3EC
100
AcDbEntity
  8
0
100
AcDbLine
 62
9
  6
CONTINUOUS
 10
8.4839411752
 20
11.5696594464
 11
8.3331886159
 21
11.7204120057
  0
LINE
  5
3ED
100
AcDbEntity
  8
0
100
AcDbLine
 62
9
  6
CONTINUOUS
 10
8.2601983144
 20
11.7934023072
 11
8.0836358814
 21
11.9699647403
  0
LINE
  5
3EE
100
AcDbEntity
  8
0
100
AcDbLine
 62
9
  6
CONTINUOUS
 10
8.0106455799
 20
12.0429550418
 11
7.8252798796
 21
12.2283207421
  0
LINE
  5
3EF
100
AcDbEntity
  8
0
100
AcDbLine
 62
9
  6
CONTINUOUS
 10
7.7522895781
 20
12.3013110436
 11
7.5757271451
 21
12.4778734766
  0
LINE
  5
3F0
100
AcDbEntity
  8
0
100
AcDbLine
 62
9
  6
CONTINUOUS
 10
7.5027368436
 20
12.5508637781
 11
7.3519842843
 21
12.7016163374
  0
LINE
  5
3F1
100
AcDbEntity
  8
0
100
AcDbLine
 62
9
  6
CONTINUOUS
 10
7.2789939828
 20
12.7746066389
 11
7.1692990034
 21
12.8843016182
  0
LINE
  5
3F2
100
AcDbEntity
  8
0
100
AcDbLine
 62
9
  6
CONTINUOUS
 10
7.0963087019
 20
12.9572919197
 11
7.0401210025
 21
13.0134796191
  0
LINE
  5
3F3
100
AcDbEntity
  8
0
100
AcDbLine
 62
9
  6
CONTINUOUS
 10
8.7460515687
 20
11.3128746133
 11
8.6655172053
 21
11.3934089767
  0
LINE
  5
3F4
100
AcDbEntity
  8
0
100
AcDbLine
 62
9
  6
CONTINUOUS
 10
8.5633662878
 20
11.4955598941
 11
8.4828319244
 21
11.5760942575
  0
LINE
  5
3F5
100
AcDbEntity
  8
0
100
AcDbLine
 62
9
  6
CONTINUOUS
 10
8.339623427
 20
11.7193027549
 11
8.2590890636
 21
11.7998371183
  0
LINE
  5
3F6
100
AcDbEntity
  8
0
100
AcDbLine
 62
9
  6
CONTINUOUS
 10
8.0900706925
 20
11.9688554895
 11
8.0095363291
 21
12.0493898529
  0
LINE
  5
3F7
100
AcDbEntity
  8
0
100
AcDbLine
 62
9
  6
CONTINUOUS
 10
7.8317146907
 20
12.2272114913
 11
7.7511803273
 21
12.3077458547
  0
LINE
  5
3F8
100
AcDbEntity
  8
0
100
AcDbLine
 62
9
  6
CONTINUOUS
 10
7.5821619562
 20
12.4767642258
 11
7.5016275928
 21
12.5572985892
  0
LINE
  5
3F9
100
AcDbEntity
  8
0
100
AcDbLine
 62
9
  6
CONTINUOUS
 10
7.3584190954
 20
12.7005070866
 11
7.277884732
 21
12.78104145
  0
LINE
  5
3FA
100
AcDbEntity
  8
0
100
AcDbLine
 62
9
  6
CONTINUOUS
 10
7.1757338145
 20
12.8831923674
 11
7.0951994511
 21
12.9637267308
  0
LINE
  5
3FB
100
AcDbEntity
  8
0
100
AcDbLine
 62
9
  6
CONTINUOUS
 10
7.0465558136
 20
13.0123703684
 11
6.8991539965
 21
13.1597721854
  0
LINE
  5
3FC
100
AcDbEntity
  8
0
100
AcDbLine
 62
9
  6
CONTINUOUS
 10
8.7575828398
 20
11.3128746133
 11
8.6655172053
 21
11.4049402478
  0
LINE
  5
3FD
100
AcDbEntity
  8
0
100
AcDbLine
 62
9
  6
CONTINUOUS
 10
8.3511546982
 20
11.7193027549
 11
8.2590890636
 21
11.8113683895
  0
LINE
  5
3FE
100
AcDbEntity
  8
0
100
AcDbLine
 62
9
  6
CONTINUOUS
 10
7.8432459618
 20
12.2272114913
 11
7.7511803273
 21
12.3192771258
  0
LINE
  5
3FF
100
AcDbEntity
  8
0
100
AcDbLine
 62
9
  6
CONTINUOUS
 10
7.3699503665
 20
12.7005070866
 11
7.277884732
 21
12.7925727211
  0
LINE
  5
400
100
AcDbEntity
  8
0
100
AcDbLine
 62
9
  6
CONTINUOUS
 10
7.0580870848
 20
13.0123703684
 11
6.8991539965
 21
13.1713034655
  0
LINE
  5
401
100
AcDbEntity
  8
0
100
AcDbLine
 62
9
  6
CONTINUOUS
 10
8.9536282944
 20
11.1168291587
 11
8.7946952062
 21
11.2757622469
  0
LINE
  5
402
100
AcDbEntity
  8
0
100
AcDbLine
 62
9
  6
CONTINUOUS
 10
8.574897559
 20
11.4955598941
 11
8.4828319244
 21
11.5876255287
  0
LINE
  5
403
100
AcDbEntity
  8
0
100
AcDbLine
 62
9
  6
CONTINUOUS
 10
8.1016019636
 20
11.9688554895
 11
8.0095363291
 21
12.0609211239
  0
LINE
  5
404
100
AcDbEntity
  8
0
100
AcDbLine
 62
9
  6
CONTINUOUS
 10
7.5936932273
 20
12.4767642258
 11
7.5016275928
 21
12.5688298603
  0
LINE
  5
405
100
AcDbEntity
  8
0
100
AcDbLine
 62
9
  6
CONTINUOUS
 10
7.1872650857
 20
12.8831923674
 11
7.0951994511
 21
12.975258002
  0
LINE
  5
406
100
AcDbEntity
  8
0
100
AcDbLine
 62
9
  6
CONTINUOUS
 10
8.7968150722
 20
11.2846375292
 11
8.7664581221
 21
11.3149944793
  0
LINE
  5
407
100
AcDbEntity
  8
0
100
AcDbLine
 62
9
  6
CONTINUOUS
 10
8.6676370713
 20
11.4138155302
 11
8.5837728413
 21
11.4976797602
  0
LINE
  5
408
100
AcDbEntity
  8
0
100
AcDbLine
 62
9
  6
CONTINUOUS
 10
8.4849517904
 20
11.596500811
 11
8.3600299805
 21
11.7214226209
  0
LINE
  5
409
100
AcDbEntity
  8
0
100
AcDbLine
 62
9
  6
CONTINUOUS
 10
8.2612089296
 20
11.8202436718
 11
8.110477246
 21
11.9709753555
  0
LINE
  5
40A
100
AcDbEntity
  8
0
100
AcDbLine
 62
9
  6
CONTINUOUS
 10
8.0116561951
 20
12.0697964063
 11
7.8521212441
 21
12.2293313573
  0
LINE
  5
40B
100
AcDbEntity
  8
0
100
AcDbLine
 62
9
  6
CONTINUOUS
 10
7.7533001933
 20
12.3281524081
 11
7.6025685096
 21
12.4788840918
  0
LINE
  5
40C
100
AcDbEntity
  8
0
100
AcDbLine
 62
9
  6
CONTINUOUS
 10
7.5037474588
 20
12.5777051427
 11
7.3788256488
 21
12.7026269526
  0
LINE
  5
40D
100
AcDbEntity
  8
0
100
AcDbLine
 62
9
  6
CONTINUOUS
 10
7.280004598
 20
12.8014480035
 11
7.196140368
 21
12.8853122335
  0
LINE
  5
40E
100
AcDbEntity
  8
0
100
AcDbLine
 62
9
  6
CONTINUOUS
 10
7.0973193171
 20
12.9841332843
 11
7.0669623671
 21
13.0144902344
  0
LINE
  5
40F
100
AcDbEntity
  8
0
100
AcDbLine
 62
9
  6
CONTINUOUS
 10
8.9675481332
 20
11.1225947733
 11
8.8004608207
 21
11.2896820857
  0
LINE
  5
410
100
AcDbEntity
  8
0
100
AcDbLine
 62
9
  6
CONTINUOUS
 10
8.7715026786
 20
11.3186402278
 11
8.6712828198
 21
11.4188600866
  0
LINE
  5
411
100
AcDbEntity
  8
0
100
AcDbLine
 62
9
  6
CONTINUOUS
 10
8.5888173977
 20
11.5013255087
 11
8.488597539
 21
11.6015453674
  0
LINE
  5
412
100
AcDbEntity
  8
0
100
AcDbLine
 62
9
  6
CONTINUOUS
 10
8.3650745369
 20
11.7250683695
 11
8.2648546782
 21
11.8252882282
  0
LINE
  5
413
100
AcDbEntity
  8
0
100
AcDbLine
 62
9
  6
CONTINUOUS
 10
8.1155218024
 20
11.974621104
 11
8.0153019437
 21
12.0748409628
  0
LINE
  5
414
100
AcDbEntity
  8
0
100
AcDbLine
 62
9
  6
CONTINUOUS
 10
7.8571658006
 20
12.2329771058
 11
7.7569459418
 21
12.3331969646
  0
LINE
  5
415
100
AcDbEntity
  8
0
100
AcDbLine
 62
9
  6
CONTINUOUS
 10
7.6076130661
 20
12.4825298404
 11
7.5073932073
 21
12.5827496991
  0
LINE
  5
416
100
AcDbEntity
  8
0
100
AcDbLine
 62
9
  6
CONTINUOUS
 10
7.3838702053
 20
12.7062727011
 11
7.2836503465
 21
12.8064925599
  0
LINE
  5
417
100
AcDbEntity
  8
0
100
AcDbLine
 62
9
  6
CONTINUOUS
 10
7.2011849244
 20
12.888957982
 11
7.1009650657
 21
12.9891778407
  0
LINE
  5
418
100
AcDbEntity
  8
0
100
AcDbLine
 62
9
  6
CONTINUOUS
 10
7.0720069235
 20
13.0181359829
 11
6.9049196111
 21
13.1852232953
  0
LINE
  5
419
100
AcDbEntity
  8
0
100
AcDbLine
 62
7
  6
CONTINUOUS
 10
7.0801392843
 20
13.0262683436
 11
7.1090974264
 21
12.9973102015
  0
LINE
  5
41A
100
AcDbEntity
  8
0
100
AcDbLine
 62
7
  6
CONTINUOUS
 10
7.2093172852
 20
12.8970903427
 11
7.2917827073
 21
12.8146249206
  0
LINE
  5
41B
100
AcDbEntity
  8
0
100
AcDbLine
 62
7
  6
CONTINUOUS
 10
7.392002566
 20
12.7144050619
 11
7.515525568
 21
12.5908820598
  0
LINE
  5
41C
100
AcDbEntity
  8
0
100
AcDbLine
 62
7
  6
CONTINUOUS
 10
7.6157454268
 20
12.4906622011
 11
7.7650783026
 21
12.3413293253
  0
LINE
  5
41D
100
AcDbEntity
  8
0
100
AcDbLine
 62
7
  6
CONTINUOUS
 10
7.8652981613
 20
12.2411094666
 11
8.0234343044
 21
12.0829733235
  0
LINE
  5
41E
100
AcDbEntity
  8
0
100
AcDbLine
 62
7
  6
CONTINUOUS
 10
8.1236541631
 20
11.9827534647
 11
8.2729870389
 21
11.833420589
  0
LINE
  5
41F
100
AcDbEntity
  8
0
100
AcDbLine
 62
7
  6
CONTINUOUS
 10
8.3732068977
 20
11.7332007302
 11
8.4967298997
 21
11.6096777282
  0
LINE
  5
420
100
AcDbEntity
  8
0
100
AcDbLine
 62
7
  6
CONTINUOUS
 10
8.5969497585
 20
11.5094578694
 11
8.6794151806
 21
11.4269924473
  0
LINE
  5
421
100
AcDbEntity
  8
0
100
AcDbLine
 62
7
  6
CONTINUOUS
 10
8.7796350393
 20
11.3267725886
 11
8.8085931815
 21
11.2978144464
  0
LINE
  5
422
100
AcDbEntity
  8
0
100
AcDbLine
 62
7
  6
CONTINUOUS
 10
6.7657579572
 20
13.3437714393
 11
6.8822068862
 21
13.2273225103
  0
LINE
  5
423
100
AcDbEntity
  8
0
100
AcDbLine
 62
7
  6
CONTINUOUS
 10
6.9186788817
 20
13.1908505149
 11
6.9962249697
 21
13.1133044268
  0
LINE
  5
424
100
AcDbEntity
  8
0
100
AcDbLine
 62
7
  6
CONTINUOUS
 10
7.1000646207
 20
13.0094647758
 11
7.1776163853
 21
12.9319130113
  0
LINE
  5
425
100
AcDbEntity
  8
0
100
AcDbLine
 62
7
  6
CONTINUOUS
 10
7.3364549475
 20
12.773074449
 11
7.4140064511
 21
12.6955229455
  0
LINE
  5
426
100
AcDbEntity
  8
0
100
AcDbLine
 62
7
  6
CONTINUOUS
 10
7.6117377681
 20
12.4977916284
 11
7.6892880586
 21
12.420241338
  0
LINE
  5
427
100
AcDbEntity
  8
0
100
AcDbLine
 62
7
  6
CONTINUOUS
 10
7.9071519668
 20
12.2023774298
 11
7.9847022676
 21
12.1248271289
  0
LINE
  5
428
100
AcDbEntity
  8
0
100
AcDbLine
 62
7
  6
CONTINUOUS
 10
8.2025661198
 20
11.9069632767
 11
8.2801165222
 21
11.8294128743
  0
LINE
  5
429
100
AcDbEntity
  8
0
100
AcDbLine
 62
7
  6
CONTINUOUS
 10
8.4778478
 20
11.6316815965
 11
8.5553992701
 21
11.5541301264
  0
LINE
  5
42A
100
AcDbEntity
  8
0
100
AcDbLine
 62
7
  6
CONTINUOUS
 10
8.7142378095
 20
11.395291587
 11
8.7917896532
 21
11.3177397433
  0
LINE
  5
42B
100
AcDbEntity
  8
0
100
AcDbLine
 62
7
  6
CONTINUOUS
 10
8.8956291107
 20
11.2139002858
 11
8.9731755066
 21
11.1363538899
  0
LINE
  5
42C
100
AcDbEntity
  8
0
100
AcDbLine
 62
7
  6
CONTINUOUS
 10
9.009647517
 20
11.0998818796
 11
9.0872083534
 21
11.0223210431
  0
LINE
  5
42D
100
AcDbEntity
  8
0
100
AcDbLine
 62
9
  6
CONTINUOUS
 10
9.1011235121
 20
11.0165593019
 11
9.0038857757
 21
11.1137970383
  0
LINE
  5
42E
100
AcDbEntity
  8
0
100
AcDbLine
 62
9
  6
CONTINUOUS
 10
8.9870978856
 20
11.1305849284
 11
8.8898601492
 21
11.2278226648
  0
LINE
  5
42F
100
AcDbEntity
  8
0
100
AcDbLine
 62
9
  6
CONTINUOUS
 10
8.8057093083
 20
11.3119735057
 11
8.7084715719
 21
11.4092112421
  0
LINE
  5
430
100
AcDbEntity
  8
0
100
AcDbLine
 62
9
  6
CONTINUOUS
 10
8.569319112
 20
11.548363702
 11
8.4720813756
 21
11.6456014384
  0
LINE
  5
431
100
AcDbEntity
  8
0
100
AcDbLine
 62
9
  6
CONTINUOUS
 10
8.2940368979
 20
11.8236459161
 11
8.1967991616
 21
11.9208836524
  0
LINE
  5
432
100
AcDbEntity
  8
0
100
AcDbLine
 62
9
  6
CONTINUOUS
 10
7.9986226941
 20
12.1190601199
 11
7.9013849577
 21
12.2162978563
  0
LINE
  5
433
100
AcDbEntity
  8
0
100
AcDbLine
 62
9
  6
CONTINUOUS
 10
7.7032084903
 20
12.4144743237
 11
7.6059707539
 21
12.5117120601
  0
LINE
  5
434
100
AcDbEntity
  8
0
100
AcDbLine
 62
9
  6
CONTINUOUS
 10
7.4279262762
 20
12.6897565378
 11
7.3306885398
 21
12.7869942742
  0
LINE
  5
435
100
AcDbEntity
  8
0
100
AcDbLine
 62
9
  6
CONTINUOUS
 10
7.1915360799
 20
12.9261467341
 11
7.0942983436
 21
13.0233844704
  0
LINE
  5
436
100
AcDbEntity
  8
0
100
AcDbLine
 62
9
  6
CONTINUOUS
 10
7.0101475026
 20
13.1075353114
 11
6.9129097663
 21
13.2047730478
  0
LINE
  5
437
100
AcDbEntity
  8
0
100
AcDbLine
 62
9
  6
CONTINUOUS
 10
6.759992122
 20
13.3576907286
 11
6.8961218761
 21
13.2215609379
  0
LINE
  5
438
100
AcDbEntity
  8
0
100
AcDbLine
 62
9
  6
CONTINUOUS
 10
7.0216782797
 20
13.1075353114
 11
6.9201958751
 21
13.209017716
  0
LINE
  5
439
100
AcDbEntity
  8
0
100
AcDbLine
 62
9
  6
CONTINUOUS
 10
6.759992122
 20
13.3692219624
 11
6.9076526532
 21
13.2215609379
  0
LINE
  5
43A
100
AcDbEntity
  8
0
100
AcDbLine
 62
9
  6
CONTINUOUS
 10
9.1126542892
 20
11.0165593019
 11
9.0038857757
 21
11.1253278154
  0
LINE
  5
43B
100
AcDbEntity
  8
0
100
AcDbLine
 62
9
  6
CONTINUOUS
 10
8.9986286627
 20
11.1305849284
 11
8.8898601492
 21
11.2393534419
  0
LINE
  5
43C
100
AcDbEntity
  8
0
100
AcDbLine
 62
9
  6
CONTINUOUS
 10
8.8172400854
 20
11.3119735057
 11
8.7084715719
 21
11.4207420192
  0
LINE
  5
43D
100
AcDbEntity
  8
0
100
AcDbLine
 62
9
  6
CONTINUOUS
 10
8.5808498891
 20
11.548363702
 11
8.4720813756
 21
11.6571322155
  0
LINE
  5
43E
100
AcDbEntity
  8
0
100
AcDbLine
 62
9
  6
CONTINUOUS
 10
8.3055676751
 20
11.8236459161
 11
8.1967991616
 21
11.9324144295
  0
LINE
  5
43F
100
AcDbEntity
  8
0
100
AcDbLine
 62
9
  6
CONTINUOUS
 10
8.0101534714
 20
12.1190601199
 11
7.9013849577
 21
12.2278286336
  0
LINE
  5
440
100
AcDbEntity
  8
0
100
AcDbLine
 62
9
  6
CONTINUOUS
 10
7.7147392674
 20
12.4144743237
 11
7.6059707539
 21
12.5232428372
  0
LINE
  5
441
100
AcDbEntity
  8
0
100
AcDbLine
 62
9
  6
CONTINUOUS
 10
7.4394570533
 20
12.6897565378
 11
7.3306885398
 21
12.7985250513
  0
LINE
  5
442
100
AcDbEntity
  8
0
100
AcDbLine
 62
9
  6
CONTINUOUS
 10
7.203066857
 20
12.9261467341
 11
7.0942983436
 21
13.0349152476
  0
LINE
  5
443
100
AcDbEntity
  8
0
100
AcDbLine
 62
9
  6
CONTINUOUS
 10
6.9201959317
 20
13.2090185042
 11
6.9129097663
 21
13.2163038249
  0
LINE
  5
444
100
AcDbEntity
  8
0
100
AcDbLine
 62
9
  6
CONTINUOUS
 10
9.1265745588
 20
11.0223249164
 11
8.8956257638
 21
11.2532737115
  0
LINE
  5
445
100
AcDbEntity
  8
0
100
AcDbLine
 62
9
  6
CONTINUOUS
 10
8.831160355
 20
11.3177391203
 11
8.7142371864
 21
11.4346622888
  0
LINE
  5
446
100
AcDbEntity
  8
0
100
AcDbLine
 62
9
  6
CONTINUOUS
 10
8.5947701587
 20
11.5541293166
 11
8.4778469902
 21
11.6710524851
  0
LINE
  5
447
100
AcDbEntity
  8
0
100
AcDbLine
 62
9
  6
CONTINUOUS
 10
8.3194879447
 20
11.8294115306
 11
8.2025647761
 21
11.9463346991
  0
LINE
  5
448
100
AcDbEntity
  8
0
100
AcDbLine
 62
9
  6
CONTINUOUS
 10
8.0240737408
 20
12.1248257344
 11
7.9071505723
 21
12.241748903
  0
LINE
  5
449
100
AcDbEntity
  8
0
100
AcDbLine
 62
9
  6
CONTINUOUS
 10
7.728659537
 20
12.4202399383
 11
7.6117363684
 21
12.5371631068
  0
LINE
  5
44A
100
AcDbEntity
  8
0
100
AcDbLine
 62
9
  6
CONTINUOUS
 10
7.4533773229
 20
12.6955221523
 11
7.3364541544
 21
12.8124453209
  0
LINE
  5
44B
100
AcDbEntity
  8
0
100
AcDbLine
 62
9
  6
CONTINUOUS
 10
7.2169871266
 20
12.9319123486
 11
7.1000639581
 21
13.0488355172
  0
LINE
  5
44C
100
AcDbEntity
  8
0
100
AcDbLine
 62
9
  6
CONTINUOUS
 10
7.0355985493
 20
13.1133009259
 11
6.7657577365
 21
13.3831417388
  0
LINE
  5
44D
100
AcDbEntity
  8
0
100
AcDbLine
 62
7
  6
CONTINUOUS
 10
6.7418181163
 20
13.4564654371
 11
9.237431761
 21
10.9608517924
  0
LINE
  5
44E
100
AcDbEntity
  8
0
100
AcDbLine
 62
7
  6
CONTINUOUS
 10
6.7400553966
 20
13.4585727007
 11
9.2389906461
 21
10.9596374511
  0
LINE
  5
44F
100
AcDbEntity
  8
0
100
AcDbLine
 62
7
  6
CONTINUOUS
 10
9.3307491597
 20
10.8909808336
 11
6.6733056714
 21
13.5484243218
  0
LINE
  5
450
100
AcDbEntity
  8
0
100
AcDbLine
 62
9
  6
CONTINUOUS
 10
6.6430927884
 20
13.5819791278
 11
9.3643039657
 21
10.8607679505
  0
LINE
  5
451
100
AcDbEntity
  8
0
100
AcDbLine
 62
9
  6
CONTINUOUS
 10
6.6459758319
 20
13.6920781188
 11
9.4744029567
 21
10.8636509941
  0
LINE
  5
452
100
AcDbEntity
  8
0
100
AcDbLine
 62
9
  6
CONTINUOUS
 10
8.3127295
 20
11.5782691921
 11
8.5085588559
 21
11.3824398354
  0
LINE
  5
453
100
AcDbEntity
  8
0
100
AcDbLine
 62
7
  6
CONTINUOUS
 10
8.7185736326
 20
11.2937566653
 11
7.0760815031
 21
12.9362487948
  0
LINE
  5
454
100
AcDbEntity
  8
0
100
AcDbLine
 62
9
  6
CONTINUOUS
 10
8.7946952062
 20
11.2642309758
 11
8.9420970332
 21
11.1168291587
  0
LINE
  5
455
100
AcDbEntity
  8
0
100
AcDbLine
 62
7
  6
CONTINUOUS
 10
9.2374317568
 20
10.9608517967
 11
9.2373111871
 21
10.9609749861
  0
LINE
  5
456
100
AcDbEntity
  8
0
100
AcDbLine
 62
7
  6
CONTINUOUS
 10
11.6664226038
 20
3.7777240319
 11
11.6664226038
 21
4.3027240319
  0
LINE
  5
457
100
AcDbEntity
  8
0
100
AcDbLine
 62
9
  6
CONTINUOUS
 10
11.6964226038
 20
4.3027240319
 11
11.6964226038
 21
3.7777240319
  0
LINE
  5
458
100
AcDbEntity
  8
0
100
AcDbLine
 62
7
  6
CONTINUOUS
 10
11.7164226038
 20
3.7277240319
 11
11.7164226038
 21
4.3527240319
  0
LINE
  5
459
100
AcDbEntity
  8
0
100
AcDbLine
 62
7
  6
CONTINUOUS
 10
11.7914226038
 20
3.6402240319
 11
11.7914226038
 21
4.4402240319
  0
LINE
  5
45A
100
AcDbEntity
  8
0
100
AcDbLine
 62
9
  6
CONTINUOUS
 10
11.8324186627
 20
1.1902240319
 11
11.8324186627
 21
1.2316266775
  0
LINE
  5
45B
100
AcDbEntity
  8
0
100
AcDbLine
 62
9
  6
CONTINUOUS
 10
10.0712596529
 20
11.4605076904
 11
7.2428325282
 21
14.2889348151
  0
LINE
  5
45C
100
AcDbEntity
  8
0
100
AcDbLine
 62
7
  6
CONTINUOUS
 10
10.2520834298
 20
15.0127546587
 11
10.2454207387
 21
15.0376201605
  0
LINE
  5
45D
100
AcDbEntity
  8
0
100
AcDbLine
 62
7
  6
CONTINUOUS
 10
10.0588497922
 20
14.8503960728
 11
10.0674288096
 21
14.8183106824
  0
LINE
  5
45E
100
AcDbEntity
  8
0
100
AcDbLine
 62
7
  6
CONTINUOUS
 10
10.1086580173
 20
14.9001977729
 11
10.116724211
 21
14.8700299867
  0
LINE
  5
45F
100
AcDbEntity
  8
0
100
AcDbLine
 62
7
  6
CONTINUOUS
 10
10.1583057585
 20
14.9498497824
 11
10.165743875
 21
14.9220317326
  0
LINE
  5
460
100
AcDbEntity
  8
0
100
AcDbLine
 62
7
  6
CONTINUOUS
 10
10.2080835027
 20
14.9996299063
 11
10.2149880728
 21
14.9738077328
  0
LINE
  5
461
100
AcDbEntity
  8
0
100
AcDbLine
 62
7
  6
CONTINUOUS
 10
10.6225374057
 20
14.2663830478
 11
10.6142548996
 21
14.2973635041
  0
LWPOLYLINE
  5
462
100
AcDbEntity
  8
0
100
AcDbPolyline
 62
7
  6
CONTINUOUS
 90
4
 70
0
 10
12.2240004815
 20
1.230238683
 10
12.2217937018
 20
1.9520653777
 10
12.2168237851
 20
2.7516667459
 10
12.2122987612
 20
3.5850356943
  0
LINE
  5
463
100
AcDbEntity
  8
0
100
AcDbLine
 62
9
  6
CONTINUOUS
 10
12.1667503636
 20
1.1902240319
 11
12.1667503636
 21
1.2316266775
  0
LINE
  5
464
100
AcDbEntity
  8
0
100
AcDbLine
 62
7
  6
CONTINUOUS
 10
12.2664226038
 20
3.6402240245
 11
12.2664226038
 21
4.4402240319
  0
LINE
  5
465
100
AcDbEntity
  8
0
100
AcDbLine
 62
9
  6
CONTINUOUS
 10
12.2864226038
 20
4.3527240319
 11
12.2864226038
 21
3.7277240319
  0
LINE
  5
466
100
AcDbEntity
  8
0
100
AcDbLine
 62
9
  6
CONTINUOUS
 10
12.5474226038
 20
15.6339740319
 11
12.5474226038
 21
16.4464740319
  0
LINE
  5
467
100
AcDbEntity
  8
0
100
AcDbLine
 62
7
  6
CONTINUOUS
 10
12.5794226038
 20
3.7277240319
 11
12.5794226038
 21
4.3527240319
  0
LINE
  5
468
100
AcDbEntity
  8
0
100
AcDbLine
 62
7
  6
CONTINUOUS
 10
12.6094226038
 20
4.4402240319
 11
12.6094226038
 21
3.6402240319
  0
LINE
  5
469
100
AcDbEntity
  8
0
100
AcDbLine
 62
7
  6
CONTINUOUS
 10
12.212298862
 20
3.5850368514
 11
12.2124160698
 21
3.5888256474
  0
LWPOLYLINE
  5
46A
100
AcDbEntity
  8
0
100
AcDbPolyline
 62
7
  6
CONTINUOUS
 90
4
 70
0
 10
11.8486077203
 20
3.5835859722
 10
11.8222389599
 20
2.7511684823
 10
11.7963118503
 20
1.9524114952
 10
11.7751788054
 20
1.231288397
  0
LWPOLYLINE
  5
46B
100
AcDbEntity
  8
0
100
AcDbPolyline
 62
7
  6
CONTINUOUS
 90
5
 70
0
 10
8.5656431051
 20
11.4073818486
 10
8.5663942494
 20
11.4070927714
 10
8.5668588148
 20
11.4068781386
 10
8.5670880283
 20
11.4067589647
 10
8.5671447158
 20
11.4067273061
  0
LINE
  5
46C
100
AcDbEntity
  8
0
100
AcDbLine
 62
7
  6
CONTINUOUS
 10
10.0712596528
 20
11.5736447755
 11
7.3559696134
 21
14.2889348149
  0
LINE
  5
46D
100
AcDbEntity
  8
0
100
AcDbLine
 62
9
  6
CONTINUOUS
 10
9.517498764
 20
12.1602198131
 11
7.9425446509
 21
13.7351739262
  0
LINE
  5
46E
100
AcDbEntity
  8
0
100
AcDbLine
 62
7
  6
CONTINUOUS
 10
10.6738131146
 20
14.3176639645
 11
10.6660917942
 21
14.346545488
  0
LINE
  5
46F
100
AcDbEntity
  8
0
100
AcDbLine
 62
7
  6
CONTINUOUS
 10
10.7250727324
 20
14.3689170636
 11
10.7178988299
 21
14.3957501251
  0
LINE
  5
470
100
AcDbEntity
  8
0
100
AcDbLine
 62
7
  6
CONTINUOUS
 10
10.7763558069
 20
14.4202013526
 11
10.7697477924
 21
14.4449176092
  0
LINE
  5
471
100
AcDbEntity
  8
0
100
AcDbLine
 62
7
  6
CONTINUOUS
 10
12.7094226038
 20
4.7902240319
 11
12.7094226038
 21
3.2902240319
  0
LINE
  5
472
100
AcDbEntity
  8
0
100
AcDbLine
 62
7
  6
CONTINUOUS
 10
12.7594226038
 20
4.8902240319
 11
12.7594226038
 21
3.1902240319
  0
LINE
  5
473
100
AcDbEntity
  8
0
100
AcDbLine
 62
7
  6
CONTINUOUS
 10
12.8594226038
 20
4.9902240319
 11
12.8594226038
 21
3.0902240319
  0
LINE
  5
474
100
AcDbEntity
  8
0
100
AcDbLine
 62
7
  6
CONTINUOUS
 10
12.9094226038
 20
5.0652240319
 11
12.9094226038
 21
3.0152240319
  0
LINE
  5
475
100
AcDbEntity
  8
0
100
AcDbLine
 62
7
  6
CONTINUOUS
 10
13.1094226038
 20
5.0652240319
 11
13.1094226038
 21
3.0152240319
  0
LINE
  5
476
100
AcDbEntity
  8
0
100
AcDbLine
 62
7
  6
CONTINUOUS
 10
13.2094226038
 20
4.9902240319
 11
13.2094226038
 21
3.0902240319
  0
LWPOLYLINE
  5
477
100
AcDbEntity
  8
0
100
AcDbPolyline
 62
7
  6
CONTINUOUS
 90
5
 70
0
 10
12.2124056561
 20
3.5886625505
 10
12.2134041883
 20
3.5962040175
 10
12.2154315463
 20
3.6035291843
 10
12.2184986772
 20
3.6105999136
 10
12.2225618627
 20
3.6172253359
  0
LINE
  5
478
100
AcDbEntity
  8
0
100
AcDbLine
 62
7
  6
CONTINUOUS
 10
9.1126542892
 20
11.0165593019
 11
9.1011235121
 21
11.0165593019
  0
LINE
  5
479
100
AcDbEntity
  8
0
100
AcDbLine
 62
7
  6
CONTINUOUS
 10
8.9536282944
 20
11.1168291587
 11
8.9420970332
 21
11.1168291587
  0
LINE
  5
47A
100
AcDbEntity
  8
0
100
AcDbLine
 62
7
  6
CONTINUOUS
 10
8.9986286627
 20
11.1305849284
 11
8.9870978856
 21
11.1305849284
  0
LINE
  5
47B
100
AcDbEntity
  8
0
100
AcDbLine
 62
7
  6
CONTINUOUS
 10
8.8867608407
 20
11.1836966124
 11
8.8752295696
 21
11.1836966124
  0
LINE
  5
47C
100
AcDbEntity
  8
0
100
AcDbLine
 62
7
  6
CONTINUOUS
 10
8.8172400854
 20
11.3119735057
 11
8.8057093083
 21
11.3119735057
  0
LINE
  5
47D
100
AcDbEntity
  8
0
100
AcDbLine
 62
7
  6
CONTINUOUS
 10
8.7575828398
 20
11.3128746133
 11
8.7460515687
 21
11.3128746133
  0
LINE
  5
47E
100
AcDbEntity
  8
0
100
AcDbLine
 62
7
  6
CONTINUOUS
 10
8.5266131245
 20
11.3824398354
 11
8.5085588559
 21
11.3824398354
  0
LINE
  5
47F
100
AcDbEntity
  8
0
100
AcDbLine
 62
7
  6
CONTINUOUS
 10
8.4849067525
 20
11.4241462074
 11
8.4668524849
 21
11.4241462074
  0
LINE
  5
480
100
AcDbEntity
  8
0
100
AcDbLine
 62
7
  6
CONTINUOUS
 10
8.574897559
 20
11.4955598941
 11
8.5633662878
 21
11.4955598941
  0
LINE
  5
481
100
AcDbEntity
  8
0
100
AcDbLine
 62
7
  6
CONTINUOUS
 10
8.4080570108
 20
11.5009959491
 11
8.3900027431
 21
11.5009959491
  0
LINE
  5
482
100
AcDbEntity
  8
0
100
AcDbLine
 62
9
  6
CONTINUOUS
 10
9.5141927789
 20
12.9775383364
 11
8.7598631742
 21
13.7318679411
  0
LINE
  5
483
100
AcDbEntity
  8
0
100
AcDbLine
 62
7
  6
CONTINUOUS
 10
9.5529498938
 20
12.9574532347
 11
8.7397780725
 21
13.7706250559
  0
LINE
  5
484
100
AcDbEntity
  8
0
100
AcDbLine
 62
7
  6
CONTINUOUS
 10
13.2844226038
 20
4.9152240319
 11
13.2844226038
 21
3.1652240319
  0
LINE
  5
485
100
AcDbEntity
  8
0
100
AcDbLine
 62
7
  6
CONTINUOUS
 10
13.8094226038
 20
3.1152240319
 11
13.8094226038
 21
4.9652240319
  0
LWPOLYLINE
  5
486
100
AcDbEntity
  8
0
100
AcDbPolyline
 62
7
  6
CONTINUOUS
 90
4
 70
0
 10
12.2133546311
 20
3.5959576436
 10
12.2153386265
 20
3.6032635906
 10
12.2183738416
 20
3.6103582943
 10
12.2224238997
 20
3.6170315242
  0
LINE
  5
487
100
AcDbEntity
  8
0
100
AcDbLine
 62
7
  6
CONTINUOUS
 10
8.5808498891
 20
11.548363702
 11
8.569319112
 21
11.548363702
  0
LINE
  5
488
100
AcDbEntity
  8
0
100
AcDbLine
 62
7
  6
CONTINUOUS
 10
8.1664422853
 20
11.5906261119
 11
8.1549110103
 21
11.5906261119
  0
LINE
  5
489
100
AcDbEntity
  8
0
100
AcDbLine
 62
7
  6
CONTINUOUS
 10
8.3511546982
 20
11.7193027549
 11
8.339623427
 21
11.7193027549
  0
LINE
  5
48A
100
AcDbEntity
  8
0
100
AcDbLine
 62
7
  6
CONTINUOUS
 10
7.9879069068
 20
11.7691614928
 11
7.9763756295
 21
11.7691614928
  0
LINE
  5
48B
100
AcDbEntity
  8
0
100
AcDbLine
 62
7
  6
CONTINUOUS
 10
8.3055676751
 20
11.8236459161
 11
8.2940368979
 21
11.8236459161
  0
LINE
  5
48C
100
AcDbEntity
  8
0
100
AcDbLine
 62
7
  6
CONTINUOUS
 10
7.9990315704
 20
11.9100213895
 11
7.9809773027
 21
11.9100213895
  0
LINE
  5
48D
100
AcDbEntity
  8
0
100
AcDbLine
 62
7
  6
CONTINUOUS
 10
8.1016019636
 20
11.9688554895
 11
8.0900706925
 21
11.9688554895
  0
LINE
  5
48E
100
AcDbEntity
  8
0
100
AcDbLine
 62
7
  6
CONTINUOUS
 10
7.7354197475
 20
12.0216486497
 11
7.7238884725
 21
12.0216486497
  0
LINE
  5
48F
100
AcDbEntity
  8
0
100
AcDbLine
 62
7
  6
CONTINUOUS
 10
7.8431158019
 20
12.065937158
 11
7.8250615342
 21
12.065937158
  0
LINE
  5
490
100
AcDbEntity
  8
0
100
AcDbLine
 62
7
  6
CONTINUOUS
 10
8.0101534714
 20
12.1190601199
 11
7.9986226941
 21
12.1190601199
  0
LINE
  5
491
100
AcDbEntity
  8
0
100
AcDbLine
 62
7
  6
CONTINUOUS
 10
9.2860448506
 20
14.0587442797
 11
9.1674594383
 21
14.177329692
  0
LINE
  5
492
100
AcDbEntity
  8
0
100
AcDbLine
 62
7
  6
CONTINUOUS
 10
10.2176305692
 20
13.6221333079
 11
9.4044581457
 21
14.4353057314
  0
LINE
  5
493
100
AcDbEntity
  8
0
100
AcDbLine
 62
9
  6
CONTINUOUS
 10
10.1331671074
 20
13.8620628588
 11
9.6443876967
 21
14.3508422695
  0
LINE
  5
494
100
AcDbEntity
  8
0
100
AcDbLine
 62
9
  6
CONTINUOUS
 10
10.2131670992
 20
13.9420989389
 11
9.7244237768
 21
14.4308422614
  0
LINE
  5
495
100
AcDbEntity
  8
0
100
AcDbLine
 62
7
  6
CONTINUOUS
 10
13.9094226038
 20
2.9652240319
 11
13.9094226038
 21
5.1152240319
  0
LINE
  5
496
100
AcDbEntity
  8
0
100
AcDbLine
 62
7
  6
CONTINUOUS
 10
14.0094226038
 20
5.2893812074
 11
14.0094226038
 21
5.2902054474
  0
LINE
  5
497
100
AcDbEntity
  8
0
100
AcDbLine
 62
7
  6
CONTINUOUS
 10
14.0094226038
 20
2.7902426164
 11
14.0094226038
 21
5.2892061098
  0
LINE
  5
498
100
AcDbEntity
  8
0
100
AcDbLine
 62
7
  6
CONTINUOUS
 10
14.0844226038
 20
5.2902054474
 11
14.0844226038
 21
2.791241954
  0
LINE
  5
499
100
AcDbEntity
  8
0
100
AcDbLine
 62
7
  6
CONTINUOUS
 10
14.0844226038
 20
2.7910668563
 11
14.0844226038
 21
2.7902426164
  0
LINE
  5
49A
100
AcDbEntity
  8
0
100
AcDbLine
 62
7
  6
CONTINUOUS
 10
14.2844226038
 20
2.8402240319
 11
14.2844226038
 21
5.2402240319
  0
LINE
  5
49B
100
AcDbEntity
  8
0
100
AcDbLine
 62
7
  6
CONTINUOUS
 10
14.3344226038
 20
2.7902240319
 11
14.3344226038
 21
5.2902240319
  0
LINE
  5
49C
100
AcDbEntity
  8
0
100
AcDbLine
 62
7
  6
CONTINUOUS
 10
14.3805655015
 20
16.487076307
 11
14.3805655015
 21
15.5930090646
  0
LINE
  5
49D
100
AcDbEntity
  8
0
100
AcDbLine
 62
9
  6
CONTINUOUS
 10
14.3807533101
 20
15.5896574613
 11
14.3807533101
 21
16.4907906024
  0
LINE
  5
49E
100
AcDbEntity
  8
0
100
AcDbLine
 62
7
  6
CONTINUOUS
 10
14.3805655015
 20
16.4874389992
 11
14.3807533101
 21
16.4907906024
  0
LINE
  5
49F
100
AcDbEntity
  8
0
100
AcDbLine
 62
7
  6
CONTINUOUS
 10
7.5514863306
 20
12.2001840306
 11
7.5453530917
 21
12.2001840306
  0
LINE
  5
4A0
100
AcDbEntity
  8
0
100
AcDbLine
 62
7
  6
CONTINUOUS
 10
7.6901845318
 20
12.218868428
 11
7.6721302649
 21
12.218868428
  0
LINE
  5
4A1
100
AcDbEntity
  8
0
100
AcDbLine
 62
7
  6
CONTINUOUS
 10
7.8432459618
 20
12.2272114913
 11
7.8317146907
 21
12.2272114913
  0
LINE
  5
4A2
100
AcDbEntity
  8
0
100
AcDbLine
 62
7
  6
CONTINUOUS
 10
7.7147392674
 20
12.4144743237
 11
7.7032084903
 21
12.4144743237
  0
LINE
  5
4A3
100
AcDbEntity
  8
0
100
AcDbLine
 62
7
  6
CONTINUOUS
 10
7.5936932273
 20
12.4767642258
 11
7.5821619562
 21
12.4767642258
  0
LINE
  5
4A4
100
AcDbEntity
  8
0
100
AcDbLine
 62
7
  6
CONTINUOUS
 10
7.325405346
 20
12.5836476138
 11
7.3073510784
 21
12.5836476138
  0
LINE
  5
4A5
100
AcDbEntity
  8
0
100
AcDbLine
 62
7
  6
CONTINUOUS
 10
7.4394570533
 20
12.6897565378
 11
7.4279262762
 21
12.6897565378
  0
LINE
  5
4A6
100
AcDbEntity
  8
0
100
AcDbLine
 62
7
  6
CONTINUOUS
 10
7.3699503665
 20
12.7005070866
 11
7.3584190954
 21
12.7005070866
  0
LWPOLYLINE
  5
4A7
100
AcDbEntity
  8
0
100
AcDbPolyline
 62
7
  6
CONTINUOUS
 90
7
 70
0
 10
7.3458132353
 20
12.5951561376
 10
7.3475845074
 20
12.5951336351
 10
7.3490396622
 20
12.5948992319
 10
7.350224233
 20
12.5945500383
 10
7.3511080583
 20
12.5941787991
 10
7.3516329915
 20
12.5938995453
 10
7.3517697194
 20
12.5938162963
  0
LINE
  5
4A8
100
AcDbEntity
  8
0
100
AcDbLine
 62
9
  6
CONTINUOUS
 10
9.7244237768
 20
14.5041584262
 11
10.286483264
 21
13.9420989389
  0
LINE
  5
4A9
100
AcDbEntity
  8
0
100
AcDbLine
 62
9
  6
CONTINUOUS
 10
9.7794877019
 20
14.6370945011
 11
9.789010119
 21
14.6275720839
  0
LINE
  5
4AA
100
AcDbEntity
  8
0
100
AcDbLine
 62
9
  6
CONTINUOUS
 10
9.8771329027
 20
14.5394493003
 11
10.4194193389
 21
13.9971628641
  0
LINE
  5
4AB
100
AcDbEntity
  8
0
100
AcDbLine
 62
7
  6
CONTINUOUS
 10
9.9284005587
 20
14.7669625236
 11
10.0165233424
 21
14.67883974
  0
LINE
  5
4AC
100
AcDbEntity
  8
0
100
AcDbLine
 62
7
  6
CONTINUOUS
 10
10.6471976618
 20
14.2249421158
 11
10.0072669536
 21
14.864872824
  0
LINE
  5
4AD
100
AcDbEntity
  8
0
100
AcDbLine
 62
7
  6
CONTINUOUS
 10
14.3805655015
 20
15.5930090646
 11
14.3807533101
 21
15.5896574613
  0
LINE
  5
4AE
100
AcDbEntity
  8
0
100
AcDbLine
 62
7
  6
CONTINUOUS
 10
14.4844226038
 20
0.9573805421
 11
14.4844226038
 21
7.1230675216
  0
LINE
  5
4AF
100
AcDbEntity
  8
0
100
AcDbLine
 62
9
  6
CONTINUOUS
 10
14.5170770795
 20
14.8868288194
 11
14.5170770795
 21
17.1936192444
  0
LINE
  5
4B0
100
AcDbEntity
  8
0
100
AcDbLine
 62
9
  6
CONTINUOUS
 10
14.5263596135
 20
0.8980058805
 11
14.5263596135
 21
7.1824421832
  0
LINE
  5
4B1
100
AcDbEntity
  8
0
100
AcDbLine
 62
9
  6
CONTINUOUS
 10
14.5652493566
 20
14.8502240319
 11
14.5652493566
 21
17.2302240319
  0
LINE
  5
4B2
100
AcDbEntity
  8
0
100
AcDbLine
 62
9
  6
CONTINUOUS
 10
14.5999402536
 20
0.8286723475
 11
14.5999402536
 21
7.2517757162
  0
LINE
  5
4B3
100
AcDbEntity
  8
0
100
AcDbLine
 62
9
  6
CONTINUOUS
 10
14.6579593435
 20
0.7902240319
 11
14.6579593435
 21
7.2902240319
  0
LINE
  5
4B4
100
AcDbEntity
  8
0
100
AcDbLine
 62
7
  6
CONTINUOUS
 10
14.7974226038
 20
7.2902240319
 11
14.7974226038
 21
0.7902240319
  0
LINE
  5
4B5
100
AcDbEntity
  8
0
100
AcDbLine
 62
7
  6
CONTINUOUS
 10
14.7974226038
 20
14.8502245261
 11
14.7974226038
 21
17.2302235377
  0
LINE
  5
4B6
100
AcDbEntity
  8
0
100
AcDbLine
 62
7
  6
CONTINUOUS
 10
7.1872650857
 20
12.8831923674
 11
7.1757338145
 21
12.8831923674
  0
LINE
  5
4B7
100
AcDbEntity
  8
0
100
AcDbLine
 62
7
  6
CONTINUOUS
 10
7.203066857
 20
12.9261467341
 11
7.1915360799
 21
12.9261467341
  0
LINE
  5
4B8
100
AcDbEntity
  8
0
100
AcDbLine
 62
7
  6
CONTINUOUS
 10
7.0580870848
 20
13.0123703684
 11
7.0465558136
 21
13.0123703684
  0
LINE
  5
4B9
100
AcDbEntity
  8
0
100
AcDbLine
 62
7
  6
CONTINUOUS
 10
7.0216782797
 20
13.1075353114
 11
7.0101475026
 21
13.1075353114
  0
LINE
  5
4BA
100
AcDbEntity
  8
0
100
AcDbLine
 62
7
  6
CONTINUOUS
 10
6.9076526532
 20
13.2215609379
 11
6.8961218761
 21
13.2215609379
  0
LINE
  5
4BB
100
AcDbEntity
  8
0
100
AcDbLine
 62
7
  6
CONTINUOUS
 10
10.2145890009
 20
15.0067884228
 11
10.3049560993
 21
14.9164213243
  0
LINE
  5
4BC
100
AcDbEntity
  8
0
100
AcDbLine
 62
7
  6
CONTINUOUS
 10
10.7823604731
 20
14.4572197612
 11
10.2394545027
 21
15.0001257316
  0
LINE
  5
4BD
100
AcDbEntity
  8
0
100
AcDbLine
 62
7
  6
CONTINUOUS
 10
10.7950794966
 20
14.469758592
 11
10.2520834298
 21
15.0127546587
  0
LINE
  5
4BE
100
AcDbEntity
  8
0
100
AcDbLine
 62
7
  6
CONTINUOUS
 10
10.8199449984
 20
14.4630959008
 11
10.2454207387
 21
15.0376201605
  0
LINE
  5
4BF
100
AcDbEntity
  8
0
100
AcDbLine
 62
7
  6
CONTINUOUS
 10
12.2224238997
 20
3.6170315242
 11
12.2275328247
 21
3.6232269847
  0
LINE
  5
4C0
100
AcDbEntity
  8
0
100
AcDbLine
 62
7
  6
CONTINUOUS
 10
10.286483264
 20
13.9420989389
 11
10.2131670992
 21
13.9420989389
  0
LINE
  5
4C1
100
AcDbEntity
  8
0
100
AcDbLine
 62
7
  6
CONTINUOUS
 10
8.7598631742
 20
13.7318679411
 11
7.9425446509
 21
13.7351739262
  0
LINE
  5
4C2
100
AcDbEntity
  8
0
100
AcDbLine
 62
7
  6
CONTINUOUS
 10
14.2844226038
 20
5.2402240319
 11
14.3344226038
 21
5.2902240319
  0
LINE
  5
4C3
100
AcDbEntity
  8
0
100
AcDbLine
 62
7
  6
CONTINUOUS
 10
12.2273985031
 20
3.6230858947
 11
12.233289559
 21
3.6284559358
  0
LINE
  5
4C4
100
AcDbEntity
  8
0
100
AcDbLine
 62
7
  6
CONTINUOUS
 10
12.2331666875
 20
3.6283589687
 11
12.2397108262
 21
3.6328116959
  0
LINE
  5
4C5
100
AcDbEntity
  8
0
100
AcDbLine
 62
7
  6
CONTINUOUS
 10
12.2396029999
 20
3.6327490064
 11
12.2466727527
 21
3.6362170768
  0
LINE
  5
4C6
100
AcDbEntity
  8
0
100
AcDbLine
 62
7
  6
CONTINUOUS
 10
12.2465835211
 20
3.6361808825
 11
12.2540439528
 21
3.6386099985
  0
LINE
  5
4C7
100
AcDbEntity
  8
0
100
AcDbLine
 62
7
  6
CONTINUOUS
 10
10.6575827652
 20
14.3013865957
 11
10.6582865541
 21
14.3014374565
  0
LINE
  5
4C8
100
AcDbEntity
  8
0
100
AcDbLine
 62
7
  6
CONTINUOUS
 10
10.7073305426
 20
14.3511289751
 11
10.7080285344
 21
14.3511794368
  0
LINE
  5
4C9
100
AcDbEntity
  8
0
100
AcDbLine
 62
7
  6
CONTINUOUS
 10
10.7570804177
 20
14.4008855921
 11
10.7577856511
 21
14.4009365535
  0
LINE
  5
4CA
100
AcDbEntity
  8
0
100
AcDbLine
 62
7
  6
CONTINUOUS
 10
10.7823604731
 20
14.4572197612
 11
10.7821768077
 21
14.4572083234
  0
LINE
  5
4CB
100
AcDbEntity
  8
0
100
AcDbLine
 62
7
  6
CONTINUOUS
 10
10.6258557507
 20
14.3098698204
 11
10.6575827651
 21
14.3013865957
  0
LINE
  5
4CC
100
AcDbEntity
  8
0
100
AcDbLine
 62
7
  6
CONTINUOUS
 10
10.6776978474
 20
14.3590524371
 11
10.7073305415
 21
14.351128974
  0
LINE
  5
4CD
100
AcDbEntity
  8
0
100
AcDbLine
 62
7
  6
CONTINUOUS
 10
10.7295096472
 20
14.4082576334
 11
10.7570804176
 21
14.4008855921
  0
LINE
  5
4CE
100
AcDbEntity
  8
0
100
AcDbLine
 62
7
  6
CONTINUOUS
 10
10.1051216606
 20
14.8575235237
 11
10.0742631324
 21
14.8657736017
  0
LINE
  5
4CF
100
AcDbEntity
  8
0
100
AcDbLine
 62
7
  6
CONTINUOUS
 10
10.1541351687
 20
14.9095245359
 11
10.125636445
 21
14.917143733
  0
LINE
  5
4D0
100
AcDbEntity
  8
0
100
AcDbLine
 62
7
  6
CONTINUOUS
 10
10.7950794966
 20
14.469758592
 11
10.8199449984
 21
14.4630959008
  0
LINE
  5
4D1
100
AcDbEntity
  8
0
100
AcDbLine
 62
9
  6
CONTINUOUS
 10
11.5972478666
 20
15.2403987691
 11
11.0227236069
 21
15.8149230288
  0
LINE
  5
4D2
100
AcDbEntity
  8
0
100
AcDbLine
 62
7
  6
CONTINUOUS
 10
13.2094226038
 20
3.0902240319
 11
13.2844226038
 21
3.1652240319
  0
LINE
  5
4D3
100
AcDbEntity
  8
0
100
AcDbLine
 62
7
  6
CONTINUOUS
 10
10.0742631335
 20
14.8657736028
 11
10.0735205731
 21
14.8657199949
  0
LINE
  5
4D4
100
AcDbEntity
  8
0
100
AcDbLine
 62
7
  6
CONTINUOUS
 10
10.1256364447
 20
14.9171437327
 11
10.1248903688
 21
14.9170897907
  0
LINE
  5
4D5
100
AcDbEntity
  8
0
100
AcDbLine
 62
7
  6
CONTINUOUS
 10
10.1768789313
 20
14.9683836733
 11
10.1761301159
 21
14.9683295378
  0
LINE
  5
4D6
100
AcDbEntity
  8
0
100
AcDbLine
 62
7
  6
CONTINUOUS
 10
14.5652493566
 20
14.8502240319
 11
14.7974226038
 21
14.8502240319
  0
LINE
  5
4D7
100
AcDbEntity
  8
0
100
AcDbLine
 62
7
  6
CONTINUOUS
 10
10.2033746336
 20
14.9612999724
 11
10.1768789313
 21
14.9683836733
  0
LINE
  5
4D8
100
AcDbEntity
  8
0
100
AcDbLine
 62
7
  6
CONTINUOUS
 10
10.2145890009
 20
15.0067884228
 11
10.2394545027
 21
15.0001257316
  0
LINE
  5
4D9
100
AcDbEntity
  8
0
100
AcDbLine
 62
7
  6
CONTINUOUS
 10
14.3805655015
 20
15.6339740319
 11
12.5474226038
 21
15.6339740319
  0
LINE
  5
4DA
100
AcDbEntity
  8
0
100
AcDbLine
 62
7
  6
CONTINUOUS
 10
14.3805655015
 20
16.4464740319
 11
12.5474226038
 21
16.4464740319
  0
LINE
  5
4DB
100
AcDbEntity
  8
0
100
AcDbLine
 62
7
  6
CONTINUOUS
 10
14.5652493566
 20
17.2302240319
 11
14.7974226038
 21
17.2302240319
  0
ARC
  5
4DC
100
AcDbEntity
  8
0
100
AcDbCircle
 62
7
  6
CONTINUOUS
 10
12.7594226038
 20
4.9902240319
 40
0.1
100
AcDbArc
 50
270.0
 51
360.0
  0
ARC
  5
4DD
100
AcDbEntity
  8
0
100
AcDbCircle
 62
7
  6
CONTINUOUS
 10
12.7594226038
 20
3.0902240319
 40
0.1
100
AcDbArc
 50
0.0
 51
90.0
  0
ARC
  5
4DE
100
AcDbEntity
  8
0
100
AcDbCircle
 62
7
  6
CONTINUOUS
 10
11.7164226038
 20
3.6527240319
 40
0.075
100
AcDbArc
 50
0.0
 51
90.0
  0
ARC
  5
4DF
100
AcDbEntity
  8
0
100
AcDbCircle
 62
7
  6
CONTINUOUS
 10
11.7164226038
 20
4.4277240319
 40
0.075
100
AcDbArc
 50
270.0
 51
360.0
  0
ARC
  5
4E0
100
AcDbEntity
  8
0
100
AcDbCircle
 62
7
  6
CONTINUOUS
 10
12.2672984233
 20
3.5852310022
 40
0.0549999908
100
AcDbArc
 50
90.9124159126
 51
180.2034586035
  0
ARC
  5
4E1
100
AcDbEntity
  8
0
100
AcDbCircle
 62
7
  6
CONTINUOUS
 10
11.7936322992
 20
3.5852244934
 40
0.0549999442
100
AcDbArc
 50
358.2923845898
 51
90.0001879106
  0
ARC
  5
4E2
100
AcDbEntity
  8
0
100
AcDbCircle
 62
7
  6
CONTINUOUS
 10
12.1840015556
 20
1.2302240319
 40
0.04
100
AcDbArc
 50
270.0
 51
0.0209867127
  0
ARC
  5
4E3
100
AcDbEntity
  8
0
100
AcDbCircle
 62
7
  6
CONTINUOUS
 10
11.8151635708
 20
1.2302240319
 40
0.04
100
AcDbArc
 50
178.4751885051
 51
270.0
  0
ARC
  5
4E4
100
AcDbEntity
  8
0
100
AcDbCircle
 62
7
  6
CONTINUOUS
 10
11.6964226038
 20
3.7577240319
 40
0.02
100
AcDbArc
 50
0.0000000032
 51
90.0
  0
ARC
  5
4E5
100
AcDbEntity
  8
0
100
AcDbCircle
 62
7
  6
CONTINUOUS
 10
11.6964226038
 20
4.3227240319
 40
0.02
100
AcDbArc
 50
270.0
 51
359.9999999968
  0
ARC
  5
4E6
100
AcDbEntity
  8
0
100
AcDbCircle
 62
7
  6
CONTINUOUS
 10
12.2864226038
 20
3.7077240319
 40
0.02
100
AcDbArc
 50
90.0
 51
179.999999998
  0
ARC
  5
4E7
100
AcDbEntity
  8
0
100
AcDbCircle
 62
7
  6
CONTINUOUS
 10
12.2864226038
 20
4.3727240319
 40
0.02
100
AcDbArc
 50
180.000000002
 51
270.0
  0
ARC
  5
4E8
100
AcDbEntity
  8
0
100
AcDbCircle
 62
9
  6
CONTINUOUS
 10
8.0583356532
 20
11.9841701986
 40
0.0636317593
100
AcDbArc
 50
240.222558374
 51
240.5830354157
  0
ARC
  5
4E9
100
AcDbEntity
  8
0
100
AcDbCircle
 62
7
  6
CONTINUOUS
 10
8.0292213685
 20
12.0609215379
 40
0.0196850394
100
AcDbArc
 50
135.0
 51
180.0012049649
  0
ARC
  5
4EA
100
AcDbEntity
  8
0
100
AcDbCircle
 62
7
  6
CONTINUOUS
 10
8.1016023776
 20
11.9885405288
 40
0.0196850394
100
AcDbArc
 50
269.9987950343
 51
315.0
  0
ARC
  5
4EB
100
AcDbEntity
  8
0
100
AcDbCircle
 62
7
  6
CONTINUOUS
 10
8.0900711485
 20
11.9885405288
 40
0.0196850394
100
AcDbArc
 50
224.9966737578
 51
269.9986727936
  0
ARC
  5
4EC
100
AcDbEntity
  8
0
100
AcDbCircle
 62
7
  6
CONTINUOUS
 10
8.0292213685
 20
12.0493903088
 40
0.0196850394
100
AcDbArc
 50
180.0013272064
 51
225.0033262422
  0
ARC
  5
4ED
100
AcDbEntity
  8
0
100
AcDbCircle
 62
7
  6
CONTINUOUS
 10
7.9763765108
 20
11.7888465321
 40
0.0196850394
100
AcDbArc
 50
224.9958251907
 51
269.9974348682
  0
ARC
  5
4EE
100
AcDbEntity
  8
0
100
AcDbCircle
 62
7
  6
CONTINUOUS
 10
7.9879077399
 20
11.7494764534
 40
0.0196850394
100
AcDbArc
 50
45.0039181287
 51
90.0024249216
  0
ARC
  5
4EF
100
AcDbEntity
  8
0
100
AcDbCircle
 62
7
  6
CONTINUOUS
 10
7.7842884482
 20
11.9530957451
 40
0.0196850394
100
AcDbArc
 50
359.9975750786
 51
44.9960818716
  0
ARC
  5
4F0
100
AcDbEntity
  8
0
100
AcDbCircle
 62
7
  6
CONTINUOUS
 10
7.8236585269
 20
11.941564516
 40
0.0196850394
100
AcDbArc
 50
180.0025651318
 51
225.0041748092
  0
ARC
  5
4F1
100
AcDbEntity
  8
0
100
AcDbCircle
 62
7
  6
CONTINUOUS
 10
7.7238893538
 20
12.0413336891
 40
0.0196850394
100
AcDbArc
 50
224.9958502723
 51
269.9974348102
  0
ARC
  5
4F2
100
AcDbEntity
  8
0
100
AcDbCircle
 62
7
  6
CONTINUOUS
 10
7.7354205829
 20
12.0019636104
 40
0.0196850394
100
AcDbArc
 50
45.00392895
 51
90.0024317524
  0
ARC
  5
4F3
100
AcDbEntity
  8
0
100
AcDbCircle
 62
7
  6
CONTINUOUS
 10
8.0021939078
 20
11.7630291352
 40
0.0196850394
100
AcDbArc
 50
180.0025651901
 51
225.0133822414
  0
ARC
  5
4F4
100
AcDbEntity
  8
0
100
AcDbCircle
 62
7
  6
CONTINUOUS
 10
7.9809773549
 20
11.9218324131
 40
0.0118110236
100
AcDbArc
 50
224.9972333239
 51
269.9997468357
  0
ARC
  5
4F5
100
AcDbEntity
  8
0
100
AcDbCircle
 62
7
  6
CONTINUOUS
 10
7.9990316322
 20
11.9218324131
 40
0.0118110236
100
AcDbArc
 50
269.9997000107
 51
315.0
  0
ARC
  5
4F6
100
AcDbEntity
  8
0
100
AcDbCircle
 62
7
  6
CONTINUOUS
 10
7.9155150833
 20
12.0053489621
 40
0.0118110236
100
AcDbArc
 50
135.0
 51
180.000299988
  0
ARC
  5
4F7
100
AcDbEntity
  8
0
100
AcDbCircle
 62
7
  6
CONTINUOUS
 10
7.9155150833
 20
11.9872946848
 40
0.0118110236
100
AcDbArc
 50
180.0002531656
 51
225.002766678
  0
ARC
  5
4F8
100
AcDbEntity
  8
0
100
AcDbCircle
 62
7
  6
CONTINUOUS
 10
7.1661114415
 20
12.649809478
 40
0.2416999433
100
AcDbArc
 50
43.724156436
 51
44.988987658
  0
ARC
  5
4F9
100
AcDbEntity
  8
0
100
AcDbCircle
 62
7
  6
CONTINUOUS
 10
7.3142265788
 20
12.5605303885
 40
0.0393700787
100
AcDbArc
 50
334.9999170305
 51
39.208519173
  0
ARC
  5
4FA
100
AcDbEntity
  8
0
100
AcDbCircle
 62
7
  6
CONTINUOUS
 10
7.3503735792
 20
12.798525896
 40
0.0196850394
100
AcDbArc
 50
135.0
 51
180.0024588141
  0
ARC
  5
4FB
100
AcDbEntity
  8
0
100
AcDbCircle
 62
7
  6
CONTINUOUS
 10
7.3503735792
 20
12.786994667
 40
0.0196850394
100
AcDbArc
 50
180.00114329
 51
225.0027777387
  0
ARC
  5
4FC
100
AcDbEntity
  8
0
100
AcDbCircle
 62
7
  6
CONTINUOUS
 10
7.2975697713
 20
12.7925731351
 40
0.0196850394
100
AcDbArc
 50
135.0
 51
180.0012047956
  0
ARC
  5
4FD
100
AcDbEntity
  8
0
100
AcDbCircle
 62
7
  6
CONTINUOUS
 10
7.2975697713
 20
12.781041906
 40
0.0196850394
100
AcDbArc
 50
180.0013272052
 51
225.0026027852
  0
ARC
  5
4FE
100
AcDbEntity
  8
0
100
AcDbCircle
 62
7
  6
CONTINUOUS
 10
7.3532659104
 20
12.3841182829
 40
0.0196850394
100
AcDbArc
 50
359.9975750784
 51
44.9960818714
  0
ARC
  5
4FF
100
AcDbEntity
  8
0
100
AcDbCircle
 62
7
  6
CONTINUOUS
 10
7.3326845567
 20
12.4603773359
 40
0.0196850394
100
AcDbArc
 50
155.0000948195
 51
224.9995434545
  0
ARC
  5
500
100
AcDbEntity
  8
0
100
AcDbCircle
 62
7
  6
CONTINUOUS
 10
7.3531465107
 20
12.5496632573
 40
0.0118110236
100
AcDbArc
 50
180.0002531639
 51
225.0004233584
  0
ARC
  5
501
100
AcDbEntity
  8
0
100
AcDbCircle
 62
7
  6
CONTINUOUS
 10
7.3531465107
 20
12.5677175347
 40
0.0118110236
100
AcDbArc
 50
135.0
 51
180.0002999894
  0
ARC
  5
502
100
AcDbEntity
  8
0
100
AcDbCircle
 62
7
  6
CONTINUOUS
 10
7.1872339866
 20
12.7336300587
 40
0.0118110236
100
AcDbArc
 50
135.0
 51
180.0002999879
  0
ARC
  5
503
100
AcDbEntity
  8
0
100
AcDbCircle
 62
7
  6
CONTINUOUS
 10
7.1872339866
 20
12.7155757814
 40
0.0118110236
100
AcDbArc
 50
180.0002531652
 51
224.9692948978
  0
ARC
  5
504
100
AcDbEntity
  8
0
100
AcDbCircle
 62
7
  6
CONTINUOUS
 10
7.1695670055
 20
12.7332427625
 40
0.0118110236
100
AcDbArc
 50
180.0002531643
 51
224.9948564503
  0
ARC
  5
505
100
AcDbEntity
  8
0
100
AcDbCircle
 62
7
  6
CONTINUOUS
 10
7.1695670055
 20
12.7512970398
 40
0.0118110236
100
AcDbArc
 50
135.0
 51
180.0002999892
  0
ARC
  5
506
100
AcDbEntity
  8
0
100
AcDbCircle
 62
7
  6
CONTINUOUS
 10
7.3073511306
 20
12.5954586375
 40
0.0118110236
100
AcDbArc
 50
224.9818568019
 51
269.9997468346
  0
ARC
  5
507
100
AcDbEntity
  8
0
100
AcDbCircle
 62
7
  6
CONTINUOUS
 10
7.3254054079
 20
12.5954586375
 40
0.0118110236
100
AcDbArc
 50
269.9997000108
 51
315.0
  0
ARC
  5
508
100
AcDbEntity
  8
0
100
AcDbCircle
 62
7
  6
CONTINUOUS
 10
7.2418888589
 20
12.6789751864
 40
0.0118110236
100
AcDbArc
 50
135.0
 51
180.0002999885
  0
ARC
  5
509
100
AcDbEntity
  8
0
100
AcDbCircle
 62
7
  6
CONTINUOUS
 10
7.2418888589
 20
12.6609209091
 40
0.0118110236
100
AcDbArc
 50
180.0002531654
 51
225.0181431981
  0
ARC
  5
50A
100
AcDbEntity
  8
0
100
AcDbCircle
 62
7
  6
CONTINUOUS
 10
6.7025443744
 20
13.6355095763
 40
0.08
100
AcDbArc
 50
135.0
 51
222.0
  0
ARC
  5
50B
100
AcDbEntity
  8
0
100
AcDbCircle
 62
7
  6
CONTINUOUS
 10
7.2030677018
 20
12.9458317734
 40
0.0196850394
100
AcDbArc
 50
269.9975411859
 51
315.0
  0
ARC
  5
50C
100
AcDbEntity
  8
0
100
AcDbCircle
 62
7
  6
CONTINUOUS
 10
7.1139833829
 20
13.0349160923
 40
0.0196850394
100
AcDbArc
 50
135.0
 51
180.0024588136
  0
ARC
  5
50D
100
AcDbEntity
  8
0
100
AcDbCircle
 62
7
  6
CONTINUOUS
 10
7.1139833829
 20
13.0233848632
 40
0.0196850394
100
AcDbArc
 50
180.0011432902
 51
225.00183548
  0
ARC
  5
50E
100
AcDbEntity
  8
0
100
AcDbCircle
 62
7
  6
CONTINUOUS
 10
7.1915364727
 20
12.9458317734
 40
0.0196850394
100
AcDbArc
 50
224.99816452
 51
269.9988567098
  0
ARC
  5
50F
100
AcDbEntity
  8
0
100
AcDbCircle
 62
7
  6
CONTINUOUS
 10
7.0216791245
 20
13.1272203507
 40
0.0196850394
100
AcDbArc
 50
269.9975411863
 51
315.0
  0
ARC
  5
510
100
AcDbEntity
  8
0
100
AcDbCircle
 62
7
  6
CONTINUOUS
 10
6.9325948056
 20
13.2163046696
 40
0.0196850394
100
AcDbArc
 50
135.0
 51
180.0024588143
  0
ARC
  5
511
100
AcDbEntity
  8
0
100
AcDbCircle
 62
7
  6
CONTINUOUS
 10
6.9325948056
 20
13.2047734406
 40
0.0196850394
100
AcDbArc
 50
180.0011432902
 51
225.0141027316
  0
ARC
  5
512
100
AcDbEntity
  8
0
100
AcDbCircle
 62
7
  6
CONTINUOUS
 10
7.0101478954
 20
13.1272203507
 40
0.0196850394
100
AcDbArc
 50
224.9858972684
 51
269.9988567098
  0
ARC
  5
513
100
AcDbEntity
  8
0
100
AcDbCircle
 62
7
  6
CONTINUOUS
 10
6.907653498
 20
13.2412459773
 40
0.0196850394
100
AcDbArc
 50
269.9975411863
 51
288.7362451431
  0
ARC
  5
514
100
AcDbEntity
  8
0
100
AcDbCircle
 62
7
  6
CONTINUOUS
 10
6.8185691791
 20
13.3303302962
 40
0.0196850394
100
AcDbArc
 50
135.0
 51
180.0024588147
  0
ARC
  5
515
100
AcDbEntity
  8
0
100
AcDbCircle
 62
7
  6
CONTINUOUS
 10
6.8185691791
 20
13.3187990671
 40
0.0196850394
100
AcDbArc
 50
180.0011432896
 51
224.9839638501
  0
ARC
  5
516
100
AcDbEntity
  8
0
100
AcDbCircle
 62
7
  6
CONTINUOUS
 10
6.8961222689
 20
13.2412459773
 40
0.0196850394
100
AcDbArc
 50
225.0160361486
 51
269.9988567095
  0
ARC
  5
517
100
AcDbEntity
  8
0
100
AcDbCircle
 62
7
  6
CONTINUOUS
 10
7.1148844905
 20
12.9752584159
 40
0.0196850394
100
AcDbArc
 50
135.0
 51
180.001204796
  0
ARC
  5
518
100
AcDbEntity
  8
0
100
AcDbCircle
 62
7
  6
CONTINUOUS
 10
7.1872654996
 20
12.9028774068
 40
0.0196850394
100
AcDbArc
 50
269.9987952046
 51
315.0
  0
ARC
  5
519
100
AcDbEntity
  8
0
100
AcDbCircle
 62
7
  6
CONTINUOUS
 10
7.1757342705
 20
12.9028774068
 40
0.0196850394
100
AcDbArc
 50
224.9945062516
 51
269.9986727949
  0
ARC
  5
51A
100
AcDbEntity
  8
0
100
AcDbCircle
 62
7
  6
CONTINUOUS
 10
7.1148844905
 20
12.9637271868
 40
0.0196850394
100
AcDbArc
 50
180.0013272051
 51
225.0054937484
  0
ARC
  5
51B
100
AcDbEntity
  8
0
100
AcDbCircle
 62
7
  6
CONTINUOUS
 10
6.7796771613
 20
13.3576910848
 40
0.0196850394
100
AcDbArc
 50
180.0010369649
 51
225.0009085171
  0
ARC
  5
51C
100
AcDbEntity
  8
0
100
AcDbCircle
 62
7
  6
CONTINUOUS
 10
6.7796771613
 20
13.3692223139
 40
0.0196850394
100
AcDbArc
 50
135.0
 51
180.0010232871
  0
ARC
  5
51D
100
AcDbEntity
  8
0
100
AcDbCircle
 62
7
  6
CONTINUOUS
 10
6.9188390359
 20
13.1713038705
 40
0.0196850394
100
AcDbArc
 50
135.0
 51
180.0012049649
  0
ARC
  5
51E
100
AcDbEntity
  8
0
100
AcDbCircle
 62
7
  6
CONTINUOUS
 10
6.9796888159
 20
13.0989228614
 40
0.0196850394
100
AcDbArc
 50
225.0247683211
 51
237.5229746018
  0
ARC
  5
51F
100
AcDbEntity
  8
0
100
AcDbCircle
 62
7
  6
CONTINUOUS
 10
6.9188390359
 20
13.1597726414
 40
0.0196850394
100
AcDbArc
 50
180.0013272064
 51
224.9752316789
  0
ARC
  5
520
100
AcDbEntity
  8
0
100
AcDbCircle
 62
7
  6
CONTINUOUS
 10
7.0465562696
 20
13.0320554077
 40
0.0196850394
100
AcDbArc
 50
224.9942711131
 51
269.998672795
  0
ARC
  5
521
100
AcDbEntity
  8
0
100
AcDbCircle
 62
7
  6
CONTINUOUS
 10
7.0580874987
 20
13.0320554077
 40
0.0196850394
100
AcDbArc
 50
269.9987952045
 51
315.0
  0
ARC
  5
522
100
AcDbEntity
  8
0
100
AcDbCircle
 62
7
  6
CONTINUOUS
 10
6.9857064896
 20
13.1044364168
 40
0.0196850394
100
AcDbArc
 50
135.0
 51
180.0012047948
  0
ARC
  5
523
100
AcDbEntity
  8
0
100
AcDbCircle
 62
7
  6
CONTINUOUS
 10
6.9857064896
 20
13.0929051877
 40
0.0196850394
100
AcDbArc
 50
180.0013272052
 51
225.0057288872
  0
ARC
  5
524
100
AcDbEntity
  8
0
100
AcDbCircle
 62
7
  6
CONTINUOUS
 10
7.0269432595
 20
13.0276278966
 40
0.0078740157
100
AcDbArc
 50
155.0338927671
 51
214.8534612382
  0
ARC
  5
525
100
AcDbEntity
  8
0
100
AcDbCircle
 62
7
  6
CONTINUOUS
 10
6.746825181
 20
13.4625939123
 40
0.0078740157
100
AcDbArc
 50
210.7100596427
 51
225.0
  0
ARC
  5
526
100
AcDbEntity
  8
0
100
AcDbCircle
 62
9
  6
CONTINUOUS
 10
7.9008858248
 20
12.1347729575
 40
0.0606281998
100
AcDbArc
 50
238.6066913889
 51
239.4589013681
  0
ARC
  5
527
100
AcDbEntity
  8
0
100
AcDbCircle
 62
9
  6
CONTINUOUS
 10
7.7479325021
 20
12.2831717153
 40
0.0588367992
100
AcDbArc
 50
236.3516635216
 51
237.5549362902
  0
ARC
  5
528
100
AcDbEntity
  8
0
100
AcDbCircle
 62
7
  6
CONTINUOUS
 10
8.010154316
 20
12.1387451593
 40
0.0196850394
100
AcDbArc
 50
269.9975417674
 51
315.0
  0
ARC
  5
529
100
AcDbEntity
  8
0
100
AcDbCircle
 62
7
  6
CONTINUOUS
 10
7.9210699971
 20
12.2278294782
 40
0.0196850394
100
AcDbArc
 50
135.0
 51
180.0024582326
  0
ARC
  5
52A
100
AcDbEntity
  8
0
100
AcDbCircle
 62
7
  6
CONTINUOUS
 10
7.9210699971
 20
12.2162982491
 40
0.0196850394
100
AcDbArc
 50
180.0011432897
 51
225.00468718
  0
ARC
  5
52B
100
AcDbEntity
  8
0
100
AcDbCircle
 62
7
  6
CONTINUOUS
 10
7.9986230869
 20
12.1387451593
 40
0.0196850394
100
AcDbArc
 50
224.99531282
 51
269.9988567103
  0
ARC
  5
52C
100
AcDbEntity
  8
0
100
AcDbCircle
 62
7
  6
CONTINUOUS
 10
7.7147401122
 20
12.4341593631
 40
0.0196850394
100
AcDbArc
 50
269.9975411861
 51
315.0
  0
ARC
  5
52D
100
AcDbEntity
  8
0
100
AcDbCircle
 62
7
  6
CONTINUOUS
 10
7.6256557933
 20
12.523243682
 40
0.0196850394
100
AcDbArc
 50
135.0
 51
180.0024588139
  0
ARC
  5
52E
100
AcDbEntity
  8
0
100
AcDbCircle
 62
7
  6
CONTINUOUS
 10
7.6256557933
 20
12.5117124529
 40
0.0196850394
100
AcDbArc
 50
180.0011432895
 51
225.0041344961
  0
ARC
  5
52F
100
AcDbEntity
  8
0
100
AcDbCircle
 62
7
  6
CONTINUOUS
 10
7.7032088831
 20
12.4341593631
 40
0.0196850394
100
AcDbArc
 50
224.9958655024
 51
269.9988567095
  0
ARC
  5
530
100
AcDbEntity
  8
0
100
AcDbCircle
 62
7
  6
CONTINUOUS
 10
7.4394578981
 20
12.7094415772
 40
0.0196850394
100
AcDbArc
 50
269.9975411859
 51
315.0
  0
ARC
  5
531
100
AcDbEntity
  8
0
100
AcDbCircle
 62
7
  6
CONTINUOUS
 10
7.427926669
 20
12.7094415772
 40
0.0196850394
100
AcDbArc
 50
224.9972222613
 51
269.99885671
  0
ARC
  5
532
100
AcDbEntity
  8
0
100
AcDbCircle
 62
7
  6
CONTINUOUS
 10
7.5213126321
 20
12.5688302743
 40
0.0196850394
100
AcDbArc
 50
135.0
 51
180.0012047948
  0
ARC
  5
533
100
AcDbEntity
  8
0
100
AcDbCircle
 62
7
  6
CONTINUOUS
 10
7.5936936412
 20
12.4964492652
 40
0.0196850394
100
AcDbArc
 50
269.9987952044
 51
315.0
  0
ARC
  5
534
100
AcDbEntity
  8
0
100
AcDbCircle
 62
7
  6
CONTINUOUS
 10
7.5821624121
 20
12.4964492652
 40
0.0196850394
100
AcDbArc
 50
224.9952661821
 51
269.998672795
  0
ARC
  5
535
100
AcDbEntity
  8
0
100
AcDbCircle
 62
7
  6
CONTINUOUS
 10
7.5213126321
 20
12.5572990452
 40
0.0196850394
100
AcDbArc
 50
180.0013272057
 51
225.0047338188
  0
ARC
  5
536
100
AcDbEntity
  8
0
100
AcDbCircle
 62
7
  6
CONTINUOUS
 10
7.3584195514
 20
12.720192126
 40
0.0196850394
100
AcDbArc
 50
224.9973972148
 51
269.9986727948
  0
ARC
  5
537
100
AcDbEntity
  8
0
100
AcDbCircle
 62
7
  6
CONTINUOUS
 10
7.3699507804
 20
12.720192126
 40
0.0196850394
100
AcDbArc
 50
269.9987952051
 51
315.0
  0
ARC
  5
538
100
AcDbEntity
  8
0
100
AcDbCircle
 62
7
  6
CONTINUOUS
 10
7.8317151467
 20
12.2468965307
 40
0.0196850394
100
AcDbArc
 50
224.9966911052
 51
269.9986727883
  0
ARC
  5
539
100
AcDbEntity
  8
0
100
AcDbCircle
 62
7
  6
CONTINUOUS
 10
7.8432463758
 20
12.2468965306
 40
0.0196850394
100
AcDbArc
 50
269.9987952044
 51
315.0
  0
ARC
  5
53A
100
AcDbEntity
  8
0
100
AcDbCircle
 62
7
  6
CONTINUOUS
 10
7.7708653667
 20
12.3192775397
 40
0.0196850394
100
AcDbArc
 50
135.0
 51
180.0012047956
  0
ARC
  5
53B
100
AcDbEntity
  8
0
100
AcDbCircle
 62
7
  6
CONTINUOUS
 10
7.7708653667
 20
12.3077463107
 40
0.0196850394
100
AcDbArc
 50
180.0013272117
 51
225.0033088948
  0
ARC
  5
53C
100
AcDbEntity
  8
0
100
AcDbCircle
 62
7
  6
CONTINUOUS
 10
7.5318012912
 20
12.2055829021
 40
0.0196850394
100
AcDbArc
 50
359.9975682479
 51
44.9960710504
  0
ARC
  5
53D
100
AcDbEntity
  8
0
100
AcDbCircle
 62
7
  6
CONTINUOUS
 10
7.57117137
 20
12.194051673
 40
0.0196850394
100
AcDbArc
 50
180.0025651901
 51
225.0041497282
  0
ARC
  5
53E
100
AcDbEntity
  8
0
100
AcDbCircle
 62
7
  6
CONTINUOUS
 10
7.545353973
 20
12.21986907
 40
0.0196850394
100
AcDbArc
 50
224.9862190795
 51
269.9974348681
  0
ARC
  5
53F
100
AcDbEntity
  8
0
100
AcDbCircle
 62
7
  6
CONTINUOUS
 10
7.3926359891
 20
12.3725870538
 40
0.0196850394
100
AcDbArc
 50
180.0025651318
 51
225.0137809205
  0
ARC
  5
540
100
AcDbEntity
  8
0
100
AcDbCircle
 62
7
  6
CONTINUOUS
 10
7.8250615864
 20
12.0777481816
 40
0.0118110236
100
AcDbArc
 50
224.9958316548
 51
269.999746835
  0
ARC
  5
541
100
AcDbEntity
  8
0
100
AcDbCircle
 62
7
  6
CONTINUOUS
 10
7.8431158638
 20
12.0777481816
 40
0.0118110236
100
AcDbArc
 50
269.9997000112
 51
315.0
  0
ARC
  5
542
100
AcDbEntity
  8
0
100
AcDbCircle
 62
7
  6
CONTINUOUS
 10
7.7595993148
 20
12.1612647305
 40
0.0118110236
100
AcDbArc
 50
135.0
 51
180.0002999888
  0
ARC
  5
543
100
AcDbEntity
  8
0
100
AcDbCircle
 62
7
  6
CONTINUOUS
 10
7.7595993148
 20
12.1432104532
 40
0.0118110236
100
AcDbArc
 50
180.0002531649
 51
225.0041683452
  0
ARC
  5
544
100
AcDbEntity
  8
0
100
AcDbCircle
 62
7
  6
CONTINUOUS
 10
7.6721303164
 20
12.2306794516
 40
0.0118110236
100
AcDbArc
 50
224.9936484249
 51
269.9997499651
  0
ARC
  5
545
100
AcDbEntity
  8
0
100
AcDbCircle
 62
7
  6
CONTINUOUS
 10
7.6901845937
 20
12.2306794516
 40
0.0118110236
100
AcDbArc
 50
269.9996996385
 51
315.0
  0
ARC
  5
546
100
AcDbEntity
  8
0
100
AcDbCircle
 62
7
  6
CONTINUOUS
 10
7.6066680447
 20
12.3141960006
 40
0.0118110236
100
AcDbArc
 50
135.0
 51
180.0003003629
  0
ARC
  5
547
100
AcDbEntity
  8
0
100
AcDbCircle
 62
7
  6
CONTINUOUS
 10
7.6066680447
 20
12.2961417233
 40
0.0118110236
100
AcDbArc
 50
180.0002500349
 51
225.0063515751
  0
ARC
  5
548
100
AcDbEntity
  8
0
100
AcDbCircle
 62
7
  6
CONTINUOUS
 10
8.4264938661
 20
11.3780180147
 40
0.249767385
100
AcDbArc
 50
45.0314418218
 51
46.2553661823
  0
ARC
  5
549
100
AcDbEntity
  8
0
100
AcDbCircle
 62
7
  6
CONTINUOUS
 10
8.1549118916
 20
11.6103111513
 40
0.0196850394
100
AcDbArc
 50
224.9866177591
 51
269.9974348102
  0
ARC
  5
54A
100
AcDbEntity
  8
0
100
AcDbCircle
 62
7
  6
CONTINUOUS
 10
8.1664431207
 20
11.5709410726
 40
0.0196850394
100
AcDbArc
 50
45.00392895
 51
90.0024317524
  0
ARC
  5
54B
100
AcDbEntity
  8
0
100
AcDbCircle
 62
7
  6
CONTINUOUS
 10
8.2427021737
 20
11.5503597189
 40
0.0196850394
100
AcDbArc
 50
225.0004565455
 51
294.9999051805
  0
ARC
  5
54C
100
AcDbEntity
  8
0
100
AcDbCircle
 62
7
  6
CONTINUOUS
 10
8.3900027953
 20
11.5128069727
 40
0.0118110236
100
AcDbArc
 50
224.9918137509
 51
269.9997466605
  0
ARC
  5
54D
100
AcDbEntity
  8
0
100
AcDbCircle
 62
7
  6
CONTINUOUS
 10
8.4080570726
 20
11.5128069727
 40
0.0118110236
100
AcDbArc
 50
269.9997000109
 51
315.0
  0
ARC
  5
54E
100
AcDbEntity
  8
0
100
AcDbCircle
 62
7
  6
CONTINUOUS
 10
8.3245405237
 20
11.5963235217
 40
0.0118110236
100
AcDbArc
 50
135.0
 51
180.0002999879
  0
ARC
  5
54F
100
AcDbEntity
  8
0
100
AcDbCircle
 62
7
  6
CONTINUOUS
 10
8.3245405237
 20
11.5782692444
 40
0.0118110236
100
AcDbArc
 50
180.0002533395
 51
225.0081862491
  0
ARC
  5
550
100
AcDbEntity
  8
0
100
AcDbCircle
 62
7
  6
CONTINUOUS
 10
8.4013902654
 20
11.5014195026
 40
0.0118110236
100
AcDbArc
 50
181.8824798174
 51
225.0091873219
  0
ARC
  5
551
100
AcDbEntity
  8
0
100
AcDbCircle
 62
7
  6
CONTINUOUS
 10
8.3965713476
 20
11.5062384204
 40
0.0118110236
100
AcDbArc
 50
224.9886659131
 51
241.8518773465
  0
ARC
  5
552
100
AcDbEntity
  8
0
100
AcDbCircle
 62
7
  6
CONTINUOUS
 10
8.3055685198
 20
11.8433309554
 40
0.0196850394
100
AcDbArc
 50
269.9975411863
 51
315.0
  0
ARC
  5
553
100
AcDbEntity
  8
0
100
AcDbCircle
 62
7
  6
CONTINUOUS
 10
8.2164842009
 20
11.9324152743
 40
0.0196850394
100
AcDbArc
 50
135.0
 51
180.0024588147
  0
ARC
  5
554
100
AcDbEntity
  8
0
100
AcDbCircle
 62
7
  6
CONTINUOUS
 10
8.2164842009
 20
11.9208840452
 40
0.0196850394
100
AcDbArc
 50
180.0011432896
 51
225.0039193772
  0
ARC
  5
555
100
AcDbEntity
  8
0
100
AcDbCircle
 62
7
  6
CONTINUOUS
 10
8.2940372907
 20
11.8433309554
 40
0.0196850394
100
AcDbArc
 50
224.9960806215
 51
269.9988567095
  0
ARC
  5
556
100
AcDbEntity
  8
0
100
AcDbCircle
 62
7
  6
CONTINUOUS
 10
8.339623883
 20
11.7389877943
 40
0.0196850394
100
AcDbArc
 50
224.9952407133
 51
269.998672795
  0
ARC
  5
557
100
AcDbEntity
  8
0
100
AcDbCircle
 62
7
  6
CONTINUOUS
 10
8.3511551121
 20
11.7389877943
 40
0.0196850394
100
AcDbArc
 50
269.9987952045
 51
315.0
  0
ARC
  5
558
100
AcDbEntity
  8
0
100
AcDbCircle
 62
7
  6
CONTINUOUS
 10
8.278774103
 20
11.8113688034
 40
0.0196850394
100
AcDbArc
 50
135.0
 51
180.0012047948
  0
ARC
  5
559
100
AcDbEntity
  8
0
100
AcDbCircle
 62
7
  6
CONTINUOUS
 10
8.278774103
 20
11.7998375743
 40
0.0196850394
100
AcDbArc
 50
180.0013272052
 51
225.0047592869
  0
ARC
  5
55A
100
AcDbEntity
  8
0
100
AcDbCircle
 62
7
  6
CONTINUOUS
 10
8.7281566113
 20
11.420742864
 40
0.0196850394
100
AcDbArc
 50
135.0
 51
180.0024588136
  0
ARC
  5
55B
100
AcDbEntity
  8
0
100
AcDbCircle
 62
7
  6
CONTINUOUS
 10
8.7281566113
 20
11.4092116349
 40
0.0196850394
100
AcDbArc
 50
180.0011432902
 51
225.0017020294
  0
ARC
  5
55C
100
AcDbEntity
  8
0
100
AcDbCircle
 62
7
  6
CONTINUOUS
 10
8.5808507339
 20
11.5680487414
 40
0.0196850394
100
AcDbArc
 50
269.9975411863
 51
315.0
  0
ARC
  5
55D
100
AcDbEntity
  8
0
100
AcDbCircle
 62
7
  6
CONTINUOUS
 10
8.5693195048
 20
11.5680487414
 40
0.0196850394
100
AcDbArc
 50
224.9972035029
 51
269.9988567098
  0
ARC
  5
55E
100
AcDbEntity
  8
0
100
AcDbCircle
 62
7
  6
CONTINUOUS
 10
8.5025169638
 20
11.5876259426
 40
0.0196850394
100
AcDbArc
 50
135.0
 51
180.0012047959
  0
ARC
  5
55F
100
AcDbEntity
  8
0
100
AcDbCircle
 62
7
  6
CONTINUOUS
 10
8.5748979729
 20
11.5152449335
 40
0.0196850394
100
AcDbArc
 50
269.9987952047
 51
315.0
  0
ARC
  5
560
100
AcDbEntity
  8
0
100
AcDbCircle
 62
7
  6
CONTINUOUS
 10
8.5633667438
 20
11.5152449335
 40
0.0196850394
100
AcDbArc
 50
224.9975688172
 51
269.998672795
  0
ARC
  5
561
100
AcDbEntity
  8
0
100
AcDbCircle
 62
7
  6
CONTINUOUS
 10
8.5025169638
 20
11.5760947135
 40
0.0196850394
100
AcDbArc
 50
180.0013272051
 51
225.0024311828
  0
ARC
  5
562
100
AcDbEntity
  8
0
100
AcDbCircle
 62
7
  6
CONTINUOUS
 10
8.7460520247
 20
11.3325596527
 40
0.0196850394
100
AcDbArc
 50
224.9949388004
 51
269.9986727947
  0
ARC
  5
563
100
AcDbEntity
  8
0
100
AcDbCircle
 62
7
  6
CONTINUOUS
 10
8.7575832537
 20
11.3325596527
 40
0.0196850394
100
AcDbArc
 50
269.9987952051
 51
315.0
  0
ARC
  5
564
100
AcDbEntity
  8
0
100
AcDbCircle
 62
7
  6
CONTINUOUS
 10
8.6852022446
 20
11.4049406618
 40
0.0196850394
100
AcDbArc
 50
135.0
 51
180.0012047956
  0
ARC
  5
565
100
AcDbEntity
  8
0
100
AcDbCircle
 62
7
  6
CONTINUOUS
 10
8.6852022446
 20
11.3934094327
 40
0.0196850394
100
AcDbArc
 50
180.0013272053
 51
225.0050611996
  0
ARC
  5
566
100
AcDbEntity
  8
0
100
AcDbCircle
 62
7
  6
CONTINUOUS
 10
8.508558909
 20
11.394250859
 40
0.0118110236
100
AcDbArc
 50
225.046466486
 51
269.9997468347
  0
ARC
  5
567
100
AcDbEntity
  8
0
100
AcDbCircle
 62
7
  6
CONTINUOUS
 10
8.5266131863
 20
11.394250859
 40
0.0118110236
100
AcDbArc
 50
269.9996999689
 51
315.0
  0
ARC
  5
568
100
AcDbEntity
  8
0
100
AcDbCircle
 62
7
  6
CONTINUOUS
 10
8.466852537
 20
11.435957231
 40
0.0118110236
100
AcDbArc
 50
224.990812678
 51
269.9997472495
  0
ARC
  5
569
100
AcDbEntity
  8
0
100
AcDbCircle
 62
7
  6
CONTINUOUS
 10
8.4849068143
 20
11.435957231
 40
0.0118110236
100
AcDbArc
 50
269.9997000847
 51
315.0
  0
ARC
  5
56A
100
AcDbEntity
  8
0
100
AcDbCircle
 62
7
  6
CONTINUOUS
 10
8.491766415
 20
11.6571330603
 40
0.0196850394
100
AcDbArc
 50
135.0
 51
180.0024588143
  0
ARC
  5
56B
100
AcDbEntity
  8
0
100
AcDbCircle
 62
7
  6
CONTINUOUS
 10
8.491766415
 20
11.6456018312
 40
0.0196850394
100
AcDbArc
 50
180.0011432902
 51
225.0027964971
  0
ARC
  5
56C
100
AcDbEntity
  8
0
100
AcDbCircle
 62
7
  6
CONTINUOUS
 10
9.4436121044
 20
11.0258042757
 40
0.5118110236
100
AcDbArc
 50
169.7158850771
 51
249.6710480593
  0
ARC
  5
56D
100
AcDbEntity
  8
0
100
AcDbCircle
 62
7
  6
CONTINUOUS
 10
9.0376370572
 20
10.4859008343
 40
0.4724409449
100
AcDbArc
 50
34.4249168973
 51
56.7360171921
  0
ARC
  5
56E
100
AcDbEntity
  8
0
100
AcDbCircle
 62
9
  6
CONTINUOUS
 10
9.4432276554
 20
11.0254112668
 40
0.4449133295
100
AcDbArc
 50
169.6569711083
 51
249.6684952279
  0
ARC
  5
56F
100
AcDbEntity
  8
0
100
AcDbCircle
 62
7
  6
CONTINUOUS
 10
9.3136754696
 20
10.6750846573
 40
0.1377952756
100
AcDbArc
 50
249.6710480599
 51
34.4249168912
  0
ARC
  5
570
100
AcDbEntity
  8
0
100
AcDbCircle
 62
7
  6
CONTINUOUS
 10
9.4178344142
 20
10.9202195366
 40
0.08
100
AcDbArc
 50
228.0
 51
315.0
  0
ARC
  5
571
100
AcDbEntity
  8
0
100
AcDbCircle
 62
7
  6
CONTINUOUS
 10
9.112655134
 20
11.0362443413
 40
0.0196850394
100
AcDbArc
 50
269.9975411861
 51
315.0
  0
ARC
  5
572
100
AcDbEntity
  8
0
100
AcDbCircle
 62
7
  6
CONTINUOUS
 10
9.0235708151
 20
11.1253286601
 40
0.0196850394
100
AcDbArc
 50
161.2637548569
 51
180.0024588139
  0
ARC
  5
573
100
AcDbEntity
  8
0
100
AcDbCircle
 62
7
  6
CONTINUOUS
 10
9.0235708151
 20
11.1137974311
 40
0.0196850394
100
AcDbArc
 50
180.0011432895
 51
224.9846661657
  0
ARC
  5
574
100
AcDbEntity
  8
0
100
AcDbCircle
 62
7
  6
CONTINUOUS
 10
9.1011239049
 20
11.0362443413
 40
0.0196850394
100
AcDbArc
 50
225.0153338328
 51
269.9988567094
  0
ARC
  5
575
100
AcDbEntity
  8
0
100
AcDbCircle
 62
7
  6
CONTINUOUS
 10
8.9986295075
 20
11.1502699678
 40
0.0196850394
100
AcDbArc
 50
269.9975411858
 51
315.0
  0
ARC
  5
576
100
AcDbEntity
  8
0
100
AcDbCircle
 62
7
  6
CONTINUOUS
 10
8.9870982784
 20
11.1502699678
 40
0.0196850394
100
AcDbArc
 50
224.9865653997
 51
269.99885671
  0
ARC
  5
577
100
AcDbEntity
  8
0
100
AcDbCircle
 62
7
  6
CONTINUOUS
 10
8.8867612547
 20
11.2033816518
 40
0.0196850394
100
AcDbArc
 50
269.9987952044
 51
315.0
  0
ARC
  5
578
100
AcDbEntity
  8
0
100
AcDbCircle
 62
7
  6
CONTINUOUS
 10
8.8752300256
 20
11.2033816518
 40
0.0196850394
100
AcDbArc
 50
224.9942783704
 51
269.998672795
  0
ARC
  5
579
100
AcDbEntity
  8
0
100
AcDbCircle
 62
7
  6
CONTINUOUS
 10
8.9420974793
 20
11.1365141981
 40
0.0196850394
100
AcDbArc
 50
225.0242762446
 51
269.9986727884
  0
ARC
  5
57A
100
AcDbEntity
  8
0
100
AcDbCircle
 62
7
  6
CONTINUOUS
 10
8.9536287083
 20
11.1365141981
 40
0.0196850394
100
AcDbArc
 50
269.9987952044
 51
315.0
  0
ARC
  5
57B
100
AcDbEntity
  8
0
100
AcDbCircle
 62
7
  6
CONTINUOUS
 10
8.8812476992
 20
11.1973639781
 40
0.0196850394
100
AcDbArc
 50
212.4770253979
 51
224.9757237554
  0
ARC
  5
57C
100
AcDbEntity
  8
0
100
AcDbCircle
 62
7
  6
CONTINUOUS
 10
9.2431176715
 20
10.9665433433
 40
0.0080451031
100
AcDbArc
 50
225.0285947496
 51
239.1370683212
  0
ARC
  5
57D
100
AcDbEntity
  8
0
100
AcDbCircle
 62
7
  6
CONTINUOUS
 10
8.9095451886
 20
11.2393542867
 40
0.0196850394
100
AcDbArc
 50
135.0
 51
180.0024588142
  0
ARC
  5
57E
100
AcDbEntity
  8
0
100
AcDbCircle
 62
7
  6
CONTINUOUS
 10
8.9095451886
 20
11.2278230576
 40
0.0196850394
100
AcDbArc
 50
180.00114329
 51
225.0134346003
  0
ARC
  5
57F
100
AcDbEntity
  8
0
100
AcDbCircle
 62
7
  6
CONTINUOUS
 10
8.8172409302
 20
11.3316585451
 40
0.0196850394
100
AcDbArc
 50
269.9975411859
 51
315.0
  0
ARC
  5
580
100
AcDbEntity
  8
0
100
AcDbCircle
 62
7
  6
CONTINUOUS
 10
8.8057097011
 20
11.3316585451
 40
0.0196850394
100
AcDbArc
 50
224.9982979706
 51
269.9988567098
  0
ARC
  5
581
100
AcDbEntity
  8
0
100
AcDbCircle
 62
7
  6
CONTINUOUS
 10
8.8143802456
 20
11.2757626609
 40
0.0196850394
100
AcDbArc
 50
135.0
 51
180.0012047948
  0
ARC
  5
582
100
AcDbEntity
  8
0
100
AcDbCircle
 62
7
  6
CONTINUOUS
 10
8.8143802456
 20
11.2642314318
 40
0.0196850394
100
AcDbArc
 50
180.0013272057
 51
225.0057216305
  0
ARC
  5
583
100
AcDbEntity
  8
0
100
AcDbCircle
 62
7
  6
CONTINUOUS
 10
8.8099527344
 20
11.2446184216
 40
0.0078740157
100
AcDbArc
 50
235.1465387618
 51
294.9661125861
  0
ARC
  5
584
100
AcDbEntity
  8
0
100
AcDbCircle
 62
7
  6
CONTINUOUS
 10
9.4341934334
 20
12.9772147457
 40
0.08
100
AcDbArc
 50
0.2317553725
 51
16.0449756281
  0
ARC
  5
585
100
AcDbEntity
  8
0
100
AcDbCircle
 62
7
  6
CONTINUOUS
 10
8.7595395836
 20
13.6518685955
 40
0.08
100
AcDbArc
 50
73.9550243719
 51
89.7682446275
  0
ARC
  5
586
100
AcDbEntity
  8
0
100
AcDbCircle
 62
7
  6
CONTINUOUS
 10
9.5974981095
 20
12.1605434037
 40
0.08
100
AcDbArc
 50
180.2317553725
 51
225.0
  0
ARC
  5
587
100
AcDbEntity
  8
0
100
AcDbCircle
 62
7
  6
CONTINUOUS
 10
9.5672076915
 20
13.7848828537
 40
2.5590551181
100
AcDbArc
 50
222.3528405071
 51
227.6471594929
  0
ARC
  5
588
100
AcDbEntity
  8
0
100
AcDbCircle
 62
7
  6
CONTINUOUS
 10
9.6441671571
 20
13.8618423193
 40
0.489
100
AcDbArc
 50
343.8676339181
 51
0.0258404644
  0
ARC
  5
589
100
AcDbEntity
  8
0
100
AcDbCircle
 62
7
  6
CONTINUOUS
 10
9.6441671571
 20
13.8618423193
 40
0.489
100
AcDbArc
 50
89.9741595356
 51
106.1323660819
  0
ARC
  5
58A
100
AcDbEntity
  8
0
100
AcDbCircle
 62
7
  6
CONTINUOUS
 10
9.6444237768
 20
14.4308422614
 40
0.08
100
AcDbArc
 50
269.9741595356
 51
360.0
  0
ARC
  5
58B
100
AcDbEntity
  8
0
100
AcDbCircle
 62
7
  6
CONTINUOUS
 10
7.9428682416
 20
13.8151732717
 40
0.08
100
AcDbArc
 50
225.0
 51
269.7682446275
  0
ARC
  5
58C
100
AcDbEntity
  8
0
100
AcDbCircle
 62
7
  6
CONTINUOUS
 10
7.2994010707
 20
14.2323662726
 40
0.08
100
AcDbArc
 50
45.0
 51
135.0
  0
ARC
  5
58D
100
AcDbEntity
  8
0
100
AcDbCircle
 62
7
  6
CONTINUOUS
 10
10.0146911104
 20
11.5170762329
 40
0.08
100
AcDbArc
 50
315.0
 51
45.0
  0
ARC
  5
58E
100
AcDbEntity
  8
0
100
AcDbCircle
 62
9
  6
CONTINUOUS
 10
12.7694229507
 20
16.8962686189
 40
6.9265790662
100
AcDbArc
 50
239.2610109886
 51
240.0308013472
  0
ARC
  5
58F
100
AcDbEntity
  8
0
100
AcDbCircle
 62
7
  6
CONTINUOUS
 10
12.5474226038
 20
14.2902240319
 40
2.15625
100
AcDbArc
 50
90.0
 51
135.0
  0
ARC
  5
590
100
AcDbEntity
  8
0
100
AcDbCircle
 62
7
  6
CONTINUOUS
 10
12.5474226038
 20
14.2902240319
 40
1.34375
100
AcDbArc
 50
90.0
 51
135.0
  0
ARC
  5
591
100
AcDbEntity
  8
0
100
AcDbCircle
 62
7
  6
CONTINUOUS
 10
10.286483264
 20
14.1300989389
 40
0.188
100
AcDbArc
 50
270.0
 51
315.0
  0
ARC
  5
592
100
AcDbEntity
  8
0
100
AcDbCircle
 62
7
  6
CONTINUOUS
 10
9.9124237768
 20
14.5041584262
 40
0.188
100
AcDbArc
 50
135.0
 51
180.0
  0
ARC
  5
593
100
AcDbEntity
  8
0
100
AcDbCircle
 62
7
  6
CONTINUOUS
 10
10.2131670992
 20
13.8620989389
 40
0.08
100
AcDbArc
 50
90.0
 51
180.0258404644
  0
ARC
  5
594
100
AcDbEntity
  8
0
100
AcDbCircle
 62
9
  6
CONTINUOUS
 10
14.6778544218
 20
4.0893855624
 40
2.5166126883
100
AcDbArc
 50
190.6745881733
 51
191.4635019257
  0
ARC
  5
595
100
AcDbEntity
  8
0
100
AcDbCircle
 62
9
  6
CONTINUOUS
 10
14.1555746259
 20
4.0906802861
 40
1.9412620455
100
AcDbArc
 50
191.1003298424
 51
193.3055181363
  0
ARC
  5
596
100
AcDbEntity
  8
0
100
AcDbCircle
 62
7
  6
CONTINUOUS
 10
14.4844226038
 20
0.7797892493
 40
0.1254347826
100
AcDbArc
 50
22.9364108859
 51
70.4680059554
  0
ARC
  5
597
100
AcDbEntity
  8
0
100
AcDbCircle
 62
7
  6
CONTINUOUS
 10
14.4844226038
 20
7.3006588145
 40
0.1254347826
100
AcDbArc
 50
289.5319940446
 51
337.0635891141
  0
ARC
  5
598
100
AcDbEntity
  8
0
100
AcDbCircle
 62
7
  6
CONTINUOUS
 10
13.8094226038
 20
3.0152240319
 40
0.1
100
AcDbArc
 50
0.0
 51
90.0
  0
ARC
  5
599
100
AcDbEntity
  8
0
100
AcDbCircle
 62
7
  6
CONTINUOUS
 10
13.8094226038
 20
5.0652240319
 40
0.1
100
AcDbArc
 50
270.0
 51
360.0
  0
ARC
  5
59A
100
AcDbEntity
  8
0
100
AcDbCircle
 62
7
  6
CONTINUOUS
 10
13.9094226038
 20
2.8652240319
 40
0.1
100
AcDbArc
 50
4.2173648651
 51
90.0
  0
ARC
  5
59B
100
AcDbEntity
  8
0
100
AcDbCircle
 62
7
  6
CONTINUOUS
 10
13.9094226038
 20
5.2152240319
 40
0.1
100
AcDbArc
 50
270.0
 51
355.7826351349
  0
ARC
  5
59C
100
AcDbEntity
  8
0
100
AcDbCircle
 62
7
  6
CONTINUOUS
 10
14.5474226038
 20
7.1230675216
 40
0.063
100
AcDbArc
 50
109.5319940456
 51
180.0
  0
ARC
  5
59D
100
AcDbEntity
  8
0
100
AcDbCircle
 62
7
  6
CONTINUOUS
 10
14.5474226038
 20
0.9573805421
 40
0.063
100
AcDbArc
 50
180.0
 51
250.4680059544
  0
ARC
  5
59E
100
AcDbEntity
  8
0
100
AcDbCircle
 62
7
  6
CONTINUOUS
 10
14.6579593435
 20
7.2272240319
 40
0.063
100
AcDbArc
 50
90.0
 51
157.0635891141
  0
ARC
  5
59F
100
AcDbEntity
  8
0
100
AcDbCircle
 62
7
  6
CONTINUOUS
 10
14.6579593435
 20
0.8532240319
 40
0.063
100
AcDbArc
 50
202.9364108859
 51
270.0
  0
ARC
  5
5A0
100
AcDbEntity
  8
0
100
AcDbCircle
 62
7
  6
CONTINUOUS
 10
12.8996784321
 20
17.1173731574
 40
7.1691060897
100
AcDbArc
 50
219.1377473573
 51
219.2089918143
  0
ARC
  5
5A1
100
AcDbEntity
  8
0
100
AcDbCircle
 62
7
  6
CONTINUOUS
 10
12.8996979952
 20
17.1173535942
 40
7.1691060897
100
AcDbArc
 50
232.7966470933
 51
234.3230697234
  0
ARC
  5
5A2
100
AcDbEntity
  8
0
100
AcDbCircle
 62
7
  6
CONTINUOUS
 10
12.8997033999
 20
17.1173981252
 40
7.1643816803
100
AcDbArc
 50
214.8532231336
 51
215.5750973652
  0
ARC
  5
5A3
100
AcDbEntity
  8
0
100
AcDbCircle
 62
7
  6
CONTINUOUS
 10
12.8997229631
 20
17.1173785621
 40
7.1643816803
100
AcDbArc
 50
234.4249026348
 51
235.1467768664
  0
ARC
  5
5A4
100
AcDbEntity
  8
0
100
AcDbCircle
 62
7
  6
CONTINUOUS
 10
12.8997033999
 20
17.1173981252
 40
7.1643816803
100
AcDbArc
 50
210.1944718959
 51
210.7102731828
  0
ARC
  5
5A5
100
AcDbEntity
  8
0
100
AcDbCircle
 62
7
  6
CONTINUOUS
 10
12.8993394014
 20
17.1171483587
 40
7.1633226517
100
AcDbArc
 50
239.270521551
 51
239.7914629
  0
ARC
  5
5A6
100
AcDbEntity
  8
0
100
AcDbCircle
 62
9
  6
CONTINUOUS
 10
12.903221718
 20
17.1233183122
 40
7.1507436036
100
AcDbArc
 50
238.2880417734
 51
238.6171785401
  0
ARC
  5
5A7
100
AcDbEntity
  8
0
100
AcDbCircle
 62
7
  6
CONTINUOUS
 10
18.8525820196
 20
15.9880501197
 40
4.5
100
AcDbArc
 50
164.4604045096
 51
173.5855182739
  0
ARC
  5
5A8
100
AcDbEntity
  8
0
100
AcDbCircle
 62
7
  6
CONTINUOUS
 10
18.8525820196
 20
16.092397944
 40
4.5
100
AcDbArc
 50
186.4144817261
 51
195.5395954904
  0
ARC
  5
5A9
100
AcDbEntity
  8
0
100
AcDbCircle
 62
7
  6
CONTINUOUS
 10
14.5652493566
 20
14.9002240319
 40
0.05
100
AcDbArc
 50
195.5395954904
 51
270.0
  0
ARC
  5
5AA
100
AcDbEntity
  8
0
100
AcDbCircle
 62
7
  6
CONTINUOUS
 10
14.5652493566
 20
17.1802240319
 40
0.05
100
AcDbArc
 50
90.0
 51
164.4604045096
  0
LINE
  5
5AB
100
AcDbEntity
  8
0
100
AcDbLine
 62
7
  6
CONTINUOUS
 10
7.2007566481
 20
12.76822678
 11
7.1985098512
 21
12.7711340289
  0
LINE
  5
5AC
100
AcDbEntity
  8
0
100
AcDbLine
 62
7
  6
CONTINUOUS
 10
7.1985098512
 20
12.7711340289
 11
7.1980067188
 21
12.7717851524
  0
LINE
  5
5AD
100
AcDbEntity
  8
0
100
AcDbLine
 62
7
  6
CONTINUOUS
 10
7.1980067188
 20
12.7717851524
 11
7.1812287288
 21
12.7935536525
  0
SPLINE
  5
5AE
100
AcDbEntity
  8
0
100
AcDbSpline
 62
7
  6
CONTINUOUS
 70
0
 71
3
 72
45
 73
41
 74
0
 42
0.0000001
 43
0.0000001
 44
0.0000000001
 40
0.0
 40
0.0
 40
0.0
 40
0.0
 40
0.0292395303
 40
0.0608108606
 40
0.1301997436
 40
0.2065621465
 40
0.2881307768
 40
0.3730179658
 40
0.4592597136
 40
0.5448613311
 40
0.6278436268
 40
0.6677496588
 40
0.7062890289
 40
0.7432389783
 40
0.7783860138
 40
0.8115271304
 40
0.8424711144
 40
0.8710395912
 40
0.8970681756
 40
0.9204074724
 40
0.9409240491
 40
0.9500867677
 40
0.9585016026
 40
0.9661567608
 40
0.9730420654
 40
0.9791481469
 40
0.9844677845
 40
0.9889949908
 40
0.9909603596
 40
0.9927267113
 40
0.9942941899
 40
0.9956633116
 40
0.9968353804
 40
0.9978128911
 40
0.998600441
 40
0.9992072831
 40
0.9994492549
 40
0.9996560742
 40
0.99983568
 40
1.0
 40
1.0
 40
1.0
 40
1.0
 10
10.1243748617
 20
14.7477649159
 30
0.0
 10
10.1291718681
 20
14.7433940989
 30
0.0
 10
10.1391290105
 20
14.734282574
 30
0.0
 10
10.1603843411
 20
14.7147051277
 30
0.0
 10
10.1892270223
 20
14.6879278001
 30
0.0
 10
10.2260893333
 20
14.6534795652
 30
0.0
 10
10.2653869846
 20
14.6165995809
 30
0.0
 10
10.3062368881
 20
14.5781695106
 30
0.0
 10
10.3477202795
 20
14.5391064933
 30
0.0
 10
10.3889042836
 20
14.5003422506
 30
0.0
 10
10.422629016
 20
14.4686578028
 30
0.0
 10
10.4487740354
 20
14.4441605758
 30
0.0
 10
10.4674836543
 20
14.4266703429
 30
0.0
 10
10.485445725
 20
14.4099271809
 30
0.0
 10
10.5025597719
 20
14.3940314733
 30
0.0
 10
10.5187302161
 20
14.3790786431
 30
0.0
 10
10.5338669304
 20
14.3651586034
 30
0.0
 10
10.5478857732
 20
14.3523552251
 30
0.0
 10
10.560708988
 20
14.3407457457
 30
0.0
 10
10.5722658035
 20
14.3304005374
 30
0.0
 10
10.5810914332
 20
14.3226170651
 30
0.0
 10
10.587477249
 20
14.3170756602
 30
0.0
 10
10.5917299571
 20
14.3134316726
 30
0.0
 10
10.5956238128
 20
14.3101459257
 30
0.0
 10
10.5991535348
 20
14.3072235012
 30
0.0
 10
10.6023144248
 20
14.3046687839
 30
0.0
 10
10.6051022215
 20
14.302485699
 30
0.0
 10
10.607199439
 20
14.3009119659
 30
0.0
 10
10.6086910013
 20
14.2998463215
 30
0.0
 10
10.6096606477
 20
14.2991805151
 30
0.0
 10
10.6105347306
 20
14.2986097738
 30
0.0
 10
10.6113130349
 20
14.2981341976
 30
0.0
 10
10.6119953312
 20
14.2977537719
 30
0.0
 10
10.6125818666
 20
14.2974678861
 30
0.0
 10
10.6130726807
 20
14.2972763093
 30
0.0
 10
10.6134271629
 20
14.2971870689
 30
0.0
 10
10.6136617374
 20
14.2971724695
 30
0.0
 10
10.6138013294
 20
14.2971867831
 30
0.0
 10
10.6139183602
 20
14.2972263379
 30
0.0
 10
10.6139816285
 20
14.2972716098
 30
0.0
 10
10.6140074152
 20
14.2972974001
 30
0.0
  0
SPLINE
  5
5AF
100
AcDbEntity
  8
0
100
AcDbSpline
 62
9
  6
CONTINUOUS
 70
0
 71
3
 72
28
 73
24
 74
0
 42
0.0000001
 43
0.0000001
 44
0.0000000001
 40
0.0
 40
0.0
 40
0.0
 40
0.0
 40
0.0033162795
 40
0.0067543327
 40
0.0143447679
 40
0.0233652032
 40
0.0341490514
 40
0.0468744102
 40
0.0616338173
 40
0.0784675806
 40
0.0973826128
 40
0.1183667086
 40
0.141388141
 40
0.1933624822
 40
0.2528532147
 40
0.3192728256
 40
0.3919261226
 40
0.4700242544
 40
0.5526963882
 40
0.6390007522
 40
0.7279400823
 40
0.8184663873
 40
1.0
 40
1.0
 40
1.0
 40
1.0
 10
7.9172282259
 20
12.0237653719
 30
0.0
 10
7.9172946133
 20
12.0238317734
 30
0.0
 10
7.9174428735
 20
12.023954577
 30
0.0
 10
7.9177985098
 20
12.024154573
 30
0.0
 10
7.918354837
 20
12.0243041457
 30
0.0
 10
7.9191342682
 20
12.0243274468
 30
0.0
 10
7.9200504209
 20
12.024208677
 30
0.0
 10
7.9211039312
 20
12.0239486937
 30
0.0
 10
7.9222941682
 20
12.0235479372
 30
0.0
 10
7.9236187119
 20
12.0230068723
 30
0.0
 10
7.9250744189
 20
12.0223265586
 30
0.0
 10
7.9266573903
 20
12.0215084159
 30
0.0
 10
7.9290295507
 20
12.0201817686
 30
0.0
 10
7.932272366
 20
12.018182745
 30
0.0
 10
7.9364508672
 20
12.0153691318
 30
0.0
 10
7.9410120127
 20
12.0120808595
 30
0.0
 10
7.9459036268
 20
12.0083541453
 30
0.0
 10
7.9510689707
 20
12.0042303496
 30
0.0
 10
7.9564473955
 20
11.9997563535
 30
0.0
 10
7.9619762042
 20
11.9949851274
 30
0.0
 10
7.9675894759
 20
11.9899730288
 30
0.0
 10
7.9751029758
 20
11.9830429473
 30
0.0
 10
7.9806392698
 20
11.9776844365
 30
0.0
 10
7.9842725945
 20
11.9740488766
 30
0.0
  0
LINE
  5
5B0
100
AcDbEntity
  8
0
100
AcDbLine
 62
9
  6
CONTINUOUS
 10
12.2240015649
 20
1.2302386766
 11
12.2063940712
 21
1.2303920417
  0
SPLINE
  5
5B1
100
AcDbEntity
  8
0
100
AcDbSpline
 62
9
  6
CONTINUOUS
 70
0
 71
3
 72
26
 73
22
 74
0
 42
0.0000001
 43
0.0000001
 44
0.0000000001
 40
0.0
 40
0.0
 40
0.0
 40
0.0
 40
0.1978417205
 40
0.3836198773
 40
0.4702078322
 40
0.5517165745
 40
0.6275534371
 40
0.6971847391
 40
0.7601425235
 40
0.8160304103
 40
0.8645435823
 40
0.8859729651
 40
0.9054986581
 40
0.9231219835
 40
0.9388638375
 40
0.9527658631
 40
0.9649048452
 40
0.9754145501
 40
0.9845114027
 40
0.9925391377
 40
1.0
 40
1.0
 40
1.0
 40
1.0
 10
7.9842725945
 20
11.9740488766
 30
0.0
 10
7.9871227099
 20
11.9712001536
 30
0.0
 10
7.9925773477
 20
11.9656039571
 30
0.0
 10
7.9990625648
 20
11.958554203
 30
0.0
 10
8.0038051141
 20
11.9531259672
 30
0.0
 10
8.0070033183
 20
11.9493232376
 30
0.0
 10
8.0099032575
 20
11.9457222149
 30
0.0
 10
8.0124826941
 20
11.9423498043
 30
0.0
 10
8.0147231826
 20
11.9392315796
 30
0.0
 10
8.0166092675
 20
11.936391095
 30
0.0
 10
8.0179256951
 20
11.9341902686
 30
0.0
 10
8.0187814086
 20
11.9325809479
 30
0.0
 10
8.0193001612
 20
11.9315060776
 30
0.0
 10
8.0197222724
 20
11.9305143973
 30
0.0
 10
8.0200473325
 20
11.9296074673
 30
0.0
 10
8.0202750583
 20
11.9287864499
 30
0.0
 10
8.0204051408
 20
11.9280519504
 30
0.0
 10
8.0204372838
 20
11.9274039338
 30
0.0
 10
8.0203696835
 20
11.9268415032
 30
0.0
 10
8.0201982258
 20
11.9263654505
 30
0.0
 10
8.0200087954
 20
11.9261063319
 30
0.0
 10
8.0199013516
 20
11.9259988652
 30
0.0
  0
SPLINE
  5
5B2
100
AcDbEntity
  8
0
100
AcDbSpline
 62
9
  6
CONTINUOUS
 70
0
 71
3
 72
17
 73
13
 74
0
 42
0.0000001
 43
0.0000001
 44
0.0000000001
 40
0.0
 40
0.0
 40
0.0
 40
0.0
 40
0.0232903767
 40
0.0527215333
 40
0.08811112
 40
0.1288027498
 40
0.2220255675
 40
0.3299560884
 40
0.4631688447
 40
0.6224309681
 40
0.8039438465
 40
1.0
 40
1.0
 40
1.0
 40
1.0
 10
7.9937331032
 20
11.9811319079
 30
0.0
 10
7.9936406963
 20
11.9811398916
 30
0.0
 10
7.9934287979
 20
11.9811190349
 30
0.0
 10
7.9930912994
 20
11.9810208954
 30
0.0
 10
7.9927026997
 20
11.980859134
 30
0.0
 10
7.9921014009
 20
11.9805533232
 30
0.0
 10
7.9912802646
 20
11.9800474403
 30
0.0
 10
7.9901915744
 20
11.9792800425
 30
0.0
 10
7.9889327772
 20
11.9783003182
 30
0.0
 10
7.9874897767
 20
11.9770828037
 30
0.0
 10
7.9859053407
 20
11.9756469245
 30
0.0
 10
7.9848246921
 20
11.9746009554
 30
0.0
 10
7.9842726472
 20
11.9740488241
 30
0.0
  0
SPLINE
  5
5B3
100
AcDbEntity
  8
0
100
AcDbSpline
 62
7
  6
CONTINUOUS
 70
0
 71
3
 72
21
 73
17
 74
0
 42
0.0000001
 43
0.0000001
 44
0.0000000001
 40
0.0
 40
0.0
 40
0.0
 40
0.0
 40
0.0454621946
 40
0.0912805906
 40
0.1377936718
 40
0.185375282
 40
0.2344236469
 40
0.2853665523
 40
0.3386697734
 40
0.3948460486
 40
0.4544484557
 40
0.5180592368
 40
0.6593703398
 40
0.7379946587
 40
0.8217729814
 40
1.0
 40
1.0
 40
1.0
 40
1.0
 10
9.7770636989
 20
14.5275028801
 30
0.0
 10
9.77586723
 20
14.528699349
 30
0.0
 10
9.7735839405
 20
14.5312241922
 30
0.0
 10
9.7705391998
 20
14.5353613305
 30
0.0
 10
9.7678832546
 20
14.539850818
 30
0.0
 10
9.7656400514
 20
14.5446929748
 30
0.0
 10
9.7638360568
 20
14.5498903995
 30
0.0
 10
9.7625074056
 20
14.5554486408
 30
0.0
 10
9.7616984402
 20
14.561374135
 30
0.0
 10
9.7614620838
 20
14.567672715
 30
0.0
 10
9.7618644749
 20
14.5743483204
 30
0.0
 10
9.7634075462
 20
14.5840848085
 30
0.0
 10
9.7666206529
 20
14.5942188129
 30
0.0
 10
9.7715057605
 20
14.6044272887
 30
0.0
 10
9.7780601456
 20
14.6152972219
 30
0.0
 10
9.7843195605
 20
14.6228815254
 30
0.0
 10
9.789010119
 20
14.6275720839
 30
0.0
  0
SPLINE
  5
5B4
100
AcDbEntity
  8
0
100
AcDbSpline
 62
7
  6
CONTINUOUS
 70
0
 71
3
 72
21
 73
17
 74
0
 42
0.0000001
 43
0.0000001
 44
0.0000000001
 40
0.0
 40
0.0
 40
0.0
 40
0.0
 40
0.1782281523
 40
0.2620067723
 40
0.3406312391
 40
0.4819417773
 40
0.5455523504
 40
0.6051546057
 40
0.6613307224
 40
0.7146338363
 40
0.7655766674
 40
0.8146249843
 40
0.8622065046
 40
0.9087194528
 40
0.9545377962
 40
1.0
 40
1.0
 40
1.0
 40
1.0
 10
9.8771329027
 20
14.5394493003
 30
0.0
 10
9.8724423144
 20
14.5347587119
 30
0.0
 10
9.8648579627
 20
14.5284992697
 30
0.0
 10
9.8539879708
 20
14.5219448682
 30
0.0
 10
9.8437794895
 20
14.5170597826
 30
0.0
 10
9.8336455039
 20
14.5138466967
 30
0.0
 10
9.8239090475
 20
14.5123036439
 30
0.0
 10
9.8172334607
 20
14.5119012699
 30
0.0
 10
9.8109348969
 20
14.5121376277
 30
0.0
 10
9.8050094148
 20
14.5129465918
 30
0.0
 10
9.7994511857
 20
14.5142752549
 30
0.0
 10
9.7942537648
 20
14.5160792368
 30
0.0
 10
9.7894116248
 20
14.5183224522
 30
0.0
 10
9.7849221416
 20
14.5209783835
 30
0.0
 10
9.7807850106
 20
14.5240231234
 30
0.0
 10
9.7782601681
 20
14.526306411
 30
0.0
 10
9.7770636989
 20
14.5275028801
 30
0.0
  0
SPLINE
  5
5B5
100
AcDbEntity
  8
0
100
AcDbSpline
 62
9
  6
CONTINUOUS
 70
0
 71
3
 72
28
 73
24
 74
0
 42
0.0000001
 43
0.0000001
 44
0.0000000001
 40
0.0
 40
0.0
 40
0.0
 40
0.0
 40
0.1720536757
 40
0.347642505
 40
0.4336789968
 40
0.5169417148
 40
0.5962950339
 40
0.6706759814
 40
0.7391093035
 40
0.8007218979
 40
0.8547578919
 40
0.8787373829
 40
0.9006052645
 40
0.9203110242
 40
0.9378222946
 40
0.9531262914
 40
0.9662411713
 40
0.9772348433
 40
0.9862597178
 40
0.9901315456
 40
0.9936512066
 40
0.996904212
 40
1.0
 40
1.0
 40
1.0
 40
1.0
 10
7.6512549183
 20
12.307066553
 30
0.0
 10
7.6551427273
 20
12.3031806925
 30
0.0
 10
7.6628480356
 20
12.2951779914
 30
0.0
 10
7.6721254384
 20
12.2848838365
 30
0.0
 10
7.679294298
 20
12.2765156278
 30
0.0
 10
7.6843546239
 20
12.2703912647
 30
0.0
 10
7.6890647916
 20
12.2644623716
 30
0.0
 10
7.693361285
 20
12.25881186
 30
0.0
 10
7.6971864879
 20
12.253517201
 30
0.0
 10
7.7004897146
 20
12.2486503151
 30
0.0
 10
7.7028595547
 20
12.2448691306
 30
0.0
 10
7.704449538
 20
12.2421019241
 30
0.0
 10
7.7054388392
 20
12.2402555873
 30
0.0
 10
7.7062704039
 20
12.2385604199
 30
0.0
 10
7.7069418846
 20
12.2370219009
 30
0.0
 10
7.707451603
 20
12.2356448606
 30
0.0
 10
7.7077986371
 20
12.2344326115
 30
0.0
 10
7.7079826447
 20
12.2333880227
 30
0.0
 10
7.7080003915
 20
12.2326194697
 30
0.0
 10
7.7079171775
 20
12.2321001709
 30
0.0
 10
7.7078150745
 20
12.2317742641
 30
0.0
 10
7.7076695261
 20
12.2314926297
 30
0.0
 10
7.7075413843
 20
12.2313331941
 30
0.0
 10
7.7074715416
 20
12.231263164
 30
0.0
  0
SPLINE
  5
5B6
100
AcDbEntity
  8
0
100
AcDbSpline
 62
9
  6
CONTINUOUS
 70
0
 71
3
 72
17
 73
13
 74
0
 42
0.0000001
 43
0.0000001
 44
0.0000000001
 40
0.0
 40
0.0
 40
0.0
 40
0.0
 40
0.0686898004
 40
0.1087667831
 40
0.1524889118
 40
0.1992823019
 40
0.2482164163
 40
0.3553923169
 40
0.485268725
 40
0.6388307073
 40
0.812725316
 40
1.0
 40
1.0
 40
1.0
 40
1.0
 10
7.6572402393
 20
12.3176226776
 30
0.0
 10
7.6573450399
 20
12.3173560039
 30
0.0
 10
7.6573914907
 20
12.3168882218
 30
0.0
 10
7.65732047
 20
12.316257112
 30
0.0
 10
7.6571999344
 20
12.3157243429
 30
0.0
 10
7.657022564
 20
12.31516995
 30
0.0
 10
7.656710578
 20
12.3143825695
 30
0.0
 10
7.6561760731
 20
12.3133137302
 30
0.0
 10
7.6553246037
 20
12.3119227223
 30
0.0
 10
7.6542096769
 20
12.3103727192
 30
0.0
 10
7.6528405761
 20
12.3087168989
 30
0.0
 10
7.6518084386
 20
12.3076177912
 30
0.0
 10
7.6512559888
 20
12.3070654804
 30
0.0
  0
SPLINE
  5
5B7
100
AcDbEntity
  8
0
100
AcDbSpline
 62
9
  6
CONTINUOUS
 70
0
 71
3
 72
27
 73
23
 74
0
 42
0.0000001
 43
0.0000001
 44
0.0000000001
 40
0.0
 40
0.0
 40
0.0
 40
0.0
 40
0.1862895644
 40
0.2780718929
 40
0.3676441049
 40
0.4540554475
 40
0.5364084096
 40
0.6138617629
 40
0.6856421319
 40
0.7510537021
 40
0.8094891133
 40
0.860444159
 40
0.882995567
 40
0.9035462
 40
0.9220773882
 40
0.9385832188
 40
0.9530826331
 40
0.9656272788
 40
0.9763195035
 40
0.9853523914
 40
0.9930625007
 40
1.0
 40
1.0
 40
1.0
 40
1.0
 10
7.8161547225
 20
12.1421667488
 30
0.0
 10
7.8196116099
 20
12.1387114995
 30
0.0
 10
7.8246923723
 20
12.1334735936
 30
0.0
 10
7.8312442772
 20
12.1263941597
 30
0.0
 10
7.8359332442
 20
12.1211622353
 30
0.0
 10
7.8403708349
 20
12.1160385427
 30
0.0
 10
7.8445102407
 20
12.1110785789
 30
0.0
 10
7.8483070768
 20
12.1063342649
 30
0.0
 10
7.8517224858
 20
12.1018558536
 30
0.0
 10
7.8547226462
 20
12.0976903958
 30
0.0
 10
7.8572777535
 20
12.0938807575
 30
0.0
 10
7.8590838396
 20
12.0909255915
 30
0.0
 10
7.8602755868
 20
12.0887642394
 30
0.0
 10
7.8610070151
 20
12.0873216308
 30
0.0
 10
7.8616118376
 20
12.0859939518
 30
0.0
 10
7.8620887471
 20
12.0847841589
 30
0.0
 10
7.862437043
 20
12.0836948265
 30
0.0
 10
7.8626564247
 20
12.0827276989
 30
0.0
 10
7.8627463696
 20
12.0818832503
 30
0.0
 10
7.8627053324
 20
12.0811601794
 30
0.0
 10
7.8625276227
 20
12.0805572487
 30
0.0
 10
7.8623045655
 20
12.0802336545
 30
0.0
 10
7.8621758668
 20
12.0801049424
 30
0.0
  0
SPLINE
  5
5B8
100
AcDbEntity
  8
0
100
AcDbSpline
 62
9
  6
CONTINUOUS
 70
0
 71
3
 72
18
 73
14
 74
0
 42
0.0000001
 43
0.0000001
 44
0.0000000001
 40
0.0
 40
0.0
 40
0.0
 40
0.0
 40
0.019228855
 40
0.046095831
 40
0.0798661725
 40
0.1195847179
 40
0.1641357587
 40
0.2121707864
 40
0.3205371937
 40
0.45505845
 40
0.6164448815
 40
0.800746036
 40
1.0
 40
1.0
 40
1.0
 40
1.0
 10
7.8238603598
 20
12.1510025976
 30
0.0
 10
7.8238403123
 20
12.1509299618
 30
0.0
 10
7.823765045
 20
12.1507641688
 30
0.0
 10
7.8236068851
 20
12.1504943209
 30
0.0
 10
7.8233869885
 20
12.1501678747
 30
0.0
 10
7.8231138872
 20
12.1497945292
 30
0.0
 10
7.8227963486
 20
12.1493846038
 30
0.0
 10
7.8223017179
 20
12.1487718301
 30
0.0
 10
7.8215640542
 20
12.1479024143
 30
0.0
 10
7.8205121001
 20
12.1467177495
 30
0.0
 10
7.8192360269
 20
12.145334588
 30
0.0
 10
7.8177617088
 20
12.1437896335
 30
0.0
 10
7.8167071351
 20
12.142718567
 30
0.0
 10
7.8161550032
 20
12.1421664661
 30
0.0
  0
SPLINE
  5
5B9
100
AcDbEntity
  8
0
100
AcDbSpline
 62
9
  6
CONTINUOUS
 70
0
 71
3
 72
17
 73
13
 74
0
 42
0.0000001
 43
0.0000001
 44
0.0000000001
 40
0.0
 40
0.0
 40
0.0
 40
0.0
 40
0.0177172363
 40
0.037523256
 40
0.0617326862
 40
0.0916546229
 40
0.1710382211
 40
0.2784782514
 40
0.4148937558
 40
0.5805864591
 40
0.7756318381
 40
1.0
 40
1.0
 40
1.0
 40
1.0
 10
7.1974063183
 20
12.7605057038
 30
0.0
 10
7.1974148706
 20
12.7605141539
 30
0.0
 10
7.1974372961
 20
12.7605280995
 30
0.0
 10
7.1974795903
 20
12.7605340284
 30
0.0
 10
7.1975296749
 20
12.7605271519
 30
0.0
 10
7.1976161007
 20
12.7604989659
 30
0.0
 10
7.1977460061
 20
12.7604281482
 30
0.0
 10
7.1979260822
 20
12.7603027979
 30
0.0
 10
7.1981427914
 20
12.7601284663
 30
0.0
 10
7.1983959447
 20
12.759905398
 30
0.0
 10
7.1986853241
 20
12.759633459
 30
0.0
 10
7.1988880597
 20
12.7594336783
 30
0.0
 10
7.1989955857
 20
12.7593258855
 30
0.0
  0
SPLINE
  5
5BA
100
AcDbEntity
  8
0
100
AcDbSpline
 62
9
  6
CONTINUOUS
 70
0
 71
3
 72
19
 73
15
 74
0
 42
0.0000001
 43
0.0000001
 44
0.0000000001
 40
0.0
 40
0.0
 40
0.0
 40
0.0
 40
0.2232264625
 40
0.4179964185
 40
0.5838824047
 40
0.7206907513
 40
0.7782511066
 40
0.8286526813
 40
0.8720061191
 40
0.9085134735
 40
0.9385423608
 40
0.9627669176
 40
0.9824766402
 40
1.0
 40
1.0
 40
1.0
 40
1.0
 10
8.5081727909
 20
11.4501486803
 30
0.0
 10
8.5084679644
 20
11.4498538235
 30
0.0
 10
8.5090158579
 20
11.4492968226
 30
0.0
 10
8.5097623231
 20
11.4485005635
 30
0.0
 10
8.5103759786
 20
11.4478018397
 30
0.0
 10
8.5107973051
 20
11.4472760659
 30
0.0
 10
8.5110634345
 20
11.4469038141
 30
0.0
 10
8.5112173548
 20
11.4466664098
 30
0.0
 10
8.5113375154
 20
11.4464544466
 30
0.0
 10
8.5114240577
 20
11.4462678456
 30
0.0
 10
8.5114772243
 20
11.4461061748
 30
0.0
 10
8.5114970224
 20
11.4459683378
 30
0.0
 10
8.5114816066
 20
11.4458522282
 30
0.0
 10
8.5114435695
 20
11.4457907844
 30
0.0
 10
8.5114204648
 20
11.4457675717
 30
0.0
  0
SPLINE
  5
5BB
100
AcDbEntity
  8
0
100
AcDbSpline
 62
9
  6
CONTINUOUS
 70
0
 71
3
 72
12
 73
8
 74
0
 42
0.0000001
 43
0.0000001
 44
0.0000000001
 40
0.0
 40
0.0
 40
0.0
 40
0.0
 40
0.3418218444
 40
0.6224516434
 40
0.8417286972
 40
0.9284259298
 40
1.0
 40
1.0
 40
1.0
 40
1.0
 10
8.5222864727
 20
11.448758528
 30
0.0
 10
8.5227319667
 20
11.4484942242
 30
0.0
 10
8.5235485413
 20
11.4480216568
 30
0.0
 10
8.524673726
 20
11.4474204923
 30
0.0
 10
8.5254782722
 20
11.4470402804
 30
0.0
 10
8.5260119309
 20
11.4468334302
 30
0.0
 10
8.5262410708
 20
11.4467614294
 30
0.0
 10
8.5263461749
 20
11.446734644
 30
0.0
  0
SPLINE
  5
5BC
100
AcDbEntity
  8
0
100
AcDbSpline
 62
9
  6
CONTINUOUS
 70
0
 71
3
 72
18
 73
14
 74
0
 42
0.0000001
 43
0.0000001
 44
0.0000000001
 40
0.0
 40
0.0
 40
0.0
 40
0.0
 40
0.1564489586
 40
0.2737819981
 40
0.3200039569
 40
0.3600492947
 40
0.3966934219
 40
0.4335121466
 40
0.4740517793
 40
0.5210123091
 40
0.6402877208
 40
0.7990125225
 40
1.0
 40
1.0
 40
1.0
 40
1.0
 10
8.5263461749
 20
11.446734644
 30
0.0
 10
8.5264321683
 20
11.446712729
 30
0.0
 10
8.5265843488
 20
11.4466810136
 30
0.0
 10
8.5267678987
 20
11.4466734218
 30
0.0
 10
8.5268814202
 20
11.4466982535
 30
0.0
 10
8.526945053
 20
11.4467287078
 30
0.0
 10
8.5269930592
 20
11.4467733204
 30
0.0
 10
8.527023669
 20
11.4468315692
 30
0.0
 10
8.5270368878
 20
11.446901647
 30
0.0
 10
8.5270323844
 20
11.4470195347
 30
0.0
 10
8.5269795837
 20
11.4471983244
 30
0.0
 10
8.5268622122
 20
11.4474436313
 30
0.0
 10
8.5267562227
 20
11.4476184
 30
0.0
 10
8.5266943054
 20
11.4477141259
 30
0.0
  0
SPLINE
  5
5BD
100
AcDbEntity
  8
0
100
AcDbSpline
 62
9
  6
CONTINUOUS
 70
0
 71
3
 72
12
 73
8
 74
0
 42
0.0000001
 43
0.0000001
 44
0.0000000001
 40
0.0
 40
0.0
 40
0.0
 40
0.0
 40
0.0766000672
 40
0.1669964518
 40
0.3894503493
 40
0.6674232244
 40
1.0
 40
1.0
 40
1.0
 40
1.0
 10
8.5266943054
 20
11.4477141259
 30
0.0
 10
8.5266190917
 20
11.4478304085
 30
0.0
 10
8.5264460204
 20
11.448078035
 30
0.0
 10
8.5260163795
 20
11.4486360362
 30
0.0
 10
8.5253204081
 20
11.4494471718
 30
0.0
 10
8.5242953443
 20
11.4505507005
 30
0.0
 10
8.5235219763
 20
11.4513385165
 30
0.0
 10
8.52309684
 20
11.4517637105
 30
0.0
  0
LINE
  5
5BE
100
AcDbEntity
  8
0
100
AcDbLine
 62
9
  6
CONTINUOUS
 10
8.5685363522
 20
11.4063241983
 11
8.5646393869
 21
11.4098006604
  0
SPLINE
  5
5BF
100
AcDbEntity
  8
0
100
AcDbSpline
 62
9
  6
CONTINUOUS
 70
0
 71
3
 72
13
 73
9
 74
0
 42
0.0000001
 43
0.0000001
 44
0.0000000001
 40
0.0
 40
0.0
 40
0.0
 40
0.0
 40
0.0745397393
 40
0.1666487143
 40
0.2748713226
 40
0.397601114
 40
0.6804021869
 40
1.0
 40
1.0
 40
1.0
 40
1.0
 10
8.5646393869
 20
11.4098006604
 30
0.0
 10
8.5635671495
 20
11.4107136106
 30
0.0
 10
8.5611533567
 20
11.4127351901
 30
0.0
 10
8.5571438459
 20
11.4160354555
 30
0.0
 10
8.5524079146
 20
11.4198856212
 30
0.0
 10
8.5448490439
 20
11.4259744024
 30
0.0
 10
8.5341308588
 20
11.4345068112
 30
0.0
 10
8.5251890444
 20
11.4415473844
 30
0.0
 10
8.5204371987
 20
11.445272689
 30
0.0
  0
LINE
  5
5C0
100
AcDbEntity
  8
0
100
AcDbLine
 62
9
  6
CONTINUOUS
 10
8.5204371987
 20
11.445272689
 11
8.5161922654
 21
11.4485962297
  0
SPLINE
  5
5C1
100
AcDbEntity
  8
0
100
AcDbSpline
 62
9
  6
CONTINUOUS
 70
0
 71
3
 72
28
 73
24
 74
0
 42
0.0000001
 43
0.0000001
 44
0.0000000001
 40
0.0
 40
0.0
 40
0.0
 40
0.0
 40
0.1349915662
 40
0.256183998
 40
0.3635119198
 40
0.4569260757
 40
0.5363874136
 40
0.6018759133
 40
0.6534160771
 40
0.6739982844
 40
0.6911671657
 40
0.7049946878
 40
0.7156252261
 40
0.7288160397
 40
0.734438929
 40
0.7419124728
 40
0.75220515
 40
0.7656987926
 40
0.7825663777
 40
0.8029005926
 40
0.8541738508
 40
0.919814813
 40
1.0
 40
1.0
 40
1.0
 40
1.0
 10
8.5669124426
 20
11.4068286076
 30
0.0
 10
8.5670431725
 20
11.406741774
 30
0.0
 10
8.5672918585
 20
11.4065778672
 30
0.0
 10
8.5676468619
 20
11.4063485546
 30
0.0
 10
8.5679635841
 20
11.4061491048
 30
0.0
 10
8.5682418117
 20
11.4059796306
 30
0.0
 10
8.5684813106
 20
11.40584017
 30
0.0
 10
8.5686819361
 20
11.4057308299
 30
0.0
 10
8.5688254752
 20
11.4056600582
 30
0.0
 10
8.5689212422
 20
11.4056196831
 30
0.0
 10
8.5689774476
 20
11.4055992445
 30
0.0
 10
8.5690247412
 20
11.4055863514
 30
0.0
 10
8.569066395
 20
11.4055795023
 30
0.0
 10
8.569107362
 20
11.4055844305
 30
0.0
 10
8.5691183672
 20
11.4056156287
 30
0.0
 10
8.5691134741
 20
11.4056428313
 30
0.0
 10
8.5691000003
 20
11.4056766752
 30
0.0
 10
8.5690767245
 20
11.4057179393
 30
0.0
 10
8.5690438351
 20
11.4057668773
 30
0.0
 10
8.5689817906
 20
11.405848973
 30
0.0
 10
8.5688779729
 20
11.4059702887
 30
0.0
 10
8.5687216904
 20
11.4061379089
 30
0.0
 10
8.5686024955
 20
11.406258505
 30
0.0
 10
8.5685363522
 20
11.4063241983
 30
0.0
  0
LINE
  5
5C2
100
AcDbEntity
  8
0
100
AcDbLine
 62
9
  6
CONTINUOUS
 10
8.5531431399
 20
11.4051783314
 11
8.5536128541
 21
11.404547197
  0
SPLINE
  5
5C3
100
AcDbEntity
  8
0
100
AcDbSpline
 62
9
  6
CONTINUOUS
 70
0
 71
3
 72
16
 73
12
 74
0
 42
0.0000001
 43
0.0000001
 44
0.0000000001
 40
0.0
 40
0.0
 40
0.0
 40
0.0
 40
0.1313660918
 40
0.2552895073
 40
0.3702909873
 40
0.4804074225
 40
0.5985042254
 40
0.7254231205
 40
0.8598965276
 40
0.9294100457
 40
1.0
 40
1.0
 40
1.0
 40
1.0
 10
8.5685373039
 20
11.4063256375
 30
0.0
 10
8.5679493481
 20
11.4067693546
 30
0.0
 10
8.5667210914
 20
11.4075247176
 30
0.0
 10
8.5647713755
 20
11.4082690033
 30
0.0
 10
8.5628414653
 20
11.4086452602
 30
0.0
 10
8.5609099477
 20
11.4087034662
 30
0.0
 10
8.5589268631
 20
11.408437909
 30
0.0
 10
8.5568877605
 20
11.4077910252
 30
0.0
 10
8.5552431259
 20
11.4069058292
 30
0.0
 10
8.5540029726
 20
11.4059902484
 30
0.0
 10
8.5534197059
 20
11.4054615277
 30
0.0
 10
8.5531399374
 20
11.4051815319
 30
0.0
  0
SPLINE
  5
5C4
100
AcDbEntity
  8
0
100
AcDbSpline
 62
9
  6
CONTINUOUS
 70
0
 71
3
 72
22
 73
18
 74
0
 42
0.0000001
 43
0.0000001
 44
0.0000000001
 40
0.0
 40
0.0
 40
0.0
 40
0.0
 40
0.2200238059
 40
0.4137436046
 40
0.5799492425
 40
0.652497143
 40
0.7179151062
 40
0.776172701
 40
0.8272673973
 40
0.8712551274
 40
0.8906340357
 40
0.9083072886
 40
0.9387119773
 40
0.9630934736
 40
0.9827038428
 40
0.9914557756
 40
1.0
 40
1.0
 40
1.0
 40
1.0
 10
8.4253087216
 20
11.5330127496
 30
0.0
 10
8.4260576651
 20
11.5322644009
 30
0.0
 10
8.4274530592
 20
11.530844041
 30
0.0
 10
8.4293587889
 20
11.5288049581
 30
0.0
 10
8.4307299945
 20
11.5272387199
 30
0.0
 10
8.4316545065
 20
11.5261038093
 30
0.0
 10
8.432230225
 20
11.5253552276
 30
0.0
 10
8.432719766
 20
11.524671139
 30
0.0
 10
8.4331224889
 20
11.5240525438
 30
0.0
 10
8.4333961299
 20
11.5235739839
 30
0.0
 10
8.4335683032
 20
11.5232239194
 30
0.0
 10
8.4336972431
 20
11.5229259712
 30
0.0
 10
8.4338095451
 20
11.5225946241
 30
0.0
 10
8.433866251
 20
11.5222388933
 30
0.0
 10
8.4338355647
 20
11.5219810299
 30
0.0
 10
8.4337590931
 20
11.5218191816
 30
0.0
 10
8.4337067513
 20
11.5217533631
 30
0.0
 10
8.4336776839
 20
11.5217242859
 30
0.0
  0
SPLINE
  5
5C5
100
AcDbEntity
  8
0
100
AcDbSpline
 62
9
  6
CONTINUOUS
 70
0
 71
3
 72
14
 73
10
 74
0
 42
0.0000001
 43
0.0000001
 44
0.0000000001
 40
0.0
 40
0.0
 40
0.0
 40
0.0
 40
0.1179267611
 40
0.2322575441
 40
0.3419556787
 40
0.4505934469
 40
0.7033767661
 40
0.8478016706
 40
1.0
 40
1.0
 40
1.0
 40
1.0
 10
8.4393692579
 20
11.5354936576
 30
0.0
 10
8.4388735502
 20
11.535843863
 30
0.0
 10
8.4378120493
 20
11.5364204515
 30
0.0
 10
8.4361090582
 20
11.5369079615
 30
0.0
 10
8.4343947369
 20
11.5370630566
 30
0.0
 10
8.4319688305
 20
11.5368791135
 30
0.0
 10
8.4294494848
 20
11.5360400334
 30
0.0
 10
8.4270290228
 20
11.5345642616
 30
0.0
 10
8.4258598048
 20
11.5335694471
 30
0.0
 10
8.425306097
 20
11.5330153722
 30
0.0
  0
LINE
  5
5C6
100
AcDbEntity
  8
0
100
AcDbLine
 62
9
  6
CONTINUOUS
 10
8.4357788156
 20
11.5233420186
 11
8.4367785917
 21
11.5225887312
  0
SPLINE
  5
5C7
100
AcDbEntity
  8
0
100
AcDbSpline
 62
9
  6
CONTINUOUS
 70
0
 71
3
 72
18
 73
14
 74
0
 42
0.0000001
 43
0.0000001
 44
0.0000000001
 40
0.0
 40
0.0
 40
0.0
 40
0.0
 40
0.1412565404
 40
0.2893803379
 40
0.4385088584
 40
0.5826657946
 40
0.7159768073
 40
0.7768984129
 40
0.8331393266
 40
0.8841173238
 40
0.929271824
 40
0.9680824909
 40
1.0
 40
1.0
 40
1.0
 40
1.0
 10
8.4367785917
 20
11.5225887312
 30
0.0
 10
8.4409778306
 20
11.5194216075
 30
0.0
 10
8.4495417889
 20
11.5128820272
 30
0.0
 10
8.4624201203
 20
11.5028443332
 30
0.0
 10
8.4752875679
 20
11.4926181427
 30
0.0
 10
8.4876259403
 20
11.4826139363
 30
0.0
 10
8.4973253532
 20
11.4745710225
 30
0.0
 10
8.5044433236
 20
11.4685446498
 30
0.0
 10
8.5091896063
 20
11.4644617252
 30
0.0
 10
8.5134561256
 20
11.4607216986
 30
0.0
 10
8.5171960223
 20
11.4573658698
 30
0.0
 10
8.5203630871
 20
11.4544351445
 30
0.0
 10
8.5222582575
 20
11.4526058432
 30
0.0
 10
8.52309684
 20
11.4517637105
 30
0.0
  0
SPLINE
  5
5C8
100
AcDbEntity
  8
0
100
AcDbSpline
 62
9
  6
CONTINUOUS
 70
0
 71
3
 72
16
 73
12
 74
0
 42
0.0000001
 43
0.0000001
 44
0.0000000001
 40
0.0
 40
0.0
 40
0.0
 40
0.0
 40
0.1269081444
 40
0.247598044
 40
0.3607570751
 40
0.4702890172
 40
0.5890466441
 40
0.7180089143
 40
0.8557926805
 40
0.9272971833
 40
1.0
 40
1.0
 40
1.0
 40
1.0
 10
8.5230977385
 20
11.4517650458
 30
0.0
 10
8.5225423538
 20
11.4521758806
 30
0.0
 10
8.5213732539
 20
11.4528686656
 30
0.0
 10
8.5195100889
 20
11.4535231376
 30
0.0
 10
8.5176556984
 20
11.4538218331
 30
0.0
 10
8.5157893754
 20
11.4538129317
 30
0.0
 10
8.513862808
 20
11.4534890585
 30
0.0
 10
8.5118714451
 20
11.4527950887
 30
0.0
 10
8.5102573913
 20
11.4518867864
 30
0.0
 10
8.5090301189
 20
11.4509620572
 30
0.0
 10
8.5084491707
 20
11.450431984
 30
0.0
 10
8.5081694331
 20
11.4501520362
 30
0.0
  0
SPLINE
  5
5C9
100
AcDbEntity
  8
0
100
AcDbSpline
 62
9
  6
CONTINUOUS
 70
0
 71
3
 72
11
 73
7
 74
0
 42
0.0000001
 43
0.0000001
 44
0.0000000001
 40
0.0
 40
0.0
 40
0.0
 40
0.0
 40
0.3115701092
 40
0.5818659629
 40
0.8113754359
 40
1.0
 40
1.0
 40
1.0
 40
1.0
 10
7.2598083837
 20
12.7150521668
 30
0.0
 10
7.2592957185
 20
12.7155676139
 30
0.0
 10
7.2583302209
 20
12.7165222567
 30
0.0
 10
7.2569547789
 20
12.7178234543
 30
0.0
 10
7.2557569908
 20
12.7188940659
 30
0.0
 10
7.2550043007
 20
12.7195156111
 30
0.0
 10
7.2546556853
 20
12.7197842587
 30
0.0
  0
SPLINE
  5
5CA
100
AcDbEntity
  8
0
100
AcDbSpline
 62
9
  6
CONTINUOUS
 70
0
 71
3
 72
22
 73
18
 74
0
 42
0.0000001
 43
0.0000001
 44
0.0000000001
 40
0.0
 40
0.0
 40
0.0
 40
0.0
 40
0.2250451956
 40
0.3200611623
 40
0.4035970814
 40
0.475893268
 40
0.5373243572
 40
0.5885119247
 40
0.630533221
 40
0.6653175761
 40
0.6961713496
 40
0.7276530955
 40
0.7640664602
 40
0.8082552237
 40
0.8617996567
 40
0.9255556751
 40
1.0
 40
1.0
 40
1.0
 40
1.0
 10
7.2546556853
 20
12.7197842587
 30
0.0
 10
7.2544356033
 20
12.7199538568
 30
0.0
 10
7.2541173464
 20
12.7201886645
 30
0.0
 10
7.2536999925
 20
12.7204611332
 30
0.0
 10
7.2534328941
 20
12.7206181854
 30
0.0
 10
7.2531936483
 20
12.7207399642
 30
0.0
 10
7.252982086
 20
12.7208266711
 30
0.0
 10
7.2527977302
 20
12.7208785518
 30
0.0
 10
7.2526395968
 20
12.7208955625
 30
0.0
 10
7.2525059474
 20
12.720876156
 30
0.0
 10
7.2523986553
 20
12.7208154498
 30
0.0
 10
7.2523249102
 20
12.7207144532
 30
0.0
 10
7.2522844893
 20
12.7205802968
 30
0.0
 10
7.2522729762
 20
12.7204142147
 30
0.0
 10
7.2522890784
 20
12.7202149819
 30
0.0
 10
7.2523325177
 20
12.719981977
 30
0.0
 10
7.2523762993
 20
12.7198169215
 30
0.0
 10
7.2524021715
 20
12.7197287267
 30
0.0
  0
SPLINE
  5
5CB
100
AcDbEntity
  8
0
100
AcDbSpline
 62
9
  6
CONTINUOUS
 70
0
 71
3
 72
11
 73
7
 74
0
 42
0.0000001
 43
0.0000001
 44
0.0000000001
 40
0.0
 40
0.0
 40
0.0
 40
0.0
 40
0.1737574007
 40
0.3979714776
 40
0.6733575426
 40
1.0
 40
1.0
 40
1.0
 40
1.0
 10
7.2524021715
 20
12.7197287267
 30
0.0
 10
7.252479353
 20
12.7194656264
 30
0.0
 10
7.2526999709
 20
12.7188762228
 30
0.0
 10
7.25314231
 20
12.7179098155
 30
0.0
 10
7.2537408656
 20
12.7167510445
 30
0.0
 10
7.2542047018
 20
12.7159218466
 30
0.0
 10
7.2544614771
 20
12.7154749201
 30
0.0
  0
SPLINE
  5
5CC
100
AcDbEntity
  8
0
100
AcDbSpline
 62
9
  6
CONTINUOUS
 70
0
 71
3
 72
12
 73
8
 74
0
 42
0.0000001
 43
0.0000001
 44
0.0000000001
 40
0.0
 40
0.0
 40
0.0
 40
0.0
 40
0.3404146921
 40
0.6209350262
 40
0.8402708028
 40
0.9273993238
 40
1.0
 40
1.0
 40
1.0
 40
1.0
 10
7.3511118996
 20
12.5941518364
 30
0.0
 10
7.3515366336
 20
12.5937570419
 30
0.0
 10
7.3523201075
 20
12.59304605
 30
0.0
 10
7.3534153983
 20
12.5921241945
 30
0.0
 10
7.354216321
 20
12.5915234418
 30
0.0
 10
7.3547622772
 20
12.5911780892
 30
0.0
 10
7.3550022986
 20
12.5910490282
 30
0.0
 10
7.3551143669
 20
12.5909967269
 30
0.0
  0
SPLINE
  5
5CD
100
AcDbEntity
  8
0
100
AcDbSpline
 62
9
  6
CONTINUOUS
 70
0
 71
3
 72
19
 73
15
 74
0
 42
0.0000001
 43
0.0000001
 44
0.0000000001
 40
0.0
 40
0.0
 40
0.0
 40
0.0
 40
0.117177242
 40
0.1620218349
 40
0.1993367275
 40
0.2315532163
 40
0.2623457138
 40
0.2958651422
 40
0.3354068074
 40
0.383025226
 40
0.4399007821
 40
0.5838128757
 40
0.7701365991
 40
1.0
 40
1.0
 40
1.0
 40
1.0
 10
7.3551143669
 20
12.5909967269
 30
0.0
 10
7.355236163
 20
12.5909398857
 30
0.0
 10
7.3554103699
 20
12.5908694586
 30
0.0
 10
7.3556370321
 20
12.5908324863
 30
0.0
 10
7.3557694338
 20
12.5908385845
 30
0.0
 10
7.3558798564
 20
12.5908786662
 30
0.0
 10
7.355963843
 20
12.5909550785
 30
0.0
 10
7.3560179848
 20
12.5910634963
 30
0.0
 10
7.3560449842
 20
12.5912003537
 30
0.0
 10
7.3560470803
 20
12.5913661708
 30
0.0
 10
7.3560144273
 20
12.5916497503
 30
0.0
 10
7.3559019801
 20
12.5920810331
 30
0.0
 10
7.3556814277
 20
12.5926847635
 30
0.0
 10
7.3554893846
 20
12.593122178
 30
0.0
 10
7.3553786644
 20
12.5933614663
 30
0.0
  0
LINE
  5
5CE
100
AcDbEntity
  8
0
100
AcDbLine
 62
9
  6
CONTINUOUS
 10
7.3553786644
 20
12.5933614663
 11
7.3540999246
 21
12.5958091276
  0
SPLINE
  5
5CF
100
AcDbEntity
  8
0
100
AcDbSpline
 62
9
  6
CONTINUOUS
 70
0
 71
3
 72
25
 73
21
 74
0
 42
0.0000001
 43
0.0000001
 44
0.0000000001
 40
0.0
 40
0.0
 40
0.0
 40
0.0
 40
0.0150010719
 40
0.0325940247
 40
0.0526764782
 40
0.0751423078
 40
0.1267161006
 40
0.1862762145
 40
0.2526409487
 40
0.3244195858
 40
0.4001606249
 40
0.478304644
 40
0.6353770755
 40
0.7110352233
 40
0.7826334101
 40
0.8486849323
 40
0.9077877904
 40
0.9586203436
 40
0.9805737397
 40
1.0
 40
1.0
 40
1.0
 40
1.0
 10
7.3540999246
 20
12.5958091276
 30
0.0
 10
7.3537253441
 20
12.5964716254
 30
0.0
 10
7.3528843376
 20
12.5978957503
 30
0.0
 10
7.3514707578
 20
12.6001639444
 30
0.0
 10
7.3498105294
 20
12.6027240761
 30
0.0
 10
7.3471555513
 20
12.6066932636
 30
0.0
 10
7.3432880917
 20
12.6122602187
 30
0.0
 10
7.3380319077
 20
12.6195725637
 30
0.0
 10
7.3320730607
 20
12.6276411912
 30
0.0
 10
7.3255346426
 20
12.6363014758
 30
0.0
 10
7.3185502671
 20
12.6453732291
 30
0.0
 10
7.3088186486
 20
12.6577902871
 30
0.0
 10
7.298937004
 20
12.6700839007
 30
0.0
 10
7.2891066466
 20
12.6819899998
 30
0.0
 10
7.2821364629
 20
12.6902685519
 30
0.0
 10
7.2756248166
 20
12.6978345111
 30
0.0
 10
7.2697122494
 20
12.7045251014
 30
0.0
 10
7.2651972816
 20
12.7094642335
 30
0.0
 10
7.2619755476
 20
12.7128565502
 30
0.0
 10
7.2605060955
 20
12.7143560766
 30
0.0
 10
7.2598083837
 20
12.7150521668
 30
0.0
  0
SPLINE
  5
5D0
100
AcDbEntity
  8
0
100
AcDbSpline
 62
9
  6
CONTINUOUS
 70
0
 71
3
 72
39
 73
35
 74
0
 42
0.0000001
 43
0.0000001
 44
0.0000000001
 40
0.0
 40
0.0
 40
0.0
 40
0.0
 40
0.1029197004
 40
0.20630652
 40
0.3083760175
 40
0.4073856246
 40
0.5016466985
 40
0.5895725257
 40
0.6697198472
 40
0.706471269
 40
0.7408161823
 40
0.7726239882
 40
0.801774233
 40
0.8281681145
 40
0.8517207713
 40
0.8723674068
 40
0.8900711809
 40
0.9048458006
 40
0.9111616752
 40
0.9167910663
 40
0.921770313
 40
0.9261540625
 40
0.9300251235
 40
0.9335050359
 40
0.9367608674
 40
0.9399959733
 40
0.9434175528
 40
0.9472012525
 40
0.9514773398
 40
0.9563357573
 40
0.9618371649
 40
0.9680226502
 40
0.9825412439
 40
1.0
 40
1.0
 40
1.0
 40
1.0
 10
7.9937309374
 20
11.9811296132
 30
0.0
 10
7.9911863543
 20
11.9836756753
 30
0.0
 10
7.9860403277
 20
11.9887342522
 30
0.0
 10
7.9782251291
 20
11.9961679095
 30
0.0
 10
7.9703889111
 20
12.0033790143
 30
0.0
 10
7.9626689412
 20
12.0102429001
 30
0.0
 10
7.9551985617
 20
12.0166406397
 30
0.0
 10
7.9481065826
 20
12.022463049
 30
0.0
 10
7.9424608354
 20
12.0268743179
 30
0.0
 10
7.9382184922
 20
12.0300344395
 30
0.0
 10
7.935295775
 20
12.0321350548
 30
0.0
 10
7.9325513291
 20
12.0340271755
 30
0.0
 10
7.92999644
 20
12.0357030002
 30
0.0
 10
7.9276418555
 20
12.037156075
 30
0.0
 10
7.9254973308
 20
12.0383807227
 30
0.0
 10
7.9235717402
 20
12.0393725838
 30
0.0
 10
7.9218728741
 20
12.040127711
 30
0.0
 10
7.9205911986
 20
12.0405808315
 30
0.0
 10
7.9196843532
 20
12.040809407
 30
0.0
 10
7.9191004711
 20
12.0409108189
 30
0.0
 10
7.9185767097
 20
12.040951548
 30
0.0
 10
7.9181128436
 20
12.0409311764
 30
0.0
 10
7.9177085895
 20
12.0408487571
 30
0.0
 10
7.9173643904
 20
12.0407023068
 30
0.0
 10
7.9170830323
 20
12.0404896888
 30
0.0
 10
7.9168690483
 20
12.0402118239
 30
0.0
 10
7.9167240245
 20
12.0398731361
 30
0.0
 10
7.9166460183
 20
12.0394768638
 30
0.0
 10
7.9166328361
 20
12.0390236728
 30
0.0
 10
7.9166834069
 20
12.0385132178
 30
0.0
 10
7.9167973768
 20
12.0379451225
 30
0.0
 10
7.9170479118
 20
12.0370627259
 30
0.0
 10
7.9175364366
 20
12.0358176556
 30
0.0
 10
7.9180283394
 20
12.0348123695
 30
0.0
 10
7.9183114887
 20
12.0342713648
 30
0.0
  0
LINE
  5
5D1
100
AcDbEntity
  8
0
100
AcDbLine
 62
9
  6
CONTINUOUS
 10
7.9183114887
 20
12.0342713648
 11
7.9202095982
 21
12.0310103259
  0
SPLINE
  5
5D2
100
AcDbEntity
  8
0
100
AcDbSpline
 62
9
  6
CONTINUOUS
 70
0
 71
3
 72
38
 73
34
 74
0
 42
0.0000001
 43
0.0000001
 44
0.0000000001
 40
0.0
 40
0.0
 40
0.0
 40
0.0
 40
0.0254069657
 40
0.0478193936
 40
0.0672140536
 40
0.0836339172
 40
0.0971896591
 40
0.1029618162
 40
0.1081182853
 40
0.1127277736
 40
0.1168904153
 40
0.1207444676
 40
0.1244629854
 40
0.1282377288
 40
0.1322522292
 40
0.1366586834
 40
0.1415711897
 40
0.1532015451
 40
0.1675583035
 40
0.1848321262
 40
0.205110177
 40
0.2284098777
 40
0.2547138175
 40
0.2839714406
 40
0.3161157627
 40
0.351059854
 40
0.3887056234
 40
0.4716191456
 40
0.5637883651
 40
0.6640333931
 40
0.7711009198
 40
0.8835885053
 40
1.0
 40
1.0
 40
1.0
 40
1.0
 10
8.0270821709
 20
11.9287425825
 30
0.0
 10
8.0276766048
 20
11.928407442
 30
0.0
 10
8.0288059302
 20
11.9277948911
 30
0.0
 10
8.0304295395
 20
11.9270040823
 30
0.0
 10
8.0318735509
 20
11.9264002975
 30
0.0
 10
8.0331340718
 20
11.9259842355
 30
0.0
 10
8.0340763881
 20
11.9257824462
 30
0.0
 10
8.0347328202
 20
11.9257294242
 30
0.0
 10
8.035150989
 20
11.9257400108
 30
0.0
 10
8.0355217746
 20
11.9257991912
 30
0.0
 10
8.0358449435
 20
11.9259081398
 30
0.0
 10
8.036119468
 20
11.9260679951
 30
0.0
 10
8.0363431191
 20
11.9262791552
 30
0.0
 10
8.0365137633
 20
11.9265400606
 30
0.0
 10
8.036631094
 20
11.9268481875
 30
0.0
 10
8.0366965389
 20
11.9272018807
 30
0.0
 10
8.0367170598
 20
11.9277657492
 30
0.0
 10
8.0365974601
 20
11.928592746
 30
0.0
 10
8.0362678432
 20
11.9297089902
 30
0.0
 10
8.0357429006
 20
11.9310025126
 30
0.0
 10
8.0350225823
 20
11.9324706299
 30
0.0
 10
8.034107811
 20
11.9341103454
 30
0.0
 10
8.0330005216
 20
11.9359165254
 30
0.0
 10
8.0317038939
 20
11.9378836522
 30
0.0
 10
8.030221704
 20
11.9400051737
 30
0.0
 10
8.0285586639
 20
11.9422742333
 30
0.0
 10
8.0260242853
 20
11.9455943233
 30
0.0
 10
8.0224403867
 20
11.9500454318
 30
0.0
 10
8.0176531926
 20
11.9556826036
 30
0.0
 10
8.0123134009
 20
11.9616990207
 30
0.0
 10
8.0064896513
 20
11.9680133369
 30
0.0
 10
8.0002586602
 20
11.9745408329
 30
0.0
 10
7.9959430473
 20
11.9789199395
 30
0.0
 10
7.9937309374
 20
11.9811296132
 30
0.0
  0
SPLINE
  5
5D3
100
AcDbEntity
  8
0
100
AcDbSpline
 62
9
  6
CONTINUOUS
 70
0
 71
3
 72
49
 73
45
 74
0
 42
0.0000001
 43
0.0000001
 44
0.0000000001
 40
0.0
 40
0.0
 40
0.0
 40
0.0
 40
0.0299558704
 40
0.063319866
 40
0.0997041961
 40
0.1387791315
 40
0.2235748407
 40
0.3148177626
 40
0.4095451902
 40
0.5046528239
 40
0.551375003
 40
0.5970392852
 40
0.6412823145
 40
0.6837538103
 40
0.7241047315
 40
0.7620057388
 40
0.7971472399
 40
0.8292397433
 40
0.8580420884
 40
0.8833628963
 40
0.8946675192
 40
0.9050413686
 40
0.91446403
 40
0.9229100596
 40
0.9303538093
 40
0.9367758548
 40
0.9421670543
 40
0.9465334435
 40
0.9483475169
 40
0.9499292873
 40
0.9512952523
 40
0.9524700053
 40
0.9534908316
 40
0.9544127567
 40
0.9553081932
 40
0.9562546943
 40
0.9573178727
 40
0.9585442754
 40
0.9615932028
 40
0.9655418305
 40
0.9704457882
 40
0.9763282863
 40
0.983199768
 40
1.0
 40
1.0
 40
1.0
 40
1.0
 10
8.4393682727
 20
11.5354922778
 30
0.0
 10
8.4382543019
 20
11.5366102682
 30
0.0
 10
8.4358723702
 20
11.5389463168
 30
0.0
 10
8.4320640706
 20
11.5425645958
 30
0.0
 10
8.4278566772
 20
11.5464596392
 30
0.0
 10
8.4215980442
 20
11.552126886
 30
0.0
 10
8.413086514
 20
11.5596110631
 30
0.0
 10
8.4022298283
 20
11.5688656758
 30
0.0
 10
8.3908261856
 20
11.5783138842
 30
0.0
 10
8.3811213894
 20
11.5861341584
 30
0.0
 10
8.3733660645
 20
11.5922525867
 30
0.0
 10
8.3676828099
 20
11.5966705362
 30
0.0
 10
8.3621442942
 20
11.600909464
 30
0.0
 10
8.3567955032
 20
11.6049353511
 30
0.0
 10
8.3516798914
 20
11.6087150231
 30
0.0
 10
8.3468397466
 20
11.6122171888
 30
0.0
 10
8.3423153259
 20
11.6154128993
 30
0.0
 10
8.3381433861
 20
11.6182760399
 30
0.0
 10
8.3343565446
 20
11.6207848997
 30
0.0
 10
8.3314446406
 20
11.622630371
 30
0.0
 10
8.32932594
 20
11.6239121559
 30
0.0
 10
8.3279105283
 20
11.624737876
 30
0.0
 10
8.3266111231
 20
11.625463079
 30
0.0
 10
8.3254314482
 20
11.626085394
 30
0.0
 10
8.324375454
 20
11.6266022992
 30
0.0
 10
8.3234467261
 20
11.6270117421
 30
0.0
 10
8.3226485401
 20
11.6273122127
 30
0.0
 10
8.322061341
 20
11.6274810279
 30
0.0
 10
8.3216584966
 20
11.6275535668
 30
0.0
 10
8.3214083301
 20
11.6275769994
 30
0.0
 10
8.3211905857
 20
11.6275731854
 30
0.0
 10
8.3210046355
 20
11.6275419379
 30
0.0
 10
8.3208500026
 20
11.6274823861
 30
0.0
 10
8.3207275808
 20
11.6273929215
 30
0.0
 10
8.3206401871
 20
11.6272735723
 30
0.0
 10
8.3205891424
 20
11.6271273032
 30
0.0
 10
8.3205726883
 20
11.6269563765
 30
0.0
 10
8.3205967794
 20
11.626675034
 30
0.0
 10
8.3207228679
 20
11.6262567623
 30
0.0
 10
8.3209881519
 20
11.625687808
 30
0.0
 10
8.3213803907
 20
11.6250167881
 30
0.0
 10
8.3218996198
 20
11.6242444207
 30
0.0
 10
8.3228267698
 20
11.6229929707
 30
0.0
 10
8.3236239783
 20
11.6220326023
 30
0.0
 10
8.32420234
 20
11.6213625666
 30
0.0
  0
SPLINE
  5
5D4
100
AcDbEntity
  8
0
100
AcDbSpline
 62
9
  6
CONTINUOUS
 70
0
 71
3
 72
31
 73
27
 74
0
 42
0.0000001
 43
0.0000001
 44
0.0000000001
 40
0.0
 40
0.0
 40
0.0
 40
0.0
 40
0.0810856249
 40
0.1490440418
 40
0.178068105
 40
0.2037871469
 40
0.2262292539
 40
0.2454522767
 40
0.2615635491
 40
0.2747680431
 40
0.2854657459
 40
0.2944070269
 40
0.3028293754
 40
0.3121800236
 40
0.3235493412
 40
0.3375545174
 40
0.3545196818
 40
0.3746201502
 40
0.3979560931
 40
0.4245869238
 40
0.4878451631
 40
0.5644341759
 40
0.6542058947
 40
0.756920045
 40
0.8722884264
 40
1.0
 40
1.0
 40
1.0
 40
1.0
 10
8.4429192487
 20
11.5248029722
 30
0.0
 10
8.4434788207
 20
11.5244933131
 30
0.0
 10
8.4445155087
 20
11.5239386178
 30
0.0
 10
8.4457807968
 20
11.5233273966
 30
0.0
 10
8.4466718371
 20
11.5229492363
 30
0.0
 10
8.4472414147
 20
11.5227337557
 30
0.0
 10
8.4477476857
 20
11.5225710699
 30
0.0
 10
8.4481903979
 20
11.5224611579
 30
0.0
 10
8.4485697005
 20
11.5224038329
 30
0.0
 10
8.4488866405
 20
11.5223993222
 30
0.0
 10
8.4491436322
 20
11.5224487173
 30
0.0
 10
8.4493417424
 20
11.5225596176
 30
0.0
 10
8.4494673375
 20
11.5227374321
 30
0.0
 10
8.4495132687
 20
11.5229675217
 30
0.0
 10
8.4494905539
 20
11.5232425303
 30
0.0
 10
8.4494036778
 20
11.5235661948
 30
0.0
 10
8.4492529163
 20
11.5239404185
 30
0.0
 10
8.4490379594
 20
11.524366021
 30
0.0
 10
8.448758517
 20
11.5248431052
 30
0.0
 10
8.4482708531
 20
11.5255915292
 30
0.0
 10
8.4474912197
 20
11.5266492306
 30
0.0
 10
8.4463489839
 20
11.5280551129
 30
0.0
 10
8.4449548112
 20
11.5296556334
 30
0.0
 10
8.4433131955
 20
11.5314449765
 30
0.0
 10
8.4414288499
 20
11.533416902
 30
0.0
 10
8.4400811669
 20
11.5347806541
 30
0.0
 10
8.4393682727
 20
11.5354922778
 30
0.0
  0
SPLINE
  5
5D5
100
AcDbEntity
  8
0
100
AcDbSpline
 62
9
  6
CONTINUOUS
 70
0
 71
3
 72
36
 73
32
 74
0
 42
0.0000001
 43
0.0000001
 44
0.0000000001
 40
0.0
 40
0.0
 40
0.0
 40
0.0
 40
0.1203179994
 40
0.235065695
 40
0.3431398807
 40
0.4435488805
 40
0.5353890239
 40
0.6178706296
 40
0.6903277511
 40
0.7225726158
 40
0.7520423229
 40
0.7786598747
 40
0.8023677529
 40
0.823173318
 40
0.8411232261
 40
0.8563041264
 40
0.8688754827
 40
0.8742746934
 40
0.8791528618
 40
0.8876641032
 40
0.8915708355
 40
0.8954365762
 40
0.8994230325
 40
0.9036774997
 40
0.908321168
 40
0.9134470929
 40
0.9253906485
 40
0.9398777012
 40
0.9570941089
 40
0.9771267802
 40
1.0
 40
1.0
 40
1.0
 40
1.0
 10
7.6572389792
 20
12.3176215713
 30
0.0
 10
7.6554050997
 20
12.3194604214
 30
0.0
 10
7.6517951033
 20
12.3230260432
 30
0.0
 10
7.6464472241
 20
12.3281506074
 30
0.0
 10
7.6413305311
 20
12.3328940565
 30
0.0
 10
7.6364953548
 20
12.3372123134
 30
0.0
 10
7.6319885076
 20
12.3410671006
 30
0.0
 10
7.6278519934
 20
12.3444239999
 30
0.0
 10
7.6246346611
 20
12.346869705
 30
0.0
 10
7.6222712811
 20
12.3485439242
 30
0.0
 10
7.6206868707
 20
12.34960497
 30
0.0
 10
7.6192257285
 20
12.350517528
 30
0.0
 10
7.6178915777
 20
12.3512783734
 30
0.0
 10
7.61668756
 20
12.3518866219
 30
0.0
 10
7.615615192
 20
12.352342856
 30
0.0
 10
7.6146754393
 20
12.3526475578
 30
0.0
 10
7.6139694258
 20
12.3527827681
 30
0.0
 10
7.6134755201
 20
12.3528032495
 30
0.0
 10
7.6130708427
 20
12.352772895
 30
0.0
 10
7.6127038264
 20
12.3526665897
 30
0.0
 10
7.6124092716
 20
12.3524704473
 30
0.0
 10
7.6122307625
 20
12.35228737
 30
0.0
 10
7.612089574
 20
12.3520654775
 30
0.0
 10
7.611985496
 20
12.3518061212
 30
0.0
 10
7.6119178246
 20
12.3515100265
 30
0.0
 10
7.6118733256
 20
12.3510424233
 30
0.0
 10
7.6119201415
 20
12.3503589182
 30
0.0
 10
7.6121124485
 20
12.3494350311
 30
0.0
 10
7.6124444748
 20
12.34836741
 30
0.0
 10
7.6129159921
 20
12.3471576221
 30
0.0
 10
7.6132977031
 20
12.3463134004
 30
0.0
 10
7.6135098502
 20
12.3458675953
 30
0.0
  0
LINE
  5
5D6
100
AcDbEntity
  8
0
100
AcDbLine
 62
9
  6
CONTINUOUS
 10
7.6135098502
 20
12.3458675953
 11
7.6148857326
 21
12.343207573
  0
SPLINE
  5
5D7
100
AcDbEntity
  8
0
100
AcDbSpline
 62
9
  6
CONTINUOUS
 70
0
 71
3
 72
40
 73
36
 74
0
 42
0.0000001
 43
0.0000001
 44
0.0000000001
 40
0.0
 40
0.0
 40
0.0
 40
0.0
 40
0.0196979996
 40
0.0361728177
 40
0.0432164592
 40
0.0494797825
 40
0.0549860211
 40
0.0597752654
 40
0.0639120813
 40
0.0674974192
 40
0.0706858628
 40
0.0736955614
 40
0.0767853541
 40
0.0801976561
 40
0.0841146929
 40
0.0886572776
 40
0.0939016152
 40
0.0998911726
 40
0.1066497572
 40
0.1141902365
 40
0.13163828
 40
0.1522554161
 40
0.1759957882
 40
0.2027664416
 40
0.232446609
 40
0.2649009762
 40
0.2999882434
 40
0.3375504601
 40
0.4193518145
 40
0.5086719598
 40
0.6036797608
 40
0.7023931812
 40
0.8027676877
 40
0.9026900982
 40
1.0
 40
1.0
 40
1.0
 40
1.0
 10
7.7163671064
 20
12.2335189739
 30
0.0
 10
7.7170306863
 20
12.2330976437
 30
0.0
 10
7.7182666223
 20
12.232350686
 30
0.0
 10
7.7197987558
 20
12.2315544575
 30
0.0
 10
7.7208920305
 20
12.2310870636
 30
0.0
 10
7.7215995457
 20
12.2308343013
 30
0.0
 10
7.7222379115
 20
12.2306604784
 30
0.0
 10
7.7228072357
 20
12.2305656065
 30
0.0
 10
7.7233082052
 20
12.2305498718
 30
0.0
 10
7.7237418524
 20
12.2306147411
 30
0.0
 10
7.7241076461
 20
12.2307641603
 30
0.0
 10
7.7243996023
 20
12.2310019055
 30
0.0
 10
7.7246101468
 20
12.2313241792
 30
0.0
 10
7.7247393368
 20
12.2317233177
 30
0.0
 10
7.7247917354
 20
12.2321965173
 30
0.0
 10
7.7247698024
 20
12.2327444289
 30
0.0
 10
7.7246742437
 20
12.2333676714
 30
0.0
 10
7.7245056459
 20
12.2340662422
 30
0.0
 10
7.7242644378
 20
12.2348395603
 30
0.0
 10
7.723824375
 20
12.2360280021
 30
0.0
 10
7.7230815568
 20
12.2376913107
 30
0.0
 10
7.7219474792
 20
12.2398823553
 30
0.0
 10
7.7205349255
 20
12.2423450598
 30
0.0
 10
7.7188510544
 20
12.2450667081
 30
0.0
 10
7.7169043766
 20
12.2480330574
 30
0.0
 10
7.7147045291
 20
12.2512289798
 30
0.0
 10
7.7122616598
 20
12.2546385036
 30
0.0
 10
7.7085899551
 20
12.259589004
 30
0.0
 10
7.7034815304
 20
12.266166832
 30
0.0
 10
7.6967729368
 20
12.2744003257
 30
0.0
 10
7.6894611775
 20
12.2830097963
 30
0.0
 10
7.6817010191
 20
12.2918144529
 30
0.0
 10
7.6736559893
 20
12.3006270362
 30
0.0
 10
7.6654963973
 20
12.3092566668
 30
0.0
 10
7.6599863032
 20
12.3148773573
 30
0.0
 10
7.6572389792
 20
12.3176215713
 30
0.0
  0
SPLINE
  5
5D8
100
AcDbEntity
  8
0
100
AcDbSpline
 62
7
  6
CONTINUOUS
 70
0
 71
3
 72
15
 73
11
 74
0
 42
0.0000001
 43
0.0000001
 44
0.0000000001
 40
0.0
 40
0.0
 40
0.0
 40
0.0
 40
0.0337040424
 40
0.0718943249
 40
0.1612973978
 40
0.2672282556
 40
0.3885294037
 40
0.5239056372
 40
0.6719523433
 40
1.0
 40
1.0
 40
1.0
 40
1.0
 10
9.0283364277
 20
11.1523266268
 30
0.0
 10
9.028794753
 20
11.1521353453
 30
0.0
 10
9.0297664759
 20
11.1517130683
 30
0.0
 10
9.0319261778
 20
11.1507204722
 30
0.0
 10
9.0350157456
 20
11.1492042753
 30
0.0
 10
9.0391592018
 20
11.1470589097
 30
0.0
 10
9.0438638509
 20
11.144525622
 30
0.0
 10
9.0490787912
 20
11.1416321802
 30
0.0
 10
9.0569119247
 20
11.1371793234
 30
0.0
 10
9.0629640652
 20
11.1336306923
 30
0.0
 10
9.0671183945
 20
11.1311592609
 30
0.0
  0
SPLINE
  5
5D9
100
AcDbEntity
  8
0
100
AcDbSpline
 62
7
  6
CONTINUOUS
 70
0
 71
3
 72
23
 73
19
 74
0
 42
0.0000001
 43
0.0000001
 44
0.0000000001
 40
0.0
 40
0.0
 40
0.0
 40
0.0
 40
0.0103275348
 40
0.0208929403
 40
0.0440636153
 40
0.0572923375
 40
0.0718534369
 40
0.1054399263
 40
0.1455055897
 40
0.1923359937
 40
0.246000213
 40
0.3064362282
 40
0.3734747071
 40
0.4468771371
 40
0.5263330431
 40
0.6114785717
 40
0.797116254
 40
1.0
 40
1.0
 40
1.0
 40
1.0
 10
7.534983678
 20
12.6103401592
 30
0.0
 10
7.535096181
 20
12.6104526461
 30
0.0
 10
7.53534718
 20
12.6106581334
 30
0.0
 10
7.5359501181
 20
12.6109781446
 30
0.0
 10
7.5366726688
 20
12.6111289363
 30
0.0
 10
7.5374580733
 20
12.6111398972
 30
0.0
 10
7.5384012045
 20
12.6110496983
 30
0.0
 10
7.5397281157
 20
12.6107309078
 30
0.0
 10
7.5414692503
 20
12.6100801939
 30
0.0
 10
7.5434242861
 20
12.6091442595
 30
0.0
 10
7.5455850458
 20
12.6079261972
 30
0.0
 10
7.5479415715
 20
12.6064299624
 30
0.0
 10
7.5504822038
 20
12.6046621001
 30
0.0
 10
7.5531936224
 20
12.6026306385
 30
0.0
 10
7.5560615348
 20
12.600345746
 30
0.0
 10
7.5601933889
 20
12.5968755248
 30
0.0
 10
7.5656159549
 20
12.5919898347
 30
0.0
 10
7.5699136133
 20
12.5878226376
 30
0.0
 10
7.5721235692
 20
12.5856126818
 30
0.0
  0
SPLINE
  5
5DA
100
AcDbEntity
  8
0
100
AcDbSpline
 62
9
  6
CONTINUOUS
 70
0
 71
3
 72
29
 73
25
 74
0
 42
0.0000001
 43
0.0000001
 44
0.0000000001
 40
0.0
 40
0.0
 40
0.0
 40
0.0
 40
0.1014398367
 40
0.1872768005
 40
0.2578564536
 40
0.3135736259
 40
0.3359962366
 40
0.3548679006
 40
0.3702867014
 40
0.3824326709
 40
0.3985503008
 40
0.4052966309
 40
0.4135141517
 40
0.4243421201
 40
0.438282643
 40
0.4555593571
 40
0.4762804468
 40
0.5005013932
 40
0.5282509538
 40
0.5943780046
 40
0.6746838672
 40
0.7691154671
 40
0.8775898293
 40
1.0
 40
1.0
 40
1.0
 40
1.0
 10
7.2002613501
 20
12.7745992004
 30
0.0
 10
7.2001204599
 20
12.7747415766
 30
0.0
 10
7.199858125
 20
12.7750022494
 30
0.0
 10
7.1994884428
 20
12.7753524627
 30
0.0
 10
7.1991748453
 20
12.7756303029
 30
0.0
 10
7.1989459221
 20
12.7758145212
 30
0.0
 10
7.1987890333
 20
12.7759247446
 30
0.0
 10
7.1986940738
 20
12.7759838019
 30
0.0
 10
7.1986116303
 20
12.7760258218
 30
0.0
 10
7.19853257
 20
12.7760551797
 30
0.0
 10
7.198453606
 20
12.776062043
 30
0.0
 10
7.1984099803
 20
12.7760136373
 30
0.0
 10
7.198398453
 20
12.775962821
 30
0.0
 10
7.1984001139
 20
12.7758974586
 30
0.0
 10
7.1984149782
 20
12.7758155274
 30
0.0
 10
7.1984428573
 20
12.7757167505
 30
0.0
 10
7.1984839545
 20
12.775600898
 30
0.0
 10
7.1985382761
 20
12.7754679988
 30
0.0
 10
7.1986341632
 20
12.7752553888
 30
0.0
 10
7.1987888631
 20
12.7749480561
 30
0.0
 10
7.1990171875
 20
12.7745307809
 30
0.0
 10
7.1992977014
 20
12.7740469423
 30
0.0
 10
7.199630047
 20
12.7734972034
 30
0.0
 10
7.1998714657
 20
12.7731104506
 30
0.0
 10
7.2000005548
 20
12.7729060985
 30
0.0
  0
LINE
  5
5DB
100
AcDbEntity
  8
0
100
AcDbLine
 62
9
  6
CONTINUOUS
 10
7.2538619119
 20
12.7088910458
 11
7.250558289
 21
12.7131313448
  0
SPLINE
  5
5DC
100
AcDbEntity
  8
0
100
AcDbSpline
 62
9
  6
CONTINUOUS
 70
0
 71
3
 72
15
 73
11
 74
0
 42
0.0000001
 43
0.0000001
 44
0.0000000001
 40
0.0
 40
0.0
 40
0.0
 40
0.0
 40
0.3190798372
 40
0.4692537766
 40
0.6086377579
 40
0.7340583656
 40
0.8426652747
 40
0.9320276061
 40
0.9688056439
 40
1.0
 40
1.0
 40
1.0
 40
1.0
 10
7.250558289
 20
12.7131313448
 30
0.0
 10
7.2455482192
 20
12.7195494787
 30
0.0
 10
7.23814111
 20
12.7289579362
 30
0.0
 10
7.2284464504
 20
12.7410914148
 30
0.0
 10
7.2217917716
 20
12.7493283122
 30
0.0
 10
7.2157561646
 20
12.7567015679
 30
0.0
 10
7.2104765964
 20
12.7630437897
 30
0.0
 10
7.2065937497
 20
12.7676053893
 30
0.0
 10
7.2039482964
 20
12.7706253826
 30
0.0
 10
7.2027893437
 20
12.7719159306
 30
0.0
 10
7.2022517502
 20
12.7725029605
 30
0.0
  0
LINE
  5
5DD
100
AcDbEntity
  8
0
100
AcDbLine
 62
9
  6
CONTINUOUS
 10
7.2022517502
 20
12.7725029605
 11
7.2002613501
 21
12.7745992004
  0
SPLINE
  5
5DE
100
AcDbEntity
  8
0
100
AcDbSpline
 62
9
  6
CONTINUOUS
 70
0
 71
3
 72
37
 73
33
 74
0
 42
0.0000001
 43
0.0000001
 44
0.0000000001
 40
0.0
 40
0.0
 40
0.0
 40
0.0
 40
0.1123817095
 40
0.2221243788
 40
0.327739953
 40
0.4278667378
 40
0.5212490655
 40
0.6067727638
 40
0.6832929384
 40
0.7178141915
 40
0.7496750409
 40
0.7788106575
 40
0.805169954
 40
0.8287137098
 40
0.8494167394
 40
0.8672805304
 40
0.8823447982
 40
0.8947252502
 40
0.9046747163
 40
0.9088997208
 40
0.9127526079
 40
0.9163770187
 40
0.9199467614
 40
0.9236444637
 40
0.9276341868
 40
0.9320463789
 40
0.9369770176
 40
0.9424935002
 40
0.9486420925
 40
0.9629479941
 40
0.9800520206
 40
1.0
 40
1.0
 40
1.0
 40
1.0
 10
7.8238591376
 20
12.1510014129
 30
0.0
 10
7.821612235
 20
12.1532540497
 30
0.0
 10
7.8171338529
 20
12.1576693267
 30
0.0
 10
7.8104247427
 20
12.1640793975
 30
0.0
 10
7.8038653454
 20
12.1701422619
 30
0.0
 10
7.7975453571
 20
12.175779863
 30
0.0
 10
7.7915469336
 20
12.180921307
 30
0.0
 10
7.7859506685
 20
12.1855022052
 30
0.0
 10
7.7815480515
 20
12.1889078247
 30
0.0
 10
7.7782790432
 20
12.1912918531
 30
0.0
 10
7.7760598259
 20
12.1928375604
 30
0.0
 10
7.7739951571
 20
12.1941995812
 30
0.0
 10
7.772090681
 20
12.1953751681
 30
0.0
 10
7.7703516889
 20
12.1963620145
 30
0.0
 10
7.7687828724
 20
12.1971581384
 30
0.0
 10
7.7673886727
 20
12.1977623195
 30
0.0
 10
7.7661713589
 20
12.1981739757
 30
0.0
 10
7.7651329743
 20
12.198393318
 30
0.0
 10
7.7643735166
 20
12.1984161227
 30
0.0
 10
7.7638706673
 20
12.1983166243
 30
0.0
 10
7.763560497
 20
12.1981942111
 30
0.0
 10
7.7632982792
 20
12.1980189053
 30
0.0
 10
7.7630867779
 20
12.197790636
 30
0.0
 10
7.762927534
 20
12.1975117009
 30
0.0
 10
7.7628199717
 20
12.1971844576
 30
0.0
 10
7.7627627719
 20
12.1968099607
 30
0.0
 10
7.7627549917
 20
12.1963883737
 30
0.0
 10
7.762796066
 20
12.1959196284
 30
0.0
 10
7.7629223996
 20
12.1951945923
 30
0.0
 10
7.7632157401
 20
12.1941697437
 30
0.0
 10
7.763741453
 20
12.1928129284
 30
0.0
 10
7.7641844178
 20
12.1918612617
 30
0.0
 10
7.7644345084
 20
12.1913549042
 30
0.0
  0
LINE
  5
5DF
100
AcDbEntity
  8
0
100
AcDbLine
 62
9
  6
CONTINUOUS
 10
7.7644345084
 20
12.1913549042
 11
7.7660223512
 21
12.1884245564
  0
SPLINE
  5
5E0
100
AcDbEntity
  8
0
100
AcDbSpline
 62
9
  6
CONTINUOUS
 70
0
 71
3
 72
39
 73
35
 74
0
 42
0.0000001
 43
0.0000001
 44
0.0000000001
 40
0.0
 40
0.0
 40
0.0
 40
0.0
 40
0.0221195132
 40
0.0412048071
 40
0.0572665829
 40
0.0641828923
 40
0.0703754456
 40
0.0758740935
 40
0.0807256124
 40
0.0850015062
 40
0.0888106224
 40
0.0923098733
 40
0.0956982688
 40
0.0991919414
 40
0.1029877259
 40
0.1072403222
 40
0.1120603857
 40
0.1175238217
 40
0.1236797782
 40
0.1381741252
 40
0.1556814149
 40
0.176227394
 40
0.1997894571
 40
0.226322118
 40
0.2557608465
 40
0.2880090426
 40
0.3229532999
 40
0.4003799776
 40
0.4868225069
 40
0.580850276
 40
0.6808823174
 40
0.785273506
 40
0.8922611502
 40
1.0
 40
1.0
 40
1.0
 40
1.0
 10
7.8700772241
 20
12.0825560184
 30
0.0
 10
7.8707157647
 20
12.0821794986
 30
0.0
 10
7.8719192189
 20
12.0815010139
 30
0.0
 10
7.8736404849
 20
12.0806500763
 30
0.0
 10
7.8749484191
 20
12.0801182578
 30
0.0
 10
7.8758824773
 20
12.0798278177
 30
0.0
 10
7.87648976
 20
12.0796835478
 30
0.0
 10
7.8770389376
 20
12.0796017532
 30
0.0
 10
7.877529967
 20
12.0795827911
 30
0.0
 10
7.877963056
 20
12.0796274864
 30
0.0
 10
7.8783381222
 20
12.0797377027
 30
0.0
 10
7.878653598
 20
12.0799154125
 30
0.0
 10
7.8789057065
 20
12.0801609547
 30
0.0
 10
7.8790914721
 20
12.0804709867
 30
0.0
 10
7.8792115181
 20
12.080841508
 30
0.0
 10
7.8792679648
 20
12.0812709189
 30
0.0
 10
7.8792622368
 20
12.0817592851
 30
0.0
 10
7.8791948739
 20
12.0823069592
 30
0.0
 10
7.8790127877
 20
12.0831638083
 30
0.0
 10
7.8786147922
 20
12.0843823597
 30
0.0
 10
7.8779225359
 20
12.0860029358
 30
0.0
 10
7.8769926158
 20
12.0878478244
 30
0.0
 10
7.875828226
 20
12.0899097564
 30
0.0
 10
7.874432467
 20
12.0921810414
 30
0.0
 10
7.8728096942
 20
12.0946527678
 30
0.0
 10
7.8709659442
 20
12.0973153654
 30
0.0
 10
7.868123567
 20
12.1012412934
 30
0.0
 10
7.8640676988
 20
12.106528967
 30
0.0
 10
7.8586188155
 20
12.1132388154
 30
0.0
 10
7.8525255807
 20
12.1203979632
 30
0.0
 10
7.845892436
 20
12.1278846684
 30
0.0
 10
7.8388304594
 20
12.1355693513
 30
0.0
 10
7.8314597018
 20
12.1433188012
 30
0.0
 10
7.8264135935
 20
12.1484496891
 30
0.0
 10
7.8238591376
 20
12.1510014129
 30
0.0
  0
LINE
  5
5E1
100
AcDbEntity
  8
0
100
AcDbLine
 62
9
  6
CONTINUOUS
 10
9.2290543608
 20
10.9428406121
 11
9.2389906607
 21
10.9596375396
  0
LINE
  5
5E2
100
AcDbEntity
  8
0
100
AcDbLine
 62
7
  6
CONTINUOUS
 10
9.3175528162
 20
10.9042381603
 11
9.3093521457
 21
10.8958078807
  0
SPLINE
  5
5E3
100
AcDbEntity
  8
0
100
AcDbSpline
 62
9
  6
CONTINUOUS
 70
0
 71
3
 72
15
 73
11
 74
0
 42
0.0000001
 43
0.0000001
 44
0.0000000001
 40
0.0
 40
0.0
 40
0.0
 40
0.0
 40
0.1249905254
 40
0.2499956734
 40
0.3749960092
 40
0.4999971089
 40
0.6249989733
 40
0.7500076629
 40
0.8750023069
 40
1.0
 40
1.0
 40
1.0
 40
1.0
 10
9.2187447345
 20
10.9795061733
 30
0.0
 10
9.2179280355
 20
10.9779604219
 30
0.0
 10
9.2165877675
 20
10.9747039243
 30
0.0
 10
9.2155308915
 20
10.9695360028
 30
0.0
 10
9.2154689958
 20
10.9642589356
 30
0.0
 10
9.2164082395
 20
10.9590661721
 30
0.0
 10
9.2183148602
 20
10.954145691
 30
0.0
 10
9.2211154125
 20
10.9496731121
 30
0.0
 10
9.224704306
 20
10.9458076681
 30
0.0
 10
9.2275473228
 20
10.9437268582
 30
0.0
 10
9.2290548872
 20
10.9428414516
 30
0.0
  0
LINE
  5
5E4
100
AcDbEntity
  8
0
100
AcDbLine
 62
7
  6
CONTINUOUS
 10
9.3093586571
 20
10.8958142163
 11
9.2463968854
 21
10.8328295766
  0
SPLINE
  5
5E5
100
AcDbEntity
  8
0
100
AcDbSpline
 62
9
  6
CONTINUOUS
 70
0
 71
3
 72
13
 73
9
 74
0
 42
0.0000001
 43
0.0000001
 44
0.0000000001
 40
0.0
 40
0.0
 40
0.0
 40
0.0
 40
0.2499554179
 40
0.3749762022
 40
0.4999988507
 40
0.6250211825
 40
0.7500420867
 40
1.0
 40
1.0
 40
1.0
 40
1.0
 10
9.2463968854
 20
10.8328295766
 30
0.0
 10
9.2587961602
 20
10.8254023914
 30
0.0
 10
9.2767989567
 20
10.8132159357
 30
0.0
 10
9.2993650717
 20
10.7951271086
 30
0.0
 10
9.3155456185
 20
10.7806689153
 30
0.0
 10
9.3309304875
 20
10.7653668217
 30
0.0
 10
9.3503163792
 20
10.7439044317
 30
0.0
 10
9.3635526555
 20
10.7266606385
 30
0.0
 10
9.3717182271
 20
10.7147345031
 30
0.0
  0
LINE
  5
5E6
100
AcDbEntity
  8
0
100
AcDbLine
 62
9
  6
CONTINUOUS
 10
7.1799438809
 20
12.7783772145
 11
7.1945755311
 21
12.7585269833
  0
LINE
  5
5E7
100
AcDbEntity
  8
0
100
AcDbLine
 62
9
  6
CONTINUOUS
 10
7.1945755311
 20
12.7585269833
 11
7.1948892317
 21
12.7581029416
  0
SPLINE
  5
5E8
100
AcDbEntity
  8
0
100
AcDbSpline
 62
9
  6
CONTINUOUS
 70
0
 71
3
 72
23
 73
19
 74
0
 42
0.0000001
 43
0.0000001
 44
0.0000000001
 40
0.0
 40
0.0
 40
0.0
 40
0.0
 40
0.0625000622
 40
0.1249986376
 40
0.1875006799
 40
0.2500017607
 40
0.3125022737
 40
0.3750021404
 40
0.4375018209
 40
0.5000016773
 40
0.5625014421
 40
0.6250008588
 40
0.6875003139
 40
0.7500003097
 40
0.8125008167
 40
0.875002287
 40
0.9375003436
 40
1.0
 40
1.0
 40
1.0
 40
1.0
 10
9.3717182271
 20
10.7147345031
 30
0.0
 10
9.3738347215
 20
10.7116678901
 30
0.0
 10
9.377566659
 20
10.7051732005
 30
0.0
 10
9.3815505689
 20
10.6946820742
 30
0.0
 10
9.3838430944
 20
10.6836938401
 30
0.0
 10
9.3843907694
 20
10.672482353
 30
0.0
 10
9.3831589464
 20
10.6613249826
 30
0.0
 10
9.3801913516
 20
10.6504996728
 30
0.0
 10
9.3755556958
 20
10.6402769475
 30
0.0
 10
9.369374198
 20
10.6309076236
 30
0.0
 10
9.3617924679
 20
10.622630416
 30
0.0
 10
9.3530065695
 20
10.6156446882
 30
0.0
 10
9.3432300019
 20
10.6101300625
 30
0.0
 10
9.3327086556
 20
10.6062180852
 30
0.0
 10
9.3217014522
 20
10.6040188463
 30
0.0
 10
9.3104858365
 20
10.6035663214
 30
0.0
 10
9.2993404487
 20
10.6048753942
 30
0.0
 10
9.2921325171
 20
10.6069133527
 30
0.0
 10
9.2886428343
 20
10.6082193378
 30
0.0
  0
SPLINE
  5
5E9
100
AcDbEntity
  8
0
100
AcDbSpline
 62
7
  6
CONTINUOUS
 70
0
 71
3
 72
37
 73
33
 74
0
 42
0.0000001
 43
0.0000001
 44
0.0000000001
 40
0.0
 40
0.0
 40
0.0
 40
0.0
 40
0.1917060812
 40
0.2855296879
 40
0.3768714065
 40
0.4648813137
 40
0.5487264574
 40
0.627594015
 40
0.7006952115
 40
0.767275247
 40
0.7978967903
 40
0.8266253556
 40
0.8533825088
 40
0.8780915053
 40
0.9006816292
 40
0.9210902127
 40
0.9392558257
 40
0.9551225786
 40
0.9686373483
 40
0.9744983171
 40
0.979758775
 40
0.9844175945
 40
0.9884736675
 40
0.9919259153
 40
0.9947719378
 40
0.9970060392
 40
0.9978917855
 40
0.9986224376
 40
0.999197491
 40
0.9996167965
 40
0.9998814049
 40
1.0
 40
1.0
 40
1.0
 40
1.0
 10
9.2464333261
 20
10.8328429916
 30
0.0
 10
9.2495785568
 20
10.8359905797
 30
0.0
 10
9.2542815348
 20
10.8406602825
 30
0.0
 10
9.2605249652
 20
10.8467872602
 30
0.0
 10
9.2650676165
 20
10.8512109159
 30
0.0
 10
9.2694604611
 20
10.8554563598
 30
0.0
 10
9.273660106
 20
10.8594850145
 30
0.0
 10
9.2776237836
 20
10.8632597205
 30
0.0
 10
9.2813097137
 20
10.8667449371
 30
0.0
 10
9.2841914732
 20
10.8694506664
 30
0.0
 10
9.2863278161
 20
10.8714456072
 30
0.0
 10
9.2877910274
 20
10.8728070665
 30
0.0
 10
9.2891560918
 20
10.8740725385
 30
0.0
 10
9.2904188914
 20
10.8752387436
 30
0.0
 10
9.2915755828
 20
10.8763026452
 30
0.0
 10
9.292622596
 20
10.8772614346
 30
0.0
 10
9.2935566008
 20
10.8781125519
 30
0.0
 10
9.2943744771
 20
10.8788535339
 30
0.0
 10
9.2949826528
 20
10.8794005938
 30
0.0
 10
9.2954092402
 20
10.8797814024
 30
0.0
 10
9.295683194
 20
10.8800245227
 30
0.0
 10
9.2959265767
 20
10.880238975
 30
0.0
 10
9.2961393007
 20
10.8804247283
 30
0.0
 10
9.2963212549
 20
10.8805817559
 30
0.0
 10
9.2964722233
 20
10.8807099128
 30
0.0
 10
9.296578887
 20
10.880798294
 30
0.0
 10
9.296648637
 20
10.8808540794
 30
0.0
 10
9.2966889591
 20
10.880885308
 30
0.0
 10
9.2967209309
 20
10.8809088404
 30
0.0
 10
9.2967457343
 20
10.880925786
 30
0.0
 10
9.2967607547
 20
10.8809340531
 30
0.0
 10
9.2967706897
 20
10.8809382852
 30
0.0
 10
9.2967729917
 20
10.8809367759
 30
0.0
  0
LINE
  5
5EA
100
AcDbEntity
  8
0
100
AcDbLine
 62
9
  6
CONTINUOUS
 10
12.212298778
 20
3.5850359718
 11
12.2114438179
 21
3.5892247172
  0
LINE
  5
5EB
100
AcDbEntity
  8
0
100
AcDbLine
 62
9
  6
CONTINUOUS
 10
9.37171811
 20
10.7147344229
 11
9.4273381945
 21
10.7529837752
  0
LINE
  5
5EC
100
AcDbEntity
  8
0
100
AcDbLine
 62
9
  6
CONTINUOUS
 10
9.0026388852
 20
11.1310578339
 11
9.004420758
 21
11.1296650286
  0
SPLINE
  5
5ED
100
AcDbEntity
  8
0
100
AcDbSpline
 62
9
  6
CONTINUOUS
 70
0
 71
3
 72
38
 73
34
 74
0
 42
0.0000001
 43
0.0000001
 44
0.0000000001
 40
0.0
 40
0.0
 40
0.0
 40
0.0
 40
0.1955079634
 40
0.2908085144
 40
0.3832665155
 40
0.4719932155
 40
0.556143501
 40
0.6349162833
 40
0.7075599574
 40
0.7733813601
 40
0.8035354782
 40
0.8317536066
 40
0.8579701614
 40
0.8821208166
 40
0.9041488636
 40
0.9240025078
 40
0.9416324009
 40
0.9569986316
 40
0.970063754
 40
0.975722934
 40
0.9807958338
 40
0.9852796243
 40
0.9891714864
 40
0.9924686308
 40
0.9951690032
 40
0.9962951133
 40
0.9972717179
 40
0.998098747
 40
0.9987761639
 40
0.9993040017
 40
0.9996824757
 40
0.9999124549
 40
1.0
 40
1.0
 40
1.0
 40
1.0
 10
9.2886429909
 20
10.6082197605
 30
0.0
 10
9.2871397714
 20
10.6041619701
 30
0.0
 10
9.284905913
 20
10.5981254248
 30
0.0
 10
9.2819662515
 20
10.5901680225
 30
0.0
 10
9.2798478344
 20
10.5844267957
 30
0.0
 10
9.2778171445
 20
10.5789162585
 30
0.0
 10
9.2758935797
 20
10.5736890597
 30
0.0
 10
9.2740954614
 20
10.5687950096
 30
0.0
 10
9.2724399272
 20
10.5642807713
 30
0.0
 10
9.2711573772
 20
10.5607759319
 30
0.0
 10
9.2702144878
 20
10.5581938611
 30
0.0
 10
9.2695731684
 20
10.5564348787
 30
0.0
 10
9.2689783064
 20
10.5548003923
 30
0.0
 10
9.2684313153
 20
10.5532942839
 30
0.0
 10
9.2679334976
 20
10.551920151
 30
0.0
 10
9.2674860386
 20
10.5506812815
 30
0.0
 10
9.2670899947
 20
10.5495806147
 30
0.0
 10
9.2667463076
 20
10.5486207947
 30
0.0
 10
9.2664933954
 20
10.5479098993
 30
0.0
 10
9.2663180007
 20
10.5474132443
 30
0.0
 10
9.2662064412
 20
10.5470954772
 30
0.0
 10
9.2661084897
 20
10.5468143915
 30
0.0
 10
9.2660242013
 20
10.5465701658
 30
0.0
 10
9.2659536325
 20
10.5463629695
 30
0.0
 10
9.2659036401
 20
10.5462134241
 30
0.0
 10
9.2658706569
 20
10.5461123739
 30
0.0
 10
9.2658508911
 20
10.5460505825
 30
0.0
 10
9.2658346178
 20
10.5459982252
 30
0.0
 10
9.2658216454
 20
10.5459549015
 30
0.0
 10
9.2658124531
 20
10.5459217133
 30
0.0
 10
9.2658057878
 20
10.5458960057
 30
0.0
 10
9.2658039833
 20
10.5458831889
 30
0.0
 10
9.2658025109
 20
10.5458735146
 30
0.0
 10
9.265804328
 20
10.5458728417
 30
0.0
  0
SPLINE
  5
5EE
100
AcDbEntity
  8
0
100
AcDbSpline
 62
7
  6
CONTINUOUS
 70
0
 71
3
 72
26
 73
22
 74
0
 42
0.0000001
 43
0.0000001
 44
0.0000000001
 40
0.0
 40
0.0
 40
0.0
 40
0.0
 40
0.0089376125
 40
0.0185022266
 40
0.0291563685
 40
0.0412270049
 40
0.0549292905
 40
0.0703968354
 40
0.0877062412
 40
0.1068989598
 40
0.1279864141
 40
0.1509620298
 40
0.2024703403
 40
0.2611162932
 40
0.3264327589
 40
0.3978335189
 40
0.4746287454
 40
0.5560365771
 40
0.6411953544
 40
0.8189765513
 40
1.0
 40
1.0
 40
1.0
 40
1.0
 10
8.0377387941
 20
12.0972777862
 30
0.0
 10
8.0379157136
 20
12.0974546772
 30
0.0
 10
8.0383340313
 20
12.0977717643
 30
0.0
 10
8.0390924129
 20
12.0980909826
 30
0.0
 10
8.0399842202
 20
12.0982660601
 30
0.0
 10
8.04100653
 20
12.0983012187
 30
0.0
 10
8.04215862
 20
12.0981986085
 30
0.0
 10
8.0434390117
 20
12.0979590992
 30
0.0
 10
8.0448455573
 20
12.097583406
 30
0.0
 10
8.0463752011
 20
12.0970719822
 30
0.0
 10
8.0480245058
 20
12.0964260207
 30
0.0
 10
8.0504722464
 20
12.0953448461
 30
0.0
 10
8.053794497
 20
12.0936504363
 30
0.0
 10
8.0580452933
 20
12.0911861895
 30
0.0
 10
8.0626550221
 20
12.0882413768
 30
0.0
 10
8.0675743238
 20
12.0848452881
 30
0.0
 10
8.0727494723
 20
12.081032608
 30
0.0
 10
8.0781227438
 20
12.0768440042
 30
0.0
 10
8.0855765021
 20
12.0707311154
 30
0.0
 10
8.0949094197
 20
12.0625187892
 30
0.0
 10
8.1021661439
 20
12.055570107
 30
0.0
 10
8.1057492036
 20
12.0519870474
 30
0.0
  0
SPLINE
  5
5EF
100
AcDbEntity
  8
0
100
AcDbSpline
 62
9
  6
CONTINUOUS
 70
0
 71
3
 72
19
 73
15
 74
0
 42
0.0000001
 43
0.0000001
 44
0.0000000001
 40
0.0
 40
0.0
 40
0.0
 40
0.0
 40
0.0174162984
 40
0.0371061314
 40
0.0613975754
 40
0.0915689044
 40
0.1282674575
 40
0.1718323552
 40
0.2224509495
 40
0.280228502
 40
0.4173874709
 40
0.5833448635
 40
0.7777829312
 40
1.0
 40
1.0
 40
1.0
 40
1.0
 10
7.2514255577
 20
12.7052151381
 30
0.0
 10
7.2514598722
 20
12.7052491256
 30
0.0
 10
7.2515510958
 20
12.7053048819
 30
0.0
 10
7.2517233478
 20
12.7053265139
 30
0.0
 10
7.251928193
 20
12.7052959637
 30
0.0
 10
7.2521687972
 20
12.7052157785
 30
0.0
 10
7.2524466954
 20
12.7050860378
 30
0.0
 10
7.2527624154
 20
12.7049064386
 30
0.0
 10
7.2531159861
 20
12.7046768262
 30
0.0
 10
7.2536699916
 20
12.7042805834
 30
0.0
 10
7.2544517278
 20
12.7036546698
 30
0.0
 10
7.2554892609
 20
12.7027447188
 30
0.0
 10
7.2566684823
 20
12.701639952
 30
0.0
 10
7.2574923257
 20
12.7008296915
 30
0.0
 10
7.2579277955
 20
12.7003936758
 30
0.0
  0
SPLINE
  5
5F0
100
AcDbEntity
  8
0
100
AcDbSpline
 62
7
  6
CONTINUOUS
 70
0
 71
3
 72
20
 73
16
 74
0
 42
0.0000001
 43
0.0000001
 44
0.0000000001
 40
0.0
 40
0.0
 40
0.0
 40
0.0
 40
0.0386330553
 40
0.0515693714
 40
0.0660279302
 40
0.099734492
 40
0.1400575753
 40
0.1870798174
 40
0.2407862448
 40
0.3010902133
 40
0.3678632364
 40
0.4409440756
 40
0.6052466801
 40
0.7922647756
 40
1.0
 40
1.0
 40
1.0
 40
1.0
 10
8.9111602744
 20
11.2688081813
 30
0.0
 10
8.9114492013
 20
11.2690970287
 30
0.0
 10
8.9120309093
 20
11.2692571559
 30
0.0
 10
8.9127211951
 20
11.2693021748
 30
0.0
 10
8.9133695823
 20
11.2692928917
 30
0.0
 10
8.9143001906
 20
11.2691850422
 30
0.0
 10
8.9155560318
 20
11.2689303849
 30
0.0
 10
8.916997388
 20
11.2685439153
 30
0.0
 10
8.9186204487
 20
11.2680268903
 30
0.0
 10
8.9204201111
 20
11.267380793
 30
0.0
 10
8.9223908316
 20
11.266607696
 30
0.0
 10
8.925356153
 20
11.2653610129
 30
0.0
 10
8.9294382758
 20
11.263493224
 30
0.0
 10
8.934739814
 20
11.2608754075
 30
0.0
 10
8.9384386294
 20
11.2589391973
 30
0.0
 10
8.9403753473
 20
11.2579023082
 30
0.0
  0
SPLINE
  5
5F1
100
AcDbEntity
  8
0
100
AcDbSpline
 62
7
  6
CONTINUOUS
 70
0
 71
3
 72
19
 73
15
 74
0
 42
0.0000001
 43
0.0000001
 44
0.0000000001
 40
0.0
 40
0.0
 40
0.0
 40
0.0
 40
0.0291354409
 40
0.0606025532
 40
0.0954264707
 40
0.1343395409
 40
0.1778422028
 40
0.2262699255
 40
0.2798338517
 40
0.3386600836
 40
0.4723151949
 40
0.6273585854
 40
0.8034580754
 40
1.0
 40
1.0
 40
1.0
 40
1.0
 10
8.7319281255
 20
11.4523531708
 30
0.0
 10
8.7320502721
 20
11.4524753052
 30
0.0
 10
8.7323349828
 20
11.4526999375
 30
0.0
 10
8.7328434884
 20
11.4529546958
 30
0.0
 10
8.7334420387
 20
11.4531382696
 30
0.0
 10
8.7341293198
 20
11.4532522102
 30
0.0
 10
8.7349048643
 20
11.4532975831
 30
0.0
 10
8.7357679657
 20
11.4532747485
 30
0.0
 10
8.736717694
 20
11.453184145
 30
0.0
 10
8.7381602563
 20
11.4529635747
 30
0.0
 10
8.7401714464
 20
11.4525046686
 30
0.0
 10
8.7428126508
 20
11.4517143475
 30
0.0
 10
8.7457612717
 20
11.4506657442
 30
0.0
 10
8.7478119215
 20
11.4498423438
 30
0.0
 10
8.7488863201
 20
11.4493913354
 30
0.0
  0
SPLINE
  5
5F2
100
AcDbEntity
  8
0
100
AcDbSpline
 62
7
  6
CONTINUOUS
 70
0
 71
3
 72
30
 73
26
 74
0
 42
0.0000001
 43
0.0000001
 44
0.0000000001
 40
0.0
 40
0.0
 40
0.0
 40
0.0
 40
0.0017746597
 40
0.0038809937
 40
0.0064491176
 40
0.0095499999
 40
0.0132223226
 40
0.0174864903
 40
0.0223530715
 40
0.0278273545
 40
0.040602895
 40
0.0557982385
 40
0.0733742125
 40
0.0932746554
 40
0.1154321174
 40
0.1397695601
 40
0.1946337456
 40
0.2571041802
 40
0.3263238237
 40
0.4013596469
 40
0.481215039
 40
0.5648390446
 40
0.651135804
 40
0.8271834084
 40
1.0
 40
1.0
 40
1.0
 40
1.0
 10
8.8149413993
 20
11.3041626652
 30
0.0
 10
8.8149815651
 20
11.3042028305
 30
0.0
 10
8.8150883244
 20
11.3042721247
 30
0.0
 10
8.8152887771
 20
11.304328443
 30
0.0
 10
8.815537919
 20
11.3043482006
 30
0.0
 10
8.8158370615
 20
11.3043320789
 30
0.0
 10
8.816186901
 20
11.3042803709
 30
0.0
 10
8.8165875131
 20
11.3041930085
 30
0.0
 10
8.8170386869
 20
11.3040700422
 30
0.0
 10
8.8177442625
 20
11.3038467819
 30
0.0
 10
8.818748084
 20
11.3034731824
 30
0.0
 10
8.8200918008
 20
11.302907074
 30
0.0
 10
8.8216242697
 20
11.3022038241
 30
0.0
 10
8.8233395483
 20
11.3013661959
 30
0.0
 10
8.8252310836
 20
11.3003972552
 30
0.0
 10
8.8280950685
 20
11.2988729478
 30
0.0
 10
8.8320546446
 20
11.296662011
 30
0.0
 10
8.8372119788
 20
11.293652096
 30
0.0
 10
8.8428754028
 20
11.2902300121
 30
0.0
 10
8.8489674648
 20
11.2864425722
 30
0.0
 10
8.8554062193
 20
11.2823404795
 30
0.0
 10
8.8621060682
 20
11.2779781535
 30
0.0
 10
8.8713300526
 20
11.2718506588
 30
0.0
 10
8.8828301018
 20
11.2639912305
 30
0.0
 10
8.8919405595
 20
11.2575335191
 30
0.0
 10
8.89642151
 20
11.2542903717
 30
0.0
  0
SPLINE
  5
5F3
100
AcDbEntity
  8
0
100
AcDbSpline
 62
7
  6
CONTINUOUS
 70
0
 71
3
 72
14
 73
10
 74
0
 42
0.0000001
 43
0.0000001
 44
0.0000000001
 40
0.0
 40
0.0
 40
0.0
 40
0.0
 40
0.0912471569
 40
0.1879838288
 40
0.293046149
 40
0.4085858434
 40
0.5361620624
 40
0.676848953
 40
1.0
 40
1.0
 40
1.0
 40
1.0
 10
8.4983496507
 20
11.6915550861
 30
0.0
 10
8.4985148102
 20
11.6917202481
 30
0.0
 10
8.4988920116
 20
11.6920251523
 30
0.0
 10
8.4995576541
 20
11.6923789679
 30
0.0
 10
8.50033026
 20
11.6926395445
 30
0.0
 10
8.5012076118
 20
11.6928083061
 30
0.0
 10
8.5021886224
 20
11.6928863835
 30
0.0
 10
8.5037039126
 20
11.6928692589
 30
0.0
 10
8.50488608
 20
11.6927188089
 30
0.0
 10
8.5057009738
 20
11.6925766817
 30
0.0
  0
SPLINE
  5
5F4
100
AcDbEntity
  8
0
100
AcDbSpline
 62
7
  6
CONTINUOUS
 70
0
 71
3
 72
23
 73
19
 74
0
 42
0.0000001
 43
0.0000001
 44
0.0000000001
 40
0.0
 40
0.0
 40
0.0
 40
0.0
 40
0.2028837465
 40
0.3885214089
 40
0.4736669684
 40
0.5531228541
 40
0.6265252884
 40
0.6935637647
 40
0.7539997661
 40
0.8076640077
 40
0.8544943809
 40
0.8945600892
 40
0.9281465512
 40
0.9427076756
 40
0.955936412
 40
0.9791070624
 40
0.989672472
 40
1.0
 40
1.0
 40
1.0
 40
1.0
 10
8.3679375196
 20
11.7897987314
 30
0.0
 10
8.3701474755
 20
11.7875887755
 30
0.0
 10
8.3743146725
 20
11.7832911174
 30
0.0
 10
8.3792003623
 20
11.7778685508
 30
0.0
 10
8.3826705841
 20
11.7737366973
 30
0.0
 10
8.3849554763
 20
11.7708687843
 30
0.0
 10
8.386986938
 20
11.7681573662
 30
0.0
 10
8.3887548003
 20
11.765616734
 30
0.0
 10
8.3902510344
 20
11.7632602079
 30
0.0
 10
8.391469098
 20
11.7610994491
 30
0.0
 10
8.3924050304
 20
11.759144412
 30
0.0
 10
8.3930557474
 20
11.7574032785
 30
0.0
 10
8.3933745347
 20
11.756076366
 30
0.0
 10
8.3934647352
 20
11.7551332348
 30
0.0
 10
8.393453776
 20
11.7543478299
 30
0.0
 10
8.3933029801
 20
11.7536252804
 30
0.0
 10
8.3929829722
 20
11.7530223413
 30
0.0
 10
8.3927774851
 20
11.752771342
 30
0.0
 10
8.3926649978
 20
11.7526588395
 30
0.0
  0
SPLINE
  5
5F5
100
AcDbEntity
  8
0
100
AcDbSpline
 62
7
  6
CONTINUOUS
 70
0
 71
3
 72
26
 73
22
 74
0
 42
0.0000001
 43
0.0000001
 44
0.0000000001
 40
0.0
 40
0.0
 40
0.0
 40
0.0
 40
0.1810232424
 40
0.3588042972
 40
0.4439629988
 40
0.525370779
 40
0.6021659644
 40
0.6735666946
 40
0.7388831582
 40
0.7975291271
 40
0.8490374615
 40
0.8720130539
 40
0.8931005402
 40
0.9122932545
 40
0.9296027027
 40
0.9450703247
 40
0.9587726542
 40
0.9708433929
 40
0.9814976154
 40
0.9910623049
 40
1.0
 40
1.0
 40
1.0
 40
1.0
 10
7.8343118852
 20
12.3234243657
 30
0.0
 10
7.8378949408
 20
12.3198413102
 30
0.0
 10
7.8448436163
 20
12.3125845932
 30
0.0
 10
7.8530559352
 20
12.3032516852
 30
0.0
 10
7.8591688199
 20
12.2957979333
 30
0.0
 10
7.8633574218
 20
12.2904246664
 30
0.0
 10
7.867170101
 20
12.2852495214
 30
0.0
 10
7.8705661894
 20
12.2803302221
 30
0.0
 10
7.8735110032
 20
12.2757204945
 30
0.0
 10
7.8759752517
 20
12.2714696981
 30
0.0
 10
7.8776696661
 20
12.2681474493
 30
0.0
 10
7.8787508406
 20
12.2656997077
 30
0.0
 10
7.8793968065
 20
12.2640504046
 30
0.0
 10
7.8799082313
 20
12.262520759
 30
0.0
 10
7.8802839276
 20
12.2611142111
 30
0.0
 10
7.8805234442
 20
12.2598338159
 30
0.0
 10
7.880626053
 20
12.2586817196
 30
0.0
 10
7.8805909015
 20
12.2576594034
 30
0.0
 10
7.8804158249
 20
12.2567675881
 30
0.0
 10
7.8800966041
 20
12.2560092006
 30
0.0
 10
7.8797795165
 20
12.2555908775
 30
0.0
 10
7.8796026241
 20
12.2554139561
 30
0.0
  0
SPLINE
  5
5F6
100
AcDbEntity
  8
0
100
AcDbSpline
 62
7
  6
CONTINUOUS
 70
0
 71
3
 72
30
 73
26
 74
0
 42
0.0000001
 43
0.0000001
 44
0.0000000001
 40
0.0
 40
0.0
 40
0.0
 40
0.0
 40
0.172815989
 40
0.3488628039
 40
0.4351593545
 40
0.518783482
 40
0.5986392855
 40
0.6736757166
 40
0.7428960029
 40
0.8053669167
 40
0.8602312977
 40
0.8845686952
 40
0.9067261743
 40
0.9266264731
 40
0.9442024047
 40
0.9593975594
 40
0.9721730333
 40
0.9776472569
 40
0.982513734
 40
0.9867778186
 40
0.9904501379
 40
0.9935510028
 40
0.996119065
 40
0.9982253503
 40
1.0
 40
1.0
 40
1.0
 40
1.0
 10
7.0366152522
 20
13.1140966133
 30
0.0
 10
7.0398583856
 20
13.1096156817
 30
0.0
 10
7.0463160656
 20
13.1005052667
 30
0.0
 10
7.0541754595
 20
13.0890052691
 30
0.0
 10
7.0603029352
 20
13.0797813158
 30
0.0
 10
7.0646652644
 20
13.0730814638
 30
0.0
 10
7.0687673743
 20
13.066642684
 30
0.0
 10
7.0725548397
 20
13.0605505815
 30
0.0
 10
7.0759769498
 20
13.0548871146
 30
0.0
 10
7.0789868825
 20
13.0497297472
 30
0.0
 10
7.081197828
 20
13.0457701568
 30
0.0
 10
7.0827221324
 20
13.042906167
 30
0.0
 10
7.0836910716
 20
13.041014639
 30
0.0
 10
7.0845286917
 20
13.0392993641
 30
0.0
 10
7.0852319384
 20
13.0377669084
 30
0.0
 10
7.085798037
 20
13.0364231989
 30
0.0
 10
7.0861716334
 20
13.035419388
 30
0.0
 10
7.0863948905
 20
13.0347138196
 30
0.0
 10
7.0865178517
 20
13.0342626529
 30
0.0
 10
7.0866052091
 20
13.0338620463
 30
0.0
 10
7.0866569183
 20
13.0335122108
 30
0.0
 10
7.0866730415
 20
13.0332130711
 30
0.0
 10
7.0866532808
 20
13.0329639335
 30
0.0
 10
7.0865969585
 20
13.032763486
 30
0.0
 10
7.0865276659
 20
13.0326567293
 30
0.0
 10
7.0864875028
 20
13.0326165619
 30
0.0
  0
LINE
  5
5F7
100
AcDbEntity
  8
0
100
AcDbLine
 62
9
  6
CONTINUOUS
 10
10.7826501116
 20
14.4573293337
 11
10.782458297
 21
14.4572318745
  0
SPLINE
  5
5F8
100
AcDbEntity
  8
0
100
AcDbSpline
 62
9
  6
CONTINUOUS
 70
0
 71
3
 72
9
 73
5
 74
0
 42
0.0000001
 43
0.0000001
 44
0.0000000001
 40
0.0
 40
0.0
 40
0.0
 40
0.0
 40
0.239042751
 40
1.0
 40
1.0
 40
1.0
 40
1.0
 10
10.782458297
 20
14.4572318745
 30
0.0
 10
10.7824506044
 20
14.4572302666
 30
0.0
 10
10.7824182745
 20
14.457224257
 30
0.0
 10
10.7823854597
 20
14.4572210044
 30
0.0
 10
10.7823604731
 20
14.4572197612
 30
0.0
  0
SPLINE
  5
5F9
100
AcDbEntity
  8
0
100
AcDbSpline
 62
7
  6
CONTINUOUS
 70
0
 71
3
 72
21
 73
17
 74
0
 42
0.0000001
 43
0.0000001
 44
0.0000000001
 40
0.0
 40
0.0
 40
0.0
 40
0.0
 40
0.2100832774
 40
0.3981054503
 40
0.561811415
 40
0.6340203062
 40
0.6995751908
 40
0.7583892793
 40
0.8104295939
 40
0.855766065
 40
0.8945941087
 40
0.9273275801
 40
0.9547438257
 40
0.9782141132
 40
0.9891637785
 40
1.0
 40
1.0
 40
1.0
 40
1.0
 10
8.6030091328
 20
11.5547271181
 30
0.0
 10
8.6044635147
 20
11.5532727363
 30
0.0
 10
8.6071821494
 20
11.5504786903
 30
0.0
 10
8.6108790444
 20
11.546404404
 30
0.0
 10
8.6135317586
 20
11.543209392
 30
0.0
 10
8.6153090351
 20
11.5408523129
 30
0.0
 10
8.6164110609
 20
11.5392738512
 30
0.0
 10
8.6173363753
 20
11.5378146894
 30
0.0
 10
8.6180826799
 20
11.5364788585
 30
0.0
 10
8.6186488045
 20
11.5352698707
 30
0.0
 10
8.6190343129
 20
11.5341898353
 30
0.0
 10
8.6192384606
 20
11.5332386172
 30
0.0
 10
8.6192601664
 20
11.5324139069
 30
0.0
 10
8.6191109991
 20
11.5318157465
 30
0.0
 10
8.6188924477
 20
11.5314277712
 30
0.0
 10
8.6187548492
 20
11.5312629725
 30
0.0
 10
8.6186798356
 20
11.5311879503
 30
0.0
  0
SPLINE
  5
5FA
100
AcDbEntity
  8
0
100
AcDbSpline
 62
7
  6
CONTINUOUS
 70
0
 71
3
 72
26
 73
22
 74
0
 42
0.0000001
 43
0.0000001
 44
0.0000000001
 40
0.0
 40
0.0
 40
0.0
 40
0.0
 40
0.193303111
 40
0.3756076394
 40
0.4608174946
 40
0.5411773904
 40
0.6160999375
 40
0.6850674691
 40
0.7476418264
 40
0.8034725634
 40
0.8523202452
 40
0.8740945351
 40
0.8941015247
 40
0.9123628668
 40
0.9289219996
 40
0.9438476526
 40
0.9572490572
 40
0.969289245
 40
0.9802002581
 40
0.9903020658
 40
1.0
 40
1.0
 40
1.0
 40
1.0
 10
8.1057492036
 20
12.0519870474
 30
0.0
 10
8.1087045608
 20
12.0490316902
 30
0.0
 10
8.1143447335
 20
12.0431856032
 30
0.0
 10
8.1209792742
 20
12.0357478538
 30
0.0
 10
8.125787594
 20
12.0299630304
 30
0.0
 10
8.1290089717
 20
12.0258804655
 30
0.0
 10
8.1319024527
 20
12.0219888921
 30
0.0
 10
8.1344462065
 20
12.0183193341
 30
0.0
 10
8.1366221654
 20
12.0149004475
 30
0.0
 10
8.138415289
 20
12.0117582935
 30
0.0
 10
8.1396247473
 20
12.0093032829
 30
0.0
 10
8.1403780502
 20
12.0074936618
 30
0.0
 10
8.1408185793
 20
12.0062718403
 30
0.0
 10
8.1411562894
 20
12.0051347043
 30
0.0
 10
8.1413908817
 20
12.0040839563
 30
0.0
 10
8.1415219583
 20
12.0031209245
 30
0.0
 10
8.1415491247
 20
12.0022466061
 30
0.0
 10
8.1414718114
 20
12.0014617333
 30
0.0
 10
8.14128824
 20
12.000767166
 30
0.0
 10
8.140996634
 20
12.0001655676
 30
0.0
 10
8.1407276923
 20
11.9998270342
 30
0.0
 10
8.1405794346
 20
11.9996787539
 30
0.0
  0
SPLINE
  5
5FB
100
AcDbEntity
  8
0
100
AcDbSpline
 62
7
  6
CONTINUOUS
 70
0
 71
3
 72
21
 73
17
 74
0
 42
0.0000001
 43
0.0000001
 44
0.0000000001
 40
0.0
 40
0.0
 40
0.0
 40
0.0
 40
0.0108362188
 40
0.0217858765
 40
0.0452561482
 40
0.0726724259
 40
0.1054058516
 40
0.1442339452
 40
0.1895703787
 40
0.2416107149
 40
0.3004248002
 40
0.3659796784
 40
0.4381885962
 40
0.6018944967
 40
0.7899167895
 40
1.0
 40
1.0
 40
1.0
 40
1.0
 10
7.3135127885
 20
12.8363549973
 30
0.0
 10
7.313587811
 20
12.8364300105
 30
0.0
 10
7.3137526098
 20
12.8365676087
 30
0.0
 10
7.314140584
 20
12.8367861615
 30
0.0
 10
7.3147387446
 20
12.8369353296
 30
0.0
 10
7.3155634545
 20
12.8369136212
 30
0.0
 10
7.3165146734
 20
12.8367094766
 30
0.0
 10
7.3175947077
 20
12.8363239656
 30
0.0
 10
7.3188036966
 20
12.8357578428
 30
0.0
 10
7.3201395268
 20
12.8350115371
 30
0.0
 10
7.3215986889
 20
12.8340862231
 30
0.0
 10
7.3231771509
 20
12.8329841974
 30
0.0
 10
7.3255342293
 20
12.8312069207
 30
0.0
 10
7.3287292422
 20
12.8285542065
 30
0.0
 10
7.3328035281
 20
12.8248573113
 30
0.0
 10
7.3355975746
 20
12.8221386764
 30
0.0
 10
7.337051956
 20
12.820684295
 30
0.0
  0
SPLINE
  5
5FC
100
AcDbEntity
  8
0
100
AcDbSpline
 62
7
  6
CONTINUOUS
 70
0
 71
3
 72
13
 73
9
 74
0
 42
0.0000001
 43
0.0000001
 44
0.0000000001
 40
0.0
 40
0.0
 40
0.0
 40
0.0
 40
0.122379777
 40
0.2488511021
 40
0.5073079133
 40
0.7619535236
 40
0.8838053229
 40
1.0
 40
1.0
 40
1.0
 40
1.0
 10
7.5721235692
 20
12.5856126818
 30
0.0
 10
7.5739330856
 20
12.5838031653
 30
0.0
 10
7.5775661398
 20
12.5800768906
 30
0.0
 10
7.5847964285
 20
12.5723134702
 30
0.0
 10
7.5935913059
 20
12.5622326157
 30
0.0
 10
7.6019028208
 20
12.5518729587
 30
0.0
 10
7.6080742278
 20
12.5436224178
 30
0.0
 10
7.6109587229
 20
12.5395648462
 30
0.0
 10
7.6123390766
 20
12.5375653199
 30
0.0
  0
LINE
  5
5FD
100
AcDbEntity
  8
0
100
AcDbLine
 62
7
  6
CONTINUOUS
 10
8.22634378
 20
11.9701136504
 11
8.2273919878
 21
11.9708856677
  0
SPLINE
  5
5FE
100
AcDbEntity
  8
0
100
AcDbSpline
 62
7
  6
CONTINUOUS
 70
0
 71
3
 72
20
 73
16
 74
0
 42
0.0000001
 43
0.0000001
 44
0.0000000001
 40
0.0
 40
0.0
 40
0.0
 40
0.0
 40
0.2081101159
 40
0.3946826043
 40
0.558020862
 40
0.6967008332
 40
0.7564592109
 40
0.8097023269
 40
0.8564023195
 40
0.896595041
 40
0.9304438918
 40
0.958317914
 40
0.9702495045
 40
0.9810308876
 40
1.0
 40
1.0
 40
1.0
 40
1.0
 10
7.208495554
 20
12.9268683137
 30
0.0
 10
7.209323034
 20
12.9254078405
 30
0.0
 10
7.2108640021
 20
12.9226217914
 30
0.0
 10
7.2129391359
 20
12.9186269799
 30
0.0
 10
7.2146389297
 20
12.9150706134
 30
0.0
 10
7.215781215
 20
12.9123835936
 30
0.0
 10
7.2164803022
 20
12.9104772619
 30
0.0
 10
7.2168741944
 20
12.9092503411
 30
0.0
 10
7.2171636981
 20
12.9081570853
 30
0.0
 10
7.2173481783
 20
12.9071996869
 30
0.0
 10
7.2174272561
 20
12.9063800945
 30
0.0
 10
7.2174044807
 20
12.9057831578
 30
0.0
 10
7.2173225865
 20
12.9053822399
 30
0.0
 10
7.2172135703
 20
12.9050639144
 30
0.0
 10
7.2170817992
 20
12.9048548888
 30
0.0
 10
7.2169736207
 20
12.9047466875
 30
0.0
  0
SPLINE
  5
5FF
100
AcDbEntity
  8
0
100
AcDbSpline
 62
7
  6
CONTINUOUS
 70
0
 71
3
 72
41
 73
37
 74
0
 42
0.0000001
 43
0.0000001
 44
0.0000000001
 40
0.0
 40
0.0
 40
0.0
 40
0.0
 40
0.0001758165
 40
0.0003962273
 40
0.0009754298
 40
0.0017429478
 40
0.0027006183
 40
0.0038490892
 40
0.0051884213
 40
0.0084387978
 40
0.0124489607
 40
0.0172135793
 40
0.0227262675
 40
0.0289794838
 40
0.0359642964
 40
0.0436713073
 40
0.0520895785
 40
0.0612076508
 40
0.0814921583
 40
0.1044143869
 40
0.1298505099
 40
0.1576642909
 40
0.1877078618
 40
0.2198226631
 40
0.2538403949
 40
0.2895837167
 40
0.3268674952
 40
0.3654997625
 40
0.4460137011
 40
0.5294920919
 40
0.6142589852
 40
0.6986300174
 40
0.7809458089
 40
0.8596037867
 40
0.9330881159
 40
1.0
 40
1.0
 40
1.0
 40
1.0
 10
10.7821767667
 20
14.4572083168
 30
0.0
 10
10.7821392668
 20
14.4572183474
 30
0.0
 10
10.7820566869
 20
14.4572480199
 30
0.0
 10
10.7818613212
 20
14.4573389423
 30
0.0
 10
10.7815622655
 20
14.4575141544
 30
0.0
 10
10.7811389916
 20
14.4577965399
 30
0.0
 10
10.7806250295
 20
14.4581688132
 30
0.0
 10
10.7800205554
 20
14.4586307279
 30
0.0
 10
10.7790285128
 20
14.4594188268
 30
0.0
 10
10.7775677782
 20
14.4606321648
 30
0.0
 10
10.7755540473
 20
14.4623625679
 30
0.0
 10
10.7731858404
 20
14.4644465202
 30
0.0
 10
10.7704665061
 20
14.46688087
 30
0.0
 10
10.7673999461
 20
14.46966214
 30
0.0
 10
10.7639903569
 20
14.4727862494
 30
0.0
 10
10.7602424575
 20
14.4762486466
 30
0.0
 10
10.7561612755
 20
14.4800443273
 30
0.0
 10
10.7500625924
 20
14.4857482975
 30
0.0
 10
10.7416536996
 20
14.4936701722
 30
0.0
 10
10.7306578555
 20
14.5041000302
 30
0.0
 10
10.7184862386
 20
14.5157058042
 30
0.0
 10
10.7052026997
 20
14.5284238092
 30
0.0
 10
10.6908765073
 20
14.5421849843
 30
0.0
 10
10.6755818748
 20
14.5569152254
 30
0.0
 10
10.6593975949
 20
14.5725358253
 30
0.0
 10
10.6424065899
 20
14.5889639221
 30
0.0
 10
10.6246954581
 20
14.6061129494
 30
0.0
 10
10.5998970383
 20
14.6301525701
 30
0.0
 10
10.567797717
 20
14.661314113
 30
0.0
 10
10.5284113771
 20
14.6995928291
 30
0.0
 10
10.488424455
 20
14.7384754738
 30
0.0
 10
10.4486208829
 20
14.7771784733
 30
0.0
 10
10.409773159
 20
14.8149297326
 30
0.0
 10
10.3726275182
 20
14.8509835049
 30
0.0
 10
10.3378895598
 20
14.8846347338
 30
0.0
 10
10.3155938798
 20
14.9061700125
 30
0.0
 10
10.3049560993
 20
14.9164213243
 30
0.0
  0
SPLINE
  5
600
100
AcDbEntity
  8
0
100
AcDbSpline
 62
7
  6
CONTINUOUS
 70
0
 71
3
 72
26
 73
22
 74
0
 42
0.0000001
 43
0.0000001
 44
0.0000000001
 40
0.0
 40
0.0
 40
0.0
 40
0.0
 40
0.0096979163
 40
0.0197997087
 40
0.0307107468
 40
0.042750934
 40
0.0561523308
 40
0.0710780262
 40
0.0876371585
 40
0.1058984887
 40
0.1259055123
 40
0.1476797881
 40
0.1965274668
 40
0.2523581658
 40
0.3149325379
 40
0.3839000774
 40
0.4588226073
 40
0.5391825134
 40
0.6243923776
 40
0.8066968712
 40
1.0
 40
1.0
 40
1.0
 40
1.0
 10
7.7820035929
 20
12.3582545956
 30
0.0
 10
7.7821518733
 20
12.3584028527
 30
0.0
 10
7.7824904046
 20
12.3586717952
 30
0.0
 10
7.7830920018
 20
12.3589634046
 30
0.0
 10
7.7837865707
 20
12.3591469706
 30
0.0
 10
7.7845714432
 20
12.3592242866
 30
0.0
 10
7.7854457627
 20
12.3591971221
 30
0.0
 10
7.7864087947
 20
12.3590660421
 30
0.0
 10
7.7874595436
 20
12.3588314511
 30
0.0
 10
7.7885966804
 20
12.3584937419
 30
0.0
 10
7.7898185012
 20
12.3580532105
 30
0.0
 10
7.7916281233
 20
12.357299909
 30
0.0
 10
7.7940831321
 20
12.3560904495
 30
0.0
 10
7.7972252865
 20
12.3542973279
 30
0.0
 10
7.8006441722
 20
12.3521213683
 30
0.0
 10
7.8043137302
 20
12.3495776143
 30
0.0
 10
7.808205304
 20
12.3466841338
 30
0.0
 10
7.8122878687
 20
12.3434627558
 30
0.0
 10
7.8180726916
 20
12.338654436
 30
0.0
 10
7.8255104411
 20
12.3320198957
 30
0.0
 10
7.8313565278
 20
12.3263797232
 30
0.0
 10
7.8343118852
 20
12.3234243657
 30
0.0
  0
SPLINE
  5
601
100
AcDbEntity
  8
0
100
AcDbSpline
 62
7
  6
CONTINUOUS
 70
0
 71
3
 72
62
 73
58
 74
0
 42
0.0000001
 43
0.0000001
 44
0.0000000001
 40
0.0
 40
0.0
 40
0.0
 40
0.0
 40
0.000179332
 40
0.0003841777
 40
0.0006322831
 40
0.000933842
 40
0.0012945357
 40
0.0017176574
 40
0.0022051834
 40
0.0027583555
 40
0.0040645078
 40
0.0056401923
 40
0.0074872098
 40
0.009606066
 40
0.0119964942
 40
0.014657904
 40
0.0175894537
 40
0.0207898038
 40
0.0279904472
 40
0.0362457701
 40
0.0455380779
 40
0.0558476202
 40
0.0794252042
 40
0.106770589
 40
0.1376408954
 40
0.1717611457
 40
0.2088270689
 40
0.2485077976
 40
0.2904491604
 40
0.3342766081
 40
0.3795988964
 40
0.4260113636
 40
0.4730997061
 40
0.5204436994
 40
0.5676208304
 40
0.6142103042
 40
0.6597965428
 40
0.7039731747
 40
0.7463464291
 40
0.7865388629
 40
0.8241926128
 40
0.858972718
 40
0.8905700594
 40
0.918704503
 40
0.9313937365
 40
0.9431267027
 40
0.9538786209
 40
0.9636239256
 40
0.9723379916
 40
0.9800126024
 40
0.9866426851
 40
0.9895499663
 40
0.992172158
 40
0.9945028585
 40
0.9965621769
 40
0.9983829695
 40
1.0
 40
1.0
 40
1.0
 40
1.0
 10
10.2152325882
 20
14.9738730631
 30
0.0
 10
10.2152649209
 20
14.9739053854
 30
0.0
 10
10.2153496126
 20
14.973960085
 30
0.0
 10
10.2155090752
 20
14.9739955868
 30
0.0
 10
10.2157025367
 20
14.9739922943
 30
0.0
 10
10.2159316922
 20
14.9739517239
 30
0.0
 10
10.2161976781
 20
14.9738741286
 30
0.0
 10
10.2165010243
 20
14.9737593192
 30
0.0
 10
10.2168419593
 20
14.9736071925
 30
0.0
 10
10.2173770235
 20
14.9733391597
 30
0.0
 10
10.2181380273
 20
14.972904754
 30
0.0
 10
10.2191573893
 20
14.9722607244
 30
0.0
 10
10.2203267998
 20
14.9714677141
 30
0.0
 10
10.2216457285
 20
14.9705261107
 30
0.0
 10
10.2231135026
 20
14.9694362722
 30
0.0
 10
10.2247293816
 20
14.9681987809
 30
0.0
 10
10.2264925587
 20
14.9668143266
 30
0.0
 10
10.2291446589
 20
14.9646884443
 30
0.0
 10
10.2328169675
 20
14.9616657242
 30
0.0
 10
10.2376393482
 20
14.9575973323
 30
0.0
 10
10.2430245538
 20
14.9529674594
 30
0.0
 10
10.2513185584
 20
14.945729663
 30
0.0
 10
10.2629863334
 20
14.9353588787
 30
0.0
 10
10.2784626391
 20
14.9213841768
 30
0.0
 10
10.2958433039
 20
14.9055086835
 30
0.0
 10
10.3149791889
 20
14.8878807821
 30
0.0
 10
10.3357053622
 20
14.8686643626
 30
0.0
 10
10.357842961
 20
14.8480377928
 30
0.0
 10
10.3812005682
 20
14.8261920878
 30
0.0
 10
10.4055759885
 20
14.8033291727
 30
0.0
 10
10.4307579831
 20
14.7796600746
 30
0.0
 10
10.456528189
 20
14.7554029909
 30
0.0
 10
10.4826630442
 20
14.7307813434
 30
0.0
 10
10.5089357834
 20
14.7060217717
 30
0.0
 10
10.5351184766
 20
14.6813520863
 30
0.0
 10
10.5609840278
 20
14.6569992594
 30
0.0
 10
10.5863082392
 20
14.633187354
 30
0.0
 10
10.610871761
 20
14.6101355603
 30
0.0
 10
10.6344620815
 20
14.5880561928
 30
0.0
 10
10.6568753781
 20
14.5671528175
 30
0.0
 10
10.6779183415
 20
14.5476183897
 30
0.0
 10
10.697409848
 20
14.5296335189
 30
0.0
 10
10.7151825932
 20
14.513364815
 30
0.0
 10
10.7288671537
 20
14.5009710037
 30
0.0
 10
10.738849293
 20
14.4920335646
 30
0.0
 10
10.7455566066
 20
14.4860819705
 30
0.0
 10
10.7517323434
 20
14.4806622424
 30
0.0
 10
10.7573621577
 20
14.4757874615
 30
0.0
 10
10.7624334307
 20
14.4714663904
 30
0.0
 10
10.7669409171
 20
14.467708569
 30
0.0
 10
10.7703564708
 20
14.464953536
 30
0.0
 10
10.772797473
 20
14.4630427454
 30
0.0
 10
10.7743877733
 20
14.4618235598
 30
0.0
 10
10.7758177282
 20
14.4607506715
 30
0.0
 10
10.7771012837
 20
14.4598233159
 30
0.0
 10
10.7782618966
 20
14.4590373936
 30
0.0
 10
10.7790099294
 20
14.4585796398
 30
0.0
 10
10.7793687458
 20
14.4583766862
 30
0.0
  0
LINE
  5
602
100
AcDbEntity
  8
0
100
AcDbLine
 62
7
  6
CONTINUOUS
 10
10.7793687458
 20
14.4583766862
 11
10.7817079117
 21
14.4573336253
  0
SPLINE
  5
603
100
AcDbEntity
  8
0
100
AcDbSpline
 62
7
  6
CONTINUOUS
 70
0
 71
3
 72
15
 73
11
 74
0
 42
0.0000001
 43
0.0000001
 44
0.0000000001
 40
0.0
 40
0.0
 40
0.0
 40
0.0
 40
0.3280456282
 40
0.4760916659
 40
0.6114675638
 40
0.7327687557
 40
0.8387001203
 40
0.9281041796
 40
0.9662951388
 40
1.0
 40
1.0
 40
1.0
 40
1.0
 10
6.9134841364
 20
13.2847934934
 30
0.0
 10
6.9159555292
 20
13.2806392283
 30
0.0
 10
6.9195041073
 20
13.2745871785
 30
0.0
 10
6.9239569026
 20
13.266754158
 30
0.0
 10
6.9268503133
 20
13.2615392801
 30
0.0
 10
6.929383583
 20
13.2568346742
 30
0.0
 10
6.9315289449
 20
13.2526912395
 30
0.0
 10
6.9330451492
 20
13.2496016754
 30
0.0
 10
6.9340377598
 20
13.2474419643
 30
0.0
 10
6.9344600471
 20
13.2464702326
 30
0.0
 10
6.9346513345
 20
13.2460119017
 30
0.0
  0
SPLINE
  5
604
100
AcDbEntity
  8
0
100
AcDbSpline
 62
7
  6
CONTINUOUS
 70
0
 71
3
 72
58
 73
54
 74
0
 42
0.0000001
 43
0.0000001
 44
0.0000000001
 40
0.0
 40
0.0
 40
0.0
 40
0.0
 40
0.0001798085
 40
0.0003848754
 40
0.0006328507
 40
0.0009339265
 40
0.0012938048
 40
0.0017157674
 40
0.0022017925
 40
0.0027531391
 40
0.0040547256
 40
0.0056247144
 40
0.0074649177
 40
0.0095757749
 40
0.0119570939
 40
0.0146083613
 40
0.0175286959
 40
0.0207167274
 40
0.0278897313
 40
0.0361134149
 40
0.0453703147
 40
0.0556407501
 40
0.0791301046
 40
0.106375325
 40
0.1371354916
 40
0.1711379276
 40
0.208080666
 40
0.2476355197
 40
0.2894508889
 40
0.333155056
 40
0.3783595508
 40
0.424662489
 40
0.4716524142
 40
0.566020438
 40
0.6581176508
 40
0.7022883434
 40
0.7446802366
 40
0.7849172757
 40
0.822642671
 40
0.8575222113
 40
0.8892471554
 40
0.9175372386
 40
0.942143202
 40
0.9529959159
 40
0.9628496685
 40
0.9716830774
 40
0.9794776785
 40
0.9862172844
 40
0.991889307
 40
0.9943219088
 40
0.9964845734
 40
0.9983771576
 40
1.0
 40
1.0
 40
1.0
 40
1.0
 10
10.1659895356
 20
14.9220973551
 30
0.0
 10
10.1660217827
 20
14.9221295979
 30
0.0
 10
10.1661060624
 20
14.9221842399
 30
0.0
 10
10.1662647024
 20
14.9222201441
 30
0.0
 10
10.1664570737
 20
14.9222175635
 30
0.0
 10
10.1666848157
 20
14.9221780171
 30
0.0
 10
10.1669490459
 20
14.9221017644
 30
0.0
 10
10.1672502878
 20
14.9219886456
 30
0.0
 10
10.1675887643
 20
14.9218385606
 30
0.0
 10
10.1681198152
 20
14.9215739274
 30
0.0
 10
10.1688749731
 20
14.9211446404
 30
0.0
 10
10.1698863296
 20
14.9205077739
 30
0.0
 10
10.1710463658
 20
14.9197232855
 30
0.0
 10
10.1723545601
 20
14.9187915781
 30
0.0
 10
10.1738102457
 20
14.9177129841
 30
0.0
 10
10.1754126999
 20
14.9164880629
 30
0.0
 10
10.1771611238
 20
14.9151175086
 30
0.0
 10
10.179790908
 20
14.9130127713
 30
0.0
 10
10.1834321024
 20
14.9100197044
 30
0.0
 10
10.1882134141
 20
14.9059907069
 30
0.0
 10
10.1935525843
 20
14.9014051807
 30
0.0
 10
10.2017757205
 20
14.8942359299
 30
0.0
 10
10.2133438389
 20
14.8839619504
 30
0.0
 10
10.2286882696
 20
14.8701158232
 30
0.0
 10
10.2459218936
 20
14.8543840756
 30
0.0
 10
10.2648975186
 20
14.8369131483
 30
0.0
 10
10.2854523718
 20
14.8178647758
 30
0.0
 10
10.3074098706
 20
14.7974150455
 30
0.0
 10
10.3305810404
 20
14.7757525324
 30
0.0
 10
10.3547662004
 20
14.753076647
 30
0.0
 10
10.379756711
 20
14.729595817
 30
0.0
 10
10.4053368515
 20
14.7055256039
 30
0.0
 10
10.4399829315
 20
14.6728956447
 30
0.0
 10
10.4830732308
 20
14.6322921216
 30
0.0
 10
10.5256711876
 20
14.5922086561
 30
0.0
 10
10.5587138745
 20
14.5612058875
 30
0.0
 10
10.5821942475
 20
14.5392334401
 30
0.0
 10
10.6045176263
 20
14.5184169546
 30
0.0
 10
10.6254923042
 20
14.4989478245
 30
0.0
 10
10.6449385161
 20
14.4810053596
 30
0.0
 10
10.6626899353
 20
14.4647549939
 30
0.0
 10
10.6785954022
 20
14.4503472155
 30
0.0
 10
10.6906549715
 20
14.4395788711
 30
0.0
 10
10.6992887112
 20
14.4319947479
 30
0.0
 10
10.7049492446
 20
14.4270872435
 30
0.0
 10
10.7100593045
 20
14.422729069
 30
0.0
 10
10.7146081625
 20
14.4189303457
 30
0.0
 10
10.7185865447
 20
14.4157000578
 30
0.0
 10
10.7215534168
 20
14.413382015
 30
0.0
 10
10.7236403178
 20
14.4118245761
 30
0.0
 10
10.7249765413
 20
14.4108642665
 30
0.0
 10
10.7261650036
 20
14.410050878
 30
0.0
 10
10.7269159143
 20
14.4095698064
 30
0.0
 10
10.727267513
 20
14.4093558727
 30
0.0
  0
LINE
  5
605
100
AcDbEntity
  8
0
100
AcDbLine
 62
7
  6
CONTINUOUS
 10
10.727267513
 20
14.4093558727
 11
10.7295096277
 21
14.4082576528
  0
SPLINE
  5
606
100
AcDbEntity
  8
0
100
AcDbSpline
 62
7
  6
CONTINUOUS
 70
0
 71
3
 72
57
 73
53
 74
0
 42
0.0000001
 43
0.0000001
 44
0.0000000001
 40
0.0
 40
0.0
 40
0.0
 40
0.0
 40
0.0001800507
 40
0.0003849245
 40
0.0006320894
 40
0.0009316955
 40
0.0012894105
 40
0.0017085171
 40
0.0021910197
 40
0.0027382022
 40
0.0040296264
 40
0.0055871075
 40
0.0074123216
 40
0.0095057686
 40
0.0118673994
 40
0.0144967664
 40
0.0173928444
 40
0.0205543575
 40
0.02766798
 40
0.0358236772
 40
0.0450046388
 40
0.0551912636
 40
0.0784917216
 40
0.1055225454
 40
0.1360471168
 40
0.1697973554
 40
0.2064764044
 40
0.2457614565
 40
0.2873065296
 40
0.3307458196
 40
0.3756966822
 40
0.42176332
 40
0.4685400516
 40
0.5625740236
 40
0.6544955114
 40
0.6986494939
 40
0.7410774706
 40
0.7814065695
 40
0.8192826636
 40
0.8543733438
 40
0.8863710387
 40
0.9149957143
 40
0.9399975648
 40
0.9510707623
 40
0.9611596838
 40
0.9702425689
 40
0.9783005415
 40
0.9853168465
 40
0.9912781803
 40
0.9961741134
 40
0.9982209047
 40
1.0
 40
1.0
 40
1.0
 40
1.0
 10
10.1169713444
 20
14.8700960078
 30
0.0
 10
10.1170034315
 20
14.8701281029
 30
0.0
 10
10.1170870232
 20
14.8701826068
 30
0.0
 10
10.117244302
 20
14.8702190573
 30
0.0
 10
10.1174348877
 20
14.8702175081
 30
0.0
 10
10.117660323
 20
14.8701794911
 30
0.0
 10
10.1179216988
 20
14.8701053103
 30
0.0
 10
10.1182195247
 20
14.869994815
 30
0.0
 10
10.1185540254
 20
14.869847903
 30
0.0
 10
10.1190786284
 20
14.8695885501
 30
0.0
 10
10.1198244279
 20
14.8691672217
 30
0.0
 10
10.1208229722
 20
14.8685415291
 30
0.0
 10
10.121968044
 20
14.8677703956
 30
0.0
 10
10.1232591136
 20
14.8668541943
 30
0.0
 10
10.1246955594
 20
14.8657932107
 30
0.0
 10
10.1262766656
 20
14.8645879875
 30
0.0
 10
10.1280016561
 20
14.8632392383
 30
0.0
 10
10.1305960383
 20
14.8611676448
 30
0.0
 10
10.1341879383
 20
14.8582210497
 30
0.0
 10
10.138904291
 20
14.8542537829
 30
0.0
 10
10.1441707396
 20
14.8497376957
 30
0.0
 10
10.1522822442
 20
14.8426755754
 30
0.0
 10
10.1636938077
 20
14.832552585
 30
0.0
 10
10.1788317227
 20
14.8189064923
 30
0.0
 10
10.1958360244
 20
14.8033975468
 30
0.0
 10
10.2145629126
 20
14.7861688073
 30
0.0
 10
10.2348532894
 20
14.7673783305
 30
0.0
 10
10.2565345181
 20
14.7471982588
 30
0.0
 10
10.2794217889
 20
14.7258130011
 30
0.0
 10
10.3033197319
 20
14.7034176559
 30
0.0
 10
10.3280241574
 20
14.6802162004
 30
0.0
 10
10.3533238138
 20
14.6564197263
 30
0.0
 10
10.3876203805
 20
14.6241308979
 30
0.0
 10
10.4303209262
 20
14.5839070146
 30
0.0
 10
10.472566224
 20
14.5441639764
 30
0.0
 10
10.5053801078
 20
14.5133795838
 30
0.0
 10
10.5287379726
 20
14.4915227006
 30
0.0
 10
10.5509757654
 20
14.4707848579
 30
0.0
 10
10.5719043273
 20
14.4513549196
 30
0.0
 10
10.591346016
 20
14.4334100995
 30
0.0
 10
10.6091361355
 20
14.4171142717
 30
0.0
 10
10.6251246432
 20
14.402616846
 30
0.0
 10
10.637280778
 20
14.3917451238
 30
0.0
 10
10.6460138446
 20
14.3840552642
 30
0.0
 10
10.6517663219
 20
14.3790523968
 30
0.0
 10
10.6569794562
 20
14.3745877889
 30
0.0
 10
10.6616424732
 20
14.3706718823
 30
0.0
 10
10.6657457718
 20
14.3673134546
 30
0.0
 10
10.6692809681
 20
14.3645203685
 30
0.0
 10
10.671881701
 20
14.3625659185
 30
0.0
 10
10.6736787942
 20
14.3612993479
 30
0.0
 10
10.6744812125
 20
14.3607641338
 30
0.0
 10
10.6748588633
 20
14.3605223119
 30
0.0
  0
SPLINE
  5
607
100
AcDbEntity
  8
0
100
AcDbSpline
 62
7
  6
CONTINUOUS
 70
0
 71
3
 72
11
 73
7
 74
0
 42
0.0000001
 43
0.0000001
 44
0.0000000001
 40
0.0
 40
0.0
 40
0.0
 40
0.0
 40
0.3265166326
 40
0.6014298808
 40
0.8254488451
 40
1.0
 40
1.0
 40
1.0
 40
1.0
 10
10.6748588633
 20
14.3605223119
 30
0.0
 10
10.6751527291
 20
14.3603341401
 30
0.0
 10
10.6756991095
 20
14.3599953713
 30
0.0
 10
10.6764685395
 20
14.3595628948
 30
0.0
 10
10.6771169167
 20
14.3592496153
 30
0.0
 10
10.6775176324
 20
14.3591006233
 30
0.0
 10
10.6776978454
 20
14.3590524391
 30
0.0
  0
SPLINE
  5
608
100
AcDbEntity
  8
0
100
AcDbSpline
 62
7
  6
CONTINUOUS
 70
0
 71
3
 72
11
 73
7
 74
0
 42
0.0000001
 43
0.0000001
 44
0.0000000001
 40
0.0
 40
0.0
 40
0.0
 40
0.0
 40
0.174829789
 40
0.3989433883
 40
0.6737634963
 40
1.0
 40
1.0
 40
1.0
 40
1.0
 10
10.2033746363
 20
14.9612999697
 30
0.0
 10
10.2035523419
 20
14.9612524614
 30
0.0
 10
10.20394729
 20
14.9611058698
 30
0.0
 10
10.2045861227
 20
14.9607977951
 30
0.0
 10
10.2053437115
 20
14.9603727624
 30
0.0
 10
10.2058815483
 20
14.960039859
 30
0.0
 10
10.20617075
 20
14.9598549755
 30
0.0
  0
SPLINE
  5
609
100
AcDbEntity
  8
0
100
AcDbSpline
 62
7
  6
CONTINUOUS
 70
0
 71
3
 72
57
 73
53
 74
0
 42
0.0000001
 43
0.0000001
 44
0.0000000001
 40
0.0
 40
0.0
 40
0.0
 40
0.0
 40
0.0017625579
 40
0.0037937727
 40
0.0086614649
 40
0.0145984079
 40
0.0215941158
 40
0.0296351579
 40
0.0387046427
 40
0.0487835112
 40
0.0598498881
 40
0.0848469988
 40
0.113477467
 40
0.1454898589
 40
0.1806023837
 40
0.2185057016
 40
0.258865697
 40
0.3013265204
 40
0.3455138057
 40
0.4374975688
 40
0.5315806907
 40
0.5783750914
 40
0.6244542025
 40
0.6694122086
 40
0.7128532916
 40
0.7543952134
 40
0.7936724974
 40
0.8303399556
 40
0.8640754655
 40
0.8945831459
 40
0.9215958947
 40
0.9448780741
 40
0.9550558903
 40
0.9642282487
 40
0.9723758858
 40
0.979481877
 40
0.9826398772
 40
0.9855325886
 40
0.9881586835
 40
0.9905172633
 40
0.9926078698
 40
0.9944303683
 40
0.995985202
 40
0.9972741397
 40
0.9978201034
 40
0.9983013708
 40
0.9987191928
 40
0.9990755312
 40
0.9993736209
 40
0.9996190994
 40
0.9998220634
 40
1.0
 40
1.0
 40
1.0
 40
1.0
 10
10.20617075
 20
14.9598549755
 30
0.0
 10
10.2065488683
 20
14.9596132486
 30
0.0
 10
10.2073528499
 20
14.959077457
 30
0.0
 10
10.209155707
 20
14.9578069861
 30
0.0
 10
10.2117684557
 20
14.9558424357
 30
0.0
 10
10.2153238114
 20
14.9530311509
 30
0.0
 10
10.2194550435
 20
14.9496467382
 30
0.0
 10
10.2241536249
 20
14.9456972058
 30
0.0
 10
10.2294097664
 20
14.9411914854
 30
0.0
 10
10.2352125084
 20
14.9361402039
 30
0.0
 10
10.244026629
 20
14.9283719407
 30
0.0
 10
10.2563003924
 20
14.9173855514
 30
0.0
 10
10.2724483348
 20
14.9027317505
 30
0.0
 10
10.290420817
 20
14.8862563908
 30
0.0
 10
10.3100653491
 20
14.8681113217
 30
0.0
 10
10.3312146227
 20
14.848463018
 30
0.0
 10
10.3536882595
 20
14.8274914258
 30
0.0
 10
10.3772942958
 20
14.8053882106
 30
0.0
 10
10.4104555293
 20
14.7742585547
 30
0.0
 10
10.453144426
 20
14.7340737772
 30
0.0
 10
10.4962901769
 20
14.6934058922
 30
0.0
 10
10.5309396196
 20
14.6607646906
 30
0.0
 10
10.556495504
 20
14.6367120415
 30
0.0
 10
10.5814471399
 20
14.6132631792
 30
0.0
 10
10.6055811811
 20
14.5906312933
 30
0.0
 10
10.6286914984
 20
14.569022303
 30
0.0
 10
10.6505810206
 20
14.5486330125
 30
0.0
 10
10.6710633948
 20
14.5296493767
 30
0.0
 10
10.6899646847
 20
14.5122448429
 30
0.0
 10
10.7071246688
 20
14.4965785978
 30
0.0
 10
10.722398632
 20
14.4827946155
 30
0.0
 10
10.7339109454
 20
14.4725691384
 30
0.0
 10
10.7420926857
 20
14.46543523
 30
0.0
 10
10.7474039519
 20
14.4608731632
 30
0.0
 10
10.7521597537
 20
14.4568651985
 30
0.0
 10
10.755781207
 20
14.4538879725
 30
0.0
 10
10.7583965351
 20
14.4517945129
 30
0.0
 10
10.7601352208
 20
14.4504313845
 30
0.0
 10
10.7617286735
 20
14.4492131353
 30
0.0
 10
10.7631761143
 20
14.4481404525
 30
0.0
 10
10.7644768374
 20
14.4472138747
 30
0.0
 10
10.7656301993
 20
14.4464337087
 30
0.0
 10
10.7666356877
 20
14.4458003442
 30
0.0
 10
10.7673864346
 20
14.4453734106
 30
0.0
 10
10.7679143569
 20
14.4451102165
 30
0.0
 10
10.7682508244
 20
14.4449609392
 30
0.0
 10
10.7685502715
 20
14.4448484131
 30
0.0
 10
10.7688129177
 20
14.4447725336
 30
0.0
 10
10.7690392831
 20
14.4447331469
 30
0.0
 10
10.7692304765
 20
14.4447305168
 30
0.0
 10
10.7693881316
 20
14.444766149
 30
0.0
 10
10.7694718809
 20
14.4448204363
 30
0.0
 10
10.7695039174
 20
14.4448524725
 30
0.0
  0
LINE
  5
60A
100
AcDbEntity
  8
0
100
AcDbLine
 62
7
  6
CONTINUOUS
 10
10.1541351745
 20
14.9095245301
 11
10.1567853706
 21
14.9081738119
  0
SPLINE
  5
60B
100
AcDbEntity
  8
0
100
AcDbSpline
 62
7
  6
CONTINUOUS
 70
0
 71
3
 72
57
 73
53
 74
0
 42
0.0000001
 43
0.0000001
 44
0.0000000001
 40
0.0
 40
0.0
 40
0.0
 40
0.0
 40
0.0017304569
 40
0.0037299219
 40
0.0085354899
 40
0.0144124886
 40
0.0213506653
 40
0.0293367642
 40
0.0383540486
 40
0.0483835721
 40
0.0594035169
 40
0.0843168046
 40
0.1128758996
 40
0.1448295147
 40
0.1798959565
 40
0.2177657091
 40
0.2581043629
 40
0.3005556187
 40
0.3447444607
 40
0.436761725
 40
0.5309125428
 40
0.5777509327
 40
0.6238791574
 40
0.6688901949
 40
0.7123869931
 40
0.7539859371
 40
0.7933204386
 40
0.8300439263
 40
0.8638332491
 40
0.8943913226
 40
0.9214500797
 40
0.9447729831
 40
0.9549689007
 40
0.9641577717
 40
0.9723202485
 40
0.9794393308
 40
0.9826031981
 40
0.9855013254
 40
0.9881323856
 40
0.9904954724
 40
0.9925901305
 40
0.9944162328
 40
0.9959742301
 40
0.9972659041
 40
0.9978130884
 40
0.9982954875
 40
0.9987143631
 40
0.9990716925
 40
0.9993707318
 40
0.9996171467
 40
0.9998210691
 40
1.0
 40
1.0
 40
1.0
 40
1.0
 10
10.1567853706
 20
14.9081738119
 30
0.0
 10
10.1571562313
 20
14.9079396798
 30
0.0
 10
10.1579455405
 20
14.9074190541
 30
0.0
 10
10.159718571
 20
14.906179291
 30
0.0
 10
10.1622930274
 20
14.9042536337
 30
0.0
 10
10.1658013237
 20
14.9014898094
 30
0.0
 10
10.1698842818
 20
14.8981541487
 30
0.0
 10
10.1745334702
 20
14.8942545596
 30
0.0
 10
10.1797391902
 20
14.8897998466
 30
0.0
 10
10.1854905737
 20
14.8848005382
 30
0.0
 10
10.1942347466
 20
14.8771034179
 30
0.0
 10
10.2064193098
 20
14.8662074992
 30
0.0
 10
10.2224585001
 20
14.8516636812
 30
0.0
 10
10.2403206772
 20
14.8352999124
 30
0.0
 10
10.2598540484
 20
14.8172673367
 30
0.0
 10
10.2808919934
 20
14.7977317281
 30
0.0
 10
10.3032547892
 20
14.7768723708
 30
0.0
 10
10.3267510994
 20
14.7548803003
 30
0.0
 10
10.3597700734
 20
14.7238950756
 30
0.0
 10
10.4022880502
 20
14.6838838279
 30
0.0
 10
10.4452681482
 20
14.6433838211
 30
0.0
 10
10.4797925704
 20
14.6108695238
 30
0.0
 10
10.5052612998
 20
14.5869055633
 30
0.0
 10
10.5301306629
 20
14.5635405201
 30
0.0
 10
10.5541876073
 20
14.5409872885
 30
0.0
 10
10.5772262822
 20
14.5194515093
 30
0.0
 10
10.5990498248
 20
14.4991297763
 30
0.0
 10
10.6194721047
 20
14.4802078229
 30
0.0
 10
10.6383193317
 20
14.462858947
 30
0.0
 10
10.6554314421
 20
14.447242178
 30
0.0
 10
10.6706638281
 20
14.4335013805
 30
0.0
 10
10.6821454891
 20
14.4233079406
 30
0.0
 10
10.6903059318
 20
14.4161964621
 30
0.0
 10
10.6956036471
 20
14.411648766
 30
0.0
 10
10.7003475343
 20
14.4076535378
 30
0.0
 10
10.703960085
 20
14.4046859195
 30
0.0
 10
10.7065691094
 20
14.4025993358
 30
0.0
 10
10.7083036785
 20
14.4012407386
 30
0.0
 10
10.7098934266
 20
14.4000266081
 30
0.0
 10
10.7113375759
 20
14.3989576323
 30
0.0
 10
10.7126354204
 20
14.3980343493
 30
0.0
 10
10.7137863178
 20
14.3972570649
 30
0.0
 10
10.714789755
 20
14.3966261685
 30
0.0
 10
10.715539049
 20
14.3962010496
 30
0.0
 10
10.7160660077
 20
14.3959391066
 30
0.0
 10
10.7164019136
 20
14.3957906036
 30
0.0
 10
10.7167009042
 20
14.3956787496
 30
0.0
 10
10.7169631999
 20
14.3956034408
 30
0.0
 10
10.7171893193
 20
14.3955645281
 30
0.0
 10
10.7173803661
 20
14.3955622824
 30
0.0
 10
10.7175379451
 20
14.395598215
 30
0.0
 10
10.717621671
 20
14.3956525954
 30
0.0
 10
10.7176537382
 20
14.3956846628
 30
0.0
  0
SPLINE
  5
60C
100
AcDbEntity
  8
0
100
AcDbSpline
 62
7
  6
CONTINUOUS
 70
0
 71
3
 72
20
 73
16
 74
0
 42
0.0000001
 43
0.0000001
 44
0.0000000001
 40
0.0
 40
0.0
 40
0.0
 40
0.0
 40
0.2077353552
 40
0.3947534968
 40
0.5590560884
 40
0.6321369022
 40
0.6989099118
 40
0.7592138393
 40
0.8129202509
 40
0.859942465
 40
0.9002655345
 40
0.9339720826
 40
0.9484306276
 40
0.9613669379
 40
1.0
 40
1.0
 40
1.0
 40
1.0
 10
7.0402271756
 20
13.1580504543
 30
0.0
 10
7.0412640629
 20
13.1561137388
 30
0.0
 10
7.0432002694
 20
13.1524149288
 30
0.0
 10
7.0458180804
 20
13.1471133989
 30
0.0
 10
7.0476858647
 20
13.1430312836
 30
0.0
 10
7.048932544
 20
13.1400659681
 30
0.0
 10
7.049705639
 20
13.1380952522
 30
0.0
 10
7.0503517338
 20
13.1362955937
 30
0.0
 10
7.0508687572
 20
13.134672537
 30
0.0
 10
7.0512552249
 20
13.133231184
 30
0.0
 10
7.051509881
 20
13.1319753458
 30
0.0
 10
7.0516177301
 20
13.1310447397
 30
0.0
 10
7.0516270125
 20
13.1303963542
 30
0.0
 10
7.0515819933
 20
13.1297060698
 30
0.0
 10
7.0514218658
 20
13.1291243632
 30
0.0
 10
7.0511330189
 20
13.1288354368
 30
0.0
  0
LINE
  5
60D
100
AcDbEntity
  8
0
100
AcDbLine
 62
7
  6
CONTINUOUS
 10
10.105121683
 20
14.8575235013
 11
10.1073030048
 21
14.8564642627
  0
SPLINE
  5
60E
100
AcDbEntity
  8
0
100
AcDbSpline
 62
7
  6
CONTINUOUS
 70
0
 71
3
 72
58
 73
54
 74
0
 42
0.0000001
 43
0.0000001
 44
0.0000000001
 40
0.0
 40
0.0
 40
0.0
 40
0.0
 40
0.0016130376
 40
0.0034964564
 40
0.0056506413
 40
0.0080754739
 40
0.0137341233
 40
0.0204632636
 40
0.028250252
 40
0.0370787983
 40
0.0469303156
 40
0.0577833232
 40
0.0823967983
 40
0.1107024466
 40
0.142449599
 40
0.1773563613
 40
0.2151124514
 40
0.2553820373
 40
0.2978068181
 40
0.3420093085
 40
0.4341617538
 40
0.5285672255
 40
0.575567473
 40
0.6218747664
 40
0.667077522
 40
0.7107741022
 40
0.7525764962
 40
0.7921135722
 40
0.8290346915
 40
0.8630125595
 40
0.8937464723
 40
0.9209649241
 40
0.9444283575
 40
0.9546865785
 40
0.9639319573
 40
0.9721450031
 40
0.9793084178
 40
0.982492107
 40
0.9854084173
 40
0.9880559982
 40
0.9904339984
 40
0.9925419221
 40
0.9943795969
 40
0.9959474951
 40
0.9972474657
 40
0.9977981939
 40
0.9982837351
 40
0.9987053569
 40
0.9990650491
 40
0.9993661109
 40
0.9996142601
 40
0.9998196908
 40
1.0
 40
1.0
 40
1.0
 40
1.0
 10
10.1073030048
 20
14.8564642627
 30
0.0
 10
10.1076514643
 20
14.8562539686
 30
0.0
 10
10.1083959737
 20
14.8557801896
 30
0.0
 10
10.1095745867
 20
14.8549776648
 30
0.0
 10
10.110900635
 20
14.854028549
 30
0.0
 10
10.1129733949
 20
14.8524868416
 30
0.0
 10
10.1159217105
 20
14.8501891451
 30
0.0
 10
10.1198767445
 20
14.8469841125
 30
0.0
 10
10.124400914
 20
14.8432119614
 30
0.0
 10
10.1294849217
 20
14.8388816931
 30
0.0
 10
10.1351180218
 20
14.8340034375
 30
0.0
 10
10.1437124693
 20
14.8264611751
 30
0.0
 10
10.1557192564
 20
14.8157485395
 30
0.0
 10
10.1715568761
 20
14.8014117146
 30
0.0
 10
10.1892345043
 20
14.785238052
 30
0.0
 10
10.2086009186
 20
14.7673780929
 30
0.0
 10
10.2294897711
 20
14.7479972801
 30
0.0
 10
10.2517213706
 20
14.7272748441
 30
0.0
 10
10.2751041659
 20
14.705402016
 30
0.0
 10
10.3080060764
 20
14.6745423868
 30
0.0
 10
10.3504165191
 20
14.6346487015
 30
0.0
 10
10.3933126273
 20
14.5942410767
 30
0.0
 10
10.4277969147
 20
14.5617738338
 30
0.0
 10
10.4532529324
 20
14.5378281
 30
0.0
 10
10.4781190044
 20
14.5144718179
 30
0.0
 10
10.5021806102
 20
14.4919193475
 30
0.0
 10
10.5252304016
 20
14.4703778247
 30
0.0
 10
10.5470700716
 20
14.4500452871
 30
0.0
 10
10.5675120404
 20
14.431108914
 30
0.0
 10
10.5863811792
 20
14.413743342
 30
0.0
 10
10.6035161328
 20
14.3981088882
 30
0.0
 10
10.6187711319
 20
14.3843505742
 30
0.0
 10
10.6302710704
 20
14.3741431986
 30
0.0
 10
10.6384452672
 20
14.3670214657
 30
0.0
 10
10.6437523492
 20
14.3624669275
 30
0.0
 10
10.6485048362
 20
14.3584655928
 30
0.0
 10
10.6521240931
 20
14.3554934189
 30
0.0
 10
10.6547380515
 20
14.3534036243
 30
0.0
 10
10.6564759595
 20
14.3520429319
 30
0.0
 10
10.6580688078
 20
14.3508269489
 30
0.0
 10
10.6595158106
 20
14.3497563542
 30
0.0
 10
10.6608162592
 20
14.3488316957
 30
0.0
 10
10.6619694997
 20
14.3480532957
 30
0.0
 10
10.6629750232
 20
14.3474215448
 30
0.0
 10
10.663725905
 20
14.3469958933
 30
0.0
 10
10.6642540101
 20
14.3467336639
 30
0.0
 10
10.6645906657
 20
14.3465850232
 30
0.0
 10
10.6648903341
 20
14.3464731013
 30
0.0
 10
10.6651532398
 20
14.3463978001
 30
0.0
 10
10.6653799043
 20
14.3463589631
 30
0.0
 10
10.6655714362
 20
14.3463568545
 30
0.0
 10
10.6657294361
 20
14.3463929943
 30
0.0
 10
10.6658133967
 20
14.3464475571
 30
0.0
 10
10.665845569
 20
14.3464797247
 30
0.0
  0
SPLINE
  5
60F
100
AcDbEntity
  8
0
100
AcDbSpline
 62
7
  6
CONTINUOUS
 70
0
 71
3
 72
13
 73
9
 74
0
 42
0.0000001
 43
0.0000001
 44
0.0000000001
 40
0.0
 40
0.0
 40
0.0
 40
0.0
 40
0.1161934859
 40
0.2380446424
 40
0.4926901948
 40
0.7511478712
 40
0.8776198058
 40
1.0
 40
1.0
 40
1.0
 40
1.0
 10
8.3198886811
 20
11.830015258
 30
0.0
 10
8.3218882533
 20
11.8286348923
 30
0.0
 10
8.3259459275
 20
11.8257503619
 30
0.0
 10
8.3341967018
 20
11.8195788409
 30
0.0
 10
8.3445566851
 20
11.8112671198
 30
0.0
 10
8.354637868
 20
11.8024719915
 30
0.0
 10
8.362401547
 20
11.7952414772
 30
0.0
 10
8.3661279453
 20
11.7916083057
 30
0.0
 10
8.3679375196
 20
11.7897987313
 30
0.0
  0
SPLINE
  5
610
100
AcDbEntity
  8
0
100
AcDbSpline
 62
7
  6
CONTINUOUS
 70
0
 71
3
 72
19
 73
15
 74
0
 42
0.0000001
 43
0.0000001
 44
0.0000000001
 40
0.0
 40
0.0
 40
0.0
 40
0.0
 40
0.1965419873
 40
0.3726414963
 40
0.5276848515
 40
0.6613399359
 40
0.72016614
 40
0.7737300421
 40
0.8221577715
 40
0.8656604231
 40
0.9045734792
 40
0.9393974102
 40
0.9708645424
 40
1.0
 40
1.0
 40
1.0
 40
1.0
 10
7.2317161917
 20
12.9665614381
 30
0.0
 10
7.2321671986
 20
12.9654870419
 30
0.0
 10
7.232990596
 20
12.9634363968
 30
0.0
 10
7.2340391952
 20
12.960487783
 30
0.0
 10
7.2348295123
 20
12.9578465854
 30
0.0
 10
7.2352884161
 20
12.9558354011
 30
0.0
 10
7.2355089845
 20
12.954392843
 30
0.0
 10
7.2355995867
 20
12.9534431174
 30
0.0
 10
7.235622421
 20
12.9525800184
 30
0.0
 10
7.2355770475
 20
12.9518044762
 30
0.0
 10
7.2354631063
 20
12.9511171971
 30
0.0
 10
7.2352795327
 20
12.9505186484
 30
0.0
 10
7.235024775
 20
12.950010144
 30
0.0
 10
7.2348001428
 20
12.9497254341
 30
0.0
 10
7.2346780085
 20
12.9496032878
 30
0.0
  0
SPLINE
  5
611
100
AcDbEntity
  8
0
100
AcDbSpline
 62
7
  6
CONTINUOUS
 70
0
 71
3
 72
63
 73
59
 74
0
 42
0.0000001
 43
0.0000001
 44
0.0000000001
 40
0.0
 40
0.0
 40
0.0
 40
0.0
 40
0.0001853606
 40
0.0003973874
 40
0.0006545979
 40
0.0009675732
 40
0.0013421477
 40
0.0017816744
 40
0.0022881885
 40
0.0028629883
 40
0.0042204841
 40
0.0058584434
 40
0.0077784208
 40
0.0099808436
 40
0.0124655854
 40
0.0152320033
 40
0.0182788725
 40
0.0216047883
 40
0.0290873006
 40
0.0376636361
 40
0.0473151702
 40
0.0580198376
 40
0.0824888118
 40
0.1108453651
 40
0.1428267123
 40
0.178135742
 40
0.216443997
 40
0.2573949007
 40
0.3006071977
 40
0.3456785063
 40
0.3921892077
 40
0.4397062235
 40
0.4877873108
 40
0.535984897
 40
0.583850594
 40
0.6309390653
 40
0.6768124367
 40
0.7210442512
 40
0.7632234569
 40
0.8029583573
 40
0.8398801162
 40
0.8736464302
 40
0.903944619
 40
0.9177044199
 40
0.9304949269
 40
0.9422868548
 40
0.9530532119
 40
0.9627695648
 40
0.9714142389
 40
0.9789681233
 40
0.9854155986
 40
0.9907441956
 40
0.9929865871
 40
0.9949470799
 40
0.9966259266
 40
0.9980246952
 40
0.999146856
 40
1.0
 40
1.0
 40
1.0
 40
1.0
 10
10.067676963
 20
14.8183769771
 30
0.0
 10
10.0677099793
 20
14.8184100021
 30
0.0
 10
10.0677966461
 20
14.8184658334
 30
0.0
 10
10.0679599151
 20
14.81850167
 30
0.0
 10
10.0681581036
 20
14.8184976422
 30
0.0
 10
10.0683929849
 20
14.8184553048
 30
0.0
 10
10.0686657173
 20
14.8183749378
 30
0.0
 10
10.0689768319
 20
14.8182563588
 30
0.0
 10
10.0693265554
 20
14.8180994544
 30
0.0
 10
10.0698755348
 20
14.8178232009
 30
0.0
 10
10.0706564868
 20
14.8173757952
 30
0.0
 10
10.0717027019
 20
14.8167128395
 30
0.0
 10
10.0729030555
 20
14.8158968836
 30
0.0
 10
10.0742569553
 20
14.8149283442
 30
0.0
 10
10.0757637051
 20
14.8138075582
 30
0.0
 10
10.0774225062
 20
14.8125351595
 30
0.0
 10
10.0792324871
 20
14.8111119552
 30
0.0
 10
10.0819547744
 20
14.8089270627
 30
0.0
 10
10.0857238644
 20
14.8058212788
 30
0.0
 10
10.0906728737
 20
14.8016423107
 30
0.0
 10
10.0961982811
 20
14.7968882282
 30
0.0
 10
10.104704637
 20
14.7894603371
 30
0.0
 10
10.1166650454
 20
14.7788241612
 30
0.0
 10
10.1325201216
 20
14.7645024715
 30
0.0
 10
10.1503102039
 20
14.7482494008
 30
0.0
 10
10.1698760886
 20
14.7302233911
 30
0.0
 10
10.1910419244
 20
14.7105992249
 30
0.0
 10
10.2136172235
 20
14.6895668823
 30
0.0
 10
10.2373984453
 20
14.6673294917
 30
0.0
 10
10.2621709247
 20
14.6441014384
 30
0.0
 10
10.2877108238
 20
14.6201063405
 30
0.0
 10
10.3137872455
 20
14.5955749215
 30
0.0
 10
10.3401643364
 20
14.5707428845
 30
0.0
 10
10.3666035297
 20
14.5458486609
 30
0.0
 10
10.3928657093
 20
14.5211312327
 30
0.0
 10
10.4187134804
 20
14.4968278547
 30
0.0
 10
10.4439133365
 20
14.4731718736
 30
0.0
 10
10.4682378486
 20
14.4503905283
 30
0.0
 10
10.4914677616
 20
14.4287028239
 30
0.0
 10
10.5133940205
 20
14.4083175071
 30
0.0
 10
10.5338196622
 20
14.3894310104
 30
0.0
 10
10.5525617409
 20
14.3722258212
 30
0.0
 10
10.5670682946
 20
14.3590357401
 30
0.0
 10
10.5777139129
 20
14.3494549887
 30
0.0
 10
10.5849195844
 20
14.3430216553
 30
0.0
 10
10.5915907842
 20
14.3371221743
 30
0.0
 10
10.5977128795
 20
14.331771057
 30
0.0
 10
10.6032724591
 20
14.3269814376
 30
0.0
 10
10.6082573689
 20
14.3227651163
 30
0.0
 10
10.6126567177
 20
14.3191321965
 30
0.0
 10
10.6164610066
 20
14.3160916739
 30
0.0
 10
10.619268767
 20
14.3139484194
 30
0.0
 10
10.6212171719
 20
14.3125446307
 30
0.0
 10
10.6224392614
 20
14.3117063014
 30
0.0
 10
10.6235075499
 20
14.3110205315
 30
0.0
 10
10.6244218835
 20
14.3104868408
 30
0.0
 10
10.6251817014
 20
14.3101050602
 30
0.0
 10
10.6256481027
 20
14.3099253284
 30
0.0
 10
10.6258557471
 20
14.3098698241
 30
0.0
  0
SPLINE
  5
612
100
AcDbEntity
  8
0
100
AcDbSpline
 62
7
  6
CONTINUOUS
 70
0
 71
3
 72
33
 73
29
 74
0
 42
0.0000001
 43
0.0000001
 44
0.0000000001
 40
0.0
 40
0.0
 40
0.0
 40
0.0
 40
0.2188949704
 40
0.3202608098
 40
0.4157329054
 40
0.5049526538
 40
0.5875879311
 40
0.6633322579
 40
0.7319042034
 40
0.7930511964
 40
0.8465497164
 40
0.8703690087
 40
0.8922068596
 40
0.9120437029
 40
0.929863556
 40
0.9456531893
 40
0.9594013725
 40
0.9711026668
 40
0.9807571222
 40
0.9848196511
 40
0.9883760129
 40
0.9914315463
 40
0.9939951295
 40
0.99608243
 40
0.9977234792
 40
0.9983959091
 40
0.9989859251
 40
1.0
 40
1.0
 40
1.0
 40
1.0
 10
10.4875894104
 20
14.3845503672
 30
0.0
 10
10.4972025482
 20
14.3755739991
 30
0.0
 10
10.5112845343
 20
14.3624592256
 30
0.0
 10
10.5296157152
 20
14.3454901102
 30
0.0
 10
10.5422566839
 20
14.3338439134
 30
0.0
 10
10.5541008645
 20
14.3229939361
 30
0.0
 10
10.5651056665
 20
14.3129826171
 30
0.0
 10
10.5752316933
 20
14.303849123
 30
0.0
 10
10.5844427882
 20
14.2956292047
 30
0.0
 10
10.5927062398
 20
14.2883552571
 30
0.0
 10
10.5989998327
 20
14.2829135489
 30
0.0
 10
10.6035436564
 20
14.2790599653
 30
0.0
 10
10.6065637359
 20
14.276536929
 30
0.0
 10
10.6093275848
 20
14.2742696461
 30
0.0
 10
10.6118328126
 20
14.27226036
 30
0.0
 10
10.6140772279
 20
14.2705110141
 30
0.0
 10
10.6160588939
 20
14.2690230961
 30
0.0
 10
10.6177761371
 20
14.2677979897
 30
0.0
 10
10.619049233
 20
14.2669532668
 30
0.0
 10
10.6199374235
 20
14.2664160215
 30
0.0
 10
10.6204975845
 20
14.2661032659
 30
0.0
 10
10.6209909332
 20
14.2658566902
 30
0.0
 10
10.6214177762
 20
14.2656758808
 30
0.0
 10
10.6217783753
 20
14.2655606591
 30
0.0
 10
10.6220407453
 20
14.2655153425
 30
0.0
 10
10.6222158931
 20
14.2655190228
 30
0.0
 10
10.6223506994
 20
14.2655433267
 30
0.0
 10
10.6224401399
 20
14.2655911186
 30
0.0
 10
10.6224832237
 20
14.2656342049
 30
0.0
  0
SPLINE
  5
613
100
AcDbEntity
  8
0
100
AcDbSpline
 62
7
  6
CONTINUOUS
 70
0
 71
3
 72
14
 73
10
 74
0
 42
0.0000001
 43
0.0000001
 44
0.0000000001
 40
0.0
 40
0.0
 40
0.0
 40
0.0
 40
0.3231509364
 40
0.4638377817
 40
0.5914140142
 40
0.7069536939
 40
0.8120160261
 40
0.9087527722
 40
1.0
 40
1.0
 40
1.0
 40
1.0
 10
7.4749015249
 20
12.723376105
 30
0.0
 10
7.4750436504
 20
12.7225612146
 30
0.0
 10
7.4751940985
 20
12.7213790523
 30
0.0
 10
7.4752112204
 20
12.7198637686
 30
0.0
 10
7.4751331425
 20
12.7188827622
 30
0.0
 10
7.4749643802
 20
12.7180054142
 30
0.0
 10
7.4747038033
 20
12.7172328118
 30
0.0
 10
7.474349989
 20
12.7165671716
 30
0.0
 10
7.4740450855
 20
12.7161899718
 30
0.0
 10
7.4738799239
 20
12.7160248129
 30
0.0
  0
SPLINE
  5
614
100
AcDbEntity
  8
0
100
AcDbSpline
 62
7
  6
CONTINUOUS
 70
0
 71
3
 72
62
 73
58
 74
0
 42
0.0000001
 43
0.0000001
 44
0.0000000001
 40
0.0
 40
0.0
 40
0.0
 40
0.0
 40
0.0001738679
 40
0.0003748115
 40
0.0006210822
 40
0.0009227889
 40
0.0012854123
 40
0.0017120735
 40
0.0022046619
 40
0.0027643818
 40
0.0040878702
 40
0.0056861489
 40
0.0075606843
 40
0.0097119984
 40
0.0121397787
 40
0.0148432109
 40
0.0178212929
 40
0.0210727968
 40
0.0283891145
 40
0.0367772251
 40
0.046218916
 40
0.0566936253
 40
0.0681777863
 40
0.0806458992
 40
0.1084188536
 40
0.1397615987
 40
0.1743900352
 40
0.2119899234
 40
0.2522196616
 40
0.2947136497
 40
0.3390855372
 40
0.3849318082
 40
0.4318355426
 40
0.4793700949
 40
0.5271031419
 40
0.5746004595
 40
0.6214300762
 40
0.6671659869
 40
0.7113923093
 40
0.7537068046
 40
0.7937248068
 40
0.8310826009
 40
0.8654408245
 40
0.8964876753
 40
0.9239417754
 40
0.9362427501
 40
0.9475551614
 40
0.9578538591
 40
0.9671157955
 40
0.9753207193
 40
0.9824510307
 40
0.9884920851
 40
0.9934330435
 40
0.9954888719
 40
0.9972679366
 40
0.9987710092
 40
1.0
 40
1.0
 40
1.0
 40
1.0
 10
10.6737585339
 20
14.3169094364
 30
0.0
 10
10.6737252425
 20
14.3168761449
 30
0.0
 10
10.6736365637
 20
14.3168203758
 30
0.0
 10
10.6734692261
 20
14.316787487
 30
0.0
 10
10.6732654462
 20
14.3167961487
 30
0.0
 10
10.6730230674
 20
14.3168449006
 30
0.0
 10
10.672740862
 20
14.3169335458
 30
0.0
 10
10.6724182693
 20
14.3170623388
 30
0.0
 10
10.6720550567
 20
14.3172314273
 30
0.0
 10
10.6714839156
 20
14.3175278594
 30
0.0
 10
10.6706704655
 20
14.3180054658
 30
0.0
 10
10.6695794694
 20
14.318710524
 30
0.0
 10
10.6683264216
 20
14.3195764501
 30
0.0
 10
10.6669119094
 20
14.3206028555
 30
0.0
 10
10.6653366566
 20
14.3217893457
 30
0.0
 10
10.6636014949
 20
14.3231352367
 30
0.0
 10
10.6617073073
 20
14.3246397573
 30
0.0
 10
10.6588570102
 20
14.32694861
 30
0.0
 10
10.6549084838
 20
14.3302287062
 30
0.0
 10
10.649721212
 20
14.3346399961
 30
0.0
 10
10.6439268012
 20
14.3396570384
 30
0.0
 10
10.6375377133
 20
14.3452676869
 30
0.0
 10
10.6305676355
 20
14.3514584707
 30
0.0
 10
10.6201386835
 20
14.3608084041
 30
0.0
 10
10.6057824055
 20
14.3738331012
 30
0.0
 10
10.5870742257
 20
14.3909909727
 30
0.0
 10
10.5664815793
 20
14.410030667
 30
0.0
 10
10.5441851251
 20
14.4307721329
 30
0.0
 10
10.5203810635
 20
14.4530198902
 30
0.0
 10
10.4952791997
 20
14.4765645507
 30
0.0
 10
10.4691011147
 20
14.5011848781
 30
0.0
 10
10.4420781492
 20
14.5266497971
 30
0.0
 10
10.4144493203
 20
14.5527205154
 30
0.0
 10
10.3864591352
 20
14.5791527226
 30
0.0
 10
10.3583554009
 20
14.6056987951
 30
0.0
 10
10.3303869395
 20
14.6321100892
 30
0.0
 10
10.3028013684
 20
14.6581391716
 30
0.0
 10
10.2758428068
 20
14.6835421208
 30
0.0
 10
10.2497497076
 20
14.7080807115
 30
0.0
 10
10.2247526474
 20
14.7315246347
 30
0.0
 10
10.2010722831
 20
14.7536535848
 30
0.0
 10
10.1789173127
 20
14.7742592879
 30
0.0
 10
10.1584826926
 20
14.7931475283
 30
0.0
 10
10.1399476758
 20
14.8101396721
 30
0.0
 10
10.1257443706
 20
14.8230178845
 30
0.0
 10
10.1154440733
 20
14.8322445067
 30
0.0
 10
10.1085749335
 20
14.8383389754
 30
0.0
 10
10.1022893335
 20
14.84385099
 30
0.0
 10
10.0966007535
 20
14.8487673033
 30
0.0
 10
10.091521424
 20
14.8530760749
 30
0.0
 10
10.0870623543
 20
14.8567672984
 30
0.0
 10
10.0832329074
 20
14.8598320063
 30
0.0
 10
10.0804252802
 20
14.8619735551
 30
0.0
 10
10.0784935728
 20
14.8633579487
 30
0.0
 10
10.0772975791
 20
14.8641701165
 30
0.0
 10
10.0762639335
 20
14.8648215208
 30
0.0
 10
10.0756191162
 20
14.8651854319
 30
0.0
 10
10.0753225978
 20
14.8653365262
 30
0.0
  0
LINE
  5
615
100
AcDbEntity
  8
0
100
AcDbLine
 62
7
  6
CONTINUOUS
 10
10.0753225978
 20
14.8653365262
 11
10.0742632305
 21
14.8657735035
  0
SPLINE
  5
616
100
AcDbEntity
  8
0
100
AcDbSpline
 62
7
  6
CONTINUOUS
 70
0
 71
3
 72
63
 73
59
 74
0
 42
0.0000001
 43
0.0000001
 44
0.0000000001
 40
0.0
 40
0.0
 40
0.0
 40
0.0
 40
0.0001681859
 40
0.0003642327
 40
0.0006065282
 40
0.0009050061
 40
0.0012649566
 40
0.0016893588
 40
0.0021800031
 40
0.0027380249
 40
0.0040586788
 40
0.0056546611
 40
0.0075272906
 40
0.009676997
 40
0.0121034067
 40
0.0148056625
 40
0.0177827315
 40
0.0210333627
 40
0.0283482918
 40
0.0367354049
 40
0.0461764224
 40
0.0566507357
 40
0.0681347432
 40
0.0806029188
 40
0.0940269142
 40
0.1083766046
 40
0.1397206973
 40
0.1743510333
 40
0.2119532913
 40
0.252185793
 40
0.2946828758
 40
0.3390581182
 40
0.3849079443
 40
0.4318153702
 40
0.47935369
 40
0.5270905188
 40
0.574591576
 40
0.6214248297
 40
0.667164217
 40
0.7113938007
 40
0.7537112839
 40
0.7937319468
 40
0.8310920176
 40
0.8654520724
 40
0.8965002473
 40
0.9239550862
 40
0.9362561794
 40
0.9475685225
 40
0.9578669441
 40
0.9671283694
 40
0.9753325103
 40
0.982461714
 40
0.9885012539
 40
0.993440155
 40
0.9954946738
 40
0.9972721793
 40
0.9987733622
 40
1.0
 40
1.0
 40
1.0
 40
1.0
 10
10.0589006671
 20
14.851100089
 30
0.0
 10
10.0589328672
 20
14.8511322891
 30
0.0
 10
10.0590196844
 20
14.8511858128
 30
0.0
 10
10.0591836891
 20
14.8512149991
 30
0.0
 10
10.059383942
 20
14.8512028907
 30
0.0
 10
10.0596228353
 20
14.8511507821
 30
0.0
 10
10.0599015959
 20
14.8510588165
 30
0.0
 10
10.0602207757
 20
14.8509267015
 30
0.0
 10
10.0605805917
 20
14.8507542834
 30
0.0
 10
10.0611471328
 20
14.8504530309
 30
0.0
 10
10.0619548129
 20
14.849969579
 30
0.0
 10
10.0630390389
 20
14.849257895
 30
0.0
 10
10.0642853168
 20
14.8483852951
 30
0.0
 10
10.0656930552
 20
14.8473521763
 30
0.0
 10
10.0672615244
 20
14.8461589432
 30
0.0
 10
10.0689898922
 20
14.8448062847
 30
0.0
 10
10.0708772748
 20
14.8432949759
 30
0.0
 10
10.0737181889
 20
14.8409766077
 30
0.0
 10
10.0776550604
 20
14.8376847728
 30
0.0
 10
10.0828286941
 20
14.8332598879
 30
0.0
 10
10.0886094241
 20
14.8282291839
 30
0.0
 10
10.0949848
 20
14.8226048241
 30
0.0
 10
10.1019411136
 20
14.8164002617
 30
0.0
 10
10.1094632423
 20
14.8096303956
 30
0.0
 10
10.1175349439
 20
14.8023114225
 30
0.0
 10
10.1293589173
 20
14.7915221958
 30
0.0
 10
10.1453644987
 20
14.7767973627
 30
0.0
 10
10.1659296723
 20
14.7577301439
 30
0.0
 10
10.1881985433
 20
14.7369609949
 30
0.0
 10
10.2119750596
 20
14.7146855868
 30
0.0
 10
10.2370494092
 20
14.6911132995
 30
0.0
 10
10.2632000497
 20
14.6664654159
 30
0.0
 10
10.2901956631
 20
14.6409730412
 30
0.0
 10
10.3177972598
 20
14.6148750001
 30
0.0
 10
10.3457603577
 20
14.5884156338
 30
0.0
 10
10.3738371763
 20
14.5618425959
 30
0.0
 10
10.4017789196
 20
14.5354045601
 30
0.0
 10
10.4293379969
 20
14.5093489891
 30
0.0
 10
10.456270316
 20
14.4839198335
 30
0.0
 10
10.4823374519
 20
14.4593553478
 30
0.0
 10
10.507308857
 20
14.4358858701
 30
0.0
 10
10.5309639045
 20
14.4137317358
 30
0.0
 10
10.5530939276
 20
14.3931012496
 30
0.0
 10
10.5735040051
 20
14.374188662
 30
0.0
 10
10.5920149176
 20
14.3571726399
 30
0.0
 10
10.606197933
 20
14.3442742334
 30
0.0
 10
10.6164820714
 20
14.3350314748
 30
0.0
 10
10.6233396213
 20
14.3289255234
 30
0.0
 10
10.6296137642
 20
14.3234021637
 30
0.0
 10
10.6352910239
 20
14.3184746504
 30
0.0
 10
10.6403591762
 20
14.3141548339
 30
0.0
 10
10.6448072173
 20
14.3104527429
 30
0.0
 10
10.6486257879
 20
14.3073773576
 30
0.0
 10
10.6514241424
 20
14.3052265411
 30
0.0
 10
10.6533484137
 20
14.3038345475
 30
0.0
 10
10.6545390949
 20
14.3030171748
 30
0.0
 10
10.6555674557
 20
14.3023606346
 30
0.0
 10
10.6562086187
 20
14.3019928381
 30
0.0
 10
10.6565033363
 20
14.3018397134
 30
0.0
  0
LINE
  5
617
100
AcDbEntity
  8
0
100
AcDbLine
 62
7
  6
CONTINUOUS
 10
10.6565033363
 20
14.3018397134
 11
10.6575826666
 21
14.3013866944
  0
SPLINE
  5
618
100
AcDbEntity
  8
0
100
AcDbSpline
 62
7
  6
CONTINUOUS
 70
0
 71
3
 72
63
 73
59
 74
0
 42
0.0000001
 43
0.0000001
 44
0.0000000001
 40
0.0
 40
0.0
 40
0.0
 40
0.0
 40
0.0001689139
 40
0.0003655716
 40
0.0006083502
 40
0.0009072106
 40
0.0012674702
 40
0.0016921274
 40
0.0021829862
 40
0.0027411911
 40
0.0040621401
 40
0.0056583506
 40
0.0075311605
 40
0.0096810118
 40
0.012107539
 40
0.0148098905
 40
0.0177870373
 40
0.0210377318
 40
0.0283527525
 40
0.0367399225
 40
0.0461809699
 40
0.0566552902
 40
0.068139291
 40
0.0806074529
 40
0.094031424
 40
0.1083810795
 40
0.1397250956
 40
0.1743553556
 40
0.2119575319
 40
0.2521899795
 40
0.2946869989
 40
0.3390622134
 40
0.3849120137
 40
0.4318194414
 40
0.4793577644
 40
0.5270946086
 40
0.5745956788
 40
0.6214289394
 40
0.6671683363
 40
0.7113979028
 40
0.7537153668
 40
0.7937359621
 40
0.8310959456
 40
0.8654558626
 40
0.8965038526
 40
0.9239584417
 40
0.9362593799
 40
0.9475715502
 40
0.9578697753
 40
0.9671309735
 40
0.9753348542
 40
0.9824637578
 40
0.9885029453
 40
0.9934414217
 40
0.9954956898
 40
0.9972729096
 40
0.9987737603
 40
1.0
 40
1.0
 40
1.0
 40
1.0
 10
10.108709327
 20
14.9009087489
 30
0.0
 10
10.1087416665
 20
14.9009410884
 30
0.0
 10
10.1088287158
 20
14.9009948994
 30
0.0
 10
10.1089931394
 20
14.9010245513
 30
0.0
 10
10.1091938241
 20
14.9010128627
 30
0.0
 10
10.1094331323
 20
14.9009611535
 30
0.0
 10
10.1097122922
 20
14.9008695736
 30
0.0
 10
10.1100318569
 20
14.9007378356
 30
0.0
 10
10.110392046
 20
14.9005657865
 30
0.0
 10
10.1109590769
 20
14.9002650562
 30
0.0
 10
10.1117673459
 20
14.8997822106
 30
0.0
 10
10.112852227
 20
14.8990711782
 30
0.0
 10
10.1140991221
 20
14.8981992003
 30
0.0
 10
10.1155074409
 20
14.8971666729
 30
0.0
 10
10.1170764548
 20
14.8959739996
 30
0.0
 10
10.1188053321
 20
14.8946218693
 30
0.0
 10
10.1206931897
 20
14.8931110566
 30
0.0
 10
10.1235347088
 20
14.8907933386
 30
0.0
 10
10.1274722399
 20
14.8875022128
 30
0.0
 10
10.1326465171
 20
14.8830780208
 30
0.0
 10
10.138427764
 20
14.8780478888
 30
0.0
 10
10.1448035336
 20
14.8724239819
 30
0.0
 10
10.151760122
 20
14.8662197539
 30
0.0
 10
10.1592824102
 20
14.8594501056
 30
0.0
 10
10.1673541581
 20
14.8521312375
 30
0.0
 10
10.1791780425
 20
14.8413420036
 30
0.0
 10
10.195183232
 20
14.8266168672
 30
0.0
 10
10.2157475571
 20
14.8075488886
 30
0.0
 10
10.238015215
 20
14.7867785905
 30
0.0
 10
10.261790174
 20
14.7645016714
 30
0.0
 10
10.2868626532
 20
14.7409275282
 30
0.0
 10
10.3130111285
 20
14.7162774735
 30
0.0
 10
10.3400043136
 20
14.6907826301
 30
0.0
 10
10.3676032364
 20
14.6646818536
 30
0.0
 10
10.3955634418
 20
14.6382195079
 30
0.0
 10
10.4236371685
 20
14.6116432765
 30
0.0
 10
10.4515756441
 20
14.5852018589
 30
0.0
 10
10.4791313017
 20
14.5591427439
 30
0.0
 10
10.50606007
 20
14.5337099105
 30
0.0
 10
10.5321235509
 20
14.509141637
 30
0.0
 10
10.5570912128
 20
14.4856682947
 30
0.0
 10
10.5807424573
 20
14.4635102419
 30
0.0
 10
10.6028686351
 20
14.4428758159
 30
0.0
 10
10.6232748536
 20
14.4239592911
 30
0.0
 10
10.6417819136
 20
14.4069393655
 30
0.0
 10
10.6559616501
 20
14.3940376371
 30
0.0
 10
10.6662431627
 20
14.3847922236
 30
0.0
 10
10.6730988239
 20
14.3786843867
 30
0.0
 10
10.6793710981
 20
14.3731591692
 30
0.0
 10
10.6850465117
 20
14.3682298304
 30
0.0
 10
10.6901128436
 20
14.3639082246
 30
0.0
 10
10.6945590945
 20
14.3602043861
 30
0.0
 10
10.6983759078
 20
14.3571272995
 30
0.0
 10
10.7011727741
 20
14.3549750212
 30
0.0
 10
10.7030958596
 20
14.3535818417
 30
0.0
 10
10.7042856971
 20
14.3527636632
 30
0.0
 10
10.7053132229
 20
14.3521063339
 30
0.0
 10
10.7059538115
 20
14.3517379446
 30
0.0
 10
10.7062482466
 20
14.3515845116
 30
0.0
  0
LINE
  5
619
100
AcDbEntity
  8
0
100
AcDbLine
 62
7
  6
CONTINUOUS
 10
10.7062482466
 20
14.3515845116
 11
10.7073304429
 21
14.3511290727
  0
SPLINE
  5
61A
100
AcDbEntity
  8
0
100
AcDbSpline
 62
7
  6
CONTINUOUS
 70
0
 71
3
 72
62
 73
58
 74
0
 42
0.0000001
 43
0.0000001
 44
0.0000000001
 40
0.0
 40
0.0
 40
0.0
 40
0.0
 40
0.00017306
 40
0.0003732997
 40
0.0006189929
 40
0.0009202262
 40
0.0012824544
 40
0.001708779
 40
0.0022010755
 40
0.0027605387
 40
0.004083594
 40
0.0056815168
 40
0.0075557525
 40
0.0097068099
 40
0.012134368
 40
0.0148376064
 40
0.0178155184
 40
0.0210668731
 40
0.0283829458
 40
0.0367708709
 40
0.0462124247
 40
0.0566870365
 40
0.0681711384
 40
0.0806392298
 40
0.1084122225
 40
0.1397551068
 40
0.1743837729
 40
0.2119839551
 40
0.2522140615
 40
0.294708445
 40
0.3390807808
 40
0.3849275098
 40
0.4318317265
 40
0.4793667506
 40
0.527100261
 40
0.5745980175
 40
0.6214280387
 40
0.6671643262
 40
0.711390969
 40
0.7537057535
 40
0.7937239703
 40
0.8310819412
 40
0.8654402776
 40
0.8964871971
 40
0.9239413197
 40
0.9362422902
 40
0.9475546957
 40
0.9578533848
 40
0.9671153098
 40
0.9753202272
 40
0.9824505446
 40
0.9884916266
 40
0.9934326495
 40
0.9954885328
 40
0.9972676743
 40
0.998770855
 40
1.0
 40
1.0
 40
1.0
 40
1.0
 10
10.7250186981
 20
14.3681696006
 30
0.0
 10
10.7249855618
 20
14.3681364642
 30
0.0
 10
10.7248971502
 20
14.3680810135
 30
0.0
 10
10.7247302872
 20
14.3680486527
 30
0.0
 10
10.7245270136
 20
14.368057812
 30
0.0
 10
10.7242851393
 20
14.3681070518
 30
0.0
 10
10.7240034361
 20
14.3681961829
 30
0.0
 10
10.7236813444
 20
14.368325465
 30
0.0
 10
10.7233186333
 20
14.3684950469
 30
0.0
 10
10.7227481757
 20
14.3687921973
 30
0.0
 10
10.7219355911
 20
14.3692706843
 30
0.0
 10
10.7208456215
 20
14.3699767527
 30
0.0
 10
10.7195936112
 20
14.3708437079
 30
0.0
 10
10.7181801477
 20
14.3718711597
 30
0.0
 10
10.7166059555
 20
14.3730587122
 30
0.0
 10
10.7148718659
 20
14.3744056801
 30
0.0
 10
10.7129787617
 20
14.3759112915
 30
0.0
 10
10.7101299715
 20
14.3782216873
 30
0.0
 10
10.7061833405
 20
14.3815037154
 30
0.0
 10
10.7009983183
 20
14.3859172798
 30
0.0
 10
10.6952061946
 20
14.3909366415
 30
0.0
 10
10.6888194275
 20
14.3965496499
 30
0.0
 10
10.6818517004
 20
14.4027428313
 30
0.0
 10
10.6714260252
 20
14.4120961393
 30
0.0
 10
10.6570738604
 20
14.4251250695
 30
0.0
 10
10.6383705475
 20
14.4422879401
 30
0.0
 10
10.6177828191
 20
14.4613327008
 30
0.0
 10
10.595491307
 20
14.482079275
 30
0.0
 10
10.5716921929
 20
14.5043321493
 30
0.0
 10
10.546595254
 20
14.5278819118
 30
0.0
 10
10.5204220542
 20
14.5525072932
 30
0.0
 10
10.4934039052
 20
14.5779771959
 30
0.0
 10
10.4657798075
 20
14.6040527947
 30
0.0
 10
10.4377942431
 20
14.6304897544
 30
0.0
 10
10.4096949996
 20
14.6570404209
 30
0.0
 10
10.3817308758
 20
14.683456125
 30
0.0
 10
10.3541494621
 20
14.7094894054
 30
0.0
 10
10.327194849
 20
14.7348963064
 30
0.0
 10
10.301105455
 20
14.759438575
 30
0.0
 10
10.2761118323
 20
14.7828858652
 30
0.0
 10
10.2524346012
 20
14.8050178464
 30
0.0
 10
10.2302824335
 20
14.8256262097
 30
0.0
 10
10.2098502481
 20
14.8445167165
 30
0.0
 10
10.1913172688
 20
14.8615107013
 30
0.0
 10
10.1771153459
 20
14.8743901187
 30
0.0
 10
10.1668159111
 20
14.8836174508
 30
0.0
 10
10.1599472741
 20
14.8897123065
 30
0.0
 10
10.1536620505
 20
14.8952245822
 30
0.0
 10
10.1479737169
 20
14.900141027
 30
0.0
 10
10.1428944994
 20
14.9044497983
 30
0.0
 10
10.1384354025
 20
14.9081408891
 30
0.0
 10
10.1346057845
 20
14.9112053298
 30
0.0
 10
10.1317978871
 20
14.9133465232
 30
0.0
 10
10.1298658752
 20
14.9147305336
 30
0.0
 10
10.1286696201
 20
14.9155424022
 30
0.0
 10
10.1276356726
 20
14.9161934734
 30
0.0
 10
10.1269906213
 20
14.9165571017
 30
0.0
 10
10.1266939803
 20
14.9167080382
 30
0.0
  0
LINE
  5
61B
100
AcDbEntity
  8
0
100
AcDbLine
 62
7
  6
CONTINUOUS
 10
10.1266939803
 20
14.9167080382
 11
10.125636543
 21
14.9171436348
  0
SPLINE
  5
61C
100
AcDbEntity
  8
0
100
AcDbSpline
 62
7
  6
CONTINUOUS
 70
0
 71
3
 72
63
 73
59
 74
0
 42
0.0000001
 43
0.0000001
 44
0.0000000001
 40
0.0
 40
0.0
 40
0.0
 40
0.0
 40
0.0001684698
 40
0.0003647613
 40
0.0006072555
 40
0.0009058949
 40
0.0012659795
 40
0.0016904953
 40
0.0021812377
 40
0.0027393455
 40
0.0040601435
 40
0.0056562434
 40
0.0075289711
 40
0.009678761
 40
0.0121052424
 40
0.0148075602
 40
0.0177846829
 40
0.0210353608
 40
0.0283503652
 40
0.0367375335
 40
0.0461785896
 40
0.0566529272
 40
0.0681369464
 40
0.0806051224
 40
0.0940291077
 40
0.1083787783
 40
0.1397228064
 40
0.1743530483
 40
0.2119551865
 40
0.2521875486
 40
0.294684473
 40
0.339059545
 40
0.3849091905
 40
0.4318164301
 40
0.4793545612
 40
0.5270912027
 40
0.5745920757
 40
0.6214251522
 40
0.667164372
 40
0.7113938001
 40
0.7537111428
 40
0.7937316819
 40
0.8310916481
 40
0.865451621
 40
0.8964997375
 40
0.9239545451
 40
0.936255634
 40
0.9475679806
 40
0.9578664146
 40
0.9671278622
 40
0.9753320367
 40
0.9824612871
 40
0.9885008896
 40
0.9934398743
 40
0.9954944457
 40
0.9972720131
 40
0.9987732705
 40
1.0
 40
1.0
 40
1.0
 40
1.0
 10
10.158356818
 20
14.9505562398
 30
0.0
 10
10.1583890726
 20
14.9505884944
 30
0.0
 10
10.1584759825
 20
14.9506421308
 30
0.0
 10
10.1586401549
 20
14.9506715033
 30
0.0
 10
10.1588405858
 20
14.9506595685
 30
0.0
 10
10.1590796554
 20
14.9506076297
 30
0.0
 10
10.1593585909
 20
14.9505158328
 30
0.0
 10
10.1596779446
 20
14.9503838872
 30
0.0
 10
10.1600379345
 20
14.9502116397
 30
0.0
 10
10.1606047121
 20
14.9499106351
 30
0.0
 10
10.1614126904
 20
14.9494274855
 30
0.0
 10
10.1624972684
 20
14.9487161467
 30
0.0
 10
10.1637439005
 20
14.9478438969
 30
0.0
 10
10.1651519956
 20
14.9468111325
 30
0.0
 10
10.1667208242
 20
14.9456182575
 30
0.0
 10
10.1684495539
 20
14.9442659606
 30
0.0
 10
10.1703373009
 20
14.9427550165
 30
0.0
 10
10.1731787202
 20
14.9404371622
 30
0.0
 10
10.1771162241
 20
14.9371459666
 30
0.0
 10
10.1822906039
 20
14.9327218292
 30
0.0
 10
10.188072088
 20
14.9276918827
 30
0.0
 10
10.1944482253
 20
14.9220682891
 30
0.0
 10
10.2014053066
 20
14.9158645004
 30
0.0
 10
10.2089282085
 20
14.9090954145
 30
0.0
 10
10.2170006879
 20
14.9017772276
 30
0.0
 10
10.2288257323
 20
14.8909890901
 30
0.0
 10
10.2448326482
 20
14.8762656132
 30
0.0
 10
10.2653993907
 20
14.8571999848
 30
0.0
 10
10.2876698311
 20
14.8364324287
 30
0.0
 10
10.311447911
 20
14.8141586096
 30
0.0
 10
10.3365238126
 20
14.7905878995
 30
0.0
 10
10.3626759871
 20
14.7659415748
 30
0.0
 10
10.3896731111
 20
14.7404507331
 30
0.0
 10
10.4172761887
 20
14.7143541925
 30
0.0
 10
10.4452407319
 20
14.6878962867
 30
0.0
 10
10.4733189577
 20
14.6613246666
 30
0.0
 10
10.5012620709
 20
14.6348880066
 30
0.0
 10
10.5288224804
 20
14.6088337689
 30
0.0
 10
10.5557560941
 20
14.5834059039
 30
0.0
 10
10.5818244869
 20
14.5588426661
 30
0.0
 10
10.6067971109
 20
14.5353743936
 30
0.0
 10
10.630453339
 20
14.5132214217
 30
0.0
 10
10.6525845041
 20
14.4925920551
 30
0.0
 10
10.6729956843
 20
14.4736805442
 30
0.0
 10
10.69150766
 20
14.4566655558
 30
0.0
 10
10.7056915535
 20
14.4437680055
 30
0.0
 10
10.7159763806
 20
14.4345259196
 30
0.0
 10
10.7228344197
 20
14.4284204418
 30
0.0
 10
10.7291090416
 20
14.4228975452
 30
0.0
 10
10.73478677
 20
14.4179704843
 30
0.0
 10
10.7398553802
 20
14.4136511092
 30
0.0
 10
10.7443038688
 20
14.4099494481
 30
0.0
 10
10.7481228759
 20
14.4068744809
 30
0.0
 10
10.7509215989
 20
14.4047240237
 30
0.0
 10
10.7528461632
 20
14.4033323222
 30
0.0
 10
10.7540370526
 20
14.4025151485
 30
0.0
 10
10.7550656192
 20
14.4018588035
 30
0.0
 10
10.755706924
 20
14.4014911542
 30
0.0
 10
10.7560017114
 20
14.4013381061
 30
0.0
  0
LINE
  5
61D
100
AcDbEntity
  8
0
100
AcDbLine
 62
7
  6
CONTINUOUS
 10
10.7560017114
 20
14.4013381061
 11
10.7570803191
 21
14.4008856907
  0
SPLINE
  5
61E
100
AcDbEntity
  8
0
100
AcDbSpline
 62
7
  6
CONTINUOUS
 70
0
 71
3
 72
62
 73
58
 74
0
 42
0.0000001
 43
0.0000001
 44
0.0000000001
 40
0.0
 40
0.0
 40
0.0
 40
0.0
 40
0.00017321
 40
0.0003735802
 40
0.0006193801
 40
0.0009207007
 40
0.0012830014
 40
0.0017093874
 40
0.0022017369
 40
0.0027612464
 40
0.0040843787
 40
0.0056823637
 40
0.0075566505
 40
0.0097077503
 40
0.0121353439
 40
0.0148386119
 40
0.0178165484
 40
0.0210679231
 40
0.0283840235
 40
0.0367719619
 40
0.0462135179
 40
0.0566881245
 40
0.0681722108
 40
0.080640274
 40
0.1084131944
 40
0.1397559796
 40
0.1743845183
 40
0.2119845595
 40
0.2522144924
 40
0.2947087069
 40
0.3390808443
 40
0.3849273799
 40
0.4318313858
 40
0.4793662086
 40
0.5270995188
 40
0.5745970859
 40
0.6214269335
 40
0.6671630529
 40
0.7113895592
 40
0.7537042129
 40
0.7937223487
 40
0.8310802545
 40
0.8654385736
 40
0.8964855115
 40
0.923939703
 40
0.9362407307
 40
0.9475532038
 40
0.9578519759
 40
0.967114005
 40
0.9753190465
 40
0.9824495111
 40
0.9884907692
 40
0.9934320074
 40
0.9954880182
 40
0.997267305
 40
0.9987706542
 40
1.0
 40
1.0
 40
1.0
 40
1.0
 10
10.7763016711
 20
14.4194525735
 30
0.0
 10
10.7762685058
 20
14.4194194083
 30
0.0
 10
10.7761800445
 20
14.4193638983
 30
0.0
 10
10.7760130932
 20
14.4193314392
 30
0.0
 10
10.7758097254
 20
14.4193405059
 30
0.0
 10
10.7755677573
 20
14.4193896549
 30
0.0
 10
10.7752859607
 20
14.4194786955
 30
0.0
 10
10.7749637758
 20
14.4196078867
 30
0.0
 10
10.7746009715
 20
14.4197773767
 30
0.0
 10
10.7740303869
 20
14.4200743933
 30
0.0
 10
10.7732176414
 20
14.4205527162
 30
0.0
 10
10.7721274807
 20
14.4212585961
 30
0.0
 10
10.7708752771
 20
14.422125359
 30
0.0
 10
10.7694616179
 20
14.423152615
 30
0.0
 10
10.7678872275
 20
14.4243399683
 30
0.0
 10
10.766152937
 20
14.4256867337
 30
0.0
 10
10.7642596294
 20
14.4271921394
 30
0.0
 10
10.7614105556
 20
14.4295022433
 30
0.0
 10
10.7574635663
 20
14.4327839038
 30
0.0
 10
10.7522781162
 20
14.437197032
 30
0.0
 10
10.7464855534
 20
14.4422159453
 30
0.0
 10
10.7400983365
 20
14.4478284934
 30
0.0
 10
10.7331301495
 20
14.4540212018
 30
0.0
 10
10.7227038261
 20
14.4633738365
 30
0.0
 10
10.708350832
 20
14.4764019055
 30
0.0
 10
10.689646511
 20
14.4935637303
 30
0.0
 10
10.6690577317
 20
14.512607398
 30
0.0
 10
10.646765129
 20
14.5333528299
 30
0.0
 10
10.6229648798
 20
14.5556045173
 30
0.0
 10
10.5978667662
 20
14.5791530446
 30
0.0
 10
10.571692346
 20
14.6037771479
 30
0.0
 10
10.5446729371
 20
14.6292457247
 30
0.0
 10
10.5170475339
 20
14.6553199554
 30
0.0
 10
10.4890606206
 20
14.681755503
 30
0.0
 10
10.4609599811
 20
14.7083047174
 30
0.0
 10
10.4329944142
 20
14.7347189286
 30
0.0
 10
10.4054115136
 20
14.7607506777
 30
0.0
 10
10.3784553742
 20
14.7861560185
 30
0.0
 10
10.3523644244
 20
14.810696701
 30
0.0
 10
10.3273692157
 20
14.8341423925
 30
0.0
 10
10.3036903796
 20
14.8562727647
 30
0.0
 10
10.2815365881
 20
14.8768795216
 30
0.0
 10
10.2611027717
 20
14.8957684269
 30
0.0
 10
10.2425681564
 20
14.9127608266
 30
0.0
 10
10.228364834
 20
14.925638891
 30
0.0
 10
10.218064271
 20
14.9348651376
 30
0.0
 10
10.2111948173
 20
14.9409592213
 30
0.0
 10
10.204908781
 20
14.9464707333
 30
0.0
 10
10.199219639
 20
14.9513864248
 30
0.0
 10
10.1941396183
 20
14.9556944542
 30
0.0
 10
10.1896797252
 20
14.9593848158
 30
0.0
 10
10.1858493187
 20
14.9624485417
 30
0.0
 10
10.1830407482
 20
14.9645891146
 30
0.0
 10
10.1811081959
 20
14.9659726172
 30
0.0
 10
10.1799115529
 20
14.96678414
 30
0.0
 10
10.1788772191
 20
14.967434871
 30
0.0
 10
10.1782319015
 20
14.9677982411
 30
0.0
 10
10.1779351292
 20
14.9679490428
 30
0.0
  0
LINE
  5
61F
100
AcDbEntity
  8
0
100
AcDbLine
 62
7
  6
CONTINUOUS
 10
10.1779351292
 20
14.9679490428
 11
10.1768790292
 21
14.9683835752
  0
SPLINE
  5
620
100
AcDbEntity
  8
0
100
AcDbSpline
 62
7
  6
CONTINUOUS
 70
0
 71
3
 72
20
 73
16
 74
0
 42
0.0000001
 43
0.0000001
 44
0.0000000001
 40
0.0
 40
0.0
 40
0.0
 40
0.0
 40
0.0189691757
 40
0.0297506905
 40
0.0416823524
 40
0.0695563388
 40
0.1034056554
 40
0.1435984897
 40
0.1902987835
 40
0.2435423027
 40
0.3033006717
 40
0.4419807993
 40
0.6053186581
 40
0.7918904154
 40
1.0
 40
1.0
 40
1.0
 40
1.0
 10
8.6870715229
 20
11.4346487846
 30
0.0
 10
8.687179724
 20
11.4347569676
 30
0.0
 10
8.687388759
 20
11.4348887377
 30
0.0
 10
8.6877070936
 20
11.4349977495
 30
0.0
 10
8.6881080197
 20
11.435079643
 30
0.0
 10
8.6887049703
 20
11.435102423
 30
0.0
 10
8.6895245796
 20
11.4350233284
 30
0.0
 10
8.6904820006
 20
11.4348388455
 30
0.0
 10
8.6915752792
 20
11.4345493277
 30
0.0
 10
8.6928022232
 20
11.4341554201
 30
0.0
 10
8.6947085897
 20
11.4334563172
 30
0.0
 10
8.6973956473
 20
11.4323140024
 30
0.0
 10
8.7009520618
 20
11.4306141764
 30
0.0
 10
8.7049469235
 20
11.428539007
 30
0.0
 10
8.7077330069
 20
11.426998013
 30
0.0
 10
8.7091934992
 20
11.4261705192
 30
0.0
  0
LINE
  5
621
100
AcDbEntity
  8
0
100
AcDbLine
 62
7
  6
CONTINUOUS
 10
7.7532104964
 20
12.4450671334
 11
7.7524384882
 21
12.4440189422
  0
SPLINE
  5
622
100
AcDbEntity
  8
0
100
AcDbSpline
 62
9
  6
CONTINUOUS
 70
0
 71
3
 72
33
 73
29
 74
0
 42
0.0000001
 43
0.0000001
 44
0.0000000001
 40
0.0
 40
0.0
 40
0.0
 40
0.0
 40
0.0019763383
 40
0.0043615926
 40
0.0073385853
 40
0.010999782
 40
0.0153911748
 40
0.0205343866
 40
0.0264392461
 40
0.0331086952
 40
0.048723336
 40
0.0673216178
 40
0.0888089082
 40
0.1130678924
 40
0.1399591139
 40
0.1693271253
 40
0.2010011695
 40
0.2347959702
 40
0.3079490758
 40
0.3870809004
 40
0.4703376855
 40
0.5557529094
 40
0.6412848619
 40
0.7248600798
 40
0.8044233873
 40
0.8779959615
 40
0.9437334484
 40
1.0
 40
1.0
 40
1.0
 40
1.0
 10
8.3215097816
 20
11.6099960744
 30
0.0
 10
8.321570374
 20
11.6100566889
 30
0.0
 10
8.3217375109
 20
11.6101576787
 30
0.0
 10
8.3220529255
 20
11.6102209041
 30
0.0
 10
8.3224459804
 20
11.6102166601
 30
0.0
 10
8.3229199902
 20
11.6101456658
 30
0.0
 10
8.3234761138
 20
11.6100083857
 30
0.0
 10
8.3241142922
 20
11.6098046352
 30
0.0
 10
8.324833861
 20
11.6095345562
 30
0.0
 10
8.3259609499
 20
11.6090606131
 30
0.0
 10
8.3275613964
 20
11.6082957834
 30
0.0
 10
8.3296970063
 20
11.6071663181
 30
0.0
 10
8.3321234683
 20
11.6057877585
 30
0.0
 10
8.3348256563
 20
11.6041684771
 30
0.0
 10
8.3377869797
 20
11.6023180262
 30
0.0
 10
8.3409893633
 20
11.6002474767
 30
0.0
 10
8.3444134733
 20
11.5979691628
 30
0.0
 10
8.3493799341
 20
11.594581878
 30
0.0
 10
8.3559757645
 20
11.5899320205
 30
0.0
 10
8.3642257823
 20
11.5839085801
 30
0.0
 10
8.3728107788
 20
11.5774441621
 30
0.0
 10
8.3815257645
 20
11.5706927483
 30
0.0
 10
8.3901601406
 20
11.5638163432
 30
0.0
 10
8.3985020833
 20
11.5569817155
 30
0.0
 10
8.406344926
 20
11.5503579915
 30
0.0
 10
8.4134924166
 20
11.5441116836
 30
0.0
 10
8.4197661774
 20
11.5384034426
 30
0.0
 10
8.4235840319
 20
11.5347388334
 30
0.0
 10
8.4253087207
 20
11.5330127505
 30
0.0
  0
SPLINE
  5
623
100
AcDbEntity
  8
0
100
AcDbSpline
 62
9
  6
CONTINUOUS
 70
0
 71
3
 72
35
 73
31
 74
0
 42
0.0000001
 43
0.0000001
 44
0.0000000001
 40
0.0
 40
0.0
 40
0.0
 40
0.0
 40
0.0217655389
 40
0.0466332011
 40
0.0744208269
 40
0.1049379957
 40
0.1732712466
 40
0.2496908542
 40
0.3320403613
 40
0.418025529
 40
0.505287617
 40
0.5914667909
 40
0.6742578907
 40
0.7514592823
 40
0.8210172411
 40
0.8523395354
 40
0.8810710241
 40
0.9070168537
 40
0.9300007394
 40
0.9498689444
 40
0.966491243
 40
0.9735542315
 40
0.9797723683
 40
0.9851420775
 40
0.9896643937
 40
0.99334975
 40
0.9962298131
 40
0.9973906613
 40
0.9983862758
 40
1.0
 40
1.0
 40
1.0
 40
1.0
 10
7.2579277961
 20
12.7003936751
 30
0.0
 10
7.258624791
 20
12.6996973931
 30
0.0
 10
7.260096858
 20
12.698184281
 30
0.0
 10
7.26239732
 20
12.6957233394
 30
0.0
 10
7.2649246896
 20
12.6929329088
 30
0.0
 10
7.2687189327
 20
12.6886361026
 30
0.0
 10
7.2738731862
 20
12.6826044329
 30
0.0
 10
7.2804276674
 20
12.674685168
 30
0.0
 10
7.2873754598
 20
12.6660556003
 30
0.0
 10
7.2945244706
 20
12.6569590727
 30
0.0
 10
7.3016769607
 20
12.6476457421
 30
0.0
 10
7.3086394362
 20
12.6383696674
 30
0.0
 10
7.3152247061
 20
12.6293807474
 30
0.0
 10
7.3212570397
 20
12.6209204261
 30
0.0
 10
7.3258370964
 20
12.6142867794
 30
0.0
 10
7.3290970951
 20
12.6094090394
 30
0.0
 10
7.3312224023
 20
12.6061476096
 30
0.0
 10
7.3331002312
 20
12.6031757882
 30
0.0
 10
7.334717847
 20
12.6005145629
 30
0.0
 10
7.3360639012
 20
12.5981829248
 30
0.0
 10
7.3369972108
 20
12.5964457864
 30
0.0
 10
7.337593994
 20
12.5952307359
 30
0.0
 10
7.3379433089
 20
12.5944619954
 30
0.0
 10
7.3382189617
 20
12.5937866665
 30
0.0
 10
7.3384210183
 20
12.593205758
 30
0.0
 10
7.3385491644
 20
12.5927200254
 30
0.0
 10
7.338599298
 20
12.592372251
 30
0.0
 10
7.3385942119
 20
12.5921434487
 30
0.0
 10
7.3385667544
 20
12.5919752606
 30
0.0
 10
7.338512778
 20
12.5918627257
 30
0.0
 10
7.3384611181
 20
12.5918110863
 30
0.0
  0
SPLINE
  5
624
100
AcDbEntity
  8
0
100
AcDbSpline
 62
9
  6
CONTINUOUS
 70
0
 71
3
 72
15
 73
11
 74
0
 42
0.0000001
 43
0.0000001
 44
0.0000000001
 40
0.0
 40
0.0
 40
0.0
 40
0.0
 40
0.1242553036
 40
0.2430432653
 40
0.3551414227
 40
0.4643717356
 40
0.5835680321
 40
0.7137712462
 40
0.8535219093
 40
1.0
 40
1.0
 40
1.0
 40
1.0
 10
7.2598098063
 20
12.7150531511
 30
0.0
 10
7.2602019572
 20
12.7145161517
 30
0.0
 10
7.2608590685
 20
12.7133803415
 30
0.0
 10
7.2614623243
 20
12.7115663321
 30
0.0
 10
7.2617169343
 20
12.7097549616
 30
0.0
 10
7.2616699591
 20
12.7079257573
 30
0.0
 10
7.2613131896
 20
12.706031405
 30
0.0
 10
7.2605923228
 20
12.7040668963
 30
0.0
 10
7.2594741449
 20
12.7021270211
 30
0.0
 10
7.2584851368
 20
12.7009448889
 30
0.0
 10
7.2579306579
 20
12.7003908114
 30
0.0
  0
SPLINE
  5
625
100
AcDbEntity
  8
0
100
AcDbSpline
 62
9
  6
CONTINUOUS
 70
0
 71
3
 72
19
 73
15
 74
0
 42
0.0000001
 43
0.0000001
 44
0.0000000001
 40
0.0
 40
0.0
 40
0.0
 40
0.0
 40
0.1843245156
 40
0.3593417195
 40
0.5207872354
 40
0.664661425
 40
0.7873404181
 40
0.8397312283
 40
0.8856911556
 40
0.9249254545
 40
0.9571805411
 40
0.9822553149
 40
0.9920511522
 40
1.0
 40
1.0
 40
1.0
 40
1.0
 10
8.5068854448
 20
11.4411983634
 30
0.0
 10
8.5097681314
 20
11.4390370314
 30
0.0
 10
8.5153808799
 20
11.4348140657
 30
0.0
 10
8.5234929928
 20
11.4286642248
 30
0.0
 10
8.5309512135
 20
11.4229607538
 30
0.0
 10
8.5375705771
 20
11.4178446548
 30
0.0
 10
8.5424783384
 20
11.4139999638
 30
0.0
 10
8.5458593331
 20
11.4113101549
 30
0.0
 10
8.5479534994
 20
11.4096228123
 30
0.0
 10
8.5497296041
 20
11.4081681128
 30
0.0
 10
8.5511760392
 20
11.4069554131
 30
0.0
 10
8.5521664911
 20
11.4060945563
 30
0.0
 10
8.5527834788
 20
11.4055289331
 30
0.0
 10
8.5530334891
 20
11.405288413
 30
0.0
 10
8.5531431396
 20
11.4051783316
 30
0.0
  0
SPLINE
  5
626
100
AcDbEntity
  8
0
100
AcDbSpline
 62
9
  6
CONTINUOUS
 70
0
 71
3
 72
18
 73
14
 74
0
 42
0.0000001
 43
0.0000001
 44
0.0000000001
 40
0.0
 40
0.0
 40
0.0
 40
0.0
 40
0.1339373564
 40
0.2785736839
 40
0.4273080559
 40
0.5732921257
 40
0.7096915024
 40
0.7722396396
 40
0.829992544
 40
0.8822449771
 40
0.9283553587
 40
0.9677657183
 40
1.0
 40
1.0
 40
1.0
 40
1.0
 10
8.4263864315
 20
11.5145273049
 30
0.0
 10
8.430186447
 20
11.5118474293
 30
0.0
 10
8.438042087
 20
11.5062055182
 30
0.0
 10
8.449976997
 20
11.497393972
 30
0.0
 10
8.4621389537
 20
11.4881875918
 30
0.0
 10
8.4739643692
 20
11.4790122391
 30
0.0
 10
8.483329588
 20
11.4715485808
 30
0.0
 10
8.4902300851
 20
11.4659087892
 30
0.0
 10
8.4948332352
 20
11.4620748295
 30
0.0
 10
8.4989593936
 20
11.4585603651
 30
0.0
 10
8.5025583017
 20
11.4554094934
 30
0.0
 10
8.5055847906
 20
11.4526608702
 30
0.0
 10
8.5073821143
 20
11.4509406282
 30
0.0
 10
8.5081727903
 20
11.4501486809
 30
0.0
  0
SPLINE
  5
627
100
AcDbEntity
  8
0
100
AcDbSpline
 62
9
  6
CONTINUOUS
 70
0
 71
3
 72
27
 73
23
 74
0
 42
0.0000001
 43
0.0000001
 44
0.0000000001
 40
0.0
 40
0.0
 40
0.0
 40
0.0
 40
0.0072841153
 40
0.0152023319
 40
0.0242720905
 40
0.0348361299
 40
0.0471050235
 40
0.0611998599
 40
0.0771899623
 40
0.0951110951
 40
0.1149727248
 40
0.1367707225
 40
0.1860900053
 40
0.2428216717
 40
0.306593545
 40
0.3769420578
 40
0.4533239123
 40
0.5351229767
 40
0.6216640843
 40
0.7122168901
 40
0.8059992115
 40
1.0
 40
1.0
 40
1.0
 40
1.0
 10
7.76312224
 20
12.1814909006
 30
0.0
 10
7.7632379154
 20
12.1816065892
 30
0.0
 10
7.7635205422
 20
12.1818095544
 30
0.0
 10
7.7640425115
 20
12.1819862966
 30
0.0
 10
7.7646621997
 20
12.1820478265
 30
0.0
 10
7.7653794157
 20
12.1819986847
 30
0.0
 10
7.7661951502
 20
12.181840552
 30
0.0
 10
7.7671093521
 20
12.1815740098
 30
0.0
 10
7.7681210683
 20
12.181199213
 30
0.0
 10
7.7692286782
 20
12.1807165025
 30
0.0
 10
7.7704302844
 20
12.1801267232
 30
0.0
 10
7.7722298379
 20
12.1791579666
 30
0.0
 10
7.7746907505
 20
12.1776752779
 30
0.0
 10
7.7778656652
 20
12.1755599656
 30
0.0
 10
7.7813462826
 20
12.1730568033
 30
0.0
 10
7.7851032749
 20
12.1701858524
 30
0.0
 10
7.7891046214
 20
12.1669705156
 30
0.0
 10
7.7933159089
 20
12.16343792
 30
0.0
 10
7.7977004765
 20
12.1596183193
 30
0.0
 10
7.8022196735
 20
12.1555448781
 30
0.0
 10
7.8084421709
 20
12.1497579124
 30
0.0
 10
7.8130746084
 20
12.1452486507
 30
0.0
 10
7.816154721
 20
12.1421667503
 30
0.0
  0
SPLINE
  5
628
100
AcDbEntity
  8
0
100
AcDbSpline
 62
9
  6
CONTINUOUS
 70
0
 71
3
 72
18
 73
14
 74
0
 42
0.0000001
 43
0.0000001
 44
0.0000000001
 40
0.0
 40
0.0
 40
0.0
 40
0.0
 40
0.1196239837
 40
0.1800773314
 40
0.2409340517
 40
0.363805989
 40
0.4882041275
 40
0.6141130152
 40
0.6776406235
 40
0.7415389317
 40
0.8057825936
 40
0.8703423697
 40
1.0
 40
1.0
 40
1.0
 40
1.0
 10
12.2506279489
 20
3.7169337255
 30
0.0
 10
12.2472418646
 20
3.7157849791
 30
0.0
 10
12.2421824377
 20
3.7139410493
 30
0.0
 10
12.235501651
 20
3.7112508202
 30
0.0
 10
12.228793062
 20
3.7083743109
 30
0.0
 10
12.2204566964
 20
3.7044495468
 30
0.0
 10
12.2106168065
 20
3.6991851015
 30
0.0
 10
12.2026103484
 20
3.6942835368
 30
0.0
 10
12.1963624002
 20
3.6900026614
 30
0.0
 10
12.1917610561
 20
3.6865869228
 30
0.0
 10
12.1872861017
 20
3.6829564465
 30
0.0
 10
12.1815297424
 20
3.6778021481
 30
0.0
 10
12.1775327293
 20
3.6735620954
 30
0.0
 10
12.1750907527
 20
3.6705526707
 30
0.0
  0
SPLINE
  5
629
100
AcDbEntity
  8
0
100
AcDbSpline
 62
9
  6
CONTINUOUS
 70
0
 71
3
 72
16
 73
12
 74
0
 42
0.0000001
 43
0.0000001
 44
0.0000000001
 40
0.0
 40
0.0
 40
0.0
 40
0.0
 40
0.1080208511
 40
0.2199701643
 40
0.2774656191
 40
0.336043443
 40
0.4566680381
 40
0.5824484088
 40
0.7143192039
 40
0.8533052264
 40
1.0
 40
1.0
 40
1.0
 40
1.0
 10
12.250630572
 20
3.7169347795
 30
0.0
 10
12.2488485395
 20
3.7148618107
 30
0.0
 10
12.2452780312
 20
3.7105898885
 30
0.0
 10
12.2409342171
 20
3.7050716298
 30
0.0
 10
12.2374658931
 20
3.7004595335
 30
0.0
 10
12.2339344963
 20
3.6956209641
 30
0.0
 10
12.2295265138
 20
3.6892836873
 30
0.0
 10
12.2243367479
 20
3.6812370722
 30
0.0
 10
12.2192402974
 20
3.6725856374
 30
0.0
 10
12.2143341652
 20
3.663221223
 30
0.0
 10
12.2114066002
 20
3.6566012868
 30
0.0
 10
12.2100526274
 20
3.6531446467
 30
0.0
  0
SPLINE
  5
62A
100
AcDbEntity
  8
0
100
AcDbSpline
 62
9
  6
CONTINUOUS
 70
0
 71
3
 72
15
 73
11
 74
0
 42
0.0000001
 43
0.0000001
 44
0.0000000001
 40
0.0
 40
0.0
 40
0.0
 40
0.0
 40
0.0264238645
 40
0.0592095627
 40
0.1429457485
 40
0.2490268978
 40
0.3746468677
 40
0.5164746947
 40
0.6707476965
 40
1.0
 40
1.0
 40
1.0
 40
1.0
 10
12.2100520251
 20
3.6531449225
 30
0.0
 10
12.2097584489
 20
3.6533243733
 30
0.0
 10
12.2090934563
 20
3.6537147394
 30
0.0
 10
12.2074701926
 20
3.6546257213
 30
0.0
 10
12.2049128847
 20
3.6559908973
 30
0.0
 10
12.2012619396
 20
3.657872973
 30
0.0
 10
12.1969157306
 20
3.6600567257
 30
0.0
 10
12.1919898348
 20
3.6624840258
 30
0.0
 10
12.1846623434
 20
3.6660361148
 30
0.0
 10
12.1789734686
 20
3.6687344534
 30
0.0
 10
12.1750907527
 20
3.6705526686
 30
0.0
  0
SPLINE
  5
62B
100
AcDbEntity
  8
0
100
AcDbSpline
 62
9
  6
CONTINUOUS
 70
0
 71
3
 72
9
 73
5
 74
0
 42
0.0000001
 43
0.0000001
 44
0.0000000001
 40
0.0
 40
0.0
 40
0.0
 40
0.0
 40
0.4999918657
 40
1.0
 40
1.0
 40
1.0
 40
1.0
 10
12.1750907527
 20
3.6705526707
 30
0.0
 10
12.1717342503
 20
3.6633924284
 30
0.0
 10
12.1666262164
 20
3.6482680931
 30
0.0
 10
12.164925137
 20
3.6324044547
 30
0.0
 10
12.1649294105
 20
3.6244962799
 30
0.0
  0
SPLINE
  5
62C
100
AcDbEntity
  8
0
100
AcDbSpline
 62
9
  6
CONTINUOUS
 70
0
 71
3
 72
10
 73
6
 74
0
 42
0.0000001
 43
0.0000001
 44
0.0000000001
 40
0.0
 40
0.0
 40
0.0
 40
0.0
 40
0.2502022556
 40
0.500305008
 40
1.0
 40
1.0
 40
1.0
 40
1.0
 10
12.2100520251
 20
3.6531449225
 30
0.0
 10
12.209123127
 20
3.650773533
 30
0.0
 10
12.2075130398
 20
3.6459301446
 30
0.0
 10
12.2052747965
 20
3.6359897079
 30
0.0
 10
12.2046913068
 20
3.6283168629
 30
0.0
 10
12.2047920923
 20
3.6232314251
 30
0.0
  0
SPLINE
  5
62D
100
AcDbEntity
  8
0
100
AcDbSpline
 62
9
  6
CONTINUOUS
 70
0
 71
3
 72
24
 73
20
 74
0
 42
0.0000001
 43
0.0000001
 44
0.0000000001
 40
0.0
 40
0.0
 40
0.0
 40
0.0
 40
0.0071972207
 40
0.016340458
 40
0.0274445125
 40
0.0405052546
 40
0.0723822979
 40
0.1117026178
 40
0.1581515452
 40
0.2113656521
 40
0.2709189604
 40
0.3363361836
 40
0.4070967651
 40
0.4826315834
 40
0.6455680218
 40
0.7316501597
 40
0.8198892297
 40
0.9095975414
 40
1.0
 40
1.0
 40
1.0
 40
1.0
 10
12.206394471
 20
1.2303921442
 30
0.0
 10
12.2063026422
 20
1.2304172892
 30
0.0
 10
12.2060905888
 20
1.2304609265
 30
0.0
 10
12.2057315991
 20
1.2305150773
 30
0.0
 10
12.2052942652
 20
1.2305691606
 30
0.0
 10
12.2045576814
 20
1.2306530679
 30
0.0
 10
12.2034483851
 20
1.2307628835
 30
0.0
 10
12.201896573
 20
1.230882235
 30
0.0
 10
12.2000613825
 20
1.2309942931
 30
0.0
 10
12.1979577008
 20
1.2310983369
 30
0.0
 10
12.1956023623
 20
1.2311912251
 30
0.0
 10
12.1930143777
 20
1.2312728846
 30
0.0
 10
12.1902146264
 20
1.2313449027
 30
0.0
 10
12.1861248821
 20
1.2314340586
 30
0.0
 10
12.1818322041
 20
1.2315132667
 30
0.0
 10
12.1773712921
 20
1.2315828655
 30
0.0
 10
12.1738787768
 20
1.2316248444
 30
0.0
 10
12.1703288692
 20
1.2316398573
 30
0.0
 10
12.1679462497
 20
1.2316324415
 30
0.0
 10
12.1667503636
 20
1.2316266775
 30
0.0
  0
SPLINE
  5
62E
100
AcDbEntity
  8
0
100
AcDbSpline
 62
9
  6
CONTINUOUS
 70
0
 71
3
 72
14
 73
10
 74
0
 42
0.0000001
 43
0.0000001
 44
0.0000000001
 40
0.0
 40
0.0
 40
0.0
 40
0.0
 40
0.124999998
 40
0.2499984642
 40
0.3749962962
 40
0.4999943011
 40
0.6249931195
 40
0.7499933703
 40
1.0
 40
1.0
 40
1.0
 40
1.0
 10
12.2047918454
 20
3.6232314252
 30
0.0
 10
12.2048406739
 20
3.5235297717
 30
0.0
 10
12.2049872662
 20
3.3241277099
 30
0.0
 10
12.2052959939
 20
3.0250258212
 30
0.0
 10
12.2056336591
 20
2.7259255544
 30
0.0
 10
12.2059474815
 20
2.4268249804
 30
0.0
 10
12.2062108272
 20
2.1277224253
 30
0.0
 10
12.206452714
 20
1.7289112832
 30
0.0
 10
12.2064756284
 20
1.4298007488
 30
0.0
 10
12.2063944444
 20
1.2303921432
 30
0.0
  0
SPLINE
  5
62F
100
AcDbEntity
  8
0
100
AcDbSpline
 62
9
  6
CONTINUOUS
 70
0
 71
3
 72
23
 73
19
 74
0
 42
0.0000001
 43
0.0000001
 44
0.0000000001
 40
0.0
 40
0.0
 40
0.0
 40
0.0
 40
0.0051985257
 40
0.0124679807
 40
0.0218259746
 40
0.033269768
 40
0.0467814169
 40
0.0623359951
 40
0.099455557
 40
0.1443222855
 40
0.1965603277
 40
0.255722525
 40
0.3213009903
 40
0.3927344781
 40
0.4694048028
 40
0.6357810867
 40
0.8146925539
 40
1.0
 40
1.0
 40
1.0
 40
1.0
 10
12.2047918454
 20
3.6232314252
 30
0.0
 10
12.2047280991
 20
3.6232582636
 30
0.0
 10
12.2045686619
 20
3.6233062869
 30
0.0
 10
12.2042850246
 20
3.6233683836
 30
0.0
 10
12.2039165719
 20
3.6234305078
 30
0.0
 10
12.2034642387
 20
3.6234924498
 30
0.0
 10
12.2029287192
 20
3.6235538027
 30
0.0
 10
12.2020522994
 20
3.6236396878
 30
0.0
 10
12.2007583774
 20
3.6237409434
 30
0.0
 10
12.1989759608
 20
3.6238520529
 30
0.0
 10
12.1968994687
 20
3.6239571799
 30
0.0
 10
12.1945468146
 20
3.6240553503
 30
0.0
 10
12.191938283
 20
3.6241455413
 30
0.0
 10
12.1890964181
 20
3.6242269002
 30
0.0
 10
12.1849134432
 20
3.6243252734
 30
0.0
 10
12.1793000546
 20
3.6244188181
 30
0.0
 10
12.1722408115
 20
3.6244846603
 30
0.0
 10
12.1673949017
 20
3.624497611
 30
0.0
 10
12.1649294105
 20
3.6244962796
 30
0.0
  0
SPLINE
  5
630
100
AcDbEntity
  8
0
100
AcDbSpline
 62
9
  6
CONTINUOUS
 70
0
 71
3
 72
14
 73
10
 74
0
 42
0.0000001
 43
0.0000001
 44
0.0000000001
 40
0.0
 40
0.0
 40
0.0
 40
0.0
 40
0.1249999949
 40
0.249999996
 40
0.3750000011
 40
0.5000000015
 40
0.6249999981
 40
0.7500000001
 40
1.0
 40
1.0
 40
1.0
 40
1.0
 10
12.1649294105
 20
3.6244962799
 30
0.0
 10
12.1649831699
 20
3.5247933595
 30
0.0
 10
12.1651445116
 20
3.3253875421
 30
0.0
 10
12.1654868406
 20
3.0262789189
 30
0.0
 10
12.1658669097
 20
2.7271703383
 30
0.0
 10
12.1662273878
 20
2.4280617369
 30
0.0
 10
12.1665323237
 20
2.1289530718
 30
0.0
 10
12.1668097617
 20
1.730141411
 30
0.0
 10
12.1668317079
 20
1.4310325333
 30
0.0
 10
12.166738295
 20
1.2316266775
 30
0.0
  0
SPLINE
  5
631
100
AcDbEntity
  8
0
100
AcDbSpline
 62
9
  6
CONTINUOUS
 70
0
 71
3
 72
16
 73
12
 74
0
 42
0.0000001
 43
0.0000001
 44
0.0000000001
 40
0.0
 40
0.0
 40
0.0
 40
0.0
 40
0.1076654396
 40
0.219395344
 40
0.2768273908
 40
0.3353707557
 40
0.456003563
 40
0.5818848793
 40
0.7139318256
 40
0.8531203075
 40
1.0
 40
1.0
 40
1.0
 40
1.0
 10
11.8125898041
 20
3.7169347477
 30
0.0
 10
11.8143260759
 20
3.7148692607
 30
0.0
 10
11.8178057107
 20
3.7106107537
 30
0.0
 10
11.8220355506
 20
3.7051101093
 30
0.0
 10
11.8254134699
 20
3.7005102564
 30
0.0
 10
11.8288551457
 20
3.6956811625
 30
0.0
 10
11.8331513271
 20
3.6893553612
 30
0.0
 10
11.8382081363
 20
3.6813253916
 30
0.0
 10
11.8431749609
 20
3.6726970507
 30
0.0
 10
11.8479550617
 20
3.6633667727
 30
0.0
 10
11.850808974
 20
3.6567808853
 30
0.0
 10
11.8521299258
 20
3.653344963
 30
0.0
  0
SPLINE
  5
632
100
AcDbEntity
  8
0
100
AcDbSpline
 62
9
  6
CONTINUOUS
 70
0
 71
3
 72
18
 73
14
 74
0
 42
0.0000001
 43
0.0000001
 44
0.0000000001
 40
0.0
 40
0.0
 40
0.0
 40
0.0
 40
0.1194549492
 40
0.1798471893
 40
0.2406577408
 40
0.3634784369
 40
0.4878747954
 40
0.6138265181
 40
0.6773888461
 40
0.741329206
 40
0.8056215531
 40
0.8702337985
 40
1.0
 40
1.0
 40
1.0
 40
1.0
 10
11.8125923068
 20
3.7169337255
 30
0.0
 10
11.8159326439
 20
3.7157808942
 30
0.0
 10
11.8209231647
 20
3.7139304183
 30
0.0
 10
11.8275114202
 20
3.7112319084
 30
0.0
 10
11.8341288189
 20
3.7083464076
 30
0.0
 10
11.8423514455
 20
3.7044108374
 30
0.0
 10
11.8520540963
 20
3.6991355053
 30
0.0
 10
11.8599467268
 20
3.6942299547
 30
0.0
 10
11.8661038174
 20
3.6899490159
 30
0.0
 10
11.8706369944
 20
3.6865348291
 30
0.0
 10
11.8750448029
 20
3.6829096915
 30
0.0
 10
11.880714441
 20
3.6777691507
 30
0.0
 10
11.8846476446
 20
3.6735457587
 30
0.0
 10
11.887051194
 20
3.6705526707
 30
0.0
  0
SPLINE
  5
633
100
AcDbEntity
  8
0
100
AcDbSpline
 62
9
  6
CONTINUOUS
 70
0
 71
3
 72
15
 73
11
 74
0
 42
0.0000001
 43
0.0000001
 44
0.0000000001
 40
0.0
 40
0.0
 40
0.0
 40
0.0
 40
0.327662536
 40
0.4813609932
 40
0.6228738346
 40
0.7485083921
 40
0.8549879591
 40
0.9395415393
 40
0.9728981097
 40
1.0
 40
1.0
 40
1.0
 40
1.0
 10
11.8870511939
 20
3.6705526598
 30
0.0
 10
11.8831925694
 20
3.6687641577
 30
0.0
 10
11.8775367874
 20
3.6661088445
 30
0.0
 10
11.8702476463
 20
3.6626114435
 30
0.0
 10
11.8653379199
 20
3.6602169739
 30
0.0
 10
11.8609954495
 20
3.6580577982
 30
0.0
 10
11.8573337986
 20
3.6561904699
 30
0.0
 10
11.8547578052
 20
3.6548309041
 30
0.0
 10
11.853111212
 20
3.6539189554
 30
0.0
 10
11.8524317641
 20
3.653526136
 30
0.0
 10
11.8521301662
 20
3.6533450719
 30
0.0
  0
SPLINE
  5
634
100
AcDbEntity
  8
0
100
AcDbSpline
 62
9
  6
CONTINUOUS
 70
0
 71
3
 72
11
 73
7
 74
0
 42
0.0000001
 43
0.0000001
 44
0.0000000001
 40
0.0
 40
0.0
 40
0.0
 40
0.0
 40
0.2501102748
 40
0.5000527437
 40
0.7499798266
 40
1.0
 40
1.0
 40
1.0
 40
1.0
 10
11.8521301662
 20
3.6533450719
 30
0.0
 10
11.853091022
 20
3.6508456396
 30
0.0
 10
11.8547360844
 20
3.6457380133
 30
0.0
 10
11.8563867921
 20
3.6378661218
 30
0.0
 10
11.8572272813
 20
3.6298683299
 30
0.0
 10
11.8572486141
 20
3.6245051789
 30
0.0
 10
11.8571250689
 20
3.6218312348
 30
0.0
  0
SPLINE
  5
635
100
AcDbEntity
  8
0
100
AcDbSpline
 62
9
  6
CONTINUOUS
 70
0
 71
3
 72
9
 73
5
 74
0
 42
0.0000001
 43
0.0000001
 44
0.0000000001
 40
0.0
 40
0.0
 40
0.0
 40
0.0
 40
0.4999778732
 40
1.0
 40
1.0
 40
1.0
 40
1.0
 10
11.887051194
 20
3.6705526707
 30
0.0
 10
11.8905468382
 20
3.6630184731
 30
0.0
 10
11.8957585101
 20
3.647064369
 30
0.0
 10
11.8971939342
 20
3.6303536953
 30
0.0
 10
11.8969708677
 20
3.6220503155
 30
0.0
  0
SPLINE
  5
636
100
AcDbEntity
  8
0
100
AcDbSpline
 62
9
  6
CONTINUOUS
 70
0
 71
3
 72
25
 73
21
 74
0
 42
0.0000001
 43
0.0000001
 44
0.0000000001
 40
0.0
 40
0.0
 40
0.0
 40
0.0
 40
0.0904275832
 40
0.1801549766
 40
0.2684060509
 40
0.354494265
 40
0.5174298751
 40
0.5929594368
 40
0.6637126298
 40
0.7291211489
 40
0.7886654411
 40
0.8418710223
 40
0.8883126293
 40
0.9276272343
 40
0.9445116504
 40
0.9595007486
 40
0.972559943
 40
0.9836625036
 40
0.992804276
 40
1.0
 40
1.0
 40
1.0
 40
1.0
 10
11.8324186627
 20
1.2316266775
 30
0.0
 10
11.8312240966
 20
1.2316632819
 30
0.0
 10
11.8288441473
 20
1.2317343082
 30
0.0
 10
11.825297633
 20
1.2318139714
 30
0.0
 10
11.8218079287
 20
1.2318619936
 30
0.0
 10
11.8173506064
 20
1.2319078324
 30
0.0
 10
11.8130612926
 20
1.2319406589
 30
0.0
 10
11.8089745767
 20
1.2319589901
 30
0.0
 10
11.806176771
 20
1.2319608443
 30
0.0
 10
11.8035902567
 20
1.2319476653
 30
0.0
 10
11.8012358126
 20
1.2319169365
 30
0.0
 10
11.7991324001
 20
1.2318680292
 30
0.0
 10
11.7972969016
 20
1.2318038704
 30
0.0
 10
11.7959420134
 20
1.2317349735
 30
0.0
 10
11.7950033298
 20
1.2316709086
 30
0.0
 10
11.7944112866
 20
1.2316244718
 30
0.0
 10
11.7938958298
 20
1.2315793593
 30
0.0
 10
11.7934576811
 20
1.2315369391
 30
0.0
 10
11.7930977568
 20
1.2314925197
 30
0.0
 10
11.7928848297
 20
1.2314547273
 30
0.0
 10
11.7927924496
 20
1.231432139
 30
0.0
  0
SPLINE
  5
637
100
AcDbEntity
  8
0
100
AcDbSpline
 62
9
  6
CONTINUOUS
 70
0
 71
3
 72
14
 73
10
 74
0
 42
0.0000001
 43
0.0000001
 44
0.0000000001
 40
0.0
 40
0.0
 40
0.0
 40
0.0
 40
0.1249999951
 40
0.2499999975
 40
0.3750000045
 40
0.5000000067
 40
0.6250000042
 40
0.750000006
 40
1.0
 40
1.0
 40
1.0
 40
1.0
 10
11.8969708677
 20
3.6220503155
 30
0.0
 10
11.8943030656
 20
3.5224487496
 30
0.0
 10
11.8889139353
 20
3.323247045
 30
0.0
 10
11.8807305112
 20
3.0244472066
 30
0.0
 10
11.8725096226
 20
2.7256483923
 30
0.0
 10
11.8643083174
 20
2.4268490437
 30
0.0
 10
11.856162398
 20
2.1280481799
 30
0.0
 10
11.8454298857
 20
1.7296435499
 30
0.0
 10
11.8375659224
 20
1.4308350818
 30
0.0
 10
11.8324308243
 20
1.2316266775
 30
0.0
  0
SPLINE
  5
638
100
AcDbEntity
  8
0
100
AcDbSpline
 62
9
  6
CONTINUOUS
 70
0
 71
3
 72
23
 73
19
 74
0
 42
0.0000001
 43
0.0000001
 44
0.0000000001
 40
0.0
 40
0.0
 40
0.0
 40
0.0
 40
0.1853491124
 40
0.3642769508
 40
0.5306513409
 40
0.6073161171
 40
0.6787421506
 40
0.7443120872
 40
0.8034654533
 40
0.8556950696
 40
0.9005544112
 40
0.9376681622
 40
0.9532205715
 40
0.966730601
 40
0.9781733643
 40
0.9875309487
 40
0.9948006274
 40
1.0
 40
1.0
 40
1.0
 40
1.0
 10
11.8969708677
 20
3.6220503152
 30
0.0
 10
11.89450798
 20
3.6221162059
 30
0.0
 10
11.8896670972
 20
3.6222301711
 30
0.0
 10
11.8826143252
 20
3.6223492896
 30
0.0
 10
11.8770054784
 20
3.622402884
 30
0.0
 10
11.8728254236
 20
3.6224141975
 30
0.0
 10
11.8699853138
 20
3.6224073808
 30
0.0
 10
11.8673780541
 20
3.6223856355
 30
0.0
 10
11.8650261516
 20
3.6223492223
 30
0.0
 10
11.8629498637
 20
3.6222986311
 30
0.0
 10
11.8611670817
 20
3.6222343647
 30
0.0
 10
11.8598723504
 20
3.6221671439
 30
0.0
 10
11.8589949182
 20
3.622104337
 30
0.0
 10
11.8584585336
 20
3.6220570978
 30
0.0
 10
11.8580051908
 20
3.6220070911
 30
0.0
 10
11.8576355931
 20
3.6219547046
 30
0.0
 10
11.8573506778
 20
3.6219001233
 30
0.0
 10
11.8571901692
 20
3.6218563434
 30
0.0
 10
11.8571257863
 20
3.6218312146
 30
0.0
  0
SPLINE
  5
639
100
AcDbEntity
  8
0
100
AcDbSpline
 62
9
  6
CONTINUOUS
 70
0
 71
3
 72
14
 73
10
 74
0
 42
0.0000001
 43
0.0000001
 44
0.0000000001
 40
0.0
 40
0.0
 40
0.0
 40
0.0
 40
0.1249999935
 40
0.249998463
 40
0.3749963024
 40
0.4999943151
 40
0.6249931391
 40
0.7499933905
 40
1.0
 40
1.0
 40
1.0
 40
1.0
 10
11.8571257863
 20
3.6218312146
 30
0.0
 10
11.8544629514
 20
3.522230775
 30
0.0
 10
11.8490886632
 20
3.3230324102
 30
0.0
 10
11.8409389756
 20
3.0242383761
 30
0.0
 10
11.8327606321
 20
2.7254467051
 30
0.0
 10
11.8246061003
 20
2.4266541005
 30
0.0
 10
11.8165018401
 20
2.1278582017
 30
0.0
 10
11.8058047803
 20
1.7294531129
 30
0.0
 10
11.7979397887
 20
1.4306429854
 30
0.0
 10
11.7927924763
 20
1.2314321372
 30
0.0
  0
SPLINE
  5
63A
100
AcDbEntity
  8
0
100
AcDbSpline
 62
9
  6
CONTINUOUS
 70
0
 71
3
 72
18
 73
14
 74
0
 42
0.0000001
 43
0.0000001
 44
0.0000000001
 40
0.0
 40
0.0
 40
0.0
 40
0.0
 40
0.0231397219
 40
0.0534103493
 40
0.0905676399
 40
0.1343147694
 40
0.1842882976
 40
0.2400732562
 40
0.367195308
 40
0.51152782
 40
0.6684341311
 40
0.8329621073
 40
1.0
 40
1.0
 40
1.0
 40
1.0
 10
7.198995586
 20
12.7593258852
 30
0.0
 10
7.199409844
 20
12.7589121918
 30
0.0
 10
7.2003370901
 20
12.7579285411
 30
0.0
 10
7.2018617087
 20
12.7562178425
 30
0.0
 10
7.2036940199
 20
12.7540835266
 30
0.0
 10
7.2058195122
 20
12.7515443762
 30
0.0
 10
7.2082199878
 20
12.7486210085
 30
0.0
 10
7.2119248049
 20
12.7440394329
 30
0.0
 10
7.2170692655
 20
12.7375520955
 30
0.0
 10
7.2237278002
 20
12.7290008274
 30
0.0
 10
7.2308999861
 20
12.719650454
 30
0.0
 10
7.2383595269
 20
12.7097968431
 30
0.0
 10
7.2433831229
 20
12.7030784353
 30
0.0
 10
7.2459038009
 20
12.6996862853
 30
0.0
  0
SPLINE
  5
63B
100
AcDbEntity
  8
0
100
AcDbSpline
 62
9
  6
CONTINUOUS
 70
0
 71
3
 72
16
 73
12
 74
0
 42
0.0000001
 43
0.0000001
 44
0.0000000001
 40
0.0
 40
0.0
 40
0.0
 40
0.0
 40
0.1302554677
 40
0.2533692191
 40
0.3679048715
 40
0.4778700757
 40
0.5961283817
 40
0.7235574568
 40
0.8588626902
 40
0.9288776149
 40
1.0
 40
1.0
 40
1.0
 40
1.0
 10
7.2002627908
 20
12.7746001666
 30
0.0
 10
7.200698083
 20
12.7740205451
 30
0.0
 10
7.2014374346
 20
12.7728074571
 30
0.0
 10
7.2021587663
 20
12.7708798744
 30
0.0
 10
7.2025151963
 20
12.7689692565
 30
0.0
 10
7.2025562426
 20
12.7670543799
 30
0.0
 10
7.2022757593
 20
12.7650857097
 30
0.0
 10
7.201616798
 20
12.7630587986
 30
0.0
 10
7.2007256698
 20
12.7614220224
 30
0.0
 10
7.1998077563
 20
12.7601851833
 30
0.0
 10
7.1992786943
 20
12.7596025159
 30
0.0
 10
7.1989987125
 20
12.7593227569
 30
0.0
  0
SPLINE
  5
63C
100
AcDbEntity
  8
0
100
AcDbSpline
 62
9
  6
CONTINUOUS
 70
0
 71
3
 72
15
 73
11
 74
0
 42
0.0000001
 43
0.0000001
 44
0.0000000001
 40
0.0
 40
0.0
 40
0.0
 40
0.0
 40
0.1244812032
 40
0.249003976
 40
0.3737022674
 40
0.4985988606
 40
0.6237007072
 40
0.749005112
 40
0.8744554788
 40
1.0
 40
1.0
 40
1.0
 40
1.0
 10
12.1667503636
 20
1.1902240319
 30
0.0
 10
12.1693487789
 20
1.1902240319
 30
0.0
 10
12.1745612638
 20
1.1907425593
 30
0.0
 10
12.182064772
 20
1.1930476425
 30
0.0
 10
12.1889786341
 20
1.1967883872
 30
0.0
 10
12.1950322155
 20
1.201820925
 30
0.0
 10
12.1999914862
 20
1.2079504264
 30
0.0
 10
12.203666899
 20
1.2149396344
 30
0.0
 10
12.2059137883
 20
1.2225158425
 30
0.0
 10
12.20640753
 20
1.2277715658
 30
0.0
 10
12.206394471
 20
1.2303921442
 30
0.0
  0
SPLINE
  5
63D
100
AcDbEntity
  8
0
100
AcDbSpline
 62
9
  6
CONTINUOUS
 70
0
 71
3
 72
15
 73
11
 74
0
 42
0.0000001
 43
0.0000001
 44
0.0000000001
 40
0.0
 40
0.0
 40
0.0
 40
0.0
 40
0.1244726887
 40
0.2489890796
 40
0.3736858186
 40
0.4985857603
 40
0.623694159
 40
0.749005671
 40
0.8744596982
 40
1.0
 40
1.0
 40
1.0
 40
1.0
 10
11.8324186627
 20
1.1902240319
 30
0.0
 10
11.8297774765
 20
1.1902240319
 30
0.0
 10
11.8244786483
 20
1.1907598903
 30
0.0
 10
11.8168614844
 20
1.1931409892
 30
0.0
 10
11.8098632011
 20
1.1970016488
 30
0.0
 10
11.8037668376
 20
1.2021884143
 30
0.0
 10
11.7988158809
 20
1.2084938247
 30
0.0
 10
11.7952057806
 20
1.2156657644
 30
0.0
 10
11.7930832727
 20
1.2234150692
 30
0.0
 10
11.7927104394
 20
1.2287695618
 30
0.0
 10
11.7927924496
 20
1.231432139
 30
0.0
  0
LINE
  5
63E
100
AcDbEntity
  8
0
100
AcDbLine
 62
9
  6
CONTINUOUS
 10
11.7927928463
 20
1.231432027
 11
11.7751777227
 21
1.2312884205
  0
SPLINE
  5
63F
100
AcDbEntity
  8
0
100
AcDbSpline
 62
9
  6
CONTINUOUS
 70
0
 71
3
 72
25
 73
21
 74
0
 42
0.0000001
 43
0.0000001
 44
0.0000000001
 40
0.0
 40
0.0
 40
0.0
 40
0.0
 40
0.0077503024
 40
0.0159677311
 40
0.025126514
 40
0.0355686484
 40
0.0475218891
 40
0.0611337965
 40
0.0764947053
 40
0.0936589622
 40
0.1335015901
 40
0.1807420207
 40
0.2352888785
 40
0.2969376723
 40
0.3654083862
 40
0.4403523986
 40
0.5213641656
 40
0.6079908518
 40
0.7960192269
 40
1.0
 40
1.0
 40
1.0
 40
1.0
 10
7.6119685188
 20
12.3361997082
 30
0.0
 10
7.6120601145
 20
12.3362909189
 30
0.0
 10
7.6122766074
 20
12.3364528362
 30
0.0
 10
7.6126706727
 20
12.3366069529
 30
0.0
 10
7.6131322948
 20
12.3366772422
 30
0.0
 10
7.6136603601
 20
12.3366667483
 30
0.0
 10
7.6142554506
 20
12.3365769718
 30
0.0
 10
7.6149177466
 20
12.3364082575
 30
0.0
 10
7.6156470493
 20
12.3361609056
 30
0.0
 10
7.6167644393
 20
12.3357029559
 30
0.0
 10
7.6183194762
 20
12.3349199543
 30
0.0
 10
7.6203540725
 20
12.3337177383
 30
0.0
 10
7.6226290395
 20
12.3322143858
 30
0.0
 10
7.6251314672
 20
12.3304178237
 30
0.0
 10
7.6278467256
 20
12.32833743
 30
0.0
 10
7.630758689
 20
12.3259850032
 30
0.0
 10
7.6338499466
 20
12.3233742676
 30
0.0
 10
7.6383085168
 20
12.319461042
 30
0.0
 10
7.6441731926
 20
12.3140430088
 30
0.0
 10
7.6488500036
 20
12.3094729461
 30
0.0
 10
7.6512549168
 20
12.3070665544
 30
0.0
  0
SPLINE
  5
640
100
AcDbEntity
  8
0
100
AcDbSpline
 62
7
  6
CONTINUOUS
 70
0
 71
3
 72
32
 73
28
 74
0
 42
0.0000001
 43
0.0000001
 44
0.0000000001
 40
0.0
 40
0.0
 40
0.0
 40
0.0
 40
0.2231985787
 40
0.3256322542
 40
0.4215960615
 40
0.5108472954
 40
0.5931518597
 40
0.6682994198
 40
0.7360970328
 40
0.7963741222
 40
0.8489795149
 40
0.8723649348
 40
0.8937862068
 40
0.9132324816
 40
0.9306938842
 40
0.946162098
 40
0.9596334485
 40
0.9711083627
 40
0.980592814
 40
0.9845943287
 40
0.9881074509
 40
0.9911393342
 40
0.9937014336
 40
0.9958131885
 40
0.9975099954
 40
0.998860834
 40
1.0
 40
1.0
 40
1.0
 40
1.0
 10
10.3049560993
 20
14.9164213243
 30
0.0
 10
10.2979446122
 20
14.9229216212
 30
0.0
 10
10.2876993969
 20
14.9323880271
 30
0.0
 10
10.2743890127
 20
14.9445942311
 30
0.0
 10
10.2652833905
 20
14.9528959485
 30
0.0
 10
10.2567884097
 20
14.9605875133
 30
0.0
 10
10.2489250514
 20
14.9676480054
 30
0.0
 10
10.2417129157
 20
14.9740580562
 30
0.0
 10
10.2351697584
 20
14.9798001989
 30
0.0
 10
10.2293116581
 20
14.9848586444
 30
0.0
 10
10.2248539513
 20
14.988627556
 30
0.0
 10
10.2216375019
 20
14.9912859823
 30
0.0
 10
10.219500801
 20
14.9930210301
 30
0.0
 10
10.2175447695
 20
14.9945758083
 30
0.0
 10
10.2157705713
 20
14.995949264
 30
0.0
 10
10.2141792628
 20
14.997140468
 30
0.0
 10
10.2127718085
 20
14.9981488626
 30
0.0
 10
10.2115489957
 20
14.9989738779
 30
0.0
 10
10.2106395084
 20
14.9995371192
 30
0.0
 10
10.2100026712
 20
14.9998905352
 30
0.0
 10
10.2095991418
 20
15.0000940118
 30
0.0
 10
10.2092419823
 20
15.0002515283
 30
0.0
 10
10.2089309928
 20
15.00036325
 30
0.0
 10
10.2086655812
 20
15.0004295734
 30
0.0
 10
10.2084443815
 20
15.0004504191
 30
0.0
 10
10.2082641712
 20
15.0004247321
 30
0.0
 10
10.2081688956
 20
15.0003682745
 30
0.0
 10
10.2081343964
 20
15.0003337627
 30
0.0
  0
LINE
  5
641
100
AcDbEntity
  8
0
100
AcDbLine
 62
9
  6
CONTINUOUS
 10
11.8571260144
 20
3.6218311914
 11
11.8486077731
 21
3.5835855459
  0
SPLINE
  5
642
100
AcDbEntity
  8
0
100
AcDbSpline
 62
9
  6
CONTINUOUS
 70
0
 71
3
 72
38
 73
34
 74
0
 42
0.0000001
 43
0.0000001
 44
0.0000000001
 40
0.0
 40
0.0
 40
0.0
 40
0.0
 40
0.2265494276
 40
0.329984079
 40
0.4265989261
 40
0.5162208523
 40
0.5986816338
 40
0.6738171756
 40
0.7414778106
 40
0.8015220388
 40
0.8538279733
 40
0.8770432697
 40
0.8982833313
 40
0.9175368728
 40
0.9347925987
 40
0.9500397614
 40
0.9632707233
 40
0.9744789284
 40
0.9793224489
 40
0.9836578221
 40
0.9874842995
 40
0.9908015395
 40
0.9936093458
 40
0.995907522
 40
0.9968654375
 40
0.9976958719
 40
0.9983988004
 40
0.9989741986
 40
0.999422042
 40
0.9997423059
 40
0.999854588
 40
0.9999349661
 40
1.0
 40
1.0
 40
1.0
 40
1.0
 10
11.8125897907
 20
3.7169337255
 30
0.0
 10
11.8112741522
 20
3.711113043
 30
0.0
 10
11.8093193246
 20
3.7026434714
 30
0.0
 10
11.8067199118
 20
3.6917112405
 30
0.0
 10
11.8049252217
 20
3.6842950788
 30
0.0
 10
11.8032353256
 20
3.6774220301
 30
0.0
 10
11.8016586982
 20
3.6711038087
 30
0.0
 10
11.8002035227
 20
3.6653515345
 30
0.0
 10
11.7988782121
 20
3.6601755074
 30
0.0
 10
11.7976911733
 20
3.6555848441
 30
0.0
 10
11.7967895217
 20
3.6521296319
 30
0.0
 10
11.7961418816
 20
3.6496645068
 30
0.0
 10
11.7957138993
 20
3.6480418488
 30
0.0
 10
11.7953247344
 20
3.6465713021
 30
0.0
 10
11.7949750841
 20
3.6452535913
 30
0.0
 10
11.7946656697
 20
3.6440893342
 30
0.0
 10
11.794396784
 20
3.6430791329
 30
0.0
 10
11.7941980555
 20
3.6423338405
 30
0.0
 10
11.7940594791
 20
3.6418150137
 30
0.0
 10
11.7939709769
 20
3.64148407
 30
0.0
 10
11.7938927562
 20
3.6411919931
 30
0.0
 10
11.7938248487
 20
3.6409388098
 30
0.0
 10
11.793767286
 20
3.6407245313
 30
0.0
 10
11.793725779
 20
3.6405702905
 30
0.0
 10
11.7936977703
 20
3.6404663547
 30
0.0
 10
11.7936806707
 20
3.6404030012
 30
0.0
 10
11.7936662021
 20
3.6403493663
 30
0.0
 10
11.7936542809
 20
3.6403055036
 30
0.0
 10
11.7936451441
 20
3.6402712739
 30
0.0
 10
11.7936388098
 20
3.6402490471
 30
0.0
 10
11.7936355917
 20
3.6402358089
 30
0.0
 10
11.793633197
 20
3.6402296228
 30
0.0
 10
11.7936333442
 20
3.6402252289
 30
0.0
 10
11.7936321188
 20
3.6402240319
 30
0.0
  0
SPLINE
  5
643
100
AcDbEntity
  8
0
100
AcDbSpline
 62
9
  6
CONTINUOUS
 70
0
 71
3
 72
15
 73
11
 74
0
 42
0.0000001
 43
0.0000001
 44
0.0000000001
 40
0.0
 40
0.0
 40
0.0
 40
0.0
 40
0.1254397408
 40
0.2508753417
 40
0.3762284246
 40
0.5014177351
 40
0.6263914266
 40
0.7511302581
 40
0.8756460931
 40
1.0
 40
1.0
 40
1.0
 40
1.0
 10
12.2664226038
 20
3.6439119493
 30
0.0
 10
12.2628295926
 20
3.6438982505
 30
0.0
 10
12.2556268712
 20
3.6431683179
 30
0.0
 10
12.2452556167
 20
3.6400102658
 30
0.0
 10
12.2356922201
 20
3.6349101134
 30
0.0
 10
12.2273090042
 20
3.6280623917
 30
0.0
 10
12.2204264441
 20
3.6197300823
 30
0.0
 10
12.2153102853
 20
3.6102308827
 30
0.0
 10
12.2121572885
 20
3.5999349467
 30
0.0
 10
12.2114453867
 20
3.5927866543
 30
0.0
 10
12.2114443679
 20
3.5892247192
 30
0.0
  0
ELLIPSE
  5
644
100
AcDbEntity
  8
0
100
AcDbEllipse
 62
7
  6
CONTINUOUS
 10
9.9312525103
 20
14.1489276724
 30
0.0
 11
-0.0
 21
0.6181264952
 31
0.0
 40
0.2679491924
 41
-0.5408188012
 42
0.0172200256
  0
ENDSEC
  0
SECTION
  2
OBJECTS
  0
DICTIONARY
  5
C
100
AcDbDictionary
280
0
281
1
  3
ACAD_GROUP
350
D
  3
ACAD_MLINESTYLE
350
17
  3
ACAD_LAYOUT
350
1A
  3
ACAD_PLOTSETTINGS
350
19
  3
ACAD_PLOTSTYLENAME
350
E
  0
DICTIONARY
  5
D
102
{ACAD_REACTORS
330
C
102
}
100
AcDbDictionary
280
0
281
1
  0
ACDBDICTIONARYWDFLT
  5
E
102
{ACAD_REACTORS
330
C
102
}
100
AcDbDictionary
281
1
  3
Normal
350
F
100
AcDbDictionaryWithDefault
340
F
  0
DICTIONARY
  5
17
102
{ACAD_REACTORS
330
C
102
}
100
AcDbDictionary
280
0
281
1
  3
Standard
350
18
  0
DICTIONARY
  5
19
102
{ACAD_REACTORS
330
C
102
}
100
AcDbDictionary
281
1
  0
DICTIONARY
  5
1A
102
{ACAD_REACTORS
330
C
102
}
100
AcDbDictionary
281
1
  3
Model
350
645
  3
Layout1
350
646
  0
ACDBPLACEHOLDER
  5
F
102
{ACAD_REACTORS
330
E
102
}
  0
MLINESTYLE
  5
18
102
{ACAD_REACTORS
330
17
102
}
100
AcDbMlineStyle
  2
STANDARD
 70
0
  3

 62
256
 51
90.0
 52
90.0
 71
2
 49
0.5
 62
256
  6
BYLAYER
 49
-0.5
 62
256
  6
BYLAYER
  0
LAYOUT
  5
645
102
{ACAD_REACTORS
330
1A
102
}
100
AcDbPlotSettings
  1

  2
none_device
  4
ANSI_C_(22.00_x_17.00_Inches)
  6

 40
0.0
 41
0.0
 42
0.0
 43
0.0
 44
558.8
 45
431.8
 46
0.0
 47
0.0
 48
0.0
 49
0.0
140
0.0
141
0.0
142
1.0
143
1.0
 70
1024
 72
0
 73
0
 74
0
  7

 75
0
147
1.0
148
0.0
149
0.0
100
AcDbLayout
  1
Model
 70
0
 71
0
 10
0.0
 20
0.0
 11
22.0
 21
17.0
 12
0.0
 22
0.0
 32
0.0
 14
0.0
 24
0.0
 34
0.0
 15
0.0
 25
0.0
 35
0.0
146
0.0
 13
0.0
 23
0.0
 33
0.0
 16
1.0
 26
0.0
 36
0.0
 17
0.0
 27
1.0
 37
0.0
 76
0
330
205
345
0
346
0
  0
LAYOUT
  5
646
102
{ACAD_REACTORS
330
1A
102
}
100
AcDbPlotSettings
  1

  2
none_device
  4
ANSI_C_(22.00_x_17.00_Inches)
  6

 40
0.0
 41
0.0
 42
0.0
 43
0.0
 44
558.8
 45
431.8
 46
0.0
 47
0.0
 48
0.0
 49
0.0
140
0.0
141
0.0
142
1.0
143
1.0
 70
0
 72
0
 73
0
 74
0
  7

 75
0
147
1.0
148
0.0
149
0.0
100
AcDbLayout
  1
Layout1
 70
0
 71
1
 10
0.0
 20
0.0
 11
22.0
 21
17.0
 12
0.0
 22
0.0
 32
0.0
 14
0.0
 24
0.0
 34
0.0
 15
0.0
 25
0.0
 35
0.0
146
0.0
 13
0.0
 23
0.0
 33
0.0
 16
1.0
 26
0.0
 36
0.0
 17
0.0
 27
1.0
 37
0.0
 76
0
330
206
345
0
346
0
  0
ENDSEC
  0
EOF
