999
DXF file: E:\BT Custom\CADOUTPUT\_FRONT.dxf
999
Pro/ENGINEER 2018400 by Parametric Technology Corporation
  0
SECTION
  2
HEADER
  9
$ACADVER
  1
AC1018
  9
$DWGCODEPAGE
  3
ANSI_1252
  9
$EXTMAX
 10
22.0
 20
17.0
 30
0.0
  9
$EXTMIN
 10
0.0
 20
0.0
 30
0.0
  9
$LIMMIN
 10
0.0
 20
0.0
  9
$LIMMAX
 10
22.0
 20
17.0
  9
$VIEWCTR
 10
11.0
 20
8.5
  9
$VIEWSIZE
 40
17.0
  9
$CLAYER
  8
0
  9
$LTSCALE
 40
1.21
  9
$CELTYPE
  6
BYLAYER
  9
$DIMSCALE
 40
1.0
  9
$DIMASZ
 40
0.1
  9
$DIMEXO
 40
0.0625
  9
$DIMDLI
 40
0.836
  9
$DIMEXE
 40
0.125
  9
$DIMCEN
 40
0.198
  9
$DIMLFAC
 40
1.0
  9
$DIMBLK
  1
_FILLED
  9
$DIMALT
 70
1
  9
$DIMALTD
 70
2
  9
$DIMALTTD
 70
2
  9
$DIMALTF
 40
25.4
  9
$DIMTXT
 40
0.08
  9
$DIMTOL
 70
1
  9
$DIMLIM
 70
0
  9
$DIMTFAC
 40
1.0
  9
$DIMTP
 40
0.001
  9
$DIMTM
 40
0.001
  9
$DIMGAP
 40
0.09
  9
$DIMDSEP
 70
46
  9
$AUNITS
 70
0
  9
$PDMODE
 70
3
  9
$PDSIZE
 40
0.06
  9
$HANDSEED
  5
85B
  9
$TILEMODE
 70
1
  9
$MEASUREMENT
 70
0
  9
$INSUNITS
 70
1
  0
ENDSEC
  0
SECTION
  2
CLASSES
  0
CLASS
  1
ACDBDICTIONARYWDFLT
  2
AcDbDictionaryWithDefault
  3
AutoCAD 2000
 90
0
 91
1
280
0
281
0
  0
CLASS
  1
ACDBPLACEHOLDER
  2
AcDbPlaceHolder
  3
AutoCAD 2000
 90
0
 91
1
280
0
281
0
  0
CLASS
  1
LAYOUT
  2
AcDbLayout
  3
AutoCAD 2000
 90
0
 91
0
280
0
281
0
  0
ENDSEC
  0
SECTION
  2
TABLES
  0
TABLE
  2
VPORT
  5
8
100
AcDbSymbolTable
 70
2
  0
VPORT
  5
1F4
100
AcDbSymbolTableRecord
100
AcDbViewportTableRecord
  2
*ACTIVE
 70
0
 10
0.0
 20
0.0
 11
1.0
 21
1.0
 12
11.0
 22
8.5
 13
0.0
 23
0.0
 14
1.0
 24
1.0
 15
0.0
 25
0.0
 16
0.0
 26
0.0
 36
1.0
 17
0.0
 27
0.0
 37
0.0
 40
17.0
 41
1.2941176471
 42
50.0
 43
0.0
 44
0.0
 50
0.0
 51
0.0
 71
0
 72
100
 73
1
 74
1
 75
0
 76
0
 77
0
 78
0
  0
ENDTAB
  0
TABLE
  2
LTYPE
  5
5
100
AcDbSymbolTable
 70
6
  0
LTYPE
  5
14
100
AcDbSymbolTableRecord
100
AcDbLinetypeTableRecord
  2
BYBLOCK
 70
0
  3

 72
65
 73
0
 40
0.0
  0
LTYPE
  5
15
100
AcDbSymbolTableRecord
100
AcDbLinetypeTableRecord
  2
BYLAYER
 70
0
  3

 72
65
 73
0
 40
0.0
  0
LTYPE
  5
16
100
AcDbSymbolTableRecord
100
AcDbLinetypeTableRecord
  2
CONTINUOUS
 70
64
  3
Solid line
 72
65
 73
0
 40
0.0
  0
LTYPE
  5
1F5
100
AcDbSymbolTableRecord
100
AcDbLinetypeTableRecord
  2
CENTER
 70
64
  3
____ _ ____ _ ____ _ ____ _ ____ _ ____ _ ____
 72
65
 73
4
 40
0.6
 49
0.375
 74
0
 49
-0.075
 74
0
 49
0.075
 74
0
 49
-0.075
 74
0
  0
LTYPE
  5
1F6
100
AcDbSymbolTableRecord
100
AcDbLinetypeTableRecord
  2
HIDDEN
 70
64
  3
- - - - - - - - - - - - - - - - - - - -
 72
65
 73
2
 40
0.2
 49
0.1
 74
0
 49
-0.1
 74
0
  0
LTYPE
  5
1F7
100
AcDbSymbolTableRecord
100
AcDbLinetypeTableRecord
  2
PHANTOM
 70
64
  3
_____ _ _ _____ _ _ _____ _ _ _____
 72
65
 73
6
 40
0.8
 49
0.45
 74
0
 49
-0.05
 74
0
 49
0.1
 74
0
 49
-0.05
 74
0
 49
0.1
 74
0
 49
-0.05
 74
0
  0
LTYPE
  5
1F8
100
AcDbSymbolTableRecord
100
AcDbLinetypeTableRecord
  2
DOT
 70
64
  3
. . . . . . . . . . . . . . . . . . . .
 72
65
 73
2
 40
0.2
 49
0.1
 74
0
 49
-0.1
 74
0
  0
LTYPE
  5
1F9
100
AcDbSymbolTableRecord
100
AcDbLinetypeTableRecord
  2
DASHED
 70
64
  3
- - - - - - - - - - - - - - - - - - - -
 72
65
 73
2
 40
0.2
 49
0.1
 74
0
 49
-0.1
 74
0
  0
ENDTAB
  0
TABLE
  2
LAYER
  5
2
100
AcDbSymbolTable
 70
36
  0
LAYER
  5
10
100
AcDbSymbolTableRecord
100
AcDbLayerTableRecord
  2
0
 70
0
 62
7
  6
CONTINUOUS
370
-3
390
F
  0
LAYER
  5
1FA
100
AcDbSymbolTableRecord
100
AcDbLayerTableRecord
  2
DEFAULT_1
 70
0
 62
7
  6
CENTER
370
-3
390
F
  0
LAYER
  5
1FB
100
AcDbSymbolTableRecord
100
AcDbLayerTableRecord
  2
DEFAULT_2
 70
0
 62
8
  6
HIDDEN
370
-3
390
F
  0
LAYER
  5
1FC
100
AcDbSymbolTableRecord
100
AcDbLayerTableRecord
  2
DEFAULT_3
 70
0
 62
7
  6
PHANTOM
370
-3
390
F
  0
LAYER
  5
1FD
100
AcDbSymbolTableRecord
100
AcDbLayerTableRecord
  2
ALL_FEATURES
 70
0
 62
7
  6
CONTINUOUS
370
-3
390
F
  0
LAYER
  5
1FE
100
AcDbSymbolTableRecord
100
AcDbLayerTableRecord
  2
AXES_FEATURES
 70
0
 62
7
  6
CONTINUOUS
370
-3
390
F
  0
LAYER
  5
1FF
100
AcDbSymbolTableRecord
100
AcDbLayerTableRecord
  2
DIMENSIONS
 70
0
 62
7
  6
CONTINUOUS
370
-3
390
F
  0
ENDTAB
  0
TABLE
  2
STYLE
  5
3
100
AcDbSymbolTable
 70
1
  0
STYLE
  5
11
100
AcDbSymbolTableRecord
100
AcDbTextStyleTableRecord
  2
STANDARD
 70
0
 40
0.0
 41
0.8
 50
0.0
 71
0
 42
0.2
  3
txt
  4

  0
STYLE
  5
200
100
AcDbSymbolTableRecord
100
AcDbTextStyleTableRecord
  2
TEXTSTYLE_1
 70
0
 40
0.0
 41
0.8
 50
0.0
 71
0
 42
0.2
  3
gdt
  4

  0
ENDTAB
  0
TABLE
  2
VIEW
  5
6
100
AcDbSymbolTable
 70
0
  0
ENDTAB
  0
TABLE
  2
UCS
  5
7
100
AcDbSymbolTable
 70
0
  0
ENDTAB
  0
TABLE
  2
APPID
  5
9
100
AcDbSymbolTable
 70
1
  0
APPID
  5
201
100
AcDbSymbolTableRecord
100
AcDbRegAppTableRecord
  2
ACAD
 70
0
  0
ENDTAB
  0
TABLE
  2
BLOCK_RECORD
  5
1
100
AcDbSymbolTable
 70
0
  0
BLOCK_RECORD
  5
202
100
AcDbSymbolTableRecord
100
AcDbBlockTableRecord
  2
*Model_Space
  0
BLOCK_RECORD
  5
203
100
AcDbSymbolTableRecord
100
AcDbBlockTableRecord
  2
*Paper_Space
  0
BLOCK_RECORD
  5
204
100
AcDbSymbolTableRecord
100
AcDbBlockTableRecord
  2
_FILLED
  0
ENDTAB
  0
TABLE
  2
DIMSTYLE
  5
A
100
AcDbSymbolTable
 70
1
100
AcDbDimStyleTable
 71
0
  0
DIMSTYLE
105
205
100
AcDbSymbolTableRecord
100
AcDbDimStyleTableRecord
  2
STANDARD
 70
0
  3

  4

 40
1.0
 41
0.1
 42
0.0625
 43
0.38
 44
0.125
 45
0.0
 46
0.0
 47
0.001
 48
0.001
140
0.08
141
0.09
142
0.0
143
25.4
144
1.0
145
0.0
146
1.0
147
0.09
 71
1.0
 72
0.0
 73
1
 74
1
 75
0
 76
0
 77
0
 78
4
 79
1
170
1
171
2
172
0
173
0
174
0
175
0
176
0
177
0
178
0
270
2
179
3
271
3
272
3
273
2
274
2
275
0
280
0
281
0
282
0
283
1
284
4
285
0
286
0
287
3
288
0
340
11
278
46
341
204
342
204
343
204
344
204
  0
ENDTAB
  0
ENDSEC
  0
SECTION
  2
BLOCKS
  0
BLOCK
  5
20
100
AcDbEntity
  8
0
100
AcDbBlockBegin
  2
*Model_Space
 70
0
 10
0.0
 20
0.0
 30
0.0
  3
*Model_Space
  1

  0
ENDBLK
  5
21
100
AcDbEntity
  8
0
100
AcDbBlockEnd
  0
BLOCK
  5
1C
100
AcDbEntity
  8
0
100
AcDbBlockBegin
  2
*Paper_Space
 70
0
 10
0.0
 20
0.0
 30
0.0
  3
*Paper_Space
  1

  0
ENDBLK
  5
1D
100
AcDbEntity
  8
0
100
AcDbBlockEnd
  0
BLOCK
  5
206
100
AcDbEntity
  8
0
100
AcDbBlockBegin
  2
_FILLED
 70
64
 10
0.0
 20
0.0
  3
_FILLED
  1

  0
SOLID
  5
207
100
AcDbEntity
  8
0
  6
BYBLOCK
 62
0
100
AcDbTrace
 10
0.0
 20
0.0
 11
-1.0
 21
0.2
 12
-1.0
 22
-0.2
 13
-1.0
 23
-0.2
  0
ENDBLK
  5
208
100
AcDbEntity
  8
0
  6
BYBLOCK
 62
0
100
AcDbBlockEnd
  0
ENDSEC
  0
SECTION
  2
ENTITIES
  0
LINE
  5
209
100
AcDbEntity
  8
0
100
AcDbLine
 62
9
  6
CONTINUOUS
 10
4.1287567977
 20
9.656746723
 11
4.1289003272
 21
9.6391286736
  0
LINE
  5
20A
100
AcDbEntity
  8
0
100
AcDbLine
 62
7
  6
CONTINUOUS
 10
4.0876927857
 20
9.2479155212
 11
4.0876923427
 21
9.6167563897
  0
LINE
  5
20B
100
AcDbEntity
  8
0
100
AcDbLine
 62
9
  6
CONTINUOUS
 10
4.1290949877
 20
9.2651768266
 11
4.1290948971
 21
9.5994956007
  0
LINE
  5
20C
100
AcDbEntity
  8
0
100
AcDbLine
 62
9
  6
CONTINUOUS
 10
4.1278603787
 20
9.2255258907
 11
4.127707006
 21
9.2079155015
  0
LINE
  5
20D
100
AcDbEntity
  8
0
100
AcDbLine
 62
7
  6
CONTINUOUS
 10
5.6876923427
 20
6.9474981479
 11
5.6876923427
 21
7.0974981479
  0
LINE
  5
20E
100
AcDbEntity
  8
0
100
AcDbLine
 62
7
  6
CONTINUOUS
 10
5.6877109272
 20
7.4224981479
 11
5.6877109272
 21
7.3474981479
  0
LINE
  5
20F
100
AcDbEntity
  8
0
100
AcDbLine
 62
7
  6
CONTINUOUS
 10
5.6882344994
 20
7.3474981479
 11
5.6882344994
 21
7.4224981479
  0
LINE
  5
210
100
AcDbEntity
  8
0
100
AcDbLine
 62
7
  6
CONTINUOUS
 10
5.6887102648
 20
7.4224981479
 11
5.6887102648
 21
7.3474981479
  0
LINE
  5
211
100
AcDbEntity
  8
0
100
AcDbLine
 62
7
  6
CONTINUOUS
 10
5.6902803435
 20
7.3474981479
 11
5.6902803435
 21
7.4224981479
  0
LINE
  5
212
100
AcDbEntity
  8
0
100
AcDbLine
 62
7
  6
CONTINUOUS
 10
5.6912312947
 20
7.4224981479
 11
5.6912312947
 21
7.3474981479
  0
LINE
  5
213
100
AcDbEntity
  8
0
100
AcDbLine
 62
7
  6
CONTINUOUS
 10
5.693845967
 20
7.3474981479
 11
5.693845967
 21
7.4224981479
  0
LINE
  5
214
100
AcDbEntity
  8
0
100
AcDbLine
 62
7
  6
CONTINUOUS
 10
5.6952709454
 20
7.4224981479
 11
5.6952709454
 21
7.3474981479
  0
LINE
  5
215
100
AcDbEntity
  8
0
100
AcDbLine
 62
7
  6
CONTINUOUS
 10
5.6989270257
 20
7.3474981479
 11
5.6989270257
 21
7.4224981479
  0
LINE
  5
216
100
AcDbEntity
  8
0
100
AcDbLine
 62
7
  6
CONTINUOUS
 10
5.7008242952
 20
7.4224981479
 11
5.7008242952
 21
7.3474981479
  0
LINE
  5
217
100
AcDbEntity
  8
0
100
AcDbLine
 62
7
  6
CONTINUOUS
 10
5.7055173291
 20
7.3474981479
 11
5.7055173291
 21
7.4224981479
  0
LINE
  5
218
100
AcDbEntity
  8
0
100
AcDbLine
 62
7
  6
CONTINUOUS
 10
5.7078845781
 20
7.4224981479
 11
5.7078845781
 21
7.3474981479
  0
LINE
  5
219
100
AcDbEntity
  8
0
100
AcDbLine
 62
7
  6
CONTINUOUS
 10
5.713608848
 20
7.3474981479
 11
5.713608848
 21
7.4224981479
  0
LINE
  5
21A
100
AcDbEntity
  8
0
100
AcDbLine
 62
7
  6
CONTINUOUS
 10
5.7164431924
 20
7.4224981479
 11
5.7164431924
 21
7.3474981479
  0
LINE
  5
21B
100
AcDbEntity
  8
0
100
AcDbLine
 62
7
  6
CONTINUOUS
 10
5.723191724
 20
7.3474981479
 11
5.723191724
 21
7.4224981479
  0
LINE
  5
21C
100
AcDbEntity
  8
0
100
AcDbLine
 62
7
  6
CONTINUOUS
 10
5.7264897107
 20
7.4224981479
 11
5.7264897107
 21
7.3474981479
  0
LINE
  5
21D
100
AcDbEntity
  8
0
100
AcDbLine
 62
7
  6
CONTINUOUS
 10
5.734254282
 20
7.3474981479
 11
5.734254282
 21
7.4224981479
  0
LINE
  5
21E
100
AcDbEntity
  8
0
100
AcDbLine
 62
7
  6
CONTINUOUS
 10
5.7376923427
 20
7.1474981479
 11
5.7376923427
 21
7.3474981479
  0
LINE
  5
21F
100
AcDbEntity
  8
0
100
AcDbLine
 62
7
  6
CONTINUOUS
 10
5.7380118927
 20
7.4224981479
 11
5.7380118927
 21
7.3474981479
  0
LINE
  5
220
100
AcDbEntity
  8
0
100
AcDbLine
 62
7
  6
CONTINUOUS
 10
5.7467830439
 20
7.3474981479
 11
5.7467830439
 21
7.4224981479
  0
LINE
  5
221
100
AcDbEntity
  8
0
100
AcDbLine
 62
7
  6
CONTINUOUS
 10
5.7509957007
 20
7.4224981479
 11
5.7509957007
 21
7.3474981479
  0
LINE
  5
222
100
AcDbEntity
  8
0
100
AcDbLine
 62
7
  6
CONTINUOUS
 10
5.7607627453
 20
7.3474981479
 11
5.7607627453
 21
7.4224981479
  0
LINE
  5
223
100
AcDbEntity
  8
0
100
AcDbLine
 62
7
  6
CONTINUOUS
 10
5.7654253156
 20
7.4224981479
 11
5.7654253156
 21
7.3474981479
  0
LINE
  5
224
100
AcDbEntity
  8
0
100
AcDbLine
 62
7
  6
CONTINUOUS
 10
5.7761763541
 20
7.3474981479
 11
5.7761763541
 21
7.4224981479
  0
LINE
  5
225
100
AcDbEntity
  8
0
100
AcDbLine
 62
7
  6
CONTINUOUS
 10
5.7812831574
 20
7.4224981479
 11
5.7812831574
 21
7.3474981479
  0
LINE
  5
226
100
AcDbEntity
  8
0
100
AcDbLine
 62
7
  6
CONTINUOUS
 10
5.7930050913
 20
7.3474981479
 11
5.7930050913
 21
7.4224981479
  0
LINE
  5
227
100
AcDbEntity
  8
0
100
AcDbLine
 62
7
  6
CONTINUOUS
 10
5.7985499057
 20
7.4224981479
 11
5.7985499057
 21
7.3474981479
  0
LINE
  5
228
100
AcDbEntity
  8
0
100
AcDbLine
 62
7
  6
CONTINUOUS
 10
5.8112284535
 20
7.3474981479
 11
5.8112284535
 21
7.4224981479
  0
LINE
  5
229
100
AcDbEntity
  8
0
100
AcDbLine
 62
7
  6
CONTINUOUS
 10
5.8172045235
 20
7.4224981479
 11
5.8172045235
 21
7.3474981479
  0
LINE
  5
22A
100
AcDbEntity
  8
0
100
AcDbLine
 62
7
  6
CONTINUOUS
 10
5.8308242385
 20
7.3474981479
 11
5.8308242385
 21
7.4224981479
  0
LINE
  5
22B
100
AcDbEntity
  8
0
100
AcDbLine
 62
7
  6
CONTINUOUS
 10
5.8372242831
 20
7.4224981479
 11
5.8372242831
 21
7.3474981479
  0
LINE
  5
22C
100
AcDbEntity
  8
0
100
AcDbLine
 62
7
  6
CONTINUOUS
 10
5.8517685717
 20
7.3474981479
 11
5.8517685717
 21
7.4224981479
  0
LINE
  5
22D
100
AcDbEntity
  8
0
100
AcDbLine
 62
7
  6
CONTINUOUS
 10
5.8585847936
 20
7.4224981479
 11
5.8585847936
 21
7.3474981479
  0
LINE
  5
22E
100
AcDbEntity
  8
0
100
AcDbLine
 62
7
  6
CONTINUOUS
 10
5.8740359358
 20
7.3474981479
 11
5.8740359358
 21
7.4224981479
  0
LINE
  5
22F
100
AcDbEntity
  8
0
100
AcDbLine
 62
7
  6
CONTINUOUS
 10
5.8812600303
 20
7.4224981479
 11
5.8812600303
 21
7.3474981479
  0
LINE
  5
230
100
AcDbEntity
  8
0
100
AcDbLine
 62
7
  6
CONTINUOUS
 10
5.8975992014
 20
7.3474981479
 11
5.8975992014
 21
7.4224981479
  0
LINE
  5
231
100
AcDbEntity
  8
0
100
AcDbLine
 62
7
  6
CONTINUOUS
 10
5.9052223672
 20
7.4224981479
 11
5.9052223672
 21
7.3474981479
  0
LINE
  5
232
100
AcDbEntity
  8
0
100
AcDbLine
 62
7
  6
CONTINUOUS
 10
5.9126923427
 20
8.3224981479
 11
5.9126923427
 21
8.5224981479
  0
LINE
  5
233
100
AcDbEntity
  8
0
100
AcDbLine
 62
7
  6
CONTINUOUS
 10
5.9224296603
 20
7.3474981479
 11
5.9224296603
 21
7.4224981479
  0
LINE
  5
234
100
AcDbEntity
  8
0
100
AcDbLine
 62
7
  6
CONTINUOUS
 10
5.9304426096
 20
7.4224981479
 11
5.9304426096
 21
7.3474981479
  0
LINE
  5
235
100
AcDbEntity
  8
0
100
AcDbLine
 62
7
  6
CONTINUOUS
 10
5.9484970603
 20
7.3474981479
 11
5.9484970603
 21
7.4224981479
  0
LINE
  5
236
100
AcDbEntity
  8
0
100
AcDbLine
 62
7
  6
CONTINUOUS
 10
5.9568900307
 20
7.4224981479
 11
5.9568900307
 21
7.3474981479
  0
LINE
  5
237
100
AcDbEntity
  8
0
100
AcDbLine
 62
7
  6
CONTINUOUS
 10
5.9757696424
 20
7.3474981479
 11
5.9757696424
 21
7.4224981479
  0
LINE
  5
238
100
AcDbEntity
  8
0
100
AcDbLine
 62
7
  6
CONTINUOUS
 10
5.9845324083
 20
7.4224981479
 11
5.9845324083
 21
7.3474981479
  0
LINE
  5
239
100
AcDbEntity
  8
0
100
AcDbLine
 62
7
  6
CONTINUOUS
 10
5.9876923427
 20
8.2224981479
 11
5.9876923427
 21
8.3224981479
  0
LINE
  5
23A
100
AcDbEntity
  8
0
100
AcDbLine
 62
7
  6
CONTINUOUS
 10
5.9876923427
 20
8.5224981479
 11
5.9876923427
 21
8.5724981479
  0
LINE
  5
23B
100
AcDbEntity
  8
0
100
AcDbLine
 62
7
  6
CONTINUOUS
 10
6.0042141792
 20
7.3474981479
 11
6.0042141792
 21
7.4224981479
  0
LINE
  5
23C
100
AcDbEntity
  8
0
100
AcDbLine
 62
7
  6
CONTINUOUS
 10
6.0133360645
 20
7.4224981479
 11
6.0133360645
 21
7.3474981479
  0
LINE
  5
23D
100
AcDbEntity
  8
0
100
AcDbLine
 62
7
  6
CONTINUOUS
 10
6.0337960153
 20
7.3474981479
 11
6.0337960153
 21
7.4224981479
  0
LINE
  5
23E
100
AcDbEntity
  8
0
100
AcDbLine
 62
7
  6
CONTINUOUS
 10
6.0432659064
 20
7.4224981479
 11
6.0432659064
 21
7.3474981479
  0
LINE
  5
23F
100
AcDbEntity
  8
0
100
AcDbLine
 62
7
  6
CONTINUOUS
 10
6.0626923427
 20
7.6224981479
 11
6.0626923427
 21
8.1474981479
  0
LINE
  5
240
100
AcDbEntity
  8
0
100
AcDbLine
 62
7
  6
CONTINUOUS
 10
6.0644791099
 20
7.3474981479
 11
6.0644791099
 21
7.4224981479
  0
LINE
  5
241
100
AcDbEntity
  8
0
100
AcDbLine
 62
7
  6
CONTINUOUS
 10
6.0742854692
 20
7.4224981479
 11
6.0742854692
 21
7.3474981479
  0
LINE
  5
242
100
AcDbEntity
  8
0
100
AcDbLine
 62
7
  6
CONTINUOUS
 10
6.0954857501
 20
7.3474981479
 11
6.0954857501
 21
7.4224981479
  0
LINE
  5
243
100
AcDbEntity
  8
0
100
AcDbLine
 62
7
  6
CONTINUOUS
 10
6.0962260802
 20
7.3474981479
 11
6.0962260802
 21
7.4224981479
  0
LINE
  5
244
100
AcDbEntity
  8
0
100
AcDbLine
 62
7
  6
CONTINUOUS
 10
6.1063569602
 20
7.4224981479
 11
6.1063569602
 21
7.3474981479
  0
LINE
  5
245
100
AcDbEntity
  8
0
100
AcDbLine
 62
7
  6
CONTINUOUS
 10
6.1275184894
 20
7.3474981479
 11
6.1275184894
 21
7.4224981479
  0
LINE
  5
246
100
AcDbEntity
  8
0
100
AcDbLine
 62
7
  6
CONTINUOUS
 10
6.1289982476
 20
7.3474981479
 11
6.1289982476
 21
7.4224981479
  0
LINE
  5
247
100
AcDbEntity
  8
0
100
AcDbLine
 62
7
  6
CONTINUOUS
 10
6.1394413054
 20
7.4224981479
 11
6.1394413054
 21
7.3474981479
  0
LINE
  5
248
100
AcDbEntity
  8
0
100
AcDbLine
 62
7
  6
CONTINUOUS
 10
6.1605383007
 20
7.3474981479
 11
6.1605383007
 21
7.4224981479
  0
LINE
  5
249
100
AcDbEntity
  8
0
100
AcDbLine
 62
7
  6
CONTINUOUS
 10
6.1627556842
 20
7.3474981479
 11
6.1627556842
 21
7.4224981479
  0
LINE
  5
24A
100
AcDbEntity
  8
0
100
AcDbLine
 62
7
  6
CONTINUOUS
 10
6.1734981964
 20
7.4224981479
 11
6.1734981964
 21
7.3474981479
  0
LINE
  5
24B
100
AcDbEntity
  8
0
100
AcDbLine
 62
7
  6
CONTINUOUS
 10
6.5366688606
 20
9.1752147968
 11
6.5376923251
 21
9.1654981479
  0
LINE
  5
24C
100
AcDbEntity
  8
0
100
AcDbLine
 62
7
  6
CONTINUOUS
 10
6.1876923427
 20
8.6724981479
 11
6.1876923427
 21
8.7224981479
  0
LINE
  5
24D
100
AcDbEntity
  8
0
100
AcDbLine
 62
7
  6
CONTINUOUS
 10
6.1945049544
 20
7.3474981479
 11
6.1945049544
 21
7.4224981479
  0
LINE
  5
24E
100
AcDbEntity
  8
0
100
AcDbLine
 62
7
  6
CONTINUOUS
 10
6.1974572618
 20
7.3474981479
 11
6.1974572618
 21
7.4224981479
  0
LINE
  5
24F
100
AcDbEntity
  8
0
100
AcDbLine
 62
7
  6
CONTINUOUS
 10
6.2084861404
 20
7.4224981479
 11
6.2084861404
 21
7.3474981479
  0
LINE
  5
250
100
AcDbEntity
  8
0
100
AcDbLine
 62
7
  6
CONTINUOUS
 10
6.2293770676
 20
7.3474981479
 11
6.2293770676
 21
7.4224981479
  0
LINE
  5
251
100
AcDbEntity
  8
0
100
AcDbLine
 62
7
  6
CONTINUOUS
 10
6.2330607017
 20
7.3474981479
 11
6.2330607017
 21
7.4224981479
  0
LINE
  5
252
100
AcDbEntity
  8
0
100
AcDbLine
 62
7
  6
CONTINUOUS
 10
6.2443625097
 20
7.4224981479
 11
6.2443625097
 21
7.3474981479
  0
LINE
  5
253
100
AcDbEntity
  8
0
100
AcDbLine
 62
7
  6
CONTINUOUS
 10
6.2651121538
 20
7.3474981479
 11
6.2651121538
 21
7.4224981479
  0
LINE
  5
254
100
AcDbEntity
  8
0
100
AcDbLine
 62
7
  6
CONTINUOUS
 10
6.2695226268
 20
7.3474981479
 11
6.2695226268
 21
7.4224981479
  0
LINE
  5
255
100
AcDbEntity
  8
0
100
AcDbLine
 62
7
  6
CONTINUOUS
 10
6.2810835947
 20
7.4224981479
 11
6.2810835947
 21
7.3474981479
  0
LINE
  5
256
100
AcDbEntity
  8
0
100
AcDbLine
 62
7
  6
CONTINUOUS
 10
6.3016666753
 20
7.3474981479
 11
6.3016666753
 21
7.4224981479
  0
LINE
  5
257
100
AcDbEntity
  8
0
100
AcDbLine
 62
7
  6
CONTINUOUS
 10
6.3067986137
 20
7.3474981479
 11
6.3067986137
 21
7.4224981479
  0
LINE
  5
258
100
AcDbEntity
  8
0
100
AcDbLine
 62
7
  6
CONTINUOUS
 10
6.3186046563
 20
7.4224981479
 11
6.3186046563
 21
7.3474981479
  0
LINE
  5
259
100
AcDbEntity
  8
0
100
AcDbLine
 62
7
  6
CONTINUOUS
 10
6.3389960962
 20
7.3474981479
 11
6.3389960962
 21
7.4224981479
  0
LINE
  5
25A
100
AcDbEntity
  8
0
100
AcDbLine
 62
7
  6
CONTINUOUS
 10
6.3448432475
 20
7.3474981479
 11
6.3448432475
 21
7.4224981479
  0
LINE
  5
25B
100
AcDbEntity
  8
0
100
AcDbLine
 62
7
  6
CONTINUOUS
 10
6.3568799808
 20
7.4224981479
 11
6.3568799808
 21
7.3474981479
  0
LINE
  5
25C
100
AcDbEntity
  8
0
100
AcDbLine
 62
7
  6
CONTINUOUS
 10
6.3770549362
 20
7.3474981479
 11
6.3770549362
 21
7.4224981479
  0
LINE
  5
25D
100
AcDbEntity
  8
0
100
AcDbLine
 62
7
  6
CONTINUOUS
 10
6.3836101765
 20
7.3474981479
 11
6.3836101765
 21
7.4224981479
  0
LINE
  5
25E
100
AcDbEntity
  8
0
100
AcDbLine
 62
7
  6
CONTINUOUS
 10
6.3958629358
 20
7.4224981479
 11
6.3958629358
 21
7.3474981479
  0
LINE
  5
25F
100
AcDbEntity
  8
0
100
AcDbLine
 62
7
  6
CONTINUOUS
 10
6.4157968265
 20
7.3474981479
 11
6.4157968265
 21
7.4224981479
  0
LINE
  5
260
100
AcDbEntity
  8
0
100
AcDbLine
 62
7
  6
CONTINUOUS
 10
6.4230521694
 20
7.3474981479
 11
6.4230521694
 21
7.4224981479
  0
LINE
  5
261
100
AcDbEntity
  8
0
100
AcDbLine
 62
7
  6
CONTINUOUS
 10
6.4355060264
 20
7.4224981479
 11
6.4355060264
 21
7.3474981479
  0
LINE
  5
262
100
AcDbEntity
  8
0
100
AcDbLine
 62
7
  6
CONTINUOUS
 10
6.4551745661
 20
7.3474981479
 11
6.4551745661
 21
7.4224981479
  0
LINE
  5
263
100
AcDbEntity
  8
0
100
AcDbLine
 62
7
  6
CONTINUOUS
 10
6.463121172
 20
7.3474981479
 11
6.463121172
 21
7.4224981479
  0
LINE
  5
264
100
AcDbEntity
  8
0
100
AcDbLine
 62
7
  6
CONTINUOUS
 10
6.4757609537
 20
7.4224981479
 11
6.4757609537
 21
7.3474981479
  0
LINE
  5
265
100
AcDbEntity
  8
0
100
AcDbLine
 62
7
  6
CONTINUOUS
 10
6.4951401793
 20
7.3474981479
 11
6.4951401793
 21
7.4224981479
  0
LINE
  5
266
100
AcDbEntity
  8
0
100
AcDbLine
 62
7
  6
CONTINUOUS
 10
6.5037683665
 20
7.3474981479
 11
6.5037683665
 21
7.4224981479
  0
LINE
  5
267
100
AcDbEntity
  8
0
100
AcDbLine
 62
7
  6
CONTINUOUS
 10
6.5165786732
 20
7.4224981479
 11
6.5165786732
 21
7.3474981479
  0
LINE
  5
268
100
AcDbEntity
  8
0
100
AcDbLine
 62
7
  6
CONTINUOUS
 10
6.5356449742
 20
7.3474981479
 11
6.5356449742
 21
7.4224981479
  0
LINE
  5
269
100
AcDbEntity
  8
0
100
AcDbLine
 62
7
  6
CONTINUOUS
 10
6.5376923427
 20
9.6404981479
 11
6.5376923427
 21
9.638288633
  0
LINE
  5
26A
100
AcDbEntity
  8
0
100
AcDbLine
 62
7
  6
CONTINUOUS
 10
6.5376923427
 20
8.7224981479
 11
6.5376923427
 21
8.8224981479
  0
LINE
  5
26B
100
AcDbEntity
  8
0
100
AcDbLine
 62
7
  6
CONTINUOUS
 10
6.5449442305
 20
7.3474981479
 11
6.5449442305
 21
7.4224981479
  0
LINE
  5
26C
100
AcDbEntity
  8
0
100
AcDbLine
 62
7
  6
CONTINUOUS
 10
6.5579094549
 20
7.4224981479
 11
6.5579094549
 21
7.3474981479
  0
LINE
  5
26D
100
AcDbEntity
  8
0
100
AcDbLine
 62
9
  6
CONTINUOUS
 10
6.5680209816
 20
9.5448695578
 11
6.5680209816
 21
9.2568299991
  0
LINE
  5
26E
100
AcDbEntity
  8
0
100
AcDbLine
 62
7
  6
CONTINUOUS
 10
6.5766396018
 20
7.3474981479
 11
6.5766396018
 21
7.4224981479
  0
LINE
  5
26F
100
AcDbEntity
  8
0
100
AcDbLine
 62
7
  6
CONTINUOUS
 10
6.5865985976
 20
7.3474981479
 11
6.5865985976
 21
7.4224981479
  0
LINE
  5
270
100
AcDbEntity
  8
0
100
AcDbLine
 62
7
  6
CONTINUOUS
 10
6.5997029435
 20
7.4224981479
 11
6.5997029435
 21
7.3474981479
  0
LINE
  5
271
100
AcDbEntity
  8
0
100
AcDbLine
 62
9
  6
CONTINUOUS
 10
6.6144024231
 20
9.1812908837
 11
6.6144024231
 21
9.61933029
  0
LINE
  5
272
100
AcDbEntity
  8
0
100
AcDbLine
 62
7
  6
CONTINUOUS
 10
6.6180741166
 20
7.3474981479
 11
6.6180741166
 21
7.4224981479
  0
LINE
  5
273
100
AcDbEntity
  8
0
100
AcDbLine
 62
7
  6
CONTINUOUS
 10
6.6251923427
 20
9.1454981479
 11
6.6251923427
 21
8.8524981479
  0
LINE
  5
274
100
AcDbEntity
  8
0
100
AcDbLine
 62
7
  6
CONTINUOUS
 10
6.6286807183
 20
7.3474981479
 11
6.6286807183
 21
7.4224981479
  0
LINE
  5
275
100
AcDbEntity
  8
0
100
AcDbLine
 62
7
  6
CONTINUOUS
 10
6.6419082202
 20
7.4224981479
 11
6.6419082202
 21
7.3474981479
  0
LINE
  5
276
100
AcDbEntity
  8
0
100
AcDbLine
 62
7
  6
CONTINUOUS
 10
6.6598980369
 20
7.3474981479
 11
6.6598980369
 21
7.4224981479
  0
LINE
  5
277
100
AcDbEntity
  8
0
100
AcDbLine
 62
7
  6
CONTINUOUS
 10
6.6711393221
 20
7.3474981479
 11
6.6711393221
 21
7.4224981479
  0
LINE
  5
278
100
AcDbEntity
  8
0
100
AcDbLine
 62
7
  6
CONTINUOUS
 10
6.6751923427
 20
9.7654981479
 11
6.6751923427
 21
9.7354981479
  0
LINE
  5
279
100
AcDbEntity
  8
0
100
AcDbLine
 62
7
  6
CONTINUOUS
 10
6.6844738642
 20
7.4224981479
 11
6.6844738642
 21
7.3474981479
  0
LINE
  5
27A
100
AcDbEntity
  8
0
100
AcDbLine
 62
7
  6
CONTINUOUS
 10
6.7020604069
 20
7.3474981479
 11
6.7020604069
 21
7.4224981479
  0
LINE
  5
27B
100
AcDbEntity
  8
0
100
AcDbLine
 62
7
  6
CONTINUOUS
 10
6.7139226797
 20
7.3474981479
 11
6.7139226797
 21
7.4224981479
  0
LINE
  5
27C
100
AcDbEntity
  8
0
100
AcDbLine
 62
7
  6
CONTINUOUS
 10
6.7273480159
 20
7.4224981479
 11
6.7273480159
 21
7.3474981479
  0
LINE
  5
27D
100
AcDbEntity
  8
0
100
AcDbLine
 62
7
  6
CONTINUOUS
 10
6.7376923427
 20
8.8224981479
 11
6.7376923427
 21
8.8524981479
  0
LINE
  5
27E
100
AcDbEntity
  8
0
100
AcDbLine
 62
7
  6
CONTINUOUS
 10
6.744509858
 20
7.3474981479
 11
6.744509858
 21
7.4224981479
  0
LINE
  5
27F
100
AcDbEntity
  8
0
100
AcDbLine
 62
7
  6
CONTINUOUS
 10
6.7569786662
 20
7.3474981479
 11
6.7569786662
 21
7.4224981479
  0
LINE
  5
280
100
AcDbEntity
  8
0
100
AcDbLine
 62
7
  6
CONTINUOUS
 10
6.7704784398
 20
7.4224981479
 11
6.7704784398
 21
7.3474981479
  0
LINE
  5
281
100
AcDbEntity
  8
0
100
AcDbLine
 62
7
  6
CONTINUOUS
 10
6.7871946723
 20
7.3474981479
 11
6.7871946723
 21
7.4224981479
  0
LINE
  5
282
100
AcDbEntity
  8
0
100
AcDbLine
 62
7
  6
CONTINUOUS
 10
6.8002548244
 20
7.3474981479
 11
6.8002548244
 21
7.4224981479
  0
LINE
  5
283
100
AcDbEntity
  8
0
100
AcDbLine
 62
7
  6
CONTINUOUS
 10
6.8138125881
 20
7.4224981479
 11
6.8138125881
 21
7.3474981479
  0
LINE
  5
284
100
AcDbEntity
  8
0
100
AcDbLine
 62
7
  6
CONTINUOUS
 10
6.8300628447
 20
7.3474981479
 11
6.8300628447
 21
7.4224981479
  0
LINE
  5
285
100
AcDbEntity
  8
0
100
AcDbLine
 62
7
  6
CONTINUOUS
 10
6.8436984291
 20
7.3474981479
 11
6.8436984291
 21
7.4224981479
  0
LINE
  5
286
100
AcDbEntity
  8
0
100
AcDbLine
 62
7
  6
CONTINUOUS
 10
6.8572976648
 20
7.4224981479
 11
6.8572976648
 21
7.3474981479
  0
LINE
  5
287
100
AcDbEntity
  8
0
100
AcDbLine
 62
7
  6
CONTINUOUS
 10
6.8730621472
 20
7.3474981479
 11
6.8730621472
 21
7.4224981479
  0
LINE
  5
288
100
AcDbEntity
  8
0
100
AcDbLine
 62
7
  6
CONTINUOUS
 10
6.8872565509
 20
7.3474981479
 11
6.8872565509
 21
7.4224981479
  0
LINE
  5
289
100
AcDbEntity
  8
0
100
AcDbLine
 62
7
  6
CONTINUOUS
 10
6.90088069
 20
7.4224981479
 11
6.90088069
 21
7.3474981479
  0
LINE
  5
28A
100
AcDbEntity
  8
0
100
AcDbLine
 62
7
  6
CONTINUOUS
 10
6.9161401916
 20
7.3474981479
 11
6.9161401916
 21
7.4224981479
  0
LINE
  5
28B
100
AcDbEntity
  8
0
100
AcDbLine
 62
7
  6
CONTINUOUS
 10
6.9308761209
 20
7.3474981479
 11
6.9308761209
 21
7.4224981479
  0
LINE
  5
28C
100
AcDbEntity
  8
0
100
AcDbLine
 62
7
  6
CONTINUOUS
 10
6.9445085646
 20
7.4224981479
 11
6.9445085646
 21
7.3474981479
  0
LINE
  5
28D
100
AcDbEntity
  8
0
100
AcDbLine
 62
7
  6
CONTINUOUS
 10
6.9592444939
 20
7.3474981479
 11
6.9592444939
 21
7.4224981479
  0
LINE
  5
28E
100
AcDbEntity
  8
0
100
AcDbLine
 62
7
  6
CONTINUOUS
 10
6.9745039954
 20
7.3474981479
 11
6.9745039954
 21
7.4224981479
  0
LINE
  5
28F
100
AcDbEntity
  8
0
100
AcDbLine
 62
7
  6
CONTINUOUS
 10
6.9881281346
 20
7.4224981479
 11
6.9881281346
 21
7.3474981479
  0
LINE
  5
290
100
AcDbEntity
  8
0
100
AcDbLine
 62
7
  6
CONTINUOUS
 10
7.0023225383
 20
7.3474981479
 11
7.0023225383
 21
7.4224981479
  0
LINE
  5
291
100
AcDbEntity
  8
0
100
AcDbLine
 62
7
  6
CONTINUOUS
 10
7.0180870207
 20
7.3474981479
 11
7.0180870207
 21
7.4224981479
  0
LINE
  5
292
100
AcDbEntity
  8
0
100
AcDbLine
 62
7
  6
CONTINUOUS
 10
7.0316862564
 20
7.4224981479
 11
7.0316862564
 21
7.3474981479
  0
LINE
  5
293
100
AcDbEntity
  8
0
100
AcDbLine
 62
7
  6
CONTINUOUS
 10
7.0453218407
 20
7.3474981479
 11
7.0453218407
 21
7.4224981479
  0
LINE
  5
294
100
AcDbEntity
  8
0
100
AcDbLine
 62
7
  6
CONTINUOUS
 10
7.0615720973
 20
7.3474981479
 11
7.0615720973
 21
7.4224981479
  0
LINE
  5
295
100
AcDbEntity
  8
0
100
AcDbLine
 62
7
  6
CONTINUOUS
 10
7.0751298611
 20
7.4224981479
 11
7.0751298611
 21
7.3474981479
  0
LINE
  5
296
100
AcDbEntity
  8
0
100
AcDbLine
 62
7
  6
CONTINUOUS
 10
7.0881900132
 20
7.3474981479
 11
7.0881900132
 21
7.4224981479
  0
LINE
  5
297
100
AcDbEntity
  8
0
100
AcDbLine
 62
7
  6
CONTINUOUS
 10
7.1049062456
 20
7.3474981479
 11
7.1049062456
 21
7.4224981479
  0
LINE
  5
298
100
AcDbEntity
  8
0
100
AcDbLine
 62
7
  6
CONTINUOUS
 10
7.1184060193
 20
7.4224981479
 11
7.1184060193
 21
7.3474981479
  0
LINE
  5
299
100
AcDbEntity
  8
0
100
AcDbLine
 62
7
  6
CONTINUOUS
 10
7.1308748275
 20
7.3474981479
 11
7.1308748275
 21
7.4224981479
  0
LINE
  5
29A
100
AcDbEntity
  8
0
100
AcDbLine
 62
7
  6
CONTINUOUS
 10
7.1376923427
 20
8.8224981479
 11
7.1376923427
 21
8.8524981479
  0
LINE
  5
29B
100
AcDbEntity
  8
0
100
AcDbLine
 62
7
  6
CONTINUOUS
 10
6.0626923427
 20
8.1474981479
 11
5.9876923427
 21
8.2224981479
  0
LINE
  5
29C
100
AcDbEntity
  8
0
100
AcDbLine
 62
7
  6
CONTINUOUS
 10
6.5313141813
 20
9.1903437568
 11
6.5366688606
 21
9.1752147968
  0
LINE
  5
29D
100
AcDbEntity
  8
0
100
AcDbLine
 62
7
  6
CONTINUOUS
 10
7.1480366695
 20
7.3474981479
 11
7.1480366695
 21
7.4224981479
  0
LINE
  5
29E
100
AcDbEntity
  8
0
100
AcDbLine
 62
7
  6
CONTINUOUS
 10
7.1614620058
 20
7.4224981479
 11
7.1614620058
 21
7.3474981479
  0
LINE
  5
29F
100
AcDbEntity
  8
0
100
AcDbLine
 62
7
  6
CONTINUOUS
 10
7.1733242786
 20
7.3474981479
 11
7.1733242786
 21
7.4224981479
  0
LINE
  5
2A0
100
AcDbEntity
  8
0
100
AcDbLine
 62
7
  6
CONTINUOUS
 10
7.1909108213
 20
7.3474981479
 11
7.1909108213
 21
7.4224981479
  0
LINE
  5
2A1
100
AcDbEntity
  8
0
100
AcDbLine
 62
7
  6
CONTINUOUS
 10
7.2001923427
 20
9.7654981479
 11
7.2001923427
 21
9.7354981479
  0
LINE
  5
2A2
100
AcDbEntity
  8
0
100
AcDbLine
 62
7
  6
CONTINUOUS
 10
7.2042453634
 20
7.4224981479
 11
7.2042453634
 21
7.3474981479
  0
LINE
  5
2A3
100
AcDbEntity
  8
0
100
AcDbLine
 62
7
  6
CONTINUOUS
 10
7.2154866485
 20
7.3474981479
 11
7.2154866485
 21
7.4224981479
  0
LINE
  5
2A4
100
AcDbEntity
  8
0
100
AcDbLine
 62
7
  6
CONTINUOUS
 10
7.2334764653
 20
7.3474981479
 11
7.2334764653
 21
7.4224981479
  0
LINE
  5
2A5
100
AcDbEntity
  8
0
100
AcDbLine
 62
7
  6
CONTINUOUS
 10
7.2467039672
 20
7.4224981479
 11
7.2467039672
 21
7.3474981479
  0
LINE
  5
2A6
100
AcDbEntity
  8
0
100
AcDbLine
 62
7
  6
CONTINUOUS
 10
7.2501923427
 20
9.1454981479
 11
7.2501923427
 21
8.8524981479
  0
LINE
  5
2A7
100
AcDbEntity
  8
0
100
AcDbLine
 62
7
  6
CONTINUOUS
 10
7.2573105689
 20
7.3474981479
 11
7.2573105689
 21
7.4224981479
  0
LINE
  5
2A8
100
AcDbEntity
  8
0
100
AcDbLine
 62
7
  6
CONTINUOUS
 10
7.275681742
 20
7.3474981479
 11
7.275681742
 21
7.4224981479
  0
LINE
  5
2A9
100
AcDbEntity
  8
0
100
AcDbLine
 62
7
  6
CONTINUOUS
 10
7.2887860879
 20
7.4224981479
 11
7.2887860879
 21
7.3474981479
  0
LINE
  5
2AA
100
AcDbEntity
  8
0
100
AcDbLine
 62
7
  6
CONTINUOUS
 10
7.2987450837
 20
7.3474981479
 11
7.2987450837
 21
7.4224981479
  0
LINE
  5
2AB
100
AcDbEntity
  8
0
100
AcDbLine
 62
7
  6
CONTINUOUS
 10
7.3174752306
 20
7.3474981479
 11
7.3174752306
 21
7.4224981479
  0
LINE
  5
2AC
100
AcDbEntity
  8
0
100
AcDbLine
 62
7
  6
CONTINUOUS
 10
7.330440455
 20
7.4224981479
 11
7.330440455
 21
7.3474981479
  0
LINE
  5
2AD
100
AcDbEntity
  8
0
100
AcDbLine
 62
7
  6
CONTINUOUS
 10
7.3376923427
 20
9.6404981479
 11
7.3376923427
 21
9.1654981479
  0
LINE
  5
2AE
100
AcDbEntity
  8
0
100
AcDbLine
 62
7
  6
CONTINUOUS
 10
7.3376923427
 20
8.7224981479
 11
7.3376923427
 21
8.8224981479
  0
LINE
  5
2AF
100
AcDbEntity
  8
0
100
AcDbLine
 62
7
  6
CONTINUOUS
 10
7.3397397113
 20
7.3474981479
 11
7.3397397113
 21
7.4224981479
  0
LINE
  5
2B0
100
AcDbEntity
  8
0
100
AcDbLine
 62
7
  6
CONTINUOUS
 10
7.3588060123
 20
7.3474981479
 11
7.3588060123
 21
7.4224981479
  0
LINE
  5
2B1
100
AcDbEntity
  8
0
100
AcDbLine
 62
7
  6
CONTINUOUS
 10
7.371616319
 20
7.4224981479
 11
7.371616319
 21
7.3474981479
  0
LINE
  5
2B2
100
AcDbEntity
  8
0
100
AcDbLine
 62
7
  6
CONTINUOUS
 10
7.3802445061
 20
7.3474981479
 11
7.3802445061
 21
7.4224981479
  0
LINE
  5
2B3
100
AcDbEntity
  8
0
100
AcDbLine
 62
7
  6
CONTINUOUS
 10
7.3996237318
 20
7.3474981479
 11
7.3996237318
 21
7.4224981479
  0
LINE
  5
2B4
100
AcDbEntity
  8
0
100
AcDbLine
 62
7
  6
CONTINUOUS
 10
7.4122635135
 20
7.4224981479
 11
7.4122635135
 21
7.3474981479
  0
LINE
  5
2B5
100
AcDbEntity
  8
0
100
AcDbLine
 62
7
  6
CONTINUOUS
 10
7.4202101194
 20
7.3474981479
 11
7.4202101194
 21
7.4224981479
  0
LINE
  5
2B6
100
AcDbEntity
  8
0
100
AcDbLine
 62
7
  6
CONTINUOUS
 10
7.4398786591
 20
7.3474981479
 11
7.4398786591
 21
7.4224981479
  0
LINE
  5
2B7
100
AcDbEntity
  8
0
100
AcDbLine
 62
7
  6
CONTINUOUS
 10
7.4523325161
 20
7.4224981479
 11
7.4523325161
 21
7.3474981479
  0
LINE
  5
2B8
100
AcDbEntity
  8
0
100
AcDbLine
 62
7
  6
CONTINUOUS
 10
7.459587859
 20
7.3474981479
 11
7.459587859
 21
7.4224981479
  0
LINE
  5
2B9
100
AcDbEntity
  8
0
100
AcDbLine
 62
7
  6
CONTINUOUS
 10
7.4795217497
 20
7.3474981479
 11
7.4795217497
 21
7.4224981479
  0
LINE
  5
2BA
100
AcDbEntity
  8
0
100
AcDbLine
 62
7
  6
CONTINUOUS
 10
7.4917745089
 20
7.4224981479
 11
7.4917745089
 21
7.3474981479
  0
LINE
  5
2BB
100
AcDbEntity
  8
0
100
AcDbLine
 62
7
  6
CONTINUOUS
 10
7.4983297493
 20
7.3474981479
 11
7.4983297493
 21
7.4224981479
  0
LINE
  5
2BC
100
AcDbEntity
  8
0
100
AcDbLine
 62
7
  6
CONTINUOUS
 10
7.5185047047
 20
7.3474981479
 11
7.5185047047
 21
7.4224981479
  0
LINE
  5
2BD
100
AcDbEntity
  8
0
100
AcDbLine
 62
7
  6
CONTINUOUS
 10
7.530541438
 20
7.4224981479
 11
7.530541438
 21
7.3474981479
  0
LINE
  5
2BE
100
AcDbEntity
  8
0
100
AcDbLine
 62
7
  6
CONTINUOUS
 10
7.5363885893
 20
7.3474981479
 11
7.5363885893
 21
7.4224981479
  0
LINE
  5
2BF
100
AcDbEntity
  8
0
100
AcDbLine
 62
7
  6
CONTINUOUS
 10
7.5567800292
 20
7.3474981479
 11
7.5567800292
 21
7.4224981479
  0
LINE
  5
2C0
100
AcDbEntity
  8
0
100
AcDbLine
 62
7
  6
CONTINUOUS
 10
7.5685860718
 20
7.4224981479
 11
7.5685860718
 21
7.3474981479
  0
LINE
  5
2C1
100
AcDbEntity
  8
0
100
AcDbLine
 62
7
  6
CONTINUOUS
 10
7.5737180102
 20
7.3474981479
 11
7.5737180102
 21
7.4224981479
  0
LINE
  5
2C2
100
AcDbEntity
  8
0
100
AcDbLine
 62
7
  6
CONTINUOUS
 10
7.5943010908
 20
7.3474981479
 11
7.5943010908
 21
7.4224981479
  0
LINE
  5
2C3
100
AcDbEntity
  8
0
100
AcDbLine
 62
7
  6
CONTINUOUS
 10
7.6058620587
 20
7.4224981479
 11
7.6058620587
 21
7.3474981479
  0
LINE
  5
2C4
100
AcDbEntity
  8
0
100
AcDbLine
 62
7
  6
CONTINUOUS
 10
7.6102725317
 20
7.3474981479
 11
7.6102725317
 21
7.4224981479
  0
LINE
  5
2C5
100
AcDbEntity
  8
0
100
AcDbLine
 62
7
  6
CONTINUOUS
 10
8.1876923427
 20
7.0974981479
 11
8.1376923427
 21
7.1474981479
  0
LINE
  5
2C6
100
AcDbEntity
  8
0
100
AcDbLine
 62
7
  6
CONTINUOUS
 10
6.5225131315
 20
9.2025677698
 11
6.5313141813
 21
9.1903437568
  0
LINE
  5
2C7
100
AcDbEntity
  8
0
100
AcDbLine
 62
7
  6
CONTINUOUS
 10
7.6310221757
 20
7.3474981479
 11
7.6310221757
 21
7.4224981479
  0
LINE
  5
2C8
100
AcDbEntity
  8
0
100
AcDbLine
 62
7
  6
CONTINUOUS
 10
7.6423239838
 20
7.4224981479
 11
7.6423239838
 21
7.3474981479
  0
LINE
  5
2C9
100
AcDbEntity
  8
0
100
AcDbLine
 62
7
  6
CONTINUOUS
 10
7.6460076179
 20
7.3474981479
 11
7.6460076179
 21
7.4224981479
  0
LINE
  5
2CA
100
AcDbEntity
  8
0
100
AcDbLine
 62
7
  6
CONTINUOUS
 10
7.6668985451
 20
7.3474981479
 11
7.6668985451
 21
7.4224981479
  0
LINE
  5
2CB
100
AcDbEntity
  8
0
100
AcDbLine
 62
7
  6
CONTINUOUS
 10
7.6779274237
 20
7.4224981479
 11
7.6779274237
 21
7.3474981479
  0
LINE
  5
2CC
100
AcDbEntity
  8
0
100
AcDbLine
 62
7
  6
CONTINUOUS
 10
7.680879731
 20
7.3474981479
 11
7.680879731
 21
7.4224981479
  0
LINE
  5
2CD
100
AcDbEntity
  8
0
100
AcDbLine
 62
7
  6
CONTINUOUS
 10
7.6876923427
 20
8.6724981479
 11
7.6876923427
 21
8.7224981479
  0
LINE
  5
2CE
100
AcDbEntity
  8
0
100
AcDbLine
 62
7
  6
CONTINUOUS
 10
7.701886489
 20
7.3474981479
 11
7.701886489
 21
7.4224981479
  0
LINE
  5
2CF
100
AcDbEntity
  8
0
100
AcDbLine
 62
7
  6
CONTINUOUS
 10
7.7126290013
 20
7.4224981479
 11
7.7126290013
 21
7.3474981479
  0
LINE
  5
2D0
100
AcDbEntity
  8
0
100
AcDbLine
 62
7
  6
CONTINUOUS
 10
7.7148463848
 20
7.3474981479
 11
7.7148463848
 21
7.4224981479
  0
LINE
  5
2D1
100
AcDbEntity
  8
0
100
AcDbLine
 62
7
  6
CONTINUOUS
 10
7.7359433801
 20
7.3474981479
 11
7.7359433801
 21
7.4224981479
  0
LINE
  5
2D2
100
AcDbEntity
  8
0
100
AcDbLine
 62
7
  6
CONTINUOUS
 10
7.7463864378
 20
7.4224981479
 11
7.7463864378
 21
7.3474981479
  0
LINE
  5
2D3
100
AcDbEntity
  8
0
100
AcDbLine
 62
7
  6
CONTINUOUS
 10
7.7478661961
 20
7.3474981479
 11
7.7478661961
 21
7.4224981479
  0
LINE
  5
2D4
100
AcDbEntity
  8
0
100
AcDbLine
 62
7
  6
CONTINUOUS
 10
7.7690277252
 20
7.3474981479
 11
7.7690277252
 21
7.4224981479
  0
LINE
  5
2D5
100
AcDbEntity
  8
0
100
AcDbLine
 62
7
  6
CONTINUOUS
 10
7.7791586052
 20
7.4224981479
 11
7.7791586052
 21
7.3474981479
  0
LINE
  5
2D6
100
AcDbEntity
  8
0
100
AcDbLine
 62
7
  6
CONTINUOUS
 10
7.7798989354
 20
7.3474981479
 11
7.7798989354
 21
7.4224981479
  0
LINE
  5
2D7
100
AcDbEntity
  8
0
100
AcDbLine
 62
7
  6
CONTINUOUS
 10
7.8010992163
 20
7.3474981479
 11
7.8010992163
 21
7.4224981479
  0
LINE
  5
2D8
100
AcDbEntity
  8
0
100
AcDbLine
 62
7
  6
CONTINUOUS
 10
7.8109055756
 20
7.4224981479
 11
7.8109055756
 21
7.3474981479
  0
LINE
  5
2D9
100
AcDbEntity
  8
0
100
AcDbLine
 62
7
  6
CONTINUOUS
 10
7.8126923427
 20
7.6224981479
 11
7.8126923427
 21
8.1474981479
  0
LINE
  5
2DA
100
AcDbEntity
  8
0
100
AcDbLine
 62
7
  6
CONTINUOUS
 10
7.832118779
 20
7.3474981479
 11
7.832118779
 21
7.4224981479
  0
LINE
  5
2DB
100
AcDbEntity
  8
0
100
AcDbLine
 62
7
  6
CONTINUOUS
 10
7.8415886702
 20
7.4224981479
 11
7.8415886702
 21
7.3474981479
  0
LINE
  5
2DC
100
AcDbEntity
  8
0
100
AcDbLine
 62
7
  6
CONTINUOUS
 10
7.862048621
 20
7.3474981479
 11
7.862048621
 21
7.4224981479
  0
LINE
  5
2DD
100
AcDbEntity
  8
0
100
AcDbLine
 62
7
  6
CONTINUOUS
 10
7.8711705063
 20
7.4224981479
 11
7.8711705063
 21
7.3474981479
  0
LINE
  5
2DE
100
AcDbEntity
  8
0
100
AcDbLine
 62
7
  6
CONTINUOUS
 10
7.8876923427
 20
8.2224981479
 11
7.8876923427
 21
8.3224981479
  0
LINE
  5
2DF
100
AcDbEntity
  8
0
100
AcDbLine
 62
7
  6
CONTINUOUS
 10
7.8876923427
 20
8.5224981479
 11
7.8876923427
 21
8.5724981479
  0
LINE
  5
2E0
100
AcDbEntity
  8
0
100
AcDbLine
 62
7
  6
CONTINUOUS
 10
7.8908522771
 20
7.3474981479
 11
7.8908522771
 21
7.4224981479
  0
LINE
  5
2E1
100
AcDbEntity
  8
0
100
AcDbLine
 62
7
  6
CONTINUOUS
 10
7.899615043
 20
7.4224981479
 11
7.899615043
 21
7.3474981479
  0
LINE
  5
2E2
100
AcDbEntity
  8
0
100
AcDbLine
 62
7
  6
CONTINUOUS
 10
7.9184946548
 20
7.3474981479
 11
7.9184946548
 21
7.4224981479
  0
LINE
  5
2E3
100
AcDbEntity
  8
0
100
AcDbLine
 62
7
  6
CONTINUOUS
 10
7.9268876252
 20
7.4224981479
 11
7.9268876252
 21
7.3474981479
  0
LINE
  5
2E4
100
AcDbEntity
  8
0
100
AcDbLine
 62
7
  6
CONTINUOUS
 10
7.9449420759
 20
7.3474981479
 11
7.9449420759
 21
7.4224981479
  0
LINE
  5
2E5
100
AcDbEntity
  8
0
100
AcDbLine
 62
7
  6
CONTINUOUS
 10
7.9529550252
 20
7.4224981479
 11
7.9529550252
 21
7.3474981479
  0
LINE
  5
2E6
100
AcDbEntity
  8
0
100
AcDbLine
 62
7
  6
CONTINUOUS
 10
7.9626923427
 20
8.3224981479
 11
7.9626923427
 21
8.5224981479
  0
LINE
  5
2E7
100
AcDbEntity
  8
0
100
AcDbLine
 62
7
  6
CONTINUOUS
 10
7.9701623183
 20
7.3474981479
 11
7.9701623183
 21
7.4224981479
  0
LINE
  5
2E8
100
AcDbEntity
  8
0
100
AcDbLine
 62
7
  6
CONTINUOUS
 10
7.9777854841
 20
7.4224981479
 11
7.9777854841
 21
7.3474981479
  0
LINE
  5
2E9
100
AcDbEntity
  8
0
100
AcDbLine
 62
7
  6
CONTINUOUS
 10
7.9941246551
 20
7.3474981479
 11
7.9941246551
 21
7.4224981479
  0
LINE
  5
2EA
100
AcDbEntity
  8
0
100
AcDbLine
 62
7
  6
CONTINUOUS
 10
8.0013487497
 20
7.4224981479
 11
8.0013487497
 21
7.3474981479
  0
LINE
  5
2EB
100
AcDbEntity
  8
0
100
AcDbLine
 62
7
  6
CONTINUOUS
 10
8.0167998919
 20
7.3474981479
 11
8.0167998919
 21
7.4224981479
  0
LINE
  5
2EC
100
AcDbEntity
  8
0
100
AcDbLine
 62
7
  6
CONTINUOUS
 10
8.0236161138
 20
7.4224981479
 11
8.0236161138
 21
7.3474981479
  0
LINE
  5
2ED
100
AcDbEntity
  8
0
100
AcDbLine
 62
7
  6
CONTINUOUS
 10
8.0381604024
 20
7.3474981479
 11
8.0381604024
 21
7.4224981479
  0
LINE
  5
2EE
100
AcDbEntity
  8
0
100
AcDbLine
 62
7
  6
CONTINUOUS
 10
8.044560447
 20
7.4224981479
 11
8.044560447
 21
7.3474981479
  0
LINE
  5
2EF
100
AcDbEntity
  8
0
100
AcDbLine
 62
7
  6
CONTINUOUS
 10
8.058180162
 20
7.3474981479
 11
8.058180162
 21
7.4224981479
  0
LINE
  5
2F0
100
AcDbEntity
  8
0
100
AcDbLine
 62
7
  6
CONTINUOUS
 10
8.064156232
 20
7.4224981479
 11
8.064156232
 21
7.3474981479
  0
LINE
  5
2F1
100
AcDbEntity
  8
0
100
AcDbLine
 62
7
  6
CONTINUOUS
 10
8.0768347798
 20
7.3474981479
 11
8.0768347798
 21
7.4224981479
  0
LINE
  5
2F2
100
AcDbEntity
  8
0
100
AcDbLine
 62
7
  6
CONTINUOUS
 10
8.0823795942
 20
7.4224981479
 11
8.0823795942
 21
7.3474981479
  0
LINE
  5
2F3
100
AcDbEntity
  8
0
100
AcDbLine
 62
7
  6
CONTINUOUS
 10
8.0941015281
 20
7.3474981479
 11
8.0941015281
 21
7.4224981479
  0
LINE
  5
2F4
100
AcDbEntity
  8
0
100
AcDbLine
 62
7
  6
CONTINUOUS
 10
8.0992083314
 20
7.4224981479
 11
8.0992083314
 21
7.3474981479
  0
LINE
  5
2F5
100
AcDbEntity
  8
0
100
AcDbLine
 62
7
  6
CONTINUOUS
 10
6.5115343472
 20
9.2114575491
 11
6.5225235083
 21
9.2025533572
  0
LINE
  5
2F6
100
AcDbEntity
  8
0
100
AcDbLine
 62
7
  6
CONTINUOUS
 10
8.1099593698
 20
7.3474981479
 11
8.1099593698
 21
7.4224981479
  0
LINE
  5
2F7
100
AcDbEntity
  8
0
100
AcDbLine
 62
7
  6
CONTINUOUS
 10
8.1146219402
 20
7.4224981479
 11
8.1146219402
 21
7.3474981479
  0
LINE
  5
2F8
100
AcDbEntity
  8
0
100
AcDbLine
 62
7
  6
CONTINUOUS
 10
8.1243889848
 20
7.3474981479
 11
8.1243889848
 21
7.4224981479
  0
LINE
  5
2F9
100
AcDbEntity
  8
0
100
AcDbLine
 62
7
  6
CONTINUOUS
 10
8.1286016416
 20
7.4224981479
 11
8.1286016416
 21
7.3474981479
  0
LINE
  5
2FA
100
AcDbEntity
  8
0
100
AcDbLine
 62
7
  6
CONTINUOUS
 10
8.1373727927
 20
7.3474981479
 11
8.1373727927
 21
7.4224981479
  0
LINE
  5
2FB
100
AcDbEntity
  8
0
100
AcDbLine
 62
7
  6
CONTINUOUS
 10
8.1376923427
 20
7.1474981479
 11
8.1376923427
 21
7.3474981479
  0
LINE
  5
2FC
100
AcDbEntity
  8
0
100
AcDbLine
 62
7
  6
CONTINUOUS
 10
8.1411304035
 20
7.4224981479
 11
8.1411304035
 21
7.3474981479
  0
LINE
  5
2FD
100
AcDbEntity
  8
0
100
AcDbLine
 62
7
  6
CONTINUOUS
 10
8.1488949748
 20
7.3474981479
 11
8.1488949748
 21
7.4224981479
  0
LINE
  5
2FE
100
AcDbEntity
  8
0
100
AcDbLine
 62
7
  6
CONTINUOUS
 10
8.1521929614
 20
7.4224981479
 11
8.1521929614
 21
7.3474981479
  0
LINE
  5
2FF
100
AcDbEntity
  8
0
100
AcDbLine
 62
7
  6
CONTINUOUS
 10
8.1589414931
 20
7.3474981479
 11
8.1589414931
 21
7.4224981479
  0
LINE
  5
300
100
AcDbEntity
  8
0
100
AcDbLine
 62
7
  6
CONTINUOUS
 10
8.1617758375
 20
7.4224981479
 11
8.1617758375
 21
7.3474981479
  0
LINE
  5
301
100
AcDbEntity
  8
0
100
AcDbLine
 62
7
  6
CONTINUOUS
 10
8.1675001074
 20
7.3474981479
 11
8.1675001074
 21
7.4224981479
  0
LINE
  5
302
100
AcDbEntity
  8
0
100
AcDbLine
 62
7
  6
CONTINUOUS
 10
8.1698673564
 20
7.4224981479
 11
8.1698673564
 21
7.3474981479
  0
LINE
  5
303
100
AcDbEntity
  8
0
100
AcDbLine
 62
7
  6
CONTINUOUS
 10
8.1745603903
 20
7.3474981479
 11
8.1745603903
 21
7.4224981479
  0
LINE
  5
304
100
AcDbEntity
  8
0
100
AcDbLine
 62
7
  6
CONTINUOUS
 10
8.1764576598
 20
7.4224981479
 11
8.1764576598
 21
7.3474981479
  0
LINE
  5
305
100
AcDbEntity
  8
0
100
AcDbLine
 62
7
  6
CONTINUOUS
 10
8.1801137401
 20
7.3474981479
 11
8.1801137401
 21
7.4224981479
  0
LINE
  5
306
100
AcDbEntity
  8
0
100
AcDbLine
 62
7
  6
CONTINUOUS
 10
8.1815387185
 20
7.4224981479
 11
8.1815387185
 21
7.3474981479
  0
LINE
  5
307
100
AcDbEntity
  8
0
100
AcDbLine
 62
7
  6
CONTINUOUS
 10
8.1841533907
 20
7.3474981479
 11
8.1841533907
 21
7.4224981479
  0
LINE
  5
308
100
AcDbEntity
  8
0
100
AcDbLine
 62
7
  6
CONTINUOUS
 10
8.1851043419
 20
7.4224981479
 11
8.1851043419
 21
7.3474981479
  0
LINE
  5
309
100
AcDbEntity
  8
0
100
AcDbLine
 62
7
  6
CONTINUOUS
 10
8.1866744206
 20
7.3474981479
 11
8.1866744206
 21
7.4224981479
  0
LINE
  5
30A
100
AcDbEntity
  8
0
100
AcDbLine
 62
7
  6
CONTINUOUS
 10
8.1871501861
 20
7.4224981479
 11
8.1871501861
 21
7.3474981479
  0
LINE
  5
30B
100
AcDbEntity
  8
0
100
AcDbLine
 62
7
  6
CONTINUOUS
 10
8.1876737582
 20
7.3474981479
 11
8.1876737582
 21
7.4224981479
  0
LINE
  5
30C
100
AcDbEntity
  8
0
100
AcDbLine
 62
7
  6
CONTINUOUS
 10
8.1876923427
 20
6.9474981479
 11
8.1876923427
 21
7.0974981479
  0
LINE
  5
30D
100
AcDbEntity
  8
0
100
AcDbLine
 62
7
  6
CONTINUOUS
 10
6.5114953067
 20
9.2114815493
 11
6.5225131315
 21
9.2025677698
  0
LINE
  5
30E
100
AcDbEntity
  8
0
100
AcDbLine
 62
7
  6
CONTINUOUS
 10
5.6876923427
 20
7.0974981479
 11
5.7376923427
 21
7.1474981479
  0
LINE
  5
30F
100
AcDbEntity
  8
0
100
AcDbLine
 62
7
  6
CONTINUOUS
 10
5.6876923427
 20
6.9474981479
 11
8.1876923427
 21
6.9474981479
  0
LINE
  5
310
100
AcDbEntity
  8
0
100
AcDbLine
 62
7
  6
CONTINUOUS
 10
9.5126923427
 20
6.9474981479
 11
12.3626923427
 21
6.9474981479
  0
LINE
  5
311
100
AcDbEntity
  8
0
100
AcDbLine
 62
7
  6
CONTINUOUS
 10
13.6876923427
 20
6.9474981479
 11
16.1876923427
 21
6.9474981479
  0
LINE
  5
312
100
AcDbEntity
  8
0
100
AcDbLine
 62
7
  6
CONTINUOUS
 10
16.1876923427
 20
7.0974981479
 11
13.6876923427
 21
7.0974981479
  0
LINE
  5
313
100
AcDbEntity
  8
0
100
AcDbLine
 62
7
  6
CONTINUOUS
 10
12.3626923427
 20
7.0974981479
 11
9.5126923427
 21
7.0974981479
  0
LINE
  5
314
100
AcDbEntity
  8
0
100
AcDbLine
 62
7
  6
CONTINUOUS
 10
8.1876923427
 20
7.0974981479
 11
5.6876923427
 21
7.0974981479
  0
LINE
  5
315
100
AcDbEntity
  8
0
100
AcDbLine
 62
7
  6
CONTINUOUS
 10
5.7376923427
 20
7.1474981479
 11
8.1376923427
 21
7.1474981479
  0
LINE
  5
316
100
AcDbEntity
  8
0
100
AcDbLine
 62
7
  6
CONTINUOUS
 10
9.5626923427
 20
7.1474981479
 11
12.3126923427
 21
7.1474981479
  0
LINE
  5
317
100
AcDbEntity
  8
0
100
AcDbLine
 62
7
  6
CONTINUOUS
 10
13.7376923427
 20
7.1474981479
 11
16.1376923427
 21
7.1474981479
  0
LINE
  5
318
100
AcDbEntity
  8
0
100
AcDbLine
 62
7
  6
CONTINUOUS
 10
5.6877109272
 20
7.3474981479
 11
8.1841533907
 21
7.3474981479
  0
LINE
  5
319
100
AcDbEntity
  8
0
100
AcDbLine
 62
7
  6
CONTINUOUS
 10
8.1848038382
 20
7.3474981479
 11
8.1876737582
 21
7.3474981479
  0
LINE
  5
31A
100
AcDbEntity
  8
0
100
AcDbLine
 62
7
  6
CONTINUOUS
 10
9.5139390577
 20
7.3474981479
 11
9.5155091364
 21
7.3474981479
  0
LINE
  5
31B
100
AcDbEntity
  8
0
100
AcDbLine
 62
7
  6
CONTINUOUS
 10
9.5163968744
 20
7.3474981479
 11
9.9761284985
 21
7.3474981479
  0
LINE
  5
31C
100
AcDbEntity
  8
0
100
AcDbLine
 62
7
  6
CONTINUOUS
 10
9.9768688286
 20
7.3474981479
 11
10.0127009074
 21
7.3474981479
  0
LINE
  5
31D
100
AcDbEntity
  8
0
100
AcDbLine
 62
7
  6
CONTINUOUS
 10
10.0141806657
 20
7.3474981479
 11
11.8612040198
 21
7.3474981479
  0
LINE
  5
31E
100
AcDbEntity
  8
0
100
AcDbLine
 62
7
  6
CONTINUOUS
 10
11.862683778
 20
7.3474981479
 11
11.8985158568
 21
7.3474981479
  0
LINE
  5
31F
100
AcDbEntity
  8
0
100
AcDbLine
 62
7
  6
CONTINUOUS
 10
12.3626581569
 20
7.3474981479
 11
12.3626885443
 21
7.3474981479
  0
LINE
  5
320
100
AcDbEntity
  8
0
100
AcDbLine
 62
7
  6
CONTINUOUS
 10
12.3594468392
 20
7.3474981479
 11
12.3614456277
 21
7.3474981479
  0
LINE
  5
321
100
AcDbEntity
  8
0
100
AcDbLine
 62
7
  6
CONTINUOUS
 10
12.3492784892
 20
7.3474981479
 11
12.3584984745
 21
7.3474981479
  0
LINE
  5
322
100
AcDbEntity
  8
0
100
AcDbLine
 62
7
  6
CONTINUOUS
 10
11.899256187
 20
7.3474981479
 11
12.3474167675
 21
7.3474981479
  0
LINE
  5
323
100
AcDbEntity
  8
0
100
AcDbLine
 62
7
  6
CONTINUOUS
 10
16.1848038382
 20
7.3474981479
 11
16.1876737582
 21
7.3474981479
  0
LINE
  5
324
100
AcDbEntity
  8
0
100
AcDbLine
 62
7
  6
CONTINUOUS
 10
13.6877109272
 20
7.3474981479
 11
16.1841533907
 21
7.3474981479
  0
LINE
  5
325
100
AcDbEntity
  8
0
100
AcDbLine
 62
7
  6
CONTINUOUS
 10
6.4992764319
 20
9.2170646174
 11
6.5114953067
 21
9.2114815493
  0
LINE
  5
326
100
AcDbEntity
  8
0
100
AcDbLine
 62
7
  6
CONTINUOUS
 10
9.5126923427
 20
6.9474981479
 11
9.5126923427
 21
7.0974981479
  0
LINE
  5
327
100
AcDbEntity
  8
0
100
AcDbLine
 62
7
  6
CONTINUOUS
 10
9.5127265286
 20
7.4224981479
 11
9.5127265286
 21
7.3474981479
  0
LINE
  5
328
100
AcDbEntity
  8
0
100
AcDbLine
 62
7
  6
CONTINUOUS
 10
9.5139390577
 20
7.4224981479
 11
9.5139390577
 21
7.3474981479
  0
LINE
  5
329
100
AcDbEntity
  8
0
100
AcDbLine
 62
7
  6
CONTINUOUS
 10
9.5155091364
 20
7.3474981479
 11
9.5155091364
 21
7.4224981479
  0
LINE
  5
32A
100
AcDbEntity
  8
0
100
AcDbLine
 62
7
  6
CONTINUOUS
 10
9.5168862109
 20
7.4224981479
 11
9.5168862109
 21
7.3474981479
  0
LINE
  5
32B
100
AcDbEntity
  8
0
100
AcDbLine
 62
7
  6
CONTINUOUS
 10
9.5195008832
 20
7.3474981479
 11
9.5195008832
 21
7.4224981479
  0
LINE
  5
32C
100
AcDbEntity
  8
0
100
AcDbLine
 62
7
  6
CONTINUOUS
 10
9.5215643976
 20
7.4224981479
 11
9.5215643976
 21
7.3474981479
  0
LINE
  5
32D
100
AcDbEntity
  8
0
100
AcDbLine
 62
7
  6
CONTINUOUS
 10
9.5252204779
 20
7.3474981479
 11
9.5252204779
 21
7.4224981479
  0
LINE
  5
32E
100
AcDbEntity
  8
0
100
AcDbLine
 62
7
  6
CONTINUOUS
 10
9.527967918
 20
7.4224981479
 11
9.527967918
 21
7.3474981479
  0
LINE
  5
32F
100
AcDbEntity
  8
0
100
AcDbLine
 62
7
  6
CONTINUOUS
 10
9.5326609519
 20
7.3474981479
 11
9.5326609519
 21
7.4224981479
  0
LINE
  5
330
100
AcDbEntity
  8
0
100
AcDbLine
 62
7
  6
CONTINUOUS
 10
9.5360889704
 20
7.4224981479
 11
9.5360889704
 21
7.3474981479
  0
LINE
  5
331
100
AcDbEntity
  8
0
100
AcDbLine
 62
7
  6
CONTINUOUS
 10
9.5418132403
 20
7.3474981479
 11
9.5418132403
 21
7.4224981479
  0
LINE
  5
332
100
AcDbEntity
  8
0
100
AcDbLine
 62
7
  6
CONTINUOUS
 10
9.5459176607
 20
7.4224981479
 11
9.5459176607
 21
7.3474981479
  0
LINE
  5
333
100
AcDbEntity
  8
0
100
AcDbLine
 62
7
  6
CONTINUOUS
 10
9.5526661923
 20
7.3474981479
 11
9.5526661923
 21
7.4224981479
  0
LINE
  5
334
100
AcDbEntity
  8
0
100
AcDbLine
 62
7
  6
CONTINUOUS
 10
7.8126923427
 20
8.1474981479
 11
7.8876923427
 21
8.2224981479
  0
LINE
  5
335
100
AcDbEntity
  8
0
100
AcDbLine
 62
7
  6
CONTINUOUS
 10
13.6905808473
 20
7.4224981479
 11
13.6877109272
 21
7.4224981479
  0
LINE
  5
336
100
AcDbEntity
  8
0
100
AcDbLine
 62
7
  6
CONTINUOUS
 10
12.3614456277
 20
7.4224981479
 11
12.3598755491
 21
7.4224981479
  0
LINE
  5
337
100
AcDbEntity
  8
0
100
AcDbLine
 62
7
  6
CONTINUOUS
 10
9.5261061963
 20
7.4224981479
 11
9.5168862109
 21
7.4224981479
  0
LINE
  5
338
100
AcDbEntity
  8
0
100
AcDbLine
 62
7
  6
CONTINUOUS
 10
9.5159378462
 20
7.4224981479
 11
9.5139390577
 21
7.4224981479
  0
LINE
  5
339
100
AcDbEntity
  8
0
100
AcDbLine
 62
7
  6
CONTINUOUS
 10
9.5127265286
 20
7.4224981479
 11
9.5126961412
 21
7.4224981479
  0
LINE
  5
33A
100
AcDbEntity
  8
0
100
AcDbLine
 62
7
  6
CONTINUOUS
 10
5.6905808473
 20
7.4224981479
 11
5.6877109272
 21
7.4224981479
  0
LINE
  5
33B
100
AcDbEntity
  8
0
100
AcDbLine
 62
7
  6
CONTINUOUS
 10
5.6912312947
 20
7.4224981479
 11
8.1876737582
 21
7.4224981479
  0
LINE
  5
33C
100
AcDbEntity
  8
0
100
AcDbLine
 62
7
  6
CONTINUOUS
 10
9.527967918
 20
7.4224981479
 11
9.9761284985
 21
7.4224981479
  0
LINE
  5
33D
100
AcDbEntity
  8
0
100
AcDbLine
 62
7
  6
CONTINUOUS
 10
9.9768688286
 20
7.4224981479
 11
10.0127009074
 21
7.4224981479
  0
LINE
  5
33E
100
AcDbEntity
  8
0
100
AcDbLine
 62
7
  6
CONTINUOUS
 10
10.0141806657
 20
7.4224981479
 11
11.8612040198
 21
7.4224981479
  0
LINE
  5
33F
100
AcDbEntity
  8
0
100
AcDbLine
 62
7
  6
CONTINUOUS
 10
11.862683778
 20
7.4224981479
 11
11.8985158568
 21
7.4224981479
  0
LINE
  5
340
100
AcDbEntity
  8
0
100
AcDbLine
 62
7
  6
CONTINUOUS
 10
11.899256187
 20
7.4224981479
 11
12.3589878111
 21
7.4224981479
  0
LINE
  5
341
100
AcDbEntity
  8
0
100
AcDbLine
 62
7
  6
CONTINUOUS
 10
13.6912312947
 20
7.4224981479
 11
16.1876737582
 21
7.4224981479
  0
LINE
  5
342
100
AcDbEntity
  8
0
100
AcDbLine
 62
7
  6
CONTINUOUS
 10
16.0126923427
 20
7.5224981479
 11
13.8626923427
 21
7.5224981479
  0
LINE
  5
343
100
AcDbEntity
  8
0
100
AcDbLine
 62
7
  6
CONTINUOUS
 10
12.1001923427
 20
7.5224981479
 11
9.7751923427
 21
7.5224981479
  0
LINE
  5
344
100
AcDbEntity
  8
0
100
AcDbLine
 62
7
  6
CONTINUOUS
 10
8.0126923427
 20
7.5224981479
 11
5.8626923427
 21
7.5224981479
  0
LINE
  5
345
100
AcDbEntity
  8
0
100
AcDbLine
 62
7
  6
CONTINUOUS
 10
15.8626923427
 20
7.6224981479
 11
14.0126923427
 21
7.6224981479
  0
LINE
  5
346
100
AcDbEntity
  8
0
100
AcDbLine
 62
7
  6
CONTINUOUS
 10
7.8626923427
 20
7.6224981479
 11
6.0126923427
 21
7.6224981479
  0
LINE
  5
347
100
AcDbEntity
  8
0
100
AcDbLine
 62
7
  6
CONTINUOUS
 10
9.557442014
 20
7.4224981479
 11
9.557442014
 21
7.3474981479
  0
LINE
  5
348
100
AcDbEntity
  8
0
100
AcDbLine
 62
7
  6
CONTINUOUS
 10
9.5626923427
 20
7.1474981479
 11
9.5626923427
 21
7.3474981479
  0
LINE
  5
349
100
AcDbEntity
  8
0
100
AcDbLine
 62
7
  6
CONTINUOUS
 10
9.5652065854
 20
7.3474981479
 11
9.5652065854
 21
7.4224981479
  0
LINE
  5
34A
100
AcDbEntity
  8
0
100
AcDbLine
 62
7
  6
CONTINUOUS
 10
9.5706479898
 20
7.4224981479
 11
9.5706479898
 21
7.3474981479
  0
LINE
  5
34B
100
AcDbEntity
  8
0
100
AcDbLine
 62
7
  6
CONTINUOUS
 10
9.5794191409
 20
7.3474981479
 11
9.5794191409
 21
7.4224981479
  0
LINE
  5
34C
100
AcDbEntity
  8
0
100
AcDbLine
 62
7
  6
CONTINUOUS
 10
9.5855194985
 20
7.4224981479
 11
9.5855194985
 21
7.3474981479
  0
LINE
  5
34D
100
AcDbEntity
  8
0
100
AcDbLine
 62
7
  6
CONTINUOUS
 10
9.5952865431
 20
7.3474981479
 11
9.5952865431
 21
7.4224981479
  0
LINE
  5
34E
100
AcDbEntity
  8
0
100
AcDbLine
 62
7
  6
CONTINUOUS
 10
9.6020384215
 20
7.4224981479
 11
9.6020384215
 21
7.3474981479
  0
LINE
  5
34F
100
AcDbEntity
  8
0
100
AcDbLine
 62
7
  6
CONTINUOUS
 10
9.61278946
 20
7.3474981479
 11
9.61278946
 21
7.4224981479
  0
LINE
  5
350
100
AcDbEntity
  8
0
100
AcDbLine
 62
7
  6
CONTINUOUS
 10
9.6201846331
 20
7.4224981479
 11
9.6201846331
 21
7.3474981479
  0
LINE
  5
351
100
AcDbEntity
  8
0
100
AcDbLine
 62
7
  6
CONTINUOUS
 10
9.6319065669
 20
7.3474981479
 11
9.6319065669
 21
7.4224981479
  0
LINE
  5
352
100
AcDbEntity
  8
0
100
AcDbLine
 62
7
  6
CONTINUOUS
 10
9.6399360249
 20
7.4224981479
 11
9.6399360249
 21
7.3474981479
  0
LINE
  5
353
100
AcDbEntity
  8
0
100
AcDbLine
 62
7
  6
CONTINUOUS
 10
9.6526145727
 20
7.3474981479
 11
9.6526145727
 21
7.4224981479
  0
LINE
  5
354
100
AcDbEntity
  8
0
100
AcDbLine
 62
7
  6
CONTINUOUS
 10
9.6581647837
 20
9.9173341671
 11
9.6581647837
 21
8.3819886765
  0
LINE
  5
355
100
AcDbEntity
  8
0
100
AcDbLine
 62
7
  6
CONTINUOUS
 10
9.6612685328
 20
7.4224981479
 11
9.6612685328
 21
7.3474981479
  0
LINE
  5
356
100
AcDbEntity
  8
0
100
AcDbLine
 62
7
  6
CONTINUOUS
 10
9.6748882478
 20
7.3474981479
 11
9.6748882478
 21
7.4224981479
  0
LINE
  5
357
100
AcDbEntity
  8
0
100
AcDbLine
 62
7
  6
CONTINUOUS
 10
9.6841561666
 20
7.4224981479
 11
9.6841561666
 21
7.3474981479
  0
LINE
  5
358
100
AcDbEntity
  8
0
100
AcDbLine
 62
7
  6
CONTINUOUS
 10
9.6987004552
 20
7.3474981479
 11
9.6987004552
 21
7.4224981479
  0
LINE
  5
359
100
AcDbEntity
  8
0
100
AcDbLine
 62
7
  6
CONTINUOUS
 10
9.7085710411
 20
7.4224981479
 11
9.7085710411
 21
7.3474981479
  0
LINE
  5
35A
100
AcDbEntity
  8
0
100
AcDbLine
 62
7
  6
CONTINUOUS
 10
9.7240221833
 20
7.3474981479
 11
9.7240221833
 21
7.4224981479
  0
LINE
  5
35B
100
AcDbEntity
  8
0
100
AcDbLine
 62
7
  6
CONTINUOUS
 10
9.7344834106
 20
7.4224981479
 11
9.7344834106
 21
7.3474981479
  0
LINE
  5
35C
100
AcDbEntity
  8
0
100
AcDbLine
 62
7
  6
CONTINUOUS
 10
9.7508225816
 20
7.3474981479
 11
9.7508225816
 21
7.4224981479
  0
LINE
  5
35D
100
AcDbEntity
  8
0
100
AcDbLine
 62
7
  6
CONTINUOUS
 10
9.7618617048
 20
7.4224981479
 11
9.7618617048
 21
7.3474981479
  0
LINE
  5
35E
100
AcDbEntity
  8
0
100
AcDbLine
 62
7
  6
CONTINUOUS
 10
9.7790689979
 20
7.3474981479
 11
9.7790689979
 21
7.4224981479
  0
LINE
  5
35F
100
AcDbEntity
  8
0
100
AcDbLine
 62
7
  6
CONTINUOUS
 10
9.7906725675
 20
7.4224981479
 11
9.7906725675
 21
7.3474981479
  0
LINE
  5
360
100
AcDbEntity
  8
0
100
AcDbLine
 62
7
  6
CONTINUOUS
 10
9.8087270182
 20
7.3474981479
 11
9.8087270182
 21
7.4224981479
  0
LINE
  5
361
100
AcDbEntity
  8
0
100
AcDbLine
 62
7
  6
CONTINUOUS
 10
9.8208808971
 20
7.4224981479
 11
9.8208808971
 21
7.3474981479
  0
LINE
  5
362
100
AcDbEntity
  8
0
100
AcDbLine
 62
7
  6
CONTINUOUS
 10
9.8251923427
 20
8.0334981479
 11
9.8251923427
 21
7.5224981479
  0
LINE
  5
363
100
AcDbEntity
  8
0
100
AcDbLine
 62
7
  6
CONTINUOUS
 10
9.8397605089
 20
7.3474981479
 11
9.8397605089
 21
7.4224981479
  0
LINE
  5
364
100
AcDbEntity
  8
0
100
AcDbLine
 62
7
  6
CONTINUOUS
 10
9.8524498895
 20
7.4224981479
 11
9.8524498895
 21
7.3474981479
  0
LINE
  5
365
100
AcDbEntity
  8
0
100
AcDbLine
 62
7
  6
CONTINUOUS
 10
9.8721316603
 20
7.3474981479
 11
9.8721316603
 21
7.4224981479
  0
LINE
  5
366
100
AcDbEntity
  8
0
100
AcDbLine
 62
7
  6
CONTINUOUS
 10
9.8853410826
 20
7.4224981479
 11
9.8853410826
 21
7.3474981479
  0
LINE
  5
367
100
AcDbEntity
  8
0
100
AcDbLine
 62
7
  6
CONTINUOUS
 10
9.9058010334
 20
7.3474981479
 11
9.9058010334
 21
7.4224981479
  0
LINE
  5
368
100
AcDbEntity
  8
0
100
AcDbLine
 62
7
  6
CONTINUOUS
 10
9.9195144036
 20
7.4224981479
 11
9.9195144036
 21
7.3474981479
  0
LINE
  5
369
100
AcDbEntity
  8
0
100
AcDbLine
 62
7
  6
CONTINUOUS
 10
9.940727607
 20
7.3474981479
 11
9.940727607
 21
7.4224981479
  0
LINE
  5
36A
100
AcDbEntity
  8
0
100
AcDbLine
 62
7
  6
CONTINUOUS
 10
9.9549282176
 20
7.4224981479
 11
9.9549282176
 21
7.3474981479
  0
LINE
  5
36B
100
AcDbEntity
  8
0
100
AcDbLine
 62
7
  6
CONTINUOUS
 10
9.9768688286
 20
7.3474981479
 11
9.9768688286
 21
7.4224981479
  0
LINE
  5
36C
100
AcDbEntity
  8
0
100
AcDbLine
 62
7
  6
CONTINUOUS
 10
9.9915393783
 20
7.4224981479
 11
9.9915393783
 21
7.3474981479
  0
LINE
  5
36D
100
AcDbEntity
  8
0
100
AcDbLine
 62
7
  6
CONTINUOUS
 10
10.0127009074
 20
7.3474981479
 11
10.0127009074
 21
7.4224981479
  0
LINE
  5
36E
100
AcDbEntity
  8
0
100
AcDbLine
 62
7
  6
CONTINUOUS
 10
10.0141806657
 20
7.3474981479
 11
10.0141806657
 21
7.4224981479
  0
LINE
  5
36F
100
AcDbEntity
  8
0
100
AcDbLine
 62
7
  6
CONTINUOUS
 10
10.0293032806
 20
7.4224981479
 11
10.0293032806
 21
7.3474981479
  0
LINE
  5
370
100
AcDbEntity
  8
0
100
AcDbLine
 62
7
  6
CONTINUOUS
 10
9.8405750463
 20
9.9528070658
 11
9.8126433412
 21
9.8068399331
  0
LINE
  5
371
100
AcDbEntity
  8
0
100
AcDbLine
 62
7
  6
CONTINUOUS
 10
10.1460660172
 20
11.3029200768
 11
10.1002738275
 21
11.0977066269
  0
LWPOLYLINE
  5
372
100
AcDbEntity
  8
0
100
AcDbPolyline
 62
7
  6
CONTINUOUS
 90
6
 70
0
 10
10.1002738275
 20
11.0977066269
 10
10.0505125129
 20
10.880456789
 10
9.9870828742
 20
10.611842363
 10
9.9301037616
 20
10.3682952307
 10
9.8809427032
 20
10.1479866335
 10
9.8405750463
 20
9.9528070658
  0
LINE
  5
373
100
AcDbEntity
  8
0
100
AcDbLine
 62
7
  6
CONTINUOUS
 10
10.4308920052
 20
10.4391209162
 11
10.4322239932
 21
10.441914845
  0
LINE
  5
374
100
AcDbEntity
  8
0
100
AcDbLine
 62
7
  6
CONTINUOUS
 10
10.470646044
 20
10.5103796146
 11
10.4679873246
 21
10.5076022362
  0
LINE
  5
375
100
AcDbEntity
  8
0
100
AcDbLine
 62
7
  6
CONTINUOUS
 10
10.4679873246
 20
10.4431707231
 11
10.470646044
 21
10.4459481015
  0
LINE
  5
376
100
AcDbEntity
  8
0
100
AcDbLine
 62
7
  6
CONTINUOUS
 10
10.5109113131
 20
10.5140865355
 11
10.5069363552
 21
10.5113366686
  0
LINE
  5
377
100
AcDbEntity
  8
0
100
AcDbLine
 62
7
  6
CONTINUOUS
 10
10.2998791971
 20
10.3036634834
 11
10.303854155
 21
10.3064133502
  0
LINE
  5
378
100
AcDbEntity
  8
0
100
AcDbLine
 62
7
  6
CONTINUOUS
 10
10.5069363552
 20
10.4469051555
 11
10.5109113131
 21
10.4496550224
  0
LINE
  5
379
100
AcDbEntity
  8
0
100
AcDbLine
 62
7
  6
CONTINUOUS
 10
10.552860892
 20
10.5174524912
 11
10.5475853828
 21
10.5147409883
  0
LINE
  5
37A
100
AcDbEntity
  8
0
100
AcDbLine
 62
7
  6
CONTINUOUS
 10
10.2727819885
 20
10.3090661968
 11
10.2780574977
 21
10.3117776998
  0
LINE
  5
37B
100
AcDbEntity
  8
0
100
AcDbLine
 62
7
  6
CONTINUOUS
 10
10.5475853828
 20
10.4503094753
 11
10.552860892
 21
10.4530209782
  0
LINE
  5
37C
100
AcDbEntity
  8
0
100
AcDbLine
 62
7
  6
CONTINUOUS
 10
10.5963292248
 20
10.520464198
 11
10.5897739844
 21
10.5178017601
  0
LINE
  5
37D
100
AcDbEntity
  8
0
100
AcDbLine
 62
7
  6
CONTINUOUS
 10
10.2483088773
 20
10.3146827851
 11
10.2548641177
 21
10.317345223
  0
LINE
  5
37E
100
AcDbEntity
  8
0
100
AcDbLine
 62
7
  6
CONTINUOUS
 10
10.5897739844
 20
10.4533702471
 11
10.5963292248
 21
10.456032685
  0
LINE
  5
37F
100
AcDbEntity
  8
0
100
AcDbLine
 62
7
  6
CONTINUOUS
 10
10.6411447619
 20
10.52310977
 11
10.6333356608
 21
10.5205069045
  0
LINE
  5
380
100
AcDbEntity
  8
0
100
AcDbLine
 62
7
  6
CONTINUOUS
 10
10.2265564477
 20
10.320491082
 11
10.2343655487
 21
10.3230939475
  0
LINE
  5
381
100
AcDbEntity
  8
0
100
AcDbLine
 62
7
  6
CONTINUOUS
 10
10.6333356608
 20
10.4560753914
 11
10.6411447619
 21
10.4586782569
  0
LINE
  5
382
100
AcDbEntity
  8
0
100
AcDbLine
 62
9
  6
CONTINUOUS
 10
12.0501923427
 20
8.0334981479
 11
9.8251923427
 21
8.0334981479
  0
LINE
  5
383
100
AcDbEntity
  8
0
100
AcDbLine
 62
7
  6
CONTINUOUS
 10
9.7752225816
 20
8.0584981479
 11
12.1001621039
 21
8.0584981479
  0
LINE
  5
384
100
AcDbEntity
  8
0
100
AcDbLine
 62
7
  6
CONTINUOUS
 10
15.8126923427
 20
8.1474981479
 11
14.0626923427
 21
8.1474981479
  0
LINE
  5
385
100
AcDbEntity
  8
0
100
AcDbLine
 62
7
  6
CONTINUOUS
 10
7.8126923427
 20
8.1474981479
 11
6.0626923427
 21
8.1474981479
  0
LINE
  5
386
100
AcDbEntity
  8
0
100
AcDbLine
 62
7
  6
CONTINUOUS
 10
5.9876923427
 20
8.2224981479
 11
7.8876923427
 21
8.2224981479
  0
LINE
  5
387
100
AcDbEntity
  8
0
100
AcDbLine
 62
7
  6
CONTINUOUS
 10
13.9876923427
 20
8.2224981479
 11
15.8876923427
 21
8.2224981479
  0
LINE
  5
388
100
AcDbEntity
  8
0
100
AcDbLine
 62
7
  6
CONTINUOUS
 10
5.9126923427
 20
8.3224981479
 11
7.9626923427
 21
8.3224981479
  0
LINE
  5
389
100
AcDbEntity
  8
0
100
AcDbLine
 62
7
  6
CONTINUOUS
 10
13.9126923427
 20
8.3224981479
 11
15.9626923427
 21
8.3224981479
  0
LINE
  5
38A
100
AcDbEntity
  8
0
100
AcDbLine
 62
9
  6
CONTINUOUS
 10
12.2106126512
 20
8.3650562589
 11
9.6647720342
 21
8.3650562589
  0
LINE
  5
38B
100
AcDbEntity
  8
0
100
AcDbLine
 62
7
  6
CONTINUOUS
 10
10.0504002759
 20
7.3474981479
 11
10.0504002759
 21
7.4224981479
  0
LINE
  5
38C
100
AcDbEntity
  8
0
100
AcDbLine
 62
7
  6
CONTINUOUS
 10
10.0526176595
 20
7.3474981479
 11
10.0526176595
 21
7.4224981479
  0
LINE
  5
38D
100
AcDbEntity
  8
0
100
AcDbLine
 62
7
  6
CONTINUOUS
 10
10.0681739151
 20
7.4224981479
 11
10.0681739151
 21
7.3474981479
  0
LINE
  5
38E
100
AcDbEntity
  8
0
100
AcDbLine
 62
7
  6
CONTINUOUS
 10
10.0891806731
 20
7.3474981479
 11
10.0891806731
 21
7.4224981479
  0
LINE
  5
38F
100
AcDbEntity
  8
0
100
AcDbLine
 62
7
  6
CONTINUOUS
 10
10.0921329804
 20
7.3474981479
 11
10.0921329804
 21
7.4224981479
  0
LINE
  5
390
100
AcDbEntity
  8
0
100
AcDbLine
 62
7
  6
CONTINUOUS
 10
10.1081039239
 20
7.4224981479
 11
10.1081039239
 21
7.3474981479
  0
LINE
  5
391
100
AcDbEntity
  8
0
100
AcDbLine
 62
7
  6
CONTINUOUS
 10
10.1289948511
 20
7.3474981479
 11
10.1289948511
 21
7.4224981479
  0
LINE
  5
392
100
AcDbEntity
  8
0
100
AcDbLine
 62
7
  6
CONTINUOUS
 10
10.1326784852
 20
7.3474981479
 11
10.1326784852
 21
7.4224981479
  0
LINE
  5
393
100
AcDbEntity
  8
0
100
AcDbLine
 62
7
  6
CONTINUOUS
 10
10.1490446583
 20
7.4224981479
 11
10.1490446583
 21
7.3474981479
  0
LINE
  5
394
100
AcDbEntity
  8
0
100
AcDbLine
 62
7
  6
CONTINUOUS
 10
10.1562507006
 20
10.4289509839
 11
10.1562507006
 21
10.3645194708
  0
LINE
  5
395
100
AcDbEntity
  8
0
100
AcDbLine
 62
7
  6
CONTINUOUS
 10
10.1571930234
 20
10.3632591303
 11
10.1571930234
 21
10.358041719
  0
LINE
  5
396
100
AcDbEntity
  8
0
100
AcDbLine
 62
7
  6
CONTINUOUS
 10
10.1571930234
 20
10.3709922487
 11
10.1571930234
 21
10.4329080546
  0
LINE
  5
397
100
AcDbEntity
  8
0
100
AcDbLine
 62
7
  6
CONTINUOUS
 10
10.158392371
 20
10.4354237617
 11
10.158392371
 21
10.3709922487
  0
LINE
  5
398
100
AcDbEntity
  8
0
100
AcDbLine
 62
7
  6
CONTINUOUS
 10
10.1612156204
 20
10.3555260119
 11
10.1612156204
 21
10.351584558
  0
LINE
  5
399
100
AcDbEntity
  8
0
100
AcDbLine
 62
7
  6
CONTINUOUS
 10
10.1612156204
 20
10.3749337026
 11
10.1612156204
 21
10.4393652157
  0
LINE
  5
39A
100
AcDbEntity
  8
0
100
AcDbLine
 62
7
  6
CONTINUOUS
 10
10.1636095823
 20
10.4418660205
 11
10.1636095823
 21
10.3774345074
  0
LINE
  5
39B
100
AcDbEntity
  8
0
100
AcDbLine
 62
7
  6
CONTINUOUS
 10
10.1683026163
 20
10.3490837532
 11
10.1683026163
 21
10.3451734711
  0
LINE
  5
39C
100
AcDbEntity
  8
0
100
AcDbLine
 62
7
  6
CONTINUOUS
 10
10.1683026163
 20
10.3813447895
 11
10.1683026163
 21
10.4457763025
  0
LINE
  5
39D
100
AcDbEntity
  8
0
100
AcDbLine
 62
7
  6
CONTINUOUS
 10
10.1697943024
 20
7.3474981479
 11
10.1697943024
 21
7.4224981479
  0
LINE
  5
39E
100
AcDbEntity
  8
0
100
AcDbLine
 62
7
  6
CONTINUOUS
 10
10.1718817447
 20
10.4482523355
 11
10.1718817447
 21
10.3838208224
  0
LINE
  5
39F
100
AcDbEntity
  8
0
100
AcDbLine
 62
7
  6
CONTINUOUS
 10
10.1742047754
 20
7.3474981479
 11
10.1742047754
 21
7.4224981479
  0
LINE
  5
3A0
100
AcDbEntity
  8
0
100
AcDbLine
 62
7
  6
CONTINUOUS
 10
10.1784260419
 20
10.3426974382
 11
10.1784260419
 21
10.33883376
  0
LINE
  5
3A1
100
AcDbEntity
  8
0
100
AcDbLine
 62
7
  6
CONTINUOUS
 10
10.1784260419
 20
10.3876845005
 11
10.1784260419
 21
10.4521160136
  0
LINE
  5
3A2
100
AcDbEntity
  8
0
100
AcDbLine
 62
7
  6
CONTINUOUS
 10
10.1831762116
 20
10.4545575028
 11
10.1831762116
 21
10.3901259898
  0
LINE
  5
3A3
100
AcDbEntity
  8
0
100
AcDbLine
 62
7
  6
CONTINUOUS
 10
10.1909462385
 20
7.4224981479
 11
10.1909462385
 21
7.3474981479
  0
LINE
  5
3A4
100
AcDbEntity
  8
0
100
AcDbLine
 62
7
  6
CONTINUOUS
 10
10.1915459448
 20
10.3350436241
 11
10.1915459448
 21
10.3325904448
  0
LINE
  5
3A5
100
AcDbEntity
  8
0
100
AcDbLine
 62
7
  6
CONTINUOUS
 10
10.1915459448
 20
10.3939278158
 11
10.1915459448
 21
10.4583593288
  0
LINE
  5
3A6
100
AcDbEntity
  8
0
100
AcDbLine
 62
7
  6
CONTINUOUS
 10
10.197448409
 20
10.460756639
 11
10.197448409
 21
10.396325126
  0
LINE
  5
3A7
100
AcDbEntity
  8
0
100
AcDbLine
 62
7
  6
CONTINUOUS
 10
10.2076105466
 20
10.3290011855
 11
10.2076105466
 21
10.3264681648
  0
LINE
  5
3A8
100
AcDbEntity
  8
0
100
AcDbLine
 62
7
  6
CONTINUOUS
 10
10.2076105466
 20
10.4000500958
 11
10.2076105466
 21
10.4644816088
  0
LINE
  5
3A9
100
AcDbEntity
  8
0
100
AcDbLine
 62
7
  6
CONTINUOUS
 10
10.2115293191
 20
7.3474981479
 11
10.2115293191
 21
7.4224981479
  0
LINE
  5
3AA
100
AcDbEntity
  8
0
100
AcDbLine
 62
7
  6
CONTINUOUS
 10
10.214642011
 20
10.4668252788
 11
10.214642011
 21
10.4023937658
  0
LINE
  5
3AB
100
AcDbEntity
  8
0
100
AcDbLine
 62
7
  6
CONTINUOUS
 10
10.2166612575
 20
7.3474981479
 11
10.2166612575
 21
7.4224981479
  0
LINE
  5
3AC
100
AcDbEntity
  8
0
100
AcDbLine
 62
7
  6
CONTINUOUS
 10
10.2265564477
 20
10.3230939475
 11
10.2265564477
 21
10.320491082
  0
LINE
  5
3AD
100
AcDbEntity
  8
0
100
AcDbLine
 62
7
  6
CONTINUOUS
 10
10.2265564477
 20
10.4060271786
 11
10.2265564477
 21
10.4704586916
  0
LINE
  5
3AE
100
AcDbEntity
  8
0
100
AcDbLine
 62
7
  6
CONTINUOUS
 10
10.2337576138
 20
7.4224981479
 11
10.2337576138
 21
7.3474981479
  0
LINE
  5
3AF
100
AcDbEntity
  8
0
100
AcDbLine
 62
7
  6
CONTINUOUS
 10
10.2346891623
 20
10.4727394721
 11
10.2346891623
 21
10.408307959
  0
LINE
  5
3B0
100
AcDbEntity
  8
0
100
AcDbLine
 62
7
  6
CONTINUOUS
 10
10.2483088773
 20
10.317345223
 11
10.2483088773
 21
10.3146827851
  0
LINE
  5
3B1
100
AcDbEntity
  8
0
100
AcDbLine
 62
7
  6
CONTINUOUS
 10
10.2483088773
 20
10.4118354755
 11
10.2483088773
 21
10.4762669885
  0
LINE
  5
3B2
100
AcDbEntity
  8
0
100
AcDbLine
 62
7
  6
CONTINUOUS
 10
10.2541490537
 20
7.3474981479
 11
10.2541490537
 21
7.4224981479
  0
LINE
  5
3B3
100
AcDbEntity
  8
0
100
AcDbLine
 62
7
  6
CONTINUOUS
 10
10.257510746
 20
10.4784758782
 11
10.257510746
 21
10.4140443652
  0
LINE
  5
3B4
100
AcDbEntity
  8
0
100
AcDbLine
 62
7
  6
CONTINUOUS
 10
10.259996205
 20
7.3474981479
 11
10.259996205
 21
7.4224981479
  0
LINE
  5
3B5
100
AcDbEntity
  8
0
100
AcDbLine
 62
7
  6
CONTINUOUS
 10
10.2727819885
 20
10.3117776998
 11
10.2727819885
 21
10.3090661968
  0
LINE
  5
3B6
100
AcDbEntity
  8
0
100
AcDbLine
 62
7
  6
CONTINUOUS
 10
10.2727819885
 20
10.4174520637
 11
10.2727819885
 21
10.4818835768
  0
LINE
  5
3B7
100
AcDbEntity
  8
0
100
AcDbLine
 62
7
  6
CONTINUOUS
 10
10.2774266251
 20
7.4224981479
 11
10.2774266251
 21
7.3474981479
  0
LINE
  5
3B8
100
AcDbEntity
  8
0
100
AcDbLine
 62
7
  6
CONTINUOUS
 10
10.2830166957
 20
10.4840118582
 11
10.2830166957
 21
10.4195803452
  0
LINE
  5
3B9
100
AcDbEntity
  8
0
100
AcDbLine
 62
7
  6
CONTINUOUS
 10
10.2976015805
 20
7.3474981479
 11
10.2976015805
 21
7.4224981479
  0
LINE
  5
3BA
100
AcDbEntity
  8
0
100
AcDbLine
 62
7
  6
CONTINUOUS
 10
10.2998791971
 20
10.3064133502
 11
10.2998791971
 21
10.3036634834
  0
LINE
  5
3BB
100
AcDbEntity
  8
0
100
AcDbLine
 62
7
  6
CONTINUOUS
 10
10.2998791971
 20
10.4228547772
 11
10.2998791971
 21
10.4872862903
  0
LINE
  5
3BC
100
AcDbEntity
  8
0
100
AcDbLine
 62
7
  6
CONTINUOUS
 10
10.3041568208
 20
7.3474981479
 11
10.3041568208
 21
7.4224981479
  0
LINE
  5
3BD
100
AcDbEntity
  8
0
100
AcDbLine
 62
7
  6
CONTINUOUS
 10
10.3111063512
 20
10.4893255641
 11
10.3111063512
 21
10.4248940511
  0
LINE
  5
3BE
100
AcDbEntity
  8
0
100
AcDbLine
 62
7
  6
CONTINUOUS
 10
10.3126923427
 20
10.3632591303
 11
10.3126923427
 21
10.1798771316
  0
LINE
  5
3BF
100
AcDbEntity
  8
0
100
AcDbLine
 62
7
  6
CONTINUOUS
 10
10.3219000685
 20
7.4224981479
 11
10.3219000685
 21
7.3474981479
  0
LINE
  5
3C0
100
AcDbEntity
  8
0
100
AcDbLine
 62
7
  6
CONTINUOUS
 10
10.3294935628
 20
10.4280222939
 11
10.3294935628
 21
10.492453807
  0
LINE
  5
3C1
100
AcDbEntity
  8
0
100
AcDbLine
 62
7
  6
CONTINUOUS
 10
10.3416688552
 20
10.4943960251
 11
10.3416688552
 21
10.4299645121
  0
LINE
  5
3C2
100
AcDbEntity
  8
0
100
AcDbLine
 62
7
  6
CONTINUOUS
 10
10.3418339592
 20
7.3474981479
 11
10.3418339592
 21
7.4224981479
  0
LINE
  5
3C3
100
AcDbEntity
  8
0
100
AcDbLine
 62
7
  6
CONTINUOUS
 10
10.3490893021
 20
7.3474981479
 11
10.3490893021
 21
7.4224981479
  0
LINE
  5
3C4
100
AcDbEntity
  8
0
100
AcDbLine
 62
7
  6
CONTINUOUS
 10
10.3615082112
 20
10.43293422
 11
10.3615082112
 21
10.4973657331
  0
LINE
  5
3C5
100
AcDbEntity
  8
0
100
AcDbLine
 62
7
  6
CONTINUOUS
 10
10.3671237599
 20
7.4224981479
 11
10.3671237599
 21
7.3474981479
  0
LINE
  5
3C6
100
AcDbEntity
  8
0
100
AcDbLine
 62
7
  6
CONTINUOUS
 10
10.3745835917
 20
10.4992032305
 11
10.3745835917
 21
10.4347717175
  0
LINE
  5
3C7
100
AcDbEntity
  8
0
100
AcDbLine
 62
7
  6
CONTINUOUS
 10
10.3867922996
 20
7.3474981479
 11
10.3867922996
 21
7.4224981479
  0
LINE
  5
3C8
100
AcDbEntity
  8
0
100
AcDbLine
 62
7
  6
CONTINUOUS
 10
10.3947389055
 20
7.3474981479
 11
10.3947389055
 21
7.4224981479
  0
LINE
  5
3C9
100
AcDbEntity
  8
0
100
AcDbLine
 62
7
  6
CONTINUOUS
 10
10.3957967951
 20
10.4347717175
 11
10.3957967951
 21
10.5020026834
  0
LINE
  5
3CA
100
AcDbEntity
  8
0
100
AcDbLine
 62
7
  6
CONTINUOUS
 10
10.4097206612
 20
10.5037282084
 11
10.4097206612
 21
10.4392966953
  0
LINE
  5
3CB
100
AcDbEntity
  8
0
100
AcDbLine
 62
7
  6
CONTINUOUS
 10
10.4130426012
 20
7.4224981479
 11
10.4130426012
 21
7.3474981479
  0
LINE
  5
3CC
100
AcDbEntity
  8
0
100
AcDbLine
 62
7
  6
CONTINUOUS
 10
10.4308920052
 20
10.4391209162
 11
10.4308920052
 21
10.5035524292
  0
LINE
  5
3CD
100
AcDbEntity
  8
0
100
AcDbLine
 62
7
  6
CONTINUOUS
 10
10.4322239932
 20
10.441914845
 11
10.4322239932
 21
10.5063463581
  0
LINE
  5
3CE
100
AcDbEntity
  8
0
100
AcDbLine
 62
7
  6
CONTINUOUS
 10
10.4324218269
 20
7.3474981479
 11
10.4324218269
 21
7.4224981479
  0
LINE
  5
3CF
100
AcDbEntity
  8
0
100
AcDbLine
 62
7
  6
CONTINUOUS
 10
10.441050014
 20
7.3474981479
 11
10.441050014
 21
7.4224981479
  0
LINE
  5
3D0
100
AcDbEntity
  8
0
100
AcDbLine
 62
7
  6
CONTINUOUS
 10
10.4469413936
 20
10.5079531007
 11
10.4469413936
 21
10.4435215876
  0
LINE
  5
3D1
100
AcDbEntity
  8
0
100
AcDbLine
 62
7
  6
CONTINUOUS
 10
10.4596006475
 20
7.4224981479
 11
10.4596006475
 21
7.3474981479
  0
LINE
  5
3D2
100
AcDbEntity
  8
0
100
AcDbLine
 62
7
  6
CONTINUOUS
 10
10.4679873246
 20
10.4431707231
 11
10.4679873246
 21
10.5076022362
  0
LINE
  5
3D3
100
AcDbEntity
  8
0
100
AcDbLine
 62
7
  6
CONTINUOUS
 10
10.470646044
 20
10.4459481015
 11
10.470646044
 21
10.5103796146
  0
LINE
  5
3D4
100
AcDbEntity
  8
0
100
AcDbLine
 62
7
  6
CONTINUOUS
 10
10.4786669484
 20
7.3474981479
 11
10.4786669484
 21
7.4224981479
  0
LINE
  5
3D5
100
AcDbEntity
  8
0
100
AcDbLine
 62
7
  6
CONTINUOUS
 10
10.4860988959
 20
10.5118612337
 11
10.4860988959
 21
10.4474297207
  0
LINE
  5
3D6
100
AcDbEntity
  8
0
100
AcDbLine
 62
7
  6
CONTINUOUS
 10
10.4879662047
 20
7.3474981479
 11
10.4879662047
 21
7.4224981479
  0
LINE
  5
3D7
100
AcDbEntity
  8
0
100
AcDbLine
 62
7
  6
CONTINUOUS
 10
10.5067411748
 20
7.4224981479
 11
10.5067411748
 21
7.3474981479
  0
LINE
  5
3D8
100
AcDbEntity
  8
0
100
AcDbLine
 62
7
  6
CONTINUOUS
 10
10.5069363552
 20
10.4469051555
 11
10.5069363552
 21
10.5113366686
  0
LINE
  5
3D9
100
AcDbEntity
  8
0
100
AcDbLine
 62
7
  6
CONTINUOUS
 10
10.5109113131
 20
10.4496550224
 11
10.5109113131
 21
10.5140865355
  0
LWPOLYLINE
  5
3DA
100
AcDbEntity
  8
0
100
AcDbPolyline
 62
7
  6
CONTINUOUS
 90
4
 70
0
 10
10.2426279092
 20
10.9418586924
 10
10.2329890076
 20
10.8095082669
 10
10.2283920589
 20
10.6076486957
 10
10.2330153916
 20
10.4728551532
  0
LINE
  5
3DB
100
AcDbEntity
  8
0
100
AcDbLine
 62
7
  6
CONTINUOUS
 10
10.2426621527
 20
10.9422348724
 11
10.2426273961
 21
10.941860585
  0
LINE
  5
3DC
100
AcDbEntity
  8
0
100
AcDbLine
 62
9
  6
CONTINUOUS
 10
10.2481656761
 20
10.9957612443
 11
10.2426621527
 21
10.9422348724
  0
LINE
  5
3DD
100
AcDbEntity
  8
0
100
AcDbLine
 62
7
  6
CONTINUOUS
 10
11.5755054884
 20
10.4228547772
 11
11.5715305304
 21
10.4201049103
  0
LINE
  5
3DE
100
AcDbEntity
  8
0
100
AcDbLine
 62
7
  6
CONTINUOUS
 10
11.602602697
 20
10.4174520637
 11
11.5973271878
 21
10.4147405608
  0
LINE
  5
3DF
100
AcDbEntity
  8
0
100
AcDbLine
 62
7
  6
CONTINUOUS
 10
11.6270758082
 20
10.4118354755
 11
11.6205205678
 21
10.4091730376
  0
LINE
  5
3E0
100
AcDbEntity
  8
0
100
AcDbLine
 62
7
  6
CONTINUOUS
 10
11.6488282378
 20
10.4060271786
 11
11.6410191368
 21
10.4034243131
  0
LINE
  5
3E1
100
AcDbEntity
  8
0
100
AcDbLine
 62
7
  6
CONTINUOUS
 10
15.3760417258
 20
9.2170435578
 11
15.3885431634
 21
9.2194660743
  0
LINE
  5
3E2
100
AcDbEntity
  8
0
100
AcDbLine
 62
9
  6
CONTINUOUS
 10
9.6581647837
 20
8.3819886765
 11
12.2172199018
 21
8.3819886765
  0
LINE
  5
3E3
100
AcDbEntity
  8
0
100
AcDbLine
 62
7
  6
CONTINUOUS
 10
15.9626923427
 20
8.5224981479
 11
13.9126923427
 21
8.5224981479
  0
LINE
  5
3E4
100
AcDbEntity
  8
0
100
AcDbLine
 62
7
  6
CONTINUOUS
 10
7.9626923427
 20
8.5224981479
 11
5.9126923427
 21
8.5224981479
  0
LINE
  5
3E5
100
AcDbEntity
  8
0
100
AcDbLine
 62
7
  6
CONTINUOUS
 10
15.8876923427
 20
8.5724981479
 11
13.9876923427
 21
8.5724981479
  0
LINE
  5
3E6
100
AcDbEntity
  8
0
100
AcDbLine
 62
7
  6
CONTINUOUS
 10
7.8876923427
 20
8.5724981479
 11
5.9876923427
 21
8.5724981479
  0
LINE
  5
3E7
100
AcDbEntity
  8
0
100
AcDbLine
 62
7
  6
CONTINUOUS
 10
15.7876923427
 20
8.6724981479
 11
14.0876923427
 21
8.6724981479
  0
LINE
  5
3E8
100
AcDbEntity
  8
0
100
AcDbLine
 62
7
  6
CONTINUOUS
 10
7.7876923427
 20
8.6724981479
 11
6.0876923427
 21
8.6724981479
  0
LINE
  5
3E9
100
AcDbEntity
  8
0
100
AcDbLine
 62
7
  6
CONTINUOUS
 10
15.6876923427
 20
8.7224981479
 11
14.1876923427
 21
8.7224981479
  0
LINE
  5
3EA
100
AcDbEntity
  8
0
100
AcDbLine
 62
7
  6
CONTINUOUS
 10
7.6876923427
 20
8.7224981479
 11
6.1876923427
 21
8.7224981479
  0
LINE
  5
3EB
100
AcDbEntity
  8
0
100
AcDbLine
 62
7
  6
CONTINUOUS
 10
15.3376923427
 20
8.8224981479
 11
14.5376923427
 21
8.8224981479
  0
LINE
  5
3EC
100
AcDbEntity
  8
0
100
AcDbLine
 62
7
  6
CONTINUOUS
 10
7.3376923427
 20
8.8224981479
 11
6.5376923427
 21
8.8224981479
  0
LINE
  5
3ED
100
AcDbEntity
  8
0
100
AcDbLine
 62
7
  6
CONTINUOUS
 10
6.4867470252
 20
9.2194731051
 11
6.4992764319
 21
9.2170646174
  0
LINE
  5
3EE
100
AcDbEntity
  8
0
100
AcDbLine
 62
7
  6
CONTINUOUS
 10
12.3626923427
 20
7.0974981479
 11
12.3126923427
 21
7.1474981479
  0
LINE
  5
3EF
100
AcDbEntity
  8
0
100
AcDbLine
 62
7
  6
CONTINUOUS
 10
10.5254713217
 20
7.3474981479
 11
10.5254713217
 21
7.4224981479
  0
LINE
  5
3F0
100
AcDbEntity
  8
0
100
AcDbLine
 62
7
  6
CONTINUOUS
 10
10.5270386312
 20
10.5154371839
 11
10.5270386312
 21
10.4510056709
  0
LINE
  5
3F1
100
AcDbEntity
  8
0
100
AcDbLine
 62
7
  6
CONTINUOUS
 10
10.5354303175
 20
7.3474981479
 11
10.5354303175
 21
7.4224981479
  0
LINE
  5
3F2
100
AcDbEntity
  8
0
100
AcDbLine
 62
7
  6
CONTINUOUS
 10
10.5475853828
 20
10.4503094753
 11
10.5475853828
 21
10.5147409883
  0
LINE
  5
3F3
100
AcDbEntity
  8
0
100
AcDbLine
 62
7
  6
CONTINUOUS
 10
10.552860892
 20
10.4530209782
 11
10.552860892
 21
10.5174524912
  0
LINE
  5
3F4
100
AcDbEntity
  8
0
100
AcDbLine
 62
7
  6
CONTINUOUS
 10
10.5544067497
 20
7.4224981479
 11
10.5544067497
 21
7.3474981479
  0
LINE
  5
3F5
100
AcDbEntity
  8
0
100
AcDbLine
 62
7
  6
CONTINUOUS
 10
10.5695990291
 20
10.5186668386
 11
10.5695990291
 21
10.4542353256
  0
LINE
  5
3F6
100
AcDbEntity
  8
0
100
AcDbLine
 62
7
  6
CONTINUOUS
 10
10.5727779228
 20
7.3474981479
 11
10.5727779228
 21
7.4224981479
  0
LINE
  5
3F7
100
AcDbEntity
  8
0
100
AcDbLine
 62
7
  6
CONTINUOUS
 10
10.5833845245
 20
7.3474981479
 11
10.5833845245
 21
7.4224981479
  0
LINE
  5
3F8
100
AcDbEntity
  8
0
100
AcDbLine
 62
7
  6
CONTINUOUS
 10
10.5897739844
 20
10.4533702471
 11
10.5897739844
 21
10.5178017601
  0
LINE
  5
3F9
100
AcDbEntity
  8
0
100
AcDbLine
 62
7
  6
CONTINUOUS
 10
10.5963292248
 20
10.456032685
 11
10.5963292248
 21
10.520464198
  0
LINE
  5
3FA
100
AcDbEntity
  8
0
100
AcDbLine
 62
7
  6
CONTINUOUS
 10
10.6025392991
 20
7.4224981479
 11
10.6025392991
 21
7.3474981479
  0
LINE
  5
3FB
100
AcDbEntity
  8
0
100
AcDbLine
 62
7
  6
CONTINUOUS
 10
10.6136121231
 20
10.5215374518
 11
10.6136121231
 21
10.4571059388
  0
LINE
  5
3FC
100
AcDbEntity
  8
0
100
AcDbLine
 62
7
  6
CONTINUOUS
 10
10.6205291159
 20
7.3474981479
 11
10.6205291159
 21
7.4224981479
  0
LINE
  5
3FD
100
AcDbEntity
  8
0
100
AcDbLine
 62
7
  6
CONTINUOUS
 10
10.6317704011
 20
7.3474981479
 11
10.6317704011
 21
7.4224981479
  0
LINE
  5
3FE
100
AcDbEntity
  8
0
100
AcDbLine
 62
7
  6
CONTINUOUS
 10
10.6333356608
 20
10.4560753914
 11
10.6333356608
 21
10.5205069045
  0
LINE
  5
3FF
100
AcDbEntity
  8
0
100
AcDbLine
 62
7
  6
CONTINUOUS
 10
10.6411447619
 20
10.4586782569
 11
10.6411447619
 21
10.52310977
  0
LINE
  5
400
100
AcDbEntity
  8
0
100
AcDbLine
 62
7
  6
CONTINUOUS
 10
10.6510801809
 20
7.4224981479
 11
10.6510801809
 21
7.3474981479
  0
LINE
  5
401
100
AcDbEntity
  8
0
100
AcDbLine
 62
7
  6
CONTINUOUS
 10
10.6589042137
 20
10.5240376946
 11
10.6589042137
 21
10.4596061815
  0
LINE
  5
402
100
AcDbEntity
  8
0
100
AcDbLine
 62
7
  6
CONTINUOUS
 10
10.6686667235
 20
7.3474981479
 11
10.6686667235
 21
7.4224981479
  0
LINE
  5
403
100
AcDbEntity
  8
0
100
AcDbLine
 62
7
  6
CONTINUOUS
 10
10.678098494
 20
10.4584142324
 11
10.678098494
 21
10.5228457455
  0
LINE
  5
404
100
AcDbEntity
  8
0
100
AcDbLine
 62
7
  6
CONTINUOUS
 10
10.6805289964
 20
7.3474981479
 11
10.6805289964
 21
7.4224981479
  0
LINE
  5
405
100
AcDbEntity
  8
0
100
AcDbLine
 62
7
  6
CONTINUOUS
 10
10.6871306367
 20
10.4609472532
 11
10.6871306367
 21
10.5253787662
  0
LINE
  5
406
100
AcDbEntity
  8
0
100
AcDbLine
 62
7
  6
CONTINUOUS
 10
10.6999702554
 20
7.4224981479
 11
10.6999702554
 21
7.3474981479
  0
LINE
  5
407
100
AcDbEntity
  8
0
100
AcDbLine
 62
7
  6
CONTINUOUS
 10
10.7052965536
 20
10.5261576995
 11
10.7052965536
 21
10.4617261865
  0
LINE
  5
408
100
AcDbEntity
  8
0
100
AcDbLine
 62
7
  6
CONTINUOUS
 10
10.7171320975
 20
7.3474981479
 11
10.7171320975
 21
7.4224981479
  0
LINE
  5
409
100
AcDbEntity
  8
0
100
AcDbLine
 62
7
  6
CONTINUOUS
 10
10.7238858255
 20
10.4603775397
 11
10.7238858255
 21
10.5248090528
  0
LINE
  5
40A
100
AcDbEntity
  8
0
100
AcDbLine
 62
7
  6
CONTINUOUS
 10
10.7296009056
 20
7.3474981479
 11
10.7296009056
 21
7.4224981479
  0
LINE
  5
40B
100
AcDbEntity
  8
0
100
AcDbLine
 62
7
  6
CONTINUOUS
 10
10.7341053642
 20
10.462830719
 11
10.7341053642
 21
10.5272622321
  0
LINE
  5
40C
100
AcDbEntity
  8
0
100
AcDbLine
 62
7
  6
CONTINUOUS
 10
10.7491499576
 20
7.4224981479
 11
10.7491499576
 21
7.3474981479
  0
LINE
  5
40D
100
AcDbEntity
  8
0
100
AcDbLine
 62
7
  6
CONTINUOUS
 10
10.7526060536
 20
10.5278891
 11
10.7526060536
 21
10.4634575869
  0
LINE
  5
40E
100
AcDbEntity
  8
0
100
AcDbLine
 62
7
  6
CONTINUOUS
 10
10.7658661901
 20
7.3474981479
 11
10.7658661901
 21
7.4224981479
  0
LINE
  5
40F
100
AcDbEntity
  8
0
100
AcDbLine
 62
7
  6
CONTINUOUS
 10
10.7705169537
 20
10.461957565
 11
10.7705169537
 21
10.5263890781
  0
LINE
  5
410
100
AcDbEntity
  8
0
100
AcDbLine
 62
7
  6
CONTINUOUS
 10
10.7789263422
 20
7.3474981479
 11
10.7789263422
 21
7.4224981479
  0
LINE
  5
411
100
AcDbEntity
  8
0
100
AcDbLine
 62
7
  6
CONTINUOUS
 10
10.7818835565
 20
10.4643212213
 11
10.7818835565
 21
10.5287527343
  0
LINE
  5
412
100
AcDbEntity
  8
0
100
AcDbLine
 62
7
  6
CONTINUOUS
 10
10.7985593698
 20
7.4224981479
 11
10.7985593698
 21
7.3474981479
  0
LINE
  5
413
100
AcDbEntity
  8
0
100
AcDbLine
 62
7
  6
CONTINUOUS
 10
10.8006460046
 20
10.5292250629
 11
10.8006460046
 21
10.4647935498
  0
LINE
  5
414
100
AcDbEntity
  8
0
100
AcDbLine
 62
7
  6
CONTINUOUS
 10
10.8148096264
 20
7.3474981479
 11
10.8148096264
 21
7.4224981479
  0
LINE
  5
415
100
AcDbEntity
  8
0
100
AcDbLine
 62
7
  6
CONTINUOUS
 10
10.8178078467
 20
10.4631480727
 11
10.8178078467
 21
10.5275795858
  0
LINE
  5
416
100
AcDbEntity
  8
0
100
AcDbLine
 62
7
  6
CONTINUOUS
 10
10.8284452107
 20
7.3474981479
 11
10.8284452107
 21
7.4224981479
  0
LINE
  5
417
100
AcDbEntity
  8
0
100
AcDbLine
 62
7
  6
CONTINUOUS
 10
10.8302766548
 20
10.4654128777
 11
10.8302766548
 21
10.5298443907
  0
LINE
  5
418
100
AcDbEntity
  8
0
100
AcDbLine
 62
7
  6
CONTINUOUS
 10
10.848138294
 20
7.4224981479
 11
10.848138294
 21
7.3474981479
  0
LINE
  5
419
100
AcDbEntity
  8
0
100
AcDbLine
 62
7
  6
CONTINUOUS
 10
10.8492268149
 20
10.5301603158
 11
10.8492268149
 21
10.4657288028
  0
LINE
  5
41A
100
AcDbEntity
  8
0
100
AcDbLine
 62
7
  6
CONTINUOUS
 10
10.8639027763
 20
7.3474981479
 11
10.8639027763
 21
7.4224981479
  0
LINE
  5
41B
100
AcDbEntity
  8
0
100
AcDbLine
 62
7
  6
CONTINUOUS
 10
10.8655718691
 20
10.4639443644
 11
10.8655718691
 21
10.5283758774
  0
LINE
  5
41C
100
AcDbEntity
  8
0
100
AcDbLine
 62
7
  6
CONTINUOUS
 10
10.87809718
 20
7.3474981479
 11
10.87809718
 21
7.4224981479
  0
LINE
  5
41D
100
AcDbEntity
  8
0
100
AcDbLine
 62
7
  6
CONTINUOUS
 10
10.8790936739
 20
10.4661013799
 11
10.8790936739
 21
10.5305328929
  0
LINE
  5
41E
100
AcDbEntity
  8
0
100
AcDbLine
 62
7
  6
CONTINUOUS
 10
10.897826326
 20
7.4224981479
 11
10.897826326
 21
7.3474981479
  0
LINE
  5
41F
100
AcDbEntity
  8
0
100
AcDbLine
 62
7
  6
CONTINUOUS
 10
10.8981567582
 20
10.5306911678
 11
10.8981567582
 21
10.4662596548
  0
LINE
  5
420
100
AcDbEntity
  8
0
100
AcDbLine
 62
7
  6
CONTINUOUS
 10
10.9130858275
 20
7.3474981479
 11
10.9130858275
 21
7.4224981479
  0
LINE
  5
421
100
AcDbEntity
  8
0
100
AcDbLine
 62
7
  6
CONTINUOUS
 10
10.913620518
 20
10.4643432974
 11
10.913620518
 21
10.5287748104
  0
LINE
  5
422
100
AcDbEntity
  8
0
100
AcDbLine
 62
7
  6
CONTINUOUS
 10
10.9278217569
 20
7.3474981479
 11
10.9278217569
 21
7.4224981479
  0
LINE
  5
423
100
AcDbEntity
  8
0
100
AcDbLine
 62
7
  6
CONTINUOUS
 10
10.928141955
 20
10.4663840107
 11
10.928141955
 21
10.5308155238
  0
LINE
  5
424
100
AcDbEntity
  8
0
100
AcDbLine
 62
9
  6
CONTINUOUS
 10
10.9376923427
 20
9.9526370992
 11
10.937692374
 21
8.6256044092
  0
LINE
  5
425
100
AcDbEntity
  8
0
100
AcDbLine
 62
9
  6
CONTINUOUS
 10
10.9376923428
 20
11.0845488676
 11
10.9376923427
 21
11.5924535266
  0
LINE
  5
426
100
AcDbEntity
  8
0
100
AcDbLine
 62
7
  6
CONTINUOUS
 10
10.9472427304
 20
10.5308155238
 11
10.9472427304
 21
10.4663840107
  0
LINE
  5
427
100
AcDbEntity
  8
0
100
AcDbLine
 62
7
  6
CONTINUOUS
 10
10.9475629286
 20
7.4224981479
 11
10.9475629286
 21
7.3474981479
  0
LINE
  5
428
100
AcDbEntity
  8
0
100
AcDbLine
 62
7
  6
CONTINUOUS
 10
10.9617641675
 20
10.4643432974
 11
10.9617641675
 21
10.5287748104
  0
LINE
  5
429
100
AcDbEntity
  8
0
100
AcDbLine
 62
7
  6
CONTINUOUS
 10
10.962298858
 20
7.3474981479
 11
10.962298858
 21
7.4224981479
  0
LINE
  5
42A
100
AcDbEntity
  8
0
100
AcDbLine
 62
7
  6
CONTINUOUS
 10
10.9772279272
 20
10.4662596548
 11
10.9772279272
 21
10.5306911678
  0
LINE
  5
42B
100
AcDbEntity
  8
0
100
AcDbLine
 62
7
  6
CONTINUOUS
 10
10.9775583595
 20
7.3474981479
 11
10.9775583595
 21
7.4224981479
  0
LINE
  5
42C
100
AcDbEntity
  8
0
100
AcDbLine
 62
7
  6
CONTINUOUS
 10
10.9962910116
 20
10.5305328929
 11
10.9962910116
 21
10.4661013799
  0
LINE
  5
42D
100
AcDbEntity
  8
0
100
AcDbLine
 62
7
  6
CONTINUOUS
 10
10.9972875055
 20
7.4224981479
 11
10.9972875055
 21
7.3474981479
  0
LINE
  5
42E
100
AcDbEntity
  8
0
100
AcDbLine
 62
7
  6
CONTINUOUS
 10
11.5138764743
 20
10.43293422
 11
11.5125444862
 21
10.4301402912
  0
LINE
  5
42F
100
AcDbEntity
  8
0
100
AcDbLine
 62
7
  6
CONTINUOUS
 10
11.5458911227
 20
10.4280222939
 11
11.5432324033
 21
10.4252449156
  0
LINE
  5
430
100
AcDbEntity
  8
0
100
AcDbLine
 62
7
  6
CONTINUOUS
 10
15.3885431634
 20
9.2194660743
 11
15.3928802418
 21
9.2196219213
  0
LWPOLYLINE
  5
431
100
AcDbEntity
  8
0
100
AcDbPolyline
 62
7
  6
CONTINUOUS
 90
4
 70
0
 10
4.1277070053
 20
9.2079202703
 10
4.8470341751
 20
9.2101141101
 10
5.6504332191
 20
9.2151054745
 10
6.482504113
 20
9.219621991
  0
LINE
  5
432
100
AcDbEntity
  8
0
100
AcDbLine
 62
7
  6
CONTINUOUS
 10
6.6251923427
 20
8.8524981479
 11
7.2501923427
 21
8.8524981479
  0
LINE
  5
433
100
AcDbEntity
  8
0
100
AcDbLine
 62
7
  6
CONTINUOUS
 10
14.6251923427
 20
8.8524981479
 11
15.2501923427
 21
8.8524981479
  0
LINE
  5
434
100
AcDbEntity
  8
0
100
AcDbLine
 62
9
  6
CONTINUOUS
 10
15.2501923427
 20
9.1454981479
 11
14.6252380081
 21
9.1454981479
  0
LINE
  5
435
100
AcDbEntity
  8
0
100
AcDbLine
 62
9
  6
CONTINUOUS
 10
7.2501923427
 20
9.1454981479
 11
6.6252380081
 21
9.1454981479
  0
LINE
  5
436
100
AcDbEntity
  8
0
100
AcDbLine
 62
7
  6
CONTINUOUS
 10
6.5376922329
 20
9.1654981479
 11
7.3376923427
 21
9.1654981479
  0
LINE
  5
437
100
AcDbEntity
  8
0
100
AcDbLine
 62
7
  6
CONTINUOUS
 10
14.5376923427
 20
9.1654981479
 11
15.3376924517
 21
9.1654981479
  0
LINE
  5
438
100
AcDbEntity
  8
0
100
AcDbLine
 62
9
  6
CONTINUOUS
 10
4.1290949424
 20
9.2651703882
 11
4.0876923427
 21
9.2651703882
  0
LINE
  5
439
100
AcDbEntity
  8
0
100
AcDbLine
 62
9
  6
CONTINUOUS
 10
17.7462897436
 20
9.2651703882
 11
17.7876923427
 21
9.2651703882
  0
LWPOLYLINE
  5
43A
100
AcDbEntity
  8
0
100
AcDbPolyline
 62
7
  6
CONTINUOUS
 90
4
 70
0
 10
15.3928805724
 20
9.219621991
 10
16.2249514714
 20
9.2151054745
 10
17.0283505126
 20
9.2101141101
 10
17.7476776797
 20
9.2079202703
  0
LINE
  5
43B
100
AcDbEntity
  8
0
100
AcDbLine
 62
7
  6
CONTINUOUS
 10
6.4825046208
 20
9.2196218923
 11
6.4867470252
 21
9.2194731051
  0
LINE
  5
43C
100
AcDbEntity
  8
0
100
AcDbLine
 62
7
  6
CONTINUOUS
 10
10.3628401993
 20
10.4301402912
 11
10.3615082112
 21
10.43293422
  0
LINE
  5
43D
100
AcDbEntity
  8
0
100
AcDbLine
 62
7
  6
CONTINUOUS
 10
11.0098128164
 20
10.4639443644
 11
11.0098128164
 21
10.5283758774
  0
LINE
  5
43E
100
AcDbEntity
  8
0
100
AcDbLine
 62
7
  6
CONTINUOUS
 10
11.0114819091
 20
7.3474981479
 11
11.0114819091
 21
7.4224981479
  0
LINE
  5
43F
100
AcDbEntity
  8
0
100
AcDbLine
 62
7
  6
CONTINUOUS
 10
11.0261578706
 20
10.4657288028
 11
11.0261578706
 21
10.5301603158
  0
LINE
  5
440
100
AcDbEntity
  8
0
100
AcDbLine
 62
7
  6
CONTINUOUS
 10
11.0272463915
 20
7.3474981479
 11
11.0272463915
 21
7.4224981479
  0
LINE
  5
441
100
AcDbEntity
  8
0
100
AcDbLine
 62
7
  6
CONTINUOUS
 10
11.0451080306
 20
10.5298443907
 11
11.0451080306
 21
10.4654128777
  0
LINE
  5
442
100
AcDbEntity
  8
0
100
AcDbLine
 62
7
  6
CONTINUOUS
 10
11.0469394748
 20
7.4224981479
 11
11.0469394748
 21
7.3474981479
  0
LINE
  5
443
100
AcDbEntity
  8
0
100
AcDbLine
 62
7
  6
CONTINUOUS
 10
11.0575768388
 20
10.4631480727
 11
11.0575768388
 21
10.5275795858
  0
LINE
  5
444
100
AcDbEntity
  8
0
100
AcDbLine
 62
7
  6
CONTINUOUS
 10
11.0605750591
 20
7.3474981479
 11
11.0605750591
 21
7.4224981479
  0
LINE
  5
445
100
AcDbEntity
  8
0
100
AcDbLine
 62
7
  6
CONTINUOUS
 10
11.0747386808
 20
10.4647935498
 11
11.0747386808
 21
10.5292250629
  0
LINE
  5
446
100
AcDbEntity
  8
0
100
AcDbLine
 62
7
  6
CONTINUOUS
 10
11.0768253157
 20
7.3474981479
 11
11.0768253157
 21
7.4224981479
  0
LINE
  5
447
100
AcDbEntity
  8
0
100
AcDbLine
 62
7
  6
CONTINUOUS
 10
11.093501129
 20
10.5287527343
 11
11.093501129
 21
10.4643212213
  0
LINE
  5
448
100
AcDbEntity
  8
0
100
AcDbLine
 62
7
  6
CONTINUOUS
 10
11.0964583433
 20
7.4224981479
 11
11.0964583433
 21
7.3474981479
  0
LINE
  5
449
100
AcDbEntity
  8
0
100
AcDbLine
 62
7
  6
CONTINUOUS
 10
11.1048677318
 20
10.461957565
 11
11.1048677318
 21
10.5263890781
  0
LINE
  5
44A
100
AcDbEntity
  8
0
100
AcDbLine
 62
7
  6
CONTINUOUS
 10
11.1095184954
 20
7.3474981479
 11
11.1095184954
 21
7.4224981479
  0
LINE
  5
44B
100
AcDbEntity
  8
0
100
AcDbLine
 62
7
  6
CONTINUOUS
 10
11.1227786318
 20
10.4634575869
 11
11.1227786318
 21
10.5278891
  0
LINE
  5
44C
100
AcDbEntity
  8
0
100
AcDbLine
 62
7
  6
CONTINUOUS
 10
11.1262347278
 20
7.3474981479
 11
11.1262347278
 21
7.4224981479
  0
LINE
  5
44D
100
AcDbEntity
  8
0
100
AcDbLine
 62
7
  6
CONTINUOUS
 10
11.1412793213
 20
10.5272622321
 11
11.1412793213
 21
10.462830719
  0
LINE
  5
44E
100
AcDbEntity
  8
0
100
AcDbLine
 62
7
  6
CONTINUOUS
 10
11.1457837799
 20
7.4224981479
 11
11.1457837799
 21
7.3474981479
  0
LINE
  5
44F
100
AcDbEntity
  8
0
100
AcDbLine
 62
7
  6
CONTINUOUS
 10
11.1514988599
 20
10.4603775397
 11
11.1514988599
 21
10.5248090528
  0
LINE
  5
450
100
AcDbEntity
  8
0
100
AcDbLine
 62
7
  6
CONTINUOUS
 10
11.158252588
 20
7.3474981479
 11
11.158252588
 21
7.4224981479
  0
LINE
  5
451
100
AcDbEntity
  8
0
100
AcDbLine
 62
7
  6
CONTINUOUS
 10
11.1700881318
 20
10.4617261865
 11
11.1700881318
 21
10.5261576995
  0
LINE
  5
452
100
AcDbEntity
  8
0
100
AcDbLine
 62
7
  6
CONTINUOUS
 10
11.1754144301
 20
7.3474981479
 11
11.1754144301
 21
7.4224981479
  0
LINE
  5
453
100
AcDbEntity
  8
0
100
AcDbLine
 62
7
  6
CONTINUOUS
 10
11.1882540487
 20
10.5253787662
 11
11.1882540487
 21
10.4609472532
  0
LINE
  5
454
100
AcDbEntity
  8
0
100
AcDbLine
 62
7
  6
CONTINUOUS
 10
11.1948556891
 20
7.4224981479
 11
11.1948556891
 21
7.3474981479
  0
LINE
  5
455
100
AcDbEntity
  8
0
100
AcDbLine
 62
7
  6
CONTINUOUS
 10
11.1972861915
 20
10.4584142324
 11
11.1972861915
 21
10.5228457455
  0
LINE
  5
456
100
AcDbEntity
  8
0
100
AcDbLine
 62
7
  6
CONTINUOUS
 10
11.2067179619
 20
7.3474981479
 11
11.2067179619
 21
7.4224981479
  0
LINE
  5
457
100
AcDbEntity
  8
0
100
AcDbLine
 62
7
  6
CONTINUOUS
 10
11.2164804718
 20
10.4596061815
 11
11.2164804718
 21
10.5240376946
  0
LINE
  5
458
100
AcDbEntity
  8
0
100
AcDbLine
 62
7
  6
CONTINUOUS
 10
11.2243045046
 20
7.3474981479
 11
11.2243045046
 21
7.4224981479
  0
LINE
  5
459
100
AcDbEntity
  8
0
100
AcDbLine
 62
7
  6
CONTINUOUS
 10
11.2342399236
 20
10.52310977
 11
11.2342399236
 21
10.4586782569
  0
LINE
  5
45A
100
AcDbEntity
  8
0
100
AcDbLine
 62
7
  6
CONTINUOUS
 10
11.2420490246
 20
10.4560753914
 11
11.2420490246
 21
10.5205069045
  0
LINE
  5
45B
100
AcDbEntity
  8
0
100
AcDbLine
 62
7
  6
CONTINUOUS
 10
11.2436142844
 20
7.4224981479
 11
11.2436142844
 21
7.3474981479
  0
LINE
  5
45C
100
AcDbEntity
  8
0
100
AcDbLine
 62
7
  6
CONTINUOUS
 10
11.2548555696
 20
7.3474981479
 11
11.2548555696
 21
7.4224981479
  0
LINE
  5
45D
100
AcDbEntity
  8
0
100
AcDbLine
 62
7
  6
CONTINUOUS
 10
11.2617725624
 20
10.4571059388
 11
11.2617725624
 21
10.5215374518
  0
LINE
  5
45E
100
AcDbEntity
  8
0
100
AcDbLine
 62
7
  6
CONTINUOUS
 10
11.2728453864
 20
7.3474981479
 11
11.2728453864
 21
7.4224981479
  0
LINE
  5
45F
100
AcDbEntity
  8
0
100
AcDbLine
 62
7
  6
CONTINUOUS
 10
11.2790554607
 20
10.520464198
 11
11.2790554607
 21
10.456032685
  0
LINE
  5
460
100
AcDbEntity
  8
0
100
AcDbLine
 62
7
  6
CONTINUOUS
 10
11.285610701
 20
10.4533702471
 11
11.285610701
 21
10.5178017601
  0
LINE
  5
461
100
AcDbEntity
  8
0
100
AcDbLine
 62
7
  6
CONTINUOUS
 10
11.292000161
 20
7.4224981479
 11
11.292000161
 21
7.3474981479
  0
LINE
  5
462
100
AcDbEntity
  8
0
100
AcDbLine
 62
7
  6
CONTINUOUS
 10
11.3026067627
 20
7.3474981479
 11
11.3026067627
 21
7.4224981479
  0
LINE
  5
463
100
AcDbEntity
  8
0
100
AcDbLine
 62
7
  6
CONTINUOUS
 10
11.3057856564
 20
10.4542353256
 11
11.3057856564
 21
10.5186668386
  0
LINE
  5
464
100
AcDbEntity
  8
0
100
AcDbLine
 62
7
  6
CONTINUOUS
 10
11.3209779358
 20
7.3474981479
 11
11.3209779358
 21
7.4224981479
  0
LINE
  5
465
100
AcDbEntity
  8
0
100
AcDbLine
 62
7
  6
CONTINUOUS
 10
11.3225237935
 20
10.5174524912
 11
11.3225237935
 21
10.4530209782
  0
LINE
  5
466
100
AcDbEntity
  8
0
100
AcDbLine
 62
7
  6
CONTINUOUS
 10
11.3277993026
 20
10.4503094753
 11
11.3277993026
 21
10.5147409883
  0
LINE
  5
467
100
AcDbEntity
  8
0
100
AcDbLine
 62
7
  6
CONTINUOUS
 10
11.339954368
 20
7.4224981479
 11
11.339954368
 21
7.3474981479
  0
LINE
  5
468
100
AcDbEntity
  8
0
100
AcDbLine
 62
7
  6
CONTINUOUS
 10
11.3483460543
 20
10.4510056709
 11
11.3483460543
 21
10.5154371839
  0
LINE
  5
469
100
AcDbEntity
  8
0
100
AcDbLine
 62
7
  6
CONTINUOUS
 10
11.3499133638
 20
7.3474981479
 11
11.3499133638
 21
7.4224981479
  0
LINE
  5
46A
100
AcDbEntity
  8
0
100
AcDbLine
 62
7
  6
CONTINUOUS
 10
11.3644733723
 20
10.5140865355
 11
11.3644733723
 21
10.4496550224
  0
LINE
  5
46B
100
AcDbEntity
  8
0
100
AcDbLine
 62
7
  6
CONTINUOUS
 10
11.3684483303
 20
10.4469051555
 11
11.3684483303
 21
10.5113366686
  0
LINE
  5
46C
100
AcDbEntity
  8
0
100
AcDbLine
 62
7
  6
CONTINUOUS
 10
11.3686435107
 20
7.3474981479
 11
11.3686435107
 21
7.4224981479
  0
LINE
  5
46D
100
AcDbEntity
  8
0
100
AcDbLine
 62
7
  6
CONTINUOUS
 10
11.3874184807
 20
7.4224981479
 11
11.3874184807
 21
7.3474981479
  0
LINE
  5
46E
100
AcDbEntity
  8
0
100
AcDbLine
 62
7
  6
CONTINUOUS
 10
11.3892857896
 20
10.4474297207
 11
11.3892857896
 21
10.5118612337
  0
LINE
  5
46F
100
AcDbEntity
  8
0
100
AcDbLine
 62
7
  6
CONTINUOUS
 10
11.3967177371
 20
7.3474981479
 11
11.3967177371
 21
7.4224981479
  0
LINE
  5
470
100
AcDbEntity
  8
0
100
AcDbLine
 62
7
  6
CONTINUOUS
 10
11.4047386415
 20
10.5103796146
 11
11.4047386415
 21
10.4459481015
  0
LINE
  5
471
100
AcDbEntity
  8
0
100
AcDbLine
 62
7
  6
CONTINUOUS
 10
11.4073973609
 20
10.4431707231
 11
11.4073973609
 21
10.5076022362
  0
LINE
  5
472
100
AcDbEntity
  8
0
100
AcDbLine
 62
7
  6
CONTINUOUS
 10
11.415784038
 20
7.3474981479
 11
11.415784038
 21
7.4224981479
  0
LINE
  5
473
100
AcDbEntity
  8
0
100
AcDbLine
 62
7
  6
CONTINUOUS
 10
11.4284432918
 20
10.4435215876
 11
11.4284432918
 21
10.5079531007
  0
LINE
  5
474
100
AcDbEntity
  8
0
100
AcDbLine
 62
7
  6
CONTINUOUS
 10
11.4343346715
 20
7.4224981479
 11
11.4343346715
 21
7.3474981479
  0
LINE
  5
475
100
AcDbEntity
  8
0
100
AcDbLine
 62
7
  6
CONTINUOUS
 10
11.4429628586
 20
7.3474981479
 11
11.4429628586
 21
7.4224981479
  0
LINE
  5
476
100
AcDbEntity
  8
0
100
AcDbLine
 62
7
  6
CONTINUOUS
 10
11.4431606922
 20
10.5063463581
 11
11.4431606922
 21
10.441914845
  0
LINE
  5
477
100
AcDbEntity
  8
0
100
AcDbLine
 62
7
  6
CONTINUOUS
 10
11.4444926803
 20
10.4391209162
 11
11.4444926803
 21
10.5035524292
  0
LINE
  5
478
100
AcDbEntity
  8
0
100
AcDbLine
 62
7
  6
CONTINUOUS
 10
11.4623420842
 20
7.3474981479
 11
11.4623420842
 21
7.4224981479
  0
LINE
  5
479
100
AcDbEntity
  8
0
100
AcDbLine
 62
7
  6
CONTINUOUS
 10
11.4656640243
 20
10.4392966953
 11
11.4656640243
 21
10.5037282084
  0
LINE
  5
47A
100
AcDbEntity
  8
0
100
AcDbLine
 62
7
  6
CONTINUOUS
 10
11.4795878903
 20
10.5020026834
 11
11.4795878903
 21
10.4347717175
  0
LINE
  5
47B
100
AcDbEntity
  8
0
100
AcDbLine
 62
7
  6
CONTINUOUS
 10
11.48064578
 20
7.4224981479
 11
11.48064578
 21
7.3474981479
  0
LINE
  5
47C
100
AcDbEntity
  8
0
100
AcDbLine
 62
7
  6
CONTINUOUS
 10
9.5126923427
 20
7.0974981479
 11
9.5626923427
 21
7.1474981479
  0
LINE
  5
47D
100
AcDbEntity
  8
0
100
AcDbLine
 62
7
  6
CONTINUOUS
 10
12.1103364593
 20
9.7640796301
 11
12.089026944
 21
9.7582132947
  0
LWPOLYLINE
  5
47E
100
AcDbEntity
  8
0
100
AcDbPolyline
 62
7
  6
CONTINUOUS
 90
4
 70
0
 10
17.7466279335
 20
9.6567419452
 10
17.0280034422
 20
9.6356874114
 10
16.225452247
 20
9.6096392976
 10
15.3943308267
 20
9.5833130442
  0
LINE
  5
47F
100
AcDbEntity
  8
0
100
AcDbLine
 62
9
  6
CONTINUOUS
 10
4.1290949424
 20
9.5995020891
 11
4.0876923427
 21
9.5995020891
  0
LINE
  5
480
100
AcDbEntity
  8
0
100
AcDbLine
 62
9
  6
CONTINUOUS
 10
17.7462897436
 20
9.5995020891
 11
17.7876923427
 21
9.5995020891
  0
LINE
  5
481
100
AcDbEntity
  8
0
100
AcDbLine
 62
7
  6
CONTINUOUS
 10
15.3376923427
 20
9.6404981479
 11
14.5376923427
 21
9.6404981479
  0
LINE
  5
482
100
AcDbEntity
  8
0
100
AcDbLine
 62
7
  6
CONTINUOUS
 10
7.3376923427
 20
9.6404981479
 11
6.5376923427
 21
9.6404981479
  0
LINE
  5
483
100
AcDbEntity
  8
0
100
AcDbLine
 62
7
  6
CONTINUOUS
 10
15.2501923427
 20
9.7154981479
 11
14.6251923427
 21
9.7154981479
  0
LINE
  5
484
100
AcDbEntity
  8
0
100
AcDbLine
 62
7
  6
CONTINUOUS
 10
7.2501923427
 20
9.7154981479
 11
6.6251923427
 21
9.7154981479
  0
LINE
  5
485
100
AcDbEntity
  8
0
100
AcDbLine
 62
9
  6
CONTINUOUS
 10
6.6751923427
 20
9.7354981479
 11
7.2001923427
 21
9.7354981479
  0
LINE
  5
486
100
AcDbEntity
  8
0
100
AcDbLine
 62
9
  6
CONTINUOUS
 10
14.6751923427
 20
9.7354981479
 11
15.2001923427
 21
9.7354981479
  0
LINE
  5
487
100
AcDbEntity
  8
0
100
AcDbLine
 62
7
  6
CONTINUOUS
 10
15.2001923427
 20
9.7654981479
 11
14.6751923427
 21
9.7654981479
  0
LINE
  5
488
100
AcDbEntity
  8
0
100
AcDbLine
 62
7
  6
CONTINUOUS
 10
7.2001923427
 20
9.7654981479
 11
6.6751923427
 21
9.7654981479
  0
LWPOLYLINE
  5
489
100
AcDbEntity
  8
0
100
AcDbPolyline
 62
7
  6
CONTINUOUS
 90
4
 70
0
 10
6.4810538588
 20
9.5833130442
 10
5.6499324397
 20
9.6096392975
 10
4.8473812456
 20
9.6356874114
 10
4.1287567545
 20
9.6567419451
  0
LINE
  5
48A
100
AcDbEntity
  8
0
100
AcDbLine
 62
7
  6
CONTINUOUS
 10
9.7863471202
 20
9.7582052279
 11
9.7650238738
 21
9.7641015752
  0
LINE
  5
48B
100
AcDbEntity
  8
0
100
AcDbLine
 62
7
  6
CONTINUOUS
 10
10.3321522822
 20
10.4252449156
 11
10.3294935628
 21
10.4280222939
  0
LINE
  5
48C
100
AcDbEntity
  8
0
100
AcDbLine
 62
9
  6
CONTINUOUS
 10
11.6272189887
 20
10.9957614341
 11
11.6326968151
 21
10.94255818
  0
LINE
  5
48D
100
AcDbEntity
  8
0
100
AcDbLine
 62
7
  6
CONTINUOUS
 10
11.6326968151
 20
10.94255818
 11
11.6327662069
 21
10.9418112638
  0
LINE
  5
48E
100
AcDbEntity
  8
0
100
AcDbLine
 62
7
  6
CONTINUOUS
 10
11.6423774969
 20
10.8099477348
 11
11.6327662069
 21
10.9418112638
  0
LINE
  5
48F
100
AcDbEntity
  8
0
100
AcDbLine
 62
7
  6
CONTINUOUS
 10
11.4885923859
 20
7.3474981479
 11
11.4885923859
 21
7.4224981479
  0
LINE
  5
490
100
AcDbEntity
  8
0
100
AcDbLine
 62
7
  6
CONTINUOUS
 10
11.5008010938
 20
10.4347717175
 11
11.5008010938
 21
10.4992032305
  0
LINE
  5
491
100
AcDbEntity
  8
0
100
AcDbLine
 62
7
  6
CONTINUOUS
 10
11.5082609256
 20
7.3474981479
 11
11.5082609256
 21
7.4224981479
  0
LINE
  5
492
100
AcDbEntity
  8
0
100
AcDbLine
 62
7
  6
CONTINUOUS
 10
11.5138764743
 20
10.4973657331
 11
11.5138764743
 21
10.43293422
  0
LINE
  5
493
100
AcDbEntity
  8
0
100
AcDbLine
 62
7
  6
CONTINUOUS
 10
11.5262953834
 20
7.4224981479
 11
11.5262953834
 21
7.3474981479
  0
LINE
  5
494
100
AcDbEntity
  8
0
100
AcDbLine
 62
7
  6
CONTINUOUS
 10
11.5335507263
 20
7.3474981479
 11
11.5335507263
 21
7.4224981479
  0
LINE
  5
495
100
AcDbEntity
  8
0
100
AcDbLine
 62
7
  6
CONTINUOUS
 10
11.5337158302
 20
10.4299645121
 11
11.5337158302
 21
10.4943960251
  0
LINE
  5
496
100
AcDbEntity
  8
0
100
AcDbLine
 62
7
  6
CONTINUOUS
 10
11.5458911227
 20
10.492453807
 11
11.5458911227
 21
10.4280222939
  0
LINE
  5
497
100
AcDbEntity
  8
0
100
AcDbLine
 62
7
  6
CONTINUOUS
 10
11.553484617
 20
7.3474981479
 11
11.553484617
 21
7.4224981479
  0
LINE
  5
498
100
AcDbEntity
  8
0
100
AcDbLine
 62
7
  6
CONTINUOUS
 10
11.5626923427
 20
10.3632591303
 11
11.5626923427
 21
10.1798771316
  0
LINE
  5
499
100
AcDbEntity
  8
0
100
AcDbLine
 62
7
  6
CONTINUOUS
 10
11.5642783343
 20
10.4248940511
 11
11.5642783343
 21
10.4893255641
  0
LINE
  5
49A
100
AcDbEntity
  8
0
100
AcDbLine
 62
7
  6
CONTINUOUS
 10
11.5712278647
 20
7.4224981479
 11
11.5712278647
 21
7.3474981479
  0
LINE
  5
49B
100
AcDbEntity
  8
0
100
AcDbLine
 62
7
  6
CONTINUOUS
 10
11.5755054884
 20
10.4872862903
 11
11.5755054884
 21
10.4228547772
  0
LINE
  5
49C
100
AcDbEntity
  8
0
100
AcDbLine
 62
7
  6
CONTINUOUS
 10
11.5755054884
 20
10.3036634834
 11
11.5755054884
 21
10.3064133502
  0
LINE
  5
49D
100
AcDbEntity
  8
0
100
AcDbLine
 62
7
  6
CONTINUOUS
 10
11.577783105
 20
7.3474981479
 11
11.577783105
 21
7.4224981479
  0
LINE
  5
49E
100
AcDbEntity
  8
0
100
AcDbLine
 62
7
  6
CONTINUOUS
 10
11.5923679897
 20
10.4195803452
 11
11.5923679897
 21
10.4840118582
  0
LINE
  5
49F
100
AcDbEntity
  8
0
100
AcDbLine
 62
7
  6
CONTINUOUS
 10
11.5979580604
 20
7.3474981479
 11
11.5979580604
 21
7.4224981479
  0
LINE
  5
4A0
100
AcDbEntity
  8
0
100
AcDbLine
 62
7
  6
CONTINUOUS
 10
11.602602697
 20
10.4818835768
 11
11.602602697
 21
10.4174520637
  0
LINE
  5
4A1
100
AcDbEntity
  8
0
100
AcDbLine
 62
7
  6
CONTINUOUS
 10
11.602602697
 20
10.3090661968
 11
11.602602697
 21
10.3117776998
  0
LINE
  5
4A2
100
AcDbEntity
  8
0
100
AcDbLine
 62
7
  6
CONTINUOUS
 10
11.6153884805
 20
7.4224981479
 11
11.6153884805
 21
7.3474981479
  0
LINE
  5
4A3
100
AcDbEntity
  8
0
100
AcDbLine
 62
7
  6
CONTINUOUS
 10
11.6178739395
 20
10.4140443652
 11
11.6178739395
 21
10.4784758782
  0
LINE
  5
4A4
100
AcDbEntity
  8
0
100
AcDbLine
 62
7
  6
CONTINUOUS
 10
11.6212356318
 20
7.3474981479
 11
11.6212356318
 21
7.4224981479
  0
LINE
  5
4A5
100
AcDbEntity
  8
0
100
AcDbLine
 62
7
  6
CONTINUOUS
 10
11.6270758082
 20
10.4762669885
 11
11.6270758082
 21
10.4118354755
  0
LINE
  5
4A6
100
AcDbEntity
  8
0
100
AcDbLine
 62
7
  6
CONTINUOUS
 10
11.6270758082
 20
10.3146827851
 11
11.6270758082
 21
10.317345223
  0
LINE
  5
4A7
100
AcDbEntity
  8
0
100
AcDbLine
 62
7
  6
CONTINUOUS
 10
11.6406955232
 20
10.408307959
 11
11.6406955232
 21
10.4727394721
  0
LINE
  5
4A8
100
AcDbEntity
  8
0
100
AcDbLine
 62
7
  6
CONTINUOUS
 10
11.6416270717
 20
7.3474981479
 11
11.6416270717
 21
7.4224981479
  0
LINE
  5
4A9
100
AcDbEntity
  8
0
100
AcDbLine
 62
7
  6
CONTINUOUS
 10
11.6488282378
 20
10.4704586916
 11
11.6488282378
 21
10.4060271786
  0
LINE
  5
4AA
100
AcDbEntity
  8
0
100
AcDbLine
 62
7
  6
CONTINUOUS
 10
11.6488282378
 20
10.320491082
 11
11.6488282378
 21
10.3241244948
  0
LINE
  5
4AB
100
AcDbEntity
  8
0
100
AcDbLine
 62
7
  6
CONTINUOUS
 10
11.6587234279
 20
7.4224981479
 11
11.6587234279
 21
7.3474981479
  0
LINE
  5
4AC
100
AcDbEntity
  8
0
100
AcDbLine
 62
7
  6
CONTINUOUS
 10
11.6607426745
 20
10.4023937658
 11
11.6607426745
 21
10.4668252788
  0
LINE
  5
4AD
100
AcDbEntity
  8
0
100
AcDbLine
 62
7
  6
CONTINUOUS
 10
11.6638553663
 20
7.3474981479
 11
11.6638553663
 21
7.4224981479
  0
LINE
  5
4AE
100
AcDbEntity
  8
0
100
AcDbLine
 62
7
  6
CONTINUOUS
 10
11.6677741389
 20
10.4644816088
 11
11.6677741389
 21
10.4000500958
  0
LINE
  5
4AF
100
AcDbEntity
  8
0
100
AcDbLine
 62
7
  6
CONTINUOUS
 10
11.6677741389
 20
10.3264681648
 11
11.6677741389
 21
10.3301931346
  0
LINE
  5
4B0
100
AcDbEntity
  8
0
100
AcDbLine
 62
7
  6
CONTINUOUS
 10
11.6779362765
 20
10.396325126
 11
11.6779362765
 21
10.460756639
  0
LINE
  5
4B1
100
AcDbEntity
  8
0
100
AcDbLine
 62
7
  6
CONTINUOUS
 10
11.6838387407
 20
10.4583593288
 11
11.6838387407
 21
10.3939278158
  0
LINE
  5
4B2
100
AcDbEntity
  8
0
100
AcDbLine
 62
7
  6
CONTINUOUS
 10
11.6838387407
 20
10.3325904448
 11
11.6838387407
 21
10.3363922708
  0
LINE
  5
4B3
100
AcDbEntity
  8
0
100
AcDbLine
 62
7
  6
CONTINUOUS
 10
11.684438447
 20
7.3474981479
 11
11.684438447
 21
7.4224981479
  0
LINE
  5
4B4
100
AcDbEntity
  8
0
100
AcDbLine
 62
7
  6
CONTINUOUS
 10
11.6922084739
 20
10.3901259898
 11
11.6922084739
 21
10.4545575028
  0
LINE
  5
4B5
100
AcDbEntity
  8
0
100
AcDbLine
 62
7
  6
CONTINUOUS
 10
11.6969586436
 20
10.4521160136
 11
11.6969586436
 21
10.3876845005
  0
LINE
  5
4B6
100
AcDbEntity
  8
0
100
AcDbLine
 62
7
  6
CONTINUOUS
 10
11.6969586436
 20
10.33883376
 11
11.6969586436
 21
10.3426974382
  0
LINE
  5
4B7
100
AcDbEntity
  8
0
100
AcDbLine
 62
7
  6
CONTINUOUS
 10
11.7011799101
 20
7.4224981479
 11
11.7011799101
 21
7.3474981479
  0
LINE
  5
4B8
100
AcDbEntity
  8
0
100
AcDbLine
 62
7
  6
CONTINUOUS
 10
11.7035029408
 20
10.3838208224
 11
11.7035029408
 21
10.4482523355
  0
LINE
  5
4B9
100
AcDbEntity
  8
0
100
AcDbLine
 62
7
  6
CONTINUOUS
 10
11.7055903831
 20
7.3474981479
 11
11.7055903831
 21
7.4224981479
  0
LINE
  5
4BA
100
AcDbEntity
  8
0
100
AcDbLine
 62
7
  6
CONTINUOUS
 10
11.7070820692
 20
10.4457763025
 11
11.7070820692
 21
10.3813447895
  0
LINE
  5
4BB
100
AcDbEntity
  8
0
100
AcDbLine
 62
7
  6
CONTINUOUS
 10
11.7070820692
 20
10.3451734711
 11
11.7070820692
 21
10.3490837532
  0
LINE
  5
4BC
100
AcDbEntity
  8
0
100
AcDbLine
 62
7
  6
CONTINUOUS
 10
11.7117751032
 20
10.3774345074
 11
11.7117751032
 21
10.4418660205
  0
LINE
  5
4BD
100
AcDbEntity
  8
0
100
AcDbLine
 62
7
  6
CONTINUOUS
 10
11.7141690651
 20
10.4393652157
 11
11.7141690651
 21
10.3749337026
  0
LINE
  5
4BE
100
AcDbEntity
  8
0
100
AcDbLine
 62
7
  6
CONTINUOUS
 10
11.7141690651
 20
10.351584558
 11
11.7141690651
 21
10.3555260119
  0
LINE
  5
4BF
100
AcDbEntity
  8
0
100
AcDbLine
 62
7
  6
CONTINUOUS
 10
11.7169923145
 20
10.3709922487
 11
11.7169923145
 21
10.4354237617
  0
LINE
  5
4C0
100
AcDbEntity
  8
0
100
AcDbLine
 62
7
  6
CONTINUOUS
 10
11.7181916621
 20
10.4329080546
 11
11.7181916621
 21
10.3709922487
  0
LINE
  5
4C1
100
AcDbEntity
  8
0
100
AcDbLine
 62
7
  6
CONTINUOUS
 10
11.7181916621
 20
10.358041719
 11
11.7181916621
 21
10.3632591303
  0
LINE
  5
4C2
100
AcDbEntity
  8
0
100
AcDbLine
 62
7
  6
CONTINUOUS
 10
11.7191339849
 20
10.3645194708
 11
11.7191339849
 21
10.4289509839
  0
LINE
  5
4C3
100
AcDbEntity
  8
0
100
AcDbLine
 62
7
  6
CONTINUOUS
 10
11.7263400271
 20
7.3474981479
 11
11.7263400271
 21
7.4224981479
  0
LINE
  5
4C4
100
AcDbEntity
  8
0
100
AcDbLine
 62
7
  6
CONTINUOUS
 10
11.7427062003
 20
7.4224981479
 11
11.7427062003
 21
7.3474981479
  0
LINE
  5
4C5
100
AcDbEntity
  8
0
100
AcDbLine
 62
7
  6
CONTINUOUS
 10
11.7463898344
 20
7.3474981479
 11
11.7463898344
 21
7.4224981479
  0
LINE
  5
4C6
100
AcDbEntity
  8
0
100
AcDbLine
 62
7
  6
CONTINUOUS
 10
11.7672807616
 20
7.3474981479
 11
11.7672807616
 21
7.4224981479
  0
LINE
  5
4C7
100
AcDbEntity
  8
0
100
AcDbLine
 62
7
  6
CONTINUOUS
 10
11.783251705
 20
7.4224981479
 11
11.783251705
 21
7.3474981479
  0
LINE
  5
4C8
100
AcDbEntity
  8
0
100
AcDbLine
 62
7
  6
CONTINUOUS
 10
11.7862040124
 20
7.3474981479
 11
11.7862040124
 21
7.4224981479
  0
LINE
  5
4C9
100
AcDbEntity
  8
0
100
AcDbLine
 62
7
  6
CONTINUOUS
 10
11.8072107704
 20
7.3474981479
 11
11.8072107704
 21
7.4224981479
  0
LINE
  5
4CA
100
AcDbEntity
  8
0
100
AcDbLine
 62
7
  6
CONTINUOUS
 10
11.822767026
 20
7.4224981479
 11
11.822767026
 21
7.3474981479
  0
LINE
  5
4CB
100
AcDbEntity
  8
0
100
AcDbLine
 62
7
  6
CONTINUOUS
 10
11.8249844096
 20
7.3474981479
 11
11.8249844096
 21
7.4224981479
  0
LINE
  5
4CC
100
AcDbEntity
  8
0
100
AcDbLine
 62
7
  6
CONTINUOUS
 10
11.8460814048
 20
7.3474981479
 11
11.8460814048
 21
7.4224981479
  0
LINE
  5
4CD
100
AcDbEntity
  8
0
100
AcDbLine
 62
7
  6
CONTINUOUS
 10
11.8612040198
 20
7.4224981479
 11
11.8612040198
 21
7.3474981479
  0
LINE
  5
4CE
100
AcDbEntity
  8
0
100
AcDbLine
 62
7
  6
CONTINUOUS
 10
11.862683778
 20
7.3474981479
 11
11.862683778
 21
7.4224981479
  0
LINE
  5
4CF
100
AcDbEntity
  8
0
100
AcDbLine
 62
7
  6
CONTINUOUS
 10
11.8838453072
 20
7.3474981479
 11
11.8838453072
 21
7.4224981479
  0
LINE
  5
4D0
100
AcDbEntity
  8
0
100
AcDbLine
 62
7
  6
CONTINUOUS
 10
11.8985158568
 20
7.4224981479
 11
11.8985158568
 21
7.3474981479
  0
LINE
  5
4D1
100
AcDbEntity
  8
0
100
AcDbLine
 62
7
  6
CONTINUOUS
 10
11.9204564679
 20
7.3474981479
 11
11.9204564679
 21
7.4224981479
  0
LINE
  5
4D2
100
AcDbEntity
  8
0
100
AcDbLine
 62
7
  6
CONTINUOUS
 10
11.9346570784
 20
7.4224981479
 11
11.9346570784
 21
7.3474981479
  0
LINE
  5
4D3
100
AcDbEntity
  8
0
100
AcDbLine
 62
7
  6
CONTINUOUS
 10
11.9558702819
 20
7.3474981479
 11
11.9558702819
 21
7.4224981479
  0
LWPOLYLINE
  5
4D4
100
AcDbEntity
  8
0
100
AcDbPolyline
 62
7
  6
CONTINUOUS
 90
3
 70
0
 10
11.6423593549
 20
10.4726825483
 10
11.6469998695
 20
10.6083205505
 10
11.6423774969
 20
10.8099477348
  0
LINE
  5
4D5
100
AcDbEntity
  8
0
100
AcDbLine
 62
7
  6
CONTINUOUS
 10
11.6677741389
 20
10.4000500958
 11
11.6587419962
 21
10.397517075
  0
LINE
  5
4D6
100
AcDbEntity
  8
0
100
AcDbLine
 62
7
  6
CONTINUOUS
 10
11.6838387407
 20
10.3939278158
 11
11.673619202
 21
10.3914746365
  0
LINE
  5
4D7
100
AcDbEntity
  8
0
100
AcDbLine
 62
7
  6
CONTINUOUS
 10
11.6969586436
 20
10.3876845005
 11
11.6855920408
 21
10.3853208443
  0
LINE
  5
4D8
100
AcDbEntity
  8
0
100
AcDbLine
 62
7
  6
CONTINUOUS
 10
11.7070820692
 20
10.3813447895
 11
11.6946132611
 21
10.3790799845
  0
LINE
  5
4D9
100
AcDbEntity
  8
0
100
AcDbLine
 62
7
  6
CONTINUOUS
 10
11.7141690651
 20
10.3749337026
 11
11.7006472603
 21
10.3727766871
  0
LINE
  5
4DA
100
AcDbEntity
  8
0
100
AcDbLine
 62
7
  6
CONTINUOUS
 10
11.7181916621
 20
10.3684765416
 11
11.7036702251
 21
10.3664358282
  0
LINE
  5
4DB
100
AcDbEntity
  8
0
100
AcDbLine
 62
7
  6
CONTINUOUS
 10
11.7191339849
 20
10.3619987897
 11
11.7036702251
 21
10.3600824324
  0
LINE
  5
4DC
100
AcDbEntity
  8
0
100
AcDbLine
 62
7
  6
CONTINUOUS
 10
11.7169923145
 20
10.3555260119
 11
11.7006472603
 21
10.3537415735
  0
LINE
  5
4DD
100
AcDbEntity
  8
0
100
AcDbLine
 62
7
  6
CONTINUOUS
 10
11.7117751032
 20
10.3490837532
 11
11.6946132611
 21
10.347438276
  0
LINE
  5
4DE
100
AcDbEntity
  8
0
100
AcDbLine
 62
7
  6
CONTINUOUS
 10
11.7035029408
 20
10.3426974382
 11
11.6855920408
 21
10.3411974163
  0
LINE
  5
4DF
100
AcDbEntity
  8
0
100
AcDbLine
 62
7
  6
CONTINUOUS
 10
11.6922084739
 20
10.3363922708
 11
11.673619202
 21
10.3350436241
  0
LINE
  5
4E0
100
AcDbEntity
  8
0
100
AcDbLine
 62
7
  6
CONTINUOUS
 10
11.6779362765
 20
10.3301931346
 11
11.6587419962
 21
10.3290011855
  0
LINE
  5
4E1
100
AcDbEntity
  8
0
100
AcDbLine
 62
7
  6
CONTINUOUS
 10
11.6607426745
 20
10.3241244948
 11
11.6410191368
 21
10.3230939475
  0
LINE
  5
4E2
100
AcDbEntity
  8
0
100
AcDbLine
 62
7
  6
CONTINUOUS
 10
11.6406955232
 20
10.3182103015
 11
11.6205205678
 21
10.317345223
  0
LINE
  5
4E3
100
AcDbEntity
  8
0
100
AcDbLine
 62
7
  6
CONTINUOUS
 10
11.6178739395
 20
10.3124738954
 11
11.5973271878
 21
10.3117776998
  0
LINE
  5
4E4
100
AcDbEntity
  8
0
100
AcDbLine
 62
7
  6
CONTINUOUS
 10
11.5923679897
 20
10.3069379154
 11
11.5715305304
 21
10.3064133502
  0
LINE
  5
4E5
100
AcDbEntity
  8
0
100
AcDbLine
 62
9
  6
CONTINUOUS
 10
12.2172199018
 20
9.9173341797
 11
12.0707911254
 21
9.9173341797
  0
LINE
  5
4E6
100
AcDbEntity
  8
0
100
AcDbLine
 62
9
  6
CONTINUOUS
 10
9.8045886561
 20
9.9173341671
 11
9.6581647837
 21
9.9173341671
  0
LINE
  5
4E7
100
AcDbEntity
  8
0
100
AcDbLine
 62
9
  6
CONTINUOUS
 10
12.1988705975
 20
9.9414332331
 11
12.0369848904
 21
9.9414332367
  0
LINE
  5
4E8
100
AcDbEntity
  8
0
100
AcDbLine
 62
9
  6
CONTINUOUS
 10
9.8383977778
 20
9.9414331371
 11
9.6765141856
 21
9.9414331123
  0
LINE
  5
4E9
100
AcDbEntity
  8
0
100
AcDbLine
 62
7
  6
CONTINUOUS
 10
10.303854155
 20
10.3064133502
 11
10.2830166957
 21
10.3069379154
  0
LINE
  5
4EA
100
AcDbEntity
  8
0
100
AcDbLine
 62
7
  6
CONTINUOUS
 10
10.2780574977
 20
10.3117776998
 11
10.257510746
 21
10.3124738954
  0
LINE
  5
4EB
100
AcDbEntity
  8
0
100
AcDbLine
 62
7
  6
CONTINUOUS
 10
10.2548641177
 20
10.317345223
 11
10.2346891623
 21
10.3182103015
  0
LINE
  5
4EC
100
AcDbEntity
  8
0
100
AcDbLine
 62
7
  6
CONTINUOUS
 10
10.2343655487
 20
10.3230939475
 11
10.214642011
 21
10.3241244948
  0
LINE
  5
4ED
100
AcDbEntity
  8
0
100
AcDbLine
 62
7
  6
CONTINUOUS
 10
10.2166426893
 20
10.3290011855
 11
10.197448409
 21
10.3301931346
  0
LINE
  5
4EE
100
AcDbEntity
  8
0
100
AcDbLine
 62
7
  6
CONTINUOUS
 10
10.2017654835
 20
10.3350436241
 11
10.1831762116
 21
10.3363922708
  0
LINE
  5
4EF
100
AcDbEntity
  8
0
100
AcDbLine
 62
7
  6
CONTINUOUS
 10
10.1897926447
 20
10.3411974163
 11
10.1718817447
 21
10.3426974382
  0
LINE
  5
4F0
100
AcDbEntity
  8
0
100
AcDbLine
 62
7
  6
CONTINUOUS
 10
10.1807714244
 20
10.347438276
 11
10.1636095823
 21
10.3490837532
  0
LINE
  5
4F1
100
AcDbEntity
  8
0
100
AcDbLine
 62
7
  6
CONTINUOUS
 10
10.1747374251
 20
10.3537415735
 11
10.158392371
 21
10.3555260119
  0
LINE
  5
4F2
100
AcDbEntity
  8
0
100
AcDbLine
 62
7
  6
CONTINUOUS
 10
10.1717144604
 20
10.3600824324
 11
10.1562507006
 21
10.3619987897
  0
LINE
  5
4F3
100
AcDbEntity
  8
0
100
AcDbLine
 62
7
  6
CONTINUOUS
 10
10.1717144604
 20
10.3664358282
 11
10.1571930234
 21
10.3684765416
  0
LINE
  5
4F4
100
AcDbEntity
  8
0
100
AcDbLine
 62
7
  6
CONTINUOUS
 10
10.1747374251
 20
10.3727766871
 11
10.1612156204
 21
10.3749337026
  0
LINE
  5
4F5
100
AcDbEntity
  8
0
100
AcDbLine
 62
7
  6
CONTINUOUS
 10
10.1807714244
 20
10.3790799845
 11
10.1683026163
 21
10.3813447895
  0
LINE
  5
4F6
100
AcDbEntity
  8
0
100
AcDbLine
 62
7
  6
CONTINUOUS
 10
10.1897926447
 20
10.3853208443
 11
10.1784260419
 21
10.3876845005
  0
LINE
  5
4F7
100
AcDbEntity
  8
0
100
AcDbLine
 62
7
  6
CONTINUOUS
 10
10.2017654835
 20
10.3914746365
 11
10.1915459448
 21
10.3939278158
  0
LINE
  5
4F8
100
AcDbEntity
  8
0
100
AcDbLine
 62
7
  6
CONTINUOUS
 10
10.2166426893
 20
10.397517075
 11
10.2076105466
 21
10.4000500958
  0
LINE
  5
4F9
100
AcDbEntity
  8
0
100
AcDbLine
 62
7
  6
CONTINUOUS
 10
10.2343655487
 20
10.4034243131
 11
10.2265564477
 21
10.4060271786
  0
LINE
  5
4FA
100
AcDbEntity
  8
0
100
AcDbLine
 62
7
  6
CONTINUOUS
 10
10.2548641177
 20
10.4091730376
 11
10.2483088773
 21
10.4118354755
  0
LINE
  5
4FB
100
AcDbEntity
  8
0
100
AcDbLine
 62
7
  6
CONTINUOUS
 10
10.2780574977
 20
10.4147405608
 11
10.2727819885
 21
10.4174520637
  0
LINE
  5
4FC
100
AcDbEntity
  8
0
100
AcDbLine
 62
7
  6
CONTINUOUS
 10
10.303854155
 20
10.4201049103
 11
10.2998791971
 21
10.4228547772
  0
LINE
  5
4FD
100
AcDbEntity
  8
0
100
AcDbLine
 62
7
  6
CONTINUOUS
 10
11.4431606922
 20
10.441914845
 11
11.4444926803
 21
10.4391209162
  0
LINE
  5
4FE
100
AcDbEntity
  8
0
100
AcDbLine
 62
7
  6
CONTINUOUS
 10
11.9695836521
 20
7.4224981479
 11
11.9695836521
 21
7.3474981479
  0
LINE
  5
4FF
100
AcDbEntity
  8
0
100
AcDbLine
 62
7
  6
CONTINUOUS
 10
11.9900436029
 20
7.3474981479
 11
11.9900436029
 21
7.4224981479
  0
LINE
  5
500
100
AcDbEntity
  8
0
100
AcDbLine
 62
7
  6
CONTINUOUS
 10
12.0032530251
 20
7.4224981479
 11
12.0032530251
 21
7.3474981479
  0
LINE
  5
501
100
AcDbEntity
  8
0
100
AcDbLine
 62
7
  6
CONTINUOUS
 10
12.022934796
 20
7.3474981479
 11
12.022934796
 21
7.4224981479
  0
LINE
  5
502
100
AcDbEntity
  8
0
100
AcDbLine
 62
7
  6
CONTINUOUS
 10
12.0356241766
 20
7.4224981479
 11
12.0356241766
 21
7.3474981479
  0
LINE
  5
503
100
AcDbEntity
  8
0
100
AcDbLine
 62
7
  6
CONTINUOUS
 10
12.0501923427
 20
8.0334981479
 11
12.0501923427
 21
7.5224981479
  0
LINE
  5
504
100
AcDbEntity
  8
0
100
AcDbLine
 62
7
  6
CONTINUOUS
 10
12.0545037884
 20
7.3474981479
 11
12.0545037884
 21
7.4224981479
  0
LINE
  5
505
100
AcDbEntity
  8
0
100
AcDbLine
 62
7
  6
CONTINUOUS
 10
12.0666576673
 20
7.4224981479
 11
12.0666576673
 21
7.3474981479
  0
LINE
  5
506
100
AcDbEntity
  8
0
100
AcDbLine
 62
7
  6
CONTINUOUS
 10
12.084712118
 20
7.3474981479
 11
12.084712118
 21
7.4224981479
  0
LINE
  5
507
100
AcDbEntity
  8
0
100
AcDbLine
 62
7
  6
CONTINUOUS
 10
12.0963156876
 20
7.4224981479
 11
12.0963156876
 21
7.3474981479
  0
LINE
  5
508
100
AcDbEntity
  8
0
100
AcDbLine
 62
7
  6
CONTINUOUS
 10
12.1135229807
 20
7.3474981479
 11
12.1135229807
 21
7.4224981479
  0
LINE
  5
509
100
AcDbEntity
  8
0
100
AcDbLine
 62
7
  6
CONTINUOUS
 10
12.1245621039
 20
7.4224981479
 11
12.1245621039
 21
7.3474981479
  0
LINE
  5
50A
100
AcDbEntity
  8
0
100
AcDbLine
 62
7
  6
CONTINUOUS
 10
12.1409012749
 20
7.3474981479
 11
12.1409012749
 21
7.4224981479
  0
LINE
  5
50B
100
AcDbEntity
  8
0
100
AcDbLine
 62
7
  6
CONTINUOUS
 10
12.1513625021
 20
7.4224981479
 11
12.1513625021
 21
7.3474981479
  0
LINE
  5
50C
100
AcDbEntity
  8
0
100
AcDbLine
 62
7
  6
CONTINUOUS
 10
12.1668136444
 20
7.3474981479
 11
12.1668136444
 21
7.4224981479
  0
LINE
  5
50D
100
AcDbEntity
  8
0
100
AcDbLine
 62
7
  6
CONTINUOUS
 10
12.1766842303
 20
7.4224981479
 11
12.1766842303
 21
7.3474981479
  0
LINE
  5
50E
100
AcDbEntity
  8
0
100
AcDbLine
 62
7
  6
CONTINUOUS
 10
12.1912285189
 20
7.3474981479
 11
12.1912285189
 21
7.4224981479
  0
LINE
  5
50F
100
AcDbEntity
  8
0
100
AcDbLine
 62
7
  6
CONTINUOUS
 10
12.2004964376
 20
7.4224981479
 11
12.2004964376
 21
7.3474981479
  0
LINE
  5
510
100
AcDbEntity
  8
0
100
AcDbLine
 62
7
  6
CONTINUOUS
 10
12.2141161526
 20
7.3474981479
 11
12.2141161526
 21
7.4224981479
  0
LINE
  5
511
100
AcDbEntity
  8
0
100
AcDbLine
 62
7
  6
CONTINUOUS
 10
12.2172199018
 20
9.9173341797
 11
12.2172199018
 21
8.3819886765
  0
LINE
  5
512
100
AcDbEntity
  8
0
100
AcDbLine
 62
7
  6
CONTINUOUS
 10
12.2227701127
 20
7.4224981479
 11
12.2227701127
 21
7.3474981479
  0
LINE
  5
513
100
AcDbEntity
  8
0
100
AcDbLine
 62
7
  6
CONTINUOUS
 10
12.2354486606
 20
7.3474981479
 11
12.2354486606
 21
7.4224981479
  0
LINE
  5
514
100
AcDbEntity
  8
0
100
AcDbLine
 62
7
  6
CONTINUOUS
 10
12.2434781185
 20
7.4224981479
 11
12.2434781185
 21
7.3474981479
  0
LINE
  5
515
100
AcDbEntity
  8
0
100
AcDbLine
 62
7
  6
CONTINUOUS
 10
12.2552000524
 20
7.3474981479
 11
12.2552000524
 21
7.4224981479
  0
LINE
  5
516
100
AcDbEntity
  8
0
100
AcDbLine
 62
7
  6
CONTINUOUS
 10
12.2625952255
 20
7.4224981479
 11
12.2625952255
 21
7.3474981479
  0
LINE
  5
517
100
AcDbEntity
  8
0
100
AcDbLine
 62
7
  6
CONTINUOUS
 10
12.273346264
 20
7.3474981479
 11
12.273346264
 21
7.4224981479
  0
LINE
  5
518
100
AcDbEntity
  8
0
100
AcDbLine
 62
7
  6
CONTINUOUS
 10
12.2800981424
 20
7.4224981479
 11
12.2800981424
 21
7.3474981479
  0
LINE
  5
519
100
AcDbEntity
  8
0
100
AcDbLine
 62
7
  6
CONTINUOUS
 10
12.289865187
 20
7.3474981479
 11
12.289865187
 21
7.4224981479
  0
LINE
  5
51A
100
AcDbEntity
  8
0
100
AcDbLine
 62
7
  6
CONTINUOUS
 10
12.2959655446
 20
7.4224981479
 11
12.2959655446
 21
7.3474981479
  0
LINE
  5
51B
100
AcDbEntity
  8
0
100
AcDbLine
 62
7
  6
CONTINUOUS
 10
12.3047366957
 20
7.3474981479
 11
12.3047366957
 21
7.4224981479
  0
LINE
  5
51C
100
AcDbEntity
  8
0
100
AcDbLine
 62
7
  6
CONTINUOUS
 10
12.3101781001
 20
7.4224981479
 11
12.3101781001
 21
7.3474981479
  0
LINE
  5
51D
100
AcDbEntity
  8
0
100
AcDbLine
 62
7
  6
CONTINUOUS
 10
12.3126923427
 20
7.1474981479
 11
12.3126923427
 21
7.3474981479
  0
LINE
  5
51E
100
AcDbEntity
  8
0
100
AcDbLine
 62
7
  6
CONTINUOUS
 10
12.3179426715
 20
7.3474981479
 11
12.3179426715
 21
7.4224981479
  0
LINE
  5
51F
100
AcDbEntity
  8
0
100
AcDbLine
 62
7
  6
CONTINUOUS
 10
12.3227184932
 20
7.4224981479
 11
12.3227184932
 21
7.3474981479
  0
LINE
  5
520
100
AcDbEntity
  8
0
100
AcDbLine
 62
7
  6
CONTINUOUS
 10
12.3294670248
 20
7.3474981479
 11
12.3294670248
 21
7.4224981479
  0
LINE
  5
521
100
AcDbEntity
  8
0
100
AcDbLine
 62
7
  6
CONTINUOUS
 10
12.3335714452
 20
7.4224981479
 11
12.3335714452
 21
7.3474981479
  0
LINE
  5
522
100
AcDbEntity
  8
0
100
AcDbLine
 62
7
  6
CONTINUOUS
 10
12.3392957151
 20
7.3474981479
 11
12.3392957151
 21
7.4224981479
  0
LINE
  5
523
100
AcDbEntity
  8
0
100
AcDbLine
 62
7
  6
CONTINUOUS
 10
12.3427237336
 20
7.4224981479
 11
12.3427237336
 21
7.3474981479
  0
LINE
  5
524
100
AcDbEntity
  8
0
100
AcDbLine
 62
7
  6
CONTINUOUS
 10
12.3474167675
 20
7.3474981479
 11
12.3474167675
 21
7.4224981479
  0
LINE
  5
525
100
AcDbEntity
  8
0
100
AcDbLine
 62
7
  6
CONTINUOUS
 10
12.3501642076
 20
7.4224981479
 11
12.3501642076
 21
7.3474981479
  0
LINE
  5
526
100
AcDbEntity
  8
0
100
AcDbLine
 62
7
  6
CONTINUOUS
 10
12.3538202879
 20
7.3474981479
 11
12.3538202879
 21
7.4224981479
  0
LINE
  5
527
100
AcDbEntity
  8
0
100
AcDbLine
 62
7
  6
CONTINUOUS
 10
12.3558838022
 20
7.4224981479
 11
12.3558838022
 21
7.3474981479
  0
LINE
  5
528
100
AcDbEntity
  8
0
100
AcDbLine
 62
7
  6
CONTINUOUS
 10
12.3584984745
 20
7.3474981479
 11
12.3584984745
 21
7.4224981479
  0
LINE
  5
529
100
AcDbEntity
  8
0
100
AcDbLine
 62
7
  6
CONTINUOUS
 10
12.3598755491
 20
7.4224981479
 11
12.3598755491
 21
7.3474981479
  0
LINE
  5
52A
100
AcDbEntity
  8
0
100
AcDbLine
 62
7
  6
CONTINUOUS
 10
12.3614456277
 20
7.3474981479
 11
12.3614456277
 21
7.4224981479
  0
LINE
  5
52B
100
AcDbEntity
  8
0
100
AcDbLine
 62
7
  6
CONTINUOUS
 10
12.3626581569
 20
7.3474981479
 11
12.3626581569
 21
7.4224981479
  0
LINE
  5
52C
100
AcDbEntity
  8
0
100
AcDbLine
 62
7
  6
CONTINUOUS
 10
12.3626923427
 20
6.9474981479
 11
12.3626923427
 21
7.0974981479
  0
LINE
  5
52D
100
AcDbEntity
  8
0
100
AcDbLine
 62
7
  6
CONTINUOUS
 10
10.2076105466
 20
10.3264681648
 11
10.2166426893
 21
10.3290011855
  0
LINE
  5
52E
100
AcDbEntity
  8
0
100
AcDbLine
 62
7
  6
CONTINUOUS
 10
10.678098494
 20
10.4584142324
 11
10.6871306367
 21
10.4609472532
  0
LINE
  5
52F
100
AcDbEntity
  8
0
100
AcDbLine
 62
7
  6
CONTINUOUS
 10
10.6871306367
 20
10.5253787662
 11
10.678098494
 21
10.5228457455
  0
LINE
  5
530
100
AcDbEntity
  8
0
100
AcDbLine
 62
7
  6
CONTINUOUS
 10
10.1915459448
 20
10.3325904448
 11
10.2017654835
 21
10.3350436241
  0
LINE
  5
531
100
AcDbEntity
  8
0
100
AcDbLine
 62
7
  6
CONTINUOUS
 10
10.7238858255
 20
10.4603775397
 11
10.7341053642
 21
10.462830719
  0
LINE
  5
532
100
AcDbEntity
  8
0
100
AcDbLine
 62
7
  6
CONTINUOUS
 10
10.7341053642
 20
10.5272622321
 11
10.7238858255
 21
10.5248090528
  0
LINE
  5
533
100
AcDbEntity
  8
0
100
AcDbLine
 62
7
  6
CONTINUOUS
 10
10.1784260419
 20
10.33883376
 11
10.1897926447
 21
10.3411974163
  0
LINE
  5
534
100
AcDbEntity
  8
0
100
AcDbLine
 62
7
  6
CONTINUOUS
 10
10.7705169537
 20
10.461957565
 11
10.7818835565
 21
10.4643212213
  0
LINE
  5
535
100
AcDbEntity
  8
0
100
AcDbLine
 62
7
  6
CONTINUOUS
 10
10.7818835565
 20
10.5287527343
 11
10.7705169537
 21
10.5263890781
  0
LINE
  5
536
100
AcDbEntity
  8
0
100
AcDbLine
 62
7
  6
CONTINUOUS
 10
10.1683026163
 20
10.3451734711
 11
10.1807714244
 21
10.347438276
  0
LINE
  5
537
100
AcDbEntity
  8
0
100
AcDbLine
 62
7
  6
CONTINUOUS
 10
10.8178078467
 20
10.4631480727
 11
10.8302766548
 21
10.4654128777
  0
LINE
  5
538
100
AcDbEntity
  8
0
100
AcDbLine
 62
7
  6
CONTINUOUS
 10
10.8302766548
 20
10.5298443907
 11
10.8178078467
 21
10.5275795858
  0
LINE
  5
539
100
AcDbEntity
  8
0
100
AcDbLine
 62
7
  6
CONTINUOUS
 10
10.1612156204
 20
10.351584558
 11
10.1747374251
 21
10.3537415735
  0
LINE
  5
53A
100
AcDbEntity
  8
0
100
AcDbLine
 62
7
  6
CONTINUOUS
 10
10.8655718691
 20
10.4639443644
 11
10.8790936739
 21
10.4661013799
  0
LINE
  5
53B
100
AcDbEntity
  8
0
100
AcDbLine
 62
7
  6
CONTINUOUS
 10
10.8790936739
 20
10.5305328929
 11
10.8655718691
 21
10.5283758774
  0
LINE
  5
53C
100
AcDbEntity
  8
0
100
AcDbLine
 62
7
  6
CONTINUOUS
 10
10.1571930234
 20
10.358041719
 11
10.1717144604
 21
10.3600824324
  0
LINE
  5
53D
100
AcDbEntity
  8
0
100
AcDbLine
 62
7
  6
CONTINUOUS
 10
10.913620518
 20
10.4643432974
 11
10.928141955
 21
10.4663840107
  0
LINE
  5
53E
100
AcDbEntity
  8
0
100
AcDbLine
 62
7
  6
CONTINUOUS
 10
10.928141955
 20
10.5308155238
 11
10.913620518
 21
10.5287748104
  0
LINE
  5
53F
100
AcDbEntity
  8
0
100
AcDbLine
 62
7
  6
CONTINUOUS
 10
10.1562507006
 20
10.3645194708
 11
10.1717144604
 21
10.3664358282
  0
LINE
  5
540
100
AcDbEntity
  8
0
100
AcDbLine
 62
7
  6
CONTINUOUS
 10
10.9617641675
 20
10.4643432974
 11
10.9772279272
 21
10.4662596548
  0
LINE
  5
541
100
AcDbEntity
  8
0
100
AcDbLine
 62
7
  6
CONTINUOUS
 10
10.9772279272
 20
10.5306911678
 11
10.9617641675
 21
10.5287748104
  0
LINE
  5
542
100
AcDbEntity
  8
0
100
AcDbLine
 62
7
  6
CONTINUOUS
 10
10.1576617361
 20
10.4291258475
 11
10.1562507006
 21
10.4289509839
  0
LINE
  5
543
100
AcDbEntity
  8
0
100
AcDbLine
 62
7
  6
CONTINUOUS
 10
10.158392371
 20
10.3709922487
 11
10.1747374251
 21
10.3727766871
  0
LINE
  5
544
100
AcDbEntity
  8
0
100
AcDbLine
 62
7
  6
CONTINUOUS
 10
11.0098128164
 20
10.4639443644
 11
11.0261578706
 21
10.4657288028
  0
LINE
  5
545
100
AcDbEntity
  8
0
100
AcDbLine
 62
7
  6
CONTINUOUS
 10
11.0261578706
 20
10.5301603158
 11
11.0098128164
 21
10.5283758774
  0
LINE
  5
546
100
AcDbEntity
  8
0
100
AcDbLine
 62
7
  6
CONTINUOUS
 10
10.1616075992
 20
10.4357747778
 11
10.158392371
 21
10.4354237617
  0
LINE
  5
547
100
AcDbEntity
  8
0
100
AcDbLine
 62
7
  6
CONTINUOUS
 10
10.1636095823
 20
10.3774345074
 11
10.1807714244
 21
10.3790799845
  0
LINE
  5
548
100
AcDbEntity
  8
0
100
AcDbLine
 62
7
  6
CONTINUOUS
 10
11.0575768388
 20
10.4631480727
 11
11.0747386808
 21
10.4647935498
  0
LINE
  5
549
100
AcDbEntity
  8
0
100
AcDbLine
 62
7
  6
CONTINUOUS
 10
11.0747386808
 20
10.5292250629
 11
11.0575768388
 21
10.5275795858
  0
LINE
  5
54A
100
AcDbEntity
  8
0
100
AcDbLine
 62
7
  6
CONTINUOUS
 10
10.1686313689
 20
10.4423475093
 11
10.1636095823
 21
10.4418660205
  0
LINE
  5
54B
100
AcDbEntity
  8
0
100
AcDbLine
 62
7
  6
CONTINUOUS
 10
10.1718817447
 20
10.3838208224
 11
10.1897926447
 21
10.3853208443
  0
LINE
  5
54C
100
AcDbEntity
  8
0
100
AcDbLine
 62
7
  6
CONTINUOUS
 10
11.1048677318
 20
10.461957565
 11
11.1227786318
 21
10.4634575869
  0
LINE
  5
54D
100
AcDbEntity
  8
0
100
AcDbLine
 62
7
  6
CONTINUOUS
 10
11.1227786318
 20
10.5278891
 11
11.1048677318
 21
10.5263890781
  0
LINE
  5
54E
100
AcDbEntity
  8
0
100
AcDbLine
 62
7
  6
CONTINUOUS
 10
10.1787017863
 20
10.4488235078
 11
10.1718817447
 21
10.4482523355
  0
LINE
  5
54F
100
AcDbEntity
  8
0
100
AcDbLine
 62
7
  6
CONTINUOUS
 10
10.1831762116
 20
10.3901259898
 11
10.2017654835
 21
10.3914746365
  0
LINE
  5
550
100
AcDbEntity
  8
0
100
AcDbLine
 62
7
  6
CONTINUOUS
 10
11.1514988599
 20
10.4603775397
 11
11.1700881318
 21
10.4617261865
  0
LINE
  5
551
100
AcDbEntity
  8
0
100
AcDbLine
 62
7
  6
CONTINUOUS
 10
11.1700881318
 20
10.5261576995
 11
11.1514988599
 21
10.5248090528
  0
LINE
  5
552
100
AcDbEntity
  8
0
100
AcDbLine
 62
7
  6
CONTINUOUS
 10
10.1917764989
 20
10.4551814514
 11
10.1831762116
 21
10.4545575028
  0
LINE
  5
553
100
AcDbEntity
  8
0
100
AcDbLine
 62
7
  6
CONTINUOUS
 10
10.197448409
 20
10.396325126
 11
10.2166426893
 21
10.397517075
  0
LINE
  5
554
100
AcDbEntity
  8
0
100
AcDbLine
 62
7
  6
CONTINUOUS
 10
11.1972861915
 20
10.4584142324
 11
11.2164804718
 21
10.4596061815
  0
LINE
  5
555
100
AcDbEntity
  8
0
100
AcDbLine
 62
7
  6
CONTINUOUS
 10
11.2164804718
 20
10.5240376946
 11
11.1972861915
 21
10.5228457455
  0
LINE
  5
556
100
AcDbEntity
  8
0
100
AcDbLine
 62
7
  6
CONTINUOUS
 10
10.2078019377
 20
10.4613995847
 11
10.197448409
 21
10.460756639
  0
LINE
  5
557
100
AcDbEntity
  8
0
100
AcDbLine
 62
7
  6
CONTINUOUS
 10
10.214642011
 20
10.4023937658
 11
10.2343655487
 21
10.4034243131
  0
LINE
  5
558
100
AcDbEntity
  8
0
100
AcDbLine
 62
7
  6
CONTINUOUS
 10
11.2420490246
 20
10.4560753914
 11
11.2617725624
 21
10.4571059388
  0
LINE
  5
559
100
AcDbEntity
  8
0
100
AcDbLine
 62
7
  6
CONTINUOUS
 10
11.2617725624
 20
10.5215374518
 11
11.2420490246
 21
10.5205069045
  0
LINE
  5
55A
100
AcDbEntity
  8
0
100
AcDbLine
 62
7
  6
CONTINUOUS
 10
10.2267133371
 20
10.467456001
 11
10.214642011
 21
10.4668252788
  0
LINE
  5
55B
100
AcDbEntity
  8
0
100
AcDbLine
 62
7
  6
CONTINUOUS
 10
10.2346891623
 20
10.408307959
 11
10.2548641177
 21
10.4091730376
  0
LINE
  5
55C
100
AcDbEntity
  8
0
100
AcDbLine
 62
7
  6
CONTINUOUS
 10
11.285610701
 20
10.4533702471
 11
11.3057856564
 21
10.4542353256
  0
LINE
  5
55D
100
AcDbEntity
  8
0
100
AcDbLine
 62
7
  6
CONTINUOUS
 10
11.3057856564
 20
10.5186668386
 11
11.285610701
 21
10.5178017601
  0
LINE
  5
55E
100
AcDbEntity
  8
0
100
AcDbLine
 62
7
  6
CONTINUOUS
 10
10.2484348603
 20
10.4733288716
 11
10.2346891623
 21
10.4727394721
  0
LINE
  5
55F
100
AcDbEntity
  8
0
100
AcDbLine
 62
7
  6
CONTINUOUS
 10
10.257510746
 20
10.4140443652
 11
10.2780574977
 21
10.4147405608
  0
LINE
  5
560
100
AcDbEntity
  8
0
100
AcDbLine
 62
7
  6
CONTINUOUS
 10
11.3277993026
 20
10.4503094753
 11
11.3483460543
 21
10.4510056709
  0
LINE
  5
561
100
AcDbEntity
  8
0
100
AcDbLine
 62
7
  6
CONTINUOUS
 10
11.3483460543
 20
10.5154371839
 11
11.3277993026
 21
10.5147409883
  0
LINE
  5
562
100
AcDbEntity
  8
0
100
AcDbLine
 62
7
  6
CONTINUOUS
 10
10.2728798081
 20
10.4789966357
 11
10.257510746
 21
10.4784758782
  0
LINE
  5
563
100
AcDbEntity
  8
0
100
AcDbLine
 62
7
  6
CONTINUOUS
 10
10.2830166957
 20
10.4195803452
 11
10.303854155
 21
10.4201049103
  0
LINE
  5
564
100
AcDbEntity
  8
0
100
AcDbLine
 62
7
  6
CONTINUOUS
 10
11.3684483303
 20
10.4469051555
 11
11.3892857896
 21
10.4474297207
  0
LINE
  5
565
100
AcDbEntity
  8
0
100
AcDbLine
 62
7
  6
CONTINUOUS
 10
11.3892857896
 20
10.5118612337
 11
11.3684483303
 21
10.5113366686
  0
LINE
  5
566
100
AcDbEntity
  8
0
100
AcDbLine
 62
7
  6
CONTINUOUS
 10
10.2999508963
 20
10.4844381622
 11
10.2830166957
 21
10.4840118582
  0
LINE
  5
567
100
AcDbEntity
  8
0
100
AcDbLine
 62
7
  6
CONTINUOUS
 10
10.3111063512
 20
10.4248940511
 11
10.3321522822
 21
10.4252449156
  0
LINE
  5
568
100
AcDbEntity
  8
0
100
AcDbLine
 62
7
  6
CONTINUOUS
 10
11.4073973609
 20
10.4431707231
 11
11.4284432918
 21
10.4435215876
  0
LINE
  5
569
100
AcDbEntity
  8
0
100
AcDbLine
 62
7
  6
CONTINUOUS
 10
11.4284432918
 20
10.5079531007
 11
11.4073973609
 21
10.5076022362
  0
LINE
  5
56A
100
AcDbEntity
  8
0
100
AcDbLine
 62
7
  6
CONTINUOUS
 10
10.3295405914
 20
10.4896328881
 11
10.3111063512
 21
10.4893255641
  0
LINE
  5
56B
100
AcDbEntity
  8
0
100
AcDbLine
 62
7
  6
CONTINUOUS
 10
10.3416688552
 20
10.4299645121
 11
10.3628401993
 21
10.4301402912
  0
LINE
  5
56C
100
AcDbEntity
  8
0
100
AcDbLine
 62
7
  6
CONTINUOUS
 10
11.4444926803
 20
10.4391209162
 11
11.4656640243
 21
10.4392966953
  0
LINE
  5
56D
100
AcDbEntity
  8
0
100
AcDbLine
 62
7
  6
CONTINUOUS
 10
10.3416688552
 20
10.4943960251
 11
10.3628401993
 21
10.4945718042
  0
LINE
  5
56E
100
AcDbEntity
  8
0
100
AcDbLine
 62
7
  6
CONTINUOUS
 10
11.4444926803
 20
10.5035524292
 11
11.4656640243
 21
10.5037282084
  0
LINE
  5
56F
100
AcDbEntity
  8
0
100
AcDbLine
 62
7
  6
CONTINUOUS
 10
10.3745835917
 20
10.4347717175
 11
10.3957967951
 21
10.4347717175
  0
LINE
  5
570
100
AcDbEntity
  8
0
100
AcDbLine
 62
7
  6
CONTINUOUS
 10
11.4795878903
 20
10.4347717175
 11
11.5008010938
 21
10.4347717175
  0
LINE
  5
571
100
AcDbEntity
  8
0
100
AcDbLine
 62
7
  6
CONTINUOUS
 10
10.3745835917
 20
10.4992032305
 11
10.3957967951
 21
10.4992032305
  0
LINE
  5
572
100
AcDbEntity
  8
0
100
AcDbLine
 62
7
  6
CONTINUOUS
 10
11.4795878903
 20
10.4992032305
 11
11.5008010938
 21
10.4992032305
  0
LINE
  5
573
100
AcDbEntity
  8
0
100
AcDbLine
 62
7
  6
CONTINUOUS
 10
10.4097206612
 20
10.4392966953
 11
10.4308920052
 21
10.4391209162
  0
LINE
  5
574
100
AcDbEntity
  8
0
100
AcDbLine
 62
7
  6
CONTINUOUS
 10
11.5125444862
 20
10.4301402912
 11
11.5337158302
 21
10.4299645121
  0
LINE
  5
575
100
AcDbEntity
  8
0
100
AcDbLine
 62
7
  6
CONTINUOUS
 10
10.4097206612
 20
10.5037282084
 11
10.4308920052
 21
10.5035524292
  0
LINE
  5
576
100
AcDbEntity
  8
0
100
AcDbLine
 62
7
  6
CONTINUOUS
 10
11.5125444862
 20
10.4945718042
 11
11.5337158302
 21
10.4943960251
  0
LINE
  5
577
100
AcDbEntity
  8
0
100
AcDbLine
 62
7
  6
CONTINUOUS
 10
10.4469413936
 20
10.4435215876
 11
10.4679873246
 21
10.4431707231
  0
LINE
  5
578
100
AcDbEntity
  8
0
100
AcDbLine
 62
7
  6
CONTINUOUS
 10
11.5432324033
 20
10.4252449156
 11
11.5642783343
 21
10.4248940511
  0
LINE
  5
579
100
AcDbEntity
  8
0
100
AcDbLine
 62
7
  6
CONTINUOUS
 10
11.5642783343
 20
10.4893255641
 11
11.5458440941
 21
10.4896328881
  0
LINE
  5
57A
100
AcDbEntity
  8
0
100
AcDbLine
 62
7
  6
CONTINUOUS
 10
10.4679873246
 20
10.5076022362
 11
10.4469413936
 21
10.5079531007
  0
LINE
  5
57B
100
AcDbEntity
  8
0
100
AcDbLine
 62
7
  6
CONTINUOUS
 10
10.4860988959
 20
10.4474297207
 11
10.5069363552
 21
10.4469051555
  0
LINE
  5
57C
100
AcDbEntity
  8
0
100
AcDbLine
 62
7
  6
CONTINUOUS
 10
11.5715305304
 20
10.4201049103
 11
11.5923679897
 21
10.4195803452
  0
LINE
  5
57D
100
AcDbEntity
  8
0
100
AcDbLine
 62
7
  6
CONTINUOUS
 10
11.5923679897
 20
10.4840118582
 11
11.5754337892
 21
10.4844381622
  0
LINE
  5
57E
100
AcDbEntity
  8
0
100
AcDbLine
 62
7
  6
CONTINUOUS
 10
10.5069363552
 20
10.5113366686
 11
10.4860988959
 21
10.5118612337
  0
LINE
  5
57F
100
AcDbEntity
  8
0
100
AcDbLine
 62
7
  6
CONTINUOUS
 10
10.5270386312
 20
10.4510056709
 11
10.5475853828
 21
10.4503094753
  0
LINE
  5
580
100
AcDbEntity
  8
0
100
AcDbLine
 62
7
  6
CONTINUOUS
 10
11.5973271878
 20
10.4147405608
 11
11.6178739395
 21
10.4140443652
  0
LINE
  5
581
100
AcDbEntity
  8
0
100
AcDbLine
 62
7
  6
CONTINUOUS
 10
11.6178739395
 20
10.4784758782
 11
11.6025048774
 21
10.4789966357
  0
LINE
  5
582
100
AcDbEntity
  8
0
100
AcDbLine
 62
7
  6
CONTINUOUS
 10
10.5475853828
 20
10.5147409883
 11
10.5270386312
 21
10.5154371839
  0
LINE
  5
583
100
AcDbEntity
  8
0
100
AcDbLine
 62
7
  6
CONTINUOUS
 10
10.5695990291
 20
10.4542353256
 11
10.5897739844
 21
10.4533702471
  0
LINE
  5
584
100
AcDbEntity
  8
0
100
AcDbLine
 62
7
  6
CONTINUOUS
 10
11.6205205678
 20
10.4091730376
 11
11.6406955232
 21
10.408307959
  0
LINE
  5
585
100
AcDbEntity
  8
0
100
AcDbLine
 62
7
  6
CONTINUOUS
 10
11.6406955232
 20
10.4727394721
 11
11.6269498252
 21
10.4733288716
  0
LINE
  5
586
100
AcDbEntity
  8
0
100
AcDbLine
 62
7
  6
CONTINUOUS
 10
10.5897739844
 20
10.5178017601
 11
10.5695990291
 21
10.5186668386
  0
LINE
  5
587
100
AcDbEntity
  8
0
100
AcDbLine
 62
7
  6
CONTINUOUS
 10
10.6136121231
 20
10.4571059388
 11
10.6333356608
 21
10.4560753914
  0
LINE
  5
588
100
AcDbEntity
  8
0
100
AcDbLine
 62
7
  6
CONTINUOUS
 10
11.6410191368
 20
10.4034243131
 11
11.6607426745
 21
10.4023937658
  0
LINE
  5
589
100
AcDbEntity
  8
0
100
AcDbLine
 62
7
  6
CONTINUOUS
 10
11.6607426745
 20
10.4668252788
 11
11.6486713483
 21
10.467456001
  0
LINE
  5
58A
100
AcDbEntity
  8
0
100
AcDbLine
 62
7
  6
CONTINUOUS
 10
10.6333356608
 20
10.5205069045
 11
10.6136121231
 21
10.5215374518
  0
LINE
  5
58B
100
AcDbEntity
  8
0
100
AcDbLine
 62
7
  6
CONTINUOUS
 10
10.6589042137
 20
10.4596061815
 11
10.678098494
 21
10.4584142324
  0
LINE
  5
58C
100
AcDbEntity
  8
0
100
AcDbLine
 62
7
  6
CONTINUOUS
 10
11.6587419962
 20
10.397517075
 11
11.6779362765
 21
10.396325126
  0
LINE
  5
58D
100
AcDbEntity
  8
0
100
AcDbLine
 62
7
  6
CONTINUOUS
 10
11.6779362765
 20
10.460756639
 11
11.6675827477
 21
10.4613995847
  0
LINE
  5
58E
100
AcDbEntity
  8
0
100
AcDbLine
 62
7
  6
CONTINUOUS
 10
10.678098494
 20
10.5228457455
 11
10.6589042137
 21
10.5240376946
  0
LINE
  5
58F
100
AcDbEntity
  8
0
100
AcDbLine
 62
7
  6
CONTINUOUS
 10
10.7052965536
 20
10.4617261865
 11
10.7238858255
 21
10.4603775397
  0
LINE
  5
590
100
AcDbEntity
  8
0
100
AcDbLine
 62
7
  6
CONTINUOUS
 10
11.673619202
 20
10.3914746365
 11
11.6922084739
 21
10.3901259898
  0
LINE
  5
591
100
AcDbEntity
  8
0
100
AcDbLine
 62
7
  6
CONTINUOUS
 10
11.6922084739
 20
10.4545575028
 11
11.6836081866
 21
10.4551814514
  0
LINE
  5
592
100
AcDbEntity
  8
0
100
AcDbLine
 62
7
  6
CONTINUOUS
 10
10.7238858255
 20
10.5248090528
 11
10.7052965536
 21
10.5261576995
  0
LINE
  5
593
100
AcDbEntity
  8
0
100
AcDbLine
 62
7
  6
CONTINUOUS
 10
10.7526060536
 20
10.4634575869
 11
10.7705169537
 21
10.461957565
  0
LINE
  5
594
100
AcDbEntity
  8
0
100
AcDbLine
 62
7
  6
CONTINUOUS
 10
11.6855920408
 20
10.3853208443
 11
11.7035029408
 21
10.3838208224
  0
LINE
  5
595
100
AcDbEntity
  8
0
100
AcDbLine
 62
7
  6
CONTINUOUS
 10
11.7035029408
 20
10.4482523355
 11
11.6966828992
 21
10.4488235078
  0
LINE
  5
596
100
AcDbEntity
  8
0
100
AcDbLine
 62
7
  6
CONTINUOUS
 10
10.7705169537
 20
10.5263890781
 11
10.7526060536
 21
10.5278891
  0
LINE
  5
597
100
AcDbEntity
  8
0
100
AcDbLine
 62
7
  6
CONTINUOUS
 10
10.8006460046
 20
10.4647935498
 11
10.8178078467
 21
10.4631480727
  0
LINE
  5
598
100
AcDbEntity
  8
0
100
AcDbLine
 62
7
  6
CONTINUOUS
 10
11.6946132611
 20
10.3790799845
 11
11.7117751032
 21
10.3774345074
  0
LINE
  5
599
100
AcDbEntity
  8
0
100
AcDbLine
 62
7
  6
CONTINUOUS
 10
11.7117751032
 20
10.4418660205
 11
11.7067533166
 21
10.4423475093
  0
LINE
  5
59A
100
AcDbEntity
  8
0
100
AcDbLine
 62
7
  6
CONTINUOUS
 10
10.8178078467
 20
10.5275795858
 11
10.8006460046
 21
10.5292250629
  0
LINE
  5
59B
100
AcDbEntity
  8
0
100
AcDbLine
 62
7
  6
CONTINUOUS
 10
10.8492268149
 20
10.4657288028
 11
10.8655718691
 21
10.4639443644
  0
LINE
  5
59C
100
AcDbEntity
  8
0
100
AcDbLine
 62
7
  6
CONTINUOUS
 10
11.7006472603
 20
10.3727766871
 11
11.7169923145
 21
10.3709922487
  0
LINE
  5
59D
100
AcDbEntity
  8
0
100
AcDbLine
 62
7
  6
CONTINUOUS
 10
11.7169923145
 20
10.4354237617
 11
11.7137770863
 21
10.4357747778
  0
LINE
  5
59E
100
AcDbEntity
  8
0
100
AcDbLine
 62
7
  6
CONTINUOUS
 10
10.8655718691
 20
10.5283758774
 11
10.8492268149
 21
10.5301603158
  0
LINE
  5
59F
100
AcDbEntity
  8
0
100
AcDbLine
 62
7
  6
CONTINUOUS
 10
10.8981567582
 20
10.4662596548
 11
10.913620518
 21
10.4643432974
  0
LINE
  5
5A0
100
AcDbEntity
  8
0
100
AcDbLine
 62
7
  6
CONTINUOUS
 10
11.7036702251
 20
10.3664358282
 11
11.7191339849
 21
10.3645194708
  0
LINE
  5
5A1
100
AcDbEntity
  8
0
100
AcDbLine
 62
7
  6
CONTINUOUS
 10
11.7191339849
 20
10.4289509839
 11
11.7177229494
 21
10.4291258475
  0
LINE
  5
5A2
100
AcDbEntity
  8
0
100
AcDbLine
 62
7
  6
CONTINUOUS
 10
10.913620518
 20
10.5287748104
 11
10.8981567582
 21
10.5306911678
  0
LINE
  5
5A3
100
AcDbEntity
  8
0
100
AcDbLine
 62
7
  6
CONTINUOUS
 10
10.9472427304
 20
10.4663840107
 11
10.9617641675
 21
10.4643432974
  0
LINE
  5
5A4
100
AcDbEntity
  8
0
100
AcDbLine
 62
7
  6
CONTINUOUS
 10
11.7036702251
 20
10.3600824324
 11
11.7181916621
 21
10.358041719
  0
LINE
  5
5A5
100
AcDbEntity
  8
0
100
AcDbLine
 62
7
  6
CONTINUOUS
 10
10.9617641675
 20
10.5287748104
 11
10.9472427304
 21
10.5308155238
  0
LINE
  5
5A6
100
AcDbEntity
  8
0
100
AcDbLine
 62
7
  6
CONTINUOUS
 10
10.9962910116
 20
10.4661013799
 11
11.0098128164
 21
10.4639443644
  0
LINE
  5
5A7
100
AcDbEntity
  8
0
100
AcDbLine
 62
7
  6
CONTINUOUS
 10
11.7006472603
 20
10.3537415735
 11
11.7141690651
 21
10.351584558
  0
LINE
  5
5A8
100
AcDbEntity
  8
0
100
AcDbLine
 62
7
  6
CONTINUOUS
 10
11.0098128164
 20
10.5283758774
 11
10.9962910116
 21
10.5305328929
  0
LINE
  5
5A9
100
AcDbEntity
  8
0
100
AcDbLine
 62
7
  6
CONTINUOUS
 10
11.0451080306
 20
10.4654128777
 11
11.0575768388
 21
10.4631480727
  0
LINE
  5
5AA
100
AcDbEntity
  8
0
100
AcDbLine
 62
7
  6
CONTINUOUS
 10
11.6946132611
 20
10.347438276
 11
11.7070820692
 21
10.3451734711
  0
LINE
  5
5AB
100
AcDbEntity
  8
0
100
AcDbLine
 62
7
  6
CONTINUOUS
 10
11.0575768388
 20
10.5275795858
 11
11.0451080306
 21
10.5298443907
  0
LINE
  5
5AC
100
AcDbEntity
  8
0
100
AcDbLine
 62
7
  6
CONTINUOUS
 10
11.093501129
 20
10.4643212213
 11
11.1048677318
 21
10.461957565
  0
LINE
  5
5AD
100
AcDbEntity
  8
0
100
AcDbLine
 62
7
  6
CONTINUOUS
 10
11.6855920408
 20
10.3411974163
 11
11.6969586436
 21
10.33883376
  0
LINE
  5
5AE
100
AcDbEntity
  8
0
100
AcDbLine
 62
7
  6
CONTINUOUS
 10
11.1048677318
 20
10.5263890781
 11
11.093501129
 21
10.5287527343
  0
LINE
  5
5AF
100
AcDbEntity
  8
0
100
AcDbLine
 62
7
  6
CONTINUOUS
 10
11.1412793213
 20
10.462830719
 11
11.1514988599
 21
10.4603775397
  0
LINE
  5
5B0
100
AcDbEntity
  8
0
100
AcDbLine
 62
7
  6
CONTINUOUS
 10
11.673619202
 20
10.3350436241
 11
11.6838387407
 21
10.3325904448
  0
LINE
  5
5B1
100
AcDbEntity
  8
0
100
AcDbLine
 62
7
  6
CONTINUOUS
 10
11.1514988599
 20
10.5248090528
 11
11.1412793213
 21
10.5272622321
  0
LINE
  5
5B2
100
AcDbEntity
  8
0
100
AcDbLine
 62
7
  6
CONTINUOUS
 10
11.1882540487
 20
10.4609472532
 11
11.1972861915
 21
10.4584142324
  0
LINE
  5
5B3
100
AcDbEntity
  8
0
100
AcDbLine
 62
7
  6
CONTINUOUS
 10
11.6587419962
 20
10.3290011855
 11
11.6677741389
 21
10.3264681648
  0
LINE
  5
5B4
100
AcDbEntity
  8
0
100
AcDbLine
 62
7
  6
CONTINUOUS
 10
11.1972861915
 20
10.5228457455
 11
11.1882540487
 21
10.5253787662
  0
LINE
  5
5B5
100
AcDbEntity
  8
0
100
AcDbLine
 62
7
  6
CONTINUOUS
 10
11.2342399236
 20
10.4586782569
 11
11.2420490246
 21
10.4560753914
  0
LINE
  5
5B6
100
AcDbEntity
  8
0
100
AcDbLine
 62
7
  6
CONTINUOUS
 10
11.6410191368
 20
10.3230939475
 11
11.6488282378
 21
10.320491082
  0
LINE
  5
5B7
100
AcDbEntity
  8
0
100
AcDbLine
 62
7
  6
CONTINUOUS
 10
11.2420490246
 20
10.5205069045
 11
11.2342399236
 21
10.52310977
  0
LINE
  5
5B8
100
AcDbEntity
  8
0
100
AcDbLine
 62
7
  6
CONTINUOUS
 10
11.2790554607
 20
10.456032685
 11
11.285610701
 21
10.4533702471
  0
LINE
  5
5B9
100
AcDbEntity
  8
0
100
AcDbLine
 62
7
  6
CONTINUOUS
 10
11.6205205678
 20
10.317345223
 11
11.6270758082
 21
10.3146827851
  0
LINE
  5
5BA
100
AcDbEntity
  8
0
100
AcDbLine
 62
7
  6
CONTINUOUS
 10
11.285610701
 20
10.5178017601
 11
11.2790554607
 21
10.520464198
  0
LINE
  5
5BB
100
AcDbEntity
  8
0
100
AcDbLine
 62
7
  6
CONTINUOUS
 10
11.3225237935
 20
10.4530209782
 11
11.3277993026
 21
10.4503094753
  0
LINE
  5
5BC
100
AcDbEntity
  8
0
100
AcDbLine
 62
7
  6
CONTINUOUS
 10
11.5973271878
 20
10.3117776998
 11
11.602602697
 21
10.3090661968
  0
LINE
  5
5BD
100
AcDbEntity
  8
0
100
AcDbLine
 62
7
  6
CONTINUOUS
 10
11.3277993026
 20
10.5147409883
 11
11.3225237935
 21
10.5174524912
  0
LINE
  5
5BE
100
AcDbEntity
  8
0
100
AcDbLine
 62
7
  6
CONTINUOUS
 10
11.3644733723
 20
10.4496550224
 11
11.3684483303
 21
10.4469051555
  0
LINE
  5
5BF
100
AcDbEntity
  8
0
100
AcDbLine
 62
7
  6
CONTINUOUS
 10
11.5715305304
 20
10.3064133502
 11
11.5755054884
 21
10.3036634834
  0
LINE
  5
5C0
100
AcDbEntity
  8
0
100
AcDbLine
 62
7
  6
CONTINUOUS
 10
11.3684483303
 20
10.5113366686
 11
11.3644733723
 21
10.5140865355
  0
LINE
  5
5C1
100
AcDbEntity
  8
0
100
AcDbLine
 62
7
  6
CONTINUOUS
 10
14.0626923427
 20
8.1474981479
 11
13.9876923427
 21
8.2224981479
  0
LINE
  5
5C2
100
AcDbEntity
  8
0
100
AcDbLine
 62
7
  6
CONTINUOUS
 10
11.4047386415
 20
10.4459481015
 11
11.4073973609
 21
10.4431707231
  0
LINE
  5
5C3
100
AcDbEntity
  8
0
100
AcDbLine
 62
7
  6
CONTINUOUS
 10
11.4073973609
 20
10.5076022362
 11
11.4047386415
 21
10.5103796146
  0
LINE
  5
5C4
100
AcDbEntity
  8
0
100
AcDbLine
 62
7
  6
CONTINUOUS
 10
11.7751105625
 20
11.0977079509
 11
11.7293186683
 21
11.3029200768
  0
LWPOLYLINE
  5
5C5
100
AcDbEntity
  8
0
100
AcDbPolyline
 62
7
  6
CONTINUOUS
 90
6
 70
0
 10
12.0347405355
 20
9.9531567799
 10
11.9943723786
 20
10.1483096883
 10
11.9452201136
 20
10.3685600139
 10
11.8882570487
 20
10.6120314682
 10
11.8248483315
 20
10.8805588087
 10
11.7751105625
 20
11.0977079509
  0
LWPOLYLINE
  5
5C6
100
AcDbEntity
  8
0
100
AcDbPolyline
 62
7
  6
CONTINUOUS
 90
3
 70
0
 10
12.0622667379
 20
9.8092487487
 10
12.0626198547
 20
9.8074624031
 10
12.0347405355
 20
9.9531567799
  0
LINE
  5
5C7
100
AcDbEntity
  8
0
100
AcDbLine
 62
7
  6
CONTINUOUS
 10
15.3638503385
 20
9.2114575492
 11
15.3760417258
 21
9.2170435578
  0
LWPOLYLINE
  5
5C8
100
AcDbEntity
  8
0
100
AcDbPolyline
 62
7
  6
CONTINUOUS
 90
4
 70
0
 10
10.9376923427
 20
11.5924535266
 10
10.7064002251
 20
11.5805037044
 10
10.4616307312
 20
11.5415677683
 10
10.2427084821
 20
11.4828691454
  0
LWPOLYLINE
  5
5C9
100
AcDbEntity
  8
0
100
AcDbPolyline
 62
7
  6
CONTINUOUS
 90
4
 70
0
 10
11.6326771609
 20
11.4828688373
 10
11.412148436
 20
11.5419132154
 10
11.1673462336
 20
11.5806725319
 10
10.9376923427
 20
11.5924535266
  0
LINE
  5
5CA
100
AcDbEntity
  8
0
100
AcDbLine
 62
7
  6
CONTINUOUS
 10
16.1876923427
 20
7.0974981479
 11
16.1376923427
 21
7.1474981479
  0
LINE
  5
5CB
100
AcDbEntity
  8
0
100
AcDbLine
 62
7
  6
CONTINUOUS
 10
13.6876923427
 20
6.9474981479
 11
13.6876923427
 21
7.0974981479
  0
LINE
  5
5CC
100
AcDbEntity
  8
0
100
AcDbLine
 62
7
  6
CONTINUOUS
 10
13.6877109272
 20
7.4224981479
 11
13.6877109272
 21
7.3474981479
  0
LINE
  5
5CD
100
AcDbEntity
  8
0
100
AcDbLine
 62
7
  6
CONTINUOUS
 10
13.6882344994
 20
7.3474981479
 11
13.6882344994
 21
7.4224981479
  0
LINE
  5
5CE
100
AcDbEntity
  8
0
100
AcDbLine
 62
7
  6
CONTINUOUS
 10
13.6887102648
 20
7.4224981479
 11
13.6887102648
 21
7.3474981479
  0
LINE
  5
5CF
100
AcDbEntity
  8
0
100
AcDbLine
 62
7
  6
CONTINUOUS
 10
13.6902803435
 20
7.3474981479
 11
13.6902803435
 21
7.4224981479
  0
LINE
  5
5D0
100
AcDbEntity
  8
0
100
AcDbLine
 62
7
  6
CONTINUOUS
 10
13.6912312947
 20
7.4224981479
 11
13.6912312947
 21
7.3474981479
  0
LINE
  5
5D1
100
AcDbEntity
  8
0
100
AcDbLine
 62
7
  6
CONTINUOUS
 10
13.693845967
 20
7.3474981479
 11
13.693845967
 21
7.4224981479
  0
LINE
  5
5D2
100
AcDbEntity
  8
0
100
AcDbLine
 62
7
  6
CONTINUOUS
 10
13.6952709454
 20
7.4224981479
 11
13.6952709454
 21
7.3474981479
  0
LINE
  5
5D3
100
AcDbEntity
  8
0
100
AcDbLine
 62
7
  6
CONTINUOUS
 10
13.6989270257
 20
7.3474981479
 11
13.6989270257
 21
7.4224981479
  0
LINE
  5
5D4
100
AcDbEntity
  8
0
100
AcDbLine
 62
7
  6
CONTINUOUS
 10
13.7008242952
 20
7.4224981479
 11
13.7008242952
 21
7.3474981479
  0
LINE
  5
5D5
100
AcDbEntity
  8
0
100
AcDbLine
 62
7
  6
CONTINUOUS
 10
13.7055173291
 20
7.3474981479
 11
13.7055173291
 21
7.4224981479
  0
LINE
  5
5D6
100
AcDbEntity
  8
0
100
AcDbLine
 62
7
  6
CONTINUOUS
 10
13.7078845781
 20
7.4224981479
 11
13.7078845781
 21
7.3474981479
  0
LINE
  5
5D7
100
AcDbEntity
  8
0
100
AcDbLine
 62
7
  6
CONTINUOUS
 10
13.713608848
 20
7.3474981479
 11
13.713608848
 21
7.4224981479
  0
LINE
  5
5D8
100
AcDbEntity
  8
0
100
AcDbLine
 62
7
  6
CONTINUOUS
 10
13.7164431924
 20
7.4224981479
 11
13.7164431924
 21
7.3474981479
  0
LINE
  5
5D9
100
AcDbEntity
  8
0
100
AcDbLine
 62
7
  6
CONTINUOUS
 10
13.723191724
 20
7.3474981479
 11
13.723191724
 21
7.4224981479
  0
LINE
  5
5DA
100
AcDbEntity
  8
0
100
AcDbLine
 62
7
  6
CONTINUOUS
 10
13.7264897107
 20
7.4224981479
 11
13.7264897107
 21
7.3474981479
  0
LINE
  5
5DB
100
AcDbEntity
  8
0
100
AcDbLine
 62
7
  6
CONTINUOUS
 10
13.734254282
 20
7.3474981479
 11
13.734254282
 21
7.4224981479
  0
LINE
  5
5DC
100
AcDbEntity
  8
0
100
AcDbLine
 62
7
  6
CONTINUOUS
 10
13.7376923427
 20
7.1474981479
 11
13.7376923427
 21
7.3474981479
  0
LINE
  5
5DD
100
AcDbEntity
  8
0
100
AcDbLine
 62
7
  6
CONTINUOUS
 10
13.7380118927
 20
7.4224981479
 11
13.7380118927
 21
7.3474981479
  0
LINE
  5
5DE
100
AcDbEntity
  8
0
100
AcDbLine
 62
7
  6
CONTINUOUS
 10
13.7467830439
 20
7.3474981479
 11
13.7467830439
 21
7.4224981479
  0
LINE
  5
5DF
100
AcDbEntity
  8
0
100
AcDbLine
 62
7
  6
CONTINUOUS
 10
13.7509957007
 20
7.4224981479
 11
13.7509957007
 21
7.3474981479
  0
LINE
  5
5E0
100
AcDbEntity
  8
0
100
AcDbLine
 62
7
  6
CONTINUOUS
 10
13.7607627453
 20
7.3474981479
 11
13.7607627453
 21
7.4224981479
  0
LINE
  5
5E1
100
AcDbEntity
  8
0
100
AcDbLine
 62
7
  6
CONTINUOUS
 10
13.7654253156
 20
7.4224981479
 11
13.7654253156
 21
7.3474981479
  0
LINE
  5
5E2
100
AcDbEntity
  8
0
100
AcDbLine
 62
7
  6
CONTINUOUS
 10
13.7761763541
 20
7.3474981479
 11
13.7761763541
 21
7.4224981479
  0
LINE
  5
5E3
100
AcDbEntity
  8
0
100
AcDbLine
 62
7
  6
CONTINUOUS
 10
13.7812831574
 20
7.4224981479
 11
13.7812831574
 21
7.3474981479
  0
LINE
  5
5E4
100
AcDbEntity
  8
0
100
AcDbLine
 62
7
  6
CONTINUOUS
 10
13.7930050913
 20
7.3474981479
 11
13.7930050913
 21
7.4224981479
  0
LINE
  5
5E5
100
AcDbEntity
  8
0
100
AcDbLine
 62
7
  6
CONTINUOUS
 10
13.7985499057
 20
7.4224981479
 11
13.7985499057
 21
7.3474981479
  0
LINE
  5
5E6
100
AcDbEntity
  8
0
100
AcDbLine
 62
7
  6
CONTINUOUS
 10
13.8112284535
 20
7.3474981479
 11
13.8112284535
 21
7.4224981479
  0
LINE
  5
5E7
100
AcDbEntity
  8
0
100
AcDbLine
 62
7
  6
CONTINUOUS
 10
13.8172045235
 20
7.4224981479
 11
13.8172045235
 21
7.3474981479
  0
LINE
  5
5E8
100
AcDbEntity
  8
0
100
AcDbLine
 62
7
  6
CONTINUOUS
 10
13.8308242385
 20
7.3474981479
 11
13.8308242385
 21
7.4224981479
  0
LINE
  5
5E9
100
AcDbEntity
  8
0
100
AcDbLine
 62
7
  6
CONTINUOUS
 10
13.8372242831
 20
7.4224981479
 11
13.8372242831
 21
7.3474981479
  0
LINE
  5
5EA
100
AcDbEntity
  8
0
100
AcDbLine
 62
7
  6
CONTINUOUS
 10
13.8517685717
 20
7.3474981479
 11
13.8517685717
 21
7.4224981479
  0
LINE
  5
5EB
100
AcDbEntity
  8
0
100
AcDbLine
 62
7
  6
CONTINUOUS
 10
13.8585847936
 20
7.4224981479
 11
13.8585847936
 21
7.3474981479
  0
LINE
  5
5EC
100
AcDbEntity
  8
0
100
AcDbLine
 62
7
  6
CONTINUOUS
 10
13.8740359358
 20
7.3474981479
 11
13.8740359358
 21
7.4224981479
  0
LINE
  5
5ED
100
AcDbEntity
  8
0
100
AcDbLine
 62
7
  6
CONTINUOUS
 10
13.8812600303
 20
7.4224981479
 11
13.8812600303
 21
7.3474981479
  0
LINE
  5
5EE
100
AcDbEntity
  8
0
100
AcDbLine
 62
7
  6
CONTINUOUS
 10
15.352846448
 20
9.2025414226
 11
15.3638503385
 21
9.2114575492
  0
LINE
  5
5EF
100
AcDbEntity
  8
0
100
AcDbLine
 62
7
  6
CONTINUOUS
 10
13.8975992014
 20
7.3474981479
 11
13.8975992014
 21
7.4224981479
  0
LINE
  5
5F0
100
AcDbEntity
  8
0
100
AcDbLine
 62
7
  6
CONTINUOUS
 10
13.9052223672
 20
7.4224981479
 11
13.9052223672
 21
7.3474981479
  0
LINE
  5
5F1
100
AcDbEntity
  8
0
100
AcDbLine
 62
7
  6
CONTINUOUS
 10
13.9126923427
 20
8.3224981479
 11
13.9126923427
 21
8.5224981479
  0
LINE
  5
5F2
100
AcDbEntity
  8
0
100
AcDbLine
 62
7
  6
CONTINUOUS
 10
13.9224296603
 20
7.3474981479
 11
13.9224296603
 21
7.4224981479
  0
LINE
  5
5F3
100
AcDbEntity
  8
0
100
AcDbLine
 62
7
  6
CONTINUOUS
 10
13.9304426096
 20
7.4224981479
 11
13.9304426096
 21
7.3474981479
  0
LINE
  5
5F4
100
AcDbEntity
  8
0
100
AcDbLine
 62
7
  6
CONTINUOUS
 10
13.9484970603
 20
7.3474981479
 11
13.9484970603
 21
7.4224981479
  0
LINE
  5
5F5
100
AcDbEntity
  8
0
100
AcDbLine
 62
7
  6
CONTINUOUS
 10
13.9568900307
 20
7.4224981479
 11
13.9568900307
 21
7.3474981479
  0
LINE
  5
5F6
100
AcDbEntity
  8
0
100
AcDbLine
 62
7
  6
CONTINUOUS
 10
13.9757696424
 20
7.3474981479
 11
13.9757696424
 21
7.4224981479
  0
LINE
  5
5F7
100
AcDbEntity
  8
0
100
AcDbLine
 62
7
  6
CONTINUOUS
 10
13.9845324083
 20
7.4224981479
 11
13.9845324083
 21
7.3474981479
  0
LINE
  5
5F8
100
AcDbEntity
  8
0
100
AcDbLine
 62
7
  6
CONTINUOUS
 10
13.9876923427
 20
8.2224981479
 11
13.9876923427
 21
8.3224981479
  0
LINE
  5
5F9
100
AcDbEntity
  8
0
100
AcDbLine
 62
7
  6
CONTINUOUS
 10
13.9876923427
 20
8.5224981479
 11
13.9876923427
 21
8.5724981479
  0
LINE
  5
5FA
100
AcDbEntity
  8
0
100
AcDbLine
 62
7
  6
CONTINUOUS
 10
14.0042141792
 20
7.3474981479
 11
14.0042141792
 21
7.4224981479
  0
LINE
  5
5FB
100
AcDbEntity
  8
0
100
AcDbLine
 62
7
  6
CONTINUOUS
 10
14.0133360645
 20
7.4224981479
 11
14.0133360645
 21
7.3474981479
  0
LINE
  5
5FC
100
AcDbEntity
  8
0
100
AcDbLine
 62
7
  6
CONTINUOUS
 10
14.0337960153
 20
7.3474981479
 11
14.0337960153
 21
7.4224981479
  0
LINE
  5
5FD
100
AcDbEntity
  8
0
100
AcDbLine
 62
7
  6
CONTINUOUS
 10
14.0432659064
 20
7.4224981479
 11
14.0432659064
 21
7.3474981479
  0
LINE
  5
5FE
100
AcDbEntity
  8
0
100
AcDbLine
 62
7
  6
CONTINUOUS
 10
14.0626923427
 20
7.6224981479
 11
14.0626923427
 21
8.1474981479
  0
LINE
  5
5FF
100
AcDbEntity
  8
0
100
AcDbLine
 62
7
  6
CONTINUOUS
 10
14.0644791099
 20
7.3474981479
 11
14.0644791099
 21
7.4224981479
  0
LINE
  5
600
100
AcDbEntity
  8
0
100
AcDbLine
 62
7
  6
CONTINUOUS
 10
14.0742854692
 20
7.4224981479
 11
14.0742854692
 21
7.3474981479
  0
LINE
  5
601
100
AcDbEntity
  8
0
100
AcDbLine
 62
7
  6
CONTINUOUS
 10
14.0954857501
 20
7.3474981479
 11
14.0954857501
 21
7.4224981479
  0
LINE
  5
602
100
AcDbEntity
  8
0
100
AcDbLine
 62
7
  6
CONTINUOUS
 10
14.0962260802
 20
7.3474981479
 11
14.0962260802
 21
7.4224981479
  0
LINE
  5
603
100
AcDbEntity
  8
0
100
AcDbLine
 62
7
  6
CONTINUOUS
 10
14.1063569602
 20
7.4224981479
 11
14.1063569602
 21
7.3474981479
  0
LINE
  5
604
100
AcDbEntity
  8
0
100
AcDbLine
 62
7
  6
CONTINUOUS
 10
14.1275184894
 20
7.3474981479
 11
14.1275184894
 21
7.4224981479
  0
LINE
  5
605
100
AcDbEntity
  8
0
100
AcDbLine
 62
7
  6
CONTINUOUS
 10
14.1289982476
 20
7.3474981479
 11
14.1289982476
 21
7.4224981479
  0
LINE
  5
606
100
AcDbEntity
  8
0
100
AcDbLine
 62
7
  6
CONTINUOUS
 10
14.1394413054
 20
7.4224981479
 11
14.1394413054
 21
7.3474981479
  0
LINE
  5
607
100
AcDbEntity
  8
0
100
AcDbLine
 62
7
  6
CONTINUOUS
 10
14.1605383007
 20
7.3474981479
 11
14.1605383007
 21
7.4224981479
  0
LINE
  5
608
100
AcDbEntity
  8
0
100
AcDbLine
 62
7
  6
CONTINUOUS
 10
14.1627556842
 20
7.3474981479
 11
14.1627556842
 21
7.4224981479
  0
LINE
  5
609
100
AcDbEntity
  8
0
100
AcDbLine
 62
7
  6
CONTINUOUS
 10
14.1734981964
 20
7.4224981479
 11
14.1734981964
 21
7.3474981479
  0
LINE
  5
60A
100
AcDbEntity
  8
0
100
AcDbLine
 62
7
  6
CONTINUOUS
 10
14.1876923427
 20
8.6724981479
 11
14.1876923427
 21
8.7224981479
  0
LINE
  5
60B
100
AcDbEntity
  8
0
100
AcDbLine
 62
7
  6
CONTINUOUS
 10
14.1945049544
 20
7.3474981479
 11
14.1945049544
 21
7.4224981479
  0
LINE
  5
60C
100
AcDbEntity
  8
0
100
AcDbLine
 62
7
  6
CONTINUOUS
 10
14.1974572618
 20
7.3474981479
 11
14.1974572618
 21
7.4224981479
  0
LINE
  5
60D
100
AcDbEntity
  8
0
100
AcDbLine
 62
7
  6
CONTINUOUS
 10
14.2084861404
 20
7.4224981479
 11
14.2084861404
 21
7.3474981479
  0
LINE
  5
60E
100
AcDbEntity
  8
0
100
AcDbLine
 62
7
  6
CONTINUOUS
 10
14.2293770676
 20
7.3474981479
 11
14.2293770676
 21
7.4224981479
  0
LINE
  5
60F
100
AcDbEntity
  8
0
100
AcDbLine
 62
7
  6
CONTINUOUS
 10
14.2330607017
 20
7.3474981479
 11
14.2330607017
 21
7.4224981479
  0
LINE
  5
610
100
AcDbEntity
  8
0
100
AcDbLine
 62
7
  6
CONTINUOUS
 10
14.2443625097
 20
7.4224981479
 11
14.2443625097
 21
7.3474981479
  0
LINE
  5
611
100
AcDbEntity
  8
0
100
AcDbLine
 62
7
  6
CONTINUOUS
 10
14.2651121538
 20
7.3474981479
 11
14.2651121538
 21
7.4224981479
  0
LINE
  5
612
100
AcDbEntity
  8
0
100
AcDbLine
 62
7
  6
CONTINUOUS
 10
14.2695226268
 20
7.3474981479
 11
14.2695226268
 21
7.4224981479
  0
LINE
  5
613
100
AcDbEntity
  8
0
100
AcDbLine
 62
7
  6
CONTINUOUS
 10
14.2810835947
 20
7.4224981479
 11
14.2810835947
 21
7.3474981479
  0
LINE
  5
614
100
AcDbEntity
  8
0
100
AcDbLine
 62
7
  6
CONTINUOUS
 10
14.3016666753
 20
7.3474981479
 11
14.3016666753
 21
7.4224981479
  0
LINE
  5
615
100
AcDbEntity
  8
0
100
AcDbLine
 62
7
  6
CONTINUOUS
 10
14.3067986137
 20
7.3474981479
 11
14.3067986137
 21
7.4224981479
  0
LINE
  5
616
100
AcDbEntity
  8
0
100
AcDbLine
 62
7
  6
CONTINUOUS
 10
14.3186046563
 20
7.4224981479
 11
14.3186046563
 21
7.3474981479
  0
LINE
  5
617
100
AcDbEntity
  8
0
100
AcDbLine
 62
7
  6
CONTINUOUS
 10
14.3389960962
 20
7.3474981479
 11
14.3389960962
 21
7.4224981479
  0
LINE
  5
618
100
AcDbEntity
  8
0
100
AcDbLine
 62
7
  6
CONTINUOUS
 10
14.3448432475
 20
7.3474981479
 11
14.3448432475
 21
7.4224981479
  0
LINE
  5
619
100
AcDbEntity
  8
0
100
AcDbLine
 62
7
  6
CONTINUOUS
 10
14.3568799808
 20
7.4224981479
 11
14.3568799808
 21
7.3474981479
  0
LINE
  5
61A
100
AcDbEntity
  8
0
100
AcDbLine
 62
7
  6
CONTINUOUS
 10
14.3770549362
 20
7.3474981479
 11
14.3770549362
 21
7.4224981479
  0
LINE
  5
61B
100
AcDbEntity
  8
0
100
AcDbLine
 62
7
  6
CONTINUOUS
 10
14.3836101765
 20
7.3474981479
 11
14.3836101765
 21
7.4224981479
  0
LINE
  5
61C
100
AcDbEntity
  8
0
100
AcDbLine
 62
7
  6
CONTINUOUS
 10
14.3958629358
 20
7.4224981479
 11
14.3958629358
 21
7.3474981479
  0
LINE
  5
61D
100
AcDbEntity
  8
0
100
AcDbLine
 62
7
  6
CONTINUOUS
 10
14.4157968265
 20
7.3474981479
 11
14.4157968265
 21
7.4224981479
  0
LINE
  5
61E
100
AcDbEntity
  8
0
100
AcDbLine
 62
7
  6
CONTINUOUS
 10
14.4230521694
 20
7.3474981479
 11
14.4230521694
 21
7.4224981479
  0
LINE
  5
61F
100
AcDbEntity
  8
0
100
AcDbLine
 62
7
  6
CONTINUOUS
 10
14.4355060264
 20
7.4224981479
 11
14.4355060264
 21
7.3474981479
  0
LINE
  5
620
100
AcDbEntity
  8
0
100
AcDbLine
 62
7
  6
CONTINUOUS
 10
14.4551745661
 20
7.3474981479
 11
14.4551745661
 21
7.4224981479
  0
LINE
  5
621
100
AcDbEntity
  8
0
100
AcDbLine
 62
7
  6
CONTINUOUS
 10
14.463121172
 20
7.3474981479
 11
14.463121172
 21
7.4224981479
  0
LINE
  5
622
100
AcDbEntity
  8
0
100
AcDbLine
 62
7
  6
CONTINUOUS
 10
14.4757609537
 20
7.4224981479
 11
14.4757609537
 21
7.3474981479
  0
LINE
  5
623
100
AcDbEntity
  8
0
100
AcDbLine
 62
7
  6
CONTINUOUS
 10
14.4951401793
 20
7.3474981479
 11
14.4951401793
 21
7.4224981479
  0
LINE
  5
624
100
AcDbEntity
  8
0
100
AcDbLine
 62
7
  6
CONTINUOUS
 10
14.5037683665
 20
7.3474981479
 11
14.5037683665
 21
7.4224981479
  0
LINE
  5
625
100
AcDbEntity
  8
0
100
AcDbLine
 62
7
  6
CONTINUOUS
 10
14.5165786732
 20
7.4224981479
 11
14.5165786732
 21
7.3474981479
  0
LINE
  5
626
100
AcDbEntity
  8
0
100
AcDbLine
 62
7
  6
CONTINUOUS
 10
14.5356449742
 20
7.3474981479
 11
14.5356449742
 21
7.4224981479
  0
LINE
  5
627
100
AcDbEntity
  8
0
100
AcDbLine
 62
7
  6
CONTINUOUS
 10
14.5376923427
 20
9.6404981479
 11
14.5376923427
 21
9.1654981479
  0
LINE
  5
628
100
AcDbEntity
  8
0
100
AcDbLine
 62
7
  6
CONTINUOUS
 10
14.5376923427
 20
8.7224981479
 11
14.5376923427
 21
8.8224981479
  0
LINE
  5
629
100
AcDbEntity
  8
0
100
AcDbLine
 62
7
  6
CONTINUOUS
 10
14.5449442305
 20
7.3474981479
 11
14.5449442305
 21
7.4224981479
  0
LINE
  5
62A
100
AcDbEntity
  8
0
100
AcDbLine
 62
7
  6
CONTINUOUS
 10
14.5579094549
 20
7.4224981479
 11
14.5579094549
 21
7.3474981479
  0
LINE
  5
62B
100
AcDbEntity
  8
0
100
AcDbLine
 62
7
  6
CONTINUOUS
 10
14.5766396018
 20
7.3474981479
 11
14.5766396018
 21
7.4224981479
  0
LINE
  5
62C
100
AcDbEntity
  8
0
100
AcDbLine
 62
7
  6
CONTINUOUS
 10
14.5865985976
 20
7.3474981479
 11
14.5865985976
 21
7.4224981479
  0
LINE
  5
62D
100
AcDbEntity
  8
0
100
AcDbLine
 62
7
  6
CONTINUOUS
 10
14.5997029435
 20
7.4224981479
 11
14.5997029435
 21
7.3474981479
  0
LINE
  5
62E
100
AcDbEntity
  8
0
100
AcDbLine
 62
7
  6
CONTINUOUS
 10
14.6180741166
 20
7.3474981479
 11
14.6180741166
 21
7.4224981479
  0
LINE
  5
62F
100
AcDbEntity
  8
0
100
AcDbLine
 62
7
  6
CONTINUOUS
 10
14.6251923427
 20
9.1454981479
 11
14.6251923427
 21
8.8524981479
  0
LINE
  5
630
100
AcDbEntity
  8
0
100
AcDbLine
 62
7
  6
CONTINUOUS
 10
14.6286807183
 20
7.3474981479
 11
14.6286807183
 21
7.4224981479
  0
LINE
  5
631
100
AcDbEntity
  8
0
100
AcDbLine
 62
7
  6
CONTINUOUS
 10
14.6419082202
 20
7.4224981479
 11
14.6419082202
 21
7.3474981479
  0
LINE
  5
632
100
AcDbEntity
  8
0
100
AcDbLine
 62
7
  6
CONTINUOUS
 10
14.6598980369
 20
7.3474981479
 11
14.6598980369
 21
7.4224981479
  0
LINE
  5
633
100
AcDbEntity
  8
0
100
AcDbLine
 62
7
  6
CONTINUOUS
 10
14.6711393221
 20
7.3474981479
 11
14.6711393221
 21
7.4224981479
  0
LINE
  5
634
100
AcDbEntity
  8
0
100
AcDbLine
 62
7
  6
CONTINUOUS
 10
14.6751923427
 20
9.7654981479
 11
14.6751923427
 21
9.7354981479
  0
LINE
  5
635
100
AcDbEntity
  8
0
100
AcDbLine
 62
7
  6
CONTINUOUS
 10
14.6844738642
 20
7.4224981479
 11
14.6844738642
 21
7.3474981479
  0
LINE
  5
636
100
AcDbEntity
  8
0
100
AcDbLine
 62
7
  6
CONTINUOUS
 10
14.7020604069
 20
7.3474981479
 11
14.7020604069
 21
7.4224981479
  0
LINE
  5
637
100
AcDbEntity
  8
0
100
AcDbLine
 62
7
  6
CONTINUOUS
 10
14.7139226797
 20
7.3474981479
 11
14.7139226797
 21
7.4224981479
  0
LINE
  5
638
100
AcDbEntity
  8
0
100
AcDbLine
 62
7
  6
CONTINUOUS
 10
14.7273480159
 20
7.4224981479
 11
14.7273480159
 21
7.3474981479
  0
LINE
  5
639
100
AcDbEntity
  8
0
100
AcDbLine
 62
7
  6
CONTINUOUS
 10
14.7376923427
 20
8.8224981479
 11
14.7376923427
 21
8.8524981479
  0
LINE
  5
63A
100
AcDbEntity
  8
0
100
AcDbLine
 62
7
  6
CONTINUOUS
 10
14.744509858
 20
7.3474981479
 11
14.744509858
 21
7.4224981479
  0
LINE
  5
63B
100
AcDbEntity
  8
0
100
AcDbLine
 62
7
  6
CONTINUOUS
 10
14.7569786662
 20
7.3474981479
 11
14.7569786662
 21
7.4224981479
  0
LINE
  5
63C
100
AcDbEntity
  8
0
100
AcDbLine
 62
7
  6
CONTINUOUS
 10
14.7704784398
 20
7.4224981479
 11
14.7704784398
 21
7.3474981479
  0
LINE
  5
63D
100
AcDbEntity
  8
0
100
AcDbLine
 62
7
  6
CONTINUOUS
 10
14.7871946723
 20
7.3474981479
 11
14.7871946723
 21
7.4224981479
  0
LINE
  5
63E
100
AcDbEntity
  8
0
100
AcDbLine
 62
7
  6
CONTINUOUS
 10
14.8002548244
 20
7.3474981479
 11
14.8002548244
 21
7.4224981479
  0
LINE
  5
63F
100
AcDbEntity
  8
0
100
AcDbLine
 62
7
  6
CONTINUOUS
 10
14.8138125881
 20
7.4224981479
 11
14.8138125881
 21
7.3474981479
  0
LINE
  5
640
100
AcDbEntity
  8
0
100
AcDbLine
 62
7
  6
CONTINUOUS
 10
14.8300628447
 20
7.3474981479
 11
14.8300628447
 21
7.4224981479
  0
LINE
  5
641
100
AcDbEntity
  8
0
100
AcDbLine
 62
7
  6
CONTINUOUS
 10
14.8436984291
 20
7.3474981479
 11
14.8436984291
 21
7.4224981479
  0
LINE
  5
642
100
AcDbEntity
  8
0
100
AcDbLine
 62
7
  6
CONTINUOUS
 10
14.8572976648
 20
7.4224981479
 11
14.8572976648
 21
7.3474981479
  0
LINE
  5
643
100
AcDbEntity
  8
0
100
AcDbLine
 62
7
  6
CONTINUOUS
 10
15.3440583606
 20
9.1903208049
 11
15.352846448
 21
9.2025414226
  0
LINE
  5
644
100
AcDbEntity
  8
0
100
AcDbLine
 62
7
  6
CONTINUOUS
 10
13.6876923427
 20
7.0974981479
 11
13.7376923427
 21
7.1474981479
  0
LINE
  5
645
100
AcDbEntity
  8
0
100
AcDbLine
 62
7
  6
CONTINUOUS
 10
14.8730621472
 20
7.3474981479
 11
14.8730621472
 21
7.4224981479
  0
LINE
  5
646
100
AcDbEntity
  8
0
100
AcDbLine
 62
7
  6
CONTINUOUS
 10
14.8872565509
 20
7.3474981479
 11
14.8872565509
 21
7.4224981479
  0
LINE
  5
647
100
AcDbEntity
  8
0
100
AcDbLine
 62
7
  6
CONTINUOUS
 10
14.90088069
 20
7.4224981479
 11
14.90088069
 21
7.3474981479
  0
LINE
  5
648
100
AcDbEntity
  8
0
100
AcDbLine
 62
7
  6
CONTINUOUS
 10
14.9161401916
 20
7.3474981479
 11
14.9161401916
 21
7.4224981479
  0
LINE
  5
649
100
AcDbEntity
  8
0
100
AcDbLine
 62
7
  6
CONTINUOUS
 10
14.9308761209
 20
7.3474981479
 11
14.9308761209
 21
7.4224981479
  0
LINE
  5
64A
100
AcDbEntity
  8
0
100
AcDbLine
 62
7
  6
CONTINUOUS
 10
14.9445085646
 20
7.4224981479
 11
14.9445085646
 21
7.3474981479
  0
LINE
  5
64B
100
AcDbEntity
  8
0
100
AcDbLine
 62
7
  6
CONTINUOUS
 10
14.9592444939
 20
7.3474981479
 11
14.9592444939
 21
7.4224981479
  0
LINE
  5
64C
100
AcDbEntity
  8
0
100
AcDbLine
 62
7
  6
CONTINUOUS
 10
14.9745039954
 20
7.3474981479
 11
14.9745039954
 21
7.4224981479
  0
LINE
  5
64D
100
AcDbEntity
  8
0
100
AcDbLine
 62
7
  6
CONTINUOUS
 10
14.9881281346
 20
7.4224981479
 11
14.9881281346
 21
7.3474981479
  0
LINE
  5
64E
100
AcDbEntity
  8
0
100
AcDbLine
 62
7
  6
CONTINUOUS
 10
15.0023225383
 20
7.3474981479
 11
15.0023225383
 21
7.4224981479
  0
LINE
  5
64F
100
AcDbEntity
  8
0
100
AcDbLine
 62
7
  6
CONTINUOUS
 10
15.0180870207
 20
7.3474981479
 11
15.0180870207
 21
7.4224981479
  0
LINE
  5
650
100
AcDbEntity
  8
0
100
AcDbLine
 62
7
  6
CONTINUOUS
 10
15.0316862564
 20
7.4224981479
 11
15.0316862564
 21
7.3474981479
  0
LINE
  5
651
100
AcDbEntity
  8
0
100
AcDbLine
 62
7
  6
CONTINUOUS
 10
15.0453218407
 20
7.3474981479
 11
15.0453218407
 21
7.4224981479
  0
LINE
  5
652
100
AcDbEntity
  8
0
100
AcDbLine
 62
7
  6
CONTINUOUS
 10
15.0615720973
 20
7.3474981479
 11
15.0615720973
 21
7.4224981479
  0
LINE
  5
653
100
AcDbEntity
  8
0
100
AcDbLine
 62
7
  6
CONTINUOUS
 10
15.0751298611
 20
7.4224981479
 11
15.0751298611
 21
7.3474981479
  0
LINE
  5
654
100
AcDbEntity
  8
0
100
AcDbLine
 62
7
  6
CONTINUOUS
 10
15.0881900132
 20
7.3474981479
 11
15.0881900132
 21
7.4224981479
  0
LINE
  5
655
100
AcDbEntity
  8
0
100
AcDbLine
 62
7
  6
CONTINUOUS
 10
15.1049062456
 20
7.3474981479
 11
15.1049062456
 21
7.4224981479
  0
LINE
  5
656
100
AcDbEntity
  8
0
100
AcDbLine
 62
7
  6
CONTINUOUS
 10
15.1184060193
 20
7.4224981479
 11
15.1184060193
 21
7.3474981479
  0
LINE
  5
657
100
AcDbEntity
  8
0
100
AcDbLine
 62
7
  6
CONTINUOUS
 10
15.1308748275
 20
7.3474981479
 11
15.1308748275
 21
7.4224981479
  0
LINE
  5
658
100
AcDbEntity
  8
0
100
AcDbLine
 62
7
  6
CONTINUOUS
 10
15.1376923427
 20
8.8224981479
 11
15.1376923427
 21
8.8524981479
  0
LINE
  5
659
100
AcDbEntity
  8
0
100
AcDbLine
 62
7
  6
CONTINUOUS
 10
15.1480366695
 20
7.3474981479
 11
15.1480366695
 21
7.4224981479
  0
LINE
  5
65A
100
AcDbEntity
  8
0
100
AcDbLine
 62
7
  6
CONTINUOUS
 10
15.1614620058
 20
7.4224981479
 11
15.1614620058
 21
7.3474981479
  0
LINE
  5
65B
100
AcDbEntity
  8
0
100
AcDbLine
 62
7
  6
CONTINUOUS
 10
15.1733242786
 20
7.3474981479
 11
15.1733242786
 21
7.4224981479
  0
LINE
  5
65C
100
AcDbEntity
  8
0
100
AcDbLine
 62
7
  6
CONTINUOUS
 10
15.1909108213
 20
7.3474981479
 11
15.1909108213
 21
7.4224981479
  0
LINE
  5
65D
100
AcDbEntity
  8
0
100
AcDbLine
 62
7
  6
CONTINUOUS
 10
15.2001923427
 20
9.7654981479
 11
15.2001923427
 21
9.7354981479
  0
LINE
  5
65E
100
AcDbEntity
  8
0
100
AcDbLine
 62
7
  6
CONTINUOUS
 10
15.2042453634
 20
7.4224981479
 11
15.2042453634
 21
7.3474981479
  0
LINE
  5
65F
100
AcDbEntity
  8
0
100
AcDbLine
 62
7
  6
CONTINUOUS
 10
15.2154866485
 20
7.3474981479
 11
15.2154866485
 21
7.4224981479
  0
LINE
  5
660
100
AcDbEntity
  8
0
100
AcDbLine
 62
7
  6
CONTINUOUS
 10
15.2334764653
 20
7.3474981479
 11
15.2334764653
 21
7.4224981479
  0
LINE
  5
661
100
AcDbEntity
  8
0
100
AcDbLine
 62
7
  6
CONTINUOUS
 10
15.2467039672
 20
7.4224981479
 11
15.2467039672
 21
7.3474981479
  0
LINE
  5
662
100
AcDbEntity
  8
0
100
AcDbLine
 62
7
  6
CONTINUOUS
 10
15.2501923427
 20
9.1454981479
 11
15.2501923427
 21
8.8524981479
  0
LINE
  5
663
100
AcDbEntity
  8
0
100
AcDbLine
 62
7
  6
CONTINUOUS
 10
15.2573105689
 20
7.3474981479
 11
15.2573105689
 21
7.4224981479
  0
LINE
  5
664
100
AcDbEntity
  8
0
100
AcDbLine
 62
9
  6
CONTINUOUS
 10
15.2609824653
 20
9.6193303184
 11
15.2609824653
 21
9.1812902361
  0
LINE
  5
665
100
AcDbEntity
  8
0
100
AcDbLine
 62
7
  6
CONTINUOUS
 10
15.275681742
 20
7.3474981479
 11
15.275681742
 21
7.4224981479
  0
LINE
  5
666
100
AcDbEntity
  8
0
100
AcDbLine
 62
7
  6
CONTINUOUS
 10
15.2887860879
 20
7.4224981479
 11
15.2887860879
 21
7.3474981479
  0
LINE
  5
667
100
AcDbEntity
  8
0
100
AcDbLine
 62
7
  6
CONTINUOUS
 10
15.2987450837
 20
7.3474981479
 11
15.2987450837
 21
7.4224981479
  0
LINE
  5
668
100
AcDbEntity
  8
0
100
AcDbLine
 62
9
  6
CONTINUOUS
 10
15.3073637039
 20
9.256829979
 11
15.3073637039
 21
9.5448695792
  0
LINE
  5
669
100
AcDbEntity
  8
0
100
AcDbLine
 62
7
  6
CONTINUOUS
 10
15.3174752306
 20
7.3474981479
 11
15.3174752306
 21
7.4224981479
  0
LINE
  5
66A
100
AcDbEntity
  8
0
100
AcDbLine
 62
7
  6
CONTINUOUS
 10
15.330440455
 20
7.4224981479
 11
15.330440455
 21
7.3474981479
  0
LINE
  5
66B
100
AcDbEntity
  8
0
100
AcDbLine
 62
7
  6
CONTINUOUS
 10
15.3376923427
 20
9.6404981479
 11
15.3376923427
 21
9.638288633
  0
LINE
  5
66C
100
AcDbEntity
  8
0
100
AcDbLine
 62
7
  6
CONTINUOUS
 10
15.3376923427
 20
8.7224981479
 11
15.3376923427
 21
8.8224981479
  0
LINE
  5
66D
100
AcDbEntity
  8
0
100
AcDbLine
 62
7
  6
CONTINUOUS
 10
15.3397397113
 20
7.3474981479
 11
15.3397397113
 21
7.4224981479
  0
LINE
  5
66E
100
AcDbEntity
  8
0
100
AcDbLine
 62
7
  6
CONTINUOUS
 10
15.3376923604
 20
9.1654981479
 11
15.3387158248
 21
9.1752147968
  0
LINE
  5
66F
100
AcDbEntity
  8
0
100
AcDbLine
 62
7
  6
CONTINUOUS
 10
15.3387158248
 20
9.1752147968
 11
15.3440583606
 21
9.1903208049
  0
LINE
  5
670
100
AcDbEntity
  8
0
100
AcDbLine
 62
7
  6
CONTINUOUS
 10
15.8126923427
 20
8.1474981479
 11
15.8876923427
 21
8.2224981479
  0
LINE
  5
671
100
AcDbEntity
  8
0
100
AcDbLine
 62
7
  6
CONTINUOUS
 10
15.3588060123
 20
7.3474981479
 11
15.3588060123
 21
7.4224981479
  0
LINE
  5
672
100
AcDbEntity
  8
0
100
AcDbLine
 62
7
  6
CONTINUOUS
 10
15.371616319
 20
7.4224981479
 11
15.371616319
 21
7.3474981479
  0
LINE
  5
673
100
AcDbEntity
  8
0
100
AcDbLine
 62
7
  6
CONTINUOUS
 10
15.3802445061
 20
7.3474981479
 11
15.3802445061
 21
7.4224981479
  0
LINE
  5
674
100
AcDbEntity
  8
0
100
AcDbLine
 62
7
  6
CONTINUOUS
 10
15.3996237318
 20
7.3474981479
 11
15.3996237318
 21
7.4224981479
  0
LINE
  5
675
100
AcDbEntity
  8
0
100
AcDbLine
 62
7
  6
CONTINUOUS
 10
15.4122635135
 20
7.4224981479
 11
15.4122635135
 21
7.3474981479
  0
LINE
  5
676
100
AcDbEntity
  8
0
100
AcDbLine
 62
7
  6
CONTINUOUS
 10
15.4202101194
 20
7.3474981479
 11
15.4202101194
 21
7.4224981479
  0
LINE
  5
677
100
AcDbEntity
  8
0
100
AcDbLine
 62
7
  6
CONTINUOUS
 10
15.4398786591
 20
7.3474981479
 11
15.4398786591
 21
7.4224981479
  0
LINE
  5
678
100
AcDbEntity
  8
0
100
AcDbLine
 62
7
  6
CONTINUOUS
 10
15.4523325161
 20
7.4224981479
 11
15.4523325161
 21
7.3474981479
  0
LINE
  5
679
100
AcDbEntity
  8
0
100
AcDbLine
 62
7
  6
CONTINUOUS
 10
15.459587859
 20
7.3474981479
 11
15.459587859
 21
7.4224981479
  0
LINE
  5
67A
100
AcDbEntity
  8
0
100
AcDbLine
 62
7
  6
CONTINUOUS
 10
15.4795217497
 20
7.3474981479
 11
15.4795217497
 21
7.4224981479
  0
LINE
  5
67B
100
AcDbEntity
  8
0
100
AcDbLine
 62
7
  6
CONTINUOUS
 10
15.4917745089
 20
7.4224981479
 11
15.4917745089
 21
7.3474981479
  0
LINE
  5
67C
100
AcDbEntity
  8
0
100
AcDbLine
 62
7
  6
CONTINUOUS
 10
15.4983297493
 20
7.3474981479
 11
15.4983297493
 21
7.4224981479
  0
LINE
  5
67D
100
AcDbEntity
  8
0
100
AcDbLine
 62
7
  6
CONTINUOUS
 10
15.5185047047
 20
7.3474981479
 11
15.5185047047
 21
7.4224981479
  0
LINE
  5
67E
100
AcDbEntity
  8
0
100
AcDbLine
 62
7
  6
CONTINUOUS
 10
15.530541438
 20
7.4224981479
 11
15.530541438
 21
7.3474981479
  0
LINE
  5
67F
100
AcDbEntity
  8
0
100
AcDbLine
 62
7
  6
CONTINUOUS
 10
15.5363885893
 20
7.3474981479
 11
15.5363885893
 21
7.4224981479
  0
LINE
  5
680
100
AcDbEntity
  8
0
100
AcDbLine
 62
7
  6
CONTINUOUS
 10
15.5567800292
 20
7.3474981479
 11
15.5567800292
 21
7.4224981479
  0
LINE
  5
681
100
AcDbEntity
  8
0
100
AcDbLine
 62
7
  6
CONTINUOUS
 10
15.5685860718
 20
7.4224981479
 11
15.5685860718
 21
7.3474981479
  0
LINE
  5
682
100
AcDbEntity
  8
0
100
AcDbLine
 62
7
  6
CONTINUOUS
 10
15.5737180102
 20
7.3474981479
 11
15.5737180102
 21
7.4224981479
  0
LINE
  5
683
100
AcDbEntity
  8
0
100
AcDbLine
 62
7
  6
CONTINUOUS
 10
15.5943010908
 20
7.3474981479
 11
15.5943010908
 21
7.4224981479
  0
LINE
  5
684
100
AcDbEntity
  8
0
100
AcDbLine
 62
7
  6
CONTINUOUS
 10
15.6058620587
 20
7.4224981479
 11
15.6058620587
 21
7.3474981479
  0
LINE
  5
685
100
AcDbEntity
  8
0
100
AcDbLine
 62
7
  6
CONTINUOUS
 10
15.6102725317
 20
7.3474981479
 11
15.6102725317
 21
7.4224981479
  0
LINE
  5
686
100
AcDbEntity
  8
0
100
AcDbLine
 62
7
  6
CONTINUOUS
 10
15.6310221757
 20
7.3474981479
 11
15.6310221757
 21
7.4224981479
  0
LINE
  5
687
100
AcDbEntity
  8
0
100
AcDbLine
 62
7
  6
CONTINUOUS
 10
15.6423239838
 20
7.4224981479
 11
15.6423239838
 21
7.3474981479
  0
LINE
  5
688
100
AcDbEntity
  8
0
100
AcDbLine
 62
7
  6
CONTINUOUS
 10
15.6460076179
 20
7.3474981479
 11
15.6460076179
 21
7.4224981479
  0
LINE
  5
689
100
AcDbEntity
  8
0
100
AcDbLine
 62
7
  6
CONTINUOUS
 10
15.6668985451
 20
7.3474981479
 11
15.6668985451
 21
7.4224981479
  0
LINE
  5
68A
100
AcDbEntity
  8
0
100
AcDbLine
 62
7
  6
CONTINUOUS
 10
15.6779274237
 20
7.4224981479
 11
15.6779274237
 21
7.3474981479
  0
LINE
  5
68B
100
AcDbEntity
  8
0
100
AcDbLine
 62
7
  6
CONTINUOUS
 10
15.680879731
 20
7.3474981479
 11
15.680879731
 21
7.4224981479
  0
LINE
  5
68C
100
AcDbEntity
  8
0
100
AcDbLine
 62
7
  6
CONTINUOUS
 10
15.6876923427
 20
8.6724981479
 11
15.6876923427
 21
8.7224981479
  0
LINE
  5
68D
100
AcDbEntity
  8
0
100
AcDbLine
 62
7
  6
CONTINUOUS
 10
15.701886489
 20
7.3474981479
 11
15.701886489
 21
7.4224981479
  0
LINE
  5
68E
100
AcDbEntity
  8
0
100
AcDbLine
 62
7
  6
CONTINUOUS
 10
15.7126290013
 20
7.4224981479
 11
15.7126290013
 21
7.3474981479
  0
LINE
  5
68F
100
AcDbEntity
  8
0
100
AcDbLine
 62
7
  6
CONTINUOUS
 10
15.7148463848
 20
7.3474981479
 11
15.7148463848
 21
7.4224981479
  0
LINE
  5
690
100
AcDbEntity
  8
0
100
AcDbLine
 62
7
  6
CONTINUOUS
 10
15.7359433801
 20
7.3474981479
 11
15.7359433801
 21
7.4224981479
  0
LINE
  5
691
100
AcDbEntity
  8
0
100
AcDbLine
 62
7
  6
CONTINUOUS
 10
15.7463864378
 20
7.4224981479
 11
15.7463864378
 21
7.3474981479
  0
LINE
  5
692
100
AcDbEntity
  8
0
100
AcDbLine
 62
7
  6
CONTINUOUS
 10
15.7478661961
 20
7.3474981479
 11
15.7478661961
 21
7.4224981479
  0
LINE
  5
693
100
AcDbEntity
  8
0
100
AcDbLine
 62
7
  6
CONTINUOUS
 10
15.7690277252
 20
7.3474981479
 11
15.7690277252
 21
7.4224981479
  0
LINE
  5
694
100
AcDbEntity
  8
0
100
AcDbLine
 62
7
  6
CONTINUOUS
 10
15.7791586052
 20
7.4224981479
 11
15.7791586052
 21
7.3474981479
  0
LINE
  5
695
100
AcDbEntity
  8
0
100
AcDbLine
 62
7
  6
CONTINUOUS
 10
15.7798989354
 20
7.3474981479
 11
15.7798989354
 21
7.4224981479
  0
LINE
  5
696
100
AcDbEntity
  8
0
100
AcDbLine
 62
7
  6
CONTINUOUS
 10
15.8010992163
 20
7.3474981479
 11
15.8010992163
 21
7.4224981479
  0
LINE
  5
697
100
AcDbEntity
  8
0
100
AcDbLine
 62
7
  6
CONTINUOUS
 10
15.8109055756
 20
7.4224981479
 11
15.8109055756
 21
7.3474981479
  0
LINE
  5
698
100
AcDbEntity
  8
0
100
AcDbLine
 62
7
  6
CONTINUOUS
 10
15.8126923427
 20
7.6224981479
 11
15.8126923427
 21
8.1474981479
  0
LINE
  5
699
100
AcDbEntity
  8
0
100
AcDbLine
 62
7
  6
CONTINUOUS
 10
15.832118779
 20
7.3474981479
 11
15.832118779
 21
7.4224981479
  0
LINE
  5
69A
100
AcDbEntity
  8
0
100
AcDbLine
 62
7
  6
CONTINUOUS
 10
15.8415886702
 20
7.4224981479
 11
15.8415886702
 21
7.3474981479
  0
LINE
  5
69B
100
AcDbEntity
  8
0
100
AcDbLine
 62
7
  6
CONTINUOUS
 10
15.862048621
 20
7.3474981479
 11
15.862048621
 21
7.4224981479
  0
LINE
  5
69C
100
AcDbEntity
  8
0
100
AcDbLine
 62
7
  6
CONTINUOUS
 10
15.8711705063
 20
7.4224981479
 11
15.8711705063
 21
7.3474981479
  0
LINE
  5
69D
100
AcDbEntity
  8
0
100
AcDbLine
 62
7
  6
CONTINUOUS
 10
15.8876923427
 20
8.2224981479
 11
15.8876923427
 21
8.3224981479
  0
LINE
  5
69E
100
AcDbEntity
  8
0
100
AcDbLine
 62
7
  6
CONTINUOUS
 10
15.8876923427
 20
8.5224981479
 11
15.8876923427
 21
8.5724981479
  0
LINE
  5
69F
100
AcDbEntity
  8
0
100
AcDbLine
 62
7
  6
CONTINUOUS
 10
15.8908522771
 20
7.3474981479
 11
15.8908522771
 21
7.4224981479
  0
LINE
  5
6A0
100
AcDbEntity
  8
0
100
AcDbLine
 62
7
  6
CONTINUOUS
 10
15.899615043
 20
7.4224981479
 11
15.899615043
 21
7.3474981479
  0
LINE
  5
6A1
100
AcDbEntity
  8
0
100
AcDbLine
 62
7
  6
CONTINUOUS
 10
15.9184946548
 20
7.3474981479
 11
15.9184946548
 21
7.4224981479
  0
LINE
  5
6A2
100
AcDbEntity
  8
0
100
AcDbLine
 62
7
  6
CONTINUOUS
 10
15.9268876252
 20
7.4224981479
 11
15.9268876252
 21
7.3474981479
  0
LINE
  5
6A3
100
AcDbEntity
  8
0
100
AcDbLine
 62
7
  6
CONTINUOUS
 10
15.9449420759
 20
7.3474981479
 11
15.9449420759
 21
7.4224981479
  0
LINE
  5
6A4
100
AcDbEntity
  8
0
100
AcDbLine
 62
7
  6
CONTINUOUS
 10
15.9529550252
 20
7.4224981479
 11
15.9529550252
 21
7.3474981479
  0
LINE
  5
6A5
100
AcDbEntity
  8
0
100
AcDbLine
 62
7
  6
CONTINUOUS
 10
15.9626923427
 20
8.3224981479
 11
15.9626923427
 21
8.5224981479
  0
LINE
  5
6A6
100
AcDbEntity
  8
0
100
AcDbLine
 62
7
  6
CONTINUOUS
 10
15.9701623183
 20
7.3474981479
 11
15.9701623183
 21
7.4224981479
  0
LINE
  5
6A7
100
AcDbEntity
  8
0
100
AcDbLine
 62
7
  6
CONTINUOUS
 10
15.9777854841
 20
7.4224981479
 11
15.9777854841
 21
7.3474981479
  0
LINE
  5
6A8
100
AcDbEntity
  8
0
100
AcDbLine
 62
7
  6
CONTINUOUS
 10
15.9941246551
 20
7.3474981479
 11
15.9941246551
 21
7.4224981479
  0
LINE
  5
6A9
100
AcDbEntity
  8
0
100
AcDbLine
 62
7
  6
CONTINUOUS
 10
16.0013487497
 20
7.4224981479
 11
16.0013487497
 21
7.3474981479
  0
LINE
  5
6AA
100
AcDbEntity
  8
0
100
AcDbLine
 62
7
  6
CONTINUOUS
 10
16.0167998919
 20
7.3474981479
 11
16.0167998919
 21
7.4224981479
  0
LINE
  5
6AB
100
AcDbEntity
  8
0
100
AcDbLine
 62
7
  6
CONTINUOUS
 10
16.0236161138
 20
7.4224981479
 11
16.0236161138
 21
7.3474981479
  0
LINE
  5
6AC
100
AcDbEntity
  8
0
100
AcDbLine
 62
7
  6
CONTINUOUS
 10
16.0381604024
 20
7.3474981479
 11
16.0381604024
 21
7.4224981479
  0
LINE
  5
6AD
100
AcDbEntity
  8
0
100
AcDbLine
 62
7
  6
CONTINUOUS
 10
16.044560447
 20
7.4224981479
 11
16.044560447
 21
7.3474981479
  0
LINE
  5
6AE
100
AcDbEntity
  8
0
100
AcDbLine
 62
7
  6
CONTINUOUS
 10
16.058180162
 20
7.3474981479
 11
16.058180162
 21
7.4224981479
  0
LINE
  5
6AF
100
AcDbEntity
  8
0
100
AcDbLine
 62
7
  6
CONTINUOUS
 10
16.064156232
 20
7.4224981479
 11
16.064156232
 21
7.3474981479
  0
LINE
  5
6B0
100
AcDbEntity
  8
0
100
AcDbLine
 62
7
  6
CONTINUOUS
 10
16.0768347798
 20
7.3474981479
 11
16.0768347798
 21
7.4224981479
  0
LINE
  5
6B1
100
AcDbEntity
  8
0
100
AcDbLine
 62
7
  6
CONTINUOUS
 10
16.0823795942
 20
7.4224981479
 11
16.0823795942
 21
7.3474981479
  0
LINE
  5
6B2
100
AcDbEntity
  8
0
100
AcDbLine
 62
7
  6
CONTINUOUS
 10
16.0941015281
 20
7.3474981479
 11
16.0941015281
 21
7.4224981479
  0
LINE
  5
6B3
100
AcDbEntity
  8
0
100
AcDbLine
 62
7
  6
CONTINUOUS
 10
16.0992083314
 20
7.4224981479
 11
16.0992083314
 21
7.3474981479
  0
LINE
  5
6B4
100
AcDbEntity
  8
0
100
AcDbLine
 62
7
  6
CONTINUOUS
 10
16.1099593698
 20
7.3474981479
 11
16.1099593698
 21
7.4224981479
  0
LINE
  5
6B5
100
AcDbEntity
  8
0
100
AcDbLine
 62
7
  6
CONTINUOUS
 10
16.1146219402
 20
7.4224981479
 11
16.1146219402
 21
7.3474981479
  0
LINE
  5
6B6
100
AcDbEntity
  8
0
100
AcDbLine
 62
7
  6
CONTINUOUS
 10
16.1243889848
 20
7.3474981479
 11
16.1243889848
 21
7.4224981479
  0
LINE
  5
6B7
100
AcDbEntity
  8
0
100
AcDbLine
 62
7
  6
CONTINUOUS
 10
16.1286016416
 20
7.4224981479
 11
16.1286016416
 21
7.3474981479
  0
LINE
  5
6B8
100
AcDbEntity
  8
0
100
AcDbLine
 62
7
  6
CONTINUOUS
 10
16.1373727927
 20
7.3474981479
 11
16.1373727927
 21
7.4224981479
  0
LINE
  5
6B9
100
AcDbEntity
  8
0
100
AcDbLine
 62
7
  6
CONTINUOUS
 10
16.1376923427
 20
7.1474981479
 11
16.1376923427
 21
7.3474981479
  0
LINE
  5
6BA
100
AcDbEntity
  8
0
100
AcDbLine
 62
7
  6
CONTINUOUS
 10
16.1411304035
 20
7.4224981479
 11
16.1411304035
 21
7.3474981479
  0
LINE
  5
6BB
100
AcDbEntity
  8
0
100
AcDbLine
 62
7
  6
CONTINUOUS
 10
16.1488949748
 20
7.3474981479
 11
16.1488949748
 21
7.4224981479
  0
LINE
  5
6BC
100
AcDbEntity
  8
0
100
AcDbLine
 62
7
  6
CONTINUOUS
 10
16.1521929614
 20
7.4224981479
 11
16.1521929614
 21
7.3474981479
  0
LINE
  5
6BD
100
AcDbEntity
  8
0
100
AcDbLine
 62
7
  6
CONTINUOUS
 10
16.1589414931
 20
7.3474981479
 11
16.1589414931
 21
7.4224981479
  0
LINE
  5
6BE
100
AcDbEntity
  8
0
100
AcDbLine
 62
7
  6
CONTINUOUS
 10
16.1617758375
 20
7.4224981479
 11
16.1617758375
 21
7.3474981479
  0
LINE
  5
6BF
100
AcDbEntity
  8
0
100
AcDbLine
 62
7
  6
CONTINUOUS
 10
16.1675001074
 20
7.3474981479
 11
16.1675001074
 21
7.4224981479
  0
LINE
  5
6C0
100
AcDbEntity
  8
0
100
AcDbLine
 62
7
  6
CONTINUOUS
 10
16.1698673564
 20
7.4224981479
 11
16.1698673564
 21
7.3474981479
  0
LINE
  5
6C1
100
AcDbEntity
  8
0
100
AcDbLine
 62
7
  6
CONTINUOUS
 10
16.1745603903
 20
7.3474981479
 11
16.1745603903
 21
7.4224981479
  0
LINE
  5
6C2
100
AcDbEntity
  8
0
100
AcDbLine
 62
7
  6
CONTINUOUS
 10
16.1764576598
 20
7.4224981479
 11
16.1764576598
 21
7.3474981479
  0
LINE
  5
6C3
100
AcDbEntity
  8
0
100
AcDbLine
 62
7
  6
CONTINUOUS
 10
16.1801137401
 20
7.3474981479
 11
16.1801137401
 21
7.4224981479
  0
LINE
  5
6C4
100
AcDbEntity
  8
0
100
AcDbLine
 62
7
  6
CONTINUOUS
 10
16.1815387185
 20
7.4224981479
 11
16.1815387185
 21
7.3474981479
  0
LINE
  5
6C5
100
AcDbEntity
  8
0
100
AcDbLine
 62
7
  6
CONTINUOUS
 10
16.1841533907
 20
7.3474981479
 11
16.1841533907
 21
7.4224981479
  0
LINE
  5
6C6
100
AcDbEntity
  8
0
100
AcDbLine
 62
7
  6
CONTINUOUS
 10
16.1851043419
 20
7.4224981479
 11
16.1851043419
 21
7.3474981479
  0
LINE
  5
6C7
100
AcDbEntity
  8
0
100
AcDbLine
 62
7
  6
CONTINUOUS
 10
16.1866744206
 20
7.3474981479
 11
16.1866744206
 21
7.4224981479
  0
LINE
  5
6C8
100
AcDbEntity
  8
0
100
AcDbLine
 62
7
  6
CONTINUOUS
 10
16.1871501861
 20
7.4224981479
 11
16.1871501861
 21
7.3474981479
  0
LINE
  5
6C9
100
AcDbEntity
  8
0
100
AcDbLine
 62
7
  6
CONTINUOUS
 10
16.1876737582
 20
7.3474981479
 11
16.1876737582
 21
7.4224981479
  0
LINE
  5
6CA
100
AcDbEntity
  8
0
100
AcDbLine
 62
7
  6
CONTINUOUS
 10
16.1876923427
 20
6.9474981479
 11
16.1876923427
 21
7.0974981479
  0
LINE
  5
6CB
100
AcDbEntity
  8
0
100
AcDbLine
 62
9
  6
CONTINUOUS
 10
17.7476776791
 20
9.2079155015
 11
17.7475243018
 21
9.2255258945
  0
LINE
  5
6CC
100
AcDbEntity
  8
0
100
AcDbLine
 62
9
  6
CONTINUOUS
 10
17.7462897895
 20
9.5994955205
 11
17.7462896978
 21
9.265176746
  0
LINE
  5
6CD
100
AcDbEntity
  8
0
100
AcDbLine
 62
7
  6
CONTINUOUS
 10
17.7876923427
 20
9.2479198458
 11
17.7876923427
 21
9.6167565673
  0
LINE
  5
6CE
100
AcDbEntity
  8
0
100
AcDbLine
 62
9
  6
CONTINUOUS
 10
17.7464842888
 20
9.6391286704
 11
17.7466278889
 21
9.6567467231
  0
ARC
  5
6CF
100
AcDbEntity
  8
0
100
AcDbCircle
 62
9
  6
CONTINUOUS
 10
6.9879367298
 20
6.7482436705
 40
2.5225346442
100
AcDbArc
 50
100.6742311514
 51
101.4613532274
  0
ARC
  5
6D0
100
AcDbEntity
  8
0
100
AcDbCircle
 62
9
  6
CONTINUOUS
 10
6.9880523994
 20
7.276696365
 40
1.9408998726
100
AcDbArc
 50
101.0995160054
 51
103.3051215248
  0
ARC
  5
6D1
100
AcDbEntity
  8
0
100
AcDbCircle
 62
7
  6
CONTINUOUS
 10
7.9626923427
 20
7.6224981479
 40
0.1
100
AcDbArc
 50
180.0
 51
270.0
  0
ARC
  5
6D2
100
AcDbEntity
  8
0
100
AcDbCircle
 62
7
  6
CONTINUOUS
 10
5.9126923427
 20
7.6224981479
 40
0.1
100
AcDbArc
 50
270.0
 51
360.0
  0
ARC
  5
6D3
100
AcDbEntity
  8
0
100
AcDbCircle
 62
7
  6
CONTINUOUS
 10
8.1126923427
 20
7.5224981479
 40
0.1
100
AcDbArc
 50
180.0
 51
265.8016412496
  0
ARC
  5
6D4
100
AcDbEntity
  8
0
100
AcDbCircle
 62
7
  6
CONTINUOUS
 10
5.7626923427
 20
7.5224981479
 40
0.1
100
AcDbArc
 50
274.1983587504
 51
360.0
  0
ARC
  5
6D5
100
AcDbEntity
  8
0
100
AcDbCircle
 62
9
  6
CONTINUOUS
 10
10.4642942764
 20
0.7660455367
 40
9.1750341548
100
AcDbArc
 50
93.9587958669
 51
94.1232524202
  0
ARC
  5
6D6
100
AcDbEntity
  8
0
100
AcDbCircle
 62
7
  6
CONTINUOUS
 10
10.9328061892
 20
4.9064970822
 40
5.6242809549
100
AcDbArc
 50
91.3464686208
 51
91.5376664259
  0
ARC
  5
6D7
100
AcDbEntity
  8
0
100
AcDbCircle
 62
7
  6
CONTINUOUS
 10
10.9324825283
 20
4.8549224508
 40
5.6114200179
100
AcDbArc
 50
91.3462495154
 51
91.5378855313
  0
ARC
  5
6D8
100
AcDbEntity
  8
0
100
AcDbCircle
 62
7
  6
CONTINUOUS
 10
10.9261684272
 20
5.1322422493
 40
5.3984376291
100
AcDbArc
 50
91.8424044404
 51
92.0388724435
  0
ARC
  5
6D9
100
AcDbEntity
  8
0
100
AcDbCircle
 62
7
  6
CONTINUOUS
 10
10.925606277
 20
5.0844014178
 40
5.3818374508
100
AcDbArc
 50
91.8421014391
 51
92.0391754447
  0
ARC
  5
6DA
100
AcDbEntity
  8
0
100
AcDbCircle
 62
7
  6
CONTINUOUS
 10
10.9154663564
 20
5.4124582042
 40
5.1180165957
100
AcDbArc
 50
92.3534956177
 51
92.5570485548
  0
ARC
  5
6DB
100
AcDbEntity
  8
0
100
AcDbCircle
 62
7
  6
CONTINUOUS
 10
10.9146141001
 20
5.3679026132
 40
5.0981224417
100
AcDbArc
 50
92.35309846
 51
92.5574457126
  0
ARC
  5
6DC
100
AcDbEntity
  8
0
100
AcDbCircle
 62
7
  6
CONTINUOUS
 10
10.8999848305
 20
5.7396089012
 40
4.7904987989
100
AcDbArc
 50
92.8846137908
 51
93.0973119404
  0
ARC
  5
6DD
100
AcDbEntity
  8
0
100
AcDbCircle
 62
7
  6
CONTINUOUS
 10
10.8988024227
 20
5.6978073674
 40
4.7678379898
100
AcDbArc
 50
92.8841083293
 51
93.097817402
  0
ARC
  5
6DE
100
AcDbEntity
  8
0
100
AcDbCircle
 62
7
  6
CONTINUOUS
 10
10.8791999872
 20
6.1050115476
 40
4.4245042634
100
AcDbArc
 50
93.4413385034
 51
93.6655772422
  0
ARC
  5
6DF
100
AcDbEntity
  8
0
100
AcDbCircle
 62
7
  6
CONTINUOUS
 10
10.8776606497
 20
6.065368404
 40
4.3996681919
100
AcDbArc
 50
93.4407055902
 51
93.6662101555
  0
ARC
  5
6E0
100
AcDbEntity
  8
0
100
AcDbCircle
 62
7
  6
CONTINUOUS
 10
10.8528020386
 20
6.4991327218
 40
4.0294985371
100
AcDbArc
 50
94.0302100838
 51
94.2688367716
  0
ARC
  5
6E1
100
AcDbEntity
  8
0
100
AcDbCircle
 62
7
  6
CONTINUOUS
 10
10.8508934805
 20
6.4610081025
 40
4.0031225592
100
AcDbArc
 50
94.0294239448
 51
94.2696229106
  0
ARC
  5
6E2
100
AcDbEntity
  8
0
100
AcDbCircle
 62
7
  6
CONTINUOUS
 10
10.8207103738
 20
6.9119126485
 40
3.6154712237
100
AcDbArc
 50
94.6590632096
 51
94.9155340366
  0
ARC
  5
6E3
100
AcDbEntity
  8
0
100
AcDbCircle
 62
7
  6
CONTINUOUS
 10
10.8184354902
 20
6.8746442152
 40
3.5882131196
100
AcDbArc
 50
94.6580890589
 51
94.9165081872
  0
ARC
  5
6E4
100
AcDbEntity
  8
0
100
AcDbCircle
 62
7
  6
CONTINUOUS
 10
10.7830804237
 20
7.3331061566
 40
3.192597981
100
AcDbArc
 50
95.3374787873
 51
95.6160745947
  0
ARC
  5
6E5
100
AcDbEntity
  8
0
100
AcDbCircle
 62
7
  6
CONTINUOUS
 10
10.7804574485
 20
7.2960315028
 40
3.165115746
100
AcDbArc
 50
95.3362692816
 51
95.6172841003
  0
ARC
  5
6E6
100
AcDbEntity
  8
0
100
AcDbCircle
 62
7
  6
CONTINUOUS
 10
10.740302028
 20
7.752628352
 40
2.7708978567
100
AcDbArc
 50
96.0774113628
 51
96.3835418319
  0
ARC
  5
6E7
100
AcDbEntity
  8
0
100
AcDbCircle
 62
7
  6
CONTINUOUS
 10
10.7373641342
 20
7.7151072843
 40
2.7438276147
100
AcDbArc
 50
96.0759012377
 51
96.385051957
  0
ARC
  5
6E8
100
AcDbEntity
  8
0
100
AcDbCircle
 62
7
  6
CONTINUOUS
 10
10.6929893467
 20
8.1608927944
 40
2.3598980752
100
AcDbArc
 50
96.8940814484
 51
97.2347243705
  0
ARC
  5
6E9
100
AcDbEntity
  8
0
100
AcDbCircle
 62
7
  6
CONTINUOUS
 10
10.689783707
 20
8.1223287125
 40
2.3338328867
100
AcDbArc
 50
96.8921792238
 51
97.2366265951
  0
ARC
  5
6EA
100
AcDbEntity
  8
0
100
AcDbCircle
 62
7
  6
CONTINUOUS
 10
9.3557738435
 20
8.0805916422
 40
0.42
100
AcDbArc
 50
356.9846464087
 51
42.6327575958
  0
ARC
  5
6EB
100
AcDbEntity
  8
0
100
AcDbCircle
 62
7
  6
CONTINUOUS
 10
9.6751923427
 20
7.5224981479
 40
0.1
100
AcDbArc
 50
275.0935820824
 51
360.0
  0
ARC
  5
6EC
100
AcDbEntity
  8
0
100
AcDbCircle
 62
7
  6
CONTINUOUS
 10
9.8001923427
 20
8.0334981479
 40
0.025
100
AcDbArc
 50
0.0
 51
90.0
  0
ARC
  5
6ED
100
AcDbEntity
  8
0
100
AcDbCircle
 62
7
  6
CONTINUOUS
 10
9.6831647837
 20
8.3819886765
 40
0.025
100
AcDbArc
 50
180.0
 51
222.6327575958
  0
ARC
  5
6EE
100
AcDbEntity
  8
0
100
AcDbCircle
 62
7
  6
CONTINUOUS
 10
-20.8236732333
 20
16.8855533233
 40
31.6253927737
100
AcDbArc
 50
345.7918399135
 51
348.3728515081
  0
ARC
  5
6EF
100
AcDbEntity
  8
0
100
AcDbCircle
 62
7
  6
CONTINUOUS
 10
-19.391451603
 20
16.5882531043
 40
30.1626222176
100
AcDbArc
 50
348.3777318364
 51
348.8645887921
  0
ARC
  5
6F0
100
AcDbEntity
  8
0
100
AcDbCircle
 62
7
  6
CONTINUOUS
 10
5.9876923427
 20
8.6724981479
 40
0.1
100
AcDbArc
 50
270.0
 51
360.0
  0
ARC
  5
6F1
100
AcDbEntity
  8
0
100
AcDbCircle
 62
7
  6
CONTINUOUS
 10
6.5501923427
 20
9.7154981479
 40
0.075
100
AcDbArc
 50
270.0
 51
360.0
  0
ARC
  5
6F2
100
AcDbEntity
  8
0
100
AcDbCircle
 62
7
  6
CONTINUOUS
 10
7.3251923427
 20
9.7154981479
 40
0.075
100
AcDbArc
 50
180.0
 51
270.0
  0
ARC
  5
6F3
100
AcDbEntity
  8
0
100
AcDbCircle
 62
7
  6
CONTINUOUS
 10
6.4822504112
 20
9.1638686176
 40
0.0558607875
100
AcDbArc
 50
50.703292856
 51
56.2329367223
  0
ARC
  5
6F4
100
AcDbEntity
  8
0
100
AcDbCircle
 62
7
  6
CONTINUOUS
 10
6.4820161031
 20
9.1641615612
 40
0.0558082369
100
AcDbArc
 50
23.1860527734
 51
39.6151189887
  0
ARC
  5
6F5
100
AcDbEntity
  8
0
100
AcDbCircle
 62
7
  6
CONTINUOUS
 10
6.4826297179
 20
9.1641850953
 40
0.0554389716
100
AcDbArc
 50
72.4171150308
 51
85.996844324
  0
ARC
  5
6F6
100
AcDbEntity
  8
0
100
AcDbCircle
 62
7
  6
CONTINUOUS
 10
6.4822918587
 20
9.1645616811
 40
0.0554083847
100
AcDbArc
 50
0.9684124572
 51
15.1263417559
  0
ARC
  5
6F7
100
AcDbEntity
  8
0
100
AcDbCircle
 62
7
  6
CONTINUOUS
 10
6.4826661615
 20
9.6383159117
 40
0.0550276506
100
AcDbArc
 50
268.320965719
 51
359.9714069435
  0
ARC
  5
6F8
100
AcDbEntity
  8
0
100
AcDbCircle
 62
7
  6
CONTINUOUS
 10
6.4826918011
 20
9.1652338077
 40
0.0543884849
100
AcDbArc
 50
85.9849610071
 51
90.1977167263
  0
ARC
  5
6F9
100
AcDbEntity
  8
0
100
AcDbCircle
 62
7
  6
CONTINUOUS
 10
6.483743808
 20
9.1649822954
 40
0.0538969897
100
AcDbArc
 50
15.0974717257
 51
23.1071569649
  0
ARC
  5
6FA
100
AcDbEntity
  8
0
100
AcDbCircle
 62
7
  6
CONTINUOUS
 10
6.4837950075
 20
9.1657321878
 40
0.0534403672
100
AcDbArc
 50
39.5747792405
 51
50.7194394838
  0
ARC
  5
6FB
100
AcDbEntity
  8
0
100
AcDbCircle
 62
7
  6
CONTINUOUS
 10
4.127692808
 20
9.2479155212
 40
0.0400000223
100
AcDbArc
 50
180.0
 51
270.0203370907
  0
ARC
  5
6FC
100
AcDbEntity
  8
0
100
AcDbCircle
 62
7
  6
CONTINUOUS
 10
4.1276927956
 20
9.6167608558
 40
0.040000021
100
AcDbArc
 50
88.4757502233
 51
180.0
  0
ARC
  5
6FD
100
AcDbEntity
  8
0
100
AcDbCircle
 62
9
  6
CONTINUOUS
 10
4.1272133334
 20
9.5994699316
 40
0.0395214135
100
AcDbArc
 50
161.6285941777
 51
179.9553449588
  0
ARC
  5
6FE
100
AcDbEntity
  8
0
100
AcDbCircle
 62
9
  6
CONTINUOUS
 10
4.1272059574
 20
9.2652009958
 40
0.0395136256
100
AcDbArc
 50
180.0425987177
 51
198.0504017692
  0
ARC
  5
6FF
100
AcDbEntity
  8
0
100
AcDbCircle
 62
7
  6
CONTINUOUS
 10
7.2201923427
 20
9.7354981479
 40
0.02
100
AcDbArc
 50
180.0
 51
270.0
  0
ARC
  5
700
100
AcDbEntity
  8
0
100
AcDbCircle
 62
7
  6
CONTINUOUS
 10
6.6551923427
 20
9.7354981479
 40
0.02
100
AcDbArc
 50
270.0
 51
360.0
  0
ARC
  5
701
100
AcDbEntity
  8
0
100
AcDbCircle
 62
7
  6
CONTINUOUS
 10
7.2701923427
 20
9.1454981479
 40
0.02
100
AcDbArc
 50
90.0
 51
180.0
  0
ARC
  5
702
100
AcDbEntity
  8
0
100
AcDbCircle
 62
7
  6
CONTINUOUS
 10
6.6051923427
 20
9.1454981479
 40
0.02
100
AcDbArc
 50
0.0
 51
90.0
  0
ARC
  5
703
100
AcDbEntity
  8
0
100
AcDbCircle
 62
9
  6
CONTINUOUS
 10
7.0665799821
 20
11.6151569254
 40
2.0464096592
100
AcDbArc
 50
255.3111594188
 51
257.2344887306
  0
ARC
  5
704
100
AcDbEntity
  8
0
100
AcDbCircle
 62
9
  6
CONTINUOUS
 10
6.9482273357
 20
11.1639244792
 40
1.5799126107
100
AcDbArc
 50
255.1230272851
 51
255.3135434522
  0
ARC
  5
705
100
AcDbEntity
  8
0
100
AcDbCircle
 62
7
  6
CONTINUOUS
 10
10.6419626609
 20
8.5491302801
 40
1.9683180837
100
AcDbArc
 50
97.8072763379
 51
98.1916283348
  0
ARC
  5
706
100
AcDbEntity
  8
0
100
AcDbCircle
 62
7
  6
CONTINUOUS
 10
10.6385490014
 20
8.5089899015
 40
1.9437883991
100
AcDbArc
 50
97.804851159
 51
98.1940535137
  0
ARC
  5
707
100
AcDbEntity
  8
0
100
AcDbCircle
 62
9
  6
CONTINUOUS
 10
10.25406704
 20
9.4417203266
 40
1.845197395
100
AcDbArc
 50
9.8063231509
 51
11.4917322929
  0
ARC
  5
708
100
AcDbEntity
  8
0
100
AcDbCircle
 62
7
  6
CONTINUOUS
 10
10.5882226913
 20
8.9096770222
 40
1.603783998
100
AcDbArc
 50
98.8432968831
 51
99.2837643585
  0
ARC
  5
709
100
AcDbEntity
  8
0
100
AcDbCircle
 62
7
  6
CONTINUOUS
 10
10.5846713877
 20
8.8675077662
 40
1.5812404351
100
AcDbArc
 50
98.8401570202
 51
99.2869042213
  0
ARC
  5
70A
100
AcDbEntity
  8
0
100
AcDbCircle
 62
7
  6
CONTINUOUS
 10
10.5329183316
 20
9.2362221137
 40
1.2725835187
100
AcDbArc
 50
100.0379557929
 51
100.5517107252
  0
ARC
  5
70B
100
AcDbEntity
  8
0
100
AcDbCircle
 62
7
  6
CONTINUOUS
 10
10.5293081158
 20
9.1916665232
 40
1.2523825876
100
AcDbArc
 50
100.0338123309
 51
100.5558541871
  0
ARC
  5
70C
100
AcDbEntity
  8
0
100
AcDbCircle
 62
7
  6
CONTINUOUS
 10
10.4773089271
 20
9.5240055943
 40
0.9794700087
100
AcDbArc
 50
101.4413448367
 51
102.052851986
  0
ARC
  5
70D
100
AcDbEntity
  8
0
100
AcDbCircle
 62
7
  6
CONTINUOUS
 10
10.4737242841
 20
9.4768122955
 40
0.9618632854
100
AcDbArc
 50
101.4357480214
 51
102.0584488012
  0
ARC
  5
70E
100
AcDbEntity
  8
0
100
AcDbCircle
 62
7
  6
CONTINUOUS
 10
10.4227224246
 20
9.7699602026
 40
0.7275227566
100
AcDbArc
 50
103.1256897757
 51
103.870971706
  0
ARC
  5
70F
100
AcDbEntity
  8
0
100
AcDbCircle
 62
7
  6
CONTINUOUS
 10
10.4192507704
 20
9.719991026
 40
0.7126498952
100
AcDbArc
 50
103.1179127198
 51
103.8787487618
  0
ARC
  5
710
100
AcDbEntity
  8
0
100
AcDbCircle
 62
7
  6
CONTINUOUS
 10
9.2047631033
 20
9.9848463541
 40
0.6316255451
100
AcDbArc
 50
345.1252992273
 51
346.4415212898
  0
ARC
  5
711
100
AcDbEntity
  8
0
100
AcDbCircle
 62
7
  6
CONTINUOUS
 10
10.3705108622
 20
9.9727919094
 40
0.5180686244
100
AcDbArc
 50
105.1988210461
 51
106.1329694045
  0
ARC
  5
712
100
AcDbEntity
  8
0
100
AcDbCircle
 62
7
  6
CONTINUOUS
 10
10.3672396037
 20
9.9200249175
 40
0.5059544922
100
AcDbArc
 50
105.1876375734
 51
106.1441528772
  0
ARC
  5
713
100
AcDbEntity
  8
0
100
AcDbCircle
 62
7
  6
CONTINUOUS
 10
10.8149436256
 20
10.1798811055
 40
0.5022512829
100
AcDbArc
 50
180.000453334
 51
196.7534998744
  0
ARC
  5
714
100
AcDbEntity
  8
0
100
AcDbCircle
 62
7
  6
CONTINUOUS
 10
9.3553715643
 20
9.9450217799
 40
0.4758406801
100
AcDbArc
 50
343.4908296861
 51
345.0439867437
  0
ARC
  5
715
100
AcDbEntity
  8
0
100
AcDbCircle
 62
7
  6
CONTINUOUS
 10
9.4573147299
 20
9.9150735899
 40
0.3695896972
100
AcDbArc
 50
342.4885016466
 51
343.2381582647
  0
ARC
  5
716
100
AcDbEntity
  8
0
100
AcDbCircle
 62
7
  6
CONTINUOUS
 10
10.3220047689
 20
10.1329964781
 40
0.3506685471
100
AcDbArc
 50
107.828322128
 51
109.0393541413
  0
ARC
  5
717
100
AcDbEntity
  8
0
100
AcDbCircle
 62
7
  6
CONTINUOUS
 10
10.3190183476
 20
10.077524808
 40
0.3412246465
100
AcDbArc
 50
107.8115629199
 51
109.0561133493
  0
ARC
  5
718
100
AcDbEntity
  8
0
100
AcDbCircle
 62
7
  6
CONTINUOUS
 10
10.2828707845
 20
10.2416401605
 40
0.2351786839
100
AcDbArc
 50
111.2982818137
 51
111.8266030527
  0
ARC
  5
719
100
AcDbEntity
  8
0
100
AcDbCircle
 62
7
  6
CONTINUOUS
 10
10.2758451033
 20
10.1948381534
 40
0.2162013918
100
AcDbArc
 50
111.2605455771
 51
112.9489207128
  0
ARC
  5
71A
100
AcDbEntity
  8
0
100
AcDbCircle
 62
7
  6
CONTINUOUS
 10
10.2753940049
 20
10.2602905577
 40
0.2150854139
100
AcDbArc
 50
111.8248457928
 51
112.9443018084
  0
ARC
  5
71B
100
AcDbEntity
  8
0
100
AcDbCircle
 62
9
  6
CONTINUOUS
 10
9.6537227079
 20
9.8714018065
 40
0.1470135115
100
AcDbArc
 50
316.1482903765
 51
318.3393325354
  0
ARC
  5
71C
100
AcDbEntity
  8
0
100
AcDbCircle
 62
7
  6
CONTINUOUS
 10
10.2388657172
 20
10.2759345841
 40
0.1270472281
100
AcDbArc
 50
115.997825631
 51
118.4066332191
  0
ARC
  5
71D
100
AcDbEntity
  8
0
100
AcDbCircle
 62
7
  6
CONTINUOUS
 10
7.8876923427
 20
8.6724981479
 40
0.1
100
AcDbArc
 50
180.0
 51
270.0
  0
ARC
  5
71E
100
AcDbEntity
  8
0
100
AcDbCircle
 62
7
  6
CONTINUOUS
 10
9.6831650155
 20
9.9173352608
 40
0.0249999917
100
AcDbArc
 50
105.4293009973
 51
179.9999072803
  0
ARC
  5
71F
100
AcDbEntity
  8
0
100
AcDbCircle
 62
9
  6
CONTINUOUS
 10
8.2822792469
 20
10.6309423184
 40
3.3647756027
100
AcDbArc
 50
6.2244198563
 51
14.0926097454
  0
ARC
  5
720
100
AcDbEntity
  8
0
100
AcDbCircle
 62
9
  6
CONTINUOUS
 10
9.2918857495
 20
10.7274402342
 40
2.3507064413
100
AcDbArc
 50
4.4758021914
 51
5.2503561739
  0
ARC
  5
721
100
AcDbEntity
  8
0
100
AcDbCircle
 62
9
  6
CONTINUOUS
 10
9.3264703637
 20
10.7306167242
 40
2.3159762581
100
AcDbArc
 50
5.2503957495
 51
6.5739323688
  0
ARC
  5
722
100
AcDbEntity
  8
0
100
AcDbCircle
 62
9
  6
CONTINUOUS
 10
9.4690381677
 20
10.9263882052
 40
2.2914336334
100
AcDbArc
 50
349.573741753
 51
9.4578491624
  0
ARC
  5
723
100
AcDbEntity
  8
0
100
AcDbCircle
 62
9
  6
CONTINUOUS
 10
10.7906523425
 20
12.0940837333
 40
2.1359837409
100
AcDbArc
 50
263.4560861436
 51
264.1862744824
  0
ARC
  5
724
100
AcDbEntity
  8
0
100
AcDbCircle
 62
9
  6
CONTINUOUS
 10
10.804015726
 20
12.1134570603
 40
1.477928973
100
AcDbArc
 50
246.0190003404
 51
246.8239984276
  0
ARC
  5
725
100
AcDbEntity
  8
0
100
AcDbCircle
 62
7
  6
CONTINUOUS
 10
10.5329183315
 20
11.5547276595
 40
1.2725835183
100
AcDbArc
 50
259.4482892748
 51
259.9620442072
  0
ARC
  5
726
100
AcDbEntity
  8
0
100
AcDbCircle
 62
9
  6
CONTINUOUS
 10
10.6561125375
 20
11.088584464
 40
1.1213950731
100
AcDbArc
 50
259.9172166779
 51
260.998094042
  0
ARC
  5
727
100
AcDbEntity
  8
0
100
AcDbCircle
 62
7
  6
CONTINUOUS
 10
10.4773089271
 20
11.2669441794
 40
0.9794700088
100
AcDbArc
 50
257.9471480141
 51
258.5586551633
  0
ARC
  5
728
100
AcDbEntity
  8
0
100
AcDbCircle
 62
7
  6
CONTINUOUS
 10
10.4227224246
 20
11.020989571
 40
0.7275227566
100
AcDbArc
 50
256.129028294
 51
256.8743102243
  0
ARC
  5
729
100
AcDbEntity
  8
0
100
AcDbCircle
 62
7
  6
CONTINUOUS
 10
10.3705108622
 20
10.8181578642
 40
0.5180686244
100
AcDbArc
 50
253.8670305954
 51
254.8011789539
  0
ARC
  5
72A
100
AcDbEntity
  8
0
100
AcDbCircle
 62
7
  6
CONTINUOUS
 10
9.5647734785
 20
10.3462960619
 40
0.4199999923
100
AcDbArc
 50
285.4293040378
 51
315.1879892693
  0
ARC
  5
72B
100
AcDbEntity
  8
0
100
AcDbCircle
 62
9
  6
CONTINUOUS
 10
10.512041232
 20
10.3984488923
 40
0.4161173681
100
AcDbArc
 50
254.090848225
 51
255.2950178108
  0
ARC
  5
72C
100
AcDbEntity
  8
0
100
AcDbCircle
 62
7
  6
CONTINUOUS
 10
10.3220047689
 20
10.6579532955
 40
0.3506685472
100
AcDbArc
 50
250.9606458587
 51
252.1716778721
  0
ARC
  5
72D
100
AcDbEntity
  8
0
100
AcDbCircle
 62
7
  6
CONTINUOUS
 10
10.2784680785
 20
10.5381381857
 40
0.2231710804
100
AcDbArc
 50
247.0774452956
 51
248.7130884144
  0
ARC
  5
72E
100
AcDbEntity
  8
0
100
AcDbCircle
 62
7
  6
CONTINUOUS
 10
10.2428859485
 20
10.3324238101
 40
0.135948121
100
AcDbArc
 50
116.0534694162
 51
117.5726831442
  0
ARC
  5
72F
100
AcDbEntity
  8
0
100
AcDbCircle
 62
7
  6
CONTINUOUS
 10
10.2410551475
 20
10.4548434395
 40
0.1318356955
100
AcDbArc
 50
241.6371186044
 51
243.9584225453
  0
ARC
  5
730
100
AcDbEntity
  8
0
100
AcDbCircle
 62
7
  6
CONTINUOUS
 10
10.2359670562
 20
10.3457916439
 40
0.120895988
100
AcDbArc
 50
117.5985314875
 51
118.4215289868
  0
ARC
  5
731
100
AcDbEntity
  8
0
100
AcDbCircle
 62
7
  6
CONTINUOUS
 10
10.212193972
 20
10.3860648589
 40
0.074110444
100
AcDbArc
 50
122.9528024697
 51
125.228034496
  0
ARC
  5
732
100
AcDbEntity
  8
0
100
AcDbCircle
 62
7
  6
CONTINUOUS
 10
10.2068378893
 20
10.3937373257
 40
0.0647535511
100
AcDbArc
 50
125.2727541276
 51
126.5202398964
  0
ARC
  5
733
100
AcDbEntity
  8
0
100
AcDbCircle
 62
7
  6
CONTINUOUS
 10
10.1857667027
 20
10.4181525332
 40
0.0324458556
100
AcDbArc
 50
137.194997673
 51
139.1722530604
  0
ARC
  5
734
100
AcDbEntity
  8
0
100
AcDbCircle
 62
7
  6
CONTINUOUS
 10
10.1732482402
 20
10.4267401352
 40
0.0171992214
100
AcDbArc
 50
155.9585853874
 51
158.9847637756
  0
ARC
  5
735
100
AcDbEntity
  8
0
100
AcDbCircle
 62
7
  6
CONTINUOUS
 10
10.1698885103
 20
10.4276872993
 40
0.0136962313
100
AcDbArc
 50
174.706068241
 51
178.2282183355
  0
ARC
  5
736
100
AcDbEntity
  8
0
100
AcDbCircle
 62
7
  6
CONTINUOUS
 10
10.1698670489
 20
10.3632607921
 40
0.0136747063
100
AcDbArc
 50
180.0069629861
 51
185.2952103398
  0
ARC
  5
737
100
AcDbEntity
  8
0
100
AcDbCircle
 62
9
  6
CONTINUOUS
 10
10.9300831337
 20
14.0969188637
 40
4.1441034941
100
AcDbArc
 50
268.125981474
 51
268.2946757732
  0
ARC
  5
738
100
AcDbEntity
  8
0
100
AcDbCircle
 62
9
  6
CONTINUOUS
 10
10.9191965611
 20
13.7880726762
 40
3.8350665608
100
AcDbArc
 50
266.4946821153
 51
268.137647702
  0
ARC
  5
739
100
AcDbEntity
  8
0
100
AcDbCircle
 62
9
  6
CONTINUOUS
 10
10.8861171301
 20
13.2071220715
 40
3.2531812874
100
AcDbArc
 50
265.9860459256
 51
266.4506081681
  0
ARC
  5
73A
100
AcDbEntity
  8
0
100
AcDbCircle
 62
9
  6
CONTINUOUS
 10
10.8515087567
 20
12.7257557725
 40
2.7705733222
100
AcDbArc
 50
264.2574468564
 51
266.003171482
  0
ARC
  5
73B
100
AcDbEntity
  8
0
100
AcDbCircle
 62
9
  6
CONTINUOUS
 10
10.9283965966
 20
12.9033688787
 40
2.5142945493
100
AcDbArc
 50
252.0315110615
 51
253.90906002
  0
ARC
  5
73C
100
AcDbEntity
  8
0
100
AcDbCircle
 62
9
  6
CONTINUOUS
 10
11.3612045956
 20
0.0603593668
 40
9.8824805452
100
AcDbArc
 50
85.8824797564
 51
86.0351635359
  0
ARC
  5
73D
100
AcDbEntity
  8
0
100
AcDbCircle
 62
7
  6
CONTINUOUS
 10
10.9374851549
 20
4.5813479998
 40
5.8850430677
100
AcDbArc
 50
90.3828974382
 51
90.5684988671
  0
ARC
  5
73E
100
AcDbEntity
  8
0
100
AcDbCircle
 62
7
  6
CONTINUOUS
 10
10.9378995306
 20
4.6457795133
 40
5.8850430673
100
AcDbArc
 50
89.4315011329
 51
89.6171025618
  0
ARC
  5
73F
100
AcDbEntity
  8
0
100
AcDbCircle
 62
7
  6
CONTINUOUS
 10
10.9378995306
 20
4.5813480007
 40
5.8850430668
100
AcDbArc
 50
89.4315011329
 51
89.6171025618
  0
ARC
  5
740
100
AcDbEntity
  8
0
100
AcDbCircle
 62
7
  6
CONTINUOUS
 10
10.9374851548
 20
4.6457795142
 40
5.8850430664
100
AcDbArc
 50
90.3828974382
 51
90.5684988671
  0
ARC
  5
741
100
AcDbEntity
  8
0
100
AcDbCircle
 62
7
  6
CONTINUOUS
 10
10.9391282653
 20
4.6769229673
 40
5.7894600053
100
AcDbArc
 50
88.9511055538
 51
89.1386732289
  0
ARC
  5
742
100
AcDbEntity
  8
0
100
AcDbCircle
 62
7
  6
CONTINUOUS
 10
10.9362564201
 20
4.7413544815
 40
5.7894600042
100
AcDbArc
 50
90.861326771
 51
91.0488944462
  0
ARC
  5
743
100
AcDbEntity
  8
0
100
AcDbCircle
 62
7
  6
CONTINUOUS
 10
10.9392745145
 20
4.7501269547
 40
5.7806863238
100
AcDbArc
 50
88.9509632126
 51
89.1388155702
  0
ARC
  5
744
100
AcDbEntity
  8
0
100
AcDbCircle
 62
7
  6
CONTINUOUS
 10
10.936110171
 20
4.6856954432
 40
5.7806863222
100
AcDbArc
 50
90.8611844298
 51
91.0490367875
  0
ARC
  5
745
100
AcDbEntity
  8
0
100
AcDbCircle
 62
7
  6
CONTINUOUS
 10
10.9425784963
 20
4.8420655717
 40
5.6242809523
100
AcDbArc
 50
88.4623335741
 51
88.6535313792
  0
ARC
  5
746
100
AcDbEntity
  8
0
100
AcDbCircle
 62
7
  6
CONTINUOUS
 10
10.9429021572
 20
4.9193539634
 40
5.6114200183
100
AcDbArc
 50
88.4621144687
 51
88.6537504846
  0
ARC
  5
747
100
AcDbEntity
  8
0
100
AcDbCircle
 62
7
  6
CONTINUOUS
 10
10.9492162583
 20
5.0678107353
 40
5.39843763
100
AcDbArc
 50
87.9611275565
 51
88.1575955596
  0
ARC
  5
748
100
AcDbEntity
  8
0
100
AcDbCircle
 62
7
  6
CONTINUOUS
 10
10.9497784086
 20
5.1488329331
 40
5.3818374486
100
AcDbArc
 50
87.9608245552
 51
88.1578985609
  0
ARC
  5
749
100
AcDbEntity
  8
0
100
AcDbCircle
 62
7
  6
CONTINUOUS
 10
10.9599183291
 20
5.3480266917
 40
5.1180165951
100
AcDbArc
 50
87.4429514451
 51
87.6465043823
  0
ARC
  5
74A
100
AcDbEntity
  8
0
100
AcDbCircle
 62
7
  6
CONTINUOUS
 10
10.9607705853
 20
5.4323341246
 40
5.0981224434
100
AcDbArc
 50
87.4425542874
 51
87.64690154
  0
ARC
  5
74B
100
AcDbEntity
  8
0
100
AcDbCircle
 62
7
  6
CONTINUOUS
 10
10.975399855
 20
5.6751773883
 40
4.7904987988
100
AcDbArc
 50
86.9026880596
 51
87.1153862091
  0
ARC
  5
74C
100
AcDbEntity
  8
0
100
AcDbCircle
 62
7
  6
CONTINUOUS
 10
10.9765822629
 20
5.762238882
 40
4.7678379882
100
AcDbArc
 50
86.902182598
 51
87.1158916708
  0
ARC
  5
74D
100
AcDbEntity
  8
0
100
AcDbCircle
 62
7
  6
CONTINUOUS
 10
10.9959380613
 20
6.1007773575
 40
4.428745623
100
AcDbArc
 50
86.4091342677
 51
86.558764628
  0
ARC
  5
74E
100
AcDbEntity
  8
0
100
AcDbCircle
 62
7
  6
CONTINUOUS
 10
10.9961846983
 20
6.0405800347
 40
4.4245042632
100
AcDbArc
 50
86.3344227578
 51
86.5586614966
  0
ARC
  5
74F
100
AcDbEntity
  8
0
100
AcDbCircle
 62
7
  6
CONTINUOUS
 10
11.0222754835
 20
6.4946447347
 40
4.0339970142
100
AcDbArc
 50
85.8106623078
 51
85.9699180705
  0
ARC
  5
750
100
AcDbEntity
  8
0
100
AcDbCircle
 62
7
  6
CONTINUOUS
 10
11.022582647
 20
6.4347012102
 40
4.0294985357
100
AcDbArc
 50
85.7311632284
 51
85.9697899162
  0
ARC
  5
751
100
AcDbEntity
  8
0
100
AcDbCircle
 62
7
  6
CONTINUOUS
 10
11.0543069686
 20
6.9072816153
 40
3.6201167925
100
AcDbArc
 50
85.1699027785
 51
85.341095583
  0
ARC
  5
752
100
AcDbEntity
  8
0
100
AcDbCircle
 62
7
  6
CONTINUOUS
 10
11.0546743117
 20
6.8474811355
 40
3.6154712237
100
AcDbArc
 50
85.0844659634
 51
85.3409367905
  0
ARC
  5
753
100
AcDbEntity
  8
0
100
AcDbCircle
 62
7
  6
CONTINUOUS
 10
11.0918796395
 20
7.3284429762
 40
3.1972804413
100
AcDbArc
 50
84.4767243228
 51
84.6627182766
  0
ARC
  5
754
100
AcDbEntity
  8
0
100
AcDbCircle
 62
7
  6
CONTINUOUS
 10
11.0923042617
 20
7.268674643
 40
3.1925979816
100
AcDbArc
 50
84.3839254054
 51
84.6625212127
  0
ARC
  5
755
100
AcDbEntity
  8
0
100
AcDbCircle
 62
7
  6
CONTINUOUS
 10
11.1350826575
 20
7.6881968383
 40
2.7708978574
100
AcDbArc
 50
83.6164581681
 51
83.9225886372
  0
ARC
  5
756
100
AcDbEntity
  8
0
100
AcDbCircle
 62
7
  6
CONTINUOUS
 10
11.1404939998
 20
7.8018229163
 40
2.7214066535
100
AcDbArc
 50
83.6145247839
 51
83.8216443846
  0
ARC
  5
757
100
AcDbEntity
  8
0
100
AcDbCircle
 62
7
  6
CONTINUOUS
 10
11.1823953389
 20
8.0964612821
 40
2.3598980744
100
AcDbArc
 50
82.7652756295
 51
83.1059185517
  0
ARC
  5
758
100
AcDbEntity
  8
0
100
AcDbCircle
 62
7
  6
CONTINUOUS
 10
11.1856009784
 20
8.1867602244
 40
2.3338328878
100
AcDbArc
 50
82.763373405
 51
83.1078207761
  0
ARC
  5
759
100
AcDbEntity
  8
0
100
AcDbCircle
 62
7
  6
CONTINUOUS
 10
12.519610842
 20
8.0805916422
 40
0.42
100
AcDbArc
 50
137.3672424042
 51
183.0153535913
  0
ARC
  5
75A
100
AcDbEntity
  8
0
100
AcDbCircle
 62
7
  6
CONTINUOUS
 10
12.2001923427
 20
7.5224981479
 40
0.1
100
AcDbArc
 50
180.0
 51
264.9064179176
  0
ARC
  5
75B
100
AcDbEntity
  8
0
100
AcDbCircle
 62
7
  6
CONTINUOUS
 10
12.0751923427
 20
8.0334981479
 40
0.025
100
AcDbArc
 50
90.0
 51
180.0
  0
ARC
  5
75C
100
AcDbEntity
  8
0
100
AcDbCircle
 62
7
  6
CONTINUOUS
 10
12.1922199018
 20
8.3819886765
 40
0.025
100
AcDbArc
 50
317.3672424042
 51
360.0
  0
ARC
  5
75D
100
AcDbEntity
  8
0
100
AcDbCircle
 62
9
  6
CONTINUOUS
 10
14.8865242762
 20
6.7434560863
 40
2.5274101484
100
AcDbArc
 50
78.5397081037
 51
79.3253337682
  0
ARC
  5
75E
100
AcDbEntity
  8
0
100
AcDbCircle
 62
9
  6
CONTINUOUS
 10
14.8873451141
 20
7.276755368
 40
1.9408394747
100
AcDbArc
 50
76.6948447728
 51
78.9005124854
  0
ARC
  5
75F
100
AcDbEntity
  8
0
100
AcDbCircle
 62
7
  6
CONTINUOUS
 10
13.9126923427
 20
7.6224981479
 40
0.1
100
AcDbArc
 50
270.0
 51
360.0
  0
ARC
  5
760
100
AcDbEntity
  8
0
100
AcDbCircle
 62
7
  6
CONTINUOUS
 10
15.9626923427
 20
7.6224981479
 40
0.1
100
AcDbArc
 50
180.0
 51
270.0
  0
ARC
  5
761
100
AcDbEntity
  8
0
100
AcDbCircle
 62
7
  6
CONTINUOUS
 10
13.7626923427
 20
7.5224981479
 40
0.1
100
AcDbArc
 50
274.1983587504
 51
360.0
  0
ARC
  5
762
100
AcDbEntity
  8
0
100
AcDbCircle
 62
7
  6
CONTINUOUS
 10
16.1126923427
 20
7.5224981479
 40
0.1
100
AcDbArc
 50
180.0
 51
265.8016412496
  0
ARC
  5
763
100
AcDbEntity
  8
0
100
AcDbCircle
 62
9
  6
CONTINUOUS
 10
10.9380026486
 20
9.032355801
 40
2.4932462702
100
AcDbArc
 50
90.0071309504
 51
104.1239856827
  0
ARC
  5
764
100
AcDbEntity
  8
0
100
AcDbCircle
 62
9
  6
CONTINUOUS
 10
10.9373820369
 20
9.032355801
 40
2.4932462702
100
AcDbArc
 50
75.8760143172
 51
89.9928690496
  0
ARC
  5
765
100
AcDbEntity
  8
0
100
AcDbCircle
 62
7
  6
CONTINUOUS
 10
11.2334220246
 20
8.4846987674
 40
1.9683180834
100
AcDbArc
 50
81.8083716652
 51
82.1927236621
  0
ARC
  5
766
100
AcDbEntity
  8
0
100
AcDbCircle
 62
7
  6
CONTINUOUS
 10
11.2368356841
 20
8.5734214145
 40
1.943788399
100
AcDbArc
 50
81.8059464863
 51
82.195148841
  0
ARC
  5
767
100
AcDbEntity
  8
0
100
AcDbCircle
 62
9
  6
CONTINUOUS
 10
11.6212482918
 20
9.44173274
 40
1.8451269404
100
AcDbArc
 50
168.5841845549
 51
170.1939832089
  0
ARC
  5
768
100
AcDbEntity
  8
0
100
AcDbCircle
 62
7
  6
CONTINUOUS
 10
11.2871619942
 20
8.8452455094
 40
1.6037839978
100
AcDbArc
 50
80.7162356415
 51
81.156703117
  0
ARC
  5
769
100
AcDbEntity
  8
0
100
AcDbCircle
 62
7
  6
CONTINUOUS
 10
11.2907132978
 20
8.9319392793
 40
1.5812404351
100
AcDbArc
 50
80.7130957787
 51
81.1598429798
  0
ARC
  5
76A
100
AcDbEntity
  8
0
100
AcDbCircle
 62
7
  6
CONTINUOUS
 10
11.342466354
 20
9.1717906012
 40
1.2725835181
100
AcDbArc
 50
79.4482892747
 51
79.9620442072
  0
ARC
  5
76B
100
AcDbEntity
  8
0
100
AcDbCircle
 62
7
  6
CONTINUOUS
 10
11.3460765697
 20
9.256098036
 40
1.2523825878
100
AcDbArc
 50
79.4441458129
 51
79.966187669
  0
ARC
  5
76C
100
AcDbEntity
  8
0
100
AcDbCircle
 62
7
  6
CONTINUOUS
 10
11.3980757584
 20
9.4595740813
 40
0.9794700086
100
AcDbArc
 50
77.947148014
 51
78.5586551633
  0
ARC
  5
76D
100
AcDbEntity
  8
0
100
AcDbCircle
 62
7
  6
CONTINUOUS
 10
11.4016604014
 20
9.5412438085
 40
0.9618632854
100
AcDbArc
 50
77.9415511988
 51
78.5642519786
  0
ARC
  5
76E
100
AcDbEntity
  8
0
100
AcDbCircle
 62
7
  6
CONTINUOUS
 10
11.4526622609
 20
9.7055286895
 40
0.7275227567
100
AcDbArc
 50
76.1290282941
 51
76.8743102242
  0
ARC
  5
76F
100
AcDbEntity
  8
0
100
AcDbCircle
 62
7
  6
CONTINUOUS
 10
11.456133915
 20
9.784422539
 40
0.7126498952
100
AcDbArc
 50
76.1212512382
 51
76.8820872801
  0
ARC
  5
770
100
AcDbEntity
  8
0
100
AcDbCircle
 62
7
  6
CONTINUOUS
 10
11.5048738233
 20
9.9083603963
 40
0.5180686244
100
AcDbArc
 50
73.8670305955
 51
74.8011789539
  0
ARC
  5
771
100
AcDbEntity
  8
0
100
AcDbCircle
 62
7
  6
CONTINUOUS
 10
11.5081450818
 20
9.9844564306
 40
0.5059544921
100
AcDbArc
 50
73.8558471227
 51
74.8123624267
  0
ARC
  5
772
100
AcDbEntity
  8
0
100
AcDbCircle
 62
7
  6
CONTINUOUS
 10
11.0604410777
 20
10.1798811029
 40
0.502251265
100
AcDbArc
 50
343.2464998257
 51
359.9995469659
  0
ARC
  5
773
100
AcDbEntity
  8
0
100
AcDbCircle
 62
7
  6
CONTINUOUS
 10
12.3106111676
 20
10.3462962376
 40
0.4200000088
100
AcDbArc
 50
224.8120617569
 51
254.5707188266
  0
ARC
  5
774
100
AcDbEntity
  8
0
100
AcDbCircle
 62
9
  6
CONTINUOUS
 10
11.3690893377
 20
10.3775686722
 40
0.3944618524
100
AcDbArc
 50
284.8119026455
 51
286.0925371064
  0
ARC
  5
775
100
AcDbEntity
  8
0
100
AcDbCircle
 62
7
  6
CONTINUOUS
 10
12.4233591604
 20
9.9166813054
 40
0.3751221702
100
AcDbArc
 50
196.7584339112
 51
197.1457792394
  0
ARC
  5
776
100
AcDbEntity
  8
0
100
AcDbCircle
 62
7
  6
CONTINUOUS
 10
11.5528962893
 20
10.1314390991
 40
0.3522992085
100
AcDbArc
 50
71.3634163341
 51
72.1743473126
  0
ARC
  5
777
100
AcDbEntity
  8
0
100
AcDbCircle
 62
7
  6
CONTINUOUS
 10
11.5533799166
 20
10.0685649651
 40
0.3506685472
100
AcDbArc
 50
70.9606458587
 51
72.171677872
  0
ARC
  5
778
100
AcDbEntity
  8
0
100
AcDbCircle
 62
7
  6
CONTINUOUS
 10
11.5613217687
 20
10.1564355769
 40
0.3259209489
100
AcDbArc
 50
70.9362358784
 51
71.3626606281
  0
ARC
  5
779
100
AcDbEntity
  8
0
100
AcDbCircle
 62
7
  6
CONTINUOUS
 10
11.592513901
 20
10.1772086475
 40
0.2351786839
100
AcDbArc
 50
68.1733969474
 51
68.7017181864
  0
ARC
  5
77A
100
AcDbEntity
  8
0
100
AcDbCircle
 62
7
  6
CONTINUOUS
 10
11.5934052286
 20
10.2438957157
 40
0.2327534278
100
AcDbArc
 50
68.1706444132
 51
68.7044707206
  0
ARC
  5
77B
100
AcDbEntity
  8
0
100
AcDbCircle
 62
7
  6
CONTINUOUS
 10
11.5999906806
 20
10.1958590447
 40
0.2150854139
100
AcDbArc
 50
67.0556981916
 51
68.1751542073
  0
ARC
  5
77C
100
AcDbEntity
  8
0
100
AcDbCircle
 62
7
  6
CONTINUOUS
 10
11.6017218133
 20
10.2644938122
 40
0.2105398497
100
AcDbArc
 50
67.0436132433
 51
68.1872391555
  0
ARC
  5
77D
100
AcDbEntity
  8
0
100
AcDbCircle
 62
9
  6
CONTINUOUS
 10
12.2215669662
 20
9.8713114322
 40
0.1468819492
100
AcDbArc
 50
221.6688790965
 51
223.84394919
  0
ARC
  5
77E
100
AcDbEntity
  8
0
100
AcDbCircle
 62
7
  6
CONTINUOUS
 10
11.6313901764
 20
10.3301693742
 40
0.138460362
100
AcDbArc
 50
63.189222481
 51
63.9441538678
  0
ARC
  5
77F
100
AcDbEntity
  8
0
100
AcDbCircle
 62
7
  6
CONTINUOUS
 10
11.6324987369
 20
10.267992297
 40
0.135948121
100
AcDbArc
 50
62.4273168558
 51
63.9465305837
  0
ARC
  5
780
100
AcDbEntity
  8
0
100
AcDbCircle
 62
7
  6
CONTINUOUS
 10
11.6339784817
 20
10.4555982274
 40
0.1326679769
100
AcDbArc
 50
296.034687405
 51
297.5914651555
  0
ARC
  5
781
100
AcDbEntity
  8
0
100
AcDbCircle
 62
7
  6
CONTINUOUS
 10
11.6383370307
 20
10.3437837082
 40
0.1231762229
100
AcDbArc
 50
61.5809515117
 51
63.2168485014
  0
ARC
  5
782
100
AcDbEntity
  8
0
100
AcDbCircle
 62
7
  6
CONTINUOUS
 10
11.6394176292
 20
10.2813601307
 40
0.1208959881
100
AcDbArc
 50
61.5784710134
 51
62.4014685122
  0
ARC
  5
783
100
AcDbEntity
  8
0
100
AcDbCircle
 62
7
  6
CONTINUOUS
 10
11.6401272385
 20
10.4438241122
 40
0.1193850185
100
AcDbArc
 50
297.5933233554
 51
298.4267371191
  0
ARC
  5
784
100
AcDbEntity
  8
0
100
AcDbCircle
 62
7
  6
CONTINUOUS
 10
11.662325958
 20
10.3847408406
 40
0.0756918351
100
AcDbArc
 50
55.9135530488
 51
57.043083
  0
ARC
  5
785
100
AcDbEntity
  8
0
100
AcDbCircle
 62
7
  6
CONTINUOUS
 10
11.662325958
 20
10.406208933
 40
0.075691835
100
AcDbArc
 50
302.9569169997
 51
304.0864469514
  0
ARC
  5
786
100
AcDbEntity
  8
0
100
AcDbCircle
 62
7
  6
CONTINUOUS
 10
11.6631907135
 20
10.3216333459
 40
0.074110444
100
AcDbArc
 50
54.771965504
 51
57.0471975303
  0
ARC
  5
787
100
AcDbEntity
  8
0
100
AcDbCircle
 62
7
  6
CONTINUOUS
 10
11.6677150742
 20
10.3926057978
 40
0.0661578632
100
AcDbArc
 50
53.4840636932
 51
55.9615033369
  0
ARC
  5
788
100
AcDbEntity
  8
0
100
AcDbCircle
 62
7
  6
CONTINUOUS
 10
11.6685467962
 20
10.3293058127
 40
0.064753551
100
AcDbArc
 50
53.4797601032
 51
54.7272458727
  0
ARC
  5
789
100
AcDbEntity
  8
0
100
AcDbCircle
 62
7
  6
CONTINUOUS
 10
11.6853733953
 20
10.4140849577
 40
0.0383254175
100
AcDbArc
 50
44.6798813901
 51
46.4582892242
  0
ARC
  5
78A
100
AcDbEntity
  8
0
100
AcDbCircle
 62
7
  6
CONTINUOUS
 10
11.6853733953
 20
10.3768648159
 40
0.0383254175
100
AcDbArc
 50
313.5417107758
 51
315.3201186099
  0
ARC
  5
78B
100
AcDbEntity
  8
0
100
AcDbCircle
 62
7
  6
CONTINUOUS
 10
11.6896179828
 20
10.3537210201
 40
0.0324458556
100
AcDbArc
 50
40.8277469397
 51
42.8050023269
  0
ARC
  5
78C
100
AcDbEntity
  8
0
100
AcDbCircle
 62
7
  6
CONTINUOUS
 10
12.1922197902
 20
9.9173346075
 40
0.0250000009
100
AcDbArc
 50
0.0
 51
74.5707472151
  0
ARC
  5
78D
100
AcDbEntity
  8
0
100
AcDbCircle
 62
7
  6
CONTINUOUS
 10
11.6997901733
 20
10.4256152652
 40
0.0198020268
100
AcDbArc
 50
26.9364818517
 51
29.6913753449
  0
ARC
  5
78E
100
AcDbEntity
  8
0
100
AcDbCircle
 62
7
  6
CONTINUOUS
 10
11.6997901733
 20
10.3653345085
 40
0.0198020268
100
AcDbArc
 50
330.3086246554
 51
333.0635181482
  0
ARC
  5
78F
100
AcDbEntity
  8
0
100
AcDbCircle
 62
7
  6
CONTINUOUS
 10
11.7021364453
 20
10.3623086222
 40
0.0171992214
100
AcDbArc
 50
21.0152362245
 51
24.0414146125
  0
ARC
  5
790
100
AcDbEntity
  8
0
100
AcDbCircle
 62
7
  6
CONTINUOUS
 10
11.7054961752
 20
10.3632557863
 40
0.0136962313
100
AcDbArc
 50
1.7717816651
 51
5.2939317592
  0
ARC
  5
791
100
AcDbEntity
  8
0
100
AcDbCircle
 62
7
  6
CONTINUOUS
 10
11.7055750444
 20
10.3632591918
 40
0.0136172984
100
AcDbArc
 50
354.7060682411
 51
359.9997412781
  0
ARC
  5
792
100
AcDbEntity
  8
0
100
AcDbCircle
 62
7
  6
CONTINUOUS
 10
13.9876923427
 20
8.6724981479
 40
0.1
100
AcDbArc
 50
270.0
 51
360.0
  0
ARC
  5
793
100
AcDbEntity
  8
0
100
AcDbCircle
 62
7
  6
CONTINUOUS
 10
12.4985125612
 20
9.9389758659
 40
0.4535128867
100
AcDbArc
 50
194.9136668821
 51
196.5579166036
  0
ARC
  5
794
100
AcDbEntity
  8
0
100
AcDbCircle
 62
9
  6
CONTINUOUS
 10
13.5931054369
 20
10.6309423209
 40
3.3647756008
100
AcDbArc
 50
165.9073902858
 51
173.7755858172
  0
ARC
  5
795
100
AcDbEntity
  8
0
100
AcDbCircle
 62
9
  6
CONTINUOUS
 10
13.5920543631
 20
10.6315133923
 40
3.3636754684
100
AcDbArc
 50
177.3448655905
 51
180.3061722563
  0
ARC
  5
796
100
AcDbEntity
  8
0
100
AcDbCircle
 62
9
  6
CONTINUOUS
 10
13.590011834
 20
10.6316027244
 40
3.3616309938
100
AcDbArc
 50
175.5913736468
 51
177.3447738518
  0
ARC
  5
797
100
AcDbEntity
  8
0
100
AcDbCircle
 62
9
  6
CONTINUOUS
 10
13.5878874617
 20
10.6314939075
 40
3.3595085224
100
AcDbArc
 50
180.3062197032
 51
182.7066099995
  0
ARC
  5
798
100
AcDbEntity
  8
0
100
AcDbCircle
 62
9
  6
CONTINUOUS
 10
13.5866539283
 20
10.6318533156
 40
3.3582637608
100
AcDbArc
 50
174.6969269662
 51
175.5912325575
  0
ARC
  5
799
100
AcDbEntity
  8
0
100
AcDbCircle
 62
9
  6
CONTINUOUS
 10
13.5834934905
 20
10.6321470342
 40
3.3550897038
100
AcDbArc
 50
173.7782406956
 51
174.6969331334
  0
ARC
  5
79A
100
AcDbEntity
  8
0
100
AcDbCircle
 62
9
  6
CONTINUOUS
 10
11.0373985602
 20
12.5676466014
 40
2.6119050712
100
AcDbArc
 50
273.9816704288
 51
275.8188449683
  0
ARC
  5
79B
100
AcDbEntity
  8
0
100
AcDbCircle
 62
9
  6
CONTINUOUS
 10
12.5947983917
 20
10.726455265
 40
2.3620417538
100
AcDbArc
 50
174.7591326573
 51
175.4905111831
  0
ARC
  5
79C
100
AcDbEntity
  8
0
100
AcDbCircle
 62
9
  6
CONTINUOUS
 10
12.5639405147
 20
10.7293666648
 40
2.3310469438
100
AcDbArc
 50
173.4378120508
 51
174.761113292
  0
ARC
  5
79D
100
AcDbEntity
  8
0
100
AcDbCircle
 62
9
  6
CONTINUOUS
 10
12.4063467561
 20
10.9263881927
 40
2.2914338688
100
AcDbArc
 50
170.5421514949
 51
190.42563707
  0
ARC
  5
79E
100
AcDbEntity
  8
0
100
AcDbCircle
 62
9
  6
CONTINUOUS
 10
11.0917633157
 20
12.0293123734
 40
2.0708330239
100
AcDbArc
 50
275.8325013205
 51
276.6053621987
  0
ARC
  5
79F
100
AcDbEntity
  8
0
100
AcDbCircle
 62
9
  6
CONTINUOUS
 10
11.0738648367
 20
12.1077397209
 40
1.471692185
100
AcDbArc
 50
293.1644805506
 51
293.9823177467
  0
ARC
  5
7A0
100
AcDbEntity
  8
0
100
AcDbCircle
 62
7
  6
CONTINUOUS
 10
11.3460765697
 20
11.5348517375
 40
1.2523825877
100
AcDbArc
 50
280.0338123309
 51
280.5558541871
  0
ARC
  5
7A1
100
AcDbEntity
  8
0
100
AcDbCircle
 62
9
  6
CONTINUOUS
 10
11.2281214924
 20
11.036116589
 40
1.0681881872
100
AcDbArc
 50
279.0346697406
 51
280.195728799
  0
ARC
  5
7A2
100
AcDbEntity
  8
0
100
AcDbCircle
 62
7
  6
CONTINUOUS
 10
11.4016604014
 20
11.2497059651
 40
0.9618632853
100
AcDbArc
 50
281.4357480214
 51
282.0584488012
  0
ARC
  5
7A3
100
AcDbEntity
  8
0
100
AcDbCircle
 62
7
  6
CONTINUOUS
 10
11.4561339151
 20
11.0065272346
 40
0.7126498952
100
AcDbArc
 50
283.1179127198
 51
283.8787487618
  0
ARC
  5
7A4
100
AcDbEntity
  8
0
100
AcDbCircle
 62
7
  6
CONTINUOUS
 10
11.5081450818
 20
10.806493343
 40
0.5059544921
100
AcDbArc
 50
285.1876375733
 51
286.1441528773
  0
ARC
  5
7A5
100
AcDbEntity
  8
0
100
AcDbCircle
 62
7
  6
CONTINUOUS
 10
11.5563663379
 20
10.6489934526
 40
0.3412246465
100
AcDbArc
 50
287.8115629199
 51
289.0561133494
  0
ARC
  5
7A6
100
AcDbEntity
  8
0
100
AcDbCircle
 62
7
  6
CONTINUOUS
 10
11.5995395822
 20
10.5316801072
 40
0.2162013918
100
AcDbArc
 50
291.2605455772
 51
292.9489207128
  0
ARC
  5
7A7
100
AcDbEntity
  8
0
100
AcDbCircle
 62
7
  6
CONTINUOUS
 10
15.8876923427
 20
8.6724981479
 40
0.1
100
AcDbArc
 50
180.0
 51
270.0
  0
ARC
  5
7A8
100
AcDbEntity
  8
0
100
AcDbCircle
 62
7
  6
CONTINUOUS
 10
15.3251923427
 20
9.7154981479
 40
0.075
100
AcDbArc
 50
180.0
 51
270.0
  0
ARC
  5
7A9
100
AcDbEntity
  8
0
100
AcDbCircle
 62
7
  6
CONTINUOUS
 10
14.5501923427
 20
9.7154981479
 40
0.075
100
AcDbArc
 50
270.0
 51
360.0
  0
ARC
  5
7AA
100
AcDbEntity
  8
0
100
AcDbCircle
 62
7
  6
CONTINUOUS
 10
15.3931342743
 20
9.1638686176
 40
0.0558607875
100
AcDbArc
 50
123.767063206
 51
129.2967071572
  0
ARC
  5
7AB
100
AcDbEntity
  8
0
100
AcDbCircle
 62
7
  6
CONTINUOUS
 10
15.3933685824
 20
9.1641615612
 40
0.0558082369
100
AcDbArc
 50
140.3848809532
 51
156.8139471766
  0
ARC
  5
7AC
100
AcDbEntity
  8
0
100
AcDbCircle
 62
7
  6
CONTINUOUS
 10
15.3927549676
 20
9.1641850958
 40
0.0554389712
100
AcDbArc
 50
94.0039430095
 51
107.5828850578
  0
ARC
  5
7AD
100
AcDbEntity
  8
0
100
AcDbCircle
 62
7
  6
CONTINUOUS
 10
15.3930928267
 20
9.1645616811
 40
0.0554083847
100
AcDbArc
 50
164.8736582336
 51
179.0315875419
  0
ARC
  5
7AE
100
AcDbEntity
  8
0
100
AcDbCircle
 62
7
  6
CONTINUOUS
 10
15.3927185239
 20
9.6383159117
 40
0.0550276506
100
AcDbArc
 50
180.0285924155
 51
271.679034287
  0
ARC
  5
7AF
100
AcDbEntity
  8
0
100
AcDbCircle
 62
7
  6
CONTINUOUS
 10
15.3926928858
 20
9.16523369
 40
0.0543886026
100
AcDbArc
 50
89.8022850537
 51
94.015834242
  0
ARC
  5
7B0
100
AcDbEntity
  8
0
100
AcDbCircle
 62
7
  6
CONTINUOUS
 10
15.3916408775
 20
9.1649822954
 40
0.0538969897
100
AcDbArc
 50
156.8928429847
 51
164.9025282643
  0
ARC
  5
7B1
100
AcDbEntity
  8
0
100
AcDbCircle
 62
7
  6
CONTINUOUS
 10
15.391589678
 20
9.1657321878
 40
0.0534403672
100
AcDbArc
 50
129.2805605317
 51
140.4252207016
  0
ARC
  5
7B2
100
AcDbEntity
  8
0
100
AcDbCircle
 62
7
  6
CONTINUOUS
 10
17.7476918775
 20
9.2479155212
 40
0.0400000223
100
AcDbArc
 50
269.9796623054
 51
360.0
  0
ARC
  5
7B3
100
AcDbEntity
  8
0
100
AcDbCircle
 62
7
  6
CONTINUOUS
 10
17.7476918899
 20
9.6167608558
 40
0.040000021
100
AcDbArc
 50
0.0
 51
91.5242482179
  0
ARC
  5
7B4
100
AcDbEntity
  8
0
100
AcDbCircle
 62
9
  6
CONTINUOUS
 10
17.7481719501
 20
9.599469974
 40
0.0395204044
100
AcDbArc
 50
0.0441825454
 51
18.342406891
  0
ARC
  5
7B5
100
AcDbEntity
  8
0
100
AcDbCircle
 62
9
  6
CONTINUOUS
 10
17.7481782906
 20
9.2652009844
 40
0.039514488
100
AcDbArc
 50
341.9273496906
 51
359.9580069559
  0
ARC
  5
7B6
100
AcDbEntity
  8
0
100
AcDbCircle
 62
7
  6
CONTINUOUS
 10
14.6551923427
 20
9.7354981479
 40
0.02
100
AcDbArc
 50
270.0
 51
360.0
  0
ARC
  5
7B7
100
AcDbEntity
  8
0
100
AcDbCircle
 62
7
  6
CONTINUOUS
 10
15.2201923427
 20
9.7354981479
 40
0.02
100
AcDbArc
 50
180.0
 51
270.0
  0
ARC
  5
7B8
100
AcDbEntity
  8
0
100
AcDbCircle
 62
7
  6
CONTINUOUS
 10
14.6051923427
 20
9.1454981479
 40
0.02
100
AcDbArc
 50
0.0
 51
90.0
  0
ARC
  5
7B9
100
AcDbEntity
  8
0
100
AcDbCircle
 62
7
  6
CONTINUOUS
 10
15.2701923427
 20
9.1454981479
 40
0.02
100
AcDbArc
 50
90.0
 51
180.0
  0
ARC
  5
7BA
100
AcDbEntity
  8
0
100
AcDbCircle
 62
9
  6
CONTINUOUS
 10
14.8194126971
 20
11.571562598
 40
2.0015474469
100
AcDbArc
 50
282.7451038134
 51
284.711544343
  0
ARC
  5
7BB
100
AcDbEntity
  8
0
100
AcDbCircle
 62
9
  6
CONTINUOUS
 10
14.949264658
 20
11.0801536826
 40
1.4932739641
100
AcDbArc
 50
284.6808379288
 51
284.8824393532
  0
ARC
  5
7BC
100
AcDbEntity
  8
0
100
AcDbCircle
 62
9
  6
CONTINUOUS
 10
10.9375520803
 20
14.3942111963
 40
4.4414866398
100
AcDbArc
 50
268.3124975952
 51
270.0018094041
  0
ARC
  5
7BD
100
AcDbEntity
  8
0
100
AcDbCircle
 62
9
  6
CONTINUOUS
 10
10.938588461
 20
14.3426940742
 40
4.389969607
100
AcDbArc
 50
269.9883042941
 51
271.7016463524
  0
ARC
  5
7BE
100
AcDbEntity
  8
0
100
AcDbCircle
 62
9
  6
CONTINUOUS
 10
10.9457533231
 20
14.0825395622
 40
4.1297170993
100
AcDbArc
 50
271.7094654293
 51
271.897417743
  0
ARC
  5
7BF
100
AcDbEntity
  8
0
100
AcDbCircle
 62
9
  6
CONTINUOUS
 10
10.9626359293
 20
13.6512326984
 40
3.6980886406
100
AcDbArc
 50
271.8572478005
 51
273.5473914783
  0
ARC
  5
7C0
100
AcDbEntity
  8
0
100
AcDbCircle
 62
9
  6
CONTINUOUS
 10
10.9925317903
 20
13.1578196845
 40
3.2037713197
100
AcDbArc
 50
273.5597476697
 51
274.0492432966
  0
ARC
  5
7C1
100
AcDbEntity
  8
0
100
AcDbCircle
 62
9
  6
CONTINUOUS
 10
10.9478299221
 20
12.9006204481
 40
2.5114204697
100
AcDbArc
 50
286.0897329129
 51
287.9695634846
  0
ARC
  5
7C2
100
AcDbEntity
  8
0
100
AcDbCircle
 62
7
  6
CONTINUOUS
 10
42.6925099455
 20
16.884000519
 40
31.6186575531
100
AcDbArc
 50
191.6267874413
 51
194.2083550228
  0
SPLINE
  5
7C3
100
AcDbEntity
  8
0
100
AcDbSpline
 62
7
  6
CONTINUOUS
 70
0
 71
3
 72
9
 73
5
 74
0
 42
0.0000001
 43
0.0000001
 44
0.0000000001
 40
0.0
 40
0.0
 40
0.0
 40
0.0
 40
0.4939826835
 40
1.0
 40
1.0
 40
1.0
 40
1.0
 10
6.4993770077
 20
9.2170340107
 30
0.0
 10
6.5018094601
 20
9.2162608839
 30
0.0
 10
6.5066263223
 20
9.2143382696
 30
0.0
 10
6.5111254695
 20
9.2117593059
 30
0.0
 10
6.5132988328
 20
9.2103059204
 30
0.0
  0
SPLINE
  5
7C4
100
AcDbEntity
  8
0
100
AcDbSpline
 62
9
  6
CONTINUOUS
 70
0
 71
3
 72
18
 73
14
 74
0
 42
0.0000001
 43
0.0000001
 44
0.0000000001
 40
0.0
 40
0.0
 40
0.0
 40
0.0
 40
0.171519066
 40
0.3455623916
 40
0.5136087714
 40
0.6663734744
 40
0.7952580112
 40
0.8490947819
 40
0.895156049
 40
0.9330532729
 40
0.9629500998
 40
0.9851550245
 40
1.0
 40
1.0
 40
1.0
 40
1.0
 10
4.1290944245
 20
9.2651703885
 30
0.0
 10
4.129093361
 20
9.262901402
 30
0.0
 10
4.1290774631
 20
9.2583300318
 30
0.0
 10
4.1290122618
 20
9.2515358834
 30
0.0
 10
4.1289018656
 20
9.2449904281
 30
0.0
 10
4.1287522058
 20
9.239043318
 30
0.0
 10
4.1285902548
 20
9.23460803
 30
0.0
 10
4.12844103
 20
9.2315851694
 30
0.0
 10
4.1283320157
 20
9.2297654987
 30
0.0
 10
4.1282198389
 20
9.2282635126
 30
0.0
 10
4.1281073517
 20
9.2270779716
 30
0.0
 10
4.1279953951
 20
9.2261996303
 30
0.0
 10
4.1279095523
 20
9.2257160969
 30
0.0
 10
4.1278598409
 20
9.2255261122
 30
0.0
  0
SPLINE
  5
7C5
100
AcDbEntity
  8
0
100
AcDbSpline
 62
9
  6
CONTINUOUS
 70
0
 71
3
 72
12
 73
8
 74
0
 42
0.0000001
 43
0.0000001
 44
0.0000000001
 40
0.0
 40
0.0
 40
0.0
 40
0.0
 40
0.227708252
 40
0.470872068
 40
0.5981101103
 40
0.7290826174
 40
1.0
 40
1.0
 40
1.0
 40
1.0
 10
6.6144026694
 20
9.6193322508
 30
0.0
 10
6.6100391545
 20
9.6156558103
 30
0.0
 10
6.6007806849
 20
9.6083281294
 30
0.0
 10
6.5884625106
 20
9.5997733019
 30
0.0
 10
6.5778036418
 20
9.5931168003
 30
0.0
 10
6.5662766729
 20
9.5865647445
 30
0.0
 10
6.5571492487
 20
9.5822281217
 30
0.0
 10
6.5508132904
 20
9.5797909111
 30
0.0
  0
SPLINE
  5
7C6
100
AcDbEntity
  8
0
100
AcDbSpline
 62
9
  6
CONTINUOUS
 70
0
 71
3
 72
9
 73
5
 74
0
 42
0.0000001
 43
0.0000001
 44
0.0000000001
 40
0.0
 40
0.0
 40
0.0
 40
0.0
 40
0.4987466031
 40
1.0
 40
1.0
 40
1.0
 40
1.0
 10
6.5508134129
 20
9.5797907408
 30
0.0
 10
6.5458360494
 20
9.5778770458
 30
0.0
 10
6.5354093466
 20
9.5751336306
 30
0.0
 10
6.5246532721
 20
9.5745483197
 30
0.0
 10
6.5192996054
 20
9.5747957046
 30
0.0
  0
SPLINE
  5
7C7
100
AcDbEntity
  8
0
100
AcDbSpline
 62
9
  6
CONTINUOUS
 70
0
 71
3
 72
9
 73
5
 74
0
 42
0.0000001
 43
0.0000001
 44
0.0000000001
 40
0.0
 40
0.0
 40
0.0
 40
0.0
 40
0.5000079686
 40
1.0
 40
1.0
 40
1.0
 40
1.0
 10
6.5219645907
 20
9.2669913413
 30
0.0
 10
6.529872744
 20
9.2669956139
 30
0.0
 10
6.5457361782
 20
9.2652935234
 30
0.0
 10
6.5608607528
 20
9.2601864918
 30
0.0
 10
6.5680209816
 20
9.2568299991
 30
0.0
  0
SPLINE
  5
7C8
100
AcDbEntity
  8
0
100
AcDbSpline
 62
9
  6
CONTINUOUS
 70
0
 71
3
 72
14
 73
10
 74
0
 42
0.0000001
 43
0.0000001
 44
0.0000000001
 40
0.0
 40
0.0
 40
0.0
 40
0.0
 40
0.32800253
 40
0.4871890935
 40
0.633892021
 40
0.7616801078
 40
0.866561499
 40
0.9458955402
 40
1.0
 40
1.0
 40
1.0
 40
1.0
 10
6.5680208187
 20
9.2568300747
 30
0.0
 10
6.566209524
 20
9.2529621002
 30
0.0
 10
6.56349108
 20
9.247229972
 30
0.0
 10
6.5598896609
 20
9.23980286
 30
0.0
 10
6.5573927203
 20
9.2347376966
 30
0.0
 10
6.5551711382
 20
9.2303254101
 30
0.0
 10
6.5533065117
 20
9.2267156157
 30
0.0
 10
6.5518383007
 20
9.2239816732
 30
0.0
 10
6.5509805876
 20
9.2224698686
 30
0.0
 10
6.5506131542
 20
9.221868754
 30
0.0
  0
SPLINE
  5
7C9
100
AcDbEntity
  8
0
100
AcDbSpline
 62
9
  6
CONTINUOUS
 70
0
 71
3
 72
13
 73
9
 74
0
 42
0.0000001
 43
0.0000001
 44
0.0000000001
 40
0.0
 40
0.0
 40
0.0
 40
0.0
 40
0.1362709479
 40
0.2704892856
 40
0.4012473891
 40
0.5283521281
 40
0.7716162552
 40
1.0
 40
1.0
 40
1.0
 40
1.0
 10
6.5506129823
 20
9.2218680057
 30
0.0
 10
6.5538236696
 20
9.2206097787
 30
0.0
 10
6.5600987179
 20
9.2178574368
 30
0.0
 10
6.5691226852
 20
9.2131923092
 30
0.0
 10
6.5777023234
 20
9.2082017863
 30
0.0
 10
6.5883882535
 20
9.2013687323
 30
0.0
 10
6.6007438323
 20
9.1925794937
 30
0.0
 10
6.6100240219
 20
9.1850609056
 30
0.0
 10
6.6144027226
 20
9.1812888406
 30
0.0
  0
SPLINE
  5
7CA
100
AcDbEntity
  8
0
100
AcDbSpline
 62
9
  6
CONTINUOUS
 70
0
 71
3
 72
9
 73
5
 74
0
 42
0.0000001
 43
0.0000001
 44
0.0000000001
 40
0.0
 40
0.0
 40
0.0
 40
0.0
 40
0.5010815058
 40
1.0
 40
1.0
 40
1.0
 40
1.0
 10
6.5207013294
 20
9.2271286796
 30
0.0
 10
6.5257973736
 20
9.2272294631
 30
0.0
 10
6.5360090927
 20
9.2264488591
 30
0.0
 10
6.5458877911
 20
9.2237196296
 30
0.0
 10
6.5506132469
 20
9.2218686618
 30
0.0
  0
SPLINE
  5
7CB
100
AcDbEntity
  8
0
100
AcDbSpline
 62
9
  6
CONTINUOUS
 70
0
 71
3
 72
13
 73
9
 74
0
 42
0.0000001
 43
0.0000001
 44
0.0000000001
 40
0.0
 40
0.0
 40
0.0
 40
0.0
 40
0.1297155361
 40
0.2585212486
 40
0.3859437902
 40
0.5118781288
 40
0.7591034488
 40
1.0
 40
1.0
 40
1.0
 40
1.0
 10
6.5680209816
 20
9.2568299991
 30
0.0
 10
6.5710328293
 20
9.2543894846
 30
0.0
 10
6.5766670118
 20
9.2490637323
 30
0.0
 10
6.5841335568
 20
9.2402533013
 30
0.0
 10
6.5907576843
 20
9.230935483
 30
0.0
 10
6.59857187
 20
9.2181683688
 30
0.0
 10
6.6067827451
 20
9.2017183058
 30
0.0
 10
6.6120895571
 20
9.1881083779
 30
0.0
 10
6.6144024231
 20
9.1812908984
 30
0.0
  0
SPLINE
  5
7CC
100
AcDbEntity
  8
0
100
AcDbSpline
 62
9
  6
CONTINUOUS
 70
0
 71
3
 72
13
 73
9
 74
0
 42
0.0000001
 43
0.0000001
 44
0.0000000001
 40
0.0
 40
0.0
 40
0.0
 40
0.0
 40
0.1298241084
 40
0.2587309692
 40
0.3862313124
 40
0.5122079981
 40
0.759380773
 40
1.0
 40
1.0
 40
1.0
 40
1.0
 10
6.5680209816
 20
9.5448695578
 30
0.0
 10
6.57101649
 20
9.5472715971
 30
0.0
 10
6.576627624
 20
9.5525132348
 30
0.0
 10
6.5840798063
 20
9.5611900375
 30
0.0
 10
6.5907024189
 20
9.5703715686
 30
0.0
 10
6.5985233087
 20
9.5829551157
 30
0.0
 10
6.6067525399
 20
9.5991739236
 30
0.0
 10
6.6120807293
 20
9.612603182
 30
0.0
 10
6.6144024231
 20
9.6193303047
 30
0.0
  0
SPLINE
  5
7CD
100
AcDbEntity
  8
0
100
AcDbSpline
 62
9
  6
CONTINUOUS
 70
0
 71
3
 72
14
 73
10
 74
0
 42
0.0000001
 43
0.0000001
 44
0.0000000001
 40
0.0
 40
0.0
 40
0.0
 40
0.0
 40
0.0552478578
 40
0.135335711
 40
0.2405265438
 40
0.368219464
 40
0.5145035169
 40
0.6730981677
 40
1.0
 40
1.0
 40
1.0
 40
1.0
 10
6.5508130144
 20
9.57979046
 30
0.0
 10
6.5511821128
 20
9.5791756436
 30
0.0
 10
6.5520406129
 20
9.577642488
 30
0.0
 10
6.5535043203
 20
9.5748849265
 30
0.0
 10
6.5553529791
 20
9.5712674689
 30
0.0
 10
6.5575478209
 20
9.5668624702
 30
0.0
 10
6.5600099245
 20
9.5618163808
 30
0.0
 10
6.5635582428
 20
9.5544234655
 30
0.0
 10
6.5662360506
 20
9.5487189511
 30
0.0
 10
6.5680203644
 20
9.5448692756
 30
0.0
  0
SPLINE
  5
7CE
100
AcDbEntity
  8
0
100
AcDbSpline
 62
9
  6
CONTINUOUS
 70
0
 71
3
 72
20
 73
16
 74
0
 42
0.0000001
 43
0.0000001
 44
0.0000000001
 40
0.0
 40
0.0
 40
0.0
 40
0.0
 40
0.0047136219
 40
0.0113005559
 40
0.0303751389
 40
0.0576907114
 40
0.0936449594
 40
0.1384611065
 40
0.1917212719
 40
0.2528451857
 40
0.3212508038
 40
0.4765930246
 40
0.6481706508
 40
0.8256967711
 40
1.0
 40
1.0
 40
1.0
 40
1.0
 10
6.5192995191
 20
9.5747950022
 30
0.0
 10
6.5193223028
 20
9.5747366355
 30
0.0
 10
6.5193629531
 20
9.5745914952
 30
0.0
 10
6.5194414271
 20
9.5741954164
 30
0.0
 10
6.519525965
 20
9.5734954774
 30
0.0
 10
6.5196148005
 20
9.5724046227
 30
0.0
 10
6.5196932596
 20
9.5709698096
 30
0.0
 10
6.5197599709
 20
9.56918944
 30
0.0
 10
6.5198135945
 20
9.5670738932
 30
0.0
 10
6.5198528001
 20
9.56464445
 30
0.0
 10
6.519885169
 20
9.5608578913
 30
0.0
 10
6.5198785356
 20
9.5556029077
 30
0.0
 10
6.5198124447
 20
9.5488978114
 30
0.0
 10
6.5196913058
 20
9.5419414081
 30
0.0
 10
6.5195805823
 20
9.5372659859
 30
0.0
 10
6.5195186181
 20
9.5349498844
 30
0.0
  0
LINE
  5
7CF
100
AcDbEntity
  8
0
100
AcDbLine
 62
9
  6
CONTINUOUS
 10
6.4810538588
 20
9.5833130442
 11
6.5192995249
 21
9.5747949957
  0
LINE
  5
7D0
100
AcDbEntity
  8
0
100
AcDbLine
 62
9
  6
CONTINUOUS
 10
6.5195186264
 20
9.5349498841
 11
4.1290948971
 21
9.5994956007
  0
SPLINE
  5
7D1
100
AcDbEntity
  8
0
100
AcDbSpline
 62
9
  6
CONTINUOUS
 70
0
 71
3
 72
9
 73
5
 74
0
 42
0.0000001
 43
0.0000001
 44
0.0000000001
 40
0.0
 40
0.0
 40
0.0
 40
0.0
 40
0.4999825505
 40
1.0
 40
1.0
 40
1.0
 40
1.0
 10
6.5192995099
 20
9.5747950024
 30
0.0
 10
6.1209116266
 20
9.5854456067
 30
0.0
 10
5.3241276876
 20
9.6074718487
 30
0.0
 10
4.5273254179
 20
9.6288335967
 30
0.0
 10
4.1289003531
 20
9.6391283384
 30
0.0
  0
SPLINE
  5
7D2
100
AcDbEntity
  8
0
100
AcDbSpline
 62
9
  6
CONTINUOUS
 70
0
 71
3
 72
9
 73
5
 74
0
 42
0.0000001
 43
0.0000001
 44
0.0000000001
 40
0.0
 40
0.0
 40
0.0
 40
0.0
 40
0.5000175034
 40
1.0
 40
1.0
 40
1.0
 40
1.0
 10
4.1278604126
 20
9.2255262469
 30
0.0
 10
4.5266812244
 20
9.2253639083
 30
0.0
 10
5.3242951622
 20
9.2258154757
 30
0.0
 10
6.1219082041
 20
9.2269338975
 30
0.0
 10
6.5207010794
 20
9.2271288703
 30
0.0
  0
LINE
  5
7D3
100
AcDbEntity
  8
0
100
AcDbLine
 62
9
  6
CONTINUOUS
 10
6.4866916483
 20
9.2204763455
 11
6.4825041122
 21
9.2196219912
  0
LINE
  5
7D4
100
AcDbEntity
  8
0
100
AcDbLine
 62
9
  6
CONTINUOUS
 10
4.1290949877
 20
9.2651768266
 11
6.5219645907
 21
9.2669913413
  0
SPLINE
  5
7D5
100
AcDbEntity
  8
0
100
AcDbSpline
 62
9
  6
CONTINUOUS
 70
0
 71
3
 72
13
 73
9
 74
0
 42
0.0000001
 43
0.0000001
 44
0.0000000001
 40
0.0
 40
0.0
 40
0.0
 40
0.0
 40
0.2503785214
 40
0.5003666755
 40
0.6255185964
 40
0.7504984773
 40
0.8752824078
 40
1.0
 40
1.0
 40
1.0
 40
1.0
 10
4.1289003272
 20
9.6391286736
 30
0.0
 10
4.1246468656
 20
9.6392568543
 30
0.0
 10
4.116047417
 20
9.6381507626
 30
0.0
 10
4.1062914221
 20
9.6334689912
 30
0.0
 10
4.0996981538
 20
9.6280558892
 30
0.0
 10
4.095455125
 20
9.6232636863
 30
0.0
 10
4.0920440957
 20
9.61785944
 30
0.0
 10
4.0903749255
 20
9.6139375375
 30
0.0
 10
4.0897061911
 20
9.6119261108
 30
0.0
  0
SPLINE
  5
7D6
100
AcDbEntity
  8
0
100
AcDbSpline
 62
9
  6
CONTINUOUS
 70
0
 71
3
 72
20
 73
16
 74
0
 42
0.0000001
 43
0.0000001
 44
0.0000000001
 40
0.0
 40
0.0
 40
0.0
 40
0.0
 40
0.1742496826
 40
0.3517557777
 40
0.5233411748
 40
0.6787060846
 40
0.7471242151
 40
0.808259806
 40
0.8615299141
 40
0.9063533701
 40
0.9423116556
 40
0.969628399
 40
0.9887019561
 40
0.9952877707
 40
1.0
 40
1.0
 40
1.0
 40
1.0
 10
6.5219645836
 20
9.2669913413
 30
0.0
 10
6.521965836
 20
9.2646729825
 30
0.0
 10
6.5219539842
 20
9.2599929209
 30
0.0
 10
6.5218926985
 20
9.2530301779
 30
0.0
 10
6.5217828916
 20
9.2463193182
 30
0.0
 10
6.5216516189
 20
9.2410605401
 30
0.0
 10
6.5215198383
 20
9.2372720107
 30
0.0
 10
6.5214168316
 20
9.2348417335
 30
0.0
 10
6.521307634
 20
9.2327259825
 30
0.0
 10
6.5211941379
 20
9.2309460485
 30
0.0
 10
6.5210779585
 20
9.2295122965
 30
0.0
 10
6.5209604271
 20
9.2284230864
 30
0.0
 10
6.5208574624
 20
9.2277249736
 30
0.0
 10
6.520768542
 20
9.2273307744
 30
0.0
 10
6.5207240579
 20
9.2271866515
 30
0.0
 10
6.5206997276
 20
9.2271288696
 30
0.0
  0
SPLINE
  5
7D7
100
AcDbEntity
  8
0
100
AcDbSpline
 62
9
  6
CONTINUOUS
 70
0
 71
3
 72
9
 73
5
 74
0
 42
0.0000001
 43
0.0000001
 44
0.0000000001
 40
0.0
 40
0.0
 40
0.0
 40
0.0
 40
0.5000151176
 40
1.0
 40
1.0
 40
1.0
 40
1.0
 10
6.5195186264
 20
9.5349498841
 30
0.0
 10
6.527821868
 20
9.5347268307
 30
0.0
 10
6.5445323318
 20
9.5361633323
 30
0.0
 10
6.5604866941
 20
9.5413738831
 30
0.0
 10
6.5680209816
 20
9.5448695578
 30
0.0
  0
SPLINE
  5
7D8
100
AcDbEntity
  8
0
100
AcDbSpline
 62
9
  6
CONTINUOUS
 70
0
 71
3
 72
18
 73
14
 74
0
 42
0.0000001
 43
0.0000001
 44
0.0000000001
 40
0.0
 40
0.0
 40
0.0
 40
0.0
 40
0.0148466344
 40
0.0370517339
 40
0.0669467121
 40
0.1048395286
 40
0.1508935372
 40
0.2047207986
 40
0.3335827787
 40
0.4863268246
 40
0.6543667092
 40
0.8284295036
 40
1.0
 40
1.0
 40
1.0
 40
1.0
 10
4.1288997763
 20
9.6391284908
 30
0.0
 10
4.1289444444
 20
9.638937424
 30
0.0
 10
4.1290175085
 20
9.6384522369
 30
0.0
 10
4.129106306
 20
9.6375720871
 30
0.0
 10
4.1291875835
 20
9.6363851979
 30
0.0
 10
4.1292602599
 20
9.6348823753
 30
0.0
 10
4.129321457
 20
9.6330624594
 30
0.0
 10
4.1293912931
 20
9.630040081
 30
0.0
 10
4.1294368491
 20
9.6256069284
 30
0.0
 10
4.1294305507
 20
9.6196641721
 30
0.0
 10
4.1293693803
 20
9.6131243099
 30
0.0
 10
4.1292565679
 20
9.6063363036
 30
0.0
 10
4.1291527325
 20
9.6017694341
 30
0.0
 10
4.1290943752
 20
9.5995026456
 30
0.0
  0
SPLINE
  5
7D9
100
AcDbEntity
  8
0
100
AcDbSpline
 62
9
  6
CONTINUOUS
 70
0
 71
3
 72
13
 73
9
 74
0
 42
0.0000001
 43
0.0000001
 44
0.0000000001
 40
0.0
 40
0.0
 40
0.0
 40
0.0
 40
0.2503979849
 40
0.5003899685
 40
0.6255320024
 40
0.7505044397
 40
0.8752849256
 40
1.0
 40
1.0
 40
1.0
 40
1.0
 10
4.1278604047
 20
9.2255260818
 30
0.0
 10
4.1236724945
 20
9.2255079556
 30
0.0
 10
4.1152423422
 20
9.226792366
 30
0.0
 10
4.1057323426
 20
9.231571332
 30
0.0
 10
4.0993227516
 20
9.2369908348
 30
0.0
 10
4.0952051421
 20
9.241755694
 30
0.0
 10
4.0918994378
 20
9.2471045116
 30
0.0
 10
4.0902839591
 20
9.2509745397
 30
0.0
 10
4.0896370221
 20
9.2529575608
 30
0.0
  0
SPLINE
  5
7DA
100
AcDbEntity
  8
0
100
AcDbSpline
 62
9
  6
CONTINUOUS
 70
0
 71
3
 72
17
 73
13
 74
0
 42
0.0000001
 43
0.0000001
 44
0.0000000001
 40
0.0
 40
0.0
 40
0.0
 40
0.0
 40
0.1159978006
 40
0.2388541074
 40
0.302571962
 40
0.3673912507
 40
0.4985834157
 40
0.6300164939
 40
0.6951174836
 40
0.7592049074
 40
0.8829865839
 40
1.0
 40
1.0
 40
1.0
 40
1.0
 10
6.486692963
 20
9.2204769389
 30
0.0
 10
6.490016299
 20
9.2204759659
 30
0.0
 10
6.4968727095
 20
9.21983134
 30
0.0
 10
6.5052578916
 20
9.217412245
 30
0.0
 10
6.5118061705
 20
9.2143854676
 30
0.0
 10
6.518225884
 20
9.2106033751
 30
0.0
 10
6.5255679162
 20
9.2046479372
 30
0.0
 10
6.5314875944
 20
9.1972674438
 30
0.0
 10
6.5352551123
 20
9.1908098053
 30
0.0
 10
6.538279275
 20
9.1842107582
 30
0.0
 10
6.5407049624
 20
9.1757599133
 30
0.0
 10
6.541367385
 20
9.1688505516
 30
0.0
 10
6.5413801616
 20
9.1654981425
 30
0.0
  0
LINE
  5
7DB
100
AcDbEntity
  8
0
100
AcDbLine
 62
9
  6
CONTINUOUS
 10
6.5425936457
 20
9.6369715765
 11
6.5376927123
 21
9.638288452
  0
SPLINE
  5
7DC
100
AcDbEntity
  8
0
100
AcDbSpline
 62
7
  6
CONTINUOUS
 70
0
 71
3
 72
9
 73
5
 74
0
 42
0.0000001
 43
0.0000001
 44
0.0000000001
 40
0.0
 40
0.0
 40
0.0
 40
0.0
 40
0.4939826835
 40
1.0
 40
1.0
 40
1.0
 40
1.0
 10
15.3760076778
 20
9.2170340107
 30
0.0
 10
15.3735752254
 20
9.216260884
 30
0.0
 10
15.3687583633
 20
9.2143382696
 30
0.0
 10
15.364259216
 20
9.2117593059
 30
0.0
 10
15.3620858527
 20
9.2103059205
 30
0.0
  0
SPLINE
  5
7DD
100
AcDbEntity
  8
0
100
AcDbSpline
 62
9
  6
CONTINUOUS
 70
0
 71
3
 72
13
 73
9
 74
0
 42
0.0000001
 43
0.0000001
 44
0.0000000001
 40
0.0
 40
0.0
 40
0.0
 40
0.0
 40
0.2503987812
 40
0.5003901302
 40
0.6255318698
 40
0.750504276
 40
0.875284574
 40
1.0
 40
1.0
 40
1.0
 40
1.0
 10
17.7475243018
 20
9.2255258945
 30
0.0
 10
17.7517109793
 20
9.2255076945
 30
0.0
 10
17.7601385949
 20
9.2267913296
 30
0.0
 10
17.7696464119
 20
9.2315673104
 30
0.0
 10
17.7760552679
 20
9.2369837702
 30
0.0
 10
17.7801729114
 20
9.2417460875
 30
0.0
 10
17.7834793507
 20
9.2470922354
 30
0.0
 10
17.7850957699
 20
9.2509605098
 30
0.0
 10
17.7857432888
 20
9.2529426943
 30
0.0
  0
SPLINE
  5
7DE
100
AcDbEntity
  8
0
100
AcDbSpline
 62
9
  6
CONTINUOUS
 70
0
 71
3
 72
18
 73
14
 74
0
 42
0.0000001
 43
0.0000001
 44
0.0000000001
 40
0.0
 40
0.0
 40
0.0
 40
0.0
 40
0.014845031
 40
0.0370499382
 40
0.0669466675
 40
0.1048437071
 40
0.1509047184
 40
0.2047411911
 40
0.333625062
 40
0.4863892428
 40
0.654435578
 40
0.8284795172
 40
1.0
 40
1.0
 40
1.0
 40
1.0
 10
17.7475247684
 20
9.2255261146
 30
0.0
 10
17.7474750579
 20
9.2257160967
 30
0.0
 10
17.7473892163
 20
9.2261996217
 30
0.0
 10
17.7472772612
 20
9.2270779462
 30
0.0
 10
17.7471647755
 20
9.2282634617
 30
0.0
 10
17.7470526
 20
9.2297654134
 30
0.0
 10
17.7469435871
 20
9.2315850412
 30
0.0
 10
17.7467943637
 20
9.2346078308
 30
0.0
 10
17.7466324136
 20
9.2390430185
 30
0.0
 10
17.7464827534
 20
9.2449900044
 30
0.0
 10
17.7463723555
 20
9.2515353414
 30
0.0
 10
17.7463071511
 20
9.2583293928
 30
0.0
 10
17.7462912508
 20
9.2629007068
 30
0.0
 10
17.7462901858
 20
9.2651696709
 30
0.0
  0
SPLINE
  5
7DF
100
AcDbEntity
  8
0
100
AcDbSpline
 62
9
  6
CONTINUOUS
 70
0
 71
3
 72
9
 73
5
 74
0
 42
0.0000001
 43
0.0000001
 44
0.0000000001
 40
0.0
 40
0.0
 40
0.0
 40
0.0
 40
0.4999824967
 40
1.0
 40
1.0
 40
1.0
 40
1.0
 10
15.35468185
 20
9.2271288765
 30
0.0
 10
15.7534750173
 20
9.2269339736
 30
0.0
 10
16.551088643
 20
9.2258154558
 30
0.0
 10
17.3487031648
 20
9.2253639138
 30
0.0
 10
17.7475242684
 20
9.2255262475
 30
0.0
  0
SPLINE
  5
7E0
100
AcDbEntity
  8
0
100
AcDbSpline
 62
9
  6
CONTINUOUS
 70
0
 71
3
 72
9
 73
5
 74
0
 42
0.0000001
 43
0.0000001
 44
0.0000000001
 40
0.0
 40
0.0
 40
0.0
 40
0.0
 40
0.5000063602
 40
1.0
 40
1.0
 40
1.0
 40
1.0
 10
15.3534201083
 20
9.2669913405
 30
0.0
 10
15.3455119859
 20
9.266996272
 30
0.0
 10
15.3296486027
 20
9.2652928268
 30
0.0
 10
15.3145240091
 20
9.2601863567
 30
0.0
 10
15.3073637039
 20
9.256829979
 30
0.0
  0
SPLINE
  5
7E1
100
AcDbEntity
  8
0
100
AcDbSpline
 62
9
  6
CONTINUOUS
 70
0
 71
3
 72
13
 73
9
 74
0
 42
0.0000001
 43
0.0000001
 44
0.0000000001
 40
0.0
 40
0.0
 40
0.0
 40
0.0
 40
0.1365483868
 40
0.2710157926
 40
0.4019717865
 40
0.5291909878
 40
0.7723280228
 40
1.0
 40
1.0
 40
1.0
 40
1.0
 10
15.3245714474
 20
9.5797904709
 30
0.0
 10
15.3213775549
 20
9.5810190295
 30
0.0
 10
15.3151314914
 20
9.5837039917
 30
0.0
 10
15.3061378144
 20
9.5882520298
 30
0.0
 10
15.2975802688
 20
9.5931164012
 30
0.0
 10
15.2869221634
 20
9.599772427
 30
0.0
 10
15.2746035982
 20
9.6083274024
 30
0.0
 10
15.2653451073
 20
9.615654845
 30
0.0
 10
15.2609817086
 20
9.6193311873
 30
0.0
  0
SPLINE
  5
7E2
100
AcDbEntity
  8
0
100
AcDbSpline
 62
9
  6
CONTINUOUS
 70
0
 71
3
 72
9
 73
5
 74
0
 42
0.0000001
 43
0.0000001
 44
0.0000000001
 40
0.0
 40
0.0
 40
0.0
 40
0.0
 40
0.5012254692
 40
1.0
 40
1.0
 40
1.0
 40
1.0
 10
15.3560851431
 20
9.5747955035
 30
0.0
 10
15.3507317498
 20
9.5745486382
 30
0.0
 10
15.339975829
 20
9.5751340613
 30
0.0
 10
15.3295488432
 20
9.5778766558
 30
0.0
 10
15.3245712356
 20
9.579790552
 30
0.0
  0
SPLINE
  5
7E3
100
AcDbEntity
  8
0
100
AcDbSpline
 62
9
  6
CONTINUOUS
 70
0
 71
3
 72
13
 73
9
 74
0
 42
0.0000001
 43
0.0000001
 44
0.0000000001
 40
0.0
 40
0.0
 40
0.0
 40
0.0
 40
0.1298241239
 40
0.2587309193
 40
0.3862312197
 40
0.5122080412
 40
0.7593805439
 40
1.0
 40
1.0
 40
1.0
 40
1.0
 10
15.3073637039
 20
9.5448695792
 30
0.0
 10
15.3043683859
 20
9.5472718132
 30
0.0
 10
15.2987572905
 20
9.5525133538
 30
0.0
 10
15.2913048442
 20
9.5611898388
 30
0.0
 10
15.284682358
 20
9.5703713746
 30
0.0
 10
15.2768616743
 20
9.5829549092
 30
0.0
 10
15.2686321793
 20
9.5991734508
 30
0.0
 10
15.2633043
 20
9.6126027173
 30
0.0
 10
15.2609824653
 20
9.6193297454
 30
0.0
  0
SPLINE
  5
7E4
100
AcDbEntity
  8
0
100
AcDbSpline
 62
9
  6
CONTINUOUS
 70
0
 71
3
 72
9
 73
5
 74
0
 42
0.0000001
 43
0.0000001
 44
0.0000000001
 40
0.0
 40
0.0
 40
0.0
 40
0.0
 40
0.5000144669
 40
1.0
 40
1.0
 40
1.0
 40
1.0
 10
15.3558660683
 20
9.534949885
 30
0.0
 10
15.3475628363
 20
9.5347276647
 30
0.0
 10
15.3308526632
 20
9.5361642045
 30
0.0
 10
15.3148978995
 20
9.5413737309
 30
0.0
 10
15.3073637039
 20
9.5448695792
 30
0.0
  0
SPLINE
  5
7E5
100
AcDbEntity
  8
0
100
AcDbSpline
 62
9
  6
CONTINUOUS
 70
0
 71
3
 72
14
 73
10
 74
0
 42
0.0000001
 43
0.0000001
 44
0.0000000001
 40
0.0
 40
0.0
 40
0.0
 40
0.0
 40
0.326902664
 40
0.4854973774
 40
0.6317813276
 40
0.7594740505
 40
0.8646646563
 40
0.9447523052
 40
1.0
 40
1.0
 40
1.0
 40
1.0
 10
15.3073641988
 20
9.5448693531
 30
0.0
 10
15.3091485205
 20
9.5487190183
 30
0.0
 10
15.3118263371
 20
9.5544235139
 30
0.0
 10
15.3153746628
 20
9.5618164011
 30
0.0
 10
15.3178367659
 20
9.5668624625
 30
0.0
 10
15.3200316043
 20
9.5712674336
 30
0.0
 10
15.3218802581
 20
9.5748848665
 30
0.0
 10
15.3233439596
 20
9.5776424085
 30
0.0
 10
15.324202455
 20
9.5791755532
 30
0.0
 10
15.3245715509
 20
9.5797903653
 30
0.0
  0
LINE
  5
7E6
100
AcDbEntity
  8
0
100
AcDbLine
 62
9
  6
CONTINUOUS
 10
17.7462897895
 20
9.5994955205
 11
15.3558660683
 21
9.534949885
  0
SPLINE
  5
7E7
100
AcDbEntity
  8
0
100
AcDbSpline
 62
9
  6
CONTINUOUS
 70
0
 71
3
 72
20
 73
16
 74
0
 42
0.0000001
 43
0.0000001
 44
0.0000000001
 40
0.0
 40
0.0
 40
0.0
 40
0.0
 40
0.1743032269
 40
0.3518293495
 40
0.5234069811
 40
0.6787492075
 40
0.7471548277
 40
0.8082787427
 40
0.8615389084
 40
0.9063550546
 40
0.9423093006
 40
0.9696248699
 40
0.9886994489
 40
0.9952863806
 40
1.0
 40
1.0
 40
1.0
 40
1.0
 10
15.3558660775
 20
9.5349498852
 30
0.0
 10
15.3558041133
 20
9.537265987
 30
0.0
 10
15.3556933898
 20
9.5419414098
 30
0.0
 10
15.3555722508
 20
9.548897814
 30
0.0
 10
15.3555061599
 20
9.5556029113
 30
0.0
 10
15.3554995265
 20
9.5608578957
 30
0.0
 10
15.3555318955
 20
9.564644455
 30
0.0
 10
15.355571101
 20
9.5670738985
 30
0.0
 10
15.3556247246
 20
9.5691894456
 30
0.0
 10
15.355691436
 20
9.5709698154
 30
0.0
 10
15.3557698952
 20
9.5724046285
 30
0.0
 10
15.3558587307
 20
9.5734954833
 30
0.0
 10
15.3559432685
 20
9.5741954223
 30
0.0
 10
15.3560217425
 20
9.574591501
 30
0.0
 10
15.3560623929
 20
9.5747366412
 30
0.0
 10
15.3560851766
 20
9.5747950079
 30
0.0
  0
SPLINE
  5
7E8
100
AcDbEntity
  8
0
100
AcDbSpline
 62
9
  6
CONTINUOUS
 70
0
 71
3
 72
18
 73
14
 74
0
 42
0.0000001
 43
0.0000001
 44
0.0000000001
 40
0.0
 40
0.0
 40
0.0
 40
0.0
 40
0.171569438
 40
0.3456317786
 40
0.5136717058
 40
0.6664161498
 40
0.795278632
 40
0.8491061166
 40
0.8951603146
 40
0.9330532648
 40
0.9629483104
 40
0.9851534158
 40
1.0
 40
1.0
 40
1.0
 40
1.0
 10
17.746290346
 20
9.5995021066
 30
0.0
 10
17.7462319872
 20
9.6017689121
 30
0.0
 10
17.7461281488
 20
9.6063358241
 30
0.0
 10
17.7460153322
 20
9.6131239037
 30
0.0
 10
17.7459541581
 20
9.6196638552
 30
0.0
 10
17.7459478571
 20
9.6256067053
 30
0.0
 10
17.7459934117
 20
9.6300399334
 30
0.0
 10
17.7460632476
 20
9.6330623652
 30
0.0
 10
17.7461244447
 20
9.6348823133
 30
0.0
 10
17.7461971215
 20
9.6363851616
 30
0.0
 10
17.7462783997
 20
9.6375720698
 30
0.0
 10
17.7463671981
 20
9.638452232
 30
0.0
 10
17.7464402629
 20
9.6389374252
 30
0.0
 10
17.7464849316
 20
9.6391284939
 30
0.0
  0
SPLINE
  5
7E9
100
AcDbEntity
  8
0
100
AcDbSpline
 62
9
  6
CONTINUOUS
 70
0
 71
3
 72
13
 73
9
 74
0
 42
0.0000001
 43
0.0000001
 44
0.0000000001
 40
0.0
 40
0.0
 40
0.0
 40
0.0
 40
0.2503779733
 40
0.5003667113
 40
0.6255192361
 40
0.7504994622
 40
0.8752833269
 40
1.0
 40
1.0
 40
1.0
 40
1.0
 10
17.7464842937
 20
9.6391285078
 30
0.0
 10
17.7507393845
 20
9.6392566488
 30
0.0
 10
17.7593421907
 20
9.6381496051
 30
0.0
 10
17.769101175
 20
9.6334640346
 30
0.0
 10
17.7756954451
 20
9.6280469077
 30
0.0
 10
17.7799384463
 20
9.6232513418
 30
0.0
 10
17.7833485344
 20
9.6178435837
 30
0.0
 10
17.7850164685
 20
9.6139193753
 30
0.0
 10
17.7856844341
 20
9.6119068507
 30
0.0
  0
SPLINE
  5
7EA
100
AcDbEntity
  8
0
100
AcDbSpline
 62
9
  6
CONTINUOUS
 70
0
 71
3
 72
14
 73
10
 74
0
 42
0.0000001
 43
0.0000001
 44
0.0000000001
 40
0.0
 40
0.0
 40
0.0
 40
0.0
 40
0.0541045695
 40
0.1334387227
 40
0.2383202194
 40
0.3661083851
 40
0.5128113412
 40
0.6719978579
 40
1.0
 40
1.0
 40
1.0
 40
1.0
 10
15.3247715847
 20
9.2218686894
 30
0.0
 10
15.32440415
 20
9.2224698062
 30
0.0
 10
15.3235464343
 20
9.2239816159
 30
0.0
 10
15.3220782195
 20
9.2267155669
 30
0.0
 10
15.3202135895
 20
9.230325371
 30
0.0
 10
15.3179920043
 20
9.2347376679
 30
0.0
 10
15.3154950617
 20
9.2398028414
 30
0.0
 10
15.3118936429
 20
9.2472299623
 30
0.0
 10
15.3091752002
 20
9.2529620961
 30
0.0
 10
15.3073639072
 20
9.2568300734
 30
0.0
  0
SPLINE
  5
7EB
100
AcDbEntity
  8
0
100
AcDbSpline
 62
9
  6
CONTINUOUS
 70
0
 71
3
 72
20
 73
16
 74
0
 42
0.0000001
 43
0.0000001
 44
0.0000000001
 40
0.0
 40
0.0
 40
0.0
 40
0.0
 40
0.0047122305
 40
0.0112980463
 40
0.0303716059
 40
0.0576883514
 40
0.0936466387
 40
0.1384700958
 40
0.1917402043
 40
0.252875795
 40
0.3212939245
 40
0.4766588306
 40
0.6482442236
 40
0.8257503163
 40
1.0
 40
1.0
 40
1.0
 40
1.0
 10
15.3546849723
 20
9.2271288749
 30
0.0
 10
15.354660642
 20
9.2271866568
 30
0.0
 10
15.3546161579
 20
9.2273307797
 30
0.0
 10
15.3545272375
 20
9.2277249789
 30
0.0
 10
15.3544242729
 20
9.2284230917
 30
0.0
 10
15.3543067415
 20
9.2295123017
 30
0.0
 10
15.354190562
 20
9.2309460536
 30
0.0
 10
15.354077066
 20
9.2327259873
 30
0.0
 10
15.3539678684
 20
9.2348417381
 30
0.0
 10
15.3538648617
 20
9.2372720149
 30
0.0
 10
15.3537330811
 20
9.2410605436
 30
0.0
 10
15.3536018084
 20
9.2463193207
 30
0.0
 10
15.3534920015
 20
9.2530301793
 30
0.0
 10
15.3534307159
 20
9.2599929212
 30
0.0
 10
15.3534188641
 20
9.2646729821
 30
0.0
 10
15.3534201165
 20
9.2669913405
 30
0.0
  0
LINE
  5
7EC
100
AcDbEntity
  8
0
100
AcDbLine
 62
9
  6
CONTINUOUS
 10
15.3534201083
 20
9.2669913405
 11
17.7462896978
 21
9.265176746
  0
SPLINE
  5
7ED
100
AcDbEntity
  8
0
100
AcDbSpline
 62
9
  6
CONTINUOUS
 70
0
 71
3
 72
12
 73
8
 74
0
 42
0.0000001
 43
0.0000001
 44
0.0000000001
 40
0.0
 40
0.0
 40
0.0
 40
0.0
 40
0.2284335548
 40
0.4717245387
 40
0.5988494977
 40
0.7296239861
 40
1.0
 40
1.0
 40
1.0
 40
1.0
 10
15.2609828302
 20
9.1812889689
 30
0.0
 10
15.2653616466
 20
9.185061515
 30
0.0
 10
15.2746418126
 20
9.1925806203
 30
0.0
 10
15.2869972785
 20
9.201369508
 30
0.0
 10
15.2976840361
 20
9.2082027449
 30
0.0
 10
15.3092383658
 20
9.2149231114
 30
0.0
 10
15.318402332
 20
9.2193719767
 30
0.0
 10
15.3247717551
 20
9.221867997
 30
0.0
  0
SPLINE
  5
7EE
100
AcDbEntity
  8
0
100
AcDbSpline
 62
9
  6
CONTINUOUS
 70
0
 71
3
 72
9
 73
5
 74
0
 42
0.0000001
 43
0.0000001
 44
0.0000000001
 40
0.0
 40
0.0
 40
0.0
 40
0.0
 40
0.4988915693
 40
1.0
 40
1.0
 40
1.0
 40
1.0
 10
15.3247714625
 20
9.2218685345
 30
0.0
 10
15.3294963808
 20
9.2237192084
 30
0.0
 10
15.3393741895
 20
9.226448889
 30
0.0
 10
15.3495853206
 20
9.2272296739
 30
0.0
 10
15.3546812981
 20
9.2271286244
 30
0.0
  0
SPLINE
  5
7EF
100
AcDbEntity
  8
0
100
AcDbSpline
 62
9
  6
CONTINUOUS
 70
0
 71
3
 72
17
 73
13
 74
0
 42
0.0000001
 43
0.0000001
 44
0.0000000001
 40
0.0
 40
0.0
 40
0.0
 40
0.0
 40
0.1159972247
 40
0.2388532087
 40
0.3025710061
 40
0.3673902948
 40
0.4985825743
 40
0.6300158895
 40
0.6951170206
 40
0.7592045786
 40
0.8829864653
 40
1.0
 40
1.0
 40
1.0
 40
1.0
 10
15.3886928131
 20
9.2204763785
 30
0.0
 10
15.3853694701
 20
9.2204754965
 30
0.0
 10
15.3785130188
 20
9.219831053
 30
0.0
 10
15.3701277411
 20
9.2174121611
 30
0.0
 10
15.3635793533
 20
9.2143855223
 30
0.0
 10
15.357159507
 20
9.2106035474
 30
0.0
 10
15.3498172901
 20
9.204648211
 30
0.0
 10
15.3438974348
 20
9.1972677519
 30
0.0
 10
15.3401297894
 20
9.190810109
 30
0.0
 10
15.3371055158
 20
9.1842110401
 30
0.0
 10
15.3346797259
 20
9.1757601435
 30
0.0
 10
15.334017255
 20
9.1688507257
 30
0.0
 10
15.3340044637
 20
9.1654982895
 30
0.0
  0
SPLINE
  5
7F0
100
AcDbEntity
  8
0
100
AcDbSpline
 62
9
  6
CONTINUOUS
 70
0
 71
3
 72
13
 73
9
 74
0
 42
0.0000001
 43
0.0000001
 44
0.0000000001
 40
0.0
 40
0.0
 40
0.0
 40
0.0
 40
0.1297151626
 40
0.2585205703
 40
0.3859427634
 40
0.5118765009
 40
0.759101626
 40
1.0
 40
1.0
 40
1.0
 40
1.0
 10
15.3073637039
 20
9.256829979
 30
0.0
 10
15.3043516283
 20
9.2543896887
 30
0.0
 10
15.2987173767
 20
9.2490638347
 30
0.0
 10
15.2912511502
 20
9.240253011
 30
0.0
 10
15.2846268485
 20
9.2309352083
 30
0.0
 10
15.276812316
 20
9.2181681164
 30
0.0
 10
15.2686018571
 20
9.2017175719
 30
0.0
 10
15.263294761
 20
9.1881074819
 30
0.0
 10
15.2609824653
 20
9.181289659
 30
0.0
  0
LINE
  5
7F1
100
AcDbEntity
  8
0
100
AcDbLine
 62
9
  6
CONTINUOUS
 10
15.337691937
 20
9.6382884338
 11
15.332792059
 21
9.6369718282
  0
SPLINE
  5
7F2
100
AcDbEntity
  8
0
100
AcDbSpline
 62
9
  6
CONTINUOUS
 70
0
 71
3
 72
9
 73
5
 74
0
 42
0.0000001
 43
0.0000001
 44
0.0000000001
 40
0.0
 40
0.0
 40
0.0
 40
0.0
 40
0.5000174496
 40
1.0
 40
1.0
 40
1.0
 40
1.0
 10
17.7464843132
 20
9.6391283387
 30
0.0
 10
17.3480592545
 20
9.6288336021
 30
0.0
 10
16.5512569981
 20
9.6074718282
 30
0.0
 10
15.7544730692
 20
9.5854456812
 30
0.0
 10
15.3560851941
 20
9.5747950083
 30
0.0
  0
LINE
  5
7F3
100
AcDbEntity
  8
0
100
AcDbLine
 62
9
  6
CONTINUOUS
 10
15.3560851795
 20
9.5747949968
 11
15.3943308267
 21
9.5833130442
  0
LINE
  5
7F4
100
AcDbEntity
  8
0
100
AcDbLine
 62
9
  6
CONTINUOUS
 10
15.3928800085
 20
9.2196221136
 11
15.3886922706
 21
9.2204763453
  0
LINE
  5
7F5
100
AcDbEntity
  8
0
100
AcDbLine
 62
7
  6
CONTINUOUS
 10
9.8152225752
 20
9.822704249
 11
9.81509278
 21
9.8222180474
  0
LINE
  5
7F6
100
AcDbEntity
  8
0
100
AcDbLine
 62
7
  6
CONTINUOUS
 10
9.8115953628
 20
9.8098027037
 11
9.8112012176
 21
9.8084860759
  0
SPLINE
  5
7F7
100
AcDbEntity
  8
0
100
AcDbSpline
 62
7
  6
CONTINUOUS
 70
0
 71
3
 72
14
 73
10
 74
0
 42
0.0000001
 43
0.0000001
 44
0.0000000001
 40
0.0
 40
0.0
 40
0.0
 40
0.0
 40
0.3386147465
 40
0.4847228864
 40
0.6157119083
 40
0.7319893078
 40
0.8341413675
 40
0.9230372524
 40
1.0
 40
1.0
 40
1.0
 40
1.0
 10
9.8097763783
 20
9.8038650888
 30
0.0
 10
9.8080119296
 20
9.7982769043
 30
0.0
 10
9.8052905596
 20
9.7903325396
 30
0.0
 10
9.8012184932
 20
9.7804823702
 30
0.0
 10
9.7983087678
 20
9.7743238478
 30
0.0
 10
9.795391377
 20
9.7690217372
 30
0.0
 10
9.7924634835
 20
9.7645725401
 30
0.0
 10
9.7895228921
 20
9.7609736988
 30
0.0
 10
9.787407729
 20
9.7590109257
 30
0.0
 10
9.7863471202
 20
9.7582052279
 30
0.0
  0
SPLINE
  5
7F8
100
AcDbEntity
  8
0
100
AcDbSpline
 62
7
  6
CONTINUOUS
 70
0
 71
3
 72
14
 73
10
 74
0
 42
0.0000001
 43
0.0000001
 44
0.0000000001
 40
0.0
 40
0.0
 40
0.0
 40
0.0
 40
0.0760450516
 40
0.1642527835
 40
0.2659801366
 40
0.3821087005
 40
0.5132277811
 40
0.6597440153
 40
1.0
 40
1.0
 40
1.0
 40
1.0
 10
12.089026944
 20
9.7582132947
 30
0.0
 10
12.0879323714
 20
9.7590453778
 30
0.0
 10
12.0857501452
 20
9.7610839352
 30
0.0
 10
12.0827234637
 20
9.764833642
 30
0.0
 10
12.079710057
 20
9.7694845181
 30
0.0
 10
12.0767076089
 20
9.7750395519
 30
0.0
 10
12.0737131052
 20
9.7815026543
 30
0.0
 10
12.0695194806
 20
9.7918609434
 30
0.0
 10
12.0667220003
 20
9.8002152477
 30
0.0
 10
12.0649082552
 20
9.8060938235
 30
0.0
  0
LINE
  5
7F9
100
AcDbEntity
  8
0
100
AcDbLine
 62
7
  6
CONTINUOUS
 10
12.0641688308
 20
9.8085196221
 11
12.0638058779
 21
9.8097317642
  0
LINE
  5
7FA
100
AcDbEntity
  8
0
100
AcDbLine
 62
7
  6
CONTINUOUS
 10
12.0602763843
 20
9.8222582939
 11
12.0601563927
 21
9.8227078235
  0
SPLINE
  5
7FB
100
AcDbEntity
  8
0
100
AcDbSpline
 62
7
  6
CONTINUOUS
 70
0
 71
3
 72
17
 73
13
 74
0
 42
0.0000001
 43
0.0000001
 44
0.0000000001
 40
0.0
 40
0.0
 40
0.0
 40
0.0
 40
0.0378349491
 40
0.0769895624
 40
0.1180602579
 40
0.1615509056
 40
0.2575570154
 40
0.3683059895
 40
0.4962225425
 40
0.6431807007
 40
0.8106858659
 40
1.0
 40
1.0
 40
1.0
 40
1.0
 10
10.2427273764
 20
11.4828752303
 30
0.0
 10
10.2401876797
 20
11.4820579708
 30
0.0
 10
10.2351315233
 20
11.4800271798
 30
0.0
 10
10.2278591175
 20
11.4759338289
 30
0.0
 10
10.2207974064
 20
11.4707804416
 30
0.0
 10
10.2113331326
 20
11.4622336632
 30
0.0
 10
10.2000087857
 20
11.4485811735
 30
0.0
 10
10.1876665341
 20
11.42840144
 30
0.0
 10
10.1760744384
 20
11.4037567659
 30
0.0
 10
10.165201519
 20
11.3744889812
 30
0.0
 10
10.1550223703
 20
11.3404344124
 30
0.0
 10
10.1490650365
 20
11.3159780165
 30
0.0
 10
10.1461579161
 20
11.3029488073
 30
0.0
  0
SPLINE
  5
7FC
100
AcDbEntity
  8
0
100
AcDbSpline
 62
7
  6
CONTINUOUS
 70
0
 71
3
 72
18
 73
14
 74
0
 42
0.0000001
 43
0.0000001
 44
0.0000000001
 40
0.0
 40
0.0
 40
0.0
 40
0.0
 40
0.0183711512
 40
0.0418549865
 40
0.0712403081
 40
0.1068353635
 40
0.1487362047
 40
0.1969356317
 40
0.3119030414
 40
0.4508652482
 40
0.6126917829
 40
0.796148865
 40
1.0
 40
1.0
 40
1.0
 40
1.0
 10
11.6625149995
 20
10.7812341021
 30
0.0
 10
11.662074157
 20
10.7810149958
 30
0.0
 10
11.661183156
 20
10.7802962056
 30
0.0
 10
11.6600168438
 20
10.7787765036
 30
0.0
 10
11.6588515523
 20
10.7767050992
 30
0.0
 10
11.6576906774
 20
10.7740840479
 30
0.0
 10
11.6565336584
 20
10.7709187302
 30
0.0
 10
11.6549053811
 20
10.765668647
 30
0.0
 10
11.6529605485
 20
10.7578035658
 30
0.0
 10
11.6507895309
 20
10.7468741032
 30
0.0
 10
11.6486845172
 20
10.7340676969
 30
0.0
 10
11.6466542564
 20
10.7194923061
 30
0.0
 10
11.6454166632
 20
10.7091871088
 30
0.0
 10
11.6448037931
 20
10.7037590156
 30
0.0
  0
SPLINE
  5
7FD
100
AcDbEntity
  8
0
100
AcDbSpline
 62
7
  6
CONTINUOUS
 70
0
 71
3
 72
18
 73
14
 74
0
 42
0.0000001
 43
0.0000001
 44
0.0000000001
 40
0.0
 40
0.0
 40
0.0
 40
0.0
 40
0.018357227
 40
0.0418265687
 40
0.0711990787
 40
0.1067831771
 40
0.1486748719
 40
0.1968662987
 40
0.3118216797
 40
0.4507832652
 40
0.6126242581
 40
0.7961132037
 40
1.0
 40
1.0
 40
1.0
 40
1.0
 10
10.2128676178
 20
10.7812429444
 30
0.0
 10
10.2133085512
 20
10.7810243234
 30
0.0
 10
10.2141999217
 20
10.7803062334
 30
0.0
 10
10.2153664915
 20
10.7787869228
 30
0.0
 10
10.2165321079
 20
10.7767155531
 30
0.0
 10
10.2176933166
 20
10.7740940866
 30
0.0
 10
10.2188506308
 20
10.7709279358
 30
0.0
 10
10.2204793784
 20
10.7656760236
 30
0.0
 10
10.2224248823
 20
10.7578076241
 30
0.0
 10
10.2245964019
 20
10.7468726939
 30
0.0
 10
10.2267020916
 20
10.7340587721
 30
0.0
 10
10.22873279
 20
10.7194740089
 30
0.0
 10
10.229970807
 20
10.7091619653
 30
0.0
 10
10.2305838577
 20
10.7037302614
 30
0.0
  0
SPLINE
  5
7FE
100
AcDbEntity
  8
0
100
AcDbSpline
 62
7
  6
CONTINUOUS
 70
0
 71
3
 72
27
 73
23
 74
0
 42
0.0000001
 43
0.0000001
 44
0.0000000001
 40
0.0
 40
0.0
 40
0.0
 40
0.0
 40
0.1835592243
 40
0.3605496083
 40
0.4445668934
 40
0.5246183123
 40
0.599988553
 40
0.6700239822
 40
0.7341326573
 40
0.7918124861
 40
0.8426948215
 40
0.8654908945
 40
0.8864866783
 40
0.905661836
 40
0.9230062476
 40
0.9386281737
 40
0.952772398
 40
0.9657353283
 40
0.9777843453
 40
0.9890536878
 40
0.9945248852
 40
1.0
 40
1.0
 40
1.0
 40
1.0
 10
10.9376923427
 20
9.9526370992
 30
0.0
 10
10.9755855923
 20
9.9526370992
 30
0.0
 10
11.0500191727
 20
9.9535669089
 30
0.0
 10
11.1417388986
 20
9.9570794427
 30
0.0
 10
11.212019885
 20
9.9613295058
 30
0.0
 10
11.261307229
 20
9.9650977613
 30
0.0
 10
11.3076467194
 20
9.9694696773
 30
0.0
 10
11.350618967
 20
9.9744042227
 30
0.0
 10
11.389847256
 20
9.9798461739
 30
0.0
 10
11.4250048698
 20
9.9857559698
 30
0.0
 10
11.4515740583
 20
9.9912276812
 30
0.0
 10
11.4705537095
 20
9.9959002458
 30
0.0
 10
11.4830838252
 20
9.9993666348
 30
0.0
 10
11.4944171651
 20
10.0029147514
 30
0.0
 10
11.5045585971
 20
10.0065323463
 30
0.0
 10
11.5135419752
 20
10.0102735254
 30
0.0
 10
11.5214256481
 20
10.0142536663
 30
0.0
 10
11.5282697939
 20
10.0185821801
 30
0.0
 10
11.5340982482
 20
10.0233229924
 30
0.0
 10
11.5379840519
 20
10.0278925033
 30
0.0
 10
11.5402320294
 20
10.0319046114
 30
0.0
 10
11.5410478805
 20
10.0340224898
 30
0.0
 10
11.5413736616
 20
10.0351047824
 30
0.0
  0
SPLINE
  5
7FF
100
AcDbEntity
  8
0
100
AcDbSpline
 62
7
  6
CONTINUOUS
 70
0
 71
3
 72
27
 73
23
 74
0
 42
0.0000001
 43
0.0000001
 44
0.0000000001
 40
0.0
 40
0.0
 40
0.0
 40
0.0
 40
0.0054750829
 40
0.0109462793
 40
0.0222156654
 40
0.0342647005
 40
0.0472275783
 40
0.0613717451
 40
0.0769936522
 40
0.0943381017
 40
0.1135132799
 40
0.1345090626
 40
0.157305124
 40
0.2081874292
 40
0.2658672378
 40
0.3299759342
 40
0.4000113803
 40
0.4753816405
 40
0.5554330695
 40
0.6394503625
 40
0.8164407703
 40
1.0
 40
1.0
 40
1.0
 40
1.0
 10
10.3340110239
 20
10.0351047824
 30
0.0
 10
10.334336803
 20
10.0340224961
 30
0.0
 10
10.3351526559
 20
10.0319046254
 30
0.0
 10
10.3374006447
 20
10.0278925212
 30
0.0
 10
10.3412864585
 20
10.0233230049
 30
0.0
 10
10.3471148961
 20
10.0185821701
 30
0.0
 10
10.3539590218
 20
10.0142536576
 30
0.0
 10
10.3618426807
 20
10.0102735476
 30
0.0
 10
10.3708260575
 20
10.006532388
 30
0.0
 10
10.3809674901
 20
10.0029147717
 30
0.0
 10
10.3923008368
 20
9.999366637
 30
0.0
 10
10.4048309512
 20
9.9959002378
 30
0.0
 10
10.4238105934
 20
9.9912276743
 30
0.0
 10
10.4503797721
 20
9.9857559802
 30
0.0
 10
10.4855373795
 20
9.9798461856
 30
0.0
 10
10.5247656711
 20
9.97440423
 30
0.0
 10
10.5677379297
 20
9.9694696797
 30
0.0
 10
10.6140774292
 20
9.965097764
 30
0.0
 10
10.6633647803
 20
9.961329507
 30
0.0
 10
10.7336457745
 20
9.9570794434
 30
0.0
 10
10.8253655069
 20
9.9535669091
 30
0.0
 10
10.8997990925
 20
9.9526370992
 30
0.0
 10
10.9376923427
 20
9.9526370992
 30
0.0
  0
LINE
  5
800
100
AcDbEntity
  8
0
100
AcDbLine
 62
7
  6
CONTINUOUS
 10
11.7141690651
 20
10.4393652157
 11
11.7126245461
 21
10.4410332861
  0
LINE
  5
801
100
AcDbEntity
  8
0
100
AcDbLine
 62
7
  6
CONTINUOUS
 10
11.4333821028
 20
10.5074228004
 11
11.4284432918
 21
10.5079531007
  0
LINE
  5
802
100
AcDbEntity
  8
0
100
AcDbLine
 62
7
  6
CONTINUOUS
 10
11.4047386415
 20
10.5103796146
 11
11.3996182387
 21
10.5108790203
  0
LINE
  5
803
100
AcDbEntity
  8
0
100
AcDbLine
 62
7
  6
CONTINUOUS
 10
11.3644733723
 20
10.5140865355
 11
11.3591254547
 21
10.5145425266
  0
LINE
  5
804
100
AcDbEntity
  8
0
100
AcDbLine
 62
7
  6
CONTINUOUS
 10
11.3225237935
 20
10.5174524912
 11
11.3169694668
 21
10.5178632681
  0
LINE
  5
805
100
AcDbEntity
  8
0
100
AcDbLine
 62
7
  6
CONTINUOUS
 10
11.2790554607
 20
10.520464198
 11
11.2733166454
 21
10.5208281394
  0
LINE
  5
806
100
AcDbEntity
  8
0
100
AcDbLine
 62
7
  6
CONTINUOUS
 10
10.9472427304
 20
10.5308155238
 11
10.9376923427
 21
10.5308232251
  0
LINE
  5
807
100
AcDbEntity
  8
0
100
AcDbLine
 62
7
  6
CONTINUOUS
 10
10.9376923427
 20
10.5308232251
 11
10.928141955
 21
10.5308155238
  0
LINE
  5
808
100
AcDbEntity
  8
0
100
AcDbLine
 62
7
  6
CONTINUOUS
 10
10.1718817447
 20
10.3426974382
 11
10.1683026163
 21
10.3451734711
  0
LINE
  5
809
100
AcDbEntity
  8
0
100
AcDbLine
 62
7
  6
CONTINUOUS
 10
10.1636095823
 20
10.3490837532
 11
10.1612156204
 21
10.351584558
  0
LINE
  5
80A
100
AcDbEntity
  8
0
100
AcDbLine
 62
7
  6
CONTINUOUS
 10
10.158392371
 20
10.3555260119
 11
10.1571930234
 21
10.358041719
  0
SPLINE
  5
80B
100
AcDbEntity
  8
0
100
AcDbSpline
 62
7
  6
CONTINUOUS
 70
0
 71
3
 72
17
 73
13
 74
0
 42
0.0000001
 43
0.0000001
 44
0.0000000001
 40
0.0
 40
0.0
 40
0.0
 40
0.0
 40
0.1893136159
 40
0.3568184954
 40
0.5037765745
 40
0.6316932209
 40
0.7424424131
 40
0.8384487963
 40
0.88193957
 40
0.9230103693
 40
0.9621650478
 40
1.0
 40
1.0
 40
1.0
 40
1.0
 10
11.7292268402
 20
11.3029487852
 30
0.0
 10
11.7263197413
 20
11.3159778976
 30
0.0
 10
11.7203624518
 20
11.3404341242
 30
0.0
 10
11.7101833895
 20
11.3744884795
 30
0.0
 10
11.6993105674
 20
11.403756123
 30
0.0
 10
11.6877185812
 20
11.4284007243
 30
0.0
 10
11.6753764527
 20
11.4485804493
 30
0.0
 10
11.6640522276
 20
11.4622329844
 30
0.0
 10
11.6545880547
 20
11.4707798372
 30
0.0
 10
11.6475264209
 20
11.475933295
 30
0.0
 10
11.6402540977
 20
11.4800267358
 30
0.0
 10
11.6351979949
 20
11.4820576031
 30
0.0
 10
11.6326583243
 20
11.4828749036
 30
0.0
  0
LINE
  5
80C
100
AcDbEntity
  8
0
100
AcDbLine
 62
7
  6
CONTINUOUS
 10
11.6722635143
 20
10.7631759782
 11
11.7228414625
 21
10.5117767076
  0
LINE
  5
80D
100
AcDbEntity
  8
0
100
AcDbLine
 62
7
  6
CONTINUOUS
 10
10.928141955
 20
10.4663840107
 11
10.9376923427
 21
10.4663917121
  0
LINE
  5
80E
100
AcDbEntity
  8
0
100
AcDbLine
 62
7
  6
CONTINUOUS
 10
10.9376923427
 20
10.4663917121
 11
10.9472427304
 21
10.4663840107
  0
SPLINE
  5
80F
100
AcDbEntity
  8
0
100
AcDbSpline
 62
9
  6
CONTINUOUS
 70
0
 71
3
 72
30
 73
26
 74
0
 42
0.0000001
 43
0.0000001
 44
0.0000000001
 40
0.0
 40
0.0
 40
0.0
 40
0.0
 40
0.0032880297
 40
0.0065102
 40
0.0097806431
 40
0.0132084143
 40
0.0208790367
 40
0.0300907412
 40
0.0411483289
 40
0.0542152599
 40
0.0693726397
 40
0.0866558798
 40
0.1060704486
 40
0.1276014894
 40
0.1512205704
 40
0.1768860319
 40
0.2341474359
 40
0.2988972357
 40
0.3705397491
 40
0.4483936799
 40
0.5317052135
 40
0.6196585278
 40
0.711387961
 40
0.80598292
 40
1.0
 40
1.0
 40
1.0
 40
1.0
 10
11.5413734528
 20
10.0351047835
 30
0.0
 10
11.5415702074
 20
10.0357583011
 30
0.0
 10
11.5418489167
 20
10.0370897245
 30
0.0
 10
11.5418796847
 20
10.0391318477
 30
0.0
 10
11.5415144756
 20
10.0411707625
 30
0.0
 10
11.5404674025
 20
10.0439784922
 30
0.0
 10
11.5380466207
 20
10.0475010961
 30
0.0
 10
11.53377448
 20
10.0514626628
 30
0.0
 10
11.5280430607
 20
10.0553727852
 30
0.0
 10
11.5208496643
 20
10.0592339681
 30
0.0
 10
11.5121997673
 20
10.0630470217
 30
0.0
 10
11.5021074086
 20
10.0668020946
 30
0.0
 10
11.4905936696
 20
10.0704899364
 30
0.0
 10
11.4776849472
 20
10.0741004956
 30
0.0
 10
11.4634123428
 20
10.0776238976
 30
0.0
 10
11.4418093974
 20
10.0823676014
 30
0.0
 10
11.4116552438
 20
10.0879240071
 30
0.0
 10
11.3718998545
 20
10.0938979506
 30
0.0
 10
11.3277571695
 20
10.0993285133
 30
0.0
 10
11.2796719598
 20
10.1041578857
 30
0.0
 10
11.2281286107
 20
10.10833366
 30
0.0
 10
11.1736476466
 20
10.1118116401
 30
0.0
 10
11.116779922
 20
10.114555351
 30
0.0
 10
11.0378757973
 20
10.1172173089
 30
0.0
 10
10.9779643116
 20
10.1179985404
 30
0.0
 10
10.9376923427
 20
10.1179985404
 30
0.0
  0
SPLINE
  5
810
100
AcDbEntity
  8
0
100
AcDbSpline
 62
7
  6
CONTINUOUS
 70
0
 71
3
 72
15
 73
11
 74
0
 42
0.0000001
 43
0.0000001
 44
0.0000000001
 40
0.0
 40
0.0
 40
0.0
 40
0.0
 40
0.1008190069
 40
0.2027517627
 40
0.3090951914
 40
0.4229257712
 40
0.5469154694
 40
0.6832808031
 40
0.8338222922
 40
1.0
 40
1.0
 40
1.0
 40
1.0
 10
11.6326583243
 20
11.4828749036
 30
0.0
 10
11.6295444947
 20
11.4838769762
 30
0.0
 10
11.6230909708
 20
11.4853502223
 30
0.0
 10
11.6130203482
 20
11.4857852512
 30
0.0
 10
11.6026105227
 20
11.4844138265
 30
0.0
 10
11.5918672201
 20
11.4812257897
 30
0.0
 10
11.5807756357
 20
11.4762123236
 30
0.0
 10
11.5693138023
 20
11.4693563393
 30
0.0
 10
11.5574585528
 20
11.460634072
 30
0.0
 10
11.5496800776
 20
11.453903276
 30
0.0
 10
11.5457150794
 20
11.4502496503
 30
0.0
  0
LINE
  5
811
100
AcDbEntity
  8
0
100
AcDbLine
 62
7
  6
CONTINUOUS
 10
10.1612156204
 20
10.3749337026
 11
10.1636095823
 21
10.3774345074
  0
LINE
  5
812
100
AcDbEntity
  8
0
100
AcDbLine
 62
7
  6
CONTINUOUS
 10
10.1683026163
 20
10.3813447895
 11
10.1718817447
 21
10.3838208224
  0
SPLINE
  5
813
100
AcDbEntity
  8
0
100
AcDbSpline
 62
9
  6
CONTINUOUS
 70
0
 71
3
 72
27
 73
23
 74
0
 42
0.0000001
 43
0.0000001
 44
0.0000000001
 40
0.0
 40
0.0
 40
0.0
 40
0.0
 40
0.0031721024
 40
0.0064493506
 40
0.0136663534
 40
0.0222478001
 40
0.032529108
 40
0.0446937863
 40
0.0588380811
 40
0.0750065691
 40
0.0932143313
 40
0.1134531791
 40
0.1357024599
 40
0.186083347
 40
0.2439905226
 40
0.3089401735
 40
0.3803588646
 40
0.4575977003
 40
0.539943641
 40
0.6266286322
 40
0.8097225111
 40
1.0
 40
1.0
 40
1.0
 40
1.0
 10
10.3126923427
 20
10.1798771316
 30
0.0
 10
10.3126923429
 20
10.1805547636
 30
0.0
 10
10.3128230551
 20
10.181935703
 30
0.0
 10
10.3136236563
 20
10.1847576574
 30
0.0
 10
10.3157210737
 20
10.1883252019
 30
0.0
 10
10.3196239968
 20
10.1923445979
 30
0.0
 10
10.3249635934
 20
10.1963062782
 30
0.0
 10
10.331743846
 20
10.2002192161
 30
0.0
 10
10.3399614839
 20
10.2040860805
 30
0.0
 10
10.3496052363
 20
10.2078994554
 30
0.0
 10
10.3606570226
 20
10.2116496653
 30
0.0
 10
10.3730930936
 20
10.2153283669
 30
0.0
 10
10.3922932652
 20
10.2203329613
 30
0.0
 10
10.4195595069
 20
10.2262332156
 30
0.0
 10
10.4560146541
 20
10.232639598
 30
0.0
 10
10.4970973099
 20
10.2385606082
 30
0.0
 10
10.5424148111
 20
10.2439357011
 30
0.0
 10
10.5915341692
 20
10.2487085467
 30
0.0
 10
10.6439837987
 20
10.2528312425
 30
0.0
 10
10.7190640144
 20
10.2574890153
 30
0.0
 10
10.8172808392
 20
10.261338442
 30
0.0
 10
10.8970448171
 20
10.2623568035
 30
0.0
 10
10.9376923427
 20
10.2623568035
 30
0.0
  0
SPLINE
  5
814
100
AcDbEntity
  8
0
100
AcDbSpline
 62
7
  6
CONTINUOUS
 70
0
 71
3
 72
30
 73
26
 74
0
 42
0.0000001
 43
0.0000001
 44
0.0000000001
 40
0.0
 40
0.0
 40
0.0
 40
0.0
 40
0.0031720938
 40
0.0064497526
 40
0.013668275
 40
0.0222486408
 40
0.0325265516
 40
0.0383669948
 40
0.0446944086
 40
0.0515180552
 40
0.058843811
 40
0.0750133434
 40
0.0932177105
 40
0.1134533166
 40
0.1357039024
 40
0.1599318417
 40
0.1860899491
 40
0.2439902082
 40
0.3089400426
 40
0.3803530517
 40
0.4575983588
 40
0.5399426595
 40
0.6266136712
 40
0.8097405616
 40
1.0
 40
1.0
 40
1.0
 40
1.0
 10
11.5626903274
 20
10.3632591303
 30
0.0
 10
11.5626902924
 20
10.3639367628
 30
0.0
 10
11.5625591047
 20
10.365317793
 30
0.0
 10
11.5617566638
 20
10.3681396796
 30
0.0
 10
11.5596574394
 20
10.3717062197
 30
0.0
 10
11.5557562591
 20
10.3757257931
 30
0.0
 10
11.5515063604
 20
10.378881848
 30
0.0
 10
11.5474315061
 20
10.3814110189
 30
0.0
 10
11.5438799179
 20
10.3833756705
 30
0.0
 10
11.5399644879
 20
10.3853284426
 30
0.0
 10
11.5340645803
 20
10.3880035909
 30
0.0
 10
11.5257752691
 20
10.3912802081
 30
0.0
 10
11.5147253909
 20
10.395031347
 30
0.0
 10
11.5022903799
 20
10.3987101524
 30
0.0
 10
11.4884976265
 20
10.4023057912
 30
0.0
 10
11.473380141
 20
10.4058108561
 30
0.0
 10
11.4507287492
 20
10.4105121755
 30
0.0
 10
11.4193697477
 20
10.416020871
 30
0.0
 10
11.3782903332
 20
10.4219410319
 30
0.0
 10
11.3329724068
 20
10.4273178466
 30
0.0
 10
11.2838529411
 20
10.4320887943
 30
0.0
 10
11.2314051682
 20
10.4362125972
 30
0.0
 10
11.1563210172
 20
10.4408713154
 30
0.0
 10
11.058103587
 20
10.4447195628
 30
0.0
 10
10.9783361549
 20
10.4457388022
 30
0.0
 10
10.9376923427
 20
10.4457388022
 30
0.0
  0
LINE
  5
815
100
AcDbEntity
  8
0
100
AcDbLine
 62
7
  6
CONTINUOUS
 10
11.7117751032
 20
10.3774345074
 11
11.7134225512
 21
10.3757681529
  0
SPLINE
  5
816
100
AcDbEntity
  8
0
100
AcDbSpline
 62
7
  6
CONTINUOUS
 70
0
 71
3
 72
30
 73
26
 74
0
 42
0.0000001
 43
0.0000001
 44
0.0000000001
 40
0.0
 40
0.0
 40
0.0
 40
0.0
 40
0.1902585007
 40
0.3733810959
 40
0.4600509934
 40
0.542394923
 40
0.6196393483
 40
0.691052535
 40
0.7560031213
 40
0.8139043836
 40
0.8400636049
 40
0.8642924747
 40
0.8865433748
 40
0.9067794145
 40
0.9249846214
 40
0.9411549864
 40
0.9484810327
 40
0.9553048249
 40
0.9616322024
 40
0.967472624
 40
0.9777507892
 40
0.9863315109
 40
0.9935502219
 40
0.9968278981
 40
1.0
 40
1.0
 40
1.0
 40
1.0
 10
10.9376923427
 20
10.4457388022
 30
0.0
 10
10.8970487254
 20
10.4457388022
 30
0.0
 10
10.8172824013
 20
10.4447196022
 30
0.0
 10
10.7190663084
 20
10.4408714927
 30
0.0
 10
10.6439833831
 20
10.436212821
 30
0.0
 10
10.5915360891
 20
10.4320892874
 30
0.0
 10
10.5424168469
 20
10.4273183388
 30
0.0
 10
10.4970988901
 20
10.4219416635
 30
0.0
 10
10.4560190296
 20
10.416021643
 30
0.0
 10
10.4246594318
 20
10.410512786
 30
0.0
 10
10.4020073569
 20
10.4058115454
 30
0.0
 10
10.3868893449
 20
10.4023065057
 30
0.0
 10
10.373096255
 20
10.398710724
 30
0.0
 10
10.3606609263
 20
10.3950317957
 30
0.0
 10
10.349610583
 20
10.3912806282
 30
0.0
 10
10.3413208288
 20
10.3880039859
 30
0.0
 10
10.3354206452
 20
10.3853287875
 30
0.0
 10
10.3315051292
 20
10.3833759927
 30
0.0
 10
10.3279535593
 20
10.3814112664
 30
0.0
 10
10.3238787141
 20
10.3788820014
 30
0.0
 10
10.3196287022
 20
10.3757258978
 30
0.0
 10
10.3157272781
 20
10.3717063373
 30
0.0
 10
10.3136278416
 20
10.3681397635
 30
0.0
 10
10.3128254171
 20
10.3653178159
 30
0.0
 10
10.3126943231
 20
10.3639367646
 30
0.0
 10
10.3126943581
 20
10.3632591303
 30
0.0
  0
SPLINE
  5
817
100
AcDbEntity
  8
0
100
AcDbSpline
 62
9
  6
CONTINUOUS
 70
0
 71
3
 72
30
 73
26
 74
0
 42
0.0000001
 43
0.0000001
 44
0.0000000001
 40
0.0
 40
0.0
 40
0.0
 40
0.0
 40
0.1940170655
 40
0.2886120021
 40
0.3803414147
 40
0.4682947278
 40
0.5516062799
 40
0.6294602323
 40
0.7011027529
 40
0.7658525504
 40
0.8231139536
 40
0.8487794155
 40
0.8723984984
 40
0.8939295394
 40
0.9133441112
 40
0.9306273518
 40
0.9457847351
 40
0.9588516671
 40
0.9699092568
 40
0.979120962
 40
0.9867915849
 40
0.9902193564
 40
0.9934897997
 40
0.9967119702
 40
1.0
 40
1.0
 40
1.0
 40
1.0
 10
10.9376923427
 20
10.1179985404
 30
0.0
 10
10.8974203768
 20
10.1179985404
 30
0.0
 10
10.8375088988
 20
10.117217309
 30
0.0
 10
10.758604786
 20
10.1145553519
 30
0.0
 10
10.7017370706
 20
10.1118116419
 30
0.0
 10
10.6472561071
 20
10.1083336624
 30
0.0
 10
10.5957127499
 20
10.1041578878
 30
0.0
 10
10.5476275304
 20
10.0993285149
 30
0.0
 10
10.5034848399
 20
10.0938979518
 30
0.0
 10
10.4637294497
 20
10.0879240083
 30
0.0
 10
10.4335752965
 20
10.0823676033
 30
0.0
 10
10.4119723509
 20
10.0776238993
 30
0.0
 10
10.3976997458
 20
10.074100498
 30
0.0
 10
10.3847910225
 20
10.0704899379
 30
0.0
 10
10.3732772824
 20
10.0668020972
 30
0.0
 10
10.3631849227
 20
10.0630470228
 30
0.0
 10
10.3545350241
 20
10.0592339702
 30
0.0
 10
10.3473416269
 20
10.0553727859
 30
0.0
 10
10.3416102065
 20
10.0514626638
 30
0.0
 10
10.3373380652
 20
10.0475010967
 30
0.0
 10
10.3349172835
 20
10.0439784924
 30
0.0
 10
10.3338702094
 20
10.0411707629
 30
0.0
 10
10.3335050002
 20
10.0391318479
 30
0.0
 10
10.3335357695
 20
10.0370897246
 30
0.0
 10
10.3338144786
 20
10.0357583011
 30
0.0
 10
10.3340112331
 20
10.0351047835
 30
0.0
  0
SPLINE
  5
818
100
AcDbEntity
  8
0
100
AcDbSpline
 62
9
  6
CONTINUOUS
 70
0
 71
3
 72
27
 73
23
 74
0
 42
0.0000001
 43
0.0000001
 44
0.0000000001
 40
0.0
 40
0.0
 40
0.0
 40
0.0
 40
0.1900881737
 40
0.3730634976
 40
0.4596750427
 40
0.5419740833
 40
0.6191893568
 40
0.6905906966
 40
0.7555482855
 40
0.8134765782
 40
0.8639085595
 40
0.886190878
 40
0.9064631724
 40
0.9247091139
 40
0.9409243349
 40
0.9551200625
 40
0.9673344927
 40
0.9776626412
 40
0.9862886507
 40
0.9935404743
 40
0.9968265782
 40
1.0
 40
1.0
 40
1.0
 40
1.0
 10
10.9376923427
 20
10.1096534904
 30
0.0
 10
10.9763134732
 20
10.1096534904
 30
0.0
 10
11.0521138872
 20
10.1086860439
 30
0.0
 10
11.1454500168
 20
10.1050333901
 30
0.0
 10
11.2168101879
 20
10.1006114705
 30
0.0
 10
11.266665853
 20
10.0966970823
 30
0.0
 10
11.3133660375
 20
10.0921680718
 30
0.0
 10
11.3564613142
 20
10.0870632392
 30
0.0
 10
11.395538838
 20
10.0814436458
 30
0.0
 10
11.4302290506
 20
10.0753588584
 30
0.0
 10
11.4561856905
 20
10.0697571613
 30
0.0
 10
11.4744737987
 20
10.0650060993
 30
0.0
 10
11.4863251864
 20
10.0615119276
 30
0.0
 10
11.4968632526
 20
10.0579494097
 30
0.0
 10
11.5060670408
 20
10.0543276293
 30
0.0
 10
11.5139184896
 20
10.0506554916
 30
0.0
 10
11.5204044095
 20
10.0469387059
 30
0.0
 10
11.5255211166
 20
10.043174715
 30
0.0
 10
11.5292742304
 20
10.0393575644
 30
0.0
 10
11.5313129172
 20
10.035971259
 30
0.0
 10
11.5321120745
 20
10.0332889339
 30
0.0
 10
11.5322549195
 20
10.0319753444
 30
0.0
 10
11.5322637364
 20
10.0313306453
 30
0.0
  0
SPLINE
  5
819
100
AcDbEntity
  8
0
100
AcDbSpline
 62
9
  6
CONTINUOUS
 70
0
 71
3
 72
13
 73
9
 74
0
 42
0.0000001
 43
0.0000001
 44
0.0000000001
 40
0.0
 40
0.0
 40
0.0
 40
0.0
 40
0.0929556304
 40
0.1896627231
 40
0.2936705614
 40
0.407818628
 40
0.6741249105
 40
1.0
 40
1.0
 40
1.0
 40
1.0
 10
11.5322637364
 20
10.0313306453
 30
0.0
 10
11.5322737913
 20
10.0305954308
 30
0.0
 10
11.5321308679
 20
10.0290885603
 30
0.0
 10
11.531434752
 20
10.0268575532
 30
0.0
 10
11.5302677322
 20
10.0246438454
 30
0.0
 10
11.5279755165
 20
10.0215578364
 30
0.0
 10
11.5238101611
 20
10.0177671034
 30
0.0
 10
11.5198776859
 20
10.0152004827
 30
0.0
 10
11.5176519856
 20
10.0139002034
 30
0.0
  0
SPLINE
  5
81A
100
AcDbEntity
  8
0
100
AcDbSpline
 62
9
  6
CONTINUOUS
 70
0
 71
3
 72
11
 73
7
 74
0
 42
0.0000001
 43
0.0000001
 44
0.0000000001
 40
0.0
 40
0.0
 40
0.0
 40
0.0
 40
0.2014769968
 40
0.4351204134
 40
0.7012888005
 40
1.0
 40
1.0
 40
1.0
 40
1.0
 10
11.5176519856
 20
10.0139002034
 30
0.0
 10
11.5152045939
 20
10.0124704093
 30
0.0
 10
11.5097474835
 20
10.009675377
 30
0.0
 10
11.5006517692
 20
10.0058393421
 30
0.0
 10
11.4900661369
 20
10.0020640305
 30
0.0
 10
11.482467504
 20
9.9997292762
 30
0.0
 10
11.4784300243
 20
9.9985637022
 30
0.0
  0
SPLINE
  5
81B
100
AcDbEntity
  8
0
100
AcDbSpline
 62
9
  6
CONTINUOUS
 70
0
 71
3
 72
9
 73
5
 74
0
 42
0.0000001
 43
0.0000001
 44
0.0000000001
 40
0.0
 40
0.0
 40
0.0
 40
0.0
 40
0.4671957751
 40
1.0
 40
1.0
 40
1.0
 40
1.0
 10
11.4699321693
 20
9.9962146683
 30
0.0
 10
11.4618089295
 20
9.9940620883
 30
0.0
 10
11.4442930937
 20
9.9899382158
 30
0.0
 10
11.4266350276
 20
9.9864945282
 30
0.0
 10
11.4172029484
 20
9.9847963683
 30
0.0
  0
SPLINE
  5
81C
100
AcDbEntity
  8
0
100
AcDbSpline
 62
9
  6
CONTINUOUS
 70
0
 71
3
 72
9
 73
5
 74
0
 42
0.0000001
 43
0.0000001
 44
0.0000000001
 40
0.0
 40
0.0
 40
0.0
 40
0.0
 40
0.4802343828
 40
1.0
 40
1.0
 40
1.0
 40
1.0
 10
11.3958613134
 20
9.9811808773
 30
0.0
 10
11.3853491631
 20
9.9795037446
 30
0.0
 10
11.3634135356
 20
9.9762971725
 30
0.0
 10
11.3414162594
 20
9.9735517684
 30
0.0
 10
11.3299714824
 20
9.9722255297
 30
0.0
  0
SPLINE
  5
81D
100
AcDbEntity
  8
0
100
AcDbSpline
 62
9
  6
CONTINUOUS
 70
0
 71
3
 72
9
 73
5
 74
0
 42
0.0000001
 43
0.0000001
 44
0.0000000001
 40
0.0
 40
0.0
 40
0.0
 40
0.0
 40
0.5197647229
 40
1.0
 40
1.0
 40
1.0
 40
1.0
 10
10.5472256069
 20
9.9720163532
 30
0.0
 10
10.5356621026
 20
9.9733454403
 30
0.0
 10
10.5134364033
 20
9.9760983163
 30
0.0
 10
10.4912725361
 20
9.9793170498
 30
0.0
 10
10.480650855
 20
9.9810014613
 30
0.0
  0
SPLINE
  5
81E
100
AcDbEntity
  8
0
100
AcDbSpline
 62
9
  6
CONTINUOUS
 70
0
 71
3
 72
9
 73
5
 74
0
 42
0.0000001
 43
0.0000001
 44
0.0000000001
 40
0.0
 40
0.0
 40
0.0
 40
0.0
 40
0.5327108369
 40
1.0
 40
1.0
 40
1.0
 40
1.0
 10
10.4597889073
 20
9.9845084058
 30
0.0
 10
10.4502439302
 20
9.9862105695
 30
0.0
 10
10.4323706713
 20
9.9896638877
 30
0.0
 10
10.4146390863
 20
9.9938009437
 30
0.0
 10
10.406413145
 20
9.9959611643
 30
0.0
  0
SPLINE
  5
81F
100
AcDbEntity
  8
0
100
AcDbSpline
 62
9
  6
CONTINUOUS
 70
0
 71
3
 72
11
 73
7
 74
0
 42
0.0000001
 43
0.0000001
 44
0.0000000001
 40
0.0
 40
0.0
 40
0.0
 40
0.0
 40
0.298293493
 40
0.5643432877
 40
0.7981401399
 40
1.0
 40
1.0
 40
1.0
 40
1.0
 10
10.3979781215
 20
9.9982698439
 30
0.0
 10
10.3938976751
 20
9.9994351029
 30
0.0
 10
10.3862138118
 20
10.0017697988
 30
0.0
 10
10.3755000555
 20
10.0055442756
 30
0.0
 10
10.3662780831
 20
10.0093804423
 30
0.0
 10
10.3607352349
 20
10.0121745059
 30
0.0
 10
10.3582445218
 20
10.013603822
 30
0.0
  0
SPLINE
  5
820
100
AcDbEntity
  8
0
100
AcDbSpline
 62
9
  6
CONTINUOUS
 70
0
 71
3
 72
13
 73
9
 74
0
 42
0.0000001
 43
0.0000001
 44
0.0000000001
 40
0.0
 40
0.0
 40
0.0
 40
0.0
 40
0.32633829
 40
0.5932458905
 40
0.7075679224
 40
0.8115374333
 40
0.907870455
 40
1.0
 40
1.0
 40
1.0
 40
1.0
 10
10.3582445218
 20
10.013603822
 30
0.0
 10
10.3559764605
 20
10.0149053675
 30
0.0
 10
10.3519632454
 20
10.0174744488
 30
0.0
 10
10.3476881002
 20
10.021264157
 30
0.0
 10
10.3453062472
 20
10.0243517533
 30
0.0
 10
10.3440762546
 20
10.0265656586
 30
0.0
 10
10.3433169395
 20
10.028797081
 30
0.0
 10
10.3431310443
 20
10.0303092299
 30
0.0
 10
10.343120949
 20
10.0310474039
 30
0.0
  0
SPLINE
  5
821
100
AcDbEntity
  8
0
100
AcDbSpline
 62
9
  6
CONTINUOUS
 70
0
 71
3
 72
27
 73
23
 74
0
 42
0.0000001
 43
0.0000001
 44
0.0000000001
 40
0.0
 40
0.0
 40
0.0
 40
0.0
 40
0.0031713905
 40
0.0064411572
 40
0.0136273304
 40
0.0221628551
 40
0.0323910707
 40
0.0445048286
 40
0.0586037292
 40
0.074728675
 40
0.092892586
 40
0.1130922161
 40
0.1353116979
 40
0.1856477199
 40
0.2435217993
 40
0.3084656814
 40
0.3798918203
 40
0.4571678783
 40
0.5395588263
 40
0.6262898452
 40
0.8095669305
 40
1.0
 40
1.0
 40
1.0
 40
1.0
 10
10.343120949
 20
10.0310474039
 30
0.0
 10
10.3431121337
 20
10.0316919878
 30
0.0
 10
10.3432187896
 20
10.0330059741
 30
0.0
 10
10.3439462766
 20
10.0356926559
 30
0.0
 10
10.3459016054
 20
10.039092114
 30
0.0
 10
10.3495713008
 20
10.0429233642
 30
0.0
 10
10.3546101622
 20
10.0466990452
 30
0.0
 10
10.3610244329
 20
10.0504268028
 30
0.0
 10
10.3688106761
 20
10.0541100534
 30
0.0
 10
10.3779562013
 20
10.0577432122
 30
0.0
 10
10.3884432435
 20
10.0613173782
 30
0.0
 10
10.4002510317
 20
10.0648233724
 30
0.0
 10
10.418494855
 20
10.0695926075
 30
0.0
 10
10.4444153094
 20
10.0752157146
 30
0.0
 10
10.4790842708
 20
10.0813233517
 30
0.0
 10
10.5181682101
 20
10.0869652321
 30
0.0
 10
10.561295916
 20
10.092091127
 30
0.0
 10
10.6080522812
 20
10.0966392938
 30
0.0
 10
10.6579852731
 20
10.1005708243
 30
0.0
 10
10.729481808
 20
10.1050127032
 30
0.0
 10
10.8230163987
 20
10.1086817373
 30
0.0
 10
10.8989832747
 20
10.1096534904
 30
0.0
 10
10.9376923427
 20
10.1096534904
 30
0.0
  0
SPLINE
  5
822
100
AcDbEntity
  8
0
100
AcDbSpline
 62
9
  6
CONTINUOUS
 70
0
 71
3
 72
27
 73
23
 74
0
 42
0.0000001
 43
0.0000001
 44
0.0000000001
 40
0.0
 40
0.0
 40
0.0
 40
0.0
 40
0.190277476
 40
0.373371312
 40
0.4600562992
 40
0.5424022563
 40
0.6196411148
 40
0.6910598159
 40
0.7560094659
 40
0.8139166398
 40
0.8642975278
 40
0.8865468089
 40
0.9067856586
 40
0.9249934228
 40
0.9411619121
 40
0.9553062101
 40
0.9674708888
 40
0.9777521989
 40
0.9863336455
 40
0.9935506491
 40
0.9968278975
 40
1.0
 40
1.0
 40
1.0
 40
1.0
 10
10.9376923427
 20
10.2623568035
 30
0.0
 10
10.9783398656
 20
10.2623568035
 30
0.0
 10
11.0581038316
 20
10.2613384423
 30
0.0
 10
11.1563206436
 20
10.2574890166
 30
0.0
 10
11.2314008529
 20
10.2528312448
 30
0.0
 10
11.28385049
 20
10.2487085489
 30
0.0
 10
11.3329698586
 20
10.2439357028
 30
0.0
 10
11.3782873666
 20
10.2385606094
 30
0.0
 10
11.419370024
 20
10.2326395993
 30
0.0
 10
11.4558251709
 20
10.2262332171
 30
0.0
 10
11.4830914126
 20
10.2203329634
 30
0.0
 10
11.5022915848
 20
10.2153283687
 30
0.0
 10
11.5147276568
 20
10.2116496672
 30
0.0
 10
11.5257794443
 20
10.2078994576
 30
0.0
 10
11.5354231977
 20
10.2040860816
 30
0.0
 10
11.5436408373
 20
10.2002192181
 30
0.0
 10
11.5504210903
 20
10.1963062785
 30
0.0
 10
11.5557606884
 20
10.1923445992
 30
0.0
 10
11.559663611
 20
10.1883252018
 30
0.0
 10
11.5617610291
 20
10.1847576576
 30
0.0
 10
11.5625616311
 20
10.1819357032
 30
0.0
 10
11.5626923429
 20
10.1805547636
 30
0.0
 10
11.5626923427
 20
10.1798771316
 30
0.0
  0
SPLINE
  5
823
100
AcDbEntity
  8
0
100
AcDbSpline
 62
7
  6
CONTINUOUS
 70
0
 71
3
 72
16
 73
12
 74
0
 42
0.0000001
 43
0.0000001
 44
0.0000000001
 40
0.0
 40
0.0
 40
0.0
 40
0.0
 40
0.223913008
 40
0.4154765623
 40
0.5753402125
 40
0.7045753284
 40
0.8052448271
 40
0.8460795801
 40
0.8815685776
 40
0.9414081876
 40
1.0
 40
1.0
 40
1.0
 40
1.0
 10
10.2033446998
 20
10.7631068918
 30
0.0
 10
10.2036654211
 20
10.7647366956
 30
0.0
 10
10.2043133081
 20
10.7677511272
 30
0.0
 10
10.2054099792
 20
10.7718777514
 30
0.0
 10
10.2065458914
 20
10.7752619492
 30
0.0
 10
10.2077144116
 20
10.7779109325
 30
0.0
 10
10.2087744134
 20
10.7796327066
 30
0.0
 10
10.209664367
 20
10.7806053246
 30
0.0
 10
10.2104551531
 20
10.7812362051
 30
0.0
 10
10.2115749506
 20
10.7816646467
 30
0.0
 10
10.2124782021
 20
10.7814360222
 30
0.0
 10
10.2128676178
 20
10.7812429444
 30
0.0
  0
SPLINE
  5
824
100
AcDbEntity
  8
0
100
AcDbSpline
 62
7
  6
CONTINUOUS
 70
0
 71
3
 72
16
 73
12
 74
0
 42
0.0000001
 43
0.0000001
 44
0.0000000001
 40
0.0
 40
0.0
 40
0.0
 40
0.0
 40
0.2236542001
 40
0.415176094
 40
0.5751376908
 40
0.7045273927
 40
0.8053350783
 40
0.8462124439
 40
0.8817173199
 40
0.9415018887
 40
1.0
 40
1.0
 40
1.0
 40
1.0
 10
11.6720726809
 20
10.7629852028
 30
0.0
 10
11.6717505808
 20
10.7646219728
 30
0.0
 10
11.6710999335
 20
10.7676506514
 30
0.0
 10
11.6699993626
 20
10.771798671
 30
0.0
 10
11.6688595618
 20
10.7752036503
 30
0.0
 10
11.6676870865
 20
10.7778712242
 30
0.0
 10
11.6666236438
 20
10.7796066014
 30
0.0
 10
11.6657304701
 20
10.7805879743
 30
0.0
 10
11.6649372974
 20
10.7812246121
 30
0.0
 10
11.6638131531
 20
10.7816582585
 30
0.0
 10
11.6629057191
 20
10.7814282965
 30
0.0
 10
11.6625149995
 20
10.7812341021
 30
0.0
  0
SPLINE
  5
825
100
AcDbEntity
  8
0
100
AcDbSpline
 62
9
  6
CONTINUOUS
 70
0
 71
3
 72
27
 73
23
 74
0
 42
0.0000001
 43
0.0000001
 44
0.0000000001
 40
0.0
 40
0.0
 40
0.0
 40
0.0
 40
0.0107019669
 40
0.0218978881
 40
0.0340499407
 40
0.0474942869
 40
0.0624557784
 40
0.0790762288
 40
0.097439936
 40
0.1175922922
 40
0.139548182
 40
0.1632871372
 40
0.1887706369
 40
0.2159503108
 40
0.275167873
 40
0.3404462485
 40
0.411216991
 40
0.4867992025
 40
0.5664711341
 40
0.6494977654
 40
0.8226082973
 40
1.0
 40
1.0
 40
1.0
 40
1.0
 10
11.6272183197
 20
10.9957676954
 30
0.0
 10
11.6267471528
 20
10.9982633803
 30
0.0
 10
11.6251597726
 20
11.0032708673
 30
0.0
 10
11.6210241114
 20
11.0102781094
 30
0.0
 10
11.6152087124
 20
11.0168495532
 30
0.0
 10
11.6077771772
 20
11.0230125352
 30
0.0
 10
11.5987690125
 20
11.0287980819
 30
0.0
 10
11.588215569
 20
11.0342254595
 30
0.0
 10
11.576146917
 20
11.0393075689
 30
0.0
 10
11.5625951868
 20
11.044052722
 30
0.0
 10
11.5475991348
 20
11.0484666199
 30
0.0
 10
11.5312071125
 20
11.0525619929
 30
0.0
 10
11.51347238
 20
11.0563494031
 30
0.0
 10
11.4873534631
 20
11.0611384237
 30
0.0
 10
11.4517165687
 20
11.0662937799
 30
0.0
 10
11.4056373281
 20
11.071269597
 30
0.0
 10
11.3555676175
 20
11.075268691
 30
0.0
 10
11.3020159582
 20
11.0783954967
 30
0.0
 10
11.2455145761
 20
11.0807503886
 30
0.0
 10
11.1658517216
 20
11.0830260383
 30
0.0
 10
11.0629713974
 20
11.0843866489
 30
0.0
 10
10.9797906289
 20
11.0845605855
 30
0.0
 10
10.9376923428
 20
11.0845605855
 30
0.0
  0
SPLINE
  5
826
100
AcDbEntity
  8
0
100
AcDbSpline
 62
9
  6
CONTINUOUS
 70
0
 71
3
 72
27
 73
23
 74
0
 42
0.0000001
 43
0.0000001
 44
0.0000000001
 40
0.0
 40
0.0
 40
0.0
 40
0.0
 40
0.1773917178
 40
0.3505022612
 40
0.433528897
 40
0.5132008324
 40
0.5887830468
 40
0.6595537916
 40
0.7248321685
 40
0.7840497311
 40
0.8112294048
 40
0.8367129039
 40
0.8604518582
 40
0.8824077465
 40
0.9025601008
 40
0.9209238055
 40
0.9375442526
 40
0.9525057399
 40
0.9659500809
 40
0.9781021272
 40
0.9892980411
 40
1.0
 40
1.0
 40
1.0
 40
1.0
 10
10.9376923428
 20
11.0845607861
 30
0.0
 10
10.8955940572
 20
11.0845607861
 30
0.0
 10
10.8124132905
 20
11.0843868509
 30
0.0
 10
10.7095329687
 20
11.0830262454
 30
0.0
 10
10.6298701171
 20
11.0807506016
 30
0.0
 10
10.5733687376
 20
11.0783957151
 30
0.0
 10
10.519817081
 20
11.0752689156
 30
0.0
 10
10.4697473732
 20
11.0712698287
 30
0.0
 10
10.4236681352
 20
11.0662940194
 30
0.0
 10
10.3880312429
 20
11.0611386707
 30
0.0
 10
10.3619123275
 20
11.0563496565
 30
0.0
 10
10.3441775962
 20
11.0525622512
 30
0.0
 10
10.3277855751
 20
11.0484668832
 30
0.0
 10
10.3127895241
 20
11.0440529905
 30
0.0
 10
10.2992377951
 20
11.0393078429
 30
0.0
 10
10.2871691441
 20
11.0342257391
 30
0.0
 10
10.2766157016
 20
11.0287983673
 30
0.0
 10
10.2676075378
 20
11.0230128265
 30
0.0
 10
10.2601760036
 20
11.0168498507
 30
0.0
 10
10.2543606055
 20
11.0102784131
 30
0.0
 10
10.2502249452
 20
11.0032711774
 30
0.0
 10
10.2486375655
 20
10.9982636945
 30
0.0
 10
10.2481663991
 20
10.9957680117
 30
0.0
  0
SPLINE
  5
827
100
AcDbEntity
  8
0
100
AcDbSpline
 62
7
  6
CONTINUOUS
 70
0
 71
3
 72
23
 73
19
 74
0
 42
0.0000001
 43
0.0000001
 44
0.0000000001
 40
0.0
 40
0.0
 40
0.0
 40
0.0
 40
0.1769116091
 40
0.3456606809
 40
0.5032434786
 40
0.5768481542
 40
0.64644422
 40
0.7116008046
 40
0.771818819
 40
0.8265848267
 40
0.8753919113
 40
0.9177148147
 40
0.9362520855
 40
0.952935789
 40
0.967696537
 40
0.9804768982
 40
0.9912415557
 40
1.0
 40
1.0
 40
1.0
 40
1.0
 10
10.9376923427
 20
11.3587088363
 30
0.0
 10
10.9011749421
 20
11.3587088363
 30
0.0
 10
10.8298151716
 20
11.3603996627
 30
0.0
 10
10.7261417757
 20
11.3673064445
 30
0.0
 10
10.6440249817
 20
11.3760070435
 30
0.0
 10
10.5825029476
 20
11.384385622
 30
0.0
 10
10.5400095616
 20
11.391040719
 30
0.0
 10
10.5003845677
 20
11.398096104
 30
0.0
 10
10.4639302584
 20
11.4054435268
 30
0.0
 10
10.4309648953
 20
11.4129701159
 30
0.0
 10
10.4018174567
 20
11.4205624525
 30
0.0
 10
10.3801324341
 20
11.4270893255
 30
0.0
 10
10.3650049317
 20
11.4323266227
 30
0.0
 10
10.3553688615
 20
11.4360193588
 30
0.0
 10
10.3469833181
 20
11.4396345662
 30
0.0
 10
10.3398968167
 20
11.4431556141
 30
0.0
 10
10.3341589231
 20
11.4465636545
 30
0.0
 10
10.3309255812
 20
11.4489983686
 30
0.0
 10
10.3295959403
 20
11.4502233171
 30
0.0
  0
SPLINE
  5
828
100
AcDbEntity
  8
0
100
AcDbSpline
 62
7
  6
CONTINUOUS
 70
0
 71
3
 72
15
 73
11
 74
0
 42
0.0000001
 43
0.0000001
 44
0.0000000001
 40
0.0
 40
0.0
 40
0.0
 40
0.0
 40
0.1661774144
 40
0.3167188278
 40
0.4530842567
 40
0.577074159
 40
0.69090497
 40
0.7972485577
 40
0.8991812922
 40
1.0
 40
1.0
 40
1.0
 40
1.0
 10
10.3296696612
 20
11.4502496646
 30
0.0
 10
10.3257047111
 20
11.4539032465
 30
0.0
 10
10.3179263282
 20
11.4606339686
 30
0.0
 10
10.3060712226
 20
11.4693561596
 30
0.0
 10
10.2946095243
 20
11.476212114
 30
0.0
 10
10.2835180671
 20
11.4812255959
 30
0.0
 10
10.2727748848
 20
11.4844136944
 30
0.0
 10
10.2623651725
 20
11.4857852272
 30
0.0
 10
10.2522946541
 20
11.4853503521
 30
0.0
 10
10.2458411823
 20
11.4838772347
 30
0.0
 10
10.2427273764
 20
11.4828752303
 30
0.0
  0
SPLINE
  5
829
100
AcDbEntity
  8
0
100
AcDbSpline
 62
7
  6
CONTINUOUS
 70
0
 71
3
 72
9
 73
5
 74
0
 42
0.0000001
 43
0.0000001
 44
0.0000000001
 40
0.0
 40
0.0
 40
0.0
 40
0.0
 40
0.2644942602
 40
1.0
 40
1.0
 40
1.0
 40
1.0
 10
9.834311014
 20
9.1232491411
 30
0.0
 10
9.8330094831
 20
9.118110145
 30
0.0
 10
9.8280210996
 20
9.0986979389
 30
0.0
 10
9.8227572202
 20
9.0793554673
 30
0.0
 10
9.818671757
 20
9.0651911696
 30
0.0
  0
SPLINE
  5
82A
100
AcDbEntity
  8
0
100
AcDbSpline
 62
9
  6
CONTINUOUS
 70
0
 71
3
 72
12
 73
8
 74
0
 42
0.0000001
 43
0.0000001
 44
0.0000000001
 40
0.0
 40
0.0
 40
0.0
 40
0.0
 40
0.2456100414
 40
0.3695720772
 40
0.4942726759
 40
0.7457577718
 40
1.0
 40
1.0
 40
1.0
 40
1.0
 10
9.818671757
 20
9.0651911696
 30
0.0
 10
9.8059870811
 20
9.1206789418
 30
0.0
 10
9.7912775569
 20
9.2052537637
 30
0.0
 10
9.7801964176
 20
9.31929424
 30
0.0
 10
9.7747229588
 20
9.4351172572
 30
0.0
 10
9.7786097159
 20
9.5814036757
 30
0.0
 10
9.7930439829
 20
9.697922932
 30
0.0
 10
9.8030786212
 20
9.7559818053
 30
0.0
  0
SPLINE
  5
82B
100
AcDbEntity
  8
0
100
AcDbSpline
 62
9
  6
CONTINUOUS
 70
0
 71
3
 72
17
 73
13
 74
0
 42
0.0000001
 43
0.0000001
 44
0.0000000001
 40
0.0
 40
0.0
 40
0.0
 40
0.0
 40
0.1436092999
 40
0.2852760813
 40
0.4229685033
 40
0.5549475312
 40
0.6795715467
 40
0.7954963266
 40
0.8498843036
 40
0.9018400465
 40
0.9514863457
 40
1.0
 40
1.0
 40
1.0
 40
1.0
 10
10.9376923427
 20
8.8670857356
 30
0.0
 10
10.8816822048
 20
8.8670725469
 30
0.0
 10
10.7704171261
 20
8.8681293656
 30
0.0
 10
10.605503653
 20
8.8725269211
 30
0.0
 10
10.4452152248
 20
8.8794128384
 30
0.0
 10
10.2916959411
 20
8.8885191662
 30
0.0
 10
10.1468156303
 20
8.8995441121
 30
0.0
 10
10.0322824754
 20
8.9103090709
 30
0.0
 10
9.9461031991
 20
8.9197034112
 30
0.0
 10
9.8856886864
 20
8.9268853762
 30
0.0
 10
9.8276228218
 20
8.9343886527
 30
0.0
 10
9.7896976188
 20
8.9396210751
 30
0.0
 10
9.7709610074
 20
8.9422574016
 30
0.0
  0
SPLINE
  5
82C
100
AcDbEntity
  8
0
100
AcDbSpline
 62
9
  6
CONTINUOUS
 70
0
 71
3
 72
12
 73
8
 74
0
 42
0.0000001
 43
0.0000001
 44
0.0000000001
 40
0.0
 40
0.0
 40
0.0
 40
0.0
 40
0.2823787236
 40
0.54282897
 40
0.6648556373
 40
0.7815299592
 40
1.0
 40
1.0
 40
1.0
 40
1.0
 10
9.8045886561
 20
9.9173341671
 30
0.0
 10
9.7939503149
 20
9.9104425115
 30
0.0
 10
9.7738255201
 20
9.8966818618
 30
0.0
 10
9.7501514804
 20
9.8784779797
 30
0.0
 10
9.7330990596
 20
9.863935411
 30
0.0
 10
9.717982829
 20
9.8500540711
 30
0.0
 10
9.7075298215
 20
9.8391899938
 30
0.0
 10
9.7011580463
 20
9.8317352411
 30
0.0
  0
SPLINE
  5
82D
100
AcDbEntity
  8
0
100
AcDbSpline
 62
9
  6
CONTINUOUS
 70
0
 71
3
 72
12
 73
8
 74
0
 42
0.0000001
 43
0.0000001
 44
0.0000000001
 40
0.0
 40
0.0
 40
0.0
 40
0.0
 40
0.249569555
 40
0.3746261604
 40
0.4997565472
 40
0.7500428497
 40
1.0
 40
1.0
 40
1.0
 40
1.0
 10
9.7011580463
 20
9.8317352411
 30
0.0
 10
9.6991750367
 20
9.7574792844
 30
0.0
 10
9.6970214783
 20
9.6459912824
 30
0.0
 10
9.6954448185
 20
9.4972507031
 30
0.0
 10
9.6946350093
 20
9.3482902672
 30
0.0
 10
9.6950662966
 20
9.1621497887
 30
0.0
 10
9.696988781
 20
9.0132649861
 30
0.0
 10
9.6983934006
 20
8.9388804519
 30
0.0
  0
SPLINE
  5
82E
100
AcDbEntity
  8
0
100
AcDbSpline
 62
9
  6
CONTINUOUS
 70
0
 71
3
 72
13
 73
9
 74
0
 42
0.0000001
 43
0.0000001
 44
0.0000000001
 40
0.0
 40
0.0
 40
0.0
 40
0.0
 40
0.2610333394
 40
0.5142821019
 40
0.6381874214
 40
0.760226878
 40
0.8806162777
 40
1.0
 40
1.0
 40
1.0
 40
1.0
 10
9.6984032408
 20
8.9389295822
 30
0.0
 10
9.7046226711
 20
8.9188083122
 30
0.0
 10
9.7187175213
 20
8.8796959201
 30
0.0
 10
9.7417982697
 20
8.8334871816
 30
0.0
 10
9.7636493943
 20
8.7996097994
 30
0.0
 10
9.7817361726
 20
8.7761801958
 30
0.0
 10
9.8017776835
 20
8.7548876802
 30
0.0
 10
9.8165639183
 20
8.7423300334
 30
0.0
 10
9.8242789777
 20
8.7365633787
 30
0.0
  0
SPLINE
  5
82F
100
AcDbEntity
  8
0
100
AcDbSpline
 62
9
  6
CONTINUOUS
 70
0
 71
3
 72
17
 73
13
 74
0
 42
0.0000001
 43
0.0000001
 44
0.0000000001
 40
0.0
 40
0.0
 40
0.0
 40
0.0
 40
0.0445666563
 40
0.0926577663
 40
0.1438852844
 40
0.1980227381
 40
0.3142603282
 40
0.4397714398
 40
0.572906257
 40
0.7118912235
 40
0.8548987162
 40
1.0
 40
1.0
 40
1.0
 40
1.0
 10
9.9111536863
 20
8.7008369205
 30
0.0
 10
9.9263106139
 20
8.6987157188
 30
0.0
 10
9.9578020872
 20
8.6941570792
 30
0.0
 10
10.0067124247
 20
8.6871350021
 30
0.0
 10
10.0589426336
 20
8.6801193718
 30
0.0
 10
10.1344598648
 20
8.6707067184
 30
0.0
 10
10.2354787824
 20
8.6596928294
 30
0.0
 10
10.363711385
 20
8.6482011953
 30
0.0
 10
10.4999356232
 20
8.6386467249
 30
0.0
 10
10.6423173155
 20
8.6313683559
 30
0.0
 10
10.7889207645
 20
8.6267148305
 30
0.0
 10
10.8878631019
 20
8.6256043377
 30
0.0
 10
10.9376923427
 20
8.6256044092
 30
0.0
  0
SPLINE
  5
830
100
AcDbEntity
  8
0
100
AcDbSpline
 62
9
  6
CONTINUOUS
 70
0
 71
3
 72
17
 73
13
 74
0
 42
0.0000001
 43
0.0000001
 44
0.0000000001
 40
0.0
 40
0.0
 40
0.0
 40
0.0
 40
0.1451022916
 40
0.2881106519
 40
0.4270957842
 40
0.5602302632
 40
0.6857408743
 40
0.801977965
 40
0.8561152048
 40
0.9073425421
 40
0.9554335028
 40
1.0
 40
1.0
 40
1.0
 40
1.0
 10
10.9376923427
 20
8.6256044084
 30
0.0
 10
10.9875219297
 20
8.6256043381
 30
0.0
 10
11.0864649114
 20
8.6267148502
 30
0.0
 10
11.233069061
 20
8.6313684105
 30
0.0
 10
11.3754509906
 20
8.6386468248
 30
0.0
 10
11.5116749951
 20
8.6482013286
 30
0.0
 10
11.6399071374
 20
8.6596929526
 30
0.0
 10
11.7409256391
 20
8.6707068118
 30
0.0
 10
11.8164425649
 20
8.6801194346
 30
0.0
 10
11.8686725882
 20
8.687135044
 30
0.0
 10
11.9175827579
 20
8.694157109
 30
0.0
 10
11.9490741264
 20
8.6987157336
 30
0.0
 10
11.9642310011
 20
8.7008369196
 30
0.0
  0
SPLINE
  5
831
100
AcDbEntity
  8
0
100
AcDbSpline
 62
9
  6
CONTINUOUS
 70
0
 71
3
 72
14
 73
10
 74
0
 42
0.0000001
 43
0.0000001
 44
0.0000000001
 40
0.0
 40
0.0
 40
0.0
 40
0.0
 40
0.2499665528
 40
0.3750803206
 40
0.5002177119
 40
0.6253500337
 40
0.7504518854
 40
0.8754211107
 40
1.0
 40
1.0
 40
1.0
 40
1.0
 10
12.1771040663
 20
8.9429654794
 30
0.0
 10
12.1783312938
 20
9.0127915708
 30
0.0
 10
12.179706891
 20
9.1175763096
 30
0.0
 10
12.1805271068
 20
9.257327585
 30
0.0
 10
12.1806152358
 20
9.3622044937
 30
0.0
 10
12.1801830623
 20
9.4670771365
 30
0.0
 10
12.1792624155
 20
9.5718996253
 30
0.0
 10
12.1777870906
 20
9.6765614811
 30
0.0
 10
12.1761259554
 20
9.7462636704
 30
0.0
 10
12.1750569045
 20
9.7810527064
 30
0.0
  0
SPLINE
  5
832
100
AcDbEntity
  8
0
100
AcDbSpline
 62
9
  6
CONTINUOUS
 70
0
 71
3
 72
13
 73
9
 74
0
 42
0.0000001
 43
0.0000001
 44
0.0000000001
 40
0.0
 40
0.0
 40
0.0
 40
0.0
 40
0.2507422697
 40
0.3759840615
 40
0.5007910587
 40
0.6254724335
 40
0.7502606082
 40
1.0
 40
1.0
 40
1.0
 40
1.0
 10
12.1750569045
 20
9.7810527064
 30
0.0
 10
12.1751788312
 20
9.7852854738
 30
0.0
 10
12.175254825
 20
9.7916363851
 30
0.0
 10
12.1751244186
 20
9.8000929768
 30
0.0
 10
12.1749441902
 20
9.8064189196
 30
0.0
 10
12.1747423567
 20
9.8127364521
 30
0.0
 10
12.1745140026
 20
9.821164006
 30
0.0
 10
12.1743642019
 20
9.8274872383
 30
0.0
 10
12.174253898
 20
9.8317033822
 30
0.0
  0
SPLINE
  5
833
100
AcDbEntity
  8
0
100
AcDbSpline
 62
9
  6
CONTINUOUS
 70
0
 71
3
 72
12
 73
8
 74
0
 42
0.0000001
 43
0.0000001
 44
0.0000000001
 40
0.0
 40
0.0
 40
0.0
 40
0.0
 40
0.2184592794
 40
0.335132305
 40
0.4571603246
 40
0.7176128434
 40
1.0
 40
1.0
 40
1.0
 40
1.0
 10
12.174253898
 20
9.8317033822
 30
0.0
 10
12.1678814327
 20
9.8391613105
 30
0.0
 10
12.1574263933
 20
9.8500298687
 30
0.0
 10
12.1423066749
 20
9.8639170424
 30
0.0
 10
12.1252496477
 20
9.8784661653
 30
0.0
 10
12.1015669025
 20
9.8966764956
 30
0.0
 10
12.0814334017
 20
9.9104399486
 30
0.0
 10
12.0707911254
 20
9.9173341797
 30
0.0
  0
SPLINE
  5
834
100
AcDbEntity
  8
0
100
AcDbSpline
 62
9
  6
CONTINUOUS
 70
0
 71
3
 72
16
 73
12
 74
0
 42
0.0000001
 43
0.0000001
 44
0.0000000001
 40
0.0
 40
0.0
 40
0.0
 40
0.0
 40
0.1065647239
 40
0.2202726558
 40
0.2799945408
 40
0.3414919677
 40
0.4689674122
 40
0.6012338939
 40
0.7357757111
 40
0.8695848616
 40
1.0
 40
1.0
 40
1.0
 40
1.0
 10
12.1044261027
 20
8.9422576642
 30
0.0
 10
12.0943355989
 20
8.9389627796
 30
0.0
 10
12.0741123504
 20
8.9300676242
 30
0.0
 10
12.0509931965
 20
8.9141647863
 30
0.0
 10
12.033726753
 20
8.8983270442
 30
0.0
 10
12.0170207184
 20
8.8799981061
 30
0.0
 10
11.9986322384
 20
8.853599856
 30
0.0
 10
11.981806497
 20
8.8179373375
 30
0.0
 10
11.9702292984
 20
8.7796000908
 30
0.0
 10
11.9642614848
 20
8.7402100078
 30
0.0
 10
11.9636897286
 20
8.7138162421
 30
0.0
 10
11.9642312169
 20
8.7008369859
 30
0.0
  0
SPLINE
  5
835
100
AcDbEntity
  8
0
100
AcDbSpline
 62
9
  6
CONTINUOUS
 70
0
 71
3
 72
17
 73
13
 74
0
 42
0.0000001
 43
0.0000001
 44
0.0000000001
 40
0.0
 40
0.0
 40
0.0
 40
0.0
 40
0.0485091164
 40
0.0981625314
 40
0.1501193633
 40
0.2045062331
 40
0.3204293191
 40
0.4450550238
 40
0.5770345094
 40
0.714726554
 40
0.8563914444
 40
1.0
 40
1.0
 40
1.0
 40
1.0
 10
12.1044237225
 20
8.9422573983
 30
0.0
 10
12.0856885991
 20
8.939623195
 30
0.0
 10
12.0477623587
 20
8.9343910332
 30
0.0
 10
11.9896955141
 20
8.9268841476
 30
0.0
 10
11.9292782439
 20
8.919701812
 30
0.0
 10
11.843099458
 20
8.9103091212
 30
0.0
 10
11.728566705
 20
8.8995446153
 30
0.0
 10
11.5836862642
 20
8.8885189857
 30
0.0
 10
11.4301662969
 20
8.8794123686
 30
0.0
 10
11.2698785489
 20
8.8725268852
 30
0.0
 10
11.1049662474
 20
8.8681295355
 30
0.0
 10
10.9937021922
 20
8.867072247
 30
0.0
 10
10.9376923427
 20
8.8670857356
 30
0.0
  0
SPLINE
  5
836
100
AcDbEntity
  8
0
100
AcDbSpline
 62
7
  6
CONTINUOUS
 70
0
 71
3
 72
9
 73
5
 74
0
 42
0.0000001
 43
0.0000001
 44
0.0000000001
 40
0.0
 40
0.0
 40
0.0
 40
0.0
 40
0.2648609935
 40
1.0
 40
1.0
 40
1.0
 40
1.0
 10
12.0410741196
 20
9.1232410513
 30
0.0
 10
12.0423771566
 20
9.1180961636
 30
0.0
 10
12.047363975
 20
9.0986885012
 30
0.0
 10
12.0526286664
 20
9.0793512016
 30
0.0
 10
12.0567123237
 20
9.0651976997
 30
0.0
  0
SPLINE
  5
837
100
AcDbEntity
  8
0
100
AcDbSpline
 62
7
  6
CONTINUOUS
 70
0
 71
3
 72
14
 73
10
 74
0
 42
0.0000001
 43
0.0000001
 44
0.0000000001
 40
0.0
 40
0.0
 40
0.0
 40
0.0
 40
0.3228613963
 40
0.4658412983
 40
0.5966023811
 40
0.7152387519
 40
0.8218805725
 40
0.916711855
 40
1.0
 40
1.0
 40
1.0
 40
1.0
 10
12.0567161263
 20
9.0651987142
 30
0.0
 10
12.0606613059
 20
9.0515250152
 30
0.0
 10
12.0666369073
 20
9.0318729774
 30
0.0
 10
12.0751200237
 20
9.0069788681
 30
0.0
 10
12.0811168742
 20
8.9907536426
 30
0.0
 10
12.0870081251
 20
8.9762043282
 30
0.0
 10
12.0927935321
 20
8.9633300152
 30
0.0
 10
12.0984720187
 20
8.952130338
 30
0.0
 10
12.1024388159
 20
8.9453458258
 30
0.0
 10
12.1044237225
 20
8.9422573983
 30
0.0
  0
SPLINE
  5
838
100
AcDbEntity
  8
0
100
AcDbSpline
 62
9
  6
CONTINUOUS
 70
0
 71
3
 72
18
 73
14
 74
0
 42
0.0000001
 43
0.0000001
 44
0.0000000001
 40
0.0
 40
0.0
 40
0.0
 40
0.0
 40
0.0405602196
 40
0.0850039604
 40
0.1331894552
 40
0.1849678934
 40
0.2401722054
 40
0.2985780395
 40
0.4240306725
 40
0.5593084397
 40
0.7020664505
 40
0.8498367765
 40
1.0
 40
1.0
 40
1.0
 40
1.0
 10
12.0410798944
 20
9.1232403102
 30
0.0
 10
12.0262717221
 20
9.1251407837
 30
0.0
 10
11.9951750082
 20
9.1286414344
 30
0.0
 10
11.9463414179
 20
9.1330039658
 30
0.0
 10
11.8933177809
 20
9.1367648183
 30
0.0
 10
11.8362908135
 20
9.1399668043
 30
0.0
 10
11.7754717937
 20
9.1426532124
 30
0.0
 10
11.6875272312
 20
9.1456795596
 30
0.0
 10
11.5700831943
 20
9.1483021005
 30
0.0
 10
11.4215741367
 20
9.1500731161
 30
0.0
 10
11.2648424193
 20
9.1508828907
 30
0.0
 10
11.1026302465
 20
9.15108507
 30
0.0
 10
10.9929652423
 20
9.1510507365
 30
0.0
 10
10.9376923427
 20
9.1510507365
 30
0.0
  0
SPLINE
  5
839
100
AcDbEntity
  8
0
100
AcDbSpline
 62
7
  6
CONTINUOUS
 70
0
 71
3
 72
23
 73
19
 74
0
 42
0.0000001
 43
0.0000001
 44
0.0000000001
 40
0.0
 40
0.0
 40
0.0
 40
0.0
 40
0.0087584559
 40
0.0195231237
 40
0.032303494
 40
0.04706425
 40
0.0637479603
 40
0.082285237
 40
0.1246081495
 40
0.1734152396
 40
0.2281812499
 40
0.288399264
 40
0.3535558459
 40
0.4231519069
 40
0.4967565758
 40
0.6543393566
 40
0.8230884092
 40
1.0
 40
1.0
 40
1.0
 40
1.0
 10
11.5457886675
 20
11.4502235866
 30
0.0
 10
11.5444590256
 20
11.448998636
 30
0.0
 10
11.5412256818
 20
11.4465639174
 30
0.0
 10
11.5354877851
 20
11.4431558706
 30
0.0
 10
11.5284012812
 20
11.4396348166
 30
0.0
 10
11.5200157357
 20
11.4360196032
 30
0.0
 10
11.510379664
 20
11.4323268615
 30
0.0
 10
11.4952521608
 20
11.4270895569
 30
0.0
 10
11.4735671382
 20
11.4205626753
 30
0.0
 10
11.4444197009
 20
11.4129703294
 30
0.0
 10
11.4114543408
 20
11.4054437319
 30
0.0
 10
11.3750000362
 20
11.3980963015
 30
0.0
 10
11.3353750484
 20
11.3910409099
 30
0.0
 10
11.2928816697
 20
11.3843858072
 30
0.0
 10
11.2313596475
 20
11.376007222
 30
0.0
 10
11.1492428697
 20
11.3673066167
 30
0.0
 10
11.0455694937
 20
11.3603998306
 30
0.0
 10
10.9742097367
 20
11.3587090034
 30
0.0
 10
10.9376923427
 20
11.3587090034
 30
0.0
  0
SPLINE
  5
83A
100
AcDbEntity
  8
0
100
AcDbSpline
 62
7
  6
CONTINUOUS
 70
0
 71
3
 72
9
 73
5
 74
0
 42
0.0000001
 43
0.0000001
 44
0.0000000001
 40
0.0
 40
0.0
 40
0.0
 40
0.0
 40
0.5175959974
 40
1.0
 40
1.0
 40
1.0
 40
1.0
 10
12.1141573195
 20
9.7681712413
 30
0.0
 10
12.1134400009
 20
9.7675228942
 30
0.0
 10
12.1120963998
 20
9.7662210878
 30
0.0
 10
12.1108874693
 20
9.7647927078
 30
0.0
 10
12.1103364593
 20
9.7640796301
 30
0.0
  0
SPLINE
  5
83B
100
AcDbEntity
  8
0
100
AcDbSpline
 62
9
  6
CONTINUOUS
 70
0
 71
3
 72
9
 73
5
 74
0
 42
0.0000001
 43
0.0000001
 44
0.0000000001
 40
0.0
 40
0.0
 40
0.0
 40
0.0
 40
0.464244192
 40
1.0
 40
1.0
 40
1.0
 40
1.0
 10
12.1141571777
 20
9.7681713307
 30
0.0
 10
12.1080207573
 20
9.7703145646
 30
0.0
 10
12.0949004899
 20
9.7752085785
 30
0.0
 10
12.0818505114
 20
9.7802797328
 30
0.0
 10
12.0748554242
 20
9.7829883027
 30
0.0
  0
SPLINE
  5
83C
100
AcDbEntity
  8
0
100
AcDbSpline
 62
9
  6
CONTINUOUS
 70
0
 71
3
 72
12
 73
8
 74
0
 42
0.0000001
 43
0.0000001
 44
0.0000000001
 40
0.0
 40
0.0
 40
0.0
 40
0.0
 40
0.2511232684
 40
0.5034230963
 40
0.7537687303
 40
0.8775104226
 40
1.0
 40
1.0
 40
1.0
 40
1.0
 10
12.0707764023
 20
9.9173330181
 30
0.0
 10
12.0697745351
 20
9.9090457743
 30
0.0
 10
12.068773026
 20
9.8922936114
 30
0.0
 10
12.0702740928
 20
9.8672265295
 30
0.0
 10
12.0741168796
 20
9.8466935415
 30
0.0
 10
12.0788299078
 20
9.8308620756
 30
0.0
 10
12.0817234209
 20
9.8231965849
 30
0.0
 10
12.0832946181
 20
9.8194402751
 30
0.0
  0
SPLINE
  5
83D
100
AcDbEntity
  8
0
100
AcDbSpline
 62
9
  6
CONTINUOUS
 70
0
 71
3
 72
9
 73
5
 74
0
 42
0.0000001
 43
0.0000001
 44
0.0000000001
 40
0.0
 40
0.0
 40
0.0
 40
0.0
 40
0.2568001585
 40
1.0
 40
1.0
 40
1.0
 40
1.0
 10
12.0832946181
 20
9.8194402751
 30
0.0
 10
12.0850813103
 20
9.8151687749
 30
0.0
 10
12.0927020324
 20
9.7988240646
 30
0.0
 10
12.1029371521
 20
9.7836699834
 30
0.0
 10
12.1118462383
 20
9.7736606828
 30
0.0
  0
LINE
  5
83E
100
AcDbEntity
  8
0
100
AcDbLine
 62
7
  6
CONTINUOUS
 10
12.1156314299
 20
9.7695668051
 11
12.1141571777
 21
9.7681713307
  0
SPLINE
  5
83F
100
AcDbEntity
  8
0
100
AcDbSpline
 62
9
  6
CONTINUOUS
 70
0
 71
3
 72
10
 73
6
 74
0
 42
0.0000001
 43
0.0000001
 44
0.0000000001
 40
0.0
 40
0.0
 40
0.0
 40
0.0
 40
0.2199402777
 40
0.4604948515
 40
1.0
 40
1.0
 40
1.0
 40
1.0
 10
9.7612119582
 20
9.7681618709
 30
0.0
 10
9.7641407478
 20
9.7691519434
 30
0.0
 10
9.7702418168
 20
9.7713166559
 30
0.0
 10
9.7834029694
 20
9.7762542873
 30
0.0
 10
9.7936110342
 20
9.7802584514
 30
0.0
 10
9.8006760586
 20
9.7830146165
 30
0.0
  0
SPLINE
  5
840
100
AcDbEntity
  8
0
100
AcDbSpline
 62
7
  6
CONTINUOUS
 70
0
 71
3
 72
9
 73
5
 74
0
 42
0.0000001
 43
0.0000001
 44
0.0000000001
 40
0.0
 40
0.0
 40
0.0
 40
0.0
 40
0.2372168469
 40
1.0
 40
1.0
 40
1.0
 40
1.0
 10
9.7650238738
 20
9.7641015752
 30
0.0
 10
9.7647542943
 20
9.7644502258
 30
0.0
 10
9.7635798929
 20
9.7658905868
 30
0.0
 10
9.762264251
 20
9.7672126722
 30
0.0
 10
9.7612119582
 20
9.7681618709
 30
0.0
  0
SPLINE
  5
841
100
AcDbEntity
  8
0
100
AcDbSpline
 62
7
  6
CONTINUOUS
 70
0
 71
3
 72
9
 73
5
 74
0
 42
0.0000001
 43
0.0000001
 44
0.0000000001
 40
0.0
 40
0.0
 40
0.0
 40
0.0
 40
0.5295048079
 40
1.0
 40
1.0
 40
1.0
 40
1.0
 10
9.7709600366
 20
8.9422464042
 30
0.0
 10
9.7696225634
 20
8.9401679661
 30
0.0
 10
9.766983163
 20
8.9363137635
 30
0.0
 10
9.7640556624
 20
8.9326691767
 30
0.0
 10
9.7625937553
 20
8.9310303106
 30
0.0
  0
SPLINE
  5
842
100
AcDbEntity
  8
0
100
AcDbSpline
 62
9
  6
CONTINUOUS
 70
0
 71
3
 72
11
 73
7
 74
0
 42
0.0000001
 43
0.0000001
 44
0.0000000001
 40
0.0
 40
0.0
 40
0.0
 40
0.0
 40
0.2511379216
 40
0.5005338757
 40
0.7495492892
 40
1.0
 40
1.0
 40
1.0
 40
1.0
 10
9.7625968036
 20
8.9310285226
 30
0.0
 10
9.7593599572
 20
9.0007204282
 30
0.0
 10
9.754091959
 20
9.1396839576
 30
0.0
 10
9.7517488666
 20
9.3479265913
 30
0.0
 10
9.7554329357
 20
9.5559585497
 30
0.0
 10
9.7614971777
 20
9.6945908805
 30
0.0
 10
9.7650420896
 20
9.7640766382
 30
0.0
  0
SPLINE
  5
843
100
AcDbEntity
  8
0
100
AcDbSpline
 62
7
  6
CONTINUOUS
 70
0
 71
3
 72
14
 73
10
 74
0
 42
0.0000001
 43
0.0000001
 44
0.0000000001
 40
0.0
 40
0.0
 40
0.0
 40
0.0
 40
0.3233902445
 40
0.4664501016
 40
0.5971958339
 40
0.7157424671
 40
0.822241249
 40
0.9168974723
 40
1.0
 40
1.0
 40
1.0
 40
1.0
 10
9.8186624022
 20
9.0652320937
 30
0.0
 10
9.8147114731
 20
9.0515328573
 30
0.0
 10
9.8087299174
 20
9.0318503261
 30
0.0
 10
9.8002399833
 20
9.0069253951
 30
0.0
 10
9.7942438903
 20
8.9906974155
 30
0.0
 10
9.7883559919
 20
8.9761551829
 30
0.0
 10
9.7825757998
 20
8.9632951561
 30
0.0
 10
9.7769036579
 20
8.9521143489
 30
0.0
 10
9.7729411735
 20
8.9453438971
 30
0.0
 10
9.7709585665
 20
8.9422628572
 30
0.0
  0
SPLINE
  5
844
100
AcDbEntity
  8
0
100
AcDbSpline
 62
9
  6
CONTINUOUS
 70
0
 71
3
 72
13
 73
9
 74
0
 42
0.0000001
 43
0.0000001
 44
0.0000000001
 40
0.0
 40
0.0
 40
0.0
 40
0.0
 40
0.2552532751
 40
0.3808243348
 40
0.5053454661
 40
0.6291999856
 40
0.7527646279
 40
1.0
 40
1.0
 40
1.0
 40
1.0
 10
9.9111536796
 20
8.7008367881
 30
0.0
 10
9.9031532248
 20
8.7019192628
 30
0.0
 10
9.8913106378
 20
8.7043650469
 30
0.0
 10
9.8760357732
 20
8.7090928022
 30
0.0
 10
9.8649684973
 20
8.7132883296
 30
0.0
 10
9.8542451995
 20
8.7181458068
 30
0.0
 10
9.8404214637
 20
8.7254886186
 30
0.0
 10
9.8305783871
 20
8.7319284213
 30
0.0
 10
9.8242783691
 20
8.7365607388
 30
0.0
  0
SPLINE
  5
845
100
AcDbEntity
  8
0
100
AcDbSpline
 62
9
  6
CONTINUOUS
 70
0
 71
3
 72
16
 73
12
 74
0
 42
0.0000001
 43
0.0000001
 44
0.0000000001
 40
0.0
 40
0.0
 40
0.0
 40
0.0
 40
0.1065645114
 40
0.2202724807
 40
0.2799944833
 40
0.3414920739
 40
0.4689679042
 40
0.6012347384
 40
0.7357767009
 40
0.8695855934
 40
1.0
 40
1.0
 40
1.0
 40
1.0
 10
9.7709598344
 20
8.9422569536
 30
0.0
 10
9.781049914
 20
8.9389618055
 30
0.0
 10
9.8012722452
 20
8.9300661494
 30
0.0
 10
9.8243901012
 20
8.9141628253
 30
0.0
 10
9.8416554018
 20
8.8983247694
 30
0.0
 10
9.8583602005
 20
8.8799955633
 30
0.0
 10
9.8767470013
 20
8.8535971357
 30
0.0
 10
9.8935705623
 20
8.8179347187
 30
0.0
 10
9.9051454875
 20
8.7795979394
 30
0.0
 10
9.9111110127
 20
8.7402087304
 30
0.0
 10
9.9116812739
 20
8.7138157754
 30
0.0
 10
9.9111390616
 20
8.7008369902
 30
0.0
  0
SPLINE
  5
846
100
AcDbEntity
  8
0
100
AcDbSpline
 62
9
  6
CONTINUOUS
 70
0
 71
3
 72
14
 73
10
 74
0
 42
0.0000001
 43
0.0000001
 44
0.0000000001
 40
0.0
 40
0.0
 40
0.0
 40
0.0
 40
0.1171842234
 40
0.2360547163
 40
0.356925602
 40
0.4801965266
 40
0.7345302017
 40
0.8661210495
 40
1.0
 40
1.0
 40
1.0
 40
1.0
 10
9.7625938287
 20
8.9310177013
 30
0.0
 10
9.7687866652
 20
8.9254971394
 30
0.0
 10
9.7804796421
 20
8.9134666141
 30
0.0
 10
9.7954755905
 20
8.8930362574
 30
0.0
 10
9.8077868951
 20
8.8703864373
 30
0.0
 10
9.820536039
 20
8.8373963829
 30
0.0
 10
9.8270882668
 20
8.8015302036
 30
0.0
 10
9.8275113551
 20
8.7646859922
 30
0.0
 10
9.8256903168
 20
8.7459331858
 30
0.0
 10
9.824278499
 20
8.7365607387
 30
0.0
  0
SPLINE
  5
847
100
AcDbEntity
  8
0
100
AcDbSpline
 62
7
  6
CONTINUOUS
 70
0
 71
3
 72
15
 73
11
 74
0
 42
0.0000001
 43
0.0000001
 44
0.0000000001
 40
0.0
 40
0.0
 40
0.0
 40
0.0
 40
0.0644232277
 40
0.1402785821
 40
0.231734046
 40
0.3418806102
 40
0.4726728953
 40
0.6251918866
 40
0.8004319264
 40
1.0
 40
1.0
 40
1.0
 40
1.0
 10
9.7625962758
 20
8.9310183956
 30
0.0
 10
9.7616110691
 20
8.9299534129
 30
0.0
 10
9.759011216
 20
8.928042355
 30
0.0
 10
9.7540420169
 20
8.9262869148
 30
0.0
 10
9.7477983898
 20
8.9255435573
 30
0.0
 10
9.7402979506
 20
8.9259123408
 30
0.0
 10
9.7315451302
 20
8.927374875
 30
0.0
 10
9.7215304788
 20
8.9299338931
 30
0.0
 10
9.7102602544
 20
8.9337087034
 30
0.0
 10
9.7024741757
 20
8.9369923621
 30
0.0
 10
9.698395782
 20
8.938880452
 30
0.0
  0
SPLINE
  5
848
100
AcDbEntity
  8
0
100
AcDbSpline
 62
7
  6
CONTINUOUS
 70
0
 71
3
 72
13
 73
9
 74
0
 42
0.0000001
 43
0.0000001
 44
0.0000000001
 40
0.0
 40
0.0
 40
0.0
 40
0.0
 40
0.3216410066
 40
0.6036700915
 40
0.7259089547
 40
0.8336948089
 40
0.9255394292
 40
1.0
 40
1.0
 40
1.0
 40
1.0
 10
9.7011582613
 20
9.8317352411
 30
0.0
 10
9.7080052264
 20
9.8256429605
 30
0.0
 10
9.7203441559
 20
9.8136275685
 30
0.0
 10
9.7342737549
 20
9.7983305062
 30
0.0
 10
9.7438548481
 20
9.7873264136
 30
0.0
 10
9.7498403701
 20
9.7803769823
 30
0.0
 10
9.7549883159
 20
9.7745044256
 30
0.0
 10
9.758223872
 20
9.771037622
 30
0.0
 10
9.7597393879
 20
9.7695527409
 30
0.0
  0
LINE
  5
849
100
AcDbEntity
  8
0
100
AcDbLine
 62
7
  6
CONTINUOUS
 10
9.7597393879
 20
9.7695527409
 11
9.761211983
 21
9.7681618095
  0
SPLINE
  5
84A
100
AcDbEntity
  8
0
100
AcDbSpline
 62
9
  6
CONTINUOUS
 70
0
 71
3
 72
12
 73
8
 74
0
 42
0.0000001
 43
0.0000001
 44
0.0000000001
 40
0.0
 40
0.0
 40
0.0
 40
0.0
 40
0.2518416981
 40
0.5043765498
 40
0.7544927351
 40
0.8779342926
 40
1.0
 40
1.0
 40
1.0
 40
1.0
 10
9.8046073668
 20
9.917346259
 30
0.0
 10
9.8056112815
 20
9.9090464461
 30
0.0
 10
9.8066118172
 20
9.8922846016
 30
0.0
 10
9.8051065446
 20
9.8672272559
 30
0.0
 10
9.8012730316
 20
9.8467313816
 30
0.0
 10
9.7965845472
 20
9.8309487302
 30
0.0
 10
9.7937095159
 20
9.8233137113
 30
0.0
 10
9.7921492905
 20
9.8195739486
 30
0.0
  0
SPLINE
  5
84B
100
AcDbEntity
  8
0
100
AcDbSpline
 62
9
  6
CONTINUOUS
 70
0
 71
3
 72
9
 73
5
 74
0
 42
0.0000001
 43
0.0000001
 44
0.0000000001
 40
0.0
 40
0.0
 40
0.0
 40
0.0
 40
0.257223476
 40
1.0
 40
1.0
 40
1.0
 40
1.0
 10
9.7921492905
 20
9.8195739486
 30
0.0
 10
9.7903596056
 20
9.8152841856
 30
0.0
 10
9.7827334242
 20
9.7988973126
 30
0.0
 10
9.7724782162
 20
9.7837065774
 30
0.0
 10
9.7635557195
 20
9.7736793315
 30
0.0
  0
SPLINE
  5
84C
100
AcDbEntity
  8
0
100
AcDbSpline
 62
7
  6
CONTINUOUS
 70
0
 71
3
 72
15
 73
11
 74
0
 42
0.0000001
 43
0.0000001
 44
0.0000000001
 40
0.0
 40
0.0
 40
0.0
 40
0.0
 40
0.1647511951
 40
0.3209796545
 40
0.4674840295
 40
0.6029025001
 40
0.7255486741
 40
0.8336202376
 40
0.9255313648
 40
1.0
 40
1.0
 40
1.0
 40
1.0
 10
12.1742538837
 20
9.8317033822
 30
0.0
 10
12.170746386
 20
9.8285822614
 30
0.0
 10
12.1640291213
 20
9.8223694795
 30
0.0
 10
12.1545739038
 20
9.8129807737
 30
0.0
 10
12.1459979161
 20
9.80390253
 30
0.0
 10
12.1383188259
 20
9.7953010803
 30
0.0
 10
12.1315080159
 20
9.7873962366
 30
0.0
 10
12.1255352623
 20
9.7804058084
 30
0.0
 10
12.1203835153
 20
9.7745213122
 30
0.0
 10
12.1171452067
 20
9.7710535242
 30
0.0
 10
12.1156311275
 20
9.7695664597
 30
0.0
  0
LINE
  5
84D
100
AcDbEntity
  8
0
100
AcDbLine
 62
9
  6
CONTINUOUS
 10
12.1771040663
 20
8.9429654794
 11
12.1762129091
 21
8.9390318856
  0
SPLINE
  5
84E
100
AcDbEntity
  8
0
100
AcDbSpline
 62
9
  6
CONTINUOUS
 70
0
 71
3
 72
32
 73
28
 74
0
 42
0.0000001
 43
0.0000001
 44
0.0000000001
 40
0.0
 40
0.0
 40
0.0
 40
0.0
 40
0.0208186057
 40
0.0389240503
 40
0.0553244854
 40
0.0633356859
 40
0.0714557786
 40
0.0879428579
 40
0.1044172591
 40
0.1208212505
 40
0.137175985
 40
0.1697960461
 40
0.2022706689
 40
0.2668079776
 40
0.330795743
 40
0.3942319998
 40
0.457115037
 40
0.5194442092
 40
0.5812251657
 40
0.6424638881
 40
0.7031938218
 40
0.7633602446
 40
0.7933038889
 40
0.8231816984
 40
0.8825383094
 40
0.9412725506
 40
1.0
 40
1.0
 40
1.0
 40
1.0
 10
12.1762129091
 20
8.9390318856
 30
0.0
 10
12.1759743229
 20
8.937367362
 30
0.0
 10
12.1754074516
 20
8.9342704294
 30
0.0
 10
12.1742396627
 20
8.9299526843
 30
0.0
 10
12.1731264028
 20
8.9267028878
 30
0.0
 10
12.172243863
 20
8.924228017
 30
0.0
 10
12.1713808074
 20
8.921738718
 30
0.0
 10
12.170317032
 20
8.918595662
 30
0.0
 10
12.169005593
 20
8.9148301526
 30
0.0
 10
12.1676692535
 20
8.9110847798
 30
0.0
 10
12.1658589657
 20
8.9061240418
 30
0.0
 10
12.1635471517
 20
8.8999646471
 30
0.0
 10
12.1597309062
 20
8.8902141187
 30
0.0
 10
12.1547426296
 20
8.8782027965
 30
0.0
 10
12.1483787315
 20
8.8640616162
 30
0.0
 10
12.141639851
 20
8.8502434178
 30
0.0
 10
12.1345146726
 20
8.8367713965
 30
0.0
 10
12.1269911025
 20
8.8236713644
 30
0.0
 10
12.1190592718
 20
8.8109700784
 30
0.0
 10
12.1106994424
 20
8.7987021361
 30
0.0
 10
12.1019224683
 20
8.7868899975
 30
0.0
 10
12.0941910603
 20
8.777467491
 30
0.0
 10
12.087791837
 20
8.7701881417
 30
0.0
 10
12.0812780418
 20
8.763100058
 30
0.0
 10
12.072849524
 20
8.7546145897
 30
0.0
 10
12.0621088699
 20
8.7451872587
 30
0.0
 10
12.0546635329
 20
8.7393023297
 30
0.0
 10
12.0508962118
 20
8.7364200147
 30
0.0
  0
SPLINE
  5
84F
100
AcDbEntity
  8
0
100
AcDbSpline
 62
7
  6
CONTINUOUS
 70
0
 71
3
 72
34
 73
30
 74
0
 42
0.0000001
 43
0.0000001
 44
0.0000000001
 40
0.0
 40
0.0
 40
0.0
 40
0.0
 40
0.0649853192
 40
0.1408021606
 40
0.2321896455
 40
0.3421205258
 40
0.4046876106
 40
0.4725462272
 40
0.5458424885
 40
0.6246984265
 40
0.6662452721
 40
0.7092177323
 40
0.7536238837
 40
0.7994736412
 40
0.8467532637
 40
0.8709266883
 40
0.8831933687
 40
0.8955938005
 40
0.9080066306
 40
0.920296141
 40
0.932591888
 40
0.945393624
 40
0.9591597247
 40
0.965988345
 40
0.9724961575
 40
0.978693639
 40
0.9848678459
 40
0.9914572663
 40
1.0
 40
1.0
 40
1.0
 40
1.0
 10
12.1128036781
 20
8.9310027842
 30
0.0
 10
12.1137613121
 20
8.9299185595
 30
0.0
 10
12.1163375638
 20
8.9280015384
 30
0.0
 10
12.1212678683
 20
8.926288763
 30
0.0
 10
12.1274305609
 20
8.9255681528
 30
0.0
 10
12.1333178204
 20
8.9258097598
 30
0.0
 10
12.1386272336
 20
8.9264834212
 30
0.0
 10
12.1430915336
 20
8.9272926736
 30
0.0
 10
12.1478657572
 20
8.9283911053
 30
0.0
 10
12.1520247809
 20
8.9295332739
 30
0.0
 10
12.1555037713
 20
8.9305933236
 30
0.0
 10
12.1582337867
 20
8.9314789146
 30
0.0
 10
12.1610390381
 20
8.9324415126
 30
0.0
 10
12.163918643
 20
8.9334816945
 30
0.0
 10
12.1663601854
 20
8.9344076237
 30
0.0
 10
12.1680998851
 20
8.9350759306
 30
0.0
 10
12.1691078173
 20
8.9354836583
 30
0.0
 10
12.1698669782
 20
8.9358075586
 30
0.0
 10
12.1706301908
 20
8.9361237815
 30
0.0
 10
12.1714088488
 20
8.9363936225
 30
0.0
 10
12.1722053715
 20
8.9366342628
 30
0.0
 10
12.1730039573
 20
8.9369793257
 30
0.0
 10
12.1736165776
 20
8.9374045556
 30
0.0
 10
12.1741330604
 20
8.9377155566
 30
0.0
 10
12.1745291923
 20
8.9379022662
 30
0.0
 10
12.174943516
 20
8.937985214
 30
0.0
 10
12.1753629548
 20
8.9380357677
 30
0.0
 10
12.1758088307
 20
8.9382297947
 30
0.0
 10
12.1760344518
 20
8.9384954122
 30
0.0
 10
12.1761387209
 20
8.9386544399
 30
0.0
  0
SPLINE
  5
850
100
AcDbEntity
  8
0
100
AcDbSpline
 62
9
  6
CONTINUOUS
 70
0
 71
3
 72
13
 73
9
 74
0
 42
0.0000001
 43
0.0000001
 44
0.0000000001
 40
0.0
 40
0.0
 40
0.0
 40
0.0
 40
0.2472564859
 40
0.370825598
 40
0.4946727552
 40
0.6191871086
 40
0.7447587628
 40
1.0
 40
1.0
 40
1.0
 40
1.0
 10
12.0508962118
 20
8.7364200147
 30
0.0
 10
12.0446080242
 20
8.7318056676
 30
0.0
 10
12.0347875662
 20
8.7253874714
 30
0.0
 10
12.0209956057
 20
8.7180722658
 30
0.0
 10
12.0102967239
 20
8.713237585
 30
0.0
 10
11.999255842
 20
8.7090627997
 30
0.0
 10
11.984020818
 20
8.7043533287
 30
0.0
 10
11.972210399
 20
8.7019116374
 30
0.0
 10
11.9642310078
 20
8.7008367884
 30
0.0
  0
SPLINE
  5
851
100
AcDbEntity
  8
0
100
AcDbSpline
 62
9
  6
CONTINUOUS
 70
0
 71
3
 72
14
 73
10
 74
0
 42
0.0000001
 43
0.0000001
 44
0.0000000001
 40
0.0
 40
0.0
 40
0.0
 40
0.0
 40
0.117224294
 40
0.2361291079
 40
0.3570288603
 40
0.4803172573
 40
0.7346324184
 40
0.8661821014
 40
1.0
 40
1.0
 40
1.0
 40
1.0
 10
12.1128038968
 20
8.9310031729
 30
0.0
 10
12.1066085508
 20
8.92547605
 30
0.0
 10
12.0949103868
 20
8.9134339131
 30
0.0
 10
12.0799044491
 20
8.892989247
 30
0.0
 10
12.0675800095
 20
8.8703283372
 30
0.0
 10
12.0548097416
 20
8.8373290927
 30
0.0
 10
12.0482291798
 20
8.8014568658
 30
0.0
 10
12.0477748684
 20
8.7646064793
 30
0.0
 10
12.0495789664
 20
8.7458516245
 30
0.0
 10
12.0509820324
 20
8.7364783059
 30
0.0
  0
SPLINE
  5
852
100
AcDbEntity
  8
0
100
AcDbSpline
 62
7
  6
CONTINUOUS
 70
0
 71
3
 72
9
 73
5
 74
0
 42
0.0000001
 43
0.0000001
 44
0.0000000001
 40
0.0
 40
0.0
 40
0.0
 40
0.0
 40
0.4706017019
 40
1.0
 40
1.0
 40
1.0
 40
1.0
 10
12.1127629707
 20
8.9310638263
 30
0.0
 10
12.111306242
 20
8.9326990961
 30
0.0
 10
12.1083890765
 20
8.9363338091
 30
0.0
 10
12.1057579976
 20
8.9401765994
 30
0.0
 10
12.1044248299
 20
8.9422483512
 30
0.0
  0
SPLINE
  5
853
100
AcDbEntity
  8
0
100
AcDbSpline
 62
9
  6
CONTINUOUS
 70
0
 71
3
 72
12
 73
8
 74
0
 42
0.0000001
 43
0.0000001
 44
0.0000000001
 40
0.0
 40
0.0
 40
0.0
 40
0.0
 40
0.2456102783
 40
0.3695723726
 40
0.4942729892
 40
0.7457580054
 40
1.0
 40
1.0
 40
1.0
 40
1.0
 10
12.0567222878
 20
9.0652321132
 30
0.0
 10
12.0694049475
 20
9.1207176716
 30
0.0
 10
12.0841118663
 20
9.2052889179
 30
0.0
 10
12.0951903676
 20
9.3193243358
 30
0.0
 10
12.1006617154
 20
9.4351420176
 30
0.0
 10
12.0967733581
 20
9.5814214536
 30
0.0
 10
12.0823389127
 20
9.6979350603
 30
0.0
 10
12.0723044555
 20
9.7559911133
 30
0.0
  0
LINE
  5
854
100
AcDbEntity
  8
0
100
AcDbLine
 62
9
  6
CONTINUOUS
 10
12.0622746171
 20
9.8093326016
 11
12.0617440017
 21
9.8119331136
  0
SPLINE
  5
855
100
AcDbEntity
  8
0
100
AcDbSpline
 62
9
  6
CONTINUOUS
 70
0
 71
3
 72
15
 73
11
 74
0
 42
0.0000001
 43
0.0000001
 44
0.0000000001
 40
0.0
 40
0.0
 40
0.0
 40
0.0
 40
0.1246013414
 40
0.2494896342
 40
0.3745884308
 40
0.4998129463
 40
0.6250564539
 40
0.7502157388
 40
0.8752186491
 40
1.0
 40
1.0
 40
1.0
 40
1.0
 10
12.1103382251
 20
9.7640742615
 30
0.0
 10
12.1121223351
 20
9.7295064246
 30
0.0
 10
12.1154058814
 20
9.6602756972
 30
0.0
 10
12.1192560517
 20
9.5562852691
 30
0.0
 10
12.1217945349
 20
9.4520803644
 30
0.0
 10
12.1228624382
 20
9.3477511353
 30
0.0
 10
12.1224705459
 20
9.2434002912
 30
0.0
 10
12.1205799215
 20
9.1391275575
 30
0.0
 10
12.1173397898
 20
9.0350174208
 30
0.0
 10
12.1143994277
 20
8.9656890296
 30
0.0
 10
12.1127629707
 20
8.9310638263
 30
0.0
  0
SPLINE
  5
856
100
AcDbEntity
  8
0
100
AcDbSpline
 62
9
  6
CONTINUOUS
 70
0
 71
3
 72
12
 73
8
 74
0
 42
0.0000001
 43
0.0000001
 44
0.0000000001
 40
0.0
 40
0.0
 40
0.0
 40
0.0
 40
0.2456061139
 40
0.3694617807
 40
0.494043241
 40
0.7454101111
 40
1.0
 40
1.0
 40
1.0
 40
1.0
 10
12.0410726481
 20
9.1232452397
 30
0.0
 10
12.0554944316
 20
9.1782248326
 30
0.0
 10
12.0723412223
 20
9.2623043278
 30
0.0
 10
12.0852653857
 20
9.3759461846
 30
0.0
 10
12.091929533
 20
9.4914780883
 30
0.0
 10
12.0882681415
 20
9.6376540703
 30
0.0
 10
12.0726972231
 20
9.7539679457
 30
0.0
 10
12.0617856558
 20
9.8118674437
 30
0.0
  0
SPLINE
  5
857
100
AcDbEntity
  8
0
100
AcDbSpline
 62
9
  6
CONTINUOUS
 70
0
 71
3
 72
18
 73
14
 74
0
 42
0.0000001
 43
0.0000001
 44
0.0000000001
 40
0.0
 40
0.0
 40
0.0
 40
0.0
 40
0.1501633362
 40
0.297933763
 40
0.4406918508
 40
0.5759696601
 40
0.7014222909
 40
0.7598281051
 40
0.8150323832
 40
0.8668107735
 40
0.9149962065
 40
0.9594398712
 40
1.0
 40
1.0
 40
1.0
 40
1.0
 10
10.9376923427
 20
9.1510507365
 30
0.0
 10
10.882419334
 20
9.1510507365
 30
0.0
 10
10.7727541167
 20
9.1510850702
 30
0.0
 10
10.6105416381
 20
9.1508828893
 30
0.0
 10
10.4538096477
 20
9.1500731096
 30
0.0
 10
10.305300365
 20
9.1483020829
 30
0.0
 10
10.187856177
 20
9.1456795257
 30
0.0
 10
10.0999115279
 20
9.1426531596
 30
0.0
 10
10.0390924716
 20
9.139966735
 30
0.0
 10
9.9820654881
 20
9.1367647295
 30
0.0
 10
9.9290418559
 20
9.1330038541
 30
0.0
 10
9.8802082921
 20
9.1286412963
 30
0.0
 10
9.8491116038
 20
9.1251406235
 30
0.0
 10
9.8343034483
 20
9.1232401379
 30
0.0
  0
SPLINE
  5
858
100
AcDbEntity
  8
0
100
AcDbSpline
 62
9
  6
CONTINUOUS
 70
0
 71
3
 72
12
 73
8
 74
0
 42
0.0000001
 43
0.0000001
 44
0.0000000001
 40
0.0
 40
0.0
 40
0.0
 40
0.0
 40
0.2456060918
 40
0.3694617526
 40
0.4940432106
 40
0.7454100872
 40
1.0
 40
1.0
 40
1.0
 40
1.0
 10
9.834312283
 20
9.1232443035
 30
0.0
 10
9.8198903922
 20
9.1782241558
 30
0.0
 10
9.8030434877
 20
9.2623040599
 30
0.0
 10
9.7901192668
 20
9.3759464773
 30
0.0
 10
9.7834551239
 20
9.4914789591
 30
0.0
 10
9.7871166401
 20
9.6376556764
 30
0.0
 10
9.8026877823
 20
9.7539701215
 30
0.0
 10
9.813599492
 20
9.8118698971
 30
0.0
  0
ENDSEC
  0
SECTION
  2
OBJECTS
  0
DICTIONARY
  5
C
100
AcDbDictionary
280
0
281
1
  3
ACAD_GROUP
350
D
  3
ACAD_MLINESTYLE
350
17
  3
ACAD_LAYOUT
350
1A
  3
ACAD_PLOTSETTINGS
350
19
  3
ACAD_PLOTSTYLENAME
350
E
  0
DICTIONARY
  5
D
102
{ACAD_REACTORS
330
C
102
}
100
AcDbDictionary
280
0
281
1
  0
ACDBDICTIONARYWDFLT
  5
E
102
{ACAD_REACTORS
330
C
102
}
100
AcDbDictionary
281
1
  3
Normal
350
F
100
AcDbDictionaryWithDefault
340
F
  0
DICTIONARY
  5
17
102
{ACAD_REACTORS
330
C
102
}
100
AcDbDictionary
280
0
281
1
  3
Standard
350
18
  0
DICTIONARY
  5
19
102
{ACAD_REACTORS
330
C
102
}
100
AcDbDictionary
281
1
  0
DICTIONARY
  5
1A
102
{ACAD_REACTORS
330
C
102
}
100
AcDbDictionary
281
1
  3
Model
350
859
  3
Layout1
350
85A
  0
ACDBPLACEHOLDER
  5
F
102
{ACAD_REACTORS
330
E
102
}
  0
MLINESTYLE
  5
18
102
{ACAD_REACTORS
330
17
102
}
100
AcDbMlineStyle
  2
STANDARD
 70
0
  3

 62
256
 51
90.0
 52
90.0
 71
2
 49
0.5
 62
256
  6
BYLAYER
 49
-0.5
 62
256
  6
BYLAYER
  0
LAYOUT
  5
859
102
{ACAD_REACTORS
330
1A
102
}
100
AcDbPlotSettings
  1

  2
none_device
  4
ANSI_C_(22.00_x_17.00_Inches)
  6

 40
0.0
 41
0.0
 42
0.0
 43
0.0
 44
558.8
 45
431.8
 46
0.0
 47
0.0
 48
0.0
 49
0.0
140
0.0
141
0.0
142
1.0
143
1.0
 70
1024
 72
0
 73
0
 74
0
  7

 75
0
147
1.0
148
0.0
149
0.0
100
AcDbLayout
  1
Model
 70
0
 71
0
 10
0.0
 20
0.0
 11
22.0
 21
17.0
 12
0.0
 22
0.0
 32
0.0
 14
0.0
 24
0.0
 34
0.0
 15
0.0
 25
0.0
 35
0.0
146
0.0
 13
0.0
 23
0.0
 33
0.0
 16
1.0
 26
0.0
 36
0.0
 17
0.0
 27
1.0
 37
0.0
 76
0
330
202
345
0
346
0
  0
LAYOUT
  5
85A
102
{ACAD_REACTORS
330
1A
102
}
100
AcDbPlotSettings
  1

  2
none_device
  4
ANSI_C_(22.00_x_17.00_Inches)
  6

 40
0.0
 41
0.0
 42
0.0
 43
0.0
 44
558.8
 45
431.8
 46
0.0
 47
0.0
 48
0.0
 49
0.0
140
0.0
141
0.0
142
1.0
143
1.0
 70
0
 72
0
 73
0
 74
0
  7

 75
0
147
1.0
148
0.0
149
0.0
100
AcDbLayout
  1
Layout1
 70
0
 71
1
 10
0.0
 20
0.0
 11
22.0
 21
17.0
 12
0.0
 22
0.0
 32
0.0
 14
0.0
 24
0.0
 34
0.0
 15
0.0
 25
0.0
 35
0.0
146
0.0
 13
0.0
 23
0.0
 33
0.0
 16
1.0
 26
0.0
 36
0.0
 17
0.0
 27
1.0
 37
0.0
 76
0
330
203
345
0
346
0
  0
ENDSEC
  0
EOF
