999
DXF file: E:\BT Custom\CADOUTPUT\_FRONT.dxf
999
Pro/ENGINEER 2018400 by Parametric Technology Corporation
  0
SECTION
  2
HEADER
  9
$ACADVER
  1
AC1018
  9
$DWGCODEPAGE
  3
ANSI_1252
  9
$EXTMAX
 10
22.0
 20
17.0
 30
0.0
  9
$EXTMIN
 10
0.0
 20
0.0
 30
0.0
  9
$LIMMIN
 10
0.0
 20
0.0
  9
$LIMMAX
 10
22.0
 20
17.0
  9
$VIEWCTR
 10
11.0
 20
8.5
  9
$VIEWSIZE
 40
17.0
  9
$CLAYER
  8
0
  9
$LTSCALE
 40
1.21
  9
$CELTYPE
  6
BYLAYER
  9
$DIMSCALE
 40
1.0
  9
$DIMASZ
 40
0.1
  9
$DIMEXO
 40
0.0625
  9
$DIMDLI
 40
0.836
  9
$DIMEXE
 40
0.125
  9
$DIMCEN
 40
0.198
  9
$DIMLFAC
 40
1.0
  9
$DIMBLK
  1
_FILLED
  9
$DIMALT
 70
1
  9
$DIMALTD
 70
2
  9
$DIMALTTD
 70
2
  9
$DIMALTF
 40
25.4
  9
$DIMTXT
 40
0.08
  9
$DIMTOL
 70
1
  9
$DIMLIM
 70
0
  9
$DIMTFAC
 40
1.0
  9
$DIMTP
 40
0.001
  9
$DIMTM
 40
0.001
  9
$DIMGAP
 40
0.09
  9
$DIMDSEP
 70
46
  9
$AUNITS
 70
0
  9
$PDMODE
 70
3
  9
$PDSIZE
 40
0.06
  9
$HANDSEED
  5
297
  9
$TILEMODE
 70
1
  9
$MEASUREMENT
 70
0
  9
$INSUNITS
 70
1
  0
ENDSEC
  0
SECTION
  2
CLASSES
  0
CLASS
  1
ACDBDICTIONARYWDFLT
  2
AcDbDictionaryWithDefault
  3
AutoCAD 2000
 90
0
 91
1
280
0
281
0
  0
CLASS
  1
ACDBPLACEHOLDER
  2
AcDbPlaceHolder
  3
AutoCAD 2000
 90
0
 91
1
280
0
281
0
  0
CLASS
  1
LAYOUT
  2
AcDbLayout
  3
AutoCAD 2000
 90
0
 91
0
280
0
281
0
  0
ENDSEC
  0
SECTION
  2
TABLES
  0
TABLE
  2
VPORT
  5
8
100
AcDbSymbolTable
 70
2
  0
VPORT
  5
1F4
100
AcDbSymbolTableRecord
100
AcDbViewportTableRecord
  2
*ACTIVE
 70
0
 10
0.0
 20
0.0
 11
1.0
 21
1.0
 12
11.0
 22
8.5
 13
0.0
 23
0.0
 14
1.0
 24
1.0
 15
0.0
 25
0.0
 16
0.0
 26
0.0
 36
1.0
 17
0.0
 27
0.0
 37
0.0
 40
17.0
 41
1.2941176471
 42
50.0
 43
0.0
 44
0.0
 50
0.0
 51
0.0
 71
0
 72
100
 73
1
 74
1
 75
0
 76
0
 77
0
 78
0
  0
ENDTAB
  0
TABLE
  2
LTYPE
  5
5
100
AcDbSymbolTable
 70
6
  0
LTYPE
  5
14
100
AcDbSymbolTableRecord
100
AcDbLinetypeTableRecord
  2
BYBLOCK
 70
0
  3

 72
65
 73
0
 40
0.0
  0
LTYPE
  5
15
100
AcDbSymbolTableRecord
100
AcDbLinetypeTableRecord
  2
BYLAYER
 70
0
  3

 72
65
 73
0
 40
0.0
  0
LTYPE
  5
16
100
AcDbSymbolTableRecord
100
AcDbLinetypeTableRecord
  2
CONTINUOUS
 70
64
  3
Solid line
 72
65
 73
0
 40
0.0
  0
LTYPE
  5
1F5
100
AcDbSymbolTableRecord
100
AcDbLinetypeTableRecord
  2
CENTER
 70
64
  3
____ _ ____ _ ____ _ ____ _ ____ _ ____ _ ____
 72
65
 73
4
 40
0.6
 49
0.375
 74
0
 49
-0.075
 74
0
 49
0.075
 74
0
 49
-0.075
 74
0
  0
LTYPE
  5
1F6
100
AcDbSymbolTableRecord
100
AcDbLinetypeTableRecord
  2
HIDDEN
 70
64
  3
- - - - - - - - - - - - - - - - - - - -
 72
65
 73
2
 40
0.2
 49
0.1
 74
0
 49
-0.1
 74
0
  0
LTYPE
  5
1F7
100
AcDbSymbolTableRecord
100
AcDbLinetypeTableRecord
  2
PHANTOM
 70
64
  3
_____ _ _ _____ _ _ _____ _ _ _____
 72
65
 73
6
 40
0.8
 49
0.45
 74
0
 49
-0.05
 74
0
 49
0.1
 74
0
 49
-0.05
 74
0
 49
0.1
 74
0
 49
-0.05
 74
0
  0
LTYPE
  5
1F8
100
AcDbSymbolTableRecord
100
AcDbLinetypeTableRecord
  2
DOT
 70
64
  3
. . . . . . . . . . . . . . . . . . . .
 72
65
 73
2
 40
0.2
 49
0.1
 74
0
 49
-0.1
 74
0
  0
LTYPE
  5
1F9
100
AcDbSymbolTableRecord
100
AcDbLinetypeTableRecord
  2
DASHED
 70
64
  3
- - - - - - - - - - - - - - - - - - - -
 72
65
 73
2
 40
0.2
 49
0.1
 74
0
 49
-0.1
 74
0
  0
ENDTAB
  0
TABLE
  2
LAYER
  5
2
100
AcDbSymbolTable
 70
36
  0
LAYER
  5
10
100
AcDbSymbolTableRecord
100
AcDbLayerTableRecord
  2
0
 70
0
 62
7
  6
CONTINUOUS
370
-3
390
F
  0
LAYER
  5
1FA
100
AcDbSymbolTableRecord
100
AcDbLayerTableRecord
  2
DEFAULT_1
 70
0
 62
7
  6
CENTER
370
-3
390
F
  0
LAYER
  5
1FB
100
AcDbSymbolTableRecord
100
AcDbLayerTableRecord
  2
DEFAULT_2
 70
0
 62
8
  6
HIDDEN
370
-3
390
F
  0
LAYER
  5
1FC
100
AcDbSymbolTableRecord
100
AcDbLayerTableRecord
  2
DEFAULT_3
 70
0
 62
7
  6
PHANTOM
370
-3
390
F
  0
LAYER
  5
1FD
100
AcDbSymbolTableRecord
100
AcDbLayerTableRecord
  2
ALL_FEATURES
 70
0
 62
7
  6
CONTINUOUS
370
-3
390
F
  0
LAYER
  5
1FE
100
AcDbSymbolTableRecord
100
AcDbLayerTableRecord
  2
AXES_FEATURES
 70
0
 62
7
  6
CONTINUOUS
370
-3
390
F
  0
LAYER
  5
1FF
100
AcDbSymbolTableRecord
100
AcDbLayerTableRecord
  2
DEFAULT_COORDINATE_SYSTEM
 70
0
 62
7
  6
CONTINUOUS
370
-3
390
F
  0
LAYER
  5
200
100
AcDbSymbolTableRecord
100
AcDbLayerTableRecord
  2
DEFAULT_DATUM_AXES
 70
0
 62
7
  6
CONTINUOUS
370
-3
390
F
  0
LAYER
  5
201
100
AcDbSymbolTableRecord
100
AcDbLayerTableRecord
  2
DEFAULT_DATUM_PLANES
 70
0
 62
7
  6
CONTINUOUS
370
-3
390
F
  0
LAYER
  5
202
100
AcDbSymbolTableRecord
100
AcDbLayerTableRecord
  2
DIMENSIONS
 70
0
 62
7
  6
CONTINUOUS
370
-3
390
F
  0
ENDTAB
  0
TABLE
  2
STYLE
  5
3
100
AcDbSymbolTable
 70
1
  0
STYLE
  5
11
100
AcDbSymbolTableRecord
100
AcDbTextStyleTableRecord
  2
STANDARD
 70
0
 40
0.0
 41
0.8
 50
0.0
 71
0
 42
0.2
  3
txt
  4

  0
STYLE
  5
203
100
AcDbSymbolTableRecord
100
AcDbTextStyleTableRecord
  2
TEXTSTYLE_1
 70
0
 40
0.0
 41
0.8
 50
0.0
 71
0
 42
0.2
  3
gdt
  4

  0
ENDTAB
  0
TABLE
  2
VIEW
  5
6
100
AcDbSymbolTable
 70
0
  0
ENDTAB
  0
TABLE
  2
UCS
  5
7
100
AcDbSymbolTable
 70
0
  0
ENDTAB
  0
TABLE
  2
APPID
  5
9
100
AcDbSymbolTable
 70
1
  0
APPID
  5
204
100
AcDbSymbolTableRecord
100
AcDbRegAppTableRecord
  2
ACAD
 70
0
  0
ENDTAB
  0
TABLE
  2
BLOCK_RECORD
  5
1
100
AcDbSymbolTable
 70
0
  0
BLOCK_RECORD
  5
205
100
AcDbSymbolTableRecord
100
AcDbBlockTableRecord
  2
*Model_Space
  0
BLOCK_RECORD
  5
206
100
AcDbSymbolTableRecord
100
AcDbBlockTableRecord
  2
*Paper_Space
  0
BLOCK_RECORD
  5
207
100
AcDbSymbolTableRecord
100
AcDbBlockTableRecord
  2
_FILLED
  0
ENDTAB
  0
TABLE
  2
DIMSTYLE
  5
A
100
AcDbSymbolTable
 70
1
100
AcDbDimStyleTable
 71
0
  0
DIMSTYLE
105
208
100
AcDbSymbolTableRecord
100
AcDbDimStyleTableRecord
  2
STANDARD
 70
0
  3

  4

 40
1.0
 41
0.1
 42
0.0625
 43
0.38
 44
0.125
 45
0.0
 46
0.0
 47
0.001
 48
0.001
140
0.08
141
0.09
142
0.0
143
25.4
144
1.0
145
0.0
146
1.0
147
0.09
 71
1.0
 72
0.0
 73
1
 74
1
 75
0
 76
0
 77
0
 78
4
 79
1
170
1
171
2
172
0
173
0
174
0
175
0
176
0
177
0
178
0
270
2
179
3
271
3
272
3
273
2
274
2
275
0
280
0
281
0
282
0
283
1
284
4
285
0
286
0
287
3
288
0
340
11
278
46
341
207
342
207
343
207
344
207
  0
ENDTAB
  0
ENDSEC
  0
SECTION
  2
BLOCKS
  0
BLOCK
  5
20
100
AcDbEntity
  8
0
100
AcDbBlockBegin
  2
*Model_Space
 70
0
 10
0.0
 20
0.0
 30
0.0
  3
*Model_Space
  1

  0
ENDBLK
  5
21
100
AcDbEntity
  8
0
100
AcDbBlockEnd
  0
BLOCK
  5
1C
100
AcDbEntity
  8
0
100
AcDbBlockBegin
  2
*Paper_Space
 70
0
 10
0.0
 20
0.0
 30
0.0
  3
*Paper_Space
  1

  0
ENDBLK
  5
1D
100
AcDbEntity
  8
0
100
AcDbBlockEnd
  0
BLOCK
  5
209
100
AcDbEntity
  8
0
100
AcDbBlockBegin
  2
_FILLED
 70
64
 10
0.0
 20
0.0
  3
_FILLED
  1

  0
SOLID
  5
20A
100
AcDbEntity
  8
0
  6
BYBLOCK
 62
0
100
AcDbTrace
 10
0.0
 20
0.0
 11
-1.0
 21
0.2
 12
-1.0
 22
-0.2
 13
-1.0
 23
-0.2
  0
ENDBLK
  5
20B
100
AcDbEntity
  8
0
  6
BYBLOCK
 62
0
100
AcDbBlockEnd
  0
ENDSEC
  0
SECTION
  2
ENTITIES
  0
LINE
  5
20C
100
AcDbEntity
  8
0
100
AcDbLine
 62
7
  6
CONTINUOUS
 10
10.4831823866
 20
10.6436695021
 11
10.4244581905
 21
10.6245888542
  0
LINE
  5
20D
100
AcDbEntity
  8
0
100
AcDbLine
 62
7
  6
CONTINUOUS
 10
9.7576923427
 20
7.8166695021
 11
12.1176923427
 21
7.8166695021
  0
LINE
  5
20E
100
AcDbEntity
  8
0
100
AcDbLine
 62
7
  6
CONTINUOUS
 10
10.4370391303
 20
10.5181695021
 11
10.4101923427
 21
10.5026695021
  0
LINE
  5
20F
100
AcDbEntity
  8
0
100
AcDbLine
 62
7
  6
CONTINUOUS
 10
9.9376923427
 20
8.0036695021
 11
11.9376923427
 21
8.0036695021
  0
LINE
  5
210
100
AcDbEntity
  8
0
100
AcDbLine
 62
7
  6
CONTINUOUS
 10
10.4244581905
 20
10.6245888542
 11
10.4101923427
 21
10.6049535993
  0
LINE
  5
211
100
AcDbEntity
  8
0
100
AcDbLine
 62
7
  6
CONTINUOUS
 10
10.1246896689
 20
8.1916695021
 11
11.7506950166
 21
8.1916695021
  0
LINE
  5
212
100
AcDbEntity
  8
0
100
AcDbLine
 62
7
  6
CONTINUOUS
 10
10.1796314393
 20
8.2536695021
 11
11.6957532462
 21
8.2536695021
  0
LINE
  5
213
100
AcDbEntity
  8
0
100
AcDbLine
 62
7
  6
CONTINUOUS
 10
10.4101923427
 20
10.5026695021
 11
10.3801923427
 21
10.4226695021
  0
LINE
  5
214
100
AcDbEntity
  8
0
100
AcDbLine
 62
7
  6
CONTINUOUS
 10
10.3541939831
 20
10.0978795484
 11
10.3246074572
 21
10.0568426594
  0
LINE
  5
215
100
AcDbEntity
  8
0
100
AcDbLine
 62
7
  6
CONTINUOUS
 10
10.1796314393
 20
8.2536695021
 11
10.1796314393
 21
8.5036140442
  0
LINE
  5
216
100
AcDbEntity
  8
0
100
AcDbLine
 62
7
  6
CONTINUOUS
 10
10.1966923427
 20
8.1916695021
 11
10.1966923427
 21
8.2536695021
  0
LINE
  5
217
100
AcDbEntity
  8
0
100
AcDbLine
 62
7
  6
CONTINUOUS
 10
11.4651923427
 20
10.5336695021
 11
11.4383455552
 21
10.5181695021
  0
LINE
  5
218
100
AcDbEntity
  8
0
100
AcDbLine
 62
9
  6
CONTINUOUS
 10
10.2965289031
 20
8.6201695021
 11
11.5788557824
 21
8.6201695021
  0
LINE
  5
219
100
AcDbEntity
  8
0
100
AcDbLine
 62
7
  6
CONTINUOUS
 10
10.4101923427
 20
10.6049535993
 11
10.4101923427
 21
10.5336695021
  0
LINE
  5
21A
100
AcDbEntity
  8
0
100
AcDbLine
 62
7
  6
CONTINUOUS
 10
10.558661891
 20
8.2536695021
 11
10.558661891
 21
8.5036140442
  0
LINE
  5
21B
100
AcDbEntity
  8
0
100
AcDbLine
 62
7
  6
CONTINUOUS
 10
10.3230583485
 20
9.0633683137
 11
10.3971923427
 21
9.1692859409
  0
LINE
  5
21C
100
AcDbEntity
  8
0
100
AcDbLine
 62
7
  6
CONTINUOUS
 10
11.4651923427
 20
9.9336695021
 11
11.3081923427
 21
9.8826695021
  0
LINE
  5
21D
100
AcDbEntity
  8
0
100
AcDbLine
 62
9
  6
CONTINUOUS
 10
10.3191923427
 20
8.8351695021
 11
11.5561923427
 21
8.8351695021
  0
LINE
  5
21E
100
AcDbEntity
  8
0
100
AcDbLine
 62
7
  6
CONTINUOUS
 10
10.5941923427
 20
9.8826695021
 11
10.5941923427
 21
9.5236695021
  0
LINE
  5
21F
100
AcDbEntity
  8
0
100
AcDbLine
 62
7
  6
CONTINUOUS
 10
10.3801923427
 20
10.0126695021
 11
10.4101923427
 21
9.9336695021
  0
LINE
  5
220
100
AcDbEntity
  8
0
100
AcDbLine
 62
7
  6
CONTINUOUS
 10
10.7376923427
 20
9.5236695021
 11
10.7376923427
 21
9.5036695021
  0
LINE
  5
221
100
AcDbEntity
  8
0
100
AcDbLine
 62
7
  6
CONTINUOUS
 10
11.5211907023
 20
10.3374594558
 11
11.5507772283
 21
10.3784963449
  0
LINE
  5
222
100
AcDbEntity
  8
0
100
AcDbLine
 62
9
  6
CONTINUOUS
 10
10.3230583485
 20
9.0633683137
 11
11.5523263369
 21
9.0633683137
  0
LINE
  5
223
100
AcDbEntity
  8
0
100
AcDbLine
 62
7
  6
CONTINUOUS
 10
10.1796395964
 20
8.5036169078
 11
10.2965289031
 21
8.6201695021
  0
LINE
  5
224
100
AcDbEntity
  8
0
100
AcDbLine
 62
9
  6
CONTINUOUS
 10
10.3971923427
 20
9.1692859409
 11
11.4781923427
 21
9.1692859409
  0
LINE
  5
225
100
AcDbEntity
  8
0
100
AcDbLine
 62
7
  6
CONTINUOUS
 10
11.6957480332
 20
8.5036139721
 11
11.5788557824
 21
8.6201695021
  0
LINE
  5
226
100
AcDbEntity
  8
0
100
AcDbLine
 62
7
  6
CONTINUOUS
 10
11.1376923427
 20
9.5236695021
 11
11.1376923427
 21
9.5036695021
  0
LINE
  5
227
100
AcDbEntity
  8
0
100
AcDbLine
 62
7
  6
CONTINUOUS
 10
11.4951923427
 20
10.0126695021
 11
11.4651923427
 21
9.9336695021
  0
LINE
  5
228
100
AcDbEntity
  8
0
100
AcDbLine
 62
9
  6
CONTINUOUS
 10
10.5079526152
 20
9.4752687448
 11
11.3674320703
 21
9.4752687448
  0
LINE
  5
229
100
AcDbEntity
  8
0
100
AcDbLine
 62
7
  6
CONTINUOUS
 10
10.5388434542
 20
9.5036695021
 11
11.3365412312
 21
9.5036695021
  0
LINE
  5
22A
100
AcDbEntity
  8
0
100
AcDbLine
 62
7
  6
CONTINUOUS
 10
10.5941932771
 20
9.5236695021
 11
11.2811914084
 21
9.5236695021
  0
LINE
  5
22B
100
AcDbEntity
  8
0
100
AcDbLine
 62
7
  6
CONTINUOUS
 10
10.3541939831
 20
10.3374594558
 11
10.3246074572
 21
10.3784963449
  0
LINE
  5
22C
100
AcDbEntity
  8
0
100
AcDbLine
 62
7
  6
CONTINUOUS
 10
11.2811923427
 20
9.8826695021
 11
11.2811923427
 21
9.5236695021
  0
LINE
  5
22D
100
AcDbEntity
  8
0
100
AcDbLine
 62
7
  6
CONTINUOUS
 10
11.3167227945
 20
8.2536695021
 11
11.3167227945
 21
8.503613558
  0
LINE
  5
22E
100
AcDbEntity
  8
0
100
AcDbLine
 62
7
  6
CONTINUOUS
 10
11.5523263369
 20
9.0633683137
 11
11.4781923427
 21
9.1692859409
  0
LINE
  5
22F
100
AcDbEntity
  8
0
100
AcDbLine
 62
7
  6
CONTINUOUS
 10
10.4101923427
 20
9.9336695021
 11
10.5671923427
 21
9.8826695021
  0
LINE
  5
230
100
AcDbEntity
  8
0
100
AcDbLine
 62
7
  6
CONTINUOUS
 10
11.4651923427
 20
10.6049535993
 11
11.4651923427
 21
10.5336695021
  0
LINE
  5
231
100
AcDbEntity
  8
0
100
AcDbLine
 62
7
  6
CONTINUOUS
 10
10.5671926983
 20
9.8826695021
 11
11.3081919871
 21
9.8826695021
  0
LINE
  5
232
100
AcDbEntity
  8
0
100
AcDbLine
 62
7
  6
CONTINUOUS
 10
11.6786923427
 20
8.1916695021
 11
11.6786923427
 21
8.2536695021
  0
LINE
  5
233
100
AcDbEntity
  8
0
100
AcDbLine
 62
7
  6
CONTINUOUS
 10
11.6957532462
 20
8.2536695021
 11
11.6957532462
 21
8.5036121191
  0
LINE
  5
234
100
AcDbEntity
  8
0
100
AcDbLine
 62
7
  6
CONTINUOUS
 10
10.4101923427
 20
9.9336695021
 11
11.4651923427
 21
9.9336695021
  0
LINE
  5
235
100
AcDbEntity
  8
0
100
AcDbLine
 62
7
  6
CONTINUOUS
 10
10.3801923427
 20
10.0126695021
 11
11.4951923427
 21
10.0126695021
  0
LINE
  5
236
100
AcDbEntity
  8
0
100
AcDbLine
 62
7
  6
CONTINUOUS
 10
10.5777707653
 20
10.0216695021
 11
10.5890620203
 21
10.0216695021
  0
LINE
  5
237
100
AcDbEntity
  8
0
100
AcDbLine
 62
7
  6
CONTINUOUS
 10
11.2863224471
 20
10.0216695021
 11
11.2976139201
 21
10.0216695021
  0
LINE
  5
238
100
AcDbEntity
  8
0
100
AcDbLine
 62
7
  6
CONTINUOUS
 10
10.4101923427
 20
10.5336695021
 11
10.4370391303
 21
10.5181695021
  0
LINE
  5
239
100
AcDbEntity
  8
0
100
AcDbLine
 62
7
  6
CONTINUOUS
 10
11.5211907023
 20
10.0978795484
 11
11.5507772283
 21
10.0568426594
  0
LINE
  5
23A
100
AcDbEntity
  8
0
100
AcDbLine
 62
7
  6
CONTINUOUS
 10
11.4651923427
 20
10.5026695021
 11
11.4951923427
 21
10.4226695021
  0
LINE
  5
23B
100
AcDbEntity
  8
0
100
AcDbLine
 62
7
  6
CONTINUOUS
 10
10.5777707653
 20
10.4136695021
 11
10.5890620258
 21
10.4136695021
  0
LINE
  5
23C
100
AcDbEntity
  8
0
100
AcDbLine
 62
7
  6
CONTINUOUS
 10
11.2863224168
 20
10.4136695021
 11
11.2976139201
 21
10.4136695021
  0
LINE
  5
23D
100
AcDbEntity
  8
0
100
AcDbLine
 62
7
  6
CONTINUOUS
 10
10.3801923427
 20
10.4226695021
 11
11.4951923427
 21
10.4226695021
  0
LINE
  5
23E
100
AcDbEntity
  8
0
100
AcDbLine
 62
7
  6
CONTINUOUS
 10
10.4101923427
 20
10.5026695021
 11
11.4651923427
 21
10.5026695021
  0
LINE
  5
23F
100
AcDbEntity
  8
0
100
AcDbLine
 62
7
  6
CONTINUOUS
 10
10.4370391303
 20
10.5181695021
 11
11.4383455552
 21
10.5181695021
  0
LINE
  5
240
100
AcDbEntity
  8
0
100
AcDbLine
 62
7
  6
CONTINUOUS
 10
11.450926495
 20
10.6245888542
 11
11.4651923427
 21
10.6049535993
  0
LINE
  5
241
100
AcDbEntity
  8
0
100
AcDbLine
 62
7
  6
CONTINUOUS
 10
10.4101923427
 20
10.5336695021
 11
11.4651923427
 21
10.5336695021
  0
LINE
  5
242
100
AcDbEntity
  8
0
100
AcDbLine
 62
7
  6
CONTINUOUS
 10
10.4101923427
 20
10.6049535993
 11
11.4651923427
 21
10.6049535993
  0
LINE
  5
243
100
AcDbEntity
  8
0
100
AcDbLine
 62
7
  6
CONTINUOUS
 10
10.4244581905
 20
10.6245888542
 11
11.450926495
 21
10.6245888542
  0
LINE
  5
244
100
AcDbEntity
  8
0
100
AcDbLine
 62
7
  6
CONTINUOUS
 10
10.4831830637
 20
10.6436695021
 11
11.3922016218
 21
10.6436695021
  0
LINE
  5
245
100
AcDbEntity
  8
0
100
AcDbLine
 62
7
  6
CONTINUOUS
 10
11.4383455552
 20
10.5181695021
 11
11.4651923427
 21
10.5026695021
  0
LINE
  5
246
100
AcDbEntity
  8
0
100
AcDbLine
 62
9
  6
CONTINUOUS
 10
10.5425476862
 20
10.6674787954
 11
11.3328369993
 21
10.6674787954
  0
LINE
  5
247
100
AcDbEntity
  8
0
100
AcDbLine
 62
7
  6
CONTINUOUS
 10
11.3922022989
 20
10.6436695021
 11
11.450926495
 21
10.6245888542
  0
ARC
  5
248
100
AcDbEntity
  8
0
100
AcDbCircle
 62
7
  6
CONTINUOUS
 10
10.9376923427
 20
9.1679994867
 40
1.5506700155
100
AcDbArc
 50
75.2369687319
 51
104.7630312681
  0
ARC
  5
249
100
AcDbEntity
  8
0
100
AcDbCircle
 62
7
  6
CONTINUOUS
 10
9.4575534538
 20
10.2176695021
 40
0.9451388889
100
AcDbArc
 50
347.4730187713
 51
350.8290585337
  0
ARC
  5
24A
100
AcDbEntity
  8
0
100
AcDbCircle
 62
7
  6
CONTINUOUS
 10
9.4575534538
 20
10.2176695021
 40
0.9451388889
100
AcDbArc
 50
9.1701089548
 51
12.5269812287
  0
ARC
  5
24B
100
AcDbEntity
  8
0
100
AcDbCircle
 62
7
  6
CONTINUOUS
 10
12.4178312316
 20
10.2176695021
 40
0.9451388889
100
AcDbArc
 50
189.1392787109
 51
192.5269812287
  0
ARC
  5
24C
100
AcDbEntity
  8
0
100
AcDbCircle
 62
7
  6
CONTINUOUS
 10
12.4178312316
 20
10.2176695021
 40
0.9451388889
100
AcDbArc
 50
167.4730187713
 51
170.8611167309
  0
ARC
  5
24D
100
AcDbEntity
  8
0
100
AcDbCircle
 62
7
  6
CONTINUOUS
 10
11.9902312448
 20
9.5276728307
 40
0.625
100
AcDbArc
 50
184.8096995456
 51
214.9889904702
  0
ARC
  5
24E
100
AcDbEntity
  8
0
100
AcDbCircle
 62
7
  6
CONTINUOUS
 10
9.8851534407
 20
9.5276728307
 40
0.625
100
AcDbArc
 50
325.0110095298
 51
355.1903004544
  0
ARC
  5
24F
100
AcDbEntity
  8
0
100
AcDbCircle
 62
7
  6
CONTINUOUS
 10
10.1015386736
 20
10.2176695021
 40
0.275
100
AcDbArc
 50
35.7906993538
 51
324.209298599
  0
ARC
  5
250
100
AcDbEntity
  8
0
100
AcDbCircle
 62
7
  6
CONTINUOUS
 10
11.7738461077
 20
10.217669514
 40
0.2750000038
100
AcDbArc
 50
215.7906222051
 51
144.2093627608
  0
ARC
  5
251
100
AcDbEntity
  8
0
100
AcDbCircle
 62
7
  6
CONTINUOUS
 10
10.4901674638
 20
8.9464050989
 40
0.2039751211
100
AcDbArc
 50
145.0110095298
 51
213.0478355064
  0
ARC
  5
252
100
AcDbEntity
  8
0
100
AcDbCircle
 62
7
  6
CONTINUOUS
 10
11.3852172217
 20
8.9464050989
 40
0.2039751211
100
AcDbArc
 50
326.9521644936
 51
34.9889904702
  0
ARC
  5
253
100
AcDbEntity
  8
0
100
AcDbCircle
 62
7
  6
CONTINUOUS
 10
9.9448284538
 20
7.8166695021
 40
0.1871361111
100
AcDbArc
 50
92.1854050713
 51
180.0
  0
ARC
  5
254
100
AcDbEntity
  8
0
100
AcDbCircle
 62
7
  6
CONTINUOUS
 10
11.9305562316
 20
7.8166695021
 40
0.1871361111
100
AcDbArc
 50
0.0
 51
87.8145949287
  0
ARC
  5
255
100
AcDbEntity
  8
0
100
AcDbCircle
 62
7
  6
CONTINUOUS
 10
10.1246896689
 20
8.0046695021
 40
0.187
100
AcDbArc
 50
90.0
 51
180.3063960032
  0
ARC
  5
256
100
AcDbEntity
  8
0
100
AcDbCircle
 62
7
  6
CONTINUOUS
 10
11.7506950166
 20
8.0046695021
 40
0.187
100
AcDbArc
 50
359.6936039968
 51
90.0
  0
ARC
  5
257
100
AcDbEntity
  8
0
100
AcDbCircle
 62
7
  6
CONTINUOUS
 10
10.1754178091
 20
8.7416304776
 40
0.1715245336
100
AcDbArc
 50
314.9173576842
 51
33.0478355064
  0
ARC
  5
258
100
AcDbEntity
  8
0
100
AcDbCircle
 62
7
  6
CONTINUOUS
 10
11.6999668764
 20
8.7416304776
 40
0.1715245336
100
AcDbArc
 50
146.9521644936
 51
225.0826423158
  0
ARC
  5
259
100
AcDbEntity
  8
0
100
AcDbCircle
 62
7
  6
CONTINUOUS
 10
10.2982330276
 20
10.1276521151
 40
0.1059826129
100
AcDbArc
 50
267.8228018429
 51
269.9994258975
  0
ARC
  5
25A
100
AcDbEntity
  8
0
100
AcDbCircle
 62
7
  6
CONTINUOUS
 10
10.2982330044
 20
10.3076869434
 40
0.1059825588
100
AcDbArc
 50
90.000561584
 51
92.1627149266
  0
ARC
  5
25B
100
AcDbEntity
  8
0
100
AcDbCircle
 62
9
  6
CONTINUOUS
 10
10.5777491222
 20
10.3151032405
 40
0.0985662641
100
AcDbArc
 50
81.250577539
 51
89.9874189983
  0
ARC
  5
25C
100
AcDbEntity
  8
0
100
AcDbCircle
 62
9
  6
CONTINUOUS
 10
10.5777491222
 20
10.1202357635
 40
0.0985662637
100
AcDbArc
 50
270.0125809926
 51
278.7494190918
  0
ARC
  5
25D
100
AcDbEntity
  8
0
100
AcDbCircle
 62
9
  6
CONTINUOUS
 10
11.2976326096
 20
10.1202315614
 40
0.0985619671
100
AcDbArc
 50
260.5123966982
 51
269.9891354633
  0
ARC
  5
25E
100
AcDbEntity
  8
0
100
AcDbCircle
 62
9
  6
CONTINUOUS
 10
11.2976326094
 20
10.3151074481
 40
0.0985619619
100
AcDbArc
 50
90.0108643791
 51
99.4875648073
  0
ARC
  5
25F
100
AcDbEntity
  8
0
100
AcDbCircle
 62
7
  6
CONTINUOUS
 10
10.5388434542
 20
9.4726695021
 40
0.031
100
AcDbArc
 50
90.0
 51
175.1903004543
  0
ARC
  5
260
100
AcDbEntity
  8
0
100
AcDbCircle
 62
7
  6
CONTINUOUS
 10
11.3365412312
 20
9.4726695021
 40
0.031
100
AcDbArc
 50
4.8096995457
 51
90.0
  0
ARC
  5
261
100
AcDbEntity
  8
0
100
AcDbCircle
 62
7
  6
CONTINUOUS
 10
10.5501923427
 20
10.6384691552
 40
0.03
100
AcDbArc
 50
104.7630312681
 51
170.017644151
  0
ARC
  5
262
100
AcDbEntity
  8
0
100
AcDbCircle
 62
7
  6
CONTINUOUS
 10
11.3251923427
 20
10.6384691552
 40
0.03
100
AcDbArc
 50
9.982355849
 51
75.2369687319
  0
SPLINE
  5
263
100
AcDbEntity
  8
0
100
AcDbSpline
 62
7
  6
CONTINUOUS
 70
0
 71
3
 72
19
 73
15
 74
0
 42
0.0000001
 43
0.0000001
 44
0.0000000001
 40
0.0
 40
0.0
 40
0.0
 40
0.0
 40
0.0594156459
 40
0.1188844059
 40
0.1785176405
 40
0.2383871504
 40
0.2985617226
 40
0.3591228481
 40
0.4201477591
 40
0.4817116892
 40
0.6066578888
 40
0.7345068619
 40
0.8655774835
 40
1.0
 40
1.0
 40
1.0
 40
1.0
 10
10.5777707653
 20
10.4136695021
 30
0.0
 10
10.5747711821
 20
10.4136695021
 30
0.0
 10
10.5687666322
 20
10.4134310886
 30
0.0
 10
10.5598088828
 20
10.4123621036
 30
0.0
 10
10.5509397514
 20
10.4105891527
 30
0.0
 10
10.5422000475
 20
10.4081272694
 30
0.0
 10
10.5336290361
 20
10.4049920711
 30
0.0
 10
10.5252612547
 20
10.401206419
 30
0.0
 10
10.5171273697
 20
10.3967924416
 30
0.0
 10
10.5065805626
 20
10.390073302
 30
0.0
 10
10.494097334
 20
10.3801924009
 30
0.0
 10
10.4805070912
 20
10.3663116277
 30
0.0
 10
10.4683436599
 20
10.3505633111
 30
0.0
 10
10.4613374039
 20
10.3391030401
 30
0.0
 10
10.4580928538
 20
10.3331426238
 30
0.0
  0
SPLINE
  5
264
100
AcDbEntity
  8
0
100
AcDbSpline
 62
7
  6
CONTINUOUS
 70
0
 71
3
 72
19
 73
15
 74
0
 42
0.0000001
 43
0.0000001
 44
0.0000000001
 40
0.0
 40
0.0
 40
0.0
 40
0.0
 40
0.1344038634
 40
0.2654604765
 40
0.3933010214
 40
0.5182452744
 40
0.5798103654
 40
0.6408381964
 40
0.7014034194
 40
0.7615832959
 40
0.8214588672
 40
0.88109939
 40
0.940576694
 40
1.0
 40
1.0
 40
1.0
 40
1.0
 10
10.4582021961
 20
10.1019958102
 30
0.0
 10
10.4614481133
 20
10.0960488569
 30
0.0
 10
10.4684554878
 20
10.0846149815
 30
0.0
 10
10.4806153207
 20
10.0689044873
 30
0.0
 10
10.4941970697
 20
10.0550582021
 30
0.0
 10
10.5066691519
 20
10.0452027947
 30
0.0
 10
10.5172049063
 20
10.0385012162
 30
0.0
 10
10.5253297223
 20
10.0340989414
 30
0.0
 10
10.5336875295
 20
10.0303233616
 30
0.0
 10
10.5422478073
 20
10.027196647
 30
0.0
 10
10.5509761213
 20
10.0247414101
 30
0.0
 10
10.559833427
 20
10.0229733155
 30
0.0
 10
10.5687790053
 20
10.0219072743
 30
0.0
 10
10.5747753161
 20
10.0216695021
 30
0.0
 10
10.5777707653
 20
10.0216695021
 30
0.0
  0
SPLINE
  5
265
100
AcDbEntity
  8
0
100
AcDbSpline
 62
7
  6
CONTINUOUS
 70
0
 71
3
 72
39
 73
35
 74
0
 42
0.0000001
 43
0.0000001
 44
0.0000000001
 40
0.0
 40
0.0
 40
0.0
 40
0.0
 40
0.0070567044
 40
0.0130401235
 40
0.0179673378
 40
0.0218550024
 40
0.0247193332
 40
0.0265760931
 40
0.0274406304
 40
0.027506075
 40
0.0276818099
 40
0.0287462271
 40
0.030744039
 40
0.0336548956
 40
0.0374588066
 40
0.0421361598
 40
0.0476677372
 40
0.054034733
 40
0.0612187615
 40
0.0779592194
 40
0.0977229831
 40
0.120344506
 40
0.1456628901
 40
0.1735224352
 40
0.2037722986
 40
0.2362640604
 40
0.2708520267
 40
0.3457457957
 40
0.4273562155
 40
0.5145626559
 40
0.6062449735
 40
0.7013425147
 40
0.7990820051
 40
1.0
 40
1.0
 40
1.0
 40
1.0
 10
10.4653813743
 20
10.0988412377
 30
0.0
 10
10.4654370506
 20
10.0987883022
 30
0.0
 10
10.4655404384
 20
10.0986910544
 30
0.0
 10
10.4656845647
 20
10.0985586307
 30
0.0
 10
10.4658042497
 20
10.0984512526
 30
0.0
 10
10.4659004955
 20
10.0983669028
 30
0.0
 10
10.4659702865
 20
10.0983073146
 30
0.0
 10
10.4660197552
 20
10.0982656938
 30
0.0
 10
10.4660395367
 20
10.0982499077
 30
0.0
 10
10.4660514428
 20
10.0982399148
 30
0.0
 10
10.4660312151
 20
10.0982558445
 30
0.0
 10
10.466014738
 20
10.098268115
 30
0.0
 10
10.4659551723
 20
10.0983133751
 30
0.0
 10
10.465882425
 20
10.0983668036
 30
0.0
 10
10.4657803774
 20
10.0984404763
 30
0.0
 10
10.4656561363
 20
10.0985278479
 30
0.0
 10
10.465507161
 20
10.0986301039
 30
0.0
 10
10.465334523
 20
10.0987455412
 30
0.0
 10
10.4650581049
 20
10.0989254597
 30
0.0
 10
10.46465449
 20
10.0991771402
 30
0.0
 10
10.4641005173
 20
10.0995050513
 30
0.0
 10
10.4634576949
 20
10.0998658145
 30
0.0
 10
10.4627287872
 20
10.100252843
 30
0.0
 10
10.4619165128
 20
10.1006594206
 30
0.0
 10
10.4610238763
 20
10.1010792723
 30
0.0
 10
10.4600545788
 20
10.1015075642
 30
0.0
 10
10.4586264273
 20
10.1020989286
 30
0.0
 10
10.4566760065
 20
10.1028252239
 30
0.0
 10
10.454146305
 20
10.1036286543
 30
0.0
 10
10.4514051786
 20
10.1043599582
 30
0.0
 10
10.4484896147
 20
10.1049949179
 30
0.0
 10
10.4454335186
 20
10.1055076338
 30
0.0
 10
10.4411757804
 20
10.1060140944
 30
0.0
 10
10.4379215805
 20
10.1061695021
 30
0.0
 10
10.4357342383
 20
10.1061695021
 30
0.0
  0
SPLINE
  5
266
100
AcDbEntity
  8
0
100
AcDbSpline
 62
7
  6
CONTINUOUS
 70
0
 71
3
 72
22
 73
18
 74
0
 42
0.0000001
 43
0.0000001
 44
0.0000000001
 40
0.0
 40
0.0
 40
0.0
 40
0.0
 40
0.172963605
 40
0.2576158763
 40
0.3405474762
 40
0.4213835117
 40
0.4997083272
 40
0.5749288576
 40
0.6463843663
 40
0.7133953481
 40
0.7752736895
 40
0.8313506483
 40
0.8809431811
 40
0.9233359886
 40
0.9578013513
 40
0.9836118931
 40
1.0
 40
1.0
 40
1.0
 40
1.0
 10
10.4357342383
 20
10.3291695021
 30
0.0
 10
10.4375542093
 20
10.3291695021
 30
0.0
 10
10.4402665037
 20
10.3292781084
 30
0.0
 10
10.4438330092
 20
10.3296309318
 30
0.0
 10
10.4464230015
 20
10.3299892874
 30
0.0
 10
10.4489312813
 20
10.3304376543
 30
0.0
 10
10.4513400237
 20
10.3309701139
 30
0.0
 10
10.4536306106
 20
10.3315710585
 30
0.0
 10
10.4557825795
 20
10.3322245883
 30
0.0
 10
10.4577752409
 20
10.3329142592
 30
0.0
 10
10.4595875881
 20
10.3336252194
 30
0.0
 10
10.4612021178
 20
10.3343344488
 30
0.0
 10
10.4626037091
 20
10.3350155777
 30
0.0
 10
10.4637773383
 20
10.3356432035
 30
0.0
 10
10.4647086129
 20
10.3361913313
 30
0.0
 10
10.4653879571
 20
10.3366266203
 30
0.0
 10
10.4657535473
 20
10.3368788203
 30
0.0
 10
10.4658931051
 20
10.3369801082
 30
0.0
  0
SPLINE
  5
267
100
AcDbEntity
  8
0
100
AcDbSpline
 62
7
  6
CONTINUOUS
 70
0
 71
3
 72
11
 73
7
 74
0
 42
0.0000001
 43
0.0000001
 44
0.0000000001
 40
0.0
 40
0.0
 40
0.0
 40
0.0
 40
0.2217906087
 40
0.467835015
 40
0.7292314401
 40
1.0
 40
1.0
 40
1.0
 40
1.0
 10
10.4141242607
 20
10.3327712049
 30
0.0
 10
10.4156551528
 20
10.3322202132
 30
0.0
 10
10.4189406815
 20
10.3312113823
 30
0.0
 10
10.4241730382
 20
10.3300683361
 30
0.0
 10
10.429842086
 20
10.3293392411
 30
0.0
 10
10.4337479133
 20
10.3291695021
 30
0.0
 10
10.4357342383
 20
10.3291695021
 30
0.0
  0
SPLINE
  5
268
100
AcDbEntity
  8
0
100
AcDbSpline
 62
7
  6
CONTINUOUS
 70
0
 71
3
 72
14
 73
10
 74
0
 42
0.0000001
 43
0.0000001
 44
0.0000000001
 40
0.0
 40
0.0
 40
0.0
 40
0.0
 40
0.2710759928
 40
0.4033256216
 40
0.5324372759
 40
0.657699098
 40
0.7781937715
 40
0.8927158422
 40
1.0
 40
1.0
 40
1.0
 40
1.0
 10
10.4357342383
 20
10.1061695021
 30
0.0
 10
10.4337446326
 20
10.1061695021
 30
0.0
 10
10.4307822755
 20
10.1060399953
 30
0.0
 10
10.426896286
 20
10.105619631
 30
0.0
 10
10.4240896502
 20
10.1051945418
 30
0.0
 10
10.4213890749
 20
10.1046635532
 30
0.0
 10
10.4188185156
 20
10.1040398006
 30
0.0
 10
10.4164033358
 20
10.1033452864
 30
0.0
 10
10.4148584033
 20
10.1028300988
 30
0.0
 10
10.4141172169
 20
10.1025642274
 30
0.0
  0
SPLINE
  5
269
100
AcDbEntity
  8
0
100
AcDbSpline
 62
7
  6
CONTINUOUS
 70
0
 71
3
 72
45
 73
41
 74
0
 42
0.0000001
 43
0.0000001
 44
0.0000000001
 40
0.0
 40
0.0
 40
0.0
 40
0.0
 40
0.0270198859
 40
0.0542020342
 40
0.0679116718
 40
0.0817199728
 40
0.0956452351
 40
0.1097041099
 40
0.1239125463
 40
0.1382842605
 40
0.167554677
 40
0.1976037842
 40
0.22847531
 40
0.2601792373
 40
0.2926918516
 40
0.3259585134
 40
0.3598972452
 40
0.3944025073
 40
0.4293494466
 40
0.4645988352
 40
0.5000018449
 40
0.5354048263
 40
0.5706541274
 40
0.6056009045
 40
0.6401059319
 40
0.674044402
 40
0.7073107627
 40
0.7398230417
 40
0.7715266221
 40
0.8023977767
 40
0.8324465324
 40
0.8617166187
 40
0.8760881705
 40
0.8902964642
 40
0.9043552138
 40
0.9182803552
 40
0.9320885567
 40
0.9457980917
 40
0.9729801542
 40
1.0
 40
1.0
 40
1.0
 40
1.0
 10
10.2982319656
 20
10.0216695021
 30
0.0
 10
10.3030624234
 20
10.0216695021
 30
0.0
 10
10.3127645163
 20
10.0223349002
 30
0.0
 10
10.3246892227
 20
10.0248082805
 30
0.0
 10
10.3340272826
 20
10.0277310934
 30
0.0
 10
10.3409446238
 20
10.0303998082
 30
0.0
 10
10.3477353192
 20
10.0335272277
 30
0.0
 10
10.3543822542
 20
10.0371027848
 30
0.0
 10
10.3608700959
 20
10.0411133704
 30
0.0
 10
10.3693383232
 20
10.0470590891
 30
0.0
 10
10.3794568289
 20
10.0555410564
 30
0.0
 10
10.3906648559
 20
10.0671704298
 30
0.0
 10
10.4009334402
 20
10.0801936653
 30
0.0
 10
10.4101857843
 20
10.0944818003
 30
0.0
 10
10.4183541554
 20
10.1099001977
 30
0.0
 10
10.4253772696
 20
10.1263065083
 30
0.0
 10
10.4312013536
 20
10.1435507968
 30
0.0
 10
10.4357806846
 20
10.1614757303
 30
0.0
 10
10.439078544
 20
10.1799174013
 30
0.0
 10
10.441068141
 20
10.1987066011
 30
0.0
 10
10.44173313
 20
10.217670489
 30
0.0
 10
10.4410680163
 20
10.2366343568
 30
0.0
 10
10.4390782923
 20
10.2554234937
 30
0.0
 10
10.4357802956
 20
10.2738650523
 30
0.0
 10
10.4312008526
 20
10.291789835
 30
0.0
 10
10.4253767029
 20
10.3090339501
 30
0.0
 10
10.418353552
 20
10.3254400702
 30
0.0
 10
10.4101851707
 20
10.340858263
 30
0.0
 10
10.4009328416
 20
10.3551461831
 30
0.0
 10
10.390664297
 20
10.3681692055
 30
0.0
 10
10.3794563437
 20
10.3797983878
 30
0.0
 10
10.3693379182
 20
10.3882802133
 30
0.0
 10
10.360869775
 20
10.394225854
 30
0.0
 10
10.3543819843
 20
10.3982363762
 30
0.0
 10
10.3477351002
 20
10.4018118801
 30
0.0
 10
10.3409444599
 20
10.4049392719
 30
0.0
 10
10.3340271644
 20
10.4076079442
 30
0.0
 10
10.324689157
 20
10.4105307519
 30
0.0
 10
10.3127644852
 20
10.4130041004
 30
0.0
 10
10.3030624162
 20
10.4136695021
 30
0.0
 10
10.2982319656
 20
10.4136695021
 30
0.0
  0
SPLINE
  5
26A
100
AcDbEntity
  8
0
100
AcDbSpline
 62
7
  6
CONTINUOUS
 70
0
 71
3
 72
20
 73
16
 74
0
 42
0.0000001
 43
0.0000001
 44
0.0000000001
 40
0.0
 40
0.0
 40
0.0
 40
0.0
 40
0.1343842375
 40
0.2654261614
 40
0.3932550602
 40
0.4560900044
 40
0.5182568328
 40
0.5798179355
 40
0.6408436067
 40
0.7014067394
 40
0.7615853222
 40
0.8214590015
 40
0.8810997138
 40
0.9405781914
 40
1.0
 40
1.0
 40
1.0
 40
1.0
 10
11.4171185593
 20
10.3334601932
 30
0.0
 10
11.4138718139
 20
10.3393992832
 30
0.0
 10
11.4068634274
 20
10.3508181526
 30
0.0
 10
11.3947071125
 20
10.3665055835
 30
0.0
 10
11.3833222354
 20
10.3780981298
 30
0.0
 10
11.3735707562
 20
10.3862997746
 30
0.0
 10
11.365993708
 20
10.3918695098
 30
0.0
 10
11.3581338525
 20
10.3968647748
 30
0.0
 10
11.3500144558
 20
10.4012598425
 30
0.0
 10
11.341662494
 20
10.4050296762
 30
0.0
 10
11.3331085404
 20
10.4081512171
 30
0.0
 10
11.3243870082
 20
10.4106027103
 30
0.0
 10
11.3155366334
 20
10.4123677705
 30
0.0
 10
11.306598267
 20
10.4134321407
 30
0.0
 10
11.3006068555
 20
10.4136695021
 30
0.0
 10
11.2976139201
 20
10.4136695021
 30
0.0
  0
SPLINE
  5
26B
100
AcDbEntity
  8
0
100
AcDbSpline
 62
7
  6
CONTINUOUS
 70
0
 71
3
 72
19
 73
15
 74
0
 42
0.0000001
 43
0.0000001
 44
0.0000000001
 40
0.0
 40
0.0
 40
0.0
 40
0.0
 40
0.0594266032
 40
0.1189049895
 40
0.1785456625
 40
0.2384231768
 40
0.2986045516
 40
0.3591714077
 40
0.4201995502
 40
0.4817655692
 40
0.6067091152
 40
0.7345487889
 40
0.8656024432
 40
1.0
 40
1.0
 40
1.0
 40
1.0
 10
11.2976139201
 20
10.0216695021
 30
0.0
 10
11.3006080202
 20
10.0216695021
 30
0.0
 10
11.3066015111
 20
10.0219071051
 30
0.0
 10
11.3155428585
 20
10.0229720224
 30
0.0
 10
11.3243959591
 20
10.024738608
 30
0.0
 10
11.3331203812
 20
10.0271913782
 30
0.0
 10
11.3416770226
 20
10.0303153364
 30
0.0
 10
11.3500315386
 20
10.0340873391
 30
0.0
 10
11.3581532463
 20
10.0384858315
 30
0.0
 10
11.3686854137
 20
10.045181309
 30
0.0
 10
11.3811538388
 20
10.0550282896
 30
0.0
 10
11.3947328893
 20
10.0688631064
 30
0.0
 10
11.4068916856
 20
10.0845610358
 30
0.0
 10
11.4138993405
 20
10.0959862096
 30
0.0
 10
11.4171457902
 20
10.1019286051
 30
0.0
  0
SPLINE
  5
26C
100
AcDbEntity
  8
0
100
AcDbSpline
 62
7
  6
CONTINUOUS
 70
0
 71
3
 72
24
 73
20
 74
0
 42
0.0000001
 43
0.0000001
 44
0.0000000001
 40
0.0
 40
0.0
 40
0.0
 40
0.0
 40
0.0607471001
 40
0.0932606062
 40
0.1269910834
 40
0.1975123627
 40
0.2711731175
 40
0.4234714923
 40
0.5000688975
 40
0.5755473087
 40
0.6488397523
 40
0.7188329203
 40
0.7843839332
 40
0.844269341
 40
0.8971808352
 40
0.9417546572
 40
0.9604664411
 40
0.9765393281
 40
1.0
 40
1.0
 40
1.0
 40
1.0
 10
11.4616229791
 20
10.1024346716
 30
0.0
 10
11.4606051242
 20
10.1028089886
 30
0.0
 10
11.4590244349
 20
10.1033359077
 30
0.0
 10
11.4568444517
 20
10.1039593299
 30
0.0
 10
11.4544771183
 20
10.1045584805
 30
0.0
 10
11.4513638034
 20
10.1051979114
 30
0.0
 10
11.4461238087
 20
10.1059613805
 30
0.0
 10
11.4407148102
 20
10.1062510571
 30
0.0
 10
11.4352815684
 20
10.1060726352
 30
0.0
 10
11.4312731086
 20
10.1056963457
 30
0.0
 10
11.427410765
 20
10.1051030958
 30
0.0
 10
11.423762429
 20
10.1043241726
 30
0.0
 10
11.4203992523
 20
10.1033879477
 30
0.0
 10
11.4173849621
 20
10.1023568839
 30
0.0
 10
11.4147825813
 20
10.101293754
 30
0.0
 10
11.4129120785
 20
10.1003937286
 30
0.0
 10
11.4116642041
 20
10.0997224757
 30
0.0
 10
11.4107630712
 20
10.0992034579
 30
0.0
 10
11.4101660121
 20
10.0988260612
 30
0.0
 10
11.4098203836
 20
10.0985894916
 30
0.0
  0
SPLINE
  5
26D
100
AcDbEntity
  8
0
100
AcDbSpline
 62
7
  6
CONTINUOUS
 70
0
 71
3
 72
23
 73
19
 74
0
 42
0.0000001
 43
0.0000001
 44
0.0000000001
 40
0.0
 40
0.0
 40
0.0
 40
0.0
 40
0.1415514746
 40
0.2115837975
 40
0.2807033182
 40
0.3486499989
 40
0.4152093083
 40
0.4802158123
 40
0.5435633108
 40
0.60521176
 40
0.6651919769
 40
0.723606227
 40
0.7806242223
 40
0.8364757806
 40
0.8914393584
 40
0.9458262362
 40
0.9729225871
 40
1.0
 40
1.0
 40
1.0
 40
1.0
 10
11.4338734992
 20
10.2176695021
 30
0.0
 10
11.4338734992
 20
10.2048279678
 30
0.0
 10
11.4352389768
 20
10.1855937748
 30
0.0
 10
11.4398039352
 20
10.1605247876
 30
0.0
 10
11.4445411664
 20
10.14232387
 30
0.0
 10
11.4505638149
 20
10.1248405475
 30
0.0
 10
11.4578230789
 20
10.1082378437
 30
0.0
 10
11.4662616662
 20
10.0926734461
 30
0.0
 10
11.4758143633
 20
10.0782961267
 30
0.0
 10
11.486408509
 20
10.0652469414
 30
0.0
 10
11.497963432
 20
10.0536599487
 30
0.0
 10
11.5103884917
 20
10.0436632802
 30
0.0
 10
11.5235792292
 20
10.0353791358
 30
0.0
 10
11.5374138201
 20
10.0289218409
 30
0.0
 10
11.5517455331
 20
10.0243924298
 30
0.0
 10
11.5639872145
 20
10.022287642
 30
0.0
 10
11.5738205019
 20
10.0216365677
 30
0.0
 10
11.578740009
 20
10.0216530991
 30
0.0
 10
11.5811946864
 20
10.0217466624
 30
0.0
  0
SPLINE
  5
26E
100
AcDbEntity
  8
0
100
AcDbSpline
 62
7
  6
CONTINUOUS
 70
0
 71
3
 72
41
 73
37
 74
0
 42
0.0000001
 43
0.0000001
 44
0.0000000001
 40
0.0
 40
0.0
 40
0.0
 40
0.0
 40
0.0000733901
 40
0.0002663668
 40
0.0014383921
 40
0.0024110973
 40
0.0036371107
 40
0.0068329961
 40
0.0109940332
 40
0.0160887509
 40
0.0220863525
 40
0.0289567608
 40
0.0366706658
 40
0.0451995325
 40
0.0545141256
 40
0.0645838391
 40
0.086867233
 40
0.1118140264
 40
0.1391971161
 40
0.1687982995
 40
0.2004039004
 40
0.2338049409
 40
0.2687985781
 40
0.3051904146
 40
0.3427958158
 40
0.3814329723
 40
0.4610776299
 40
0.5427495716
 40
0.625116619
 40
0.6661499343
 40
0.7068596969
 40
0.7866270858
 40
0.8630415757
 40
0.8995500177
 40
0.9346785786
 40
1.0
 40
1.0
 40
1.0
 40
1.0
 10
11.4093383081
 20
10.3370950211
 30
0.0
 10
11.4093372729
 20
10.3370958508
 30
0.0
 10
11.4093317379
 20
10.3371001715
 30
0.0
 10
11.4093698163
 20
10.3370700145
 30
0.0
 10
11.409386627
 20
10.3370576937
 30
0.0
 10
11.4094409489
 20
10.3370167989
 30
0.0
 10
11.4095171495
 20
10.3369610033
 30
0.0
 10
11.4096450054
 20
10.3368694967
 30
0.0
 10
11.4098293677
 20
10.3367419507
 30
0.0
 10
11.4100587028
 20
10.3365882476
 30
0.0
 10
11.410331124
 20
10.3364117261
 30
0.0
 10
11.4106465461
 20
10.3362143002
 30
0.0
 10
11.4110042485
 20
10.3359983686
 30
0.0
 10
11.411403724
 20
10.3357662307
 30
0.0
 10
11.4118441839
 20
10.3355200075
 30
0.0
 10
11.4125075107
 20
10.3351630861
 30
0.0
 10
11.4134316083
 20
10.3346947443
 30
0.0
 10
11.4146535542
 20
10.3341231826
 30
0.0
 10
11.4160152248
 20
10.3335398843
 30
0.0
 10
11.4175075035
 20
10.3329579804
 30
0.0
 10
11.4191200344
 20
10.3323873678
 30
0.0
 10
11.4208427596
 20
10.3318386121
 30
0.0
 10
11.4226655451
 20
10.3313220274
 30
0.0
 10
11.4245782888
 20
10.3308480937
 30
0.0
 10
11.4265697426
 20
10.3304223248
 30
0.0
 10
11.4293431488
 20
10.3299209996
 30
0.0
 10
11.4329296253
 20
10.3294491063
 30
0.0
 10
11.4373283792
 20
10.3291632696
 30
0.0
 10
11.4410381701
 20
10.3291570401
 30
0.0
 10
11.4440020725
 20
10.3292943712
 30
0.0
 10
11.4469129729
 20
10.3295260454
 30
0.0
 10
11.4504456268
 20
10.3299804868
 30
0.0
 10
11.4538682521
 20
10.3306410243
 30
0.0
 10
11.4564681714
 20
10.3312779918
 30
0.0
 10
11.4588521793
 20
10.3319469949
 30
0.0
 10
11.460577263
 20
10.3325189439
 30
0.0
 10
11.4616850752
 20
10.3329277005
 30
0.0
  0
SPLINE
  5
26F
100
AcDbEntity
  8
0
100
AcDbSpline
 62
7
  6
CONTINUOUS
 70
0
 71
3
 72
24
 73
20
 74
0
 42
0.0000001
 43
0.0000001
 44
0.0000000001
 40
0.0
 40
0.0
 40
0.0
 40
0.0
 40
0.0270780601
 40
0.0541744485
 40
0.0813318476
 40
0.1085920036
 40
0.1635526816
 40
0.2194001016
 40
0.276413177
 40
0.3348222056
 40
0.3947974051
 40
0.4564413654
 40
0.519785154
 40
0.5847889338
 40
0.6513465703
 40
0.7192925967
 40
0.7884123683
 40
0.8584456258
 40
1.0
 40
1.0
 40
1.0
 40
1.0
 10
11.5813012752
 20
10.4135881858
 30
0.0
 10
11.578845596
 20
10.4136842678
 30
0.0
 10
11.5739241625
 20
10.4137058601
 30
0.0
 10
11.5665527234
 20
10.4132245256
 30
0.0
 10
11.5592153898
 20
10.4122313061
 30
0.0
 10
11.5494861487
 20
10.4102275348
 30
0.0
 10
11.5374955041
 20
10.4064496958
 30
0.0
 10
11.5236528666
 20
10.4000002431
 30
0.0
 10
11.5104519987
 20
10.3917214557
 30
0.0
 10
11.4980174867
 20
10.381728049
 30
0.0
 10
11.4864533179
 20
10.3701422906
 30
0.0
 10
11.4758505065
 20
10.3570924865
 30
0.0
 10
11.4662898149
 20
10.3427128608
 30
0.0
 10
11.4578440417
 20
10.3271446442
 30
0.0
 10
11.450578511
 20
10.3105367868
 30
0.0
 10
11.4445506035
 20
10.293047178
 30
0.0
 10
11.4398092001
 20
10.274839053
 30
0.0
 10
11.4352401839
 20
10.2497594518
 30
0.0
 10
11.4338734992
 20
10.2305167338
 30
0.0
 10
11.4338734992
 20
10.2176695021
 30
0.0
  0
SPLINE
  5
270
100
AcDbEntity
  8
0
100
AcDbSpline
 62
7
  6
CONTINUOUS
 70
0
 71
3
 72
11
 73
7
 74
0
 42
0.0000001
 43
0.0000001
 44
0.0000000001
 40
0.0
 40
0.0
 40
0.0
 40
0.0
 40
0.4765533688
 40
0.6032465543
 40
0.7327996717
 40
1.0
 40
1.0
 40
1.0
 40
1.0
 10
11.3319043733
 20
10.0126695021
 30
0.0
 10
11.3234171021
 20
10.0126695021
 30
0.0
 10
11.3126421067
 20
10.0140035299
 30
0.0
 10
11.2999624999
 20
10.0170825316
 30
0.0
 10
11.2910095609
 20
10.0196944036
 30
0.0
 10
11.2843611649
 20
10.0221180437
 30
0.0
 10
11.279957031
 20
10.0239206451
 30
0.0
  0
SPLINE
  5
271
100
AcDbEntity
  8
0
100
AcDbSpline
 62
7
  6
CONTINUOUS
 70
0
 71
3
 72
43
 73
39
 74
0
 42
0.0000001
 43
0.0000001
 44
0.0000000001
 40
0.0
 40
0.0
 40
0.0
 40
0.0
 40
0.0280062455
 40
0.0568581421
 40
0.0864395411
 40
0.1166367762
 40
0.1473457001
 40
0.1784731415
 40
0.2099378058
 40
0.2416708188
 40
0.2736134575
 40
0.305718261
 40
0.3379449753
 40
0.3702615797
 40
0.4026429909
 40
0.4188547588
 40
0.4350757033
 40
0.4513031442
 40
0.4675355693
 40
0.5000000005
 40
0.5324644315
 40
0.5486968566
 40
0.5649242974
 40
0.581145242
 40
0.59735701
 40
0.6297384214
 40
0.6620550258
 40
0.69428174
 40
0.7263865435
 40
0.7583291823
 40
0.7900621951
 40
0.8215268592
 40
0.8526543005
 40
0.8833632244
 40
0.9135604594
 40
0.943141858
 40
0.9719937546
 40
1.0
 40
1.0
 40
1.0
 40
1.0
 10
11.279957031
 20
10.0239206451
 30
0.0
 10
11.275618605
 20
10.0256963524
 30
0.0
 10
11.2669463259
 20
10.0296406469
 30
0.0
 10
11.2542200344
 20
10.0365459542
 30
0.0
 10
11.2416711651
 20
10.0444786082
 30
0.0
 10
11.2294056317
 20
10.0533816805
 30
0.0
 10
11.2175240278
 20
10.0632024128
 30
0.0
 10
11.2061257173
 20
10.0738930454
 30
0.0
 10
11.1953094013
 20
10.0854091877
 30
0.0
 10
11.1851768829
 20
10.0977096812
 30
0.0
 10
11.1758334154
 20
10.1107531303
 30
0.0
 10
11.1673896369
 20
10.1244949274
 30
0.0
 10
11.1599611387
 20
10.1388835794
 30
0.0
 10
11.1536650777
 20
10.1538541129
 30
0.0
 10
11.1494600332
 20
10.1667463989
 30
0.0
 10
11.1467717337
 20
10.1772598242
 30
0.0
 10
11.1451047617
 20
10.1852351102
 30
0.0
 10
11.1437964042
 20
10.1932806295
 30
0.0
 10
11.1425432712
 20
10.2040785171
 30
0.0
 10
11.1419104148
 20
10.217669504
 30
0.0
 10
11.1425432716
 20
10.2312604909
 30
0.0
 10
11.1437964047
 20
10.2420583785
 30
0.0
 10
11.1451047624
 20
10.2501038977
 30
0.0
 10
11.1467717345
 20
10.2580791837
 30
0.0
 10
11.1494600343
 20
10.268592609
 30
0.0
 10
11.153665079
 20
10.281484895
 30
0.0
 10
11.1599611404
 20
10.2964554284
 30
0.0
 10
11.1673896388
 20
10.3108440802
 30
0.0
 10
11.1758334176
 20
10.3245858772
 30
0.0
 10
11.1851768853
 20
10.3376293261
 30
0.0
 10
11.1953094038
 20
10.3499298194
 30
0.0
 10
11.2061257199
 20
10.3614459616
 30
0.0
 10
11.2175240305
 20
10.3721365939
 30
0.0
 10
11.2294056345
 20
10.381957326
 30
0.0
 10
11.241671168
 20
10.3908603981
 30
0.0
 10
11.2542200374
 20
10.3987930518
 30
0.0
 10
11.2669463289
 20
10.4056983589
 30
0.0
 10
11.2756186081
 20
10.4096426532
 30
0.0
 10
11.2799570341
 20
10.4114183604
 30
0.0
  0
SPLINE
  5
272
100
AcDbEntity
  8
0
100
AcDbSpline
 62
7
  6
CONTINUOUS
 70
0
 71
3
 72
11
 73
7
 74
0
 42
0.0000001
 43
0.0000001
 44
0.0000000001
 40
0.0
 40
0.0
 40
0.0
 40
0.0
 40
0.2672003262
 40
0.3967534478
 40
0.5234466415
 40
1.0
 40
1.0
 40
1.0
 40
1.0
 10
11.2799570341
 20
10.4114183604
 30
0.0
 10
11.2843611677
 20
10.4132209617
 30
0.0
 10
11.2910095634
 20
10.4156446015
 30
0.0
 10
11.2999625021
 20
10.4182564733
 30
0.0
 10
11.3126421081
 20
10.4213354743
 30
0.0
 10
11.3234171028
 20
10.4226695021
 30
0.0
 10
11.3319043732
 20
10.4226695021
 30
0.0
  0
SPLINE
  5
273
100
AcDbEntity
  8
0
100
AcDbSpline
 62
7
  6
CONTINUOUS
 70
0
 71
3
 72
11
 73
7
 74
0
 42
0.0000001
 43
0.0000001
 44
0.0000000001
 40
0.0
 40
0.0
 40
0.0
 40
0.0
 40
0.4765534483
 40
0.6032466187
 40
0.7327997209
 40
1.0
 40
1.0
 40
1.0
 40
1.0
 10
10.5434803122
 20
10.4226695021
 30
0.0
 10
10.5519675315
 20
10.4226695021
 30
0.0
 10
10.5627424603
 20
10.4213354908
 30
0.0
 10
10.5754219921
 20
10.4182565239
 30
0.0
 10
10.5843748772
 20
10.4156446812
 30
0.0
 10
10.5910232345
 20
10.4132210682
 30
0.0
 10
10.5954273433
 20
10.4114184866
 30
0.0
  0
SPLINE
  5
274
100
AcDbEntity
  8
0
100
AcDbSpline
 62
7
  6
CONTINUOUS
 70
0
 71
3
 72
43
 73
39
 74
0
 42
0.0000001
 43
0.0000001
 44
0.0000000001
 40
0.0
 40
0.0
 40
0.0
 40
0.0
 40
0.02800623
 40
0.0568581138
 40
0.0864395044
 40
0.1166367352
 40
0.147345655
 40
0.1784730952
 40
0.2099377655
 40
0.2416707834
 40
0.2736134246
 40
0.3057182327
 40
0.3379449525
 40
0.3702615615
 40
0.4026429746
 40
0.4188547438
 40
0.4350756902
 40
0.4513031335
 40
0.4675355616
 40
0.4999999996
 40
0.5324644379
 40
0.5486968662
 40
0.5649243096
 40
0.5811452561
 40
0.5973570253
 40
0.6297384382
 40
0.6620550472
 40
0.694281767
 40
0.7263865752
 40
0.7583292163
 40
0.7900622344
 40
0.8215269049
 40
0.852654345
 40
0.8833632647
 40
0.9135604956
 40
0.9431418861
 40
0.9719937699
 40
1.0
 40
1.0
 40
1.0
 40
1.0
 10
10.5954273433
 20
10.4114184866
 30
0.0
 10
10.5997657759
 20
10.409642786
 30
0.0
 10
10.608438069
 20
10.4056985028
 30
0.0
 10
10.6211643825
 20
10.3987932084
 30
0.0
 10
10.6337132755
 20
10.3908605627
 30
0.0
 10
10.6459788337
 20
10.3819574949
 30
0.0
 10
10.657860463
 20
10.3721367637
 30
0.0
 10
10.6692587995
 20
10.3614461282
 30
0.0
 10
10.6800751417
 20
10.3499299792
 30
0.0
 10
10.6902076854
 20
10.3376294762
 30
0.0
 10
10.6995511767
 20
10.3245860154
 30
0.0
 10
10.7079949773
 20
10.3108442041
 30
0.0
 10
10.7154234957
 20
10.2964555354
 30
0.0
 10
10.7217195741
 20
10.2814849836
 30
0.0
 10
10.7259246304
 20
10.2685926811
 30
0.0
 10
10.7286129376
 20
10.2580792419
 30
0.0
 10
10.7302799146
 20
10.2501039449
 30
0.0
 10
10.731588276
 20
10.242058414
 30
0.0
 10
10.7328414128
 20
10.2312605102
 30
0.0
 10
10.7334742715
 20
10.2176695023
 30
0.0
 10
10.7328414128
 20
10.2040784943
 30
0.0
 10
10.7315882761
 20
10.1932805904
 30
0.0
 10
10.7302799146
 20
10.1852350595
 30
0.0
 10
10.7286129376
 20
10.1772597625
 30
0.0
 10
10.7259246305
 20
10.1667463233
 30
0.0
 10
10.7217195741
 20
10.1538540208
 30
0.0
 10
10.7154234957
 20
10.1388834689
 30
0.0
 10
10.7079949773
 20
10.1244948002
 30
0.0
 10
10.6995511768
 20
10.1107529889
 30
0.0
 10
10.6902076855
 20
10.0977095281
 30
0.0
 10
10.6800751417
 20
10.0854090251
 30
0.0
 10
10.6692587994
 20
10.0738928761
 30
0.0
 10
10.657860463
 20
10.0632022406
 30
0.0
 10
10.6459788337
 20
10.0533815093
 30
0.0
 10
10.6337132755
 20
10.0444784415
 30
0.0
 10
10.6211643825
 20
10.0365457959
 30
0.0
 10
10.608438069
 20
10.0296405015
 30
0.0
 10
10.5997657759
 20
10.0256962183
 30
0.0
 10
10.5954273432
 20
10.0239205177
 30
0.0
  0
SPLINE
  5
275
100
AcDbEntity
  8
0
100
AcDbSpline
 62
7
  6
CONTINUOUS
 70
0
 71
3
 72
11
 73
7
 74
0
 42
0.0000001
 43
0.0000001
 44
0.0000000001
 40
0.0
 40
0.0
 40
0.0
 40
0.0
 40
0.2672002804
 40
0.396753383
 40
0.5234465531
 40
1.0
 40
1.0
 40
1.0
 40
1.0
 10
10.5954273432
 20
10.0239205177
 30
0.0
 10
10.5910232344
 20
10.0221179361
 30
0.0
 10
10.5843748771
 20
10.0196943231
 30
0.0
 10
10.575421992
 20
10.0170824804
 30
0.0
 10
10.5627424602
 20
10.0140035134
 30
0.0
 10
10.5519675315
 20
10.0126695021
 30
0.0
 10
10.5434803122
 20
10.0126695021
 30
0.0
  0
SPLINE
  5
276
100
AcDbEntity
  8
0
100
AcDbSpline
 62
7
  6
CONTINUOUS
 70
0
 71
3
 72
11
 73
7
 74
0
 42
0.0000001
 43
0.0000001
 44
0.0000000001
 40
0.0
 40
0.0
 40
0.0
 40
0.0
 40
0.2458629419
 40
0.4941961153
 40
0.7454431977
 40
1.0
 40
1.0
 40
1.0
 40
1.0
 10
10.5708800944
 20
10.4194388645
 30
0.0
 10
10.5685871514
 20
10.418856259
 30
0.0
 10
10.5640156089
 20
10.4175323951
 30
0.0
 10
10.557264853
 20
10.4150938491
 30
0.0
 10
10.5506051236
 20
10.4122001791
 30
0.0
 10
10.5462662944
 20
10.4099871842
 30
0.0
 10
10.5441184573
 20
10.408809628
 30
0.0
  0
SPLINE
  5
277
100
AcDbEntity
  8
0
100
AcDbSpline
 62
7
  6
CONTINUOUS
 70
0
 71
3
 72
11
 73
7
 74
0
 42
0.0000001
 43
0.0000001
 44
0.0000000001
 40
0.0
 40
0.0
 40
0.0
 40
0.0
 40
0.2545703793
 40
0.5058208748
 40
0.7541489091
 40
1.0
 40
1.0
 40
1.0
 40
1.0
 10
10.5440579317
 20
10.0265625817
 30
0.0
 10
10.5462103562
 20
10.0253809416
 30
0.0
 10
10.5505586069
 20
10.0231604015
 30
0.0
 10
10.5572333175
 20
10.0202573179
 30
0.0
 10
10.5639995552
 20
10.0178114524
 30
0.0
 10
10.5685817831
 20
10.0164841093
 30
0.0
 10
10.5708800965
 20
10.0159001393
 30
0.0
  0
SPLINE
  5
278
100
AcDbEntity
  8
0
100
AcDbSpline
 62
9
  6
CONTINUOUS
 70
0
 71
3
 72
21
 73
17
 74
0
 42
0.0000001
 43
0.0000001
 44
0.0000000001
 40
0.0
 40
0.0
 40
0.0
 40
0.0
 40
0.1169631371
 40
0.1780521242
 40
0.2405923848
 40
0.3043428002
 40
0.3690292724
 40
0.4343532473
 40
0.5
 40
0.5656467527
 40
0.6309707276
 40
0.6956571998
 40
0.7594076152
 40
0.8219478758
 40
0.8830368629
 40
1.0
 40
1.0
 40
1.0
 40
1.0
 10
10.3246074525
 20
10.0568426661
 30
0.0
 10
10.3323758497
 20
10.0676173649
 30
0.0
 10
10.3426333389
 20
10.0852039051
 30
0.0
 10
10.3534114146
 20
10.1103285664
 30
0.0
 10
10.3602381896
 20
10.130509551
 30
0.0
 10
10.3656162758
 20
10.1515407293
 30
0.0
 10
10.3694959081
 20
10.1732205834
 30
0.0
 10
10.3718387855
 20
10.1953356081
 30
0.0
 10
10.3726223095
 20
10.2176695021
 30
0.0
 10
10.3718387855
 20
10.2400033962
 30
0.0
 10
10.3694959081
 20
10.2621184209
 30
0.0
 10
10.3656162758
 20
10.283798275
 30
0.0
 10
10.3602381896
 20
10.3048294532
 30
0.0
 10
10.3534114146
 20
10.3250104379
 30
0.0
 10
10.3426333389
 20
10.3501350992
 30
0.0
 10
10.3323758497
 20
10.3677216394
 30
0.0
 10
10.3246074525
 20
10.3784963381
 30
0.0
  0
SPLINE
  5
279
100
AcDbEntity
  8
0
100
AcDbSpline
 62
7
  6
CONTINUOUS
 70
0
 71
3
 72
11
 73
7
 74
0
 42
0.0000001
 43
0.0000001
 44
0.0000000001
 40
0.0
 40
0.0
 40
0.0
 40
0.0
 40
0.2457873201
 40
0.4940876818
 40
0.7453565392
 40
1.0
 40
1.0
 40
1.0
 40
1.0
 10
11.3045045782
 20
10.4194388677
 30
0.0
 10
11.3068317255
 20
10.4188475717
 30
0.0
 10
11.3114713238
 20
10.4175015171
 30
0.0
 10
11.3183206566
 20
10.4150162252
 30
0.0
 10
11.3250757449
 20
10.4120623928
 30
0.0
 10
11.3294745096
 20
10.4098011612
 30
0.0
 10
11.3316515218
 20
10.4085974954
 30
0.0
  0
SPLINE
  5
27A
100
AcDbEntity
  8
0
100
AcDbSpline
 62
7
  6
CONTINUOUS
 70
0
 71
3
 72
11
 73
7
 74
0
 42
0.0000001
 43
0.0000001
 44
0.0000000001
 40
0.0
 40
0.0
 40
0.0
 40
0.0
 40
0.2545995869
 40
0.505857423
 40
0.7541743999
 40
1.0
 40
1.0
 40
1.0
 40
1.0
 10
11.3314567642
 20
10.0266340568
 30
0.0
 10
11.3292944923
 20
10.0254436228
 30
0.0
 10
11.3249260139
 20
10.0232068356
 30
0.0
 10
11.3182191284
 20
10.0202834856
 30
0.0
 10
11.3114196342
 20
10.0178218683
 30
0.0
 10
11.3068144493
 20
10.0164870434
 30
0.0
 10
11.304504598
 20
10.0159001416
 30
0.0
  0
SPLINE
  5
27B
100
AcDbEntity
  8
0
100
AcDbSpline
 62
7
  6
CONTINUOUS
 70
0
 71
3
 72
37
 73
33
 74
0
 42
0.0000001
 43
0.0000001
 44
0.0000000001
 40
0.0
 40
0.0
 40
0.0
 40
0.0
 40
0.0699527235
 40
0.1041701353
 40
0.137846727
 40
0.1709602623
 40
0.203493322
 40
0.2354342448
 40
0.2667799621
 40
0.297536873
 40
0.3277247718
 40
0.3573778134
 40
0.386547285
 40
0.4153015463
 40
0.4437263213
 40
0.4719219132
 40
0.4999999999
 40
0.5280780866
 40
0.5562736784
 40
0.5846984534
 40
0.6134527147
 40
0.6426221863
 40
0.672275228
 40
0.7024631267
 40
0.7332200376
 40
0.7645657548
 40
0.7965066777
 40
0.8290397373
 40
0.8621532727
 40
0.8958298643
 40
0.9300472762
 40
1.0
 40
1.0
 40
1.0
 40
1.0
 10
10.558661891
 20
8.5036140445
 30
0.0
 10
10.5513818544
 20
8.5108731102
 30
0.0
 10
10.5403032938
 20
8.5214510692
 30
0.0
 10
10.5251020884
 20
8.5348461703
 30
0.0
 10
10.5136800221
 20
8.5443316922
 30
0.0
 10
10.5021511071
 20
8.5532895845
 30
0.0
 10
10.4905144189
 20
8.5616789231
 30
0.0
 10
10.4787703046
 20
8.5694571569
 30
0.0
 10
10.4669206985
 20
8.5765808933
 30
0.0
 10
10.4549684992
 20
8.58300521
 30
0.0
 10
10.4429190027
 20
8.5886861788
 30
0.0
 10
10.4307792267
 20
8.5935805957
 30
0.0
 10
10.418558994
 20
8.5976489859
 30
0.0
 10
10.4062699947
 20
8.6008543439
 30
0.0
 10
10.3939270404
 20
8.6031679579
 30
0.0
 10
10.3815464111
 20
8.6045647707
 30
0.0
 10
10.3691466651
 20
8.6050329692
 30
0.0
 10
10.3567469191
 20
8.6045647707
 30
0.0
 10
10.3443662897
 20
8.6031679579
 30
0.0
 10
10.3320233355
 20
8.6008543438
 30
0.0
 10
10.3197343362
 20
8.5976489858
 30
0.0
 10
10.3075141035
 20
8.5935805957
 30
0.0
 10
10.2953743275
 20
8.5886861788
 30
0.0
 10
10.283324831
 20
8.58300521
 30
0.0
 10
10.2713726317
 20
8.5765808932
 30
0.0
 10
10.2595230257
 20
8.5694571569
 30
0.0
 10
10.2477789113
 20
8.561678923
 30
0.0
 10
10.2361422231
 20
8.5532895845
 30
0.0
 10
10.2246133081
 20
8.5443316922
 30
0.0
 10
10.2131912418
 20
8.5348461703
 30
0.0
 10
10.1979900365
 20
8.521451069
 30
0.0
 10
10.186911476
 20
8.5108731099
 30
0.0
 10
10.1796314393
 20
8.5036140442
 30
0.0
  0
SPLINE
  5
27C
100
AcDbEntity
  8
0
100
AcDbSpline
 62
9
  6
CONTINUOUS
 70
0
 71
3
 72
23
 73
19
 74
0
 42
0.0000001
 43
0.0000001
 44
0.0000000001
 40
0.0
 40
0.0
 40
0.0
 40
0.0
 40
0.1169600594
 40
0.1473153496
 40
0.1780601488
 40
0.2405989036
 40
0.3043477408
 40
0.3690325721
 40
0.434354889
 40
0.5
 40
0.565645111
 40
0.6309674279
 40
0.6956522592
 40
0.7594010964
 40
0.8219398512
 40
0.8526846504
 40
0.8830399406
 40
1.0
 40
1.0
 40
1.0
 40
1.0
 10
10.3541939389
 20
10.0978796122
 30
0.0
 10
10.3599800261
 20
10.1059050815
 30
0.0
 10
10.3663042524
 20
10.1167477354
 30
0.0
 10
10.3725342878
 20
10.1304599335
 30
0.0
 10
10.376472262
 20
10.1401525843
 30
0.0
 10
10.3807329213
 20
10.1527492561
 30
0.0
 10
10.3847389349
 20
10.168414342
 30
0.0
 10
10.387628561
 20
10.1845622506
 30
0.0
 10
10.3893736636
 20
10.201034374
 30
0.0
 10
10.3899572779
 20
10.2176695021
 30
0.0
 10
10.3893736636
 20
10.2343046302
 30
0.0
 10
10.387628561
 20
10.2507767537
 30
0.0
 10
10.3847389349
 20
10.2669246623
 30
0.0
 10
10.3807329213
 20
10.2825897482
 30
0.0
 10
10.376472262
 20
10.29518642
 30
0.0
 10
10.3725342878
 20
10.3048790707
 30
0.0
 10
10.3663042524
 20
10.3185912689
 30
0.0
 10
10.3599800261
 20
10.3294339228
 30
0.0
 10
10.3541939389
 20
10.3374593921
 30
0.0
  0
SPLINE
  5
27D
100
AcDbEntity
  8
0
100
AcDbSpline
 62
9
  6
CONTINUOUS
 70
0
 71
3
 72
15
 73
11
 74
0
 42
0.0000001
 43
0.0000001
 44
0.0000000001
 40
0.0
 40
0.0
 40
0.0
 40
0.0
 40
0.2339201243
 40
0.294630767
 40
0.3561203376
 40
0.4811975192
 40
0.6086965933
 40
0.738062045
 40
0.8687154048
 40
1.0
 40
1.0
 40
1.0
 40
1.0
 10
11.5211907465
 20
10.0978796121
 30
0.0
 10
11.5154046596
 20
10.1059050818
 30
0.0
 10
11.5090804279
 20
10.1167477358
 30
0.0
 10
11.5028503999
 20
10.1304599398
 30
0.0
 10
11.498912432
 20
10.1401525772
 30
0.0
 10
11.4946517113
 20
10.1527492896
 30
0.0
 10
11.4906458644
 20
10.1684142295
 30
0.0
 10
11.4877559591
 20
10.1845625217
 30
0.0
 10
11.4860111355
 20
10.2010339586
 30
0.0
 10
11.4856222651
 20
10.2121167458
 30
0.0
 10
11.4856222651
 20
10.2176695021
 30
0.0
  0
SPLINE
  5
27E
100
AcDbEntity
  8
0
100
AcDbSpline
 62
9
  6
CONTINUOUS
 70
0
 71
3
 72
15
 73
11
 74
0
 42
0.0000001
 43
0.0000001
 44
0.0000000001
 40
0.0
 40
0.0
 40
0.0
 40
0.0
 40
0.2339201243
 40
0.294630767
 40
0.3561203376
 40
0.4811975192
 40
0.6086965933
 40
0.738062045
 40
0.8687154048
 40
1.0
 40
1.0
 40
1.0
 40
1.0
 10
11.5211907465
 20
10.3374593922
 30
0.0
 10
11.5154046596
 20
10.3294339224
 30
0.0
 10
11.5090804279
 20
10.3185912685
 30
0.0
 10
11.5028503999
 20
10.3048790645
 30
0.0
 10
11.498912432
 20
10.2951864271
 30
0.0
 10
11.4946517113
 20
10.2825897147
 30
0.0
 10
11.4906458644
 20
10.2669247748
 30
0.0
 10
11.4877559591
 20
10.2507764826
 30
0.0
 10
11.4860111355
 20
10.2343050457
 30
0.0
 10
11.4856222651
 20
10.2232222585
 30
0.0
 10
11.4856222651
 20
10.2176695021
 30
0.0
  0
SPLINE
  5
27F
100
AcDbEntity
  8
0
100
AcDbSpline
 62
9
  6
CONTINUOUS
 70
0
 71
3
 72
22
 73
18
 74
0
 42
0.0000001
 43
0.0000001
 44
0.0000000001
 40
0.0
 40
0.0
 40
0.0
 40
0.0
 40
0.0514655289
 40
0.1039859191
 40
0.1578357391
 40
0.2132307638
 40
0.2703244517
 40
0.3292076538
 40
0.389910703
 40
0.4524083417
 40
0.5166252494
 40
0.5824413757
 40
0.6496976071
 40
0.7182035167
 40
0.7877408381
 40
0.8580662201
 40
1.0
 40
1.0
 40
1.0
 40
1.0
 10
11.5645572274
 20
10.3958907034
 30
0.0
 10
11.5608568569
 20
10.394981031
 30
0.0
 10
11.5534848833
 20
10.3926874154
 30
0.0
 10
11.5427825887
 20
10.3879347855
 30
0.0
 10
11.532421084
 20
10.3818800096
 30
0.0
 10
11.5224808475
 20
10.3745727957
 30
0.0
 10
11.5130357581
 20
10.3660708078
 30
0.0
 10
11.5041565652
 20
10.356440123
 30
0.0
 10
11.4959091269
 20
10.3457550778
 30
0.0
 10
11.4883547358
 20
10.3340974403
 30
0.0
 10
11.4815498173
 20
10.32155588
 30
0.0
 10
11.4755453692
 20
10.3082256918
 30
0.0
 10
11.4703860665
 20
10.2942080789
 30
0.0
 10
11.4661107621
 20
10.2796096993
 30
0.0
 10
11.4627517206
 20
10.264540163
 30
0.0
 10
11.4595191716
 20
10.2439180565
 30
0.0
 10
11.4585516325
 20
10.2281783791
 30
0.0
 10
11.4585516325
 20
10.2176695021
 30
0.0
  0
SPLINE
  5
280
100
AcDbEntity
  8
0
100
AcDbSpline
 62
9
  6
CONTINUOUS
 70
0
 71
3
 72
22
 73
18
 74
0
 42
0.0000001
 43
0.0000001
 44
0.0000000001
 40
0.0
 40
0.0
 40
0.0
 40
0.0
 40
0.0514685525
 40
0.1039941483
 40
0.1578504308
 40
0.2132523026
 40
0.2703524669
 40
0.3292411734
 40
0.3899483078
 40
0.4524483047
 40
0.5166656831
 40
0.5824803649
 40
0.6497333104
 40
0.718234265
 40
0.7877651954
 40
0.8580830695
 40
1.0
 40
1.0
 40
1.0
 40
1.0
 10
11.5644395079
 20
10.0394773203
 30
0.0
 10
11.560742106
 20
10.0403912932
 30
0.0
 10
11.5533764259
 20
10.0426928627
 30
0.0
 10
11.5426842426
 20
10.0474550702
 30
0.0
 10
11.532333137
 20
10.053517281
 30
0.0
 10
11.5224033875
 20
10.0608297934
 30
0.0
 10
11.5129686906
 20
10.0693349886
 30
0.0
 10
11.5040996255
 20
10.0789668636
 30
0.0
 10
11.4958618946
 20
10.089651182
 30
0.0
 10
11.4883166341
 20
10.1013062888
 30
0.0
 10
11.4815201266
 20
10.1138436522
 30
0.0
 10
11.4755232468
 20
10.1271681398
 30
0.0
 10
11.470370553
 20
10.1411787253
 30
0.0
 10
11.4661007971
 20
10.1557689445
 30
0.0
 10
11.4627461583
 20
10.1708293934
 30
0.0
 10
11.459517893
 20
10.1914383382
 30
0.0
 10
11.4585516325
 20
10.2071675993
 30
0.0
 10
11.4585516325
 20
10.2176695021
 30
0.0
  0
SPLINE
  5
281
100
AcDbEntity
  8
0
100
AcDbSpline
 62
7
  6
CONTINUOUS
 70
0
 71
3
 72
25
 73
21
 74
0
 42
0.0000001
 43
0.0000001
 44
0.0000000001
 40
0.0
 40
0.0
 40
0.0
 40
0.0
 40
0.0513191637
 40
0.1034871162
 40
0.1568558658
 40
0.1840948772
 40
0.2117366989
 40
0.2683055007
 40
0.3267279586
 40
0.3566676495
 40
0.3870916704
 40
0.4493674402
 40
0.5135114575
 40
0.5794083664
 40
0.6468946473
 40
0.7157666015
 40
0.7857870941
 40
0.8566875455
 40
0.9281978694
 40
1.0
 40
1.0
 40
1.0
 40
1.0
 10
11.5734447289
 20
10.405861978
 30
0.0
 10
11.5693395724
 20
10.405294118
 30
0.0
 10
11.5611266683
 20
10.4036081785
 30
0.0
 10
11.5491090877
 20
10.3995108774
 30
0.0
 10
11.5394282247
 20
10.3948383987
 30
0.0
 10
11.5319065848
 20
10.3903767759
 30
0.0
 10
11.5244302669
 20
10.3853586537
 30
0.0
 10
11.515406097
 20
10.3781640153
 30
0.0
 10
11.5070285534
 20
10.3699630374
 30
0.0
 10
11.5006639435
 20
10.3627822713
 30
0.0
 10
11.4944416106
 20
10.355073387
 30
0.0
 10
11.4871592055
 20
10.3446892051
 30
0.0
 10
11.4793313564
 20
10.3312565387
 30
0.0
 10
11.4724100633
 20
10.3168674109
 30
0.0
 10
11.4664531518
 20
10.3016436542
 30
0.0
 10
11.4615100292
 20
10.2857130293
 30
0.0
 10
11.4576222397
 20
10.2692099201
 30
0.0
 10
11.4548213081
 20
10.2522723014
 30
0.0
 10
11.4531318573
 20
10.2350444919
 30
0.0
 10
11.4527553641
 20
10.2234678368
 30
0.0
 10
11.4527553641
 20
10.2176695021
 30
0.0
  0
SPLINE
  5
282
100
AcDbEntity
  8
0
100
AcDbSpline
 62
9
  6
CONTINUOUS
 70
0
 71
3
 72
14
 73
10
 74
0
 42
0.0000001
 43
0.0000001
 44
0.0000000001
 40
0.0
 40
0.0
 40
0.0
 40
0.0
 40
0.23610886
 40
0.3587094708
 40
0.4838110973
 40
0.6109856883
 40
0.7397488859
 40
0.8696091727
 40
1.0
 40
1.0
 40
1.0
 40
1.0
 10
11.1947281246
 20
10.0863492866
 30
0.0
 10
11.1888924567
 20
10.0954932616
 30
0.0
 10
11.1812035454
 20
10.1101717533
 30
0.0
 10
11.1731282885
 20
10.1308920932
 30
0.0
 10
11.16803648
 20
10.1473619579
 30
0.0
 10
11.1640328248
 20
10.1644172848
 30
0.0
 10
11.1611484152
 20
10.1819191344
 30
0.0
 10
11.1594086395
 20
10.1997187398
 30
0.0
 10
11.159020991
 20
10.211679008
 30
0.0
 10
11.159020991
 20
10.2176695021
 30
0.0
  0
SPLINE
  5
283
100
AcDbEntity
  8
0
100
AcDbSpline
 62
7
  6
CONTINUOUS
 70
0
 71
3
 72
25
 73
21
 74
0
 42
0.0000001
 43
0.0000001
 44
0.0000000001
 40
0.0
 40
0.0
 40
0.0
 40
0.0
 40
0.0513189886
 40
0.1034856634
 40
0.1568524039
 40
0.1840902592
 40
0.2117308768
 40
0.2682972611
 40
0.326717538
 40
0.356656304
 40
0.3870795314
 40
0.4493541716
 40
0.5134977451
 40
0.5793949297
 40
0.6468821917
 40
0.7157557733
 40
0.7857784521
 40
0.8566815308
 40
0.9281947789
 40
1.0
 40
1.0
 40
1.0
 40
1.0
 10
11.5734909372
 20
10.0294706459
 30
0.0
 10
11.5693847296
 20
10.0300366154
 30
0.0
 10
11.5611695566
 20
10.0317190179
 30
0.0
 10
11.5491481773
 20
10.0358119421
 30
0.0
 10
11.5394640037
 20
10.0404815377
 30
0.0
 10
11.5319397004
 20
10.0449412796
 30
0.0
 10
11.5244606698
 20
10.0499577799
 30
0.0
 10
11.5154330747
 20
10.057150958
 30
0.0
 10
11.5070522371
 20
10.0653511766
 30
0.0
 10
11.5006850667
 20
10.0725317203
 30
0.0
 10
11.4944601538
 20
10.0802406774
 30
0.0
 10
11.4871746596
 20
10.090625453
 30
0.0
 10
11.4793434237
 20
10.104059497
 30
0.0
 10
11.4724190705
 20
10.1184506441
 30
0.0
 10
11.466459478
 20
10.1336769868
 30
0.0
 10
11.4615140983
 20
10.1496106833
 30
0.0
 10
11.4576245128
 20
10.1661172608
 30
0.0
 10
11.4548222764
 20
10.1830586501
 30
0.0
 10
11.4531320338
 20
10.2002904341
 30
0.0
 10
11.4527553641
 20
10.2118698029
 30
0.0
 10
11.4527553641
 20
10.2176695021
 30
0.0
  0
SPLINE
  5
284
100
AcDbEntity
  8
0
100
AcDbSpline
 62
7
  6
CONTINUOUS
 70
0
 71
3
 72
25
 73
21
 74
0
 42
0.0000001
 43
0.0000001
 44
0.0000000001
 40
0.0
 40
0.0
 40
0.0
 40
0.0
 40
0.0625012546
 40
0.0937542055
 40
0.125006521
 40
0.1875070417
 40
0.2500071371
 40
0.3125063696
 40
0.3750048221
 40
0.4375025954
 40
0.5000000001
 40
0.5624974048
 40
0.624995178
 40
0.6874936305
 40
0.749992863
 40
0.8124929584
 40
0.8749934791
 40
0.9062457947
 40
0.9374987453
 40
1.0
 40
1.0
 40
1.0
 40
1.0
 10
11.3167227945
 20
8.5036140445
 30
0.0
 10
11.3019602348
 20
8.5109740735
 30
0.0
 10
11.2796177403
 20
8.5216256928
 30
0.0
 10
11.2494221271
 20
8.5349237013
 30
0.0
 10
11.2189481891
 20
8.5475708834
 30
0.0
 10
11.1803194502
 20
8.562059409
 30
0.0
 10
11.133115383
 20
8.5769956542
 30
0.0
 10
11.0851075836
 20
8.5891275965
 30
0.0
 10
11.0364057453
 20
8.5981066199
 30
0.0
 10
10.987187478
 20
8.6036326843
 30
0.0
 10
10.9376923426
 20
8.6054993367
 30
0.0
 10
10.8881972072
 20
8.6036326843
 30
0.0
 10
10.8389789399
 20
8.5981066199
 30
0.0
 10
10.7902771017
 20
8.5891275964
 30
0.0
 10
10.7422693022
 20
8.5769956544
 30
0.0
 10
10.6950652352
 20
8.5620594085
 30
0.0
 10
10.6564364962
 20
8.5475708833
 30
0.0
 10
10.6259625573
 20
8.5349237035
 30
0.0
 10
10.5957669459
 20
8.5216256904
 30
0.0
 10
10.5734244554
 20
8.5109740638
 30
0.0
 10
10.558661891
 20
8.5036140442
 30
0.0
  0
SPLINE
  5
285
100
AcDbEntity
  8
0
100
AcDbSpline
 62
9
  6
CONTINUOUS
 70
0
 71
3
 72
14
 73
10
 74
0
 42
0.0000001
 43
0.0000001
 44
0.0000000001
 40
0.0
 40
0.0
 40
0.0
 40
0.0
 40
0.2339262599
 40
0.3561043127
 40
0.4811845592
 40
0.6086862379
 40
0.7380569705
 40
0.8687092546
 40
1.0
 40
1.0
 40
1.0
 40
1.0
 10
11.5507772329
 20
10.056842666
 30
0.0
 10
11.5430088369
 20
10.0676173646
 30
0.0
 10
11.5327513342
 20
10.0852039051
 30
0.0
 10
11.5219732902
 20
10.1103285596
 30
0.0
 10
11.5151464511
 20
10.1305095803
 30
0.0
 10
11.5097684933
 20
10.15154063
 30
0.0
 10
11.5058886639
 20
10.1732208598
 30
0.0
 10
11.5035459762
 20
10.1953349668
 30
0.0
 10
11.5030239794
 20
10.2102143544
 30
0.0
 10
11.5030239794
 20
10.2176695021
 30
0.0
  0
SPLINE
  5
286
100
AcDbEntity
  8
0
100
AcDbSpline
 62
9
  6
CONTINUOUS
 70
0
 71
3
 72
35
 73
31
 74
0
 42
0.0000001
 43
0.0000001
 44
0.0000000001
 40
0.0
 40
0.0
 40
0.0
 40
0.0
 40
0.0658794761
 40
0.0975817357
 40
0.1284362588
 40
0.1584617065
 40
0.1876991638
 40
0.2162126852
 40
0.2440888538
 40
0.2714362842
 40
0.298382789
 40
0.3250715412
 40
0.351656212
 40
0.3782947243
 40
0.4051427338
 40
0.4323473735
 40
0.460041975
 40
0.4883414407
 40
0.5173396094
 40
0.5471079605
 40
0.5776945846
 40
0.6413588371
 40
0.6744716676
 40
0.7083846535
 40
0.7430484599
 40
0.7783992235
 40
0.8508177662
 40
0.8877345549
 40
0.924979279
 40
1.0
 40
1.0
 40
1.0
 40
1.0
 10
11.416718476
 20
10.1016910691
 30
0.0
 10
11.4126013847
 20
10.0943473849
 30
0.0
 10
11.4057709821
 20
10.0838468286
 30
0.0
 10
11.3953150752
 20
10.0711788884
 30
0.0
 10
11.3870794464
 20
10.0626652309
 30
0.0
 10
11.3784009354
 20
10.0550735738
 30
0.0
 10
11.3693298477
 20
10.048448841
 30
0.0
 10
11.3599197529
 20
10.0428316872
 30
0.0
 10
11.3502259471
 20
10.0382575856
 30
0.0
 10
11.3403065754
 20
10.0347550882
 30
0.0
 10
11.330221398
 20
10.0323468568
 30
0.0
 10
11.3200318661
 20
10.0310492154
 30
0.0
 10
11.3098007314
 20
10.0308701401
 30
0.0
 10
11.2995910633
 20
10.0318112163
 30
0.0
 10
11.2894658425
 20
10.0338663053
 30
0.0
 10
11.279486856
 20
10.0370212749
 30
0.0
 10
11.2697146989
 20
10.0412561754
 30
0.0
 10
11.2602078332
 20
10.0465438086
 30
0.0
 10
11.2510225724
 20
10.0528506364
 30
0.0
 10
11.2422127727
 20
10.060138951
 30
0.0
 10
11.2308887371
 20
10.0712490166
 30
0.0
 10
11.2206935184
 20
10.0840334725
 30
0.0
 10
11.2117239281
 20
10.0981321809
 30
0.0
 10
11.2055107796
 20
10.1095582375
 30
0.0
 10
11.1999403761
 20
10.1216251819
 30
0.0
 10
11.1933607415
 20
10.1386066083
 30
0.0
 10
11.1882688428
 20
10.1564346682
 30
0.0
 10
11.1846710743
 20
10.1748257966
 30
0.0
 10
11.1820631416
 20
10.1937188166
 30
0.0
 10
11.1812821958
 20
10.2080822671
 30
0.0
 10
11.1812821958
 20
10.2176695021
 30
0.0
  0
SPLINE
  5
287
100
AcDbEntity
  8
0
100
AcDbSpline
 62
9
  6
CONTINUOUS
 70
0
 71
3
 72
14
 73
10
 74
0
 42
0.0000001
 43
0.0000001
 44
0.0000000001
 40
0.0
 40
0.0
 40
0.0
 40
0.0
 40
0.1303908353
 40
0.2602511293
 40
0.3890143322
 40
0.5161889261
 40
0.6412905522
 40
0.7638911587
 40
1.0
 40
1.0
 40
1.0
 40
1.0
 10
11.159020991
 20
10.2176695021
 30
0.0
 10
11.159020991
 20
10.2236600009
 30
0.0
 10
11.1594086401
 20
10.2356202784
 30
0.0
 10
11.1611484185
 20
10.2534198974
 30
0.0
 10
11.1640328325
 20
10.2709217599
 30
0.0
 10
11.1680364938
 20
10.2879770986
 30
0.0
 10
11.17312831
 20
10.3044469738
 30
0.0
 10
11.1812035788
 20
10.325167325
 30
0.0
 10
11.1888925014
 20
10.3398458232
 30
0.0
 10
11.1947281778
 20
10.348989801
 30
0.0
  0
SPLINE
  5
288
100
AcDbEntity
  8
0
100
AcDbSpline
 62
9
  6
CONTINUOUS
 70
0
 71
3
 72
35
 73
31
 74
0
 42
0.0000001
 43
0.0000001
 44
0.0000000001
 40
0.0
 40
0.0
 40
0.0
 40
0.0
 40
0.0750203241
 40
0.1122648181
 40
0.1491813393
 40
0.2215991846
 40
0.256949507
 40
0.2916128023
 40
0.3255252062
 40
0.3586373853
 40
0.4223001481
 40
0.4528859674
 40
0.4826534972
 40
0.5116508528
 40
0.5399495426
 40
0.5676434386
 40
0.5948474769
 40
0.6216950229
 40
0.6483332406
 40
0.6749178108
 40
0.7016066736
 40
0.7285535088
 40
0.7559014884
 40
0.7837784137
 40
0.8122928813
 40
0.8415314488
 40
0.8715581393
 40
0.9024140055
 40
0.9341176712
 40
1.0
 40
1.0
 40
1.0
 40
1.0
 10
11.1812821958
 20
10.2176695021
 30
0.0
 10
11.1812821958
 20
10.2272573323
 30
0.0
 10
11.1820632382
 20
10.2416216724
 30
0.0
 10
11.1846714944
 20
10.2605158303
 30
0.0
 10
11.1882697024
 20
10.2789080043
 30
0.0
 10
11.1933622177
 20
10.2967370073
 30
0.0
 10
11.1999426434
 20
10.3137192183
 30
0.0
 10
11.2055137017
 20
10.325786632
 30
0.0
 10
11.2117275677
 20
10.337213044
 30
0.0
 10
11.2206981621
 20
10.3513120367
 30
0.0
 10
11.2308944985
 20
10.3640965456
 30
0.0
 10
11.242219728
 20
10.3752063559
 30
0.0
 10
11.2510304163
 20
10.38249432
 30
0.0
 10
11.2602165671
 20
10.3888006386
 30
0.0
 10
11.2697243124
 20
10.3940876011
 30
0.0
 10
11.279497325
 20
10.3983216705
 30
0.0
 10
11.2894771308
 20
10.4014756477
 30
0.0
 10
11.2996031211
 20
10.4035295869
 30
0.0
 10
11.3098134952
 20
10.4044693631
 30
0.0
 10
11.32004526
 20
10.4042888424
 30
0.0
 10
11.3302353339
 20
10.4029896222
 30
0.0
 10
11.3403209548
 20
10.4005796905
 30
0.0
 10
11.3502406609
 20
10.3970753815
 30
0.0
 10
11.3599346846
 20
10.3924993746
 30
0.0
 10
11.3693448726
 20
10.386880235
 30
0.0
 10
11.378415921
 20
10.3802534512
 30
0.0
 10
11.387094257
 20
10.3726596974
 30
0.0
 10
11.3953295673
 20
10.3641439124
 30
0.0
 10
11.4057848435
 20
10.3514730893
 30
0.0
 10
11.4126145628
 20
10.3409704345
 30
0.0
 10
11.4167311181
 20
10.3336253817
 30
0.0
  0
SPLINE
  5
289
100
AcDbEntity
  8
0
100
AcDbSpline
 62
7
  6
CONTINUOUS
 70
0
 71
3
 72
37
 73
33
 74
0
 42
0.0000001
 43
0.0000001
 44
0.0000000001
 40
0.0
 40
0.0
 40
0.0
 40
0.0
 40
0.0699541474
 40
0.1041719411
 40
0.1378483699
 40
0.170961707
 40
0.2034947093
 40
0.2354355986
 40
0.2667812517
 40
0.2975380957
 40
0.3277259329
 40
0.3573789111
 40
0.3865483171
 40
0.4153025162
 40
0.4437272302
 40
0.4719227571
 40
0.5000007753
 40
0.5280787919
 40
0.5562743145
 40
0.5846990216
 40
0.6134532113
 40
0.6426226062
 40
0.6722755711
 40
0.7024633942
 40
0.733220228
 40
0.7645658676
 40
0.7965067198
 40
0.8290396998
 40
0.862153119
 40
0.8958296029
 40
0.9300470487
 40
1.0
 40
1.0
 40
1.0
 40
1.0
 10
11.6957532462
 20
8.5036121193
 30
0.0
 10
11.6884730339
 20
8.5108713601
 30
0.0
 10
11.6773950372
 20
8.5214503619
 30
0.0
 10
11.6621939433
 20
8.5348460891
 30
0.0
 10
11.6507717242
 20
8.5443315229
 30
0.0
 10
11.6392427287
 20
8.5532892975
 30
0.0
 10
11.6276060654
 20
8.5616786876
 30
0.0
 10
11.6158619591
 20
8.5694569898
 30
0.0
 10
11.6040123309
 20
8.5765807444
 30
0.0
 10
11.5920601128
 20
8.5830050736
 30
0.0
 10
11.580010605
 20
8.5886860695
 30
0.0
 10
11.567870816
 20
8.5935805111
 30
0.0
 10
11.5556505688
 20
8.5976489224
 30
0.0
 10
11.5433615531
 20
8.6008542967
 30
0.0
 10
11.5310185826
 20
8.6031679305
 30
0.0
 10
11.5186379364
 20
8.6045647584
 30
0.0
 10
11.5062381741
 20
8.6050329695
 30
0.0
 10
11.4938384116
 20
8.6045647815
 30
0.0
 10
11.4814577647
 20
8.6031679766
 30
0.0
 10
11.469114793
 20
8.6008543655
 30
0.0
 10
11.4568257759
 20
8.5976490127
 30
0.0
 10
11.4446055272
 20
8.5935806214
 30
0.0
 10
11.4324657355
 20
8.588686202
 30
0.0
 10
11.4204162236
 20
8.5830052272
 30
0.0
 10
11.4084640065
 20
8.5765809074
 30
0.0
 10
11.3966143826
 20
8.5694571637
 30
0.0
 10
11.3848702585
 20
8.5616789088
 30
0.0
 10
11.3732335654
 20
8.5532895525
 30
0.0
 10
11.3617046186
 20
8.5443316851
 30
0.0
 10
11.3502825019
 20
8.5348461792
 30
0.0
 10
11.3350813126
 20
8.5214509052
 30
0.0
 10
11.324002888
 20
8.5108726689
 30
0.0
 10
11.3167227945
 20
8.503613558
 30
0.0
  0
SPLINE
  5
28A
100
AcDbEntity
  8
0
100
AcDbSpline
 62
9
  6
CONTINUOUS
 70
0
 71
3
 72
14
 73
10
 74
0
 42
0.0000001
 43
0.0000001
 44
0.0000000001
 40
0.0
 40
0.0
 40
0.0
 40
0.0
 40
0.2339262599
 40
0.3561043127
 40
0.4811845592
 40
0.6086862379
 40
0.7380569705
 40
0.8687092546
 40
1.0
 40
1.0
 40
1.0
 40
1.0
 10
11.5507772329
 20
10.3784963383
 30
0.0
 10
11.5430088369
 20
10.3677216397
 30
0.0
 10
11.5327513342
 20
10.3501350992
 30
0.0
 10
11.5219732902
 20
10.3250104447
 30
0.0
 10
11.5151464511
 20
10.3048294239
 30
0.0
 10
11.5097684933
 20
10.2837983743
 30
0.0
 10
11.5058886639
 20
10.2621181445
 30
0.0
 10
11.5035459762
 20
10.2400040375
 30
0.0
 10
11.5030239794
 20
10.2251246499
 30
0.0
 10
11.5030239794
 20
10.2176695021
 30
0.0
  0
SPLINE
  5
28B
100
AcDbEntity
  8
0
100
AcDbSpline
 62
7
  6
CONTINUOUS
 70
0
 71
3
 72
24
 73
20
 74
0
 42
0.0000001
 43
0.0000001
 44
0.0000000001
 40
0.0
 40
0.0
 40
0.0
 40
0.0
 40
0.0640092603
 40
0.1258478908
 40
0.1858030444
 40
0.2152153269
 40
0.244321135
 40
0.3018490256
 40
0.3589248377
 40
0.4160835325
 40
0.4738314996
 40
0.5326371481
 40
0.5929027094
 40
0.6549719393
 40
0.7191181822
 40
0.7855594682
 40
0.8544540928
 40
0.9259136011
 40
1.0
 40
1.0
 40
1.0
 40
1.0
 10
11.3319043733
 20
10.4226695021
 30
0.0
 10
11.3348874188
 20
10.4226695021
 30
0.0
 10
11.3407565522
 20
10.4224126754
 30
0.0
 10
11.3493449719
 20
10.4212107146
 30
0.0
 10
11.3562022049
 20
10.419527738
 30
0.0
 10
11.3614443126
 20
10.4177869552
 30
0.0
 10
11.3664798616
 20
10.4158082659
 30
0.0
 10
11.3725072262
 20
10.4128554886
 30
0.0
 10
11.3792811288
 20
10.4085617651
 30
0.0
 10
11.3855652913
 20
10.4035630657
 30
0.0
 10
11.391360594
 20
10.3978912647
 30
0.0
 10
11.3966766917
 20
10.39157964
 30
0.0
 10
11.4015271085
 20
10.3846581699
 30
0.0
 10
11.4059301338
 20
10.3771556793
 30
0.0
 10
11.4099056576
 20
10.3690975673
 30
0.0
 10
11.4134752683
 20
10.3605075043
 30
0.0
 10
11.4166609473
 20
10.3514069757
 30
0.0
 10
11.4194846018
 20
10.3418167975
 30
0.0
 10
11.4211108468
 20
10.335229373
 30
0.0
 10
11.4218741384
 20
10.3318621274
 30
0.0
  0
SPLINE
  5
28C
100
AcDbEntity
  8
0
100
AcDbSpline
 62
7
  6
CONTINUOUS
 70
0
 71
3
 72
24
 73
20
 74
0
 42
0.0000001
 43
0.0000001
 44
0.0000000001
 40
0.0
 40
0.0
 40
0.0
 40
0.0
 40
0.0740776516
 40
0.1455293123
 40
0.214417197
 40
0.2808530031
 40
0.3449951447
 40
0.4070617599
 40
0.4673262325
 40
0.5261323394
 40
0.5838822335
 40
0.6410441875
 40
0.6981243543
 40
0.7556573755
 40
0.7847659306
 40
0.8141810305
 40
0.8741418326
 40
0.9359858167
 40
1.0
 40
1.0
 40
1.0
 40
1.0
 10
11.4218614292
 20
10.1034208381
 30
0.0
 10
11.4210978251
 20
10.1000555355
 30
0.0
 10
11.4194709849
 20
10.093471924
 30
0.0
 10
11.4166465525
 20
10.0838873875
 30
0.0
 10
11.4134602375
 20
10.074792267
 30
0.0
 10
11.4098901564
 20
10.0662073594
 30
0.0
 10
11.4059143502
 20
10.0581541351
 30
0.0
 10
11.4015112586
 20
10.0506562484
 30
0.0
 10
11.3966610177
 20
10.0437390805
 30
0.0
 10
11.3913453684
 20
10.0374314346
 30
0.0
 10
11.3855508129
 20
10.0317632632
 30
0.0
 10
11.3792677233
 20
10.0267678106
 30
0.0
 10
11.372495234
 20
10.0224769179
 30
0.0
 10
11.3664693479
 20
10.0195261148
 30
0.0
 10
11.3614351321
 20
10.0175487514
 30
0.0
 10
11.3561944777
 20
10.0158091397
 30
0.0
 10
11.3493392981
 20
10.0141273041
 30
0.0
 10
11.3407536211
 20
10.012926158
 30
0.0
 10
11.3348864228
 20
10.0126695021
 30
0.0
 10
11.3319043732
 20
10.0126695021
 30
0.0
  0
SPLINE
  5
28D
100
AcDbEntity
  8
0
100
AcDbSpline
 62
9
  6
CONTINUOUS
 70
0
 71
3
 72
39
 73
35
 74
0
 42
0.0000001
 43
0.0000001
 44
0.0000000001
 40
0.0
 40
0.0
 40
0.0
 40
0.0
 40
0.0257313701
 40
0.0519922572
 40
0.0789183152
 40
0.1066169505
 40
0.1351648272
 40
0.1646070541
 40
0.1949586001
 40
0.2262066978
 40
0.2583136104
 40
0.291219313
 40
0.324844398
 40
0.359093333
 40
0.3938572201
 40
0.4290164128
 40
0.4644434394
 40
0.500005689
 40
0.5355678619
 40
0.5709946599
 40
0.6061534762
 40
0.6409168473
 40
0.6751651363
 40
0.708789459
 40
0.7416943
 40
0.7738002721
 40
0.805047373
 40
0.8353978929
 40
0.8648390951
 40
0.8933859807
 40
0.921083693
 40
0.9480089329
 40
0.9742691395
 40
1.0
 40
1.0
 40
1.0
 40
1.0
 10
10.3109238374
 20
10.0394719475
 30
0.0
 10
10.3146217608
 20
10.04038513
 30
0.0
 10
10.3219886627
 20
10.0426854921
 30
0.0
 10
10.3326829919
 20
10.0474460084
 30
0.0
 10
10.3430363788
 20
10.0535071681
 30
0.0
 10
10.352968328
 20
10.0608191383
 30
0.0
 10
10.3624051926
 20
10.0693241928
 30
0.0
 10
10.3712763232
 20
10.0789563879
 30
0.0
 10
10.3795159794
 20
10.0896414389
 30
0.0
 10
10.387062995
 20
10.1012976551
 30
0.0
 10
10.3938610627
 20
10.113836459
 30
0.0
 10
10.399859299
 20
10.1271627197
 30
0.0
 10
10.4050130365
 20
10.141175263
 30
0.0
 10
10.4092836394
 20
10.1557678778
 30
0.0
 10
10.4126388172
 20
10.1708299996
 30
0.0
 10
10.4150533766
 20
10.186247392
 30
0.0
 10
10.4165092896
 20
10.2019031099
 30
0.0
 10
10.4169955183
 20
10.2176784301
 30
0.0
 10
10.4165081902
 20
10.2334536826
 30
0.0
 10
10.4150511854
 20
10.2491091978
 30
0.0
 10
10.4126355509
 20
10.2645262541
 30
0.0
 10
10.4092793233
 20
10.2795879092
 30
0.0
 10
10.4050077026
 20
10.29417993
 30
0.0
 10
10.3998529869
 20
10.3081917563
 30
0.0
 10
10.3938538202
 20
10.3215171829
 30
0.0
 10
10.3870548765
 20
10.3340550419
 30
0.0
 10
10.3795070448
 20
10.3457102088
 30
0.0
 10
10.3712666389
 20
10.3563941141
 30
0.0
 10
10.3623948313
 20
10.3660250759
 30
0.0
 10
10.3529573663
 20
10.3745288174
 30
0.0
 10
10.3430248984
 20
10.3818394043
 30
0.0
 10
10.3326710789
 20
10.3878991197
 30
0.0
 10
10.3219764087
 20
10.3926581437
 30
0.0
 10
10.3146093657
 20
10.3949574665
 30
0.0
 10
10.3109113917
 20
10.3958701293
 30
0.0
  0
SPLINE
  5
28E
100
AcDbEntity
  8
0
100
AcDbSpline
 62
7
  6
CONTINUOUS
 70
0
 71
3
 72
43
 73
39
 74
0
 42
0.0000001
 43
0.0000001
 44
0.0000000001
 40
0.0
 40
0.0
 40
0.0
 40
0.0
 40
0.0127970131
 40
0.0256739716
 40
0.0386563777
 40
0.051768346
 40
0.0784516219
 40
0.1058798177
 40
0.1341625663
 40
0.1633721586
 40
0.1935443702
 40
0.2246807432
 40
0.2567513817
 40
0.2896985982
 40
0.3234407598
 40
0.3578758874
 40
0.3928851372
 40
0.4283363879
 40
0.4640877947
 40
0.4999910139
 40
0.5358943645
 40
0.5716461625
 40
0.6070980562
 40
0.6421081863
 40
0.6765444115
 40
0.7102878627
 40
0.7432365288
 40
0.7753087379
 40
0.8064467577
 40
0.836620642
 40
0.8658318759
 40
0.8941161735
 40
0.9215457602
 40
0.9482302077
 40
0.9613426619
 40
0.974325475
 40
0.9872027543
 40
1.0
 40
1.0
 40
1.0
 40
1.0
 10
10.3019136386
 20
10.0294734767
 30
0.0
 10
10.3039612198
 20
10.0297560881
 30
0.0
 10
10.3080520163
 20
10.0304562945
 30
0.0
 10
10.3141303217
 20
10.0319015699
 30
0.0
 10
10.3201547627
 20
10.0337410057
 30
0.0
 10
10.3281427802
 20
10.0367308857
 30
0.0
 10
10.3379478299
 20
10.0414598435
 30
0.0
 10
10.3492140915
 20
10.0485944184
 30
0.0
 10
10.3599605665
 20
10.057159083
 30
0.0
 10
10.3700970854
 20
10.0670784572
 30
0.0
 10
10.3795405444
 20
10.078267293
 30
0.0
 10
10.3882130361
 20
10.0906303535
 30
0.0
 10
10.3960430752
 20
10.104063024
 30
0.0
 10
10.4029660986
 20
10.1184519164
 30
0.0
 10
10.4089247582
 20
10.1336758969
 30
0.0
 10
10.4138694656
 20
10.1496069092
 30
0.0
 10
10.417758942
 20
10.1661109158
 30
0.0
 10
10.420560899
 20
10.1830489688
 30
0.0
 10
10.4222519536
 20
10.200278503
 30
0.0
 10
10.4228179158
 20
10.2176544815
 30
0.0
 10
10.4222539024
 20
10.2350305864
 30
0.0
 10
10.4205647813
 20
10.2522604989
 30
0.0
 10
10.4177647252
 20
10.2691991791
 30
0.0
 10
10.4138771009
 20
10.285704056
 30
0.0
 10
10.4089341814
 20
10.3016361742
 30
0.0
 10
10.4029772323
 20
10.3168614877
 30
0.0
 10
10.3960558271
 20
10.3312519288
 30
0.0
 10
10.3882273005
 20
10.3446863503
 30
0.0
 10
10.3795562026
 20
10.3570513495
 30
0.0
 10
10.3701140095
 20
10.3682422975
 30
0.0
 10
10.3599786174
 20
10.3781639404
 30
0.0
 10
10.3492331201
 20
10.3867310121
 30
0.0
 10
10.3379676775
 20
10.3938681131
 30
0.0
 10
10.3281631529
 20
10.3985992843
 30
0.0
 10
10.3201754553
 20
10.4015909683
 30
0.0
 10
10.3141512237
 20
10.4034317594
 30
0.0
 10
10.3080730843
 20
10.4048784011
 30
0.0
 10
10.3039823555
 20
10.4055795319
 30
0.0
 10
10.3019348002
 20
10.4058626044
 30
0.0
  0
SPLINE
  5
28F
100
AcDbEntity
  8
0
100
AcDbSpline
 62
9
  6
CONTINUOUS
 70
0
 71
3
 72
19
 73
15
 74
0
 42
0.0000001
 43
0.0000001
 44
0.0000000001
 40
0.0
 40
0.0
 40
0.0
 40
0.0
 40
0.0565549073
 40
0.1133106045
 40
0.1704131856
 40
0.2280278124
 40
0.2863183757
 40
0.3454281894
 40
0.4054814104
 40
0.4665861834
 40
0.5922287179
 40
0.7229242597
 40
0.8588722378
 40
1.0
 40
1.0
 40
1.0
 40
1.0
 10
10.5621012552
 20
10.0309915662
 30
0.0
 10
10.559625068
 20
10.0309915662
 30
0.0
 10
10.5546616708
 20
10.0311897594
 30
0.0
 10
10.5472459518
 20
10.0320780338
 30
0.0
 10
10.5398772637
 20
10.0335561961
 30
0.0
 10
10.532580738
 20
10.0356183612
 30
0.0
 10
10.5253793127
 20
10.0382581621
 30
0.0
 10
10.5182954714
 20
10.0414662217
 30
0.0
 10
10.5113516832
 20
10.0452327899
 30
0.0
 10
10.5022270334
 20
10.0510349214
 30
0.0
 10
10.4912793947
 20
10.0596669907
 30
0.0
 10
10.4791815132
 20
10.071914582
 30
0.0
 10
10.4681423624
 20
10.0859907965
 30
0.0
 10
10.4616921061
 20
10.0962942911
 30
0.0
 10
10.4586701618
 20
10.1016840223
 30
0.0
  0
SPLINE
  5
290
100
AcDbEntity
  8
0
100
AcDbSpline
 62
9
  6
CONTINUOUS
 70
0
 71
3
 72
19
 73
15
 74
0
 42
0.0000001
 43
0.0000001
 44
0.0000000001
 40
0.0
 40
0.0
 40
0.0
 40
0.0
 40
0.1411395074
 40
0.2770971442
 40
0.4077990018
 40
0.5334436736
 40
0.5945478579
 40
0.6545993838
 40
0.7137064534
 40
0.7719933276
 40
0.8296034308
 40
0.8867008297
 40
0.9434509195
 40
1.0
 40
1.0
 40
1.0
 40
1.0
 10
10.4586186672
 20
10.3335630806
 30
0.0
 10
10.4616403175
 20
10.3389592421
 30
0.0
 10
10.4680907266
 20
10.3492752581
 30
0.0
 10
10.4791324353
 20
10.363369258
 30
0.0
 10
10.4912349579
 20
10.3756328122
 30
0.0
 10
10.5021881468
 20
10.3842765054
 30
0.0
 10
10.5113180349
 20
10.3900865481
 30
0.0
 10
10.5182659882
 20
10.3938582657
 30
0.0
 10
10.5253542893
 20
10.397070737
 30
0.0
 10
10.5325604183
 20
10.3997141929
 30
0.0
 10
10.539861847
 20
10.4017792246
 30
0.0
 10
10.5472355888
 20
10.4032594507
 30
0.0
 10
10.5546564628
 20
10.4041489673
 30
0.0
 10
10.5596233391
 20
10.4043474381
 30
0.0
 10
10.5621012552
 20
10.4043474381
 30
0.0
  0
SPLINE
  5
291
100
AcDbEntity
  8
0
100
AcDbSpline
 62
9
  6
CONTINUOUS
 70
0
 71
3
 72
21
 73
17
 74
0
 42
0.0000001
 43
0.0000001
 44
0.0000000001
 40
0.0
 40
0.0
 40
0.0
 40
0.0
 40
0.1180873355
 40
0.1793939709
 40
0.2419450112
 40
0.3055266166
 40
0.3699014696
 40
0.4348147241
 40
0.5000000044
 40
0.5651852846
 40
0.6300985385
 40
0.6944733908
 40
0.7580549952
 40
0.8206060343
 40
0.8819126681
 40
1.0
 40
1.0
 40
1.0
 40
1.0
 10
10.6808310711
 20
10.3487157957
 30
0.0
 10
10.6866387865
 20
10.339580701
 30
0.0
 10
10.6942909825
 20
10.3249236619
 30
0.0
 10
10.7023270686
 20
10.3042403837
 30
0.0
 10
10.7073936107
 20
10.2878052141
 30
0.0
 10
10.7113774487
 20
10.2707887549
 30
0.0
 10
10.7142469882
 20
10.2533297178
 30
0.0
 10
10.7159781318
 20
10.235574114
 30
0.0
 10
10.7165567796
 20
10.2176694909
 30
0.0
 10
10.7159781304
 20
10.1997648678
 30
0.0
 10
10.7142469853
 20
10.1820092643
 30
0.0
 10
10.7113774444
 20
10.1645502276
 30
0.0
 10
10.707393605
 20
10.1475337691
 30
0.0
 10
10.7023270615
 20
10.1310986002
 30
0.0
 10
10.6942909737
 20
10.1104153233
 30
0.0
 10
10.6866387764
 20
10.0957582854
 30
0.0
 10
10.6808310603
 20
10.0866231916
 30
0.0
  0
SPLINE
  5
292
100
AcDbEntity
  8
0
100
AcDbSpline
 62
9
  6
CONTINUOUS
 70
0
 71
3
 72
39
 73
35
 74
0
 42
0.0000001
 43
0.0000001
 44
0.0000000001
 40
0.0
 40
0.0
 40
0.0
 40
0.0
 40
0.0257286195
 40
0.0517044726
 40
0.0781502455
 40
0.105268507
 40
0.1332176965
 40
0.1621138303
 40
0.1920269335
 40
0.2229830525
 40
0.2549676289
 40
0.2879297707
 40
0.321786991
 40
0.356429983
 40
0.3917274153
 40
0.4275306441
 40
0.4636781771
 40
0.5
 40
0.536321823
 40
0.5724693559
 40
0.6082725848
 40
0.6435700172
 40
0.6782130093
 40
0.7120702297
 40
0.7450323717
 40
0.7770169479
 40
0.8079730666
 40
0.8378861695
 40
0.8667823034
 40
0.894731493
 40
0.9218497545
 40
0.9482955273
 40
0.9742713805
 40
1.0
 40
1.0
 40
1.0
 40
1.0
 10
10.5621012552
 20
10.4043474381
 30
0.0
 10
10.566424248
 20
10.4043474381
 30
0.0
 10
10.5751236112
 20
10.4037402312
 30
0.0
 10
10.5880102071
 20
10.4010239187
 30
0.0
 10
10.600637876
 20
10.3965298502
 30
0.0
 10
10.6128792499
 20
10.3903086555
 30
0.0
 10
10.62461774
 20
10.3824248289
 30
0.0
 10
10.6357421582
 20
10.3729590405
 30
0.0
 10
10.6461485393
 20
10.3620051544
 30
0.0
 10
10.6557399707
 20
10.3496701052
 30
0.0
 10
10.6644270982
 20
10.3360729309
 30
0.0
 10
10.6721287488
 20
10.3213440489
 30
0.0
 10
10.6787726655
 20
10.3056243229
 30
0.0
 10
10.6842963205
 20
10.2890639675
 30
0.0
 10
10.6886476818
 20
10.2718212302
 30
0.0
 10
10.691785622
 20
10.2540608616
 30
0.0
 10
10.6936804109
 20
10.2359525874
 30
0.0
 10
10.6943140366
 20
10.2176695021
 30
0.0
 10
10.6936804109
 20
10.1993864168
 30
0.0
 10
10.691785622
 20
10.1812781426
 30
0.0
 10
10.6886476818
 20
10.163517774
 30
0.0
 10
10.6842963205
 20
10.1462750366
 30
0.0
 10
10.6787726654
 20
10.1297146812
 30
0.0
 10
10.6721287487
 20
10.1139949551
 30
0.0
 10
10.6644270981
 20
10.0992660732
 30
0.0
 10
10.6557399706
 20
10.0856688989
 30
0.0
 10
10.6461485392
 20
10.0733338499
 30
0.0
 10
10.6357421582
 20
10.0623799638
 30
0.0
 10
10.62461774
 20
10.0529141754
 30
0.0
 10
10.6128792499
 20
10.0450303488
 30
0.0
 10
10.6006378761
 20
10.0388091541
 30
0.0
 10
10.5880102071
 20
10.0343150856
 30
0.0
 10
10.5751236112
 20
10.0315987731
 30
0.0
 10
10.566424248
 20
10.0309915662
 30
0.0
 10
10.5621012552
 20
10.0309915662
 30
0.0
  0
SPLINE
  5
293
100
AcDbEntity
  8
0
100
AcDbSpline
 62
7
  6
CONTINUOUS
 70
0
 71
3
 72
24
 73
20
 74
0
 42
0.0000001
 43
0.0000001
 44
0.0000000001
 40
0.0
 40
0.0
 40
0.0
 40
0.0
 40
0.0640178667
 40
0.125866083
 40
0.1858312171
 40
0.2152484671
 40
0.2443591304
 40
0.3018961096
 40
0.3589796301
 40
0.4161440853
 40
0.473895458
 40
0.5327019174
 40
0.5929655549
 40
0.6550301588
 40
0.7191691405
 40
0.785600732
 40
0.854483444
 40
0.9259290774
 40
1.0
 40
1.0
 40
1.0
 40
1.0
 10
10.5434803122
 20
10.0126695021
 30
0.0
 10
10.540499033
 20
10.0126695021
 30
0.0
 10
10.5346333215
 20
10.0129260287
 30
0.0
 10
10.5260497519
 20
10.0141265445
 30
0.0
 10
10.5191961465
 20
10.0158075049
 30
0.0
 10
10.5139566109
 20
10.0175462174
 30
0.0
 10
10.5089234206
 20
10.0195225624
 30
0.0
 10
10.5028986703
 20
10.022471848
 30
0.0
 10
10.496127267
 20
10.0267605652
 30
0.0
 10
10.489845003
 20
10.0317535233
 30
0.0
 10
10.4840510227
 20
10.037418905
 30
0.0
 10
10.4787357188
 20
10.043723493
 30
0.0
 10
10.4738856138
 20
10.0506373545
 30
0.0
 10
10.4694824719
 20
10.0581317027
 30
0.0
 10
10.4655064494
 20
10.06618117
 30
0.0
 10
10.4619360074
 20
10.0747621155
 30
0.0
 10
10.4587492037
 20
10.0838530803
 30
0.0
 10
10.4559241735
 20
10.0934332814
 30
0.0
 10
10.4542968761
 20
10.1000139626
 30
0.0
 10
10.453533032
 20
10.1033777718
 30
0.0
  0
SPLINE
  5
294
100
AcDbEntity
  8
0
100
AcDbSpline
 62
7
  6
CONTINUOUS
 70
0
 71
3
 72
24
 73
20
 74
0
 42
0.0000001
 43
0.0000001
 44
0.0000000001
 40
0.0
 40
0.0
 40
0.0
 40
0.0
 40
0.0740615788
 40
0.1454988315
 40
0.2143743476
 40
0.2808000891
 40
0.3449346938
 40
0.4069965086
 40
0.4672589872
 40
0.5260659389
 40
0.5838193715
 40
0.640987307
 40
0.6980754792
 40
0.755617939
 40
0.7847315318
 40
0.8141517812
 40
0.874122939
 40
0.935976923
 40
1.0
 40
1.0
 40
1.0
 40
1.0
 10
10.4535466175
 20
10.3320210288
 30
0.0
 10
10.4543107948
 20
10.3353827644
 30
0.0
 10
10.4559387269
 20
10.3419593767
 30
0.0
 10
10.4587645863
 20
10.3515335572
 30
0.0
 10
10.4619520675
 20
10.3606187511
 30
0.0
 10
10.4655230102
 20
10.3691941952
 30
0.0
 10
10.4694993326
 20
10.3772384467
 30
0.0
 10
10.4739025436
 20
10.3847278824
 30
0.0
 10
10.4787524593
 20
10.3916371532
 30
0.0
 10
10.4840672829
 20
10.3979374956
 30
0.0
 10
10.489860464
 20
10.4035990045
 30
0.0
 10
10.4961415811
 20
10.4085884985
 30
0.0
 10
10.5029114747
 20
10.4128741953
 30
0.0
 10
10.508934646
 20
10.4158213745
 30
0.0
 10
10.5139664122
 20
10.4177963049
 30
0.0
 10
10.5192043951
 20
10.4195337684
 30
0.0
 10
10.52605581
 20
10.4212135122
 30
0.0
 10
10.534636452
 20
10.4224131568
 30
0.0
 10
10.5405000983
 20
10.4226695021
 30
0.0
 10
10.5434803122
 20
10.4226695021
 30
0.0
  0
ENDSEC
  0
SECTION
  2
OBJECTS
  0
DICTIONARY
  5
C
100
AcDbDictionary
280
0
281
1
  3
ACAD_GROUP
350
D
  3
ACAD_MLINESTYLE
350
17
  3
ACAD_LAYOUT
350
1A
  3
ACAD_PLOTSETTINGS
350
19
  3
ACAD_PLOTSTYLENAME
350
E
  0
DICTIONARY
  5
D
102
{ACAD_REACTORS
330
C
102
}
100
AcDbDictionary
280
0
281
1
  0
ACDBDICTIONARYWDFLT
  5
E
102
{ACAD_REACTORS
330
C
102
}
100
AcDbDictionary
281
1
  3
Normal
350
F
100
AcDbDictionaryWithDefault
340
F
  0
DICTIONARY
  5
17
102
{ACAD_REACTORS
330
C
102
}
100
AcDbDictionary
280
0
281
1
  3
Standard
350
18
  0
DICTIONARY
  5
19
102
{ACAD_REACTORS
330
C
102
}
100
AcDbDictionary
281
1
  0
DICTIONARY
  5
1A
102
{ACAD_REACTORS
330
C
102
}
100
AcDbDictionary
281
1
  3
Model
350
295
  3
Layout1
350
296
  0
ACDBPLACEHOLDER
  5
F
102
{ACAD_REACTORS
330
E
102
}
  0
MLINESTYLE
  5
18
102
{ACAD_REACTORS
330
17
102
}
100
AcDbMlineStyle
  2
STANDARD
 70
0
  3

 62
256
 51
90.0
 52
90.0
 71
2
 49
0.5
 62
256
  6
BYLAYER
 49
-0.5
 62
256
  6
BYLAYER
  0
LAYOUT
  5
295
102
{ACAD_REACTORS
330
1A
102
}
100
AcDbPlotSettings
  1

  2
none_device
  4
ANSI_C_(22.00_x_17.00_Inches)
  6

 40
0.0
 41
0.0
 42
0.0
 43
0.0
 44
558.8
 45
431.8
 46
0.0
 47
0.0
 48
0.0
 49
0.0
140
0.0
141
0.0
142
1.0
143
1.0
 70
1024
 72
0
 73
0
 74
0
  7

 75
0
147
1.0
148
0.0
149
0.0
100
AcDbLayout
  1
Model
 70
0
 71
0
 10
0.0
 20
0.0
 11
22.0
 21
17.0
 12
0.0
 22
0.0
 32
0.0
 14
0.0
 24
0.0
 34
0.0
 15
0.0
 25
0.0
 35
0.0
146
0.0
 13
0.0
 23
0.0
 33
0.0
 16
1.0
 26
0.0
 36
0.0
 17
0.0
 27
1.0
 37
0.0
 76
0
330
205
345
0
346
0
  0
LAYOUT
  5
296
102
{ACAD_REACTORS
330
1A
102
}
100
AcDbPlotSettings
  1

  2
none_device
  4
ANSI_C_(22.00_x_17.00_Inches)
  6

 40
0.0
 41
0.0
 42
0.0
 43
0.0
 44
558.8
 45
431.8
 46
0.0
 47
0.0
 48
0.0
 49
0.0
140
0.0
141
0.0
142
1.0
143
1.0
 70
0
 72
0
 73
0
 74
0
  7

 75
0
147
1.0
148
0.0
149
0.0
100
AcDbLayout
  1
Layout1
 70
0
 71
1
 10
0.0
 20
0.0
 11
22.0
 21
17.0
 12
0.0
 22
0.0
 32
0.0
 14
0.0
 24
0.0
 34
0.0
 15
0.0
 25
0.0
 35
0.0
146
0.0
 13
0.0
 23
0.0
 33
0.0
 16
1.0
 26
0.0
 36
0.0
 17
0.0
 27
1.0
 37
0.0
 76
0
330
206
345
0
346
0
  0
ENDSEC
  0
EOF
