999
DXF file: E:\BT Custom\CADOUTPUT\_RIGHT.dxf
999
Pro/ENGINEER 2018400 by Parametric Technology Corporation
  0
SECTION
  2
HEADER
  9
$ACADVER
  1
AC1018
  9
$DWGCODEPAGE
  3
ANSI_1252
  9
$EXTMAX
 10
22.0
 20
17.0
 30
0.0
  9
$EXTMIN
 10
0.0
 20
0.0
 30
0.0
  9
$LIMMIN
 10
0.0
 20
0.0
  9
$LIMMAX
 10
22.0
 20
17.0
  9
$VIEWCTR
 10
11.0
 20
8.5
  9
$VIEWSIZE
 40
17.0
  9
$CLAYER
  8
0
  9
$LTSCALE
 40
1.21
  9
$CELTYPE
  6
BYLAYER
  9
$DIMSCALE
 40
1.0
  9
$DIMASZ
 40
0.1
  9
$DIMEXO
 40
0.0625
  9
$DIMDLI
 40
0.836
  9
$DIMEXE
 40
0.125
  9
$DIMCEN
 40
0.198
  9
$DIMLFAC
 40
1.0
  9
$DIMBLK
  1
_FILLED
  9
$DIMALT
 70
1
  9
$DIMALTD
 70
2
  9
$DIMALTTD
 70
2
  9
$DIMALTF
 40
25.4
  9
$DIMTXT
 40
0.08
  9
$DIMTOL
 70
1
  9
$DIMLIM
 70
0
  9
$DIMTFAC
 40
1.0
  9
$DIMTP
 40
0.001
  9
$DIMTM
 40
0.001
  9
$DIMGAP
 40
0.09
  9
$DIMDSEP
 70
46
  9
$AUNITS
 70
0
  9
$PDMODE
 70
3
  9
$PDSIZE
 40
0.06
  9
$HANDSEED
  5
295
  9
$TILEMODE
 70
1
  9
$MEASUREMENT
 70
0
  9
$INSUNITS
 70
1
  0
ENDSEC
  0
SECTION
  2
CLASSES
  0
CLASS
  1
ACDBDICTIONARYWDFLT
  2
AcDbDictionaryWithDefault
  3
AutoCAD 2000
 90
0
 91
1
280
0
281
0
  0
CLASS
  1
ACDBPLACEHOLDER
  2
AcDbPlaceHolder
  3
AutoCAD 2000
 90
0
 91
1
280
0
281
0
  0
CLASS
  1
LAYOUT
  2
AcDbLayout
  3
AutoCAD 2000
 90
0
 91
0
280
0
281
0
  0
ENDSEC
  0
SECTION
  2
TABLES
  0
TABLE
  2
VPORT
  5
8
100
AcDbSymbolTable
 70
2
  0
VPORT
  5
1F4
100
AcDbSymbolTableRecord
100
AcDbViewportTableRecord
  2
*ACTIVE
 70
0
 10
0.0
 20
0.0
 11
1.0
 21
1.0
 12
11.0
 22
8.5
 13
0.0
 23
0.0
 14
1.0
 24
1.0
 15
0.0
 25
0.0
 16
0.0
 26
0.0
 36
1.0
 17
0.0
 27
0.0
 37
0.0
 40
17.0
 41
1.2941176471
 42
50.0
 43
0.0
 44
0.0
 50
0.0
 51
0.0
 71
0
 72
100
 73
1
 74
1
 75
0
 76
0
 77
0
 78
0
  0
ENDTAB
  0
TABLE
  2
LTYPE
  5
5
100
AcDbSymbolTable
 70
6
  0
LTYPE
  5
14
100
AcDbSymbolTableRecord
100
AcDbLinetypeTableRecord
  2
BYBLOCK
 70
0
  3

 72
65
 73
0
 40
0.0
  0
LTYPE
  5
15
100
AcDbSymbolTableRecord
100
AcDbLinetypeTableRecord
  2
BYLAYER
 70
0
  3

 72
65
 73
0
 40
0.0
  0
LTYPE
  5
16
100
AcDbSymbolTableRecord
100
AcDbLinetypeTableRecord
  2
CONTINUOUS
 70
64
  3
Solid line
 72
65
 73
0
 40
0.0
  0
LTYPE
  5
1F5
100
AcDbSymbolTableRecord
100
AcDbLinetypeTableRecord
  2
CENTER
 70
64
  3
____ _ ____ _ ____ _ ____ _ ____ _ ____ _ ____
 72
65
 73
4
 40
0.6
 49
0.375
 74
0
 49
-0.075
 74
0
 49
0.075
 74
0
 49
-0.075
 74
0
  0
LTYPE
  5
1F6
100
AcDbSymbolTableRecord
100
AcDbLinetypeTableRecord
  2
HIDDEN
 70
64
  3
- - - - - - - - - - - - - - - - - - - -
 72
65
 73
2
 40
0.2
 49
0.1
 74
0
 49
-0.1
 74
0
  0
LTYPE
  5
1F7
100
AcDbSymbolTableRecord
100
AcDbLinetypeTableRecord
  2
PHANTOM
 70
64
  3
_____ _ _ _____ _ _ _____ _ _ _____
 72
65
 73
6
 40
0.8
 49
0.45
 74
0
 49
-0.05
 74
0
 49
0.1
 74
0
 49
-0.05
 74
0
 49
0.1
 74
0
 49
-0.05
 74
0
  0
LTYPE
  5
1F8
100
AcDbSymbolTableRecord
100
AcDbLinetypeTableRecord
  2
DOT
 70
64
  3
. . . . . . . . . . . . . . . . . . . .
 72
65
 73
2
 40
0.2
 49
0.1
 74
0
 49
-0.1
 74
0
  0
LTYPE
  5
1F9
100
AcDbSymbolTableRecord
100
AcDbLinetypeTableRecord
  2
DASHED
 70
64
  3
- - - - - - - - - - - - - - - - - - - -
 72
65
 73
2
 40
0.2
 49
0.1
 74
0
 49
-0.1
 74
0
  0
ENDTAB
  0
TABLE
  2
LAYER
  5
2
100
AcDbSymbolTable
 70
36
  0
LAYER
  5
10
100
AcDbSymbolTableRecord
100
AcDbLayerTableRecord
  2
0
 70
0
 62
7
  6
CONTINUOUS
370
-3
390
F
  0
LAYER
  5
1FA
100
AcDbSymbolTableRecord
100
AcDbLayerTableRecord
  2
DEFAULT_1
 70
0
 62
7
  6
CENTER
370
-3
390
F
  0
LAYER
  5
1FB
100
AcDbSymbolTableRecord
100
AcDbLayerTableRecord
  2
DEFAULT_2
 70
0
 62
8
  6
HIDDEN
370
-3
390
F
  0
LAYER
  5
1FC
100
AcDbSymbolTableRecord
100
AcDbLayerTableRecord
  2
DEFAULT_3
 70
0
 62
7
  6
PHANTOM
370
-3
390
F
  0
LAYER
  5
1FD
100
AcDbSymbolTableRecord
100
AcDbLayerTableRecord
  2
ALL_FEATURES
 70
0
 62
7
  6
CONTINUOUS
370
-3
390
F
  0
LAYER
  5
1FE
100
AcDbSymbolTableRecord
100
AcDbLayerTableRecord
  2
AXES_FEATURES
 70
0
 62
7
  6
CONTINUOUS
370
-3
390
F
  0
LAYER
  5
1FF
100
AcDbSymbolTableRecord
100
AcDbLayerTableRecord
  2
DEFAULT_COORDINATE_SYSTEM
 70
0
 62
7
  6
CONTINUOUS
370
-3
390
F
  0
LAYER
  5
200
100
AcDbSymbolTableRecord
100
AcDbLayerTableRecord
  2
DEFAULT_DATUM_AXES
 70
0
 62
7
  6
CONTINUOUS
370
-3
390
F
  0
LAYER
  5
201
100
AcDbSymbolTableRecord
100
AcDbLayerTableRecord
  2
DEFAULT_DATUM_PLANES
 70
0
 62
7
  6
CONTINUOUS
370
-3
390
F
  0
LAYER
  5
202
100
AcDbSymbolTableRecord
100
AcDbLayerTableRecord
  2
DIMENSIONS
 70
0
 62
7
  6
CONTINUOUS
370
-3
390
F
  0
ENDTAB
  0
TABLE
  2
STYLE
  5
3
100
AcDbSymbolTable
 70
1
  0
STYLE
  5
11
100
AcDbSymbolTableRecord
100
AcDbTextStyleTableRecord
  2
STANDARD
 70
0
 40
0.0
 41
0.8
 50
0.0
 71
0
 42
0.2
  3
txt
  4

  0
STYLE
  5
203
100
AcDbSymbolTableRecord
100
AcDbTextStyleTableRecord
  2
TEXTSTYLE_1
 70
0
 40
0.0
 41
0.8
 50
0.0
 71
0
 42
0.2
  3
gdt
  4

  0
ENDTAB
  0
TABLE
  2
VIEW
  5
6
100
AcDbSymbolTable
 70
0
  0
ENDTAB
  0
TABLE
  2
UCS
  5
7
100
AcDbSymbolTable
 70
0
  0
ENDTAB
  0
TABLE
  2
APPID
  5
9
100
AcDbSymbolTable
 70
1
  0
APPID
  5
204
100
AcDbSymbolTableRecord
100
AcDbRegAppTableRecord
  2
ACAD
 70
0
  0
ENDTAB
  0
TABLE
  2
BLOCK_RECORD
  5
1
100
AcDbSymbolTable
 70
0
  0
BLOCK_RECORD
  5
205
100
AcDbSymbolTableRecord
100
AcDbBlockTableRecord
  2
*Model_Space
  0
BLOCK_RECORD
  5
206
100
AcDbSymbolTableRecord
100
AcDbBlockTableRecord
  2
*Paper_Space
  0
BLOCK_RECORD
  5
207
100
AcDbSymbolTableRecord
100
AcDbBlockTableRecord
  2
_FILLED
  0
ENDTAB
  0
TABLE
  2
DIMSTYLE
  5
A
100
AcDbSymbolTable
 70
1
100
AcDbDimStyleTable
 71
0
  0
DIMSTYLE
105
208
100
AcDbSymbolTableRecord
100
AcDbDimStyleTableRecord
  2
STANDARD
 70
0
  3

  4

 40
1.0
 41
0.1
 42
0.0625
 43
0.38
 44
0.125
 45
0.0
 46
0.0
 47
0.001
 48
0.001
140
0.08
141
0.09
142
0.0
143
25.4
144
1.0
145
0.0
146
1.0
147
0.09
 71
1.0
 72
0.0
 73
1
 74
1
 75
0
 76
0
 77
0
 78
4
 79
1
170
1
171
2
172
0
173
0
174
0
175
0
176
0
177
0
178
0
270
2
179
3
271
3
272
3
273
2
274
2
275
0
280
0
281
0
282
0
283
1
284
4
285
0
286
0
287
3
288
0
340
11
278
46
341
207
342
207
343
207
344
207
  0
ENDTAB
  0
ENDSEC
  0
SECTION
  2
BLOCKS
  0
BLOCK
  5
20
100
AcDbEntity
  8
0
100
AcDbBlockBegin
  2
*Model_Space
 70
0
 10
0.0
 20
0.0
 30
0.0
  3
*Model_Space
  1

  0
ENDBLK
  5
21
100
AcDbEntity
  8
0
100
AcDbBlockEnd
  0
BLOCK
  5
1C
100
AcDbEntity
  8
0
100
AcDbBlockBegin
  2
*Paper_Space
 70
0
 10
0.0
 20
0.0
 30
0.0
  3
*Paper_Space
  1

  0
ENDBLK
  5
1D
100
AcDbEntity
  8
0
100
AcDbBlockEnd
  0
BLOCK
  5
209
100
AcDbEntity
  8
0
100
AcDbBlockBegin
  2
_FILLED
 70
64
 10
0.0
 20
0.0
  3
_FILLED
  1

  0
SOLID
  5
20A
100
AcDbEntity
  8
0
  6
BYBLOCK
 62
0
100
AcDbTrace
 10
0.0
 20
0.0
 11
-1.0
 21
0.2
 12
-1.0
 22
-0.2
 13
-1.0
 23
-0.2
  0
ENDBLK
  5
20B
100
AcDbEntity
  8
0
  6
BYBLOCK
 62
0
100
AcDbBlockEnd
  0
ENDSEC
  0
SECTION
  2
ENTITIES
  0
LINE
  5
20C
100
AcDbEntity
  8
0
100
AcDbLine
 62
7
  6
CONTINUOUS
 10
10.255473533
 20
10.385891804
 11
10.1967493368
 21
10.3668111561
  0
LINE
  5
20D
100
AcDbEntity
  8
0
100
AcDbLine
 62
7
  6
CONTINUOUS
 10
9.5299853029
 20
7.558891804
 11
11.8899816753
 21
7.558891804
  0
LINE
  5
20E
100
AcDbEntity
  8
0
100
AcDbLine
 62
7
  6
CONTINUOUS
 10
10.2093302766
 20
10.260391804
 11
10.1824834891
 21
10.244891804
  0
LINE
  5
20F
100
AcDbEntity
  8
0
100
AcDbLine
 62
7
  6
CONTINUOUS
 10
9.7099834891
 20
7.745891804
 11
11.7099834891
 21
7.745891804
  0
LINE
  5
210
100
AcDbEntity
  8
0
100
AcDbLine
 62
7
  6
CONTINUOUS
 10
10.1967493368
 20
10.3668111561
 11
10.1824834891
 21
10.3471759012
  0
LINE
  5
211
100
AcDbEntity
  8
0
100
AcDbLine
 62
7
  6
CONTINUOUS
 10
11.5229861629
 20
7.933891804
 11
9.8969808153
 21
7.933891804
  0
LINE
  5
212
100
AcDbEntity
  8
0
100
AcDbLine
 62
7
  6
CONTINUOUS
 10
9.9689850846
 20
7.995891804
 11
11.4509818941
 21
7.995891804
  0
LINE
  5
213
100
AcDbEntity
  8
0
100
AcDbLine
 62
7
  6
CONTINUOUS
 10
10.1824834891
 20
10.244891804
 11
10.1524834891
 21
10.164891804
  0
LINE
  5
214
100
AcDbEntity
  8
0
100
AcDbLine
 62
7
  6
CONTINUOUS
 10
10.1264851295
 20
9.8401018503
 11
10.0968986036
 21
9.7990649613
  0
LINE
  5
215
100
AcDbEntity
  8
0
100
AcDbLine
 62
7
  6
CONTINUOUS
 10
9.9689834891
 20
7.995891804
 11
9.9689834891
 21
7.933891804
  0
LINE
  5
216
100
AcDbEntity
  8
0
100
AcDbLine
 62
7
  6
CONTINUOUS
 10
11.2374834891
 20
10.275891804
 11
11.2106367016
 21
10.260391804
  0
LINE
  5
217
100
AcDbEntity
  8
0
100
AcDbLine
 62
7
  6
CONTINUOUS
 10
10.0534834891
 20
7.995891804
 11
10.0534834891
 21
8.3470994223
  0
LINE
  5
218
100
AcDbEntity
  8
0
100
AcDbLine
 62
9
  6
CONTINUOUS
 10
10.0688200494
 20
8.362391804
 11
11.3511469287
 21
8.362391804
  0
LINE
  5
219
100
AcDbEntity
  8
0
100
AcDbLine
 62
7
  6
CONTINUOUS
 10
10.1824834891
 20
10.3471759012
 11
10.1824834891
 21
10.275891804
  0
LINE
  5
21A
100
AcDbEntity
  8
0
100
AcDbLine
 62
7
  6
CONTINUOUS
 10
10.1694834891
 20
8.9115082428
 11
10.0953494949
 21
8.8055906156
  0
LINE
  5
21B
100
AcDbEntity
  8
0
100
AcDbLine
 62
7
  6
CONTINUOUS
 10
11.2374834891
 20
9.675891804
 11
11.0804834891
 21
9.624891804
  0
LINE
  5
21C
100
AcDbEntity
  8
0
100
AcDbLine
 62
9
  6
CONTINUOUS
 10
10.0914834891
 20
8.577391804
 11
11.3284834891
 21
8.577391804
  0
LINE
  5
21D
100
AcDbEntity
  8
0
100
AcDbLine
 62
7
  6
CONTINUOUS
 10
10.3664834891
 20
9.624891804
 11
10.3664834891
 21
9.265891804
  0
LINE
  5
21E
100
AcDbEntity
  8
0
100
AcDbLine
 62
7
  6
CONTINUOUS
 10
10.1524834891
 20
9.754891804
 11
10.1824834891
 21
9.675891804
  0
LINE
  5
21F
100
AcDbEntity
  8
0
100
AcDbLine
 62
7
  6
CONTINUOUS
 10
10.5099834891
 20
9.265891804
 11
10.5099834891
 21
9.245891804
  0
LINE
  5
220
100
AcDbEntity
  8
0
100
AcDbLine
 62
7
  6
CONTINUOUS
 10
11.2934818487
 20
10.0796817577
 11
11.3230683746
 21
10.1207186468
  0
LINE
  5
221
100
AcDbEntity
  8
0
100
AcDbLine
 62
9
  6
CONTINUOUS
 10
10.0953494949
 20
8.8055906156
 11
11.3246174833
 21
8.8055906156
  0
LINE
  5
222
100
AcDbEntity
  8
0
100
AcDbLine
 62
7
  6
CONTINUOUS
 10
10.7099834891
 20
7.995891804
 11
10.7099834891
 21
8.245834421
  0
LINE
  5
223
100
AcDbEntity
  8
0
100
AcDbLine
 62
7
  6
CONTINUOUS
 10
10.0688200494
 20
8.362391804
 11
10.0534834891
 21
8.3470994223
  0
LINE
  5
224
100
AcDbEntity
  8
0
100
AcDbLine
 62
9
  6
CONTINUOUS
 10
10.1694834891
 20
8.9115082428
 11
11.2504834891
 21
8.9115082428
  0
LINE
  5
225
100
AcDbEntity
  8
0
100
AcDbLine
 62
7
  6
CONTINUOUS
 10
11.3511469287
 20
8.362391804
 11
11.3664834891
 21
8.3470994223
  0
LINE
  5
226
100
AcDbEntity
  8
0
100
AcDbLine
 62
7
  6
CONTINUOUS
 10
10.9099834891
 20
9.265891804
 11
10.9099834891
 21
9.245891804
  0
LINE
  5
227
100
AcDbEntity
  8
0
100
AcDbLine
 62
7
  6
CONTINUOUS
 10
11.2674834891
 20
9.754891804
 11
11.2374834891
 21
9.675891804
  0
LINE
  5
228
100
AcDbEntity
  8
0
100
AcDbLine
 62
9
  6
CONTINUOUS
 10
10.2802437615
 20
9.2174910467
 11
11.1397232166
 21
9.2174910467
  0
LINE
  5
229
100
AcDbEntity
  8
0
100
AcDbLine
 62
7
  6
CONTINUOUS
 10
11.1088323776
 20
9.245891804
 11
10.3111346006
 21
9.245891804
  0
LINE
  5
22A
100
AcDbEntity
  8
0
100
AcDbLine
 62
7
  6
CONTINUOUS
 10
10.3664844235
 20
9.265891804
 11
11.0534825547
 21
9.265891804
  0
LINE
  5
22B
100
AcDbEntity
  8
0
100
AcDbLine
 62
7
  6
CONTINUOUS
 10
10.1264851295
 20
10.0796817577
 11
10.0968986036
 21
10.1207186468
  0
LINE
  5
22C
100
AcDbEntity
  8
0
100
AcDbLine
 62
7
  6
CONTINUOUS
 10
11.0534834891
 20
9.624891804
 11
11.0534834891
 21
9.265891804
  0
LINE
  5
22D
100
AcDbEntity
  8
0
100
AcDbLine
 62
7
  6
CONTINUOUS
 10
11.2504834891
 20
8.9115082428
 11
11.3246174833
 21
8.8055906156
  0
LINE
  5
22E
100
AcDbEntity
  8
0
100
AcDbLine
 62
7
  6
CONTINUOUS
 10
10.1824834891
 20
9.675891804
 11
10.3394834891
 21
9.624891804
  0
LINE
  5
22F
100
AcDbEntity
  8
0
100
AcDbLine
 62
7
  6
CONTINUOUS
 10
11.2374834891
 20
10.3471759012
 11
11.2374834891
 21
10.275891804
  0
LINE
  5
230
100
AcDbEntity
  8
0
100
AcDbLine
 62
7
  6
CONTINUOUS
 10
10.3394838447
 20
9.624891804
 11
11.0804831335
 21
9.624891804
  0
LINE
  5
231
100
AcDbEntity
  8
0
100
AcDbLine
 62
7
  6
CONTINUOUS
 10
11.3664834891
 20
7.995891804
 11
11.3664834891
 21
8.3470994223
  0
LINE
  5
232
100
AcDbEntity
  8
0
100
AcDbLine
 62
7
  6
CONTINUOUS
 10
11.4509834891
 20
7.995891804
 11
11.4509834891
 21
7.933891804
  0
LINE
  5
233
100
AcDbEntity
  8
0
100
AcDbLine
 62
7
  6
CONTINUOUS
 10
10.1824834891
 20
9.675891804
 11
11.2374834891
 21
9.675891804
  0
LINE
  5
234
100
AcDbEntity
  8
0
100
AcDbLine
 62
7
  6
CONTINUOUS
 10
10.1524834891
 20
9.754891804
 11
11.2674834891
 21
9.754891804
  0
LINE
  5
235
100
AcDbEntity
  8
0
100
AcDbLine
 62
7
  6
CONTINUOUS
 10
11.0699050665
 20
9.763891804
 11
11.0586138093
 21
9.763891804
  0
LINE
  5
236
100
AcDbEntity
  8
0
100
AcDbLine
 62
7
  6
CONTINUOUS
 10
10.3613534171
 20
9.763891804
 11
10.3500619117
 21
9.763891804
  0
LINE
  5
237
100
AcDbEntity
  8
0
100
AcDbLine
 62
7
  6
CONTINUOUS
 10
10.1824834891
 20
10.275891804
 11
10.2093302766
 21
10.260391804
  0
LINE
  5
238
100
AcDbEntity
  8
0
100
AcDbLine
 62
7
  6
CONTINUOUS
 10
11.2934818487
 20
9.8401018503
 11
11.3230683746
 21
9.7990649613
  0
LINE
  5
239
100
AcDbEntity
  8
0
100
AcDbLine
 62
7
  6
CONTINUOUS
 10
11.2374834891
 20
10.244891804
 11
11.2674834891
 21
10.164891804
  0
LINE
  5
23A
100
AcDbEntity
  8
0
100
AcDbLine
 62
7
  6
CONTINUOUS
 10
11.0699050665
 20
10.155891804
 11
11.0586138178
 21
10.155891804
  0
LINE
  5
23B
100
AcDbEntity
  8
0
100
AcDbLine
 62
7
  6
CONTINUOUS
 10
10.361353386
 20
10.155891804
 11
10.3500619117
 21
10.155891804
  0
LINE
  5
23C
100
AcDbEntity
  8
0
100
AcDbLine
 62
7
  6
CONTINUOUS
 10
10.1524834891
 20
10.164891804
 11
11.2674834891
 21
10.164891804
  0
LINE
  5
23D
100
AcDbEntity
  8
0
100
AcDbLine
 62
7
  6
CONTINUOUS
 10
10.1824834891
 20
10.244891804
 11
11.2374834891
 21
10.244891804
  0
LINE
  5
23E
100
AcDbEntity
  8
0
100
AcDbLine
 62
7
  6
CONTINUOUS
 10
10.2093302766
 20
10.260391804
 11
11.2106367016
 21
10.260391804
  0
LINE
  5
23F
100
AcDbEntity
  8
0
100
AcDbLine
 62
7
  6
CONTINUOUS
 10
11.2232176413
 20
10.3668111561
 11
11.2374834891
 21
10.3471759012
  0
LINE
  5
240
100
AcDbEntity
  8
0
100
AcDbLine
 62
7
  6
CONTINUOUS
 10
10.1824834891
 20
10.275891804
 11
11.2374834891
 21
10.275891804
  0
LINE
  5
241
100
AcDbEntity
  8
0
100
AcDbLine
 62
7
  6
CONTINUOUS
 10
10.1824834891
 20
10.3471759012
 11
11.2374834891
 21
10.3471759012
  0
LINE
  5
242
100
AcDbEntity
  8
0
100
AcDbLine
 62
7
  6
CONTINUOUS
 10
10.1967493368
 20
10.3668111561
 11
11.2232176413
 21
10.3668111561
  0
LINE
  5
243
100
AcDbEntity
  8
0
100
AcDbLine
 62
7
  6
CONTINUOUS
 10
10.25547421
 20
10.385891804
 11
11.1644927681
 21
10.385891804
  0
LINE
  5
244
100
AcDbEntity
  8
0
100
AcDbLine
 62
7
  6
CONTINUOUS
 10
11.2106367016
 20
10.260391804
 11
11.2374834891
 21
10.244891804
  0
LINE
  5
245
100
AcDbEntity
  8
0
100
AcDbLine
 62
9
  6
CONTINUOUS
 10
10.3148388325
 20
10.4097010973
 11
11.1051281456
 21
10.4097010973
  0
LINE
  5
246
100
AcDbEntity
  8
0
100
AcDbLine
 62
7
  6
CONTINUOUS
 10
11.1644934452
 20
10.385891804
 11
11.2232176413
 21
10.3668111561
  0
ARC
  5
247
100
AcDbEntity
  8
0
100
AcDbCircle
 62
7
  6
CONTINUOUS
 10
10.7099834891
 20
8.9102217886
 40
1.5506700155
100
AcDbArc
 50
75.2369687319
 51
104.7630312681
  0
ARC
  5
248
100
AcDbEntity
  8
0
100
AcDbCircle
 62
7
  6
CONTINUOUS
 10
12.190122378
 20
9.959891804
 40
0.9451388889
100
AcDbArc
 50
189.1701089548
 51
192.5269812287
  0
ARC
  5
249
100
AcDbEntity
  8
0
100
AcDbCircle
 62
7
  6
CONTINUOUS
 10
12.190122378
 20
9.959891804
 40
0.9451388889
100
AcDbArc
 50
167.4730187713
 51
170.8290585337
  0
ARC
  5
24A
100
AcDbEntity
  8
0
100
AcDbCircle
 62
7
  6
CONTINUOUS
 10
9.2298446002
 20
9.959891804
 40
0.9451388889
100
AcDbArc
 50
347.4730187713
 51
350.8611167309
  0
ARC
  5
24B
100
AcDbEntity
  8
0
100
AcDbCircle
 62
7
  6
CONTINUOUS
 10
9.2298446002
 20
9.959891804
 40
0.9451388889
100
AcDbArc
 50
9.1392787109
 51
12.5269812287
  0
ARC
  5
24C
100
AcDbEntity
  8
0
100
AcDbCircle
 62
7
  6
CONTINUOUS
 10
11.7625223912
 20
9.2698951326
 40
0.625
100
AcDbArc
 50
184.8096995456
 51
214.9889904702
  0
ARC
  5
24D
100
AcDbEntity
  8
0
100
AcDbCircle
 62
7
  6
CONTINUOUS
 10
9.657444587
 20
9.2698951326
 40
0.625
100
AcDbArc
 50
325.0110095298
 51
355.1903004544
  0
ARC
  5
24E
100
AcDbEntity
  8
0
100
AcDbCircle
 62
7
  6
CONTINUOUS
 10
9.8738297242
 20
9.9598917922
 40
0.2750000038
100
AcDbArc
 50
35.7906222051
 51
324.2093627608
  0
ARC
  5
24F
100
AcDbEntity
  8
0
100
AcDbCircle
 62
7
  6
CONTINUOUS
 10
11.5461371583
 20
9.959891804
 40
0.275
100
AcDbArc
 50
215.7906993538
 51
144.209298599
  0
ARC
  5
250
100
AcDbEntity
  8
0
100
AcDbCircle
 62
7
  6
CONTINUOUS
 10
11.157508368
 20
8.6886274008
 40
0.2039751211
100
AcDbArc
 50
326.9521644936
 51
34.9889904702
  0
ARC
  5
251
100
AcDbEntity
  8
0
100
AcDbCircle
 62
7
  6
CONTINUOUS
 10
10.2624586102
 20
8.6886274008
 40
0.2039751211
100
AcDbArc
 50
145.0110095298
 51
213.0478355064
  0
ARC
  5
252
100
AcDbEntity
  8
0
100
AcDbCircle
 62
7
  6
CONTINUOUS
 10
11.702847378
 20
7.558891804
 40
0.1871361111
100
AcDbArc
 50
0.0
 51
87.8145949287
  0
ARC
  5
253
100
AcDbEntity
  8
0
100
AcDbCircle
 62
7
  6
CONTINUOUS
 10
9.7171196002
 20
7.558891804
 40
0.1871361111
100
AcDbArc
 50
92.1854050713
 51
180.0
  0
ARC
  5
254
100
AcDbEntity
  8
0
100
AcDbCircle
 62
7
  6
CONTINUOUS
 10
11.5229861629
 20
7.746891804
 40
0.187
100
AcDbArc
 50
359.6936039968
 51
90.0
  0
ARC
  5
255
100
AcDbEntity
  8
0
100
AcDbCircle
 62
7
  6
CONTINUOUS
 10
9.8969808153
 20
7.746891804
 40
0.187
100
AcDbArc
 50
90.0
 51
180.3063960032
  0
ARC
  5
256
100
AcDbEntity
  8
0
100
AcDbCircle
 62
7
  6
CONTINUOUS
 10
11.4722580227
 20
8.4838527795
 40
0.1715245336
100
AcDbArc
 50
146.9521644936
 51
225.0826423158
  0
ARC
  5
257
100
AcDbEntity
  8
0
100
AcDbCircle
 62
7
  6
CONTINUOUS
 10
9.9477089555
 20
8.4838527795
 40
0.1715245336
100
AcDbArc
 50
314.9173576842
 51
33.0478355064
  0
ARC
  5
258
100
AcDbEntity
  8
0
100
AcDbCircle
 62
7
  6
CONTINUOUS
 10
11.3494428042
 20
10.0499091911
 40
0.1059826129
100
AcDbArc
 50
87.8228018429
 51
89.9994258975
  0
ARC
  5
259
100
AcDbEntity
  8
0
100
AcDbCircle
 62
7
  6
CONTINUOUS
 10
11.3494428274
 20
9.8698743628
 40
0.1059825588
100
AcDbArc
 50
270.000561584
 51
272.1627149266
  0
ARC
  5
25A
100
AcDbEntity
  8
0
100
AcDbCircle
 62
9
  6
CONTINUOUS
 10
11.0699267096
 20
9.8624580657
 40
0.098566264
100
AcDbArc
 50
261.2505782002
 51
269.9874190005
  0
ARC
  5
25B
100
AcDbEntity
  8
0
100
AcDbCircle
 62
9
  6
CONTINUOUS
 10
11.0699267096
 20
10.0573255441
 40
0.0985662624
100
AcDbArc
 50
90.0125809526
 51
98.7494070852
  0
ARC
  5
25C
100
AcDbEntity
  8
0
100
AcDbCircle
 62
9
  6
CONTINUOUS
 10
10.3500432222
 20
10.0573297451
 40
0.0985619668
100
AcDbArc
 50
80.5123988565
 51
89.9891354719
  0
ARC
  5
25D
100
AcDbEntity
  8
0
100
AcDbCircle
 62
9
  6
CONTINUOUS
 10
10.3500432225
 20
9.8624538577
 40
0.0985619615
100
AcDbArc
 50
270.0108643664
 51
279.487561617
  0
ARC
  5
25E
100
AcDbEntity
  8
0
100
AcDbCircle
 62
7
  6
CONTINUOUS
 10
11.1088323776
 20
9.214891804
 40
0.031
100
AcDbArc
 50
4.8096995456
 51
90.0
  0
ARC
  5
25F
100
AcDbEntity
  8
0
100
AcDbCircle
 62
7
  6
CONTINUOUS
 10
10.3111346006
 20
9.214891804
 40
0.031
100
AcDbArc
 50
90.0
 51
175.1903004544
  0
ARC
  5
260
100
AcDbEntity
  8
0
100
AcDbCircle
 62
7
  6
CONTINUOUS
 10
11.0974834891
 20
10.3806914571
 40
0.03
100
AcDbArc
 50
9.982355849
 51
75.2369687319
  0
ARC
  5
261
100
AcDbEntity
  8
0
100
AcDbCircle
 62
7
  6
CONTINUOUS
 10
10.3224834891
 20
10.3806914571
 40
0.03
100
AcDbArc
 50
104.7630312681
 51
170.017644151
  0
SPLINE
  5
262
100
AcDbEntity
  8
0
100
AcDbSpline
 62
7
  6
CONTINUOUS
 70
0
 71
3
 72
11
 73
7
 74
0
 42
0.0000001
 43
0.0000001
 44
0.0000000001
 40
0.0
 40
0.0
 40
0.0
 40
0.0
 40
0.4765533779
 40
0.6032465548
 40
0.7327996682
 40
1.0
 40
1.0
 40
1.0
 40
1.0
 10
10.3157714586
 20
10.164891804
 30
0.0
 10
10.3242587299
 20
10.164891804
 30
0.0
 10
10.3350337253
 20
10.1635577765
 30
0.0
 10
10.3477133319
 20
10.1604787746
 30
0.0
 10
10.3566662707
 20
10.1578669025
 30
0.0
 10
10.3633146667
 20
10.1554432626
 30
0.0
 10
10.3677188007
 20
10.1536406611
 30
0.0
  0
SPLINE
  5
263
100
AcDbEntity
  8
0
100
AcDbSpline
 62
7
  6
CONTINUOUS
 70
0
 71
3
 72
43
 73
39
 74
0
 42
0.0000001
 43
0.0000001
 44
0.0000000001
 40
0.0
 40
0.0
 40
0.0
 40
0.0
 40
0.0280062455
 40
0.0568581421
 40
0.086439541
 40
0.1166367761
 40
0.1473457001
 40
0.1784731415
 40
0.2099378058
 40
0.2416708187
 40
0.2736134575
 40
0.305718261
 40
0.3379449753
 40
0.3702615797
 40
0.4026429908
 40
0.4188547587
 40
0.4350757033
 40
0.4513031442
 40
0.4675355693
 40
0.5000000004
 40
0.5324644316
 40
0.5486968567
 40
0.5649242976
 40
0.5811452421
 40
0.5973570101
 40
0.6297384216
 40
0.662055026
 40
0.6942817402
 40
0.7263865437
 40
0.7583291824
 40
0.7900621953
 40
0.8215268594
 40
0.8526543008
 40
0.8833632246
 40
0.9135604596
 40
0.9431418584
 40
0.9719937546
 40
1.0
 40
1.0
 40
1.0
 40
1.0
 10
10.3677188007
 20
10.1536406611
 30
0.0
 10
10.3720572267
 20
10.1518649539
 30
0.0
 10
10.3807295058
 20
10.1479206593
 30
0.0
 10
10.3934557973
 20
10.141015352
 30
0.0
 10
10.4060046666
 20
10.1330826981
 30
0.0
 10
10.4182702
 20
10.1241796258
 30
0.0
 10
10.430151804
 20
10.1143588935
 30
0.0
 10
10.4415501145
 20
10.1036682609
 30
0.0
 10
10.4523664305
 20
10.0921521185
 30
0.0
 10
10.4624989489
 20
10.0798516251
 30
0.0
 10
10.4718424164
 20
10.066808176
 30
0.0
 10
10.4802861949
 20
10.0530663788
 30
0.0
 10
10.4877146931
 20
10.0386777268
 30
0.0
 10
10.4940107541
 20
10.0237071933
 30
0.0
 10
10.4982157986
 20
10.0108149073
 30
0.0
 10
10.5009040981
 20
10.000301482
 30
0.0
 10
10.5025710701
 20
9.992326196
 30
0.0
 10
10.5038794276
 20
9.9842806768
 30
0.0
 10
10.5051325606
 20
9.9734827891
 30
0.0
 10
10.505765417
 20
9.9598918022
 30
0.0
 10
10.5051325603
 20
9.9463008152
 30
0.0
 10
10.5038794271
 20
9.9355029276
 30
0.0
 10
10.5025710694
 20
9.9274574084
 30
0.0
 10
10.5009040973
 20
9.9194821224
 30
0.0
 10
10.4982157975
 20
9.908968697
 30
0.0
 10
10.4940107527
 20
9.8960764111
 30
0.0
 10
10.4877146914
 20
9.8811058777
 30
0.0
 10
10.4802861929
 20
9.8667172258
 30
0.0
 10
10.4718424142
 20
9.8529754288
 30
0.0
 10
10.4624989465
 20
9.8399319799
 30
0.0
 10
10.4523664279
 20
9.8276314867
 30
0.0
 10
10.4415501118
 20
9.8161153445
 30
0.0
 10
10.4301518011
 20
9.8054247121
 30
0.0
 10
10.4182701971
 20
9.79560398
 30
0.0
 10
10.4060046636
 20
9.786700908
 30
0.0
 10
10.3934557942
 20
9.7787682543
 30
0.0
 10
10.3807295027
 20
9.7718629472
 30
0.0
 10
10.3720572236
 20
9.7679186528
 30
0.0
 10
10.3677187976
 20
9.7661429457
 30
0.0
  0
SPLINE
  5
264
100
AcDbEntity
  8
0
100
AcDbSpline
 62
7
  6
CONTINUOUS
 70
0
 71
3
 72
11
 73
7
 74
0
 42
0.0000001
 43
0.0000001
 44
0.0000000001
 40
0.0
 40
0.0
 40
0.0
 40
0.0
 40
0.2672003413
 40
0.3967534449
 40
0.523446599
 40
1.0
 40
1.0
 40
1.0
 40
1.0
 10
10.3677187976
 20
9.7661429457
 30
0.0
 10
10.3633146637
 20
9.7643403444
 30
0.0
 10
10.356666268
 20
9.761916705
 30
0.0
 10
10.3477133302
 20
9.759304833
 30
0.0
 10
10.3350337247
 20
9.7562258309
 30
0.0
 10
10.3242587298
 20
9.754891804
 30
0.0
 10
10.3157714586
 20
9.754891804
 30
0.0
  0
SPLINE
  5
265
100
AcDbEntity
  8
0
100
AcDbSpline
 62
7
  6
CONTINUOUS
 70
0
 71
3
 72
11
 73
7
 74
0
 42
0.0000001
 43
0.0000001
 44
0.0000000001
 40
0.0
 40
0.0
 40
0.0
 40
0.0
 40
0.476553423
 40
0.6032466152
 40
0.7327997278
 40
1.0
 40
1.0
 40
1.0
 40
1.0
 10
11.1041955197
 20
9.754891804
 30
0.0
 10
11.0957083008
 20
9.754891804
 30
0.0
 10
11.0849333723
 20
9.7562258159
 30
0.0
 10
11.0722538402
 20
9.7593047822
 30
0.0
 10
11.0633009547
 20
9.7619166248
 30
0.0
 10
11.0566525974
 20
9.764340238
 30
0.0
 10
11.0522484887
 20
9.7661428195
 30
0.0
  0
SPLINE
  5
266
100
AcDbEntity
  8
0
100
AcDbSpline
 62
7
  6
CONTINUOUS
 70
0
 71
3
 72
43
 73
39
 74
0
 42
0.0000001
 43
0.0000001
 44
0.0000000001
 40
0.0
 40
0.0
 40
0.0
 40
0.0
 40
0.0280062301
 40
0.056858114
 40
0.0864395044
 40
0.1166367353
 40
0.147345655
 40
0.1784730951
 40
0.2099377656
 40
0.2416707836
 40
0.2736134247
 40
0.3057182329
 40
0.3379449527
 40
0.3702615616
 40
0.4026429746
 40
0.4188547438
 40
0.4350756902
 40
0.4513031336
 40
0.4675355619
 40
0.5
 40
0.5324644381
 40
0.5486968662
 40
0.5649243096
 40
0.581145256
 40
0.5973570251
 40
0.6297384381
 40
0.6620550471
 40
0.6942817669
 40
0.726386575
 40
0.7583292162
 40
0.7900622341
 40
0.8215269045
 40
0.8526543447
 40
0.8833632645
 40
0.9135604954
 40
0.9431418859
 40
0.9719937699
 40
1.0
 40
1.0
 40
1.0
 40
1.0
 10
11.0522484887
 20
9.7661428195
 30
0.0
 10
11.0479100562
 20
9.7679185202
 30
0.0
 10
11.039237763
 20
9.7718628034
 30
0.0
 10
11.0265114495
 20
9.7787680977
 30
0.0
 10
11.0139625565
 20
9.7867007433
 30
0.0
 10
11.0016969984
 20
9.7956038111
 30
0.0
 10
10.9898153691
 20
9.8054245422
 30
0.0
 10
10.9784170327
 20
9.8161151777
 30
0.0
 10
10.9676006904
 20
9.8276313267
 30
0.0
 10
10.9574681466
 20
9.8399318296
 30
0.0
 10
10.9481246553
 20
9.8529752904
 30
0.0
 10
10.9396808548
 20
9.8667171017
 30
0.0
 10
10.9322523364
 20
9.8811057703
 30
0.0
 10
10.9259562579
 20
9.8960763221
 30
0.0
 10
10.9217512015
 20
9.9089686246
 30
0.0
 10
10.9190628944
 20
9.9194820637
 30
0.0
 10
10.9173959174
 20
9.9274573607
 30
0.0
 10
10.9160875559
 20
9.9355028916
 30
0.0
 10
10.9148344191
 20
9.9463007954
 30
0.0
 10
10.9142015603
 20
9.9598918033
 30
0.0
 10
10.9148344189
 20
9.9734828112
 30
0.0
 10
10.9160875557
 20
9.984280715
 30
0.0
 10
10.9173959171
 20
9.9923262459
 30
0.0
 10
10.919062894
 20
10.0003015428
 30
0.0
 10
10.9217512011
 20
10.010814982
 30
0.0
 10
10.9259562574
 20
10.0237072845
 30
0.0
 10
10.9322523357
 20
10.0386778364
 30
0.0
 10
10.939680854
 20
10.0530665051
 30
0.0
 10
10.9481246544
 20
10.0668083164
 30
0.0
 10
10.9574681457
 20
10.0798517772
 30
0.0
 10
10.9676006894
 20
10.0921522802
 30
0.0
 10
10.9784170315
 20
10.1036684292
 30
0.0
 10
10.9898153679
 20
10.1143590648
 30
0.0
 10
11.0016969971
 20
10.1241797961
 30
0.0
 10
11.0139625552
 20
10.1330828639
 30
0.0
 10
11.0265114482
 20
10.1410155097
 30
0.0
 10
11.0392377617
 20
10.1479208041
 30
0.0
 10
11.0479100548
 20
10.1518650873
 30
0.0
 10
11.0522484874
 20
10.153640788
 30
0.0
  0
SPLINE
  5
267
100
AcDbEntity
  8
0
100
AcDbSpline
 62
7
  6
CONTINUOUS
 70
0
 71
3
 72
11
 73
7
 74
0
 42
0.0000001
 43
0.0000001
 44
0.0000000001
 40
0.0
 40
0.0
 40
0.0
 40
0.0
 40
0.2672002703
 40
0.396753383
 40
0.5234465766
 40
1.0
 40
1.0
 40
1.0
 40
1.0
 10
11.0522484874
 20
10.153640788
 30
0.0
 10
11.0566525961
 20
10.1554433696
 30
0.0
 10
11.0633009535
 20
10.157866983
 30
0.0
 10
11.0722538393
 20
10.1604788257
 30
0.0
 10
11.0849333717
 20
10.1635577921
 30
0.0
 10
11.0957083005
 20
10.164891804
 30
0.0
 10
11.1041955195
 20
10.164891804
 30
0.0
  0
SPLINE
  5
268
100
AcDbEntity
  8
0
100
AcDbSpline
 62
7
  6
CONTINUOUS
 70
0
 71
3
 72
19
 73
15
 74
0
 42
0.0000001
 43
0.0000001
 44
0.0000000001
 40
0.0
 40
0.0
 40
0.0
 40
0.0
 40
0.0594156459
 40
0.1188844059
 40
0.1785176405
 40
0.2383871504
 40
0.2985617226
 40
0.3591228481
 40
0.4201477591
 40
0.4817116892
 40
0.6066578888
 40
0.7345068619
 40
0.8655774835
 40
1.0
 40
1.0
 40
1.0
 40
1.0
 10
11.0699050665
 20
9.763891804
 30
0.0
 10
11.0729046497
 20
9.763891804
 30
0.0
 10
11.0789091996
 20
9.7641302175
 30
0.0
 10
11.0878669491
 20
9.7651992026
 30
0.0
 10
11.0967360804
 20
9.7669721535
 30
0.0
 10
11.1054757843
 20
9.7694340368
 30
0.0
 10
11.1140467957
 20
9.7725692351
 30
0.0
 10
11.1224145772
 20
9.7763548872
 30
0.0
 10
11.1305484621
 20
9.7807688646
 30
0.0
 10
11.1410952692
 20
9.7874880042
 30
0.0
 10
11.1535784978
 20
9.7973689052
 30
0.0
 10
11.1671687406
 20
9.8112496785
 30
0.0
 10
11.1793321719
 20
9.8269979951
 30
0.0
 10
11.1863384279
 20
9.8384582661
 30
0.0
 10
11.189582978
 20
9.8444186824
 30
0.0
  0
SPLINE
  5
269
100
AcDbEntity
  8
0
100
AcDbSpline
 62
7
  6
CONTINUOUS
 70
0
 71
3
 72
19
 73
15
 74
0
 42
0.0000001
 43
0.0000001
 44
0.0000000001
 40
0.0
 40
0.0
 40
0.0
 40
0.0
 40
0.1344038634
 40
0.2654604765
 40
0.3933010214
 40
0.5182452744
 40
0.5798103654
 40
0.6408381964
 40
0.7014034194
 40
0.7615832959
 40
0.8214588672
 40
0.88109939
 40
0.940576694
 40
1.0
 40
1.0
 40
1.0
 40
1.0
 10
11.1894736357
 20
10.0755654959
 30
0.0
 10
11.1862277185
 20
10.0815124493
 30
0.0
 10
11.179220344
 20
10.0929463247
 30
0.0
 10
11.1670605111
 20
10.1086568189
 30
0.0
 10
11.1534787622
 20
10.122503104
 30
0.0
 10
11.1410066799
 20
10.1323585115
 30
0.0
 10
11.1304709255
 20
10.13906009
 30
0.0
 10
11.1223461095
 20
10.1434623648
 30
0.0
 10
11.1139883024
 20
10.1472379446
 30
0.0
 10
11.1054280245
 20
10.1503646591
 30
0.0
 10
11.0966997106
 20
10.1528198961
 30
0.0
 10
11.0878424048
 20
10.1545879907
 30
0.0
 10
11.0788968265
 20
10.1556540319
 30
0.0
 10
11.0729005157
 20
10.155891804
 30
0.0
 10
11.0699050665
 20
10.155891804
 30
0.0
  0
SPLINE
  5
26A
100
AcDbEntity
  8
0
100
AcDbSpline
 62
7
  6
CONTINUOUS
 70
0
 71
3
 72
39
 73
35
 74
0
 42
0.0000001
 43
0.0000001
 44
0.0000000001
 40
0.0
 40
0.0
 40
0.0
 40
0.0
 40
0.0070567044
 40
0.0130401235
 40
0.0179673378
 40
0.0218550024
 40
0.0247193332
 40
0.0265760931
 40
0.0274406304
 40
0.027506075
 40
0.0276818099
 40
0.0287462271
 40
0.030744039
 40
0.0336548956
 40
0.0374588066
 40
0.0421361598
 40
0.0476677372
 40
0.054034733
 40
0.0612187615
 40
0.0779592194
 40
0.0977229831
 40
0.120344506
 40
0.1456628901
 40
0.1735224352
 40
0.2037722986
 40
0.2362640604
 40
0.2708520267
 40
0.3457457957
 40
0.4273562155
 40
0.5145626559
 40
0.6062449735
 40
0.7013425147
 40
0.7990820051
 40
1.0
 40
1.0
 40
1.0
 40
1.0
 10
11.1822944575
 20
10.0787200685
 30
0.0
 10
11.1822387812
 20
10.078773004
 30
0.0
 10
11.1821353934
 20
10.0788702518
 30
0.0
 10
11.1819912671
 20
10.0790026755
 30
0.0
 10
11.1818715821
 20
10.0791100536
 30
0.0
 10
11.1817753364
 20
10.0791944034
 30
0.0
 10
11.1817055453
 20
10.0792539916
 30
0.0
 10
11.1816560766
 20
10.0792956124
 30
0.0
 10
11.1816362952
 20
10.0793113984
 30
0.0
 10
11.181624389
 20
10.0793213914
 30
0.0
 10
11.1816446167
 20
10.0793054617
 30
0.0
 10
11.1816610939
 20
10.0792931912
 30
0.0
 10
11.1817206596
 20
10.0792479311
 30
0.0
 10
11.1817934068
 20
10.0791945026
 30
0.0
 10
11.1818954544
 20
10.0791208299
 30
0.0
 10
11.1820196956
 20
10.0790334583
 30
0.0
 10
11.1821686708
 20
10.0789312023
 30
0.0
 10
11.1823413089
 20
10.0788157649
 30
0.0
 10
11.1826177269
 20
10.0786358465
 30
0.0
 10
11.1830213418
 20
10.078384166
 30
0.0
 10
11.1835753145
 20
10.0780562549
 30
0.0
 10
11.1842181369
 20
10.0776954917
 30
0.0
 10
11.1849470446
 20
10.0773084632
 30
0.0
 10
11.185759319
 20
10.0769018856
 30
0.0
 10
11.1866519555
 20
10.0764820339
 30
0.0
 10
11.1876212531
 20
10.076053742
 30
0.0
 10
11.1890494046
 20
10.0754623776
 30
0.0
 10
11.1909998253
 20
10.0747360823
 30
0.0
 10
11.1935295269
 20
10.0739326519
 30
0.0
 10
11.1962706532
 20
10.073201348
 30
0.0
 10
11.1991862171
 20
10.0725663883
 30
0.0
 10
11.2022423133
 20
10.0720536724
 30
0.0
 10
11.2065000514
 20
10.0715472118
 30
0.0
 10
11.2097542513
 20
10.071391804
 30
0.0
 10
11.2119415935
 20
10.071391804
 30
0.0
  0
SPLINE
  5
26B
100
AcDbEntity
  8
0
100
AcDbSpline
 62
7
  6
CONTINUOUS
 70
0
 71
3
 72
22
 73
18
 74
0
 42
0.0000001
 43
0.0000001
 44
0.0000000001
 40
0.0
 40
0.0
 40
0.0
 40
0.0
 40
0.172963605
 40
0.2576158763
 40
0.3405474762
 40
0.4213835117
 40
0.4997083272
 40
0.5749288576
 40
0.6463843663
 40
0.7133953481
 40
0.7752736895
 40
0.8313506483
 40
0.8809431811
 40
0.9233359886
 40
0.9578013513
 40
0.9836118931
 40
1.0
 40
1.0
 40
1.0
 40
1.0
 10
11.2119415935
 20
9.848391804
 30
0.0
 10
11.2101216225
 20
9.848391804
 30
0.0
 10
11.2074093281
 20
9.8482831977
 30
0.0
 10
11.2038428226
 20
9.8479303743
 30
0.0
 10
11.2012528303
 20
9.8475720188
 30
0.0
 10
11.1987445505
 20
9.8471236519
 30
0.0
 10
11.1963358082
 20
9.8465911923
 30
0.0
 10
11.1940452212
 20
9.8459902477
 30
0.0
 10
11.1918932524
 20
9.8453367179
 30
0.0
 10
11.1899005909
 20
9.8446470469
 30
0.0
 10
11.1880882437
 20
9.8439360868
 30
0.0
 10
11.186473714
 20
9.8432268574
 30
0.0
 10
11.1850721227
 20
9.8425457285
 30
0.0
 10
11.1838984935
 20
9.8419181027
 30
0.0
 10
11.1829672189
 20
9.8413699749
 30
0.0
 10
11.1822878747
 20
9.8409346859
 30
0.0
 10
11.1819222845
 20
9.8406824859
 30
0.0
 10
11.1817827267
 20
9.840581198
 30
0.0
  0
SPLINE
  5
26C
100
AcDbEntity
  8
0
100
AcDbSpline
 62
7
  6
CONTINUOUS
 70
0
 71
3
 72
11
 73
7
 74
0
 42
0.0000001
 43
0.0000001
 44
0.0000000001
 40
0.0
 40
0.0
 40
0.0
 40
0.0
 40
0.2217906087
 40
0.467835015
 40
0.7292314401
 40
1.0
 40
1.0
 40
1.0
 40
1.0
 10
11.2335515712
 20
9.8447901013
 30
0.0
 10
11.232020679
 20
9.845341093
 30
0.0
 10
11.2287351503
 20
9.8463499239
 30
0.0
 10
11.2235027936
 20
9.84749297
 30
0.0
 10
11.2178337458
 20
9.8482220651
 30
0.0
 10
11.2139279185
 20
9.848391804
 30
0.0
 10
11.2119415935
 20
9.848391804
 30
0.0
  0
SPLINE
  5
26D
100
AcDbEntity
  8
0
100
AcDbSpline
 62
7
  6
CONTINUOUS
 70
0
 71
3
 72
14
 73
10
 74
0
 42
0.0000001
 43
0.0000001
 44
0.0000000001
 40
0.0
 40
0.0
 40
0.0
 40
0.0
 40
0.2710759928
 40
0.4033256216
 40
0.5324372759
 40
0.657699098
 40
0.7781937715
 40
0.8927158422
 40
1.0
 40
1.0
 40
1.0
 40
1.0
 10
11.2119415935
 20
10.071391804
 30
0.0
 10
11.2139311992
 20
10.071391804
 30
0.0
 10
11.2168935564
 20
10.0715213109
 30
0.0
 10
11.2207795458
 20
10.0719416752
 30
0.0
 10
11.2235861817
 20
10.0723667644
 30
0.0
 10
11.2262867569
 20
10.072897753
 30
0.0
 10
11.2288573162
 20
10.0735215056
 30
0.0
 10
11.231272496
 20
10.0742160198
 30
0.0
 10
11.2328174285
 20
10.0747312074
 30
0.0
 10
11.2335586149
 20
10.0749970787
 30
0.0
  0
SPLINE
  5
26E
100
AcDbEntity
  8
0
100
AcDbSpline
 62
7
  6
CONTINUOUS
 70
0
 71
3
 72
45
 73
41
 74
0
 42
0.0000001
 43
0.0000001
 44
0.0000000001
 40
0.0
 40
0.0
 40
0.0
 40
0.0
 40
0.0270198859
 40
0.0542020342
 40
0.0679116718
 40
0.0817199728
 40
0.0956452351
 40
0.1097041099
 40
0.1239125463
 40
0.1382842605
 40
0.167554677
 40
0.1976037842
 40
0.22847531
 40
0.2601792373
 40
0.2926918516
 40
0.3259585134
 40
0.3598972452
 40
0.3944025073
 40
0.4293494466
 40
0.4645988352
 40
0.5000018449
 40
0.5354048263
 40
0.5706541274
 40
0.6056009045
 40
0.6401059319
 40
0.674044402
 40
0.7073107627
 40
0.7398230417
 40
0.7715266221
 40
0.8023977767
 40
0.8324465324
 40
0.8617166187
 40
0.8760881705
 40
0.8902964642
 40
0.9043552138
 40
0.9182803552
 40
0.9320885567
 40
0.9457980917
 40
0.9729801542
 40
1.0
 40
1.0
 40
1.0
 40
1.0
 10
11.3494438662
 20
10.155891804
 30
0.0
 10
11.3446134084
 20
10.155891804
 30
0.0
 10
11.3349113155
 20
10.155226406
 30
0.0
 10
11.3229866092
 20
10.1527530257
 30
0.0
 10
11.3136485492
 20
10.1498302128
 30
0.0
 10
11.306731208
 20
10.147161498
 30
0.0
 10
11.2999405126
 20
10.1440340785
 30
0.0
 10
11.2932935776
 20
10.1404585214
 30
0.0
 10
11.2868057359
 20
10.1364479358
 30
0.0
 10
11.2783375086
 20
10.1305022171
 30
0.0
 10
11.2682190029
 20
10.1220202498
 30
0.0
 10
11.2570109759
 20
10.1103908764
 30
0.0
 10
11.2467423916
 20
10.0973676409
 30
0.0
 10
11.2374900475
 20
10.0830795059
 30
0.0
 10
11.2293216764
 20
10.0676611085
 30
0.0
 10
11.2222985622
 20
10.0512547979
 30
0.0
 10
11.2164744783
 20
10.0340105094
 30
0.0
 10
11.2118951472
 20
10.0160855759
 30
0.0
 10
11.2085972878
 20
9.9976439049
 30
0.0
 10
11.2066076908
 20
9.9788547051
 30
0.0
 10
11.2059427018
 20
9.9598908172
 30
0.0
 10
11.2066078155
 20
9.9409269494
 30
0.0
 10
11.2085975395
 20
9.9221378125
 30
0.0
 10
11.2118955362
 20
9.9036962539
 30
0.0
 10
11.2164749792
 20
9.8857714712
 30
0.0
 10
11.2222991289
 20
9.8685273561
 30
0.0
 10
11.2293222798
 20
9.852121236
 30
0.0
 10
11.2374906611
 20
9.8367030432
 30
0.0
 10
11.2467429903
 20
9.822415123
 30
0.0
 10
11.2570115349
 20
9.8093921007
 30
0.0
 10
11.2682194881
 20
9.7977629184
 30
0.0
 10
11.2783379137
 20
9.7892810929
 30
0.0
 10
11.2868060568
 20
9.7833354522
 30
0.0
 10
11.2932938476
 20
9.77932493
 30
0.0
 10
11.2999407316
 20
9.7757494261
 30
0.0
 10
11.3067313719
 20
9.7726220343
 30
0.0
 10
11.3136486674
 20
9.769953362
 30
0.0
 10
11.3229866748
 20
9.7670305543
 30
0.0
 10
11.3349113466
 20
9.7645572058
 30
0.0
 10
11.3446134156
 20
9.763891804
 30
0.0
 10
11.3494438662
 20
9.763891804
 30
0.0
  0
SPLINE
  5
26F
100
AcDbEntity
  8
0
100
AcDbSpline
 62
7
  6
CONTINUOUS
 70
0
 71
3
 72
19
 73
15
 74
0
 42
0.0000001
 43
0.0000001
 44
0.0000000001
 40
0.0
 40
0.0
 40
0.0
 40
0.0
 40
0.0594266032
 40
0.1189049895
 40
0.1785456625
 40
0.2384231768
 40
0.2986045516
 40
0.3591714077
 40
0.4201995502
 40
0.4817655692
 40
0.6067091152
 40
0.7345487889
 40
0.8656024432
 40
1.0
 40
1.0
 40
1.0
 40
1.0
 10
10.3500619117
 20
10.155891804
 30
0.0
 10
10.3470678117
 20
10.155891804
 30
0.0
 10
10.3410743208
 20
10.1556542011
 30
0.0
 10
10.3321329733
 20
10.1545892838
 30
0.0
 10
10.3232798728
 20
10.1528226982
 30
0.0
 10
10.3145554506
 20
10.150369928
 30
0.0
 10
10.3059988092
 20
10.1472459698
 30
0.0
 10
10.2976442932
 20
10.1434739671
 30
0.0
 10
10.2895225855
 20
10.1390754747
 30
0.0
 10
10.2789904182
 20
10.1323799972
 30
0.0
 10
10.2665219931
 20
10.1225330165
 30
0.0
 10
10.2529429426
 20
10.1086981998
 30
0.0
 10
10.2407841462
 20
10.0930002704
 30
0.0
 10
10.2337764913
 20
10.0815750965
 30
0.0
 10
10.2305300416
 20
10.0756327011
 30
0.0
  0
SPLINE
  5
270
100
AcDbEntity
  8
0
100
AcDbSpline
 62
7
  6
CONTINUOUS
 70
0
 71
3
 72
20
 73
16
 74
0
 42
0.0000001
 43
0.0000001
 44
0.0000000001
 40
0.0
 40
0.0
 40
0.0
 40
0.0
 40
0.1343842375
 40
0.2654261614
 40
0.3932550602
 40
0.4560900044
 40
0.5182568328
 40
0.5798179355
 40
0.6408436067
 40
0.7014067394
 40
0.7615853222
 40
0.8214590015
 40
0.8810997138
 40
0.9405781914
 40
1.0
 40
1.0
 40
1.0
 40
1.0
 10
10.2305572725
 20
9.844101113
 30
0.0
 10
10.2338040179
 20
9.838162023
 30
0.0
 10
10.2408124045
 20
9.8267431536
 30
0.0
 10
10.2529687193
 20
9.8110557227
 30
0.0
 10
10.2643535964
 20
9.7994631764
 30
0.0
 10
10.2741050757
 20
9.7912615316
 30
0.0
 10
10.2816821238
 20
9.7856917964
 30
0.0
 10
10.2895419794
 20
9.7806965314
 30
0.0
 10
10.297661376
 20
9.7763014636
 30
0.0
 10
10.3060133378
 20
9.77253163
 30
0.0
 10
10.3145672914
 20
9.7694100891
 30
0.0
 10
10.3232888237
 20
9.7669585959
 30
0.0
 10
10.3321391984
 20
9.7651935357
 30
0.0
 10
10.3410775648
 20
9.7641291655
 30
0.0
 10
10.3470689763
 20
9.763891804
 30
0.0
 10
10.3500619117
 20
9.763891804
 30
0.0
  0
SPLINE
  5
271
100
AcDbEntity
  8
0
100
AcDbSpline
 62
7
  6
CONTINUOUS
 70
0
 71
3
 72
41
 73
37
 74
0
 42
0.0000001
 43
0.0000001
 44
0.0000000001
 40
0.0
 40
0.0
 40
0.0
 40
0.0
 40
0.0000733901
 40
0.0002663668
 40
0.0014383921
 40
0.0024110973
 40
0.0036371107
 40
0.0068329961
 40
0.0109940332
 40
0.0160887509
 40
0.0220863525
 40
0.0289567608
 40
0.0366706658
 40
0.0451995325
 40
0.0545141256
 40
0.0645838391
 40
0.086867233
 40
0.1118140264
 40
0.1391971161
 40
0.1687982995
 40
0.2004039004
 40
0.2338049409
 40
0.2687985781
 40
0.3051904146
 40
0.3427958158
 40
0.3814329723
 40
0.4610776299
 40
0.5427495716
 40
0.625116619
 40
0.6661499343
 40
0.7068596969
 40
0.7866270858
 40
0.8630415757
 40
0.8995500177
 40
0.9346785786
 40
1.0
 40
1.0
 40
1.0
 40
1.0
 10
10.2383375237
 20
9.8404662851
 30
0.0
 10
10.2383385589
 20
9.8404654553
 30
0.0
 10
10.238344094
 20
9.8404611347
 30
0.0
 10
10.2383060155
 20
9.8404912917
 30
0.0
 10
10.2382892048
 20
9.8405036125
 30
0.0
 10
10.2382348829
 20
9.8405445073
 30
0.0
 10
10.2381586823
 20
9.8406003029
 30
0.0
 10
10.2380308264
 20
9.8406918095
 30
0.0
 10
10.2378464641
 20
9.8408193555
 30
0.0
 10
10.237617129
 20
9.8409730585
 30
0.0
 10
10.2373447078
 20
9.8411495801
 30
0.0
 10
10.2370292858
 20
9.841347006
 30
0.0
 10
10.2366715833
 20
9.8415629375
 30
0.0
 10
10.2362721078
 20
9.8417950754
 30
0.0
 10
10.235831648
 20
9.8420412987
 30
0.0
 10
10.2351683211
 20
9.8423982201
 30
0.0
 10
10.2342442235
 20
9.8428665619
 30
0.0
 10
10.2330222776
 20
9.8434381236
 30
0.0
 10
10.231660607
 20
9.8440214218
 30
0.0
 10
10.2301683283
 20
9.8446033258
 30
0.0
 10
10.2285557974
 20
9.8451739384
 30
0.0
 10
10.2268330722
 20
9.8457226941
 30
0.0
 10
10.2250102867
 20
9.8462392788
 30
0.0
 10
10.2230975431
 20
9.8467132125
 30
0.0
 10
10.2211060892
 20
9.8471389814
 30
0.0
 10
10.218332683
 20
9.8476403066
 30
0.0
 10
10.2147462065
 20
9.8481121999
 30
0.0
 10
10.2103474526
 20
9.8483980366
 30
0.0
 10
10.2066376617
 20
9.8484042661
 30
0.0
 10
10.2036737593
 20
9.848266935
 30
0.0
 10
10.200762859
 20
9.8480352608
 30
0.0
 10
10.197230205
 20
9.8475808194
 30
0.0
 10
10.1938075798
 20
9.8469202819
 30
0.0
 10
10.1912076604
 20
9.8462833144
 30
0.0
 10
10.1888236525
 20
9.8456143113
 30
0.0
 10
10.1870985689
 20
9.8450423622
 30
0.0
 10
10.1859907567
 20
9.8446336057
 30
0.0
  0
SPLINE
  5
272
100
AcDbEntity
  8
0
100
AcDbSpline
 62
7
  6
CONTINUOUS
 70
0
 71
3
 72
24
 73
20
 74
0
 42
0.0000001
 43
0.0000001
 44
0.0000000001
 40
0.0
 40
0.0
 40
0.0
 40
0.0
 40
0.0270780601
 40
0.0541744485
 40
0.0813318476
 40
0.1085920036
 40
0.1635526816
 40
0.2194001016
 40
0.276413177
 40
0.3348222056
 40
0.3947974051
 40
0.4564413654
 40
0.519785154
 40
0.5847889338
 40
0.6513465703
 40
0.7192925967
 40
0.7884123683
 40
0.8584456258
 40
1.0
 40
1.0
 40
1.0
 40
1.0
 10
10.0663745566
 20
9.7639731204
 30
0.0
 10
10.0688302359
 20
9.7638770384
 30
0.0
 10
10.0737516693
 20
9.7638554461
 30
0.0
 10
10.0811231084
 20
9.7643367806
 30
0.0
 10
10.0884604421
 20
9.7653300001
 30
0.0
 10
10.0981896831
 20
9.7673337714
 30
0.0
 10
10.1101803277
 20
9.7711116103
 30
0.0
 10
10.1240229652
 20
9.7775610631
 30
0.0
 10
10.1372238331
 20
9.7858398505
 30
0.0
 10
10.1496583451
 20
9.7958332572
 30
0.0
 10
10.1612225139
 20
9.8074190156
 30
0.0
 10
10.1718253253
 20
9.8204688196
 30
0.0
 10
10.181386017
 20
9.8348484454
 30
0.0
 10
10.1898317901
 20
9.850416662
 30
0.0
 10
10.1970973208
 20
9.8670245194
 30
0.0
 10
10.2031252283
 20
9.8845141281
 30
0.0
 10
10.2078666317
 20
9.9027222532
 30
0.0
 10
10.2124356479
 20
9.9278018544
 30
0.0
 10
10.2138023326
 20
9.9470445724
 30
0.0
 10
10.2138023326
 20
9.959891804
 30
0.0
  0
SPLINE
  5
273
100
AcDbEntity
  8
0
100
AcDbSpline
 62
7
  6
CONTINUOUS
 70
0
 71
3
 72
24
 73
20
 74
0
 42
0.0000001
 43
0.0000001
 44
0.0000000001
 40
0.0
 40
0.0
 40
0.0
 40
0.0
 40
0.0607471001
 40
0.0932606062
 40
0.1269910834
 40
0.1975123627
 40
0.2711731175
 40
0.4234714923
 40
0.5000688975
 40
0.5755473087
 40
0.6488397523
 40
0.7188329203
 40
0.7843839332
 40
0.844269341
 40
0.8971808352
 40
0.9417546572
 40
0.9604664411
 40
0.9765393281
 40
1.0
 40
1.0
 40
1.0
 40
1.0
 10
10.1860528527
 20
10.0751266346
 30
0.0
 10
10.1870707076
 20
10.0747523176
 30
0.0
 10
10.1886513969
 20
10.0742253985
 30
0.0
 10
10.1908313802
 20
10.0736019763
 30
0.0
 10
10.1931987136
 20
10.0730028257
 30
0.0
 10
10.1963120285
 20
10.0723633948
 30
0.0
 10
10.2015520231
 20
10.0715999257
 30
0.0
 10
10.2069610217
 20
10.071310249
 30
0.0
 10
10.2123942634
 20
10.071488671
 30
0.0
 10
10.2164027232
 20
10.0718649605
 30
0.0
 10
10.2202650668
 20
10.0724582104
 30
0.0
 10
10.2239134028
 20
10.0732371335
 30
0.0
 10
10.2272765796
 20
10.0741733585
 30
0.0
 10
10.2302908697
 20
10.0752044223
 30
0.0
 10
10.2328932505
 20
10.0762675522
 30
0.0
 10
10.2347637533
 20
10.0771675776
 30
0.0
 10
10.2360116278
 20
10.0778388305
 30
0.0
 10
10.2369127606
 20
10.0783578483
 30
0.0
 10
10.2375098197
 20
10.078735245
 30
0.0
 10
10.2378554482
 20
10.0789718146
 30
0.0
  0
SPLINE
  5
274
100
AcDbEntity
  8
0
100
AcDbSpline
 62
7
  6
CONTINUOUS
 70
0
 71
3
 72
23
 73
19
 74
0
 42
0.0000001
 43
0.0000001
 44
0.0000000001
 40
0.0
 40
0.0
 40
0.0
 40
0.0
 40
0.1415514746
 40
0.2115837975
 40
0.2807033182
 40
0.3486499989
 40
0.4152093083
 40
0.4802158123
 40
0.5435633108
 40
0.60521176
 40
0.6651919769
 40
0.723606227
 40
0.7806242223
 40
0.8364757806
 40
0.8914393584
 40
0.9458262362
 40
0.9729225871
 40
1.0
 40
1.0
 40
1.0
 40
1.0
 10
10.2138023326
 20
9.959891804
 30
0.0
 10
10.2138023326
 20
9.9727333384
 30
0.0
 10
10.212436855
 20
9.9919675314
 30
0.0
 10
10.2078718966
 20
10.0170365186
 30
0.0
 10
10.2031346654
 20
10.0352374362
 30
0.0
 10
10.1971120169
 20
10.0527207587
 30
0.0
 10
10.189852753
 20
10.0693234625
 30
0.0
 10
10.1814141656
 20
10.0848878601
 30
0.0
 10
10.1718614685
 20
10.0992651795
 30
0.0
 10
10.1612673228
 20
10.1123143648
 30
0.0
 10
10.1497123998
 20
10.1239013575
 30
0.0
 10
10.1372873402
 20
10.133898026
 30
0.0
 10
10.1240966026
 20
10.1421821704
 30
0.0
 10
10.1102620117
 20
10.1486394653
 30
0.0
 10
10.0959302987
 20
10.1531688764
 30
0.0
 10
10.0836886173
 20
10.1552736642
 30
0.0
 10
10.0738553299
 20
10.1559247384
 30
0.0
 10
10.0689358229
 20
10.1559082071
 30
0.0
 10
10.0664811454
 20
10.1558146438
 30
0.0
  0
SPLINE
  5
275
100
AcDbEntity
  8
0
100
AcDbSpline
 62
7
  6
CONTINUOUS
 70
0
 71
3
 72
11
 73
7
 74
0
 42
0.0000001
 43
0.0000001
 44
0.0000000001
 40
0.0
 40
0.0
 40
0.0
 40
0.0
 40
0.2458256004
 40
0.4941425774
 40
0.7454004135
 40
1.0
 40
1.0
 40
1.0
 40
1.0
 10
10.3431712309
 20
10.1616611639
 30
0.0
 10
10.3408613798
 20
10.161074262
 30
0.0
 10
10.3362561954
 20
10.1597394371
 30
0.0
 10
10.329456702
 20
10.15727782
 30
0.0
 10
10.3227498172
 20
10.1543544702
 30
0.0
 10
10.3183813393
 20
10.1521176833
 30
0.0
 10
10.3162190676
 20
10.1509272494
 30
0.0
  0
SPLINE
  5
276
100
AcDbEntity
  8
0
100
AcDbSpline
 62
7
  6
CONTINUOUS
 70
0
 71
3
 72
11
 73
7
 74
0
 42
0.0000001
 43
0.0000001
 44
0.0000000001
 40
0.0
 40
0.0
 40
0.0
 40
0.0
 40
0.2546434598
 40
0.505912317
 40
0.7542126792
 40
1.0
 40
1.0
 40
1.0
 40
1.0
 10
10.31602431
 20
9.7689638108
 30
0.0
 10
10.3182013217
 20
9.7677601453
 30
0.0
 10
10.3226000852
 20
9.7654989143
 30
0.0
 10
10.3293551716
 20
9.7625450825
 30
0.0
 10
10.3362045025
 20
9.7600597909
 30
0.0
 10
10.3408440995
 20
9.7587137364
 30
0.0
 10
10.3431712462
 20
9.7581224403
 30
0.0
  0
SPLINE
  5
277
100
AcDbEntity
  8
0
100
AcDbSpline
 62
7
  6
CONTINUOUS
 70
0
 71
3
 72
24
 73
20
 74
0
 42
0.0000001
 43
0.0000001
 44
0.0000000001
 40
0.0
 40
0.0
 40
0.0
 40
0.0
 40
0.0635341451
 40
0.1267670565
 40
0.1896793503
 40
0.2522654635
 40
0.3145375406
 40
0.3765337401
 40
0.4383220179
 40
0.499997912
 40
0.5616738055
 40
0.6234620811
 40
0.685458278
 40
0.7477303502
 40
0.810316461
 40
0.8732287535
 40
0.9048081668
 40
0.9364660356
 40
1.0
 40
1.0
 40
1.0
 40
1.0
 10
10.7099834891
 20
8.2458344212
 30
0.0
 10
10.6972276861
 20
8.253177773
 30
0.0
 10
10.6714948564
 20
8.267348567
 30
0.0
 10
10.6320992944
 20
8.2868484348
 30
0.0
 10
10.5919609383
 20
8.3042391806
 30
0.0
 10
10.5510791941
 20
8.3191836731
 30
0.0
 10
10.5094926994
 20
8.3313264112
 30
0.0
 10
10.4672938948
 20
8.3403170483
 30
0.0
 10
10.4246371031
 20
8.3458522543
 30
0.0
 10
10.3817337551
 20
8.347722427
 30
0.0
 10
10.3388304074
 20
8.3458523014
 30
0.0
 10
10.2961736055
 20
8.3403171359
 30
0.0
 10
10.2539748154
 20
8.3313265529
 30
0.0
 10
10.2123882312
 20
8.319183812
 30
0.0
 10
10.1715067938
 20
8.304239459
 30
0.0
 10
10.1380992814
 20
8.2897652708
 30
0.0
 10
10.1117432171
 20
8.277134062
 30
0.0
 10
10.0855638776
 20
8.2638200975
 30
0.0
 10
10.0662392609
 20
8.2531791821
 30
0.0
 10
10.0534834891
 20
8.2458358599
 30
0.0
  0
SPLINE
  5
278
100
AcDbEntity
  8
0
100
AcDbSpline
 62
9
  6
CONTINUOUS
 70
0
 71
3
 72
22
 73
18
 74
0
 42
0.0000001
 43
0.0000001
 44
0.0000000001
 40
0.0
 40
0.0
 40
0.0
 40
0.0
 40
0.1419169305
 40
0.2122348046
 40
0.281765735
 40
0.3502666896
 40
0.4175196351
 40
0.4833343169
 40
0.5475516953
 40
0.6100516922
 40
0.6707588266
 40
0.7296475331
 40
0.7867476974
 40
0.8421495692
 40
0.8960058517
 40
0.9485314475
 40
1.0
 40
1.0
 40
1.0
 40
1.0
 10
10.1891241993
 20
9.959891804
 30
0.0
 10
10.1891241993
 20
9.9703937069
 30
0.0
 10
10.1881579388
 20
9.986122968
 30
0.0
 10
10.1849296735
 20
10.0067319128
 30
0.0
 10
10.1815750347
 20
10.0217923617
 30
0.0
 10
10.1773052788
 20
10.0363825809
 30
0.0
 10
10.172152585
 20
10.0503931663
 30
0.0
 10
10.1661557053
 20
10.063717654
 30
0.0
 10
10.1593591977
 20
10.0762550174
 30
0.0
 10
10.1518139373
 20
10.0879101242
 30
0.0
 10
10.1435762063
 20
10.0985944426
 30
0.0
 10
10.1347071412
 20
10.1082263176
 30
0.0
 10
10.1252724444
 20
10.1167315127
 30
0.0
 10
10.1153426948
 20
10.1240440252
 30
0.0
 10
10.1049915892
 20
10.130106236
 30
0.0
 10
10.0942994059
 20
10.1348684435
 30
0.0
 10
10.0869337258
 20
10.1371700129
 30
0.0
 10
10.0832363239
 20
10.1380839859
 30
0.0
  0
SPLINE
  5
279
100
AcDbEntity
  8
0
100
AcDbSpline
 62
9
  6
CONTINUOUS
 70
0
 71
3
 72
22
 73
18
 74
0
 42
0.0000001
 43
0.0000001
 44
0.0000000001
 40
0.0
 40
0.0
 40
0.0
 40
0.0
 40
0.1419337799
 40
0.2122591619
 40
0.2817964833
 40
0.3503023929
 40
0.4175586243
 40
0.4833747506
 40
0.5475916583
 40
0.610089297
 40
0.6707923462
 40
0.7296755483
 40
0.7867692362
 40
0.8421642609
 40
0.8960140809
 40
0.9485344711
 40
1.0
 40
1.0
 40
1.0
 40
1.0
 10
10.1891241993
 20
9.959891804
 30
0.0
 10
10.1891241993
 20
9.9493829271
 30
0.0
 10
10.1881566603
 20
9.9336432497
 30
0.0
 10
10.1849241112
 20
9.9130211432
 30
0.0
 10
10.1815650697
 20
9.8979516069
 30
0.0
 10
10.1772897653
 20
9.8833532272
 30
0.0
 10
10.1721304626
 20
9.8693356144
 30
0.0
 10
10.1661260145
 20
9.8560054262
 30
0.0
 10
10.159321096
 20
9.8434638659
 30
0.0
 10
10.1517667049
 20
9.8318062284
 30
0.0
 10
10.1435192666
 20
9.8211211832
 30
0.0
 10
10.1346400738
 20
9.8114904983
 30
0.0
 10
10.1251949843
 20
9.8029885104
 30
0.0
 10
10.1152547478
 20
9.7956812966
 30
0.0
 10
10.1048932431
 20
9.7896265206
 30
0.0
 10
10.0941909485
 20
9.7848738908
 30
0.0
 10
10.0868189749
 20
9.7825802751
 30
0.0
 10
10.0831186044
 20
9.7816706028
 30
0.0
  0
SPLINE
  5
27A
100
AcDbEntity
  8
0
100
AcDbSpline
 62
7
  6
CONTINUOUS
 70
0
 71
3
 72
25
 73
21
 74
0
 42
0.0000001
 43
0.0000001
 44
0.0000000001
 40
0.0
 40
0.0
 40
0.0
 40
0.0
 40
0.0718052211
 40
0.1433184692
 40
0.2142215479
 40
0.2842442267
 40
0.3531178083
 40
0.4206050703
 40
0.4865022549
 40
0.5506458284
 40
0.6129204686
 40
0.643343696
 40
0.673282462
 40
0.7317027389
 40
0.7882691232
 40
0.8159097408
 40
0.8431475961
 40
0.8965143366
 40
0.9486810114
 40
1.0
 40
1.0
 40
1.0
 40
1.0
 10
10.1949204677
 20
9.959891804
 30
0.0
 10
10.1949204677
 20
9.9656915033
 30
0.0
 10
10.194543798
 20
9.9772708721
 30
0.0
 10
10.1928535554
 20
9.9945026561
 30
0.0
 10
10.190051319
 20
10.0114440454
 30
0.0
 10
10.1861617336
 20
10.0279506229
 30
0.0
 10
10.1812163539
 20
10.0438843194
 30
0.0
 10
10.1752567613
 20
10.0591106621
 30
0.0
 10
10.1683324081
 20
10.0735018091
 30
0.0
 10
10.1605011722
 20
10.0869358531
 30
0.0
 10
10.153215678
 20
10.0973206288
 30
0.0
 10
10.1469907651
 20
10.1050295859
 30
0.0
 10
10.1406235947
 20
10.1122101296
 30
0.0
 10
10.1322427571
 20
10.1204103482
 30
0.0
 10
10.123215162
 20
10.1276035263
 30
0.0
 10
10.1157361314
 20
10.1326200266
 30
0.0
 10
10.1082118281
 20
10.1370797685
 30
0.0
 10
10.0985276545
 20
10.1417493641
 30
0.0
 10
10.0865062753
 20
10.1458422883
 30
0.0
 10
10.0782911023
 20
10.1475246908
 30
0.0
 10
10.0741848946
 20
10.1480906603
 30
0.0
  0
SPLINE
  5
27B
100
AcDbEntity
  8
0
100
AcDbSpline
 62
7
  6
CONTINUOUS
 70
0
 71
3
 72
25
 73
21
 74
0
 42
0.0000001
 43
0.0000001
 44
0.0000000001
 40
0.0
 40
0.0
 40
0.0
 40
0.0
 40
0.0718021306
 40
0.1433124545
 40
0.2142129059
 40
0.2842333985
 40
0.3531053527
 40
0.4205916336
 40
0.4864885425
 40
0.5506325598
 40
0.6129083296
 40
0.6433323505
 40
0.6732720414
 40
0.7316944993
 40
0.7882633011
 40
0.8159051228
 40
0.8431441342
 40
0.8965128838
 40
0.9486808363
 40
1.0
 40
1.0
 40
1.0
 40
1.0
 10
10.1949204677
 20
9.959891804
 30
0.0
 10
10.1949204677
 20
9.9540934694
 30
0.0
 10
10.1945439745
 20
9.9425168143
 30
0.0
 10
10.1928545237
 20
9.9252890048
 30
0.0
 10
10.1900535921
 20
9.9083513861
 30
0.0
 10
10.1861658026
 20
9.8918482769
 30
0.0
 10
10.1812226801
 20
9.875917652
 30
0.0
 10
10.1752657685
 20
9.8606938953
 30
0.0
 10
10.1683444754
 20
9.8463047675
 30
0.0
 10
10.1605166263
 20
9.832872101
 30
0.0
 10
10.1532342212
 20
9.8224879192
 30
0.0
 10
10.1470118883
 20
9.8147790349
 30
0.0
 10
10.1406472784
 20
9.8075982688
 30
0.0
 10
10.1322697349
 20
9.7993972909
 30
0.0
 10
10.123245565
 20
9.7922026525
 30
0.0
 10
10.115769247
 20
9.7871845303
 30
0.0
 10
10.1082476071
 20
9.7827229075
 30
0.0
 10
10.0985667441
 20
9.7780504288
 30
0.0
 10
10.0865491635
 20
9.7739531277
 30
0.0
 10
10.0783362594
 20
9.7722671882
 30
0.0
 10
10.074231103
 20
9.7716993282
 30
0.0
  0
SPLINE
  5
27C
100
AcDbEntity
  8
0
100
AcDbSpline
 62
9
  6
CONTINUOUS
 70
0
 71
3
 72
21
 73
17
 74
0
 42
0.0000001
 43
0.0000001
 44
0.0000000001
 40
0.0
 40
0.0
 40
0.0
 40
0.0
 40
0.1169631371
 40
0.1780521242
 40
0.2405923848
 40
0.3043428002
 40
0.3690292724
 40
0.4343532473
 40
0.5
 40
0.5656467527
 40
0.6309707276
 40
0.6956571998
 40
0.7594076152
 40
0.8219478758
 40
0.8830368629
 40
1.0
 40
1.0
 40
1.0
 40
1.0
 10
11.3230683793
 20
10.12071864
 30
0.0
 10
11.3152999821
 20
10.1099439413
 30
0.0
 10
11.305042493
 20
10.0923574011
 30
0.0
 10
11.2942644172
 20
10.0672327398
 30
0.0
 10
11.2874376422
 20
10.0470517551
 30
0.0
 10
11.282059556
 20
10.0260205769
 30
0.0
 10
11.2781799237
 20
10.0043407228
 30
0.0
 10
11.2758370464
 20
9.9822256981
 30
0.0
 10
11.2750535223
 20
9.959891804
 30
0.0
 10
11.2758370464
 20
9.93755791
 30
0.0
 10
11.2781799237
 20
9.9154428853
 30
0.0
 10
11.282059556
 20
9.8937630312
 30
0.0
 10
11.2874376422
 20
9.8727318529
 30
0.0
 10
11.2942644172
 20
9.8525508683
 30
0.0
 10
11.305042493
 20
9.827426207
 30
0.0
 10
11.3152999821
 20
9.8098396668
 30
0.0
 10
11.3230683793
 20
9.799064968
 30
0.0
  0
SPLINE
  5
27D
100
AcDbEntity
  8
0
100
AcDbSpline
 62
9
  6
CONTINUOUS
 70
0
 71
3
 72
14
 73
10
 74
0
 42
0.0000001
 43
0.0000001
 44
0.0000000001
 40
0.0
 40
0.0
 40
0.0
 40
0.0
 40
0.1312907454
 40
0.2619430295
 40
0.3913137621
 40
0.5188154408
 40
0.6438956873
 40
0.7660737401
 40
1.0
 40
1.0
 40
1.0
 40
1.0
 10
10.1446518524
 20
9.959891804
 30
0.0
 10
10.1446518524
 20
9.9673469518
 30
0.0
 10
10.1441298556
 20
9.9822263394
 30
0.0
 10
10.1417871679
 20
10.0043404464
 30
0.0
 10
10.1379073386
 20
10.0260206762
 30
0.0
 10
10.1325293807
 20
10.0470517259
 30
0.0
 10
10.1257025416
 20
10.0672327466
 30
0.0
 10
10.1149244976
 20
10.0923574011
 30
0.0
 10
10.1046669949
 20
10.1099439416
 30
0.0
 10
10.096898599
 20
10.1207186402
 30
0.0
  0
SPLINE
  5
27E
100
AcDbEntity
  8
0
100
AcDbSpline
 62
9
  6
CONTINUOUS
 70
0
 71
3
 72
15
 73
11
 74
0
 42
0.0000001
 43
0.0000001
 44
0.0000000001
 40
0.0
 40
0.0
 40
0.0
 40
0.0
 40
0.1312845952
 40
0.261937955
 40
0.3913034067
 40
0.5188024808
 40
0.6438796624
 40
0.705369233
 40
0.7660798757
 40
1.0
 40
1.0
 40
1.0
 40
1.0
 10
10.1620535668
 20
9.959891804
 30
0.0
 10
10.1620535668
 20
9.9654445604
 30
0.0
 10
10.1616646963
 20
9.9765273476
 30
0.0
 10
10.1599198728
 20
9.9929987845
 30
0.0
 10
10.1570299674
 20
10.0091470767
 30
0.0
 10
10.1530241205
 20
10.0248120166
 30
0.0
 10
10.1487633998
 20
10.037408729
 30
0.0
 10
10.1448254319
 20
10.0471013664
 30
0.0
 10
10.1385954039
 20
10.0608135704
 30
0.0
 10
10.1322711722
 20
10.0716562244
 30
0.0
 10
10.1264850853
 20
10.0796816941
 30
0.0
  0
SPLINE
  5
27F
100
AcDbEntity
  8
0
100
AcDbSpline
 62
9
  6
CONTINUOUS
 70
0
 71
3
 72
14
 73
10
 74
0
 42
0.0000001
 43
0.0000001
 44
0.0000000001
 40
0.0
 40
0.0
 40
0.0
 40
0.0
 40
0.1312907454
 40
0.2619430295
 40
0.3913137621
 40
0.5188154408
 40
0.6438956873
 40
0.7660737401
 40
1.0
 40
1.0
 40
1.0
 40
1.0
 10
10.1446518524
 20
9.959891804
 30
0.0
 10
10.1446518524
 20
9.9524366563
 30
0.0
 10
10.1441298556
 20
9.9375572687
 30
0.0
 10
10.1417871679
 20
9.9154431617
 30
0.0
 10
10.1379073386
 20
9.8937629319
 30
0.0
 10
10.1325293807
 20
9.8727318822
 30
0.0
 10
10.1257025416
 20
9.8525508615
 30
0.0
 10
10.1149244976
 20
9.827426207
 30
0.0
 10
10.1046669949
 20
9.8098396665
 30
0.0
 10
10.096898599
 20
9.7990649679
 30
0.0
  0
SPLINE
  5
280
100
AcDbEntity
  8
0
100
AcDbSpline
 62
9
  6
CONTINUOUS
 70
0
 71
3
 72
15
 73
11
 74
0
 42
0.0000001
 43
0.0000001
 44
0.0000000001
 40
0.0
 40
0.0
 40
0.0
 40
0.0
 40
0.1312845952
 40
0.261937955
 40
0.3913034067
 40
0.5188024808
 40
0.6438796624
 40
0.705369233
 40
0.7660798757
 40
1.0
 40
1.0
 40
1.0
 40
1.0
 10
10.1620535668
 20
9.959891804
 30
0.0
 10
10.1620535668
 20
9.9543390477
 30
0.0
 10
10.1616646963
 20
9.9432562605
 30
0.0
 10
10.1599198728
 20
9.9267848236
 30
0.0
 10
10.1570299674
 20
9.9106365314
 30
0.0
 10
10.1530241205
 20
9.8949715915
 30
0.0
 10
10.1487633998
 20
9.8823748791
 30
0.0
 10
10.1448254319
 20
9.8726822417
 30
0.0
 10
10.1385954039
 20
9.8589700377
 30
0.0
 10
10.1322711722
 20
9.8481273837
 30
0.0
 10
10.1264850853
 20
9.840101914
 30
0.0
  0
SPLINE
  5
281
100
AcDbEntity
  8
0
100
AcDbSpline
 62
9
  6
CONTINUOUS
 70
0
 71
3
 72
14
 73
10
 74
0
 42
0.0000001
 43
0.0000001
 44
0.0000000001
 40
0.0
 40
0.0
 40
0.0
 40
0.0
 40
0.1303908355
 40
0.2602511297
 40
0.3890143328
 40
0.5161889267
 40
0.6412905528
 40
0.7638911592
 40
1.0
 40
1.0
 40
1.0
 40
1.0
 10
10.4886548408
 20
9.959891804
 30
0.0
 10
10.4886548408
 20
9.9539013051
 30
0.0
 10
10.4882671917
 20
9.9419410274
 30
0.0
 10
10.4865274132
 20
9.9241414082
 30
0.0
 10
10.4836429991
 20
9.9066395454
 30
0.0
 10
10.4796393377
 20
9.8895842063
 30
0.0
 10
10.4745475213
 20
9.8731143309
 30
0.0
 10
10.4664722522
 20
9.8523939793
 30
0.0
 10
10.4587833293
 20
9.837715481
 30
0.0
 10
10.4529476527
 20
9.8285715031
 30
0.0
  0
SPLINE
  5
282
100
AcDbEntity
  8
0
100
AcDbSpline
 62
9
  6
CONTINUOUS
 70
0
 71
3
 72
35
 73
31
 74
0
 42
0.0000001
 43
0.0000001
 44
0.0000000001
 40
0.0
 40
0.0
 40
0.0
 40
0.0
 40
0.0750203241
 40
0.1122648181
 40
0.1491813393
 40
0.2215991846
 40
0.256949507
 40
0.2916128023
 40
0.3255252062
 40
0.3586373853
 40
0.4223001481
 40
0.4528859674
 40
0.4826534972
 40
0.5116508528
 40
0.5399495426
 40
0.5676434386
 40
0.5948474769
 40
0.6216950229
 40
0.6483332406
 40
0.6749178108
 40
0.7016066736
 40
0.7285535088
 40
0.7559014884
 40
0.7837784137
 40
0.8122928813
 40
0.8415314488
 40
0.8715581393
 40
0.9024140055
 40
0.9341176712
 40
1.0
 40
1.0
 40
1.0
 40
1.0
 10
10.466393636
 20
9.959891804
 30
0.0
 10
10.466393636
 20
9.9503039739
 30
0.0
 10
10.4656125936
 20
9.9359396338
 30
0.0
 10
10.4630043374
 20
9.9170454759
 30
0.0
 10
10.4594061294
 20
9.8986533019
 30
0.0
 10
10.4543136141
 20
9.8808242989
 30
0.0
 10
10.4477331885
 20
9.8638420879
 30
0.0
 10
10.4421621302
 20
9.8517746742
 30
0.0
 10
10.4359482641
 20
9.8403482622
 30
0.0
 10
10.4269776698
 20
9.8262492695
 30
0.0
 10
10.4167813334
 20
9.8134647606
 30
0.0
 10
10.4054561038
 20
9.8023549503
 30
0.0
 10
10.3966454156
 20
9.7950669862
 30
0.0
 10
10.3874592647
 20
9.7887606676
 30
0.0
 10
10.3779515194
 20
9.7834737051
 30
0.0
 10
10.3681785068
 20
9.7792396357
 30
0.0
 10
10.358198701
 20
9.7760856585
 30
0.0
 10
10.3480727107
 20
9.7740317193
 30
0.0
 10
10.3378623366
 20
9.773091943
 30
0.0
 10
10.3276305719
 20
9.7732724638
 30
0.0
 10
10.3174404979
 20
9.774571684
 30
0.0
 10
10.3073548771
 20
9.7769816157
 30
0.0
 10
10.2974351709
 20
9.7804859247
 30
0.0
 10
10.2877411472
 20
9.7850619316
 30
0.0
 10
10.2783309593
 20
9.7906810712
 30
0.0
 10
10.2692599108
 20
9.797307855
 30
0.0
 10
10.2605815748
 20
9.8049016088
 30
0.0
 10
10.2523462645
 20
9.8134173938
 30
0.0
 10
10.2418909883
 20
9.8260882169
 30
0.0
 10
10.235061269
 20
9.8365908717
 30
0.0
 10
10.2309447137
 20
9.8439359245
 30
0.0
  0
SPLINE
  5
283
100
AcDbEntity
  8
0
100
AcDbSpline
 62
9
  6
CONTINUOUS
 70
0
 71
3
 72
35
 73
31
 74
0
 42
0.0000001
 43
0.0000001
 44
0.0000000001
 40
0.0
 40
0.0
 40
0.0
 40
0.0
 40
0.0658794761
 40
0.0975817357
 40
0.1284362588
 40
0.1584617065
 40
0.1876991638
 40
0.2162126852
 40
0.2440888538
 40
0.2714362842
 40
0.298382789
 40
0.3250715412
 40
0.351656212
 40
0.3782947243
 40
0.4051427338
 40
0.4323473735
 40
0.460041975
 40
0.4883414407
 40
0.5173396094
 40
0.5471079605
 40
0.5776945846
 40
0.6413588371
 40
0.6744716676
 40
0.7083846535
 40
0.7430484599
 40
0.7783992235
 40
0.8508177662
 40
0.8877345549
 40
0.924979279
 40
1.0
 40
1.0
 40
1.0
 40
1.0
 10
10.2309573559
 20
10.0758702371
 30
0.0
 10
10.2350744471
 20
10.0832139213
 30
0.0
 10
10.2419048497
 20
10.0937144776
 30
0.0
 10
10.2523607566
 20
10.1063824177
 30
0.0
 10
10.2605963854
 20
10.1148960753
 30
0.0
 10
10.2692748964
 20
10.1224877324
 30
0.0
 10
10.2783459841
 20
10.1291124652
 30
0.0
 10
10.2877560789
 20
10.1347296189
 30
0.0
 10
10.2974498847
 20
10.1393037206
 30
0.0
 10
10.3073692565
 20
10.142806218
 30
0.0
 10
10.3174544338
 20
10.1452144494
 30
0.0
 10
10.3276439657
 20
10.1465120908
 30
0.0
 10
10.3378751004
 20
10.146691166
 30
0.0
 10
10.3480847685
 20
10.1457500899
 30
0.0
 10
10.3582099894
 20
10.1436950009
 30
0.0
 10
10.3681889758
 20
10.1405400312
 30
0.0
 10
10.3779611329
 20
10.1363051308
 30
0.0
 10
10.3874679986
 20
10.1310174975
 30
0.0
 10
10.3966532594
 20
10.1247106697
 30
0.0
 10
10.4054630591
 20
10.1174223552
 30
0.0
 10
10.4167870947
 20
10.1063122896
 30
0.0
 10
10.4269823134
 20
10.0935278337
 30
0.0
 10
10.4359519037
 20
10.0794291253
 30
0.0
 10
10.4421650522
 20
10.0680030687
 30
0.0
 10
10.4477354557
 20
10.0559361243
 30
0.0
 10
10.4543150903
 20
10.0389546979
 30
0.0
 10
10.459406989
 20
10.021126638
 30
0.0
 10
10.4630047575
 20
10.0027355096
 30
0.0
 10
10.4656126903
 20
9.9838424896
 30
0.0
 10
10.466393636
 20
9.9694790391
 30
0.0
 10
10.466393636
 20
9.959891804
 30
0.0
  0
SPLINE
  5
284
100
AcDbEntity
  8
0
100
AcDbSpline
 62
9
  6
CONTINUOUS
 70
0
 71
3
 72
39
 73
35
 74
0
 42
0.0000001
 43
0.0000001
 44
0.0000000001
 40
0.0
 40
0.0
 40
0.0
 40
0.0
 40
0.0257313701
 40
0.0519922572
 40
0.0789183152
 40
0.1066169505
 40
0.1351648272
 40
0.1646070541
 40
0.1949586001
 40
0.2262066978
 40
0.2583136104
 40
0.291219313
 40
0.324844398
 40
0.359093333
 40
0.3938572201
 40
0.4290164128
 40
0.4644434394
 40
0.500005689
 40
0.5355678619
 40
0.5709946599
 40
0.6061534762
 40
0.6409168473
 40
0.6751651363
 40
0.708789459
 40
0.7416943
 40
0.7738002721
 40
0.805047373
 40
0.8353978929
 40
0.8648390951
 40
0.8933859807
 40
0.921083693
 40
0.9480089329
 40
0.9742691395
 40
1.0
 40
1.0
 40
1.0
 40
1.0
 10
11.3367519944
 20
10.1380893587
 30
0.0
 10
11.333054071
 20
10.1371761762
 30
0.0
 10
11.3256871692
 20
10.1348758141
 30
0.0
 10
11.3149928399
 20
10.1301152978
 30
0.0
 10
11.304639453
 20
10.1240541381
 30
0.0
 10
11.2947075038
 20
10.1167421678
 30
0.0
 10
11.2852706393
 20
10.1082371134
 30
0.0
 10
11.2763995086
 20
10.0986049183
 30
0.0
 10
11.2681598524
 20
10.0879198673
 30
0.0
 10
11.2606128368
 20
10.0762636511
 30
0.0
 10
11.2538147691
 20
10.0637248472
 30
0.0
 10
11.2478165328
 20
10.0503985865
 30
0.0
 10
11.2426627953
 20
10.0363860432
 30
0.0
 10
11.2383921924
 20
10.0217934284
 30
0.0
 10
11.2350370146
 20
10.0067313066
 30
0.0
 10
11.2326224552
 20
9.9913139142
 30
0.0
 10
11.2311665422
 20
9.9756581963
 30
0.0
 10
11.2306803135
 20
9.9598828761
 30
0.0
 10
11.2311676416
 20
9.9441076236
 30
0.0
 10
11.2326246464
 20
9.9284521083
 30
0.0
 10
11.2350402809
 20
9.9130350521
 30
0.0
 10
11.2383965085
 20
9.8979733969
 30
0.0
 10
11.2426681293
 20
9.8833813762
 30
0.0
 10
11.247822845
 20
9.8693695498
 30
0.0
 10
11.2538220117
 20
9.8560441233
 30
0.0
 10
11.2606209553
 20
9.8435062642
 30
0.0
 10
11.268168787
 20
9.8318510974
 30
0.0
 10
11.2764091929
 20
9.8211671921
 30
0.0
 10
11.2852810006
 20
9.8115362303
 30
0.0
 10
11.2947184655
 20
9.8030324888
 30
0.0
 10
11.3046509335
 20
9.7957219019
 30
0.0
 10
11.3150047529
 20
9.7896621865
 30
0.0
 10
11.3256994232
 20
9.7849031625
 30
0.0
 10
11.3330664662
 20
9.7826038397
 30
0.0
 10
11.3367644401
 20
9.7816911769
 30
0.0
  0
SPLINE
  5
285
100
AcDbEntity
  8
0
100
AcDbSpline
 62
7
  6
CONTINUOUS
 70
0
 71
3
 72
43
 73
39
 74
0
 42
0.0000001
 43
0.0000001
 44
0.0000000001
 40
0.0
 40
0.0
 40
0.0
 40
0.0
 40
0.0127970131
 40
0.0256739716
 40
0.0386563777
 40
0.051768346
 40
0.0784516219
 40
0.1058798177
 40
0.1341625663
 40
0.1633721586
 40
0.1935443702
 40
0.2246807432
 40
0.2567513817
 40
0.2896985982
 40
0.3234407598
 40
0.3578758874
 40
0.3928851372
 40
0.4283363879
 40
0.4640877947
 40
0.4999910139
 40
0.5358943645
 40
0.5716461625
 40
0.6070980562
 40
0.6421081863
 40
0.6765444115
 40
0.7102878627
 40
0.7432365288
 40
0.7753087379
 40
0.8064467577
 40
0.836620642
 40
0.8658318759
 40
0.8941161735
 40
0.9215457602
 40
0.9482302077
 40
0.9613426619
 40
0.974325475
 40
0.9872027543
 40
1.0
 40
1.0
 40
1.0
 40
1.0
 10
11.3457621932
 20
10.1480878295
 30
0.0
 10
11.343714612
 20
10.1478052181
 30
0.0
 10
11.3396238155
 20
10.1471050117
 30
0.0
 10
11.3335455101
 20
10.1456597363
 30
0.0
 10
11.3275210691
 20
10.1438203005
 30
0.0
 10
11.3195330516
 20
10.1408304204
 30
0.0
 10
11.3097280019
 20
10.1361014627
 30
0.0
 10
11.2984617403
 20
10.1289668878
 30
0.0
 10
11.2877152653
 20
10.1204022232
 30
0.0
 10
11.2775787464
 20
10.110482849
 30
0.0
 10
11.2681352875
 20
10.0992940132
 30
0.0
 10
11.2594627957
 20
10.0869309527
 30
0.0
 10
11.2516327566
 20
10.0734982822
 30
0.0
 10
11.2447097332
 20
10.0591093898
 30
0.0
 10
11.2387510736
 20
10.0438854092
 30
0.0
 10
11.2338063662
 20
10.027954397
 30
0.0
 10
11.2299168898
 20
10.0114503904
 30
0.0
 10
11.2271149328
 20
9.9945123373
 30
0.0
 10
11.2254238782
 20
9.9772828032
 30
0.0
 10
11.224857916
 20
9.9599068247
 30
0.0
 10
11.2254219294
 20
9.9425307198
 30
0.0
 10
11.2271110505
 20
9.9253008073
 30
0.0
 10
11.2299111067
 20
9.9083621271
 30
0.0
 10
11.2337987309
 20
9.8918572502
 30
0.0
 10
11.2387416504
 20
9.875925132
 30
0.0
 10
11.2446985995
 20
9.8606998185
 30
0.0
 10
11.2516200047
 20
9.8463093774
 30
0.0
 10
11.2594485314
 20
9.8328749559
 30
0.0
 10
11.2681196293
 20
9.8205099566
 30
0.0
 10
11.2775618223
 20
9.8093190086
 30
0.0
 10
11.2876972144
 20
9.7993973658
 30
0.0
 10
11.2984427118
 20
9.7908302941
 30
0.0
 10
11.3097081543
 20
9.7836931931
 30
0.0
 10
11.3195126789
 20
9.7789620219
 30
0.0
 10
11.3275003765
 20
9.7759703379
 30
0.0
 10
11.3335246081
 20
9.7741295468
 30
0.0
 10
11.3396027476
 20
9.7726829051
 30
0.0
 10
11.3436934763
 20
9.7719817743
 30
0.0
 10
11.3457410317
 20
9.7716987018
 30
0.0
  0
SPLINE
  5
286
100
AcDbEntity
  8
0
100
AcDbSpline
 62
7
  6
CONTINUOUS
 70
0
 71
3
 72
24
 73
20
 74
0
 42
0.0000001
 43
0.0000001
 44
0.0000000001
 40
0.0
 40
0.0
 40
0.0
 40
0.0
 40
0.0635339644
 40
0.0951918332
 40
0.1267712465
 40
0.189683539
 40
0.2522696497
 40
0.314541722
 40
0.3765379189
 40
0.4383261946
 40
0.500002088
 40
0.5616779822
 40
0.62346626
 40
0.6854624595
 40
0.7477345366
 40
0.8103206498
 40
0.8732329435
 40
0.9364658548
 40
1.0
 40
1.0
 40
1.0
 40
1.0
 10
11.3664834891
 20
8.2458358602
 30
0.0
 10
11.3537277173
 20
8.2531791824
 30
0.0
 10
11.3344031005
 20
8.2638200975
 30
0.0
 10
11.308223761
 20
8.277134062
 30
0.0
 10
11.2818676967
 20
8.2897652708
 30
0.0
 10
11.2484601843
 20
8.304239459
 30
0.0
 10
11.2075787469
 20
8.319183812
 30
0.0
 10
11.1659921627
 20
8.3313265529
 30
0.0
 10
11.1237933725
 20
8.3403171359
 30
0.0
 10
11.0811365706
 20
8.3458523014
 30
0.0
 10
11.0382332229
 20
8.347722427
 30
0.0
 10
10.9953298749
 20
8.3458522543
 30
0.0
 10
10.9526730833
 20
8.3403170483
 30
0.0
 10
10.9104742786
 20
8.3313264111
 30
0.0
 10
10.8688877839
 20
8.3191836731
 30
0.0
 10
10.8280060397
 20
8.3042391805
 30
0.0
 10
10.7878676837
 20
8.2868484347
 30
0.0
 10
10.7484721217
 20
8.2673485669
 30
0.0
 10
10.7227392921
 20
8.2531777728
 30
0.0
 10
10.7099834891
 20
8.245834421
 30
0.0
  0
SPLINE
  5
287
100
AcDbEntity
  8
0
100
AcDbSpline
 62
9
  6
CONTINUOUS
 70
0
 71
3
 72
19
 73
15
 74
0
 42
0.0000001
 43
0.0000001
 44
0.0000000001
 40
0.0
 40
0.0
 40
0.0
 40
0.0
 40
0.0565549073
 40
0.1133106045
 40
0.1704131856
 40
0.2280278124
 40
0.2863183757
 40
0.3454281894
 40
0.4054814104
 40
0.4665861834
 40
0.5922287179
 40
0.7229242597
 40
0.8588722378
 40
1.0
 40
1.0
 40
1.0
 40
1.0
 10
11.0855745766
 20
10.14656974
 30
0.0
 10
11.0880507638
 20
10.14656974
 30
0.0
 10
11.093014161
 20
10.1463715468
 30
0.0
 10
11.10042988
 20
10.1454832724
 30
0.0
 10
11.1077985681
 20
10.1440051101
 30
0.0
 10
11.1150950938
 20
10.141942945
 30
0.0
 10
11.1222965191
 20
10.139303144
 30
0.0
 10
11.1293803605
 20
10.1360950845
 30
0.0
 10
11.1363241487
 20
10.1323285163
 30
0.0
 10
11.1454487984
 20
10.1265263848
 30
0.0
 10
11.1563964372
 20
10.1178943155
 30
0.0
 10
11.1684943186
 20
10.1056467241
 30
0.0
 10
11.1795334695
 20
10.0915705096
 30
0.0
 10
11.1859837258
 20
10.0812670151
 30
0.0
 10
11.18900567
 20
10.0758772839
 30
0.0
  0
SPLINE
  5
288
100
AcDbEntity
  8
0
100
AcDbSpline
 62
9
  6
CONTINUOUS
 70
0
 71
3
 72
19
 73
15
 74
0
 42
0.0000001
 43
0.0000001
 44
0.0000000001
 40
0.0
 40
0.0
 40
0.0
 40
0.0
 40
0.1411395074
 40
0.2770971442
 40
0.4077990018
 40
0.5334436736
 40
0.5945478579
 40
0.6545993838
 40
0.7137064534
 40
0.7719933276
 40
0.8296034308
 40
0.8867008297
 40
0.9434509195
 40
1.0
 40
1.0
 40
1.0
 40
1.0
 10
11.1890571646
 20
9.8439982256
 30
0.0
 10
11.1860355143
 20
9.8386020641
 30
0.0
 10
11.1795851052
 20
9.8282860481
 30
0.0
 10
11.1685433965
 20
9.8141920482
 30
0.0
 10
11.1564408739
 20
9.801928494
 30
0.0
 10
11.145487685
 20
9.7932848008
 30
0.0
 10
11.1363577969
 20
9.7874747581
 30
0.0
 10
11.1294098436
 20
9.7837030405
 30
0.0
 10
11.1223215425
 20
9.7804905692
 30
0.0
 10
11.1151154135
 20
9.7778471133
 30
0.0
 10
11.1078139848
 20
9.7757820816
 30
0.0
 10
11.100440243
 20
9.7743018554
 30
0.0
 10
11.093019369
 20
9.7734123389
 30
0.0
 10
11.0880524927
 20
9.7732138681
 30
0.0
 10
11.0855745766
 20
9.7732138681
 30
0.0
  0
SPLINE
  5
289
100
AcDbEntity
  8
0
100
AcDbSpline
 62
9
  6
CONTINUOUS
 70
0
 71
3
 72
21
 73
17
 74
0
 42
0.0000001
 43
0.0000001
 44
0.0000000001
 40
0.0
 40
0.0
 40
0.0
 40
0.0
 40
0.1180873382
 40
0.1793939745
 40
0.2419450155
 40
0.3055266214
 40
0.3699014746
 40
0.4348147291
 40
0.5000000093
 40
0.565185289
 40
0.6300985424
 40
0.6944733941
 40
0.7580549979
 40
0.8206060362
 40
0.8819126694
 40
1.0
 40
1.0
 40
1.0
 40
1.0
 10
10.9668447517
 20
9.8288455246
 30
0.0
 10
10.9610370373
 20
9.8379806196
 30
0.0
 10
10.9533848427
 20
9.8526376588
 30
0.0
 10
10.9453487583
 20
9.8733209369
 30
0.0
 10
10.9402822174
 20
9.8897561062
 30
0.0
 10
10.9362983804
 20
9.9067725648
 30
0.0
 10
10.933428842
 20
9.9242316013
 30
0.0
 10
10.9316976993
 20
9.9419872042
 30
0.0
 10
10.9311190523
 20
9.9598918264
 30
0.0
 10
10.9316977021
 20
9.9777964484
 30
0.0
 10
10.9334288477
 20
9.9955520508
 30
0.0
 10
10.936298389
 20
10.0130110864
 30
0.0
 10
10.9402822287
 20
10.0300275438
 30
0.0
 10
10.9453487723
 20
10.0464627115
 30
0.0
 10
10.95338486
 20
10.0671459869
 30
0.0
 10
10.9610370571
 20
10.0818030238
 30
0.0
 10
10.966844773
 20
10.0909381169
 30
0.0
  0
SPLINE
  5
28A
100
AcDbEntity
  8
0
100
AcDbSpline
 62
9
  6
CONTINUOUS
 70
0
 71
3
 72
39
 73
35
 74
0
 42
0.0000001
 43
0.0000001
 44
0.0000000001
 40
0.0
 40
0.0
 40
0.0
 40
0.0
 40
0.0257286195
 40
0.0517044726
 40
0.0781502455
 40
0.105268507
 40
0.1332176965
 40
0.1621138303
 40
0.1920269335
 40
0.2229830525
 40
0.2549676289
 40
0.2879297707
 40
0.321786991
 40
0.356429983
 40
0.3917274153
 40
0.4275306441
 40
0.4636781771
 40
0.5
 40
0.536321823
 40
0.5724693559
 40
0.6082725848
 40
0.6435700172
 40
0.6782130093
 40
0.7120702297
 40
0.7450323717
 40
0.7770169479
 40
0.8079730666
 40
0.8378861695
 40
0.8667823034
 40
0.894731493
 40
0.9218497545
 40
0.9482955273
 40
0.9742713805
 40
1.0
 40
1.0
 40
1.0
 40
1.0
 10
11.0855745766
 20
9.7732138681
 30
0.0
 10
11.0812515838
 20
9.7732138681
 30
0.0
 10
11.0725522206
 20
9.773821075
 30
0.0
 10
11.0596656248
 20
9.7765373875
 30
0.0
 10
11.0470379558
 20
9.781031456
 30
0.0
 10
11.034796582
 20
9.7872526507
 30
0.0
 10
11.0230580918
 20
9.7951364773
 30
0.0
 10
11.0119336736
 20
9.8046022656
 30
0.0
 10
11.0015272925
 20
9.8155561518
 30
0.0
 10
10.9919358611
 20
9.827891201
 30
0.0
 10
10.9832487336
 20
9.8414883753
 30
0.0
 10
10.9755470831
 20
9.8562172572
 30
0.0
 10
10.9689031663
 20
9.8719369833
 30
0.0
 10
10.9633795113
 20
9.8884973386
 30
0.0
 10
10.95902815
 20
9.905740076
 30
0.0
 10
10.9558902098
 20
9.9235004446
 30
0.0
 10
10.9539954209
 20
9.9416087187
 30
0.0
 10
10.9533617952
 20
9.9598918041
 30
0.0
 10
10.9539954209
 20
9.9781748894
 30
0.0
 10
10.9558902098
 20
9.9962831636
 30
0.0
 10
10.95902815
 20
10.0140435321
 30
0.0
 10
10.9633795113
 20
10.0312862696
 30
0.0
 10
10.9689031664
 20
10.047846625
 30
0.0
 10
10.9755470832
 20
10.0635663511
 30
0.0
 10
10.9832487338
 20
10.078295233
 30
0.0
 10
10.9919358612
 20
10.0918924073
 30
0.0
 10
11.0015272926
 20
10.1042274563
 30
0.0
 10
11.0119336736
 20
10.1151813424
 30
0.0
 10
11.0230580918
 20
10.1246471308
 30
0.0
 10
11.0347965819
 20
10.1325309573
 30
0.0
 10
11.0470379558
 20
10.1387521521
 30
0.0
 10
11.0596656247
 20
10.1432462206
 30
0.0
 10
11.0725522206
 20
10.1459625331
 30
0.0
 10
11.0812515838
 20
10.14656974
 30
0.0
 10
11.0855745766
 20
10.14656974
 30
0.0
  0
SPLINE
  5
28B
100
AcDbEntity
  8
0
100
AcDbSpline
 62
9
  6
CONTINUOUS
 70
0
 71
3
 72
14
 73
10
 74
0
 42
0.0000001
 43
0.0000001
 44
0.0000000001
 40
0.0
 40
0.0
 40
0.0
 40
0.0
 40
0.2361088599
 40
0.3587094707
 40
0.4838110972
 40
0.6109856882
 40
0.7397488858
 40
0.8696091727
 40
1.0
 40
1.0
 40
1.0
 40
1.0
 10
10.4529477069
 20
10.0912120201
 30
0.0
 10
10.4587833748
 20
10.0820680451
 30
0.0
 10
10.4664722862
 20
10.0673895533
 30
0.0
 10
10.4745475432
 20
10.0466692133
 30
0.0
 10
10.4796393518
 20
10.0301993486
 30
0.0
 10
10.483643007
 20
10.0131440216
 30
0.0
 10
10.4865274166
 20
9.9956421719
 30
0.0
 10
10.4882671923
 20
9.9778425665
 30
0.0
 10
10.4886548408
 20
9.9658822982
 30
0.0
 10
10.4886548408
 20
9.959891804
 30
0.0
  0
SPLINE
  5
28C
100
AcDbEntity
  8
0
100
AcDbSpline
 62
7
  6
CONTINUOUS
 70
0
 71
3
 72
24
 73
20
 74
0
 42
0.0000001
 43
0.0000001
 44
0.0000000001
 40
0.0
 40
0.0
 40
0.0
 40
0.0
 40
0.0640092462
 40
0.1258478953
 40
0.1858030471
 40
0.2152153267
 40
0.2443211338
 40
0.3018490256
 40
0.3589248381
 40
0.4160835327
 40
0.4738314997
 40
0.5326371484
 40
0.5929027096
 40
0.6549719395
 40
0.7191181824
 40
0.7855594684
 40
0.8544540929
 40
0.9259136012
 40
1.0
 40
1.0
 40
1.0
 40
1.0
 10
10.3157714586
 20
9.754891804
 30
0.0
 10
10.3127884136
 20
9.754891804
 30
0.0
 10
10.3069192801
 20
9.7551486311
 30
0.0
 10
10.2983308602
 20
9.7563505913
 30
0.0
 10
10.2914736266
 20
9.7580335681
 30
0.0
 10
10.2862315193
 20
9.759774351
 30
0.0
 10
10.2811959704
 20
9.7617530403
 30
0.0
 10
10.2751686057
 20
9.7647058175
 30
0.0
 10
10.268394703
 20
9.768999541
 30
0.0
 10
10.2621105406
 20
9.7739982405
 30
0.0
 10
10.2563152379
 20
9.7796700414
 30
0.0
 10
10.2509991401
 20
9.7859816661
 30
0.0
 10
10.2461487234
 20
9.7929031362
 30
0.0
 10
10.2417456981
 20
9.8004056268
 30
0.0
 10
10.2377701743
 20
9.8084637387
 30
0.0
 10
10.2342005636
 20
9.8170538018
 30
0.0
 10
10.2310148846
 20
9.8261543303
 30
0.0
 10
10.2281912301
 20
9.8357445085
 30
0.0
 10
10.226564985
 20
9.842331933
 30
0.0
 10
10.2258016935
 20
9.8456991786
 30
0.0
  0
SPLINE
  5
28D
100
AcDbEntity
  8
0
100
AcDbSpline
 62
7
  6
CONTINUOUS
 70
0
 71
3
 72
24
 73
20
 74
0
 42
0.0000001
 43
0.0000001
 44
0.0000000001
 40
0.0
 40
0.0
 40
0.0
 40
0.0
 40
0.0740776515
 40
0.1455293122
 40
0.2144171968
 40
0.2808530028
 40
0.3449951444
 40
0.4070617595
 40
0.4673262322
 40
0.5261323394
 40
0.5838822333
 40
0.641044186
 40
0.6981243551
 40
0.755657381
 40
0.784765932
 40
0.8141810204
 40
0.8741418153
 40
0.9359858785
 40
1.0
 40
1.0
 40
1.0
 40
1.0
 10
10.2258144027
 20
10.0741404684
 30
0.0
 10
10.2265780068
 20
10.077505771
 30
0.0
 10
10.228204847
 20
10.0840893824
 30
0.0
 10
10.2310292794
 20
10.0936739189
 30
0.0
 10
10.2342155944
 20
10.1027690394
 30
0.0
 10
10.2377856755
 20
10.111353947
 30
0.0
 10
10.2417614817
 20
10.1194071712
 30
0.0
 10
10.2461645733
 20
10.1269050579
 30
0.0
 10
10.2510148142
 20
10.1338222258
 30
0.0
 10
10.2563304635
 20
10.1401298716
 30
0.0
 10
10.262125019
 20
10.145798043
 30
0.0
 10
10.2684081085
 20
10.1507934958
 30
0.0
 10
10.2751805981
 20
10.1550843884
 30
0.0
 10
10.2812064845
 20
10.1580351911
 30
0.0
 10
10.2862406996
 20
10.1600125546
 30
0.0
 10
10.2914813528
 20
10.1617521668
 30
0.0
 10
10.2983365351
 20
10.1634340035
 30
0.0
 10
10.306922213
 20
10.1646351468
 30
0.0
 10
10.3127894119
 20
10.164891804
 30
0.0
 10
10.3157714586
 20
10.164891804
 30
0.0
  0
SPLINE
  5
28E
100
AcDbEntity
  8
0
100
AcDbSpline
 62
7
  6
CONTINUOUS
 70
0
 71
3
 72
24
 73
20
 74
0
 42
0.0000001
 43
0.0000001
 44
0.0000000001
 40
0.0
 40
0.0
 40
0.0
 40
0.0
 40
0.0640178998
 40
0.125866073
 40
0.1858312109
 40
0.2152484673
 40
0.2443591329
 40
0.3018961099
 40
0.3589796293
 40
0.4161440854
 40
0.4738954583
 40
0.5327019173
 40
0.5929655549
 40
0.6550301587
 40
0.7191691402
 40
0.7856007316
 40
0.8544834438
 40
0.9259290774
 40
1.0
 40
1.0
 40
1.0
 40
1.0
 10
11.1041955195
 20
10.164891804
 30
0.0
 10
11.1071768003
 20
10.164891804
 30
0.0
 10
11.1130425114
 20
10.1646352783
 30
0.0
 10
11.1216260805
 20
10.163434761
 30
0.0
 10
11.1284796844
 20
10.1617538012
 30
0.0
 10
11.1337192206
 20
10.160015089
 30
0.0
 10
11.1387524113
 20
10.158038744
 30
0.0
 10
11.1447771615
 20
10.1550894582
 30
0.0
 10
11.1515485646
 20
10.150800741
 30
0.0
 10
11.1578308286
 20
10.1458077831
 30
0.0
 10
11.163624809
 20
10.1401424014
 30
0.0
 10
11.1689401129
 20
10.1338378134
 30
0.0
 10
11.1737902179
 20
10.1269239519
 30
0.0
 10
11.1781933597
 20
10.1194296037
 30
0.0
 10
11.1821693823
 20
10.1113801365
 30
0.0
 10
11.1857398243
 20
10.1027991911
 30
0.0
 10
11.188926628
 20
10.0937082263
 30
0.0
 10
11.1917516582
 20
10.0841280252
 30
0.0
 10
11.1933789557
 20
10.077547344
 30
0.0
 10
11.1941427998
 20
10.0741835348
 30
0.0
  0
SPLINE
  5
28F
100
AcDbEntity
  8
0
100
AcDbSpline
 62
7
  6
CONTINUOUS
 70
0
 71
3
 72
24
 73
20
 74
0
 42
0.0000001
 43
0.0000001
 44
0.0000000001
 40
0.0
 40
0.0
 40
0.0
 40
0.0
 40
0.0740615789
 40
0.1454988315
 40
0.2143743475
 40
0.2808000891
 40
0.3449346941
 40
0.406996509
 40
0.4672589877
 40
0.5260659393
 40
0.5838193721
 40
0.6409873083
 40
0.6980754789
 40
0.7556179355
 40
0.7847315306
 40
0.8141517873
 40
0.8741229494
 40
0.9359768843
 40
1.0
 40
1.0
 40
1.0
 40
1.0
 10
11.1941292146
 20
9.8455402785
 30
0.0
 10
11.1933650372
 20
9.8421785428
 30
0.0
 10
11.1917371052
 20
9.8356019305
 30
0.0
 10
11.1889112458
 20
9.8260277498
 30
0.0
 10
11.1857237646
 20
9.8169425559
 30
0.0
 10
11.182152822
 20
9.8083671118
 30
0.0
 10
11.1781764996
 20
9.8003228601
 30
0.0
 10
11.1737732885
 20
9.7928334243
 30
0.0
 10
11.1689233729
 20
9.7859241535
 30
0.0
 10
11.1636085493
 20
9.7796238109
 30
0.0
 10
11.1578153682
 20
9.7739623019
 30
0.0
 10
11.1515342509
 20
9.768972808
 30
0.0
 10
11.1447643576
 20
9.7646871111
 30
0.0
 10
11.1387411864
 20
9.7617399317
 30
0.0
 10
11.1337094198
 20
9.7597650012
 30
0.0
 10
11.1284714362
 20
9.7580275381
 30
0.0
 10
11.1216200229
 20
9.7563477948
 30
0.0
 10
11.1130393813
 20
9.7551481484
 30
0.0
 10
11.1071757354
 20
9.754891804
 30
0.0
 10
11.1041955197
 20
9.754891804
 30
0.0
  0
SPLINE
  5
290
100
AcDbEntity
  8
0
100
AcDbSpline
 62
7
  6
CONTINUOUS
 70
0
 71
3
 72
11
 73
7
 74
0
 42
0.0000001
 43
0.0000001
 44
0.0000000001
 40
0.0
 40
0.0
 40
0.0
 40
0.0
 40
0.2458510727
 40
0.4941790982
 40
0.7454295991
 40
1.0
 40
1.0
 40
1.0
 40
1.0
 10
11.0767957227
 20
10.1616611701
 30
0.0
 10
11.0790940457
 20
10.161077198
 30
0.0
 10
11.0836762929
 20
10.1597498492
 30
0.0
 10
11.0904425587
 20
10.1573039714
 30
0.0
 10
11.0971172963
 20
10.1544008717
 30
0.0
 10
11.1014655641
 20
10.1521803186
 30
0.0
 10
11.1036179968
 20
10.1509986714
 30
0.0
  0
SPLINE
  5
291
100
AcDbEntity
  8
0
100
AcDbSpline
 62
7
  6
CONTINUOUS
 70
0
 71
3
 72
11
 73
7
 74
0
 42
0.0000001
 43
0.0000001
 44
0.0000000001
 40
0.0
 40
0.0
 40
0.0
 40
0.0
 40
0.2545568258
 40
0.5058039139
 40
0.7541370777
 40
1.0
 40
1.0
 40
1.0
 40
1.0
 10
11.1035574733
 20
9.7687517324
 30
0.0
 10
11.101409627
 20
9.7675741685
 30
0.0
 10
11.0970707786
 20
9.7653611595
 30
0.0
 10
11.0904110189
 20
9.7624674722
 30
0.0
 10
11.0836602316
 20
9.7600289131
 30
0.0
 10
11.0790886675
 20
9.7587050434
 30
0.0
 10
11.0767957137
 20
9.7581224357
 30
0.0
  0
SPLINE
  5
292
100
AcDbEntity
  8
0
100
AcDbSpline
 62
9
  6
CONTINUOUS
 70
0
 71
3
 72
23
 73
19
 74
0
 42
0.0000001
 43
0.0000001
 44
0.0000000001
 40
0.0
 40
0.0
 40
0.0
 40
0.0
 40
0.1169600594
 40
0.1473153496
 40
0.1780601488
 40
0.2405989036
 40
0.3043477408
 40
0.3690325721
 40
0.434354889
 40
0.5
 40
0.565645111
 40
0.6309674279
 40
0.6956522592
 40
0.7594010964
 40
0.8219398512
 40
0.8526846504
 40
0.8830399406
 40
1.0
 40
1.0
 40
1.0
 40
1.0
 10
11.2934818929
 20
10.079681694
 30
0.0
 10
11.2876958057
 20
10.0716562247
 30
0.0
 10
11.2813715794
 20
10.0608135708
 30
0.0
 10
11.275141544
 20
10.0471013727
 30
0.0
 10
11.2712035698
 20
10.0374087219
 30
0.0
 10
11.2669429105
 20
10.0248120501
 30
0.0
 10
11.2629368969
 20
10.0091469642
 30
0.0
 10
11.2600472709
 20
9.9929990556
 30
0.0
 10
11.2583021682
 20
9.9765269321
 30
0.0
 10
11.2577185539
 20
9.959891804
 30
0.0
 10
11.2583021682
 20
9.9432566759
 30
0.0
 10
11.2600472709
 20
9.9267845525
 30
0.0
 10
11.2629368969
 20
9.9106366439
 30
0.0
 10
11.2669429105
 20
9.894971558
 30
0.0
 10
11.2712035698
 20
9.8823748862
 30
0.0
 10
11.275141544
 20
9.8726822354
 30
0.0
 10
11.2813715794
 20
9.8589700373
 30
0.0
 10
11.2876958057
 20
9.8481273834
 30
0.0
 10
11.2934818929
 20
9.8401019141
 30
0.0
  0
ENDSEC
  0
SECTION
  2
OBJECTS
  0
DICTIONARY
  5
C
100
AcDbDictionary
280
0
281
1
  3
ACAD_GROUP
350
D
  3
ACAD_MLINESTYLE
350
17
  3
ACAD_LAYOUT
350
1A
  3
ACAD_PLOTSETTINGS
350
19
  3
ACAD_PLOTSTYLENAME
350
E
  0
DICTIONARY
  5
D
102
{ACAD_REACTORS
330
C
102
}
100
AcDbDictionary
280
0
281
1
  0
ACDBDICTIONARYWDFLT
  5
E
102
{ACAD_REACTORS
330
C
102
}
100
AcDbDictionary
281
1
  3
Normal
350
F
100
AcDbDictionaryWithDefault
340
F
  0
DICTIONARY
  5
17
102
{ACAD_REACTORS
330
C
102
}
100
AcDbDictionary
280
0
281
1
  3
Standard
350
18
  0
DICTIONARY
  5
19
102
{ACAD_REACTORS
330
C
102
}
100
AcDbDictionary
281
1
  0
DICTIONARY
  5
1A
102
{ACAD_REACTORS
330
C
102
}
100
AcDbDictionary
281
1
  3
Model
350
293
  3
Layout1
350
294
  0
ACDBPLACEHOLDER
  5
F
102
{ACAD_REACTORS
330
E
102
}
  0
MLINESTYLE
  5
18
102
{ACAD_REACTORS
330
17
102
}
100
AcDbMlineStyle
  2
STANDARD
 70
0
  3

 62
256
 51
90.0
 52
90.0
 71
2
 49
0.5
 62
256
  6
BYLAYER
 49
-0.5
 62
256
  6
BYLAYER
  0
LAYOUT
  5
293
102
{ACAD_REACTORS
330
1A
102
}
100
AcDbPlotSettings
  1

  2
none_device
  4
ANSI_C_(22.00_x_17.00_Inches)
  6

 40
0.0
 41
0.0
 42
0.0
 43
0.0
 44
558.8
 45
431.8
 46
0.0
 47
0.0
 48
0.0
 49
0.0
140
0.0
141
0.0
142
1.0
143
1.0
 70
1024
 72
0
 73
0
 74
0
  7

 75
0
147
1.0
148
0.0
149
0.0
100
AcDbLayout
  1
Model
 70
0
 71
0
 10
0.0
 20
0.0
 11
22.0
 21
17.0
 12
0.0
 22
0.0
 32
0.0
 14
0.0
 24
0.0
 34
0.0
 15
0.0
 25
0.0
 35
0.0
146
0.0
 13
0.0
 23
0.0
 33
0.0
 16
1.0
 26
0.0
 36
0.0
 17
0.0
 27
1.0
 37
0.0
 76
0
330
205
345
0
346
0
  0
LAYOUT
  5
294
102
{ACAD_REACTORS
330
1A
102
}
100
AcDbPlotSettings
  1

  2
none_device
  4
ANSI_C_(22.00_x_17.00_Inches)
  6

 40
0.0
 41
0.0
 42
0.0
 43
0.0
 44
558.8
 45
431.8
 46
0.0
 47
0.0
 48
0.0
 49
0.0
140
0.0
141
0.0
142
1.0
143
1.0
 70
0
 72
0
 73
0
 74
0
  7

 75
0
147
1.0
148
0.0
149
0.0
100
AcDbLayout
  1
Layout1
 70
0
 71
1
 10
0.0
 20
0.0
 11
22.0
 21
17.0
 12
0.0
 22
0.0
 32
0.0
 14
0.0
 24
0.0
 34
0.0
 15
0.0
 25
0.0
 35
0.0
146
0.0
 13
0.0
 23
0.0
 33
0.0
 16
1.0
 26
0.0
 36
0.0
 17
0.0
 27
1.0
 37
0.0
 76
0
330
206
345
0
346
0
  0
ENDSEC
  0
EOF
