999
DXF file: E:\BT Custom\CADOUTPUT\_RIGHT.dxf
999
Pro/ENGINEER 2018400 by Parametric Technology Corporation
  0
SECTION
  2
HEADER
  9
$ACADVER
  1
AC1018
  9
$DWGCODEPAGE
  3
ANSI_1252
  9
$EXTMAX
 10
22.0
 20
17.0
 30
0.0
  9
$EXTMIN
 10
0.0
 20
0.0
 30
0.0
  9
$LIMMIN
 10
0.0
 20
0.0
  9
$LIMMAX
 10
22.0
 20
17.0
  9
$VIEWCTR
 10
11.0
 20
8.5
  9
$VIEWSIZE
 40
17.0
  9
$CLAYER
  8
0
  9
$LTSCALE
 40
1.21
  9
$CELTYPE
  6
BYLAYER
  9
$DIMSCALE
 40
1.0
  9
$DIMASZ
 40
0.1
  9
$DIMEXO
 40
0.0625
  9
$DIMDLI
 40
0.836
  9
$DIMEXE
 40
0.125
  9
$DIMCEN
 40
0.198
  9
$DIMLFAC
 40
1.0
  9
$DIMBLK
  1
_FILLED
  9
$DIMALT
 70
1
  9
$DIMALTD
 70
2
  9
$DIMALTTD
 70
2
  9
$DIMALTF
 40
25.4
  9
$DIMTXT
 40
0.08
  9
$DIMTOL
 70
1
  9
$DIMLIM
 70
0
  9
$DIMTFAC
 40
1.0
  9
$DIMTP
 40
0.001
  9
$DIMTM
 40
0.001
  9
$DIMGAP
 40
0.09
  9
$DIMDSEP
 70
46
  9
$AUNITS
 70
0
  9
$PDMODE
 70
3
  9
$PDSIZE
 40
0.06
  9
$HANDSEED
  5
53F
  9
$TILEMODE
 70
1
  9
$MEASUREMENT
 70
0
  9
$INSUNITS
 70
1
  0
ENDSEC
  0
SECTION
  2
CLASSES
  0
CLASS
  1
ACDBDICTIONARYWDFLT
  2
AcDbDictionaryWithDefault
  3
AutoCAD 2000
 90
0
 91
1
280
0
281
0
  0
CLASS
  1
ACDBPLACEHOLDER
  2
AcDbPlaceHolder
  3
AutoCAD 2000
 90
0
 91
1
280
0
281
0
  0
CLASS
  1
LAYOUT
  2
AcDbLayout
  3
AutoCAD 2000
 90
0
 91
0
280
0
281
0
  0
ENDSEC
  0
SECTION
  2
TABLES
  0
TABLE
  2
VPORT
  5
8
100
AcDbSymbolTable
 70
2
  0
VPORT
  5
1F4
100
AcDbSymbolTableRecord
100
AcDbViewportTableRecord
  2
*ACTIVE
 70
0
 10
0.0
 20
0.0
 11
1.0
 21
1.0
 12
11.0
 22
8.5
 13
0.0
 23
0.0
 14
1.0
 24
1.0
 15
0.0
 25
0.0
 16
0.0
 26
0.0
 36
1.0
 17
0.0
 27
0.0
 37
0.0
 40
17.0
 41
1.2941176471
 42
50.0
 43
0.0
 44
0.0
 50
0.0
 51
0.0
 71
0
 72
100
 73
1
 74
1
 75
0
 76
0
 77
0
 78
0
  0
ENDTAB
  0
TABLE
  2
LTYPE
  5
5
100
AcDbSymbolTable
 70
6
  0
LTYPE
  5
14
100
AcDbSymbolTableRecord
100
AcDbLinetypeTableRecord
  2
BYBLOCK
 70
0
  3

 72
65
 73
0
 40
0.0
  0
LTYPE
  5
15
100
AcDbSymbolTableRecord
100
AcDbLinetypeTableRecord
  2
BYLAYER
 70
0
  3

 72
65
 73
0
 40
0.0
  0
LTYPE
  5
16
100
AcDbSymbolTableRecord
100
AcDbLinetypeTableRecord
  2
CONTINUOUS
 70
64
  3
Solid line
 72
65
 73
0
 40
0.0
  0
LTYPE
  5
1F5
100
AcDbSymbolTableRecord
100
AcDbLinetypeTableRecord
  2
CENTER
 70
64
  3
____ _ ____ _ ____ _ ____ _ ____ _ ____ _ ____
 72
65
 73
4
 40
0.6
 49
0.375
 74
0
 49
-0.075
 74
0
 49
0.075
 74
0
 49
-0.075
 74
0
  0
LTYPE
  5
1F6
100
AcDbSymbolTableRecord
100
AcDbLinetypeTableRecord
  2
HIDDEN
 70
64
  3
- - - - - - - - - - - - - - - - - - - -
 72
65
 73
2
 40
0.2
 49
0.1
 74
0
 49
-0.1
 74
0
  0
LTYPE
  5
1F7
100
AcDbSymbolTableRecord
100
AcDbLinetypeTableRecord
  2
PHANTOM
 70
64
  3
_____ _ _ _____ _ _ _____ _ _ _____
 72
65
 73
6
 40
0.8
 49
0.45
 74
0
 49
-0.05
 74
0
 49
0.1
 74
0
 49
-0.05
 74
0
 49
0.1
 74
0
 49
-0.05
 74
0
  0
LTYPE
  5
1F8
100
AcDbSymbolTableRecord
100
AcDbLinetypeTableRecord
  2
DOT
 70
64
  3
. . . . . . . . . . . . . . . . . . . .
 72
65
 73
2
 40
0.2
 49
0.1
 74
0
 49
-0.1
 74
0
  0
LTYPE
  5
1F9
100
AcDbSymbolTableRecord
100
AcDbLinetypeTableRecord
  2
DASHED
 70
64
  3
- - - - - - - - - - - - - - - - - - - -
 72
65
 73
2
 40
0.2
 49
0.1
 74
0
 49
-0.1
 74
0
  0
ENDTAB
  0
TABLE
  2
LAYER
  5
2
100
AcDbSymbolTable
 70
36
  0
LAYER
  5
10
100
AcDbSymbolTableRecord
100
AcDbLayerTableRecord
  2
0
 70
0
 62
7
  6
CONTINUOUS
370
-3
390
F
  0
LAYER
  5
1FA
100
AcDbSymbolTableRecord
100
AcDbLayerTableRecord
  2
DEFAULT_1
 70
0
 62
7
  6
CENTER
370
-3
390
F
  0
LAYER
  5
1FB
100
AcDbSymbolTableRecord
100
AcDbLayerTableRecord
  2
DEFAULT_2
 70
0
 62
8
  6
HIDDEN
370
-3
390
F
  0
LAYER
  5
1FC
100
AcDbSymbolTableRecord
100
AcDbLayerTableRecord
  2
DEFAULT_3
 70
0
 62
7
  6
PHANTOM
370
-3
390
F
  0
LAYER
  5
1FD
100
AcDbSymbolTableRecord
100
AcDbLayerTableRecord
  2
ALL_FEATURES
 70
0
 62
7
  6
CONTINUOUS
370
-3
390
F
  0
LAYER
  5
1FE
100
AcDbSymbolTableRecord
100
AcDbLayerTableRecord
  2
AXES_FEATURES
 70
0
 62
7
  6
CONTINUOUS
370
-3
390
F
  0
LAYER
  5
1FF
100
AcDbSymbolTableRecord
100
AcDbLayerTableRecord
  2
DEFAULT_COORDINATE_SYSTEM
 70
0
 62
7
  6
CONTINUOUS
370
-3
390
F
  0
LAYER
  5
200
100
AcDbSymbolTableRecord
100
AcDbLayerTableRecord
  2
DEFAULT_DATUM_AXES
 70
0
 62
7
  6
CONTINUOUS
370
-3
390
F
  0
LAYER
  5
201
100
AcDbSymbolTableRecord
100
AcDbLayerTableRecord
  2
DEFAULT_DATUM_PLANES
 70
0
 62
7
  6
CONTINUOUS
370
-3
390
F
  0
LAYER
  5
202
100
AcDbSymbolTableRecord
100
AcDbLayerTableRecord
  2
DIMENSIONS
 70
0
 62
7
  6
CONTINUOUS
370
-3
390
F
  0
ENDTAB
  0
TABLE
  2
STYLE
  5
3
100
AcDbSymbolTable
 70
1
  0
STYLE
  5
11
100
AcDbSymbolTableRecord
100
AcDbTextStyleTableRecord
  2
STANDARD
 70
0
 40
0.0
 41
0.8
 50
0.0
 71
0
 42
0.2
  3
txt
  4

  0
STYLE
  5
203
100
AcDbSymbolTableRecord
100
AcDbTextStyleTableRecord
  2
TEXTSTYLE_1
 70
0
 40
0.0
 41
0.8
 50
0.0
 71
0
 42
0.2
  3
gdt
  4

  0
ENDTAB
  0
TABLE
  2
VIEW
  5
6
100
AcDbSymbolTable
 70
0
  0
ENDTAB
  0
TABLE
  2
UCS
  5
7
100
AcDbSymbolTable
 70
0
  0
ENDTAB
  0
TABLE
  2
APPID
  5
9
100
AcDbSymbolTable
 70
1
  0
APPID
  5
204
100
AcDbSymbolTableRecord
100
AcDbRegAppTableRecord
  2
ACAD
 70
0
  0
ENDTAB
  0
TABLE
  2
BLOCK_RECORD
  5
1
100
AcDbSymbolTable
 70
0
  0
BLOCK_RECORD
  5
205
100
AcDbSymbolTableRecord
100
AcDbBlockTableRecord
  2
*Model_Space
  0
BLOCK_RECORD
  5
206
100
AcDbSymbolTableRecord
100
AcDbBlockTableRecord
  2
*Paper_Space
  0
BLOCK_RECORD
  5
207
100
AcDbSymbolTableRecord
100
AcDbBlockTableRecord
  2
_FILLED
  0
ENDTAB
  0
TABLE
  2
DIMSTYLE
  5
A
100
AcDbSymbolTable
 70
1
100
AcDbDimStyleTable
 71
0
  0
DIMSTYLE
105
208
100
AcDbSymbolTableRecord
100
AcDbDimStyleTableRecord
  2
STANDARD
 70
0
  3

  4

 40
1.0
 41
0.1
 42
0.0625
 43
0.38
 44
0.125
 45
0.0
 46
0.0
 47
0.001
 48
0.001
140
0.08
141
0.09
142
0.0
143
25.4
144
1.0
145
0.0
146
1.0
147
0.09
 71
1.0
 72
0.0
 73
1
 74
1
 75
0
 76
0
 77
0
 78
4
 79
1
170
1
171
2
172
0
173
0
174
0
175
0
176
0
177
0
178
0
270
2
179
3
271
3
272
3
273
2
274
2
275
0
280
0
281
0
282
0
283
1
284
4
285
0
286
0
287
3
288
0
340
11
278
46
341
207
342
207
343
207
344
207
  0
ENDTAB
  0
ENDSEC
  0
SECTION
  2
BLOCKS
  0
BLOCK
  5
20
100
AcDbEntity
  8
0
100
AcDbBlockBegin
  2
*Model_Space
 70
0
 10
0.0
 20
0.0
 30
0.0
  3
*Model_Space
  1

  0
ENDBLK
  5
21
100
AcDbEntity
  8
0
100
AcDbBlockEnd
  0
BLOCK
  5
1C
100
AcDbEntity
  8
0
100
AcDbBlockBegin
  2
*Paper_Space
 70
0
 10
0.0
 20
0.0
 30
0.0
  3
*Paper_Space
  1

  0
ENDBLK
  5
1D
100
AcDbEntity
  8
0
100
AcDbBlockEnd
  0
BLOCK
  5
209
100
AcDbEntity
  8
0
100
AcDbBlockBegin
  2
_FILLED
 70
64
 10
0.0
 20
0.0
  3
_FILLED
  1

  0
SOLID
  5
20A
100
AcDbEntity
  8
0
  6
BYBLOCK
 62
0
100
AcDbTrace
 10
0.0
 20
0.0
 11
-1.0
 21
0.2
 12
-1.0
 22
-0.2
 13
-1.0
 23
-0.2
  0
ENDBLK
  5
20B
100
AcDbEntity
  8
0
  6
BYBLOCK
 62
0
100
AcDbBlockEnd
  0
ENDSEC
  0
SECTION
  2
ENTITIES
  0
LINE
  5
20C
100
AcDbEntity
  8
0
100
AcDbLine
 62
7
  6
CONTINUOUS
 10
7.2083858367
 20
14.3950464171
 11
7.0789507695
 21
14.2656113499
  0
LINE
  5
20D
100
AcDbEntity
  8
0
100
AcDbLine
 62
7
  6
CONTINUOUS
 10
6.8279197819
 20
13.7202123661
 11
6.8032277429
 21
13.695520327
  0
LINE
  5
20E
100
AcDbEntity
  8
0
100
AcDbLine
 62
7
  6
CONTINUOUS
 10
6.8668117997
 20
13.6813203484
 11
6.8421197606
 21
13.6566283093
  0
LINE
  5
20F
100
AcDbEntity
  8
0
100
AcDbLine
 62
7
  6
CONTINUOUS
 10
7.5672936726
 20
14.3509033878
 11
7.5432602215
 21
14.3268699366
  0
LINE
  5
210
100
AcDbEntity
  8
0
100
AcDbLine
 62
7
  6
CONTINUOUS
 10
6.9808374262
 20
13.5672947218
 11
6.9561453872
 21
13.5426026828
  0
LINE
  5
211
100
AcDbEntity
  8
0
100
AcDbLine
 62
7
  6
CONTINUOUS
 10
6.9527133635
 20
13.5079256297
 11
6.9423896174
 21
13.4976018836
  0
LINE
  5
212
100
AcDbEntity
  8
0
100
AcDbLine
 62
7
  6
CONTINUOUS
 10
7.0189503162
 20
13.440427675
 11
7.0092570711
 21
13.4307344299
  0
LINE
  5
213
100
AcDbEntity
  8
0
100
AcDbLine
 62
7
  6
CONTINUOUS
 10
7.0886030418
 20
13.4412140004
 11
7.0730685557
 21
13.4256795142
  0
LINE
  5
214
100
AcDbEntity
  8
0
100
AcDbLine
 62
7
  6
CONTINUOUS
 10
7.1622260035
 20
13.3859061445
 11
7.1375339645
 21
13.3612141054
  0
LINE
  5
215
100
AcDbEntity
  8
0
100
AcDbLine
 62
7
  6
CONTINUOUS
 10
13.5058926102
 20
3.3026026201
 11
13.6058926102
 21
3.3026026201
  0
LINE
  5
216
100
AcDbEntity
  8
0
100
AcDbLine
 62
7
  6
CONTINUOUS
 10
7.123957509
 20
13.3449951503
 11
7.1094769299
 21
13.3305145712
  0
LINE
  5
217
100
AcDbEntity
  8
0
100
AcDbLine
 62
7
  6
CONTINUOUS
 10
7.1481283171
 20
13.3112496741
 11
7.138435072
 21
13.301556429
  0
LINE
  5
218
100
AcDbEntity
  8
0
100
AcDbLine
 62
7
  6
CONTINUOUS
 10
7.1183426963
 20
13.25341857
 11
7.1135515095
 21
13.2486273831
  0
LINE
  5
219
100
AcDbEntity
  8
0
100
AcDbLine
 62
7
  6
CONTINUOUS
 10
7.2721480389
 20
13.2619818428
 11
7.254457133
 21
13.2442909369
  0
LINE
  5
21A
100
AcDbEntity
  8
0
100
AcDbLine
 62
7
  6
CONTINUOUS
 10
7.2544436309
 20
13.2171252704
 11
7.2386549308
 21
13.2013365703
  0
LINE
  5
21B
100
AcDbEntity
  8
0
100
AcDbLine
 62
7
  6
CONTINUOUS
 10
7.2174139143
 20
13.0907558403
 11
7.198685357
 21
13.072027283
  0
LINE
  5
21C
100
AcDbEntity
  8
0
100
AcDbLine
 62
7
  6
CONTINUOUS
 10
7.2348759865
 20
13.0728839503
 11
7.2163523381
 21
13.0543603019
  0
LINE
  5
21D
100
AcDbEntity
  8
0
100
AcDbLine
 62
7
  6
CONTINUOUS
 10
7.3509827928
 20
13.1487335882
 11
7.3211203529
 21
13.1188711482
  0
LINE
  5
21E
100
AcDbEntity
  8
0
100
AcDbLine
 62
7
  6
CONTINUOUS
 10
7.3986161998
 20
13.1495159482
 11
7.3739241607
 21
13.1248239092
  0
LINE
  5
21F
100
AcDbEntity
  8
0
100
AcDbLine
 62
7
  6
CONTINUOUS
 10
7.2888944148
 20
13.017592634
 11
7.2710072104
 21
12.9997054296
  0
LINE
  5
220
100
AcDbEntity
  8
0
100
AcDbLine
 62
7
  6
CONTINUOUS
 10
7.4310334567
 20
13.0283445345
 11
7.4213402116
 21
13.0186512894
  0
LINE
  5
221
100
AcDbEntity
  8
0
100
AcDbLine
 62
7
  6
CONTINUOUS
 10
7.3759311883
 20
12.90418969
 11
7.3712270691
 21
12.8994855708
  0
LINE
  5
222
100
AcDbEntity
  8
0
100
AcDbLine
 62
7
  6
CONTINUOUS
 10
7.5113499567
 20
13.028403368
 11
7.4908473293
 21
13.0079007406
  0
LINE
  5
223
100
AcDbEntity
  8
0
100
AcDbLine
 62
7
  6
CONTINUOUS
 10
7.3859716638
 20
12.8921545795
 11
7.3822648621
 21
12.8884477778
  0
LINE
  5
224
100
AcDbEntity
  8
0
100
AcDbLine
 62
7
  6
CONTINUOUS
 10
7.5724536795
 20
12.9227187532
 11
7.5448632137
 21
12.8951282874
  0
LWPOLYLINE
  5
225
100
AcDbEntity
  8
0
100
AcDbPolyline
 62
7
  6
CONTINUOUS
 90
14
 70
0
 10
7.3759289975
 20
12.9041906423
 10
7.3771704614
 20
12.9052668066
 10
7.3788001951
 20
12.9062866266
 10
7.3805191114
 20
12.9070030312
 10
7.3822326537
 20
12.9074158553
 10
7.3838172104
 20
12.9075576056
 10
7.3851997285
 20
12.9074978731
 10
7.3863643635
 20
12.9073104145
 10
7.3873422481
 20
12.9070487126
 10
7.3881366839
 20
12.9067561415
 10
7.3887319444
 20
12.9064809602
 10
7.3891101828
 20
12.9062738977
 10
7.3892981819
 20
12.9061572124
 10
7.3893317626
 20
12.9061346922
  0
LINE
  5
226
100
AcDbEntity
  8
0
100
AcDbLine
 62
7
  6
CONTINUOUS
 10
12.8058926102
 20
3.8151026201
 11
12.8558926102
 21
3.8151026201
  0
LINE
  5
227
100
AcDbEntity
  8
0
100
AcDbLine
 62
7
  6
CONTINUOUS
 10
12.1858926102
 20
3.8526026201
 11
12.1173926102
 21
3.8526026201
  0
LINE
  5
228
100
AcDbEntity
  8
0
100
AcDbLine
 62
7
  6
CONTINUOUS
 10
11.7543926102
 20
3.8526026201
 11
11.6858926102
 21
3.8526026201
  0
LINE
  5
229
100
AcDbEntity
  8
0
100
AcDbLine
 62
7
  6
CONTINUOUS
 10
12.7058926102
 20
3.9151026201
 11
12.8058926102
 21
3.9151026201
  0
LINE
  5
22A
100
AcDbEntity
  8
0
100
AcDbLine
 62
7
  6
CONTINUOUS
 10
12.6858926102
 20
4.0401026201
 11
12.2941457857
 21
4.0401026201
  0
LINE
  5
22B
100
AcDbEntity
  8
0
100
AcDbLine
 62
7
  6
CONTINUOUS
 10
7.38737797
 20
12.8562704109
 11
7.3523138448
 21
12.7810751518
  0
LINE
  5
22C
100
AcDbEntity
  8
0
100
AcDbLine
 62
7
  6
CONTINUOUS
 10
9.4419279646
 20
14.7476845071
 11
8.7772475903
 21
14.0830041328
  0
LINE
  5
22D
100
AcDbEntity
  8
0
100
AcDbLine
 62
7
  6
CONTINUOUS
 10
9.4524168181
 20
14.7371956537
 11
9.2049294446
 21
14.4897082803
  0
LINE
  5
22E
100
AcDbEntity
  8
0
100
AcDbLine
 62
7
  6
CONTINUOUS
 10
7.6738984139
 20
12.8742337342
 11
7.6492063748
 21
12.8495416951
  0
LINE
  5
22F
100
AcDbEntity
  8
0
100
AcDbLine
 62
7
  6
CONTINUOUS
 10
7.6547763175
 20
12.8046016737
 11
7.6450830724
 21
12.7949084286
  0
LINE
  5
230
100
AcDbEntity
  8
0
100
AcDbLine
 62
7
  6
CONTINUOUS
 10
10.0447364956
 20
15.1772518767
 11
9.8169577083
 21
14.9494730893
  0
LINE
  5
231
100
AcDbEntity
  8
0
100
AcDbLine
 62
7
  6
CONTINUOUS
 10
9.9658705651
 20
15.0793411119
 11
9.8264801254
 21
14.9399506722
  0
LINE
  5
232
100
AcDbEntity
  8
0
100
AcDbLine
 62
7
  6
CONTINUOUS
 10
11.0601936133
 20
16.1273016171
 11
10.282890745
 21
15.3499987488
  0
LINE
  5
233
100
AcDbEntity
  8
0
100
AcDbLine
 62
7
  6
CONTINUOUS
 10
10.2520590072
 20
15.319167011
 11
10.245604375
 21
15.3127123788
  0
LINE
  5
234
100
AcDbEntity
  8
0
100
AcDbLine
 62
7
  6
CONTINUOUS
 10
10.2136001223
 20
15.2807081261
 11
10.1958268243
 21
15.2629348281
  0
LINE
  5
235
100
AcDbEntity
  8
0
100
AcDbLine
 62
7
  6
CONTINUOUS
 10
10.1623603752
 20
15.229468379
 11
10.1461793334
 21
15.2132873372
  0
LINE
  5
236
100
AcDbEntity
  8
0
100
AcDbLine
 62
7
  6
CONTINUOUS
 10
10.1109905794
 20
15.1780985832
 11
10.0963706735
 21
15.1634786773
  0
LINE
  5
237
100
AcDbEntity
  8
0
100
AcDbLine
 62
7
  6
CONTINUOUS
 10
9.5710022303
 20
14.6186102414
 11
9.3235148569
 21
14.371122868
  0
LINE
  5
238
100
AcDbEntity
  8
0
100
AcDbLine
 62
7
  6
CONTINUOUS
 10
10.276924509
 20
15.3125043199
 11
10.2895534361
 21
15.325133247
  0
LINE
  5
239
100
AcDbEntity
  8
0
100
AcDbLine
 62
7
  6
CONTINUOUS
 10
10.2527025592
 20
15.2862516867
 11
10.2402802984
 21
15.2738294258
  0
LINE
  5
23A
100
AcDbEntity
  8
0
100
AcDbLine
 62
7
  6
CONTINUOUS
 10
10.203459497
 20
15.2344759883
 11
10.1910382001
 21
15.2220546913
  0
LINE
  5
23B
100
AcDbEntity
  8
0
100
AcDbLine
 62
7
  6
CONTINUOUS
 10
10.1544413118
 20
15.1824746351
 11
10.1420212687
 21
15.170054592
  0
LINE
  5
23C
100
AcDbEntity
  8
0
100
AcDbLine
 62
7
  6
CONTINUOUS
 10
10.1051469307
 20
15.130755604
 11
10.0981898495
 21
15.1237985228
  0
LINE
  5
23D
100
AcDbEntity
  8
0
100
AcDbLine
 62
7
  6
CONTINUOUS
 10
7.6494363382
 20
12.6485761858
 11
7.6357863962
 21
12.6349262438
  0
LINE
  5
23E
100
AcDbEntity
  8
0
100
AcDbLine
 62
7
  6
CONTINUOUS
 10
7.7899085193
 20
12.7563975026
 11
7.7661295433
 21
12.7326185266
  0
LINE
  5
23F
100
AcDbEntity
  8
0
100
AcDbLine
 62
7
  6
CONTINUOUS
 10
10.0539933487
 20
14.9912183282
 11
9.9146029091
 21
14.8518278885
  0
LINE
  5
240
100
AcDbEntity
  8
0
100
AcDbLine
 62
7
  6
CONTINUOUS
 10
7.8194735895
 20
12.6706331941
 11
7.7944159482
 21
12.6455755529
  0
LINE
  5
241
100
AcDbEntity
  8
0
100
AcDbLine
 62
7
  6
CONTINUOUS
 10
7.7449423235
 20
12.5436424578
 11
7.736006255
 21
12.534706385
  0
LINE
  5
242
100
AcDbEntity
  8
0
100
AcDbLine
 62
7
  6
CONTINUOUS
 10
7.8005923502
 20
12.4938696577
 11
7.7887176662
 21
12.4819949737
  0
LINE
  5
243
100
AcDbEntity
  8
0
100
AcDbLine
 62
7
  6
CONTINUOUS
 10
7.9170726435
 20
12.5677925306
 11
7.8946358069
 21
12.5453556941
  0
LINE
  5
244
100
AcDbEntity
  8
0
100
AcDbLine
 62
7
  6
CONTINUOUS
 10
7.9693126177
 20
12.5788195304
 11
7.9446205786
 21
12.5541274913
  0
LINE
  5
245
100
AcDbEntity
  8
0
100
AcDbLine
 62
7
  6
CONTINUOUS
 10
7.8996457774
 20
12.3924833674
 11
7.888937525
 21
12.381775115
  0
LWPOLYLINE
  5
246
100
AcDbEntity
  8
0
100
AcDbPolyline
 62
7
  6
CONTINUOUS
 90
9
 70
0
 10
7.8996429999
 20
12.3924833545
 10
7.9009237047
 20
12.3935733391
 10
7.90261153
 20
12.3945629552
 10
7.9043317444
 20
12.3951805771
 10
7.9058596789
 20
12.3954454726
 10
7.9070068295
 20
12.3954708701
 10
7.907743444
 20
12.395397756
 10
7.908152553
 20
12.3953165595
 10
7.9082496209
 20
12.3952901986
  0
LWPOLYLINE
  5
247
100
AcDbEntity
  8
0
100
AcDbPolyline
 62
7
  6
CONTINUOUS
 90
9
 70
0
 10
7.7449412047
 20
12.5436434607
 10
7.7462530493
 20
12.5447578018
 10
7.7479947445
 20
12.5457717622
 10
7.7497970064
 20
12.5464054693
 10
7.7514241562
 20
12.5466687863
 10
7.7526742567
 20
12.546675828
 10
7.7535045151
 20
12.5465751005
 10
7.753994887
 20
12.5464648478
 10
7.7541528383
 20
12.5464169363
  0
LINE
  5
248
100
AcDbEntity
  8
0
100
AcDbLine
 62
7
  6
CONTINUOUS
 10
12.7058926102
 20
4.1526026201
 11
12.6858926102
 21
4.1526026201
  0
LINE
  5
249
100
AcDbEntity
  8
0
100
AcDbLine
 62
7
  6
CONTINUOUS
 10
12.7058926102
 20
4.5526026201
 11
12.6858926102
 21
4.5526026201
  0
LINE
  5
24A
100
AcDbEntity
  8
0
100
AcDbLine
 62
7
  6
CONTINUOUS
 10
12.6858926102
 20
4.6651026201
 11
12.2941457857
 21
4.6651026201
  0
LINE
  5
24B
100
AcDbEntity
  8
0
100
AcDbLine
 62
7
  6
CONTINUOUS
 10
6.7974621283
 20
13.6816009022
 11
6.7974621283
 21
13.6700693169
  0
LINE
  5
24C
100
AcDbEntity
  8
0
100
AcDbLine
 62
7
  6
CONTINUOUS
 10
6.8363541461
 20
13.6427080397
 11
6.8363541461
 21
13.6311772626
  0
LINE
  5
24D
100
AcDbEntity
  8
0
100
AcDbLine
 62
7
  6
CONTINUOUS
 10
6.9366240029
 20
13.4836820157
 11
6.9366240029
 21
13.4721507737
  0
LINE
  5
24E
100
AcDbEntity
  8
0
100
AcDbLine
 62
7
  6
CONTINUOUS
 10
6.9503797726
 20
13.5286824132
 11
6.9503797726
 21
13.517151636
  0
LINE
  5
24F
100
AcDbEntity
  8
0
100
AcDbLine
 62
7
  6
CONTINUOUS
 10
7.0034914566
 20
13.4168145912
 11
7.0034914566
 21
13.40528332
  0
LINE
  5
250
100
AcDbEntity
  8
0
100
AcDbLine
 62
7
  6
CONTINUOUS
 10
10.8201240954
 20
14.7697119427
 11
10.8201180728
 21
14.7697057502
  0
LINE
  5
251
100
AcDbEntity
  8
0
100
AcDbLine
 62
7
  6
CONTINUOUS
 10
7.9546981576
 20
12.3361439281
 11
7.9446334347
 21
12.3260792053
  0
LINE
  5
252
100
AcDbEntity
  8
0
100
AcDbLine
 62
7
  6
CONTINUOUS
 10
8.0862357863
 20
12.4618963618
 11
8.0615437472
 21
12.4372043227
  0
LINE
  5
253
100
AcDbEntity
  8
0
100
AcDbLine
 62
7
  6
CONTINUOUS
 10
8.0752087865
 20
12.4096563876
 11
8.05277195
 21
12.387219551
  0
LINE
  5
254
100
AcDbEntity
  8
0
100
AcDbLine
 62
7
  6
CONTINUOUS
 10
8.0573714314
 20
12.2383774844
 11
8.0448532935
 21
12.2258593465
  0
LINE
  5
255
100
AcDbEntity
  8
0
100
AcDbLine
 62
7
  6
CONTINUOUS
 10
8.17804945
 20
12.3120573336
 11
8.1529918088
 21
12.2869996923
  0
LINE
  5
256
100
AcDbEntity
  8
0
100
AcDbLine
 62
7
  6
CONTINUOUS
 10
8.2638137585
 20
12.2824922634
 11
8.2400347825
 21
12.2587132874
  0
LINE
  5
257
100
AcDbEntity
  8
0
100
AcDbLine
 62
7
  6
CONTINUOUS
 10
10.6514774626
 20
14.6096759473
 11
10.6638971581
 21
14.6220956428
  0
LINE
  5
258
100
AcDbEntity
  8
0
100
AcDbLine
 62
7
  6
CONTINUOUS
 10
10.7033156199
 20
14.6588582685
 11
10.7157363753
 21
14.6712790238
  0
LINE
  5
259
100
AcDbEntity
  8
0
100
AcDbLine
 62
7
  6
CONTINUOUS
 10
10.7551237898
 20
14.7080632058
 11
10.7675455154
 21
14.7204849315
  0
LINE
  5
25A
100
AcDbEntity
  8
0
100
AcDbLine
 62
7
  6
CONTINUOUS
 10
10.8069739702
 20
14.7572310143
 11
10.8193967295
 21
14.7696537737
  0
LINE
  5
25B
100
AcDbEntity
  8
0
100
AcDbLine
 62
7
  6
CONTINUOUS
 10
10.8201180728
 20
14.7697057502
 11
10.8325495029
 21
14.7821371802
  0
LINE
  5
25C
100
AcDbEntity
  8
0
100
AcDbLine
 62
7
  6
CONTINUOUS
 10
11.634717873
 20
15.5527773574
 11
10.8574150047
 21
14.7754744891
  0
LINE
  5
25D
100
AcDbEntity
  8
0
100
AcDbLine
 62
7
  6
CONTINUOUS
 10
10.8137716774
 20
14.7318311618
 11
10.7952556574
 21
14.7133151418
  0
LINE
  5
25E
100
AcDbEntity
  8
0
100
AcDbLine
 62
7
  6
CONTINUOUS
 10
10.7624887045
 20
14.6805481889
 11
10.7454985407
 21
14.6635580251
  0
LINE
  5
25F
100
AcDbEntity
  8
0
100
AcDbLine
 62
7
  6
CONTINUOUS
 10
10.7112285403
 20
14.6292880247
 11
10.6957565604
 21
14.6138160448
  0
LINE
  5
260
100
AcDbEntity
  8
0
100
AcDbLine
 62
7
  6
CONTINUOUS
 10
10.6599532694
 20
14.5780127538
 11
10.6519644439
 21
14.5700239283
  0
LINE
  5
261
100
AcDbEntity
  8
0
100
AcDbLine
 62
7
  6
CONTINUOUS
 10
10.6846681326
 20
14.5373202397
 11
10.4568893452
 21
14.3095414524
  0
LINE
  5
262
100
AcDbEntity
  8
0
100
AcDbLine
 62
7
  6
CONTINUOUS
 10
8.3120179296
 20
12.1473600616
 11
8.3023246845
 21
12.1376668165
  0
LINE
  5
263
100
AcDbEntity
  8
0
100
AcDbLine
 62
7
  6
CONTINUOUS
 10
8.3816499901
 20
12.166482158
 11
8.356957951
 21
12.1417901189
  0
LINE
  5
264
100
AcDbEntity
  8
0
100
AcDbLine
 62
7
  6
CONTINUOUS
 10
10.255100763
 20
13.9345117087
 11
9.5904203887
 21
13.2698313344
  0
LINE
  5
265
100
AcDbEntity
  8
0
100
AcDbLine
 62
7
  6
CONTINUOUS
 10
8.4301350091
 20
12.0650374236
 11
8.4025445433
 21
12.0374469578
  0
LINE
  5
266
100
AcDbEntity
  8
0
100
AcDbLine
 62
7
  6
CONTINUOUS
 10
8.3589797104
 20
11.9223746002
 11
8.3536588751
 21
11.9170537648
  0
LWPOLYLINE
  5
267
100
AcDbEntity
  8
0
100
AcDbPolyline
 62
7
  6
CONTINUOUS
 90
9
 70
0
 10
8.0573708481
 20
12.2383763321
 10
8.0587183819
 20
12.2395145887
 10
8.0603704442
 20
12.2404720285
 10
8.0620262379
 20
12.2410670299
 10
8.0634924169
 20
12.2413301887
 10
8.0645961504
 20
12.2413654855
 10
8.0653058047
 20
12.2413027616
 10
8.0656655415
 20
12.2412352264
 10
8.0657075062
 20
12.2412247656
  0
LINE
  5
268
100
AcDbEntity
  8
0
100
AcDbLine
 62
7
  6
CONTINUOUS
 10
12.7058926102
 20
4.7901026201
 11
12.8058926102
 21
4.7901026201
  0
LINE
  5
269
100
AcDbEntity
  8
0
100
AcDbLine
 62
7
  6
CONTINUOUS
 10
12.1858926102
 20
4.8526026201
 11
11.6858926102
 21
4.8526026201
  0
LINE
  5
26A
100
AcDbEntity
  8
0
100
AcDbLine
 62
7
  6
CONTINUOUS
 10
12.8058926102
 20
4.8901026201
 11
12.8558926102
 21
4.8901026201
  0
LINE
  5
26B
100
AcDbEntity
  8
0
100
AcDbLine
 62
7
  6
CONTINUOUS
 10
7.1317683499
 20
13.3472938358
 11
7.1317683499
 21
13.3357630587
  0
LINE
  5
26C
100
AcDbEntity
  8
0
100
AcDbLine
 62
7
  6
CONTINUOUS
 10
7.1326694575
 20
13.2876365903
 11
7.1326694575
 21
13.2761053191
  0
LINE
  5
26D
100
AcDbEntity
  8
0
100
AcDbLine
 62
7
  6
CONTINUOUS
 10
7.1952259882
 20
13.0636755663
 11
7.1952259882
 21
13.0456213449
  0
LINE
  5
26E
100
AcDbEntity
  8
0
100
AcDbLine
 62
7
  6
CONTINUOUS
 10
7.2128929693
 20
13.0460085852
 11
7.2128929693
 21
13.0279543175
  0
LINE
  5
26F
100
AcDbEntity
  8
0
100
AcDbLine
 62
7
  6
CONTINUOUS
 10
7.2675478416
 20
12.9913537129
 11
7.2675478416
 21
12.9732994452
  0
LINE
  5
270
100
AcDbEntity
  8
0
100
AcDbLine
 62
7
  6
CONTINUOUS
 10
7.3153547383
 20
13.1049513094
 11
7.3153547383
 21
13.0934200383
  0
LINE
  5
271
100
AcDbEntity
  8
0
100
AcDbLine
 62
7
  6
CONTINUOUS
 10
7.3681585462
 20
13.1109036396
 11
7.3681585462
 21
13.0993728624
  0
LINE
  5
272
100
AcDbEntity
  8
0
100
AcDbLine
 62
7
  6
CONTINUOUS
 10
7.3788054934
 20
12.8800960611
 11
7.3788054934
 21
12.8620417934
  0
LINE
  5
273
100
AcDbEntity
  8
0
100
AcDbLine
 62
7
  6
CONTINUOUS
 10
7.4104209561
 20
12.6964960381
 11
7.4104209561
 21
12.6849647608
  0
LINE
  5
274
100
AcDbEntity
  8
0
100
AcDbLine
 62
7
  6
CONTINUOUS
 10
7.5390975991
 20
12.8812084486
 11
7.5390975991
 21
12.8696771775
  0
LINE
  5
275
100
AcDbEntity
  8
0
100
AcDbLine
 62
7
  6
CONTINUOUS
 10
7.588956337
 20
12.5179606549
 11
7.588956337
 21
12.5064293799
  0
LINE
  5
276
100
AcDbEntity
  8
0
100
AcDbLine
 62
7
  6
CONTINUOUS
 10
7.6323270275
 20
12.6265745269
 11
7.6323270275
 21
12.60852026
  0
LINE
  5
277
100
AcDbEntity
  8
0
100
AcDbLine
 62
7
  6
CONTINUOUS
 10
8.5358196239
 20
12.0039337008
 11
8.5153169965
 21
11.9834310734
  0
LINE
  5
278
100
AcDbEntity
  8
0
100
AcDbLine
 62
7
  6
CONTINUOUS
 10
8.5357607904
 20
11.9236172008
 11
8.5260675453
 21
11.9139239557
  0
LINE
  5
279
100
AcDbEntity
  8
0
100
AcDbLine
 62
7
  6
CONTINUOUS
 10
8.4711477523
 20
11.8341029245
 11
8.4538787339
 21
11.8168339061
  0
LINE
  5
27A
100
AcDbEntity
  8
0
100
AcDbLine
 62
7
  6
CONTINUOUS
 10
8.6569322041
 20
11.8911999439
 11
8.6322401651
 21
11.8665079048
  0
LINE
  5
27B
100
AcDbEntity
  8
0
100
AcDbLine
 62
7
  6
CONTINUOUS
 10
8.5488900337
 20
11.7581457225
 11
8.5307284756
 21
11.7399841644
  0
LINE
  5
27C
100
AcDbEntity
  8
0
100
AcDbLine
 62
7
  6
CONTINUOUS
 10
8.6561498441
 20
11.843566537
 11
8.6262874041
 21
11.813704097
  0
LINE
  5
27D
100
AcDbEntity
  8
0
100
AcDbLine
 62
7
  6
CONTINUOUS
 10
8.5910826774
 20
11.7169256222
 11
8.5724348476
 21
11.6982777924
  0
LINE
  5
27E
100
AcDbEntity
  8
0
100
AcDbLine
 62
7
  6
CONTINUOUS
 10
8.7245415263
 20
11.7470273751
 11
8.7087528262
 21
11.7312386749
  0
LINE
  5
27F
100
AcDbEntity
  8
0
100
AcDbLine
 62
7
  6
CONTINUOUS
 10
8.7693980987
 20
11.764731783
 11
8.7517071928
 21
11.7470408771
  0
LINE
  5
280
100
AcDbEntity
  8
0
100
AcDbLine
 62
7
  6
CONTINUOUS
 10
8.7608348259
 20
11.6109264404
 11
8.756043639
 21
11.6061352536
  0
LINE
  5
281
100
AcDbEntity
  8
0
100
AcDbLine
 62
7
  6
CONTINUOUS
 10
8.81866593
 20
11.6407120612
 11
8.8089726849
 21
11.6310188161
  0
LINE
  5
282
100
AcDbEntity
  8
0
100
AcDbLine
 62
7
  6
CONTINUOUS
 10
8.8524114062
 20
11.6165412531
 11
8.8379308271
 21
11.602060674
  0
LINE
  5
283
100
AcDbEntity
  8
0
100
AcDbLine
 62
7
  6
CONTINUOUS
 10
8.8933224004
 20
11.6548097476
 11
8.8686303613
 21
11.6301177086
  0
LINE
  5
284
100
AcDbEntity
  8
0
100
AcDbLine
 62
7
  6
CONTINUOUS
 10
8.5910823814
 20
11.716926167
 11
8.5918005411
 21
11.717587714
  0
LWPOLYLINE
  5
285
100
AcDbEntity
  8
0
100
AcDbPolyline
 62
7
  6
CONTINUOUS
 90
13
 70
0
 10
8.5488909201
 20
11.7581459242
 10
8.5500742941
 20
11.7591795776
 10
8.5516727424
 20
11.7601995712
 10
8.5533578739
 20
11.7609256173
 10
8.5550291013
 20
11.7613547342
 10
8.5565370975
 20
11.7615189722
 10
8.557782039
 20
11.7614992154
 10
8.5587309402
 20
11.7613863541
 10
8.5594411316
 20
11.7612413144
 10
8.559937291
 20
11.7611048973
 10
8.5602593566
 20
11.760997066
 10
8.5604282281
 20
11.7609320992
 10
8.5604647983
 20
11.7609167021
  0
LWPOLYLINE
  5
286
100
AcDbEntity
  8
0
100
AcDbPolyline
 62
7
  6
CONTINUOUS
 90
11
 70
0
 10
8.4711449752
 20
11.8341015403
 10
8.4723648301
 20
11.8351592
 10
8.4739375869
 20
11.8361456908
 10
8.4755674512
 20
11.8368320521
 10
8.4771510706
 20
11.8372263062
 10
8.4785424642
 20
11.8373698073
 10
8.4796422378
 20
11.8373480544
 10
8.4804243949
 20
11.837253332
 10
8.4809464762
 20
11.8371463252
 10
8.4812211913
 20
11.8370710845
 10
8.4812912701
 20
11.837048272
  0
LWPOLYLINE
  5
287
100
AcDbEntity
  8
0
100
AcDbPolyline
 62
7
  6
CONTINUOUS
 90
16
 70
0
 10
8.5918005411
 20
11.717587714
 10
8.5930682074
 20
11.7185220919
 10
8.5944097289
 20
11.7192617597
 10
8.5957888303
 20
11.719805448
 10
8.597169342
 20
11.7201604302
 10
8.5984981411
 20
11.7203392515
 10
8.5997261736
 20
11.7203691161
 10
8.6008525679
 20
11.7202823794
 10
8.6018615691
 20
11.7201089637
 10
8.6027446298
 20
11.7198794143
 10
8.603460061
 20
11.7196350266
 10
8.6039821275
 20
11.7194197873
 10
8.6043232824
 20
11.7192594792
 10
8.6045182789
 20
11.719159074
 10
8.6046045784
 20
11.7191116843
 10
8.6046130808
 20
11.7191068605
  0
LINE
  5
288
100
AcDbEntity
  8
0
100
AcDbLine
 62
7
  6
CONTINUOUS
 10
8.3584399316
 20
11.8775151213
 11
8.2884914077
 21
11.8448975889
  0
LINE
  5
289
100
AcDbEntity
  8
0
100
AcDbLine
 62
7
  6
CONTINUOUS
 10
13.5058926102
 20
5.4026026201
 11
13.6058926102
 21
5.4026026201
  0
LINE
  5
28A
100
AcDbEntity
  8
0
100
AcDbLine
 62
7
  6
CONTINUOUS
 10
7.6434407602
 20
12.8356214255
 11
7.6434407602
 21
12.8240906484
  0
LINE
  5
28B
100
AcDbEntity
  8
0
100
AcDbLine
 62
7
  6
CONTINUOUS
 10
7.7852582975
 20
12.473643257
 11
7.7852582975
 21
12.4555889893
  0
LINE
  5
28C
100
AcDbEntity
  8
0
100
AcDbLine
 62
7
  6
CONTINUOUS
 10
7.7886503337
 20
12.6316557141
 11
7.7886503337
 21
12.620124443
  0
LINE
  5
28D
100
AcDbEntity
  8
0
100
AcDbLine
 62
7
  6
CONTINUOUS
 10
7.8414434939
 20
12.2654735003
 11
7.8414434939
 21
12.253942223
  0
LINE
  5
28E
100
AcDbEntity
  8
0
100
AcDbLine
 62
7
  6
CONTINUOUS
 10
7.9388549641
 20
12.5402072219
 11
7.9388549641
 21
12.5286764446
  0
LINE
  5
28F
100
AcDbEntity
  8
0
100
AcDbLine
 62
7
  6
CONTINUOUS
 10
7.941174066
 20
12.3177274885
 11
7.941174066
 21
12.2996732209
  0
LINE
  5
290
100
AcDbEntity
  8
0
100
AcDbLine
 62
7
  6
CONTINUOUS
 10
8.0199788748
 20
12.0815400811
 11
8.0199788748
 21
12.0754068421
  0
LINE
  5
291
100
AcDbEntity
  8
0
100
AcDbLine
 62
7
  6
CONTINUOUS
 10
8.0470063355
 20
12.3732997122
 11
8.0470063355
 21
12.3617684411
  0
LINE
  5
292
100
AcDbEntity
  8
0
100
AcDbLine
 62
7
  6
CONTINUOUS
 10
8.2342691679
 20
12.2447930178
 11
8.2342691679
 21
12.2332622407
  0
LINE
  5
293
100
AcDbEntity
  8
0
100
AcDbLine
 62
7
  6
CONTINUOUS
 10
8.9486302563
 20
11.5811867859
 11
8.9330957701
 21
11.5656522998
  0
LINE
  5
294
100
AcDbEntity
  8
0
100
AcDbLine
 62
7
  6
CONTINUOUS
 10
8.9478439309
 20
11.5115340603
 11
8.9381506858
 21
11.5018408152
  0
LINE
  5
295
100
AcDbEntity
  8
0
100
AcDbLine
 62
7
  6
CONTINUOUS
 10
9.0153418856
 20
11.4452971076
 11
9.0050181395
 21
11.4349733615
  0
LINE
  5
296
100
AcDbEntity
  8
0
100
AcDbLine
 62
7
  6
CONTINUOUS
 10
9.0747109777
 20
11.4734211703
 11
9.0500189386
 21
11.4487291313
  0
LINE
  5
297
100
AcDbEntity
  8
0
100
AcDbLine
 62
7
  6
CONTINUOUS
 10
9.8583196437
 20
12.0598774167
 11
9.8342861925
 21
12.0358439656
  0
LINE
  5
298
100
AcDbEntity
  8
0
100
AcDbLine
 62
7
  6
CONTINUOUS
 10
9.1887366043
 20
11.3593955438
 11
9.1640445652
 21
11.3347035047
  0
LINE
  5
299
100
AcDbEntity
  8
0
100
AcDbLine
 62
7
  6
CONTINUOUS
 10
9.3591239226
 20
11.2181524895
 11
9.3342660977
 21
11.1932946646
  0
LINE
  5
29A
100
AcDbEntity
  8
0
100
AcDbLine
 62
7
  6
CONTINUOUS
 10
9.902462673
 20
11.7009695808
 11
9.7730276058
 21
11.5715345136
  0
LINE
  5
29B
100
AcDbEntity
  8
0
100
AcDbLine
 62
7
  6
CONTINUOUS
 10
8.29655907
 20
12.1237469778
 11
8.29655907
 21
12.1122157066
  0
LINE
  5
29C
100
AcDbEntity
  8
0
100
AcDbLine
 62
7
  6
CONTINUOUS
 10
8.3501995064
 20
11.9087020481
 11
8.3501995064
 21
11.8906477804
  0
LINE
  5
29D
100
AcDbEntity
  8
0
100
AcDbLine
 62
7
  6
CONTINUOUS
 10
8.509551382
 20
11.9695108038
 11
8.509551382
 21
11.9579800267
  0
LINE
  5
29E
100
AcDbEntity
  8
0
100
AcDbLine
 62
7
  6
CONTINUOUS
 10
8.5203019308
 20
11.900004117
 11
8.5203019308
 21
11.8884728458
  0
LINE
  5
29F
100
AcDbEntity
  8
0
100
AcDbLine
 62
7
  6
CONTINUOUS
 10
8.7029872116
 20
11.7173188361
 11
8.7029872116
 21
11.705787565
  0
LINE
  5
2A0
100
AcDbEntity
  8
0
100
AcDbLine
 62
7
  6
CONTINUOUS
 10
8.7459415783
 20
11.7331206075
 11
8.7459415783
 21
11.7215898304
  0
LINE
  5
2A1
100
AcDbEntity
  8
0
100
AcDbLine
 62
7
  6
CONTINUOUS
 10
8.8321652125
 20
11.5881408352
 11
8.8321652125
 21
11.5766095641
  0
LINE
  5
2A2
100
AcDbEntity
  8
0
100
AcDbLine
 62
7
  6
CONTINUOUS
 10
8.9273301556
 20
11.5517320302
 11
8.9273301556
 21
11.5402012531
  0
LINE
  5
2A3
100
AcDbEntity
  8
0
100
AcDbLine
 62
7
  6
CONTINUOUS
 10
9.0413557821
 20
11.4377064037
 11
9.0413557821
 21
11.4261756265
  0
LWPOLYLINE
  5
2A4
100
AcDbEntity
  8
0
100
AcDbPolyline
 62
7
  6
CONTINUOUS
 90
10
 70
0
 10
7.2193820886
 20
13.1048519575
 10
7.2200840665
 20
13.1033521166
 10
7.2205879146
 20
13.1016865825
 10
7.2208424525
 20
13.0999574093
 10
7.2208377183
 20
13.0981969054
 10
7.2205640743
 20
13.0964241376
 10
7.2200229876
 20
13.0947079888
 10
7.2192336545
 20
13.0931060007
 10
7.2182211873
 20
13.0916507484
 10
7.2174132485
 20
13.0907565408
  0
LWPOLYLINE
  5
2A5
100
AcDbEntity
  8
0
100
AcDbPolyline
 62
7
  6
CONTINUOUS
 90
13
 70
0
 10
7.2917828989
 20
13.0285459585
 10
7.2917597337
 20
13.0285997102
 10
7.2917827222
 20
13.0285391027
 10
7.2918567167
 20
13.028318671
 10
7.2919691849
 20
13.0279137102
 10
7.2921004647
 20
13.0272836118
 10
7.292209643
 20
13.0264068068
 10
7.2922364037
 20
13.0252166743
 10
7.2920857829
 20
13.0237397575
 10
7.2916694211
 20
13.0220764452
 10
7.2909500871
 20
13.0203865347
 10
7.2899322141
 20
13.0187826487
 10
7.2888956766
 20
13.0175940018
  0
LWPOLYLINE
  5
2A6
100
AcDbEntity
  8
0
100
AcDbPolyline
 62
7
  6
CONTINUOUS
 90
10
 70
0
 10
7.9575356837
 20
12.3448176519
 10
7.9574962288
 20
12.3449216891
 10
7.9575207665
 20
12.3448360905
 10
7.9576086508
 20
12.3444281352
 10
7.9576948673
 20
12.3436742793
 10
7.9576834431
 20
12.34250283
 10
7.9574319474
 20
12.3409539754
 10
7.9568257522
 20
12.3392121153
 10
7.9558430284
 20
12.3375013811
 10
7.9546976651
 20
12.3361438485
  0
LWPOLYLINE
  5
2A7
100
AcDbEntity
  8
0
100
AcDbPolyline
 62
7
  6
CONTINUOUS
 90
10
 70
0
 10
7.8034873474
 20
12.5020746831
 10
7.8034306753
 20
12.5022349588
 10
7.8034368956
 20
12.5022058093
 10
7.8035072139
 20
12.5018401043
 10
7.8035734929
 20
12.5011256774
 10
7.8035425193
 20
12.500017654
 10
7.8032846088
 20
12.498549351
 10
7.8026946689
 20
12.4968897152
 10
7.8017423986
 20
12.4952349891
 10
7.8005901714
 20
12.493866934
  0
LWPOLYLINE
  5
2A8
100
AcDbEntity
  8
0
100
AcDbPolyline
 62
7
  6
CONTINUOUS
 90
10
 70
0
 10
7.6523880029
 20
12.6567387418
 10
7.6523237612
 20
12.6569257648
 10
7.6523261066
 20
12.6569090554
 10
7.6523929687
 20
12.6565423262
 10
7.6524531436
 20
12.6558170719
 10
7.6524120191
 20
12.6547066338
 10
7.6521455279
 20
12.6532495818
 10
7.6515558859
 20
12.651611257
 10
7.6506089936
 20
12.6499684152
 10
7.649439644
 20
12.6485787875
  0
LINE
  5
2A9
100
AcDbEntity
  8
0
100
AcDbLine
 62
7
  6
CONTINUOUS
 10
9.7618937831
 20
14.8165370145
 11
9.7618937831
 21
14.7432208497
  0
LINE
  5
2AA
100
AcDbEntity
  8
0
100
AcDbLine
 62
7
  6
CONTINUOUS
 10
10.1461280237
 20
15.2125763627
 11
10.1461793334
 21
15.2132873372
  0
LINE
  5
2AB
100
AcDbEntity
  8
0
100
AcDbLine
 62
7
  6
CONTINUOUS
 10
10.0963197982
 20
15.1627746623
 11
10.0963706735
 21
15.1634786773
  0
LINE
  5
2AC
100
AcDbEntity
  8
0
100
AcDbLine
 62
7
  6
CONTINUOUS
 10
10.1957757645
 20
15.2622283713
 11
10.1958268243
 21
15.2629348281
  0
LINE
  5
2AD
100
AcDbEntity
  8
0
100
AcDbLine
 62
7
  6
CONTINUOUS
 10
10.245604375
 20
15.3127123788
 11
10.2455535089
 21
15.312008495
  0
LINE
  5
2AE
100
AcDbEntity
  8
0
100
AcDbLine
 62
7
  6
CONTINUOUS
 10
7.2184820191
 20
13.1062318162
 11
7.2193820886
 21
13.1048519575
  0
LINE
  5
2AF
100
AcDbEntity
  8
0
100
AcDbLine
 62
7
  6
CONTINUOUS
 10
12.2941457857
 20
4.6651026201
 11
12.1858926102
 21
4.8526026201
  0
LWPOLYLINE
  5
2B0
100
AcDbEntity
  8
0
100
AcDbPolyline
 62
7
  6
CONTINUOUS
 90
17
 70
0
 10
7.2373727932
 20
13.0855850776
 10
7.2373464731
 20
13.0856334916
 10
7.2373528117
 20
13.0856208273
 10
7.2374058051
 20
13.0855108183
 10
7.2375082529
 20
13.0852792167
 10
7.2376565899
 20
13.0849021572
 10
7.2378372133
 20
13.0843619003
 10
7.2380253529
 20
13.0836518761
 10
7.238187487
 20
13.0827864536
 10
7.2382893272
 20
13.0817715025
 10
7.238294363
 20
13.0806025549
 10
7.238157886
 20
13.079289731
 10
7.2378398161
 20
13.0778828343
 10
7.2373173999
 20
13.0764496644
 10
7.2365816377
 20
13.0750463685
 10
7.2356312103
 20
13.0737139119
 10
7.2348764922
 20
13.072884064
  0
LINE
  5
2B1
100
AcDbEntity
  8
0
100
AcDbLine
 62
7
  6
CONTINUOUS
 10
10.7112831212
 20
14.6300425519
 11
10.7112285403
 21
14.6292880247
  0
LINE
  5
2B2
100
AcDbEntity
  8
0
100
AcDbLine
 62
7
  6
CONTINUOUS
 10
10.7625427389
 20
14.6812956513
 11
10.7624887045
 21
14.6805481889
  0
LINE
  5
2B3
100
AcDbEntity
  8
0
100
AcDbLine
 62
7
  6
CONTINUOUS
 10
10.8138258133
 20
14.7325799407
 11
10.8137716774
 21
14.7318311618
  0
LINE
  5
2B4
100
AcDbEntity
  8
0
100
AcDbLine
 62
7
  6
CONTINUOUS
 10
7.2187578475
 20
13.1058541667
 11
7.2186989917
 21
13.1059319006
  0
LWPOLYLINE
  5
2B5
100
AcDbEntity
  8
0
100
AcDbPolyline
 62
7
  6
CONTINUOUS
 90
14
 70
0
 10
8.3612898519
 20
11.9346682057
 10
8.3612684599
 20
11.9347016283
 10
8.361290888
 20
11.9346624387
 10
8.3614056533
 20
11.9344421585
 10
8.3615950353
 20
11.9340173326
 10
8.3618210743
 20
11.9333916325
 10
8.3620419379
 20
11.9325703875
 10
8.362217281
 20
11.9315304084
 10
8.362287675
 20
11.9302247416
 10
8.3621639577
 20
11.9286613368
 10
8.3617578679
 20
11.926926583
 10
8.3610310481
 20
11.9251782336
 10
8.3599970296
 20
11.9235404099
 10
8.3589788268
 20
11.922373102
  0
LINE
  5
2B6
100
AcDbEntity
  8
0
100
AcDbLine
 62
7
  6
CONTINUOUS
 10
7.4161902953
 20
12.6710424927
 11
7.5689008299
 21
12.518331958
  0
LINE
  5
2B7
100
AcDbEntity
  8
0
100
AcDbLine
 62
7
  6
CONTINUOUS
 10
7.5947231698
 20
12.4925096181
 11
7.7474387171
 21
12.3397940709
  0
LINE
  5
2B8
100
AcDbEntity
  8
0
100
AcDbLine
 62
7
  6
CONTINUOUS
 10
7.8472103396
 20
12.2400224483
 11
7.9999258612
 21
12.0873069268
  0
LINE
  5
2B9
100
AcDbEntity
  8
0
100
AcDbLine
 62
7
  6
CONTINUOUS
 10
8.0257481118
 20
12.0614846761
 11
8.1784588507
 21
11.9087739373
  0
LINE
  5
2BA
100
AcDbEntity
  8
0
100
AcDbLine
 62
9
  6
CONTINUOUS
 10
8.0138456359
 20
12.0815400811
 11
7.8414434939
 21
12.253942223
  0
LINE
  5
2BB
100
AcDbEntity
  8
0
100
AcDbLine
 62
9
  6
CONTINUOUS
 10
7.7613584789
 20
12.334027238
 11
7.588956337
 21
12.5064293799
  0
LINE
  5
2BC
100
AcDbEntity
  8
0
100
AcDbLine
 62
9
  6
CONTINUOUS
 10
7.582823098
 20
12.5125626189
 11
7.4104209561
 21
12.6849647608
  0
LINE
  5
2BD
100
AcDbEntity
  8
0
100
AcDbLine
 62
9
  6
CONTINUOUS
 10
7.768318394
 20
12.334027238
 11
7.8414434939
 21
12.2609021381
  0
LINE
  5
2BE
100
AcDbEntity
  8
0
100
AcDbLine
 62
9
  6
CONTINUOUS
 10
8.2039122916
 20
11.9030047002
 11
7.8414434939
 21
12.2654735003
  0
LINE
  5
2BF
100
AcDbEntity
  8
0
100
AcDbLine
 62
9
  6
CONTINUOUS
 10
7.7728897538
 20
12.334027238
 11
7.4104209561
 21
12.6964960381
  0
LINE
  5
2C0
100
AcDbEntity
  8
0
100
AcDbLine
 62
7
  6
CONTINUOUS
 10
7.3562352908
 20
12.7588363468
 11
8.2662526027
 21
11.8488190349
  0
LINE
  5
2C1
100
AcDbEntity
  8
0
100
AcDbLine
 62
9
  6
CONTINUOUS
 10
8.2884914077
 20
11.8448975889
 11
7.3523138448
 21
12.7810751518
  0
LINE
  5
2C2
100
AcDbEntity
  8
0
100
AcDbLine
 62
7
  6
CONTINUOUS
 10
7.198684206
 20
13.0372708468
 11
7.3364664685
 21
12.8994885844
  0
LINE
  5
2C3
100
AcDbEntity
  8
0
100
AcDbLine
 62
7
  6
CONTINUOUS
 10
7.3822649631
 20
12.8536900897
 11
7.3849313772
 21
12.8510236757
  0
LINE
  5
2C4
100
AcDbEntity
  8
0
100
AcDbLine
 62
7
  6
CONTINUOUS
 10
7.6357874705
 20
12.6001675824
 11
7.7012475936
 21
12.5347074593
  0
LINE
  5
2C5
100
AcDbEntity
  8
0
100
AcDbLine
 62
7
  6
CONTINUOUS
 10
7.7887183491
 20
12.4472367037
 11
7.854179255
 21
12.3817757978
  0
LINE
  5
2C6
100
AcDbEntity
  8
0
100
AcDbLine
 62
7
  6
CONTINUOUS
 10
7.9446340048
 20
12.291321048
 11
8.0100951362
 21
12.2258599166
  0
LINE
  5
2C7
100
AcDbEntity
  8
0
100
AcDbLine
 62
7
  6
CONTINUOUS
 10
8.4305101494
 20
11.8054449034
 11
8.5376836289
 21
11.6982714239
  0
LINE
  5
2C8
100
AcDbEntity
  8
0
100
AcDbLine
 62
7
  6
CONTINUOUS
 10
8.4256879545
 20
11.8102670984
 11
8.3536600884
 21
11.8822949644
  0
LINE
  5
2C9
100
AcDbEntity
  8
0
100
AcDbLine
 62
9
  6
CONTINUOUS
 10
7.3788054934
 20
12.8620417934
 11
7.3864871804
 21
12.8543601064
  0
LINE
  5
2CA
100
AcDbEntity
  8
0
100
AcDbLine
 62
9
  6
CONTINUOUS
 10
8.0184473091
 20
12.2223999778
 11
7.941174066
 21
12.2996732209
  0
LINE
  5
2CB
100
AcDbEntity
  8
0
100
AcDbLine
 62
9
  6
CONTINUOUS
 10
7.8625315406
 20
12.3783157462
 11
7.7852582975
 21
12.4555889893
  0
LINE
  5
2CC
100
AcDbEntity
  8
0
100
AcDbLine
 62
9
  6
CONTINUOUS
 10
7.7096002712
 20
12.5312470163
 11
7.6323270275
 21
12.60852026
  0
LINE
  5
2CD
100
AcDbEntity
  8
0
100
AcDbLine
 62
9
  6
CONTINUOUS
 10
7.3448210847
 20
12.8960262021
 11
7.1952259882
 21
13.0456213449
  0
LINE
  5
2CE
100
AcDbEntity
  8
0
100
AcDbLine
 62
9
  6
CONTINUOUS
 10
7.38737797
 20
12.8562704109
 11
7.6323270275
 21
12.6113213531
  0
LINE
  5
2CF
100
AcDbEntity
  8
0
100
AcDbLine
 62
9
  6
CONTINUOUS
 10
7.7124013643
 20
12.5312470163
 11
7.7852582975
 21
12.4583900831
  0
LINE
  5
2D0
100
AcDbEntity
  8
0
100
AcDbLine
 62
9
  6
CONTINUOUS
 10
7.8653326344
 20
12.3783157462
 11
7.941174066
 21
12.3024743146
  0
LINE
  5
2D1
100
AcDbEntity
  8
0
100
AcDbLine
 62
9
  6
CONTINUOUS
 10
8.0212484028
 20
12.2223999778
 11
8.3501995064
 21
11.8934488767
  0
LINE
  5
2D2
100
AcDbEntity
  8
0
100
AcDbLine
 62
9
  6
CONTINUOUS
 10
7.3788054934
 20
12.8800960611
 11
7.3907414271
 21
12.8681601274
  0
LINE
  5
2D3
100
AcDbEntity
  8
0
100
AcDbLine
 62
9
  6
CONTINUOUS
 10
8.5640831308
 20
11.6948184237
 11
8.3501995064
 21
11.9087020481
  0
LINE
  5
2D4
100
AcDbEntity
  8
0
100
AcDbLine
 62
9
  6
CONTINUOUS
 10
8.0365015767
 20
12.2223999778
 11
7.941174066
 21
12.3177274885
  0
LINE
  5
2D5
100
AcDbEntity
  8
0
100
AcDbLine
 62
9
  6
CONTINUOUS
 10
7.8805858083
 20
12.3783157462
 11
7.7852582975
 21
12.473643257
  0
LINE
  5
2D6
100
AcDbEntity
  8
0
100
AcDbLine
 62
9
  6
CONTINUOUS
 10
7.7276545381
 20
12.5312470163
 11
7.6323270275
 21
12.6265745269
  0
LINE
  5
2D7
100
AcDbEntity
  8
0
100
AcDbLine
 62
9
  6
CONTINUOUS
 10
7.3628753524
 20
12.8960262021
 11
7.1952259882
 21
13.0636755663
  0
LINE
  5
2D8
100
AcDbEntity
  8
0
100
AcDbLine
 62
9
  6
CONTINUOUS
 10
8.5724348476
 20
11.6982777924
 11
8.3536588751
 21
11.9170537648
  0
LINE
  5
2D9
100
AcDbEntity
  8
0
100
AcDbLine
 62
9
  6
CONTINUOUS
 10
8.0448532935
 20
12.2258593465
 11
7.9446334347
 21
12.3260792053
  0
LINE
  5
2DA
100
AcDbEntity
  8
0
100
AcDbLine
 62
9
  6
CONTINUOUS
 10
7.888937525
 20
12.381775115
 11
7.7887176662
 21
12.4819949737
  0
LINE
  5
2DB
100
AcDbEntity
  8
0
100
AcDbLine
 62
9
  6
CONTINUOUS
 10
7.736006255
 20
12.534706385
 11
7.6357863962
 21
12.6349262438
  0
LINE
  5
2DC
100
AcDbEntity
  8
0
100
AcDbLine
 62
9
  6
CONTINUOUS
 10
7.3902815794
 20
12.8804310606
 11
7.3822648621
 21
12.8884477778
  0
LINE
  5
2DD
100
AcDbEntity
  8
0
100
AcDbLine
 62
9
  6
CONTINUOUS
 10
7.3712270691
 20
12.8994855708
 11
7.198685357
 21
13.072027283
  0
LINE
  5
2DE
100
AcDbEntity
  8
0
100
AcDbLine
 62
7
  6
CONTINUOUS
 10
7.3822025105
 20
12.8977965563
 11
7.6404296097
 21
12.6395694572
  0
LINE
  5
2DF
100
AcDbEntity
  8
0
100
AcDbLine
 62
7
  6
CONTINUOUS
 10
7.7406494684
 20
12.5393495985
 11
7.7933608797
 21
12.4866381872
  0
LINE
  5
2E0
100
AcDbEntity
  8
0
100
AcDbLine
 62
7
  6
CONTINUOUS
 10
7.8935807384
 20
12.3864183284
 11
7.9492766482
 21
12.3307224187
  0
LINE
  5
2E1
100
AcDbEntity
  8
0
100
AcDbLine
 62
7
  6
CONTINUOUS
 10
8.0494965069
 20
12.2305025599
 11
8.3583020886
 21
11.9216969783
  0
LINE
  5
2E2
100
AcDbEntity
  8
0
100
AcDbLine
 62
7
  6
CONTINUOUS
 10
7.1100008231
 20
13.2617604433
 11
8.7691766992
 21
11.6025845672
  0
LINE
  5
2E3
100
AcDbEntity
  8
0
100
AcDbLine
 62
7
  6
CONTINUOUS
 10
8.8429229021
 20
11.550535464
 11
7.0579517199
 21
13.3355066462
  0
LINE
  5
2E4
100
AcDbEntity
  8
0
100
AcDbLine
 62
7
  6
CONTINUOUS
 10
6.9423836358
 20
13.4582377865
 11
7.0032452603
 21
13.397376162
  0
LINE
  5
2E5
100
AcDbEntity
  8
0
100
AcDbLine
 62
7
  6
CONTINUOUS
 10
7.0092588106
 20
13.3913626118
 11
7.0701051117
 21
13.3305163106
  0
LINE
  5
2E6
100
AcDbEntity
  8
0
100
AcDbLine
 62
7
  6
CONTINUOUS
 10
7.1384363639
 20
13.2621850584
 11
7.1992835602
 21
13.2013378622
  0
LINE
  5
2E7
100
AcDbEntity
  8
0
100
AcDbLine
 62
7
  6
CONTINUOUS
 10
7.3211209913
 20
13.079500431
 11
7.3819694944
 21
13.0186519279
  0
LINE
  5
2E8
100
AcDbEntity
  8
0
100
AcDbLine
 62
7
  6
CONTINUOUS
 10
7.5448643757
 20
12.8557570466
 11
7.6057118316
 21
12.7949095907
  0
LINE
  5
2E9
100
AcDbEntity
  8
0
100
AcDbLine
 62
7
  6
CONTINUOUS
 10
7.7944166816
 20
12.6062047407
 11
7.8552649948
 21
12.5453564276
  0
LINE
  5
2EA
100
AcDbEntity
  8
0
100
AcDbLine
 62
7
  6
CONTINUOUS
 10
8.052772684
 20
12.3478487383
 11
8.113620996
 21
12.2870004263
  0
LINE
  5
2EB
100
AcDbEntity
  8
0
100
AcDbLine
 62
7
  6
CONTINUOUS
 10
8.3023258609
 20
12.0982955615
 11
8.3631732882
 21
12.0374481341
  0
LINE
  5
2EC
100
AcDbEntity
  8
0
100
AcDbLine
 62
7
  6
CONTINUOUS
 10
8.5260681281
 20
11.8745532942
 11
8.5869167426
 21
11.8137046798
  0
LINE
  5
2ED
100
AcDbEntity
  8
0
100
AcDbLine
 62
7
  6
CONTINUOUS
 10
8.7087540101
 20
11.6918674122
 11
8.7696014222
 21
11.6310200001
  0
LINE
  5
2EE
100
AcDbEntity
  8
0
100
AcDbLine
 62
7
  6
CONTINUOUS
 10
8.8379325691
 20
11.5626888532
 11
8.8987788651
 21
11.5018425572
  0
LINE
  5
2EF
100
AcDbEntity
  8
0
100
AcDbLine
 62
7
  6
CONTINUOUS
 10
8.9047922991
 20
11.4958291232
 11
8.9656539236
 21
11.4349674987
  0
LINE
  5
2F0
100
AcDbEntity
  8
0
100
AcDbLine
 62
9
  6
CONTINUOUS
 10
8.8332995086
 20
11.5701497077
 11
8.7770617186
 21
11.6263874977
  0
LINE
  5
2F1
100
AcDbEntity
  8
0
100
AcDbLine
 62
9
  6
CONTINUOUS
 10
8.7041215077
 20
11.6993277086
 11
8.5943764378
 21
11.8090727785
  0
LINE
  5
2F2
100
AcDbEntity
  8
0
100
AcDbLine
 62
9
  6
CONTINUOUS
 10
8.5214362269
 20
11.8820129894
 11
8.370633577
 21
12.0328156393
  0
LINE
  5
2F3
100
AcDbEntity
  8
0
100
AcDbLine
 62
9
  6
CONTINUOUS
 10
8.2976933661
 20
12.1057558502
 11
8.1210808425
 21
12.2823683739
  0
LINE
  5
2F4
100
AcDbEntity
  8
0
100
AcDbLine
 62
9
  6
CONTINUOUS
 10
8.0481406316
 20
12.3553085847
 11
7.8627248406
 21
12.5407243757
  0
LINE
  5
2F5
100
AcDbEntity
  8
0
100
AcDbLine
 62
9
  6
CONTINUOUS
 10
7.7897846298
 20
12.6136645866
 11
7.6131721061
 21
12.7902771102
  0
LINE
  5
2F6
100
AcDbEntity
  8
0
100
AcDbLine
 62
9
  6
CONTINUOUS
 10
7.5402318952
 20
12.8632173211
 11
7.3894292453
 21
13.014019971
  0
LINE
  5
2F7
100
AcDbEntity
  8
0
100
AcDbLine
 62
9
  6
CONTINUOUS
 10
7.3164890344
 20
13.0869601819
 11
7.2067439645
 21
13.1967052518
  0
LINE
  5
2F8
100
AcDbEntity
  8
0
100
AcDbLine
 62
9
  6
CONTINUOUS
 10
7.1338037536
 20
13.2696454627
 11
7.0775659636
 21
13.3258832527
  0
LINE
  5
2F9
100
AcDbEntity
  8
0
100
AcDbLine
 62
9
  6
CONTINUOUS
 10
8.783521575
 20
11.6252532016
 11
8.7029872116
 21
11.705787565
  0
LINE
  5
2FA
100
AcDbEntity
  8
0
100
AcDbLine
 62
9
  6
CONTINUOUS
 10
8.6008362942
 20
11.8079384824
 11
8.5203019308
 21
11.8884728458
  0
LINE
  5
2FB
100
AcDbEntity
  8
0
100
AcDbLine
 62
9
  6
CONTINUOUS
 10
8.3770934334
 20
12.0316813432
 11
8.29655907
 21
12.1122157066
  0
LINE
  5
2FC
100
AcDbEntity
  8
0
100
AcDbLine
 62
9
  6
CONTINUOUS
 10
8.1275406989
 20
12.2812340778
 11
8.0470063355
 21
12.3617684411
  0
LINE
  5
2FD
100
AcDbEntity
  8
0
100
AcDbLine
 62
9
  6
CONTINUOUS
 10
7.869184697
 20
12.5395900796
 11
7.7886503337
 21
12.620124443
  0
LINE
  5
2FE
100
AcDbEntity
  8
0
100
AcDbLine
 62
9
  6
CONTINUOUS
 10
7.6196319625
 20
12.7891428141
 11
7.5390975991
 21
12.8696771775
  0
LINE
  5
2FF
100
AcDbEntity
  8
0
100
AcDbLine
 62
9
  6
CONTINUOUS
 10
7.3958891017
 20
13.0128856749
 11
7.3153547383
 21
13.0934200383
  0
LINE
  5
300
100
AcDbEntity
  8
0
100
AcDbLine
 62
9
  6
CONTINUOUS
 10
7.2132038209
 20
13.1955709557
 11
7.1326694575
 21
13.2761053191
  0
LINE
  5
301
100
AcDbEntity
  8
0
100
AcDbLine
 62
9
  6
CONTINUOUS
 10
7.08402582
 20
13.3247489566
 11
6.9366240029
 21
13.4721507737
  0
LINE
  5
302
100
AcDbEntity
  8
0
100
AcDbLine
 62
9
  6
CONTINUOUS
 10
8.7950528462
 20
11.6252532016
 11
8.7029872116
 21
11.7173188361
  0
LINE
  5
303
100
AcDbEntity
  8
0
100
AcDbLine
 62
9
  6
CONTINUOUS
 10
8.3886247045
 20
12.0316813432
 11
8.29655907
 21
12.1237469778
  0
LINE
  5
304
100
AcDbEntity
  8
0
100
AcDbLine
 62
9
  6
CONTINUOUS
 10
7.8807159682
 20
12.5395900796
 11
7.7886503337
 21
12.6316557141
  0
LINE
  5
305
100
AcDbEntity
  8
0
100
AcDbLine
 62
9
  6
CONTINUOUS
 10
7.4074203729
 20
13.0128856749
 11
7.3153547383
 21
13.1049513094
  0
LINE
  5
306
100
AcDbEntity
  8
0
100
AcDbLine
 62
9
  6
CONTINUOUS
 10
7.224735092
 20
13.1955709557
 11
7.1421819854
 21
13.2781240623
  0
LINE
  5
307
100
AcDbEntity
  8
0
100
AcDbLine
 62
9
  6
CONTINUOUS
 10
7.0955570911
 20
13.3247489566
 11
6.9366240029
 21
13.4836820157
  0
LINE
  5
308
100
AcDbEntity
  8
0
100
AcDbLine
 62
9
  6
CONTINUOUS
 10
8.9910983008
 20
11.429207747
 11
8.8321652125
 21
11.5881408352
  0
LINE
  5
309
100
AcDbEntity
  8
0
100
AcDbLine
 62
9
  6
CONTINUOUS
 10
8.6123675653
 20
11.8079384824
 11
8.5203019308
 21
11.900004117
  0
LINE
  5
30A
100
AcDbEntity
  8
0
100
AcDbLine
 62
9
  6
CONTINUOUS
 10
8.1390719699
 20
12.2812340778
 11
8.0470063355
 21
12.3732997122
  0
LINE
  5
30B
100
AcDbEntity
  8
0
100
AcDbLine
 62
9
  6
CONTINUOUS
 10
7.6311632337
 20
12.7891428141
 11
7.5390975991
 21
12.8812084486
  0
LINE
  5
30C
100
AcDbEntity
  8
0
100
AcDbLine
 62
9
  6
CONTINUOUS
 10
7.1421820282
 20
13.2781244335
 11
7.1326694575
 21
13.2876365903
  0
LINE
  5
30D
100
AcDbEntity
  8
0
100
AcDbLine
 62
9
  6
CONTINUOUS
 10
8.8343120265
 20
11.5969891696
 11
8.8039011806
 21
11.6274000155
  0
LINE
  5
30E
100
AcDbEntity
  8
0
100
AcDbLine
 62
9
  6
CONTINUOUS
 10
8.7051340255
 20
11.7261671705
 11
8.6212158997
 21
11.8100852963
  0
LINE
  5
30F
100
AcDbEntity
  8
0
100
AcDbLine
 62
9
  6
CONTINUOUS
 10
8.5224487447
 20
11.9088524514
 11
8.3974730389
 21
12.0338281571
  0
LINE
  5
310
100
AcDbEntity
  8
0
100
AcDbLine
 62
9
  6
CONTINUOUS
 10
8.2987058839
 20
12.1325953122
 11
8.1479203044
 21
12.2833808917
  0
LINE
  5
311
100
AcDbEntity
  8
0
100
AcDbLine
 62
9
  6
CONTINUOUS
 10
8.0491531494
 20
12.3821480467
 11
7.8895643026
 21
12.5417368935
  0
LINE
  5
312
100
AcDbEntity
  8
0
100
AcDbLine
 62
9
  6
CONTINUOUS
 10
7.7907971476
 20
12.6405040485
 11
7.6400115681
 21
12.791289628
  0
LINE
  5
313
100
AcDbEntity
  8
0
100
AcDbLine
 62
9
  6
CONTINUOUS
 10
7.541244413
 20
12.890056783
 11
7.4162687073
 21
13.0150324888
  0
LINE
  5
314
100
AcDbEntity
  8
0
100
AcDbLine
 62
9
  6
CONTINUOUS
 10
7.3175015522
 20
13.1137996438
 11
7.2335834264
 21
13.1977177697
  0
LINE
  5
315
100
AcDbEntity
  8
0
100
AcDbLine
 62
9
  6
CONTINUOUS
 10
7.1348162714
 20
13.2964849247
 11
7.1044054255
 21
13.3268957706
  0
LINE
  5
316
100
AcDbEntity
  8
0
100
AcDbLine
 62
9
  6
CONTINUOUS
 10
9.0050181395
 20
11.4349733615
 11
8.938181172
 21
11.501810329
  0
LINE
  5
317
100
AcDbEntity
  8
0
100
AcDbLine
 62
9
  6
CONTINUOUS
 10
8.9381506858
 20
11.5018408152
 11
8.8379308271
 21
11.602060674
  0
LINE
  5
318
100
AcDbEntity
  8
0
100
AcDbLine
 62
9
  6
CONTINUOUS
 10
8.8089726849
 20
11.6310188161
 11
8.7087528262
 21
11.7312386749
  0
LINE
  5
319
100
AcDbEntity
  8
0
100
AcDbLine
 62
9
  6
CONTINUOUS
 10
8.6262874041
 20
11.813704097
 11
8.5260675453
 21
11.9139239557
  0
LINE
  5
31A
100
AcDbEntity
  8
0
100
AcDbLine
 62
9
  6
CONTINUOUS
 10
8.4025445433
 20
12.0374469578
 11
8.3023246845
 21
12.1376668165
  0
LINE
  5
31B
100
AcDbEntity
  8
0
100
AcDbLine
 62
9
  6
CONTINUOUS
 10
8.1529918088
 20
12.2869996923
 11
8.05277195
 21
12.387219551
  0
LINE
  5
31C
100
AcDbEntity
  8
0
100
AcDbLine
 62
9
  6
CONTINUOUS
 10
7.8946358069
 20
12.5453556941
 11
7.7944159482
 21
12.6455755529
  0
LINE
  5
31D
100
AcDbEntity
  8
0
100
AcDbLine
 62
9
  6
CONTINUOUS
 10
7.6450830724
 20
12.7949084286
 11
7.5448632137
 21
12.8951282874
  0
LINE
  5
31E
100
AcDbEntity
  8
0
100
AcDbLine
 62
9
  6
CONTINUOUS
 10
7.4213402116
 20
13.0186512894
 11
7.3211203529
 21
13.1188711482
  0
LINE
  5
31F
100
AcDbEntity
  8
0
100
AcDbLine
 62
9
  6
CONTINUOUS
 10
7.2386549308
 20
13.2013365703
 11
7.138435072
 21
13.301556429
  0
LINE
  5
320
100
AcDbEntity
  8
0
100
AcDbLine
 62
9
  6
CONTINUOUS
 10
7.1094769299
 20
13.3305145712
 11
6.9423896174
 21
13.4976018836
  0
LINE
  5
321
100
AcDbEntity
  8
0
100
AcDbLine
 62
7
  6
CONTINUOUS
 10
7.2467872915
 20
13.209468931
 11
7.3292527136
 21
13.1270035089
  0
LINE
  5
322
100
AcDbEntity
  8
0
100
AcDbLine
 62
7
  6
CONTINUOUS
 10
7.4294725724
 20
13.0267836502
 11
7.5529955744
 21
12.9032606481
  0
LINE
  5
323
100
AcDbEntity
  8
0
100
AcDbLine
 62
7
  6
CONTINUOUS
 10
7.6532154332
 20
12.8030407894
 11
7.8025483089
 21
12.6537079136
  0
LINE
  5
324
100
AcDbEntity
  8
0
100
AcDbLine
 62
7
  6
CONTINUOUS
 10
7.9027681677
 20
12.5534880548
 11
8.0609043107
 21
12.3953519118
  0
LINE
  5
325
100
AcDbEntity
  8
0
100
AcDbLine
 62
7
  6
CONTINUOUS
 10
8.1611241695
 20
12.295132053
 11
8.3104570453
 21
12.1457991773
  0
LINE
  5
326
100
AcDbEntity
  8
0
100
AcDbLine
 62
7
  6
CONTINUOUS
 10
8.410676904
 20
12.0455793185
 11
8.5341999061
 21
11.9220563165
  0
LINE
  5
327
100
AcDbEntity
  8
0
100
AcDbLine
 62
7
  6
CONTINUOUS
 10
8.6344197648
 20
11.8218364577
 11
8.7168851869
 21
11.7393710356
  0
LINE
  5
328
100
AcDbEntity
  8
0
100
AcDbLine
 62
7
  6
CONTINUOUS
 10
8.8171050457
 20
11.6391511769
 11
8.8460631878
 21
11.6101930347
  0
LINE
  5
329
100
AcDbEntity
  8
0
100
AcDbLine
 62
7
  6
CONTINUOUS
 10
7.1176092906
 20
13.3386469319
 11
7.1465674328
 21
13.3096887898
  0
LINE
  5
32A
100
AcDbEntity
  8
0
100
AcDbLine
 62
7
  6
CONTINUOUS
 10
6.8032279636
 20
13.6561500276
 11
6.9196765692
 21
13.539701422
  0
LINE
  5
32B
100
AcDbEntity
  8
0
100
AcDbLine
 62
7
  6
CONTINUOUS
 10
6.9561488792
 20
13.503229112
 11
7.0336949849
 21
13.4256830063
  0
LINE
  5
32C
100
AcDbEntity
  8
0
100
AcDbLine
 62
7
  6
CONTINUOUS
 10
7.1375341999
 20
13.3218437913
 11
7.2150868188
 21
13.2442911723
  0
LINE
  5
32D
100
AcDbEntity
  8
0
100
AcDbLine
 62
7
  6
CONTINUOUS
 10
7.3739248034
 20
13.0854531878
 11
7.4514766079
 21
13.0079013833
  0
LINE
  5
32E
100
AcDbEntity
  8
0
100
AcDbLine
 62
7
  6
CONTINUOUS
 10
7.6492075181
 20
12.8101704731
 11
7.7267583213
 21
12.7326196699
  0
LINE
  5
32F
100
AcDbEntity
  8
0
100
AcDbLine
 62
7
  6
CONTINUOUS
 10
7.9446219152
 20
12.514756076
 11
8.0221723319
 21
12.4372056593
  0
LINE
  5
330
100
AcDbEntity
  8
0
100
AcDbLine
 62
7
  6
CONTINUOUS
 10
8.2400358539
 20
12.2193421373
 11
8.3175868009
 21
12.1417911903
  0
LINE
  5
331
100
AcDbEntity
  8
0
100
AcDbLine
 62
7
  6
CONTINUOUS
 10
8.5153176432
 20
11.944060348
 11
8.5928694397
 21
11.8665085515
  0
LINE
  5
332
100
AcDbEntity
  8
0
100
AcDbLine
 62
7
  6
CONTINUOUS
 10
8.7517074105
 20
11.7076705807
 11
8.8292600649
 21
11.6301179263
  0
LINE
  5
333
100
AcDbEntity
  8
0
100
AcDbLine
 62
7
  6
CONTINUOUS
 10
8.9330991054
 20
11.5262788858
 11
9.0106455246
 21
11.4487324665
  0
LINE
  5
334
100
AcDbEntity
  8
0
100
AcDbLine
 62
7
  6
CONTINUOUS
 10
9.0471178497
 20
11.4122601414
 11
9.1246780334
 21
11.3346999578
  0
LINE
  5
335
100
AcDbEntity
  8
0
100
AcDbLine
 62
9
  6
CONTINUOUS
 10
9.1385935185
 20
11.3289378902
 11
9.0413557821
 21
11.4261756265
  0
LINE
  5
336
100
AcDbEntity
  8
0
100
AcDbLine
 62
9
  6
CONTINUOUS
 10
9.0245678919
 20
11.4429635167
 11
8.9273301556
 21
11.5402012531
  0
LINE
  5
337
100
AcDbEntity
  8
0
100
AcDbLine
 62
9
  6
CONTINUOUS
 10
8.8431793146
 20
11.624352094
 11
8.7459415783
 21
11.7215898304
  0
LINE
  5
338
100
AcDbEntity
  8
0
100
AcDbLine
 62
9
  6
CONTINUOUS
 10
8.6067891183
 20
11.8607422903
 11
8.509551382
 21
11.9579800267
  0
LINE
  5
339
100
AcDbEntity
  8
0
100
AcDbLine
 62
9
  6
CONTINUOUS
 10
8.3315069043
 20
12.1360245043
 11
8.2342691679
 21
12.2332622407
  0
LINE
  5
33A
100
AcDbEntity
  8
0
100
AcDbLine
 62
9
  6
CONTINUOUS
 10
8.0360927005
 20
12.4314387082
 11
7.9388549641
 21
12.5286764446
  0
LINE
  5
33B
100
AcDbEntity
  8
0
100
AcDbLine
 62
9
  6
CONTINUOUS
 10
7.7406784966
 20
12.726852912
 11
7.6434407602
 21
12.8240906484
  0
LINE
  5
33C
100
AcDbEntity
  8
0
100
AcDbLine
 62
9
  6
CONTINUOUS
 10
7.4653962826
 20
13.0021351261
 11
7.3681585462
 21
13.0993728624
  0
LINE
  5
33D
100
AcDbEntity
  8
0
100
AcDbLine
 62
9
  6
CONTINUOUS
 10
7.2290060863
 20
13.2385253224
 11
7.1317683499
 21
13.3357630587
  0
LINE
  5
33E
100
AcDbEntity
  8
0
100
AcDbLine
 62
9
  6
CONTINUOUS
 10
7.047617509
 20
13.4199138997
 11
6.9503797726
 21
13.517151636
  0
LINE
  5
33F
100
AcDbEntity
  8
0
100
AcDbLine
 62
9
  6
CONTINUOUS
 10
6.9335918824
 20
13.5339395262
 11
6.7974621283
 21
13.6700693169
  0
LINE
  5
340
100
AcDbEntity
  8
0
100
AcDbLine
 62
9
  6
CONTINUOUS
 10
7.2405368634
 20
13.2385253224
 11
7.1476971299
 21
13.3313650558
  0
LINE
  5
341
100
AcDbEntity
  8
0
100
AcDbLine
 62
9
  6
CONTINUOUS
 10
7.0591482861
 20
13.4199138997
 11
6.9576658814
 21
13.5213963043
  0
LINE
  5
342
100
AcDbEntity
  8
0
100
AcDbLine
 62
9
  6
CONTINUOUS
 10
6.7974621283
 20
13.6816005507
 11
6.9451226596
 21
13.5339395262
  0
LINE
  5
343
100
AcDbEntity
  8
0
100
AcDbLine
 62
9
  6
CONTINUOUS
 10
9.1501242956
 20
11.3289378902
 11
9.0413557821
 21
11.4377064037
  0
LINE
  5
344
100
AcDbEntity
  8
0
100
AcDbLine
 62
9
  6
CONTINUOUS
 10
9.0360986691
 20
11.4429635167
 11
8.9273301556
 21
11.5517320302
  0
LINE
  5
345
100
AcDbEntity
  8
0
100
AcDbLine
 62
9
  6
CONTINUOUS
 10
8.8547100917
 20
11.624352094
 11
8.7459415783
 21
11.7331206075
  0
LINE
  5
346
100
AcDbEntity
  8
0
100
AcDbLine
 62
9
  6
CONTINUOUS
 10
8.6183198955
 20
11.8607422903
 11
8.509551382
 21
11.9695108038
  0
LINE
  5
347
100
AcDbEntity
  8
0
100
AcDbLine
 62
9
  6
CONTINUOUS
 10
8.3430376814
 20
12.1360245043
 11
8.2342691679
 21
12.2447930178
  0
LINE
  5
348
100
AcDbEntity
  8
0
100
AcDbLine
 62
9
  6
CONTINUOUS
 10
8.0476234778
 20
12.4314387082
 11
7.9388549641
 21
12.5402072219
  0
LINE
  5
349
100
AcDbEntity
  8
0
100
AcDbLine
 62
9
  6
CONTINUOUS
 10
7.7522092737
 20
12.726852912
 11
7.6434407602
 21
12.8356214255
  0
LINE
  5
34A
100
AcDbEntity
  8
0
100
AcDbLine
 62
9
  6
CONTINUOUS
 10
7.4769270597
 20
13.0021351261
 11
7.3681585462
 21
13.1109036396
  0
LINE
  5
34B
100
AcDbEntity
  8
0
100
AcDbLine
 62
9
  6
CONTINUOUS
 10
7.1476972536
 20
13.3313657769
 11
7.1317683499
 21
13.3472938358
  0
LINE
  5
34C
100
AcDbEntity
  8
0
100
AcDbLine
 62
9
  6
CONTINUOUS
 10
6.957665938
 20
13.5213970925
 11
6.9503797726
 21
13.5286824132
  0
LINE
  5
34D
100
AcDbEntity
  8
0
100
AcDbLine
 62
9
  6
CONTINUOUS
 10
9.1640445652
 20
11.3347035047
 11
8.9330957701
 21
11.5656522998
  0
LINE
  5
34E
100
AcDbEntity
  8
0
100
AcDbLine
 62
9
  6
CONTINUOUS
 10
8.8686303613
 20
11.6301177086
 11
8.7517071928
 21
11.7470408771
  0
LINE
  5
34F
100
AcDbEntity
  8
0
100
AcDbLine
 62
9
  6
CONTINUOUS
 10
8.6322401651
 20
11.8665079048
 11
8.5153169965
 21
11.9834310734
  0
LINE
  5
350
100
AcDbEntity
  8
0
100
AcDbLine
 62
9
  6
CONTINUOUS
 10
8.356957951
 20
12.1417901189
 11
8.2400347825
 21
12.2587132874
  0
LINE
  5
351
100
AcDbEntity
  8
0
100
AcDbLine
 62
9
  6
CONTINUOUS
 10
8.0615437472
 20
12.4372043227
 11
7.9446205786
 21
12.5541274913
  0
LINE
  5
352
100
AcDbEntity
  8
0
100
AcDbLine
 62
9
  6
CONTINUOUS
 10
7.7661295433
 20
12.7326185266
 11
7.6492063748
 21
12.8495416951
  0
LINE
  5
353
100
AcDbEntity
  8
0
100
AcDbLine
 62
9
  6
CONTINUOUS
 10
7.4908473293
 20
13.0079007406
 11
7.3739241607
 21
13.1248239092
  0
LINE
  5
354
100
AcDbEntity
  8
0
100
AcDbLine
 62
9
  6
CONTINUOUS
 10
7.254457133
 20
13.2442909369
 11
7.1375339645
 21
13.3612141054
  0
LINE
  5
355
100
AcDbEntity
  8
0
100
AcDbLine
 62
9
  6
CONTINUOUS
 10
7.0730685557
 20
13.4256795142
 11
6.8032277429
 21
13.695520327
  0
LINE
  5
356
100
AcDbEntity
  8
0
100
AcDbLine
 62
7
  6
CONTINUOUS
 10
6.7790740576
 20
13.7690580905
 11
9.2749017674
 21
11.2732303807
  0
LINE
  5
357
100
AcDbEntity
  8
0
100
AcDbLine
 62
7
  6
CONTINUOUS
 10
6.7775254029
 20
13.7709512889
 11
9.2764606525
 21
11.2720160394
  0
LINE
  5
358
100
AcDbEntity
  8
0
100
AcDbLine
 62
7
  6
CONTINUOUS
 10
9.3695857623
 20
11.2076906498
 11
6.7151069057
 21
13.8621695064
  0
LINE
  5
359
100
AcDbEntity
  8
0
100
AcDbLine
 62
9
  6
CONTINUOUS
 10
9.4797221345
 20
11.1085234148
 11
6.6159396707
 21
13.9723058786
  0
LINE
  5
35A
100
AcDbEntity
  8
0
100
AcDbLine
 62
9
  6
CONTINUOUS
 10
8.0199788748
 20
12.0754068421
 11
8.1923810167
 21
11.9030047002
  0
LINE
  5
35B
100
AcDbEntity
  8
0
100
AcDbLine
 62
9
  6
CONTINUOUS
 10
8.3501995064
 20
11.8906477804
 11
8.5460288593
 21
11.6948184237
  0
LINE
  5
35C
100
AcDbEntity
  8
0
100
AcDbLine
 62
7
  6
CONTINUOUS
 10
8.756043639
 20
11.6061352536
 11
7.1135515095
 21
13.2486273831
  0
LINE
  5
35D
100
AcDbEntity
  8
0
100
AcDbLine
 62
9
  6
CONTINUOUS
 10
8.8321652125
 20
11.5766095641
 11
8.9795669999
 21
11.429207747
  0
LINE
  5
35E
100
AcDbEntity
  8
0
100
AcDbLine
 62
7
  6
CONTINUOUS
 10
9.2749017724
 20
11.2732303757
 11
9.2747747673
 21
11.2733602907
  0
LINE
  5
35F
100
AcDbEntity
  8
0
100
AcDbLine
 62
7
  6
CONTINUOUS
 10
6.6159396707
 20
13.9723058786
 11
6.7151069057
 21
13.8621695064
  0
LINE
  5
360
100
AcDbEntity
  8
0
100
AcDbLine
 62
7
  6
CONTINUOUS
 10
9.8297567196
 20
12.014534471
 11
9.9194481964
 21
11.7808801856
  0
LINE
  5
361
100
AcDbEntity
  8
0
100
AcDbLine
 62
7
  6
CONTINUOUS
 10
12.2130977469
 20
1.5906026201
 11
12.0596362969
 21
3.7526026201
  0
LINE
  5
362
100
AcDbEntity
  8
0
100
AcDbLine
 62
7
  6
CONTINUOUS
 10
12.2383842583
 20
1.5121484754
 11
12.1108926102
 21
3.7526026201
  0
LINE
  5
363
100
AcDbEntity
  8
0
100
AcDbLine
 62
7
  6
CONTINUOUS
 10
12.0298926102
 20
1.5906026201
 11
11.9358926102
 21
3.7526026201
  0
LINE
  5
364
100
AcDbEntity
  8
0
100
AcDbLine
 62
7
  6
CONTINUOUS
 10
12.080161672
 20
1.5906026201
 11
12.0596362969
 21
3.7526026201
  0
LINE
  5
365
100
AcDbEntity
  8
0
100
AcDbLine
 62
9
  6
CONTINUOUS
 10
11.647083317
 20
3.9574579636
 11
11.647083317
 21
4.7477472767
  0
LINE
  5
366
100
AcDbEntity
  8
0
100
AcDbLine
 62
7
  6
CONTINUOUS
 10
11.6858926102
 20
4.8526026201
 11
11.6858926102
 21
3.8526026201
  0
LINE
  5
367
100
AcDbEntity
  8
0
100
AcDbLine
 62
7
  6
CONTINUOUS
 10
11.7608926102
 20
3.7526026179
 11
11.7608926102
 21
3.8549220817
  0
LINE
  5
368
100
AcDbEntity
  8
0
100
AcDbLine
 62
7
  6
CONTINUOUS
 10
11.7916235484
 20
1.5906026201
 11
11.8121489235
 21
3.7526026201
  0
LINE
  5
369
100
AcDbEntity
  8
0
100
AcDbLine
 62
7
  6
CONTINUOUS
 10
11.6334009621
 20
1.5121484754
 11
11.7608926102
 21
3.7526026201
  0
LINE
  5
36A
100
AcDbEntity
  8
0
100
AcDbLine
 62
7
  6
CONTINUOUS
 10
9.4797221345
 20
11.1085234148
 11
9.3695857623
 21
11.2076906498
  0
LINE
  5
36B
100
AcDbEntity
  8
0
100
AcDbLine
 62
7
  6
CONTINUOUS
 10
9.6456509822
 20
11.0977644626
 11
6.6051807185
 21
14.1382347263
  0
LINE
  5
36C
100
AcDbEntity
  8
0
100
AcDbLine
 62
9
  6
CONTINUOUS
 10
6.6896082926
 20
14.1535715551
 11
9.660987811
 21
11.1821920367
  0
LINE
  5
36D
100
AcDbEntity
  8
0
100
AcDbLine
 62
9
  6
CONTINUOUS
 10
6.8126383913
 20
14.1368106577
 11
9.6442269136
 21
11.3052221354
  0
LINE
  5
36E
100
AcDbEntity
  8
0
100
AcDbLine
 62
9
  6
CONTINUOUS
 10
9.7730276058
 20
11.5715345136
 11
7.0789507695
 21
14.2656113499
  0
LINE
  5
36F
100
AcDbEntity
  8
0
100
AcDbLine
 62
9
  6
CONTINUOUS
 10
9.902462673
 20
11.7009695808
 11
7.2083858367
 21
14.3950464171
  0
LINE
  5
370
100
AcDbEntity
  8
0
100
AcDbLine
 62
7
  6
CONTINUOUS
 10
10.2895534361
 20
15.325133247
 11
10.282890745
 21
15.3499987488
  0
LINE
  5
371
100
AcDbEntity
  8
0
100
AcDbLine
 62
7
  6
CONTINUOUS
 10
10.1048988156
 20
15.1306892704
 11
10.1049371628
 21
15.1305458361
  0
LINE
  5
372
100
AcDbEntity
  8
0
100
AcDbLine
 62
7
  6
CONTINUOUS
 10
10.0963197982
 20
15.1627746623
 11
10.1048988156
 21
15.1306892704
  0
LINE
  5
373
100
AcDbEntity
  8
0
100
AcDbLine
 62
7
  6
CONTINUOUS
 10
10.154194217
 20
15.1824085747
 11
10.1542324064
 21
15.1822657296
  0
LINE
  5
374
100
AcDbEntity
  8
0
100
AcDbLine
 62
7
  6
CONTINUOUS
 10
10.1461280234
 20
15.2125763623
 11
10.154194217
 21
15.1824085747
  0
LINE
  5
375
100
AcDbEntity
  8
0
100
AcDbLine
 62
7
  6
CONTINUOUS
 10
10.2032138809
 20
15.2344103207
 11
10.2032518424
 21
15.2342683337
  0
LINE
  5
376
100
AcDbEntity
  8
0
100
AcDbLine
 62
7
  6
CONTINUOUS
 10
10.1957757646
 20
15.2622283714
 11
10.2032138809
 21
15.2344103207
  0
LINE
  5
377
100
AcDbEntity
  8
0
100
AcDbLine
 62
7
  6
CONTINUOUS
 10
10.2524580788
 20
15.2861863208
 11
10.2524958652
 21
15.2860449926
  0
LINE
  5
378
100
AcDbEntity
  8
0
100
AcDbLine
 62
7
  6
CONTINUOUS
 10
10.2455535089
 20
15.312008495
 11
10.2524580788
 21
15.2861863208
  0
LINE
  5
379
100
AcDbEntity
  8
0
100
AcDbLine
 62
7
  6
CONTINUOUS
 10
12.1108926102
 20
3.7526026177
 11
12.1108926102
 21
3.8549220817
  0
LINE
  5
37A
100
AcDbEntity
  8
0
100
AcDbLine
 62
7
  6
CONTINUOUS
 10
12.1858926102
 20
4.8526026201
 11
12.1858926102
 21
3.8526026201
  0
LINE
  5
37B
100
AcDbEntity
  8
0
100
AcDbLine
 62
7
  6
CONTINUOUS
 10
12.2941457857
 20
4.6651026201
 11
12.2941457857
 21
4.0401026201
  0
LINE
  5
37C
100
AcDbEntity
  8
0
100
AcDbLine
 62
9
  6
CONTINUOUS
 10
12.5848926102
 20
15.9463526201
 11
12.5848926102
 21
16.7588526201
  0
LINE
  5
37D
100
AcDbEntity
  8
0
100
AcDbLine
 62
7
  6
CONTINUOUS
 10
12.6858926102
 20
4.6651026201
 11
12.6858926102
 21
4.0401026201
  0
LINE
  5
37E
100
AcDbEntity
  8
0
100
AcDbLine
 62
7
  6
CONTINUOUS
 10
11.8418926102
 20
1.5906026201
 11
11.9358926102
 21
3.7526026201
  0
LINE
  5
37F
100
AcDbEntity
  8
0
100
AcDbLine
 62
7
  6
CONTINUOUS
 10
11.6586874735
 20
1.5906026201
 11
11.8121489235
 21
3.7526026201
  0
LINE
  5
380
100
AcDbEntity
  8
0
100
AcDbLine
 62
9
  6
CONTINUOUS
 10
9.9194481964
 20
11.7808801856
 11
7.2882964415
 21
14.4120319405
  0
LINE
  5
381
100
AcDbEntity
  8
0
100
AcDbLine
 62
9
  6
CONTINUOUS
 10
7.5219507269
 20
14.3223404637
 11
9.8297567196
 21
12.014534471
  0
LINE
  5
382
100
AcDbEntity
  8
0
100
AcDbLine
 62
9
  6
CONTINUOUS
 10
7.5432602215
 20
14.3268699366
 11
9.8342861925
 21
12.0358439656
  0
LINE
  5
383
100
AcDbEntity
  8
0
100
AcDbLine
 62
9
  6
CONTINUOUS
 10
9.8583196437
 20
12.0598774167
 11
7.5672936726
 21
14.3509033878
  0
LINE
  5
384
100
AcDbEntity
  8
0
100
AcDbLine
 62
9
  6
CONTINUOUS
 10
9.8610374085
 20
12.0847779796
 11
7.5921942355
 21
14.3536211526
  0
LINE
  5
385
100
AcDbEntity
  8
0
100
AcDbLine
 62
7
  6
CONTINUOUS
 10
10.6600074123
 20
14.5787616349
 11
10.651686665
 21
14.6098851497
  0
LINE
  5
386
100
AcDbEntity
  8
0
100
AcDbLine
 62
7
  6
CONTINUOUS
 10
10.7112831212
 20
14.6300425519
 11
10.7035237547
 21
14.6590664033
  0
LINE
  5
387
100
AcDbEntity
  8
0
100
AcDbLine
 62
7
  6
CONTINUOUS
 10
10.7625427389
 20
14.6812956513
 11
10.7553309649
 21
14.708270381
  0
LINE
  5
388
100
AcDbEntity
  8
0
100
AcDbLine
 62
7
  6
CONTINUOUS
 10
10.8138258133
 20
14.7325799407
 11
10.8071801154
 21
14.7574371595
  0
LINE
  5
389
100
AcDbEntity
  8
0
100
AcDbLine
 62
7
  6
CONTINUOUS
 10
12.7058926102
 20
4.7901026201
 11
12.7058926102
 21
3.9151026201
  0
LINE
  5
38A
100
AcDbEntity
  8
0
100
AcDbLine
 62
7
  6
CONTINUOUS
 10
12.8058926102
 20
4.8901026201
 11
12.8058926102
 21
3.8151026201
  0
LINE
  5
38B
100
AcDbEntity
  8
0
100
AcDbLine
 62
7
  6
CONTINUOUS
 10
12.8558926102
 20
4.9901026201
 11
12.8558926102
 21
3.7151026201
  0
LINE
  5
38C
100
AcDbEntity
  8
0
100
AcDbLine
 62
7
  6
CONTINUOUS
 10
9.1501242956
 20
11.3289378902
 11
9.1385935185
 21
11.3289378902
  0
LINE
  5
38D
100
AcDbEntity
  8
0
100
AcDbLine
 62
7
  6
CONTINUOUS
 10
8.9910983008
 20
11.429207747
 11
8.9795669999
 21
11.429207747
  0
LINE
  5
38E
100
AcDbEntity
  8
0
100
AcDbLine
 62
7
  6
CONTINUOUS
 10
9.0360986691
 20
11.4429635167
 11
9.0245678919
 21
11.4429635167
  0
LINE
  5
38F
100
AcDbEntity
  8
0
100
AcDbLine
 62
7
  6
CONTINUOUS
 10
8.9242308471
 20
11.4960752007
 11
8.9126995759
 21
11.4960752007
  0
LINE
  5
390
100
AcDbEntity
  8
0
100
AcDbLine
 62
7
  6
CONTINUOUS
 10
9.5904201471
 20
13.269831576
 11
8.7772478319
 21
14.0830038912
  0
LINE
  5
391
100
AcDbEntity
  8
0
100
AcDbLine
 62
7
  6
CONTINUOUS
 10
13.5058926102
 20
5.4026026201
 11
13.5058926102
 21
3.3026026201
  0
LINE
  5
392
100
AcDbEntity
  8
0
100
AcDbLine
 62
7
  6
CONTINUOUS
 10
13.6058926102
 20
3.2276026201
 11
13.6058926102
 21
5.4776026201
  0
LINE
  5
393
100
AcDbEntity
  8
0
100
AcDbLine
 62
9
  6
CONTINUOUS
 10
13.7503508929
 20
3.2171135117
 11
13.7503508929
 21
5.4880917286
  0
LINE
  5
394
100
AcDbEntity
  8
0
100
AcDbLine
 62
7
  6
CONTINUOUS
 10
8.8547100917
 20
11.624352094
 11
8.8431793146
 21
11.624352094
  0
LINE
  5
395
100
AcDbEntity
  8
0
100
AcDbLine
 62
7
  6
CONTINUOUS
 10
8.7950528462
 20
11.6252532016
 11
8.783521575
 21
11.6252532016
  0
LINE
  5
396
100
AcDbEntity
  8
0
100
AcDbLine
 62
7
  6
CONTINUOUS
 10
8.5640831308
 20
11.6948184237
 11
8.5460288593
 21
11.6948184237
  0
LINE
  5
397
100
AcDbEntity
  8
0
100
AcDbLine
 62
7
  6
CONTINUOUS
 10
8.5223767589
 20
11.7365247957
 11
8.5043224913
 21
11.7365247957
  0
LINE
  5
398
100
AcDbEntity
  8
0
100
AcDbLine
 62
7
  6
CONTINUOUS
 10
8.6123675653
 20
11.8079384824
 11
8.6008362942
 21
11.8079384824
  0
LINE
  5
399
100
AcDbEntity
  8
0
100
AcDbLine
 62
7
  6
CONTINUOUS
 10
8.4455270171
 20
11.8133745374
 11
8.4274727494
 21
11.8133745374
  0
LINE
  5
39A
100
AcDbEntity
  8
0
100
AcDbLine
 62
7
  6
CONTINUOUS
 10
8.6183198955
 20
11.8607422903
 11
8.6067891183
 21
11.8607422903
  0
LINE
  5
39B
100
AcDbEntity
  8
0
100
AcDbLine
 62
7
  6
CONTINUOUS
 10
8.2039122916
 20
11.9030047002
 11
8.1923810167
 21
11.9030047002
  0
LINE
  5
39C
100
AcDbEntity
  8
0
100
AcDbLine
 62
7
  6
CONTINUOUS
 10
8.3886247045
 20
12.0316813432
 11
8.3770934334
 21
12.0316813432
  0
LINE
  5
39D
100
AcDbEntity
  8
0
100
AcDbLine
 62
7
  6
CONTINUOUS
 10
8.0253769131
 20
12.0815400811
 11
8.0138456359
 21
12.0815400811
  0
LINE
  5
39E
100
AcDbEntity
  8
0
100
AcDbLine
 62
7
  6
CONTINUOUS
 10
8.3430376814
 20
12.1360245043
 11
8.3315069043
 21
12.1360245043
  0
LINE
  5
39F
100
AcDbEntity
  8
0
100
AcDbLine
 62
7
  6
CONTINUOUS
 10
8.0365015767
 20
12.2223999778
 11
8.0184473091
 21
12.2223999778
  0
LINE
  5
3A0
100
AcDbEntity
  8
0
100
AcDbLine
 62
7
  6
CONTINUOUS
 10
9.3235148569
 20
14.371122868
 11
9.2049294446
 21
14.4897082803
  0
LINE
  5
3A1
100
AcDbEntity
  8
0
100
AcDbLine
 62
7
  6
CONTINUOUS
 10
10.2551004769
 20
13.9345119949
 11
9.4419282508
 21
14.747684221
  0
LINE
  5
3A2
100
AcDbEntity
  8
0
100
AcDbLine
 62
7
  6
CONTINUOUS
 10
13.9808926102
 20
3.0901026201
 11
13.9808926102
 21
5.6151026201
  0
LINE
  5
3A3
100
AcDbEntity
  8
0
100
AcDbLine
 62
7
  6
CONTINUOUS
 10
14.0808926102
 20
7.1094413598
 11
14.0808926102
 21
1.5957638805
  0
LINE
  5
3A4
100
AcDbEntity
  8
0
100
AcDbLine
 62
9
  6
CONTINUOUS
 10
14.2068926102
 20
1.3786832503
 11
14.2068926102
 21
7.32652199
  0
LINE
  5
3A5
100
AcDbEntity
  8
0
100
AcDbLine
 62
7
  6
CONTINUOUS
 10
14.3328925821
 20
7.5434349722
 11
14.3328925821
 21
1.1624010007
  0
LINE
  5
3A6
100
AcDbEntity
  8
0
100
AcDbLine
 62
9
  6
CONTINUOUS
 10
14.3328925961
 20
1.1616864423
 11
14.3328925961
 21
7.543518798
  0
LINE
  5
3A7
100
AcDbEntity
  8
0
100
AcDbLine
 62
7
  6
CONTINUOUS
 10
14.4180355079
 20
16.7998175875
 11
14.4180355079
 21
15.9056174247
  0
LINE
  5
3A8
100
AcDbEntity
  8
0
100
AcDbLine
 62
9
  6
CONTINUOUS
 10
14.4182233165
 20
15.9020360496
 11
14.4182233165
 21
16.8031691907
  0
LINE
  5
3A9
100
AcDbEntity
  8
0
100
AcDbLine
 62
9
  6
CONTINUOUS
 10
14.4588953624
 20
0.9446816782
 11
14.4588953624
 21
7.7605235621
  0
LINE
  5
3AA
100
AcDbEntity
  8
0
100
AcDbLine
 62
9
  6
CONTINUOUS
 10
14.5545470859
 20
15.1992074077
 11
14.5545470859
 21
17.5059978326
  0
LINE
  5
3AB
100
AcDbEntity
  8
0
100
AcDbLine
 62
7
  6
CONTINUOUS
 10
14.5848926102
 20
7.9776026201
 11
14.5848926102
 21
0.7276026201
  0
LINE
  5
3AC
100
AcDbEntity
  8
0
100
AcDbLine
 62
7
  6
CONTINUOUS
 10
14.4180355079
 20
16.7998175875
 11
14.4182233165
 21
16.8031691907
  0
LINE
  5
3AD
100
AcDbEntity
  8
0
100
AcDbLine
 62
7
  6
CONTINUOUS
 10
12.2941457857
 20
4.0401026201
 11
12.1858926102
 21
3.8526026201
  0
LINE
  5
3AE
100
AcDbEntity
  8
0
100
AcDbLine
 62
7
  6
CONTINUOUS
 10
8.1390719699
 20
12.2812340778
 11
8.1275406989
 21
12.2812340778
  0
LINE
  5
3AF
100
AcDbEntity
  8
0
100
AcDbLine
 62
7
  6
CONTINUOUS
 10
7.7728897538
 20
12.334027238
 11
7.7613584789
 21
12.334027238
  0
LINE
  5
3B0
100
AcDbEntity
  8
0
100
AcDbLine
 62
7
  6
CONTINUOUS
 10
7.8805858083
 20
12.3783157462
 11
7.8625315406
 21
12.3783157462
  0
LINE
  5
3B1
100
AcDbEntity
  8
0
100
AcDbLine
 62
7
  6
CONTINUOUS
 10
8.0476234778
 20
12.4314387082
 11
8.0360927005
 21
12.4314387082
  0
LINE
  5
3B2
100
AcDbEntity
  8
0
100
AcDbLine
 62
7
  6
CONTINUOUS
 10
7.588956337
 20
12.5125626189
 11
7.582823098
 21
12.5125626189
  0
LINE
  5
3B3
100
AcDbEntity
  8
0
100
AcDbLine
 62
7
  6
CONTINUOUS
 10
7.7276545381
 20
12.5312470163
 11
7.7096002712
 21
12.5312470163
  0
LINE
  5
3B4
100
AcDbEntity
  8
0
100
AcDbLine
 62
7
  6
CONTINUOUS
 10
7.8807159682
 20
12.5395900796
 11
7.869184697
 21
12.5395900796
  0
LINE
  5
3B5
100
AcDbEntity
  8
0
100
AcDbLine
 62
7
  6
CONTINUOUS
 10
7.7522092737
 20
12.726852912
 11
7.7406784966
 21
12.726852912
  0
LINE
  5
3B6
100
AcDbEntity
  8
0
100
AcDbLine
 62
7
  6
CONTINUOUS
 10
7.6311632337
 20
12.7891428141
 11
7.6196319625
 21
12.7891428141
  0
LINE
  5
3B7
100
AcDbEntity
  8
0
100
AcDbLine
 62
7
  6
CONTINUOUS
 10
7.5219507269
 20
14.3223404637
 11
7.2882964415
 21
14.4120319405
  0
LINE
  5
3B8
100
AcDbEntity
  8
0
100
AcDbLine
 62
9
  6
CONTINUOUS
 10
10.1706371137
 20
14.1744414471
 11
9.681857703
 21
14.6632208578
  0
LINE
  5
3B9
100
AcDbEntity
  8
0
100
AcDbLine
 62
9
  6
CONTINUOUS
 10
10.2506371056
 20
14.2544775272
 11
9.7618937831
 21
14.7432208497
  0
LINE
  5
3BA
100
AcDbEntity
  8
0
100
AcDbLine
 62
9
  6
CONTINUOUS
 10
9.7618937831
 20
14.8165370145
 11
10.3239532704
 21
14.2544775272
  0
LINE
  5
3BB
100
AcDbEntity
  8
0
100
AcDbLine
 62
9
  6
CONTINUOUS
 10
9.8169577083
 20
14.9494730893
 11
9.8264801254
 21
14.9399506722
  0
LINE
  5
3BC
100
AcDbEntity
  8
0
100
AcDbLine
 62
9
  6
CONTINUOUS
 10
9.9146029091
 20
14.8518278885
 11
10.4568893452
 21
14.3095414524
  0
LINE
  5
3BD
100
AcDbEntity
  8
0
100
AcDbLine
 62
7
  6
CONTINUOUS
 10
9.9658705651
 20
15.0793411119
 11
10.0539933487
 21
14.9912183282
  0
LINE
  5
3BE
100
AcDbEntity
  8
0
100
AcDbLine
 62
7
  6
CONTINUOUS
 10
14.4180355079
 20
15.9053876528
 11
14.4182233165
 21
15.9020360496
  0
LINE
  5
3BF
100
AcDbEntity
  8
0
100
AcDbLine
 62
9
  6
CONTINUOUS
 10
14.602719363
 20
15.1626026201
 11
14.602719363
 21
17.5426026201
  0
LINE
  5
3C0
100
AcDbEntity
  8
0
100
AcDbLine
 62
7
  6
CONTINUOUS
 10
14.8348926102
 20
0.4776026201
 11
14.8348926102
 21
8.2276026201
  0
LINE
  5
3C1
100
AcDbEntity
  8
0
100
AcDbLine
 62
7
  6
CONTINUOUS
 10
14.8348926102
 20
15.1626027091
 11
14.8348926102
 21
17.5426025312
  0
LINE
  5
3C2
100
AcDbEntity
  8
0
100
AcDbLine
 62
7
  6
CONTINUOUS
 10
7.3628753524
 20
12.8960262021
 11
7.3448210847
 21
12.8960262021
  0
LINE
  5
3C3
100
AcDbEntity
  8
0
100
AcDbLine
 62
7
  6
CONTINUOUS
 10
7.4769270597
 20
13.0021351261
 11
7.4653962826
 21
13.0021351261
  0
LINE
  5
3C4
100
AcDbEntity
  8
0
100
AcDbLine
 62
7
  6
CONTINUOUS
 10
7.4074203729
 20
13.0128856749
 11
7.3958891017
 21
13.0128856749
  0
LINE
  5
3C5
100
AcDbEntity
  8
0
100
AcDbLine
 62
7
  6
CONTINUOUS
 10
7.224735092
 20
13.1955709557
 11
7.2132038209
 21
13.1955709557
  0
LINE
  5
3C6
100
AcDbEntity
  8
0
100
AcDbLine
 62
7
  6
CONTINUOUS
 10
7.2405368634
 20
13.2385253224
 11
7.2290060863
 21
13.2385253224
  0
LINE
  5
3C7
100
AcDbEntity
  8
0
100
AcDbLine
 62
7
  6
CONTINUOUS
 10
7.0955570911
 20
13.3247489566
 11
7.08402582
 21
13.3247489566
  0
LINE
  5
3C8
100
AcDbEntity
  8
0
100
AcDbLine
 62
7
  6
CONTINUOUS
 10
7.0591482861
 20
13.4199138997
 11
7.047617509
 21
13.4199138997
  0
LINE
  5
3C9
100
AcDbEntity
  8
0
100
AcDbLine
 62
7
  6
CONTINUOUS
 10
10.6846681326
 20
14.5373202397
 11
10.0447364956
 21
15.1772518767
  0
LINE
  5
3CA
100
AcDbEntity
  8
0
100
AcDbLine
 62
7
  6
CONTINUOUS
 10
10.2520590072
 20
15.319167011
 11
10.3424261057
 21
15.2287999126
  0
LINE
  5
3CB
100
AcDbEntity
  8
0
100
AcDbLine
 62
7
  6
CONTINUOUS
 10
10.8198304795
 20
14.7695983495
 11
10.276924509
 21
15.3125043199
  0
LINE
  5
3CC
100
AcDbEntity
  8
0
100
AcDbLine
 62
7
  6
CONTINUOUS
 10
10.8325495029
 20
14.7821371802
 11
10.2895534361
 21
15.325133247
  0
LINE
  5
3CD
100
AcDbEntity
  8
0
100
AcDbLine
 62
7
  6
CONTINUOUS
 10
10.8574150047
 20
14.7754744891
 11
10.282890745
 21
15.3499987488
  0
LINE
  5
3CE
100
AcDbEntity
  8
0
100
AcDbLine
 62
7
  6
CONTINUOUS
 10
6.9451226596
 20
13.5339395262
 11
6.9335918824
 21
13.5339395262
  0
LINE
  5
3CF
100
AcDbEntity
  8
0
100
AcDbLine
 62
7
  6
CONTINUOUS
 10
10.6950527725
 20
14.6137651838
 11
10.6957565604
 21
14.6138160448
  0
LINE
  5
3D0
100
AcDbEntity
  8
0
100
AcDbLine
 62
7
  6
CONTINUOUS
 10
10.7448005491
 20
14.6635075624
 11
10.7454985407
 21
14.6635580251
  0
LINE
  5
3D1
100
AcDbEntity
  8
0
100
AcDbLine
 62
7
  6
CONTINUOUS
 10
10.7945504245
 20
14.7132641802
 11
10.7952556574
 21
14.7133151418
  0
LINE
  5
3D2
100
AcDbEntity
  8
0
100
AcDbLine
 62
7
  6
CONTINUOUS
 10
10.8198304795
 20
14.7695983495
 11
10.8196468135
 21
14.7695869118
  0
LINE
  5
3D3
100
AcDbEntity
  8
0
100
AcDbLine
 62
7
  6
CONTINUOUS
 10
10.3239532704
 20
14.2544775272
 11
10.2506371056
 21
14.2544775272
  0
LINE
  5
3D4
100
AcDbEntity
  8
0
100
AcDbLine
 62
7
  6
CONTINUOUS
 10
10.6633257553
 20
14.6222484092
 11
10.6950527724
 21
14.6137651837
  0
LINE
  5
3D5
100
AcDbEntity
  8
0
100
AcDbLine
 62
7
  6
CONTINUOUS
 10
10.7151678523
 20
14.6714310258
 11
10.7448005487
 21
14.663507562
  0
LINE
  5
3D6
100
AcDbEntity
  8
0
100
AcDbLine
 62
7
  6
CONTINUOUS
 10
10.7669796521
 20
14.7206362221
 11
10.7945504245
 21
14.7132641802
  0
LINE
  5
3D7
100
AcDbEntity
  8
0
100
AcDbLine
 62
7
  6
CONTINUOUS
 10
10.8188336664
 20
14.7698043131
 11
10.8196468135
 21
14.7695869118
  0
LINE
  5
3D8
100
AcDbEntity
  8
0
100
AcDbLine
 62
7
  6
CONTINUOUS
 10
10.8325495029
 20
14.7821371802
 11
10.8574150047
 21
14.7754744891
  0
LINE
  5
3D9
100
AcDbEntity
  8
0
100
AcDbLine
 62
9
  6
CONTINUOUS
 10
11.634717873
 20
15.5527773574
 11
11.0601936133
 21
16.1273016171
  0
LINE
  5
3DA
100
AcDbEntity
  8
0
100
AcDbLine
 62
7
  6
CONTINUOUS
 10
10.111733138
 20
15.1781521907
 11
10.1109905794
 21
15.1780985832
  0
LINE
  5
3DB
100
AcDbEntity
  8
0
100
AcDbLine
 62
7
  6
CONTINUOUS
 10
10.1631064505
 20
15.2295223214
 11
10.1623603752
 21
15.229468379
  0
LINE
  5
3DC
100
AcDbEntity
  8
0
100
AcDbLine
 62
7
  6
CONTINUOUS
 10
10.2143489372
 20
15.2807622617
 11
10.2136001223
 21
15.2807081261
  0
LINE
  5
3DD
100
AcDbEntity
  8
0
100
AcDbLine
 62
7
  6
CONTINUOUS
 10
14.602719363
 20
15.1626026201
 11
14.8348926102
 21
15.1626026201
  0
LINE
  5
3DE
100
AcDbEntity
  8
0
100
AcDbLine
 62
7
  6
CONTINUOUS
 10
10.1425916684
 20
15.1699021116
 11
10.1117331376
 21
15.1781521903
  0
LINE
  5
3DF
100
AcDbEntity
  8
0
100
AcDbLine
 62
7
  6
CONTINUOUS
 10
10.1916051765
 20
15.2219031238
 11
10.1631064506
 21
15.2295223214
  0
LINE
  5
3E0
100
AcDbEntity
  8
0
100
AcDbLine
 62
7
  6
CONTINUOUS
 10
10.2408446414
 20
15.2736785603
 11
10.2143489372
 21
15.2807622617
  0
LINE
  5
3E1
100
AcDbEntity
  8
0
100
AcDbLine
 62
7
  6
CONTINUOUS
 10
10.2520590072
 20
15.319167011
 11
10.276924509
 21
15.3125043199
  0
LINE
  5
3E2
100
AcDbEntity
  8
0
100
AcDbLine
 62
7
  6
CONTINUOUS
 10
14.4180355079
 20
15.9463526201
 11
12.5848926102
 21
15.9463526201
  0
LINE
  5
3E3
100
AcDbEntity
  8
0
100
AcDbLine
 62
7
  6
CONTINUOUS
 10
14.4180355079
 20
16.7588526201
 11
12.5848926102
 21
16.7588526201
  0
LINE
  5
3E4
100
AcDbEntity
  8
0
100
AcDbLine
 62
7
  6
CONTINUOUS
 10
14.602719363
 20
17.5426026201
 11
14.8348926102
 21
17.5426026201
  0
ARC
  5
3E5
100
AcDbEntity
  8
0
100
AcDbCircle
 62
7
  6
CONTINUOUS
 10
11.9358926102
 20
1.5906026201
 40
0.3125
100
AcDbArc
 50
194.539847615
 51
345.460152385
  0
ARC
  5
3E6
100
AcDbEntity
  8
0
100
AcDbCircle
 62
7
  6
CONTINUOUS
 10
11.6760929572
 20
4.7401026201
 40
0.03
100
AcDbArc
 50
70.9285569203
 51
165.2369687319
  0
ARC
  5
3E7
100
AcDbEntity
  8
0
100
AcDbCircle
 62
7
  6
CONTINUOUS
 10
11.6760929572
 20
3.9651026201
 40
0.03
100
AcDbArc
 50
194.7630312681
 51
289.0714430797
  0
ARC
  5
3E8
100
AcDbEntity
  8
0
100
AcDbCircle
 62
7
  6
CONTINUOUS
 10
8.0253777462
 20
12.0618550417
 40
0.0196850394
100
AcDbArc
 50
45.0039181287
 51
90.0024249216
  0
ARC
  5
3E9
100
AcDbEntity
  8
0
100
AcDbCircle
 62
7
  6
CONTINUOUS
 10
8.192381898
 20
11.9226897396
 40
0.0196850394
100
AcDbArc
 50
224.9861543669
 51
269.9974348102
  0
ARC
  5
3EA
100
AcDbEntity
  8
0
100
AcDbCircle
 62
7
  6
CONTINUOUS
 10
8.2039131271
 20
11.8833196608
 40
0.0196850394
100
AcDbArc
 50
45.00392895
 51
90.0024317524
  0
ARC
  5
3EB
100
AcDbEntity
  8
0
100
AcDbCircle
 62
7
  6
CONTINUOUS
 10
8.2801721801
 20
11.8627383071
 40
0.0196850394
100
AcDbArc
 50
224.9998588082
 51
294.9999051805
  0
ARC
  5
3EC
100
AcDbEntity
  8
0
100
AcDbCircle
 62
7
  6
CONTINUOUS
 10
7.5692712976
 20
12.5179614903
 40
0.0196850394
100
AcDbArc
 50
359.9975682479
 51
44.9960710504
  0
ARC
  5
3ED
100
AcDbEntity
  8
0
100
AcDbCircle
 62
7
  6
CONTINUOUS
 10
7.6086413763
 20
12.5064302613
 40
0.0196850394
100
AcDbArc
 50
180.0025651901
 51
225.0046683371
  0
ARC
  5
3EE
100
AcDbEntity
  8
0
100
AcDbCircle
 62
7
  6
CONTINUOUS
 10
7.5828239793
 20
12.5322476582
 40
0.0196850394
100
AcDbArc
 50
224.9857468675
 51
269.9974348681
  0
ARC
  5
3EF
100
AcDbEntity
  8
0
100
AcDbCircle
 62
7
  6
CONTINUOUS
 10
7.3907359167
 20
12.6964968712
 40
0.0196850394
100
AcDbArc
 50
359.9975750784
 51
44.9960818714
  0
ARC
  5
3F0
100
AcDbEntity
  8
0
100
AcDbCircle
 62
7
  6
CONTINUOUS
 10
7.4301059955
 20
12.6849656421
 40
0.0196850394
100
AcDbArc
 50
180.0025651318
 51
225.0142531325
  0
ARC
  5
3F1
100
AcDbEntity
  8
0
100
AcDbCircle
 62
7
  6
CONTINUOUS
 10
7.6441380511
 20
12.6265745889
 40
0.0118110236
100
AcDbArc
 50
135.0
 51
180.0003003629
  0
ARC
  5
3F2
100
AcDbEntity
  8
0
100
AcDbCircle
 62
7
  6
CONTINUOUS
 10
7.6441380511
 20
12.6085203115
 40
0.0118110236
100
AcDbArc
 50
180.0002500349
 51
225.0070722369
  0
ARC
  5
3F3
100
AcDbEntity
  8
0
100
AcDbCircle
 62
7
  6
CONTINUOUS
 10
7.2034385092
 20
12.9620454155
 40
0.2419018855
100
AcDbArc
 50
43.7127245595
 51
44.9889486274
  0
ARC
  5
3F4
100
AcDbEntity
  8
0
100
AcDbCircle
 62
7
  6
CONTINUOUS
 10
7.3516965851
 20
12.8729089768
 40
0.0393700787
100
AcDbArc
 50
334.999917026
 51
39.208519173
  0
ARC
  5
3F5
100
AcDbEntity
  8
0
100
AcDbCircle
 62
7
  6
CONTINUOUS
 10
7.224703993
 20
13.046008647
 40
0.0118110236
100
AcDbArc
 50
135.0
 51
180.0002999879
  0
ARC
  5
3F6
100
AcDbEntity
  8
0
100
AcDbCircle
 62
7
  6
CONTINUOUS
 10
7.224703993
 20
13.0279543697
 40
0.0118110236
100
AcDbArc
 50
180.0002531652
 51
224.9682835358
  0
ARC
  5
3F7
100
AcDbEntity
  8
0
100
AcDbCircle
 62
7
  6
CONTINUOUS
 10
7.2070370118
 20
13.0456213508
 40
0.0118110236
100
AcDbArc
 50
180.0002531643
 51
224.9942252673
  0
ARC
  5
3F8
100
AcDbEntity
  8
0
100
AcDbCircle
 62
7
  6
CONTINUOUS
 10
7.3448211369
 20
12.9078372257
 40
0.0118110236
100
AcDbArc
 50
224.9811217111
 51
269.9997468346
  0
ARC
  5
3F9
100
AcDbEntity
  8
0
100
AcDbCircle
 62
7
  6
CONTINUOUS
 10
7.3628754142
 20
12.9078372257
 40
0.0118110236
100
AcDbArc
 50
269.9997000108
 51
315.0
  0
ARC
  5
3FA
100
AcDbEntity
  8
0
100
AcDbCircle
 62
7
  6
CONTINUOUS
 10
7.2793588653
 20
12.9913537747
 40
0.0118110236
100
AcDbArc
 50
135.0
 51
180.0002999885
  0
ARC
  5
3FB
100
AcDbEntity
  8
0
100
AcDbCircle
 62
7
  6
CONTINUOUS
 10
7.2793588653
 20
12.9732994974
 40
0.0118110236
100
AcDbArc
 50
180.0002531654
 51
225.0188782889
  0
ARC
  5
3FC
100
AcDbEntity
  8
0
100
AcDbCircle
 62
7
  6
CONTINUOUS
 10
7.2405377082
 20
13.2582103617
 40
0.0196850394
100
AcDbArc
 50
269.9975411859
 51
315.0
  0
ARC
  5
3FD
100
AcDbEntity
  8
0
100
AcDbCircle
 62
7
  6
CONTINUOUS
 10
7.1514533893
 20
13.3472946806
 40
0.0196850394
100
AcDbArc
 50
135.0
 51
180.0024588136
  0
ARC
  5
3FE
100
AcDbEntity
  8
0
100
AcDbCircle
 62
7
  6
CONTINUOUS
 10
7.1514533893
 20
13.3357634515
 40
0.0196850394
100
AcDbArc
 50
180.0011432902
 51
225.0010167727
  0
ARC
  5
3FF
100
AcDbEntity
  8
0
100
AcDbCircle
 62
7
  6
CONTINUOUS
 10
7.2290064791
 20
13.2582103617
 40
0.0196850394
100
AcDbArc
 50
224.9989832273
 51
269.9988567098
  0
ARC
  5
400
100
AcDbEntity
  8
0
100
AcDbCircle
 62
7
  6
CONTINUOUS
 10
7.1523544969
 20
13.2876370042
 40
0.0196850394
100
AcDbArc
 50
135.0
 51
180.0012047959
  0
ARC
  5
401
100
AcDbEntity
  8
0
100
AcDbCircle
 62
7
  6
CONTINUOUS
 10
7.224735506
 20
13.2152559951
 40
0.0196850394
100
AcDbArc
 50
269.9987952046
 51
315.0
  0
ARC
  5
402
100
AcDbEntity
  8
0
100
AcDbCircle
 62
7
  6
CONTINUOUS
 10
7.2132042769
 20
13.2152559951
 40
0.0196850394
100
AcDbArc
 50
224.9956415628
 51
269.9986727949
  0
ARC
  5
403
100
AcDbEntity
  8
0
100
AcDbCircle
 62
7
  6
CONTINUOUS
 10
7.1523544969
 20
13.2761057751
 40
0.0196850394
100
AcDbArc
 50
180.0013272051
 51
225.0043584372
  0
ARC
  5
404
100
AcDbEntity
  8
0
100
AcDbCircle
 62
7
  6
CONTINUOUS
 10
7.084026276
 20
13.344433996
 40
0.0196850394
100
AcDbArc
 50
224.9941675807
 51
269.998672795
  0
ARC
  5
405
100
AcDbEntity
  8
0
100
AcDbCircle
 62
7
  6
CONTINUOUS
 10
7.095557505
 20
13.344433996
 40
0.0196850394
100
AcDbArc
 50
269.9987952045
 51
315.0
  0
ARC
  5
406
100
AcDbEntity
  8
0
100
AcDbCircle
 62
7
  6
CONTINUOUS
 10
7.3350397777
 20
13.1049517234
 40
0.0196850394
100
AcDbArc
 50
135.0
 51
180.0012047956
  0
ARC
  5
407
100
AcDbEntity
  8
0
100
AcDbCircle
 62
7
  6
CONTINUOUS
 10
7.3350397777
 20
13.0934204943
 40
0.0196850394
100
AcDbArc
 50
180.0013272052
 51
225.0025894294
  0
ARC
  5
408
100
AcDbEntity
  8
0
100
AcDbCircle
 62
7
  6
CONTINUOUS
 10
7.2070370118
 20
13.0636756281
 40
0.0118110236
100
AcDbArc
 50
135.0
 51
180.0002999892
  0
ARC
  5
409
100
AcDbEntity
  8
0
100
AcDbCircle
 62
7
  6
CONTINUOUS
 10
7.0644132658
 20
13.3400064849
 40
0.0078740157
100
AcDbArc
 50
155.0083034809
 51
214.8534612382
  0
ARC
  5
40A
100
AcDbEntity
  8
0
100
AcDbCircle
 62
7
  6
CONTINUOUS
 10
7.6631257996
 20
12.8356222703
 40
0.0196850394
100
AcDbArc
 50
135.0
 51
180.0024588139
  0
ARC
  5
40B
100
AcDbEntity
  8
0
100
AcDbCircle
 62
7
  6
CONTINUOUS
 10
7.6631257996
 20
12.8240910412
 40
0.0196850394
100
AcDbArc
 50
180.0011432895
 51
225.0046451287
  0
ARC
  5
40C
100
AcDbEntity
  8
0
100
AcDbCircle
 62
7
  6
CONTINUOUS
 10
7.4769279045
 20
13.0218201654
 40
0.0196850394
100
AcDbArc
 50
269.9975411859
 51
315.0
  0
ARC
  5
40D
100
AcDbEntity
  8
0
100
AcDbCircle
 62
7
  6
CONTINUOUS
 10
7.4653966754
 20
13.0218201654
 40
0.0196850394
100
AcDbArc
 50
224.9975015559
 51
269.99885671
  0
ARC
  5
40E
100
AcDbEntity
  8
0
100
AcDbCircle
 62
7
  6
CONTINUOUS
 10
7.5587826385
 20
12.8812088626
 40
0.0196850394
100
AcDbArc
 50
135.0
 51
180.0012047948
  0
ARC
  5
40F
100
AcDbEntity
  8
0
100
AcDbCircle
 62
7
  6
CONTINUOUS
 10
7.6311636476
 20
12.8088278535
 40
0.0196850394
100
AcDbArc
 50
269.9987952044
 51
315.0
  0
ARC
  5
410
100
AcDbEntity
  8
0
100
AcDbCircle
 62
7
  6
CONTINUOUS
 10
7.6196324185
 20
12.8088278535
 40
0.0196850394
100
AcDbArc
 50
224.9954769729
 51
269.998672795
  0
ARC
  5
411
100
AcDbEntity
  8
0
100
AcDbCircle
 62
7
  6
CONTINUOUS
 10
7.5587826385
 20
12.8696776335
 40
0.0196850394
100
AcDbArc
 50
180.0013272057
 51
225.0045230281
  0
ARC
  5
412
100
AcDbEntity
  8
0
100
AcDbCircle
 62
7
  6
CONTINUOUS
 10
7.3958895577
 20
13.0325707143
 40
0.0196850394
100
AcDbArc
 50
224.9974105706
 51
269.9986727948
  0
ARC
  5
413
100
AcDbEntity
  8
0
100
AcDbCircle
 62
7
  6
CONTINUOUS
 10
7.4074207868
 20
13.0325707143
 40
0.0196850394
100
AcDbArc
 50
269.9987952051
 51
315.0
  0
ARC
  5
414
100
AcDbEntity
  8
0
100
AcDbCircle
 62
7
  6
CONTINUOUS
 10
7.370154563
 20
12.7727559242
 40
0.0196850394
100
AcDbArc
 50
155.0000948195
 51
225.0001411918
  0
ARC
  5
415
100
AcDbEntity
  8
0
100
AcDbCircle
 62
7
  6
CONTINUOUS
 10
7.390616517
 20
12.8620418456
 40
0.0118110236
100
AcDbArc
 50
180.0002531639
 51
225.000523204
  0
ARC
  5
416
100
AcDbEntity
  8
0
100
AcDbCircle
 62
7
  6
CONTINUOUS
 10
7.390616517
 20
12.8800961229
 40
0.0118110236
100
AcDbArc
 50
135.0
 51
180.0002999894
  0
ARC
  5
417
100
AcDbEntity
  8
0
100
AcDbCircle
 62
7
  6
CONTINUOUS
 10
7.3878435856
 20
13.1109044843
 40
0.0196850394
100
AcDbArc
 50
135.0
 51
180.0024588141
  0
ARC
  5
418
100
AcDbEntity
  8
0
100
AcDbCircle
 62
7
  6
CONTINUOUS
 10
7.3878435856
 20
13.0993732552
 40
0.0196850394
100
AcDbArc
 50
180.00114329
 51
225.0024984441
  0
ARC
  5
419
100
AcDbEntity
  8
0
100
AcDbCircle
 62
9
  6
CONTINUOUS
 10
7.8590470927
 20
12.5331718347
 40
0.0642967025
100
AcDbArc
 50
210.0786190993
 51
210.319792934
  0
ARC
  5
41A
100
AcDbEntity
  8
0
100
AcDbCircle
 62
9
  6
CONTINUOUS
 10
8.0116407415
 20
12.3774289923
 40
0.063800705
100
AcDbArc
 50
211.9440891701
 51
212.2316613607
  0
ARC
  5
41B
100
AcDbEntity
  8
0
100
AcDbCircle
 62
9
  6
CONTINUOUS
 10
8.0955964302
 20
12.2961785982
 40
0.0632065303
100
AcDbArc
 50
240.2163569552
 51
240.7057074796
  0
ARC
  5
41C
100
AcDbEntity
  8
0
100
AcDbCircle
 62
9
  6
CONTINUOUS
 10
7.785642264
 20
12.5959214115
 40
0.0592785811
100
AcDbArc
 50
236.2796738205
 51
237.561737896
  0
ARC
  5
41D
100
AcDbEntity
  8
0
100
AcDbCircle
 62
9
  6
CONTINUOUS
 10
7.7038377501
 20
12.6840656153
 40
0.0588342987
100
AcDbArc
 50
207.9559007868
 51
208.9994517691
  0
ARC
  5
41E
100
AcDbEntity
  8
0
100
AcDbCircle
 62
9
  6
CONTINUOUS
 10
7.6984725233
 20
12.681213414
 40
0.0527580588
100
AcDbArc
 50
207.560445394
 51
207.9513400239
  0
ARC
  5
41F
100
AcDbEntity
  8
0
100
AcDbCircle
 62
9
  6
CONTINUOUS
 10
7.7808520876
 20
12.5884416198
 40
0.0503964661
100
AcDbArc
 50
237.5966128653
 51
238.0744871657
  0
ARC
  5
420
100
AcDbEntity
  8
0
100
AcDbCircle
 62
7
  6
CONTINUOUS
 10
8.2539542073
 20
12.2447938626
 40
0.0196850394
100
AcDbArc
 50
135.0
 51
180.0024588147
  0
ARC
  5
421
100
AcDbEntity
  8
0
100
AcDbCircle
 62
7
  6
CONTINUOUS
 10
8.2539542073
 20
12.2332626335
 40
0.0196850394
100
AcDbArc
 50
180.0011432896
 51
225.0043599303
  0
ARC
  5
422
100
AcDbEntity
  8
0
100
AcDbCircle
 62
7
  6
CONTINUOUS
 10
8.0476243223
 20
12.4511237476
 40
0.0196850394
100
AcDbArc
 50
269.9975417674
 51
315.0
  0
ARC
  5
423
100
AcDbEntity
  8
0
100
AcDbCircle
 62
7
  6
CONTINUOUS
 10
7.9585400035
 20
12.5402080664
 40
0.0196850394
100
AcDbArc
 50
135.0
 51
180.0024582326
  0
ARC
  5
424
100
AcDbEntity
  8
0
100
AcDbCircle
 62
7
  6
CONTINUOUS
 10
7.9585400035
 20
12.5286768374
 40
0.0196850394
100
AcDbArc
 50
180.0011432897
 51
225.0050847098
  0
ARC
  5
425
100
AcDbEntity
  8
0
100
AcDbCircle
 62
7
  6
CONTINUOUS
 10
8.0360930933
 20
12.4511237476
 40
0.0196850394
100
AcDbArc
 50
224.9949152902
 51
269.9988567103
  0
ARC
  5
426
100
AcDbEntity
  8
0
100
AcDbCircle
 62
7
  6
CONTINUOUS
 10
8.0666913748
 20
12.3733001262
 40
0.0196850394
100
AcDbArc
 50
135.0
 51
180.0012049649
  0
ARC
  5
427
100
AcDbEntity
  8
0
100
AcDbCircle
 62
7
  6
CONTINUOUS
 10
8.1390723839
 20
12.3009191171
 40
0.0196850394
100
AcDbArc
 50
269.9987950343
 51
315.0
  0
ARC
  5
428
100
AcDbEntity
  8
0
100
AcDbCircle
 62
7
  6
CONTINUOUS
 10
8.1275411548
 20
12.3009191171
 40
0.0196850394
100
AcDbArc
 50
224.9973600465
 51
269.9986727936
  0
ARC
  5
429
100
AcDbEntity
  8
0
100
AcDbCircle
 62
7
  6
CONTINUOUS
 10
8.0666913748
 20
12.3617688971
 40
0.0196850394
100
AcDbArc
 50
180.0013272064
 51
225.0026399534
  0
ARC
  5
42A
100
AcDbEntity
  8
0
100
AcDbCircle
 62
7
  6
CONTINUOUS
 10
7.869185153
 20
12.5592751189
 40
0.0196850394
100
AcDbArc
 50
224.9973731565
 51
269.9986727883
  0
ARC
  5
42B
100
AcDbEntity
  8
0
100
AcDbCircle
 62
7
  6
CONTINUOUS
 10
7.8807163821
 20
12.5592751189
 40
0.0196850394
100
AcDbArc
 50
269.9987952044
 51
315.0
  0
ARC
  5
42C
100
AcDbEntity
  8
0
100
AcDbCircle
 62
7
  6
CONTINUOUS
 10
7.808335373
 20
12.631656128
 40
0.0196850394
100
AcDbArc
 50
135.0
 51
180.0012047956
  0
ARC
  5
42D
100
AcDbEntity
  8
0
100
AcDbCircle
 62
7
  6
CONTINUOUS
 10
7.808335373
 20
12.6201248989
 40
0.0196850394
100
AcDbArc
 50
180.0013272117
 51
225.0026268435
  0
ARC
  5
42E
100
AcDbEntity
  8
0
100
AcDbCircle
 62
7
  6
CONTINUOUS
 10
8.3162441094
 20
12.1237473917
 40
0.0196850394
100
AcDbArc
 50
135.0
 51
180.0012047948
  0
ARC
  5
42F
100
AcDbEntity
  8
0
100
AcDbCircle
 62
7
  6
CONTINUOUS
 10
8.3162441094
 20
12.1122161626
 40
0.0196850394
100
AcDbArc
 50
180.0013272052
 51
225.0045979527
  0
ARC
  5
430
100
AcDbEntity
  8
0
100
AcDbCircle
 62
7
  6
CONTINUOUS
 10
8.0138465172
 20
12.1012251204
 40
0.0196850394
100
AcDbArc
 50
224.9952744853
 51
269.9974348682
  0
ARC
  5
431
100
AcDbEntity
  8
0
100
AcDbCircle
 62
7
  6
CONTINUOUS
 10
7.8217584545
 20
12.2654743334
 40
0.0196850394
100
AcDbArc
 50
359.9975750786
 51
44.9960818716
  0
ARC
  5
432
100
AcDbEntity
  8
0
100
AcDbCircle
 62
7
  6
CONTINUOUS
 10
7.8611285333
 20
12.2539431043
 40
0.0196850394
100
AcDbArc
 50
180.0025651318
 51
225.0047255147
  0
ARC
  5
433
100
AcDbEntity
  8
0
100
AcDbCircle
 62
7
  6
CONTINUOUS
 10
7.7613593602
 20
12.3537122774
 40
0.0196850394
100
AcDbArc
 50
224.9953316634
 51
269.9974348102
  0
ARC
  5
434
100
AcDbEntity
  8
0
100
AcDbCircle
 62
7
  6
CONTINUOUS
 10
7.7728905893
 20
12.3143421986
 40
0.0196850394
100
AcDbArc
 50
45.00392895
 51
90.0024317524
  0
ARC
  5
435
100
AcDbEntity
  8
0
100
AcDbCircle
 62
7
  6
CONTINUOUS
 10
8.0396639141
 20
12.0754077235
 40
0.0196850394
100
AcDbArc
 50
180.0025651901
 51
225.0138456336
  0
ARC
  5
436
100
AcDbEntity
  8
0
100
AcDbCircle
 62
7
  6
CONTINUOUS
 10
7.8625315928
 20
12.3901267699
 40
0.0118110236
100
AcDbArc
 50
224.9957431737
 51
269.999746835
  0
ARC
  5
437
100
AcDbEntity
  8
0
100
AcDbCircle
 62
7
  6
CONTINUOUS
 10
7.8805858701
 20
12.3901267699
 40
0.0118110236
100
AcDbArc
 50
269.9997000112
 51
315.0
  0
ARC
  5
438
100
AcDbEntity
  8
0
100
AcDbCircle
 62
7
  6
CONTINUOUS
 10
7.7970693211
 20
12.4736433188
 40
0.0118110236
100
AcDbArc
 50
135.0
 51
180.0002999888
  0
ARC
  5
439
100
AcDbEntity
  8
0
100
AcDbCircle
 62
7
  6
CONTINUOUS
 10
7.7970693211
 20
12.4555890415
 40
0.0118110236
100
AcDbArc
 50
180.0002531649
 51
225.0042568262
  0
ARC
  5
43A
100
AcDbEntity
  8
0
100
AcDbCircle
 62
7
  6
CONTINUOUS
 10
7.7096003227
 20
12.5430580399
 40
0.0118110236
100
AcDbArc
 50
224.9929277631
 51
269.9997499651
  0
ARC
  5
43B
100
AcDbEntity
  8
0
100
AcDbCircle
 62
7
  6
CONTINUOUS
 10
7.7276546001
 20
12.5430580399
 40
0.0118110236
100
AcDbArc
 50
269.9996996385
 51
315.0
  0
ARC
  5
43C
100
AcDbEntity
  8
0
100
AcDbCircle
 62
7
  6
CONTINUOUS
 10
8.0184473613
 20
12.2342110014
 40
0.0118110236
100
AcDbArc
 50
224.996939628
 51
269.9997468357
  0
ARC
  5
43D
100
AcDbEntity
  8
0
100
AcDbCircle
 62
7
  6
CONTINUOUS
 10
8.0365016386
 20
12.2342110014
 40
0.0118110236
100
AcDbArc
 50
269.9997000107
 51
315.0
  0
ARC
  5
43E
100
AcDbEntity
  8
0
100
AcDbCircle
 62
7
  6
CONTINUOUS
 10
7.9529850896
 20
12.3177275504
 40
0.0118110236
100
AcDbArc
 50
135.0
 51
180.000299988
  0
ARC
  5
43F
100
AcDbEntity
  8
0
100
AcDbCircle
 62
7
  6
CONTINUOUS
 10
7.9529850896
 20
12.299673273
 40
0.0118110236
100
AcDbArc
 50
180.0002531656
 51
225.0030603739
  0
ARC
  5
440
100
AcDbEntity
  8
0
100
AcDbCircle
 62
7
  6
CONTINUOUS
 10
7.7522101185
 20
12.7465379514
 40
0.0196850394
100
AcDbArc
 50
269.9975411861
 51
315.0
  0
ARC
  5
441
100
AcDbEntity
  8
0
100
AcDbCircle
 62
7
  6
CONTINUOUS
 10
7.7406788894
 20
12.7465379514
 40
0.0196850394
100
AcDbArc
 50
224.9953548698
 51
269.9988567095
  0
ARC
  5
442
100
AcDbEntity
  8
0
100
AcDbCircle
 62
7
  6
CONTINUOUS
 10
8.4638513934
 20
11.6902833786
 40
0.2499269818
100
AcDbArc
 50
45.0315425831
 51
46.2667451531
  0
ARC
  5
443
100
AcDbEntity
  8
0
100
AcDbCircle
 62
9
  6
CONTINUOUS
 10
8.5913692714
 20
11.8143987781
 40
0.0619368019
100
AcDbArc
 50
239.362000311
 51
239.984927277
  0
ARC
  5
444
100
AcDbEntity
  8
0
100
AcDbCircle
 62
7
  6
CONTINUOUS
 10
8.9470151949
 20
11.551732875
 40
0.0196850394
100
AcDbArc
 50
135.0
 51
180.0024588142
  0
ARC
  5
445
100
AcDbEntity
  8
0
100
AcDbCircle
 62
7
  6
CONTINUOUS
 10
8.9470151949
 20
11.5402016459
 40
0.0196850394
100
AcDbArc
 50
180.00114329
 51
225.0136421979
  0
ARC
  5
446
100
AcDbEntity
  8
0
100
AcDbCircle
 62
7
  6
CONTINUOUS
 10
8.8547109365
 20
11.6440371334
 40
0.0196850394
100
AcDbArc
 50
269.9975411859
 51
315.0
  0
ARC
  5
447
100
AcDbEntity
  8
0
100
AcDbCircle
 62
7
  6
CONTINUOUS
 10
8.7656266176
 20
11.7331214523
 40
0.0196850394
100
AcDbArc
 50
135.0
 51
180.0024588136
  0
ARC
  5
448
100
AcDbEntity
  8
0
100
AcDbCircle
 62
7
  6
CONTINUOUS
 10
8.7656266176
 20
11.7215902232
 40
0.0196850394
100
AcDbArc
 50
180.0011432902
 51
225.0009422105
  0
ARC
  5
449
100
AcDbEntity
  8
0
100
AcDbCircle
 62
7
  6
CONTINUOUS
 10
8.8431797074
 20
11.6440371334
 40
0.0196850394
100
AcDbArc
 50
224.9990577895
 51
269.9988567098
  0
ARC
  5
44A
100
AcDbEntity
  8
0
100
AcDbCircle
 62
7
  6
CONTINUOUS
 10
8.6183207402
 20
11.8804273297
 40
0.0196850394
100
AcDbArc
 50
269.9975411864
 51
315.0
  0
ARC
  5
44B
100
AcDbEntity
  8
0
100
AcDbCircle
 62
7
  6
CONTINUOUS
 10
8.5292364213
 20
11.9695116486
 40
0.0196850394
100
AcDbArc
 50
135.0
 51
180.0024588143
  0
ARC
  5
44C
100
AcDbEntity
  8
0
100
AcDbCircle
 62
7
  6
CONTINUOUS
 10
8.5292364213
 20
11.9579804195
 40
0.0196850394
100
AcDbArc
 50
180.0011432902
 51
225.00249
  0
ARC
  5
44D
100
AcDbEntity
  8
0
100
AcDbCircle
 62
7
  6
CONTINUOUS
 10
8.6067895111
 20
11.8804273297
 40
0.0196850394
100
AcDbArc
 50
224.9975099999
 51
269.9988567098
  0
ARC
  5
44E
100
AcDbEntity
  8
0
100
AcDbCircle
 62
7
  6
CONTINUOUS
 10
8.5399869702
 20
11.9000045309
 40
0.0196850394
100
AcDbArc
 50
135.0
 51
180.0012047959
  0
ARC
  5
44F
100
AcDbEntity
  8
0
100
AcDbCircle
 62
7
  6
CONTINUOUS
 10
8.6123679793
 20
11.8276235218
 40
0.0196850394
100
AcDbArc
 50
269.9987952047
 51
315.0
  0
ARC
  5
450
100
AcDbEntity
  8
0
100
AcDbCircle
 62
7
  6
CONTINUOUS
 10
8.6008367502
 20
11.8276235218
 40
0.0196850394
100
AcDbArc
 50
224.9976360281
 51
269.998672795
  0
ARC
  5
451
100
AcDbEntity
  8
0
100
AcDbCircle
 62
7
  6
CONTINUOUS
 10
8.5399869702
 20
11.8884733018
 40
0.0196850394
100
AcDbArc
 50
180.0013272051
 51
225.0023639719
  0
ARC
  5
452
100
AcDbEntity
  8
0
100
AcDbCircle
 62
7
  6
CONTINUOUS
 10
8.8518502519
 20
11.5881412491
 40
0.0196850394
100
AcDbArc
 50
135.0
 51
180.0012047948
  0
ARC
  5
453
100
AcDbEntity
  8
0
100
AcDbCircle
 62
7
  6
CONTINUOUS
 10
8.924231261
 20
11.51576024
 40
0.0196850394
100
AcDbArc
 50
269.9987952044
 51
315.0
  0
ARC
  5
454
100
AcDbEntity
  8
0
100
AcDbCircle
 62
7
  6
CONTINUOUS
 10
8.9127000319
 20
11.5157602401
 40
0.0196850394
100
AcDbArc
 50
224.9941585306
 51
269.998672795
  0
ARC
  5
455
100
AcDbEntity
  8
0
100
AcDbCircle
 62
7
  6
CONTINUOUS
 10
8.8518502519
 20
11.5766100201
 40
0.0196850394
100
AcDbArc
 50
180.0013272057
 51
225.0058414704
  0
ARC
  5
456
100
AcDbEntity
  8
0
100
AcDbCircle
 62
7
  6
CONTINUOUS
 10
8.3770938894
 20
12.0513663826
 40
0.0196850394
100
AcDbArc
 50
224.9954020476
 51
269.998672795
  0
ARC
  5
457
100
AcDbEntity
  8
0
100
AcDbCircle
 62
7
  6
CONTINUOUS
 10
8.3886251185
 20
12.0513663826
 40
0.0196850394
100
AcDbArc
 50
269.9987952045
 51
315.0
  0
ARC
  5
458
100
AcDbEntity
  8
0
100
AcDbCircle
 62
7
  6
CONTINUOUS
 10
8.783522031
 20
11.644938241
 40
0.0196850394
100
AcDbArc
 50
224.9960788789
 51
269.9986727947
  0
ARC
  5
459
100
AcDbEntity
  8
0
100
AcDbCircle
 62
7
  6
CONTINUOUS
 10
8.7950532601
 20
11.644938241
 40
0.0196850394
100
AcDbArc
 50
269.9987952051
 51
315.0
  0
ARC
  5
45A
100
AcDbEntity
  8
0
100
AcDbCircle
 62
7
  6
CONTINUOUS
 10
8.722672251
 20
11.7173192501
 40
0.0196850394
100
AcDbArc
 50
135.0
 51
180.0012047956
  0
ARC
  5
45B
100
AcDbEntity
  8
0
100
AcDbCircle
 62
7
  6
CONTINUOUS
 10
8.722672251
 20
11.705788021
 40
0.0196850394
100
AcDbArc
 50
180.0013272052
 51
225.0039211211
  0
ARC
  5
45C
100
AcDbEntity
  8
0
100
AcDbCircle
 62
7
  6
CONTINUOUS
 10
8.9187177056
 20
11.5097425664
 40
0.0196850394
100
AcDbArc
 50
212.4938308259
 51
224.9745203222
  0
ARC
  5
45D
100
AcDbEntity
  8
0
100
AcDbCircle
 62
7
  6
CONTINUOUS
 10
8.4274728017
 20
11.825185561
 40
0.0118110236
100
AcDbArc
 50
224.9930395703
 51
269.9997466605
  0
ARC
  5
45E
100
AcDbEntity
  8
0
100
AcDbCircle
 62
7
  6
CONTINUOUS
 10
8.445527079
 20
11.825185561
 40
0.0118110236
100
AcDbArc
 50
269.9997000109
 51
315.0
  0
ARC
  5
45F
100
AcDbEntity
  8
0
100
AcDbCircle
 62
7
  6
CONTINUOUS
 10
8.36201053
 20
11.90870211
 40
0.0118110236
100
AcDbArc
 50
135.0
 51
180.0002999879
  0
ARC
  5
460
100
AcDbEntity
  8
0
100
AcDbCircle
 62
7
  6
CONTINUOUS
 10
8.36201053
 20
11.8906478326
 40
0.0118110236
100
AcDbArc
 50
180.0002533395
 51
225.0069604297
  0
ARC
  5
461
100
AcDbEntity
  8
0
100
AcDbCircle
 62
7
  6
CONTINUOUS
 10
8.5460289154
 20
11.7066294473
 40
0.0118110236
100
AcDbArc
 50
225.0462226687
 51
269.9997468347
  0
ARC
  5
462
100
AcDbEntity
  8
0
100
AcDbCircle
 62
7
  6
CONTINUOUS
 10
8.5640831927
 20
11.7066294473
 40
0.0118110236
100
AcDbArc
 50
269.9996999689
 51
315.0
  0
ARC
  5
463
100
AcDbEntity
  8
0
100
AcDbCircle
 62
7
  6
CONTINUOUS
 10
8.5043225434
 20
11.7483358193
 40
0.0118110236
100
AcDbArc
 50
224.9910551986
 51
269.9997472495
  0
ARC
  5
464
100
AcDbEntity
  8
0
100
AcDbCircle
 62
7
  6
CONTINUOUS
 10
8.5223768207
 20
11.7483358193
 40
0.0118110236
100
AcDbArc
 50
269.9997000847
 51
315.0
  0
ARC
  5
465
100
AcDbEntity
  8
0
100
AcDbCircle
 62
7
  6
CONTINUOUS
 10
8.4388602717
 20
11.8137980909
 40
0.0118110236
100
AcDbArc
 50
182.2118786543
 51
225.0089448013
  0
ARC
  5
466
100
AcDbEntity
  8
0
100
AcDbCircle
 62
7
  6
CONTINUOUS
 10
8.434041354
 20
11.8186170087
 40
0.0118110236
100
AcDbArc
 50
224.9897647201
 51
241.789681531
  0
ARC
  5
467
100
AcDbEntity
  8
0
100
AcDbCircle
 62
7
  6
CONTINUOUS
 10
8.8474227408
 20
11.5569970099
 40
0.0078740157
100
AcDbArc
 50
235.1465387618
 51
294.9917022292
  0
ARC
  5
468
100
AcDbEntity
  8
0
100
AcDbCircle
 62
7
  6
CONTINUOUS
 10
9.4810821107
 20
11.338182864
 40
0.5118110236
100
AcDbArc
 50
169.7367930331
 51
249.6710480593
  0
ARC
  5
469
100
AcDbEntity
  8
0
100
AcDbCircle
 62
7
  6
CONTINUOUS
 10
9.0751070636
 20
10.7982794226
 40
0.4724409449
100
AcDbArc
 50
34.4249168973
 51
56.7360171921
  0
ARC
  5
46A
100
AcDbEntity
  8
0
100
AcDbCircle
 62
9
  6
CONTINUOUS
 10
9.4807097735
 20
11.3377930522
 40
0.4449251763
100
AcDbArc
 50
169.6290545897
 51
249.6671757229
  0
ARC
  5
46B
100
AcDbEntity
  8
0
100
AcDbCircle
 62
7
  6
CONTINUOUS
 10
9.3511454759
 20
10.9874632456
 40
0.1377952756
100
AcDbArc
 50
249.6710480599
 51
34.4249168912
  0
ARC
  5
46C
100
AcDbEntity
  8
0
100
AcDbCircle
 62
7
  6
CONTINUOUS
 10
9.5868848548
 20
11.1520465248
 40
0.08
100
AcDbArc
 50
317.2714508417
 51
22.1367765694
  0
ARC
  5
46D
100
AcDbEntity
  8
0
100
AcDbCircle
 62
7
  6
CONTINUOUS
 10
9.1501251404
 20
11.3486229295
 40
0.0196850394
100
AcDbArc
 50
269.9975411861
 51
315.0
  0
ARC
  5
46E
100
AcDbEntity
  8
0
100
AcDbCircle
 62
7
  6
CONTINUOUS
 10
9.1385939113
 20
11.3486229295
 40
0.0196850394
100
AcDbArc
 50
225.0157925669
 51
269.9988567094
  0
ARC
  5
46F
100
AcDbEntity
  8
0
100
AcDbCircle
 62
9
  6
CONTINUOUS
 10
9.2805709029
 20
11.2789002681
 40
0.0080179026
100
AcDbArc
 50
225.0039089865
 51
239.1605534021
  0
ARC
  5
470
100
AcDbEntity
  8
0
100
AcDbCircle
 62
7
  6
CONTINUOUS
 10
9.0610408215
 20
11.4377072484
 40
0.0196850394
100
AcDbArc
 50
161.1249009773
 51
180.0024588139
  0
ARC
  5
471
100
AcDbEntity
  8
0
100
AcDbCircle
 62
7
  6
CONTINUOUS
 10
9.0610408215
 20
11.4261760193
 40
0.0196850394
100
AcDbArc
 50
180.0011432895
 51
224.9842074317
  0
ARC
  5
472
100
AcDbEntity
  8
0
100
AcDbCircle
 62
7
  6
CONTINUOUS
 10
9.0360995138
 20
11.4626485561
 40
0.0196850394
100
AcDbArc
 50
269.9975411858
 51
315.0
  0
ARC
  5
473
100
AcDbEntity
  8
0
100
AcDbCircle
 62
7
  6
CONTINUOUS
 10
9.0245682847
 20
11.4626485561
 40
0.0196850394
100
AcDbArc
 50
224.9863578021
 51
269.99885671
  0
ARC
  5
474
100
AcDbEntity
  8
0
100
AcDbCircle
 62
7
  6
CONTINUOUS
 10
8.9795674856
 20
11.4488927864
 40
0.0196850394
100
AcDbArc
 50
225.0254796778
 51
269.9986727884
  0
ARC
  5
475
100
AcDbEntity
  8
0
100
AcDbCircle
 62
7
  6
CONTINUOUS
 10
8.9910987147
 20
11.4488927864
 40
0.0196850394
100
AcDbArc
 50
269.9987952044
 51
315.0
  0
ARC
  5
476
100
AcDbEntity
  8
0
100
AcDbCircle
 62
7
  6
CONTINUOUS
 10
8.3430385262
 20
12.1557095437
 40
0.0196850394
100
AcDbArc
 50
269.9975411863
 51
315.0
  0
ARC
  5
477
100
AcDbEntity
  8
0
100
AcDbCircle
 62
7
  6
CONTINUOUS
 10
8.3315072971
 20
12.1557095437
 40
0.0196850394
100
AcDbArc
 50
224.9956400684
 51
269.9988567094
  0
ARC
  5
478
100
AcDbEntity
  8
0
100
AcDbCircle
 62
7
  6
CONTINUOUS
 10
9.6046776979
 20
14.097261442
 40
2.5590551181
100
AcDbArc
 50
222.3528405071
 51
227.6471594929
  0
ARC
  5
479
100
AcDbEntity
  8
0
100
AcDbCircle
 62
7
  6
CONTINUOUS
 10
8.6142448282
 20
15.9553116926
 40
1.9
100
AcDbArc
 50
237.4577510794
 51
275.4956073781
  0
ARC
  5
47A
100
AcDbEntity
  8
0
100
AcDbCircle
 62
7
  6
CONTINUOUS
 10
6.7607527179
 20
14.5838094014
 40
0.45
100
AcDbArc
 50
276.6210152008
 51
315.0
  0
ARC
  5
47B
100
AcDbEntity
  8
0
100
AcDbCircle
 62
7
  6
CONTINUOUS
 10
6.7838130172
 20
14.3851432931
 40
0.25
100
AcDbArc
 50
247.8632234306
 51
276.6210152008
  0
ARC
  5
47C
100
AcDbEntity
  8
0
100
AcDbCircle
 62
7
  6
CONTINUOUS
 10
6.6594627807
 20
14.0794685989
 40
0.08
100
AcDbArc
 50
67.8632234306
 51
132.7285491583
  0
ARC
  5
47D
100
AcDbEntity
  8
0
100
AcDbCircle
 62
7
  6
CONTINUOUS
 10
7.2614188453
 20
14.3420134085
 40
0.075
100
AcDbArc
 50
69.0
 51
135.0
  0
ARC
  5
47E
100
AcDbEntity
  8
0
100
AcDbCircle
 62
7
  6
CONTINUOUS
 10
7.5814358083
 20
14.3367612522
 40
0.02
100
AcDbArc
 50
57.4577510794
 51
135.0
  0
ARC
  5
47F
100
AcDbEntity
  8
0
100
AcDbCircle
 62
7
  6
CONTINUOUS
 10
7.5291180859
 20
14.3410120722
 40
0.02
100
AcDbArc
 50
249.0
 51
315.0
  0
ARC
  5
480
100
AcDbEntity
  8
0
100
AcDbCircle
 62
7
  6
CONTINUOUS
 10
6.8171471677
 20
13.6700696731
 40
0.0196850394
100
AcDbArc
 50
180.0010369649
 51
225.0009085171
  0
ARC
  5
481
100
AcDbEntity
  8
0
100
AcDbCircle
 62
7
  6
CONTINUOUS
 10
6.8171471677
 20
13.6816009022
 40
0.0196850394
100
AcDbArc
 50
135.0
 51
180.0010232871
  0
ARC
  5
482
100
AcDbEntity
  8
0
100
AcDbCircle
 62
7
  6
CONTINUOUS
 10
7.0591491309
 20
13.439598939
 40
0.0196850394
100
AcDbArc
 50
269.9975411863
 51
315.0
  0
ARC
  5
483
100
AcDbEntity
  8
0
100
AcDbCircle
 62
7
  6
CONTINUOUS
 10
6.970064812
 20
13.5286832579
 40
0.0196850394
100
AcDbArc
 50
135.0
 51
180.0024588143
  0
ARC
  5
484
100
AcDbEntity
  8
0
100
AcDbCircle
 62
7
  6
CONTINUOUS
 10
6.970064812
 20
13.5171520288
 40
0.0196850394
100
AcDbArc
 50
180.0011432902
 51
225.0143035142
  0
ARC
  5
485
100
AcDbEntity
  8
0
100
AcDbCircle
 62
7
  6
CONTINUOUS
 10
7.0476179018
 20
13.439598939
 40
0.0196850394
100
AcDbArc
 50
224.9856964858
 51
269.9988567098
  0
ARC
  5
486
100
AcDbEntity
  8
0
100
AcDbCircle
 62
7
  6
CONTINUOUS
 10
6.9451235043
 20
13.5536245656
 40
0.0196850394
100
AcDbArc
 50
269.9975411863
 51
288.8750990227
  0
ARC
  5
487
100
AcDbEntity
  8
0
100
AcDbCircle
 62
7
  6
CONTINUOUS
 10
6.8560391854
 20
13.6427088845
 40
0.0196850394
100
AcDbArc
 50
135.0
 51
180.0024588147
  0
ARC
  5
488
100
AcDbEntity
  8
0
100
AcDbCircle
 62
7
  6
CONTINUOUS
 10
6.8560391854
 20
13.6311776554
 40
0.0196850394
100
AcDbArc
 50
180.0011432896
 51
224.9835098228
  0
ARC
  5
489
100
AcDbEntity
  8
0
100
AcDbCircle
 62
7
  6
CONTINUOUS
 10
6.9335922752
 20
13.5536245656
 40
0.0196850394
100
AcDbArc
 50
225.0164901759
 51
269.9988567095
  0
ARC
  5
48A
100
AcDbEntity
  8
0
100
AcDbCircle
 62
7
  6
CONTINUOUS
 10
6.9563090423
 20
13.4836824588
 40
0.0196850394
100
AcDbArc
 50
135.0
 51
180.0012049649
  0
ARC
  5
48B
100
AcDbEntity
  8
0
100
AcDbCircle
 62
7
  6
CONTINUOUS
 10
7.0171588223
 20
13.4113014497
 40
0.0196850394
100
AcDbArc
 50
225.0260377449
 51
237.5061691734
  0
ARC
  5
48C
100
AcDbEntity
  8
0
100
AcDbCircle
 62
7
  6
CONTINUOUS
 10
6.9563090423
 20
13.4721512297
 40
0.0196850394
100
AcDbArc
 50
180.0013272064
 51
224.9739622551
  0
ARC
  5
48D
100
AcDbEntity
  8
0
100
AcDbCircle
 62
7
  6
CONTINUOUS
 10
7.0231764959
 20
13.4168150051
 40
0.0196850394
100
AcDbArc
 50
135.0
 51
180.0012047948
  0
ARC
  5
48E
100
AcDbEntity
  8
0
100
AcDbCircle
 62
7
  6
CONTINUOUS
 10
7.0231764959
 20
13.405283776
 40
0.0196850394
100
AcDbArc
 50
180.0013272052
 51
225.0058324196
  0
ARC
  5
48F
100
AcDbEntity
  8
0
100
AcDbCircle
 62
7
  6
CONTINUOUS
 10
6.7842951873
 20
13.7749725006
 40
0.0078740157
100
AcDbArc
 50
210.7100596427
 51
225.0
  0
ARC
  5
490
100
AcDbEntity
  8
0
100
AcDbCircle
 62
7
  6
CONTINUOUS
 10
11.4627279485
 20
13.1068285723
 40
1.9
100
AcDbArc
 50
174.5043926219
 51
212.5422489206
  0
ARC
  5
491
100
AcDbEntity
  8
0
100
AcDbCircle
 62
7
  6
CONTINUOUS
 10
10.0912256573
 20
11.253336462
 40
0.45
100
AcDbArc
 50
135.0
 51
173.3789847992
  0
ARC
  5
492
100
AcDbEntity
  8
0
100
AcDbCircle
 62
7
  6
CONTINUOUS
 10
9.892559549
 20
11.2763967613
 40
0.25
100
AcDbArc
 50
173.3789847992
 51
202.1367765694
  0
ARC
  5
493
100
AcDbEntity
  8
0
100
AcDbCircle
 62
7
  6
CONTINUOUS
 10
9.8494296644
 20
11.7540025894
 40
0.075
100
AcDbArc
 50
315.0
 51
21.0
  0
ARC
  5
494
100
AcDbEntity
  8
0
100
AcDbCircle
 62
7
  6
CONTINUOUS
 10
9.8441775081
 20
12.0740195524
 40
0.02
100
AcDbArc
 50
315.0
 51
32.5422489206
  0
ARC
  5
495
100
AcDbEntity
  8
0
100
AcDbCircle
 62
7
  6
CONTINUOUS
 10
9.8484283281
 20
12.02170183
 40
0.02
100
AcDbArc
 50
135.0
 51
201.0
  0
ARC
  5
496
100
AcDbEntity
  8
0
100
AcDbCircle
 62
7
  6
CONTINUOUS
 10
12.5848926102
 20
14.6026026201
 40
2.15625
100
AcDbArc
 50
90.0
 51
135.0
  0
ARC
  5
497
100
AcDbEntity
  8
0
100
AcDbCircle
 62
7
  6
CONTINUOUS
 10
12.5848926102
 20
14.6026026201
 40
1.34375
100
AcDbArc
 50
90.0
 51
135.0
  0
ARC
  5
498
100
AcDbEntity
  8
0
100
AcDbCircle
 62
7
  6
CONTINUOUS
 10
9.6816371635
 20
14.1742209076
 40
0.489
100
AcDbArc
 50
343.8720486571
 51
0.0258404644
  0
ARC
  5
499
100
AcDbEntity
  8
0
100
AcDbCircle
 62
7
  6
CONTINUOUS
 10
9.6816371635
 20
14.1742209076
 40
0.489
100
AcDbArc
 50
89.9741595356
 51
106.1279513429
  0
ARC
  5
49A
100
AcDbEntity
  8
0
100
AcDbCircle
 62
7
  6
CONTINUOUS
 10
10.3239532704
 20
14.4424775272
 40
0.188
100
AcDbArc
 50
270.0
 51
315.0
  0
ARC
  5
49B
100
AcDbEntity
  8
0
100
AcDbCircle
 62
7
  6
CONTINUOUS
 10
9.9498937831
 20
14.8165370145
 40
0.188
100
AcDbArc
 50
135.0
 51
180.0
  0
ARC
  5
49C
100
AcDbEntity
  8
0
100
AcDbCircle
 62
7
  6
CONTINUOUS
 10
10.2506371056
 20
14.1744775272
 40
0.08
100
AcDbArc
 50
90.0
 51
180.0258404644
  0
ARC
  5
49D
100
AcDbEntity
  8
0
100
AcDbCircle
 62
7
  6
CONTINUOUS
 10
9.6818937831
 20
14.7432208497
 40
0.08
100
AcDbArc
 50
269.9741595356
 51
360.0
  0
ARC
  5
49E
100
AcDbEntity
  8
0
100
AcDbCircle
 62
7
  6
CONTINUOUS
 10
13.1465626257
 20
4.3526026201
 40
1.5506700155
100
AcDbArc
 50
165.2369687319
 51
194.7630312681
  0
ARC
  5
49F
100
AcDbEntity
  8
0
100
AcDbCircle
 62
7
  6
CONTINUOUS
 10
13.6058926102
 20
2.2276026201
 40
1.0
100
AcDbArc
 50
81.6940891949
 51
90.0
  0
ARC
  5
4A0
100
AcDbEntity
  8
0
100
AcDbCircle
 62
7
  6
CONTINUOUS
 10
13.6058926102
 20
6.4776026201
 40
1.0
100
AcDbArc
 50
270.0
 51
278.3059108051
  0
ARC
  5
4A1
100
AcDbEntity
  8
0
100
AcDbCircle
 62
7
  6
CONTINUOUS
 10
12.8558926102
 20
5.7084738323
 40
0.7183712121
100
AcDbArc
 50
270.0
 51
334.7996803478
  0
ARC
  5
4A2
100
AcDbEntity
  8
0
100
AcDbCircle
 62
7
  6
CONTINUOUS
 10
12.8558926102
 20
2.996731408
 40
0.7183712121
100
AcDbArc
 50
25.2003196522
 51
90.0
  0
ARC
  5
4A3
100
AcDbEntity
  8
0
100
AcDbCircle
 62
7
  6
CONTINUOUS
 10
13.6961790369
 20
2.8460469274
 40
0.375
100
AcDbArc
 50
40.6030912348
 51
81.6940891949
  0
ARC
  5
4A4
100
AcDbEntity
  8
0
100
AcDbCircle
 62
7
  6
CONTINUOUS
 10
13.6961790369
 20
5.8591583129
 40
0.375
100
AcDbArc
 50
278.3059108051
 51
319.3969087652
  0
ARC
  5
4A5
100
AcDbEntity
  8
0
100
AcDbCircle
 62
7
  6
CONTINUOUS
 10
14.5829035595
 20
1.1617702681
 40
0.2500109774
100
AcDbArc
 50
180.0192106228
 51
240.2635604814
  0
ARC
  5
4A6
100
AcDbEntity
  8
0
100
AcDbCircle
 62
7
  6
CONTINUOUS
 10
14.5829035595
 20
7.5434349722
 40
0.2500109774
100
AcDbArc
 50
119.7364395186
 51
179.9807893772
  0
ARC
  5
4A7
100
AcDbEntity
  8
0
100
AcDbCircle
 62
7
  6
CONTINUOUS
 10
14.8348926102
 20
0.7276026201
 40
0.25
100
AcDbArc
 50
180.0
 51
270.0
  0
ARC
  5
4A8
100
AcDbEntity
  8
0
100
AcDbCircle
 62
7
  6
CONTINUOUS
 10
14.3348926102
 20
0.7276026201
 40
0.25
100
AcDbArc
 50
0.0
 51
60.2635604814
  0
ARC
  5
4A9
100
AcDbEntity
  8
0
100
AcDbCircle
 62
7
  6
CONTINUOUS
 10
14.0828926102
 20
1.1616026201
 40
0.25
100
AcDbArc
 50
0.0192106228
 51
60.2642868924
  0
ARC
  5
4AA
100
AcDbEntity
  8
0
100
AcDbCircle
 62
7
  6
CONTINUOUS
 10
14.3308926102
 20
1.5957638805
 40
0.25
100
AcDbArc
 50
180.0
 51
240.2642868924
  0
ARC
  5
4AB
100
AcDbEntity
  8
0
100
AcDbCircle
 62
7
  6
CONTINUOUS
 10
14.8348926102
 20
7.9776026201
 40
0.25
100
AcDbArc
 50
90.0
 51
180.0
  0
ARC
  5
4AC
100
AcDbEntity
  8
0
100
AcDbCircle
 62
7
  6
CONTINUOUS
 10
14.3348926102
 20
7.9776026201
 40
0.25
100
AcDbArc
 50
299.7364395186
 51
360.0
  0
ARC
  5
4AD
100
AcDbEntity
  8
0
100
AcDbCircle
 62
7
  6
CONTINUOUS
 10
14.0828926102
 20
7.5436026201
 40
0.25
100
AcDbArc
 50
299.7357131076
 51
359.9807893772
  0
ARC
  5
4AE
100
AcDbEntity
  8
0
100
AcDbCircle
 62
7
  6
CONTINUOUS
 10
14.3308926102
 20
7.1094413598
 40
0.25
100
AcDbArc
 50
119.7357131076
 51
180.0
  0
ARC
  5
4AF
100
AcDbEntity
  8
0
100
AcDbCircle
 62
7
  6
CONTINUOUS
 10
14.0308926102
 20
5.6151026201
 40
0.05
100
AcDbArc
 50
0.0
 51
180.0
  0
ARC
  5
4B0
100
AcDbEntity
  8
0
100
AcDbCircle
 62
7
  6
CONTINUOUS
 10
14.0308926102
 20
3.0901026201
 40
0.05
100
AcDbArc
 50
180.0
 51
360.0
  0
ARC
  5
4B1
100
AcDbEntity
  8
0
100
AcDbCircle
 62
7
  6
CONTINUOUS
 10
12.9371484384
 20
17.4297517456
 40
7.1691060897
100
AcDbArc
 50
219.1377471268
 51
219.2089918143
  0
ARC
  5
4B2
100
AcDbEntity
  8
0
100
AcDbCircle
 62
7
  6
CONTINUOUS
 10
12.9371484384
 20
17.4297517456
 40
7.1691060897
100
AcDbArc
 50
215.6769302766
 51
217.0935650954
  0
ARC
  5
4B3
100
AcDbEntity
  8
0
100
AcDbCircle
 62
7
  6
CONTINUOUS
 10
12.9371680015
 20
17.4297321825
 40
7.1691060897
100
AcDbArc
 50
232.7964616918
 51
234.3230697234
  0
ARC
  5
4B4
100
AcDbEntity
  8
0
100
AcDbCircle
 62
7
  6
CONTINUOUS
 10
12.9371734063
 20
17.4297767135
 40
7.1643816803
100
AcDbArc
 50
214.8532231336
 51
215.5750973652
  0
ARC
  5
4B5
100
AcDbEntity
  8
0
100
AcDbCircle
 62
7
  6
CONTINUOUS
 10
12.9371929694
 20
17.4297571504
 40
7.1643816803
100
AcDbArc
 50
234.4249026348
 51
235.1467768664
  0
ARC
  5
4B6
100
AcDbEntity
  8
0
100
AcDbCircle
 62
7
  6
CONTINUOUS
 10
12.9371734063
 20
17.4297767135
 40
7.1643816803
100
AcDbArc
 50
210.0673065852
 51
210.7102731828
  0
ARC
  5
4B7
100
AcDbEntity
  8
0
100
AcDbCircle
 62
7
  6
CONTINUOUS
 10
12.9367693826
 20
17.4294594543
 40
7.1632441834
100
AcDbArc
 50
239.2705208902
 51
239.9166489963
  0
ARC
  5
4B8
100
AcDbEntity
  8
0
100
AcDbCircle
 62
9
  6
CONTINUOUS
 10
12.9406917244
 20
17.4356969006
 40
7.1507436038
100
AcDbArc
 50
238.2880417734
 51
238.6171785401
  0
ARC
  5
4B9
100
AcDbEntity
  8
0
100
AcDbCircle
 62
9
  6
CONTINUOUS
 10
12.806892957
 20
17.208647207
 40
6.9265790661
100
AcDbArc
 50
239.2610109886
 51
240.0308013472
  0
ARC
  5
4BA
100
AcDbEntity
  8
0
100
AcDbCircle
 62
7
  6
CONTINUOUS
 10
18.890052026
 20
16.4047765323
 40
4.5
100
AcDbArc
 50
186.4144817261
 51
195.5395954904
  0
ARC
  5
4BB
100
AcDbEntity
  8
0
100
AcDbCircle
 62
7
  6
CONTINUOUS
 10
18.890052026
 20
16.300428708
 40
4.5
100
AcDbArc
 50
164.4604045096
 51
173.5855182739
  0
ARC
  5
4BC
100
AcDbEntity
  8
0
100
AcDbCircle
 62
7
  6
CONTINUOUS
 10
14.602719363
 20
17.4926026201
 40
0.05
100
AcDbArc
 50
90.0
 51
164.4604045096
  0
ARC
  5
4BD
100
AcDbEntity
  8
0
100
AcDbCircle
 62
7
  6
CONTINUOUS
 10
14.602719363
 20
15.2126026201
 40
0.05
100
AcDbArc
 50
195.5395954904
 51
270.0
  0
LINE
  5
4BE
100
AcDbEntity
  8
0
100
AcDbLine
 62
7
  6
CONTINUOUS
 10
10.6599532571
 20
14.5780127661
 11
10.6600073989
 21
14.5787616483
  0
SPLINE
  5
4BF
100
AcDbEntity
  8
0
100
AcDbSpline
 62
7
  6
CONTINUOUS
 70
0
 71
3
 72
23
 73
19
 74
0
 42
0.0000001
 43
0.0000001
 44
0.0000000001
 40
0.0
 40
0.0
 40
0.0
 40
0.0
 40
0.0398855201
 40
0.1502440859
 40
0.225779275
 40
0.3112702719
 40
0.3568517448
 40
0.4037924627
 40
0.4516607375
 40
0.4999999999
 40
0.5483392624
 40
0.5962075372
 40
0.6431482551
 40
0.688729728
 40
0.7742207249
 40
0.849755914
 40
0.9601144798
 40
1.0
 40
1.0
 40
1.0
 40
1.0
 10
11.7543926102
 20
3.8526026201
 30
0.0
 10
11.7590312422
 20
3.854286531
 30
0.0
 10
11.7765757354
 20
3.860443928
 30
0.0
 10
11.8033286819
 20
3.8685771028
 30
0.0
 10
11.8359978816
 20
3.8764050817
 30
0.0
 10
11.8611732489
 20
3.8809614746
 30
0.0
 10
11.8830183801
 20
3.8838195199
 30
0.0
 10
11.9003167707
 20
3.8854610313
 30
0.0
 10
11.9180050776
 20
3.8864785317
 30
0.0
 10
11.9358926102
 20
3.8868233192
 30
0.0
 10
11.9537801428
 20
3.8864785317
 30
0.0
 10
11.9714684497
 20
3.8854610313
 30
0.0
 10
11.9887668402
 20
3.8838195199
 30
0.0
 10
12.0106119715
 20
3.8809614746
 30
0.0
 10
12.0357873387
 20
3.8764050817
 30
0.0
 10
12.0684565385
 20
3.8685771028
 30
0.0
 10
12.095209485
 20
3.860443928
 30
0.0
 10
12.1127539782
 20
3.854286531
 30
0.0
 10
12.1173926102
 20
3.8526026201
 30
0.0
  0
LINE
  5
4C0
100
AcDbEntity
  8
0
100
AcDbLine
 62
7
  6
CONTINUOUS
 10
7.2382494224
 20
13.0805759112
 11
7.235467244
 21
13.0841760107
  0
LINE
  5
4C1
100
AcDbEntity
  8
0
100
AcDbLine
 62
7
  6
CONTINUOUS
 10
7.235467244
 20
13.0841760107
 11
7.2193005851
 21
13.1051421072
  0
LINE
  5
4C2
100
AcDbEntity
  8
0
100
AcDbLine
 62
7
  6
CONTINUOUS
 10
7.2193005851
 20
13.1051421072
 11
7.218757729
 21
13.1058543232
  0
SPLINE
  5
4C3
100
AcDbEntity
  8
0
100
AcDbSpline
 62
7
  6
CONTINUOUS
 70
0
 71
3
 72
8
 73
4
 74
0
 42
0.0000001
 43
0.0000001
 44
0.0000000001
 40
0.0
 40
0.0
 40
0.0
 40
0.0
 40
1.0
 40
1.0
 40
1.0
 40
1.0
 10
7.21869891
 20
13.1059320087
 30
0.0
 10
7.2186841189
 20
13.1059515957
 30
0.0
 10
7.2186693279
 20
13.1059711827
 30
0.0
 10
7.2186545368
 20
13.1059907698
 30
0.0
  0
LINE
  5
4C4
100
AcDbEntity
  8
0
100
AcDbLine
 62
7
  6
CONTINUOUS
 10
7.2186545368
 20
13.1059907698
 11
7.2184962425
 21
13.1062034424
  0
SPLINE
  5
4C5
100
AcDbEntity
  8
0
100
AcDbSpline
 62
7
  6
CONTINUOUS
 70
0
 71
3
 72
22
 73
18
 74
0
 42
0.0000001
 43
0.0000001
 44
0.0000000001
 40
0.0
 40
0.0
 40
0.0
 40
0.0
 40
0.2080885343
 40
0.3946423277
 40
0.5579650625
 40
0.6304630356
 40
0.6966469941
 40
0.756400215
 40
0.8096397814
 40
0.8563345842
 40
0.896524383
 40
0.9303702283
 40
0.95824017
 40
0.9701710936
 40
0.9809516328
 40
0.9907985038
 40
1.0
 40
1.0
 40
1.0
 40
1.0
 10
7.2459639465
 20
13.2392497576
 30
0.0
 10
7.2467915468
 20
13.2377891054
 30
0.0
 10
7.2483328339
 20
13.2350027188
 30
0.0
 10
7.2504080222
 20
13.2310074232
 30
0.0
 10
7.2518785455
 20
13.2279323044
 30
0.0
 10
7.2528524136
 20
13.2256986238
 30
0.0
 10
7.2534523669
 20
13.2242141017
 30
0.0
 10
7.2539500196
 20
13.2228565714
 30
0.0
 10
7.2543440614
 20
13.2216295043
 30
0.0
 10
7.2546336087
 20
13.2205360887
 30
0.0
 10
7.2548181357
 20
13.2195785491
 30
0.0
 10
7.2548973331
 20
13.2187589011
 30
0.0
 10
7.2548743843
 20
13.2181617617
 30
0.0
 10
7.2547927537
 20
13.2177610088
 30
0.0
 10
7.2547070549
 20
13.2175117324
 30
0.0
 10
7.2545933438
 20
13.2172983564
 30
0.0
 10
7.254496115
 20
13.2171777755
 30
0.0
 10
7.2544436208
 20
13.2171252844
 30
0.0
  0
SPLINE
  5
4C6
100
AcDbEntity
  8
0
100
AcDbSpline
 62
7
  6
CONTINUOUS
 70
0
 71
3
 72
15
 73
11
 74
0
 42
0.0000001
 43
0.0000001
 44
0.0000000001
 40
0.0
 40
0.0
 40
0.0
 40
0.0
 40
0.3271381259
 40
0.4749073605
 40
0.6101546735
 40
0.7314953466
 40
0.8376513086
 40
0.9274775056
 40
0.965954743
 40
1.0
 40
1.0
 40
1.0
 40
1.0
 10
6.9509531997
 20
13.5971736674
 30
0.0
 10
6.9534099028
 20
13.5930441055
 30
0.0
 10
6.9569385892
 20
13.5870264942
 30
0.0
 10
6.9613687973
 20
13.5792358624
 30
0.0
 10
6.9642516556
 20
13.5740430237
 30
0.0
 10
6.9667796396
 20
13.5693526665
 30
0.0
 10
6.9689254027
 20
13.5652148474
 30
0.0
 10
6.9704459675
 20
13.5621244049
 30
0.0
 10
6.9714454222
 20
13.5599592345
 30
0.0
 10
6.9718722632
 20
13.5589831395
 30
0.0
 10
6.9720661612
 20
13.5585221982
 30
0.0
  0
SPLINE
  5
4C7
100
AcDbEntity
  8
0
100
AcDbSpline
 62
7
  6
CONTINUOUS
 70
0
 71
3
 72
27
 73
23
 74
0
 42
0.0000001
 43
0.0000001
 44
0.0000000001
 40
0.0
 40
0.0
 40
0.0
 40
0.0
 40
0.0103262735
 40
0.0208904947
 40
0.0320560777
 40
0.0441308373
 40
0.057357711
 40
0.071917557
 40
0.0879416152
 40
0.1055242019
 40
0.1247291552
 40
0.1455997249
 40
0.1924240938
 40
0.2460831336
 40
0.306510597
 40
0.3735421629
 40
0.446935441
 40
0.5263810609
 40
0.6115150614
 40
0.7019232338
 40
0.7971424417
 40
1.0
 40
1.0
 40
1.0
 40
1.0
 10
7.5724536915
 20
12.9227187393
 30
0.0
 10
7.572566186
 20
12.9228312344
 30
0.0
 10
7.5728171188
 20
12.9230367788
 30
0.0
 10
7.5732559618
 20
12.9232695561
 30
0.0
 10
7.5737551025
 20
12.9234269502
 30
0.0
 10
7.5743127857
 20
12.9235096794
 30
0.0
 10
7.5749283333
 20
12.92351857
 30
0.0
 10
7.5756013411
 20
12.923454237
 30
0.0
 10
7.5763314615
 20
12.9233169775
 30
0.0
 10
7.5771181606
 20
12.9231068684
 30
0.0
 10
7.5779607997
 20
12.9228241519
 30
0.0
 10
7.5792061294
 20
12.9223312328
 30
0.0
 10
7.5808943736
 20
12.9215227629
 30
0.0
 10
7.5830550485
 20
12.9203047791
 30
0.0
 10
7.5854116408
 20
12.9188085463
 30
0.0
 10
7.5879522342
 20
12.917040655
 30
0.0
 10
7.5906636796
 20
12.9150092148
 30
0.0
 10
7.5935315265
 20
12.9127243028
 30
0.0
 10
7.5965401731
 20
12.9101976675
 30
0.0
 10
7.5996730025
 20
12.9074427688
 30
0.0
 10
7.6040860647
 20
12.9033991342
 30
0.0
 10
7.6073836373
 20
12.9002012083
 30
0.0
 10
7.6095935756
 20
12.89799127
 30
0.0
  0
SPLINE
  5
4C8
100
AcDbEntity
  8
0
100
AcDbSpline
 62
7
  6
CONTINUOUS
 70
0
 71
3
 72
24
 73
20
 74
0
 42
0.0000001
 43
0.0000001
 44
0.0000000001
 40
0.0
 40
0.0
 40
0.0
 40
0.0
 40
0.2075954438
 40
0.3944886623
 40
0.4795410138
 40
0.5586881675
 40
0.6317196219
 40
0.6984488841
 40
0.7587125729
 40
0.8123827927
 40
0.8593745002
 40
0.8996693108
 40
0.9333546395
 40
0.947803091
 40
0.9607295521
 40
0.9722318408
 40
0.9824545895
 40
0.99161019
 40
1.0
 40
1.0
 40
1.0
 40
1.0
 10
7.0776964427
 20
13.4704304244
 30
0.0
 10
7.0787333838
 20
13.4684936227
 30
0.0
 10
7.0806695767
 20
13.4647946415
 30
0.0
 10
7.0829171456
 20
13.4602439025
 30
0.0
 10
7.084484929
 20
13.4568751977
 30
0.0
 10
7.0855045242
 20
13.4545808608
 30
0.0
 10
7.0864023122
 20
13.4524450634
 30
0.0
 10
7.0871755003
 20
13.4504742698
 30
0.0
 10
7.0878216367
 20
13.4486744993
 30
0.0
 10
7.0883386892
 20
13.4470513977
 30
0.0
 10
7.0887252027
 20
13.4456098487
 30
0.0
 10
7.0889798954
 20
13.4443543463
 30
0.0
 10
7.089087643
 20
13.4434226626
 30
0.0
 10
7.0890972115
 20
13.4427760059
 30
0.0
 10
7.0890699577
 20
13.4423649247
 30
0.0
 10
7.0890086633
 20
13.4420025897
 30
0.0
 10
7.0889127552
 20
13.4416889523
 30
0.0
 10
7.0887814454
 20
13.441424356
 30
0.0
 10
7.0886658118
 20
13.4412767989
 30
0.0
 10
7.0886030316
 20
13.4412140157
 30
0.0
  0
SPLINE
  5
4C9
100
AcDbEntity
  8
0
100
AcDbSpline
 62
7
  6
CONTINUOUS
 70
0
 71
3
 72
20
 73
16
 74
0
 42
0.0000001
 43
0.0000001
 44
0.0000000001
 40
0.0
 40
0.0
 40
0.0
 40
0.0
 40
0.1965371259
 40
0.3726309133
 40
0.5276726952
 40
0.5971906045
 40
0.6613502544
 40
0.7201766594
 40
0.7737376819
 40
0.8221641476
 40
0.8656665765
 40
0.9045777732
 40
0.9393997315
 40
0.9708658159
 40
1.0
 40
1.0
 40
1.0
 40
1.0
 10
7.269185735
 20
13.2789411321
 30
0.0
 10
7.2696367816
 20
13.2778666632
 30
0.0
 10
7.2704603331
 20
13.2758158661
 30
0.0
 10
7.2715087935
 20
13.2728671659
 30
0.0
 10
7.2721907433
 20
13.2705899434
 30
0.0
 10
7.2725954004
 20
13.2689262165
 30
0.0
 10
7.2728207666
 20
13.2678069356
 30
0.0
 10
7.272978961
 20
13.2667717185
 30
0.0
 10
7.2730695822
 20
13.2658219308
 30
0.0
 10
7.2730924241
 20
13.2649587756
 30
0.0
 10
7.273047097
 20
13.2641831765
 30
0.0
 10
7.2729331473
 20
13.2634958537
 30
0.0
 10
7.2727495496
 20
13.2628972814
 30
0.0
 10
7.2724948045
 20
13.2623887418
 30
0.0
 10
7.2722701774
 20
13.2621039988
 30
0.0
 10
7.2721480356
 20
13.2619818474
 30
0.0
  0
SPLINE
  5
4CA
100
AcDbEntity
  8
0
100
AcDbSpline
 62
7
  6
CONTINUOUS
 70
0
 71
3
 72
29
 73
25
 74
0
 42
0.0000001
 43
0.0000001
 44
0.0000000001
 40
0.0
 40
0.0
 40
0.0
 40
0.0
 40
0.0089373853
 40
0.0185021293
 40
0.0291557021
 40
0.0412264186
 40
0.0549283725
 40
0.0703954868
 40
0.0877048624
 40
0.1068969732
 40
0.1279839043
 40
0.1509594073
 40
0.1758004654
 40
0.2024731108
 40
0.2611173509
 40
0.3264320649
 40
0.3978311344
 40
0.4746244196
 40
0.5560299215
 40
0.6411860802
 40
0.7291623897
 40
0.8189751725
 40
0.9096011185
 40
1.0
 40
1.0
 40
1.0
 40
1.0
 10
8.0752087987
 20
12.409656376
 30
0.0
 10
8.0753857059
 20
12.4098332802
 30
0.0
 10
8.0758040046
 20
12.4101504294
 30
0.0
 10
8.0765624462
 20
12.4104695139
 30
0.0
 10
8.0774542343
 20
12.4106447237
 30
0.0
 10
8.078476563
 20
12.4106797884
 30
0.0
 10
8.0796286611
 20
12.4105772073
 30
0.0
 10
8.0809090714
 20
12.4103376991
 30
0.0
 10
8.0823156159
 20
12.4099619674
 30
0.0
 10
8.0838452824
 20
12.4094505678
 30
0.0
 10
8.0854945798
 20
12.408804563
 30
0.0
 10
8.0872594363
 20
12.4080251771
 30
0.0
 10
8.089135514
 20
12.4071141995
 30
0.0
 10
8.0918661342
 20
12.4056806626
 30
0.0
 10
8.0955154778
 20
12.4035645171
 30
0.0
 10
8.1001251491
 20
12.4006199469
 30
0.0
 10
8.1050444759
 20
12.3972237648
 30
0.0
 10
8.1102196301
 20
12.3934110948
 30
0.0
 10
8.1155928509
 20
12.3892224521
 30
0.0
 10
8.1211029265
 20
12.3847038766
 30
0.0
 10
8.1266859901
 20
12.3799063267
 30
0.0
 10
8.1322763348
 20
12.3748851261
 30
0.0
 10
8.1378074771
 20
12.3696991959
 30
0.0
 10
8.1414298639
 20
12.3661549817
 30
0.0
 10
8.14321921
 20
12.3643656357
 30
0.0
  0
SPLINE
  5
4CB
100
AcDbEntity
  8
0
100
AcDbSpline
 62
7
  6
CONTINUOUS
 70
0
 71
3
 72
15
 73
11
 74
0
 42
0.0000001
 43
0.0000001
 44
0.0000000001
 40
0.0
 40
0.0
 40
0.0
 40
0.0
 40
0.1687754927
 40
0.3232637917
 40
0.4639283049
 40
0.5914829773
 40
0.707006931
 40
0.8120495765
 40
0.9087685474
 40
1.0
 40
1.0
 40
1.0
 40
1.0
 10
7.5123713977
 20
13.0357554694
 30
0.0
 10
7.5124456555
 20
13.0353297574
 30
0.0
 10
7.5125675184
 20
13.0345105558
 30
0.0
 10
7.5126691535
 20
13.0333261697
 30
0.0
 10
7.5126812196
 20
13.0322427116
 30
0.0
 10
7.512603175
 20
13.0312616344
 30
0.0
 10
7.512434482
 20
13.0303841733
 30
0.0
 10
7.5121738667
 20
13.0296114976
 30
0.0
 10
7.5118200053
 20
13.0289458215
 30
0.0
 10
7.5115151343
 20
13.0285685409
 30
0.0
 10
7.5113499558
 20
13.0284033692
 30
0.0
  0
LINE
  5
4CC
100
AcDbEntity
  8
0
100
AcDbLine
 62
7
  6
CONTINUOUS
 10
7.7906807299
 20
12.7574461372
 11
7.7899085095
 21
12.7563975136
  0
SPLINE
  5
4CD
100
AcDbEntity
  8
0
100
AcDbSpline
 62
7
  6
CONTINUOUS
 70
0
 71
3
 72
32
 73
28
 74
0
 42
0.0000001
 43
0.0000001
 44
0.0000000001
 40
0.0
 40
0.0
 40
0.0
 40
0.0
 40
0.0017746485
 40
0.003880912
 40
0.0064489943
 40
0.0095499473
 40
0.0132220133
 40
0.017485573
 40
0.0223517537
 40
0.0278260793
 40
0.0406002404
 40
0.0557947752
 40
0.0733692666
 40
0.0932684419
 40
0.1154245022
 40
0.1397602085
 40
0.1661904212
 40
0.1946221897
 40
0.2570894536
 40
0.3263061052
 40
0.4013391177
 40
0.4811922266
 40
0.5648147969
 40
0.6511115119
 40
0.7389495434
 40
0.8271666221
 40
1.0
 40
1.0
 40
1.0
 40
1.0
 10
8.8524114075
 20
11.6165412523
 30
0.0
 10
8.8524515615
 20
11.6165814116
 30
0.0
 10
8.8525582829
 20
11.6166507075
 30
0.0
 10
8.852758685
 20
11.6167070335
 30
0.0
 10
8.8530077715
 20
11.616726802
 30
0.0
 10
8.8533068428
 20
11.6167106832
 30
0.0
 10
8.8536565854
 20
11.6166590177
 30
0.0
 10
8.8540570811
 20
11.6165717217
 30
0.0
 10
8.8545081353
 20
11.6164488128
 30
0.0
 10
8.8552135065
 20
11.616225616
 30
0.0
 10
8.8562170766
 20
11.6158521972
 30
0.0
 10
8.8575604045
 20
11.6152862687
 30
0.0
 10
8.8590924691
 20
11.6145832774
 30
0.0
 10
8.8608072812
 20
11.6137459257
 30
0.0
 10
8.862698298
 20
11.612777282
 30
0.0
 10
8.8647583987
 20
11.6116809926
 30
0.0
 10
8.8669799704
 20
11.6104611336
 30
0.0
 10
8.870250633
 20
11.6086170976
 30
0.0
 10
8.8746760909
 20
11.6060340954
 30
0.0
 10
8.8803381384
 20
11.6026130847
 30
0.0
 10
8.886428727
 20
11.5988266534
 30
0.0
 10
8.8928659958
 20
11.5947256614
 30
0.0
 10
8.8995643632
 20
11.5903644184
 30
0.0
 10
8.9064351805
 20
11.5858003965
 30
0.0
 10
8.9133874279
 20
11.5810938021
 30
0.0
 10
8.9225783029
 20
11.5747550246
 30
0.0
 10
8.9293941591
 20
11.5699238102
 30
0.0
 10
8.9338746692
 20
11.5666811565
 30
0.0
  0
SPLINE
  5
4CE
100
AcDbEntity
  8
0
100
AcDbSpline
 62
9
  6
CONTINUOUS
 70
0
 71
3
 72
38
 73
34
 74
0
 42
0.0000001
 43
0.0000001
 44
0.0000000001
 40
0.0
 40
0.0
 40
0.0
 40
0.0
 40
0.0217669116
 40
0.0466318782
 40
0.0744195746
 40
0.10493642
 40
0.1379646767
 40
0.1732691935
 40
0.2496875813
 40
0.3320356407
 40
0.4180194916
 40
0.5052802764
 40
0.5914582701
 40
0.6742482946
 40
0.751448636
 40
0.8210054198
 40
0.852327551
 40
0.8810585718
 40
0.907003909
 40
0.9299876612
 40
0.9498552693
 40
0.9585793657
 40
0.9664782909
 40
0.973540972
 40
0.9797594312
 40
0.9851287732
 40
0.9896508593
 40
0.9933365699
 40
0.9962165146
 40
0.9973772367
 40
0.9983727481
 40
0.9992319908
 40
1.0
 40
1.0
 40
1.0
 40
1.0
 10
7.2953978025
 20
13.0127722634
 30
0.0
 10
7.296094953
 20
13.0120760282
 30
0.0
 10
7.2975670711
 20
13.0105629992
 30
0.0
 10
7.2998672417
 20
13.0081017934
 30
0.0
 10
7.3023946535
 20
13.0053115089
 30
0.0
 10
7.3051313076
 20
13.0022126925
 30
0.0
 10
7.3080573166
 20
12.9988275233
 30
0.0
 10
7.3122965972
 20
12.9938315562
 30
0.0
 10
7.3178975754
 20
12.9870636937
 30
0.0
 10
7.3248454367
 20
12.9784342415
 30
0.0
 10
7.3319944495
 20
12.9693377141
 30
0.0
 10
7.3391469278
 20
12.960024371
 30
0.0
 10
7.3461094242
 20
12.950748293
 30
0.0
 10
7.3526946939
 20
12.9417593499
 30
0.0
 10
7.3587270439
 20
12.9332990303
 30
0.0
 10
7.3633071098
 20
12.9266653743
 30
0.0
 10
7.3665670962
 20
12.9217876152
 30
0.0
 10
7.3686924213
 20
12.9185261941
 30
0.0
 10
7.3705702909
 20
12.9155543737
 30
0.0
 10
7.3721877353
 20
12.9128931132
 30
0.0
 10
7.3733554134
 20
12.9108711913
 30
0.0
 10
7.3741462681
 20
12.9094210024
 30
0.0
 10
7.3746414059
 20
12.9084699669
 30
0.0
 10
7.3750639643
 20
12.9076092867
 30
0.0
 10
7.3754133311
 20
12.9068405724
 30
0.0
 10
7.3756890001
 20
12.9061652579
 30
0.0
 10
7.3758910154
 20
12.9055843138
 30
0.0
 10
7.3760192434
 20
12.9050986657
 30
0.0
 10
7.3760692016
 20
12.9047506711
 30
0.0
 10
7.3760643678
 20
12.9045222076
 30
0.0
 10
7.3760417989
 20
12.9043869403
 30
0.0
 10
7.3759995481
 20
12.9042749733
 30
0.0
 10
7.3759557278
 20
12.9042142558
 30
0.0
 10
7.3759311441
 20
12.9041896762
 30
0.0
  0
SPLINE
  5
4CF
100
AcDbEntity
  8
0
100
AcDbSpline
 62
9
  6
CONTINUOUS
 70
0
 71
3
 72
17
 73
13
 74
0
 42
0.0000001
 43
0.0000001
 44
0.0000000001
 40
0.0
 40
0.0
 40
0.0
 40
0.0
 40
0.0628699528
 40
0.1243887177
 40
0.2431386653
 40
0.3552009493
 40
0.4643963066
 40
0.5835544582
 40
0.7137160051
 40
0.8534219455
 40
0.9260774503
 40
1.0
 40
1.0
 40
1.0
 40
1.0
 10
7.2972798127
 20
13.0274317394
 30
0.0
 10
7.2974782943
 20
13.0271599447
 30
0.0
 10
7.2978427024
 20
13.0266007606
 30
0.0
 10
7.2984347282
 20
13.0254395265
 30
0.0
 10
7.29893261
 20
13.0239446224
 30
0.0
 10
7.2991868659
 20
13.0221336227
 30
0.0
 10
7.2991400026
 20
13.0203043341
 30
0.0
 10
7.2987831183
 20
13.0184099551
 30
0.0
 10
7.2980626331
 20
13.0164456727
 30
0.0
 10
7.2971413454
 20
13.014848782
 30
0.0
 10
7.2962114226
 20
13.0136287506
 30
0.0
 10
7.2956805806
 20
13.0130491134
 30
0.0
 10
7.2954006643
 20
13.0127693996
 30
0.0
  0
SPLINE
  5
4D0
100
AcDbEntity
  8
0
100
AcDbSpline
 62
7
  6
CONTINUOUS
 70
0
 71
3
 72
24
 73
20
 74
0
 42
0.0000001
 43
0.0000001
 44
0.0000000001
 40
0.0
 40
0.0
 40
0.0
 40
0.0
 40
0.0108348615
 40
0.0217830477
 40
0.0331791093
 40
0.0453214154
 40
0.0584566532
 40
0.0727780285
 40
0.1055077621
 40
0.1443308975
 40
0.1896610961
 40
0.2416959026
 40
0.3005017518
 40
0.3660488297
 40
0.4382454328
 40
0.51694317
 40
0.6019516382
 40
0.7899347305
 40
1.0
 40
1.0
 40
1.0
 40
1.0
 10
7.3509827932
 20
13.1487335878
 30
0.0
 10
7.3510578129
 20
13.1488086045
 30
0.0
 10
7.3512225795
 20
13.1489462356
 30
0.0
 10
7.351507152
 20
13.1491064004
 30
0.0
 10
7.3518270759
 20
13.149219241
 30
0.0
 10
7.3521813909
 20
13.1492848946
 30
0.0
 10
7.3525696565
 20
13.1493038987
 30
0.0
 10
7.3531587748
 20
13.1492656347
 30
0.0
 10
7.3539848889
 20
13.1490879006
 30
0.0
 10
7.3550646399
 20
13.1487026219
 30
0.0
 10
7.3562737408
 20
13.1481364302
 30
0.0
 10
7.3576095246
 20
13.1473901192
 30
0.0
 10
7.3590687307
 20
13.1464648234
 30
0.0
 10
7.3606471183
 20
13.1453627543
 30
0.0
 10
7.3623397616
 20
13.1440867593
 30
0.0
 10
7.3641413223
 20
13.1426405985
 30
0.0
 10
7.3667699564
 20
13.1404154869
 30
0.0
 10
7.3702734945
 20
13.1372357362
 30
0.0
 10
7.3730675162
 20
13.1345173294
 30
0.0
 10
7.3745219623
 20
13.1330628833
 30
0.0
  0
SPLINE
  5
4D1
100
AcDbEntity
  8
0
100
AcDbSpline
 62
9
  6
CONTINUOUS
 70
0
 71
3
 72
19
 73
15
 74
0
 42
0.0000001
 43
0.0000001
 44
0.0000000001
 40
0.0
 40
0.0
 40
0.0
 40
0.0
 40
0.0106673852
 40
0.0231419097
 40
0.0534102738
 40
0.0905687835
 40
0.134315855
 40
0.1842891379
 40
0.2400747744
 40
0.3671971643
 40
0.5115304852
 40
0.6684367813
 40
0.8329639826
 40
1.0
 40
1.0
 40
1.0
 40
1.0
 10
7.2364655924
 20
13.0717044735
 30
0.0
 10
7.236656634
 20
13.071513812
 30
0.0
 10
7.2370648012
 20
13.0710938939
 30
0.0
 10
7.2379871186
 20
13.0701061131
 30
0.0
 10
7.2393315865
 20
13.0685959918
 30
0.0
 10
7.2411643127
 20
13.0664619934
 30
0.0
 10
7.243289818
 20
13.0639225749
 30
0.0
 10
7.2456903928
 20
13.0609990514
 30
0.0
 10
7.2493954618
 20
13.0564172806
 30
0.0
 10
7.2545401067
 20
13.0499295188
 30
0.0
 10
7.2611990515
 20
13.0413778651
 30
0.0
 10
7.2683715429
 20
13.0320270026
 30
0.0
 10
7.275831393
 20
13.0221729566
 30
0.0
 10
7.280855186
 20
13.0154542701
 30
0.0
 10
7.2833759522
 20
13.0120619887
 30
0.0
  0
SPLINE
  5
4D2
100
AcDbEntity
  8
0
100
AcDbSpline
 62
9
  6
CONTINUOUS
 70
0
 71
3
 72
18
 73
14
 74
0
 42
0.0000001
 43
0.0000001
 44
0.0000000001
 40
0.0
 40
0.0
 40
0.0
 40
0.0
 40
0.0660386436
 40
0.1303706161
 40
0.2534471669
 40
0.3679482105
 40
0.4778801871
 40
0.5961027596
 40
0.72349333
 40
0.7903169016
 40
0.858905337
 40
0.9288991056
 40
1.0
 40
1.0
 40
1.0
 40
1.0
 10
7.2377327972
 20
13.0869787549
 30
0.0
 10
7.2379535541
 20
13.0866848019
 30
0.0
 10
7.238361465
 20
13.0860827993
 30
0.0
 10
7.2390358521
 20
13.0848415989
 30
0.0
 10
7.2396290199
 20
13.083258195
 30
0.0
 10
7.2399851489
 20
13.0813479249
 30
0.0
 10
7.240026237
 20
13.0794328946
 30
0.0
 10
7.2397458842
 20
13.0774645341
 30
0.0
 10
7.2392048156
 20
13.0758008628
 30
0.0
 10
7.2385669039
 20
13.0744823969
 30
0.0
 10
7.237974339
 20
13.0735024276
 30
0.0
 10
7.2372777264
 20
13.0725637061
 30
0.0
 10
7.2367487006
 20
13.0719811042
 30
0.0
 10
7.2364687188
 20
13.0717013451
 30
0.0
  0
SPLINE
  5
4D3
100
AcDbEntity
  8
0
100
AcDbSpline
 62
7
  6
CONTINUOUS
 70
0
 71
3
 72
15
 73
11
 74
0
 42
0.0000001
 43
0.0000001
 44
0.0000000001
 40
0.0
 40
0.0
 40
0.0
 40
0.0
 40
0.0340468593
 40
0.072525461
 40
0.1623536811
 40
0.2685107083
 40
0.3898515984
 40
0.5250983338
 40
0.672866238
 40
1.0
 40
1.0
 40
1.0
 40
1.0
 10
9.0659390838
 20
11.4646496404
 30
0.0
 10
9.0664000376
 20
11.4644557301
 30
0.0
 10
9.0673761538
 20
11.4640288673
 30
0.0
 10
9.0695413516
 20
11.4630293794
 30
0.0
 10
9.0726318008
 20
11.4615087928
 30
0.0
 10
9.0767695967
 20
11.4593630259
 30
0.0
 10
9.0814598904
 20
11.4568350645
 30
0.0
 10
9.0866526289
 20
11.4539522537
 30
0.0
 10
9.0944430648
 20
11.4495221493
 30
0.0
 10
9.1004605164
 20
11.4459935549
 30
0.0
 10
9.1045899634
 20
11.44353692
 30
0.0
  0
SPLINE
  5
4D4
100
AcDbEntity
  8
0
100
AcDbSpline
 62
7
  6
CONTINUOUS
 70
0
 71
3
 72
28
 73
24
 74
0
 42
0.0000001
 43
0.0000001
 44
0.0000000001
 40
0.0
 40
0.0
 40
0.0
 40
0.0
 40
0.0096977642
 40
0.0197995274
 40
0.03071052
 40
0.0427502034
 40
0.0561516834
 40
0.0710774228
 40
0.087635641
 40
0.1058974566
 40
0.1259041159
 40
0.1476776676
 40
0.1712230219
 40
0.1965329606
 40
0.2523627945
 40
0.3149356752
 40
0.3839026083
 40
0.4588239935
 40
0.539182246
 40
0.6243895863
 40
0.7137982377
 40
0.8067047958
 40
1.0
 40
1.0
 40
1.0
 40
1.0
 10
7.8194735895
 20
12.6706331941
 30
0.0
 10
7.8196218583
 20
12.6707814636
 30
0.0
 10
7.8199603903
 20
12.6710504177
 30
0.0
 10
7.8205620087
 20
12.6713420031
 30
0.0
 10
7.8212565798
 20
12.6715255486
 30
0.0
 10
7.8220414512
 20
12.6716029228
 30
0.0
 10
7.822915781
 20
12.6715757151
 30
0.0
 10
7.8238788072
 20
12.6714446122
 30
0.0
 10
7.8249295823
 20
12.6712100835
 30
0.0
 10
7.8260667086
 20
12.6708723115
 30
0.0
 10
7.8272885294
 20
12.6704317701
 30
0.0
 10
7.8285930083
 20
12.6698889118
 30
0.0
 10
7.8299779497
 20
12.6692445463
 30
0.0
 10
7.8319952437
 20
12.6682170772
 30
0.0
 10
7.8346954067
 20
12.6666757211
 30
0.0
 10
7.8381142374
 20
12.6644999874
 30
0.0
 10
7.8417838106
 20
12.6619561341
 30
0.0
 10
7.845675395
 20
12.6590626676
 30
0.0
 10
7.8497579174
 20
12.6558412729
 30
0.0
 10
7.8539981205
 20
12.6523170752
 30
0.0
 10
7.8583609186
 20
12.6485183376
 30
0.0
 10
7.8643719563
 20
12.6430565039
 30
0.0
 10
7.8688266008
 20
12.6387582448
 30
0.0
 10
7.8717818916
 20
12.635802954
 30
0.0
  0
SPLINE
  5
4D5
100
AcDbEntity
  8
0
100
AcDbSpline
 62
9
  6
CONTINUOUS
 70
0
 71
3
 72
31
 73
27
 74
0
 42
0.0000001
 43
0.0000001
 44
0.0000000001
 40
0.0
 40
0.0
 40
0.0
 40
0.0
 40
0.0990109479
 40
0.1841094373
 40
0.2552866679
 40
0.2856624588
 40
0.312573325
 40
0.3360444978
 40
0.3561254716
 40
0.3729117275
 40
0.3865825879
 40
0.3974869469
 40
0.4063263216
 40
0.4143823423
 40
0.4232868618
 40
0.4342945619
 40
0.4480925473
 40
0.4650269266
 40
0.4852755723
 40
0.5089332713
 40
0.5360529811
 40
0.600777032
 40
0.6795662424
 40
0.772434652
 40
0.8793064901
 40
1.0
 40
1.0
 40
1.0
 40
1.0
 10
8.5603867609
 20
11.760768083
 30
0.0
 10
8.5606994924
 20
11.760587542
 30
0.0
 10
8.5612842987
 20
11.7602574229
 30
0.0
 10
8.5621073921
 20
11.7598219872
 30
0.0
 10
8.5627206947
 20
11.7595259228
 30
0.0
 10
8.5631511634
 20
11.7593407747
 30
0.0
 10
8.5634257667
 20
11.7592340579
 30
0.0
 10
8.5636694006
 20
11.7591519394
 30
0.0
 10
8.5638820022
 20
11.759094425
 30
0.0
 10
8.5640636402
 20
11.7590614038
 30
0.0
 10
8.5642148214
 20
11.7590528684
 30
0.0
 10
8.5643366383
 20
11.7590690785
 30
0.0
 10
8.5644308007
 20
11.7591135022
 30
0.0
 10
8.5644905407
 20
11.7591909428
 30
0.0
 10
8.564510338
 20
11.7592936897
 30
0.0
 10
8.5644965651
 20
11.7594168555
 30
0.0
 10
8.5644518525
 20
11.7595629608
 30
0.0
 10
8.5643761541
 20
11.7597331053
 30
0.0
 10
8.5642693151
 20
11.7599277891
 30
0.0
 10
8.5641312182
 20
11.7601470831
 30
0.0
 10
8.5638907398
 20
11.7604930738
 30
0.0
 10
8.5635081201
 20
11.760984365
 30
0.0
 10
8.5629491025
 20
11.7616408557
 30
0.0
 10
8.5622663726
 20
11.7623932297
 30
0.0
 10
8.5614609437
 20
11.7632401149
 30
0.0
 10
8.5608781033
 20
11.7638310434
 30
0.0
 10
8.5605668464
 20
11.7641422988
 30
0.0
  0
LINE
  5
4D6
100
AcDbEntity
  8
0
100
AcDbLine
 62
9
  6
CONTINUOUS
 10
8.6060063586
 20
11.7187027865
 11
8.6032736708
 21
11.7211806195
  0
SPLINE
  5
4D7
100
AcDbEntity
  8
0
100
AcDbSpline
 62
9
  6
CONTINUOUS
 70
0
 71
3
 72
15
 73
11
 74
0
 42
0.0000001
 43
0.0000001
 44
0.0000000001
 40
0.0
 40
0.0
 40
0.0
 40
0.0
 40
0.0312242497
 40
0.0677542742
 40
0.1558569665
 40
0.262515568
 40
0.38569241
 40
0.5234567308
 40
0.6736275965
 40
1.0
 40
1.0
 40
1.0
 40
1.0
 10
8.6032736708
 20
11.7211806195
 30
0.0
 10
8.6027728528
 20
11.7216138887
 30
0.0
 10
8.6016803539
 20
11.7225473909
 30
0.0
 10
8.5991506046
 20
11.7246750497
 30
0.0
 10
8.5953680688
 20
11.7277985087
 30
0.0
 10
8.5901383635
 20
11.7320551651
 30
0.0
 10
8.5840665385
 20
11.7369455262
 30
0.0
 10
8.5772536094
 20
11.7423868139
 30
0.0
 10
8.5670446019
 20
11.7504813802
 30
0.0
 10
8.5590970472
 20
11.7567252487
 30
0.0
 10
8.5536441833
 20
11.7609889597
 30
0.0
  0
SPLINE
  5
4D8
100
AcDbEntity
  8
0
100
AcDbSpline
 62
9
  6
CONTINUOUS
 70
0
 71
3
 72
30
 73
26
 74
0
 42
0.0000001
 43
0.0000001
 44
0.0000000001
 40
0.0
 40
0.0
 40
0.0
 40
0.0
 40
0.1354170674
 40
0.2571163135
 40
0.3650254662
 40
0.4590784535
 40
0.5392202773
 40
0.6054327089
 40
0.6577473693
 40
0.6787289377
 40
0.6962980617
 40
0.7105170604
 40
0.7215121833
 40
0.7295706625
 40
0.7354367104
 40
0.7408586083
 40
0.7479288655
 40
0.757740867
 40
0.7707157572
 40
0.7870346747
 40
0.8067934642
 40
0.8300521848
 40
0.8568520779
 40
0.9211902974
 40
1.0
 40
1.0
 40
1.0
 40
1.0
 10
8.6043025293
 20
11.7192603666
 30
0.0
 10
8.6044371953
 20
11.719170641
 30
0.0
 10
8.6046934813
 20
11.7190011693
 30
0.0
 10
8.6050594709
 20
11.7187638427
 30
0.0
 10
8.6053863264
 20
11.7185570523
 30
0.0
 10
8.6056737883
 20
11.7183809409
 30
0.0
 10
8.6059216133
 20
11.71823558
 30
0.0
 10
8.6061296018
 20
11.7181210681
 30
0.0
 10
8.6062787942
 20
11.718046455
 30
0.0
 10
8.6063784672
 20
11.7180033081
 30
0.0
 10
8.6064375448
 20
11.71798115
 30
0.0
 10
8.6064866022
 20
11.7179665773
 30
0.0
 10
8.6065259235
 20
11.7179596547
 30
0.0
 10
8.6065558586
 20
11.7179598415
 30
0.0
 10
8.6065785314
 20
11.717969403
 30
0.0
 10
8.6065881755
 20
11.7179909782
 30
0.0
 10
8.6065844433
 20
11.7180180354
 30
0.0
 10
8.6065717449
 20
11.7180514327
 30
0.0
 10
8.6065491237
 20
11.7180924795
 30
0.0
 10
8.6065166695
 20
11.7181413173
 30
0.0
 10
8.6064741115
 20
11.7181980731
 30
0.0
 10
8.6064214064
 20
11.7182627647
 30
0.0
 10
8.6063318744
 20
11.7183660884
 30
0.0
 10
8.6061933776
 20
11.7185146944
 30
0.0
 10
8.606073169
 20
11.7186364135
 30
0.0
 10
8.6060063586
 20
11.7187027865
 30
0.0
  0
SPLINE
  5
4D9
100
AcDbEntity
  8
0
100
AcDbSpline
 62
7
  6
CONTINUOUS
 70
0
 71
3
 72
15
 73
11
 74
0
 42
0.0000001
 43
0.0000001
 44
0.0000000001
 40
0.0
 40
0.0
 40
0.0
 40
0.0
 40
0.1162750465
 40
0.2381697403
 40
0.3642093174
 40
0.4928287322
 40
0.6223939577
 40
0.7512306357
 40
0.8776511086
 40
1.0
 40
1.0
 40
1.0
 40
1.0
 10
8.357466586
 20
12.142319322
 30
0.0
 10
8.359462752
 20
12.1409398406
 30
0.0
 10
8.3635128864
 20
12.1380579425
 30
0.0
 10
8.3695981244
 20
12.1335032426
 30
0.0
 10
8.3757824747
 20
12.1286543462
 30
0.0
 10
8.38198542
 20
12.1235727893
 30
0.0
 10
8.388124886
 20
12.1183244435
 30
0.0
 10
8.3941184137
 20
12.1129786888
 30
0.0
 10
8.3998847631
 20
12.1076072577
 30
0.0
 10
8.4036021426
 20
12.103982703
 30
0.0
 10
8.405407526
 20
12.1021773196
 30
0.0
  0
SPLINE
  5
4DA
100
AcDbEntity
  8
0
100
AcDbSpline
 62
7
  6
CONTINUOUS
 70
0
 71
3
 72
22
 73
18
 74
0
 42
0.0000001
 43
0.0000001
 44
0.0000000001
 40
0.0
 40
0.0
 40
0.0
 40
0.0
 40
0.0092013915
 40
0.0190481064
 40
0.0298285653
 40
0.041759505
 40
0.0696293715
 40
0.1034753797
 40
0.143665246
 40
0.1903603206
 40
0.2436000169
 40
0.3033534987
 40
0.3695375503
 40
0.4420356544
 40
0.6053583126
 40
0.7919118114
 40
1.0
 40
1.0
 40
1.0
 40
1.0
 10
8.724541541
 20
11.7470273644
 30
0.0
 10
8.7245940343
 20
11.7470798597
 30
0.0
 10
8.7247146197
 20
11.7471770896
 30
0.0
 10
8.7249280008
 20
11.7472908073
 30
0.0
 10
8.7251772877
 20
11.7473765058
 30
0.0
 10
8.7255780581
 20
11.7474581312
 30
0.0
 10
8.7261752238
 20
11.7474810784
 30
0.0
 10
8.726994907
 20
11.7474018635
 30
0.0
 10
8.72795249
 20
11.7472173217
 30
0.0
 10
8.7290459527
 20
11.746927748
 30
0.0
 10
8.7302730747
 20
11.7465336801
 30
0.0
 10
8.7316306623
 20
11.7460359929
 30
0.0
 10
8.7331152479
 20
11.745436004
 30
0.0
 10
8.7353490185
 20
11.7444620787
 30
0.0
 10
8.7384242593
 20
11.7429914777
 30
0.0
 10
8.7424197103
 20
11.740916184
 30
0.0
 10
8.7452062046
 20
11.7393748214
 30
0.0
 10
8.7466669133
 20
11.7385471809
 30
0.0
  0
SPLINE
  5
4DB
100
AcDbEntity
  8
0
100
AcDbSpline
 62
7
  6
CONTINUOUS
 70
0
 71
3
 72
24
 73
20
 74
0
 42
0.0000001
 43
0.0000001
 44
0.0000000001
 40
0.0
 40
0.0
 40
0.0
 40
0.0
 40
0.0083898092
 40
0.017545406
 40
0.0277681507
 40
0.039270442
 40
0.0521969066
 40
0.0666453579
 40
0.1003307086
 40
0.1406255264
 40
0.1876172485
 40
0.2412874716
 40
0.3015511828
 40
0.3682804787
 40
0.4413119537
 40
0.520459096
 40
0.6055114352
 40
0.7924046566
 40
1.0
 40
1.0
 40
1.0
 40
1.0
 10
8.9486302715
 20
11.5811867757
 30
0.0
 10
8.9486930549
 20
11.5812495559
 30
0.0
 10
8.9488406122
 20
11.5813651895
 30
0.0
 10
8.9491052088
 20
11.5814964995
 30
0.0
 10
8.9494188465
 20
11.5815924078
 30
0.0
 10
8.949781182
 20
11.5816537019
 30
0.0
 10
8.9501922638
 20
11.5816809556
 30
0.0
 10
8.9508389216
 20
11.5816713871
 30
0.0
 10
8.9517706067
 20
11.5815636386
 30
0.0
 10
8.9530261111
 20
11.5813089454
 30
0.0
 10
8.954467662
 20
11.5809224308
 30
0.0
 10
8.9560907659
 20
11.5804053772
 30
0.0
 10
8.957890539
 20
11.5797592394
 30
0.0
 10
8.9598613358
 20
11.5789860496
 30
0.0
 10
8.9619971361
 20
11.57808826
 30
0.0
 10
8.9642914756
 20
11.5770686631
 30
0.0
 10
8.9676601842
 20
11.5755008773
 30
0.0
 10
8.9722109275
 20
11.5732533055
 30
0.0
 10
8.9759099122
 20
11.5713171102
 30
0.0
 10
8.9778467152
 20
11.5702801681
 30
0.0
  0
SPLINE
  5
4DC
100
AcDbEntity
  8
0
100
AcDbSpline
 62
9
  6
CONTINUOUS
 70
0
 71
3
 72
19
 73
15
 74
0
 42
0.0000001
 43
0.0000001
 44
0.0000000001
 40
0.0
 40
0.0
 40
0.0
 40
0.0
 40
0.140336198
 40
0.2880392238
 40
0.4371371449
 40
0.5815374079
 40
0.7152268819
 40
0.7763479575
 40
0.8327776881
 40
0.8839126767
 40
0.9291956932
 40
0.9680634374
 40
0.9849396004
 40
1.0
 40
1.0
 40
1.0
 40
1.0
 10
8.4732228769
 20
11.835740131
 30
0.0
 10
8.4774458988
 20
11.8325616808
 30
0.0
 10
8.4860736569
 20
11.8259847305
 30
0.0
 10
8.4990659473
 20
11.8158718989
 30
0.0
 10
8.5120809152
 20
11.8055401888
 30
0.0
 10
8.5245834972
 20
11.7954131639
 30
0.0
 10
8.5344218881
 20
11.7872624295
 30
0.0
 10
8.5416463226
 20
11.7811511585
 30
0.0
 10
8.5464644726
 20
11.7770099137
 30
0.0
 10
8.5507949586
 20
11.7732167674
 30
0.0
 10
8.5545886359
 20
11.769815133
 30
0.0
 10
8.5573826276
 20
11.7672318153
 30
0.0
 10
8.55930928
 20
11.7653880007
 30
0.0
 10
8.5601665552
 20
11.7645441779
 30
0.0
 10
8.5605668464
 20
11.7641422988
 30
0.0
  0
SPLINE
  5
4DD
100
AcDbEntity
  8
0
100
AcDbSpline
 62
9
  6
CONTINUOUS
 70
0
 71
3
 72
18
 73
14
 74
0
 42
0.0000001
 43
0.0000001
 44
0.0000000001
 40
0.0
 40
0.0
 40
0.0
 40
0.0
 40
0.0642726629
 40
0.1270345053
 40
0.2476878736
 40
0.360812653
 40
0.4703114412
 40
0.5890331218
 40
0.7179563567
 40
0.785911753
 40
0.8558363302
 40
0.9273191895
 40
1.0
 40
1.0
 40
1.0
 40
1.0
 10
8.5605677449
 20
11.764143634
 30
0.0
 10
8.560286385
 20
11.7643517645
 30
0.0
 10
8.5597087212
 20
11.7647350207
 30
0.0
 10
8.5585129693
 20
11.7653627464
 30
0.0
 10
8.556979809
 20
11.765901989
 30
0.0
 10
8.5551257886
 20
11.7662003618
 30
0.0
 10
8.5532593124
 20
11.7661915137
 30
0.0
 10
8.551333028
 20
11.7658677484
 30
0.0
 10
8.5497013756
 20
11.7652989929
 30
0.0
 10
8.5484022864
 20
11.7646451505
 30
0.0
 10
8.5474323559
 20
11.764043042
 30
0.0
 10
8.5465000663
 20
11.7633406081
 30
0.0
 10
8.545919177
 20
11.7628105723
 30
0.0
 10
8.5456394394
 20
11.7625306245
 30
0.0
  0
SPLINE
  5
4DE
100
AcDbEntity
  8
0
100
AcDbSpline
 62
9
  6
CONTINUOUS
 70
0
 71
3
 72
30
 73
26
 74
0
 42
0.0000001
 43
0.0000001
 44
0.0000000001
 40
0.0
 40
0.0
 40
0.0
 40
0.0
 40
0.1299950905
 40
0.2462461053
 40
0.3489011351
 40
0.4378642845
 40
0.5130699822
 40
0.5746374883
 40
0.6003851291
 40
0.6228345449
 40
0.642063383
 40
0.6581985553
 40
0.6714611429
 40
0.6822547756
 40
0.6913161613
 40
0.6998394888
 40
0.709221161
 40
0.720530564
 40
0.7343833726
 40
0.7511047699
 40
0.7708715307
 40
0.7937909078
 40
0.8493210698
 40
0.9180116158
 40
1.0
 40
1.0
 40
1.0
 40
1.0
 10
7.29727839
 20
13.0274307551
 30
0.0
 10
7.2968575637
 20
13.0278537197
 30
0.0
 10
7.2960548635
 20
13.0286494554
 30
0.0
 10
7.2948983812
 20
13.0297572858
 30
0.0
 10
7.293857932
 20
13.0307135974
 30
0.0
 10
7.2929343832
 20
13.0315182114
 30
0.0
 10
7.2921289467
 20
13.0321702971
 30
0.0
 10
7.2915259928
 20
13.0326105012
 30
0.0
 10
7.2911013785
 20
13.0328819461
 30
0.0
 10
7.2908322318
 20
13.0330350544
 30
0.0
 10
7.2905929528
 20
13.0331503855
 30
0.0
 10
7.290383277
 20
13.0332281735
 30
0.0
 10
7.2902024639
 20
13.0332685644
 30
0.0
 10
7.2900489647
 20
13.0332712326
 30
0.0
 10
7.2899213494
 20
13.0332323127
 30
0.0
 10
7.2898260069
 20
13.0331474069
 30
0.0
 10
7.2897685475
 20
13.0330232356
 30
0.0
 10
7.2897441439
 20
13.0328653319
 30
0.0
 10
7.2897496487
 20
13.0326724788
 30
0.0
 10
7.2897845083
 20
13.0324436803
 30
0.0
 10
7.2898486611
 20
13.0321784157
 30
0.0
 10
7.289982424
 20
13.031747692
 30
0.0
 10
7.2902307126
 20
13.0311187992
 30
0.0
 10
7.2906287878
 20
13.0302598546
 30
0.0
 10
7.2909452255
 20
13.0296446929
 30
0.0
 10
7.2911219589
 20
13.0293124654
 30
0.0
  0
LINE
  5
4DF
100
AcDbEntity
  8
0
100
AcDbLine
 62
9
  6
CONTINUOUS
 10
7.2911219589
 20
13.0293124654
 11
7.2919437711
 21
13.027832146
  0
SPLINE
  5
4E0
100
AcDbEntity
  8
0
100
AcDbSpline
 62
9
  6
CONTINUOUS
 70
0
 71
3
 72
53
 73
49
 74
0
 42
0.0000001
 43
0.0000001
 44
0.0000000001
 40
0.0
 40
0.0
 40
0.0
 40
0.0
 40
0.0082891452
 40
0.0154753927
 40
0.0215378223
 40
0.0265055114
 40
0.02858917
 40
0.0304099975
 40
0.0319733912
 40
0.0332888581
 40
0.034374219
 40
0.0352616755
 40
0.036008825
 40
0.0367081303
 40
0.0374692649
 40
0.0383798059
 40
0.0394926205
 40
0.0408368927
 40
0.0424288465
 40
0.0442779539
 40
0.0487679497
 40
0.0543324822
 40
0.0609789499
 40
0.0687041862
 40
0.0774977486
 40
0.0873381639
 40
0.0981981564
 40
0.1100521338
 40
0.1228741204
 40
0.1512965833
 40
0.1832002192
 40
0.2183141232
 40
0.2563538444
 40
0.2969800385
 40
0.3398237281
 40
0.3845177364
 40
0.4306736781
 40
0.4778820492
 40
0.5257302038
 40
0.6216679361
 40
0.7150822567
 40
0.8026175205
 40
0.8431956059
 40
0.881158147
 40
0.9161435216
 40
0.9478167495
 40
0.9758705966
 40
1.0
 40
1.0
 40
1.0
 40
1.0
 10
7.3885861238
 20
12.9065261603
 30
0.0
 10
7.3889169157
 20
12.9062184461
 30
0.0
 10
7.3895399112
 20
12.9056497324
 30
0.0
 10
7.3904279268
 20
12.9048816599
 30
0.0
 10
7.3912027517
 20
12.904260472
 30
0.0
 10
7.3917828286
 20
12.9038418928
 30
0.0
 10
7.3921917847
 20
12.9035835477
 30
0.0
 10
7.3924517486
 20
12.9034374847
 30
0.0
 10
7.3926832933
 20
12.9033273347
 30
0.0
 10
7.392886633
 20
12.9032530106
 30
0.0
 10
7.3930624209
 20
12.9032143878
 30
0.0
 10
7.3932120578
 20
12.9032117616
 30
0.0
 10
7.3933368535
 20
12.9032484436
 30
0.0
 10
7.3934314561
 20
12.9033284994
 30
0.0
 10
7.393490355
 20
12.9034465054
 30
0.0
 10
7.3935172395
 20
12.9035971579
 30
0.0
 10
7.3935151614
 20
12.903781398
 30
0.0
 10
7.3934846153
 20
12.9040003623
 30
0.0
 10
7.3934256257
 20
12.9042546753
 30
0.0
 10
7.3933003458
 20
12.9046686304
 30
0.0
 10
7.3930647866
 20
12.9052740013
 30
0.0
 10
7.3926849112
 20
12.9061014847
 30
0.0
 10
7.3921906041
 20
12.9070694255
 30
0.0
 10
7.3915825099
 20
12.9081760755
 30
0.0
 10
7.3908615442
 20
12.9094188625
 30
0.0
 10
7.3900297243
 20
12.9107945162
 30
0.0
 10
7.3890894524
 20
12.9122992768
 30
0.0
 10
7.3880431634
 20
12.9139292311
 30
0.0
 10
7.3864546472
 20
12.916348396
 30
0.0
 10
7.3842211041
 20
12.9196510442
 30
0.0
 10
7.3812494327
 20
12.9239206024
 30
0.0
 10
7.3779268597
 20
12.9285841323
 30
0.0
 10
7.374281321
 20
12.9336009264
 30
0.0
 10
7.3703450077
 20
12.9389269266
 30
0.0
 10
7.3661532988
 20
12.9445149244
 30
0.0
 10
7.3617427929
 20
12.9503153571
 30
0.0
 10
7.3571519516
 20
12.9562773355
 30
0.0
 10
7.3524214264
 20
12.9623485671
 30
0.0
 10
7.3459780447
 20
12.970524658
 30
0.0
 10
7.3378930881
 20
12.9806132567
 30
0.0
 10
7.3283255373
 20
12.9922845288
 30
0.0
 10
7.3205582957
 20
13.0015290683
 30
0.0
 10
7.314659191
 20
13.0083945873
 30
0.0
 10
7.3105884712
 20
13.0130546404
 30
0.0
 10
7.3067962705
 20
13.0173132222
 30
0.0
 10
7.3033193446
 20
13.0211290275
 30
0.0
 10
7.3001930321
 20
13.0244631992
 30
0.0
 10
7.2982093661
 20
13.0265018507
 30
0.0
 10
7.29727839
 20
13.0274307551
 30
0.0
  0
SPLINE
  5
4E1
100
AcDbEntity
  8
0
100
AcDbSpline
 62
9
  6
CONTINUOUS
 70
0
 71
3
 72
43
 73
39
 74
0
 42
0.0000001
 43
0.0000001
 44
0.0000000001
 40
0.0
 40
0.0
 40
0.0
 40
0.0
 40
0.1044908112
 40
0.2093857455
 40
0.3126974893
 40
0.4124909908
 40
0.5068946075
 40
0.594174817
 40
0.6346469678
 40
0.6727672018
 40
0.7083740902
 40
0.7413183536
 40
0.7714638365
 40
0.7986923523
 40
0.8229078445
 40
0.8440392361
 40
0.862039817
 40
0.8698685373
 40
0.8769269768
 40
0.8832322019
 40
0.8888126793
 40
0.8937123083
 40
0.8959281749
 40
0.898002059
 40
0.9017792442
 40
0.9051999263
 40
0.9084688454
 40
0.9118195475
 40
0.9154697794
 40
0.9195894101
 40
0.9242958558
 40
0.9296665663
 40
0.9357525848
 40
0.9425882974
 40
0.950196994
 40
0.9585903474
 40
0.9777336663
 40
1.0
 40
1.0
 40
1.0
 40
1.0
 10
8.0312009437
 20
12.2935082015
 30
0.0
 10
8.0285327857
 20
12.2961778346
 30
0.0
 10
8.023136528
 20
12.3014780399
 30
0.0
 10
8.0149427521
 20
12.3092533073
 30
0.0
 10
8.0067405867
 20
12.3167708914
 30
0.0
 10
7.998687759
 20
12.3238880465
 30
0.0
 10
7.9909366744
 20
12.330469219
 30
0.0
 10
7.9847039244
 20
12.3355251805
 30
0.0
 10
7.9799734935
 20
12.3392027605
 30
0.0
 10
7.9766787034
 20
12.3416851144
 30
0.0
 10
7.9735618829
 20
12.3439509207
 30
0.0
 10
7.9706372607
 20
12.3459901304
 30
0.0
 10
7.9679182326
 20
12.3477936768
 30
0.0
 10
7.9654172623
 20
12.3493536489
 30
0.0
 10
7.963145648
 20
12.3506636047
 30
0.0
 10
7.9611139792
 20
12.3517181082
 30
0.0
 10
7.9595634874
 20
12.3524103451
 30
0.0
 10
7.9584486568
 20
12.3528219573
 30
0.0
 10
7.9577172682
 20
12.3530493527
 30
0.0
 10
7.9570515059
 20
12.3532101473
 30
0.0
 10
7.9564517678
 20
12.3533042855
 30
0.0
 10
7.9559925193
 20
12.3533279207
 30
0.0
 10
7.9556607517
 20
12.3533097593
 30
0.0
 10
7.9553717594
 20
12.3532708943
 30
0.0
 10
7.9550461128
 20
12.3531829865
 30
0.0
 10
7.9547094368
 20
12.3530023882
 30
0.0
 10
7.95444404
 20
12.3527483161
 30
0.0
 10
7.9542545712
 20
12.3524243715
 30
0.0
 10
7.9541406403
 20
12.3520358497
 30
0.0
 10
7.9540992584
 20
12.351584955
 30
0.0
 10
7.9541282909
 20
12.351071562
 30
0.0
 10
7.9542269725
 20
12.3504951629
 30
0.0
 10
7.954395197
 20
12.3498555042
 30
0.0
 10
7.9546331304
 20
12.3491526202
 30
0.0
 10
7.954940918
 20
12.3483868749
 30
0.0
 10
7.9554678394
 20
12.3472314955
 30
0.0
 10
7.9563086235
 20
12.3456395236
 30
0.0
 10
7.9570761682
 20
12.3443550875
 30
0.0
 10
7.9575017089
 20
12.343672584
 30
0.0
  0
SPLINE
  5
4E2
100
AcDbEntity
  8
0
100
AcDbSpline
 62
9
  6
CONTINUOUS
 70
0
 71
3
 72
41
 73
37
 74
0
 42
0.0000001
 43
0.0000001
 44
0.0000000001
 40
0.0
 40
0.0
 40
0.0
 40
0.0
 40
0.025219849
 40
0.0474436633
 40
0.0666572029
 40
0.0829101927
 40
0.0899607814
 40
0.096320937
 40
0.10202427
 40
0.1071197727
 40
0.1116787502
 40
0.1158035226
 40
0.1196351996
 40
0.1233495398
 40
0.1271382326
 40
0.1311817066
 40
0.1356278414
 40
0.1405869754
 40
0.1461374955
 40
0.1523341124
 40
0.1592150072
 40
0.1668070095
 40
0.1841881838
 40
0.2045679204
 40
0.2279657908
 40
0.2543572393
 40
0.2836942359
 40
0.3159104686
 40
0.3509166678
 40
0.3886122282
 40
0.4716078179
 40
0.5638244676
 40
0.6640899994
 40
0.7711549239
 40
0.8836193882
 40
1.0
 40
1.0
 40
1.0
 40
1.0
 10
8.0646697544
 20
12.2410550443
 30
0.0
 10
8.0652595629
 20
12.2407242052
 30
0.0
 10
8.066379567
 20
12.2401200872
 30
0.0
 10
8.0679895549
 20
12.2393419143
 30
0.0
 10
8.0694200436
 20
12.2387505776
 30
0.0
 10
8.0705062158
 20
12.2383975795
 30
0.0
 10
8.0712818898
 20
12.2382191565
 30
0.0
 10
8.0717886848
 20
12.2381393231
 30
0.0
 10
8.0722483598
 20
12.2381069826
 30
0.0
 10
8.0726608726
 20
12.2381224657
 30
0.0
 10
8.0730262199
 20
12.2381863797
 30
0.0
 10
8.0733440983
 20
12.2382999676
 30
0.0
 10
8.073613268
 20
12.2384644964
 30
0.0
 10
8.0738314529
 20
12.2386801007
 30
0.0
 10
8.0739966944
 20
12.2389450204
 30
0.0
 10
8.0741089852
 20
12.2392567291
 30
0.0
 10
8.0741697154
 20
12.2396137355
 30
0.0
 10
8.0741800767
 20
12.2400157065
 30
0.0
 10
8.0741407179
 20
12.2404627081
 30
0.0
 10
8.0740518865
 20
12.2409548027
 30
0.0
 10
8.0739136815
 20
12.2414919572
 30
0.0
 10
8.0736513404
 20
12.2423052568
 30
0.0
 10
8.0731896867
 20
12.2434321421
 30
0.0
 10
8.0724639503
 20
12.2449036841
 30
0.0
 10
8.0715442086
 20
12.2465459262
 30
0.0
 10
8.0704329946
 20
12.2483539275
 30
0.0
 10
8.0691332142
 20
12.2503220022
 30
0.0
 10
8.0676486845
 20
12.2524436703
 30
0.0
 10
8.0659842065
 20
12.2547120456
 30
0.0
 10
8.0634495154
 20
12.2580297938
 30
0.0
 10
8.0598670125
 20
12.2624761216
 30
0.0
 10
8.0550840064
 20
12.2681061588
 30
0.0
 10
8.0497509791
 20
12.2741132262
 30
0.0
 10
8.0439364116
 20
12.2804165945
 30
0.0
 10
8.0377163724
 20
12.2869319241
 30
0.0
 10
8.0334087768
 20
12.2913026956
 30
0.0
 10
8.0312009437
 20
12.2935082015
 30
0.0
  0
SPLINE
  5
4E3
100
AcDbEntity
  8
0
100
AcDbSpline
 62
9
  6
CONTINUOUS
 70
0
 71
3
 72
51
 73
47
 74
0
 42
0.0000001
 43
0.0000001
 44
0.0000000001
 40
0.0
 40
0.0
 40
0.0
 40
0.0
 40
0.0299504577
 40
0.0632850426
 40
0.0996541477
 40
0.1387049153
 40
0.2234509732
 40
0.3146430492
 40
0.4093257747
 40
0.50440129
 40
0.5511146871
 40
0.5967746836
 40
0.6410199918
 40
0.6835001408
 40
0.7238680817
 40
0.7617915471
 40
0.7969646579
 40
0.8290977506
 40
0.8579481366
 40
0.8833230083
 40
0.8946571138
 40
0.9050643811
 40
0.9145212637
 40
0.9230035051
 40
0.930486748
 40
0.9369501637
 40
0.9423819781
 40
0.9467885106
 40
0.9486228371
 40
0.9502243199
 40
0.9516086574
 40
0.9527992514
 40
0.9538318621
 40
0.9547597268
 40
0.9556539898
 40
0.9565925124
 40
0.9576424744
 40
0.9588518639
 40
0.9602518651
 40
0.9618626573
 40
0.9657630491
 40
0.9706164633
 40
0.9764455765
 40
0.9832635152
 40
0.9911050212
 40
1.0
 40
1.0
 40
1.0
 40
1.0
 10
8.476838279
 20
11.8478708661
 30
0.0
 10
8.4757248942
 20
11.8489880368
 30
0.0
 10
8.4733453216
 20
11.8513217249
 30
0.0
 10
8.4695409903
 20
11.8549369289
 30
0.0
 10
8.4653380636
 20
11.8588276729
 30
0.0
 10
8.4590859907
 20
11.8644895236
 30
0.0
 10
8.4505834225
 20
11.8719662403
 30
0.0
 10
8.4397378698
 20
11.8812122421
 30
0.0
 10
8.4283450269
 20
11.8906525181
 30
0.0
 10
8.4186485583
 20
11.8984670142
 30
0.0
 10
8.4108990892
 20
11.9045818571
 30
0.0
 10
8.4052191584
 20
11.9089978863
 30
0.0
 10
8.3996832788
 20
11.9132356776
 30
0.0
 10
8.3943361438
 20
11.9172612098
 30
0.0
 10
8.3892213124
 20
11.9210413935
 30
0.0
 10
8.3843808279
 20
11.9245448959
 30
0.0
 10
8.3798549772
 20
11.927742906
 30
0.0
 10
8.3756804026
 20
11.9306093774
 30
0.0
 10
8.3718897789
 20
11.9331224351
 30
0.0
 10
8.3689740944
 20
11.9349719876
 30
0.0
 10
8.3668517321
 20
11.9362574666
 30
0.0
 10
8.3654331214
 20
11.9370863887
 30
0.0
 10
8.3641301214
 20
11.9378149978
 30
0.0
 10
8.362946502
 20
11.93844095
 30
0.0
 10
8.3618861892
 20
11.9389618421
 30
0.0
 10
8.360952857
 20
11.9393755371
 30
0.0
 10
8.3601498328
 20
11.93968031
 30
0.0
 10
8.3595584934
 20
11.9398528039
 30
0.0
 10
8.3591521664
 20
11.9399286398
 30
0.0
 10
8.3588992803
 20
11.9399545017
 30
0.0
 10
8.3586787892
 20
11.939953194
 30
0.0
 10
8.3584900978
 20
11.9399245241
 30
0.0
 10
8.3583327091
 20
11.9398676846
 30
0.0
 10
8.3582073299
 20
11.9397810781
 30
0.0
 10
8.3581167049
 20
11.9396644503
 30
0.0
 10
8.3580624301
 20
11.9395206155
 30
0.0
 10
8.3580429721
 20
11.9393520615
 30
0.0
 10
8.3580565021
 20
11.9391590358
 30
0.0
 10
8.3581022034
 20
11.9389410229
 30
0.0
 10
8.3582133166
 20
11.9385939439
 30
0.0
 10
8.3584423442
 20
11.9380966674
 30
0.0
 10
8.3588274504
 20
11.9374316523
 30
0.0
 10
8.3593398374
 20
11.9366649961
 30
0.0
 10
8.3599803035
 20
11.9357963575
 30
0.0
 10
8.3607523126
 20
11.9348251798
 30
0.0
 10
8.3613206881
 20
11.9341514147
 30
0.0
 10
8.3616264948
 20
11.9337965847
 30
0.0
  0
LINE
  5
4E4
100
AcDbEntity
  8
0
100
AcDbLine
 62
9
  6
CONTINUOUS
 10
8.4803337201
 20
11.8372123021
 11
8.4817447011
 21
11.8364545195
  0
SPLINE
  5
4E5
100
AcDbEntity
  8
0
100
AcDbSpline
 62
9
  6
CONTINUOUS
 70
0
 71
3
 72
32
 73
28
 74
0
 42
0.0000001
 43
0.0000001
 44
0.0000000001
 40
0.0
 40
0.0
 40
0.0
 40
0.0
 40
0.0722702142
 40
0.131760081
 40
0.1567204667
 40
0.1785287272
 40
0.1972496084
 40
0.2130012741
 40
0.2259986493
 40
0.2366392988
 40
0.2456576483
 40
0.2499335625
 40
0.2542672449
 40
0.2637138996
 40
0.2750607108
 40
0.2889061521
 40
0.3055749918
 40
0.3252471238
 40
0.3480271578
 40
0.3739784401
 40
0.4031396566
 40
0.4711331776
 40
0.551995025
 40
0.6455639167
 40
0.7516033503
 40
0.8698426976
 40
1.0
 40
1.0
 40
1.0
 40
1.0
 10
8.4817447011
 20
11.8364545195
 30
0.0
 10
8.4822180878
 20
11.8362095856
 30
0.0
 10
8.4830888607
 20
11.8357776972
 30
0.0
 10
8.4841502837
 20
11.8353176728
 30
0.0
 10
8.484888014
 20
11.8350524974
 30
0.0
 10
8.4853508638
 20
11.8349134489
 30
0.0
 10
8.4857562211
 20
11.8348221043
 30
0.0
 10
8.4861043322
 20
11.8347783191
 30
0.0
 10
8.4863961053
 20
11.8347823875
 30
0.0
 10
8.4866336171
 20
11.8348354119
 30
0.0
 10
8.4867888503
 20
11.8349284062
 30
0.0
 10
8.4868748536
 20
11.835027098
 30
0.0
 10
8.4869406891
 20
11.8351438626
 30
0.0
 10
8.4869813756
 20
11.835328619
 30
0.0
 10
8.4869657371
 20
11.8355854777
 30
0.0
 10
8.4868921405
 20
11.8358864504
 30
0.0
 10
8.4867605674
 20
11.8362330704
 30
0.0
 10
8.4865709658
 20
11.8366261454
 30
0.0
 10
8.4863230096
 20
11.8370657786
 30
0.0
 10
8.4860165757
 20
11.8375518978
 30
0.0
 10
8.4855029248
 20
11.8383007594
 30
0.0
 10
8.4847087997
 20
11.8393470928
 30
0.0
 10
8.4835697799
 20
11.8407256009
 30
0.0
 10
8.4822035872
 20
11.8422790739
 30
0.0
 10
8.4806141681
 20
11.8440023179
 30
0.0
 10
8.4788057252
 20
11.8458899526
 30
0.0
 10
8.4775176251
 20
11.8471926798
 30
0.0
 10
8.476838279
 20
11.8478708661
 30
0.0
  0
SPLINE
  5
4E6
100
AcDbEntity
  8
0
100
AcDbSpline
 62
9
  6
CONTINUOUS
 70
0
 71
3
 72
39
 73
35
 74
0
 42
0.0000001
 43
0.0000001
 44
0.0000000001
 40
0.0
 40
0.0
 40
0.0
 40
0.0
 40
0.1208686393
 40
0.2359347835
 40
0.3440207548
 40
0.4440829106
 40
0.5351585088
 40
0.6164387689
 40
0.6531852175
 40
0.6872066321
 40
0.718404152
 40
0.7466869179
 40
0.7719851235
 40
0.7942649363
 40
0.8135596428
 40
0.8299423903
 40
0.8435469496
 40
0.8493848461
 40
0.85463856
 40
0.8593772219
 40
0.8636961918
 40
0.8677222647
 40
0.8716110973
 40
0.8755345595
 40
0.8796599471
 40
0.8841312918
 40
0.8890616984
 40
0.8945352664
 40
0.9006128876
 40
0.9147356876
 40
0.9316638376
 40
0.9514995904
 40
0.9742808104
 40
1.0
 40
1.0
 40
1.0
 40
1.0
 10
7.6947089856
 20
12.6300001596
 30
0.0
 10
7.6928205705
 20
12.6318933602
 30
0.0
 10
7.6891059693
 20
12.6355606471
 30
0.0
 10
7.6836072881
 20
12.6408232127
 30
0.0
 10
7.6783565479
 20
12.6456776657
 30
0.0
 10
7.6734099246
 20
12.6500775744
 30
0.0
 10
7.6688168992
 20
12.6539804969
 30
0.0
 10
7.6652108554
 20
12.6568795306
 30
0.0
 10
7.662533238
 20
12.6589158955
 30
0.0
 10
7.660709929
 20
12.660244446
 30
0.0
 10
7.6590088725
 20
12.6614218859
 30
0.0
 10
7.6574356692
 20
12.6624436669
 30
0.0
 10
7.6559954332
 20
12.6633062049
 30
0.0
 10
7.6546917554
 20
12.6640069505
 30
0.0
 10
7.6535271953
 20
12.6645460604
 30
0.0
 10
7.6525032128
 20
12.664924079
 30
0.0
 10
7.651730948
 20
12.6651152216
 30
0.0
 10
7.6511872173
 20
12.6651762316
 30
0.0
 10
7.6508362282
 20
12.6651787124
 30
0.0
 10
7.650520898
 20
12.6651401151
 30
0.0
 10
7.6502413371
 20
12.6650596906
 30
0.0
 10
7.6499982088
 20
12.6649366794
 30
0.0
 10
7.6497929104
 20
12.6647707745
 30
0.0
 10
7.6496269033
 20
12.6645628205
 30
0.0
 10
7.6495006338
 20
12.6643144104
 30
0.0
 10
7.649413495
 20
12.6640267752
 30
0.0
 10
7.6493647159
 20
12.6637003718
 30
0.0
 10
7.6493537458
 20
12.6633352238
 30
0.0
 10
7.6493913668
 20
12.6627677883
 30
0.0
 10
7.6495445504
 20
12.6619580762
 30
0.0
 10
7.6498674403
 20
12.6608784014
 30
0.0
 10
7.6503384988
 20
12.6596471189
 30
0.0
 10
7.650957052
 20
12.6582670276
 30
0.0
 10
7.6514380251
 20
12.6573075272
 30
0.0
 10
7.6517012797
 20
12.6568030976
 30
0.0
  0
SPLINE
  5
4E7
100
AcDbEntity
  8
0
100
AcDbSpline
 62
9
  6
CONTINUOUS
 70
0
 71
3
 72
42
 73
38
 74
0
 42
0.0000001
 43
0.0000001
 44
0.0000000001
 40
0.0
 40
0.0
 40
0.0
 40
0.0
 40
0.0191212437
 40
0.0274831099
 40
0.035050781
 40
0.0418327377
 40
0.0478448582
 40
0.0531161657
 40
0.0576924632
 40
0.0616460446
 40
0.0650906142
 40
0.0681974976
 40
0.0711978641
 40
0.0743485285
 40
0.0778750387
 40
0.0819408348
 40
0.0866530665
 40
0.0920754595
 40
0.0982439036
 40
0.1051790708
 40
0.1128929592
 40
0.1213917259
 40
0.130677389
 40
0.1516018616
 40
0.1756219168
 40
0.2026395574
 40
0.2325320313
 40
0.2651667257
 40
0.3004026742
 40
0.3380831268
 40
0.4200305109
 40
0.5093878754
 40
0.6043411335
 40
0.7029306809
 40
0.8031359564
 40
0.9028722516
 40
1.0
 40
1.0
 40
1.0
 40
1.0
 10
7.7542016141
 20
12.5456683097
 30
0.0
 10
7.7548469287
 20
12.5452663114
 30
0.0
 10
7.7557880838
 20
12.5447092076
 30
0.0
 10
7.7570244051
 20
12.5440652799
 30
0.0
 10
7.7578425623
 20
12.5436822712
 30
0.0
 10
7.7585930149
 20
12.5433772956
 30
0.0
 10
7.759275259
 20
12.5431505441
 30
0.0
 10
7.7598890428
 20
12.5430018753
 30
0.0
 10
7.7604346566
 20
12.542931248
 30
0.0
 10
7.760912915
 20
12.5429392092
 30
0.0
 10
7.7613246597
 20
12.5430278365
 30
0.0
 10
7.7616681498
 20
12.5432014626
 30
0.0
 10
7.7619362326
 20
12.5434621265
 30
0.0
 10
7.7621231068
 20
12.5438040869
 30
0.0
 10
7.7622307842
 20
12.5442208244
 30
0.0
 10
7.7622632622
 20
12.5447110581
 30
0.0
 10
7.7622222003
 20
12.5452755133
 30
0.0
 10
7.7621085847
 20
12.5459145771
 30
0.0
 10
7.7619229233
 20
12.5466280134
 30
0.0
 10
7.7616655251
 20
12.5474151364
 30
0.0
 10
7.7613366345
 20
12.5482750747
 30
0.0
 10
7.7609365543
 20
12.5492068907
 30
0.0
 10
7.7602819666
 20
12.5506001282
 30
0.0
 10
7.759279912
 20
12.5525105353
 30
0.0
 10
7.7578465484
 20
12.5549875703
 30
0.0
 10
7.7561453021
 20
12.5577195232
 30
0.0
 10
7.7541850879
 20
12.5606921335
 30
0.0
 10
7.7519752471
 20
12.563890388
 30
0.0
 10
7.7495259247
 20
12.5672986298
 30
0.0
 10
7.7458517421
 20
12.5722401791
 30
0.0
 10
7.7407486179
 20
12.5787994146
 30
0.0
 10
7.7340557108
 20
12.5870031
 30
0.0
 10
7.7267699173
 20
12.595574049
 30
0.0
 10
7.7190438824
 20
12.604334192
 30
0.0
 10
7.7110385418
 20
12.6130992034
 30
0.0
 10
7.7029217282
 20
12.6216811962
 30
0.0
 10
7.6974412587
 20
12.6272708483
 30
0.0
 10
7.6947089856
 20
12.6300001596
 30
0.0
  0
SPLINE
  5
4E8
100
AcDbEntity
  8
0
100
AcDbSpline
 62
9
  6
CONTINUOUS
 70
0
 71
3
 72
30
 73
26
 74
0
 42
0.0000001
 43
0.0000001
 44
0.0000000001
 40
0.0
 40
0.0
 40
0.0
 40
0.0
 40
0.1009010269
 40
0.1863125921
 40
0.2566232635
 40
0.2862377296
 40
0.3121952259
 40
0.3345293811
 40
0.353295111
 40
0.3685880319
 40
0.3805900806
 40
0.3964613821
 40
0.403222127
 40
0.4115339285
 40
0.4224864609
 40
0.4365568068
 40
0.4539593914
 40
0.4748007882
 40
0.4991372616
 40
0.5269993492
 40
0.5933525813
 40
0.6739002704
 40
0.7685880991
 40
0.8773290354
 40
1.0
 40
1.0
 40
1.0
 40
1.0
 10
7.2377313564
 20
13.0869777887
 30
0.0
 10
7.2375903096
 20
13.0871202302
 30
0.0
 10
7.237327646
 20
13.0873810754
 30
0.0
 10
7.2369573197
 20
13.0877315581
 30
0.0
 10
7.2366817125
 20
13.0879758969
 30
0.0
 10
7.2364882341
 20
13.0881344289
 30
0.0
 10
7.2363654341
 20
13.088228651
 30
0.0
 10
7.2362562802
 20
13.0883052611
 30
0.0
 10
7.2361612552
 20
13.088364308
 30
0.0
 10
7.2360788576
 20
13.0884060275
 30
0.0
 10
7.2360001914
 20
13.0884350094
 30
0.0
 10
7.2359210802
 20
13.0884402585
 30
0.0
 10
7.2358790633
 20
13.0883902706
 30
0.0
 10
7.2358683437
 20
13.0883386049
 30
0.0
 10
7.2358706989
 20
13.0882721609
 30
0.0
 10
7.2358863109
 20
13.0881890979
 30
0.0
 10
7.2359149741
 20
13.0880891135
 30
0.0
 10
7.2359569096
 20
13.0879720004
 30
0.0
 10
7.2360121264
 20
13.0878377703
 30
0.0
 10
7.2361093543
 20
13.087623209
 30
0.0
 10
7.2362659261
 20
13.0873131703
 30
0.0
 10
7.2364967782
 20
13.0868923173
 30
0.0
 10
7.2367801828
 20
13.0864044394
 30
0.0
 10
7.2371157631
 20
13.0858502388
 30
0.0
 10
7.2373594479
 20
13.0854603735
 30
0.0
 10
7.2374897179
 20
13.0852544031
 30
0.0
  0
SPLINE
  5
4E9
100
AcDbEntity
  8
0
100
AcDbSpline
 62
9
  6
CONTINUOUS
 70
0
 71
3
 72
36
 73
32
 74
0
 42
0.0000001
 43
0.0000001
 44
0.0000000001
 40
0.0
 40
0.0
 40
0.0
 40
0.0
 40
0.0019765452
 40
0.0031070872
 40
0.0043673318
 40
0.0073444066
 40
0.0110056699
 40
0.0153965952
 40
0.0205399528
 40
0.0264450245
 40
0.0331140847
 40
0.048728763
 40
0.0673267547
 40
0.088814175
 40
0.1130726822
 40
0.1399639205
 40
0.1693319335
 40
0.2010056318
 40
0.234800442
 40
0.3079531458
 40
0.3870843203
 40
0.4703405233
 40
0.5557550028
 40
0.6412861272
 40
0.724860481
 40
0.8044229748
 40
0.8779943008
 40
0.9119511157
 40
0.9437327124
 40
0.9731447378
 40
1.0
 40
1.0
 40
1.0
 40
1.0
 10
8.3589797702
 20
11.9223746555
 30
0.0
 10
8.3590403853
 20
11.922435261
 30
0.0
 10
8.3591595803
 20
11.9225075206
 30
0.0
 10
8.3593409976
 20
11.9225625046
 30
0.0
 10
8.3595715957
 20
11.9225993666
 30
0.0
 10
8.3599161204
 20
11.9225951044
 30
0.0
 10
8.3603899198
 20
11.9225242827
 30
0.0
 10
8.3609461192
 20
11.9223869906
 30
0.0
 10
8.3615842727
 20
11.9221832484
 30
0.0
 10
8.3623038502
 20
11.9219131511
 30
0.0
 10
8.3634309447
 20
11.9214392182
 30
0.0
 10
8.3650313734
 20
11.9206743729
 30
0.0
 10
8.3671670154
 20
11.9195449359
 30
0.0
 10
8.3695934585
 20
11.9181663458
 30
0.0
 10
8.3722956529
 20
11.9165470489
 30
0.0
 10
8.375257008
 20
11.9146966262
 30
0.0
 10
8.3784593965
 20
11.9126260465
 30
0.0
 10
8.3818835237
 20
11.9103477179
 30
0.0
 10
8.3868500066
 20
11.9069604254
 30
0.0
 10
8.3934458498
 20
11.9023105382
 30
0.0
 10
8.4016959014
 20
11.8962871073
 30
0.0
 10
8.4102808935
 20
11.8898226645
 30
0.0
 10
8.4189958892
 20
11.8830712523
 30
0.0
 10
8.42763024
 20
11.8761948282
 30
0.0
 10
8.4359722258
 20
11.8693602599
 30
0.0
 10
8.4438149038
 20
11.8627364259
 30
0.0
 10
8.4499249333
 20
11.8573974522
 30
0.0
 10
8.4544114542
 20
11.8533513746
 30
0.0
 10
8.4574434101
 20
11.850552282
 30
0.0
 10
8.4602133088
 20
11.8479238527
 30
0.0
 10
8.461955662
 20
11.8462152952
 30
0.0
 10
8.4627787271
 20
11.8453913388
 30
0.0
  0
SPLINE
  5
4EA
100
AcDbEntity
  8
0
100
AcDbSpline
 62
7
  6
CONTINUOUS
 70
0
 71
3
 72
20
 73
16
 74
0
 42
0.0000001
 43
0.0000001
 44
0.0000000001
 40
0.0
 40
0.0
 40
0.0
 40
0.0
 40
0.0291341706
 40
0.060600241
 40
0.0954221846
 40
0.1343333865
 40
0.17783582
 40
0.226262314
 40
0.2798233597
 40
0.3386497571
 40
0.4028094088
 40
0.4723273171
 40
0.6273691477
 40
0.803462936
 40
1.0
 40
1.0
 40
1.0
 40
1.0
 10
8.7693981031
 20
11.7647317798
 30
0.0
 10
8.7695202547
 20
11.7648539218
 30
0.0
 10
8.7698049982
 20
11.7650785489
 30
0.0
 10
8.7703135386
 20
11.7653332941
 30
0.0
 10
8.7709121118
 20
11.7655168922
 30
0.0
 10
8.7715994358
 20
11.7656308413
 30
0.0
 10
8.7723750365
 20
11.7656761684
 30
0.0
 10
8.7732381935
 20
11.7656533258
 30
0.0
 10
8.774187983
 20
11.7655627039
 30
0.0
 10
8.775223202
 20
11.7654045091
 30
0.0
 10
8.7763424846
 20
11.7651791418
 30
0.0
 10
8.7780062144
 20
11.7647744834
 30
0.0
 10
8.7802834408
 20
11.7640925313
 30
0.0
 10
8.7832321457
 20
11.7630440683
 30
0.0
 10
8.7852829457
 20
11.762220515
 30
0.0
 10
8.7863574159
 20
11.7617694674
 30
0.0
  0
SPLINE
  5
4EB
100
AcDbEntity
  8
0
100
AcDbSpline
 62
9
  6
CONTINUOUS
 70
0
 71
3
 72
17
 73
13
 74
0
 42
0.0000001
 43
0.0000001
 44
0.0000000001
 40
0.0
 40
0.0
 40
0.0
 40
0.0
 40
0.1614218409
 40
0.3200174004
 40
0.4717215758
 40
0.6125977835
 40
0.7389483192
 40
0.8474461091
 40
0.894107204
 40
0.9352806433
 40
0.9706694044
 40
1.0
 40
1.0
 40
1.0
 40
1.0
 10
7.2913304278
 20
13.0212715461
 30
0.0
 10
7.2886008666
 20
13.024781826
 30
0.0
 10
7.2831733316
 20
13.0317283427
 30
0.0
 10
7.2751252134
 20
13.0419304263
 30
0.0
 10
7.2673789734
 20
13.0516495962
 30
0.0
 10
7.2601357499
 20
13.0606336195
 30
0.0
 10
7.2535853705
 20
13.0686471036
 30
0.0
 10
7.2486262384
 20
13.0746089991
 30
0.0
 10
7.2451275545
 20
13.0787332431
 30
0.0
 10
7.2429112467
 20
13.08130428
 30
0.0
 10
7.2409838798
 20
13.0834938936
 30
0.0
 10
7.2397868011
 20
13.0848151938
 30
0.0
 10
7.2392370479
 20
13.0854072847
 30
0.0
  0
LINE
  5
4EC
100
AcDbEntity
  8
0
100
AcDbLine
 62
9
  6
CONTINUOUS
 10
7.2392370479
 20
13.0854072847
 11
7.2377313564
 21
13.0869777887
  0
SPLINE
  5
4ED
100
AcDbEntity
  8
0
100
AcDbSpline
 62
9
  6
CONTINUOUS
 70
0
 71
3
 72
42
 73
38
 74
0
 42
0.0000001
 43
0.0000001
 44
0.0000000001
 40
0.0
 40
0.0
 40
0.0
 40
0.0
 40
0.1136344523
 40
0.2243840622
 40
0.3306085773
 40
0.4308009731
 40
0.5235918495
 40
0.6077501887
 40
0.6461884727
 40
0.6819819371
 40
0.7149871372
 40
0.7451122502
 40
0.7723008768
 40
0.7965081604
 40
0.8177030748
 40
0.8358792197
 40
0.8438497374
 40
0.8510894099
 40
0.8576176916
 40
0.8634638899
 40
0.8686711491
 40
0.8733031398
 40
0.8774530353
 40
0.8812525951
 40
0.8848751466
 40
0.8885214332
 40
0.8923885219
 40
0.8966425679
 40
0.9014076247
 40
0.9067700567
 40
0.9127887637
 40
0.9195035588
 40
0.9269413
 40
0.9351202188
 40
0.9537342699
 40
0.9753701715
 40
1.0
 40
1.0
 40
1.0
 40
1.0
 10
7.861329144
 20
12.4633800012
 30
0.0
 10
7.8589722171
 20
12.4657425548
 30
0.0
 10
7.854277804
 20
12.4703675585
 30
0.0
 10
7.8472496013
 20
12.4770669205
 30
0.0
 10
7.8403960132
 20
12.483375371
 30
0.0
 10
7.8338197466
 20
12.4892041977
 30
0.0
 10
7.827614876
 20
12.4944723376
 30
0.0
 10
7.8226928857
 20
12.498446884
 30
0.0
 10
7.8190038127
 20
12.5012805388
 30
0.0
 10
7.8164711993
 20
12.5031527774
 30
0.0
 10
7.8140981344
 20
12.5048290967
 30
0.0
 10
7.8118931632
 20
12.5063040335
 30
0.0
 10
7.809863392
 20
12.5075743543
 30
0.0
 10
7.8080148166
 20
12.50863748
 30
0.0
 10
7.8063532603
 20
12.5094909049
 30
0.0
 10
7.8050780038
 20
12.5100484902
 30
0.0
 10
7.8041545841
 20
12.5103791848
 30
0.0
 10
7.8035425829
 20
12.5105621752
 30
0.0
 10
7.8029807015
 20
12.5106912317
 30
0.0
 10
7.8024691539
 20
12.5107662409
 30
0.0
 10
7.8020080058
 20
12.5107869998
 30
0.0
 10
7.8015971855
 20
12.5107529836
 30
0.0
 10
7.8012367396
 20
12.5106630933
 30
0.0
 10
7.8009275755
 20
12.5105155449
 30
0.0
 10
7.8006724132
 20
12.5103089869
 30
0.0
 10
7.8004742782
 20
12.5100448462
 30
0.0
 10
7.8003339489
 20
12.5097262244
 30
0.0
 10
7.800250175
 20
12.5093552617
 30
0.0
 10
7.8002213311
 20
12.5089325987
 30
0.0
 10
7.8002464516
 20
12.5084581881
 30
0.0
 10
7.8003251456
 20
12.5079319688
 30
0.0
 10
7.8004572655
 20
12.5073540384
 30
0.0
 10
7.8006427094
 20
12.5067246234
 30
0.0
 10
7.8009758018
 20
12.505775767
 30
0.0
 10
7.8015341795
 20
12.5044661697
 30
0.0
 10
7.8023848445
 20
12.5027604623
 30
0.0
 10
7.8030461649
 20
12.501573028
 30
0.0
 10
7.8034086801
 20
12.5009471082
 30
0.0
  0
LINE
  5
4EE
100
AcDbEntity
  8
0
100
AcDbLine
 62
9
  6
CONTINUOUS
 10
7.9067114636
 20
12.3954367904
 11
7.9091287687
 21
12.3940400728
  0
SPLINE
  5
4EF
100
AcDbEntity
  8
0
100
AcDbSpline
 62
9
  6
CONTINUOUS
 70
0
 71
3
 72
41
 73
37
 74
0
 42
0.0000001
 43
0.0000001
 44
0.0000000001
 40
0.0
 40
0.0
 40
0.0
 40
0.0
 40
0.0195684784
 40
0.0362048703
 40
0.0434381637
 40
0.0499619804
 40
0.055797214
 40
0.0609775593
 40
0.0655550193
 40
0.0696103414
 40
0.0732642252
 40
0.0766794388
 40
0.080052032
 40
0.0835841173
 40
0.087452159
 40
0.0917911521
 40
0.0966966688
 40
0.1022344521
 40
0.1084488334
 40
0.1153668846
 40
0.1230053478
 40
0.1313742553
 40
0.150313888
 40
0.1721858071
 40
0.1969581622
 40
0.2245789295
 40
0.2549766215
 40
0.2880515446
 40
0.3236867217
 40
0.4021087471
 40
0.4890566371
 40
0.5831615191
 40
0.6829176274
 40
0.7867678338
 40
0.8930435239
 40
1.0
 40
1.0
 40
1.0
 40
1.0
 10
7.9091287687
 20
12.3940400728
 30
0.0
 10
7.9096955177
 20
12.3937343502
 30
0.0
 10
7.9107575342
 20
12.3931930063
 30
0.0
 10
7.9120730134
 20
12.3926291136
 30
0.0
 10
7.9130196073
 20
12.3923047174
 30
0.0
 10
7.9136412963
 20
12.3921321418
 30
0.0
 10
7.9142078977
 20
12.3920188356
 30
0.0
 10
7.9147191304
 20
12.3919650988
 30
0.0
 10
7.9151750013
 20
12.3919714599
 30
0.0
 10
7.9155756505
 20
12.3920390604
 30
0.0
 10
7.9159207623
 20
12.3921693102
 30
0.0
 10
7.9162082971
 20
12.3923637952
 30
0.0
 10
7.9164346912
 20
12.392621825
 30
0.0
 10
7.9165980843
 20
12.3929399271
 30
0.0
 10
7.9166996505
 20
12.3933149971
 30
0.0
 10
7.9167412789
 20
12.3937460643
 30
0.0
 10
7.9167240657
 20
12.394233289
 30
0.0
 10
7.916648366
 20
12.3947769615
 30
0.0
 10
7.9165142306
 20
12.3953770796
 30
0.0
 10
7.9163219017
 20
12.3960333833
 30
0.0
 10
7.9160715897
 20
12.3967453739
 30
0.0
 10
7.9156426725
 20
12.3978127314
 30
0.0
 10
7.9149546255
 20
12.3992789541
 30
0.0
 10
7.913935951
 20
12.4011823617
 30
0.0
 10
7.9126954428
 20
12.4032886442
 30
0.0
 10
7.911236854
 20
12.4055901986
 30
0.0
 10
7.9095646206
 20
12.4080784447
 30
0.0
 10
7.907684935
 20
12.4107439583
 30
0.0
 10
7.9048186709
 20
12.4146464463
 30
0.0
 10
7.9007665953
 20
12.4198759784
 30
0.0
 10
7.8953611035
 20
12.4264867306
 30
0.0
 10
7.8893548112
 20
12.4335100847
 30
0.0
 10
7.8828456612
 20
12.4408327347
 30
0.0
 10
7.8759370837
 20
12.4483340435
 30
0.0
 10
7.8687408449
 20
12.4558904755
 30
0.0
 10
7.8638192003
 20
12.4608924954
 30
0.0
 10
7.861329144
 20
12.4633800012
 30
0.0
  0
SPLINE
  5
4F0
100
AcDbEntity
  8
0
100
AcDbSpline
 62
9
  6
CONTINUOUS
 70
0
 71
3
 72
20
 73
16
 74
0
 42
0.0000001
 43
0.0000001
 44
0.0000000001
 40
0.0
 40
0.0
 40
0.0
 40
0.0
 40
0.1843145529
 40
0.3593284555
 40
0.5207749658
 40
0.6646535175
 40
0.7288536028
 40
0.7873375718
 40
0.839729832
 40
0.8856921588
 40
0.924927337
 40
0.9571825242
 40
0.982255927
 40
0.9920510594
 40
1.0
 40
1.0
 40
1.0
 40
1.0
 10
8.5443369629
 20
11.7535908179
 30
0.0
 10
8.547220644
 20
11.7514287675
 30
0.0
 10
8.5528354245
 20
11.7472043262
 30
0.0
 10
8.5609506086
 20
11.741052283
 30
0.0
 10
8.5684117746
 20
11.7353465103
 30
0.0
 10
8.5741292454
 20
11.7309278625
 30
0.0
 10
8.5782369327
 20
11.7277189523
 30
0.0
 10
8.5809263503
 20
11.7256005482
 30
0.0
 10
8.5833263605
 20
11.7236911227
 30
0.0
 10
8.5854214492
 20
11.7220030877
 30
0.0
 10
8.5871983038
 20
11.7205477674
 30
0.0
 10
8.5886452217
 20
11.7193345017
 30
0.0
 10
8.5896362834
 20
11.718473615
 30
0.0
 10
8.5902534845
 20
11.7179077916
 30
0.0
 10
8.5905035133
 20
11.7176671082
 30
0.0
 10
8.590613146
 20
11.7175569199
 30
0.0
  0
SPLINE
  5
4F1
100
AcDbEntity
  8
0
100
AcDbSpline
 62
9
  6
CONTINUOUS
 70
0
 71
3
 72
19
 73
15
 74
0
 42
0.0000001
 43
0.0000001
 44
0.0000000001
 40
0.0
 40
0.0
 40
0.0
 40
0.0
 40
0.1339549286
 40
0.2785997826
 40
0.4273351192
 40
0.5733149377
 40
0.7097068389
 40
0.7722509925
 40
0.8300003012
 40
0.8822490432
 40
0.9283576941
 40
0.9677639628
 40
0.9848054018
 40
1.0
 40
1.0
 40
1.0
 40
1.0
 10
8.4638705115
 20
11.8268959791
 30
0.0
 10
8.4676703309
 20
11.8242160911
 30
0.0
 10
8.4755253372
 20
11.8185744661
 30
0.0
 10
8.487458917
 20
11.8097636346
 30
0.0
 10
8.499618923
 20
11.800558524
 30
0.0
 10
8.5114420469
 20
11.7913848321
 30
0.0
 10
8.5208051966
 20
11.7839226083
 30
0.0
 10
8.5277041372
 20
11.7782840441
 30
0.0
 10
8.5323061857
 20
11.7744509214
 30
0.0
 10
8.5364314898
 20
11.7709372706
 30
0.0
 10
8.5400292382
 20
11.7677868736
 30
0.0
 10
8.542665249
 20
11.7653938037
 30
0.0
 10
8.5444708386
 20
11.7636836896
 30
0.0
 10
8.5452702274
 20
11.7629005945
 30
0.0
 10
8.5456427967
 20
11.7625272692
 30
0.0
  0
SPLINE
  5
4F2
100
AcDbEntity
  8
0
100
AcDbSpline
 62
7
  6
CONTINUOUS
 70
0
 71
3
 72
15
 73
11
 74
0
 42
0.0000001
 43
0.0000001
 44
0.0000000001
 40
0.0
 40
0.0
 40
0.0
 40
0.0
 40
0.0912313895
 40
0.1879503082
 40
0.2929929219
 40
0.4085169096
 40
0.5360716136
 40
0.6767361608
 40
0.8312244981
 40
1.0
 40
1.0
 40
1.0
 40
1.0
 10
8.5358196252
 20
12.0039336998
 30
0.0
 10
8.5359847971
 20
12.0040988787
 30
0.0
 10
8.5363620783
 20
12.0044037505
 30
0.0
 10
8.5370277563
 20
12.0047576119
 30
0.0
 10
8.5378004339
 20
12.0050182276
 30
0.0
 10
8.5386778976
 20
12.0051869199
 30
0.0
 10
8.5396589777
 20
12.0052649642
 30
0.0
 10
8.5407424388
 20
12.0052528971
 30
0.0
 10
8.541926828
 20
12.0051512606
 30
0.0
 10
8.5427460318
 20
12.0050293968
 30
0.0
 10
8.5431717449
 20
12.0049551385
 30
0.0
  0
SPLINE
  5
4F3
100
AcDbEntity
  8
0
100
AcDbSpline
 62
9
  6
CONTINUOUS
 70
0
 71
3
 72
28
 73
24
 74
0
 42
0.0000001
 43
0.0000001
 44
0.0000000001
 40
0.0
 40
0.0
 40
0.0
 40
0.0
 40
0.0072841418
 40
0.0152021174
 40
0.0242717003
 40
0.0348364436
 40
0.0471045689
 40
0.0611997425
 40
0.0771900367
 40
0.095110662
 40
0.1149725965
 40
0.1367706521
 40
0.160487379
 40
0.1860942261
 40
0.2428253111
 40
0.3065973231
 40
0.3769460016
 40
0.4533270247
 40
0.5351260319
 40
0.6216662868
 40
0.7122183377
 40
0.8060037774
 40
1.0
 40
1.0
 40
1.0
 40
1.0
 10
7.8005922254
 20
12.4938695172
 30
0.0
 10
7.8007079021
 20
12.4939852065
 30
0.0
 10
7.8009905657
 20
12.4941881135
 30
0.0
 10
7.8015124997
 20
12.4943649044
 30
0.0
 10
7.8021322053
 20
12.4944264562
 30
0.0
 10
7.8028494106
 20
12.4943772338
 30
0.0
 10
7.8036651705
 20
12.4942191922
 30
0.0
 10
7.8045793587
 20
12.4939525907
 30
0.0
 10
7.8055910758
 20
12.4935777905
 30
0.0
 10
7.8066987078
 20
12.4930951121
 30
0.0
 10
7.8079002894
 20
12.4925052831
 30
0.0
 10
7.8091935122
 20
12.4918092537
 30
0.0
 10
7.8105758098
 20
12.4910082596
 30
0.0
 10
7.8126040797
 20
12.4897588582
 30
0.0
 10
7.815335722
 20
12.4879384358
 30
0.0
 10
7.8188163015
 20
12.485435391
 30
0.0
 10
7.8225733179
 20
12.4825643962
 30
0.0
 10
7.8265746755
 20
12.4793490789
 30
0.0
 10
7.8307859562
 20
12.4758164906
 30
0.0
 10
7.8351705011
 20
12.4719968822
 30
0.0
 10
7.8396897806
 20
12.467923437
 30
0.0
 10
7.8459120711
 20
12.4621362693
 30
0.0
 10
7.8505449323
 20
12.45762744
 30
0.0
 10
7.8536247273
 20
12.4545453385
 30
0.0
  0
SPLINE
  5
4F4
100
AcDbEntity
  8
0
100
AcDbSpline
 62
9
  6
CONTINUOUS
 70
0
 71
3
 72
27
 73
23
 74
0
 42
0.0000001
 43
0.0000001
 44
0.0000000001
 40
0.0
 40
0.0
 40
0.0
 40
0.0
 40
0.1978374861
 40
0.2926024307
 40
0.3836240867
 40
0.4702104908
 40
0.5517186681
 40
0.6275553236
 40
0.6971862942
 40
0.7601429622
 40
0.8160308657
 40
0.8645441861
 40
0.885973149
 40
0.9054986474
 40
0.9231223277
 40
0.9388641163
 40
0.952765499
 40
0.9649050929
 40
0.9754145915
 40
0.9845111102
 40
0.9925392198
 40
1.0
 40
1.0
 40
1.0
 40
1.0
 10
8.0217426009
 20
12.2864274649
 30
0.0
 10
8.0245928651
 20
12.2835789796
 30
0.0
 10
8.0287534584
 20
12.2793103132
 30
0.0
 10
8.0340824127
 20
12.2735953334
 30
0.0
 10
8.0378026429
 20
12.269479425
 30
0.0
 10
8.0412750562
 20
12.2655044889
 30
0.0
 10
8.044473333
 20
12.2617018523
 30
0.0
 10
8.0473732708
 20
12.2581008199
 30
0.0
 10
8.0499526995
 20
12.2547284156
 30
0.0
 10
8.0521931806
 20
12.2516101929
 30
0.0
 10
8.0540792352
 20
12.2487696893
 30
0.0
 10
8.055395721
 20
12.2465688858
 30
0.0
 10
8.0562514176
 20
12.2449595543
 30
0.0
 10
8.0567701574
 20
12.2438846761
 30
0.0
 10
8.057192281
 20
12.2428929931
 30
0.0
 10
8.0575173553
 20
12.2419860682
 30
0.0
 10
8.0577450398
 20
12.2411650375
 30
0.0
 10
8.0578751857
 20
12.2404305527
 30
0.0
 10
8.0579073253
 20
12.2397825208
 30
0.0
 10
8.0578396449
 20
12.2392201119
 30
0.0
 10
8.0576683076
 20
12.2387440123
 30
0.0
 10
8.0574788289
 20
12.2384849059
 30
0.0
 10
8.057371372
 20
12.2383774535
 30
0.0
  0
SPLINE
  5
4F5
100
AcDbEntity
  8
0
100
AcDbSpline
 62
9
  6
CONTINUOUS
 70
0
 71
3
 72
18
 73
14
 74
0
 42
0.0000001
 43
0.0000001
 44
0.0000000001
 40
0.0
 40
0.0
 40
0.0
 40
0.0
 40
0.0232899084
 40
0.0527204734
 40
0.0881093485
 40
0.1288001602
 40
0.1738524016
 40
0.2220412088
 40
0.3299695598
 40
0.4631796377
 40
0.6224385591
 40
0.8039477882
 40
1.0
 40
1.0
 40
1.0
 40
1.0
 10
8.0312031095
 20
12.2935104962
 30
0.0
 10
8.0311107026
 20
12.2935184799
 30
0.0
 10
8.0308988049
 20
12.293497622
 30
0.0
 10
8.0305613027
 20
12.2933994897
 30
0.0
 10
8.0301727209
 20
12.2932376932
 30
0.0
 10
8.0297424188
 20
12.2930190509
 30
0.0
 10
8.0292804973
 20
12.292751951
 30
0.0
 10
8.0286035884
 20
12.2923231333
 30
0.0
 10
8.0276616051
 20
12.2916584301
 30
0.0
 10
8.0264027749
 20
12.2906789774
 30
0.0
 10
8.0249597859
 20
12.2894613684
 30
0.0
 10
8.0233753461
 20
12.2880255206
 30
0.0
 10
8.0222946984
 20
12.2869795437
 30
0.0
 10
8.0217426536
 20
12.2864274124
 30
0.0
  0
SPLINE
  5
4F6
100
AcDbEntity
  8
0
100
AcDbSpline
 62
9
  6
CONTINUOUS
 70
0
 71
3
 72
27
 73
23
 74
0
 42
0.0000001
 43
0.0000001
 44
0.0000000001
 40
0.0
 40
0.0
 40
0.0
 40
0.0
 40
0.0077502259
 40
0.015969069
 40
0.025129765
 40
0.035574926
 40
0.0475315619
 40
0.061146332
 40
0.0765097598
 40
0.0936770442
 40
0.1126803583
 40
0.1335326287
 40
0.1807773462
 40
0.2353249422
 40
0.2969743473
 40
0.3654440817
 40
0.4403858203
 40
0.5213938633
 40
0.6080131817
 40
0.6997433506
 40
0.7960377584
 40
1.0
 40
1.0
 40
1.0
 40
1.0
 10
7.6494392948
 20
12.6485791313
 30
0.0
 10
7.649530964
 20
12.6486702648
 30
0.0
 10
7.6497476378
 20
12.6488319745
 30
0.0
 10
7.6501418466
 20
12.6489858237
 30
0.0
 10
7.6506035946
 20
12.6490559486
 30
0.0
 10
7.6511317914
 20
12.6490452191
 30
0.0
 10
7.6517269979
 20
12.6489552358
 30
0.0
 10
7.6523893998
 20
12.6487863646
 30
0.0
 10
7.653118779
 20
12.6485388345
 30
0.0
 10
7.6539145041
 20
12.6482127638
 30
0.0
 10
7.6547756687
 20
12.6478083903
 30
0.0
 10
7.6560641713
 20
12.6471367851
 30
0.0
 10
7.6578260565
 20
12.6460948604
 30
0.0
 10
7.6601009892
 20
12.6445916805
 30
0.0
 10
7.6626033845
 20
12.6427949925
 30
0.0
 10
7.6653185271
 20
12.6407146006
 30
0.0
 10
7.6682303644
 20
12.6383622382
 30
0.0
 10
7.6713213562
 20
12.6357515938
 30
0.0
 10
7.6745727169
 20
12.6328981603
 30
0.0
 10
7.6779645291
 20
12.6298192609
 30
0.0
 10
7.6827381758
 20
12.6253519885
 30
0.0
 10
7.6863204598
 20
12.6218515085
 30
0.0
 10
7.6887249232
 20
12.6194451427
 30
0.0
  0
SPLINE
  5
4F7
100
AcDbEntity
  8
0
100
AcDbSpline
 62
9
  6
CONTINUOUS
 70
0
 71
3
 72
30
 73
26
 74
0
 42
0.0000001
 43
0.0000001
 44
0.0000000001
 40
0.0
 40
0.0
 40
0.0
 40
0.0
 40
0.1720426143
 40
0.3476227931
 40
0.4336551903
 40
0.5169141857
 40
0.5962646021
 40
0.6706434597
 40
0.7390756851
 40
0.8006883098
 40
0.8286975646
 40
0.8547287695
 40
0.8787100209
 40
0.9005788304
 40
0.9202867099
 40
0.9377997634
 40
0.9531059462
 40
0.9662234217
 40
0.9772192157
 40
0.9819688695
 40
0.9862573756
 40
0.9901299649
 40
0.9936502396
 40
0.996903946
 40
1.0
 40
1.0
 40
1.0
 40
1.0
 10
7.6887249246
 20
12.6194451413
 30
0.0
 10
7.6926127719
 20
12.6155597897
 30
0.0
 10
7.7003172286
 20
12.6075570701
 30
0.0
 10
7.7095943507
 20
12.5972636328
 30
0.0
 10
7.7167629613
 20
12.5888958474
 30
0.0
 10
7.7218231236
 20
12.5827717508
 30
0.0
 10
7.7265331199
 20
12.5768430546
 30
0.0
 10
7.7308296636
 20
12.5711927493
 30
0.0
 10
7.7346546505
 20
12.5658981614
 30
0.0
 10
7.7374914707
 20
12.5617194929
 30
0.0
 10
7.7394787462
 20
12.55860422
 30
0.0
 10
7.7407740585
 20
12.5564742764
 30
0.0
 10
7.7419182654
 20
12.5544828108
 30
0.0
 10
7.7429077033
 20
12.5526363743
 30
0.0
 10
7.7437394508
 20
12.5509410974
 30
0.0
 10
7.7444110813
 20
12.5494024822
 30
0.0
 10
7.7449210615
 20
12.54802514
 30
0.0
 10
7.7452681397
 20
12.5468131614
 30
0.0
 10
7.7454290682
 20
12.5459021407
 30
0.0
 10
7.7454638179
 20
12.5452622608
 30
0.0
 10
7.7454466662
 20
12.5448493699
 30
0.0
 10
7.7453874273
 20
12.5444798507
 30
0.0
 10
7.745285453
 20
12.5441538432
 30
0.0
 10
7.7451400873
 20
12.5438720609
 30
0.0
 10
7.7450120653
 20
12.5437124866
 30
0.0
 10
7.7449422656
 20
12.5436424012
 30
0.0
  0
SPLINE
  5
4F8
100
AcDbEntity
  8
0
100
AcDbSpline
 62
9
  6
CONTINUOUS
 70
0
 71
3
 72
17
 73
13
 74
0
 42
0.0000001
 43
0.0000001
 44
0.0000000001
 40
0.0
 40
0.0
 40
0.0
 40
0.0
 40
0.0686898004
 40
0.1087667831
 40
0.1524889118
 40
0.1992823019
 40
0.2482164163
 40
0.3553923169
 40
0.485268725
 40
0.6388307073
 40
0.812725316
 40
1.0
 40
1.0
 40
1.0
 40
1.0
 10
7.6947102457
 20
12.6300012658
 30
0.0
 10
7.6948150462
 20
12.6297345921
 30
0.0
 10
7.6948614971
 20
12.6292668101
 30
0.0
 10
7.6947904763
 20
12.6286357003
 30
0.0
 10
7.6946699408
 20
12.6281029312
 30
0.0
 10
7.6944925704
 20
12.6275485383
 30
0.0
 10
7.6941805843
 20
12.6267611578
 30
0.0
 10
7.6936460795
 20
12.6256923185
 30
0.0
 10
7.6927946101
 20
12.6243013106
 30
0.0
 10
7.6916796833
 20
12.6227513075
 30
0.0
 10
7.6903105825
 20
12.6210954872
 30
0.0
 10
7.6892784449
 20
12.6199963795
 30
0.0
 10
7.6887259952
 20
12.6194440687
 30
0.0
  0
SPLINE
  5
4F9
100
AcDbEntity
  8
0
100
AcDbSpline
 62
9
  6
CONTINUOUS
 70
0
 71
3
 72
30
 73
26
 74
0
 42
0.0000001
 43
0.0000001
 44
0.0000000001
 40
0.0
 40
0.0
 40
0.0
 40
0.0
 40
0.0033162789
 40
0.0067542106
 40
0.0143444509
 40
0.0186568326
 40
0.0233759363
 40
0.0341594099
 40
0.0468846188
 40
0.0616440815
 40
0.0784771497
 40
0.0973926119
 40
0.1183757321
 40
0.1413974339
 40
0.1664144103
 40
0.1933745302
 40
0.2528644154
 40
0.319283273
 40
0.3919358093
 40
0.47003287
 40
0.5527035608
 40
0.6390068259
 40
0.7279435825
 40
0.8184719076
 40
1.0
 40
1.0
 40
1.0
 40
1.0
 10
7.9546982159
 20
12.336143958
 30
0.0
 10
7.9547646127
 20
12.336210352
 30
0.0
 10
7.9549128921
 20
12.3363331422
 30
0.0
 10
7.955268445
 20
12.3365331499
 30
0.0
 10
7.9556944699
 20
12.3366478815
 30
0.0
 10
7.9561631959
 20
12.3366923931
 30
0.0
 10
7.9567251666
 20
12.3366906447
 30
0.0
 10
7.9575205076
 20
12.3365871563
 30
0.0
 10
7.958573891
 20
12.3363273423
 30
0.0
 10
7.9597641616
 20
12.3359265133
 30
0.0
 10
7.9610887224
 20
12.3353855026
 30
0.0
 10
7.9625443981
 20
12.3347051291
 30
0.0
 10
7.9641273951
 20
12.3338870095
 30
0.0
 10
7.9658333708
 20
12.3329330554
 30
0.0
 10
7.9676577054
 20
12.3318457992
 30
0.0
 10
7.9703299603
 20
12.3301660877
 30
0.0
 10
7.9739208894
 20
12.3277475762
 30
0.0
 10
7.9784820329
 20
12.3244594686
 30
0.0
 10
7.9833736933
 20
12.3207327238
 30
0.0
 10
7.9885389853
 20
12.3166088718
 30
0.0
 10
7.9939174582
 20
12.3121349252
 30
0.0
 10
7.9994461944
 20
12.3073636726
 30
0.0
 10
8.0050596162
 20
12.3023516409
 30
0.0
 10
8.0125728438
 20
12.2954212997
 30
0.0
 10
8.0181096362
 20
12.2900632719
 30
0.0
 10
8.0217426009
 20
12.2864274649
 30
0.0
  0
SPLINE
  5
4FA
100
AcDbEntity
  8
0
100
AcDbSpline
 62
9
  6
CONTINUOUS
 70
0
 71
3
 72
29
 73
25
 74
0
 42
0.0000001
 43
0.0000001
 44
0.0000000001
 40
0.0
 40
0.0
 40
0.0
 40
0.0
 40
0.1862814353
 40
0.2780651547
 40
0.3676334533
 40
0.4540422875
 40
0.536393005
 40
0.6138443052
 40
0.6856226206
 40
0.7510319994
 40
0.8094656847
 40
0.8359062566
 40
0.8604237073
 40
0.882974
 40
0.9035247377
 40
0.9220548428
 40
0.9385605948
 40
0.9530596572
 40
0.965603652
 40
0.9762960145
 40
0.985328414
 40
0.9930382848
 40
0.9965716822
 40
1.0
 40
1.0
 40
1.0
 40
1.0
 10
7.8536247288
 20
12.454545337
 30
0.0
 10
7.8570817963
 20
12.4510903724
 30
0.0
 10
7.8621621269
 20
12.4458520002
 30
0.0
 10
7.8687143684
 20
12.4387728877
 30
0.0
 10
7.8734032123
 20
12.4335407583
 30
0.0
 10
7.8778408434
 20
12.4284171489
 30
0.0
 10
7.8819802528
 20
12.4234571755
 30
0.0
 10
7.8857770969
 20
12.4187128736
 30
0.0
 10
7.8891925222
 20
12.4142344341
 30
0.0
 10
7.8921925032
 20
12.4100690024
 30
0.0
 10
7.8943898132
 20
12.4067936208
 30
0.0
 10
7.8959090608
 20
12.4043582422
 30
0.0
 10
7.896888919
 20
12.4026967551
 30
0.0
 10
7.8977455562
 20
12.4011428046
 30
0.0
 10
7.8984770598
 20
12.3997002476
 30
0.0
 10
7.8990818323
 20
12.3983725282
 30
0.0
 10
7.8995587712
 20
12.3971627544
 30
0.0
 10
7.8999070635
 20
12.3960734044
 30
0.0
 10
7.900126449
 20
12.3951063061
 30
0.0
 10
7.900216287
 20
12.3942617364
 30
0.0
 10
7.9001757075
 20
12.3935390367
 30
0.0
 10
7.90002227
 20
12.3930218209
 30
0.0
 10
7.8998275158
 20
12.3926879416
 30
0.0
 10
7.8997095017
 20
12.3925471159
 30
0.0
 10
7.8996459007
 20
12.3924835081
 30
0.0
  0
SPLINE
  5
4FB
100
AcDbEntity
  8
0
100
AcDbSpline
 62
9
  6
CONTINUOUS
 70
0
 71
3
 72
19
 73
15
 74
0
 42
0.0000001
 43
0.0000001
 44
0.0000000001
 40
0.0
 40
0.0
 40
0.0
 40
0.0
 40
0.0086491231
 40
0.0192499492
 40
0.0461163474
 40
0.0798859625
 40
0.1196036538
 40
0.1641537364
 40
0.2121877309
 40
0.3205518074
 40
0.4550701705
 40
0.616453131
 40
0.8007503215
 40
1.0
 40
1.0
 40
1.0
 40
1.0
 10
7.8613303662
 20
12.4633811859
 30
0.0
 10
7.8613213486
 20
12.4633485137
 30
0.0
 10
7.8612954412
 20
12.4632774347
 30
0.0
 10
7.8612186282
 20
12.4631137345
 30
0.0
 10
7.8610765877
 20
12.4628728503
 30
0.0
 10
7.860857101
 20
12.4625464836
 30
0.0
 10
7.8605838593
 20
12.4621731109
 30
0.0
 10
7.8602663651
 20
12.4617631941
 30
0.0
 10
7.8597717174
 20
12.4611504171
 30
0.0
 10
7.8590340636
 20
12.4602810031
 30
0.0
 10
7.8579821054
 20
12.4590963375
 30
0.0
 10
7.8567060336
 20
12.4577131763
 30
0.0
 10
7.8552317151
 20
12.4561682218
 30
0.0
 10
7.8541771414
 20
12.4550971553
 30
0.0
 10
7.8536250096
 20
12.4545450544
 30
0.0
  0
SPLINE
  5
4FC
100
AcDbEntity
  8
0
100
AcDbSpline
 62
7
  6
CONTINUOUS
 70
0
 71
3
 72
22
 73
18
 74
0
 42
0.0000001
 43
0.0000001
 44
0.0000000001
 40
0.0
 40
0.0
 40
0.0
 40
0.0
 40
0.0454616914
 40
0.0912728087
 40
0.1377804355
 40
0.1853588375
 40
0.2344028924
 40
0.2853403157
 40
0.3386384841
 40
0.3948082169
 40
0.4544027566
 40
0.5180049477
 40
0.5861917368
 40
0.6594564812
 40
0.7380636853
 40
0.8218210392
 40
1.0
 40
1.0
 40
1.0
 40
1.0
 10
9.8145337053
 20
14.8398814684
 30
0.0
 10
9.8133370542
 20
14.8410781195
 30
0.0
 10
9.8110538057
 20
14.8436033432
 30
0.0
 10
9.8080085107
 20
14.8477405147
 30
0.0
 10
9.8053530714
 20
14.8522306063
 30
0.0
 10
9.8031093976
 20
14.857072952
 30
0.0
 10
9.8013055437
 20
14.8622708893
 30
0.0
 10
9.7999771249
 20
14.8678295662
 30
0.0
 10
9.799168089
 20
14.8737553752
 30
0.0
 10
9.7989323168
 20
14.880054398
 30
0.0
 10
9.7993348058
 20
14.8867297583
 30
0.0
 10
9.8004522316
 20
14.8937771013
 30
0.0
 10
9.8023717497
 20
14.9011772367
 30
0.0
 10
9.8051852031
 20
14.9088838485
 30
0.0
 10
9.808977429
 20
14.916809344
 30
0.0
 10
9.815530944
 20
14.9276765601
 30
0.0
 10
9.8217900656
 20
14.9352606124
 30
0.0
 10
9.8264801254
 20
14.9399506722
 30
0.0
  0
SPLINE
  5
4FD
100
AcDbEntity
  8
0
100
AcDbSpline
 62
7
  6
CONTINUOUS
 70
0
 71
3
 72
22
 73
18
 74
0
 42
0.0000001
 43
0.0000001
 44
0.0000000001
 40
0.0
 40
0.0
 40
0.0
 40
0.0
 40
0.1781796248
 40
0.2619372031
 40
0.3405444824
 40
0.4138090654
 40
0.4819956572
 40
0.5455976882
 40
0.6051921592
 40
0.6613618151
 40
0.7146599134
 40
0.7655972948
 40
0.8146413082
 40
0.8622196613
 40
0.9087272262
 40
0.9545383035
 40
1.0
 40
1.0
 40
1.0
 40
1.0
 10
9.9146029091
 20
14.8518278885
 30
0.0
 10
9.9099128318
 20
14.8471378113
 30
0.0
 10
9.902328751
 20
14.8408786707
 30
0.0
 10
9.8914614979
 20
14.8343251474
 30
0.0
 10
9.883535994
 20
14.830532927
 30
0.0
 10
9.8758293889
 20
14.8277194862
 30
0.0
 10
9.8684292703
 20
14.8257999804
 30
0.0
 10
9.8613819421
 20
14.8246825631
 30
0.0
 10
9.854706593
 20
14.8242800786
 30
0.0
 10
9.8484075784
 20
14.8245158538
 30
0.0
 10
9.842481777
 20
14.8253248926
 30
0.0
 10
9.8369231064
 20
14.8266533135
 30
0.0
 10
9.8317251749
 20
14.8284571687
 30
0.0
 10
9.8268828334
 20
14.8307008382
 30
0.0
 10
9.8223927486
 20
14.833356278
 30
0.0
 10
9.818255579
 20
14.8364015691
 30
0.0
 10
9.8157303565
 20
14.8386848172
 30
0.0
 10
9.8145337053
 20
14.8398814684
 30
0.0
  0
SPLINE
  5
4FE
100
AcDbEntity
  8
0
100
AcDbSpline
 62
9
  6
CONTINUOUS
 70
0
 71
3
 72
19
 73
15
 74
0
 42
0.0000001
 43
0.0000001
 44
0.0000000001
 40
0.0
 40
0.0
 40
0.0
 40
0.0
 40
0.2232562469
 40
0.4180118112
 40
0.5838523571
 40
0.7206578082
 40
0.7782184869
 40
0.8286195939
 40
0.8719799839
 40
0.9085013322
 40
0.9385400145
 40
0.9627662355
 40
0.9824761549
 40
1.0
 40
1.0
 40
1.0
 40
1.0
 10
8.5456427973
 20
11.7625272686
 30
0.0
 10
8.5459380722
 20
11.7622324433
 30
0.0
 10
8.5464860698
 20
11.7616755201
 30
0.0
 10
8.5472324907
 20
11.7608793144
 30
0.0
 10
8.547845866
 20
11.7601805179
 30
0.0
 10
8.5482670815
 20
11.7596547875
 30
0.0
 10
8.548533231
 20
11.759282566
 30
0.0
 10
8.5486871949
 20
11.7590451803
 30
0.0
 10
8.5488074216
 20
11.7588332152
 30
0.0
 10
8.548894046
 20
11.7586465929
 30
0.0
 10
8.5489472785
 20
11.7584848952
 30
0.0
 10
8.5489670875
 20
11.7583470361
 30
0.0
 10
8.5489516543
 20
11.7582309268
 30
0.0
 10
8.5489136366
 20
11.7581694797
 30
0.0
 10
8.5488905471
 20
11.7581462512
 30
0.0
  0
LINE
  5
4FF
100
AcDbEntity
  8
0
100
AcDbLine
 62
7
  6
CONTINUOUS
 10
8.2638137695
 20
12.2824922537
 11
8.2648624036
 21
12.2832644797
  0
LINE
  5
500
100
AcDbEntity
  8
0
100
AcDbLine
 62
9
  6
CONTINUOUS
 10
8.5906131462
 20
11.7175569197
 11
8.5910828247
 21
11.7169257703
  0
SPLINE
  5
501
100
AcDbEntity
  8
0
100
AcDbSpline
 62
9
  6
CONTINUOUS
 70
0
 71
3
 72
18
 73
14
 74
0
 42
0.0000001
 43
0.0000001
 44
0.0000000001
 40
0.0
 40
0.0
 40
0.0
 40
0.0
 40
0.0666239453
 40
0.1314775879
 40
0.2553635582
 40
0.3703302889
 40
0.4804134509
 40
0.5984745692
 40
0.725355114
 40
0.7917994049
 40
0.8599388618
 40
0.9294313754
 40
1.0
 40
1.0
 40
1.0
 40
1.0
 10
8.6060073103
 20
11.7187042258
 30
0.0
 10
8.605709031
 20
11.7189293304
 30
0.0
 10
8.6050986601
 20
11.7193457285
 30
0.0
 10
8.6038418203
 20
11.7200361665
 30
0.0
 10
8.6022411198
 20
11.7206478339
 30
0.0
 10
8.6003115507
 20
11.7210237966
 30
0.0
 10
8.5983798787
 20
11.7210820405
 30
0.0
 10
8.5963971138
 20
11.7208166219
 30
0.0
 10
8.5947224296
 20
11.7202851259
 30
0.0
 10
8.5933972788
 20
11.7196527014
 30
0.0
 10
8.5924138531
 20
11.7190634165
 30
0.0
 10
8.5914729111
 20
11.7183688009
 30
0.0
 10
8.5908897123
 20
11.717840116
 30
0.0
 10
8.5906099437
 20
11.7175601202
 30
0.0
  0
SPLINE
  5
502
100
AcDbEntity
  8
0
100
AcDbSpline
 62
9
  6
CONTINUOUS
 70
0
 71
3
 72
25
 73
21
 74
0
 42
0.0000001
 43
0.0000001
 44
0.0000000001
 40
0.0
 40
0.0
 40
0.0
 40
0.0
 40
0.2200463682
 40
0.4137320314
 40
0.5003261427
 40
0.5799418621
 40
0.6524944736
 40
0.717916731
 40
0.7761689457
 40
0.8272605695
 40
0.8501393622
 40
0.8712561929
 40
0.8906344582
 40
0.8996820886
 40
0.9083082295
 40
0.9387111541
 40
0.9630928228
 40
0.9827034068
 40
0.9914553356
 40
1.0
 40
1.0
 40
1.0
 40
1.0
 10
8.462778728
 20
11.8453913379
 30
0.0
 10
8.4635278462
 20
11.8446429833
 30
0.0
 10
8.4649232522
 20
11.8432227096
 30
0.0
 10
8.4665674205
 20
11.8414634329
 30
0.0
 10
8.4677171834
 20
11.840168211
 30
0.0
 10
8.4684631652
 20
11.8392942763
 30
0.0
 10
8.4691245305
 20
11.8384823973
 30
0.0
 10
8.4697003456
 20
11.8377338325
 30
0.0
 10
8.4701897873
 20
11.8370497188
 30
0.0
 10
8.4705371372
 20
11.8365162557
 30
0.0
 10
8.4707692142
 20
11.836121828
 30
0.0
 10
8.4709147499
 20
11.8358537598
 30
0.0
 10
8.4710199714
 20
11.8356397424
 30
0.0
 10
8.4710926626
 20
11.8354769068
 30
0.0
 10
8.4711812391
 20
11.8352632105
 30
0.0
 10
8.4712795543
 20
11.8349731927
 30
0.0
 10
8.471336279
 20
11.8346174821
 30
0.0
 10
8.4713056218
 20
11.8343596033
 30
0.0
 10
8.4712291356
 20
11.8341977517
 30
0.0
 10
8.4711767719
 20
11.834131945
 30
0.0
 10
8.4711476949
 20
11.8341028733
 30
0.0
  0
SPLINE
  5
503
100
AcDbEntity
  8
0
100
AcDbSpline
 62
7
  6
CONTINUOUS
 70
0
 71
3
 72
43
 73
39
 74
0
 42
0.0000001
 43
0.0000001
 44
0.0000000001
 40
0.0
 40
0.0
 40
0.0
 40
0.0
 40
0.0000164348
 40
0.0000656975
 40
0.0001477272
 40
0.0002624646
 40
0.0004098522
 40
0.0005898342
 40
0.0010473661
 40
0.00163465
 40
0.0023513034
 40
0.0031969721
 40
0.0041713311
 40
0.006504941
 40
0.0093501274
 40
0.0127053638
 40
0.0165697999
 40
0.020942857
 40
0.0258239929
 40
0.0312127212
 40
0.0371086241
 40
0.0504203833
 40
0.0657552151
 40
0.083106458
 40
0.1024662189
 40
0.1238236742
 40
0.147164394
 40
0.1997333037
 40
0.2600326362
 40
0.2930403169
 40
0.3279300289
 40
0.3646800451
 40
0.4032670286
 40
0.4858527649
 40
0.5754881259
 40
0.6719582862
 40
0.7750361053
 40
1.0
 40
1.0
 40
1.0
 40
1.0
 10
12.1108926102
 20
3.7526026177
 30
0.0
 10
12.1108926102
 20
3.7526023369
 30
0.0
 10
12.1108908439
 20
3.7526026421
 30
0.0
 10
12.110889018
 20
3.7526016039
 30
0.0
 10
12.1108845319
 20
3.7526010549
 30
0.0
 10
12.1108789281
 20
3.7525997647
 30
0.0
 10
12.1108714519
 20
3.7525983569
 30
0.0
 10
12.1108583097
 20
3.7525957986
 30
0.0
 10
12.1108377093
 20
3.7525919987
 30
0.0
 10
12.1108080744
 20
3.7525867511
 30
0.0
 10
12.1107718434
 20
3.7525806634
 30
0.0
 10
12.1107290335
 20
3.7525738384
 30
0.0
 10
12.1106588406
 20
3.7525632631
 30
0.0
 10
12.1105546513
 20
3.7525490056
 30
0.0
 10
12.1104098319
 20
3.7525316952
 30
0.0
 10
12.1102387052
 20
3.7525142615
 30
0.0
 10
12.110041315
 20
3.7524972517
 30
0.0
 10
12.1098177032
 20
3.7524810472
 30
0.0
 10
12.1095679042
 20
3.7524660716
 30
0.0
 10
12.1092919543
 20
3.752452736
 30
0.0
 10
12.1088718982
 20
3.752437022
 30
0.0
 10
12.1082816679
 20
3.7524247288
 30
0.0
 10
12.107495568
 20
3.752421341
 30
0.0
 10
12.1066061361
 20
3.7524283924
 30
0.0
 10
12.1056139162
 20
3.7524460646
 30
0.0
 10
12.1045195153
 20
3.7524727694
 30
0.0
 10
12.102857857
 20
3.7525172408
 30
0.0
 10
12.1005309188
 20
3.7525789927
 30
0.0
 10
12.0980379384
 20
3.7526093899
 30
0.0
 10
12.0958471124
 20
3.7525951234
 30
0.0
 10
12.0940589019
 20
3.7525700713
 30
0.0
 10
12.0921754616
 20
3.752537039
 30
0.0
 10
12.0894770374
 20
3.7524901544
 30
0.0
 10
12.0858747554
 20
3.7524384179
 30
0.0
 10
12.0812829163
 20
3.7524155226
 30
0.0
 10
12.0763408699
 20
3.7524370337
 30
0.0
 10
12.0690866545
 20
3.752520756
 30
0.0
 10
12.0634808728
 20
3.7526026461
 30
0.0
 10
12.0596363336
 20
3.7526026178
 30
0.0
  0
SPLINE
  5
504
100
AcDbEntity
  8
0
100
AcDbSpline
 62
7
  6
CONTINUOUS
 70
0
 71
3
 72
27
 73
23
 74
0
 42
0.0000001
 43
0.0000001
 44
0.0000000001
 40
0.0
 40
0.0
 40
0.0
 40
0.0
 40
0.0502696057
 40
0.0762741415
 40
0.1028341497
 40
0.1575553061
 40
0.1856851723
 40
0.2143059652
 40
0.2581191764
 40
0.3029378329
 40
0.3487013029
 40
0.395347859
 40
0.4428131384
 40
0.4668327507
 40
0.4910331562
 40
0.539943618
 40
0.5894776821
 40
0.6395676504
 40
0.6901461737
 40
0.7924931137
 40
0.8959654863
 40
1.0
 40
1.0
 40
1.0
 40
1.0
 10
12.0596363336
 20
3.7526026178
 30
0.0
 10
12.0575627773
 20
3.7526026025
 30
0.0
 10
12.0544165889
 20
3.752578858
 30
0.0
 10
12.0501750746
 20
3.7525328054
 30
0.0
 10
12.0457499317
 20
3.7524852738
 30
0.0
 10
12.0412370292
 20
3.7524452697
 30
0.0
 10
12.0366389956
 20
3.7524252559
 30
0.0
 10
12.0324908627
 20
3.7524205437
 30
0.0
 10
12.0276543406
 20
3.7524330665
 30
0.0
 10
12.0221108249
 20
3.752470738
 30
0.0
 10
12.0164505402
 20
3.7525208404
 30
0.0
 10
12.0106811002
 20
3.7525728312
 30
0.0
 10
12.0058083884
 20
3.7526012305
 30
0.0
 10
12.0018614846
 20
3.7526038462
 30
0.0
 10
11.9978549894
 20
3.7525914406
 30
0.0
 10
11.9927961598
 20
3.7525555425
 30
0.0
 10
11.9866695356
 20
3.7525025924
 30
0.0
 10
11.9804740479
 20
3.7524555092
 30
0.0
 10
11.9721000101
 20
3.7524150734
 30
0.0
 10
11.9615237937
 20
3.7524271682
 30
0.0
 10
11.9487431942
 20
3.7525340577
 30
0.0
 10
11.9401839473
 20
3.7526026383
 30
0.0
 10
11.935892658
 20
3.7526026177
 30
0.0
  0
SPLINE
  5
505
100
AcDbEntity
  8
0
100
AcDbSpline
 62
7
  6
CONTINUOUS
 70
0
 71
3
 72
27
 73
23
 74
0
 42
0.0000001
 43
0.0000001
 44
0.0000000001
 40
0.0
 40
0.0
 40
0.0
 40
0.0
 40
0.069387833
 40
0.1040346586
 40
0.1386173395
 40
0.2075070481
 40
0.2417747366
 40
0.2758974182
 40
0.3267638327
 40
0.3771869722
 40
0.4270991441
 40
0.4764328693
 40
0.5251204936
 40
0.5492012572
 40
0.5730959695
 40
0.6202955695
 40
0.6666547799
 40
0.7121101183
 40
0.7566003097
 40
0.8424448745
 40
0.92372602
 40
1.0
 40
1.0
 40
1.0
 40
1.0
 10
11.935892658
 20
3.7526026177
 30
0.0
 10
11.933030499
 20
3.752602604
 30
0.0
 10
11.928739213
 20
3.7525798138
 30
0.0
 10
11.9230216229
 20
3.7525332081
 30
0.0
 10
11.917324576
 20
3.752486207
 30
0.0
 10
11.9116431075
 20
3.7524457736
 30
0.0
 10
11.9059805104
 20
3.7524253554
 30
0.0
 10
11.9010613188
 20
3.752420539
 30
0.0
 10
11.8954757355
 20
3.7524326455
 30
0.0
 10
11.8892389608
 20
3.752470028
 30
0.0
 10
11.8830655061
 20
3.7525200195
 30
0.0
 10
11.8769636633
 20
3.7525721097
 30
0.0
 10
11.8719271684
 20
3.7526011165
 30
0.0
 10
11.8679399307
 20
3.7526038746
 30
0.0
 10
11.8640140922
 20
3.7525916727
 30
0.0
 10
11.8591694004
 20
3.7525563277
 30
0.0
 10
11.8534354927
 20
3.7525033984
 30
0.0
 10
11.8478132904
 20
3.7524561375
 30
0.0
 10
11.8405622802
 20
3.7524159096
 30
0.0
 10
11.8318332208
 20
3.752425062
 30
0.0
 10
11.8217938682
 20
3.7525294946
 30
0.0
 10
11.815295152
 20
3.7526026335
 30
0.0
 10
11.8121489483
 20
3.7526026178
 30
0.0
  0
SPLINE
  5
506
100
AcDbEntity
  8
0
100
AcDbSpline
 62
7
  6
CONTINUOUS
 70
0
 71
3
 72
43
 73
39
 74
0
 42
0.0000001
 43
0.0000001
 44
0.0000000001
 40
0.0
 40
0.0
 40
0.0
 40
0.0
 40
0.2249638808
 40
0.3280416965
 40
0.4245118529
 40
0.5141472112
 40
0.596732949
 40
0.6353199336
 40
0.6720699509
 40
0.7069596639
 40
0.7399673455
 40
0.8002666818
 40
0.8528355945
 40
0.8761763159
 40
0.8975337727
 40
0.9168935348
 40
0.9342447791
 40
0.9495796122
 40
0.9628913725
 40
0.9687872758
 40
0.9741760046
 40
0.9790571409
 40
0.9834301983
 40
0.9872946347
 40
0.9906498714
 40
0.9934950581
 40
0.9958286683
 40
0.9968030274
 40
0.9976486963
 40
0.9983653497
 40
0.9989526338
 40
0.9994101657
 40
0.9995901477
 40
0.9997375353
 40
0.9998522728
 40
0.9999343025
 40
0.9999835652
 40
1.0
 40
1.0
 40
1.0
 40
1.0
 10
11.8121489483
 20
3.7526026178
 30
0.0
 10
11.8083044047
 20
3.7526025987
 30
0.0
 10
11.8026986164
 20
3.7525207755
 30
0.0
 10
11.7954443928
 20
3.7524370333
 30
0.0
 10
11.7905023406
 20
3.7524155203
 30
0.0
 10
11.7859104961
 20
3.7524384186
 30
0.0
 10
11.7823082098
 20
3.7524901535
 30
0.0
 10
11.7796097823
 20
3.7525370386
 30
0.0
 10
11.7777263397
 20
3.7525700719
 30
0.0
 10
11.775938127
 20
3.7525951247
 30
0.0
 10
11.7737472983
 20
3.7526093895
 30
0.0
 10
11.7712543148
 20
3.7525789912
 30
0.0
 10
11.7689273737
 20
3.7525172417
 30
0.0
 10
11.7672657132
 20
3.75247277
 30
0.0
 10
11.7661713109
 20
3.7524460647
 30
0.0
 10
11.7651790898
 20
3.7524283925
 30
0.0
 10
11.7642896567
 20
3.752421341
 30
0.0
 10
11.7635035558
 20
3.7524247287
 30
0.0
 10
11.7629133248
 20
3.752437022
 30
0.0
 10
11.7624932682
 20
3.752452736
 30
0.0
 10
11.7622173179
 20
3.7524660716
 30
0.0
 10
11.7619675186
 20
3.7524810471
 30
0.0
 10
11.7617439065
 20
3.7524972516
 30
0.0
 10
11.761546516
 20
3.7525142614
 30
0.0
 10
11.7613753891
 20
3.7525316952
 30
0.0
 10
11.7612305695
 20
3.7525490056
 30
0.0
 10
11.7611263801
 20
3.7525632632
 30
0.0
 10
11.7610561871
 20
3.7525738385
 30
0.0
 10
11.7610133772
 20
3.7525806636
 30
0.0
 10
11.7609771461
 20
3.7525867512
 30
0.0
 10
11.7609475112
 20
3.7525919988
 30
0.0
 10
11.7609269107
 20
3.7525957988
 30
0.0
 10
11.7609137685
 20
3.7525983571
 30
0.0
 10
11.7609062924
 20
3.7525997649
 30
0.0
 10
11.7609006885
 20
3.7526010551
 30
0.0
 10
11.7608962024
 20
3.7526016041
 30
0.0
 10
11.7608943765
 20
3.7526026423
 30
0.0
 10
11.7608926102
 20
3.7526023371
 30
0.0
 10
11.7608926102
 20
3.7526026179
 30
0.0
  0
SPLINE
  5
507
100
AcDbEntity
  8
0
100
AcDbSpline
 62
9
  6
CONTINUOUS
 70
0
 71
3
 72
18
 73
14
 74
0
 42
0.0000001
 43
0.0000001
 44
0.0000000001
 40
0.0
 40
0.0
 40
0.0
 40
0.0
 40
0.0594638757
 40
0.1179780154
 40
0.2321701401
 40
0.3417352349
 40
0.4502412492
 40
0.5704421316
 40
0.7034975847
 40
0.7744400046
 40
0.8478606909
 40
0.9232188152
 40
1.0
 40
1.0
 40
1.0
 40
1.0
 10
8.4768392642
 20
11.8478722459
 30
0.0
 10
8.476589003
 20
11.8480490493
 30
0.0
 10
8.4760713494
 20
11.8483710736
 30
0.0
 10
8.4749875978
 20
11.8488826733
 30
0.0
 10
8.4735786522
 20
11.8492868397
 30
0.0
 10
8.4718650732
 20
11.8494416438
 30
0.0
 10
8.470119828
 20
11.8493091254
 30
0.0
 10
8.4682985282
 20
11.8488782819
 30
0.0
 10
8.4667456684
 20
11.8482420077
 30
0.0
 10
8.465494042
 20
11.8475489139
 30
0.0
 10
8.4645489139
 20
11.846923233
 30
0.0
 10
8.4636324866
 20
11.8462064016
 30
0.0
 10
8.4630557777
 20
11.8456738202
 30
0.0
 10
8.4627761034
 20
11.8453939605
 30
0.0
  0
LINE
  5
508
100
AcDbEntity
  8
0
100
AcDbLine
 62
7
  6
CONTINUOUS
 10
12.2339198741
 20
1.5906026201
 11
12.2130977469
 21
1.5906026201
  0
LINE
  5
509
100
AcDbEntity
  8
0
100
AcDbLine
 62
7
  6
CONTINUOUS
 10
12.080161672
 20
1.5906026201
 11
12.0298926102
 21
1.5906026201
  0
LINE
  5
50A
100
AcDbEntity
  8
0
100
AcDbLine
 62
7
  6
CONTINUOUS
 10
11.8418926102
 20
1.5906026201
 11
11.7916235484
 21
1.5906026201
  0
LINE
  5
50B
100
AcDbEntity
  8
0
100
AcDbLine
 62
7
  6
CONTINUOUS
 10
11.6586874735
 20
1.5906026201
 11
11.6378653463
 21
1.5906026201
  0
SPLINE
  5
50C
100
AcDbEntity
  8
0
100
AcDbSpline
 62
7
  6
CONTINUOUS
 70
0
 71
3
 72
35
 73
31
 74
0
 42
0.0000001
 43
0.0000001
 44
0.0000000001
 40
0.0
 40
0.0
 40
0.0
 40
0.0
 40
0.0733916694
 40
0.1094779883
 40
0.144983264
 40
0.2137859463
 40
0.2469586402
 40
0.2792179333
 40
0.3105334492
 40
0.340901956
 40
0.3703497576
 40
0.3989349986
 40
0.42674833
 40
0.4539123836
 40
0.480579034
 40
0.5069240306
 40
0.5331394869
 40
0.5594242726
 40
0.5859735682
 40
0.6129690895
 40
0.6405706276
 40
0.6689100799
 40
0.6980880806
 40
0.728172494
 40
0.7591992177
 40
0.7911736804
 40
0.8578025171
 40
0.8923886674
 40
0.9276943618
 40
1.0
 40
1.0
 40
1.0
 40
1.0
 10
11.7916235484
 20
1.5906026201
 30
0.0
 10
11.7907174007
 20
1.5852027927
 30
0.0
 10
11.7888696523
 20
1.5772179746
 30
0.0
 10
11.7854256167
 20
1.5669581363
 30
0.0
 10
11.7814434686
 20
1.5572645838
 30
0.0
 10
11.7765876365
 20
1.5481827819
 30
0.0
 10
11.7708924179
 20
1.5399354705
 30
0.0
 10
11.7663298644
 20
1.5343320092
 30
0.0
 10
11.7614596654
 20
1.5292800775
 30
0.0
 10
11.7563175417
 20
1.5248177182
 30
0.0
 10
11.7509416025
 20
1.5209793199
 30
0.0
 10
11.7453717241
 20
1.5177947814
 30
0.0
 10
11.7396495284
 20
1.5152894617
 30
0.0
 10
11.7338182505
 20
1.5134838694
 30
0.0
 10
11.7279225959
 20
1.5123933092
 30
0.0
 10
11.7220084539
 20
1.5120274217
 30
0.0
 10
11.7161224078
 20
1.5123897844
 30
0.0
 10
11.710311039
 20
1.5134776164
 30
0.0
 10
11.7046201442
 20
1.5152818273
 30
0.0
 10
11.6990940382
 20
1.5177872938
 30
0.0
 10
11.6937750623
 20
1.5209733533
 30
0.0
 10
11.688703327
 20
1.5248142882
 30
0.0
 10
11.6839165748
 20
1.5292797856
 30
0.0
 10
11.6794502153
 20
1.5343350733
 30
0.0
 10
11.6753368249
 20
1.5399418658
 30
0.0
 10
11.6702961518
 20
1.5482061439
 30
0.0
 10
11.6661728038
 20
1.5572973611
 30
0.0
 10
11.6629778472
 20
1.5669744643
 30
0.0
 10
11.6603544516
 20
1.5772604451
 30
0.0
 10
11.6591568018
 20
1.5852287681
 30
0.0
 10
11.6586874735
 20
1.5906026201
 30
0.0
  0
SPLINE
  5
50D
100
AcDbEntity
  8
0
100
AcDbSpline
 62
7
  6
CONTINUOUS
 70
0
 71
3
 72
39
 73
35
 74
0
 42
0.0000001
 43
0.0000001
 44
0.0000000001
 40
0.0
 40
0.0
 40
0.0
 40
0.0
 40
0.0312238294
 40
0.0624510388
 40
0.0936800311
 40
0.1249129098
 40
0.1561494058
 40
0.1873900428
 40
0.2186349709
 40
0.2498841975
 40
0.2811376182
 40
0.3123951002
 40
0.3436562494
 40
0.374920727
 40
0.4061879798
 40
0.4374573896
 40
0.4687283258
 40
0.5
 40
0.5312716742
 40
0.5625426104
 40
0.5938120202
 40
0.625079273
 40
0.6563437506
 40
0.6876048998
 40
0.7188623818
 40
0.7501158025
 40
0.7813650291
 40
0.8126099572
 40
0.8438505942
 40
0.8750870902
 40
0.9063199689
 40
0.9375489612
 40
0.9687761706
 40
1.0
 40
1.0
 40
1.0
 40
1.0
 10
12.0298926102
 20
1.5906026201
 30
0.0
 10
12.0294015308
 20
1.5878806841
 30
0.0
 10
12.0281812427
 20
1.5824763933
 30
0.0
 10
12.0256526833
 20
1.5745621082
 30
0.0
 10
12.0224443366
 20
1.5668966001
 30
0.0
 10
12.0185808629
 20
1.559538758
 30
0.0
 10
12.0140913238
 20
1.5525440344
 30
0.0
 10
12.009009807
 20
1.5459654505
 30
0.0
 10
12.0033747552
 20
1.539852799
 30
0.0
 10
11.997228854
 20
1.5342523569
 30
0.0
 10
11.990618633
 20
1.529206521
 30
0.0
 10
11.9835941458
 20
1.5247534823
 30
0.0
 10
11.9762085662
 20
1.5209269413
 30
0.0
 10
11.9685178084
 20
1.5177558551
 30
0.0
 10
11.9605800876
 20
1.5152642176
 30
0.0
 10
11.9524554888
 20
1.5134708834
 30
0.0
 10
11.9442055134
 20
1.5123894274
 30
0.0
 10
11.9358926102
 20
1.5120280275
 30
0.0
 10
11.927579707
 20
1.5123894274
 30
0.0
 10
11.9193297316
 20
1.5134708834
 30
0.0
 10
11.9112051328
 20
1.5152642176
 30
0.0
 10
11.903267412
 20
1.5177558551
 30
0.0
 10
11.8955766542
 20
1.5209269413
 30
0.0
 10
11.8881910746
 20
1.5247534823
 30
0.0
 10
11.8811665874
 20
1.529206521
 30
0.0
 10
11.8745563664
 20
1.5342523569
 30
0.0
 10
11.8684104652
 20
1.539852799
 30
0.0
 10
11.8627754134
 20
1.5459654505
 30
0.0
 10
11.8576938966
 20
1.5525440344
 30
0.0
 10
11.8532043575
 20
1.559538758
 30
0.0
 10
11.8493408838
 20
1.5668966001
 30
0.0
 10
11.8461325371
 20
1.5745621082
 30
0.0
 10
11.8436039777
 20
1.5824763933
 30
0.0
 10
11.8423836896
 20
1.5878806841
 30
0.0
 10
11.8418926102
 20
1.5906026201
 30
0.0
  0
SPLINE
  5
50E
100
AcDbEntity
  8
0
100
AcDbSpline
 62
7
  6
CONTINUOUS
 70
0
 71
3
 72
35
 73
31
 74
0
 42
0.0000001
 43
0.0000001
 44
0.0000000001
 40
0.0
 40
0.0
 40
0.0
 40
0.0
 40
0.0723056382
 40
0.1076113326
 40
0.1421974829
 40
0.2088263196
 40
0.2408007823
 40
0.271827506
 40
0.3019119194
 40
0.3310899201
 40
0.3594293724
 40
0.3870309105
 40
0.4140264318
 40
0.4405757274
 40
0.4668605131
 40
0.4930759694
 40
0.519420966
 40
0.5460876164
 40
0.57325167
 40
0.6010650014
 40
0.6296502424
 40
0.659098044
 40
0.6894665508
 40
0.7207820667
 40
0.7530413598
 40
0.7862140537
 40
0.855016736
 40
0.8905220117
 40
0.9266083306
 40
1.0
 40
1.0
 40
1.0
 40
1.0
 10
12.2130977469
 20
1.5906026201
 30
0.0
 10
12.2126284186
 20
1.5852287681
 30
0.0
 10
12.2114307688
 20
1.5772604451
 30
0.0
 10
12.2088073732
 20
1.5669744643
 30
0.0
 10
12.2056124166
 20
1.5572973611
 30
0.0
 10
12.2014890686
 20
1.5482061439
 30
0.0
 10
12.1964483955
 20
1.5399418658
 30
0.0
 10
12.1923350051
 20
1.5343350733
 30
0.0
 10
12.1878686456
 20
1.5292797856
 30
0.0
 10
12.1830818934
 20
1.5248142882
 30
0.0
 10
12.1780101581
 20
1.5209733533
 30
0.0
 10
12.1726911822
 20
1.5177872938
 30
0.0
 10
12.1671650762
 20
1.5152818273
 30
0.0
 10
12.1614741814
 20
1.5134776164
 30
0.0
 10
12.1556628126
 20
1.5123897844
 30
0.0
 10
12.1497767665
 20
1.5120274217
 30
0.0
 10
12.1438626245
 20
1.5123933092
 30
0.0
 10
12.1379669699
 20
1.5134838694
 30
0.0
 10
12.132135692
 20
1.5152894617
 30
0.0
 10
12.1264134963
 20
1.5177947814
 30
0.0
 10
12.1208436179
 20
1.5209793199
 30
0.0
 10
12.1154676787
 20
1.5248177182
 30
0.0
 10
12.110325555
 20
1.5292800775
 30
0.0
 10
12.1054553561
 20
1.5343320092
 30
0.0
 10
12.1008928025
 20
1.5399354705
 30
0.0
 10
12.0951975839
 20
1.5481827819
 30
0.0
 10
12.0903417518
 20
1.5572645838
 30
0.0
 10
12.0863596037
 20
1.5669581363
 30
0.0
 10
12.0829155681
 20
1.5772179746
 30
0.0
 10
12.0810678197
 20
1.5852027927
 30
0.0
 10
12.080161672
 20
1.5906026201
 30
0.0
  0
LINE
  5
50F
100
AcDbEntity
  8
0
100
AcDbLine
 62
9
  6
CONTINUOUS
 10
9.2665243681
 20
11.2552191999
 11
9.2764606673
 21
11.2720161278
  0
LINE
  5
510
100
AcDbEntity
  8
0
100
AcDbLine
 62
7
  6
CONTINUOUS
 10
9.3577437293
 20
11.2195795841
 11
9.346822152
 21
11.208186469
  0
SPLINE
  5
511
100
AcDbEntity
  8
0
100
AcDbSpline
 62
9
  6
CONTINUOUS
 70
0
 71
3
 72
17
 73
13
 74
0
 42
0.0000001
 43
0.0000001
 44
0.0000000001
 40
0.0
 40
0.0
 40
0.0
 40
0.0
 40
0.1249605335
 40
0.2499257054
 40
0.3748894168
 40
0.4998537303
 40
0.6248194216
 40
0.7497876556
 40
0.8123429441
 40
0.8748923299
 40
0.9374520763
 40
1.0
 40
1.0
 40
1.0
 40
1.0
 10
9.2562199172
 20
11.2918949894
 30
0.0
 10
9.2554021673
 20
11.2903491547
 30
0.0
 10
9.2540608852
 20
11.2870919594
 30
0.0
 10
9.2530016395
 20
11.281923067
 30
0.0
 10
9.2529382478
 20
11.276644609
 30
0.0
 10
9.2538767022
 20
11.2714501369
 30
0.0
 10
9.2557822667
 20
11.266528297
 30
0.0
 10
9.2581189069
 20
11.2627980314
 30
0.0
 10
9.2603781804
 20
11.2601196764
 30
0.0
 10
9.2622580408
 20
11.2582795037
 30
0.0
 10
9.2643049764
 20
11.2566281864
 30
0.0
 10
9.2657702203
 20
11.2556635543
 30
0.0
 10
9.2665248935
 20
11.2552200399
 30
0.0
  0
LINE
  5
512
100
AcDbEntity
  8
0
100
AcDbLine
 62
7
  6
CONTINUOUS
 10
9.3468286635
 20
11.2081928046
 11
9.2838668917
 21
11.1452081649
  0
SPLINE
  5
513
100
AcDbEntity
  8
0
100
AcDbSpline
 62
9
  6
CONTINUOUS
 70
0
 71
3
 72
15
 73
11
 74
0
 42
0.0000001
 43
0.0000001
 44
0.0000000001
 40
0.0
 40
0.0
 40
0.0
 40
0.0
 40
0.1249987931
 40
0.2499998989
 40
0.3749994324
 40
0.4999996606
 40
0.6250002125
 40
0.7499995608
 40
0.8750010944
 40
1.0
 40
1.0
 40
1.0
 40
1.0
 10
9.2838668917
 20
11.1452081649
 30
0.0
 10
9.2900691811
 20
11.1414940486
 30
0.0
 10
9.3022698692
 20
11.133719045
 30
0.0
 10
9.3199043545
 20
11.121076452
 30
0.0
 10
9.3368352801
 20
11.1075052297
 30
0.0
 10
9.3530156916
 20
11.0930477152
 30
0.0
 10
9.3684000037
 20
11.0777458608
 30
0.0
 10
9.38294508
 20
11.0616438164
 30
0.0
 10
9.3966078389
 20
11.0447876733
 30
0.0
 10
9.4051037353
 20
11.0330779905
 30
0.0
 10
9.4091882335
 20
11.0271130914
 30
0.0
  0
SPLINE
  5
514
100
AcDbEntity
  8
0
100
AcDbSpline
 62
9
  6
CONTINUOUS
 70
0
 71
3
 72
27
 73
23
 74
0
 42
0.0000001
 43
0.0000001
 44
0.0000000001
 40
0.0
 40
0.0
 40
0.0
 40
0.0
 40
0.0312672478
 40
0.0625377111
 40
0.0938053081
 40
0.1250743165
 40
0.1875633821
 40
0.2500518452
 40
0.3125396778
 40
0.3750271792
 40
0.4375145162
 40
0.5000016736
 40
0.5624887395
 40
0.6249758125
 40
0.6874629026
 40
0.7499502184
 40
0.8124381083
 40
0.8749266004
 40
0.9061953425
 40
0.9374626924
 40
0.9687329378
 40
1.0
 40
1.0
 40
1.0
 40
1.0
 10
9.4091882335
 20
11.0271130914
 30
0.0
 10
9.4102470854
 20
11.0255785036
 30
0.0
 10
9.412238287
 20
11.0224197455
 30
0.0
 10
9.4148346866
 20
11.0174590816
 30
0.0
 10
9.4170289154
 20
11.0123070147
 30
0.0
 10
9.4194012795
 20
11.0052327169
 30
0.0
 10
9.4213135138
 20
10.9960716801
 30
0.0
 10
9.4218605342
 20
10.984861081
 30
0.0
 10
9.4206288901
 20
10.9737035218
 30
0.0
 10
9.4176615917
 20
10.9628781657
 30
0.0
 10
9.413025635
 20
10.9526555472
 30
0.0
 10
9.406844064
 20
10.9432863216
 30
0.0
 10
9.399262447
 20
10.935009067
 30
0.0
 10
9.3904767256
 20
10.9280230731
 30
0.0
 10
9.3807000408
 20
10.9225087236
 30
0.0
 10
9.3701784678
 20
10.918596874
 30
0.0
 10
9.3591722851
 20
10.9163972148
 30
0.0
 10
9.3498214536
 20
10.9160208415
 30
0.0
 10
9.3423824605
 20
10.9165989622
 30
0.0
 10
9.3368511897
 20
10.9174724591
 30
0.0
 10
9.3314076199
 20
10.9187826462
 30
0.0
 10
9.3278590739
 20
10.9199446611
 30
0.0
 10
9.3261128406
 20
10.9205979261
 30
0.0
  0
SPLINE
  5
515
100
AcDbEntity
  8
0
100
AcDbSpline
 62
7
  6
CONTINUOUS
 70
0
 71
3
 72
32
 73
28
 74
0
 42
0.0000001
 43
0.0000001
 44
0.0000000001
 40
0.0
 40
0.0
 40
0.0
 40
0.0
 40
0.2231977819
 40
0.3256304877
 40
0.421597092
 40
0.5108474295
 40
0.5931518665
 40
0.6682993203
 40
0.7360974019
 40
0.7963741739
 40
0.8489794661
 40
0.8723648699
 40
0.8937864806
 40
0.9132326273
 40
0.9306938211
 40
0.9461621475
 40
0.9596337295
 40
0.9711084269
 40
0.9805926548
 40
0.9845943997
 40
0.988107769
 40
0.9911397248
 40
0.9937016381
 40
0.9958131373
 40
0.9975098298
 40
0.9988607673
 40
1.0
 40
1.0
 40
1.0
 40
1.0
 10
10.3424261057
 20
15.2287999126
 30
0.0
 10
10.335414643
 20
15.2353001868
 30
0.0
 10
10.3251694832
 20
15.2447665428
 30
0.0
 10
10.3118590633
 20
15.2569727753
 30
0.0
 10
10.3027534166
 20
15.2652745265
 30
0.0
 10
10.2942583735
 20
15.272966137
 30
0.0
 10
10.2863950544
 20
15.2800266015
 30
0.0
 10
10.2791829061
 20
15.2864366544
 30
0.0
 10
10.2726397529
 20
15.2921788056
 30
0.0
 10
10.2667816462
 20
15.297237248
 30
0.0
 10
10.2623239544
 20
15.3010061493
 30
0.0
 10
10.259107495
 20
15.3036645789
 30
0.0
 10
10.2569707928
 20
15.3053996386
 30
0.0
 10
10.2550147591
 20
15.3069544146
 30
0.0
 10
10.2532405653
 20
15.3083278606
 30
0.0
 10
10.251649253
 20
15.3095190694
 30
0.0
 10
10.2502417991
 20
15.310527474
 30
0.0
 10
10.2490189914
 20
15.3113524819
 30
0.0
 10
10.248109503
 20
15.3119157037
 30
0.0
 10
10.2474726629
 20
15.3122691366
 30
0.0
 10
10.2470691178
 20
15.3124726343
 30
0.0
 10
10.2467119558
 20
15.31263016
 30
0.0
 10
10.246400977
 20
15.3127418659
 30
0.0
 10
10.2461355828
 20
15.3128081633
 30
0.0
 10
10.2459143932
 20
15.3128289852
 30
0.0
 10
10.2457341838
 20
15.3128033152
 30
0.0
 10
10.2456388844
 20
15.3127468845
 30
0.0
 10
10.2456043755
 20
15.3127123783
 30
0.0
  0
SPLINE
  5
516
100
AcDbEntity
  8
0
100
AcDbSpline
 62
7
  6
CONTINUOUS
 70
0
 71
3
 72
40
 73
36
 74
0
 42
0.0000001
 43
0.0000001
 44
0.0000000001
 40
0.0
 40
0.0
 40
0.0
 40
0.0
 40
0.0962387945
 40
0.1917043106
 40
0.2855320583
 40
0.3768739025
 40
0.4648834985
 40
0.5487291091
 40
0.6275964169
 40
0.7006973158
 40
0.7672775077
 40
0.7978984656
 40
0.8266270906
 40
0.853383769
 40
0.8780932809
 40
0.9006844445
 40
0.9210912799
 40
0.9392536208
 40
0.9551207613
 40
0.9621780891
 40
0.9686429686
 40
0.9745091929
 40
0.9797705921
 40
0.9844237299
 40
0.9884701562
 40
0.9919119823
 40
0.9947513757
 40
0.9959453415
 40
0.9969875028
 40
0.9978765454
 40
0.9986112218
 40
0.999190425
 40
0.9996133994
 40
0.999880578
 40
1.0
 40
1.0
 40
1.0
 40
1.0
 10
9.2839033324
 20
11.1452215799
 30
0.0
 10
9.2854822766
 20
11.1468017075
 30
0.0
 10
9.2886337108
 20
11.1499430452
 30
0.0
 10
9.2933458507
 20
11.1546034747
 30
0.0
 10
9.2979950074
 20
11.1591658782
 30
0.0
 10
9.3025377226
 20
11.1635895972
 30
0.0
 10
9.3069305676
 20
11.1678350502
 30
0.0
 10
9.3111302122
 20
11.1718637015
 30
0.0
 10
9.3150938915
 20
11.1756384027
 30
0.0
 10
9.318779814
 20
11.1791236137
 30
0.0
 10
9.3216615596
 20
11.1818293329
 30
0.0
 10
9.3237978982
 20
11.1838242656
 30
0.0
 10
9.3252610931
 20
11.1851857082
 30
0.0
 10
9.3266261591
 20
11.1864511819
 30
0.0
 10
9.327888976
 20
11.1876174051
 30
0.0
 10
9.3290456636
 20
11.188681304
 30
0.0
 10
9.3300926062
 20
11.1896400338
 30
0.0
 10
9.3310265454
 20
11.190491063
 30
0.0
 10
9.3317332932
 20
11.1911313691
 30
0.0
 10
9.3322401012
 20
11.1915879699
 30
0.0
 10
9.3325750764
 20
11.1918884941
 30
0.0
 10
9.3328796894
 20
11.192160437
 30
0.0
 10
9.3331536491
 20
11.1924035692
 30
0.0
 10
9.333396795
 20
11.1926177835
 30
0.0
 10
9.3336090951
 20
11.1928031182
 30
0.0
 10
9.333790614
 20
11.1929596882
 30
0.0
 10
9.3339229101
 20
11.1930719602
 30
0.0
 10
9.3340134621
 20
11.1931473105
 30
0.0
 10
9.3340696105
 20
11.1931932638
 30
0.0
 10
9.3341178859
 20
11.1932318975
 30
0.0
 10
9.3341583977
 20
11.1932633218
 30
0.0
 10
9.3341905617
 20
11.1932870426
 30
0.0
 10
9.334215546
 20
11.193304186
 30
0.0
 10
9.3342306661
 20
11.1933125334
 30
0.0
 10
9.33424068
 20
11.193316884
 30
0.0
 10
9.3342429981
 20
11.1933153642
 30
0.0
  0
LINE
  5
517
100
AcDbEntity
  8
0
100
AcDbLine
 62
9
  6
CONTINUOUS
 10
9.4091881164
 20
11.0271130112
 11
9.4648082009
 21
11.0653623635
  0
LINE
  5
518
100
AcDbEntity
  8
0
100
AcDbLine
 62
9
  6
CONTINUOUS
 10
9.0401230885
 20
11.443425338
 11
9.041874623
 21
11.4420562438
  0
SPLINE
  5
519
100
AcDbEntity
  8
0
100
AcDbSpline
 62
9
  6
CONTINUOUS
 70
0
 71
3
 72
41
 73
37
 74
0
 42
0.0000001
 43
0.0000001
 44
0.0000000001
 40
0.0
 40
0.0
 40
0.0
 40
0.0
 40
0.0982574924
 40
0.1955042138
 40
0.2908087574
 40
0.3832656166
 40
0.471991983
 40
0.5561425287
 40
0.6349148435
 40
0.7075580363
 40
0.7733795763
 40
0.8035336469
 40
0.8317520018
 40
0.8579681361
 40
0.8821188746
 40
0.9041471507
 40
0.9240001138
 40
0.9416305763
 40
0.9569966087
 40
0.9638185685
 40
0.9700613191
 40
0.9757210903
 40
0.9807941539
 40
0.9852775357
 40
0.9891689569
 40
0.9924661819
 40
0.9951670129
 40
0.996293219
 40
0.9972698294
 40
0.9980967981
 40
0.9987741121
 40
0.999301829
 40
0.9996801879
 40
0.9999100829
 40
0.9999707554
 40
1.0
 40
1.0
 40
1.0
 40
1.0
 10
9.3261129972
 20
10.9205983487
 30
0.0
 10
9.3253575143
 20
10.9185589982
 30
0.0
 10
9.3238550386
 20
10.9145010095
 30
0.0
 10
9.3216222969
 20
10.9084640295
 30
0.0
 10
9.3194362758
 20
10.9025466587
 30
0.0
 10
9.317317834
 20
10.8968053658
 30
0.0
 10
9.3152871486
 20
10.8912948406
 30
0.0
 10
9.3133635831
 20
10.8860676404
 30
0.0
 10
9.3115654658
 20
10.8811735928
 30
0.0
 10
9.3099099341
 20
10.8766593603
 30
0.0
 10
9.3086273836
 20
10.8731545208
 30
0.0
 10
9.3076844897
 20
10.8705724371
 30
0.0
 10
9.3070431702
 20
10.8688134556
 30
0.0
 10
9.306448308
 20
10.8671789674
 30
0.0
 10
9.3059013164
 20
10.8656728576
 30
0.0
 10
9.3054035
 20
10.8642987291
 30
0.0
 10
9.3049560391
 20
10.8630598541
 30
0.0
 10
9.304559998
 20
10.8619591907
 30
0.0
 10
9.3042628841
 20
10.8611294577
 30
0.0
 10
9.3040517069
 20
10.8605366763
 30
0.0
 10
9.303913115
 20
10.8601460966
 30
0.0
 10
9.3037879994
 20
10.8597918094
 30
0.0
 10
9.3036764365
 20
10.8594740347
 30
0.0
 10
9.3035784901
 20
10.8591929622
 30
0.0
 10
9.3034942079
 20
10.858948753
 30
0.0
 10
9.3034236362
 20
10.858741551
 30
0.0
 10
9.3033736403
 20
10.8585920009
 30
0.0
 10
9.3033406473
 20
10.8584909251
 30
0.0
 10
9.3033208931
 20
10.8584291649
 30
0.0
 10
9.3033045853
 20
10.8583767164
 30
0.0
 10
9.3032917139
 20
10.85833366
 30
0.0
 10
9.3032822707
 20
10.8582998065
 30
0.0
 10
9.3032761855
 20
10.8582756349
 30
0.0
 10
9.3032734533
 20
10.8582606692
 30
0.0
 10
9.3032730548
 20
10.8582539739
 30
0.0
 10
9.3032737274
 20
10.8582516548
 30
0.0
 10
9.3032743344
 20
10.85825143
 30
0.0
  0
SPLINE
  5
51A
100
AcDbEntity
  8
0
100
AcDbSpline
 62
7
  6
CONTINUOUS
 70
0
 71
3
 72
48
 73
44
 74
0
 42
0.0000001
 43
0.0000001
 44
0.0000000001
 40
0.0
 40
0.0
 40
0.0
 40
0.0
 40
0.0292400843
 40
0.0608104451
 40
0.0945288192
 40
0.1301995997
 40
0.2065620165
 40
0.2881305733
 40
0.3730176809
 40
0.4592593753
 40
0.5448609181
 40
0.6278431602
 40
0.6677491771
 40
0.7062885237
 40
0.7432384493
 40
0.778385437
 40
0.8115265207
 40
0.8424704954
 40
0.871038975
 40
0.8970675585
 40
0.9204068389
 40
0.9409233698
 40
0.9500861103
 40
0.9585008778
 40
0.966156123
 40
0.9730413077
 40
0.9791474932
 40
0.9844670462
 40
0.9868300482
 40
0.9889943888
 40
0.9909597687
 40
0.9927261065
 40
0.9942935465
 40
0.9956626577
 40
0.9968347727
 40
0.9978123165
 40
0.9985998237
 40
0.9989251445
 40
0.9992072305
 40
0.9994492103
 40
0.9996560519
 40
0.9998356754
 40
1.0
 40
1.0
 40
1.0
 40
1.0
 10
10.1618448681
 20
15.0601435042
 30
0.0
 10
10.1666419691
 20
15.055772601
 30
0.0
 10
10.1765990302
 20
15.0466611083
 30
0.0
 10
10.1920311438
 20
15.0324474183
 30
0.0
 10
10.208473651
 20
15.0172240888
 30
0.0
 10
10.2321649653
 20
14.9951970175
 30
0.0
 10
10.2635592396
 20
14.9658580701
 30
0.0
 10
10.3028570062
 20
14.9289782058
 30
0.0
 10
10.3437068777
 20
14.890548101
 30
0.0
 10
10.3851902758
 20
14.8514850945
 30
0.0
 10
10.4263742809
 20
14.8127208468
 30
0.0
 10
10.460099017
 20
14.7810363963
 30
0.0
 10
10.4862440415
 20
14.7565391636
 30
0.0
 10
10.5049536648
 20
14.7390489262
 30
0.0
 10
10.5229157342
 20
14.7223057656
 30
0.0
 10
10.5400297778
 20
14.7064100616
 30
0.0
 10
10.5562002203
 20
14.6914572336
 30
0.0
 10
10.5713369397
 20
14.6775371886
 30
0.0
 10
10.5853557916
 20
14.6647338005
 30
0.0
 10
10.598179014
 20
14.6531243141
 30
0.0
 10
10.609735827
 20
14.6427791057
 30
0.0
 10
10.6185614603
 20
14.6349956369
 30
0.0
 10
10.6249472618
 20
14.6294542367
 30
0.0
 10
10.6291999861
 20
14.6258102458
 30
0.0
 10
10.6330938209
 20
14.6225245068
 30
0.0
 10
10.6366235593
 20
14.6196020582
 30
0.0
 10
10.6397844574
 20
14.6170474227
 30
0.0
 10
10.6421939754
 20
14.6151602804
 30
0.0
 10
10.643936376
 20
14.6138409547
 30
0.0
 10
10.6450961664
 20
14.6129856063
 30
0.0
 10
10.6461610379
 20
14.6122248959
 30
0.0
 10
10.6471306659
 20
14.6115590854
 30
0.0
 10
10.6480047504
 20
14.6109883478
 30
0.0
 10
10.6487830357
 20
14.6105128107
 30
0.0
 10
10.6494654026
 20
14.6101322626
 30
0.0
 10
10.6500517643
 20
14.6098466634
 30
0.0
 10
10.6504847447
 20
14.6096771092
 30
0.0
 10
10.6507835201
 20
14.6095948376
 30
0.0
 10
10.6509693173
 20
14.6095610609
 30
0.0
 10
10.6511317372
 20
14.6095510968
 30
0.0
 10
10.65127134
 20
14.6095653611
 30
0.0
 10
10.6513883892
 20
14.6096048986
 30
0.0
 10
10.6514516721
 20
14.6096501595
 30
0.0
 10
10.6514774621
 20
14.6096759477
 30
0.0
  0
SPLINE
  5
51B
100
AcDbEntity
  8
0
100
AcDbSpline
 62
9
  6
CONTINUOUS
 70
0
 71
3
 72
18
 73
14
 74
0
 42
0.0000001
 43
0.0000001
 44
0.0000000001
 40
0.0
 40
0.0
 40
0.0
 40
0.0
 40
0.0177065813
 40
0.037502362
 40
0.0617082196
 40
0.0916313098
 40
0.1279630983
 40
0.1710850039
 40
0.2784819801
 40
0.4148432286
 40
0.5805223792
 40
0.775588114
 40
1.0
 40
1.0
 40
1.0
 40
1.0
 10
7.2348762964
 20
13.0728842261
 30
0.0
 10
7.2348848383
 20
13.0728926778
 30
0.0
 10
7.2349072447
 20
13.0729066325
 30
0.0
 10
7.234949528
 20
13.0729125702
 30
0.0
 10
7.2349996034
 20
13.0729056775
 30
0.0
 10
7.2350581902
 20
13.0728866617
 30
0.0
 10
7.2351257052
 20
13.0728555371
 30
0.0
 10
7.2352361349
 20
13.0727929994
 30
0.0
 10
7.2353960769
 20
13.072681398
 30
0.0
 10
7.2356127999
 20
13.0725073708
 30
0.0
 10
7.2358659637
 20
13.0722842414
 30
0.0
 10
7.2361553503
 20
13.0720122335
 30
0.0
 10
7.2363580743
 20
13.0718123359
 30
0.0
 10
7.2364655921
 20
13.0717044738
 30
0.0
  0
LINE
  5
51C
100
AcDbEntity
  8
0
100
AcDbLine
 62
9
  6
CONTINUOUS
 10
7.2174139133
 20
13.0907558326
 11
7.2323720987
 21
13.0704641219
  0
SPLINE
  5
51D
100
AcDbEntity
  8
0
100
AcDbSpline
 62
7
  6
CONTINUOUS
 70
0
 71
3
 72
69
 73
65
 74
0
 42
0.0000001
 43
0.0000001
 44
0.0000000001
 40
0.0
 40
0.0
 40
0.0
 40
0.0
 40
0.0001752315
 40
0.0003785358
 40
0.0006286686
 40
0.0009359049
 40
0.0013057735
 40
0.0017414097
 40
0.0022446873
 40
0.0028167641
 40
0.0041699553
 40
0.0058046959
 40
0.0077224185
 40
0.0099233797
 40
0.0124073076
 40
0.0151734103
 40
0.018220495
 40
0.0215472136
 40
0.0290324784
 40
0.0376133942
 40
0.0472709059
 40
0.0579831925
 40
0.0697258287
 40
0.0824717673
 40
0.0961915347
 40
0.1108533937
 40
0.1428651455
 40
0.1782095224
 40
0.2165576849
 40
0.257552503
 40
0.3008120135
 40
0.3459330666
 40
0.392495034
 40
0.4400638402
 40
0.4881959606
 40
0.5364426314
 40
0.5843539657
 40
0.6314832996
 40
0.6773911629
 40
0.7216496576
 40
0.7638461972
 40
0.8035875951
 40
0.8405036616
 40
0.8742506994
 40
0.8898365521
 40
0.9045149374
 40
0.9182518246
 40
0.9310154319
 40
0.9427762368
 40
0.9535071535
 40
0.9631837121
 40
0.9717840406
 40
0.9792890293
 40
0.9856827417
 40
0.9884589066
 40
0.9909529353
 40
0.9931640154
 40
0.9950918595
 40
0.9967366976
 40
0.9980999061
 40
0.9986769327
 40
0.9991850953
 40
0.9996255151
 40
1.0
 40
1.0
 40
1.0
 40
1.0
 10
10.8137716774
 20
14.7318311618
 30
0.0
 10
10.8137380779
 20
14.7317975623
 30
0.0
 10
10.8136480846
 20
14.731741473
 30
0.0
 10
10.8134781676
 20
14.7317095341
 30
0.0
 10
10.8132709934
 20
14.731720076
 30
0.0
 10
10.8130242355
 20
14.7317716785
 30
0.0
 10
10.8127366302
 20
14.7318641702
 30
0.0
 10
10.812407608
 20
14.7319978331
 30
0.0
 10
10.8120369472
 20
14.7321728097
 30
0.0
 10
10.8114537608
 20
14.7324790217
 30
0.0
 10
10.8106227804
 20
14.7329714109
 30
0.0
 10
10.8095078067
 20
14.7336973328
 30
0.0
 10
10.8082267625
 20
14.7345881547
 30
0.0
 10
10.8067802605
 20
14.7356434175
 30
0.0
 10
10.8051690864
 20
14.736862727
 30
0.0
 10
10.8033940968
 20
14.7382453781
 30
0.0
 10
10.8014562166
 20
14.7397905291
 30
0.0
 10
10.7985399984
 20
14.7421610662
 30
0.0
 10
10.7944998879
 20
14.745527586
 30
0.0
 10
10.7891920068
 20
14.7500535187
 30
0.0
 10
10.7832630288
 20
14.7551992303
 30
0.0
 10
10.7767259634
 20
14.7609519547
 30
0.0
 10
10.7695952716
 20
14.7672975621
 30
0.0
 10
10.761886751
 20
14.7742204272
 30
0.0
 10
10.7536175182
 20
14.7817035306
 30
0.0
 10
10.7415097963
 20
14.7927307282
 30
0.0
 10
10.7251288152
 20
14.807774307
 30
0.0
 10
10.7040935147
 20
14.827245152
 30
0.0
 10
10.6813336923
 20
14.8484386528
 30
0.0
 10
10.6570545947
 20
14.8711499646
 30
0.0
 10
10.6314756681
 20
14.895160093
 30
0.0
 10
10.6048284123
 20
14.920237818
 30
0.0
 10
10.577354263
 20
14.9461419278
 30
0.0
 10
10.5493023579
 20
14.9726234646
 30
0.0
 10
10.5209272046
 20
14.999428074
 30
0.0
 10
10.4924863302
 20
15.0262983692
 30
0.0
 10
10.4642378607
 20
15.0529763611
 30
0.0
 10
10.4364381489
 20
15.0792058441
 30
0.0
 10
10.4093393467
 20
15.1047348273
 30
0.0
 10
10.3831871072
 20
15.129317861
 30
0.0
 10
10.3582182507
 20
15.1527183657
 30
0.0
 10
10.33465863
 20
15.1747108651
 30
0.0
 10
10.3127209333
 20
15.1950830187
 30
0.0
 10
10.2955289064
 20
15.2109395187
 30
0.0
 10
10.2827280759
 20
15.2226625665
 30
0.0
 10
10.2739070494
 20
15.2306971082
 30
0.0
 10
10.2656279728
 20
15.2381900709
 30
0.0
 10
10.2579092739
 20
15.2451230945
 30
0.0
 10
10.2507681114
 20
15.2514791513
 30
0.0
 10
10.2442203117
 20
15.2572426041
 30
0.0
 10
10.2382803289
 20
15.2623992405
 30
0.0
 10
10.2329612969
 20
15.2669364495
 30
0.0
 10
10.2282748244
 20
15.2708429476
 30
0.0
 10
10.2247576479
 20
15.2736850861
 30
0.0
 10
10.2222633517
 20
15.2756299965
 30
0.0
 10
10.2206462937
 20
15.2768551372
 30
0.0
 10
10.2191938944
 20
15.2779162728
 30
0.0
 10
10.2179069231
 20
15.2788129746
 30
0.0
 10
10.2167860047
 20
15.279544783
 30
0.0
 10
10.2159500784
 20
15.2800421379
 30
0.0
 10
10.2153629484
 20
15.2803523922
 30
0.0
 10
10.214989295
 20
15.2805303351
 30
0.0
 10
10.2146573399
 20
15.2806669203
 30
0.0
 10
10.2144470679
 20
15.2807360061
 30
0.0
 10
10.2143489654
 20
15.2807622334
 30
0.0
  0
SPLINE
  5
51E
100
AcDbEntity
  8
0
100
AcDbSpline
 62
7
  6
CONTINUOUS
 70
0
 71
3
 72
69
 73
65
 74
0
 42
0.0000001
 43
0.0000001
 44
0.0000000001
 40
0.0
 40
0.0
 40
0.0
 40
0.0
 40
0.0001705188
 40
0.0003698288
 40
0.0006168117
 40
0.0009215936
 40
0.0012895411
 40
0.0017236696
 40
0.002225769
 40
0.0027969387
 40
0.004148981
 40
0.0057832828
 40
0.0077011512
 40
0.0099027637
 40
0.0123877952
 40
0.0151554151
 40
0.0182044019
 40
0.0215333854
 40
0.0290241985
 40
0.0376119241
 40
0.0472774149
 40
0.0579987691
 40
0.0697514872
 40
0.0825084515
 40
0.0962401166
 40
0.110914673
 40
0.142953928
 40
0.1783281047
 40
0.2167077262
 40
0.2577349893
 40
0.3010272389
 40
0.3461806103
 40
0.3927737548
 40
0.4403718749
 40
0.4885307357
 40
0.5368008801
 40
0.5847317617
 40
0.6318760915
 40
0.677793825
 40
0.7220565481
 40
0.7642512167
 40
0.8039842668
 40
0.8408851982
 40
0.8746100876
 40
0.890182187
 40
0.9048450192
 40
0.9185645416
 40
0.9313089724
 40
0.9430487943
 40
0.9537569188
 40
0.9634088804
 40
0.971982813
 40
0.9794596015
 40
0.9858232839
 40
0.9885837368
 40
0.991061569
 40
0.993255963
 40
0.9951666027
 40
0.9967936814
 40
0.9981385412
 40
0.9987061529
 40
0.9992047324
 40
0.9996354035
 40
1.0
 40
1.0
 40
1.0
 40
1.0
 10
10.1958268243
 20
15.2629348281
 30
0.0
 10
10.1958595183
 20
15.2629675221
 30
0.0
 10
10.195948006
 20
15.2630217312
 30
0.0
 10
10.1961152152
 20
15.2630505158
 30
0.0
 10
10.196319556
 20
15.2630370151
 30
0.0
 10
10.1965635608
 20
15.2629824942
 30
0.0
 10
10.1968484909
 20
15.2628870799
 30
0.0
 10
10.1971749078
 20
15.262750457
 30
0.0
 10
10.1975430196
 20
15.2625724783
 30
0.0
 10
10.1981228322
 20
15.2622618743
 30
0.0
 10
10.1989496831
 20
15.2617640555
 30
0.0
 10
10.2000599548
 20
15.2610318347
 30
0.0
 10
10.2013364625
 20
15.2601345321
 30
0.0
 10
10.202778588
 20
15.2590726134
 30
0.0
 10
10.2043855395
 20
15.2578464835
 30
0.0
 10
10.206156458
 20
15.2564568528
 30
0.0
 10
10.2080904154
 20
15.2549045668
 30
0.0
 10
10.2110014546
 20
15.2525238606
 30
0.0
 10
10.2150355288
 20
15.2491444274
 30
0.0
 10
10.2203368909
 20
15.2446030155
 30
0.0
 10
10.2262598794
 20
15.2394412659
 30
0.0
 10
10.2327914615
 20
15.2336719733
 30
0.0
 10
10.2399171509
 20
15.2273092999
 30
0.0
 10
10.2476211217
 20
15.2203689024
 30
0.0
 10
10.2558862261
 20
15.212867833
 30
0.0
 10
10.2679887822
 20
15.2018154295
 30
0.0
 10
10.2843642607
 20
15.1867397523
 30
0.0
 10
10.3053942427
 20
15.1672302272
 30
0.0
 10
10.3281494888
 20
15.1459972231
 30
0.0
 10
10.3524243967
 20
15.1232459416
 30
0.0
 10
10.3779991464
 20
15.0991957527
 30
0.0
 10
10.404641852
 20
15.0740782599
 30
0.0
 10
10.4321106839
 20
15.0481350646
 30
0.0
 10
10.4601561105
 20
15.0216155133
 30
0.0
 10
10.4885232343
 20
14.9947743436
 30
0.0
 10
10.5169541558
 20
14.9678693191
 30
0.0
 10
10.5451903937
 20
14.9411587912
 30
0.0
 10
10.572975263
 20
14.9148993041
 30
0.0
 10
10.6000563071
 20
14.8893431601
 30
0.0
 10
10.6261876014
 20
14.8647360881
 30
0.0
 10
10.6511320933
 20
14.8413149091
 30
0.0
 10
10.6746637386
 20
14.8193053013
 30
0.0
 10
10.6965697052
 20
14.7989197608
 30
0.0
 10
10.7137324994
 20
14.7830540219
 30
0.0
 10
10.7265078849
 20
14.7713253709
 30
0.0
 10
10.7353086148
 20
14.7632883909
 30
0.0
 10
10.7435664159
 20
14.7557939611
 30
0.0
 10
10.7512628668
 20
14.7488604368
 30
0.0
 10
10.7583808188
 20
14.7425048377
 30
0.0
 10
10.7649044588
 20
14.7367427916
 30
0.0
 10
10.7708193497
 20
14.7315884983
 30
0.0
 10
10.7761123783
 20
14.727054554
 30
0.0
 10
10.7807719585
 20
14.7231522242
 30
0.0
 10
10.7842659268
 20
14.72031373
 30
0.0
 10
10.7867411825
 20
14.7183720406
 30
0.0
 10
10.7883438142
 20
14.7171498959
 30
0.0
 10
10.7897815823
 20
14.7160919582
 30
0.0
 10
10.7910537182
 20
14.7151986496
 30
0.0
 10
10.7921596005
 20
14.7144704292
 30
0.0
 10
10.7929828033
 20
14.7139759722
 30
0.0
 10
10.7935596935
 20
14.7136681126
 30
0.0
 10
10.7939256192
 20
14.7134921336
 30
0.0
 10
10.7942498013
 20
14.7133575411
 30
0.0
 10
10.794454889
 20
14.7132897467
 30
0.0
 10
10.7945503945
 20
14.7132642103
 30
0.0
  0
SPLINE
  5
51F
100
AcDbEntity
  8
0
100
AcDbSpline
 62
7
  6
CONTINUOUS
 70
0
 71
3
 72
69
 73
65
 74
0
 42
0.0000001
 43
0.0000001
 44
0.0000000001
 40
0.0
 40
0.0
 40
0.0
 40
0.0
 40
0.0001750846
 40
0.0003782645
 40
0.0006283003
 40
0.0009354632
 40
0.0013052771
 40
0.0017408736
 40
0.002244124
 40
0.0028161842
 40
0.0041693694
 40
0.0058041347
 40
0.0077219087
 40
0.0099229453
 40
0.0124069709
 40
0.0151731923
 40
0.0182204156
 40
0.0215472921
 40
0.0290329284
 40
0.0376142865
 40
0.0472723045
 40
0.0579851582
 40
0.0697284206
 40
0.0824750424
 40
0.0961955426
 40
0.1108581781
 40
0.1428716093
 40
0.1782178018
 40
0.2165678741
 40
0.2575646645
 40
0.3008261569
 40
0.3459491739
 40
0.3925130233
 40
0.4400836086
 40
0.4882173364
 40
0.5364654226
 40
0.5843779227
 40
0.631508144
 40
0.6774165794
 40
0.7216752941
 40
0.7638716826
 40
0.8036125214
 40
0.8405276161
 40
0.8742732381
 40
0.8898582207
 40
0.9045356242
 40
0.9182714141
 40
0.9310338103
 40
0.9427932948
 40
0.9535227799
 40
0.963197794
 40
0.9717964649
 40
0.9792996855
 40
0.9856915172
 40
0.9884666988
 40
0.9909597143
 40
0.9931697509
 40
0.9950965197
 40
0.9967402485
 40
0.998102312
 40
0.9986787515
 40
0.9991863171
 40
0.99962613
 40
1.0
 40
1.0
 40
1.0
 40
1.0
 10
10.7624887045
 20
14.6805481889
 30
0.0
 10
10.7624551332
 20
14.6805146176
 30
0.0
 10
10.7623651864
 20
14.6804585871
 30
0.0
 10
10.7621953523
 20
14.6804267493
 30
0.0
 10
10.7619882648
 20
14.6804373883
 30
0.0
 10
10.761741591
 20
14.6804890884
 30
0.0
 10
10.7614540669
 20
14.6805816795
 30
0.0
 10
10.7611251233
 20
14.6807154449
 30
0.0
 10
10.7607545388
 20
14.6808905272
 30
0.0
 10
10.7601714521
 20
14.6811968959
 30
0.0
 10
10.7593405928
 20
14.6816894839
 30
0.0
 10
10.7582257554
 20
14.6824156431
 30
0.0
 10
10.7569448406
 20
14.6833067154
 30
0.0
 10
10.7554984612
 20
14.6843622415
 30
0.0
 10
10.7538874033
 20
14.6855818268
 30
0.0
 10
10.7521125236
 20
14.686964766
 30
0.0
 10
10.750174747
 20
14.6885102173
 30
0.0
 10
10.7472586617
 20
14.6908811898
 30
0.0
 10
10.7432187001
 20
14.6942482782
 30
0.0
 10
10.7379109714
 20
14.6987749137
 30
0.0
 10
10.7319821247
 20
14.7039213727
 30
0.0
 10
10.7254451708
 20
14.7096748876
 30
0.0
 10
10.7183145716
 20
14.7160213277
 30
0.0
 10
10.7106061263
 20
14.7229450657
 30
0.0
 10
10.702336954
 20
14.7304290795
 30
0.0
 10
10.6902293007
 20
14.7414575744
 30
0.0
 10
10.6738483783
 20
14.7565028454
 30
0.0
 10
10.6528131193
 20
14.7759757849
 30
0.0
 10
10.6300533339
 20
14.797171476
 30
0.0
 10
10.6057742918
 20
14.8198850506
 30
0.0
 10
10.5801954595
 20
14.8438974933
 30
0.0
 10
10.5535483634
 20
14.8689775576
 30
0.0
 10
10.5260744597
 20
14.8948840107
 30
0.0
 10
10.4980229145
 20
14.9213678665
 30
0.0
 10
10.4696482554
 20
14.94817475
 30
0.0
 10
10.4412080364
 20
14.9750472474
 30
0.0
 10
10.4129604035
 20
15.0017273504
 30
0.0
 10
10.3851617276
 20
15.0279588265
 30
0.0
 10
10.3580641723
 20
15.0534896587
 30
0.0
 10
10.3319134009
 20
15.0780743741
 30
0.0
 10
10.3069462436
 20
15.1014763695
 30
0.0
 10
10.2833885571
 20
15.1234701517
 30
0.0
 10
10.2614530353
 20
15.1438433604
 30
0.0
 10
10.244262997
 20
15.159700625
 30
0.0
 10
10.2314638836
 20
15.1714241701
 30
0.0
 10
10.2226442149
 20
15.1794589695
 30
0.0
 10
10.2143665547
 20
15.1869521249
 30
0.0
 10
10.206649329
 20
15.1938852763
 30
0.0
 10
10.1995096944
 20
15.2002413964
 30
0.0
 10
10.1929634755
 20
15.2060048476
 30
0.0
 10
10.1870251254
 20
15.211161417
 30
0.0
 10
10.181707776
 20
15.2156984936
 30
0.0
 10
10.1770230332
 20
15.2196047946
 30
0.0
 10
10.1735073418
 20
15.2224467526
 30
0.0
 10
10.171014258
 20
15.2243914946
 30
0.0
 10
10.1693981151
 20
15.225616469
 30
0.0
 10
10.167946641
 20
15.226677423
 30
0.0
 10
10.1666606049
 20
15.2275739284
 30
0.0
 10
10.1655406314
 20
15.2283055253
 30
0.0
 10
10.1647055022
 20
15.2288027074
 30
0.0
 10
10.1641190121
 20
15.229112817
 30
0.0
 10
10.1637458406
 20
15.22929064
 30
0.0
 10
10.1634143695
 20
15.2294271029
 30
0.0
 10
10.16320442
 20
15.2294961086
 30
0.0
 10
10.1631064789
 20
15.2295222931
 30
0.0
  0
SPLINE
  5
520
100
AcDbEntity
  8
0
100
AcDbSpline
 62
7
  6
CONTINUOUS
 70
0
 71
3
 72
69
 73
65
 74
0
 42
0.0000001
 43
0.0000001
 44
0.0000000001
 40
0.0
 40
0.0
 40
0.0
 40
0.0
 40
0.0001709809
 40
0.000370679
 40
0.0006179759
 40
0.000923018
 40
0.0012911903
 40
0.0017255207
 40
0.0022278079
 40
0.0027991571
 40
0.004151548
 40
0.0057862017
 40
0.0077044374
 40
0.0099064394
 40
0.0123918876
 40
0.0151599541
 40
0.01820942
 40
0.0215389163
 40
0.0290308594
 40
0.0376198578
 40
0.0472867611
 40
0.0580096655
 40
0.0697640691
 40
0.08252285
 40
0.0962564521
 40
0.1109330555
 40
0.1429767112
 40
0.1783556251
 40
0.2167402231
 40
0.2577726104
 40
0.3010700114
 40
0.3462284645
 40
0.3928264845
 40
0.4404291786
 40
0.4885921694
 40
0.5368659078
 40
0.584799718
 40
0.6319462182
 40
0.6778652645
 40
0.7221283518
 40
0.7643223682
 40
0.8040536733
 40
0.8409517287
 40
0.8746725583
 40
0.8902421822
 40
0.9049022373
 40
0.9186186765
 40
0.9313597201
 40
0.9430958553
 40
0.9537999923
 40
0.9634476642
 40
0.9720170066
 40
0.9794889066
 40
0.9858473981
 40
0.9886051404
 40
0.9910801822
 40
0.9932717051
 40
0.9951793887
 40
0.9968034206
 40
0.9981451376
 40
0.9987111388
 40
0.9992080809
 40
0.9996370883
 40
1.0
 40
1.0
 40
1.0
 40
1.0
 10
10.1461793334
 20
15.2132873372
 30
0.0
 10
10.146212116
 20
15.2133201198
 30
0.0
 10
10.1463007539
 20
15.2133745097
 30
0.0
 10
10.1464682368
 20
15.2134035738
 30
0.0
 10
10.1466728591
 20
15.2133903119
 30
0.0
 10
10.1469171358
 20
15.2133360068
 30
0.0
 10
10.1472023297
 20
15.2132407892
 30
0.0
 10
10.1475290033
 20
15.2131043468
 30
0.0
 10
10.1478973663
 20
15.2129265326
 30
0.0
 10
10.1484775152
 20
15.2126161455
 30
0.0
 10
10.1493047756
 20
15.2121185413
 30
0.0
 10
10.1504155109
 20
15.2113864984
 30
0.0
 10
10.1516924671
 20
15.2104893123
 30
0.0
 10
10.1531350266
 20
15.2094274489
 30
0.0
 10
10.1547423982
 20
15.2082013126
 30
0.0
 10
10.1565137234
 20
15.2068116143
 30
0.0
 10
10.1584480745
 20
15.2052591997
 30
0.0
 10
10.1613596393
 20
15.2028782336
 30
0.0
 10
10.1653943299
 20
15.199498313
 30
0.0
 10
10.1706963622
 20
15.1949561045
 30
0.0
 10
10.1766199736
 20
15.1897933343
 30
0.0
 10
10.1831521314
 20
15.1840228041
 30
0.0
 10
10.1902783502
 20
15.1776586825
 30
0.0
 10
10.1979828037
 20
15.1707166346
 30
0.0
 10
10.2062483423
 20
15.1632137218
 30
0.0
 10
10.2183514165
 20
15.1521585414
 30
0.0
 10
10.234727394
 20
15.1370789648
 30
0.0
 10
10.2557577523
 20
15.1175642653
 30
0.0
 10
10.2785131329
 20
15.0963255593
 30
0.0
 10
10.302787905
 20
15.0735681401
 30
0.0
 10
10.3283622209
 20
15.0495114691
 30
0.0
 10
10.3550041585
 20
15.0243872499
 30
0.0
 10
10.3824718576
 20
14.998437179
 30
0.0
 10
10.4105157468
 20
14.9719107062
 30
0.0
 10
10.4388808985
 20
14.9450626649
 30
0.0
 10
10.4673093706
 20
14.9181509144
 30
0.0
 10
10.495542648
 20
14.8914338911
 30
0.0
 10
10.5233240107
 20
14.8651682259
 30
0.0
 10
10.5504009749
 20
14.8396063003
 30
0.0
 10
10.5765275937
 20
14.8149939177
 30
0.0
 10
10.6014667968
 20
14.7915679688
 30
0.0
 10
10.6249925336
 20
14.7695541914
 30
0.0
 10
10.646891968
 20
14.7491651378
 30
0.0
 10
10.6640488565
 20
14.7332968104
 30
0.0
 10
10.676819195
 20
14.7215664256
 30
0.0
 10
10.6856159668
 20
14.7135284838
 30
0.0
 10
10.6938696649
 20
14.7060332838
 30
0.0
 10
10.7015618726
 20
14.6990991826
 30
0.0
 10
10.7086754467
 20
14.6927432012
 30
0.0
 10
10.7151945798
 20
14.6869809691
 30
0.0
 10
10.7211048399
 20
14.6818266875
 30
0.0
 10
10.7263931205
 20
14.6772929534
 30
0.0
 10
10.7310478432
 20
14.673391032
 30
0.0
 10
10.7345376567
 20
14.6705529361
 30
0.0
 10
10.7370095324
 20
14.6686116423
 30
0.0
 10
10.7386096217
 20
14.6673899124
 30
0.0
 10
10.7400448254
 20
14.6663324373
 30
0.0
 10
10.7413143753
 20
14.6654396383
 30
0.0
 10
10.7424176514
 20
14.6647119747
 30
0.0
 10
10.7432386591
 20
14.6642179756
 30
0.0
 10
10.7438137906
 20
14.6639105032
 30
0.0
 10
10.7441783938
 20
14.6637348481
 30
0.0
 10
10.7445012494
 20
14.6636005881
 30
0.0
 10
10.7447054544
 20
14.6635330113
 30
0.0
 10
10.7448005184
 20
14.6635075924
 30
0.0
  0
SPLINE
  5
521
100
AcDbEntity
  8
0
100
AcDbSpline
 62
7
  6
CONTINUOUS
 70
0
 71
3
 72
69
 73
65
 74
0
 42
0.0000001
 43
0.0000001
 44
0.0000000001
 40
0.0
 40
0.0
 40
0.0
 40
0.0
 40
0.0001702344
 40
0.0003693016
 40
0.0006160907
 40
0.0009207184
 40
0.0012885417
 40
0.0017225687
 40
0.0022245844
 40
0.0027956849
 40
0.0041476229
 40
0.0057818558
 40
0.0076996833
 40
0.0099012783
 40
0.0123863128
 40
0.0151539537
 40
0.0182029783
 40
0.0215320148
 40
0.0290229764
 40
0.037610902
 40
0.0472766396
 40
0.057998284
 40
0.0697513323
 40
0.0825086638
 40
0.0962407306
 40
0.1109157202
 40
0.1429559242
 40
0.1783311415
 40
0.2167118714
 40
0.2577402855
 40
0.3010337041
 40
0.3461882353
 40
0.3927825051
 40
0.440381689
 40
0.488541527
 40
0.5368125363
 40
0.5847441482
 40
0.6318890503
 40
0.6778071783
 40
0.7220700999
 40
0.7642647546
 40
0.8039975655
 40
0.8408980216
 40
0.8746221911
 40
0.8901938378
 40
0.9048561546
 40
0.9185750986
 40
0.9313188882
 40
0.9430580064
 40
0.9537653647
 40
0.9634164975
 40
0.9719895391
 40
0.9794653746
 40
0.9858280412
 40
0.9885879622
 40
0.9910652461
 40
0.993259075
 40
0.995169132
 40
0.9967956093
 40
0.9981398479
 40
0.9987071408
 40
0.9992053962
 40
0.9996357376
 40
1.0
 40
1.0
 40
1.0
 40
1.0
 10
10.0963706735
 20
15.1634786773
 30
0.0
 10
10.0964033128
 20
15.1635113166
 30
0.0
 10
10.0964917089
 20
15.1635654121
 30
0.0
 10
10.0966587516
 20
15.1635940068
 30
0.0
 10
10.0968629167
 20
15.1635803286
 30
0.0
 10
10.0971067489
 20
15.1635256325
 30
0.0
 10
10.0973915093
 20
15.163430043
 30
0.0
 10
10.0977177587
 20
15.1632932426
 30
0.0
 10
10.0980857044
 20
15.163115084
 30
0.0
 10
10.0986652934
 20
15.1628042169
 30
0.0
 10
10.0994918655
 20
15.1623060734
 30
0.0
 10
10.1006018124
 20
15.1615734768
 30
0.0
 10
10.1018779981
 20
15.1606757883
 30
0.0
 10
10.1033198043
 20
15.1596134742
 30
0.0
 10
10.1049264388
 20
15.1583869399
 30
0.0
 10
10.1066970427
 20
15.1569968963
 30
0.0
 10
10.108630688
 20
15.1554441892
 30
0.0
 10
10.1115413012
 20
15.1530628839
 30
0.0
 10
10.115574854
 20
15.1496826929
 30
0.0
 10
10.120875617
 20
15.1451403775
 30
0.0
 10
10.1267980163
 20
15.1399776963
 30
0.0
 10
10.1333290191
 20
15.1342074461
 30
0.0
 10
10.1404541391
 20
15.127843791
 30
0.0
 10
10.1481575504
 20
15.1209023899
 30
0.0
 10
10.156422105
 20
15.1134002968
 30
0.0
 10
10.1685239193
 20
15.1023464619
 30
0.0
 10
10.1848985016
 20
15.0872689744
 30
0.0
 10
10.2059274673
 20
15.067757289
 30
0.0
 10
10.2286817233
 20
15.0465220965
 30
0.0
 10
10.2529556618
 20
15.0237686177
 30
0.0
 10
10.2785294567
 20
14.9997162428
 30
0.0
 10
10.3051712153
 20
14.9745965955
 30
0.0
 10
10.332639101
 20
14.9486512978
 30
0.0
 10
10.3606835753
 20
14.9221297162
 30
0.0
 10
10.3890497339
 20
14.895286609
 30
0.0
 10
10.4174796658
 20
14.8683797537
 30
0.0
 10
10.4457148773
 20
14.8416675135
 30
0.0
 10
10.4734986723
 20
14.8154064441
 30
0.0
 10
10.5005785839
 20
14.7898488583
 30
0.0
 10
10.5267086785
 20
14.7652404942
 30
0.0
 10
10.5516518957
 20
14.7418181809
 30
0.0
 10
10.5751821853
 20
14.7198076029
 30
0.0
 10
10.5970867104
 20
14.6994212615
 30
0.0
 10
10.614248237
 20
14.6835549486
 30
0.0
 10
10.6270225595
 20
14.6718259199
 30
0.0
 10
10.6358224656
 20
14.6637887309
 30
0.0
 10
10.6440794203
 20
14.6562941356
 30
0.0
 10
10.6517750027
 20
14.6493604887
 30
0.0
 10
10.6588920643
 20
14.6430048099
 30
0.0
 10
10.6654147928
 20
14.6372427265
 30
0.0
 10
10.6713287515
 20
14.6320884376
 30
0.0
 10
10.6766208278
 20
14.6275545392
 30
0.0
 10
10.6812794367
 20
14.6236522959
 30
0.0
 10
10.6847725759
 20
14.6208138861
 30
0.0
 10
10.6872471581
 20
14.6188722795
 30
0.0
 10
10.6888492834
 20
14.6176502201
 30
0.0
 10
10.6902865411
 20
14.616592377
 30
0.0
 10
10.6915581624
 20
14.6156991721
 30
0.0
 10
10.6926635261
 20
14.6149710645
 30
0.0
 10
10.6934862921
 20
14.6144766999
 30
0.0
 10
10.6940628323
 20
14.6141689181
 30
0.0
 10
10.6944284948
 20
14.613993004
 30
0.0
 10
10.6947524128
 20
14.613858478
 30
0.0
 10
10.6949573247
 20
14.6137907269
 30
0.0
 10
10.6950527424
 20
14.6137652139
 30
0.0
  0
SPLINE
  5
522
100
AcDbEntity
  8
0
100
AcDbSpline
 62
7
  6
CONTINUOUS
 70
0
 71
3
 72
69
 73
65
 74
0
 42
0.0000001
 43
0.0000001
 44
0.0000000001
 40
0.0
 40
0.0
 40
0.0
 40
0.0
 40
0.0001759076
 40
0.000379806
 40
0.0006304356
 40
0.0009380917
 40
0.0013083249
 40
0.001744287
 40
0.0022478631
 40
0.0028202191
 40
0.0041739308
 40
0.0058091659
 40
0.0077273738
 40
0.0099288214
 40
0.0124132437
 40
0.0151798533
 40
0.0182274606
 40
0.0215547197
 40
0.0290411247
 40
0.0376232656
 40
0.0472820898
 40
0.0579957761
 40
0.0697398968
 40
0.0824874012
 40
0.0962088105
 40
0.1108723817
 40
0.1428877416
 40
0.1782359201
 40
0.2165880093
 40
0.257586804
 40
0.3008502618
 40
0.3459751498
 40
0.3925407555
 40
0.4401129179
 40
0.4882480285
 40
0.5364972406
 40
0.5844105889
 40
0.6315413343
 40
0.6774499375
 40
0.7217084381
 40
0.7639041939
 40
0.803643972
 40
0.8405575441
 40
0.8743011844
 40
0.8898849932
 40
0.9045611024
 40
0.9182954798
 40
0.9310563429
 40
0.9428141697
 40
0.9535418732
 40
0.9632149834
 40
0.9718116279
 40
0.979312695
 40
0.9857022424
 40
0.9884762313
 40
0.9909680181
 40
0.9931767891
 40
0.9951022522
 40
0.9967446307
 40
0.9981052942
 40
0.9986810125
 40
0.9991878411
 40
0.9996269002
 40
1.0
 40
1.0
 40
1.0
 40
1.0
 10
10.7112285403
 20
14.6292880247
 30
0.0
 10
10.7111948107
 20
14.6292542951
 30
0.0
 10
10.7111045899
 20
14.6291979399
 30
0.0
 10
10.7109342651
 20
14.629165568
 30
0.0
 10
10.7107266526
 20
14.6291757081
 30
0.0
 10
10.7104794529
 20
14.629226922
 30
0.0
 10
10.7101914025
 20
14.6293190317
 30
0.0
 10
10.7098619308
 20
14.6294523154
 30
0.0
 10
10.7094908143
 20
14.6296269147
 30
0.0
 10
10.7089069963
 20
14.6299325836
 30
0.0
 10
10.7080752043
 20
14.6304243224
 30
0.0
 10
10.7069592513
 20
14.6311495191
 30
0.0
 10
10.7056771972
 20
14.6320396216
 30
0.0
 10
10.7042296547
 20
14.6330941723
 30
0.0
 10
10.7026174096
 20
14.6343127782
 30
0.0
 10
10.7008413189
 20
14.635694735
 30
0.0
 10
10.6989023079
 20
14.6372392015
 30
0.0
 10
10.69598449
 20
14.6396087937
 30
0.0
 10
10.6919423224
 20
14.642974182
 30
0.0
 10
10.6866319389
 20
14.6474988547
 30
0.0
 10
10.6807003571
 20
14.652643348
 30
0.0
 10
10.6741605929
 20
14.6583948964
 30
0.0
 10
10.6670271148
 20
14.6647393708
 30
0.0
 10
10.6593157274
 20
14.6716611455
 30
0.0
 10
10.651043555
 20
14.6791432004
 30
0.0
 10
10.6389317224
 20
14.690168998
 30
0.0
 10
10.6225455043
 20
14.7052109508
 30
0.0
 10
10.6015039052
 20
14.7246800544
 30
0.0
 10
10.5787376944
 20
14.7458719337
 30
0.0
 10
10.5544521923
 20
14.768581723
 30
0.0
 10
10.5288669214
 20
14.7925904047
 30
0.0
 10
10.502213459
 20
14.8176667336
 30
0.0
 10
10.4747333191
 20
14.8435694715
 30
0.0
 10
10.4466757178
 20
14.8700496343
 30
0.0
 10
10.4182952403
 20
14.8968528412
 30
0.0
 10
10.3898494901
 20
14.9237216809
 30
0.0
 10
10.3615966676
 20
14.950398141
 30
0.0
 10
10.3337931972
 20
14.9766259957
 30
0.0
 10
10.3066912988
 20
15.0021532372
 30
0.0
 10
10.2805366897
 20
15.0267344024
 30
0.0
 10
10.2555662491
 20
15.0501329035
 30
0.0
 10
10.232005884
 20
15.0721232605
 30
0.0
 10
10.2100683305
 20
15.092493135
 30
0.0
 10
10.1928770617
 20
15.1083477217
 30
0.0
 10
10.1800773288
 20
15.1200691966
 30
0.0
 10
10.1712574498
 20
15.1281024735
 30
0.0
 10
10.1629797704
 20
15.1355941488
 30
0.0
 10
10.1552627211
 20
15.1425258659
 30
0.0
 10
10.1481234631
 20
15.1488806009
 30
0.0
 10
10.1415778247
 20
15.1546427203
 30
0.0
 10
10.1356402613
 20
15.1597980163
 30
0.0
 10
10.1303239078
 20
15.1643338824
 30
0.0
 10
10.1256403734
 20
15.1682390402
 30
0.0
 10
10.1221258496
 20
15.171080122
 30
0.0
 10
10.119633815
 20
15.1730242125
 30
0.0
 10
10.1180185233
 20
15.1742487056
 30
0.0
 10
10.1165679556
 20
15.1753091995
 30
0.0
 10
10.1152828818
 20
15.1762052666
 30
0.0
 10
10.1141639268
 20
15.1769364475
 30
0.0
 10
10.1133296909
 20
15.1774333167
 30
0.0
 10
10.1127439419
 20
15.1777431912
 30
0.0
 10
10.1123713434
 20
15.1779208365
 30
0.0
 10
10.1120404596
 20
15.178057129
 30
0.0
 10
10.1118309068
 20
15.1781260307
 30
0.0
 10
10.1117331661
 20
15.1781521618
 30
0.0
  0
SPLINE
  5
523
100
AcDbEntity
  8
0
100
AcDbSpline
 62
7
  6
CONTINUOUS
 70
0
 71
3
 72
35
 73
31
 74
0
 42
0.0000001
 43
0.0000001
 44
0.0000000001
 40
0.0
 40
0.0
 40
0.0
 40
0.0
 40
0.2188914255
 40
0.3202583125
 40
0.4157294897
 40
0.5049482876
 40
0.5875829904
 40
0.6633264331
 40
0.7318979587
 40
0.7930445687
 40
0.8465424635
 40
0.8703616822
 40
0.8921991915
 40
0.9120358757
 40
0.9298557987
 40
0.9456449164
 40
0.9593932998
 40
0.9710944134
 40
0.9761772667
 40
0.9807491994
 40
0.9848118586
 40
0.9883682584
 40
0.9914237412
 40
0.9939872305
 40
0.9960744381
 40
0.9977154585
 40
0.99838791
 40
0.9989779529
 40
0.9995059489
 40
1.0
 40
1.0
 40
1.0
 40
1.0
 10
10.5250594168
 20
14.6969289555
 30
0.0
 10
10.534672482
 20
14.6879526552
 30
0.0
 10
10.54875448
 20
14.6748378707
 30
0.0
 10
10.5670856677
 20
14.6578687472
 30
0.0
 10
10.57972671
 20
14.6462224839
 30
0.0
 10
10.591570884
 20
14.6353725112
 30
0.0
 10
10.6025756734
 20
14.6253612026
 30
0.0
 10
10.6127017062
 20
14.6162277078
 30
0.0
 10
10.6219128037
 20
14.6080077845
 30
0.0
 10
10.6301762592
 20
14.6007338272
 30
0.0
 10
10.6364698621
 20
14.5952921201
 30
0.0
 10
10.6410136733
 20
14.5914385387
 30
0.0
 10
10.6440337553
 20
14.5889155069
 30
0.0
 10
10.6467976086
 20
14.5866482185
 30
0.0
 10
10.6493028253
 20
14.5846389421
 30
0.0
 10
10.651547248
 20
14.5828895596
 30
0.0
 10
10.6535289373
 20
14.5814017766
 30
0.0
 10
10.655022455
 20
14.5803358411
 30
0.0
 10
10.6560869391
 20
14.5796191342
 30
0.0
 10
10.6567805415
 20
14.5791737079
 30
0.0
 10
10.6574074507
 20
14.5787946097
 30
0.0
 10
10.6579676112
 20
14.5784818281
 30
0.0
 10
10.6584609561
 20
14.5782352514
 30
0.0
 10
10.6588878069
 20
14.5780544692
 30
0.0
 10
10.6592483562
 20
14.5779392046
 30
0.0
 10
10.6595108235
 20
14.5778940183
 30
0.0
 10
10.6596858126
 20
14.5778974942
 30
0.0
 10
10.659792224
 20
14.5779170703
 30
0.0
 10
10.659882572
 20
14.5779542419
 30
0.0
 10
10.6599322649
 20
14.5779917764
 30
0.0
 10
10.6599532571
 20
14.5780127661
 30
0.0
  0
SPLINE
  5
524
100
AcDbEntity
  8
0
100
AcDbSpline
 62
9
  6
CONTINUOUS
 70
0
 71
3
 72
19
 73
15
 74
0
 42
0.0000001
 43
0.0000001
 44
0.0000000001
 40
0.0
 40
0.0
 40
0.0
 40
0.0
 40
0.0174165601
 40
0.0371104412
 40
0.0614088121
 40
0.0915806941
 40
0.1282773655
 40
0.1718479076
 40
0.2224790753
 40
0.280262663
 40
0.4174214013
 40
0.5833533038
 40
0.7777588991
 40
1.0
 40
1.0
 40
1.0
 40
1.0
 10
7.2888957051
 20
13.0175938862
 30
0.0
 10
7.2889300363
 20
13.0176278564
 30
0.0
 10
7.2890212972
 20
13.0176835704
 30
0.0
 10
7.2891935878
 20
13.0177051192
 30
0.0
 10
7.289398443
 20
13.0176744751
 30
0.0
 10
7.2896390525
 20
13.0175942858
 30
0.0
 10
7.2899169548
 20
13.0174645373
 30
0.0
 10
7.2902326916
 20
13.0172848916
 30
0.0
 10
7.2905862826
 20
13.0170552035
 30
0.0
 10
7.2911402751
 20
13.0166588808
 30
0.0
 10
7.2919219064
 20
13.0160329629
 30
0.0
 10
7.2929594263
 20
13.0151232909
 30
0.0
 10
7.2941386711
 20
13.0140187338
 30
0.0
 10
7.2949623736
 20
13.0132083966
 30
0.0
 10
7.2953978018
 20
13.0127722641
 30
0.0
  0
SPLINE
  5
525
100
AcDbEntity
  8
0
100
AcDbSpline
 62
7
  6
CONTINUOUS
 70
0
 71
3
 72
27
 73
23
 74
0
 42
0.0000001
 43
0.0000001
 44
0.0000000001
 40
0.0
 40
0.0
 40
0.0
 40
0.0
 40
0.2028575428
 40
0.2980767552
 40
0.3884849386
 40
0.4736189387
 40
0.5530645573
 40
0.6264578315
 40
0.6934894063
 40
0.7539168654
 40
0.8075758947
 40
0.8544002762
 40
0.8752708364
 40
0.8944758071
 40
0.912058387
 40
0.9280824456
 40
0.9426423066
 40
0.9558691682
 40
0.9679439303
 40
0.9791095181
 40
0.9896737302
 40
1.0
 40
1.0
 40
1.0
 40
1.0
 10
8.405407526
 20
12.1021773196
 30
0.0
 10
8.407617464
 20
12.0999673816
 30
0.0
 10
8.4108153898
 20
12.0966698091
 30
0.0
 10
8.4148590244
 20
12.0922567469
 30
0.0
 10
8.4176139234
 20
12.0891239174
 30
0.0
 10
8.4201405588
 20
12.0861152706
 30
0.0
 10
8.4224254706
 20
12.0832474237
 30
0.0
 10
8.4244569108
 20
12.0805359782
 30
0.0
 10
8.4262248023
 20
12.0779953851
 30
0.0
 10
8.427721035
 20
12.0756387928
 30
0.0
 10
8.4289390183
 20
12.0734781176
 30
0.0
 10
8.4297474891
 20
12.0717898739
 30
0.0
 10
8.4302404074
 20
12.0705445437
 30
0.0
 10
8.4305231248
 20
12.0697019049
 30
0.0
 10
8.4307332334
 20
12.0689152054
 30
0.0
 10
8.4308704925
 20
12.0681850848
 30
0.0
 10
8.4309348268
 20
12.067512077
 30
0.0
 10
8.4309259347
 20
12.0668965294
 30
0.0
 10
8.4308432056
 20
12.0663388463
 30
0.0
 10
8.430685813
 20
12.0658397051
 30
0.0
 10
8.4304530337
 20
12.0654008632
 30
0.0
 10
8.4302474901
 20
12.0651499303
 30
0.0
 10
8.4301349952
 20
12.0650374356
 30
0.0
  0
SPLINE
  5
526
100
AcDbEntity
  8
0
100
AcDbSpline
 62
7
  6
CONTINUOUS
 70
0
 71
3
 72
29
 73
25
 74
0
 42
0.0000001
 43
0.0000001
 44
0.0000000001
 40
0.0
 40
0.0
 40
0.0
 40
0.0
 40
0.0903988315
 40
0.1810247116
 40
0.2708374466
 40
0.3588137104
 40
0.4439698247
 40
0.5253752898
 40
0.6021685483
 40
0.6735676036
 40
0.7388823232
 40
0.7975265736
 40
0.8241992247
 40
0.8490402787
 40
0.8720157839
 40
0.8931027178
 40
0.9122948407
 40
0.9296042376
 40
0.9450713865
 40
0.9587733844
 40
0.9708441516
 40
0.9814977747
 40
0.9910625674
 40
1.0
 40
1.0
 40
1.0
 40
1.0
 10
7.8717818916
 20
12.635802954
 30
0.0
 10
7.8735712367
 20
12.6340136089
 30
0.0
 10
7.8771154486
 20
12.6303912246
 30
0.0
 10
7.8823013757
 20
12.6248600857
 30
0.0
 10
7.8873225735
 20
12.6192697445
 30
0.0
 10
7.8921201211
 20
12.613686684
 30
0.0
 10
7.8966386947
 20
12.6081766115
 30
0.0
 10
7.900827336
 20
12.6028033934
 30
0.0
 10
7.9046400053
 20
12.5976282414
 30
0.0
 10
7.9080361875
 20
12.592708916
 30
0.0
 10
7.9109807587
 20
12.5880992453
 30
0.0
 10
7.9130969052
 20
12.5844499016
 30
0.0
 10
7.9145304436
 20
12.5817192818
 30
0.0
 10
7.9154414218
 20
12.5798432042
 30
0.0
 10
7.9162208089
 20
12.5780783483
 30
0.0
 10
7.9168668148
 20
12.5764290508
 30
0.0
 10
7.9173782162
 20
12.5748993839
 30
0.0
 10
7.9177539498
 20
12.5734928379
 30
0.0
 10
7.9179934605
 20
12.5722124253
 30
0.0
 10
7.9180960437
 20
12.5710603237
 30
0.0
 10
7.9180609811
 20
12.5700379909
 30
0.0
 10
7.9178857721
 20
12.5691461983
 30
0.0
 10
7.9175666878
 20
12.568387752
 30
0.0
 10
7.9172495366
 20
12.5679694514
 30
0.0
 10
7.9170726317
 20
12.5677925431
 30
0.0
  0
SPLINE
  5
527
100
AcDbEntity
  8
0
100
AcDbSpline
 62
7
  6
CONTINUOUS
 70
0
 71
3
 72
32
 73
28
 74
0
 42
0.0000001
 43
0.0000001
 44
0.0000000001
 40
0.0
 40
0.0
 40
0.0
 40
0.0
 40
0.172832838
 40
0.2610496304
 40
0.3488873961
 40
0.4351839697
 40
0.5188066188
 40
0.598659997
 40
0.6736934042
 40
0.7429104756
 40
0.8053780556
 40
0.8338099221
 40
0.8602401957
 40
0.884575903
 40
0.9067319791
 40
0.926631093
 40
0.944205547
 40
0.9594000288
 40
0.9721740991
 40
0.9776484007
 40
0.982514573
 40
0.9867780791
 40
0.9904501084
 40
0.9935510682
 40
0.9961191192
 40
0.9982253533
 40
1.0
 40
1.0
 40
1.0
 40
1.0
 10
7.0740973253
 20
13.4264585336
 30
0.0
 10
7.0773399749
 20
13.4219780312
 30
0.0
 10
7.0821711825
 20
13.4151621868
 30
0.0
 10
7.0885099518
 20
13.4059713276
 30
0.0
 10
7.0932165423
 20
13.3990190887
 30
0.0
 10
7.0977805669
 20
13.3921482704
 30
0.0
 10
7.1021418218
 20
13.3854498881
 30
0.0
 10
7.1062428344
 20
13.3790125902
 30
0.0
 10
7.1100292911
 20
13.3729219636
 30
0.0
 10
7.1134503266
 20
13.3672598768
 30
0.0
 10
7.1160333466
 20
13.3628343892
 30
0.0
 10
7.1178773929
 20
13.3595637083
 30
0.0
 10
7.1190972565
 20
13.3573421288
 30
0.0
 10
7.1201935477
 20
13.3552820222
 30
0.0
 10
7.121162193
 20
13.3533910041
 30
0.0
 10
7.1219995432
 20
13.3516761909
 30
0.0
 10
7.1227025335
 20
13.3501441284
 30
0.0
 10
7.1232684605
 20
13.3488008036
 30
0.0
 10
7.1236418764
 20
13.3477972364
 30
0.0
 10
7.1238650716
 20
13.3470918677
 30
0.0
 10
7.1239879812
 20
13.3466408157
 30
0.0
 10
7.1240752749
 20
13.3462403221
 30
0.0
 10
7.1241269379
 20
13.3458905813
 30
0.0
 10
7.1241430597
 20
13.3455915117
 30
0.0
 10
7.12412329
 20
13.3453424263
 30
0.0
 10
7.1240669606
 20
13.3451420273
 30
0.0
 10
7.1239976672
 20
13.3450353057
 30
0.0
 10
7.1239575087
 20
13.3449951509
 30
0.0
  0
SPLINE
  5
528
100
AcDbEntity
  8
0
100
AcDbSpline
 62
7
  6
CONTINUOUS
 70
0
 71
3
 72
64
 73
60
 74
0
 42
0.0000001
 43
0.0000001
 44
0.0000000001
 40
0.0
 40
0.0
 40
0.0
 40
0.0
 40
0.0001838258
 40
0.0003936748
 40
0.0006476836
 40
0.0009562919
 40
0.0013253164
 40
0.001758097
 40
0.0022566601
 40
0.002822299
 40
0.0041578291
 40
0.0057689262
 40
0.0076572085
 40
0.0098232329
 40
0.0122668726
 40
0.0149873798
 40
0.0179837592
 40
0.0212547298
 40
0.0286136834
 40
0.0370492261
 40
0.0465431168
 40
0.0570743101
 40
0.068619267
 40
0.0811519308
 40
0.0946438439
 40
0.1090643733
 40
0.1405577271
 40
0.1753446702
 40
0.2131073908
 40
0.2535007162
 40
0.2961552713
 40
0.3406809462
 40
0.3866706289
 40
0.43370371
 40
0.4813502397
 40
0.5291746377
 40
0.5767398599
 40
0.6236112947
 40
0.6693608123
 40
0.7135707051
 40
0.7558373798
 40
0.795775328
 40
0.8330203749
 40
0.8672332658
 40
0.8981027897
 40
0.9253486974
 40
0.9375344463
 40
0.9487246804
 40
0.9588944314
 40
0.9680211307
 40
0.9760848362
 40
0.9830685545
 40
0.9889583929
 40
0.9914898484
 40
0.9937445127
 40
0.995722054
 40
0.9974226627
 40
0.9988476494
 40
1.0
 40
1.0
 40
1.0
 40
1.0
 10
10.1051469443
 20
15.1307555904
 30
0.0
 10
10.1051796611
 20
15.1307883026
 30
0.0
 10
10.1052652866
 20
15.1308436938
 30
0.0
 10
10.1054264938
 20
15.1308798189
 30
0.0
 10
10.1056220372
 20
15.1308767654
 30
0.0
 10
10.1058536095
 20
15.1308360707
 30
0.0
 10
10.1061223467
 20
15.1307580012
 30
0.0
 10
10.1064287803
 20
15.130642393
 30
0.0
 10
10.106773136
 20
15.1304891364
 30
0.0
 10
10.1073135064
 20
15.1302190297
 30
0.0
 10
10.1080820111
 20
15.1297810772
 30
0.0
 10
10.1091113134
 20
15.1291316167
 30
0.0
 10
10.1102920273
 20
15.1283318699
 30
0.0
 10
10.1116235898
 20
15.1273822103
 30
0.0
 10
10.1131053139
 20
15.1262829775
 30
0.0
 10
10.1147364413
 20
15.1250348058
 30
0.0
 10
10.1165161267
 20
15.1236384318
 30
0.0
 10
10.1191927764
 20
15.1214943438
 30
0.0
 10
10.1228986338
 20
15.118445888
 30
0.0
 10
10.1277645052
 20
15.1143431467
 30
0.0
 10
10.1331972976
 20
15.1096747281
 30
0.0
 10
10.1391853325
 20
15.1044520815
 30
0.0
 10
10.1457156236
 20
15.0986878686
 30
0.0
 10
10.1527739965
 20
15.0923960945
 30
0.0
 10
10.1603451013
 20
15.0855920189
 30
0.0
 10
10.1714312591
 20
15.075560186
 30
0.0
 10
10.1864308456
 20
15.0618655068
 30
0.0
 10
10.205694223
 20
15.0441283221
 30
0.0
 10
10.2265435286
 20
15.0248069067
 30
0.0
 10
10.2487945549
 20
15.0040850755
 30
0.0
 10
10.2722502826
 20
14.9821594106
 30
0.0
 10
10.2967027919
 20
14.9592375641
 30
0.0
 10
10.3219350992
 20
14.9355363
 30
0.0
 10
10.3477231754
 20
14.9112794798
 30
0.0
 10
10.3738379477
 20
14.886696029
 30
0.0
 10
10.4000474336
 20
14.8620177997
 30
0.0
 10
10.426118824
 20
14.837477473
 30
0.0
 10
10.4518206313
 20
14.8133064044
 30
0.0
 10
10.4769247932
 20
14.7897325079
 30
0.0
 10
10.5012087393
 20
14.766978175
 30
0.0
 10
10.5244574445
 20
14.7452582142
 30
0.0
 10
10.5464653357
 20
14.7247778905
 30
0.0
 10
10.5670382066
 20
14.705731032
 30
0.0
 10
10.5859948545
 20
14.6882981371
 30
0.0
 10
10.6031689396
 20
14.672644965
 30
0.0
 10
10.6163167897
 20
14.6608044922
 30
0.0
 10
10.6258401742
 20
14.6523412145
 30
0.0
 10
10.6321801933
 20
14.646765766
 30
0.0
 10
10.637974173
 20
14.641735457
 30
0.0
 10
10.6432097086
 20
14.6372624944
 30
0.0
 10
10.6478755329
 20
14.6333575376
 30
0.0
 10
10.6519617757
 20
14.6300300896
 30
0.0
 10
10.6550127502
 20
14.627637018
 30
0.0
 10
10.6571620259
 20
14.6260243419
 30
0.0
 10
10.6585412535
 20
14.6250264123
 30
0.0
 10
10.6597701368
 20
14.62417799
 30
0.0
 10
10.6608481583
 20
14.6234792851
 30
0.0
 10
10.6617747454
 20
14.6229304392
 30
0.0
 10
10.6623517759
 20
14.622632392
 30
0.0
 10
10.6626160836
 20
14.6225129972
 30
0.0
  0
LINE
  5
529
100
AcDbEntity
  8
0
100
AcDbLine
 62
7
  6
CONTINUOUS
 10
10.6626160836
 20
14.6225129972
 11
10.6633257402
 21
14.6222484243
  0
LINE
  5
52A
100
AcDbEntity
  8
0
100
AcDbLine
 62
7
  6
CONTINUOUS
 10
10.1425916827
 20
15.1699020973
 11
10.143231515
 21
15.1696685727
  0
SPLINE
  5
52B
100
AcDbEntity
  8
0
100
AcDbSpline
 62
7
  6
CONTINUOUS
 70
0
 71
3
 72
64
 73
60
 74
0
 42
0.0000001
 43
0.0000001
 44
0.0000000001
 40
0.0
 40
0.0
 40
0.0
 40
0.0
 40
0.0011248274
 40
0.0025229386
 40
0.0041975727
 40
0.0061501613
 40
0.0083809561
 40
0.0108896592
 40
0.016737405
 40
0.0236836123
 40
0.0317143582
 40
0.0408125771
 40
0.0509582258
 40
0.0621286086
 40
0.0742986077
 40
0.1015246237
 40
0.1323884588
 40
0.1666081331
 40
0.2038705885
 40
0.2438346265
 40
0.2861340998
 40
0.33038156
 40
0.3761715222
 40
0.4230845335
 40
0.4706908324
 40
0.5185544098
 40
0.5662369949
 40
0.6133020547
 40
0.6593189143
 40
0.7038665091
 40
0.7465375272
 40
0.7869419034
 40
0.8247105615
 40
0.8594988047
 40
0.8909895413
 40
0.9054075317
 40
0.9188962564
 40
0.931425195
 40
0.9429660082
 40
0.9534927879
 40
0.9629821124
 40
0.9714130512
 40
0.9787675164
 40
0.9820363115
 40
0.9850305962
 40
0.9877490676
 40
0.9901907651
 40
0.9923549556
 40
0.9942414823
 40
0.9958509254
 40
0.997184891
 40
0.9977497562
 40
0.9982475464
 40
0.9986795467
 40
0.9990477691
 40
0.9993555249
 40
0.9996085843
 40
0.9998173578
 40
1.0
 40
1.0
 40
1.0
 40
1.0
 10
10.143231515
 20
15.1696685727
 30
0.0
 10
10.1434919275
 20
15.16955408
 30
0.0
 10
10.1440616097
 20
15.1692648008
 30
0.0
 10
10.1449775729
 20
15.1687276549
 30
0.0
 10
10.1460463344
 20
15.1680393563
 30
0.0
 10
10.1472673172
 20
15.1672000294
 30
0.0
 10
10.148640011
 20
15.1662098529
 30
0.0
 10
10.15078347
 20
15.1646050815
 30
0.0
 10
10.153830402
 20
15.1622182973
 30
0.0
 10
10.1579156166
 20
15.1588941741
 30
0.0
 10
10.1625856806
 20
15.154987273
 30
0.0
 10
10.1678306237
 20
15.1505071885
 30
0.0
 10
10.1736390562
 20
15.14546468
 30
0.0
 10
10.1799984397
 20
15.1398720823
 30
0.0
 10
10.1895571842
 20
15.1313766606
 30
0.0
 10
10.2027601531
 20
15.1194847226
 30
0.0
 10
10.2200125146
 20
15.1037571142
 30
0.0
 10
10.2390626531
 20
15.0862343664
 30
0.0
 10
10.2597424279
 20
15.0670840261
 30
0.0
 10
10.2818687199
 20
15.0464884927
 30
0.0
 10
10.3052453298
 20
15.0246435786
 30
0.0
 10
10.3296646462
 20
15.0017565796
 30
0.0
 10
10.3549096016
 20
14.9780443414
 30
0.0
 10
10.3807556019
 20
14.9537312744
 30
0.0
 10
10.4069726236
 20
14.9290472504
 30
0.0
 10
10.433327294
 20
14.9042255066
 30
0.0
 10
10.4595850345
 20
14.8795004911
 30
0.0
 10
10.4855122179
 20
14.8551056989
 30
0.0
 10
10.5108782788
 20
14.8312715461
 30
0.0
 10
10.5354578554
 20
14.8082232257
 30
0.0
 10
10.5590328037
 20
14.7861786615
 30
0.0
 10
10.581394223
 20
14.7653464858
 30
0.0
 10
10.6023442882
 20
14.7459240863
 30
0.0
 10
10.6216981707
 20
14.7280959015
 30
0.0
 10
10.6367665252
 20
14.7143318321
 30
0.0
 10
10.6479022422
 20
14.7042497954
 30
0.0
 10
10.6555063605
 20
14.6974121427
 30
0.0
 10
10.6625949487
 20
14.6910895213
 30
0.0
 10
10.6691526533
 20
14.6852971966
 30
0.0
 10
10.6751653015
 20
14.6800491692
 30
0.0
 10
10.6806199164
 20
14.6753580927
 30
0.0
 10
10.6855048396
 20
14.6712354011
 30
0.0
 10
10.6892248382
 20
14.6681719769
 30
0.0
 10
10.6919114376
 20
14.6660172389
 30
0.0
 10
10.6936975692
 20
14.6646138851
 30
0.0
 10
10.6953344726
 20
14.6633593922
 30
0.0
 10
10.6968213042
 20
14.6622544895
 30
0.0
 10
10.698157308
 20
14.6612998035
 30
0.0
 10
10.6993418067
 20
14.6604956764
 30
0.0
 10
10.700374238
 20
14.659842473
 30
0.0
 10
10.7011449442
 20
14.6594017691
 30
0.0
 10
10.7016867646
 20
14.6591297726
 30
0.0
 10
10.7020319559
 20
14.6589753489
 30
0.0
 10
10.7023390652
 20
14.6588587258
 30
0.0
 10
10.7026083183
 20
14.6587797891
 30
0.0
 10
10.7028402467
 20
14.6587383648
 30
0.0
 10
10.7030359938
 20
14.6587347209
 30
0.0
 10
10.7031972942
 20
14.6587703817
 30
0.0
 10
10.7032829409
 20
14.6588256244
 30
0.0
 10
10.7033156038
 20
14.6588582847
 30
0.0
  0
SPLINE
  5
52C
100
AcDbEntity
  8
0
100
AcDbSpline
 62
7
  6
CONTINUOUS
 70
0
 71
3
 72
69
 73
65
 74
0
 42
0.0000001
 43
0.0000001
 44
0.0000000001
 40
0.0
 40
0.0
 40
0.0
 40
0.0
 40
0.000391459
 40
0.0008486853
 40
0.0013734358
 40
0.0019668406
 40
0.0033622691
 40
0.0050386639
 40
0.0069973613
 40
0.009238748
 40
0.0117625401
 40
0.0145678713
 40
0.0210184021
 40
0.0285780342
 40
0.0372308004
 40
0.0469575753
 40
0.0577363254
 40
0.0695424524
 40
0.0823488225
 40
0.0961257957
 40
0.1108414733
 40
0.1264617392
 40
0.1602686135
 40
0.1972321439
 40
0.2370081726
 40
0.2792263967
 40
0.3234935874
 40
0.3693974589
 40
0.4165105132
 40
0.4643940133
 40
0.5126021488
 40
0.5606861198
 40
0.6081984629
 40
0.6546970274
 40
0.699749345
 40
0.7429364594
 40
0.7838569738
 40
0.8221307606
 40
0.8574025925
 40
0.8893453824
 40
0.9039747551
 40
0.9176636315
 40
0.9303804662
 40
0.9420960808
 40
0.9527836385
 40
0.9624188832
 40
0.9709802848
 40
0.978449055
 40
0.9817686969
 40
0.9848096091
 40
0.9875704467
 40
0.9900500513
 40
0.9922477753
 40
0.9941634023
 40
0.9957973291
 40
0.9971512606
 40
0.9977243953
 40
0.9982292684
 40
0.9986671435
 40
0.9990400478
 40
0.9993513157
 40
0.9996067351
 40
0.9998167972
 40
1.0
 40
1.0
 40
1.0
 40
1.0
 10
10.1916051769
 20
15.2219031234
 30
0.0
 10
10.1917014025
 20
15.2218774004
 30
0.0
 10
10.1919070458
 20
15.2218104644
 30
0.0
 10
10.1922310435
 20
15.2216790448
 30
0.0
 10
10.1925941311
 20
15.2215088396
 30
0.0
 10
10.1931616678
 20
15.221213684
 30
0.0
 10
10.1939667899
 20
15.2207420022
 30
0.0
 10
10.1950432176
 20
15.2200490396
 30
0.0
 10
10.1962752936
 20
15.2192015244
 30
0.0
 10
10.1976623999
 20
15.2181998712
 30
0.0
 10
10.1992038225
 20
15.2170445117
 30
0.0
 10
10.2015763649
 20
15.2152128193
 30
0.0
 10
10.2049160693
 20
15.2125378462
 30
0.0
 10
10.2093596688
 20
15.2088625237
 30
0.0
 10
10.2143958137
 20
15.2045964035
 30
0.0
 10
10.2200135294
 20
15.1997501449
 30
0.0
 10
10.2262004102
 20
15.1943356618
 30
0.0
 10
10.2329428089
 20
15.1883663674
 30
0.0
 10
10.2402258023
 20
15.181856998
 30
0.0
 10
10.2480332276
 20
15.1748235946
 30
0.0
 10
10.2563477256
 20
15.1672834516
 30
0.0
 10
10.2684065361
 20
15.1562855947
 30
0.0
 10
10.2845933525
 20
15.1414134506
 30
0.0
 10
10.305238444
 20
15.122309516
 30
0.0
 10
10.3273986364
 20
15.1016919098
 30
0.0
 10
10.3508742198
 20
15.0797600039
 30
0.0
 10
10.3754532724
 20
15.0567253526
 30
0.0
 10
10.4009136795
 20
15.0328098377
 30
0.0
 10
10.42702518
 20
15.0082435222
 30
0.0
 10
10.4535515157
 20
14.983262507
 30
0.0
 10
10.4802526121
 20
14.9581067241
 30
0.0
 10
10.5068868327
 20
14.9330176768
 30
0.0
 10
10.5332131959
 20
14.9082362088
 30
0.0
 10
10.558993647
 20
14.8840002262
 30
0.0
 10
10.5839952357
 20
14.8605425053
 30
0.0
 10
10.607992301
 20
14.8380884832
 30
0.0
 10
10.630768548
 20
14.816854188
 30
0.0
 10
10.6521190207
 20
14.7970441279
 30
0.0
 10
10.6718520828
 20
14.7788495441
 30
0.0
 10
10.6872203344
 20
14.7647964394
 30
0.0
 10
10.6985806831
 20
14.7544985735
 30
0.0
 10
10.7063400551
 20
14.7475121648
 30
0.0
 10
10.7135741874
 20
14.7410505107
 30
0.0
 10
10.7202671254
 20
14.7351294632
 30
0.0
 10
10.7264041462
 20
14.7297635776
 30
0.0
 10
10.7319717757
 20
14.7249660119
 30
0.0
 10
10.7369578967
 20
14.7207486417
 30
0.0
 10
10.7407547452
 20
14.7176139749
 30
0.0
 10
10.7434966537
 20
14.7154084955
 30
0.0
 10
10.7453194414
 20
14.7139717774
 30
0.0
 10
10.7469897668
 20
14.7126871342
 30
0.0
 10
10.7485067757
 20
14.7115553507
 30
0.0
 10
10.7498696632
 20
14.7105770632
 30
0.0
 10
10.7510777169
 20
14.709752628
 30
0.0
 10
10.7521303783
 20
14.7090824698
 30
0.0
 10
10.7529159117
 20
14.7086297811
 30
0.0
 10
10.7534679607
 20
14.7083498989
 30
0.0
 10
10.7538194862
 20
14.7081907697
 30
0.0
 10
10.7541320724
 20
14.7080702943
 30
0.0
 10
10.7544059499
 20
14.7079883435
 30
0.0
 10
10.7546416676
 20
14.7079447083
 30
0.0
 10
10.7548404016
 20
14.7079396315
 30
0.0
 10
10.7550040105
 20
14.7079746407
 30
0.0
 10
10.7550908288
 20
14.7080302434
 30
0.0
 10
10.7551237892
 20
14.7080632065
 30
0.0
  0
LINE
  5
52D
100
AcDbEntity
  8
0
100
AcDbLine
 62
7
  6
CONTINUOUS
 10
10.2408446579
 20
15.2736785438
 11
10.2416663111
 21
15.2733614883
  0
SPLINE
  5
52E
100
AcDbEntity
  8
0
100
AcDbSpline
 62
7
  6
CONTINUOUS
 70
0
 71
3
 72
64
 73
60
 74
0
 42
0.0000001
 43
0.0000001
 44
0.0000000001
 40
0.0
 40
0.0
 40
0.0
 40
0.0
 40
0.0011849825
 40
0.0026435587
 40
0.0043783351
 40
0.0063904091
 40
0.0086798339
 40
0.0112461801
 40
0.0172059023
 40
0.0242592457
 40
0.0323919277
 40
0.0415866099
 40
0.0518230359
 40
0.0630783363
 40
0.0753272533
 40
0.1026927117
 40
0.1336710565
 40
0.1679801918
 40
0.2053073213
 40
0.2453118699
 40
0.2876286512
 40
0.3318714844
 40
0.377636432
 40
0.4245058354
 40
0.4720519405
 40
0.5198409169
 40
0.5674368159
 40
0.6144055186
 40
0.660318829
 40
0.7047581748
 40
0.7473187269
 40
0.7876128386
 40
0.8252737654
 40
0.859959023
 40
0.8913535588
 40
0.9057265906
 40
0.9191727315
 40
0.9316616662
 40
0.9431652425
 40
0.9536577093
 40
0.9631157999
 40
0.9715187189
 40
0.9788484723
 40
0.9821061825
 40
0.9850902315
 40
0.987799335
 40
0.9902325228
 40
0.9923890531
 40
0.9942687722
 40
0.9958722273
 40
0.9972009814
 40
0.9977635145
 40
0.9982591355
 40
0.9986891066
 40
0.9990554074
 40
0.9993613048
 40
0.9996125112
 40
0.9998193658
 40
1.0
 40
1.0
 40
1.0
 40
1.0
 10
10.2416663111
 20
15.2733614883
 30
0.0
 10
10.2419400429
 20
15.2732324573
 30
0.0
 10
10.242536601
 20
15.2729148717
 30
0.0
 10
10.243493681
 20
15.2723362728
 30
0.0
 10
10.2446044594
 20
15.2716054769
 30
0.0
 10
10.2458683353
 20
15.2707226696
 30
0.0
 10
10.2472847496
 20
15.2696881174
 30
0.0
 10
10.2494878233
 20
15.2680220239
 30
0.0
 10
10.2526113769
 20
15.265557068
 30
0.0
 10
10.2567909367
 20
15.2621373045
 30
0.0
 10
10.2615580755
 20
15.258131935
 30
0.0
 10
10.2669026276
 20
15.2535507632
 30
0.0
 10
10.2728130164
 20
15.2484047747
 30
0.0
 10
10.2792765092
 20
15.2427065092
 30
0.0
 10
10.2889775606
 20
15.2340660836
 30
0.0
 10
10.3023625154
 20
15.2219891516
 30
0.0
 10
10.3198373533
 20
15.2060360212
 30
0.0
 10
10.3391139722
 20
15.1882836896
 30
0.0
 10
10.3600227521
 20
15.1689012009
 30
0.0
 10
10.3823791397
 20
15.1480724127
 30
0.0
 10
10.4059855448
 20
15.12599454
 30
0.0
 10
10.4306330168
 20
15.1028762277
 30
0.0
 10
10.4561032039
 20
15.0789356131
 30
0.0
 10
10.4821702855
 20
15.0543983386
 30
0.0
 10
10.5086030716
 20
15.0294954471
 30
0.0
 10
10.5351670841
 20
15.004461285
 30
0.0
 10
10.5616267005
 20
14.9795313474
 30
0.0
 10
10.5877473128
 20
14.9549401129
 30
0.0
 10
10.6132974353
 20
14.9309189201
 30
0.0
 10
10.6380508495
 20
14.9076938208
 30
0.0
 10
10.6617886148
 20
14.8854835367
 30
0.0
 10
10.6843010964
 20
14.8644974363
 30
0.0
 10
10.7053897957
 20
14.8449335818
 30
0.0
 10
10.7248692705
 20
14.8269770259
 30
0.0
 10
10.740033872
 20
14.8131143919
 30
0.0
 10
10.7512396512
 20
14.8029604406
 30
0.0
 10
10.7588909867
 20
14.7960742165
 30
0.0
 10
10.7660231594
 20
14.7897066671
 30
0.0
 10
10.7726207675
 20
14.7838731051
 30
0.0
 10
10.778669595
 20
14.7785875762
 30
0.0
 10
10.784156625
 20
14.7738627736
 30
0.0
 10
10.7890701617
 20
14.7697101669
 30
0.0
 10
10.7928116103
 20
14.7666241857
 30
0.0
 10
10.7955134442
 20
14.7644533218
 30
0.0
 10
10.7973095552
 20
14.7630393469
 30
0.0
 10
10.7989554654
 20
14.7617752058
 30
0.0
 10
10.800450329
 20
14.7606616318
 30
0.0
 10
10.8017933882
 20
14.7596992555
 30
0.0
 10
10.8029839597
 20
14.7588884183
 30
0.0
 10
10.8040214793
 20
14.7582294889
 30
0.0
 10
10.8047958193
 20
14.7577846074
 30
0.0
 10
10.8053400687
 20
14.7575097527
 30
0.0
 10
10.8056866986
 20
14.7573535685
 30
0.0
 10
10.8059949965
 20
14.7572354292
 30
0.0
 10
10.8062651863
 20
14.7571552184
 30
0.0
 10
10.8064978025
 20
14.7571127541
 30
0.0
 10
10.8066939991
 20
14.7571082879
 30
0.0
 10
10.8068555745
 20
14.7571433304
 30
0.0
 10
10.8069413341
 20
14.7571984126
 30
0.0
 10
10.8069739547
 20
14.7572310297
 30
0.0
  0
SPLINE
  5
52F
100
AcDbEntity
  8
0
100
AcDbSpline
 62
7
  6
CONTINUOUS
 70
0
 71
3
 72
68
 73
64
 74
0
 42
0.0000001
 43
0.0000001
 44
0.0000000001
 40
0.0
 40
0.0
 40
0.0
 40
0.0
 40
0.0001845797
 40
0.0003959442
 40
0.0006526046
 40
0.000965097
 40
0.0013392483
 40
0.0017784189
 40
0.0022846583
 40
0.0028592553
 40
0.00421642
 40
0.0058539997
 40
0.0077737274
 40
0.0099760255
 40
0.0124606443
 40
0.0152269464
 40
0.0182737746
 40
0.0215997393
 40
0.0290823908
 40
0.0376591538
 40
0.0473111135
 40
0.0580165819
 40
0.0697510924
 40
0.0824876391
 40
0.0961968669
 40
0.1108470147
 40
0.1428318899
 40
0.1781451786
 40
0.2164583412
 40
0.2574146702
 40
0.300632805
 40
0.3457102075
 40
0.3922270293
 40
0.4397501239
 40
0.4878369215
 40
0.5360398095
 40
0.5839100886
 40
0.6310023795
 40
0.6768785684
 40
0.7211121169
 40
0.7632918791
 40
0.8030259916
 40
0.8399456738
 40
0.8737084711
 40
0.8893071293
 40
0.9040017974
 40
0.9177586017
 40
0.9305458291
 40
0.9423340774
 40
0.9530964592
 40
0.9628085415
 40
0.9714485014
 40
0.9789974684
 40
0.9854396167
 40
0.988241657
 40
0.9907627918
 40
0.9930022277
 40
0.9949596149
 40
0.9966354029
 40
0.9980309872
 40
0.9991497415
 40
0.9996076614
 40
1.0
 40
1.0
 40
1.0
 40
1.0
 10
10.1544413146
 20
15.1824746323
 30
0.0
 10
10.1544743499
 20
15.1825076726
 30
0.0
 10
10.154561203
 20
15.1825634723
 30
0.0
 10
10.1547248414
 20
15.1825989722
 30
0.0
 10
10.1549235247
 20
15.182594474
 30
0.0
 10
10.1551590691
 20
15.1825515215
 30
0.0
 10
10.1554326419
 20
15.1824703686
 30
0.0
 10
10.1557447905
 20
15.1823508153
 30
0.0
 10
10.1560957486
 20
15.1821927331
 30
0.0
 10
10.1566467785
 20
15.1819145185
 30
0.0
 10
10.1574307246
 20
15.1814642144
 30
0.0
 10
10.1584810873
 20
15.1807972704
 30
0.0
 10
10.1596863154
 20
15.1799765631
 30
0.0
 10
10.1610458436
 20
15.1790025185
 30
0.0
 10
10.1625589619
 20
15.1778755031
 30
0.0
 10
10.1642248574
 20
15.1765961532
 30
0.0
 10
10.1660426698
 20
15.1751652579
 30
0.0
 10
10.1687768635
 20
15.1729686495
 30
0.0
 10
10.1725626625
 20
15.1698464182
 30
0.0
 10
10.1775338138
 20
15.1656455894
 30
0.0
 10
10.1830841892
 20
15.1608667948
 30
0.0
 10
10.1892016404
 20
15.1555219421
 30
0.0
 10
10.1958726632
 20
15.1496242211
 30
0.0
 10
10.2030825063
 20
15.1431882115
 30
0.0
 10
10.210815194
 20
15.1362297847
 30
0.0
 10
10.222135155
 20
15.1259739757
 30
0.0
 10
10.237446843
 20
15.111979347
 30
0.0
 10
10.2571047541
 20
15.0938619674
 30
0.0
 10
10.2783704987
 20
15.074138452
 30
0.0
 10
10.3010526801
 20
15.0529998019
 30
0.0
 10
10.3249467045
 20
15.0306501566
 30
0.0
 10
10.3498368056
 20
15.0073050127
 30
0.0
 10
10.3754979997
 20
14.9831891276
 30
0.0
 10
10.4016981805
 20
14.9585344303
 30
0.0
 10
10.4282002978
 20
14.9335778204
 30
0.0
 10
10.4547645291
 20
14.9085589808
 30
0.0
 10
10.4811505531
 20
14.8837180986
 30
0.0
 10
10.5071197401
 20
14.8592936589
 30
0.0
 10
10.5324374118
 20
14.8355201828
 30
0.0
 10
10.5568749826
 20
14.8126260578
 30
0.0
 10
10.5802121032
 20
14.7908313988
 30
0.0
 10
10.6022386667
 20
14.7703459478
 30
0.0
 10
10.6227568147
 20
14.7513672265
 30
0.0
 10
10.6388428191
 20
14.7365942271
 30
0.0
 10
10.6508256887
 20
14.7256708242
 30
0.0
 10
10.6590873161
 20
14.7181823794
 30
0.0
 10
10.6668448939
 20
14.7111975844
 30
0.0
 10
10.6740812731
 20
14.7047335281
 30
0.0
 10
10.6807804931
 20
14.6988060494
 30
0.0
 10
10.6869278202
 20
14.6934296905
 30
0.0
 10
10.6925097904
 20
14.688617688
 30
0.0
 10
10.6975141745
 20
14.6843817857
 30
0.0
 10
10.7019301558
 20
14.6807324755
 30
0.0
 10
10.7052494608
 20
14.6780764479
 30
0.0
 10
10.7076078346
 20
14.6762576813
 30
0.0
 10
10.7091403439
 20
14.6751103684
 30
0.0
 10
10.7105196669
 20
14.674115574
 30
0.0
 10
10.7117451151
 20
14.6732738576
 30
0.0
 10
10.7128160872
 20
14.6725852514
 30
0.0
 10
10.7137321191
 20
14.6720500377
 30
0.0
 10
10.7144047894
 20
14.6717106826
 30
0.0
 10
10.7148669204
 20
14.6715233239
 30
0.0
 10
10.7150719026
 20
14.6714566858
 30
0.0
 10
10.7151678447
 20
14.6714310334
 30
0.0
  0
SPLINE
  5
530
100
AcDbEntity
  8
0
100
AcDbSpline
 62
7
  6
CONTINUOUS
 70
0
 71
3
 72
66
 73
62
 74
0
 42
0.0000001
 43
0.0000001
 44
0.0000000001
 40
0.0
 40
0.0
 40
0.0
 40
0.0
 40
0.0001829701
 40
0.0003925764
 40
0.0006472105
 40
0.0009573409
 40
0.0013287618
 40
0.0017648011
 40
0.0022674541
 40
0.0028379854
 40
0.0041856193
 40
0.0058118611
 40
0.0077183
 40
0.0099053803
 40
0.0123729598
 40
0.0151202729
 40
0.0181462242
 40
0.0214495282
 40
0.028881247
 40
0.0374000302
 40
0.0469871646
 40
0.05762118
 40
0.0692780427
 40
0.0819311109
 40
0.0955513588
 40
0.110107528
 40
0.1418912586
 40
0.1769892593
 40
0.215077316
 40
0.2558035772
 40
0.2987915382
 40
0.3436438302
 40
0.3899458505
 40
0.4372695873
 40
0.4851776927
 40
0.5332274357
 40
0.5809749437
 40
0.6279791222
 40
0.673805986
 40
0.7180324505
 40
0.7602504156
 40
0.8000704815
 40
0.8371256326
 40
0.8710745533
 40
0.9016050826
 40
0.9284370275
 40
0.9403879922
 40
0.9513252502
 40
0.9612241618
 40
0.9700625687
 40
0.9778210743
 40
0.9844833693
 40
0.987399258
 40
0.9900365837
 40
0.9923943344
 40
0.9944720415
 40
0.9962697417
 40
0.997788205
 40
0.9990297847
 40
0.9995483175
 40
1.0
 40
1.0
 40
1.0
 40
1.0
 10
10.203459504
 20
15.2344759813
 30
0.0
 10
10.2034924147
 20
15.2345088859
 30
0.0
 10
10.2035789833
 20
15.2345644321
 30
0.0
 10
10.2037420857
 20
15.2345996602
 30
0.0
 10
10.2039401502
 20
15.234594987
 30
0.0
 10
10.2041750046
 20
15.2345519391
 30
0.0
 10
10.2044478189
 20
15.2344707578
 30
0.0
 10
10.2047591336
 20
15.2343512467
 30
0.0
 10
10.2051091766
 20
15.2341932965
 30
0.0
 10
10.2056588001
 20
15.2339153926
 30
0.0
 10
10.2064408011
 20
15.2334656941
 30
0.0
 10
10.2074886018
 20
15.2327997344
 30
0.0
 10
10.208690966
 20
15.2319803391
 30
0.0
 10
10.2100473223
 20
15.2310079128
 30
0.0
 10
10.211556952
 20
15.229882805
 30
0.0
 10
10.2132190699
 20
15.2286056714
 30
0.0
 10
10.215032812
 20
15.2271772823
 30
0.0
 10
10.2177609677
 20
15.224984521
 30
0.0
 10
10.2215385948
 20
15.2218677908
 30
0.0
 10
10.2264992243
 20
15.2176743525
 30
0.0
 10
10.2320381598
 20
15.2129038691
 30
0.0
 10
10.2381433531
 20
15.2075681496
 30
0.0
 10
10.2448014159
 20
15.2016802569
 30
0.0
 10
10.2519977339
 20
15.1952546401
 30
0.0
 10
10.2597164759
 20
15.1883070355
 30
0.0
 10
10.2710174001
 20
15.1780660177
 30
0.0
 10
10.2863054984
 20
15.1640897432
 30
0.0
 10
10.3059362085
 20
15.1459934075
 30
0.0
 10
10.3271773011
 20
15.1262884126
 30
0.0
 10
10.3498389843
 20
15.1051641523
 30
0.0
 10
10.3737183645
 20
15.0828230797
 30
0.0
 10
10.3986013848
 20
15.0594789824
 30
0.0
 10
10.4242647776
 20
15.0353549056
 30
0.0
 10
10.4504781294
 20
15.0106810924
 30
0.0
 10
10.47700599
 20
14.9856928433
 30
0.0
 10
10.5036100712
 20
14.9606283127
 30
0.0
 10
10.5300514129
 20
14.9357263283
 30
0.0
 10
10.5560926228
 20
14.9112241457
 30
0.0
 10
10.5815000299
 20
14.8873552804
 30
0.0
 10
10.6060458671
 20
14.8643473116
 30
0.0
 10
10.629510343
 20
14.8424198005
 30
0.0
 10
10.6516836704
 20
14.8217822064
 30
0.0
 10
10.6723679834
 20
14.802631989
 30
0.0
 10
10.6913790684
 20
14.7851525944
 30
0.0
 10
10.7085482539
 20
14.7695120727
 30
0.0
 10
10.7216548409
 20
14.7577207004
 30
0.0
 10
10.7311148789
 20
14.7493279464
 30
0.0
 10
10.7373835055
 20
14.7438278695
 30
0.0
 10
10.7430905737
 20
14.7388883801
 30
0.0
 10
10.7482236858
 20
14.7345215041
 30
0.0
 10
10.7527717974
 20
14.7307379864
 30
0.0
 10
10.7562028375
 20
14.7279676446
 30
0.0
 10
10.758651831
 20
14.7260554764
 30
0.0
 10
10.7602537208
 20
14.7248377004
 30
0.0
 10
10.7617030909
 20
14.7237718934
 30
0.0
 10
10.7629991998
 20
14.722858656
 30
0.0
 10
10.7641413866
 20
14.7220982121
 30
0.0
 10
10.7651291419
 20
14.7214909292
 30
0.0
 10
10.7658614525
 20
14.7210904883
 30
0.0
 10
10.7663714796
 20
14.7208526814
 30
0.0
 10
10.7666006052
 20
14.7207604986
 30
0.0
 10
10.7667087623
 20
14.7207217598
 30
0.0
  0
LINE
  5
531
100
AcDbEntity
  8
0
100
AcDbLine
 62
7
  6
CONTINUOUS
 10
10.7667087623
 20
14.7207217598
 11
10.7669796469
 21
14.7206362273
  0
SPLINE
  5
532
100
AcDbEntity
  8
0
100
AcDbSpline
 62
7
  6
CONTINUOUS
 70
0
 71
3
 72
67
 73
63
 74
0
 42
0.0000001
 43
0.0000001
 44
0.0000000001
 40
0.0
 40
0.0
 40
0.0
 40
0.0
 40
0.0001803383
 40
0.0003866367
 40
0.0006369093
 40
0.0009414359
 40
0.0013058988
 40
0.0017335718
 40
0.002226448
 40
0.0027858042
 40
0.004106906
 40
0.0057008723
 40
0.007569345
 40
0.0097129104
 40
0.0121313113
 40
0.0148238935
 40
0.0177897172
 40
0.0210274062
 40
0.0283120365
 40
0.0366629966
 40
0.0460625097
 40
0.0564899599
 40
0.0679222148
 40
0.0803338166
 40
0.0936969044
 40
0.1079814006
 40
0.139183934
 40
0.1736598216
 40
0.2110976355
 40
0.2511588549
 40
0.2934811869
 40
0.3376818325
 40
0.3833610456
 40
0.4301056705
 40
0.4774930612
 40
0.5250947764
 40
0.5724805411
 40
0.619222155
 40
0.6648973225
 40
0.7090935731
 40
0.7514118419
 40
0.7914703487
 40
0.8289077677
 40
0.8633867759
 40
0.8945970936
 40
0.9088876169
 40
0.9222583376
 40
0.9346793531
 40
0.9461230176
 40
0.9565635392
 40
0.9659786136
 40
0.9743487619
 40
0.9781342369
 40
0.9816494642
 40
0.98489608
 40
0.9878774866
 40
0.9905944536
 40
0.9930327443
 40
0.9951729556
 40
0.997008414
 40
0.9985926671
 40
1.0
 40
1.0
 40
1.0
 40
1.0
 10
10.2527025744
 20
15.2862516715
 30
0.0
 10
10.2527351167
 20
15.2862842175
 30
0.0
 10
10.2528205456
 20
15.2863392331
 30
0.0
 10
10.2529814767
 20
15.2863745239
 30
0.0
 10
10.2531768234
 20
15.2863705236
 30
0.0
 10
10.253408336
 20
15.2863287747
 30
0.0
 10
10.2536771568
 20
15.2862495401
 30
0.0
 10
10.2539838156
 20
15.2861326353
 30
0.0
 10
10.2543285428
 20
15.2859779408
 30
0.0
 10
10.2548697126
 20
15.2857055582
 30
0.0
 10
10.2556395499
 20
15.2852644204
 30
0.0
 10
10.2566709088
 20
15.2846108045
 30
0.0
 10
10.2578542549
 20
15.2838063114
 30
0.0
 10
10.2591890253
 20
15.2828513115
 30
0.0
 10
10.2606745554
 20
15.2817461639
 30
0.0
 10
10.2623100763
 20
15.2804914794
 30
0.0
 10
10.2640947474
 20
15.2790879876
 30
0.0
 10
10.2667792408
 20
15.276933133
 30
0.0
 10
10.2704964345
 20
15.2738697011
 30
0.0
 10
10.275377873
 20
15.2697471804
 30
0.0
 10
10.280828811
 20
15.2650563872
 30
0.0
 10
10.2868376587
 20
15.2598086934
 30
0.0
 10
10.2933915202
 20
15.2540166791
 30
0.0
 10
10.3004763143
 20
15.2476942477
 30
0.0
 10
10.3080767969
 20
15.2408565536
 30
0.0
 10
10.3192083314
 20
15.2307735958
 30
0.0
 10
10.3342729245
 20
15.2170067951
 30
0.0
 10
10.3536248839
 20
15.1991726296
 30
0.0
 10
10.3745775237
 20
15.179739471
 30
0.0
 10
10.396947699
 20
15.1588900827
 30
0.0
 10
10.4205394339
 20
15.1368200031
 30
0.0
 10
10.445145826
 20
15.1137358682
 30
0.0
 10
10.4705508498
 20
15.0898534887
 30
0.0
 10
10.4965313312
 20
15.0653958713
 30
0.0
 10
10.5228589418
 20
15.0405912002
 30
0.0
 10
10.5493022789
 20
15.0156707505
 30
0.0
 10
10.5756289414
 20
14.9908667989
 30
0.0
 10
10.6016076336
 20
14.9664105137
 30
0.0
 10
10.627010258
 20
14.9425298489
 30
0.0
 10
10.6516139511
 20
14.919447501
 30
0.0
 10
10.6752031192
 20
14.8973788511
 30
0.0
 10
10.697571343
 20
14.8765300533
 30
0.0
 10
10.7185232238
 20
14.857096072
 30
0.0
 10
10.7378762206
 20
14.8392590747
 30
0.0
 10
10.7529430183
 20
14.8254882822
 30
0.0
 10
10.7640776702
 20
14.8154006143
 30
0.0
 10
10.771681763
 20
14.8085581292
 30
0.0
 10
10.778771104
 20
14.8022298856
 30
0.0
 10
10.7853305551
 20
14.796431136
 30
0.0
 10
10.7913459489
 20
14.7911753995
 30
0.0
 10
10.7968047868
 20
14.7864750929
 30
0.0
 10
10.801010022
 20
14.7829221757
 30
0.0
 10
10.8040884422
 20
14.7803690376
 30
0.0
 10
10.8061717929
 20
14.7786644758
 30
0.0
 10
10.8081094562
 20
14.777106035
 30
0.0
 10
10.8099034624
 20
14.7756942044
 30
0.0
 10
10.8115528686
 20
14.7744325134
 30
0.0
 10
10.8130474513
 20
14.7733220613
 30
0.0
 10
10.8143755455
 20
14.7723651074
 30
0.0
 10
10.8155388477
 20
14.7715523833
 30
0.0
 10
10.8165729769
 20
14.7708822324
 30
0.0
 10
10.817239782
 20
14.7705083902
 30
0.0
 10
10.8175611937
 20
14.7703480923
 30
0.0
  0
LINE
  5
533
100
AcDbEntity
  8
0
100
AcDbLine
 62
7
  6
CONTINUOUS
 10
10.8175611937
 20
14.7703480923
 11
10.8191460148
 21
14.7697207162
  0
SPLINE
  5
534
100
AcDbEntity
  8
0
100
AcDbSpline
 62
7
  6
CONTINUOUS
 70
0
 71
3
 72
43
 73
39
 74
0
 42
0.0000001
 43
0.0000001
 44
0.0000000001
 40
0.0
 40
0.0
 40
0.0
 40
0.0
 40
0.000175799
 40
0.0003961939
 40
0.000975382
 40
0.0017429223
 40
0.0027005717
 40
0.003848945
 40
0.005188198
 40
0.0067182427
 40
0.0084387129
 40
0.01244875
 40
0.0172133806
 40
0.0227260085
 40
0.0289791492
 40
0.0359639688
 40
0.0436708933
 40
0.0520891275
 40
0.0612071869
 40
0.0710124559
 40
0.0814916451
 40
0.1044137607
 40
0.1298497736
 40
0.1576634805
 40
0.1877070164
 40
0.2198218015
 40
0.2538394711
 40
0.2895827441
 40
0.3268664978
 40
0.3654987727
 40
0.446012742
 40
0.5294911911
 40
0.6142581872
 40
0.6986293688
 40
0.7809453156
 40
0.8596034888
 40
0.9330885022
 40
1.0
 40
1.0
 40
1.0
 40
1.0
 10
10.8196467983
 20
14.7695868873
 30
0.0
 10
10.8196093016
 20
14.7695969147
 30
0.0
 10
10.8195267275
 20
14.7696265821
 30
0.0
 10
10.8193313707
 20
14.7697174986
 30
0.0
 10
10.8190323182
 20
14.7698927134
 30
0.0
 10
10.8186090512
 20
14.7701751036
 30
0.0
 10
10.8180951009
 20
14.7705473571
 30
0.0
 10
10.8174906636
 20
14.7710092474
 30
0.0
 10
10.8167960169
 20
14.7715609807
 30
0.0
 10
10.8160114294
 20
14.7722023707
 30
0.0
 10
10.8147815939
 20
14.7732306392
 30
0.0
 10
10.8130242267
 20
14.7747411106
 30
0.0
 10
10.8106559911
 20
14.7768249454
 30
0.0
 10
10.8079366935
 20
14.7792593052
 30
0.0
 10
10.8048701461
 20
14.7820405442
 30
0.0
 10
10.8014605857
 20
14.7851646362
 30
0.0
 10
10.7977127001
 20
14.7886270111
 30
0.0
 10
10.7936315456
 20
14.7924226779
 30
0.0
 10
10.7892226428
 20
14.796546184
 30
0.0
 10
10.7844918666
 20
14.8009916685
 30
0.0
 10
10.7775532644
 20
14.807538264
 30
0.0
 10
10.7681282277
 20
14.816478311
 30
0.0
 10
10.7559566308
 20
14.8280840102
 30
0.0
 10
10.7426731324
 20
14.8408019914
 30
0.0
 10
10.7283469558
 20
14.8545631458
 30
0.0
 10
10.7130523401
 20
14.8692933718
 30
0.0
 10
10.6968680778
 20
14.884913953
 30
0.0
 10
10.679877092
 20
14.9013420302
 30
0.0
 10
10.6621659684
 20
14.9184910489
 30
0.0
 10
10.6373675436
 20
14.9425306742
 30
0.0
 10
10.6052682033
 20
14.973692235
 30
0.0
 10
10.5658818285
 20
15.0119709846
 30
0.0
 10
10.5258948528
 20
15.0508536814
 30
0.0
 10
10.4860912121
 20
15.0895567479
 30
0.0
 10
10.4472434051
 20
15.1273080885
 30
0.0
 10
10.4100975962
 20
15.1633620239
 30
0.0
 10
10.3753595558
 20
15.1970133323
 30
0.0
 10
10.3530638259
 20
15.2185486589
 30
0.0
 10
10.3424261057
 20
15.2287999126
 30
0.0
  0
SPLINE
  5
535
100
AcDbEntity
  8
0
100
AcDbSpline
 62
7
  6
CONTINUOUS
 70
0
 71
3
 72
24
 73
20
 74
0
 42
0.0000001
 43
0.0000001
 44
0.0000000001
 40
0.0
 40
0.0
 40
0.0
 40
0.0
 40
0.2100652685
 40
0.3980483463
 40
0.4830568305
 40
0.5617545553
 40
0.6339511648
 40
0.6994982464
 40
0.7583040842
 40
0.8103389036
 40
0.8556690825
 40
0.894492242
 40
0.9272219554
 40
0.9415433449
 40
0.9546785872
 40
0.9668208797
 40
0.9782169453
 40
0.9891651368
 40
1.0
 40
1.0
 40
1.0
 40
1.0
 10
8.6404791392
 20
11.8671057064
 30
0.0
 10
8.6419335853
 20
11.8656512603
 30
0.0
 10
8.6446519921
 20
11.8628572387
 30
0.0
 10
8.6478317426
 20
11.8593537005
 30
0.0
 10
8.6500568543
 20
11.8567250667
 30
0.0
 10
8.651503015
 20
11.8549235057
 30
0.0
 10
8.6527790102
 20
11.8532308625
 30
0.0
 10
8.6538810793
 20
11.851652475
 30
0.0
 10
8.6548063748
 20
11.8501932686
 30
0.0
 10
8.6555526864
 20
11.8488574853
 30
0.0
 10
8.6561188772
 20
11.8476483839
 30
0.0
 10
8.6565041573
 20
11.8465686335
 30
0.0
 10
8.65668189
 20
11.8457425189
 30
0.0
 10
8.6567201548
 20
11.8451534008
 30
0.0
 10
8.6567011513
 20
11.844765135
 30
0.0
 10
8.6566354963
 20
11.8444108203
 30
0.0
 10
8.6565226562
 20
11.8440908964
 30
0.0
 10
8.6563624921
 20
11.8438063233
 30
0.0
 10
8.6562248608
 20
11.8436415566
 30
0.0
 10
8.6561498438
 20
11.8435665371
 30
0.0
  0
LINE
  5
536
100
AcDbEntity
  8
0
100
AcDbLine
 62
9
  6
CONTINUOUS
 10
10.8201178416
 20
14.7697055822
 11
10.8199298648
 21
14.7696101807
  0
LINE
  5
537
100
AcDbEntity
  8
0
100
AcDbLine
 62
9
  6
CONTINUOUS
 10
10.8199298648
 20
14.7696101807
 11
10.8198304795
 21
14.7695983495
  0
SPLINE
  5
538
100
AcDbEntity
  8
0
100
AcDbSpline
 62
7
  6
CONTINUOUS
 70
0
 71
3
 72
28
 73
24
 74
0
 42
0.0000001
 43
0.0000001
 44
0.0000000001
 40
0.0
 40
0.0
 40
0.0
 40
0.0
 40
0.1932951921
 40
0.2862017664
 40
0.3756104169
 40
0.4608177608
 40
0.5411760089
 40
0.616097391
 40
0.6850643244
 40
0.7476372119
 40
0.8034670569
 40
0.8287769875
 40
0.8523223589
 40
0.874095898
 40
0.8941025663
 40
0.9123643728
 40
0.928922583
 40
0.9438483225
 40
0.9572497838
 40
0.9692894748
 40
0.9802004551
 40
0.9903022272
 40
1.0
 40
1.0
 40
1.0
 40
1.0
 10
8.1432192099
 20
12.3643656357
 30
0.0
 10
8.1461745006
 20
12.361410345
 30
0.0
 10
8.1504727597
 20
12.3569557005
 30
0.0
 10
8.1559345935
 20
12.3509446628
 30
0.0
 10
8.1597333313
 20
12.3465818643
 30
0.0
 10
8.163257529
 20
12.3423416613
 30
0.0
 10
8.1664789236
 20
12.3382591389
 30
0.0
 10
8.16937239
 20
12.3343675545
 30
0.0
 10
8.1719162433
 20
12.3306979813
 30
0.0
 10
8.1740919772
 20
12.3272791503
 30
0.0
 10
8.175633334
 20
12.3245789875
 30
0.0
 10
8.1766608023
 20
12.3225616925
 30
0.0
 10
8.1773051687
 20
12.3211767516
 30
0.0
 10
8.177848026
 20
12.3198722719
 30
0.0
 10
8.1782885681
 20
12.3186504518
 30
0.0
 10
8.1786263396
 20
12.3175133254
 30
0.0
 10
8.1788608678
 20
12.3164625507
 30
0.0
 10
8.1789919721
 20
12.3154995251
 30
0.0
 10
8.1790191773
 20
12.3146251956
 30
0.0
 10
8.1789418063
 20
12.3138403243
 30
0.0
 10
8.1787582577
 20
12.3131457539
 30
0.0
 10
8.1784666745
 20
12.3125441347
 30
0.0
 10
8.1781977203
 20
12.3122056019
 30
0.0
 10
8.17804945
 20
12.3120573336
 30
0.0
  0
SPLINE
  5
539
100
AcDbEntity
  8
0
100
AcDbSpline
 62
7
  6
CONTINUOUS
 70
0
 71
3
 72
15
 73
11
 74
0
 42
0.0000001
 43
0.0000001
 44
0.0000000001
 40
0.0
 40
0.0
 40
0.0
 40
0.0
 40
0.1223485502
 40
0.2487686044
 40
0.377604891
 40
0.5071698312
 40
0.6357891382
 40
0.7618288747
 40
0.8837240605
 40
1.0
 40
1.0
 40
1.0
 40
1.0
 10
7.6095935755
 20
12.8979912701
 30
0.0
 10
7.6113989143
 20
12.8961859313
 30
0.0
 10
7.6150233795
 20
12.8924686459
 30
0.0
 10
7.6203946811
 20
12.8867024449
 30
0.0
 10
7.625740311
 20
12.8807090728
 30
0.0
 10
7.6309885419
 20
12.8745697633
 30
0.0
 10
7.6360699986
 20
12.8683669696
 30
0.0
 10
7.6409188135
 20
12.8621827602
 30
0.0
 10
7.6454734548
 20
12.8560976464
 30
0.0
 10
7.6483553251
 20
12.8520475907
 30
0.0
 10
7.6497347971
 20
12.8500514601
 30
0.0
  0
ELLIPSE
  5
53A
100
AcDbEntity
  8
0
100
AcDbEllipse
 62
7
  6
CONTINUOUS
 10
9.5617685428
 20
11.1340012806
 30
0.0
 11
0.0990569532
 21
-0.0104875583
 31
0.0
 40
0.5588552877
 41
-2.4851433616
 42
-0.5072414241
  0
ELLIPSE
  5
53B
100
AcDbEntity
  8
0
100
AcDbEllipse
 62
7
  6
CONTINUOUS
 10
6.6414175365
 20
14.0543522869
 30
0.0
 11
0.0104875583
 21
-0.0990569532
 31
0.0
 40
0.5588552877
 41
-2.6343512294
 42
-0.6564492919
  0
ELLIPSE
  5
53C
100
AcDbEntity
  8
0
100
AcDbEllipse
 62
7
  6
CONTINUOUS
 10
9.9687225166
 20
14.4613062607
 30
0.0
 11
-0.0
 21
0.6181264952
 31
0.0
 40
0.2679491924
 41
-0.5408188012
 42
0.0172200256
  0
ENDSEC
  0
SECTION
  2
OBJECTS
  0
DICTIONARY
  5
C
100
AcDbDictionary
280
0
281
1
  3
ACAD_GROUP
350
D
  3
ACAD_MLINESTYLE
350
17
  3
ACAD_LAYOUT
350
1A
  3
ACAD_PLOTSETTINGS
350
19
  3
ACAD_PLOTSTYLENAME
350
E
  0
DICTIONARY
  5
D
102
{ACAD_REACTORS
330
C
102
}
100
AcDbDictionary
280
0
281
1
  0
ACDBDICTIONARYWDFLT
  5
E
102
{ACAD_REACTORS
330
C
102
}
100
AcDbDictionary
281
1
  3
Normal
350
F
100
AcDbDictionaryWithDefault
340
F
  0
DICTIONARY
  5
17
102
{ACAD_REACTORS
330
C
102
}
100
AcDbDictionary
280
0
281
1
  3
Standard
350
18
  0
DICTIONARY
  5
19
102
{ACAD_REACTORS
330
C
102
}
100
AcDbDictionary
281
1
  0
DICTIONARY
  5
1A
102
{ACAD_REACTORS
330
C
102
}
100
AcDbDictionary
281
1
  3
Model
350
53D
  3
Layout1
350
53E
  0
ACDBPLACEHOLDER
  5
F
102
{ACAD_REACTORS
330
E
102
}
  0
MLINESTYLE
  5
18
102
{ACAD_REACTORS
330
17
102
}
100
AcDbMlineStyle
  2
STANDARD
 70
0
  3

 62
256
 51
90.0
 52
90.0
 71
2
 49
0.5
 62
256
  6
BYLAYER
 49
-0.5
 62
256
  6
BYLAYER
  0
LAYOUT
  5
53D
102
{ACAD_REACTORS
330
1A
102
}
100
AcDbPlotSettings
  1

  2
none_device
  4
ANSI_C_(22.00_x_17.00_Inches)
  6

 40
0.0
 41
0.0
 42
0.0
 43
0.0
 44
558.8
 45
431.8
 46
0.0
 47
0.0
 48
0.0
 49
0.0
140
0.0
141
0.0
142
1.0
143
1.0
 70
1024
 72
0
 73
0
 74
0
  7

 75
0
147
1.0
148
0.0
149
0.0
100
AcDbLayout
  1
Model
 70
0
 71
0
 10
0.0
 20
0.0
 11
22.0
 21
17.0
 12
0.0
 22
0.0
 32
0.0
 14
0.0
 24
0.0
 34
0.0
 15
0.0
 25
0.0
 35
0.0
146
0.0
 13
0.0
 23
0.0
 33
0.0
 16
1.0
 26
0.0
 36
0.0
 17
0.0
 27
1.0
 37
0.0
 76
0
330
205
345
0
346
0
  0
LAYOUT
  5
53E
102
{ACAD_REACTORS
330
1A
102
}
100
AcDbPlotSettings
  1

  2
none_device
  4
ANSI_C_(22.00_x_17.00_Inches)
  6

 40
0.0
 41
0.0
 42
0.0
 43
0.0
 44
558.8
 45
431.8
 46
0.0
 47
0.0
 48
0.0
 49
0.0
140
0.0
141
0.0
142
1.0
143
1.0
 70
0
 72
0
 73
0
 74
0
  7

 75
0
147
1.0
148
0.0
149
0.0
100
AcDbLayout
  1
Layout1
 70
0
 71
1
 10
0.0
 20
0.0
 11
22.0
 21
17.0
 12
0.0
 22
0.0
 32
0.0
 14
0.0
 24
0.0
 34
0.0
 15
0.0
 25
0.0
 35
0.0
146
0.0
 13
0.0
 23
0.0
 33
0.0
 16
1.0
 26
0.0
 36
0.0
 17
0.0
 27
1.0
 37
0.0
 76
0
330
206
345
0
346
0
  0
ENDSEC
  0
EOF
