  0
SECTION
  2
HEADER
  9
$ACADVER
  1
AC1015
  9
$DWGCODEPAGE
  3
ANSI_1252
  9
$EXTMAX
 10
11.6929133858
 20
8.2677165354
 30
0.0
  9
$EXTMIN
 10
0.0
 20
0.0
 30
0.0
  9
$LIMMIN
 10
0.0
 20
0.0
  9
$LIMMAX
 10
11.6929133858
 20
8.2677165354
  9
$VIEWCTR
 10
5.8464566929
 20
4.1338582677
  9
$VIEWSIZE
 40
8.2677165354
  9
$CLAYER
  8
0
  9
$LTSCALE
 40
0.6431102362
  9
$CELTYPE
  6
BYLAYER
  9
$DIMSCALE
 40
1.0
  9
$DIMASZ
 40
0.1875
  9
$DIMEXO
 40
0.0730807087
  9
$DIMDLI
 40
0.4443307087
  9
$DIMEXE
 40
0.2104724409
  9
$DIMCEN
 40
0.1052362205
  9
$DIMLFAC
 40
1.0
  9
$DIMBLK
  1
_CLOSED
  9
$DIMTXT
 40
0.15625
  9
$DIMTOL
 70
0
  9
$DIMLIM
 70
0
  9
$DIMTFAC
 40
1.0
  9
$PDMODE
 70
3
  9
$PDSIZE
 40
0.3125
  9
$HANDSEED
  5
412
  9
$TILEMODE
 70
1
  9
$MEASUREMENT
 70
0
  9
$INSUNITS
 70
1
  0
ENDSEC
  0
SECTION
  2
CLASSES
  0
CLASS
  1
ACDBDICTIONARYWDFLT
  2
AcDbDictionaryWithDefault
  3
AutoCAD 2000
 90
0
280
0
281
0
  0
CLASS
  1
ACDBPLACEHOLDER
  2
AcDbPlaceHolder
  3
AutoCAD 2000
 90
0
280
0
281
0
  0
CLASS
  1
LAYOUT
  2
AcDbLayout
  3
AutoCAD 2000
 90
0
280
0
281
0
  0
ENDSEC
  0
SECTION
  2
TABLES
  0
TABLE
  2
VPORT
  5
8
100
AcDbSymbolTable
 70
2
  0
VPORT
  5
1F4
100
AcDbSymbolTableRecord
100
AcDbViewportTableRecord
  2
*ACTIVE
 70
0
 10
0.0
 20
0.0
 11
1.0
 21
1.0
 12
5.8464566929
 22
4.1338582677
 13
0.0
 23
0.0
 14
1.0
 24
1.0
 15
0.0
 25
0.0
 16
0.0
 26
0.0
 36
1.0
 17
0.0
 27
0.0
 37
0.0
 40
8.2677165354
 41
1.4142857143
 42
50.0
 43
0.0
 44
0.0
 50
0.0
 51
0.0
 71
0
 72
100
 73
1
 74
1
 75
0
 76
0
 77
0
 78
0
  0
ENDTAB
  0
TABLE
  2
LTYPE
  5
5
100
AcDbSymbolTable
 70
6
  0
LTYPE
  5
14
100
AcDbSymbolTableRecord
100
AcDbLinetypeTableRecord
  2
BYBLOCK
 70
0
  3

 72
65
 73
0
 40
0.0
  0
LTYPE
  5
15
100
AcDbSymbolTableRecord
100
AcDbLinetypeTableRecord
  2
BYLAYER
 70
0
  3

 72
65
 73
0
 40
0.0
  0
LTYPE
  5
16
100
AcDbSymbolTableRecord
100
AcDbLinetypeTableRecord
  2
CONTINUOUS
 70
64
  3
Solid line
 72
65
 73
0
 40
0.0
  0
LTYPE
  5
1F5
100
AcDbSymbolTableRecord
100
AcDbLinetypeTableRecord
  2
CENTER
 70
64
  3
____ _ ____ _ ____ _ ____ _ ____ _ ____ _ ____
 72
65
 73
4
 40
0.6
 49
0.375
 74
0
 49
-0.075
 74
0
 49
0.075
 74
0
 49
-0.075
 74
0
  0
LTYPE
  5
1F6
100
AcDbSymbolTableRecord
100
AcDbLinetypeTableRecord
  2
HIDDEN
 70
64
  3
- - - - - - - - - - - - - - - - - - - -
 72
65
 73
2
 40
0.2
 49
0.1
 74
0
 49
-0.1
 74
0
  0
LTYPE
  5
1F7
100
AcDbSymbolTableRecord
100
AcDbLinetypeTableRecord
  2
PHANTOM
 70
64
  3
_____ _ _ _____ _ _ _____ _ _ _____
 72
65
 73
6
 40
0.8
 49
0.45
 74
0
 49
-0.05
 74
0
 49
0.1
 74
0
 49
-0.05
 74
0
 49
0.1
 74
0
 49
-0.05
 74
0
  0
LTYPE
  5
1F8
100
AcDbSymbolTableRecord
100
AcDbLinetypeTableRecord
  2
DOT
 70
64
  3
. . . . . . . . . . . . . . . . . . . .
 72
65
 73
2
 40
0.2
 49
0.1
 74
0
 49
-0.1
 74
0
  0
LTYPE
  5
1F9
100
AcDbSymbolTableRecord
100
AcDbLinetypeTableRecord
  2
DASHED
 70
64
  3
- - - - - - - - - - - - - - - - - - - -
 72
65
 73
2
 40
0.2
 49
0.1
 74
0
 49
-0.1
 74
0
  0
ENDTAB
  0
TABLE
  2
LAYER
  5
2
100
AcDbSymbolTable
 70
36
  0
LAYER
  5
10
100
AcDbSymbolTableRecord
100
AcDbLayerTableRecord
  2
0
 70
0
 62
7
  6
CONTINUOUS
370
-3
390
F
  0
LAYER
  5
1FA
100
AcDbSymbolTableRecord
100
AcDbLayerTableRecord
  2
DEFAULT_1
 70
0
 62
7
  6
CENTER
370
-3
390
F
  0
LAYER
  5
1FB
100
AcDbSymbolTableRecord
100
AcDbLayerTableRecord
  2
DEFAULT_2
 70
0
 62
8
  6
HIDDEN
370
-3
390
F
  0
LAYER
  5
1FC
100
AcDbSymbolTableRecord
100
AcDbLayerTableRecord
  2
DEFAULT_3
 70
0
 62
7
  6
PHANTOM
370
-3
390
F
  0
LAYER
  5
1FD
100
AcDbSymbolTableRecord
100
AcDbLayerTableRecord
  2
DEFAULT_COORDINATE_SYSTEM
 70
0
 62
7
  6
CONTINUOUS
370
-3
390
F
  0
LAYER
  5
1FE
100
AcDbSymbolTableRecord
100
AcDbLayerTableRecord
  2
DEFAULT_DATUM_AXES
 70
0
 62
7
  6
CONTINUOUS
370
-3
390
F
  0
LAYER
  5
1FF
100
AcDbSymbolTableRecord
100
AcDbLayerTableRecord
  2
DEFAULT_DATUM_CURVES
 70
0
 62
7
  6
CONTINUOUS
370
-3
390
F
  0
LAYER
  5
200
100
AcDbSymbolTableRecord
100
AcDbLayerTableRecord
  2
DEFAULT_DATUM_PLANES
 70
0
 62
7
  6
CONTINUOUS
370
-3
390
F
  0
ENDTAB
  0
TABLE
  2
STYLE
  5
3
100
AcDbSymbolTable
 70
1
  0
STYLE
  5
11
100
AcDbSymbolTableRecord
100
AcDbTextStyleTableRecord
  2
STANDARD
 70
0
 40
0.0
 41
0.8
 50
0.0
 71
0
 42
0.2
  3
txt
  4

  0
STYLE
  5
201
100
AcDbSymbolTableRecord
100
AcDbTextStyleTableRecord
  2
TEXTSTYLE_1
 70
0
 40
0.0
 41
0.8
 50
0.0
 71
0
 42
0.2
  3
gdt
  4

  0
ENDTAB
  0
TABLE
  2
VIEW
  5
6
100
AcDbSymbolTable
 70
0
  0
ENDTAB
  0
TABLE
  2
UCS
  5
7
100
AcDbSymbolTable
 70
0
  0
ENDTAB
  0
TABLE
  2
APPID
  5
9
100
AcDbSymbolTable
 70
1
  0
APPID
  5
202
100
AcDbSymbolTableRecord
100
AcDbRegAppTableRecord
  2
ACAD
 70
0
  0
ENDTAB
  0
TABLE
  2
BLOCK_RECORD
  5
1
100
AcDbSymbolTable
 70
0
  0
BLOCK_RECORD
  5
203
100
AcDbSymbolTableRecord
100
AcDbBlockTableRecord
  2
*Model_Space
  0
BLOCK_RECORD
  5
204
100
AcDbSymbolTableRecord
100
AcDbBlockTableRecord
  2
*Paper_Space
  0
ENDTAB
  0
TABLE
  2
DIMSTYLE
  5
A
100
AcDbSymbolTable
 70
1
100
AcDbDimStyleTable
 71
0
  0
DIMSTYLE
105
205
100
AcDbSymbolTableRecord
100
AcDbDimStyleTableRecord
  2
STANDARD
 70
0
  3

  4

 40
1.0
 41
0.1875
 42
0.0625
 43
0.38
 44
0.18
 45
0.0
 46
0.0
 47
0.01
 48
0.01
140
0.15625
141
0.09
142
0.0
143
25.4
144
1.0
145
0.0
146
1.0
147
0.09
 71
0.0
 72
0.0
 73
1
 74
1
 75
0
 76
0
 77
0
 78
4
170
0
171
2
172
0
173
0
174
0
175
0
176
0
177
0
178
0
270
2
271
2
272
2
273
2
274
2
275
0
280
0
281
0
282
0
283
1
284
4
285
0
286
0
287
3
288
0
340
11
  0
ENDTAB
  0
ENDSEC
  0
SECTION
  2
BLOCKS
  0
BLOCK
  5
20
100
AcDbEntity
  8
0
100
AcDbBlockBegin
  2
*Model_Space
 70
0
 10
0.0
 20
0.0
 30
0.0
  3
*Model_Space
  1

  0
ENDBLK
  5
21
100
AcDbEntity
  8
0
100
AcDbBlockEnd
  0
BLOCK
  5
1C
100
AcDbEntity
  8
0
100
AcDbBlockBegin
  2
*Paper_Space
 70
0
 10
0.0
 20
0.0
 30
0.0
  3
*Paper_Space
  1

  0
ENDBLK
  5
1D
100
AcDbEntity
  8
0
100
AcDbBlockEnd
  0
ENDSEC
  0
SECTION
  2
ENTITIES
  0
LWPOLYLINE
  5
206
100
AcDbEntity
  8
0
100
AcDbPolyline
 62
6
  6
CONTINUOUS
 90
7
 70
0
 10
4.619389019
 20
5.0470765025
 10
4.6147114915
 20
5.0308551571
 10
4.6108059215
 20
5.0133108996
 10
4.6079104285
 20
4.9945685313
 10
4.6062507587
 20
4.9754020905
 10
4.6058892141
 20
4.9564503175
 10
4.6068060245
 20
4.9378938998
  0
LWPOLYLINE
  5
207
100
AcDbEntity
  8
0
100
AcDbPolyline
 62
6
  6
CONTINUOUS
 90
9
 70
0
 10
4.619788375
 20
5.0481570366
 10
4.6154046709
 20
5.033234721
 10
4.6117213989
 20
5.0173945574
 10
4.6089965809
 20
5.0015871628
 10
4.6071863821
 20
4.9857478183
 10
4.606273189
 20
4.9698073256
 10
4.6062652076
 20
4.9536956649
 10
4.6071962925
 20
4.9373490265
 10
4.6082762857
 20
4.9270215318
  0
LINE
  5
208
100
AcDbEntity
  8
0
100
AcDbLine
 62
9
  6
CONTINUOUS
 10
4.6193900119
 20
5.0470796002
 11
4.619389019
 21
5.0470765025
  0
LINE
  5
209
100
AcDbEntity
  8
0
100
AcDbLine
 62
6
  6
CONTINUOUS
 10
4.6211687171
 20
5.0522770886
 11
4.6193900119
 21
5.0470796002
  0
LWPOLYLINE
  5
20A
100
AcDbEntity
  8
0
100
AcDbPolyline
 62
6
  6
CONTINUOUS
 90
3
 70
0
 10
4.6266906237
 20
5.0648950745
 10
4.6226649975
 20
5.0560419584
 10
4.6197883757
 20
5.0481570388
  0
LWPOLYLINE
  5
20B
100
AcDbEntity
  8
0
100
AcDbPolyline
 62
6
  6
CONTINUOUS
 90
3
 70
0
 10
4.6368308986
 20
5.0814596065
 10
4.6314243149
 20
5.0733860658
 10
4.6266906237
 20
5.0648950745
  0
LWPOLYLINE
  5
20C
100
AcDbEntity
  8
0
100
AcDbPolyline
 62
6
  6
CONTINUOUS
 90
7
 70
0
 10
4.6386619938
 20
5.0839573991
 10
4.635461487
 20
5.0795814641
 10
4.6320517544
 20
5.0744347254
 10
4.6289767314
 20
5.0693033948
 10
4.6261667508
 20
5.0639987107
 10
4.6235852528
 20
5.0583902728
 10
4.6211687171
 20
5.0522770886
  0
LINE
  5
20D
100
AcDbEntity
  8
0
100
AcDbLine
 62
6
  6
CONTINUOUS
 10
4.642875162
 20
5.0890603989
 11
4.6368308986
 21
5.0814596065
  0
LINE
  5
20E
100
AcDbEntity
  8
0
100
AcDbLine
 62
6
  6
CONTINUOUS
 10
4.6486477388
 20
5.095268395
 11
4.642875162
 21
5.0890603989
  0
LWPOLYLINE
  5
20F
100
AcDbEntity
  8
0
100
AcDbPolyline
 62
6
  6
CONTINUOUS
 90
3
 70
0
 10
4.6623652883
 20
5.1070185241
 10
4.6547708924
 20
5.1009675463
 10
4.6486477388
 20
5.095268395
  0
LINE
  5
210
100
AcDbEntity
  8
0
100
AcDbLine
 62
6
  6
CONTINUOUS
 10
4.6642407462
 20
5.108389173
 11
4.6599561235
 21
5.1052521318
  0
LINE
  5
211
100
AcDbEntity
  8
0
100
AcDbLine
 62
6
  6
CONTINUOUS
 10
4.6704334926
 20
5.1124326329
 11
4.6623652883
 21
5.1070185241
  0
LWPOLYLINE
  5
212
100
AcDbEntity
  8
0
100
AcDbPolyline
 62
6
  6
CONTINUOUS
 90
3
 70
0
 10
4.6877703929
 20
5.1212089491
 10
4.6789202767
 20
5.1171745377
 10
4.6704334926
 20
5.1124326329
  0
LINE
  5
213
100
AcDbEntity
  8
0
100
AcDbLine
 62
6
  6
CONTINUOUS
 10
4.6957590958
 20
5.1241277584
 11
4.6877703929
 21
5.1212089491
  0
LWPOLYLINE
  5
214
100
AcDbEntity
  8
0
100
AcDbPolyline
 62
6
  6
CONTINUOUS
 90
7
 70
0
 10
4.6968366109
 20
5.1245261467
 10
4.6915099465
 20
5.1227002052
 10
4.6854047897
 20
5.1202790531
 10
4.6798033274
 20
5.1176928498
 10
4.6745050418
 20
5.1148784398
 10
4.6693803306
 20
5.1118004615
 10
4.6642407462
 20
5.108389173
  0
LINE
  5
215
100
AcDbEntity
  8
0
100
AcDbLine
 62
9
  6
CONTINUOUS
 10
4.6968366109
 20
5.1245261467
 11
4.6968397546
 21
5.1245271543
  0
LINE
  5
216
100
AcDbEntity
  8
0
100
AcDbLine
 62
6
  6
CONTINUOUS
 10
4.710602199
 20
5.1284905754
 11
4.6957590965
 21
5.1241277586
  0
LWPOLYLINE
  5
217
100
AcDbEntity
  8
0
100
AcDbPolyline
 62
6
  6
CONTINUOUS
 90
7
 70
0
 10
4.6968396313
 20
3.1094452117
 10
4.7130610791
 20
3.1047676578
 10
4.7306054463
 20
3.100862074
 10
4.7493479415
 20
3.0979665804
 10
4.7685144951
 20
3.0963069275
 10
4.7874663696
 20
3.0959454151
 10
4.8060228836
 20
3.0968622713
  0
LWPOLYLINE
  5
218
100
AcDbEntity
  8
0
100
AcDbPolyline
 62
6
  6
CONTINUOUS
 90
9
 70
0
 10
4.6957590972
 20
3.1098445676
 10
4.7106813037
 20
3.1054608923
 10
4.7265213596
 20
3.1017776353
 10
4.7423286465
 20
3.09905282
 10
4.7581678815
 20
3.0972426119
 10
4.774108261
 20
3.0963293975
 10
4.7902198033
 20
3.0963213816
 10
4.8065663166
 20
3.0972524171
 10
4.8168982254
 20
3.0983329247
  0
LINE
  5
219
100
AcDbEntity
  8
0
100
AcDbLine
 62
9
  6
CONTINUOUS
 10
4.6968365336
 20
3.1094462046
 11
4.6968396313
 21
3.1094452117
  0
LINE
  5
21A
100
AcDbEntity
  8
0
100
AcDbLine
 62
6
  6
CONTINUOUS
 10
4.6916390452
 20
3.1112249098
 11
4.6968365336
 21
3.1094462046
  0
LWPOLYLINE
  5
21B
100
AcDbEntity
  8
0
100
AcDbPolyline
 62
6
  6
CONTINUOUS
 90
3
 70
0
 10
4.6790210593
 20
3.1167468163
 10
4.6878741754
 20
3.1127211901
 10
4.695759095
 20
3.1098445683
  0
LWPOLYLINE
  5
21C
100
AcDbEntity
  8
0
100
AcDbPolyline
 62
6
  6
CONTINUOUS
 90
3
 70
0
 10
4.6624565273
 20
3.1268870913
 10
4.670530068
 20
3.1214805076
 10
4.6790210593
 20
3.1167468163
  0
LWPOLYLINE
  5
21D
100
AcDbEntity
  8
0
100
AcDbPolyline
 62
6
  6
CONTINUOUS
 90
7
 70
0
 10
4.659959274
 20
3.1287177717
 10
4.6643346698
 20
3.1255176797
 10
4.6694814084
 20
3.122107947
 10
4.674612739
 20
3.119032924
 10
4.6799174231
 20
3.1162229435
 10
4.685525861
 20
3.1136414454
 10
4.6916390452
 20
3.1112249098
  0
LINE
  5
21E
100
AcDbEntity
  8
0
100
AcDbLine
 62
6
  6
CONTINUOUS
 10
4.6548557349
 20
3.1329313547
 11
4.6624565273
 21
3.1268870913
  0
LINE
  5
21F
100
AcDbEntity
  8
0
100
AcDbLine
 62
6
  6
CONTINUOUS
 10
4.6486477388
 20
3.1387039315
 11
4.6548557349
 21
3.1329313547
  0
LWPOLYLINE
  5
220
100
AcDbEntity
  8
0
100
AcDbPolyline
 62
6
  6
CONTINUOUS
 90
3
 70
0
 10
4.6368976097
 20
3.1524214809
 10
4.6429485875
 20
3.144827085
 10
4.6486477388
 20
3.1387039315
  0
LINE
  5
221
100
AcDbEntity
  8
0
100
AcDbLine
 62
6
  6
CONTINUOUS
 10
4.6355269608
 20
3.1542969388
 11
4.6386636176
 21
3.1500128159
  0
LINE
  5
222
100
AcDbEntity
  8
0
100
AcDbLine
 62
6
  6
CONTINUOUS
 10
4.6314835009
 20
3.1604896852
 11
4.6368976097
 21
3.1524214809
  0
LWPOLYLINE
  5
223
100
AcDbEntity
  8
0
100
AcDbPolyline
 62
6
  6
CONTINUOUS
 90
3
 70
0
 10
4.6227071847
 20
3.1778265856
 10
4.6267415961
 20
3.1689764694
 10
4.6314835009
 20
3.1604896852
  0
LINE
  5
224
100
AcDbEntity
  8
0
100
AcDbLine
 62
6
  6
CONTINUOUS
 10
4.6197883754
 20
3.1858152884
 11
4.6227071847
 21
3.1778265856
  0
LWPOLYLINE
  5
225
100
AcDbEntity
  8
0
100
AcDbPolyline
 62
6
  6
CONTINUOUS
 90
7
 70
0
 10
4.6193899871
 20
3.1868928036
 10
4.6212159287
 20
3.1815661391
 10
4.6236370807
 20
3.1754609824
 10
4.626223284
 20
3.16985952
 10
4.629037694
 20
3.1645612345
 10
4.6321156723
 20
3.1594365232
 10
4.6355269608
 20
3.1542969388
  0
LINE
  5
226
100
AcDbEntity
  8
0
100
AcDbLine
 62
9
  6
CONTINUOUS
 10
4.6193899871
 20
3.1868928036
 11
4.6193889795
 21
3.1868959472
  0
LINE
  5
227
100
AcDbEntity
  8
0
100
AcDbLine
 62
6
  6
CONTINUOUS
 10
4.6154255568
 20
3.2006583977
 11
4.6197883752
 21
3.1858152891
  0
LWPOLYLINE
  5
228
100
AcDbEntity
  8
0
100
AcDbPolyline
 62
6
  6
CONTINUOUS
 90
8
 70
0
 10
4.6082762829
 20
3.3069507723
 10
4.6071953336
 20
3.2966121528
 10
4.6062645772
 20
3.2802540998
 10
4.6062741731
 20
3.2641311127
 10
4.6071902587
 20
3.2481793212
 10
4.6090046683
 20
3.2323286818
 10
4.611735107
 20
3.2165099541
 10
4.6154255568
 20
3.2006583977
  0
LWPOLYLINE
  5
229
100
AcDbEntity
  8
0
100
AcDbPolyline
 62
6
  6
CONTINUOUS
 90
8
 70
0
 10
4.6089218464
 20
3.3142379622
 10
4.6068027338
 20
3.2960389896
 10
4.605888541
 20
3.2774772226
 10
4.6062534767
 20
3.2585188817
 10
4.6079175049
 20
3.2393450945
 10
4.6108178209
 20
3.2205985957
 10
4.6147264437
 20
3.2030588685
 10
4.6193889795
 20
3.1868959472
  0
LINE
  5
22A
100
AcDbEntity
  8
0
100
AcDbLine
 62
9
  6
CONTINUOUS
 10
4.619788375
 20
5.0481570366
 11
4.6197786809
 21
5.0481190126
  0
LINE
  5
22B
100
AcDbEntity
  8
0
100
AcDbLine
 62
9
  6
CONTINUOUS
 10
6.5581008447
 20
3.1098445678
 11
6.5580628199
 21
3.1098348735
  0
LWPOLYLINE
  5
22C
100
AcDbEntity
  8
0
100
AcDbPolyline
 62
6
  6
CONTINUOUS
 90
10
 70
0
 10
4.8060228836
 20
3.0968622713
 10
4.8242168091
 20
3.0989832839
 10
4.8421418556
 20
3.1022674
 10
4.8596777895
 20
3.1066971661
 10
4.8766596124
 20
3.1122239515
 10
4.8929806897
 20
3.1187187029
 10
4.9086577469
 20
3.126108825
 10
4.9237556054
 20
3.1343979935
 10
4.9383275606
 20
3.1436061239
 10
4.9485822576
 20
3.1508432971
  0
LWPOLYLINE
  5
22D
100
AcDbEntity
  8
0
100
AcDbPolyline
 62
6
  6
CONTINUOUS
 90
8
 70
0
 10
6.4369653611
 20
3.0983324756
 10
6.4473039809
 20
3.0972515263
 10
6.4636620339
 20
3.0963207699
 10
6.479785021
 20
3.0963303657
 10
6.4957368125
 20
3.0972464513
 10
6.5115874519
 20
3.0990608609
 10
6.5274061797
 20
3.1017912996
 10
6.5432577361
 20
3.1054817495
  0
LWPOLYLINE
  5
22E
100
AcDbEntity
  8
0
100
AcDbPolyline
 62
6
  6
CONTINUOUS
 90
8
 70
0
 10
6.4296781716
 20
3.098978039
 10
6.4478771442
 20
3.0968589265
 10
6.4664389112
 20
3.0959447336
 10
6.4853972521
 20
3.0963096693
 10
6.5045710393
 20
3.0979736975
 10
6.5233175381
 20
3.1008740135
 10
6.5408572653
 20
3.1047826364
 10
6.5570201866
 20
3.1094451722
  0
LINE
  5
22F
100
AcDbEntity
  8
0
100
AcDbLine
 62
9
  6
CONTINUOUS
 10
4.6957590972
 20
3.1098445676
 11
4.6957971212
 21
3.1098348735
  0
LINE
  5
230
100
AcDbEntity
  8
0
100
AcDbLine
 62
9
  6
CONTINUOUS
 10
4.6197883752
 20
3.1858152891
 11
4.6197786809
 21
3.1858533139
  0
LWPOLYLINE
  5
231
100
AcDbEntity
  8
0
100
AcDbPolyline
 62
6
  6
CONTINUOUS
 90
10
 70
0
 10
4.6068060245
 20
4.9378938998
 10
4.6089269796
 20
4.9197000705
 10
4.6122110247
 20
4.9017751186
 10
4.6166407071
 20
4.8842392656
 10
4.6221674023
 20
4.8672575064
 10
4.6286620618
 20
4.8509364762
 10
4.6360520858
 20
4.8352594597
 10
4.6443411456
 20
4.8201616385
 10
4.653549156
 20
4.8055897226
 10
4.6607863921
 20
4.7953348418
  0
LINE
  5
232
100
AcDbEntity
  8
0
100
AcDbLine
 62
9
  6
CONTINUOUS
 10
5.0551624423
 20
4.4938817439
 11
5.2500343899
 21
4.6887536915
  0
LINE
  5
233
100
AcDbEntity
  8
0
100
AcDbLine
 62
9
  6
CONTINUOUS
 10
5.2500343899
 20
3.545218635
 11
5.0551624423
 21
3.7400905825
  0
LWPOLYLINE
  5
234
100
AcDbEntity
  8
0
100
AcDbPolyline
 62
6
  6
CONTINUOUS
 90
9
 70
0
 10
4.6607863075
 20
3.4386373699
 10
4.6535466891
 20
3.4283789461
 10
4.6443364485
 20
3.4138027294
 10
4.63604591
 20
3.3987007436
 10
4.6286550646
 20
3.3830197449
 10
4.6221601983
 20
3.3666949172
 10
4.6166337237
 20
3.3497088984
 10
4.6122047271
 20
3.3321682249
 10
4.6089218464
 20
3.3142379622
  0
LINE
  5
235
100
AcDbEntity
  8
0
100
AcDbLine
 62
6
  6
CONTINUOUS
 10
4.6606773147
 20
3.438449688
 11
4.6795615149
 21
3.461467808
  0
LINE
  5
236
100
AcDbEntity
  8
0
100
AcDbLine
 62
6
  6
CONTINUOUS
 10
6.2824483258
 20
5.0643546189
 11
6.3054637153
 21
5.0832368119
  0
LWPOLYLINE
  5
237
100
AcDbEntity
  8
0
100
AcDbPolyline
 62
6
  6
CONTINUOUS
 90
6
 70
0
 10
5.4018854306
 20
4.6270483821
 10
5.3951110652
 20
4.624358882
 10
5.3873237255
 20
4.6219439177
 10
5.378966795
 20
4.620100333
 10
5.3702337118
 20
4.6189561777
 10
5.3687806924
 20
4.6188412506
  0
LWPOLYLINE
  5
238
100
AcDbEntity
  8
0
100
AcDbPolyline
 62
6
  6
CONTINUOUS
 90
7
 70
0
 10
5.3510531156
 20
3.6148284731
 10
5.3520563614
 20
3.6149300167
 10
5.3608541722
 20
3.6153858666
 10
5.3696930425
 20
3.6150628181
 10
5.3783835863
 20
3.6139745466
 10
5.3867313328
 20
3.6121858478
 10
5.3945535427
 20
3.6098117964
  0
LINE
  5
239
100
AcDbEntity
  8
0
100
AcDbLine
 62
6
  6
CONTINUOUS
 10
5.3945535427
 20
3.6098117964
 11
5.4017211586
 21
3.6069982894
  0
LWPOLYLINE
  5
23A
100
AcDbEntity
  8
0
100
AcDbPolyline
 62
6
  6
CONTINUOUS
 90
9
 70
0
 10
6.305278764
 20
3.1508425
 10
6.3155371876
 20
3.1436028818
 10
6.3301134043
 20
3.1343926412
 10
6.3452153901
 20
3.1261021027
 10
6.3608963888
 20
3.1187112573
 10
6.3772212165
 20
3.112216391
 10
6.3942072353
 20
3.1066899163
 10
6.4117479089
 20
3.1022609197
 10
6.4296781716
 20
3.098978039
  0
LINE
  5
23B
100
AcDbEntity
  8
0
100
AcDbLine
 62
6
  6
CONTINUOUS
 10
6.305466434
 20
3.1507335161
 11
6.2824483258
 21
3.1696177076
  0
LINE
  5
23C
100
AcDbEntity
  8
0
100
AcDbLine
 62
6
  6
CONTINUOUS
 10
4.6795615149
 20
4.7725045185
 11
4.6606860432
 21
4.7955107559
  0
LWPOLYLINE
  5
23D
100
AcDbEntity
  8
0
100
AcDbPolyline
 62
6
  6
CONTINUOUS
 90
6
 70
0
 10
5.1168267557
 20
3.8920323403
 10
5.1193505232
 20
3.8857406972
 10
5.1217359027
 20
3.8782497192
 10
5.1236294033
 20
3.8700465449
 10
5.1248618882
 20
3.8613526561
 10
5.1253084772
 20
3.8538027329
  0
LINE
  5
23E
100
AcDbEntity
  8
0
100
AcDbLine
 62
6
  6
CONTINUOUS
 10
5.4969299706
 20
5.0782279454
 11
5.4969299706
 21
5.2220422531
  0
LINE
  5
23F
100
AcDbEntity
  8
0
100
AcDbLine
 62
6
  6
CONTINUOUS
 10
4.9973494125
 20
3.2036445685
 11
5.0168727159
 21
3.2357403912
  0
LINE
  5
240
100
AcDbEntity
  8
0
100
AcDbLine
 62
6
  6
CONTINUOUS
 10
5.0168727159
 20
3.2357403912
 11
5.0233766688
 21
3.2462846633
  0
LWPOLYLINE
  5
241
100
AcDbEntity
  8
0
100
AcDbPolyline
 62
6
  6
CONTINUOUS
 90
6
 70
0
 10
5.0233766688
 20
3.2462846633
 10
5.0308341747
 20
3.2582491714
 10
5.0392731395
 20
3.2716323866
 10
5.0487353293
 20
3.2864416011
 10
5.0592784956
 20
3.3026923521
 10
5.0701214301
 20
3.3191180937
  0
LINE
  5
242
100
AcDbEntity
  8
0
100
AcDbLine
 62
6
  6
CONTINUOUS
 10
5.0999982417
 20
3.3628383595
 11
5.0914771695
 21
3.350602269
  0
LINE
  5
243
100
AcDbEntity
  8
0
100
AcDbLine
 62
6
  6
CONTINUOUS
 10
6.1538616995
 20
4.8711339669
 11
6.1623828826
 21
4.8833702187
  0
LINE
  5
244
100
AcDbEntity
  8
0
100
AcDbLine
 62
9
  6
CONTINUOUS
 10
6.247061849
 20
5.0133315952
 11
6.2421794849
 21
5.006738664
  0
LINE
  5
245
100
AcDbEntity
  8
0
100
AcDbLine
 62
9
  6
CONTINUOUS
 10
5.0067980922
 20
3.2206407313
 11
5.0116531104
 21
3.2271968435
  0
LWPOLYLINE
  5
246
100
AcDbEntity
  8
0
100
AcDbPolyline
 62
6
  6
CONTINUOUS
 90
7
 70
0
 10
6.0887793276
 20
4.7841844597
 10
6.074526038
 20
4.7667377813
 10
6.0602545985
 20
4.7498448138
 10
6.0459640377
 20
4.7335070159
 10
6.0316445499
 20
4.7177201552
 10
6.0172789847
 20
4.7024776366
 10
6.0039424365
 20
4.6888705973
  0
LWPOLYLINE
  5
247
100
AcDbEntity
  8
0
100
AcDbPolyline
 62
6
  6
CONTINUOUS
 90
15
 70
0
 10
6.2757342412
 20
5.0575983283
 10
6.2746844716
 20
5.0564188997
 10
6.2727485259
 20
5.0541500682
 10
6.2709735866
 20
5.0519566453
 10
6.2693803914
 20
5.049890416
 10
6.2679607868
 20
5.0479694133
 10
6.2666883939
 20
5.046183768
 10
6.2655245291
 20
5.0444994948
 10
6.2644337218
 20
5.0428798714
 10
6.263384619
 20
5.041288501
 10
6.2623438768
 20
5.039681452
 10
6.2612832737
 20
5.0380192112
 10
6.2601805254
 20
5.0362693759
 10
6.2590210234
 20
5.0344105554
 10
6.2564878173
 20
5.0303014635
  0
LINE
  5
248
100
AcDbEntity
  8
0
100
AcDbLine
 62
6
  6
CONTINUOUS
 10
6.2757342412
 20
5.0575983283
 11
6.2824483258
 21
5.0643546189
  0
LINE
  5
249
100
AcDbEntity
  8
0
100
AcDbLine
 62
6
  6
CONTINUOUS
 10
5.962953076
 20
4.6478812161
 11
6.0039423643
 21
4.6888705238
  0
LINE
  5
24A
100
AcDbEntity
  8
0
100
AcDbLine
 62
9
  6
CONTINUOUS
 10
5.2327177812
 20
3.7227739738
 11
4.6486477388
 21
3.1387039315
  0
LINE
  5
24B
100
AcDbEntity
  8
0
100
AcDbLine
 62
9
  6
CONTINUOUS
 10
6.0211421598
 20
4.5111983524
 11
6.6052122024
 21
5.095268395
  0
LINE
  5
24C
100
AcDbEntity
  8
0
100
AcDbLine
 62
6
  6
CONTINUOUS
 10
5.096042903
 20
3.7809710432
 11
5.055059123
 21
3.7399872793
  0
LINE
  5
24D
100
AcDbEntity
  8
0
100
AcDbLine
 62
6
  6
CONTINUOUS
 10
4.6795615149
 20
3.461467808
 11
4.6863433696
 21
3.4682049745
  0
LWPOLYLINE
  5
24E
100
AcDbEntity
  8
0
100
AcDbPolyline
 62
6
  6
CONTINUOUS
 90
7
 70
0
 10
5.055059123
 20
3.7399872793
 10
5.0421573524
 20
3.7273289978
 10
5.0276943149
 20
3.7136590599
 10
5.0127429957
 20
3.7000359448
 10
4.9972920262
 20
3.6864390041
 10
4.9813310164
 20
3.6728536312
 10
4.9648546402
 20
3.6592735913
  0
LINE
  5
24F
100
AcDbEntity
  8
0
100
AcDbLine
 62
9
  6
CONTINUOUS
 10
4.7371406509
 20
3.501709303
 11
4.7305845387
 21
3.4968542848
  0
LINE
  5
250
100
AcDbEntity
  8
0
100
AcDbLine
 62
9
  6
CONTINUOUS
 10
6.5166824714
 20
4.7322356776
 11
6.5232754025
 21
4.7371180416
  0
LINE
  5
251
100
AcDbEntity
  8
0
100
AcDbLine
 62
6
  6
CONTINUOUS
 10
6.3810746347
 20
4.6439157291
 11
6.3933172069
 21
4.652441821
  0
LINE
  5
252
100
AcDbEntity
  8
0
100
AcDbLine
 62
6
  6
CONTINUOUS
 10
4.8727863534
 20
3.5900573193
 11
4.8605443547
 21
3.5815316252
  0
LWPOLYLINE
  5
253
100
AcDbEntity
  8
0
100
AcDbPolyline
 62
6
  6
CONTINUOUS
 90
5
 70
0
 10
6.4247982098
 20
4.67379472
 10
6.4412175048
 20
4.6846332715
 10
6.4574634227
 20
4.6951730486
 10
6.4722673829
 20
4.7046314705
 10
6.4856451138
 20
4.7130663918
  0
LWPOLYLINE
  5
254
100
AcDbEntity
  8
0
100
AcDbPolyline
 62
6
  6
CONTINUOUS
 90
5
 70
0
 10
4.8290617753
 20
3.5601775397
 10
4.8126361595
 20
3.5493346882
 10
4.7963854085
 20
3.5387915219
 10
4.781576194
 20
3.5293293321
 10
4.7681929788
 20
3.5208903674
  0
LWPOLYLINE
  5
255
100
AcDbEntity
  8
0
100
AcDbPolyline
 62
6
  6
CONTINUOUS
 90
13
 70
0
 10
6.5462131833
 20
4.7502367181
 10
6.5479630186
 20
4.7513394663
 10
6.5496252594
 20
4.7524000694
 10
6.5512323084
 20
4.7534408116
 10
6.5528236787
 20
4.7544899144
 10
6.5544433022
 20
4.7555807217
 10
6.5561275753
 20
4.7567445865
 10
6.5579132207
 20
4.7580169795
 10
6.5598342233
 20
4.759436584
 10
6.5619004526
 20
4.7610297792
 10
6.5640938756
 20
4.7628047186
 10
6.566362707
 20
4.7647406642
 10
6.5675421342
 20
4.7657904325
  0
LWPOLYLINE
  5
256
100
AcDbEntity
  8
0
100
AcDbPolyline
 62
6
  6
CONTINUOUS
 90
3
 70
0
 10
6.4856451138
 20
4.7130663918
 10
6.497604114
 20
4.7205197111
 10
6.5081431204
 20
4.7270195282
  0
LINE
  5
257
100
AcDbEntity
  8
0
100
AcDbLine
 62
6
  6
CONTINUOUS
 10
6.542369996
 20
4.7478496705
 11
6.5462131833
 21
4.7502367181
  0
LINE
  5
258
100
AcDbEntity
  8
0
100
AcDbLine
 62
6
  6
CONTINUOUS
 10
6.5354988426
 20
4.743648175
 11
6.542369996
 21
4.7478496705
  0
LINE
  5
259
100
AcDbEntity
  8
0
100
AcDbLine
 62
6
  6
CONTINUOUS
 10
6.5081431204
 20
4.7270195282
 11
6.5354988426
 21
4.743648175
  0
LINE
  5
25A
100
AcDbEntity
  8
0
100
AcDbLine
 62
6
  6
CONTINUOUS
 10
6.5402715653
 20
3.4874056052
 11
6.5081757426
 21
3.5069289085
  0
LINE
  5
25B
100
AcDbEntity
  8
0
100
AcDbLine
 62
6
  6
CONTINUOUS
 10
6.5081757426
 20
3.5069289085
 11
6.4976314705
 21
3.5134328615
  0
LWPOLYLINE
  5
25C
100
AcDbEntity
  8
0
100
AcDbPolyline
 62
6
  6
CONTINUOUS
 90
6
 70
0
 10
6.4976314705
 20
3.5134328615
 10
6.4856669624
 20
3.5208903674
 10
6.4722837472
 20
3.5293293321
 10
6.4574745327
 20
3.5387915219
 10
6.4412237817
 20
3.5493346882
 10
6.4247980401
 20
3.5601776227
  0
LINE
  5
25D
100
AcDbEntity
  8
0
100
AcDbLine
 62
6
  6
CONTINUOUS
 10
6.3810777743
 20
3.5900544343
 11
6.3933138648
 21
3.5815333621
  0
LINE
  5
25E
100
AcDbEntity
  8
0
100
AcDbLine
 62
6
  6
CONTINUOUS
 10
4.8727821669
 20
4.6439178921
 11
4.8605458998
 21
4.6524390861
  0
LINE
  5
25F
100
AcDbEntity
  8
0
100
AcDbLine
 62
9
  6
CONTINUOUS
 10
4.7305845387
 20
4.7371180416
 11
4.7371775389
 21
4.7322356244
  0
LINE
  5
260
100
AcDbEntity
  8
0
100
AcDbLine
 62
9
  6
CONTINUOUS
 10
6.5232754025
 20
3.4968542848
 11
6.5167192903
 21
3.501709303
  0
LWPOLYLINE
  5
261
100
AcDbEntity
  8
0
100
AcDbPolyline
 62
6
  6
CONTINUOUS
 90
7
 70
0
 10
4.9596536728
 20
4.578898204
 10
4.9771151239
 20
4.5646347489
 10
4.9940222761
 20
4.5503529405
 10
5.0103735705
 20
4.5360518843
 10
5.0261731491
 20
4.5217218432
 10
5.0414275387
 20
4.5073457137
 10
5.0550450731
 20
4.4939990924
  0
LWPOLYLINE
  5
262
100
AcDbEntity
  8
0
100
AcDbPolyline
 62
6
  6
CONTINUOUS
 90
15
 70
0
 10
4.6863177461
 20
4.7657904875
 10
4.6874971784
 20
4.7647407129
 10
4.6897660004
 20
4.762804772
 10
4.6919594166
 20
4.7610298346
 10
4.694025643
 20
4.7594366382
 10
4.6959466462
 20
4.7580170301
 10
4.6977322946
 20
4.7567446323
 10
4.6994165724
 20
4.755580762
 10
4.701036202
 20
4.7544899486
 10
4.7026275798
 20
4.7534408392
 10
4.7042346376
 20
4.7524000898
 10
4.7058968883
 20
4.7513394791
 10
4.7076467344
 20
4.7502367229
 10
4.7095055662
 20
4.7490772129
 10
4.7136146813
 20
4.7465439911
  0
LINE
  5
263
100
AcDbEntity
  8
0
100
AcDbLine
 62
6
  6
CONTINUOUS
 10
4.6863177461
 20
4.7657904875
 11
4.6795615149
 21
4.7725045185
  0
LINE
  5
264
100
AcDbEntity
  8
0
100
AcDbLine
 62
6
  6
CONTINUOUS
 10
5.0960472506
 20
4.4529969357
 11
5.0550451495
 21
4.4939990173
  0
LINE
  5
265
100
AcDbEntity
  8
0
100
AcDbLine
 62
9
  6
CONTINUOUS
 10
6.02114216
 20
3.7227739738
 11
6.6052122024
 21
3.1387039315
  0
LINE
  5
266
100
AcDbEntity
  8
0
100
AcDbLine
 62
9
  6
CONTINUOUS
 10
4.6486477388
 20
5.095268395
 11
5.2327177807
 21
4.5111983531
  0
LINE
  5
267
100
AcDbEntity
  8
0
100
AcDbLine
 62
6
  6
CONTINUOUS
 10
5.9629453922
 20
3.5860987941
 11
6.0039288541
 21
3.5451153161
  0
LINE
  5
268
100
AcDbEntity
  8
0
100
AcDbLine
 62
6
  6
CONTINUOUS
 10
6.2824483258
 20
3.1696177076
 11
6.2757111593
 21
3.1763995622
  0
LWPOLYLINE
  5
269
100
AcDbEntity
  8
0
100
AcDbPolyline
 62
6
  6
CONTINUOUS
 90
7
 70
0
 10
6.0039288541
 20
3.5451153161
 10
6.0165871743
 20
3.5322135054
 10
6.0302571504
 20
3.5177504251
 10
6.0438803038
 20
3.5027990602
 10
6.0574772826
 20
3.4873480422
 10
6.0710626933
 20
3.4713869813
 10
6.0846427705
 20
3.4549105518
  0
LINE
  5
26A
100
AcDbEntity
  8
0
100
AcDbLine
 62
9
  6
CONTINUOUS
 10
6.2422068308
 20
3.2271968435
 11
6.247061849
 21
3.2206407313
  0
LINE
  5
26B
100
AcDbEntity
  8
0
100
AcDbLine
 62
9
  6
CONTINUOUS
 10
5.0116805094
 20
5.0067385949
 11
5.0067980922
 21
5.0133315952
  0
LINE
  5
26C
100
AcDbEntity
  8
0
100
AcDbLine
 62
6
  6
CONTINUOUS
 10
5.1000008013
 20
4.8711302522
 11
5.0914746098
 21
4.8833729697
  0
LINE
  5
26D
100
AcDbEntity
  8
0
100
AcDbLine
 62
6
  6
CONTINUOUS
 10
6.1538588136
 20
3.3628425474
 11
6.162384508
 21
3.3506005483
  0
LWPOLYLINE
  5
26E
100
AcDbEntity
  8
0
100
AcDbPolyline
 62
6
  6
CONTINUOUS
 90
5
 70
0
 10
5.0701214139
 20
4.9148544026
 10
5.0592828735
 20
4.9312736813
 10
5.0487431048
 20
4.9475195875
 10
5.0392846916
 20
4.9623235356
 10
5.0308497788
 20
4.9757012551
  0
LWPOLYLINE
  5
26F
100
AcDbEntity
  8
0
100
AcDbPolyline
 62
6
  6
CONTINUOUS
 90
5
 70
0
 10
6.1837385941
 20
3.319117968
 10
6.1945814456
 20
3.3026923521
 10
6.2051246119
 20
3.2864416011
 10
6.2145868017
 20
3.2716323866
 10
6.2230257664
 20
3.2582491714
  0
LWPOLYLINE
  5
270
100
AcDbEntity
  8
0
100
AcDbPolyline
 62
6
  6
CONTINUOUS
 90
13
 70
0
 10
4.9936794109
 20
5.0362693994
 10
4.9925766547
 20
5.0380192455
 10
4.991516044
 20
5.0396814962
 10
4.9904752946
 20
5.041288554
 10
4.9894261852
 20
5.0428799319
 10
4.9883353718
 20
5.0444995614
 10
4.9871715015
 20
5.0461838392
 10
4.9858991037
 20
5.0479694876
 10
4.9844794956
 20
5.0498904908
 10
4.9828862992
 20
5.0519567172
 10
4.9811113618
 20
5.0541501334
 10
4.9791754209
 20
5.0564189554
 10
4.978125647
 20
5.057598387
  0
LWPOLYLINE
  5
271
100
AcDbEntity
  8
0
100
AcDbPolyline
 62
6
  6
CONTINUOUS
 90
3
 70
0
 10
5.0308497788
 20
4.9757012551
 10
5.0233964672
 20
4.9876602458
 10
5.0168966561
 20
4.9981992455
  0
LINE
  5
272
100
AcDbEntity
  8
0
100
AcDbLine
 62
6
  6
CONTINUOUS
 10
4.9960664745
 20
5.0324261892
 11
4.9936794109
 21
5.0362693994
  0
LINE
  5
273
100
AcDbEntity
  8
0
100
AcDbLine
 62
6
  6
CONTINUOUS
 10
5.0002679914
 20
5.025555003
 11
4.9960664745
 21
5.0324261892
  0
LINE
  5
274
100
AcDbEntity
  8
0
100
AcDbLine
 62
6
  6
CONTINUOUS
 10
5.0168966561
 20
4.9981992455
 11
5.0002679914
 21
5.025555003
  0
LINE
  5
275
100
AcDbEntity
  8
0
100
AcDbLine
 62
6
  6
CONTINUOUS
 10
5.7569299706
 20
5.0782278763
 11
5.7569299706
 21
5.2220422531
  0
LWPOLYLINE
  5
276
100
AcDbEntity
  8
0
100
AcDbPolyline
 62
6
  6
CONTINUOUS
 90
3
 70
0
 10
6.2421792496
 20
5.0067382769
 10
6.2369633355
 20
4.998199313
 10
6.2304635184
 20
4.9876603067
  0
LINE
  5
277
100
AcDbEntity
  8
0
100
AcDbLine
 62
6
  6
CONTINUOUS
 10
6.2564878173
 20
5.0303014635
 11
6.2421794849
 21
5.006738664
  0
LWPOLYLINE
  5
278
100
AcDbEntity
  8
0
100
AcDbPolyline
 62
6
  6
CONTINUOUS
 90
6
 70
0
 10
6.2304635184
 20
4.9876603067
 10
6.2230101991
 20
4.9757013065
 10
6.2145752779
 20
4.9623235756
 10
6.2051168559
 20
4.9475196154
 10
6.1945770789
 20
4.9312736974
 10
6.1837384444
 20
4.9148542767
  0
LWPOLYLINE
  5
279
100
AcDbEntity
  8
0
100
AcDbPolyline
 62
6
  6
CONTINUOUS
 90
7
 70
0
 10
5.1647198435
 20
3.4493387971
 10
5.1790329255
 20
3.4668720848
 10
5.193363315
 20
3.4838458274
 10
5.2077125573
 20
3.5002593735
 10
5.2220912312
 20
3.5161178205
 10
5.2365175148
 20
3.5314287016
 10
5.2499142384
 20
3.5450984618
  0
LINE
  5
27A
100
AcDbEntity
  8
0
100
AcDbLine
 62
6
  6
CONTINUOUS
 10
6.5932097926
 20
4.7955596411
 11
6.5742984262
 21
4.7725045185
  0
LWPOLYLINE
  5
27B
100
AcDbEntity
  8
0
100
AcDbPolyline
 62
6
  6
CONTINUOUS
 90
15
 70
0
 10
4.9781487813
 20
3.1763995616
 10
4.9791978981
 20
3.1775790899
 10
4.9811364983
 20
3.1798528611
 10
4.9829126828
 20
3.1820499393
 10
4.9845050166
 20
3.1841172708
 10
4.9859216813
 20
3.1860364261
 10
4.9871897187
 20
3.187817875
 10
4.9883485177
 20
3.1894964775
 10
4.989433937
 20
3.1911095068
 10
4.990477594
 20
3.1926937882
 10
4.9915130713
 20
3.1942936756
 10
4.9925687213
 20
3.1959489433
 10
4.9936669603
 20
3.1976922492
 10
4.9948224758
 20
3.1995451486
 10
4.9973494125
 20
3.2036445685
  0
LINE
  5
27C
100
AcDbEntity
  8
0
100
AcDbLine
 62
6
  6
CONTINUOUS
 10
4.9781487813
 20
3.1763995616
 11
4.9714116153
 21
3.1696177076
  0
LINE
  5
27D
100
AcDbEntity
  8
0
100
AcDbLine
 62
6
  6
CONTINUOUS
 10
5.2909165673
 20
3.5861008124
 11
5.2499143131
 21
3.5450985377
  0
LINE
  5
27E
100
AcDbEntity
  8
0
100
AcDbLine
 62
6
  6
CONTINUOUS
 10
6.1578171476
 20
4.4530013926
 11
6.1987988087
 21
4.4939830383
  0
LINE
  5
27F
100
AcDbEntity
  8
0
100
AcDbLine
 62
6
  6
CONTINUOUS
 10
6.5742984262
 20
4.7725045185
 11
6.5675421342
 21
4.7657904325
  0
LWPOLYLINE
  5
280
100
AcDbEntity
  8
0
100
AcDbPolyline
 62
6
  6
CONTINUOUS
 90
7
 70
0
 10
6.1987988087
 20
4.4939830383
 10
6.2116247356
 20
4.5065683185
 10
6.2260067465
 20
4.5201658385
 10
6.2408731022
 20
4.5337180209
 10
6.2562343289
 20
4.5472445638
 10
6.2721000391
 20
4.5607593612
 10
6.2884748517
 20
4.5742681351
  0
LINE
  5
281
100
AcDbEntity
  8
0
100
AcDbLine
 62
6
  6
CONTINUOUS
 10
4.9714116153
 20
3.1696177076
 11
4.9483008454
 21
3.150665501
  0
LWPOLYLINE
  5
282
100
AcDbEntity
  8
0
100
AcDbPolyline
 62
6
  6
CONTINUOUS
 90
13
 70
0
 10
4.7076360565
 20
3.4837231529
 10
4.7058927506
 20
3.482624914
 10
4.704237483
 20
3.4815692639
 10
4.7026375956
 20
3.4805337867
 10
4.7010533141
 20
3.4794901296
 10
4.6994402849
 20
3.4784047103
 10
4.6977616823
 20
3.4772459113
 10
4.6959802335
 20
3.4759778739
 10
4.6940610781
 20
3.4745612092
 10
4.6919937467
 20
3.4729688755
 10
4.6897966685
 20
3.4711926909
 10
4.6875228972
 20
3.4692540907
 10
4.6863433696
 20
3.4682049745
  0
LWPOLYLINE
  5
283
100
AcDbEntity
  8
0
100
AcDbPolyline
 62
6
  6
CONTINUOUS
 90
3
 70
0
 10
4.7681929788
 20
3.5208903674
 10
4.7562284706
 20
3.5134328615
 10
4.7456841986
 20
3.5069289085
  0
LINE
  5
284
100
AcDbEntity
  8
0
100
AcDbLine
 62
6
  6
CONTINUOUS
 10
4.7114680997
 20
3.4861027855
 11
4.7076360565
 21
3.4837231529
  0
LINE
  5
285
100
AcDbEntity
  8
0
100
AcDbLine
 62
6
  6
CONTINUOUS
 10
4.7183282514
 20
3.4902974812
 11
4.7114680997
 21
3.4861027855
  0
LINE
  5
286
100
AcDbEntity
  8
0
100
AcDbLine
 62
6
  6
CONTINUOUS
 10
4.7456841986
 20
3.5069289085
 11
4.73019672
 21
3.4974942363
  0
LINE
  5
287
100
AcDbEntity
  8
0
100
AcDbLine
 62
6
  6
CONTINUOUS
 10
4.73019672
 20
3.4974942363
 11
4.7183282514
 21
3.4902974812
  0
LWPOLYLINE
  5
288
100
AcDbEntity
  8
0
100
AcDbPolyline
 62
6
  6
CONTINUOUS
 90
3
 70
0
 10
4.737177926
 20
4.7322353891
 10
4.7457168883
 20
4.7270194777
 10
4.756255888
 20
4.7205196666
  0
LINE
  5
289
100
AcDbEntity
  8
0
100
AcDbLine
 62
6
  6
CONTINUOUS
 10
4.7136146813
 20
4.7465439911
 11
4.7371775389
 21
4.7322356244
  0
LWPOLYLINE
  5
28A
100
AcDbEntity
  8
0
100
AcDbPolyline
 62
6
  6
CONTINUOUS
 90
6
 70
0
 10
4.756255888
 20
4.7205196666
 10
4.7682148787
 20
4.713066355
 10
4.7815925982
 20
4.7046314422
 10
4.7963965464
 20
4.695173029
 10
4.8126424525
 20
4.6846332603
 10
4.829061857
 20
4.6737946368
  0
LWPOLYLINE
  5
28B
100
AcDbEntity
  8
0
100
AcDbPolyline
 62
6
  6
CONTINUOUS
 90
7
 70
0
 10
6.2945772729
 20
3.6547760874
 10
6.2770439972
 20
3.6690891611
 10
6.2600702663
 20
3.6834195421
 10
6.2436567312
 20
3.6977687758
 10
6.2277982947
 20
3.7121474411
 10
6.2124874232
 20
3.726573716
 10
6.1988176722
 20
3.7399704309
  0
LINE
  5
28C
100
AcDbEntity
  8
0
100
AcDbLine
 62
6
  6
CONTINUOUS
 10
4.9483862228
 20
5.0832441595
 11
4.9714116153
 21
5.0643546189
  0
LWPOLYLINE
  5
28D
100
AcDbEntity
  8
0
100
AcDbPolyline
 62
6
  6
CONTINUOUS
 90
15
 70
0
 10
6.5675165722
 20
3.4682049739
 10
6.5663370439
 20
3.4692540907
 10
6.5640632727
 20
3.4711926909
 10
6.5618661945
 20
3.4729688755
 10
6.559798863
 20
3.4745612092
 10
6.5578797077
 20
3.4759778739
 10
6.5560982588
 20
3.4772459113
 10
6.5544196563
 20
3.4784047103
 10
6.552806627
 20
3.4794901296
 10
6.5512223456
 20
3.4805337867
 10
6.5496224582
 20
3.4815692639
 10
6.5479671905
 20
3.482624914
 10
6.5462238846
 20
3.4837231529
 10
6.5443709852
 20
3.4848786684
 10
6.5402715653
 20
3.4874056052
  0
LINE
  5
28E
100
AcDbEntity
  8
0
100
AcDbLine
 62
6
  6
CONTINUOUS
 10
6.5675165722
 20
3.4682049739
 11
6.5742984262
 21
3.461467808
  0
LINE
  5
28F
100
AcDbEntity
  8
0
100
AcDbLine
 62
6
  6
CONTINUOUS
 10
6.1578202242
 20
3.7809678572
 11
6.1988175963
 21
3.7399705055
  0
LINE
  5
290
100
AcDbEntity
  8
0
100
AcDbLine
 62
6
  6
CONTINUOUS
 10
5.2909144131
 20
4.6478736683
 11
5.2499331427
 21
4.6888549541
  0
LINE
  5
291
100
AcDbEntity
  8
0
100
AcDbLine
 62
6
  6
CONTINUOUS
 10
4.9714116153
 20
5.0643546189
 11
4.978125647
 21
5.057598387
  0
LWPOLYLINE
  5
292
100
AcDbEntity
  8
0
100
AcDbPolyline
 62
6
  6
CONTINUOUS
 90
7
 70
0
 10
5.2499331427
 20
4.6888549541
 10
5.2373284359
 20
4.7017010406
 10
5.2237115066
 20
4.7161047349
 10
5.2101399225
 20
4.7309942628
 10
5.1965940385
 20
4.746380066
 10
5.1830600505
 20
4.7622716398
 10
5.1695323443
 20
4.7786734678
  0
LINE
  5
293
100
AcDbEntity
  8
0
100
AcDbLine
 62
6
  6
CONTINUOUS
 10
6.5742984262
 20
3.461467808
 11
6.5932506222
 21
3.4383570525
  0
LWPOLYLINE
  5
294
100
AcDbEntity
  8
0
100
AcDbPolyline
 62
6
  6
CONTINUOUS
 90
13
 70
0
 10
6.2601929809
 20
3.1976922492
 10
6.2612912198
 20
3.1959489433
 10
6.2623468699
 20
3.1942936756
 10
6.2633823471
 20
3.1926937882
 10
6.2644260042
 20
3.1911095068
 10
6.2655114235
 20
3.1894964775
 10
6.2666702225
 20
3.187817875
 10
6.2679382599
 20
3.1860364261
 10
6.2693549246
 20
3.1841172708
 10
6.2709472583
 20
3.1820499393
 10
6.2727234429
 20
3.1798528611
 10
6.2746620431
 20
3.1775790899
 10
6.2757111593
 20
3.1763995622
  0
LWPOLYLINE
  5
295
100
AcDbEntity
  8
0
100
AcDbPolyline
 62
6
  6
CONTINUOUS
 90
3
 70
0
 10
6.2230257664
 20
3.2582491714
 10
6.2304832723
 20
3.2462846633
 10
6.2369872253
 20
3.2357403912
  0
LINE
  5
296
100
AcDbEntity
  8
0
100
AcDbLine
 62
6
  6
CONTINUOUS
 10
6.2578133483
 20
3.2015242924
 11
6.2601929809
 21
3.1976922492
  0
LINE
  5
297
100
AcDbEntity
  8
0
100
AcDbLine
 62
6
  6
CONTINUOUS
 10
6.2536186527
 20
3.208384444
 11
6.2578133483
 21
3.2015242924
  0
LINE
  5
298
100
AcDbEntity
  8
0
100
AcDbLine
 62
6
  6
CONTINUOUS
 10
6.2369872253
 20
3.2357403912
 11
6.2464218975
 21
3.2202529126
  0
LINE
  5
299
100
AcDbEntity
  8
0
100
AcDbLine
 62
6
  6
CONTINUOUS
 10
6.2464218975
 20
3.2202529126
 11
6.2536186527
 21
3.208384444
  0
LWPOLYLINE
  5
29A
100
AcDbEntity
  8
0
100
AcDbPolyline
 62
6
  6
CONTINUOUS
 90
9
 70
0
 10
6.5930731998
 20
4.7953343684
 10
6.6003135653
 20
4.8055938448
 10
6.6095237574
 20
4.8201700456
 10
6.6178142519
 20
4.8352720163
 10
6.6252050577
 20
4.8509529985
 10
6.6316998869
 20
4.8672778072
 10
6.6372263251
 20
4.8842638003
 10
6.6416552879
 20
4.9018044412
 10
6.6449381399
 20
4.9197346657
  0
LWPOLYLINE
  5
29B
100
AcDbEntity
  8
0
100
AcDbPolyline
 62
6
  6
CONTINUOUS
 90
6
 70
0
 10
5.8873473911
 20
4.6187026991
 10
5.88247898
 20
4.6190602577
 10
5.8740158125
 20
4.6202569815
 10
5.8660426335
 20
4.6220744838
 10
5.8587277237
 20
4.6243642114
 10
5.8524522242
 20
4.6268373544
  0
LWPOLYLINE
  5
29C
100
AcDbEntity
  8
0
100
AcDbPolyline
 62
6
  6
CONTINUOUS
 90
9
 70
0
 10
4.9485812506
 20
5.0831297722
 10
4.9383227035
 20
5.0903694784
 10
4.9237464885
 20
5.0995797138
 10
4.9086445043
 20
5.1078702475
 10
4.8929635074
 20
5.1152610887
 10
4.8766386818
 20
5.121755951
 10
4.8596526657
 20
5.1272824217
 10
4.8421119957
 20
5.1317114147
 10
4.8241817371
 20
5.1349942923
  0
LWPOLYLINE
  5
29D
100
AcDbEntity
  8
0
100
AcDbPolyline
 62
6
  6
CONTINUOUS
 90
8
 70
0
 10
6.6455836151
 20
4.9270212043
 10
6.6466646705
 20
4.9373609064
 10
6.6475953811
 20
4.9537188434
 10
6.6475857533
 20
4.9698417208
 10
6.646669648
 20
4.9857934074
 10
6.6448552298
 20
5.0016439454
 10
6.6421247936
 20
5.0174625732
 10
6.6384343576
 20
5.0333140298
  0
LWPOLYLINE
  5
29E
100
AcDbEntity
  8
0
100
AcDbPolyline
 62
6
  6
CONTINUOUS
 90
8
 70
0
 10
6.6449381399
 20
4.9197346657
 10
6.6470572292
 20
4.9379335993
 10
6.6479714035
 20
4.9564953275
 10
6.6476064548
 20
4.9754536273
 10
6.6459424198
 20
4.994627369
 10
6.6430421041
 20
5.0133738164
 10
6.6391334868
 20
5.0309134993
 10
6.6344709616
 20
5.0470763792
  0
LINE
  5
29F
100
AcDbEntity
  8
0
100
AcDbLine
 62
9
  6
CONTINUOUS
 10
6.1986974988
 20
3.7400905825
 11
6.0038255513
 21
3.545218635
  0
LWPOLYLINE
  5
2A0
100
AcDbEntity
  8
0
100
AcDbPolyline
 62
6
  6
CONTINUOUS
 90
10
 70
0
 10
6.4478377602
 20
5.1371101138
 10
6.4296439389
 20
5.1349891633
 10
6.4117189946
 20
5.131705124
 10
6.3941831484
 20
5.1272754485
 10
6.3772013943
 20
5.1217487607
 10
6.360880368
 20
5.1152541087
 10
6.3452033548
 20
5.1078640927
 10
6.3301055367
 20
5.0995750418
 10
6.315533624
 20
5.0903670412
 10
6.3052785604
 20
5.0831296762
  0
LWPOLYLINE
  5
2A1
100
AcDbEntity
  8
0
100
AcDbPolyline
 62
6
  6
CONTINUOUS
 90
8
 70
0
 10
4.8168944183
 20
5.1356398707
 10
4.8065559162
 20
5.1367208039
 10
4.7901978702
 20
5.1376515576
 10
4.7740748896
 20
5.1376419598
 10
4.7581231045
 20
5.1367258731
 10
4.7422724712
 20
5.134911463
 10
4.7264537494
 20
5.1321810244
 10
4.710602199
 20
5.1284905754
  0
LWPOLYLINE
  5
2A2
100
AcDbEntity
  8
0
100
AcDbPolyline
 62
6
  6
CONTINUOUS
 90
8
 70
0
 10
4.8241817371
 20
5.1349942923
 10
4.8059827687
 20
5.1371134023
 10
4.7874210059
 20
5.1380275932
 10
4.7684626694
 20
5.1376626561
 10
4.7492888871
 20
5.1359986272
 10
4.7305423939
 20
5.1330983112
 10
4.7130026714
 20
5.1291896889
 10
4.6968397546
 20
5.1245271543
  0
LINE
  5
2A3
100
AcDbEntity
  8
0
100
AcDbLine
 62
9
  6
CONTINUOUS
 10
6.0038255513
 20
4.6887536915
 11
6.1986974988
 21
4.4938817439
  0
LWPOLYLINE
  5
2A4
100
AcDbEntity
  8
0
100
AcDbPolyline
 62
6
  6
CONTINUOUS
 90
10
 70
0
 10
6.6470538625
 20
3.2960790763
 10
6.6449328498
 20
3.3142730018
 10
6.6416487338
 20
3.3321980483
 10
6.6372189677
 20
3.3497339822
 10
6.6316921823
 20
3.3667158051
 10
6.6251974308
 20
3.3830368825
 10
6.6178073088
 20
3.3987139396
 10
6.6095181403
 20
3.4138117981
 10
6.6003100099
 20
3.4283837534
 10
6.5930728368
 20
3.4386384501
  0
LINE
  5
2A5
100
AcDbEntity
  8
0
100
AcDbLine
 62
9
  6
CONTINUOUS
 10
6.6340715662
 20
3.1858152898
 11
6.6340812603
 21
3.1858533139
  0
LWPOLYLINE
  5
2A6
100
AcDbEntity
  8
0
100
AcDbPolyline
 62
6
  6
CONTINUOUS
 90
7
 70
0
 10
6.6344709221
 20
3.1868958239
 10
6.639148476
 20
3.2031172718
 10
6.6430540598
 20
3.220661639
 10
6.6459495535
 20
3.2394041342
 10
6.6476092063
 20
3.2585706877
 10
6.6479707187
 20
3.2775225623
 10
6.6470538625
 20
3.2960790763
  0
LWPOLYLINE
  5
2A7
100
AcDbEntity
  8
0
100
AcDbPolyline
 62
6
  6
CONTINUOUS
 90
9
 70
0
 10
6.6340715662
 20
3.1858152898
 10
6.6384552415
 20
3.2007374964
 10
6.6421384985
 20
3.2165775523
 10
6.6448633138
 20
3.2323848392
 10
6.6466735219
 20
3.2482240742
 10
6.6475867363
 20
3.2641644538
 10
6.6475947522
 20
3.2802759961
 10
6.6466637167
 20
3.2966225093
 10
6.6455832092
 20
3.3069544173
  0
LINE
  5
2A8
100
AcDbEntity
  8
0
100
AcDbLine
 62
9
  6
CONTINUOUS
 10
6.6344699292
 20
3.1868927262
 11
6.6344709221
 21
3.1868958239
  0
LINE
  5
2A9
100
AcDbEntity
  8
0
100
AcDbLine
 62
6
  6
CONTINUOUS
 10
6.632691224
 20
3.1816952379
 11
6.6344699292
 21
3.1868927262
  0
LINE
  5
2AA
100
AcDbEntity
  8
0
100
AcDbLine
 62
6
  6
CONTINUOUS
 10
6.5581008454
 20
3.1098445681
 11
6.5660895482
 21
3.1127633773
  0
LWPOLYLINE
  5
2AB
100
AcDbEntity
  8
0
100
AcDbPolyline
 62
6
  6
CONTINUOUS
 90
7
 70
0
 10
6.5570233302
 20
3.1094461798
 10
6.5623499947
 20
3.1112721213
 10
6.5684551515
 20
3.1136932733
 10
6.5740566138
 20
3.1162794766
 10
6.5793548993
 20
3.1190938867
 10
6.5844796106
 20
3.122171865
 10
6.589619195
 20
3.1255831534
  0
LINE
  5
2AC
100
AcDbEntity
  8
0
100
AcDbLine
 62
9
  6
CONTINUOUS
 10
6.5570233302
 20
3.1094461798
 11
6.5570201866
 21
3.1094451722
  0
LINE
  5
2AD
100
AcDbEntity
  8
0
100
AcDbLine
 62
6
  6
CONTINUOUS
 10
6.5432577361
 20
3.1054817495
 11
6.5581008447
 21
3.1098445678
  0
LINE
  5
2AE
100
AcDbEntity
  8
0
100
AcDbLine
 62
9
  6
CONTINUOUS
 10
4.6957590965
 20
5.1241277586
 11
4.6957971212
 21
5.1241374529
  0
LINE
  5
2AF
100
AcDbEntity
  8
0
100
AcDbLine
 62
9
  6
CONTINUOUS
 10
5.4969299706
 20
5.2220422531
 11
5.7569299706
 21
5.2220422531
  0
LINE
  5
2B0
100
AcDbEntity
  8
0
100
AcDbLine
 62
9
  6
CONTINUOUS
 10
5.5366258231
 20
5.2777948305
 11
5.717234118
 21
5.2777948305
  0
LINE
  5
2B1
100
AcDbEntity
  8
0
100
AcDbLine
 62
9
  6
CONTINUOUS
 10
6.558100844
 20
5.1241277588
 11
6.5580628199
 21
5.1241374529
  0
LWPOLYLINE
  5
2B2
100
AcDbEntity
  8
0
100
AcDbPolyline
 62
6
  6
CONTINUOUS
 90
7
 70
0
 10
6.5570203099
 20
5.1245271148
 10
6.5407989729
 20
5.1292046402
 10
6.5232547243
 20
5.133110209
 10
6.5045123664
 20
5.1360057019
 10
6.4853459348
 20
5.1376653732
 10
6.4663941701
 20
5.1380269204
 10
6.4478377602
 20
5.1371101138
  0
LWPOLYLINE
  5
2B3
100
AcDbEntity
  8
0
100
AcDbPolyline
 62
6
  6
CONTINUOUS
 90
9
 70
0
 10
6.558100844
 20
5.1241277588
 10
6.5431785348
 20
5.1285114612
 10
6.5273383777
 20
5.1321947323
 10
6.5115309895
 20
5.1349195501
 10
6.4956916515
 20
5.1367297495
 10
6.4797511656
 20
5.1376429439
 10
6.463639512
 20
5.1376509273
 10
6.4472928811
 20
5.1367198453
 10
6.4369657969
 20
5.1356399045
  0
LINE
  5
2B4
100
AcDbEntity
  8
0
100
AcDbLine
 62
9
  6
CONTINUOUS
 10
6.5570234076
 20
5.1245261219
 11
6.5570203099
 21
5.1245271148
  0
LINE
  5
2B5
100
AcDbEntity
  8
0
100
AcDbLine
 62
6
  6
CONTINUOUS
 10
6.5622208959
 20
5.1227474167
 11
6.5570234076
 21
5.1245261219
  0
LINE
  5
2B6
100
AcDbEntity
  8
0
100
AcDbLine
 62
6
  6
CONTINUOUS
 10
6.6340715657
 20
5.048157038
 11
6.6311527565
 21
5.0561457409
  0
LWPOLYLINE
  5
2B7
100
AcDbEntity
  8
0
100
AcDbPolyline
 62
6
  6
CONTINUOUS
 90
7
 70
0
 10
6.634469954
 20
5.0470795229
 10
6.6326440125
 20
5.0524061873
 10
6.6302228605
 20
5.0585113441
 10
6.6276366572
 20
5.0641128064
 10
6.6248222472
 20
5.069411092
 10
6.6217442688
 20
5.0745358032
 10
6.6183329804
 20
5.0796753876
  0
LINE
  5
2B8
100
AcDbEntity
  8
0
100
AcDbLine
 62
9
  6
CONTINUOUS
 10
6.634469954
 20
5.0470795229
 11
6.6344709616
 21
5.0470763792
  0
LINE
  5
2B9
100
AcDbEntity
  8
0
100
AcDbLine
 62
6
  6
CONTINUOUS
 10
6.6384343576
 20
5.0333140298
 11
6.634071566
 21
5.0481570373
  0
LINE
  5
2BA
100
AcDbEntity
  8
0
100
AcDbLine
 62
9
  6
CONTINUOUS
 10
6.634071566
 20
5.0481570373
 11
6.6340812603
 21
5.0481190126
  0
LWPOLYLINE
  5
2BB
100
AcDbEntity
  8
0
100
AcDbPolyline
 62
6
  6
CONTINUOUS
 90
3
 70
0
 10
6.6271693175
 20
3.1690772519
 10
6.6311949437
 20
3.177930368
 10
6.6340715655
 20
3.1858152877
  0
LWPOLYLINE
  5
2BC
100
AcDbEntity
  8
0
100
AcDbPolyline
 62
6
  6
CONTINUOUS
 90
3
 70
0
 10
6.6170290425
 20
3.1525127199
 10
6.6224356262
 20
3.1605862606
 10
6.6271693175
 20
3.1690772519
  0
LWPOLYLINE
  5
2BD
100
AcDbEntity
  8
0
100
AcDbPolyline
 62
6
  6
CONTINUOUS
 90
7
 70
0
 10
6.6151983633
 20
3.1500154681
 10
6.6183984541
 20
3.1543908624
 10
6.6218081868
 20
3.159537601
 10
6.6248832098
 20
3.1646689317
 10
6.6276931903
 20
3.1699736157
 10
6.6302746884
 20
3.1755820537
 10
6.632691224
 20
3.1816952379
  0
LINE
  5
2BE
100
AcDbEntity
  8
0
100
AcDbLine
 62
6
  6
CONTINUOUS
 10
6.6109847791
 20
3.1449119276
 11
6.6170290425
 21
3.1525127199
  0
LINE
  5
2BF
100
AcDbEntity
  8
0
100
AcDbLine
 62
6
  6
CONTINUOUS
 10
6.6052122024
 20
3.1387039315
 11
6.6109847791
 21
3.1449119276
  0
LWPOLYLINE
  5
2C0
100
AcDbEntity
  8
0
100
AcDbPolyline
 62
6
  6
CONTINUOUS
 90
3
 70
0
 10
6.5914946529
 20
3.1269538023
 10
6.5990890488
 20
3.1330047801
 10
6.6052122024
 20
3.1387039315
  0
LINE
  5
2C1
100
AcDbEntity
  8
0
100
AcDbLine
 62
6
  6
CONTINUOUS
 10
6.589619195
 20
3.1255831534
 11
6.5939033169
 21
3.1287198095
  0
LINE
  5
2C2
100
AcDbEntity
  8
0
100
AcDbLine
 62
6
  6
CONTINUOUS
 10
6.5834264486
 20
3.1215396935
 11
6.5914946529
 21
3.1269538023
  0
LWPOLYLINE
  5
2C3
100
AcDbEntity
  8
0
100
AcDbPolyline
 62
6
  6
CONTINUOUS
 90
3
 70
0
 10
6.5660895482
 20
3.1127633773
 10
6.5749396644
 20
3.1167977887
 10
6.5834264486
 20
3.1215396935
  0
LWPOLYLINE
  5
2C4
100
AcDbEntity
  8
0
100
AcDbPolyline
 62
6
  6
CONTINUOUS
 90
3
 70
0
 10
6.5748388819
 20
5.1172255101
 10
6.5659857658
 20
5.1212511363
 10
6.5581008461
 20
5.1241277581
  0
LWPOLYLINE
  5
2C5
100
AcDbEntity
  8
0
100
AcDbPolyline
 62
6
  6
CONTINUOUS
 90
3
 70
0
 10
6.5914034139
 20
5.1070852352
 10
6.5833298732
 20
5.1124918189
 10
6.5748388819
 20
5.1172255101
  0
LWPOLYLINE
  5
2C6
100
AcDbEntity
  8
0
100
AcDbPolyline
 62
6
  6
CONTINUOUS
 90
7
 70
0
 10
6.5939018459
 20
5.1052536483
 10
6.5895252714
 20
5.1084546468
 10
6.5843785328
 20
5.1118643794
 10
6.5792472021
 20
5.1149394024
 10
6.5739425181
 20
5.117749383
 10
6.5683340801
 20
5.120330881
 10
6.5622208959
 20
5.1227474167
  0
LINE
  5
2C7
100
AcDbEntity
  8
0
100
AcDbLine
 62
6
  6
CONTINUOUS
 10
6.5990042062
 20
5.1010409718
 11
6.5914034139
 21
5.1070852352
  0
LINE
  5
2C8
100
AcDbEntity
  8
0
100
AcDbLine
 62
6
  6
CONTINUOUS
 10
6.6052122024
 20
5.095268395
 11
6.5990042062
 21
5.1010409718
  0
LWPOLYLINE
  5
2C9
100
AcDbEntity
  8
0
100
AcDbPolyline
 62
6
  6
CONTINUOUS
 90
3
 70
0
 10
6.6169623315
 20
5.0815508456
 10
6.6109113537
 20
5.0891452414
 10
6.6052122024
 20
5.095268395
  0
LINE
  5
2CA
100
AcDbEntity
  8
0
100
AcDbLine
 62
6
  6
CONTINUOUS
 10
6.6183329804
 20
5.0796753876
 11
6.6151957241
 21
5.08396029
  0
LINE
  5
2CB
100
AcDbEntity
  8
0
100
AcDbLine
 62
6
  6
CONTINUOUS
 10
6.6223764403
 20
5.0734826412
 11
6.6169623315
 21
5.0815508456
  0
LWPOLYLINE
  5
2CC
100
AcDbEntity
  8
0
100
AcDbPolyline
 62
6
  6
CONTINUOUS
 90
3
 70
0
 10
6.6311527565
 20
5.0561457409
 10
6.6271183451
 20
5.0649958571
 10
6.6223764403
 20
5.0734826412
  0
ARC
  5
2CD
100
AcDbEntity
  8
0
100
AcDbCircle
 62
6
  6
CONTINUOUS
 10
2.7249937504
 20
1.4949223505
 40
3.8121838997
100
AcDbArc
 50
56.8052716907
 51
57.6863641071
  0
ARC
  5
2CE
100
AcDbEntity
  8
0
100
AcDbCircle
 62
6
  6
CONTINUOUS
 10
3.3006228607
 20
2.3794309666
 40
2.7568642311
100
AcDbArc
 50
56.6359992049
 51
56.7520383602
  0
ARC
  5
2CF
100
AcDbEntity
  8
0
100
AcDbCircle
 62
6
  6
CONTINUOUS
 10
3.8985925176
 20
1.7965368675
 40
2.7459433913
100
AcDbArc
 50
33.2500298186
 51
33.3878607395
  0
ARC
  5
2D0
100
AcDbEntity
  8
0
100
AcDbCircle
 62
6
  6
CONTINUOUS
 10
4.0712913365
 20
1.9105315611
 40
2.5390142982
100
AcDbArc
 50
33.3845955365
 51
33.6954785801
  0
ARC
  5
2D1
100
AcDbEntity
  8
0
100
AcDbCircle
 62
6
  6
CONTINUOUS
 10
3.4325537377
 20
2.5794321985
 40
2.5172683066
100
AcDbArc
 50
56.3048865605
 51
56.6404586459
  0
ARC
  5
2D2
100
AcDbEntity
  8
0
100
AcDbCircle
 62
6
  6
CONTINUOUS
 10
3.5581765311
 20
2.7673088398
 40
2.2912624534
100
AcDbArc
 50
55.3608258381
 51
56.3050312428
  0
ARC
  5
2D3
100
AcDbEntity
  8
0
100
AcDbCircle
 62
6
  6
CONTINUOUS
 10
4.3046116963
 20
2.0669010394
 40
2.2581417903
100
AcDbArc
 50
33.6859203071
 51
34.6440185139
  0
ARC
  5
2D4
100
AcDbEntity
  8
0
100
AcDbCircle
 62
6
  6
CONTINUOUS
 10
4.8804320855
 20
3.2703141614
 40
0.2739960439
100
AcDbArc
 50
197.7237455211
 51
197.9541434107
  0
ARC
  5
2D5
100
AcDbEntity
  8
0
100
AcDbCircle
 62
6
  6
CONTINUOUS
 10
4.7802169568
 20
3.3703617131
 40
0.273863
100
AcDbArc
 50
252.0458566629
 51
252.2757857691
  0
ARC
  5
2D6
100
AcDbEntity
  8
0
100
AcDbCircle
 62
6
  6
CONTINUOUS
 10
4.7350165022
 20
3.2269918486
 40
0.1236645062
100
AcDbArc
 50
234.4127365292
 51
235.7617171761
  0
ARC
  5
2D7
100
AcDbEntity
  8
0
100
AcDbCircle
 62
6
  6
CONTINUOUS
 10
4.735106654
 20
3.2237962
 40
0.1214342553
100
AcDbArc
 50
214.2366917178
 51
215.6470514359
  0
ARC
  5
2D8
100
AcDbEntity
  8
0
100
AcDbCircle
 62
6
  6
CONTINUOUS
 10
4.7301855667
 20
3.2201902458
 40
0.1153219162
100
AcDbArc
 50
233.5669767156
 51
234.3980911753
  0
ARC
  5
2D9
100
AcDbEntity
  8
0
100
AcDbCircle
 62
6
  6
CONTINUOUS
 10
4.729333578
 20
3.2196592489
 40
0.1143319484
100
AcDbArc
 50
215.6484117588
 51
216.4827439869
  0
ARC
  5
2DA
100
AcDbEntity
  8
0
100
AcDbCircle
 62
6
  6
CONTINUOUS
 10
4.7275912442
 20
3.2166695185
 40
0.110948586
100
AcDbArc
 50
232.2975192488
 51
233.5651007605
  0
ARC
  5
2DB
100
AcDbEntity
  8
0
100
AcDbCircle
 62
6
  6
CONTINUOUS
 10
4.7260467982
 20
3.217218933
 40
0.1102382949
100
AcDbArc
 50
216.4786660333
 51
217.7073503664
  0
ARC
  5
2DC
100
AcDbEntity
  8
0
100
AcDbCircle
 62
6
  6
CONTINUOUS
 10
4.7260389261
 20
3.214646198
 40
0.1083984036
100
AcDbArc
 50
231.3445757149
 51
232.2926591162
  0
ARC
  5
2DD
100
AcDbEntity
  8
0
100
AcDbCircle
 62
6
  6
CONTINUOUS
 10
4.7244519359
 20
3.2159865411
 40
0.1082227614
100
AcDbArc
 50
217.7075952333
 51
218.6598279894
  0
ARC
  5
2DE
100
AcDbEntity
  8
0
100
AcDbCircle
 62
6
  6
CONTINUOUS
 10
4.7271499719
 20
3.2118859876
 40
0.1066854276
100
AcDbArc
 50
243.7158571092
 51
244.6314542388
  0
ARC
  5
2DF
100
AcDbEntity
  8
0
100
AcDbCircle
 62
6
  6
CONTINUOUS
 10
4.7217065751
 20
3.2171465571
 40
0.1065485521
100
AcDbArc
 50
205.3621490944
 51
206.3117674088
  0
ARC
  5
2E0
100
AcDbEntity
  8
0
100
AcDbCircle
 62
9
  6
CONTINUOUS
 10
5.0252783781
 20
3.8516621935
 40
0.1000536799
100
AcDbArc
 50
1.2258826477
 51
23.7954835275
  0
ARC
  5
2E1
100
AcDbEntity
  8
0
100
AcDbCircle
 62
9
  6
CONTINUOUS
 10
5.0253345209
 20
3.8516776247
 40
0.0999965008
100
AcDbArc
 50
314.9995214051
 51
1.217731158
  0
ARC
  5
2E2
100
AcDbEntity
  8
0
100
AcDbCircle
 62
9
  6
CONTINUOUS
 10
5.3616268434
 20
3.5154189446
 40
0.0999698615
100
AcDbArc
 50
68.8226361198
 51
135.0017563198
  0
ARC
  5
2E3
100
AcDbEntity
  8
0
100
AcDbCircle
 62
9
  6
CONTINUOUS
 10
5.3618601622
 20
3.5159174315
 40
0.0994214552
100
AcDbArc
 50
66.2001290716
 51
68.8442358644
  0
ARC
  5
2E4
100
AcDbEntity
  8
0
100
AcDbCircle
 62
9
  6
CONTINUOUS
 10
4.7004765985
 20
3.1207647622
 40
0.0118894836
100
AcDbArc
 50
246.9184695657
 51
252.172132362
  0
ARC
  5
2E5
100
AcDbEntity
  8
0
100
AcDbCircle
 62
9
  6
CONTINUOUS
 10
4.630708488
 20
3.1905327603
 40
0.0118893964
100
AcDbArc
 50
197.8274552803
 51
203.0809554661
  0
ARC
  5
2E6
100
AcDbEntity
  8
0
100
AcDbCircle
 62
9
  6
CONTINUOUS
 10
4.6301411037
 20
3.1903409938
 40
0.01129055
100
AcDbArc
 50
195.2929279881
 51
197.7657777585
  0
ARC
  5
2E7
100
AcDbEntity
  8
0
100
AcDbCircle
 62
9
  6
CONTINUOUS
 10
4.700284717
 20
3.120197028
 40
0.0112902688
100
AcDbArc
 50
252.2335563176
 51
254.713990135
  0
ARC
  5
2E8
100
AcDbEntity
  8
0
100
AcDbCircle
 62
9
  6
CONTINUOUS
 10
4.7002084736
 20
3.1199207787
 40
0.0110036921
100
AcDbArc
 50
254.7177203744
 51
258.2009289717
  0
ARC
  5
2E9
100
AcDbEntity
  8
0
100
AcDbCircle
 62
6
  6
CONTINUOUS
 10
3.5768448693
 20
5.4393044041
 40
2.25814175
100
AcDbArc
 50
303.6859203
 51
304.6440184876
  0
ARC
  5
2EA
100
AcDbEntity
  8
0
100
AcDbCircle
 62
6
  6
CONTINUOUS
 10
3.0049567502
 20
7.0188643845
 40
3.8120763328
100
AcDbArc
 50
326.8051896375
 51
327.6863729809
  0
ARC
  5
2EB
100
AcDbEntity
  8
0
100
AcDbCircle
 62
6
  6
CONTINUOUS
 10
3.8889838153
 20
6.4435499444
 40
2.757331915
100
AcDbArc
 50
326.6366792653
 51
326.7519406373
  0
ARC
  5
2EC
100
AcDbEntity
  8
0
100
AcDbCircle
 62
6
  6
CONTINUOUS
 10
3.3064808551
 20
5.8453233419
 40
2.7459430631
100
AcDbArc
 50
303.250029735
 51
303.3878613183
  0
ARC
  5
2ED
100
AcDbEntity
  8
0
100
AcDbCircle
 62
6
  6
CONTINUOUS
 10
3.4204754716
 20
5.6726246422
 40
2.539014112
100
AcDbArc
 50
303.3845961333
 51
303.6954785849
  0
ARC
  5
2EE
100
AcDbEntity
  8
0
100
AcDbCircle
 62
6
  6
CONTINUOUS
 10
4.0891789235
 20
6.3114934302
 40
2.5175049737
100
AcDbArc
 50
326.3048937415
 51
326.641164564
  0
ARC
  5
2EF
100
AcDbEntity
  8
0
100
AcDbCircle
 62
6
  6
CONTINUOUS
 10
4.2772735854
 20
6.1857253949
 40
2.2912371506
100
AcDbArc
 50
325.3608200819
 51
326.3050366542
  0
ARC
  5
2F0
100
AcDbEntity
  8
0
100
AcDbCircle
 62
9
  6
CONTINUOUS
 10
5.0253322937
 20
4.3822733443
 40
0.0999903931
100
AcDbArc
 50
336.2120008573
 51
45.0011988214
  0
ARC
  5
2F1
100
AcDbEntity
  8
0
100
AcDbCircle
 62
6
  6
CONTINUOUS
 10
4.8955779594
 20
4.9587485381
 40
0.2899177752
100
AcDbArc
 50
162.0455148628
 51
162.2631696967
  0
ARC
  5
2F2
100
AcDbEntity
  8
0
100
AcDbCircle
 62
6
  6
CONTINUOUS
 10
4.7802594434
 20
4.863479497
 40
0.2740008282
100
AcDbArc
 50
107.7237219251
 51
107.9541434014
  0
ARC
  5
2F3
100
AcDbEntity
  8
0
100
AcDbCircle
 62
6
  6
CONTINUOUS
 10
4.7371863968
 20
5.0087246959
 40
0.1239702287
100
AcDbArc
 50
144.4297475203
 51
145.8056360936
  0
ARC
  5
2F4
100
AcDbEntity
  8
0
100
AcDbCircle
 62
6
  6
CONTINUOUS
 10
4.7339349306
 20
5.008533053
 40
0.1217724905
100
AcDbArc
 50
124.1734093963
 51
125.6235658588
  0
ARC
  5
2F5
100
AcDbEntity
  8
0
100
AcDbCircle
 62
6
  6
CONTINUOUS
 10
4.7301554061
 20
5.0137148225
 40
0.1153484444
100
AcDbArc
 50
143.5545979479
 51
144.4143745159
  0
ARC
  5
2F6
100
AcDbEntity
  8
0
100
AcDbCircle
 62
6
  6
CONTINUOUS
 10
4.729605152
 20
5.0145801603
 40
0.1143351199
100
AcDbArc
 50
125.6249052657
 51
126.4996114018
  0
ARC
  5
2F7
100
AcDbEntity
  8
0
100
AcDbCircle
 62
6
  6
CONTINUOUS
 10
4.72659046
 20
5.016342193
 40
0.1109199122
100
AcDbArc
 50
142.2949882852
 51
143.5523967253
  0
ARC
  5
2F8
100
AcDbEntity
  8
0
100
AcDbCircle
 62
6
  6
CONTINUOUS
 10
4.7271465257
 20
5.0178905507
 40
0.1102115932
100
AcDbArc
 50
126.4958080719
 51
127.7105512385
  0
ARC
  5
2F9
100
AcDbEntity
  8
0
100
AcDbCircle
 62
6
  6
CONTINUOUS
 10
4.7245875792
 20
5.0178791117
 40
0.1083953196
100
AcDbArc
 50
141.3418858707
 51
142.2902361445
  0
ARC
  5
2FA
100
AcDbEntity
  8
0
100
AcDbCircle
 62
6
  6
CONTINUOUS
 10
4.7259283368
 20
5.0194667461
 40
0.1082195149
100
AcDbArc
 50
127.7107594145
 51
128.6633986336
  0
ARC
  5
2FB
100
AcDbEntity
  8
0
100
AcDbCircle
 62
6
  6
CONTINUOUS
 10
4.7218678354
 20
5.0167477716
 40
0.1067276794
100
AcDbArc
 50
153.7420001909
 51
154.6887634872
  0
ARC
  5
2FC
100
AcDbEntity
  8
0
100
AcDbCircle
 62
6
  6
CONTINUOUS
 10
4.727106735
 20
5.0221759744
 40
0.1065859135
100
AcDbArc
 50
115.2946843893
 51
116.280508126
  0
ARC
  5
2FD
100
AcDbEntity
  8
0
100
AcDbCircle
 62
9
  6
CONTINUOUS
 10
4.6307085697
 20
5.0434395353
 40
0.0118894837
100
AcDbArc
 50
156.9184687748
 51
162.1721323464
  0
ARC
  5
2FE
100
AcDbEntity
  8
0
100
AcDbCircle
 62
9
  6
CONTINUOUS
 10
4.7004765677
 20
5.1132076458
 40
0.0118893964
100
AcDbArc
 50
107.8274552793
 51
113.0809554223
  0
ARC
  5
2FF
100
AcDbEntity
  8
0
100
AcDbCircle
 62
9
  6
CONTINUOUS
 10
4.7002848012
 20
5.1137750301
 40
0.01129055
100
AcDbArc
 50
105.2929285718
 51
107.7657777594
  0
ARC
  5
300
100
AcDbEntity
  8
0
100
AcDbCircle
 62
9
  6
CONTINUOUS
 10
4.6301408349
 20
5.0436314169
 40
0.0112902683
100
AcDbArc
 50
162.2335562423
 51
164.7140005629
  0
ARC
  5
301
100
AcDbEntity
  8
0
100
AcDbCircle
 62
9
  6
CONTINUOUS
 10
4.6299006834
 20
5.0436982018
 40
0.011041006
100
AcDbArc
 50
164.7197570046
 51
167.1059305651
  0
ARC
  5
302
100
AcDbEntity
  8
0
100
AcDbCircle
 62
6
  6
CONTINUOUS
 10
5.6269299706
 20
4.1169861632
 40
0.97
100
AcDbArc
 50
97.9918393339
 51
124.9141609222
  0
CIRCLE
  5
303
100
AcDbEntity
  8
0
100
AcDbCircle
 62
6
  6
CONTINUOUS
 10
5.6269299706
 20
4.1169861632
 40
3.3125
  0
CIRCLE
  5
304
100
AcDbEntity
  8
0
100
AcDbCircle
 62
9
  6
CONTINUOUS
 10
5.6269299706
 20
4.1169861632
 40
3.1618575475
  0
CIRCLE
  5
305
100
AcDbEntity
  8
0
100
AcDbCircle
 62
9
  6
CONTINUOUS
 10
5.6269299706
 20
4.1169861632
 40
3.1241654814
  0
ARC
  5
306
100
AcDbEntity
  8
0
100
AcDbCircle
 62
7
  6
CONTINUOUS
 10
5.6269299706
 20
4.1169861632
 40
1.125
100
AcDbArc
 50
96.5808759597
 51
124.5487483926
  0
ARC
  5
307
100
AcDbEntity
  8
0
100
AcDbCircle
 62
7
  6
CONTINUOUS
 10
5.6269299706
 20
4.1169861632
 40
1.125
100
AcDbArc
 50
55.4512513539
 51
83.4191240403
  0
ARC
  5
308
100
AcDbEntity
  8
0
100
AcDbCircle
 62
7
  6
CONTINUOUS
 10
5.6269299706
 20
4.1169861632
 40
1.125
100
AcDbArc
 50
145.4512516074
 51
214.5489040707
  0
ARC
  5
309
100
AcDbEntity
  8
0
100
AcDbCircle
 62
7
  6
CONTINUOUS
 10
5.6269299706
 20
4.1169861632
 40
1.125
100
AcDbArc
 50
235.4510959293
 51
304.5489040707
  0
ARC
  5
30A
100
AcDbEntity
  8
0
100
AcDbCircle
 62
7
  6
CONTINUOUS
 10
5.6269299706
 20
4.1169861632
 40
1.125
100
AcDbArc
 50
325.4510959293
 51
34.5487486461
  0
ARC
  5
30B
100
AcDbEntity
  8
0
100
AcDbCircle
 62
6
  6
CONTINUOUS
 10
5.6269299706
 20
4.1169861632
 40
1.06
100
AcDbArc
 50
235.2710925974
 51
304.7289074026
  0
ARC
  5
30C
100
AcDbEntity
  8
0
100
AcDbCircle
 62
6
  6
CONTINUOUS
 10
5.6269299706
 20
4.1169861632
 40
1.06
100
AcDbArc
 50
145.2697291387
 51
214.7303942157
  0
ARC
  5
30D
100
AcDbEntity
  8
0
100
AcDbCircle
 62
6
  6
CONTINUOUS
 10
5.6269299706
 20
4.1169861632
 40
1.06
100
AcDbArc
 50
97.0498574686
 51
124.7287744337
  0
ARC
  5
30E
100
AcDbEntity
  8
0
100
AcDbCircle
 62
6
  6
CONTINUOUS
 10
5.6269299706
 20
4.1169861632
 40
1.06
100
AcDbArc
 50
55.2712252467
 51
82.9501425314
  0
ARC
  5
30F
100
AcDbEntity
  8
0
100
AcDbCircle
 62
6
  6
CONTINUOUS
 10
5.6269299706
 20
4.1169861632
 40
1.06
100
AcDbArc
 50
325.2696057843
 51
34.7302711594
  0
ARC
  5
310
100
AcDbEntity
  8
0
100
AcDbCircle
 62
6
  6
CONTINUOUS
 10
5.6269299706
 20
4.1169861632
 40
0.985
100
AcDbArc
 50
97.5892412066
 51
124.8948336898
  0
ARC
  5
311
100
AcDbEntity
  8
0
100
AcDbCircle
 62
6
  6
CONTINUOUS
 10
5.6269299706
 20
4.1169861632
 40
0.985
100
AcDbArc
 50
55.1051662896
 51
82.4107587934
  0
ARC
  5
312
100
AcDbEntity
  8
0
100
AcDbCircle
 62
6
  6
CONTINUOUS
 10
5.6269299706
 20
4.1169861632
 40
0.985
100
AcDbArc
 50
325.1051584422
 51
34.8948337104
  0
ARC
  5
313
100
AcDbEntity
  8
0
100
AcDbCircle
 62
6
  6
CONTINUOUS
 10
5.6269299706
 20
4.1169861632
 40
0.985
100
AcDbArc
 50
235.1051584422
 51
304.8948415578
  0
ARC
  5
314
100
AcDbEntity
  8
0
100
AcDbCircle
 62
6
  6
CONTINUOUS
 10
5.6269299706
 20
4.1169861632
 40
0.985
100
AcDbArc
 50
145.1051663102
 51
214.8948415578
  0
ARC
  5
315
100
AcDbEntity
  8
0
100
AcDbCircle
 62
6
  6
CONTINUOUS
 10
5.6269299706
 20
4.1169861632
 40
0.97
100
AcDbArc
 50
325.0859009071
 51
34.9141624046
  0
ARC
  5
316
100
AcDbEntity
  8
0
100
AcDbCircle
 62
7
  6
CONTINUOUS
 10
5.6269299706
 20
4.1169861632
 40
0.97
100
AcDbArc
 50
82.0080851178
 51
97.9918393339
  0
ARC
  5
317
100
AcDbEntity
  8
0
100
AcDbCircle
 62
6
  6
CONTINUOUS
 10
5.6269299706
 20
4.1169861632
 40
0.97
100
AcDbArc
 50
55.0858980046
 51
82.0080851178
  0
ARC
  5
318
100
AcDbEntity
  8
0
100
AcDbCircle
 62
6
  6
CONTINUOUS
 10
5.6269299706
 20
4.1169861632
 40
0.97
100
AcDbArc
 50
145.0858988696
 51
214.9141590894
  0
ARC
  5
319
100
AcDbEntity
  8
0
100
AcDbCircle
 62
6
  6
CONTINUOUS
 10
5.6269299706
 20
4.1169861632
 40
0.97
100
AcDbArc
 50
235.0859009078
 51
304.9141590864
  0
ARC
  5
31A
100
AcDbEntity
  8
0
100
AcDbCircle
 62
9
  6
CONTINUOUS
 10
5.6269299706
 20
4.1169861632
 40
0.6465371296
100
AcDbArc
 50
147.3063680823
 51
212.6936319168
  0
ARC
  5
31B
100
AcDbEntity
  8
0
100
AcDbCircle
 62
9
  6
CONTINUOUS
 10
5.6269299706
 20
4.1169861632
 40
0.6465371296
100
AcDbArc
 50
57.3063680823
 51
122.6936319147
  0
ARC
  5
31C
100
AcDbEntity
  8
0
100
AcDbCircle
 62
9
  6
CONTINUOUS
 10
5.6269299706
 20
4.1169861632
 40
0.6465371296
100
AcDbArc
 50
327.3063680832
 51
32.6936319139
  0
ARC
  5
31D
100
AcDbEntity
  8
0
100
AcDbCircle
 62
9
  6
CONTINUOUS
 10
5.6269299706
 20
4.1169861632
 40
0.6465371296
100
AcDbArc
 50
237.3063680832
 51
302.6936319168
  0
CIRCLE
  5
31E
100
AcDbEntity
  8
0
100
AcDbCircle
 62
6
  6
CONTINUOUS
 10
5.6269299706
 20
4.1169861632
 40
0.5575
  0
CIRCLE
  5
31F
100
AcDbEntity
  8
0
100
AcDbCircle
 62
6
  6
CONTINUOUS
 10
5.6269299706
 20
4.1169861632
 40
0.5275
  0
CIRCLE
  5
320
100
AcDbEntity
  8
0
100
AcDbCircle
 62
6
  6
CONTINUOUS
 10
5.6269299706
 20
4.1169861632
 40
0.5125
  0
CIRCLE
  5
321
100
AcDbEntity
  8
0
100
AcDbCircle
 62
6
  6
CONTINUOUS
 10
5.6269299706
 20
4.1169861632
 40
0.4545
  0
CIRCLE
  5
322
100
AcDbEntity
  8
0
100
AcDbCircle
 62
9
  6
CONTINUOUS
 10
5.6269299706
 20
4.1169861632
 40
0.3951446566
  0
ARC
  5
323
100
AcDbEntity
  8
0
100
AcDbCircle
 62
6
  6
CONTINUOUS
 10
5.6269299706
 20
5.0169861632
 40
0.276
100
AcDbArc
 50
70.9017558761
 51
109.0982441239
  0
ARC
  5
324
100
AcDbEntity
  8
0
100
AcDbCircle
 62
6
  6
CONTINUOUS
 10
5.3615934092
 20
4.7186921583
 40
0.1001099103
100
AcDbArc
 50
274.1170581948
 51
293.733129038
  0
ARC
  5
325
100
AcDbEntity
  8
0
100
AcDbCircle
 62
6
  6
CONTINUOUS
 10
5.3616229644
 20
4.7185823348
 40
0.0999974767
100
AcDbArc
 50
224.9995713965
 51
274.1046853378
  0
ARC
  5
326
100
AcDbEntity
  8
0
100
AcDbCircle
 62
6
  6
CONTINUOUS
 10
5.5559299706
 20
5.2220422531
 40
0.059
100
AcDbArc
 50
109.0982441239
 51
180.0
  0
ARC
  5
327
100
AcDbEntity
  8
0
100
AcDbCircle
 62
6
  6
CONTINUOUS
 10
8.2496444646
 20
1.2146334343
 40
3.8129564627
100
AcDbArc
 50
146.8059278641
 51
147.6863012814
  0
ARC
  5
328
100
AcDbEntity
  8
0
100
AcDbCircle
 62
6
  6
CONTINUOUS
 10
7.3618225279
 20
1.7924275881
 40
2.7536787937
100
AcDbArc
 50
146.6309717478
 51
146.7528384023
  0
ARC
  5
329
100
AcDbEntity
  8
0
100
AcDbCircle
 62
6
  6
CONTINUOUS
 10
7.9490216841
 20
2.3861485711
 40
2.748934749
100
AcDbArc
 50
123.2508455272
 51
123.3824237071
  0
ARC
  5
32A
100
AcDbEntity
  8
0
100
AcDbCircle
 62
6
  6
CONTINUOUS
 10
7.8343878919
 20
2.5598392675
 40
2.540825789
100
AcDbArc
 50
123.3789908263
 51
123.6954336581
  0
ARC
  5
32B
100
AcDbEntity
  8
0
100
AcDbCircle
 62
6
  6
CONTINUOUS
 10
7.1629092614
 20
1.9236572537
 40
2.5153771484
100
AcDbArc
 50
146.3048361577
 51
146.635247216
  0
ARC
  5
32C
100
AcDbEntity
  8
0
100
AcDbCircle
 62
6
  6
CONTINUOUS
 10
6.9766274646
 20
2.0482190037
 40
2.2912868471
100
AcDbArc
 50
145.3608248906
 51
146.3050889706
  0
ARC
  5
32D
100
AcDbEntity
  8
0
100
AcDbCircle
 62
6
  6
CONTINUOUS
 10
7.6769957816
 20
2.794696338
 40
2.2581074057
100
AcDbArc
 50
123.6859782582
 51
124.6439688797
  0
ARC
  5
32E
100
AcDbEntity
  8
0
100
AcDbCircle
 62
6
  6
CONTINUOUS
 10
6.4736019751
 20
3.37048827
 40
0.2739960354
100
AcDbArc
 50
287.7237455606
 51
287.9541434109
  0
ARC
  5
32F
100
AcDbEntity
  8
0
100
AcDbCircle
 62
6
  6
CONTINUOUS
 10
6.373554452
 20
3.2702731394
 40
0.2738629672
100
AcDbArc
 50
342.0458566628
 51
342.2757857249
  0
ARC
  5
330
100
AcDbEntity
  8
0
100
AcDbCircle
 62
6
  6
CONTINUOUS
 10
6.5169250209
 20
3.2250721812
 40
0.1236636089
100
AcDbArc
 50
324.4126875012
 51
325.7615865367
  0
ARC
  5
331
100
AcDbEntity
  8
0
100
AcDbCircle
 62
6
  6
CONTINUOUS
 10
6.5201203254
 20
3.2251622917
 40
0.1214335761
100
AcDbArc
 50
304.2368210595
 51
305.647098119
  0
ARC
  5
332
100
AcDbEntity
  8
0
100
AcDbCircle
 62
6
  6
CONTINUOUS
 10
6.5237259484
 20
3.2202417148
 40
0.1153218411
100
AcDbArc
 50
323.5670128169
 51
324.398044316
  0
ARC
  5
333
100
AcDbEntity
  8
0
100
AcDbCircle
 62
6
  6
CONTINUOUS
 10
6.5242568878
 20
3.2193897677
 40
0.1143319443
100
AcDbArc
 50
305.6484584573
 51
306.4827097446
  0
ARC
  5
334
100
AcDbEntity
  8
0
100
AcDbCircle
 62
6
  6
CONTINUOUS
 10
6.5272465489
 20
3.2176474871
 40
0.1109486694
100
AcDbArc
 50
322.2975262602
 51
323.5651377915
  0
ARC
  5
335
100
AcDbEntity
  8
0
100
AcDbCircle
 62
6
  6
CONTINUOUS
 10
6.5266971679
 20
3.2161030339
 40
0.1102383491
100
AcDbArc
 50
306.4786312384
 51
307.7073439936
  0
ARC
  5
336
100
AcDbEntity
  8
0
100
AcDbCircle
 62
6
  6
CONTINUOUS
 10
6.529269929
 20
3.216095124
 40
0.1083984121
100
AcDbArc
 50
321.3445831467
 51
322.2926658079
  0
ARC
  5
337
100
AcDbEntity
  8
0
100
AcDbCircle
 62
6
  6
CONTINUOUS
 10
6.5279295887
 20
3.2145081337
 40
0.1082227679
100
AcDbArc
 50
307.7075889363
 51
308.6598208796
  0
ARC
  5
338
100
AcDbEntity
  8
0
100
AcDbCircle
 62
6
  6
CONTINUOUS
 10
6.5320302298
 20
3.2172061241
 40
0.1066853347
100
AcDbArc
 50
333.7157992128
 51
334.6313249565
  0
ARC
  5
339
100
AcDbEntity
  8
0
100
AcDbCircle
 62
6
  6
CONTINUOUS
 10
6.5267696064
 20
3.2117627067
 40
0.1065484842
100
AcDbArc
 50
295.3622755963
 51
296.3118252577
  0
ARC
  5
33A
100
AcDbEntity
  8
0
100
AcDbCircle
 62
9
  6
CONTINUOUS
 10
5.892237432
 20
3.5153923868
 40
0.0999941675
100
AcDbArc
 50
44.9993134059
 51
113.7997693698
  0
ARC
  5
33B
100
AcDbEntity
  8
0
100
AcDbCircle
 62
9
  6
CONTINUOUS
 10
6.2285224419
 20
3.8516753178
 40
0.0999915506
100
AcDbArc
 50
157.3141048207
 51
225.0004815263
  0
ARC
  5
33C
100
AcDbEntity
  8
0
100
AcDbCircle
 62
9
  6
CONTINUOUS
 10
6.6231513716
 20
3.1905327911
 40
0.0118894836
100
AcDbArc
 50
336.9184695653
 51
342.1721323622
  0
ARC
  5
33D
100
AcDbEntity
  8
0
100
AcDbCircle
 62
9
  6
CONTINUOUS
 10
6.5533833735
 20
3.1207646807
 40
0.0118893964
100
AcDbArc
 50
287.8274552802
 51
293.0809554663
  0
ARC
  5
33E
100
AcDbEntity
  8
0
100
AcDbCircle
 62
9
  6
CONTINUOUS
 10
6.55357514
 20
3.1201972963
 40
0.01129055
100
AcDbArc
 50
285.2929279871
 51
287.7657777583
  0
ARC
  5
33F
100
AcDbEntity
  8
0
100
AcDbCircle
 62
9
  6
CONTINUOUS
 10
6.6237191058
 20
3.1903409097
 40
0.0112902688
100
AcDbArc
 50
342.2335563179
 51
344.7139901365
  0
ARC
  5
340
100
AcDbEntity
  8
0
100
AcDbCircle
 62
9
  6
CONTINUOUS
 10
6.6239953604
 20
3.1902646649
 40
0.0110036867
100
AcDbArc
 50
344.7177200217
 51
348.2010954217
  0
ARC
  5
341
100
AcDbEntity
  8
0
100
AcDbCircle
 62
6
  6
CONTINUOUS
 10
8.5292827009
 20
6.7397006891
 40
3.8129564903
100
AcDbArc
 50
236.8059281236
 51
237.6863015196
  0
ARC
  5
342
100
AcDbEntity
  8
0
100
AcDbCircle
 62
6
  6
CONTINUOUS
 10
7.951488487
 20
5.851878631
 40
2.7536786867
100
AcDbArc
 50
236.6309715991
 51
236.7528384245
  0
ARC
  5
343
100
AcDbEntity
  8
0
100
AcDbCircle
 62
6
  6
CONTINUOUS
 10
7.3575909137
 20
6.4389618391
 40
2.7487233974
100
AcDbArc
 50
213.2507939914
 51
213.382791258
  0
ARC
  5
344
100
AcDbEntity
  8
0
100
AcDbCircle
 62
6
  6
CONTINUOUS
 10
7.1839777143
 20
6.3243781362
 40
2.5407067079
100
AcDbArc
 50
213.3793699227
 51
213.6954367803
  0
ARC
  5
345
100
AcDbEntity
  8
0
100
AcDbCircle
 62
6
  6
CONTINUOUS
 10
7.8202588524
 20
5.6529654124
 40
2.5153770984
100
AcDbArc
 50
236.3048361562
 51
236.6352470616
  0
ARC
  5
346
100
AcDbEntity
  8
0
100
AcDbCircle
 62
6
  6
CONTINUOUS
 10
7.6956971433
 20
5.4666836766
 40
2.2912868706
100
AcDbArc
 50
235.3608248948
 51
236.3050889657
  0
ARC
  5
347
100
AcDbEntity
  8
0
100
AcDbCircle
 62
6
  6
CONTINUOUS
 10
6.9492333665
 20
6.1670611523
 40
2.2581237882
100
AcDbArc
 50
213.6859813737
 51
214.643981728
  0
ARC
  5
348
100
AcDbEntity
  8
0
100
AcDbCircle
 62
6
  6
CONTINUOUS
 10
6.3577240142
 20
4.9585689062
 40
0.2905039439
100
AcDbArc
 50
17.7368277114
 51
17.954264978
  0
ARC
  5
349
100
AcDbEntity
  8
0
100
AcDbCircle
 62
6
  6
CONTINUOUS
 10
6.4686924539
 20
4.8483385105
 40
0.2899174219
100
AcDbArc
 50
72.0455148104
 51
72.2632083034
  0
ARC
  5
34A
100
AcDbEntity
  8
0
100
AcDbCircle
 62
6
  6
CONTINUOUS
 10
6.5184643925
 20
5.0064367874
 40
0.1243272589
100
AcDbArc
 50
54.449992853
 51
55.855707902
  0
ARC
  5
34B
100
AcDbEntity
  8
0
100
AcDbCircle
 62
6
  6
CONTINUOUS
 10
6.5182535316
 20
5.0098239498
 40
0.1220456236
100
AcDbArc
 50
34.1240945167
 51
35.604125328
  0
ARC
  5
34C
100
AcDbEntity
  8
0
100
AcDbCircle
 62
6
  6
CONTINUOUS
 10
6.5236391306
 20
5.013734272
 40
0.1153813073
100
AcDbArc
 50
53.540322391
 51
54.4337824787
  0
ARC
  5
34D
100
AcDbEntity
  8
0
100
AcDbCircle
 62
6
  6
CONTINUOUS
 10
6.5245206501
 20
5.014308264
 40
0.1143394027
100
AcDbArc
 50
35.605422741
 51
36.5130569636
  0
ARC
  5
34E
100
AcDbEntity
  8
0
100
AcDbCircle
 62
6
  6
CONTINUOUS
 10
6.5263059353
 20
5.0173520108
 40
0.1108868825
100
AcDbArc
 50
52.2919757752
 51
53.537727861
  0
ARC
  5
34F
100
AcDbEntity
  8
0
100
AcDbCircle
 62
6
  6
CONTINUOUS
 10
6.5278512807
 20
5.0167825437
 40
0.110190293
100
AcDbArc
 50
36.5094763472
 51
37.7131907202
  0
ARC
  5
350
100
AcDbEntity
  8
0
100
AcDbCircle
 62
6
  6
CONTINUOUS
 10
6.5278251812
 20
5.0193314368
 40
0.1083916557
100
AcDbArc
 50
51.3386800634
 51
52.2873458568
  0
ARC
  5
351
100
AcDbEntity
  8
0
100
AcDbCircle
 62
6
  6
CONTINUOUS
 10
6.529412644
 20
5.0179894476
 40
0.1082168513
100
AcDbArc
 50
37.7133704602
 51
38.6663422003
  0
ARC
  5
352
100
AcDbEntity
  8
0
100
AcDbCircle
 62
6
  6
CONTINUOUS
 10
6.5266668352
 20
5.0219970025
 40
0.1067846302
100
AcDbArc
 50
63.7762218221
 51
64.7620505326
  0
ARC
  5
353
100
AcDbEntity
  8
0
100
AcDbCircle
 62
6
  6
CONTINUOUS
 10
6.5320823546
 20
5.0167911932
 40
0.1066275332
100
AcDbArc
 50
25.2242473497
 51
26.2468436058
  0
ARC
  5
354
100
AcDbEntity
  8
0
100
AcDbCircle
 62
6
  6
CONTINUOUS
 10
5.8922353039
 20
4.7185844103
 40
0.100000989
100
AcDbArc
 50
246.5573875999
 51
315.0004259308
  0
ARC
  5
355
100
AcDbEntity
  8
0
100
AcDbCircle
 62
9
  6
CONTINUOUS
 10
6.2285232619
 20
4.3822948503
 40
0.0999930097
100
AcDbArc
 50
134.9994735186
 51
203.7998043255
  0
ARC
  5
356
100
AcDbEntity
  8
0
100
AcDbCircle
 62
6
  6
CONTINUOUS
 10
5.6979299706
 20
5.2220422531
 40
0.059
100
AcDbArc
 50
0.0
 51
70.9017558761
  0
ARC
  5
357
100
AcDbEntity
  8
0
100
AcDbCircle
 62
9
  6
CONTINUOUS
 10
6.5533833427
 20
5.1132075641
 40
0.0118894837
100
AcDbArc
 50
66.9184688221
 51
72.1721323473
  0
ARC
  5
358
100
AcDbEntity
  8
0
100
AcDbCircle
 62
9
  6
CONTINUOUS
 10
6.6231514532
 20
5.0434395662
 40
0.0118893964
100
AcDbArc
 50
17.8274552657
 51
23.0809547305
  0
ARC
  5
359
100
AcDbEntity
  8
0
100
AcDbCircle
 62
9
  6
CONTINUOUS
 10
6.6237188371
 20
5.0436313325
 40
0.0112905505
100
AcDbArc
 50
15.2929377083
 51
17.7657777612
  0
ARC
  5
35A
100
AcDbEntity
  8
0
100
AcDbCircle
 62
9
  6
CONTINUOUS
 10
6.5535752243
 20
5.1137752989
 40
0.0112902684
100
AcDbArc
 50
72.233556239
 51
74.7139999344
  0
ARC
  5
35B
100
AcDbEntity
  8
0
100
AcDbCircle
 62
9
  6
CONTINUOUS
 10
6.5536412105
 20
5.1140124285
 40
0.0110441316
100
AcDbArc
 50
74.7198911743
 51
77.0178957479
  0
SPLINE
  5
35C
100
AcDbEntity
  8
0
100
AcDbSpline
 62
6
  6
CONTINUOUS
 70
0
 71
3
 72
13
 73
9
 74
7
 42
0.0000001
 43
0.0000001
 44
0.0000000001
 12
-0.0138695645
 22
-0.0094449765
 32
0.0
 13
-0.0150415842
 23
-0.0074379529
 33
0.0
 40
0.0
 40
0.0
 40
0.0
 40
0.0
 40
0.116899011
 40
0.2353330014
 40
0.3557051915
 40
0.4783884099
 40
0.7322094392
 40
1.0
 40
1.0
 40
1.0
 40
1.0
 10
6.5884406506
 20
3.1247708251
 30
0.0
 10
6.5879002045
 20
3.1244027889
 30
0.0
 10
6.5868065475
 20
3.1236701759
 30
0.0
 10
6.5851382387
 20
3.1225860028
 30
0.0
 10
6.5834282929
 20
3.1215068151
 30
0.0
 10
6.5810550902
 20
3.1200602646
 30
0.0
 10
6.5779286959
 20
3.1182660849
 30
0.0
 10
6.5753405482
 20
3.1169171197
 30
0.0
 10
6.5739978834
 20
3.1162531819
 30
0.0
 11
6.5884406506
 21
3.1247708251
 31
0.0
 11
6.5868111916
 21
3.1236787368
 31
0.0
 11
6.5851449718
 21
3.122595585
 31
0.0
 11
6.5834364846
 21
3.121518132
 31
0.0
 11
6.5816783907
 21
3.1204471043
 31
0.0
 11
6.5779829697
 21
3.1183295118
 31
0.0
 11
6.5739978834
 21
3.1162531819
 31
0.0
  0
SPLINE
  5
35D
100
AcDbEntity
  8
0
100
AcDbSpline
 62
6
  6
CONTINUOUS
 70
0
 71
3
 72
10
 73
6
 74
4
 42
0.0000001
 43
0.0000001
 44
0.0000000001
 12
-0.0139399755
 22
-0.0066082208
 32
0.0
 13
-0.0146757344
 23
-0.0047554516
 33
0.0
 40
0.0
 40
0.0
 40
0.0
 40
0.0
 40
0.229917208
 40
0.4721801218
 40
1.0
 40
1.0
 40
1.0
 40
1.0
 10
6.572408613
 20
3.1154836303
 30
0.0
 10
6.5713402663
 20
3.1149771824
 30
0.0
 10
6.5691287502
 20
3.1139734258
 30
0.0
 10
6.5643782158
 20
3.1120029876
 30
0.0
 10
6.5606448604
 20
3.1106715509
 30
0.0
 10
6.5580628122
 20
3.1098348769
 30
0.0
 11
6.572408613
 21
3.1154836303
 31
0.0
 11
6.5691790826
 21
3.1140170624
 31
0.0
 11
6.5657273363
 21
3.1125840646
 31
0.0
 11
6.5580628122
 21
3.1098348769
 31
0.0
  0
SPLINE
  5
35E
100
AcDbEntity
  8
0
100
AcDbSpline
 62
6
  6
CONTINUOUS
 70
0
 71
3
 72
10
 73
6
 74
4
 42
0.0000001
 43
0.0000001
 44
0.0000000001
 12
-0.0081375357
 22
-0.0101731388
 32
0.0
 13
-0.0092117382
 23
-0.0092117382
 33
0.0
 40
0.0
 40
0.0
 40
0.0
 40
0.0
 40
0.2399369032
 40
0.4850375035
 40
1.0
 40
1.0
 40
1.0
 40
1.0
 10
6.6139200579
 20
3.1483856605
 30
0.0
 10
6.6132692262
 20
3.1475720234
 30
0.0
 10
6.6119295585
 20
3.145946248
 30
0.0
 10
6.6090719812
 20
3.1426759357
 30
0.0
 10
6.6067934356
 20
3.1402851647
 30
0.0
 10
6.6052122024
 20
3.1387039315
 30
0.0
 11
6.6139200579
 21
3.1483856605
 31
0.0
 11
6.6119324749
 21
3.1459732344
 31
0.0
 11
6.6098320465
 21
3.1435683342
 31
0.0
 11
6.6052122024
 21
3.1387039315
 31
0.0
  0
SPLINE
  5
35F
100
AcDbEntity
  8
0
100
AcDbSpline
 62
6
  6
CONTINUOUS
 70
0
 71
3
 72
21
 73
17
 74
15
 42
0.0000001
 43
0.0000001
 44
0.0000000001
 12
0.1670926508
 22
-0.1670353892
 32
0.0
 13
0.1934195178
 23
-0.1356822219
 33
0.0
 40
0.0
 40
0.0
 40
0.0
 40
0.0
 40
0.0673862889
 40
0.1346328025
 40
0.201550747
 40
0.2679869358
 40
0.3338347672
 40
0.3989898059
 40
0.4633712754
 40
0.5269201203
 40
0.5895764692
 40
0.6512904201
 40
0.7120274318
 40
0.7717532539
 40
0.8880483967
 40
1.0
 40
1.0
 40
1.0
 40
1.0
 10
6.1988175964
 20
3.7399705056
 30
0.0
 10
6.2025708476
 20
3.7362185406
 30
0.0
 10
6.2101298537
 20
3.7287824528
 30
0.0
 10
6.2216154404
 20
3.7178255424
 30
0.0
 10
6.2332075297
 20
3.7070911953
 30
0.0
 10
6.244869508
 20
3.6965968966
 30
0.0
 10
6.2565664351
 20
3.6863511645
 30
0.0
 10
6.2682687148
 20
3.6763590746
 30
0.0
 10
6.2799496198
 20
3.6666225046
 30
0.0
 10
6.2915852951
 20
3.6571405319
 30
0.0
 10
6.3031538039
 20
3.6479100019
 30
0.0
 10
6.3146364524
 20
3.6389280533
 30
0.0
 10
6.326018841
 20
3.630193546
 30
0.0
 10
6.340911236
 20
3.6189734544
 30
0.0
 10
6.359195442
 20
3.6055540314
 30
0.0
 10
6.3738442683
 20
3.5951351202
 30
0.0
 10
6.3810621433
 20
3.5900718394
 30
0.0
 11
6.1988175964
 21
3.7399705056
 31
0.0
 11
6.2101660575
 21
3.7288040535
 31
0.0
 11
6.2216611564
 21
3.7178363978
 31
0.0
 11
6.2332607751
 21
3.7070932647
 31
0.0
 11
6.2449272998
 21
3.6965922121
 31
0.0
 11
6.2566290058
 21
3.6863401178
 31
0.0
 11
6.2683347894
 21
3.6763429275
 31
0.0
 11
6.2800179989
 21
3.6666023804
 31
0.0
 11
6.291656078
 21
3.6571163463
 31
0.0
 11
6.3032266955
 21
3.6478825487
 31
0.0
 11
6.3147109735
 21
3.6388986177
 31
0.0
 11
6.3260949258
 21
3.6301620503
 31
0.0
 11
6.3373649374
 21
3.6216703338
 31
0.0
 11
6.3595119279
 21
3.6054080386
 31
0.0
 11
6.3810621433
 21
3.5900718394
 31
0.0
  0
SPLINE
  5
360
100
AcDbEntity
  8
0
100
AcDbSpline
 62
6
  6
CONTINUOUS
 70
0
 71
3
 72
18
 73
14
 74
12
 42
0.0000001
 43
0.0000001
 44
0.0000000001
 12
0.1670649171
 22
-0.1671169546
 32
0.0
 13
0.1357483072
 23
-0.1934196477
 33
0.0
 40
0.0
 40
0.0
 40
0.0
 40
0.0
 40
0.0673835467
 40
0.1346275019
 40
0.2015376248
 40
0.2679608752
 40
0.3337996106
 40
0.398958451
 40
0.5269122553
 40
0.651255151
 40
0.7716668434
 40
0.8879701393
 40
1.0
 40
1.0
 40
1.0
 40
1.0
 10
6.003928854
 20
3.5451153161
 30
0.0
 10
6.0076813296
 20
3.5413616717
 30
0.0
 10
6.0151150832
 20
3.5337984937
 30
0.0
 10
6.0260632648
 20
3.522302472
 30
0.0
 10
6.0367894877
 20
3.5107019314
 30
0.0
 10
6.0472800766
 20
3.4990364237
 30
0.0
 10
6.0575268366
 20
3.4873389892
 30
0.0
 10
6.0707785278
 20
3.4718327266
 30
0.0
 10
6.0866947413
 20
3.4525442606
 30
0.0
 10
6.104898959
 20
3.4295102031
 30
0.0
 10
6.1221072167
 20
3.4068657019
 30
0.0
 10
6.1383619637
 20
3.384720078
 30
0.0
 10
6.1487895256
 20
3.3700654728
 30
0.0
 10
6.1538588136
 20
3.3628425474
 30
0.0
 11
6.003928854
 21
3.5451153161
 31
0.0
 11
6.0150926415
 21
3.533761545
 31
0.0
 11
6.0260528672
 21
3.5222566611
 31
0.0
 11
6.0367884684
 21
3.5106491192
 31
0.0
 11
6.0472852497
 21
3.4989794622
 31
0.0
 11
6.0575380125
 21
3.4872778673
 31
0.0
 11
6.0675422185
 21
3.4755736341
 31
0.0
 11
6.0867918249
 21
3.4522572297
 31
0.0
 11
6.1050162789
 21
3.4292094298
 31
0.0
 11
6.1222386278
 21
3.4065600243
 31
0.0
 11
6.1385053951
 21
3.3844084355
 31
0.0
 11
6.1538588136
 21
3.3628425474
 31
0.0
  0
SPLINE
  5
361
100
AcDbEntity
  8
0
100
AcDbSpline
 62
6
  6
CONTINUOUS
 70
0
 71
3
 72
13
 73
9
 74
7
 42
0.0000001
 43
0.0000001
 44
0.0000000001
 12
-0.0094448453
 22
0.0138694379
 32
0.0
 13
-0.0074378586
 23
0.0150414318
 33
0.0
 40
0.0
 40
0.0
 40
0.0
 40
0.0
 40
0.1168989766
 40
0.2353329666
 40
0.3557051749
 40
0.4783884189
 40
0.7322094855
 40
1.0
 40
1.0
 40
1.0
 40
1.0
 10
4.6347144716
 20
3.1554757193
 30
0.0
 10
4.6343464407
 20
3.1560161603
 30
0.0
 10
4.6336138379
 20
3.157109807
 30
0.0
 10
4.6325296791
 20
3.1587780998
 30
0.0
 10
4.6314505055
 20
3.1604880294
 30
0.0
 10
4.6300039743
 20
3.1628612098
 30
0.0
 10
4.6282098186
 20
3.1659875737
 30
0.0
 10
4.626860871
 20
3.1685756956
 30
0.0
 10
4.6261969417
 20
3.1699183465
 30
0.0
 11
4.6347144716
 21
3.1554757193
 31
0.0
 11
4.6336223987
 21
3.1571051628
 31
0.0
 11
4.6325392612
 21
3.1587713667
 31
0.0
 11
4.6314618224
 21
3.1604798377
 31
0.0
 11
4.6303908088
 21
3.1622379152
 31
0.0
 11
4.6282732443
 21
3.1659333007
 31
0.0
 11
4.6261969417
 21
3.1699183465
 31
0.0
  0
SPLINE
  5
362
100
AcDbEntity
  8
0
100
AcDbSpline
 62
6
  6
CONTINUOUS
 70
0
 71
3
 72
10
 73
6
 74
4
 42
0.0000001
 43
0.0000001
 44
0.0000000001
 12
-0.0066080891
 22
0.0139397769
 32
0.0
 13
-0.0047553789
 23
0.0146755099
 33
0.0
 40
0.0
 40
0.0
 40
0.0
 40
0.0
 40
0.2299174921
 40
0.472180537
 40
1.0
 40
1.0
 40
1.0
 40
1.0
 10
4.6254273365
 20
3.171507734
 30
0.0
 10
4.6249208981
 20
3.1725760669
 30
0.0
 10
4.6239171603
 20
3.174787553
 30
0.0
 10
4.6219467588
 20
3.1795380175
 30
0.0
 10
4.6206153448
 20
3.183271315
 30
0.0
 10
4.6197786843
 20
3.1858533216
 30
0.0
 11
4.6254273365
 21
3.171507734
 31
0.0
 11
4.6239607956
 21
3.174737222
 31
0.0
 11
4.6225278237
 21
3.1781889193
 31
0.0
 11
4.6197786843
 21
3.1858533216
 31
0.0
  0
SPLINE
  5
363
100
AcDbEntity
  8
0
100
AcDbSpline
 62
6
  6
CONTINUOUS
 70
0
 71
3
 72
10
 73
6
 74
4
 42
0.0000001
 43
0.0000001
 44
0.0000000001
 12
-0.0101731268
 22
0.0081375283
 32
0.0
 13
-0.0092117283
 23
0.0092117283
 33
0.0
 40
0.0
 40
0.0
 40
0.0
 40
0.0
 40
0.2399369059
 40
0.4850375107
 40
1.0
 40
1.0
 40
1.0
 40
1.0
 10
4.658329457
 20
3.1299960847
 30
0.0
 10
4.6575158208
 20
3.1306469158
 30
0.0
 10
4.6558900473
 20
3.1319865822
 30
0.0
 10
4.6526197387
 20
3.1348441567
 30
0.0
 10
4.6502289703
 20
3.1371226999
 30
0.0
 10
4.6486477388
 20
3.1387039315
 30
0.0
 11
4.658329457
 21
3.1299960847
 31
0.0
 11
4.6559170336
 21
3.1319836658
 31
0.0
 11
4.6535121361
 21
3.1340840922
 31
0.0
 11
4.6486477388
 21
3.1387039315
 31
0.0
  0
SPLINE
  5
364
100
AcDbEntity
  8
0
100
AcDbSpline
 62
6
  6
CONTINUOUS
 70
0
 71
3
 72
10
 73
6
 74
4
 42
0.0000001
 43
0.0000001
 44
0.0000000001
 12
0.0144536814
 22
-0.0046834974
 32
0.0
 13
0.013743203
 23
-0.0064783043
 33
0.0
 40
0.0
 40
0.0
 40
0.0
 40
0.0
 40
0.5274085878
 40
0.769801073
 40
1.0
 40
1.0
 40
1.0
 40
1.0
 10
6.5580628102
 20
5.1241374486
 30
0.0
 10
6.5606038088
 20
5.1233140764
 30
0.0
 10
6.5642798258
 20
5.1220050223
 30
0.0
 10
6.5689611164
 20
5.1200708224
 30
0.0
 10
6.5711429492
 20
5.1190855885
 30
0.0
 10
6.572197506
 20
5.118588489
 30
0.0
 11
6.5580628102
 21
5.1241374486
 31
0.0
 11
6.5656068953
 21
5.1214359081
 31
0.0
 11
6.5690101731
 21
5.120028521
 31
0.0
 11
6.572197506
 21
5.118588489
 31
0.0
  0
SPLINE
  5
365
100
AcDbEntity
  8
0
100
AcDbSpline
 62
6
  6
CONTINUOUS
 70
0
 71
3
 72
13
 73
9
 74
7
 42
0.0000001
 43
0.0000001
 44
0.0000000001
 12
0.0149878021
 22
-0.0073829619
 32
0.0
 13
0.013826567
 23
-0.0093791462
 33
0.0
 40
0.0
 40
0.0
 40
0.0
 40
0.0
 40
0.2678596168
 40
0.5217297173
 40
0.6444182619
 40
0.7647772195
 40
0.8831733902
 40
1.0
 40
1.0
 40
1.0
 40
1.0
 10
6.5738526336
 20
5.1177908315
 30
0.0
 10
6.5751908426
 20
5.1171316324
 30
0.0
 10
6.577770548
 20
5.1157923778
 30
0.0
 10
6.5808870478
 20
5.114010901
 30
0.0
 10
6.5832525316
 20
5.1125743441
 30
0.0
 10
6.5849565042
 20
5.1115025545
 30
0.0
 10
6.5866185631
 20
5.1104258215
 30
0.0
 10
6.5877082292
 20
5.1096985897
 30
0.0
 10
6.5882466662
 20
5.1093333451
 30
0.0
 11
6.5738526336
 21
5.1177908315
 31
0.0
 11
6.577824815
 21
5.115729304
 31
0.0
 11
6.581508482
 21
5.1136266084
 31
0.0
 11
6.5832607746
 21
5.1125630038
 31
0.0
 11
6.5849633211
 21
5.1114929247
 31
0.0
 11
6.5866234139
 21
5.1104172796
 31
0.0
 11
6.5882466662
 21
5.1093333451
 31
0.0
  0
SPLINE
  5
366
100
AcDbEntity
  8
0
100
AcDbSpline
 62
6
  6
CONTINUOUS
 70
0
 71
3
 72
10
 73
6
 74
4
 42
0.0000001
 43
0.0000001
 44
0.0000000001
 12
0.0091982044
 22
-0.0091982044
 32
0.0
 13
0.0081273819
 23
-0.0101567511
 33
0.0
 40
0.0
 40
0.0
 40
0.0
 40
0.0
 40
0.5149526903
 40
0.7600593998
 40
1.0
 40
1.0
 40
1.0
 40
1.0
 10
6.6052122024
 20
5.095268395
 30
0.0
 10
6.6067910824
 20
5.093689515
 30
0.0
 10
6.6090663514
 20
5.0913023558
 30
0.0
 10
6.6119200885
 20
5.0880371632
 30
0.0
 10
6.6132580684
 20
5.0864139538
 30
0.0
 10
6.613908098
 20
5.0856016148
 30
0.0
 11
6.6052122024
 21
5.095268395
 31
0.0
 11
6.6098253704
 21
5.0904114207
 31
0.0
 11
6.6119230294
 21
5.0880102246
 31
0.0
 11
6.613908098
 21
5.0856016148
 31
0.0
  0
SPLINE
  5
367
100
AcDbEntity
  8
0
100
AcDbSpline
 62
6
  6
CONTINUOUS
 70
0
 71
3
 72
21
 73
17
 74
15
 42
0.0000001
 43
0.0000001
 44
0.0000000001
 12
-0.1670353908
 22
-0.1670926523
 32
0.0
 13
-0.1356822372
 23
-0.1934195097
 33
0.0
 40
0.0
 40
0.0
 40
0.0
 40
0.0
 40
0.0673862883
 40
0.134632801
 40
0.2015507439
 40
0.267986931
 40
0.3338347615
 40
0.3989898006
 40
0.4633712719
 40
0.5269201176
 40
0.5895764637
 40
0.6512904085
 40
0.7120274133
 40
0.7717532302
 40
0.8880483749
 40
1.0
 40
1.0
 40
1.0
 40
1.0
 10
5.2499143132
 20
3.5450985376
 30
0.0
 10
5.2461623482
 20
3.5413452864
 30
0.0
 10
5.2387262604
 20
3.5337862804
 30
0.0
 10
5.22776935
 20
3.5223006937
 30
0.0
 10
5.217035003
 20
3.5107086046
 30
0.0
 10
5.2065407045
 20
3.4990466263
 30
0.0
 10
5.1962949724
 20
3.4873496994
 30
0.0
 10
5.1863028823
 20
3.4756474195
 30
0.0
 10
5.176566312
 20
3.4639665142
 30
0.0
 10
5.1670843392
 20
3.4523308389
 30
0.0
 10
5.1578538095
 20
3.4407623304
 30
0.0
 10
5.1488718618
 20
3.4292796827
 30
0.0
 10
5.1401373555
 20
3.417897295
 30
0.0
 10
5.1289172647
 20
3.4030049001
 30
0.0
 10
5.1154978407
 20
3.3847206928
 30
0.0
 10
5.1050789277
 20
3.3700718653
 30
0.0
 10
5.1000156453
 20
3.3628539892
 30
0.0
 11
5.2499143132
 21
3.5450985376
 31
0.0
 11
5.238747861
 21
3.5337500765
 31
0.0
 11
5.2277802053
 21
3.5222549777
 31
0.0
 11
5.2170370724
 21
3.5106553592
 31
0.0
 11
5.20653602
 21
3.4989888346
 31
0.0
 11
5.1962839258
 21
3.4872871287
 31
0.0
 11
5.1862867352
 21
3.4755813449
 31
0.0
 11
5.1765461877
 21
3.463898135
 31
0.0
 11
5.1670601534
 21
3.4522600558
 31
0.0
 11
5.1578263562
 21
3.4406894386
 31
0.0
 11
5.1488424261
 21
3.4292051615
 31
0.0
 11
5.1401058599
 21
3.4178212102
 31
0.0
 11
5.1316141444
 21
3.4065511993
 31
0.0
 11
5.1153518486
 21
3.3844042083
 31
0.0
 11
5.1000156453
 21
3.3628539892
 31
0.0
  0
SPLINE
  5
368
100
AcDbEntity
  8
0
100
AcDbSpline
 62
6
  6
CONTINUOUS
 70
0
 71
3
 72
10
 73
6
 74
4
 42
0.0000001
 43
0.0000001
 44
0.0000000001
 12
0.0047257214
 22
0.0145839879
 32
0.0
 13
0.0065544289
 23
0.0138587376
 33
0.0
 40
0.0
 40
0.0
 40
0.0
 40
0.0
 40
0.5276500701
 40
0.7699665559
 40
1.0
 40
1.0
 40
1.0
 40
1.0
 10
4.6197786851
 20
5.0481190031
 30
0.0
 10
4.6206098608
 20
5.0506840839
 30
0.0
 10
4.6219320408
 20
5.0543937462
 30
0.0
 10
4.6238874797
 20
5.0591156829
 30
0.0
 10
4.6248835705
 20
5.0613149492
 30
0.0
 10
4.6253861497
 20
5.0623776069
 30
0.0
 11
4.6197786851
 21
5.0481190031
 31
0.0
 11
4.6225081618
 21
5.0557337512
 31
0.0
 11
4.6239305624
 21
5.0591654874
 31
0.0
 11
4.6253861497
 21
5.0623776069
 31
0.0
  0
SPLINE
  5
369
100
AcDbEntity
  8
0
100
AcDbSpline
 62
6
  6
CONTINUOUS
 70
0
 71
3
 72
13
 73
9
 74
7
 42
0.0000001
 43
0.0000001
 44
0.0000000001
 12
0.0074138062
 22
0.0150278513
 32
0.0
 13
0.0094189984
 23
0.0138594122
 33
0.0
 40
0.0
 40
0.0
 40
0.0
 40
0.0
 40
0.2678484274
 40
0.5216989289
 40
0.6443818043
 40
0.764741419
 40
0.8831479532
 40
1.0
 40
1.0
 40
1.0
 40
1.0
 10
4.6261532808
 20
5.0639655816
 30
0.0
 10
4.6268152062
 20
5.0653073103
 30
0.0
 10
4.6281600676
 20
5.0678936315
 30
0.0
 10
4.6299490487
 20
5.0710178725
 30
0.0
 10
4.6313915525
 20
5.0733891872
 30
0.0
 10
4.6324677478
 20
5.075097477
 30
0.0
 10
4.6335489044
 20
5.0767639121
 30
0.0
 10
4.6342792985
 20
5.0778563809
 30
0.0
 10
4.6346461749
 20
5.0783962144
 30
0.0
 11
4.6261532808
 21
5.0639655816
 31
0.0
 11
4.6282234392
 21
5.0679480277
 31
0.0
 11
4.630334902
 21
5.0716407979
 31
0.0
 11
4.6314029045
 21
5.0733974222
 31
0.0
 11
4.6324773714
 21
5.0751042685
 31
0.0
 11
4.6335574699
 21
5.0767686738
 31
0.0
 11
4.6346461749
 21
5.0783962144
 31
0.0
  0
SPLINE
  5
36A
100
AcDbEntity
  8
0
100
AcDbSpline
 62
6
  6
CONTINUOUS
 70
0
 71
3
 72
10
 73
6
 74
4
 42
0.0000001
 43
0.0000001
 44
0.0000000001
 12
0.0092021225
 22
0.0092021225
 32
0.0
 13
0.010161495
 23
0.008130322
 33
0.0
 40
0.0
 40
0.0
 40
0.0
 40
0.0
 40
0.5149555311
 40
0.7600604725
 40
1.0
 40
1.0
 40
1.0
 40
1.0
 10
4.6486477388
 20
5.095268395
 30
0.0
 10
4.6502273001
 20
5.0968479563
 30
0.0
 10
4.6526155049
 20
5.0991241739
 30
0.0
 10
4.6558821795
 20
5.1019790229
 30
0.0
 10
4.6575061317
 20
5.1033174914
 30
0.0
 10
4.6583188465
 20
5.1039677533
 30
0.0
 11
4.6486477388
 21
5.095268395
 31
0.0
 11
4.6535068636
 21
5.0998834958
 31
0.0
 11
4.655909132
 21
5.1019819567
 31
0.0
 11
4.6583188465
 21
5.1039677533
 31
0.0
  0
SPLINE
  5
36B
100
AcDbEntity
  8
0
100
AcDbSpline
 62
6
  6
CONTINUOUS
 70
0
 71
3
 72
10
 73
6
 74
4
 42
0.0000001
 43
0.0000001
 44
0.0000000001
 12
-0.0146858083
 22
0.0047587149
 32
0.0
 13
-0.0139488903
 23
0.006614136
 33
0.0
 40
0.0
 40
0.0
 40
0.0
 40
0.0
 40
0.5278385281
 40
0.7700955524
 40
1.0
 40
1.0
 40
1.0
 40
1.0
 10
4.6957971304
 20
3.1098348776
 30
0.0
 10
4.6932132186
 20
3.1106721553
 30
0.0
 10
4.6894772614
 20
3.1120046089
 30
0.0
 10
4.6847235878
 20
3.1139766959
 30
0.0
 10
4.682510728
 20
3.1149812951
 30
0.0
 10
4.6814417574
 20
3.1154881682
 30
0.0
 11
4.6957971304
 21
3.1098348776
 31
0.0
 11
4.6881271394
 21
3.1125862311
 31
0.0
 11
4.6846731974
 21
3.1140203936
 31
0.0
 11
4.6814417574
 21
3.1154881682
 31
0.0
  0
SPLINE
  5
36C
100
AcDbEntity
  8
0
100
AcDbSpline
 62
6
  6
CONTINUOUS
 70
0
 71
3
 72
13
 73
9
 74
7
 42
0.0000001
 43
0.0000001
 44
0.0000000001
 12
-0.0150695104
 22
0.0074428796
 32
0.0
 13
-0.0138937561
 23
0.0094578086
 33
0.0
 40
0.0
 40
0.0
 40
0.0
 40
0.0
 40
0.2678481705
 40
0.5216830373
 40
0.6443594904
 40
0.7647171246
 40
0.8831294493
 40
1.0
 40
1.0
 40
1.0
 40
1.0
 10
4.6799072041
 20
3.1162308709
 30
0.0
 10
4.6785617571
 20
3.1168953915
 30
0.0
 10
4.6759684621
 20
3.1182455987
 30
0.0
 10
4.6728360621
 20
3.1200417973
 30
0.0
 10
4.670458658
 20
3.1214900374
 30
0.0
 10
4.6687459091
 20
3.1225704786
 30
0.0
 10
4.6670750048
 20
3.1236559156
 30
0.0
 10
4.6659796715
 20
3.124389358
 30
0.0
 10
4.6654384145
 20
3.1247578044
 30
0.0
 11
4.6799072041
 21
3.1162308709
 31
0.0
 11
4.6759138954
 21
3.1183092889
 31
0.0
 11
4.6722115566
 21
3.1204291717
 31
0.0
 11
4.6704504223
 21
3.1215014084
 31
0.0
 11
4.6687391361
 21
3.1225801065
 31
0.0
 11
4.6670703181
 21
3.1236645078
 31
0.0
 11
4.6654384145
 21
3.1247578044
 31
0.0
  0
SPLINE
  5
36D
100
AcDbEntity
  8
0
100
AcDbSpline
 62
6
  6
CONTINUOUS
 70
0
 71
3
 72
10
 73
6
 74
4
 42
0.0000001
 43
0.0000001
 44
0.0000000001
 12
-0.0092068753
 22
0.0092068753
 32
0.0
 13
-0.0081338879
 23
0.01016725
 33
0.0
 40
0.0
 40
0.0
 40
0.0
 40
0.0
 40
0.514958972
 40
0.7600617693
 40
1.0
 40
1.0
 40
1.0
 40
1.0
 10
4.6486477388
 20
3.1387039315
 30
0.0
 10
4.6470673511
 20
3.1402843191
 30
0.0
 10
4.6447899828
 20
3.1426737923
 30
0.0
 10
4.6419337852
 20
3.1459422649
 30
0.0
 10
4.6405947239
 20
3.1475671183
 30
0.0
 10
4.6399441804
 20
3.1483802889
 30
0.0
 11
4.6486477388
 21
3.1387039315
 31
0.0
 11
4.6440302935
 21
3.1435656649
 31
0.0
 11
4.64193086
 21
3.1459692341
 31
0.0
 11
4.6399441804
 21
3.1483802889
 31
0.0
  0
SPLINE
  5
36E
100
AcDbEntity
  8
0
100
AcDbSpline
 62
6
  6
CONTINUOUS
 70
0
 71
3
 72
10
 73
6
 74
4
 42
0.0000001
 43
0.0000001
 44
0.0000000001
 12
-0.0047587893
 22
-0.014686038
 32
0.0
 13
-0.0066142709
 23
-0.0139490934
 33
0.0
 40
0.0
 40
0.0
 40
0.0
 40
0.0
 40
0.5278389528
 40
0.770095843
 40
1.0
 40
1.0
 40
1.0
 40
1.0
 10
6.6340812562
 20
3.1858533231
 30
0.0
 10
6.6332439647
 20
3.1832693688
 30
0.0
 10
6.631911488
 20
3.1795333522
 30
0.0
 10
6.6299393634
 20
3.1747796071
 30
0.0
 10
6.6289347449
 20
3.1725667167
 30
0.0
 10
6.6284278622
 20
3.1714977319
 30
0.0
 11
6.6340812562
 21
3.1858533231
 31
0.0
 11
6.6313298533
 21
3.1781832075
 31
0.0
 11
6.6298956643
 21
3.1747292154
 31
0.0
 11
6.6284278622
 21
3.1714977319
 31
0.0
  0
SPLINE
  5
36F
100
AcDbEntity
  8
0
100
AcDbSpline
 62
6
  6
CONTINUOUS
 70
0
 71
3
 72
13
 73
9
 74
7
 42
0.0000001
 43
0.0000001
 44
0.0000000001
 12
-0.007442977
 22
-0.0150696693
 32
0.0
 13
-0.0094579445
 23
-0.0138938881
 33
0.0
 40
0.0
 40
0.0
 40
0.0
 40
0.0
 40
0.2678482225
 40
0.5216830519
 40
0.6443594782
 40
0.7647170926
 40
0.8831294161
 40
1.0
 40
1.0
 40
1.0
 40
1.0
 10
6.6276852155
 20
3.1699633007
 30
0.0
 10
6.6270206861
 20
3.1686178393
 30
0.0
 10
6.6256704607
 20
3.1660245173
 30
0.0
 10
6.6238742371
 20
3.1628920857
 30
0.0
 10
6.6224259771
 20
3.1605146583
 30
0.0
 10
6.6213455212
 20
3.1588018925
 30
0.0
 10
6.6202600694
 20
3.1571309716
 30
0.0
 10
6.6195266165
 20
3.1560356275
 30
0.0
 10
6.6191581647
 20
3.1554943652
 30
0.0
 11
6.6276852155
 21
3.1699633007
 31
0.0
 11
6.6256067692
 21
3.1659699498
 31
0.0
 11
6.6234868574
 21
3.162267574
 31
0.0
 11
6.6224146061
 21
3.1605064225
 31
0.0
 11
6.6213358934
 21
3.1587951196
 31
0.0
 11
6.6202514772
 21
3.157126285
 31
0.0
 11
6.6191581647
 21
3.1554943652
 31
0.0
  0
SPLINE
  5
370
100
AcDbEntity
  8
0
100
AcDbSpline
 62
6
  6
CONTINUOUS
 70
0
 71
3
 72
10
 73
6
 74
4
 42
0.0000001
 43
0.0000001
 44
0.0000000001
 12
-0.0092068848
 22
-0.0092068848
 32
0.0
 13
-0.0101672615
 23
-0.008133895
 33
0.0
 40
0.0
 40
0.0
 40
0.0
 40
0.0
 40
0.5149589789
 40
0.7600617718
 40
1.0
 40
1.0
 40
1.0
 40
1.0
 10
6.6052122024
 20
3.1387039315
 30
0.0
 10
6.603631813
 20
3.1371235421
 30
0.0
 10
6.6012423373
 20
3.1348461715
 30
0.0
 10
6.5979738611
 20
3.1319899712
 30
0.0
 10
6.596349006
 20
3.1306509088
 30
0.0
 10
6.5955358344
 20
3.1300003646
 30
0.0
 11
6.6052122024
 21
3.1387039315
 31
0.0
 11
6.6003504637
 21
3.1340864814
 31
0.0
 11
6.5979468919
 21
3.131987046
 31
0.0
 11
6.5955358344
 21
3.1300003646
 31
0.0
  0
SPLINE
  5
371
100
AcDbEntity
  8
0
100
AcDbSpline
 62
6
  6
CONTINUOUS
 70
0
 71
3
 72
18
 73
14
 74
12
 42
0.0000001
 43
0.0000001
 44
0.0000000001
 12
-0.1671169555
 22
-0.1670649177
 32
0.0
 13
-0.1934196487
 23
-0.1357483075
 33
0.0
 40
0.0
 40
0.0
 40
0.0
 40
0.0
 40
0.0673835457
 40
0.1346274997
 40
0.2015376218
 40
0.2679608729
 40
0.3337996088
 40
0.3989584482
 40
0.5269122463
 40
0.6512551351
 40
0.7716668264
 40
0.8879701276
 40
1.0
 40
1.0
 40
1.0
 40
1.0
 10
5.055059123
 20
3.7399872793
 30
0.0
 10
5.0513054786
 20
3.7362348038
 30
0.0
 10
5.0437423007
 20
3.7288010503
 30
0.0
 10
5.0322462791
 20
3.7178528688
 30
0.0
 10
5.0206457386
 20
3.707126646
 30
0.0
 10
5.0089802307
 20
3.696636057
 30
0.0
 10
4.9972827962
 20
3.6863892969
 30
0.0
 10
4.9817765339
 20
3.6731376059
 30
0.0
 10
4.9624880687
 20
3.6572213931
 30
0.0
 10
4.939454012
 20
3.6390171761
 30
0.0
 10
4.9168095109
 20
3.6218089182
 30
0.0
 10
4.894663886
 20
3.6055541704
 30
0.0
 10
4.8800092796
 20
3.5951266078
 30
0.0
 10
4.8727863534
 20
3.5900573193
 30
0.0
 11
5.055059123
 21
3.7399872793
 31
0.0
 11
5.043705352
 21
3.7288234919
 31
0.0
 11
5.0322004683
 21
3.7178632664
 31
0.0
 11
5.0205929265
 21
3.7071276653
 31
0.0
 11
5.0089232692
 21
3.6966308839
 31
0.0
 11
4.9972216742
 21
3.6863781209
 31
0.0
 11
4.9855174412
 21
3.676373915
 31
0.0
 11
4.9622010378
 21
3.6571243095
 31
0.0
 11
4.9391532391
 21
3.6388998563
 31
0.0
 11
4.9165038338
 21
3.6216775075
 31
0.0
 11
4.8943522439
 21
3.6054107393
 31
0.0
 11
4.8727863534
 21
3.5900573193
 31
0.0
  0
SPLINE
  5
372
100
AcDbEntity
  8
0
100
AcDbSpline
 62
6
  6
CONTINUOUS
 70
0
 71
3
 72
13
 73
9
 74
7
 42
0.0000001
 43
0.0000001
 44
0.0000000001
 12
0.0138116801
 22
0.0093836502
 32
0.0
 13
0.0149718027
 23
0.0073932755
 33
0.0
 40
0.0
 40
0.0
 40
0.0
 40
0.0
 40
0.1168793668
 40
0.2353107337
 40
0.355689899
 40
0.4783845344
 40
0.7322249707
 40
1.0
 40
1.0
 40
1.0
 40
1.0
 10
4.6655353867
 20
5.109280469
 30
0.0
 10
4.6660734868
 20
5.109646054
 30
0.0
 10
4.6671624103
 20
5.1103738986
 30
0.0
 10
4.6688233405
 20
5.111451347
 30
0.0
 10
4.6705258629
 20
5.1125238675
 30
0.0
 10
4.6728888268
 20
5.1139614107
 30
0.0
 10
4.6760014026
 20
5.1157442876
 30
0.0
 10
4.6785777386
 20
5.1170849483
 30
0.0
 10
4.6799140969
 20
5.1177448598
 30
0.0
 11
4.6655353867
 21
5.109280469
 31
0.0
 11
4.6671576668
 21
5.110365386
 31
0.0
 11
4.6688165906
 21
5.1114417842
 31
0.0
 11
4.6705176848
 21
5.1125125936
 31
0.0
 11
4.6722682146
 21
5.113576983
 31
0.0
 11
4.6759474625
 21
5.1156814059
 31
0.0
 11
4.6799140969
 21
5.1177448598
 31
0.0
  0
SPLINE
  5
373
100
AcDbEntity
  8
0
100
AcDbSpline
 62
6
  6
CONTINUOUS
 70
0
 71
3
 72
10
 73
6
 74
4
 42
0.0000001
 43
0.0000001
 44
0.0000000001
 12
0.0138337379
 22
0.0065379205
 32
0.0
 13
0.0145557748
 23
0.0047165803
 33
0.0
 40
0.0
 40
0.0
 40
0.0
 40
0.0
 40
0.2300692456
 40
0.4724021991
 40
1.0
 40
1.0
 40
1.0
 40
1.0
 10
4.6815653469
 20
5.1185426643
 30
0.0
 10
4.6826262528
 20
5.1190440558
 30
0.0
 10
4.6848217481
 20
5.120037793
 30
0.0
 10
4.6895348873
 20
5.1219886274
 30
0.0
 10
4.6932372642
 20
5.1233079636
 30
0.0
 10
4.6957971292
 20
5.1241374494
 30
0.0
 11
4.6815653469
 21
5.1185426643
 31
0.0
 11
4.6847721057
 21
5.1199948801
 31
0.0
 11
4.6881976842
 21
5.1214140265
 31
0.0
 11
4.6957971292
 21
5.1241374494
 31
0.0
  0
SPLINE
  5
374
100
AcDbEntity
  8
0
100
AcDbSpline
 62
6
  6
CONTINUOUS
 70
0
 71
3
 72
10
 73
6
 74
4
 42
0.0000001
 43
0.0000001
 44
0.0000000001
 12
0.008134845
 22
0.0101687949
 32
0.0
 13
0.0092081511
 23
0.0092081511
 33
0.0
 40
0.0
 40
0.0
 40
0.0
 40
0.0
 40
0.2399378776
 40
0.4850400956
 40
1.0
 40
1.0
 40
1.0
 40
1.0
 10
4.639943053
 20
5.0855906283
 30
0.0
 10
4.6405936721
 20
5.0864039213
 30
0.0
 10
4.6419328924
 20
5.0880290165
 30
0.0
 10
4.644789452
 20
5.0912979717
 30
0.0
 10
4.6470671293
 20
5.0936877855
 30
0.0
 10
4.6486477388
 20
5.095268395
 30
0.0
 11
4.639943053
 21
5.0855906283
 31
0.0
 11
4.6419299695
 21
5.0880020428
 31
0.0
 11
4.644029664
 21
5.0904059612
 31
0.0
 11
4.6486477388
 21
5.095268395
 31
0.0
  0
SPLINE
  5
375
100
AcDbEntity
  8
0
100
AcDbSpline
 62
6
  6
CONTINUOUS
 70
0
 71
3
 72
18
 73
14
 74
12
 42
0.0000001
 43
0.0000001
 44
0.0000000001
 12
0.1671193575
 22
0.1670683334
 32
0.0
 13
0.1934231075
 23
0.1357505401
 33
0.0
 40
0.0
 40
0.0
 40
0.0
 40
0.0
 40
0.0673827692
 40
0.1346257583
 40
0.2015353628
 40
0.2679590712
 40
0.3337980773
 40
0.3989557235
 40
0.5269041075
 40
0.6512432203
 40
0.7716564703
 40
0.8879637583
 40
1.0
 40
1.0
 40
1.0
 40
1.0
 10
6.1987988087
 20
4.4939830383
 30
0.0
 10
6.2025524638
 20
4.4977355473
 30
0.0
 10
6.2101156509
 20
4.5051693592
 30
0.0
 10
6.2216117125
 20
4.5161176413
 30
0.0
 10
6.2332123786
 20
4.5268440148
 30
0.0
 10
6.2448780946
 20
4.5373348054
 30
0.0
 10
6.2565756859
 20
4.5475817415
 30
0.0
 10
6.272081782
 20
4.5608334052
 30
0.0
 10
6.2913699455
 20
4.5767493837
 30
0.0
 10
6.314403923
 20
4.5949535543
 30
0.0
 10
6.3370488504
 20
4.6121622998
 30
0.0
 10
6.3591956106
 20
4.6284178968
 30
0.0
 10
6.3738511686
 20
4.638846069
 30
0.0
 10
6.3810746347
 20
4.6439157291
 30
0.0
 11
6.1987988087
 21
4.4939830383
 31
0.0
 11
6.2101526114
 21
4.5051469271
 31
0.0
 11
6.2216575005
 21
4.5161072175
 31
0.0
 11
6.2332651365
 21
4.526842942
 31
0.0
 11
6.2449350662
 21
4.5373399907
 31
0.0
 11
6.2566368919
 21
4.5475929982
 31
0.0
 11
6.2683410804
 21
4.5575972348
 31
0.0
 11
6.2916568784
 21
4.5768463908
 31
0.0
 11
6.3147043561
 21
4.5950706361
 31
0.0
 11
6.337354392
 21
4.6122935824
 31
0.0
 11
6.3595071171
 21
4.6285612047
 31
0.0
 11
6.3810746347
 21
4.6439157291
 31
0.0
  0
SPLINE
  5
376
100
AcDbEntity
  8
0
100
AcDbSpline
 62
6
  6
CONTINUOUS
 70
0
 71
3
 72
21
 73
17
 74
15
 42
0.0000001
 43
0.0000001
 44
0.0000000001
 12
0.1670414222
 22
0.1670971257
 32
0.0
 13
0.1356996738
 23
0.1934163506
 33
0.0
 40
0.0
 40
0.0
 40
0.0
 40
0.0
 40
0.0673854615
 40
0.1346309275
 40
0.2015471243
 40
0.2679814657
 40
0.3338280399
 40
0.3989830756
 40
0.4633657575
 40
0.5269150023
 40
0.5895688539
 40
0.6512776404
 40
0.7120089095
 40
0.7717304848
 40
0.8880283099
 40
1.0
 40
1.0
 40
1.0
 40
1.0
 10
6.0039423642
 20
4.6888705239
 30
0.0
 10
6.0076944186
 20
4.6926238295
 30
0.0
 10
6.0151306737
 20
4.7001829316
 30
0.0
 10
6.0260877863
 20
4.7116686213
 30
0.0
 10
6.0368222487
 20
4.7232607827
 30
0.0
 10
6.0473166627
 20
4.7349228068
 30
0.0
 10
6.0575626032
 20
4.7466198759
 30
0.0
 10
6.0675550526
 20
4.75832248
 30
0.0
 10
6.0772920693
 20
4.7700038003
 30
0.0
 10
6.0867743448
 20
4.7816397478
 30
0.0
 10
6.0960048283
 20
4.793208158
 30
0.0
 10
6.1049862657
 20
4.8046904489
 30
0.0
 10
6.1137201111
 20
4.8160724098
 30
0.0
 10
6.1249399628
 20
4.8309649988
 30
0.0
 10
6.1383607188
 20
4.8492509157
 30
0.0
 10
6.1487816112
 20
4.8639012219
 30
0.0
 10
6.1538464518
 20
4.8711202738
 30
0.0
 11
6.0039423642
 21
4.6888705239
 31
0.0
 11
6.0151090848
 21
4.7002191491
 31
0.0
 11
6.0260769643
 21
4.7117143828
 31
0.0
 11
6.0368201878
 21
4.7233140326
 31
0.0
 11
6.0473213184
 21
4.7349805641
 31
0.0
 11
6.0575735861
 21
4.7466823736
 31
0.0
 11
6.0675711406
 21
4.758388482
 31
0.0
 11
6.0773122331
 21
4.7700722325
 31
0.0
 11
6.0867986702
 21
4.7817107141
 31
0.0
 11
6.096032386
 21
4.7932812376
 31
0.0
 11
6.1050157192
 21
4.8047650163
 31
0.0
 11
6.1137515401
 21
4.8161484
 31
0.0
 11
6.1222427556
 21
4.8274180883
 31
0.0
 11
6.1385060585
 21
4.8495661972
 31
0.0
 11
6.1538464518
 21
4.8711202738
 31
0.0
  0
SPLINE
  5
377
100
AcDbEntity
  8
0
100
AcDbSpline
 62
6
  6
CONTINUOUS
 70
0
 71
3
 72
10
 73
6
 74
4
 42
0.0000001
 43
0.0000001
 44
0.0000000001
 12
0.0101636325
 22
-0.0081316465
 32
0.0
 13
0.0092038878
 23
-0.0092038878
 33
0.0
 40
0.0
 40
0.0
 40
0.0
 40
0.0
 40
0.2399390392
 40
0.4850431804
 40
1.0
 40
1.0
 40
1.0
 40
1.0
 10
6.5955391448
 20
5.1039693134
 30
0.0
 10
6.5963520289
 20
5.1033189469
 30
0.0
 10
6.5979763157
 20
5.1019802583
 30
0.0
 10
6.6012436582
 20
5.0991249083
 30
0.0
 10
6.6036323341
 20
5.0968482633
 30
0.0
 10
6.6052122024
 20
5.095268395
 30
0.0
 11
6.5955391448
 21
5.1039693134
 31
0.0
 11
6.597949357
 21
5.1019831889
 31
0.0
 11
6.6003521085
 21
5.0998843668
 31
0.0
 11
6.6052122024
 21
5.095268395
 31
0.0
  0
SPLINE
  5
378
100
AcDbEntity
  8
0
100
AcDbSpline
 62
6
  6
CONTINUOUS
 70
0
 71
3
 72
13
 73
9
 74
7
 42
0.0000001
 43
0.0000001
 44
0.0000000001
 12
0.0093454552
 22
-0.0137804413
 32
0.0
 13
0.0073635698
 23
-0.014933718
 33
0.0
 40
0.0
 40
0.0
 40
0.0
 40
0.0
 40
0.1168542512
 40
0.2352751669
 40
0.3556533783
 40
0.4783533233
 40
0.7322129333
 40
1.0
 40
1.0
 40
1.0
 40
1.0
 10
6.6192858886
 20
5.0782899785
 30
0.0
 10
6.6196499073
 20
5.0777532108
 30
0.0
 10
6.6203747168
 20
5.0766669604
 30
0.0
 10
6.6214479206
 20
5.0750102039
 30
0.0
 10
6.6225162122
 20
5.0733117937
 30
0.0
 10
6.6239480479
 20
5.0709543758
 30
0.0
 10
6.6257237205
 20
5.0678491514
 30
0.0
 10
6.627058991
 20
5.0652790957
 30
0.0
 10
6.6277162805
 20
5.0639460769
 30
0.0
 11
6.6192858886
 21
5.0782899785
 31
0.0
 11
6.6203662263
 21
5.0766717903
 31
0.0
 11
6.6214383508
 21
5.0750169788
 31
0.0
 11
6.6225049484
 21
5.0733199805
 31
0.0
 11
6.6235651158
 21
5.0715735724
 31
0.0
 11
6.6256611194
 21
5.0679029737
 31
0.0
 11
6.6277162805
 21
5.0639460769
 31
0.0
  0
SPLINE
  5
379
100
AcDbEntity
  8
0
100
AcDbSpline
 62
6
  6
CONTINUOUS
 70
0
 71
3
 72
10
 73
6
 74
4
 42
0.0000001
 43
0.0000001
 44
0.0000000001
 12
0.0064648977
 22
-0.0137227846
 32
0.0
 13
0.004676043
 23
-0.0144306736
 33
0.0
 40
0.0
 40
0.0
 40
0.0
 40
0.0
 40
0.2302282019
 40
0.4726340982
 40
1.0
 40
1.0
 40
1.0
 40
1.0
 10
6.6285426096
 20
5.0622318144
 30
0.0
 10
6.6290387435
 20
5.0611786904
 30
0.0
 10
6.6300220643
 20
5.0589999401
 30
0.0
 10
6.6319525221
 20
5.0543258299
 30
0.0
 10
6.6332592615
 20
5.0506557528
 30
0.0
 10
6.6340812567
 20
5.0481190044
 30
0.0
 11
6.6285426096
 21
5.0622318144
 31
0.0
 11
6.6299799002
 21
5.059048865
 31
0.0
 11
6.6313846411
 21
5.0556506166
 31
0.0
 11
6.6340812567
 21
5.0481190044
 31
0.0
  0
SPLINE
  5
37A
100
AcDbEntity
  8
0
100
AcDbSpline
 62
6
  6
CONTINUOUS
 70
0
 71
3
 72
18
 73
14
 74
12
 42
0.0000001
 43
0.0000001
 44
0.0000000001
 12
-0.1670678976
 22
0.1671188992
 32
0.0
 13
-0.1357502364
 23
0.1934225483
 33
0.0
 40
0.0
 40
0.0
 40
0.0
 40
0.0
 40
0.0673831337
 40
0.1346265435
 40
0.2015362727
 40
0.2679596665
 40
0.3337985604
 40
0.3989569676
 40
0.5269085686
 40
0.6512494463
 40
0.7716614944
 40
0.8879666929
 40
1.0
 40
1.0
 40
1.0
 40
1.0
 10
5.2499331427
 20
4.6888549541
 30
0.0
 10
5.2461806232
 20
4.6926086192
 30
0.0
 10
5.2387467893
 20
4.7001718316
 30
0.0
 10
5.2277984884
 20
4.7116679156
 30
0.0
 10
5.2170721268
 20
4.7232685598
 30
0.0
 10
5.2065813724
 20
4.73493422
 30
0.0
 10
5.1963344468
 20
4.7466318003
 30
0.0
 10
5.1830826404
 20
4.7621381032
 30
0.0
 10
5.1671664149
 20
4.7814265623
 30
0.0
 10
5.1489621022
 20
4.8044607074
 30
0.0
 10
5.1317535168
 20
4.8271055099
 30
0.0
 10
5.1154982546
 20
4.8492518157
 30
0.0
 10
5.1050703173
 20
4.8639069962
 30
0.0
 10
5.1000008013
 20
4.8711302522
 30
0.0
 11
5.2499331427
 21
4.6888549541
 31
0.0
 11
5.2387692245
 21
4.7002087889
 31
0.0
 11
5.2278088954
 21
4.7117137196
 31
0.0
 11
5.2170731757
 21
4.7233213426
 31
0.0
 11
5.206576199
 21
4.7349911806
 31
0.0
 11
5.1963232378
 21
4.7466929563
 31
0.0
 11
5.1863189214
 21
4.758397259
 31
0.0
 11
5.1670693371
 21
4.7817135843
 31
0.0
 11
5.1488448861
 21
4.8047613307
 31
0.0
 11
5.1316221855
 21
4.8274111011
 31
0.0
 11
5.1153549009
 21
4.8495633704
 31
0.0
 11
5.1000008013
 21
4.8711302522
 31
0.0
  0
SPLINE
  5
37B
100
AcDbEntity
  8
0
100
AcDbSpline
 62
6
  6
CONTINUOUS
 70
0
 71
3
 72
21
 73
17
 74
15
 42
0.0000001
 43
0.0000001
 44
0.0000000001
 12
-0.1670954376
 22
0.167039514
 32
0.0
 13
-0.1934197909
 23
0.1356903424
 33
0.0
 40
0.0
 40
0.0
 40
0.0
 40
0.0
 40
0.0673859321
 40
0.1346319542
 40
0.2015490898
 40
0.2679845266
 40
0.3338318951
 40
0.3989869723
 40
0.4633690603
 40
0.526918206
 40
0.5895735964
 40
0.6512854495
 40
0.7120200985
 40
0.7717441409
 40
0.8880402786
 40
1.0
 40
1.0
 40
1.0
 40
1.0
 10
5.0550451494
 20
4.4939990172
 30
0.0
 10
5.0512918554
 20
4.497751055
 30
0.0
 10
5.0437327712
 20
4.5051872808
 30
0.0
 10
5.0322470836
 20
4.5161443723
 30
0.0
 10
5.020654897
 20
4.5268788574
 30
0.0
 10
5.0089928289
 20
4.5373733031
 30
0.0
 10
4.9972957636
 20
4.547619225
 30
0.0
 10
4.9855932565
 20
4.5576115623
 30
0.0
 10
4.9739120771
 20
4.5673484123
 30
0.0
 10
4.9622761849
 20
4.5768306054
 30
0.0
 10
4.950707625
 20
4.5860612145
 30
0.0
 10
4.9392250341
 20
4.5950430338
 30
0.0
 10
4.9278427336
 20
4.6037773362
 30
0.0
 10
4.9129501478
 20
4.6149974034
 30
0.0
 10
4.8946651077
 20
4.6284174561
 30
0.0
 10
4.8800155703
 20
4.6388372443
 30
0.0
 10
4.8727971617
 20
4.6439011953
 30
0.0
 11
5.0550451494
 21
4.4939990172
 31
0.0
 11
5.0436965586
 21
4.505165687
 31
0.0
 11
5.0322013457
 21
4.5161335311
 31
0.0
 11
5.0206016557
 21
4.5268767872
 31
0.0
 11
5.0089350535
 21
4.5373779734
 31
0.0
 11
4.9972332204
 21
4.547630245
 31
0.0
 11
4.9855272153
 21
4.5576276803
 31
0.0
 11
4.9738436767
 21
4.5673685522
 31
0.0
 11
4.9622053231
 21
4.5768548535
 31
0.0
 11
4.9506346518
 21
4.5860887115
 31
0.0
 11
4.9391504908
 21
4.5950724772
 31
0.0
 11
4.9277666845
 21
4.6038088055
 31
0.0
 11
4.9164967218
 21
4.6123003731
 31
0.0
 11
4.8943491125
 21
4.6285631831
 31
0.0
 11
4.8727971617
 21
4.6439011953
 31
0.0
  0
SPLINE
  5
37C
100
AcDbEntity
  8
0
100
AcDbSpline
 62
6
  6
CONTINUOUS
 70
0
 71
3
 72
17
 73
13
 74
11
 42
0.0000001
 43
0.0000001
 44
0.0000000001
 12
-0.1152626661
 22
-0.0845744726
 32
0.0
 13
-0.1418882044
 23
-0.0174946011
 33
0.0
 40
0.0
 40
0.0
 40
0.0
 40
0.0
 40
0.1250355579
 40
0.2500507912
 40
0.3750260228
 40
0.4999901706
 40
0.6249741999
 40
0.7499763743
 40
0.812485611
 40
0.8749926411
 40
0.9374969788
 40
1.0
 40
1.0
 40
1.0
 40
1.0
 10
4.9482997331
 20
3.1506670082
 30
0.0
 10
4.9434957558
 20
3.1471420694
 30
0.0
 10
4.933661059
 20
3.1403970737
 30
0.0
 10
4.9183036326
 20
3.1312348469
 30
0.0
 10
4.9024010636
 20
3.1230611474
 30
0.0
 10
4.8860150456
 20
3.1159094827
 30
0.0
 10
4.8692066421
 20
3.1098132755
 30
0.0
 10
4.8549012557
 20
3.1056359302
 30
0.0
 10
4.8433153819
 20
3.1028500234
 30
0.0
 10
4.8345624326
 20
3.1010416566
 30
0.0
 10
4.8257558454
 20
3.0995185112
 30
0.0
 10
4.8198547526
 20
3.0986943916
 30
0.0
 10
4.8168986054
 20
3.0983299031
 30
0.0
 11
4.9482997331
 21
3.1506670082
 31
0.0
 11
4.9335590039
 21
3.1405555582
 31
0.0
 11
4.9182106132
 21
3.1313983997
 31
0.0
 11
4.9023197941
 21
3.1232311402
 31
0.0
 11
4.8859457296
 21
3.116085816
 31
0.0
 11
4.8691481199
 21
3.1099942221
 31
0.0
 11
4.8519936135
 21
3.1049859464
 31
0.0
 11
4.8433047407
 21
3.1028968579
 31
0.0
 11
4.8345533184
 21
3.1010891603
 31
0.0
 11
4.8257482485
 21
3.0995663246
 31
0.0
 11
4.8168986054
 21
3.0983299031
 31
0.0
  0
LINE
  5
37D
100
AcDbEntity
  8
0
100
AcDbLine
 62
9
  6
CONTINUOUS
 10
5.1429148284
 20
4.5550358012
 11
5.1295926241
 21
4.5683119257
  0
SPLINE
  5
37E
100
AcDbEntity
  8
0
100
AcDbSpline
 62
9
  6
CONTINUOUS
 70
0
 71
3
 72
30
 73
26
 74
24
 42
0.0000001
 43
0.0000001
 44
0.0000000001
 12
-0.1240104238
 22
0.1380664662
 32
0.0
 13
0.1054236661
 23
0.152731087
 33
0.0
 40
0.0
 40
0.0
 40
0.0
 40
0.0
 40
0.0707031777
 40
0.1046174463
 40
0.1376846477
 40
0.1699935649
 40
0.2016328818
 40
0.2326905643
 40
0.2632531927
 40
0.2934052706
 40
0.3232285358
 40
0.3528013005
 40
0.3821978472
 40
0.411487904
 40
0.4407362152
 40
0.4700022188
 40
0.499339833
 40
0.5584004642
 40
0.618240175
 40
0.6790683432
 40
0.7410091831
 40
0.8041124556
 40
0.868364321
 40
0.9336974549
 40
1.0
 40
1.0
 40
1.0
 40
1.0
 10
4.8727971617
 20
4.6439011953
 30
0.0
 10
4.869874518
 20
4.6471551079
 30
0.0
 10
4.8657547505
 20
4.6521621914
 30
0.0
 10
4.8608347035
 20
4.6591177499
 30
0.0
 10
4.8575375523
 20
4.6643031832
 30
0.0
 10
4.8545761695
 20
4.6695260765
 30
0.0
 10
4.8519437607
 20
4.6747837049
 30
0.0
 10
4.8496337383
 20
4.6800730744
 30
0.0
 10
4.8476394373
 20
4.6853912388
 30
0.0
 10
4.845954184
 20
4.6907352235
 30
0.0
 10
4.8445712739
 20
4.6961020528
 30
0.0
 10
4.8434839772
 20
4.7014887527
 30
0.0
 10
4.8426855378
 20
4.7068923548
 30
0.0
 10
4.8421691808
 20
4.7123099162
 30
0.0
 10
4.841928104
 20
4.7177384712
 30
0.0
 10
4.8419555354
 20
4.7231752279
 30
0.0
 10
4.842341698
 20
4.7304461278
 30
0.0
 10
4.8434686321
 20
4.7395604142
 30
0.0
 10
4.8457774179
 20
4.7504485619
 30
0.0
 10
4.8489826605
 20
4.7612917197
 30
0.0
 10
4.8530221932
 20
4.7720663748
 30
0.0
 10
4.8578344751
 20
4.7827499246
 30
0.0
 10
4.8633585236
 20
4.7933194621
 30
0.0
 10
4.8695334639
 20
4.8037516197
 30
0.0
 10
4.8740145035
 20
4.8105548904
 30
0.0
 10
4.8763444559
 20
4.813930377
 30
0.0
 11
4.8727971617
 21
4.6439011953
 31
0.0
 11
4.8644802048
 21
4.654049908
 31
0.0
 11
4.8608478271
 21
4.659189852
 31
0.0
 11
4.8575572341
 21
4.6643697252
 31
0.0
 11
4.854601714
 21
4.6695866808
 31
0.0
 11
4.8519745549
 21
4.6748378718
 31
0.0
 11
4.8496690449
 21
4.6801204515
 31
0.0
 11
4.8476784723
 21
4.6854315729
 31
0.0
 11
4.8459961252
 21
4.6907683892
 31
0.0
 11
4.8446152917
 21
4.6961280534
 31
0.0
 11
4.8435292601
 21
4.7015077188
 31
0.0
 11
4.8427313184
 21
4.7069045384
 31
0.0
 11
4.8422147549
 21
4.7123156654
 31
0.0
 11
4.8419728577
 21
4.7177382529
 31
0.0
 11
4.8419989149
 21
4.7231694541
 31
0.0
 11
4.8422862148
 21
4.7286064219
 31
0.0
 11
4.8436165448
 21
4.7394860197
 31
0.0
 11
4.8459043861
 21
4.7503530142
 31
0.0
 11
4.8490891188
 21
4.7611831208
 31
0.0
 11
4.8531101229
 21
4.7719520551
 31
0.0
 11
4.8579067785
 21
4.7826355324
 31
0.0
 11
4.8634184659
 21
4.7932092681
 31
0.0
 11
4.869584565
 21
4.8036489779
 31
0.0
 11
4.8763444559
 21
4.813930377
 31
0.0
  0
SPLINE
  5
37F
100
AcDbEntity
  8
0
100
AcDbSpline
 62
9
  6
CONTINUOUS
 70
0
 71
3
 72
17
 73
13
 74
11
 42
0.0000001
 43
0.0000001
 44
0.0000000001
 12
-0.249953333
 22
0.2489786005
 32
0.0
 13
-0.2552606433
 23
0.2435344249
 33
0.0
 40
0.0
 40
0.0
 40
0.0
 40
0.0
 40
0.0519624319
 40
0.1062490759
 40
0.1626629131
 40
0.2210068553
 40
0.342696411
 40
0.4697401885
 40
0.6005617986
 40
0.7335912538
 40
0.8672601391
 40
1.0
 40
1.0
 40
1.0
 40
1.0
 10
5.1295926241
 20
4.5683119257
 30
0.0
 10
5.1252632298
 20
4.5726244369
 30
0.0
 10
5.1163982573
 20
4.5814297736
 30
0.0
 10
5.1027940863
 20
4.5948777981
 30
0.0
 10
5.0886269951
 20
4.6088237969
 30
0.0
 10
5.0687751342
 20
4.6282938844
 30
0.0
 10
5.0429308348
 20
4.6535161969
 30
0.0
 10
5.0109059974
 20
4.6846086735
 30
0.0
 10
4.9778563155
 20
4.716559852
 30
0.0
 10
4.9441829091
 20
4.7489866574
 30
0.0
 10
4.9102863121
 20
4.7815067855
 30
0.0
 10
4.8876388767
 20
4.8031548017
 30
0.0
 10
4.8763444559
 20
4.813930377
 30
0.0
 11
5.1295926241
 21
4.5683119257
 31
0.0
 11
5.1165871386
 21
4.5812320659
 31
0.0
 11
5.1029673925
 21
4.5946972707
 31
0.0
 11
5.0887845359
 21
4.6086602741
 31
0.0
 11
5.0740897192
 21
4.6230738099
 31
0.0
 11
5.0433688063
 21
4.6530634137
 31
0.0
 11
5.0112138556
 21
4.6842879525
 31
0.0
 11
4.9780326118
 21
4.716368633
 31
0.0
 11
4.9442269912
 21
4.748924006
 31
0.0
 11
4.9101974529
 21
4.7815719583
 31
0.0
 11
4.8763444559
 21
4.813930377
 31
0.0
  0
SPLINE
  5
380
100
AcDbEntity
  8
0
100
AcDbSpline
 62
9
  6
CONTINUOUS
 70
0
 71
3
 72
24
 73
20
 74
18
 42
0.0000001
 43
0.0000001
 44
0.0000000001
 12
-0.1898676602
 22
0.2130724264
 32
0.0
 13
0.118187823
 23
0.2597714876
 33
0.0
 40
0.0
 40
0.0
 40
0.0
 40
0.0
 40
0.0804957678
 40
0.1574033999
 40
0.2309620907
 40
0.2665670833
 40
0.3014283734
 40
0.3690393183
 40
0.4340671977
 40
0.4967819422
 40
0.5574590206
 40
0.6163770457
 40
0.6738077658
 40
0.7300065216
 40
0.7852092713
 40
0.8396304304
 40
0.8934614087
 40
0.9468699113
 40
1.0
 40
1.0
 40
1.0
 40
1.0
 10
4.7628110962
 20
4.7167327544
 30
0.0
 10
4.7577165818
 20
4.7224498972
 30
0.0
 10
4.7480429695
 20
4.7338913901
 30
0.0
 10
4.7348180527
 20
4.7514515457
 30
0.0
 10
4.7250234919
 20
4.7662107481
 30
0.0
 10
4.7179991918
 20
4.7779768935
 30
0.0
 10
4.7116326389
 20
4.7894684981
 30
0.0
 10
4.7045989703
 20
4.8037812522
 30
0.0
 10
4.6975747707
 20
4.8210034977
 30
0.0
 10
4.6920229528
 20
4.8380639634
 30
0.0
 10
4.6879126609
 20
4.8549308722
 30
0.0
 10
4.6852130731
 20
4.8715714935
 30
0.0
 10
4.6838748228
 20
4.8879489064
 30
0.0
 10
4.6838477451
 20
4.9040272071
 30
0.0
 10
4.6850815013
 20
4.9197705814
 30
0.0
 10
4.6875254806
 20
4.9351433461
 30
0.0
 10
4.6911291115
 20
4.9501104113
 30
0.0
 10
4.6958412019
 20
4.9646356561
 30
0.0
 10
4.6996960495
 20
4.9740212762
 30
0.0
 10
4.7017891593
 20
4.9786218369
 30
0.0
 11
4.7628110962
 21
4.7167327544
 31
0.0
 11
4.7479952367
 21
4.7342897615
 31
0.0
 11
4.7348079566
 21
4.7518354832
 31
0.0
 11
4.7232173481
 21
4.7693389634
 31
0.0
 11
4.7180108246
 21
4.7780651891
 31
0.0
 11
4.7131915035
 21
4.786769246
 31
0.0
 11
4.7046985147
 21
4.8040953749
 31
0.0
 11
4.6977064742
 21
4.821286394
 31
0.0
 11
4.692183474
 21
4.8383113472
 31
0.0
 11
4.6880976062
 21
4.8551392784
 31
0.0
 11
4.6854139755
 21
4.8717385803
 31
0.0
 11
4.6840857388
 21
4.8880750411
 31
0.0
 11
4.6840630669
 21
4.9041137982
 31
0.0
 11
4.6852961306
 21
4.919819989
 31
0.0
 11
4.6877351009
 21
4.9351587509
 31
0.0
 11
4.6913301485
 21
4.9500952213
 31
0.0
 11
4.6960314444
 21
4.9645945375
 31
0.0
 11
4.7017891593
 21
4.9786218369
 31
0.0
  0
SPLINE
  5
381
100
AcDbEntity
  8
0
100
AcDbSpline
 62
9
  6
CONTINUOUS
 70
0
 71
3
 72
18
 73
14
 74
12
 42
0.0000001
 43
0.0000001
 44
0.0000000001
 12
-0.1736392715
 22
0.1656625933
 32
0.0
 13
-0.1773480138
 23
0.1616860334
 33
0.0
 40
0.0
 40
0.0
 40
0.0
 40
0.0
 40
0.1423911371
 40
0.2853155858
 40
0.4258289528
 40
0.5609870454
 40
0.6880147775
 40
0.7478130983
 40
0.8048126484
 40
0.858772199
 40
0.9094506026
 40
0.9566068254
 40
1.0
 40
1.0
 40
1.0
 40
1.0
 10
4.8763444559
 20
4.813930377
 30
0.0
 10
4.8681028915
 20
4.8217933387
 30
0.0
 10
4.8515872015
 20
4.837546938
 30
0.0
 10
4.826923728
 20
4.8610441771
 30
0.0
 10
4.8026557535
 20
4.8841176873
 30
0.0
 10
4.7792757622
 20
4.9062795435
 30
0.0
 10
4.7605433178
 20
4.9239585792
 30
0.0
 10
4.7463280792
 20
4.9373144072
 30
0.0
 10
4.7363566891
 20
4.9466506923
 30
0.0
 10
4.7269000041
 20
4.9554692371
 30
0.0
 10
4.7179992779
 20
4.9637293375
 30
0.0
 10
4.7096957876
 20
4.9713903126
 30
0.0
 10
4.7043543904
 20
4.9762831468
 30
0.0
 10
4.7017891593
 20
4.9786218369
 30
0.0
 11
4.8763444559
 21
4.813930377
 31
0.0
 11
4.8516157246
 21
4.8375150288
 31
0.0
 11
4.8267800473
 21
4.8611729835
 31
0.0
 11
4.8023393029
 21
4.884406579
 31
0.0
 11
4.7787953703
 21
4.9067181536
 31
0.0
 11
4.7566214381
 21
4.9276386519
 31
0.0
 11
4.746162024
 21
4.9374646384
 31
0.0
 11
4.7361759341
 21
4.9468134461
 31
0.0
 11
4.7267043855
 21
4.9556443225
 31
0.0
 11
4.7177885954
 21
4.9639165148
 31
0.0
 11
4.7094697809
 21
4.9715892705
 31
0.0
 11
4.7017891593
 21
4.9786218369
 31
0.0
  0
SPLINE
  5
382
100
AcDbEntity
  8
0
100
AcDbSpline
 62
9
  6
CONTINUOUS
 70
0
 71
3
 72
40
 73
36
 74
34
 42
0.0000001
 43
0.0000001
 44
0.0000000001
 12
-0.0797230457
 22
0.0726825339
 32
0.0
 13
-0.0504123982
 23
-0.0953787442
 33
0.0
 40
0.0
 40
0.0
 40
0.0
 40
0.0
 40
0.1186268557
 40
0.2301085928
 40
0.3343668976
 40
0.4313236033
 40
0.5209007466
 40
0.6030206507
 40
0.6776060529
 40
0.744580308
 40
0.7751896286
 40
0.8038678978
 40
0.8306059078
 40
0.8553946143
 40
0.8782251955
 40
0.8990891375
 40
0.9179783671
 40
0.9348854636
 40
0.949804013
 40
0.962729241
 40
0.9684437693
 40
0.9736596356
 40
0.9783774866
 40
0.9825986445
 40
0.9863254677
 40
0.9895619814
 40
0.9923150527
 40
0.9945967541
 40
0.9955677689
 40
0.9964309238
 40
0.9971927568
 40
0.9978628679
 40
0.9989848982
 40
0.9994909286
 40
1.0
 40
1.0
 40
1.0
 40
1.0
 10
4.7017891593
 20
4.9786218369
 30
0.0
 10
4.6986367279
 20
4.9814958704
 30
0.0
 10
4.6925146015
 20
4.987063005
 30
0.0
 10
4.6835952725
 20
4.9951267383
 30
0.0
 10
4.6752298435
 20
5.0026410659
 30
0.0
 10
4.6674253007
 20
5.0096009551
 30
0.0
 10
4.6601886351
 20
5.016001383
 30
0.0
 10
4.6535268577
 20
5.0218373583
 30
0.0
 10
4.6474469688
 20
5.0271038738
 30
0.0
 10
4.6427401034
 20
5.0311261299
 30
0.0
 10
4.6392693304
 20
5.0340535214
 30
0.0
 10
4.6368951369
 20
5.036036765
 30
0.0
 10
4.6346716245
 20
5.0378738359
 30
0.0
 10
4.6325996675
 20
5.0395641134
 30
0.0
 10
4.6306801491
 20
5.041106991
 30
0.0
 10
4.6289139559
 20
5.0425018733
 30
0.0
 10
4.6273019773
 20
5.0437481748
 30
0.0
 10
4.6258451171
 20
5.0448453614
 30
0.0
 10
4.624544265
 20
5.0457928721
 30
0.0
 10
4.6235542513
 20
5.0464831806
 30
0.0
 10
4.6228398549
 20
5.0469581808
 30
0.0
 10
4.6223659634
 20
5.0472616921
 30
0.0
 10
4.6219317108
 20
5.0475273395
 30
0.0
 10
4.621537194
 20
5.0477550846
 30
0.0
 10
4.6211825126
 20
5.0479449096
 30
0.0
 10
4.6208677188
 20
5.0480968762
 30
0.0
 10
4.6205928597
 20
5.048210993
 30
0.0
 10
4.6203871471
 20
5.0482781056
 30
0.0
 10
4.6202426249
 20
5.0483105994
 30
0.0
 10
4.6201501579
 20
5.0483240748
 30
0.0
 10
4.6200674698
 20
5.0483279463
 30
0.0
 10
4.619975923
 20
5.0483208576
 30
0.0
 10
4.6198944978
 20
5.0482946077
 30
0.0
 10
4.6198350961
 20
5.0482445088
 30
0.0
 10
4.6198140781
 20
5.0482140941
 30
0.0
 10
4.6198055236
 20
5.0481979093
 30
0.0
 11
4.7017891593
 21
4.9786218369
 31
0.0
 11
4.6923202284
 21
4.9872311562
 31
0.0
 11
4.683398135
 21
4.9952960045
 31
0.0
 11
4.6750298412
 21
5.0028113167
 31
0.0
 11
4.6672223091
 21
5.0097720276
 31
0.0
 11
4.6599825006
 21
5.0161730718
 31
0.0
 11
4.6533173779
 21
5.0220093843
 31
0.0
 11
4.6472339031
 21
5.0272758997
 31
0.0
 11
4.6417390382
 21
5.0319675529
 31
0.0
 11
4.6392145101
 21
5.0340962232
 31
0.0
 11
4.6368397452
 21
5.0360792785
 31
0.0
 11
4.6346156139
 21
5.0379160856
 31
0.0
 11
4.6325429864
 21
5.0396060115
 31
0.0
 11
4.6306227328
 21
5.0411484228
 31
0.0
 11
4.6288557236
 21
5.0425426864
 31
0.0
 11
4.6272428289
 21
5.0437881693
 31
0.0
 11
4.625784919
 21
5.0448842383
 31
0.0
 11
4.6244828641
 21
5.0458302601
 31
0.0
 11
4.6233375346
 21
5.0466256017
 31
0.0
 11
4.6228239138
 21
5.0469665695
 31
0.0
 11
4.6223498006
 21
5.0472696299
 31
0.0
 11
4.621915304
 21
5.0475347036
 31
0.0
 11
4.6215205325
 21
5.0477617115
 31
0.0
 11
4.6211655951
 21
5.0479505745
 31
0.0
 11
4.6208506005
 21
5.0481012134
 31
0.0
 11
4.6205756575
 21
5.0482135491
 31
0.0
 11
4.6203408749
 21
5.0482875024
 31
0.0
 11
4.6202385777
 21
5.048310061
 31
0.0
 11
4.6201463614
 21
5.0483229942
 31
0.0
 11
4.6200642395
 21
5.0483262924
 31
0.0
 11
4.6199922258
 21
5.0483199454
 31
0.0
 11
4.619878577
 21
5.0482782768
 31
0.0
 11
4.619836969
 21
5.0482429354
 31
0.0
 11
4.6198055236
 21
5.0481979093
 31
0.0
  0
SPLINE
  5
383
100
AcDbEntity
  8
0
100
AcDbSpline
 62
9
  6
CONTINUOUS
 70
0
 71
3
 72
9
 73
5
 74
3
 42
0.0000001
 43
0.0000001
 44
0.0000000001
 12
-0.0000199861
 22
-0.0000378132
 32
0.0
 13
-0.0000134326
 23
-0.000040606
 33
0.0
 40
0.0
 40
0.0
 40
0.0
 40
0.0
 40
0.2444317725
 40
1.0
 40
1.0
 40
1.0
 40
1.0
 10
4.6198055236
 20
5.0481979093
 30
0.0
 10
4.6198038952
 20
5.0481948284
 30
0.0
 10
4.6197975133
 20
5.0481820769
 30
0.0
 10
4.6197922526
 20
5.0481687725
 30
0.0
 10
4.6197888695
 20
5.0481585456
 30
0.0
 11
4.6198055236
 21
5.0481979093
 31
0.0
 11
4.6198008423
 21
5.0481885616
 31
0.0
 11
4.6197888695
 21
5.0481585456
 31
0.0
  0
LINE
  5
384
100
AcDbEntity
  8
0
100
AcDbLine
 62
6
  6
CONTINUOUS
 10
4.7628110962
 20
4.7167327543
 11
4.737331151
 21
4.7328455373
  0
LINE
  5
385
100
AcDbEntity
  8
0
100
AcDbLine
 62
6
  6
CONTINUOUS
 10
4.737331151
 20
4.7328455373
 11
4.7305849508
 21
4.7371184579
  0
SPLINE
  5
386
100
AcDbEntity
  8
0
100
AcDbSpline
 62
6
  6
CONTINUOUS
 70
0
 71
3
 72
17
 73
13
 74
11
 42
0.0000001
 43
0.0000001
 44
0.0000000001
 12
-0.044935329
 22
0.0285108875
 32
0.0
 13
-0.0420824918
 23
0.0325748121
 33
0.0
 40
0.0
 40
0.0
 40
0.0
 40
0.0
 40
0.1552300552
 40
0.3026525137
 40
0.4418765192
 40
0.5725140365
 40
0.6941430109
 40
0.8062639379
 40
0.8586032551
 40
0.9083806076
 40
0.9555365276
 40
1.0
 40
1.0
 40
1.0
 40
1.0
 10
4.7305849508
 20
4.7371184579
 30
0.0
 10
4.7282598463
 20
4.7385937068
 30
0.0
 10
4.7237289443
 20
4.7414737319
 30
0.0
 10
4.7171264583
 20
4.7456985205
 30
0.0
 10
4.7109097932
 20
4.7497167631
 30
0.0
 10
4.7051019238
 20
4.7535243695
 30
0.0
 10
4.6997278574
 20
4.7571163608
 30
0.0
 10
4.6955434661
 20
4.7599882986
 30
0.0
 10
4.6924383187
 20
4.7621794661
 30
0.0
 10
4.6902901725
 20
4.7637278156
 30
0.0
 10
4.6882726908
 20
4.765218231
 30
0.0
 10
4.6869789479
 20
4.7662020379
 30
0.0
 10
4.6863552367
 20
4.7666848343
 30
0.0
 11
4.7305849508
 21
4.7371184579
 31
0.0
 11
4.7236143458
 21
4.7415516169
 31
0.0
 11
4.7170072938
 21
4.7457820996
 31
0.0
 11
4.7107863722
 21
4.7498063715
 31
0.0
 11
4.7049741689
 21
4.7536208951
 31
0.0
 11
4.6995953546
 21
4.7572215422
 31
0.0
 11
4.6946791975
 21
4.7606028801
 31
0.0
 11
4.6924039537
 21
4.7622095559
 31
0.0
 11
4.6902555801
 21
4.7637593019
 31
0.0
 11
4.6882378517
 21
4.7652514002
 31
0.0
 11
4.6863552367
 21
4.7666848343
 31
0.0
  0
SPLINE
  5
387
100
AcDbEntity
  8
0
100
AcDbSpline
 62
6
  6
CONTINUOUS
 70
0
 71
3
 72
11
 73
7
 74
5
 42
0.0000001
 43
0.0000001
 44
0.0000000001
 12
-0.0070780849
 22
0.0054789362
 32
0.0
 13
-0.0063259703
 23
0.0063324662
 33
0.0
 40
0.0
 40
0.0
 40
0.0
 40
0.0
 40
0.2845412274
 40
0.5464501744
 40
0.7851083018
 40
1.0
 40
1.0
 40
1.0
 40
1.0
 10
4.6863552367
 20
4.7666848343
 30
0.0
 10
4.685683901
 20
4.7672044954
 30
0.0
 10
4.6844037552
 20
4.7682143877
 30
0.0
 10
4.6825993892
 20
4.7697086201
 30
0.0
 10
4.6809963465
 20
4.7711187595
 30
0.0
 10
4.6800146478
 20
4.7720509203
 30
0.0
 10
4.6795615149
 20
4.7725045185
 30
0.0
 11
4.6863552367
 21
4.7666848343
 31
0.0
 11
4.6843573168
 21
4.7682643815
 31
0.0
 11
4.6825538546
 21
4.7697621544
 31
0.0
 11
4.6809526529
 21
4.7711761884
 31
0.0
 11
4.6795615149
 21
4.7725045185
 31
0.0
  0
SPLINE
  5
388
100
AcDbEntity
  8
0
100
AcDbSpline
 62
9
  6
CONTINUOUS
 70
0
 71
3
 72
11
 73
7
 74
5
 42
0.0000001
 43
0.0000001
 44
0.0000000001
 12
0.0216573495
 22
0.0313757873
 32
0.0
 13
0.0269581232
 23
0.0269581232
 33
0.0
 40
0.0
 40
0.0
 40
0.0
 40
0.0
 40
0.2467924469
 40
0.4962971367
 40
0.7476666945
 40
1.0
 40
1.0
 40
1.0
 40
1.0
 10
4.8763444559
 20
4.813930377
 30
0.0
 10
4.8781260794
 20
4.8165114794
 30
0.0
 10
4.8818399164
 20
4.821612767
 30
0.0
 10
4.8877891251
 20
4.8290252769
 30
0.0
 10
4.8941107619
 20
4.8362166202
 30
0.0
 10
4.89854225
 20
4.8408389289
 30
0.0
 10
4.9008097275
 20
4.8431064063
 30
0.0
 11
4.8763444559
 21
4.813930377
 31
0.0
 11
4.8818777834
 21
4.8215401558
 31
0.0
 11
4.8878284661
 21
4.8289612286
 31
0.0
 11
4.8941534615
 21
4.8361608829
 31
0.0
 11
4.9008097275
 21
4.8431064063
 31
0.0
  0
SPLINE
  5
389
100
AcDbEntity
  8
0
100
AcDbSpline
 62
9
  6
CONTINUOUS
 70
0
 71
3
 72
12
 73
8
 74
6
 42
0.0000001
 43
0.0000001
 44
0.0000000001
 12
0.0189879473
 22
0.0417346491
 32
0.0
 13
0.0324216215
 23
0.0324216215
 33
0.0
 40
0.0
 40
0.0
 40
0.0
 40
0.0
 40
0.2493582906
 40
0.3742533165
 40
0.4992638234
 40
0.749510259
 40
1.0
 40
1.0
 40
1.0
 40
1.0
 10
4.7017891593
 20
4.9786218369
 30
0.0
 10
4.7033674267
 20
4.9820907972
 30
0.0
 10
4.7059814485
 20
4.9871904734
 30
0.0
 10
4.709916732
 20
4.9937300786
 30
0.0
 10
4.7141493459
 20
5.0000983721
 30
0.0
 10
4.7199704699
 20
5.0077027141
 30
0.0
 10
4.7251465633
 20
5.0133553815
 30
0.0
 10
4.7278536578
 20
5.016062476
 30
0.0
 11
4.7017891593
 21
4.9786218369
 31
0.0
 11
4.7069998986
 21
4.9887987576
 31
0.0
 11
4.7099520547
 21
4.9937057346
 31
0.0
 11
4.7131245004
 21
4.9984796123
 31
0.0
 11
4.7200975564
 21
5.0075917391
 31
0.0
 11
4.7278536578
 21
5.016062476
 31
0.0
  0
LINE
  5
38A
100
AcDbEntity
  8
0
100
AcDbLine
 62
9
  6
CONTINUOUS
 10
5.1888803326
 20
4.6010013054
 11
5.1756042081
 21
4.6143235097
  0
SPLINE
  5
38B
100
AcDbEntity
  8
0
100
AcDbSpline
 62
9
  6
CONTINUOUS
 70
0
 71
3
 72
11
 73
7
 74
5
 42
0.0000001
 43
0.0000001
 44
0.0000000001
 12
0.0269581232
 22
0.0269581232
 32
0.0
 13
0.0313757873
 23
0.0216573495
 33
0.0
 40
0.0
 40
0.0
 40
0.0
 40
0.0
 40
0.2523333055
 40
0.5037028633
 40
0.7532075531
 40
1.0
 40
1.0
 40
1.0
 40
1.0
 10
4.9008097275
 20
4.8431064063
 30
0.0
 10
4.9030772049
 20
4.8453738838
 30
0.0
 10
4.9076995136
 20
4.8498053719
 30
0.0
 10
4.9148908569
 20
4.8561270087
 30
0.0
 10
4.9223033668
 20
4.8620762174
 30
0.0
 10
4.9274046544
 20
4.8657900545
 30
0.0
 10
4.9299857568
 20
4.8675716779
 30
0.0
 11
4.9008097275
 21
4.8431064063
 31
0.0
 11
4.9077552509
 21
4.8497626723
 31
0.0
 11
4.9149549052
 21
4.8560876678
 31
0.0
 11
4.922375978
 21
4.8620383504
 31
0.0
 11
4.9299857568
 21
4.8675716779
 31
0.0
  0
SPLINE
  5
38C
100
AcDbEntity
  8
0
100
AcDbSpline
 62
9
  6
CONTINUOUS
 70
0
 71
3
 72
17
 73
13
 74
11
 42
0.0000001
 43
0.0000001
 44
0.0000000001
 12
-0.2489786005
 22
0.249953333
 32
0.0
 13
-0.2435344249
 23
0.2552606433
 33
0.0
 40
0.0
 40
0.0
 40
0.0
 40
0.0
 40
0.0519624319
 40
0.1062490759
 40
0.1626629131
 40
0.2210068553
 40
0.342696411
 40
0.4697401885
 40
0.6005617986
 40
0.7335912538
 40
0.8672601391
 40
1.0
 40
1.0
 40
1.0
 40
1.0
 10
5.1756042081
 20
4.6143235097
 30
0.0
 10
5.1712916969
 20
4.618652904
 30
0.0
 10
5.1624863602
 20
4.6275178765
 30
0.0
 10
5.1490383357
 20
4.6411220475
 30
0.0
 10
5.1350923369
 20
4.6552891387
 30
0.0
 10
5.1156222494
 20
4.6751409996
 30
0.0
 10
5.0903999369
 20
4.700985299
 30
0.0
 10
5.0593074603
 20
4.7330101364
 30
0.0
 10
5.0273562818
 20
4.7660598183
 30
0.0
 10
4.9949294764
 20
4.7997332247
 30
0.0
 10
4.9624093483
 20
4.8336298217
 30
0.0
 10
4.9407613321
 20
4.8562772571
 30
0.0
 10
4.9299857568
 20
4.8675716779
 30
0.0
 11
5.1756042081
 21
4.6143235097
 31
0.0
 11
5.162684068
 21
4.6273289952
 31
0.0
 11
5.1492188631
 21
4.6409487413
 31
0.0
 11
5.1352558597
 21
4.6551315979
 31
0.0
 11
5.1208423239
 21
4.6698264146
 31
0.0
 11
5.0908527201
 21
4.7005473275
 31
0.0
 11
5.0596281813
 21
4.7327022782
 31
0.0
 11
5.0275475008
 21
4.765883522
 31
0.0
 11
4.9949921278
 21
4.7996891426
 31
0.0
 11
4.9623441755
 21
4.8337186809
 31
0.0
 11
4.9299857568
 21
4.8675716779
 31
0.0
  0
SPLINE
  5
38D
100
AcDbEntity
  8
0
100
AcDbSpline
 62
9
  6
CONTINUOUS
 70
0
 71
3
 72
12
 73
8
 74
6
 42
0.0000001
 43
0.0000001
 44
0.0000000001
 12
0.0324216215
 22
0.0324216215
 32
0.0
 13
0.0417346491
 23
0.0189879473
 33
0.0
 40
0.0
 40
0.0
 40
0.0
 40
0.0
 40
0.250489741
 40
0.5007361766
 40
0.6257466835
 40
0.7506417094
 40
1.0
 40
1.0
 40
1.0
 40
1.0
 10
4.7278536578
 20
5.016062476
 30
0.0
 10
4.7305607523
 20
5.0187695705
 30
0.0
 10
4.7362134197
 20
5.0239456639
 30
0.0
 10
4.7438177617
 20
5.0297667879
 30
0.0
 10
4.7501860552
 20
5.0339994019
 30
0.0
 10
4.7567256604
 20
5.0379346854
 30
0.0
 10
4.7618253366
 20
5.0405487071
 30
0.0
 10
4.7652942969
 20
5.0421269745
 30
0.0
 11
4.7278536578
 21
5.016062476
 31
0.0
 11
4.7363243947
 21
5.0238185774
 31
0.0
 11
4.7454365215
 21
5.0307916334
 31
0.0
 11
4.7502103992
 21
5.0339640791
 31
0.0
 11
4.7551173762
 21
5.0369162352
 31
0.0
 11
4.7652942969
 21
5.0421269745
 31
0.0
  0
SPLINE
  5
38E
100
AcDbEntity
  8
0
100
AcDbSpline
 62
9
  6
CONTINUOUS
 70
0
 71
3
 72
18
 73
14
 74
12
 42
0.0000001
 43
0.0000001
 44
0.0000000001
 12
-0.1656625933
 22
0.1736392715
 32
0.0
 13
-0.1616860334
 23
0.1773480138
 33
0.0
 40
0.0
 40
0.0
 40
0.0
 40
0.0
 40
0.1423911371
 40
0.2853155858
 40
0.4258289528
 40
0.5609870454
 40
0.6880147775
 40
0.7478130983
 40
0.8048126484
 40
0.858772199
 40
0.9094506026
 40
0.9566068254
 40
1.0
 40
1.0
 40
1.0
 40
1.0
 10
4.9299857568
 20
4.8675716779
 30
0.0
 10
4.9221227952
 20
4.8758132423
 30
0.0
 10
4.9063691958
 20
4.8923289323
 30
0.0
 10
4.8828719567
 20
4.9169924058
 30
0.0
 10
4.8597984465
 20
4.9412603803
 30
0.0
 10
4.8376365903
 20
4.9646403716
 30
0.0
 10
4.8199575546
 20
4.983372816
 30
0.0
 10
4.8066017266
 20
4.9975880546
 30
0.0
 10
4.7972654415
 20
5.0075594447
 30
0.0
 10
4.7884468967
 20
5.0170161297
 30
0.0
 10
4.7801867963
 20
5.0259168559
 30
0.0
 10
4.7725258212
 20
5.0342203462
 30
0.0
 10
4.767632987
 20
5.0395617434
 30
0.0
 10
4.7652942969
 20
5.0421269745
 30
0.0
 11
4.9299857568
 21
4.8675716779
 31
0.0
 11
4.906401105
 21
4.8923004092
 31
0.0
 11
4.8827431503
 21
4.9171360865
 31
0.0
 11
4.8595095548
 21
4.941576831
 31
0.0
 11
4.8371979802
 21
4.9651207636
 31
0.0
 11
4.8162774819
 21
4.9872946957
 31
0.0
 11
4.8064514955
 21
4.9977541098
 31
0.0
 11
4.7971026877
 21
5.0077401997
 31
0.0
 11
4.7882718113
 21
5.0172117483
 31
0.0
 11
4.779999619
 21
5.0261275384
 31
0.0
 11
4.7723268633
 21
5.0344463529
 31
0.0
 11
4.7652942969
 21
5.0421269745
 31
0.0
  0
SPLINE
  5
38F
100
AcDbEntity
  8
0
100
AcDbSpline
 62
9
  6
CONTINUOUS
 70
0
 71
3
 72
40
 73
36
 74
34
 42
0.0000001
 43
0.0000001
 44
0.0000000001
 12
-0.0726825317
 22
0.0797230433
 32
0.0
 13
0.0953780497
 23
0.0504137053
 33
0.0
 40
0.0
 40
0.0
 40
0.0
 40
0.0
 40
0.1186268078
 40
0.2301085032
 40
0.3343667726
 40
0.4313234493
 40
0.5209005702
 40
0.6030204584
 40
0.6776058515
 40
0.7445801043
 40
0.7751894264
 40
0.8038676988
 40
0.8306057136
 40
0.8553944269
 40
0.8782250165
 40
0.8990889687
 40
0.9179782103
 40
0.9348853206
 40
0.9498038856
 40
0.962729131
 40
0.9684436686
 40
0.9736595447
 40
0.9783774058
 40
0.9825985742
 40
0.9863254083
 40
0.9895619332
 40
0.9923150158
 40
0.9945967286
 40
0.995567749
 40
0.9964309092
 40
0.9971927471
 40
0.9978628627
 40
0.998984899
 40
0.9994909299
 40
1.0
 40
1.0
 40
1.0
 40
1.0
 10
4.7652942969
 20
5.0421269745
 30
0.0
 10
4.7624202647
 20
5.0452794045
 30
0.0
 10
4.7568531324
 20
5.0514015284
 30
0.0
 10
4.7487894023
 20
5.0603208538
 30
0.0
 10
4.7412750775
 20
5.0686862796
 30
0.0
 10
4.7343151905
 20
5.0764908198
 30
0.0
 10
4.7279147644
 20
5.0837274833
 30
0.0
 10
4.7220787903
 20
5.0903892592
 30
0.0
 10
4.7168122754
 20
5.0964691471
 30
0.0
 10
4.7127900196
 20
5.101176012
 30
0.0
 10
4.709862628
 20
5.1046467848
 30
0.0
 10
4.7078793841
 20
5.1070209785
 30
0.0
 10
4.7060423128
 20
5.1092444911
 30
0.0
 10
4.7043520348
 20
5.1113164486
 30
0.0
 10
4.7028091565
 20
5.1132359674
 30
0.0
 10
4.7014142734
 20
5.1150021614
 30
0.0
 10
4.7001679711
 20
5.1166141408
 30
0.0
 10
4.6990707833
 20
5.118071002
 30
0.0
 10
4.6981232714
 20
5.1193718552
 30
0.0
 10
4.6974329618
 20
5.1203618699
 30
0.0
 10
4.6969579606
 20
5.1210762673
 30
0.0
 10
4.6966544485
 20
5.1215501595
 30
0.0
 10
4.6963888004
 20
5.1219844128
 30
0.0
 10
4.6961610544
 20
5.1223789304
 30
0.0
 10
4.6959712286
 20
5.1227336127
 30
0.0
 10
4.695819261
 20
5.1230484073
 30
0.0
 10
4.6957051433
 20
5.1233232674
 30
0.0
 10
4.6956380299
 20
5.1235289808
 30
0.0
 10
4.6956055354
 20
5.1236735036
 30
0.0
 10
4.6955920595
 20
5.1237659711
 30
0.0
 10
4.6955881874
 20
5.1238486597
 30
0.0
 10
4.6955952755
 20
5.1239402072
 30
0.0
 10
4.6956215245
 20
5.124021633
 30
0.0
 10
4.6956716226
 20
5.1240810356
 30
0.0
 10
4.695702037
 20
5.124102054
 30
0.0
 10
4.6957182217
 20
5.1241106087
 30
0.0
 11
4.7652942969
 21
5.0421269745
 31
0.0
 11
4.7566849814
 21
5.0515959013
 31
0.0
 11
4.7486201363
 21
5.060517991
 31
0.0
 11
4.7411048268
 21
5.0688862817
 31
0.0
 11
4.7341441182
 21
5.0766938113
 31
0.0
 11
4.7277430756
 21
5.0839336177
 31
0.0
 11
4.7219067644
 21
5.0905987388
 31
0.0
 11
4.7166402497
 21
5.0966822126
 31
0.0
 11
4.7119485967
 21
5.102177077
 31
0.0
 11
4.7098199262
 21
5.1047016051
 31
0.0
 11
4.7078368707
 21
5.1070763701
 31
0.0
 11
4.7060000631
 21
5.1093005016
 31
0.0
 11
4.7043101368
 21
5.1113731296
 31
0.0
 11
4.7027677248
 21
5.1132933837
 31
0.0
 11
4.7013734603
 21
5.1150603936
 31
0.0
 11
4.7001279765
 21
5.1166732892
 31
0.0
 11
4.6990319065
 21
5.1181312
 31
0.0
 11
4.6980858834
 21
5.119433256
 31
0.0
 11
4.6972905405
 21
5.1205785868
 31
0.0
 11
4.6969495719
 21
5.1210922083
 31
0.0
 11
4.6966465108
 21
5.1215663222
 31
0.0
 11
4.6963814363
 21
5.1220008196
 31
0.0
 11
4.6961544275
 21
5.1223955919
 31
0.0
 11
4.6959655637
 21
5.1227505301
 31
0.0
 11
4.6958149238
 21
5.1230655256
 31
0.0
 11
4.6957025872
 21
5.1233404696
 31
0.0
 11
4.6956286329
 21
5.1235752532
 31
0.0
 11
4.6956060738
 21
5.1236775509
 31
0.0
 11
4.69559314
 21
5.1237697677
 31
0.0
 11
4.6955898414
 21
5.12385189
 31
0.0
 11
4.6955961878
 21
5.1239239043
 31
0.0
 11
4.6956378553
 21
5.1240375542
 31
0.0
 11
4.6956731962
 21
5.1240791627
 31
0.0
 11
4.6957182217
 21
5.1241106087
 31
0.0
  0
SPLINE
  5
390
100
AcDbEntity
  8
0
100
AcDbSpline
 62
9
  6
CONTINUOUS
 70
0
 71
3
 72
9
 73
5
 74
3
 42
0.0000001
 43
0.0000001
 44
0.0000000001
 12
0.0000378161
 22
0.0000199883
 32
0.0
 13
0.0000406094
 23
0.0000134337
 33
0.0
 40
0.0
 40
0.0
 40
0.0
 40
0.0
 40
0.2444314051
 40
1.0
 40
1.0
 40
1.0
 40
1.0
 10
4.6957182217
 20
5.1241106087
 30
0.0
 10
4.6957213028
 20
5.1241122373
 30
0.0
 10
4.6957340553
 20
5.1241186199
 30
0.0
 10
4.6957473608
 20
5.1241238811
 30
0.0
 10
4.6957575885
 20
5.1241272644
 30
0.0
 11
4.6957182217
 21
5.1241106087
 31
0.0
 11
4.6957275701
 21
5.1241152905
 31
0.0
 11
4.6957575885
 21
5.1241272644
 31
0.0
  0
SPLINE
  5
391
100
AcDbEntity
  8
0
100
AcDbSpline
 62
9
  6
CONTINUOUS
 70
0
 71
3
 72
30
 73
26
 74
24
 42
0.0000001
 43
0.0000001
 44
0.0000000001
 12
0.1527210277
 22
0.1054167225
 32
0.0
 13
0.138067388
 23
-0.1239911048
 33
0.0
 40
0.0
 40
0.0
 40
0.0
 40
0.0
 40
0.0663031895
 40
0.1316370209
 40
0.1958896449
 40
0.258993737
 40
0.3209354474
 40
0.3817645142
 40
0.4416051137
 40
0.5006665688
 40
0.5300045466
 40
0.5592708681
 40
0.5885194402
 40
0.6178096891
 40
0.6472063468
 40
0.6767791285
 40
0.706602304
 40
0.7367541723
 40
0.7673164586
 40
0.7983736546
 40
0.8300123291
 40
0.8623204372
 40
0.8953866531
 40
0.9292997507
 40
1.0
 40
1.0
 40
1.0
 40
1.0
 10
4.9299857568
 20
4.8675716779
 30
0.0
 10
4.9333610539
 20
4.8699014995
 30
0.0
 10
4.94016394
 20
4.8743822977
 30
0.0
 10
4.9505954961
 20
4.8805569408
 30
0.0
 10
4.9611644188
 20
4.886080772
 30
0.0
 10
4.9718473443
 20
4.8908929272
 30
0.0
 10
4.9826213692
 20
4.8949324341
 30
0.0
 10
4.9934638948
 20
4.8981377625
 30
0.0
 10
5.0043514119
 20
4.9004467566
 30
0.0
 10
5.0134651806
 20
4.9015739773
 30
0.0
 10
5.0207356772
 20
4.9019604402
 30
0.0
 10
5.0261721324
 20
4.9019881322
 30
0.0
 10
5.0316003898
 20
4.9017473534
 30
0.0
 10
5.0370176578
 20
4.9012313329
 30
0.0
 10
5.0424209716
 20
4.9004332696
 30
0.0
 10
5.0478073884
 20
4.8993463898
 30
0.0
 10
5.0531739406
 20
4.8979639386
 30
0.0
 10
5.0585176546
 20
4.8962791871
 30
0.0
 10
5.0638355553
 20
4.8942854322
 30
0.0
 10
5.0691246687
 20
4.8919760009
 30
0.0
 10
5.0743820488
 20
4.8893442297
 30
0.0
 10
5.0796047023
 20
4.8863835318
 30
0.0
 10
5.0847899048
 20
4.883087114
 30
0.0
 10
5.0917451474
 20
4.8781681372
 30
0.0
 10
5.0967520408
 20
4.8740492107
 30
0.0
 10
5.1000058404
 20
4.8711271433
 30
0.0
 11
4.9299857568
 21
4.8675716779
 31
0.0
 11
4.9402665698
 21
4.8743312028
 31
0.0
 11
4.9507056769
 21
4.8804970064
 31
0.0
 11
4.9612787977
 21
4.8860084792
 31
0.0
 11
4.9719616516
 21
4.8908050114
 31
0.0
 11
4.9827299583
 21
4.8948259935
 31
0.0
 11
4.9935594374
 21
4.8980108158
 31
0.0
 11
5.0044258084
 21
4.9002988688
 31
0.0
 11
5.0153047909
 21
4.9016295428
 31
0.0
 11
5.0207414554
 21
4.9019170671
 31
0.0
 11
5.0261723565
 21
4.9019433847
 31
0.0
 11
5.0315946479
 21
4.901701785
 31
0.0
 11
5.0370054831
 21
4.9011855573
 31
0.0
 11
5.0424020158
 21
4.9003879908
 31
0.0
 11
5.0477813996
 21
4.899302375
 31
0.0
 11
5.053140788
 21
4.8979219989
 31
0.0
 11
5.0584773348
 21
4.8962401521
 31
0.0
 11
5.0637881934
 21
4.8942501237
 31
0.0
 11
5.0690705176
 21
4.8919452031
 31
0.0
 11
5.0743214609
 21
4.8893186796
 31
0.0
 11
5.0795381769
 21
4.8863638424
 31
0.0
 11
5.0847178192
 21
4.8830739809
 31
0.0
 11
5.0898575415
 21
4.8794423843
 31
0.0
 11
5.1000058404
 21
4.8711271433
 31
0.0
  0
SPLINE
  5
392
100
AcDbEntity
  8
0
100
AcDbSpline
 62
9
  6
CONTINUOUS
 70
0
 71
3
 72
24
 73
20
 74
18
 42
0.0000001
 43
0.0000001
 44
0.0000000001
 12
0.2597714876
 22
0.118187823
 32
0.0
 13
0.2130724264
 23
-0.1898676602
 33
0.0
 40
0.0
 40
0.0
 40
0.0
 40
0.0
 40
0.0531300887
 40
0.1065385913
 40
0.1603695696
 40
0.2147907287
 40
0.2699934784
 40
0.3261922342
 40
0.3836229543
 40
0.4425409794
 40
0.5032180578
 40
0.5659328023
 40
0.6309606817
 40
0.6985716266
 40
0.7334329167
 40
0.7690379093
 40
0.8425966001
 40
0.9195042322
 40
1.0
 40
1.0
 40
1.0
 40
1.0
 10
4.7652942969
 20
5.0421269745
 30
0.0
 10
4.7698948576
 20
5.0442200843
 30
0.0
 10
4.7792804777
 20
5.0480749319
 30
0.0
 10
4.7938057225
 20
5.0527870223
 30
0.0
 10
4.8087727877
 20
5.0563906532
 30
0.0
 10
4.8241455524
 20
5.0588346325
 30
0.0
 10
4.8398889267
 20
5.0600683887
 30
0.0
 10
4.8559672274
 20
5.060041311
 30
0.0
 10
4.8723446403
 20
5.0587030607
 30
0.0
 10
4.8889852616
 20
5.0560034729
 30
0.0
 10
4.9058521704
 20
5.051893181
 30
0.0
 10
4.9229126361
 20
5.0463413631
 30
0.0
 10
4.9401348816
 20
5.0393171635
 30
0.0
 10
4.9544476357
 20
5.0322834949
 30
0.0
 10
4.9659392403
 20
5.025916942
 30
0.0
 10
4.9777053857
 20
5.0188926419
 30
0.0
 10
4.9924645882
 20
5.0090980811
 30
0.0
 10
5.0100247437
 20
4.9958731643
 30
0.0
 10
5.0214662366
 20
4.986199552
 30
0.0
 10
5.0271833794
 20
4.9811050377
 30
0.0
 11
4.7652942969
 21
5.0421269745
 31
0.0
 11
4.7793215963
 21
5.0478846894
 31
0.0
 11
4.7938209125
 21
5.0525859853
 31
0.0
 11
4.8087573829
 21
5.0561810329
 31
0.0
 11
4.8240961448
 21
5.0586200032
 31
0.0
 11
4.8398023356
 21
5.0598530669
 31
0.0
 11
4.8558410927
 21
5.059830395
 31
0.0
 11
4.8721775535
 21
5.0585021583
 31
0.0
 11
4.8887768554
 21
5.0558185276
 31
0.0
 11
4.9056047866
 21
5.0517326598
 31
0.0
 11
4.9226297398
 21
5.0462096596
 31
0.0
 11
4.9398207589
 21
5.0392176191
 31
0.0
 11
4.9571468878
 21
5.0307246303
 31
0.0
 11
4.9658509447
 21
5.0259053092
 31
0.0
 11
4.9745771704
 21
5.0206987857
 31
0.0
 11
4.9920806506
 21
5.0091081772
 31
0.0
 11
5.0096263723
 21
4.9959208971
 31
0.0
 11
5.0271833794
 21
4.9811050377
 31
0.0
  0
SPLINE
  5
393
100
AcDbEntity
  8
0
100
AcDbSpline
 62
6
  6
CONTINUOUS
 70
0
 71
3
 72
10
 73
6
 74
4
 42
0.0000001
 43
0.0000001
 44
0.0000000001
 12
-0.0321323781
 22
0.0490069264
 32
0.0
 13
-0.0313817578
 23
0.049490947
 33
0.0
 40
0.0
 40
0.0
 40
0.0
 40
0.0
 40
0.5196397182
 40
0.7648949424
 40
1.0
 40
1.0
 40
1.0
 40
1.0
 10
5.0588924756
 20
4.9318235555
 30
0.0
 10
5.0533267223
 20
4.940312204
 30
0.0
 10
5.0452007638
 20
4.9528510638
 30
0.0
 10
5.0346753422
 20
4.9693067644
 30
0.0
 10
5.0296427941
 20
4.9772263906
 30
0.0
 10
5.0271834575
 20
4.9811049146
 30
0.0
 11
5.0588924756
 21
4.9318235555
 31
0.0
 11
5.042320474
 21
4.95737119
 31
0.0
 11
5.0345746193
 21
4.9694776926
 31
0.0
 11
5.0271834575
 21
4.9811049146
 31
0.0
  0
LINE
  5
394
100
AcDbEntity
  8
0
100
AcDbLine
 62
6
  6
CONTINUOUS
 10
5.0271834575
 20
4.9811049146
 11
5.0110709204
 21
5.0065851736
  0
LINE
  5
395
100
AcDbEntity
  8
0
100
AcDbLine
 62
6
  6
CONTINUOUS
 10
5.0110709204
 20
5.0065851736
 11
5.0067980922
 21
5.0133315952
  0
SPLINE
  5
396
100
AcDbEntity
  8
0
100
AcDbSpline
 62
6
  6
CONTINUOUS
 70
0
 71
3
 72
17
 73
13
 74
11
 42
0.0000001
 43
0.0000001
 44
0.0000000001
 12
-0.0285108225
 22
0.0449352265
 32
0.0
 13
-0.0325746919
 23
0.0420824314
 33
0.0
 40
0.0
 40
0.0
 40
0.0
 40
0.0
 40
0.1552300969
 40
0.3026521659
 40
0.4418756879
 40
0.5725129471
 40
0.6941420403
 40
0.8062633021
 40
0.858602809
 40
0.908380339
 40
0.9555364081
 40
1.0
 40
1.0
 40
1.0
 40
1.0
 10
5.0067980922
 20
5.0133315952
 30
0.0
 10
5.0053228463
 20
5.015656695
 30
0.0
 10
5.0024427841
 20
5.0201875517
 30
0.0
 10
4.9982178558
 20
5.0267899097
 30
0.0
 10
4.9941994548
 20
5.0330064285
 30
0.0
 10
4.9903917331
 20
5.0388141898
 30
0.0
 10
4.9867997158
 20
5.044188225
 30
0.0
 10
4.9839277958
 20
5.048372628
 30
0.0
 10
4.9817366495
 20
5.051477795
 30
0.0
 10
4.9801883147
 20
5.0536259557
 30
0.0
 10
4.978697909
 20
5.0556434472
 30
0.0
 10
4.9777141043
 20
5.0569371933
 30
0.0
 10
4.9772313084
 20
5.0575609053
 30
0.0
 11
5.0067980922
 21
5.0133315952
 31
0.0
 11
5.0023648779
 21
5.0203021454
 31
0.0
 11
4.9981342676
 21
5.0269090698
 31
0.0
 11
4.994109852
 21
5.0331298476
 31
0.0
 11
4.9902952249
 21
5.0389419476
 31
0.0
 11
4.9866945455
 21
5.0443207301
 31
0.0
 11
4.9833132215
 21
5.0492369019
 31
0.0
 11
4.9817065599
 21
5.0515121604
 31
0.0
 11
4.9801568276
 21
5.053660548
 31
0.0
 11
4.9786647387
 21
5.0556782861
 31
0.0
 11
4.9772313084
 21
5.0575609053
 31
0.0
  0
SPLINE
  5
397
100
AcDbEntity
  8
0
100
AcDbSpline
 62
6
  6
CONTINUOUS
 70
0
 71
3
 72
11
 73
7
 74
5
 42
0.0000001
 43
0.0000001
 44
0.0000000001
 12
-0.0054789283
 22
0.0070780907
 32
0.0
 13
-0.006332466
 23
0.0063259701
 33
0.0
 40
0.0
 40
0.0
 40
0.0
 40
0.0
 40
0.284541252
 40
0.5464501778
 40
0.7851082903
 40
1.0
 40
1.0
 40
1.0
 40
1.0
 10
4.9772313084
 20
5.0575609053
 30
0.0
 10
4.976711648
 20
5.0582322415
 30
0.0
 10
4.9757017554
 20
5.0595123871
 30
0.0
 10
4.9742075194
 20
5.0613167501
 30
0.0
 10
4.9727973759
 20
5.0629197889
 30
0.0
 10
4.9718652135
 20
5.063901486
 30
0.0
 10
4.9714116153
 20
5.0643546189
 30
0.0
 11
4.9772313084
 21
5.0575609053
 31
0.0
 11
4.975651761
 21
5.0595588251
 31
0.0
 11
4.9741539848
 21
5.0613622844
 31
0.0
 11
4.9727399472
 21
5.0629634825
 31
0.0
 11
4.9714116153
 21
5.0643546189
 31
0.0
  0
LINE
  5
398
100
AcDbEntity
  8
0
100
AcDbLine
 62
9
  6
CONTINUOUS
 10
5.1888803326
 20
3.632971021
 11
5.1756042081
 21
3.6196488168
  0
SPLINE
  5
399
100
AcDbEntity
  8
0
100
AcDbSpline
 62
9
  6
CONTINUOUS
 70
0
 71
3
 72
30
 73
26
 74
24
 42
0.0000001
 43
0.0000001
 44
0.0000000001
 12
-0.1380663945
 22
-0.1240119248
 32
0.0
 13
-0.1527318686
 23
0.1054242055
 33
0.0
 40
0.0
 40
0.0
 40
0.0
 40
0.0
 40
0.0707034052
 40
0.1046177648
 40
0.1376850428
 40
0.1699940228
 40
0.2016333897
 40
0.23269111
 40
0.2632537649
 40
0.2934058591
 40
0.3232291313
 40
0.3528018947
 40
0.3821984328
 40
0.4114884746
 40
0.4407367656
 40
0.4700027445
 40
0.4993403304
 40
0.5584008976
 40
0.6182405393
 40
0.6790686377
 40
0.74100941
 40
0.8041126188
 40
0.8683644253
 40
0.933697505
 40
1.0
 40
1.0
 40
1.0
 40
1.0
 10
5.1000156453
 20
3.3628539892
 30
0.0
 10
5.0967617239
 20
3.3599313007
 30
0.0
 10
5.0917546257
 20
3.3558114679
 30
0.0
 10
5.0847990427
 20
3.3508913377
 30
0.0
 10
5.0796135914
 20
3.3475941295
 30
0.0
 10
5.0743906795
 20
3.3446326935
 30
0.0
 10
5.0691330319
 20
3.3420002353
 30
0.0
 10
5.0638436424
 20
3.3396901669
 30
0.0
 10
5.0585254575
 20
3.3376958235
 30
0.0
 10
5.0531814518
 20
3.3360105311
 30
0.0
 10
5.0478146009
 20
3.3346275854
 30
0.0
 10
5.0424278791
 20
3.3335402564
 30
0.0
 10
5.0370242545
 20
3.3327417877
 30
0.0
 10
5.0316066704
 20
3.3322254046
 30
0.0
 10
5.0261780922
 20
3.3319843046
 30
0.0
 10
5.0207413121
 20
3.3320117157
 30
0.0
 10
5.0134703809
 20
3.332397855
 30
0.0
 10
5.0043560542
 20
3.3335247669
 30
0.0
 10
4.9934678576
 20
3.3358335365
 30
0.0
 10
4.9826246506
 20
3.3390387724
 30
0.0
 10
4.9718499466
 20
3.3430783071
 30
0.0
 10
4.9611663483
 20
3.3478905989
 30
0.0
 10
4.9505967631
 20
3.3534146642
 30
0.0
 10
4.9401645587
 20
3.3595896276
 30
0.0
 10
4.9333612581
 20
3.3640706859
 30
0.0
 10
4.9299857568
 20
3.3664006486
 30
0.0
 11
5.1000156453
 21
3.3628539892
 31
0.0
 11
5.0898669005
 21
3.354536899
 31
0.0
 11
5.0847269393
 21
3.3509044606
 31
0.0
 11
5.0795470481
 21
3.3476138108
 31
0.0
 11
5.074330074
 21
3.3446582376
 31
0.0
 11
5.0690788637
 21
3.3420310291
 31
0.0
 11
5.0637962641
 21
3.3397254733
 31
0.0
 11
5.0584851223
 21
3.3377348584
 31
0.0
 11
5.0531482851
 21
3.3360524724
 31
0.0
 11
5.0477885994
 21
3.3346716034
 31
0.0
 11
5.0424089122
 21
3.3335855395
 31
0.0
 11
5.0370120702
 21
3.3327875687
 31
0.0
 11
5.0316009206
 21
3.3322709791
 31
0.0
 11
5.0261783101
 21
3.3320290587
 31
0.0
 11
5.0207470856
 21
3.3320550958
 31
0.0
 11
5.0153100942
 21
3.3323423782
 31
0.0
 11
5.0044304486
 21
3.3336726815
 31
0.0
 11
4.9935634057
 21
3.3359605064
 31
0.0
 11
4.9827332503
 21
3.339145232
 31
0.0
 11
4.9719642673
 21
3.3431662379
 31
0.0
 11
4.9612807416
 21
3.3479629031
 31
0.0
 11
4.950706958
 21
3.3534746071
 31
0.0
 11
4.9402672015
 21
3.3596407292
 31
0.0
 11
4.9299857568
 21
3.3664006486
 31
0.0
  0
SPLINE
  5
39A
100
AcDbEntity
  8
0
100
AcDbSpline
 62
9
  6
CONTINUOUS
 70
0
 71
3
 72
17
 73
13
 74
11
 42
0.0000001
 43
0.0000001
 44
0.0000000001
 12
-0.2489786005
 22
-0.249953333
 32
0.0
 13
-0.2435344249
 23
-0.2552606433
 33
0.0
 40
0.0
 40
0.0
 40
0.0
 40
0.0
 40
0.0519624319
 40
0.1062490759
 40
0.1626629131
 40
0.2210068553
 40
0.342696411
 40
0.4697401885
 40
0.6005617986
 40
0.7335912538
 40
0.8672601391
 40
1.0
 40
1.0
 40
1.0
 40
1.0
 10
5.1756042081
 20
3.6196488168
 30
0.0
 10
5.1712916969
 20
3.6153194224
 30
0.0
 10
5.1624863602
 20
3.60645445
 30
0.0
 10
5.1490383357
 20
3.592850279
 30
0.0
 10
5.1350923369
 20
3.5786831877
 30
0.0
 10
5.1156222494
 20
3.5588313269
 30
0.0
 10
5.0903999369
 20
3.5329870274
 30
0.0
 10
5.0593074603
 20
3.5009621901
 30
0.0
 10
5.0273562818
 20
3.4679125081
 30
0.0
 10
4.9949294764
 20
3.4342391018
 30
0.0
 10
4.9624093483
 20
3.4003425048
 30
0.0
 10
4.9407613321
 20
3.3776950693
 30
0.0
 10
4.9299857568
 20
3.3664006486
 30
0.0
 11
5.1756042081
 21
3.6196488168
 31
0.0
 11
5.162684068
 21
3.6066433313
 31
0.0
 11
5.1492188631
 21
3.5930235851
 31
0.0
 11
5.1352558597
 21
3.5788407286
 31
0.0
 11
5.1208423239
 21
3.5641459119
 31
0.0
 11
5.0908527201
 21
3.5334249989
 31
0.0
 11
5.0596281813
 21
3.5012700482
 31
0.0
 11
5.0275475008
 21
3.4680888044
 31
0.0
 11
4.9949921278
 21
3.4342831838
 31
0.0
 11
4.9623441755
 21
3.4002536455
 31
0.0
 11
4.9299857568
 21
3.3664006486
 31
0.0
  0
SPLINE
  5
39B
100
AcDbEntity
  8
0
100
AcDbSpline
 62
9
  6
CONTINUOUS
 70
0
 71
3
 72
24
 73
20
 74
18
 42
0.0000001
 43
0.0000001
 44
0.0000000001
 12
-0.213072426
 22
-0.1898676589
 32
0.0
 13
-0.2597714865
 23
0.1181878225
 33
0.0
 40
0.0
 40
0.0
 40
0.0
 40
0.0
 40
0.0804957677
 40
0.1574033997
 40
0.2309620905
 40
0.266567083
 40
0.3014283732
 40
0.369039318
 40
0.4340671973
 40
0.4967819419
 40
0.5574590203
 40
0.6163770454
 40
0.6738077655
 40
0.7300065214
 40
0.7852092711
 40
0.8396304302
 40
0.8934614086
 40
0.9468699112
 40
1.0
 40
1.0
 40
1.0
 40
1.0
 10
5.0271833786
 20
3.252867288
 30
0.0
 10
5.0214662358
 20
3.2477727737
 30
0.0
 10
5.0100247429
 20
3.2380991615
 30
0.0
 10
4.9924645874
 20
3.2248742448
 30
0.0
 10
4.977705385
 20
3.2150796841
 30
0.0
 10
4.9659392397
 20
3.2080553841
 30
0.0
 10
4.9544476351
 20
3.2016888312
 30
0.0
 10
4.940134881
 20
3.1946551627
 30
0.0
 10
4.9229126356
 20
3.1876309631
 30
0.0
 10
4.9058521699
 20
3.1820791453
 30
0.0
 10
4.8889852612
 20
3.1779688535
 30
0.0
 10
4.8723446399
 20
3.1752692657
 30
0.0
 10
4.8559672271
 20
3.1739310154
 30
0.0
 10
4.8398889264
 20
3.1739039378
 30
0.0
 10
4.8241455522
 20
3.1751376939
 30
0.0
 10
4.8087727876
 20
3.1775816732
 30
0.0
 10
4.7938057224
 20
3.1811853042
 30
0.0
 10
4.7792804777
 20
3.1858973945
 30
0.0
 10
4.7698948576
 20
3.1897522421
 30
0.0
 10
4.7652942969
 20
3.191845352
 30
0.0
 11
5.0271833786
 21
3.252867288
 31
0.0
 11
5.0096263715
 21
3.2380514287
 31
0.0
 11
4.9920806499
 21
3.2248641487
 31
0.0
 11
4.9745771697
 21
3.2132735404
 31
0.0
 11
4.965850944
 21
3.2080670168
 31
0.0
 11
4.9571468872
 21
3.2032476958
 31
0.0
 11
4.9398207584
 21
3.1947547071
 31
0.0
 11
4.9226297393
 21
3.1877626666
 31
0.0
 11
4.9056047862
 21
3.1822396665
 31
0.0
 11
4.888776855
 21
3.1781537988
 31
0.0
 11
4.8721775532
 21
3.1754701681
 31
0.0
 11
4.8558410925
 21
3.1741419314
 31
0.0
 11
4.8398023354
 21
3.1741192595
 31
0.0
 11
4.8240961446
 21
3.1753523233
 31
0.0
 11
4.8087573828
 21
3.1777912936
 31
0.0
 11
4.7938209124
 21
3.1813863412
 31
0.0
 11
4.7793215963
 21
3.1860876371
 31
0.0
 11
4.7652942969
 21
3.191845352
 31
0.0
  0
SPLINE
  5
39C
100
AcDbEntity
  8
0
100
AcDbSpline
 62
9
  6
CONTINUOUS
 70
0
 71
3
 72
18
 73
14
 74
12
 42
0.0000001
 43
0.0000001
 44
0.0000000001
 12
-0.1656625933
 22
-0.1736392715
 32
0.0
 13
-0.1616860334
 23
-0.1773480138
 33
0.0
 40
0.0
 40
0.0
 40
0.0
 40
0.0
 40
0.1423911371
 40
0.2853155858
 40
0.4258289528
 40
0.5609870454
 40
0.6880147775
 40
0.7478130983
 40
0.8048126484
 40
0.858772199
 40
0.9094506026
 40
0.9566068254
 40
1.0
 40
1.0
 40
1.0
 40
1.0
 10
4.9299857568
 20
3.3664006486
 30
0.0
 10
4.9221227952
 20
3.3581590841
 30
0.0
 10
4.9063691958
 20
3.3416433942
 30
0.0
 10
4.8828719567
 20
3.3169799206
 30
0.0
 10
4.8597984465
 20
3.2927119462
 30
0.0
 10
4.8376365903
 20
3.2693319548
 30
0.0
 10
4.8199575546
 20
3.2505995105
 30
0.0
 10
4.8066017266
 20
3.2363842719
 30
0.0
 10
4.7972654415
 20
3.2264128817
 30
0.0
 10
4.7884468967
 20
3.2169561968
 30
0.0
 10
4.7801867963
 20
3.2080554705
 30
0.0
 10
4.7725258212
 20
3.1997519802
 30
0.0
 10
4.767632987
 20
3.1944105831
 30
0.0
 10
4.7652942969
 20
3.191845352
 30
0.0
 11
4.9299857568
 21
3.3664006486
 31
0.0
 11
4.906401105
 21
3.3416719173
 31
0.0
 11
4.8827431503
 21
3.3168362399
 31
0.0
 11
4.8595095548
 21
3.2923954955
 31
0.0
 11
4.8371979802
 21
3.2688515629
 31
0.0
 11
4.8162774819
 21
3.2466776308
 31
0.0
 11
4.8064514955
 21
3.2362182167
 31
0.0
 11
4.7971026877
 21
3.2262321267
 31
0.0
 11
4.7882718113
 21
3.2167605781
 31
0.0
 11
4.779999619
 21
3.207844788
 31
0.0
 11
4.7723268633
 21
3.1995259736
 31
0.0
 11
4.7652942969
 21
3.191845352
 31
0.0
  0
SPLINE
  5
39D
100
AcDbEntity
  8
0
100
AcDbSpline
 62
9
  6
CONTINUOUS
 70
0
 71
3
 72
40
 73
36
 74
34
 42
0.0000001
 43
0.0000001
 44
0.0000000001
 12
-0.0726825339
 22
-0.0797230457
 32
0.0
 13
0.0953787442
 23
-0.0504123982
 33
0.0
 40
0.0
 40
0.0
 40
0.0
 40
0.0
 40
0.1186268557
 40
0.2301085928
 40
0.3343668976
 40
0.4313236033
 40
0.5209007466
 40
0.6030206507
 40
0.6776060529
 40
0.744580308
 40
0.7751896286
 40
0.8038678978
 40
0.8306059078
 40
0.8553946143
 40
0.8782251955
 40
0.8990891375
 40
0.9179783671
 40
0.9348854636
 40
0.949804013
 40
0.962729241
 40
0.9684437693
 40
0.9736596356
 40
0.9783774866
 40
0.9825986445
 40
0.9863254677
 40
0.9895619814
 40
0.9923150527
 40
0.9945967541
 40
0.9955677689
 40
0.9964309238
 40
0.9971927568
 40
0.9978628679
 40
0.9989848982
 40
0.9994909286
 40
1.0
 40
1.0
 40
1.0
 40
1.0
 10
4.7652942969
 20
3.191845352
 30
0.0
 10
4.7624202634
 20
3.1886929206
 30
0.0
 10
4.7568531288
 20
3.1825707942
 30
0.0
 10
4.7487893955
 20
3.1736514651
 30
0.0
 10
4.7412750679
 20
3.1652860361
 30
0.0
 10
4.7343151787
 20
3.1574814934
 30
0.0
 10
4.7279147509
 20
3.1502448278
 30
0.0
 10
4.7220787756
 20
3.1435830503
 30
0.0
 10
4.71681226
 20
3.1375031614
 30
0.0
 10
4.7127900039
 20
3.132796296
 30
0.0
 10
4.7098626124
 20
3.1293255231
 30
0.0
 10
4.7078793688
 20
3.1269513295
 30
0.0
 10
4.7060422979
 20
3.1247278172
 30
0.0
 10
4.7043520204
 20
3.1226558601
 30
0.0
 10
4.7028091428
 20
3.1207363418
 30
0.0
 10
4.7014142605
 20
3.1189701485
 30
0.0
 10
4.700167959
 20
3.11735817
 30
0.0
 10
4.6990707724
 20
3.1159013097
 30
0.0
 10
4.6981232617
 20
3.1146004576
 30
0.0
 10
4.6974329532
 20
3.1136104439
 30
0.0
 10
4.696957953
 20
3.1128960475
 30
0.0
 10
4.6966544417
 20
3.112422156
 30
0.0
 10
4.6963887943
 20
3.1119879034
 30
0.0
 10
4.6961610492
 20
3.1115933866
 30
0.0
 10
4.6959712242
 20
3.1112387053
 30
0.0
 10
4.6958192576
 20
3.1109239115
 30
0.0
 10
4.6957051408
 20
3.1106490524
 30
0.0
 10
4.6956380282
 20
3.1104433397
 30
0.0
 10
4.6956055344
 20
3.1102988175
 30
0.0
 10
4.695592059
 20
3.1102063506
 30
0.0
 10
4.6955881875
 20
3.1101236625
 30
0.0
 10
4.6955952762
 20
3.1100321156
 30
0.0
 10
4.6956215261
 20
3.1099506904
 30
0.0
 10
4.695671625
 20
3.1098912887
 30
0.0
 10
4.6957020397
 20
3.1098702708
 30
0.0
 10
4.6957182245
 20
3.1098617162
 30
0.0
 11
4.7652942969
 21
3.191845352
 31
0.0
 11
4.7566849776
 21
3.1823764211
 31
0.0
 11
4.7486201293
 21
3.1734543277
 31
0.0
 11
4.7411048171
 21
3.1650860339
 31
0.0
 11
4.7341441062
 21
3.1572785017
 31
0.0
 11
4.727743062
 21
3.1500386932
 31
0.0
 11
4.7219067495
 21
3.1433735706
 31
0.0
 11
4.7166402341
 21
3.1372900957
 31
0.0
 11
4.7119485809
 21
3.1317952308
 31
0.0
 11
4.7098199106
 21
3.1292707027
 31
0.0
 11
4.7078368553
 21
3.1268959379
 31
0.0
 11
4.7060000482
 21
3.1246718066
 31
0.0
 11
4.7043101224
 21
3.122599179
 31
0.0
 11
4.702767711
 21
3.1206789255
 31
0.0
 11
4.7013734474
 21
3.1189119162
 31
0.0
 11
4.7001279645
 21
3.1172990215
 31
0.0
 11
4.6990318955
 21
3.1158411116
 31
0.0
 11
4.6980858737
 21
3.1145390568
 31
0.0
 11
4.6972905321
 21
3.1133937272
 31
0.0
 11
4.6969495643
 21
3.1128801064
 31
0.0
 11
4.696646504
 21
3.1124059933
 31
0.0
 11
4.6963814303
 21
3.1119714966
 31
0.0
 11
4.6961544223
 21
3.1115767252
 31
0.0
 11
4.6959655593
 21
3.1112217878
 31
0.0
 11
4.6958149204
 21
3.1109067932
 31
0.0
 11
4.6957025847
 21
3.1106318501
 31
0.0
 11
4.6956286314
 21
3.1103970675
 31
0.0
 11
4.6956060728
 21
3.1102947703
 31
0.0
 11
4.6955931396
 21
3.110202554
 31
0.0
 11
4.6955898414
 21
3.1101204322
 31
0.0
 11
4.6955961884
 21
3.1100484184
 31
0.0
 11
4.695637857
 21
3.1099347696
 31
0.0
 11
4.6956731984
 21
3.1098931617
 31
0.0
 11
4.6957182245
 21
3.1098617162
 31
0.0
  0
SPLINE
  5
39E
100
AcDbEntity
  8
0
100
AcDbSpline
 62
9
  6
CONTINUOUS
 70
0
 71
3
 72
9
 73
5
 74
3
 42
0.0000001
 43
0.0000001
 44
0.0000000001
 12
0.0000378102
 22
-0.0000199846
 32
0.0
 13
0.0000406026
 23
-0.000013432
 33
0.0
 40
0.0
 40
0.0
 40
0.0
 40
0.0
 40
0.2444322638
 40
1.0
 40
1.0
 40
1.0
 40
1.0
 10
4.6957182245
 20
3.1098617162
 30
0.0
 10
4.6957213052
 20
3.109860088
 30
0.0
 10
4.6957340557
 20
3.1098537065
 30
0.0
 10
4.695747359
 20
3.1098484461
 30
0.0
 10
4.695757585
 20
3.1098450632
 30
0.0
 11
4.6957182245
 21
3.1098617162
 31
0.0
 11
4.6957275715
 21
3.1098570353
 31
0.0
 11
4.695757585
 21
3.1098450632
 31
0.0
  0
LINE
  5
39F
100
AcDbEntity
  8
0
100
AcDbLine
 62
6
  6
CONTINUOUS
 10
5.0271833786
 20
3.2528672881
 11
5.0110462365
 21
3.2273488305
  0
LINE
  5
3A0
100
AcDbEntity
  8
0
100
AcDbLine
 62
6
  6
CONTINUOUS
 10
5.0110462365
 20
3.2273488305
 11
5.0067976759
 21
3.2206411435
  0
SPLINE
  5
3A1
100
AcDbEntity
  8
0
100
AcDbSpline
 62
6
  6
CONTINUOUS
 70
0
 71
3
 72
17
 73
13
 74
11
 42
0.0000001
 43
0.0000001
 44
0.0000000001
 12
-0.0284932775
 22
-0.0449075743
 32
0.0
 13
-0.0325445932
 23
-0.0420643144
 33
0.0
 40
0.0
 40
0.0
 40
0.0
 40
0.0
 40
0.1551901896
 40
0.302582058
 40
0.4417858427
 40
0.5724145781
 40
0.6940469902
 40
0.8061847721
 40
0.8585379697
 40
0.9083330518
 40
0.9555106926
 40
1.0
 40
1.0
 40
1.0
 40
1.0
 10
5.0067976759
 20
3.2206411435
 30
0.0
 10
5.0053237168
 20
3.2183180718
 30
0.0
 10
5.0024461432
 20
3.2137910209
 30
0.0
 10
4.99822486
 20
3.2071939482
 30
0.0
 10
4.9942097454
 20
3.2009819633
 30
0.0
 10
4.9904048778
 20
3.1951779698
 30
0.0
 10
4.9868152126
 20
3.1898069058
 30
0.0
 10
4.9839449916
 20
3.1856244048
 30
0.0
 10
4.9817549994
 20
3.1825202497
 30
0.0
 10
4.980207333
 20
3.1803724622
 30
0.0
 10
4.978717484
 20
3.1783550498
 30
0.0
 10
4.9777340462
 20
3.1770612289
 30
0.0
 10
4.9772514174
 20
3.1764374248
 30
0.0
 11
5.0067976759
 21
3.2206411435
 31
0.0
 11
5.0023684002
 21
3.2136766283
 31
0.0
 11
4.9981414415
 21
3.2070750057
 31
0.0
 11
4.9941203182
 21
3.2008587785
 31
0.0
 11
4.9903085519
 21
3.1950504605
 31
0.0
 11
4.9867102593
 21
3.1896746611
 31
0.0
 11
4.9833308548
 21
3.1847605592
 31
0.0
 11
4.9817249809
 21
3.1824859515
 31
0.0
 11
4.9801759235
 21
3.180337936
 31
0.0
 11
4.9786843978
 21
3.1783202752
 31
0.0
 11
4.9772514174
 21
3.1764374248
 31
0.0
  0
SPLINE
  5
3A2
100
AcDbEntity
  8
0
100
AcDbSpline
 62
6
  6
CONTINUOUS
 70
0
 71
3
 72
11
 73
7
 74
5
 42
0.0000001
 43
0.0000001
 44
0.0000000001
 12
-0.0054973493
 22
-0.0071053962
 32
0.0
 13
-0.0063557194
 23
-0.0063491996
 33
0.0
 40
0.0
 40
0.0
 40
0.0
 40
0.0
 40
0.2846226486
 40
0.5465611969
 40
0.7851932553
 40
1.0
 40
1.0
 40
1.0
 40
1.0
 10
4.9772514174
 20
3.1764374248
 30
0.0
 10
4.9767298606
 20
3.1757633059
 30
0.0
 10
4.975716358
 20
3.1744779583
 30
0.0
 10
4.9742168624
 20
3.17266645
 30
0.0
 10
4.9728019737
 20
3.171057467
 30
0.0
 10
4.9718666991
 20
3.1700723245
 30
0.0
 10
4.9714116153
 20
3.1696177076
 30
0.0
 11
4.9772514174
 21
3.1764374248
 31
0.0
 11
4.9756660846
 21
3.1744312246
 31
0.0
 11
4.9741630185
 21
3.1726206226
 31
0.0
 11
4.9727442013
 21
3.1710134924
 31
0.0
 11
4.9714116153
 21
3.1696177076
 31
0.0
  0
SPLINE
  5
3A3
100
AcDbEntity
  8
0
100
AcDbSpline
 62
9
  6
CONTINUOUS
 70
0
 71
3
 72
11
 73
7
 74
5
 42
0.0000001
 43
0.0000001
 44
0.0000000001
 12
-0.0313757873
 22
0.0216573495
 32
0.0
 13
-0.0269581232
 23
0.0269581232
 33
0.0
 40
0.0
 40
0.0
 40
0.0
 40
0.0
 40
0.2467924469
 40
0.4962971367
 40
0.7476666945
 40
1.0
 40
1.0
 40
1.0
 40
1.0
 10
4.9299857568
 20
3.3664006486
 30
0.0
 10
4.9274046544
 20
3.368182272
 30
0.0
 10
4.9223033668
 20
3.371896109
 30
0.0
 10
4.9148908569
 20
3.3778453178
 30
0.0
 10
4.9076995136
 20
3.3841669545
 30
0.0
 10
4.9030772049
 20
3.3885984427
 30
0.0
 10
4.9008097275
 20
3.3908659201
 30
0.0
 11
4.9299857568
 21
3.3664006486
 31
0.0
 11
4.922375978
 21
3.371933976
 31
0.0
 11
4.9149549052
 21
3.3778846587
 31
0.0
 11
4.9077552509
 21
3.3842096542
 31
0.0
 11
4.9008097275
 21
3.3908659201
 31
0.0
  0
SPLINE
  5
3A4
100
AcDbEntity
  8
0
100
AcDbSpline
 62
9
  6
CONTINUOUS
 70
0
 71
3
 72
12
 73
8
 74
6
 42
0.0000001
 43
0.0000001
 44
0.0000000001
 12
-0.0417346491
 22
0.0189879473
 32
0.0
 13
-0.0324216215
 23
0.0324216215
 33
0.0
 40
0.0
 40
0.0
 40
0.0
 40
0.0
 40
0.2493582906
 40
0.3742533165
 40
0.4992638234
 40
0.749510259
 40
1.0
 40
1.0
 40
1.0
 40
1.0
 10
4.7652942969
 20
3.191845352
 30
0.0
 10
4.7618253366
 20
3.1934236193
 30
0.0
 10
4.7567256604
 20
3.1960376411
 30
0.0
 10
4.7501860552
 20
3.1999729246
 30
0.0
 10
4.7438177617
 20
3.2042055385
 30
0.0
 10
4.7362134197
 20
3.2100266625
 30
0.0
 10
4.7305607523
 20
3.2152027559
 30
0.0
 10
4.7278536578
 20
3.2179098504
 30
0.0
 11
4.7652942969
 21
3.191845352
 31
0.0
 11
4.7551173762
 21
3.1970560912
 31
0.0
 11
4.7502103992
 21
3.2000082473
 31
0.0
 11
4.7454365215
 21
3.2031806931
 31
0.0
 11
4.7363243947
 21
3.210153749
 31
0.0
 11
4.7278536578
 21
3.2179098504
 31
0.0
  0
LINE
  5
3A5
100
AcDbEntity
  8
0
100
AcDbLine
 62
9
  6
CONTINUOUS
 10
5.1429148284
 20
3.6789365252
 11
5.1295926241
 21
3.6656604007
  0
SPLINE
  5
3A6
100
AcDbEntity
  8
0
100
AcDbSpline
 62
9
  6
CONTINUOUS
 70
0
 71
3
 72
11
 73
7
 74
5
 42
0.0000001
 43
0.0000001
 44
0.0000000001
 12
-0.0269581232
 22
0.0269581232
 32
0.0
 13
-0.0216573495
 23
0.0313757873
 33
0.0
 40
0.0
 40
0.0
 40
0.0
 40
0.0
 40
0.2523333055
 40
0.5037028633
 40
0.7532075531
 40
1.0
 40
1.0
 40
1.0
 40
1.0
 10
4.9008097275
 20
3.3908659201
 30
0.0
 10
4.89854225
 20
3.3931333976
 30
0.0
 10
4.8941107619
 20
3.3977557062
 30
0.0
 10
4.8877891251
 20
3.4049470496
 30
0.0
 10
4.8818399164
 20
3.4123595595
 30
0.0
 10
4.8781260794
 20
3.417460847
 30
0.0
 10
4.8763444559
 20
3.4200419495
 30
0.0
 11
4.9008097275
 21
3.3908659201
 31
0.0
 11
4.8941534615
 21
3.3978114435
 31
0.0
 11
4.8878284661
 21
3.4050110978
 31
0.0
 11
4.8818777834
 21
3.4124321707
 31
0.0
 11
4.8763444559
 21
3.4200419495
 31
0.0
  0
SPLINE
  5
3A7
100
AcDbEntity
  8
0
100
AcDbSpline
 62
9
  6
CONTINUOUS
 70
0
 71
3
 72
17
 73
13
 74
11
 42
0.0000001
 43
0.0000001
 44
0.0000000001
 12
-0.249953333
 22
-0.2489786005
 32
0.0
 13
-0.2552606433
 23
-0.2435344249
 33
0.0
 40
0.0
 40
0.0
 40
0.0
 40
0.0
 40
0.0519624319
 40
0.1062490759
 40
0.1626629131
 40
0.2210068553
 40
0.342696411
 40
0.4697401885
 40
0.6005617986
 40
0.7335912538
 40
0.8672601391
 40
1.0
 40
1.0
 40
1.0
 40
1.0
 10
5.1295926241
 20
3.6656604007
 30
0.0
 10
5.1252632298
 20
3.6613478895
 30
0.0
 10
5.1163982573
 20
3.6525425528
 30
0.0
 10
5.1027940863
 20
3.6390945284
 30
0.0
 10
5.0886269951
 20
3.6251485295
 30
0.0
 10
5.0687751342
 20
3.605678442
 30
0.0
 10
5.0429308348
 20
3.5804561296
 30
0.0
 10
5.0109059974
 20
3.549363653
 30
0.0
 10
4.9778563155
 20
3.5174124745
 30
0.0
 10
4.9441829091
 20
3.4849856691
 30
0.0
 10
4.9102863121
 20
3.4524655409
 30
0.0
 10
4.8876388767
 20
3.4308175247
 30
0.0
 10
4.8763444559
 20
3.4200419495
 30
0.0
 11
5.1295926241
 21
3.6656604007
 31
0.0
 11
5.1165871386
 21
3.6527402606
 31
0.0
 11
5.1029673925
 21
3.6392750557
 31
0.0
 11
5.0887845359
 21
3.6253120523
 31
0.0
 11
5.0740897192
 21
3.6108985166
 31
0.0
 11
5.0433688063
 21
3.5809089128
 31
0.0
 11
5.0112138556
 21
3.5496843739
 31
0.0
 11
4.9780326118
 21
3.5176036934
 31
0.0
 11
4.9442269912
 21
3.4850483204
 31
0.0
 11
4.9101974529
 21
3.4524003681
 31
0.0
 11
4.8763444559
 21
3.4200419495
 31
0.0
  0
SPLINE
  5
3A8
100
AcDbEntity
  8
0
100
AcDbSpline
 62
9
  6
CONTINUOUS
 70
0
 71
3
 72
12
 73
8
 74
6
 42
0.0000001
 43
0.0000001
 44
0.0000000001
 12
-0.0324216215
 22
0.0324216215
 32
0.0
 13
-0.0189879473
 23
0.0417346491
 33
0.0
 40
0.0
 40
0.0
 40
0.0
 40
0.0
 40
0.250489741
 40
0.5007361766
 40
0.6257466835
 40
0.7506417094
 40
1.0
 40
1.0
 40
1.0
 40
1.0
 10
4.7278536578
 20
3.2179098504
 30
0.0
 10
4.7251465633
 20
3.220616945
 30
0.0
 10
4.7199704699
 20
3.2262696123
 30
0.0
 10
4.7141493459
 20
3.2338739543
 30
0.0
 10
4.709916732
 20
3.2402422478
 30
0.0
 10
4.7059814485
 20
3.246781853
 30
0.0
 10
4.7033674267
 20
3.2518815293
 30
0.0
 10
4.7017891593
 20
3.2553504895
 30
0.0
 11
4.7278536578
 21
3.2179098504
 31
0.0
 11
4.7200975564
 21
3.2263805874
 31
0.0
 11
4.7131245004
 21
3.2354927141
 31
0.0
 11
4.7099520547
 21
3.2402665919
 31
0.0
 11
4.7069998986
 21
3.2451735689
 31
0.0
 11
4.7017891593
 21
3.2553504895
 31
0.0
  0
SPLINE
  5
3A9
100
AcDbEntity
  8
0
100
AcDbSpline
 62
9
  6
CONTINUOUS
 70
0
 71
3
 72
18
 73
14
 74
12
 42
0.0000001
 43
0.0000001
 44
0.0000000001
 12
-0.1736392715
 22
-0.1656625933
 32
0.0
 13
-0.1773480138
 23
-0.1616860334
 33
0.0
 40
0.0
 40
0.0
 40
0.0
 40
0.0
 40
0.1423911371
 40
0.2853155858
 40
0.4258289528
 40
0.5609870454
 40
0.6880147775
 40
0.7478130983
 40
0.8048126484
 40
0.858772199
 40
0.9094506026
 40
0.9566068254
 40
1.0
 40
1.0
 40
1.0
 40
1.0
 10
4.8763444559
 20
3.4200419495
 30
0.0
 10
4.8681028915
 20
3.4121789878
 30
0.0
 10
4.8515872015
 20
3.3964253885
 30
0.0
 10
4.826923728
 20
3.3729281494
 30
0.0
 10
4.8026557535
 20
3.3498546391
 30
0.0
 10
4.7792757622
 20
3.327692783
 30
0.0
 10
4.7605433178
 20
3.3100137472
 30
0.0
 10
4.7463280792
 20
3.2966579193
 30
0.0
 10
4.7363566891
 20
3.2873216341
 30
0.0
 10
4.7269000041
 20
3.2785030894
 30
0.0
 10
4.7179992779
 20
3.2702429889
 30
0.0
 10
4.7096957876
 20
3.2625820139
 30
0.0
 10
4.7043543904
 20
3.2576891796
 30
0.0
 10
4.7017891593
 20
3.2553504895
 30
0.0
 11
4.8763444559
 21
3.4200419495
 31
0.0
 11
4.8516157246
 21
3.3964572976
 31
0.0
 11
4.8267800473
 21
3.3727993429
 31
0.0
 11
4.8023393029
 21
3.3495657474
 31
0.0
 11
4.7787953703
 21
3.3272541729
 31
0.0
 11
4.7566214381
 21
3.3063336745
 31
0.0
 11
4.746162024
 21
3.2965076881
 31
0.0
 11
4.7361759341
 21
3.2871588804
 31
0.0
 11
4.7267043855
 21
3.278328004
 31
0.0
 11
4.7177885954
 21
3.2700558116
 31
0.0
 11
4.7094697809
 21
3.2623830559
 31
0.0
 11
4.7017891593
 21
3.2553504895
 31
0.0
  0
SPLINE
  5
3AA
100
AcDbEntity
  8
0
100
AcDbSpline
 62
9
  6
CONTINUOUS
 70
0
 71
3
 72
40
 73
36
 74
34
 42
0.0000001
 43
0.0000001
 44
0.0000000001
 12
-0.0797230433
 22
-0.0726825317
 32
0.0
 13
-0.0504137053
 23
0.0953780497
 33
0.0
 40
0.0
 40
0.0
 40
0.0
 40
0.0
 40
0.1186268078
 40
0.2301085032
 40
0.3343667726
 40
0.4313234493
 40
0.5209005702
 40
0.6030204584
 40
0.6776058515
 40
0.7445801043
 40
0.7751894264
 40
0.8038676988
 40
0.8306057136
 40
0.8553944269
 40
0.8782250165
 40
0.8990889687
 40
0.9179782103
 40
0.9348853206
 40
0.9498038856
 40
0.962729131
 40
0.9684436686
 40
0.9736595447
 40
0.9783774058
 40
0.9825985742
 40
0.9863254083
 40
0.9895619332
 40
0.9923150158
 40
0.9945967286
 40
0.995567749
 40
0.9964309092
 40
0.9971927471
 40
0.9978628627
 40
0.998984899
 40
0.9994909299
 40
1.0
 40
1.0
 40
1.0
 40
1.0
 10
4.7017891593
 20
3.2553504895
 30
0.0
 10
4.6986367293
 20
3.2524764573
 30
0.0
 10
4.6925146054
 20
3.246909325
 30
0.0
 10
4.68359528
 20
3.2388455949
 30
0.0
 10
4.6752298542
 20
3.2313312701
 30
0.0
 10
4.667425314
 20
3.2243713831
 30
0.0
 10
4.6601886505
 20
3.217970957
 30
0.0
 10
4.6535268746
 20
3.2121349829
 30
0.0
 10
4.6474469867
 20
3.206868468
 30
0.0
 10
4.6427401218
 20
3.2028462122
 30
0.0
 10
4.639269349
 20
3.1999188206
 30
0.0
 10
4.6368951553
 20
3.1979355768
 30
0.0
 10
4.6346716427
 20
3.1960985055
 30
0.0
 10
4.6325996852
 20
3.1944082274
 30
0.0
 10
4.6306801664
 20
3.1928653492
 30
0.0
 10
4.6289139724
 20
3.1914704661
 30
0.0
 10
4.627301993
 20
3.1902241637
 30
0.0
 10
4.6258451318
 20
3.189126976
 30
0.0
 10
4.6245442786
 20
3.188179464
 30
0.0
 10
4.6235542639
 20
3.1874891544
 30
0.0
 10
4.6228398665
 20
3.1870141533
 30
0.0
 10
4.6223659743
 20
3.1867106412
 30
0.0
 10
4.621931721
 20
3.186444993
 30
0.0
 10
4.6215372034
 20
3.186217247
 30
0.0
 10
4.6211825212
 20
3.1860274212
 30
0.0
 10
4.6208677265
 20
3.1858754537
 30
0.0
 10
4.6205928664
 20
3.1857613359
 30
0.0
 10
4.620387153
 20
3.1856942225
 30
0.0
 10
4.6202426302
 20
3.185661728
 30
0.0
 10
4.6201501627
 20
3.1856482521
 30
0.0
 10
4.6200674741
 20
3.1856443801
 30
0.0
 10
4.6199759266
 20
3.1856514681
 30
0.0
 10
4.6198945008
 20
3.1856777171
 30
0.0
 10
4.6198350982
 20
3.1857278153
 30
0.0
 10
4.6198140798
 20
3.1857582296
 30
0.0
 10
4.6198055251
 20
3.1857744143
 30
0.0
 11
4.7017891593
 21
3.2553504895
 31
0.0
 11
4.6923202325
 21
3.246741174
 31
0.0
 11
4.6833981428
 21
3.2386763289
 31
0.0
 11
4.6750298521
 21
3.2311610194
 31
0.0
 11
4.6672223225
 21
3.2242003108
 31
0.0
 11
4.6599825161
 21
3.2177992683
 31
0.0
 11
4.653317395
 21
3.211962957
 31
0.0
 11
4.6472339212
 21
3.2066964423
 31
0.0
 11
4.6417390568
 21
3.2020047893
 31
0.0
 11
4.6392145287
 21
3.1998761189
 31
0.0
 11
4.6368397637
 21
3.1978930633
 31
0.0
 11
4.6346156322
 21
3.1960562558
 31
0.0
 11
4.6325430042
 21
3.1943663294
 31
0.0
 11
4.6306227501
 21
3.1928239175
 31
0.0
 11
4.6288557402
 21
3.191429653
 31
0.0
 11
4.6272428446
 21
3.1901841692
 31
0.0
 11
4.6257849338
 21
3.1890880991
 31
0.0
 11
4.6244828778
 21
3.1881420761
 31
0.0
 11
4.623337547
 21
3.1873467331
 31
0.0
 11
4.6228239255
 21
3.1870057646
 31
0.0
 11
4.6223498116
 21
3.1867027034
 31
0.0
 11
4.6219153142
 21
3.1864376289
 31
0.0
 11
4.6215205419
 21
3.1862106202
 31
0.0
 11
4.6211656037
 21
3.1860217563
 31
0.0
 11
4.6208506082
 21
3.1858711165
 31
0.0
 11
4.6205756642
 21
3.1857587798
 31
0.0
 11
4.6203408806
 21
3.1856848255
 31
0.0
 11
4.6202385829
 21
3.1856622664
 31
0.0
 11
4.6201463661
 21
3.1856493326
 31
0.0
 11
4.6200642438
 21
3.185646034
 31
0.0
 11
4.6199922295
 21
3.1856523804
 31
0.0
 11
4.6198785796
 21
3.1856940479
 31
0.0
 11
4.6198369711
 21
3.1857293888
 31
0.0
 11
4.6198055251
 21
3.1857744143
 31
0.0
  0
SPLINE
  5
3AB
100
AcDbEntity
  8
0
100
AcDbSpline
 62
9
  6
CONTINUOUS
 70
0
 71
3
 72
9
 73
5
 74
3
 42
0.0000001
 43
0.0000001
 44
0.0000000001
 12
-0.0000199864
 22
0.0000378125
 32
0.0
 13
-0.000013433
 23
0.0000406054
 33
0.0
 40
0.0
 40
0.0
 40
0.0
 40
0.0
 40
0.2444319956
 40
1.0
 40
1.0
 40
1.0
 40
1.0
 10
4.6198055251
 20
3.1857744143
 30
0.0
 10
4.6198038967
 20
3.1857774952
 30
0.0
 10
4.6197975147
 20
3.1857902464
 30
0.0
 10
4.6197922538
 20
3.1858035506
 30
0.0
 10
4.6197888706
 20
3.1858137773
 30
0.0
 11
4.6198055251
 21
3.1857744143
 31
0.0
 11
4.6198008437
 21
3.1857837618
 31
0.0
 11
4.6197888706
 21
3.1858137773
 31
0.0
  0
SPLINE
  5
3AC
100
AcDbEntity
  8
0
100
AcDbSpline
 62
9
  6
CONTINUOUS
 70
0
 71
3
 72
30
 73
26
 74
24
 42
0.0000001
 43
0.0000001
 44
0.0000000001
 12
-0.1054174111
 22
0.1527220252
 32
0.0
 13
0.1239930205
 23
0.1380672966
 33
0.0
 40
0.0
 40
0.0
 40
0.0
 40
0.0
 40
0.0663031256
 40
0.1316368878
 40
0.1958894366
 40
0.2589934474
 40
0.3209350716
 40
0.3817640492
 40
0.4416045606
 40
0.500665934
 40
0.5300038758
 40
0.5592701657
 40
0.588518712
 40
0.6178089419
 40
0.6472055885
 40
0.6767783686
 40
0.7066015529
 40
0.736753442
 40
0.7673157622
 40
0.7983730065
 40
0.8300117447
 40
0.862319933
 40
0.8953862466
 40
0.9292994604
 40
1.0
 40
1.0
 40
1.0
 40
1.0
 10
4.8763444559
 20
3.4200419495
 30
0.0
 10
4.8740146213
 20
3.4234172653
 30
0.0
 10
4.8695337992
 20
3.4302201896
 30
0.0
 10
4.8633591266
 20
3.4406518053
 30
0.0
 10
4.8578352739
 20
3.451220789
 30
0.0
 10
4.8530231061
 20
3.4619037764
 30
0.0
 10
4.8489835966
 20
3.4726778638
 30
0.0
 10
4.8457782768
 20
3.483520452
 30
0.0
 10
4.8434693033
 20
3.4944080317
 30
0.0
 10
4.842342111
 20
3.5035218517
 30
0.0
 10
4.8419556779
 20
3.5107923883
 30
0.0
 10
4.8419280118
 20
3.5162288735
 30
0.0
 10
4.8421688201
 20
3.5216571603
 30
0.0
 10
4.842684874
 20
3.5270744575
 30
0.0
 10
4.8434829746
 20
3.5324777998
 30
0.0
 10
4.8445698957
 20
3.5378642447
 30
0.0
 10
4.8459523924
 20
3.5432308244
 30
0.0
 10
4.8476371936
 20
3.5485745652
 30
0.0
 10
4.8496310027
 20
3.5538924921
 30
0.0
 10
4.8519404926
 20
3.5591816308
 30
0.0
 10
4.854572327
 20
3.5644390356
 30
0.0
 10
4.8575330928
 20
3.5696617129
 30
0.0
 10
4.8608295834
 20
3.5748469382
 30
0.0
 10
4.8657486663
 20
3.5818022122
 30
0.0
 10
4.8698676762
 20
3.5868091245
 30
0.0
 10
4.8727898007
 20
3.5900629353
 30
0.0
 11
4.8763444559
 21
3.4200419495
 31
0.0
 11
4.8695848947
 21
3.4303228206
 31
0.0
 11
4.8634190618
 21
3.4407619875
 31
0.0
 11
4.8579075678
 21
3.4513351692
 31
0.0
 11
4.8531110233
 21
3.4620180849
 31
0.0
 11
4.849090039
 21
3.4727864539
 31
0.0
 11
4.8459052256
 21
3.4836159952
 31
0.0
 11
4.8436171936
 21
3.494482428
 31
0.0
 11
4.8422865537
 21
3.5053614715
 31
0.0
 11
4.8419990517
 21
3.5107981661
 31
0.0
 11
4.8419727598
 21
3.516229097
 31
0.0
 11
4.842214389
 21
3.5216514177
 31
0.0
 11
4.8427306501
 21
3.5270622819
 31
0.0
 11
4.8435282537
 21
3.532458843
 31
0.0
 11
4.8446139108
 21
3.5378382547
 31
0.0
 11
4.8459943322
 21
3.5431976705
 31
0.0
 11
4.8476762287
 21
3.548534244
 31
0.0
 11
4.849666311
 21
3.5538451287
 31
0.0
 11
4.8519712901
 21
3.5591274782
 31
0.0
 11
4.8545978766
 21
3.564378446
 31
0.0
 11
4.8575527815
 21
3.5695951858
 31
0.0
 11
4.8608427156
 21
3.574774851
 31
0.0
 11
4.8644743896
 21
3.5799145953
 31
0.0
 11
4.8727898007
 21
3.5900629353
 31
0.0
  0
SPLINE
  5
3AD
100
AcDbEntity
  8
0
100
AcDbSpline
 62
9
  6
CONTINUOUS
 70
0
 71
3
 72
24
 73
20
 74
18
 42
0.0000001
 43
0.0000001
 44
0.0000000001
 12
-0.1181878225
 22
0.2597714865
 32
0.0
 13
0.1898676589
 23
0.213072426
 33
0.0
 40
0.0
 40
0.0
 40
0.0
 40
0.0
 40
0.0531300888
 40
0.1065385914
 40
0.1603695698
 40
0.2147907289
 40
0.2699934786
 40
0.3261922345
 40
0.3836229546
 40
0.4425409797
 40
0.5032180581
 40
0.5659328027
 40
0.630960682
 40
0.6985716268
 40
0.733432917
 40
0.7690379095
 40
0.8425966003
 40
0.9195042323
 40
1.0
 40
1.0
 40
1.0
 40
1.0
 10
4.7017891593
 20
3.2553504895
 30
0.0
 10
4.6996960495
 20
3.2599510502
 30
0.0
 10
4.6958412019
 20
3.2693366703
 30
0.0
 10
4.6911291115
 20
3.2838619151
 30
0.0
 10
4.6875254806
 20
3.2988289803
 30
0.0
 10
4.6850815013
 20
3.3142017448
 30
0.0
 10
4.6838477451
 20
3.3299451191
 30
0.0
 10
4.6838748228
 20
3.3460234197
 30
0.0
 10
4.6852130731
 20
3.3624008326
 30
0.0
 10
4.6879126609
 20
3.3790414539
 30
0.0
 10
4.6920229526
 20
3.3959083626
 30
0.0
 10
4.6975747705
 20
3.4129688282
 30
0.0
 10
4.70459897
 20
3.4301910737
 30
0.0
 10
4.7116326385
 20
3.4445038277
 30
0.0
 10
4.7179991914
 20
3.4559954323
 30
0.0
 10
4.7250234915
 20
3.4677615776
 30
0.0
 10
4.7348180521
 20
3.4825207801
 30
0.0
 10
4.7480429689
 20
3.5000809356
 30
0.0
 10
4.7577165811
 20
3.5115224284
 30
0.0
 10
4.7628110954
 20
3.5172395712
 30
0.0
 11
4.7017891593
 21
3.2553504895
 31
0.0
 11
4.6960314444
 21
3.2693777889
 31
0.0
 11
4.6913301486
 21
3.2838771051
 31
0.0
 11
4.6877351009
 21
3.2988135754
 31
0.0
 11
4.6852961307
 21
3.3141523373
 31
0.0
 11
4.6840630669
 21
3.329858528
 31
0.0
 11
4.6840857388
 21
3.3458972851
 31
0.0
 11
4.6854139755
 21
3.3622337458
 31
0.0
 11
4.6880976062
 21
3.3788330476
 31
0.0
 11
4.6921834738
 21
3.3956609788
 31
0.0
 11
4.697706474
 21
3.412685932
 31
0.0
 11
4.7046985145
 21
3.429876951
 31
0.0
 11
4.7131915031
 21
3.4472030798
 31
0.0
 11
4.7180108242
 21
3.4559071367
 31
0.0
 11
4.7232173477
 21
3.4646333624
 31
0.0
 11
4.7348079561
 21
3.4821368425
 31
0.0
 11
4.747995236
 21
3.4996825642
 31
0.0
 11
4.7628110954
 21
3.5172395712
 31
0.0
  0
SPLINE
  5
3AE
100
AcDbEntity
  8
0
100
AcDbSpline
 62
6
  6
CONTINUOUS
 70
0
 71
3
 72
10
 73
6
 74
4
 42
0.0000001
 43
0.0000001
 44
0.0000000001
 12
-0.0489787726
 22
-0.0321130761
 32
0.0
 13
-0.0494621252
 23
-0.0313634818
 33
0.0
 40
0.0
 40
0.0
 40
0.0
 40
0.0
 40
0.5196307735
 40
0.7648880291
 40
1.0
 40
1.0
 40
1.0
 40
1.0
 10
4.812064037
 20
3.5489299548
 30
0.0
 10
4.8035804112
 20
3.5433676406
 30
0.0
 10
4.7910489082
 20
3.5352465794
 30
0.0
 10
4.7746027621
 20
3.5247273324
 30
0.0
 10
4.7666875978
 20
3.519697626
 30
0.0
 10
4.7628112186
 20
3.5172396493
 30
0.0
 11
4.812064037
 21
3.5489299548
 31
0.0
 11
4.7865315906
 21
3.5323680891
 31
0.0
 11
4.7744320163
 21
3.5246267156
 31
0.0
 11
4.7628112186
 21
3.5172396493
 31
0.0
  0
LINE
  5
3AF
100
AcDbEntity
  8
0
100
AcDbLine
 62
6
  6
CONTINUOUS
 10
4.7628112186
 20
3.5172396493
 11
4.7372924647
 21
3.5011027663
  0
LINE
  5
3B0
100
AcDbEntity
  8
0
100
AcDbLine
 62
6
  6
CONTINUOUS
 10
4.7372924647
 20
3.5011027663
 11
4.7305845387
 21
3.4968542848
  0
SPLINE
  5
3B1
100
AcDbEntity
  8
0
100
AcDbSpline
 62
6
  6
CONTINUOUS
 70
0
 71
3
 72
17
 73
13
 74
11
 42
0.0000001
 43
0.0000001
 44
0.0000000001
 12
-0.044907472
 22
-0.0284932126
 32
0.0
 13
-0.0420642544
 23
-0.0325444727
 33
0.0
 40
0.0
 40
0.0
 40
0.0
 40
0.0
 40
0.1551902308
 40
0.3025817084
 40
0.4417850086
 40
0.5724134862
 40
0.6940460179
 40
0.8061841353
 40
0.858537523
 40
0.9083327828
 40
0.955510573
 40
1.0
 40
1.0
 40
1.0
 40
1.0
 10
4.7305845387
 20
3.4968542848
 30
0.0
 10
4.7282614717
 20
3.4953803287
 30
0.0
 10
4.7237344661
 20
3.4925027179
 30
0.0
 10
4.7171375216
 20
3.4882812947
 30
0.0
 10
4.7109256831
 20
3.4842660217
 30
0.0
 10
4.7051217975
 20
3.4804610389
 30
0.0
 10
4.6997507647
 20
3.4768713479
 30
0.0
 10
4.6955682518
 20
3.4740011447
 30
0.0
 10
4.6924640771
 20
3.4718111737
 30
0.0
 10
4.6903162751
 20
3.4702635221
 30
0.0
 10
4.6882988528
 20
3.4687736828
 30
0.0
 10
4.6870050288
 20
3.4677902472
 30
0.0
 10
4.6863812239
 20
3.4673076189
 30
0.0
 11
4.7305845387
 21
3.4968542848
 31
0.0
 11
4.7236200784
 21
3.4924249538
 31
0.0
 11
4.7170185835
 21
3.4881978672
 31
0.0
 11
4.7108025002
 21
3.4841766001
 31
0.0
 11
4.7049942854
 21
3.4803647304
 31
0.0
 11
4.6996185176
 21
3.4767664056
 31
0.0
 11
4.694704401
 21
3.4733870151
 31
0.0
 11
4.6924297785
 21
3.4717811555
 31
0.0
 11
4.6902817489
 21
3.4702321118
 31
0.0
 11
4.6882640785
 21
3.4687405954
 31
0.0
 11
4.6863812239
 21
3.4673076189
 31
0.0
  0
SPLINE
  5
3B2
100
AcDbEntity
  8
0
100
AcDbSpline
 62
6
  6
CONTINUOUS
 70
0
 71
3
 72
11
 73
7
 74
5
 42
0.0000001
 43
0.0000001
 44
0.0000000001
 12
-0.007105402
 22
-0.0054973412
 32
0.0
 13
-0.0063491993
 23
-0.0063557191
 33
0.0
 40
0.0
 40
0.0
 40
0.0
 40
0.0
 40
0.2846226732
 40
0.5465612001
 40
0.7851932435
 40
1.0
 40
1.0
 40
1.0
 40
1.0
 10
4.6863812239
 20
3.4673076189
 30
0.0
 10
4.6857071044
 20
3.4667860629
 30
0.0
 10
4.684421757
 20
3.46577256
 30
0.0
 10
4.6826102519
 20
3.4642730607
 30
0.0
 10
4.6810012727
 20
3.462858168
 30
0.0
 10
4.6800161319
 20
3.4619228918
 30
0.0
 10
4.6795615149
 20
3.461467808
 30
0.0
 11
4.6863812239
 21
3.4673076189
 31
0.0
 11
4.6843750238
 21
3.4657222859
 31
0.0
 11
4.6825644247
 21
3.4642192166
 31
0.0
 11
4.6809572981
 21
3.4628003958
 31
0.0
 11
4.6795615149
 21
3.461467808
 31
0.0
  0
LINE
  5
3B3
100
AcDbEntity
  8
0
100
AcDbLine
 62
9
  6
CONTINUOUS
 10
6.1109451128
 20
3.6789365252
 11
6.124267317
 21
3.6656604007
  0
LINE
  5
3B4
100
AcDbEntity
  8
0
100
AcDbLine
 62
9
  6
CONTINUOUS
 10
6.0649796086
 20
4.6010013054
 11
6.0782557331
 21
4.6143235097
  0
SPLINE
  5
3B5
100
AcDbEntity
  8
0
100
AcDbSpline
 62
9
  6
CONTINUOUS
 70
0
 71
3
 72
30
 73
26
 74
24
 42
0.0000001
 43
0.0000001
 44
0.0000000001
 12
0.1240119278
 22
-0.1380663944
 32
0.0
 13
-0.1054242066
 23
-0.1527318701
 33
0.0
 40
0.0
 40
0.0
 40
0.0
 40
0.0
 40
0.0707034056
 40
0.1046177654
 40
0.1376850436
 40
0.1699940237
 40
0.2016333907
 40
0.2326911111
 40
0.263253766
 40
0.2934058603
 40
0.3232291325
 40
0.3528018959
 40
0.3821984339
 40
0.4114884757
 40
0.4407367667
 40
0.4700027455
 40
0.4993403314
 40
0.5584008985
 40
0.61824054
 40
0.6790686383
 40
0.7410094105
 40
0.8041126191
 40
0.8683644255
 40
0.9336975051
 40
1.0
 40
1.0
 40
1.0
 40
1.0
 10
6.3810621433
 20
3.5900718394
 30
0.0
 10
6.3839848319
 20
3.586817918
 30
0.0
 10
6.3881046649
 20
3.5818108198
 30
0.0
 10
6.3930247952
 20
3.5748552367
 30
0.0
 10
6.3963220035
 20
3.5696697853
 30
0.0
 10
6.3992834396
 20
3.5644468734
 30
0.0
 10
6.401915898
 20
3.5591892257
 30
0.0
 10
6.4042259665
 20
3.5538998362
 30
0.0
 10
6.4062203099
 20
3.5485816513
 30
0.0
 10
6.4079056024
 20
3.5432376455
 30
0.0
 10
6.4092885481
 20
3.5378707946
 30
0.0
 10
6.4103758773
 20
3.5324840727
 30
0.0
 10
6.411174346
 20
3.5270804481
 30
0.0
 10
6.4116907292
 20
3.5216628639
 30
0.0
 10
6.4119318292
 20
3.5162342857
 30
0.0
 10
6.4119044181
 20
3.5107975056
 30
0.0
 10
6.4115182789
 20
3.5035265743
 30
0.0
 10
6.4103913671
 20
3.4944122475
 30
0.0
 10
6.4080825974
 20
3.4835240508
 30
0.0
 10
6.4048773616
 20
3.4726808438
 30
0.0
 10
6.4008378268
 20
3.4619061397
 30
0.0
 10
6.396025535
 20
3.4512225412
 30
0.0
 10
6.3905014697
 20
3.4406529559
 30
0.0
 10
6.3843265062
 20
3.4302207514
 30
0.0
 10
6.3798454479
 20
3.4234174508
 30
0.0
 10
6.3775154852
 20
3.4200419495
 30
0.0
 11
6.3810621433
 21
3.5900718394
 31
0.0
 11
6.3893792338
 21
3.5799230944
 31
0.0
 11
6.3930116723
 21
3.5747831332
 31
0.0
 11
6.3963023222
 21
3.5696032421
 31
0.0
 11
6.3992578955
 21
3.5643862678
 31
0.0
 11
6.4018851042
 21
3.5591350575
 31
0.0
 11
6.40419066
 21
3.5538524579
 31
0.0
 11
6.406181275
 21
3.5485413161
 31
0.0
 11
6.407863661
 21
3.5432044788
 31
0.0
 11
6.4092445301
 21
3.5378447931
 31
0.0
 11
6.4103305941
 21
3.5324651058
 31
0.0
 11
6.411128565
 21
3.5270682638
 31
0.0
 11
6.4116451547
 21
3.5216571141
 31
0.0
 11
6.411887075
 21
3.5162345036
 31
0.0
 11
6.4118610381
 21
3.5108032791
 31
0.0
 11
6.4115737557
 21
3.5053662876
 31
0.0
 11
6.4102434524
 21
3.4944866419
 31
0.0
 11
6.4079556276
 21
3.4836195989
 31
0.0
 11
6.4047709019
 21
3.4727894434
 31
0.0
 11
6.4007498961
 21
3.4620204603
 31
0.0
 11
6.3959532308
 21
3.4513369345
 31
0.0
 11
6.3904415268
 21
3.4407631508
 31
0.0
 11
6.3842754047
 21
3.4303233942
 31
0.0
 11
6.3775154852
 21
3.4200419495
 31
0.0
  0
SPLINE
  5
3B6
100
AcDbEntity
  8
0
100
AcDbSpline
 62
9
  6
CONTINUOUS
 70
0
 71
3
 72
17
 73
13
 74
11
 42
0.0000001
 43
0.0000001
 44
0.0000000001
 12
0.249953333
 22
-0.2489786005
 32
0.0
 13
0.2552606433
 23
-0.2435344249
 33
0.0
 40
0.0
 40
0.0
 40
0.0
 40
0.0
 40
0.0519624319
 40
0.1062490759
 40
0.1626629131
 40
0.2210068553
 40
0.342696411
 40
0.4697401885
 40
0.6005617986
 40
0.7335912538
 40
0.8672601391
 40
1.0
 40
1.0
 40
1.0
 40
1.0
 10
6.124267317
 20
3.6656604007
 30
0.0
 10
6.1285967114
 20
3.6613478895
 30
0.0
 10
6.1374616838
 20
3.6525425528
 30
0.0
 10
6.1510658548
 20
3.6390945284
 30
0.0
 10
6.1652329461
 20
3.6251485295
 30
0.0
 10
6.1850848069
 20
3.605678442
 30
0.0
 10
6.2109291064
 20
3.5804561296
 30
0.0
 10
6.2429539437
 20
3.549363653
 30
0.0
 10
6.2760036257
 20
3.5174124745
 30
0.0
 10
6.309677032
 20
3.4849856691
 30
0.0
 10
6.3435736291
 20
3.4524655409
 30
0.0
 10
6.3662210645
 20
3.4308175247
 30
0.0
 10
6.3775154852
 20
3.4200419495
 30
0.0
 11
6.124267317
 21
3.6656604007
 31
0.0
 11
6.1372728025
 21
3.6527402606
 31
0.0
 11
6.1508925487
 21
3.6392750557
 31
0.0
 11
6.1650754052
 21
3.6253120523
 31
0.0
 11
6.1797702219
 21
3.6108985166
 31
0.0
 11
6.2104911349
 21
3.5809089128
 31
0.0
 11
6.2426460856
 21
3.5496843739
 31
0.0
 11
6.2758273294
 21
3.5176036934
 31
0.0
 11
6.30963295
 21
3.4850483204
 31
0.0
 11
6.3436624883
 21
3.4524003681
 31
0.0
 11
6.3775154852
 21
3.4200419495
 31
0.0
  0
SPLINE
  5
3B7
100
AcDbEntity
  8
0
100
AcDbSpline
 62
9
  6
CONTINUOUS
 70
0
 71
3
 72
24
 73
20
 74
18
 42
0.0000001
 43
0.0000001
 44
0.0000000001
 12
0.1898676589
 22
-0.213072426
 32
0.0
 13
-0.1181878225
 23
-0.2597714865
 33
0.0
 40
0.0
 40
0.0
 40
0.0
 40
0.0
 40
0.0804957677
 40
0.1574033997
 40
0.2309620905
 40
0.266567083
 40
0.3014283732
 40
0.369039318
 40
0.4340671973
 40
0.4967819419
 40
0.5574590203
 40
0.6163770454
 40
0.6738077655
 40
0.7300065214
 40
0.7852092711
 40
0.8396304302
 40
0.8934614086
 40
0.9468699112
 40
1.0
 40
1.0
 40
1.0
 40
1.0
 10
6.4910488458
 20
3.5172395712
 30
0.0
 10
6.4961433601
 20
3.5115224284
 30
0.0
 10
6.5058169723
 20
3.5000809356
 30
0.0
 10
6.519041889
 20
3.4825207801
 30
0.0
 10
6.5288364497
 20
3.4677615776
 30
0.0
 10
6.5358607497
 20
3.4559954323
 30
0.0
 10
6.5422273026
 20
3.4445038277
 30
0.0
 10
6.5492609711
 20
3.4301910737
 30
0.0
 10
6.5562851707
 20
3.4129688282
 30
0.0
 10
6.5618369885
 20
3.3959083626
 30
0.0
 10
6.5659472803
 20
3.3790414539
 30
0.0
 10
6.5686468681
 20
3.3624008326
 30
0.0
 10
6.5699851184
 20
3.3460234197
 30
0.0
 10
6.570012196
 20
3.3299451191
 30
0.0
 10
6.5687784399
 20
3.3142017448
 30
0.0
 10
6.5663344606
 20
3.2988289803
 30
0.0
 10
6.5627308296
 20
3.2838619151
 30
0.0
 10
6.5580187393
 20
3.2693366703
 30
0.0
 10
6.5541638917
 20
3.2599510502
 30
0.0
 10
6.5520707818
 20
3.2553504895
 30
0.0
 11
6.4910488458
 21
3.5172395712
 31
0.0
 11
6.5058647051
 21
3.4996825642
 31
0.0
 11
6.5190519851
 21
3.4821368425
 31
0.0
 11
6.5306425935
 21
3.4646333624
 31
0.0
 11
6.535849117
 21
3.4559071367
 31
0.0
 11
6.540668438
 21
3.4472030798
 31
0.0
 11
6.5491614267
 21
3.429876951
 31
0.0
 11
6.5561534672
 21
3.412685932
 31
0.0
 11
6.5616764673
 21
3.3956609788
 31
0.0
 11
6.565762335
 21
3.3788330476
 31
0.0
 11
6.5684459657
 21
3.3622337458
 31
0.0
 11
6.5697742024
 21
3.3458972851
 31
0.0
 11
6.5697968743
 21
3.329858528
 31
0.0
 11
6.5685638105
 21
3.3141523373
 31
0.0
 11
6.5661248402
 21
3.2988135754
 31
0.0
 11
6.5625297926
 21
3.2838771051
 31
0.0
 11
6.5578284967
 21
3.2693777889
 31
0.0
 11
6.5520707818
 21
3.2553504895
 31
0.0
  0
SPLINE
  5
3B8
100
AcDbEntity
  8
0
100
AcDbSpline
 62
9
  6
CONTINUOUS
 70
0
 71
3
 72
18
 73
14
 74
12
 42
0.0000001
 43
0.0000001
 44
0.0000000001
 12
0.1736392715
 22
-0.1656625933
 32
0.0
 13
0.1773480138
 23
-0.1616860334
 33
0.0
 40
0.0
 40
0.0
 40
0.0
 40
0.0
 40
0.1423911371
 40
0.2853155858
 40
0.4258289528
 40
0.5609870454
 40
0.6880147775
 40
0.7478130983
 40
0.8048126484
 40
0.858772199
 40
0.9094506026
 40
0.9566068254
 40
1.0
 40
1.0
 40
1.0
 40
1.0
 10
6.3775154852
 20
3.4200419495
 30
0.0
 10
6.3857570497
 20
3.4121789878
 30
0.0
 10
6.4022727396
 20
3.3964253885
 30
0.0
 10
6.4269362132
 20
3.3729281494
 30
0.0
 10
6.4512041877
 20
3.3498546391
 30
0.0
 10
6.474584179
 20
3.327692783
 30
0.0
 10
6.4933166233
 20
3.3100137472
 30
0.0
 10
6.507531862
 20
3.2966579193
 30
0.0
 10
6.5175032521
 20
3.2873216341
 30
0.0
 10
6.526959937
 20
3.2785030894
 30
0.0
 10
6.5358606633
 20
3.2702429889
 30
0.0
 10
6.5441641536
 20
3.2625820139
 30
0.0
 10
6.5495055507
 20
3.2576891796
 30
0.0
 10
6.5520707818
 20
3.2553504895
 30
0.0
 11
6.3775154852
 21
3.4200419495
 31
0.0
 11
6.4022442166
 21
3.3964572976
 31
0.0
 11
6.4270798939
 21
3.3727993429
 31
0.0
 11
6.4515206383
 21
3.3495657474
 31
0.0
 11
6.4750645709
 21
3.3272541729
 31
0.0
 11
6.497238503
 21
3.3063336745
 31
0.0
 11
6.5076979172
 21
3.2965076881
 31
0.0
 11
6.5176840071
 21
3.2871588804
 31
0.0
 11
6.5271555557
 21
3.278328004
 31
0.0
 11
6.5360713458
 21
3.2700558116
 31
0.0
 11
6.5443901602
 21
3.2623830559
 31
0.0
 11
6.5520707818
 21
3.2553504895
 31
0.0
  0
SPLINE
  5
3B9
100
AcDbEntity
  8
0
100
AcDbSpline
 62
9
  6
CONTINUOUS
 70
0
 71
3
 72
30
 73
26
 74
24
 42
0.0000001
 43
0.0000001
 44
0.0000000001
 12
0.1380666131
 22
0.1240073466
 32
0.0
 13
0.1527294847
 23
-0.10542256
 33
0.0
 40
0.0
 40
0.0
 40
0.0
 40
0.0
 40
0.0707027112
 40
0.1046167933
 40
0.1376838377
 40
0.169992626
 40
0.2016318406
 40
0.2326894456
 40
0.2632520195
 40
0.293404064
 40
0.3232273149
 40
0.3528000823
 40
0.3821966467
 40
0.4114867341
 40
0.4407350869
 40
0.4700011411
 40
0.4993388132
 40
0.5583995757
 40
0.618239428
 40
0.6790677394
 40
0.7410087179
 40
0.804112121
 40
0.8683641073
 40
0.9336973523
 40
1.0
 40
1.0
 40
1.0
 40
1.0
 10
6.1538464518
 20
4.8711202738
 30
0.0
 10
6.1571003465
 20
4.8740428256
 30
0.0
 10
6.1621073996
 20
4.8781624592
 30
0.0
 10
6.1690629078
 20
4.8830823357
 30
0.0
 10
6.1742483044
 20
4.8863793701
 30
0.0
 10
6.1794711595
 20
4.8893406438
 30
0.0
 10
6.1847287483
 20
4.891972951
 30
0.0
 10
6.190018077
 20
4.8942828792
 30
0.0
 10
6.1953361995
 20
4.8962770932
 30
0.0
 10
6.200680141
 20
4.8979622667
 30
0.0
 10
6.2060469262
 20
4.8993451036
 30
0.0
 10
6.211433581
 20
4.9004323339
 30
0.0
 10
6.2168371372
 20
4.9012307134
 30
0.0
 10
6.2222546518
 20
4.9017470168
 30
0.0
 10
6.2276831594
 20
4.9019880461
 30
0.0
 10
6.2331198681
 20
4.9019605733
 30
0.0
 10
6.2403907038
 20
4.9015743628
 30
0.0
 10
6.2495049077
 20
4.900447383
 30
0.0
 10
6.260392955
 20
4.898138564
 30
0.0
 10
6.2712360121
 20
4.8949333078
 30
0.0
 10
6.2820105668
 20
4.8908937792
 30
0.0
 10
6.2926940171
 20
4.8860815174
 30
0.0
 10
6.3032634567
 20
4.8805575036
 30
0.0
 10
6.3136955185
 20
4.8743826106
 30
0.0
 10
6.3204987279
 20
4.8699016095
 30
0.0
 10
6.3238741843
 20
4.8675716779
 30
0.0
 11
6.1538464518
 21
4.8711202738
 31
0.0
 11
6.1639950987
 21
4.8794369573
 31
0.0
 11
6.1691350073
 21
4.8830692105
 31
0.0
 11
6.1743148438
 21
4.886359687
 31
0.0
 11
6.1795317612
 21
4.8893150984
 31
0.0
 11
6.1847829127
 21
4.8919421563
 31
0.0
 11
6.1900654517
 21
4.8942475724
 31
0.0
 11
6.1953765313
 21
4.8962380583
 31
0.0
 11
6.2007133046
 21
4.8979203257
 31
0.0
 11
6.2060729249
 21
4.8993010863
 31
0.0
 11
6.2114525455
 21
4.9003870517
 31
0.0
 11
6.2168493194
 21
4.9011849336
 31
0.0
 11
6.2222603999
 21
4.9017014436
 31
0.0
 11
6.2276829402
 21
4.9019432935
 31
0.0
 11
6.2331140936
 21
4.9019171947
 31
0.0
 11
6.2385510131
 21
4.9016298591
 31
0.0
 11
6.2494305129
 21
4.9002994743
 31
0.0
 11
6.2602974081
 21
4.8980115993
 31
0.0
 11
6.2711274148
 21
4.8948268523
 31
0.0
 11
6.281896249
 21
4.8908058517
 31
0.0
 11
6.292579627
 21
4.8860092157
 31
0.0
 11
6.3031532648
 21
4.8804975626
 31
0.0
 11
6.3135928786
 21
4.8743315105
 31
0.0
 11
6.3238741843
 21
4.8675716779
 31
0.0
  0
SPLINE
  5
3BA
100
AcDbEntity
  8
0
100
AcDbSpline
 62
9
  6
CONTINUOUS
 70
0
 71
3
 72
40
 73
36
 74
34
 42
0.0000001
 43
0.0000001
 44
0.0000000001
 12
0.0797230457
 22
-0.0726825339
 32
0.0
 13
0.0504123982
 23
0.0953787442
 33
0.0
 40
0.0
 40
0.0
 40
0.0
 40
0.0
 40
0.1186268557
 40
0.2301085928
 40
0.3343668976
 40
0.4313236033
 40
0.5209007466
 40
0.6030206507
 40
0.6776060529
 40
0.744580308
 40
0.7751896286
 40
0.8038678978
 40
0.8306059078
 40
0.8553946143
 40
0.8782251955
 40
0.8990891375
 40
0.9179783671
 40
0.9348854636
 40
0.949804013
 40
0.962729241
 40
0.9684437693
 40
0.9736596356
 40
0.9783774866
 40
0.9825986445
 40
0.9863254677
 40
0.9895619814
 40
0.9923150527
 40
0.9945967541
 40
0.9955677689
 40
0.9964309238
 40
0.9971927568
 40
0.9978628679
 40
0.9989848982
 40
0.9994909286
 40
1.0
 40
1.0
 40
1.0
 40
1.0
 10
6.5520707818
 20
3.2553504895
 30
0.0
 10
6.5552232132
 20
3.252476456
 30
0.0
 10
6.5613453397
 20
3.2469093215
 30
0.0
 10
6.5702646687
 20
3.2388455881
 30
0.0
 10
6.5786300977
 20
3.2313312605
 30
0.0
 10
6.5864346405
 20
3.2243713713
 30
0.0
 10
6.593671306
 20
3.2179709435
 30
0.0
 10
6.6003330835
 20
3.2121349682
 30
0.0
 10
6.6064129724
 20
3.2068684526
 30
0.0
 10
6.6111198378
 20
3.2028461966
 30
0.0
 10
6.6145906107
 20
3.199918805
 30
0.0
 10
6.6169648043
 20
3.1979355614
 30
0.0
 10
6.6191883166
 20
3.1960984905
 30
0.0
 10
6.6212602737
 20
3.194408213
 30
0.0
 10
6.623179792
 20
3.1928653354
 30
0.0
 10
6.6249459853
 20
3.1914704531
 30
0.0
 10
6.6265579638
 20
3.1902241517
 30
0.0
 10
6.6280148241
 20
3.189126965
 30
0.0
 10
6.6293156762
 20
3.1881794543
 30
0.0
 10
6.6303056899
 20
3.1874891458
 30
0.0
 10
6.6310200863
 20
3.1870141456
 30
0.0
 10
6.6314939778
 20
3.1867106343
 30
0.0
 10
6.6319282304
 20
3.186444987
 30
0.0
 10
6.6323227472
 20
3.1862172418
 30
0.0
 10
6.6326774285
 20
3.1860274169
 30
0.0
 10
6.6329922223
 20
3.1858754502
 30
0.0
 10
6.6332670815
 20
3.1857613334
 30
0.0
 10
6.6334727941
 20
3.1856942208
 30
0.0
 10
6.6336173163
 20
3.185661727
 30
0.0
 10
6.6337097832
 20
3.1856482516
 30
0.0
 10
6.6337924713
 20
3.1856443801
 30
0.0
 10
6.6338840182
 20
3.1856514688
 30
0.0
 10
6.6339654434
 20
3.1856777187
 30
0.0
 10
6.6340248451
 20
3.1857278176
 30
0.0
 10
6.6340458631
 20
3.1857582323
 30
0.0
 10
6.6340544176
 20
3.1857744172
 30
0.0
 11
6.5520707818
 21
3.2553504895
 31
0.0
 11
6.5615397127
 21
3.2467411703
 31
0.0
 11
6.5704618061
 21
3.2386763219
 31
0.0
 11
6.5788300999
 21
3.2311610097
 31
0.0
 11
6.5866376321
 21
3.2242002989
 31
0.0
 11
6.5938774406
 21
3.2177992546
 31
0.0
 11
6.6005425632
 21
3.2119629421
 31
0.0
 11
6.6066260381
 21
3.2066964267
 31
0.0
 11
6.612120903
 21
3.2020047736
 31
0.0
 11
6.6146454311
 21
3.1998761032
 31
0.0
 11
6.6170201959
 21
3.1978930479
 31
0.0
 11
6.6192443273
 21
3.1960562408
 31
0.0
 11
6.6213169548
 21
3.194366315
 31
0.0
 11
6.6232372083
 21
3.1928239037
 31
0.0
 11
6.6250042176
 21
3.19142964
 31
0.0
 11
6.6266171123
 21
3.1901841571
 31
0.0
 11
6.6280750222
 21
3.1890880882
 31
0.0
 11
6.629377077
 21
3.1881420664
 31
0.0
 11
6.6305224066
 21
3.1873467248
 31
0.0
 11
6.6310360274
 21
3.1870057569
 31
0.0
 11
6.6315101405
 21
3.1867026966
 31
0.0
 11
6.6319446372
 21
3.1864376229
 31
0.0
 11
6.6323394086
 21
3.186210615
 31
0.0
 11
6.632694346
 21
3.186021752
 31
0.0
 11
6.6330093406
 21
3.1858711131
 31
0.0
 11
6.6332842837
 21
3.1857587774
 31
0.0
 11
6.6335190663
 21
3.185684824
 31
0.0
 11
6.6336213635
 21
3.1856622655
 31
0.0
 11
6.6337135798
 21
3.1856493322
 31
0.0
 11
6.6337957016
 21
3.1856460341
 31
0.0
 11
6.6338677154
 21
3.185652381
 31
0.0
 11
6.6339813642
 21
3.1856940496
 31
0.0
 11
6.6340229721
 21
3.1857293911
 31
0.0
 11
6.6340544176
 21
3.1857744172
 31
0.0
  0
SPLINE
  5
3BB
100
AcDbEntity
  8
0
100
AcDbSpline
 62
9
  6
CONTINUOUS
 70
0
 71
3
 72
9
 73
5
 74
3
 42
0.0000001
 43
0.0000001
 44
0.0000000001
 12
0.0000199846
 22
0.0000378102
 32
0.0
 13
0.000013432
 23
0.0000406026
 33
0.0
 40
0.0
 40
0.0
 40
0.0
 40
0.0
 40
0.2444322649
 40
1.0
 40
1.0
 40
1.0
 40
1.0
 10
6.6340544176
 20
3.1857744172
 30
0.0
 10
6.6340560458
 20
3.1857774978
 30
0.0
 10
6.6340624273
 20
3.1857902483
 30
0.0
 10
6.6340676877
 20
3.1858035516
 30
0.0
 10
6.6340710706
 20
3.1858137776
 30
0.0
 11
6.6340544176
 21
3.1857744172
 31
0.0
 11
6.6340590985
 21
3.1857837641
 31
0.0
 11
6.6340710706
 21
3.1858137776
 31
0.0
  0
LINE
  5
3BC
100
AcDbEntity
  8
0
100
AcDbLine
 62
6
  6
CONTINUOUS
 10
6.4910488458
 20
3.5172395713
 11
6.5165673031
 21
3.5011024293
  0
LINE
  5
3BD
100
AcDbEntity
  8
0
100
AcDbLine
 62
6
  6
CONTINUOUS
 10
6.5165673031
 20
3.5011024293
 11
6.5232749903
 21
3.4968538685
  0
SPLINE
  5
3BE
100
AcDbEntity
  8
0
100
AcDbSpline
 62
6
  6
CONTINUOUS
 70
0
 71
3
 72
17
 73
13
 74
11
 42
0.0000001
 43
0.0000001
 44
0.0000000001
 12
0.0449075822
 22
-0.0284932825
 32
0.0
 13
0.0420643196
 23
-0.0325446017
 33
0.0
 40
0.0
 40
0.0
 40
0.0
 40
0.0
 40
0.1551902006
 40
0.3025820769
 40
0.4417858666
 40
0.5724146045
 40
0.6940470155
 40
0.8061847924
 40
0.8585379863
 40
0.9083330639
 40
0.9555106993
 40
1.0
 40
1.0
 40
1.0
 40
1.0
 10
6.5232749903
 20
3.4968538685
 30
0.0
 10
6.5255980626
 20
3.4953799091
 30
0.0
 10
6.5301251146
 20
3.4925023348
 30
0.0
 10
6.5367221887
 20
3.4882810506
 30
0.0
 10
6.5429341749
 20
3.4842659352
 30
0.0
 10
6.5487381696
 20
3.4804610668
 30
0.0
 10
6.5541092344
 20
3.476871401
 30
0.0
 10
6.558291736
 20
3.4740011794
 30
0.0
 10
6.5613958913
 20
3.4718111869
 30
0.0
 10
6.5635436789
 20
3.4702635203
 30
0.0
 10
6.5655610914
 20
3.4687736712
 30
0.0
 10
6.5668549123
 20
3.4677902332
 30
0.0
 10
6.5674787163
 20
3.4673076043
 30
0.0
 11
6.5232749903
 21
3.4968538685
 31
0.0
 11
6.5302395072
 21
3.4924245918
 31
0.0
 11
6.5368411313
 21
3.488197632
 31
0.0
 11
6.5430573598
 21
3.4841765079
 31
0.0
 11
6.5488656789
 21
3.4803647408
 31
0.0
 11
6.5542414792
 21
3.4767664476
 31
0.0
 11
6.5591555816
 21
3.4733870425
 31
0.0
 11
6.5614301895
 21
3.4717811684
 31
0.0
 11
6.5635782051
 21
3.4702321108
 31
0.0
 11
6.565595866
 21
3.4687405849
 31
0.0
 11
6.5674787163
 21
3.4673076043
 31
0.0
  0
SPLINE
  5
3BF
100
AcDbEntity
  8
0
100
AcDbSpline
 62
6
  6
CONTINUOUS
 70
0
 71
3
 72
11
 73
7
 74
5
 42
0.0000001
 43
0.0000001
 44
0.0000000001
 12
0.0071053885
 22
-0.0054973441
 32
0.0
 13
0.006349193
 23
-0.0063557128
 33
0.0
 40
0.0
 40
0.0
 40
0.0
 40
0.0
 40
0.2846226268
 40
0.5465611668
 40
0.785193232
 40
1.0
 40
1.0
 40
1.0
 40
1.0
 10
6.5674787163
 20
3.4673076043
 30
0.0
 10
6.5681528344
 20
3.4667860481
 30
0.0
 10
6.5694381806
 20
3.4657725465
 30
0.0
 10
6.5712496868
 20
3.4642730524
 30
0.0
 10
6.5728586682
 20
3.4628581651
 30
0.0
 10
6.5738438097
 20
3.4619228914
 30
0.0
 10
6.5742984262
 20
3.461467808
 30
0.0
 11
6.5674787163
 21
3.4673076043
 31
0.0
 11
6.5694849142
 21
3.4657222732
 31
0.0
 11
6.5712955142
 21
3.4642192086
 31
0.0
 11
6.5729026427
 21
3.4628003928
 31
0.0
 11
6.5742984262
 21
3.461467808
 31
0.0
  0
SPLINE
  5
3C0
100
AcDbEntity
  8
0
100
AcDbSpline
 62
9
  6
CONTINUOUS
 70
0
 71
3
 72
11
 73
7
 74
5
 42
0.0000001
 43
0.0000001
 44
0.0000000001
 12
-0.0216573495
 22
-0.0313757873
 32
0.0
 13
-0.0269581232
 23
-0.0269581232
 33
0.0
 40
0.0
 40
0.0
 40
0.0
 40
0.0
 40
0.2467924469
 40
0.4962971367
 40
0.7476666945
 40
1.0
 40
1.0
 40
1.0
 40
1.0
 10
6.3775154852
 20
3.4200419495
 30
0.0
 10
6.3757338618
 20
3.417460847
 30
0.0
 10
6.3720200248
 20
3.4123595595
 30
0.0
 10
6.366070816
 20
3.4049470496
 30
0.0
 10
6.3597491793
 20
3.3977557062
 30
0.0
 10
6.3553176911
 20
3.3931333976
 30
0.0
 10
6.3530502137
 20
3.3908659201
 30
0.0
 11
6.3775154852
 21
3.4200419495
 31
0.0
 11
6.3719821578
 21
3.4124321707
 31
0.0
 11
6.3660314751
 21
3.4050110978
 31
0.0
 11
6.3597064796
 21
3.3978114435
 31
0.0
 11
6.3530502137
 21
3.3908659201
 31
0.0
  0
SPLINE
  5
3C1
100
AcDbEntity
  8
0
100
AcDbSpline
 62
9
  6
CONTINUOUS
 70
0
 71
3
 72
12
 73
8
 74
6
 42
0.0000001
 43
0.0000001
 44
0.0000000001
 12
-0.0189879473
 22
-0.0417346491
 32
0.0
 13
-0.0324216215
 23
-0.0324216215
 33
0.0
 40
0.0
 40
0.0
 40
0.0
 40
0.0
 40
0.2493582906
 40
0.3742533165
 40
0.4992638234
 40
0.749510259
 40
1.0
 40
1.0
 40
1.0
 40
1.0
 10
6.5520707818
 20
3.2553504895
 30
0.0
 10
6.5504925145
 20
3.2518815293
 30
0.0
 10
6.5478784927
 20
3.246781853
 30
0.0
 10
6.5439432092
 20
3.2402422478
 30
0.0
 10
6.5397105953
 20
3.2338739543
 30
0.0
 10
6.5338894713
 20
3.2262696123
 30
0.0
 10
6.5287133779
 20
3.220616945
 30
0.0
 10
6.5260062834
 20
3.2179098504
 30
0.0
 11
6.5520707818
 21
3.2553504895
 31
0.0
 11
6.5468600426
 21
3.2451735689
 31
0.0
 11
6.5439078865
 21
3.2402665919
 31
0.0
 11
6.5407354407
 21
3.2354927141
 31
0.0
 11
6.5337623848
 21
3.2263805874
 31
0.0
 11
6.5260062834
 21
3.2179098504
 31
0.0
  0
SPLINE
  5
3C2
100
AcDbEntity
  8
0
100
AcDbSpline
 62
9
  6
CONTINUOUS
 70
0
 71
3
 72
17
 73
13
 74
11
 42
0.0000001
 43
0.0000001
 44
0.0000000001
 12
0.2489786005
 22
0.249953333
 32
0.0
 13
0.2435344249
 23
0.2552606433
 33
0.0
 40
0.0
 40
0.0
 40
0.0
 40
0.0
 40
0.0519624319
 40
0.1062490759
 40
0.1626629131
 40
0.2210068553
 40
0.342696411
 40
0.4697401885
 40
0.6005617986
 40
0.7335912538
 40
0.8672601391
 40
1.0
 40
1.0
 40
1.0
 40
1.0
 10
6.0782557331
 20
4.6143235097
 30
0.0
 10
6.0825682443
 20
4.618652904
 30
0.0
 10
6.091373581
 20
4.6275178765
 30
0.0
 10
6.1048216054
 20
4.6411220475
 30
0.0
 10
6.1187676043
 20
4.6552891387
 30
0.0
 10
6.1382376918
 20
4.6751409996
 30
0.0
 10
6.1634600042
 20
4.700985299
 30
0.0
 10
6.1945524808
 20
4.7330101364
 30
0.0
 10
6.2265036593
 20
4.7660598183
 30
0.0
 10
6.2589304647
 20
4.7997332247
 30
0.0
 10
6.2914505929
 20
4.8336298217
 30
0.0
 10
6.3130986091
 20
4.8562772571
 30
0.0
 10
6.3238741843
 20
4.8675716779
 30
0.0
 11
6.0782557331
 21
4.6143235097
 31
0.0
 11
6.0911758732
 21
4.6273289952
 31
0.0
 11
6.1046410781
 21
4.6409487413
 31
0.0
 11
6.1186040815
 21
4.6551315979
 31
0.0
 11
6.1330176172
 21
4.6698264146
 31
0.0
 11
6.163007221
 21
4.7005473275
 31
0.0
 11
6.1942317599
 21
4.7327022782
 31
0.0
 11
6.2263124404
 21
4.765883522
 31
0.0
 11
6.2588678134
 21
4.7996891426
 31
0.0
 11
6.2915157657
 21
4.8337186809
 31
0.0
 11
6.3238741843
 21
4.8675716779
 31
0.0
  0
LINE
  5
3C3
100
AcDbEntity
  8
0
100
AcDbLine
 62
9
  6
CONTINUOUS
 10
6.0649796086
 20
3.632971021
 11
6.0782557331
 21
3.6196488168
  0
SPLINE
  5
3C4
100
AcDbEntity
  8
0
100
AcDbSpline
 62
9
  6
CONTINUOUS
 70
0
 71
3
 72
11
 73
7
 74
5
 42
0.0000001
 43
0.0000001
 44
0.0000000001
 12
-0.0269581232
 22
-0.0269581232
 32
0.0
 13
-0.0313757873
 23
-0.0216573495
 33
0.0
 40
0.0
 40
0.0
 40
0.0
 40
0.0
 40
0.2523333055
 40
0.5037028633
 40
0.7532075531
 40
1.0
 40
1.0
 40
1.0
 40
1.0
 10
6.3530502137
 20
3.3908659201
 30
0.0
 10
6.3507827362
 20
3.3885984427
 30
0.0
 10
6.3461604276
 20
3.3841669545
 30
0.0
 10
6.3389690842
 20
3.3778453178
 30
0.0
 10
6.3315565743
 20
3.371896109
 30
0.0
 10
6.3264552868
 20
3.368182272
 30
0.0
 10
6.3238741843
 20
3.3664006486
 30
0.0
 11
6.3530502137
 21
3.3908659201
 31
0.0
 11
6.3461046903
 21
3.3842096542
 31
0.0
 11
6.338905036
 21
3.3778846587
 31
0.0
 11
6.3314839632
 21
3.371933976
 31
0.0
 11
6.3238741843
 21
3.3664006486
 31
0.0
  0
SPLINE
  5
3C5
100
AcDbEntity
  8
0
100
AcDbSpline
 62
9
  6
CONTINUOUS
 70
0
 71
3
 72
17
 73
13
 74
11
 42
0.0000001
 43
0.0000001
 44
0.0000000001
 12
0.2489786005
 22
-0.249953333
 32
0.0
 13
0.2435344249
 23
-0.2552606433
 33
0.0
 40
0.0
 40
0.0
 40
0.0
 40
0.0
 40
0.0519624319
 40
0.1062490759
 40
0.1626629131
 40
0.2210068553
 40
0.342696411
 40
0.4697401885
 40
0.6005617986
 40
0.7335912538
 40
0.8672601391
 40
1.0
 40
1.0
 40
1.0
 40
1.0
 10
6.0782557331
 20
3.6196488168
 30
0.0
 10
6.0825682443
 20
3.6153194224
 30
0.0
 10
6.091373581
 20
3.60645445
 30
0.0
 10
6.1048216054
 20
3.592850279
 30
0.0
 10
6.1187676043
 20
3.5786831877
 30
0.0
 10
6.1382376918
 20
3.5588313269
 30
0.0
 10
6.1634600042
 20
3.5329870274
 30
0.0
 10
6.1945524808
 20
3.5009621901
 30
0.0
 10
6.2265036593
 20
3.4679125081
 30
0.0
 10
6.2589304647
 20
3.4342391018
 30
0.0
 10
6.2914505929
 20
3.4003425048
 30
0.0
 10
6.3130986091
 20
3.3776950693
 30
0.0
 10
6.3238741843
 20
3.3664006486
 30
0.0
 11
6.0782557331
 21
3.6196488168
 31
0.0
 11
6.0911758732
 21
3.6066433313
 31
0.0
 11
6.1046410781
 21
3.5930235851
 31
0.0
 11
6.1186040815
 21
3.5788407286
 31
0.0
 11
6.1330176172
 21
3.5641459119
 31
0.0
 11
6.163007221
 21
3.5334249989
 31
0.0
 11
6.1942317599
 21
3.5012700482
 31
0.0
 11
6.2263124404
 21
3.4680888044
 31
0.0
 11
6.2588678134
 21
3.4342831838
 31
0.0
 11
6.2915157657
 21
3.4002536455
 31
0.0
 11
6.3238741843
 21
3.3664006486
 31
0.0
  0
SPLINE
  5
3C6
100
AcDbEntity
  8
0
100
AcDbSpline
 62
9
  6
CONTINUOUS
 70
0
 71
3
 72
12
 73
8
 74
6
 42
0.0000001
 43
0.0000001
 44
0.0000000001
 12
-0.0324216215
 22
-0.0324216215
 32
0.0
 13
-0.0417346491
 23
-0.0189879473
 33
0.0
 40
0.0
 40
0.0
 40
0.0
 40
0.0
 40
0.250489741
 40
0.5007361766
 40
0.6257466835
 40
0.7506417094
 40
1.0
 40
1.0
 40
1.0
 40
1.0
 10
6.5260062834
 20
3.2179098504
 30
0.0
 10
6.5232991888
 20
3.2152027559
 30
0.0
 10
6.5176465215
 20
3.2100266625
 30
0.0
 10
6.5100421795
 20
3.2042055385
 30
0.0
 10
6.503673886
 20
3.1999729246
 30
0.0
 10
6.4971342808
 20
3.1960376411
 30
0.0
 10
6.4920346045
 20
3.1934236193
 30
0.0
 10
6.4885656443
 20
3.191845352
 30
0.0
 11
6.5260062834
 21
3.2179098504
 31
0.0
 11
6.5175355464
 21
3.210153749
 31
0.0
 11
6.5084234197
 21
3.2031806931
 31
0.0
 11
6.5036495419
 21
3.2000082473
 31
0.0
 11
6.498742565
 21
3.1970560912
 31
0.0
 11
6.4885656443
 21
3.191845352
 31
0.0
  0
SPLINE
  5
3C7
100
AcDbEntity
  8
0
100
AcDbSpline
 62
9
  6
CONTINUOUS
 70
0
 71
3
 72
18
 73
14
 74
12
 42
0.0000001
 43
0.0000001
 44
0.0000000001
 12
0.1656625933
 22
-0.1736392715
 32
0.0
 13
0.1616860334
 23
-0.1773480138
 33
0.0
 40
0.0
 40
0.0
 40
0.0
 40
0.0
 40
0.1423911371
 40
0.2853155858
 40
0.4258289528
 40
0.5609870454
 40
0.6880147775
 40
0.7478130983
 40
0.8048126484
 40
0.858772199
 40
0.9094506026
 40
0.9566068254
 40
1.0
 40
1.0
 40
1.0
 40
1.0
 10
6.3238741843
 20
3.3664006486
 30
0.0
 10
6.331737146
 20
3.3581590841
 30
0.0
 10
6.3474907453
 20
3.3416433942
 30
0.0
 10
6.3709879844
 20
3.3169799206
 30
0.0
 10
6.3940614947
 20
3.2927119462
 30
0.0
 10
6.4162233508
 20
3.2693319548
 30
0.0
 10
6.4339023866
 20
3.2505995105
 30
0.0
 10
6.4472582146
 20
3.2363842719
 30
0.0
 10
6.4565944997
 20
3.2264128817
 30
0.0
 10
6.4654130444
 20
3.2169561968
 30
0.0
 10
6.4736731449
 20
3.2080554705
 30
0.0
 10
6.4813341199
 20
3.1997519802
 30
0.0
 10
6.4862269542
 20
3.1944105831
 30
0.0
 10
6.4885656443
 20
3.191845352
 30
0.0
 11
6.3238741843
 21
3.3664006486
 31
0.0
 11
6.3474588362
 21
3.3416719173
 31
0.0
 11
6.3711167909
 21
3.3168362399
 31
0.0
 11
6.3943503864
 21
3.2923954955
 31
0.0
 11
6.4166619609
 21
3.2688515629
 31
0.0
 11
6.4375824593
 21
3.2466776308
 31
0.0
 11
6.4474084457
 21
3.2362182167
 31
0.0
 11
6.4567572534
 21
3.2262321267
 31
0.0
 11
6.4655881298
 21
3.2167605781
 31
0.0
 11
6.4738603222
 21
3.207844788
 31
0.0
 11
6.4815330779
 21
3.1995259736
 31
0.0
 11
6.4885656443
 21
3.191845352
 31
0.0
  0
SPLINE
  5
3C8
100
AcDbEntity
  8
0
100
AcDbSpline
 62
9
  6
CONTINUOUS
 70
0
 71
3
 72
40
 73
36
 74
34
 42
0.0000001
 43
0.0000001
 44
0.0000000001
 12
0.0726825317
 22
-0.0797230433
 32
0.0
 13
-0.0953780497
 23
-0.0504137053
 33
0.0
 40
0.0
 40
0.0
 40
0.0
 40
0.0
 40
0.1186268078
 40
0.2301085032
 40
0.3343667726
 40
0.4313234493
 40
0.5209005702
 40
0.6030204584
 40
0.6776058515
 40
0.7445801043
 40
0.7751894264
 40
0.8038676988
 40
0.8306057136
 40
0.8553944269
 40
0.8782250165
 40
0.8990889687
 40
0.9179782103
 40
0.9348853206
 40
0.9498038856
 40
0.962729131
 40
0.9684436686
 40
0.9736595447
 40
0.9783774058
 40
0.9825985742
 40
0.9863254083
 40
0.9895619332
 40
0.9923150158
 40
0.9945967286
 40
0.995567749
 40
0.9964309092
 40
0.9971927471
 40
0.9978628627
 40
0.998984899
 40
0.9994909299
 40
1.0
 40
1.0
 40
1.0
 40
1.0
 10
6.4885656443
 20
3.191845352
 30
0.0
 10
6.4914396765
 20
3.1886929219
 30
0.0
 10
6.4970068088
 20
3.1825707981
 30
0.0
 10
6.5050705389
 20
3.1736514727
 30
0.0
 10
6.5125848637
 20
3.1652860468
 30
0.0
 10
6.5195447507
 20
3.1574815066
 30
0.0
 10
6.5259451768
 20
3.1502448431
 30
0.0
 10
6.5317811509
 20
3.1435830672
 30
0.0
 10
6.5370476658
 20
3.1375031793
 30
0.0
 10
6.5410699216
 20
3.1327963144
 30
0.0
 10
6.5439973132
 20
3.1293255416
 30
0.0
 10
6.545980557
 20
3.126951348
 30
0.0
 10
6.5478176283
 20
3.1247278354
 30
0.0
 10
6.5495079064
 20
3.1226558779
 30
0.0
 10
6.5510507846
 20
3.120736359
 30
0.0
 10
6.5524456677
 20
3.1189701651
 30
0.0
 10
6.5536919701
 20
3.1173581857
 30
0.0
 10
6.5547891579
 20
3.1159013245
 30
0.0
 10
6.5557366698
 20
3.1146004712
 30
0.0
 10
6.5564269794
 20
3.1136104565
 30
0.0
 10
6.5569019805
 20
3.1128960592
 30
0.0
 10
6.5572054926
 20
3.112422167
 30
0.0
 10
6.5574711408
 20
3.1119879136
 30
0.0
 10
6.5576988868
 20
3.111593396
 30
0.0
 10
6.5578887126
 20
3.1112387138
 30
0.0
 10
6.5580406801
 20
3.1109239191
 30
0.0
 10
6.5581547979
 20
3.1106490591
 30
0.0
 10
6.5582219113
 20
3.1104433456
 30
0.0
 10
6.5582544058
 20
3.1102988228
 30
0.0
 10
6.5582678817
 20
3.1102063553
 30
0.0
 10
6.5582717537
 20
3.1101236667
 30
0.0
 10
6.5582646657
 20
3.1100321193
 30
0.0
 10
6.5582384167
 20
3.1099506935
 30
0.0
 10
6.5581883185
 20
3.1098912909
 30
0.0
 10
6.5581579042
 20
3.1098702725
 30
0.0
 10
6.5581417195
 20
3.1098617178
 30
0.0
 11
6.4885656443
 21
3.191845352
 31
0.0
 11
6.4971749598
 21
3.1823764252
 31
0.0
 11
6.5052398049
 21
3.1734543354
 31
0.0
 11
6.5127551144
 21
3.1650860447
 31
0.0
 11
6.519715823
 21
3.1572785151
 31
0.0
 11
6.5261168655
 21
3.1500387088
 31
0.0
 11
6.5319531768
 21
3.1433735877
 31
0.0
 11
6.5372196915
 21
3.1372901139
 31
0.0
 11
6.5419113445
 21
3.1317952494
 31
0.0
 11
6.5440400149
 21
3.1292707213
 31
0.0
 11
6.5460230705
 21
3.1268959564
 31
0.0
 11
6.547859878
 21
3.1246718248
 31
0.0
 11
6.5495498044
 21
3.1225991968
 31
0.0
 11
6.5510922163
 21
3.1206789428
 31
0.0
 11
6.5524864808
 21
3.1189119328
 31
0.0
 11
6.5537319646
 21
3.1172990373
 31
0.0
 11
6.5548280347
 21
3.1158411264
 31
0.0
 11
6.5557740577
 21
3.1145390704
 31
0.0
 11
6.5565694007
 21
3.1133937396
 31
0.0
 11
6.5569103692
 21
3.1128801181
 31
0.0
 11
6.5572134304
 21
3.1124060043
 31
0.0
 11
6.5574785049
 21
3.1119715068
 31
0.0
 11
6.5577055136
 21
3.1115767346
 31
0.0
 11
6.5578943775
 21
3.1112217963
 31
0.0
 11
6.5580450173
 21
3.1109068008
 31
0.0
 11
6.558157354
 21
3.1106318569
 31
0.0
 11
6.5582313083
 21
3.1103970732
 31
0.0
 11
6.5582538674
 21
3.1102947756
 31
0.0
 11
6.5582668012
 21
3.1102025588
 31
0.0
 11
6.5582700998
 21
3.1101204364
 31
0.0
 11
6.5582637534
 21
3.1100484221
 31
0.0
 11
6.5582220859
 21
3.1099347722
 31
0.0
 11
6.558186745
 21
3.1098931638
 31
0.0
 11
6.5581417195
 21
3.1098617178
 31
0.0
  0
SPLINE
  5
3C9
100
AcDbEntity
  8
0
100
AcDbSpline
 62
9
  6
CONTINUOUS
 70
0
 71
3
 72
9
 73
5
 74
3
 42
0.0000001
 43
0.0000001
 44
0.0000000001
 12
-0.0000378125
 22
-0.0000199864
 32
0.0
 13
-0.0000406054
 23
-0.000013433
 33
0.0
 40
0.0
 40
0.0
 40
0.0
 40
0.0
 40
0.2444319967
 40
1.0
 40
1.0
 40
1.0
 40
1.0
 10
6.5581417195
 20
3.1098617178
 30
0.0
 10
6.5581386386
 20
3.1098600893
 30
0.0
 10
6.5581258874
 20
3.1098537073
 30
0.0
 10
6.5581125832
 20
3.1098484465
 30
0.0
 10
6.5581023565
 20
3.1098450633
 30
0.0
 11
6.5581417195
 21
3.1098617178
 31
0.0
 11
6.558132372
 21
3.1098570364
 31
0.0
 11
6.5581023565
 21
3.1098450633
 31
0.0
  0
SPLINE
  5
3CA
100
AcDbEntity
  8
0
100
AcDbSpline
 62
9
  6
CONTINUOUS
 70
0
 71
3
 72
30
 73
26
 74
24
 42
0.0000001
 43
0.0000001
 44
0.0000000001
 12
-0.1527220281
 22
-0.1054174131
 32
0.0
 13
-0.1380672964
 23
0.1239930262
 33
0.0
 40
0.0
 40
0.0
 40
0.0
 40
0.0
 40
0.0663031254
 40
0.1316368874
 40
0.195889436
 40
0.2589934466
 40
0.3209350704
 40
0.3817640479
 40
0.441604559
 40
0.5006659322
 40
0.5300038738
 40
0.5592701636
 40
0.5885187098
 40
0.6178089397
 40
0.6472055863
 40
0.6767783663
 40
0.7066015507
 40
0.7367534398
 40
0.7673157602
 40
0.7983730046
 40
0.830011743
 40
0.8623199315
 40
0.8953862454
 40
0.9292994595
 40
1.0
 40
1.0
 40
1.0
 40
1.0
 10
6.3238741843
 20
3.3664006486
 30
0.0
 10
6.3204988684
 20
3.3640708139
 30
0.0
 10
6.313695944
 20
3.3595899918
 30
0.0
 10
6.3032643281
 20
3.3534153191
 30
0.0
 10
6.2926953443
 20
3.3478914662
 30
0.0
 10
6.2820123567
 20
3.3430792984
 30
0.0
 10
6.2712382691
 20
3.339039789
 30
0.0
 10
6.2603956807
 20
3.3358344691
 30
0.0
 10
6.2495081008
 20
3.3335254957
 30
0.0
 10
6.2403942807
 20
3.3323983035
 30
0.0
 10
6.233123744
 20
3.3320118705
 30
0.0
 10
6.2276872587
 20
3.3319842045
 30
0.0
 10
6.2222589718
 20
3.3322250129
 30
0.0
 10
6.2168416745
 20
3.3327410668
 30
0.0
 10
6.2114383321
 20
3.3335391676
 30
0.0
 10
6.2060518872
 20
3.3346260888
 30
0.0
 10
6.2006853074
 20
3.3360085856
 30
0.0
 10
6.1953415665
 20
3.337693387
 30
0.0
 10
6.1900236395
 20
3.3396871963
 30
0.0
 10
6.1847345007
 20
3.3419966863
 30
0.0
 10
6.1794770959
 20
3.3446285209
 30
0.0
 10
6.1742544185
 20
3.3475892869
 30
0.0
 10
6.1690691931
 20
3.3508857777
 30
0.0
 10
6.162113919
 20
3.3558048609
 30
0.0
 10
6.1571070067
 20
3.3599238711
 30
0.0
 10
6.1538531959
 20
3.3628459957
 30
0.0
 11
6.3238741843
 21
3.3664006486
 31
0.0
 11
6.313593313
 21
3.3596410872
 31
0.0
 11
6.303154146
 21
3.3534752542
 31
0.0
 11
6.2925809641
 21
3.3479637601
 31
0.0
 11
6.2818980482
 21
3.3431672156
 31
0.0
 11
6.271129679
 21
3.3391462314
 31
0.0
 11
6.2603001375
 21
3.335961418
 31
0.0
 11
6.2494337045
 21
3.333673386
 31
0.0
 11
6.2385546609
 21
3.3323427462
 31
0.0
 11
6.2331179662
 21
3.3320552443
 31
0.0
 11
6.2276870352
 21
3.3320289525
 31
0.0
 11
6.2222647144
 21
3.3322705818
 31
0.0
 11
6.2168538502
 21
3.3327868429
 31
0.0
 11
6.2114572889
 21
3.3335844467
 31
0.0
 11
6.2060778771
 21
3.3346701039
 31
0.0
 11
6.2007184613
 21
3.3360505254
 31
0.0
 11
6.1953818877
 21
3.337732422
 31
0.0
 11
6.1900710029
 21
3.3397225045
 31
0.0
 11
6.1847886534
 21
3.3420274838
 31
0.0
 11
6.1795376854
 21
3.3446540705
 31
0.0
 11
6.1743209456
 21
3.3476089756
 31
0.0
 11
6.1691412803
 21
3.3508989099
 31
0.0
 11
6.1640015359
 21
3.3545305841
 31
0.0
 11
6.1538531959
 21
3.3628459957
 31
0.0
  0
SPLINE
  5
3CB
100
AcDbEntity
  8
0
100
AcDbSpline
 62
9
  6
CONTINUOUS
 70
0
 71
3
 72
24
 73
20
 74
18
 42
0.0000001
 43
0.0000001
 44
0.0000000001
 12
-0.2597714865
 22
-0.1181878225
 32
0.0
 13
-0.213072426
 23
0.1898676589
 33
0.0
 40
0.0
 40
0.0
 40
0.0
 40
0.0
 40
0.0531300888
 40
0.1065385914
 40
0.1603695698
 40
0.2147907289
 40
0.2699934786
 40
0.3261922345
 40
0.3836229546
 40
0.4425409797
 40
0.5032180581
 40
0.5659328027
 40
0.630960682
 40
0.6985716268
 40
0.733432917
 40
0.7690379095
 40
0.8425966003
 40
0.9195042323
 40
1.0
 40
1.0
 40
1.0
 40
1.0
 10
6.4885656443
 20
3.191845352
 30
0.0
 10
6.4839650836
 20
3.1897522421
 30
0.0
 10
6.4745794635
 20
3.1858973945
 30
0.0
 10
6.4600542187
 20
3.1811853042
 30
0.0
 10
6.4450871536
 20
3.1775816732
 30
0.0
 10
6.429714389
 20
3.1751376939
 30
0.0
 10
6.4139710147
 20
3.1739039378
 30
0.0
 10
6.3978927141
 20
3.1739310154
 30
0.0
 10
6.3815153012
 20
3.1752692657
 30
0.0
 10
6.3648746799
 20
3.1779688535
 30
0.0
 10
6.3480077713
 20
3.1820791453
 30
0.0
 10
6.3309473056
 20
3.1876309631
 30
0.0
 10
6.3137250601
 20
3.1946551627
 30
0.0
 10
6.2994123061
 20
3.2016888312
 30
0.0
 10
6.2879207015
 20
3.2080553841
 30
0.0
 10
6.2761545562
 20
3.2150796841
 30
0.0
 10
6.2613953538
 20
3.2248742448
 30
0.0
 10
6.2438351982
 20
3.2380991615
 30
0.0
 10
6.2323937054
 20
3.2477727737
 30
0.0
 10
6.2266765626
 20
3.252867288
 30
0.0
 11
6.4885656443
 21
3.191845352
 31
0.0
 11
6.4745383449
 21
3.1860876371
 31
0.0
 11
6.4600390287
 21
3.1813863412
 31
0.0
 11
6.4451025584
 21
3.1777912936
 31
0.0
 11
6.4297637966
 21
3.1753523233
 31
0.0
 11
6.4140576058
 21
3.1741192595
 31
0.0
 11
6.3980188487
 21
3.1741419314
 31
0.0
 11
6.381682388
 21
3.1754701681
 31
0.0
 11
6.3650830862
 21
3.1781537988
 31
0.0
 11
6.348255155
 21
3.1822396665
 31
0.0
 11
6.3312302019
 21
3.1877626666
 31
0.0
 11
6.3140391828
 21
3.1947547071
 31
0.0
 11
6.296713054
 21
3.2032476958
 31
0.0
 11
6.2880089971
 21
3.2080670168
 31
0.0
 11
6.2792827714
 21
3.2132735404
 31
0.0
 11
6.2617792913
 21
3.2248641487
 31
0.0
 11
6.2442335696
 21
3.2380514287
 31
0.0
 11
6.2266765626
 21
3.252867288
 31
0.0
  0
SPLINE
  5
3CC
100
AcDbEntity
  8
0
100
AcDbSpline
 62
9
  6
CONTINUOUS
 70
0
 71
3
 72
24
 73
20
 74
18
 42
0.0000001
 43
0.0000001
 44
0.0000000001
 12
0.2130724264
 22
0.1898676602
 32
0.0
 13
0.2597714876
 23
-0.118187823
 33
0.0
 40
0.0
 40
0.0
 40
0.0
 40
0.0
 40
0.0804957678
 40
0.1574033999
 40
0.2309620907
 40
0.2665670833
 40
0.3014283734
 40
0.3690393183
 40
0.4340671977
 40
0.4967819422
 40
0.5574590206
 40
0.6163770457
 40
0.6738077658
 40
0.7300065216
 40
0.7852092713
 40
0.8396304304
 40
0.8934614087
 40
0.9468699113
 40
1.0
 40
1.0
 40
1.0
 40
1.0
 10
6.2266765617
 20
4.9811050377
 30
0.0
 10
6.2323937046
 20
4.986199552
 30
0.0
 10
6.2438351974
 20
4.9958731643
 30
0.0
 10
6.261395353
 20
5.0090980811
 30
0.0
 10
6.2761545555
 20
5.0188926419
 30
0.0
 10
6.2879207009
 20
5.025916942
 30
0.0
 10
6.2994123055
 20
5.0322834949
 30
0.0
 10
6.3137250595
 20
5.0393171635
 30
0.0
 10
6.3309473051
 20
5.0463413631
 30
0.0
 10
6.3480077708
 20
5.051893181
 30
0.0
 10
6.3648746795
 20
5.0560034729
 30
0.0
 10
6.3815153009
 20
5.0587030607
 30
0.0
 10
6.3978927138
 20
5.060041311
 30
0.0
 10
6.4139710145
 20
5.0600683887
 30
0.0
 10
6.4297143888
 20
5.0588346325
 30
0.0
 10
6.4450871534
 20
5.0563906532
 30
0.0
 10
6.4600542187
 20
5.0527870223
 30
0.0
 10
6.4745794634
 20
5.0480749319
 30
0.0
 10
6.4839650835
 20
5.0442200843
 30
0.0
 10
6.4885656443
 20
5.0421269745
 30
0.0
 11
6.2266765617
 21
4.9811050377
 31
0.0
 11
6.2442335688
 21
4.9959208971
 31
0.0
 11
6.2617792905
 21
5.0091081772
 31
0.0
 11
6.2792827707
 21
5.0206987857
 31
0.0
 11
6.2880089965
 21
5.0259053092
 31
0.0
 11
6.2967130533
 21
5.0307246303
 31
0.0
 11
6.3140391822
 21
5.0392176191
 31
0.0
 11
6.3312302013
 21
5.0462096596
 31
0.0
 11
6.3482551545
 21
5.0517326598
 31
0.0
 11
6.3650830858
 21
5.0558185276
 31
0.0
 11
6.3816823876
 21
5.0585021583
 31
0.0
 11
6.3980188484
 21
5.059830395
 31
0.0
 11
6.4140576055
 21
5.0598530669
 31
0.0
 11
6.4297637964
 21
5.0586200032
 31
0.0
 11
6.4451025583
 21
5.0561810329
 31
0.0
 11
6.4600390286
 21
5.0525859853
 31
0.0
 11
6.4745383448
 21
5.0478846894
 31
0.0
 11
6.4885656443
 21
5.0421269745
 31
0.0
  0
SPLINE
  5
3CD
100
AcDbEntity
  8
0
100
AcDbSpline
 62
9
  6
CONTINUOUS
 70
0
 71
3
 72
18
 73
14
 74
12
 42
0.0000001
 43
0.0000001
 44
0.0000000001
 12
0.1656625933
 22
0.1736392715
 32
0.0
 13
0.1616860334
 23
0.1773480138
 33
0.0
 40
0.0
 40
0.0
 40
0.0
 40
0.0
 40
0.1423911371
 40
0.2853155858
 40
0.4258289528
 40
0.5609870454
 40
0.6880147775
 40
0.7478130983
 40
0.8048126484
 40
0.858772199
 40
0.9094506026
 40
0.9566068254
 40
1.0
 40
1.0
 40
1.0
 40
1.0
 10
6.3238741843
 20
4.8675716779
 30
0.0
 10
6.331737146
 20
4.8758132423
 30
0.0
 10
6.3474907453
 20
4.8923289323
 30
0.0
 10
6.3709879844
 20
4.9169924058
 30
0.0
 10
6.3940614947
 20
4.9412603803
 30
0.0
 10
6.4162233508
 20
4.9646403716
 30
0.0
 10
6.4339023866
 20
4.983372816
 30
0.0
 10
6.4472582146
 20
4.9975880546
 30
0.0
 10
6.4565944997
 20
5.0075594447
 30
0.0
 10
6.4654130444
 20
5.0170161297
 30
0.0
 10
6.4736731449
 20
5.0259168559
 30
0.0
 10
6.4813341199
 20
5.0342203462
 30
0.0
 10
6.4862269542
 20
5.0395617434
 30
0.0
 10
6.4885656443
 20
5.0421269745
 30
0.0
 11
6.3238741843
 21
4.8675716779
 31
0.0
 11
6.3474588362
 21
4.8923004092
 31
0.0
 11
6.3711167909
 21
4.9171360865
 31
0.0
 11
6.3943503864
 21
4.941576831
 31
0.0
 11
6.4166619609
 21
4.9651207636
 31
0.0
 11
6.4375824593
 21
4.9872946957
 31
0.0
 11
6.4474084457
 21
4.9977541098
 31
0.0
 11
6.4567572534
 21
5.0077401997
 31
0.0
 11
6.4655881298
 21
5.0172117483
 31
0.0
 11
6.4738603222
 21
5.0261275384
 31
0.0
 11
6.4815330779
 21
5.0344463529
 31
0.0
 11
6.4885656443
 21
5.0421269745
 31
0.0
  0
SPLINE
  5
3CE
100
AcDbEntity
  8
0
100
AcDbSpline
 62
6
  6
CONTINUOUS
 70
0
 71
3
 72
10
 73
6
 74
4
 42
0.0000001
 43
0.0000001
 44
0.0000000001
 12
0.0321130782
 22
-0.0489787756
 32
0.0
 13
0.0313634838
 23
-0.0494621283
 33
0.0
 40
0.0
 40
0.0
 40
0.0
 40
0.0
 40
0.5196307746
 40
0.76488803
 40
1.0
 40
1.0
 40
1.0
 40
1.0
 10
6.1949861769
 20
3.3021202328
 30
0.0
 10
6.2005484915
 20
3.2936366064
 30
0.0
 10
6.2086695533
 20
3.2811051026
 30
0.0
 10
6.219188801
 20
3.2646589554
 30
0.0
 10
6.2242185077
 20
3.2567437907
 30
0.0
 10
6.2266764845
 20
3.2528674112
 30
0.0
 11
6.1949861769
 21
3.3021202328
 31
0.0
 11
6.2115480437
 21
3.2765877847
 31
0.0
 11
6.2192894178
 21
3.2644882097
 31
0.0
 11
6.2266764845
 21
3.2528674112
 31
0.0
  0
LINE
  5
3CF
100
AcDbEntity
  8
0
100
AcDbLine
 62
6
  6
CONTINUOUS
 10
6.2266764845
 20
3.2528674112
 11
6.2428133674
 21
3.2273486576
  0
LINE
  5
3D0
100
AcDbEntity
  8
0
100
AcDbLine
 62
6
  6
CONTINUOUS
 10
6.2428133674
 20
3.2273486576
 11
6.247061849
 21
3.2206407313
  0
SPLINE
  5
3D1
100
AcDbEntity
  8
0
100
AcDbSpline
 62
6
  6
CONTINUOUS
 70
0
 71
3
 72
17
 73
13
 74
11
 42
0.0000001
 43
0.0000001
 44
0.0000000001
 12
0.0284932175
 22
-0.0449074798
 32
0.0
 13
0.0325444812
 23
-0.0420642596
 33
0.0
 40
0.0
 40
0.0
 40
0.0
 40
0.0
 40
0.1551902418
 40
0.3025817272
 40
0.4417850326
 40
0.5724135125
 40
0.6940460432
 40
0.8061841557
 40
0.8585375396
 40
0.9083327949
 40
0.9555105797
 40
1.0
 40
1.0
 40
1.0
 40
1.0
 10
6.247061849
 20
3.2206407313
 30
0.0
 10
6.2485358054
 20
3.2183176637
 30
0.0
 10
6.2514134169
 20
3.2137906571
 30
0.0
 10
6.2556348411
 20
3.2071937111
 30
0.0
 10
6.259650115
 20
3.2009818713
 30
0.0
 10
6.2634550986
 20
3.1951779846
 30
0.0
 10
6.2670447902
 20
3.189806951
 30
0.0
 10
6.2699149939
 20
3.1856244375
 30
0.0
 10
6.2721049652
 20
3.1825202626
 30
0.0
 10
6.273652617
 20
3.1803724604
 30
0.0
 10
6.2751424565
 20
3.178355038
 30
0.0
 10
6.2761258922
 20
3.177061214
 30
0.0
 10
6.2766085206
 20
3.1764374092
 30
0.0
 11
6.247061849
 21
3.2206407313
 31
0.0
 11
6.2514911811
 21
3.2136762693
 31
0.0
 11
6.2557182687
 21
3.207074773
 31
0.0
 11
6.2597395367
 21
3.2008586883
 31
0.0
 11
6.2635514071
 21
3.1950504724
 31
0.0
 11
6.2671497326
 21
3.1896747038
 31
0.0
 11
6.2705291236
 21
3.1847605866
 31
0.0
 11
6.2721349835
 21
3.182485964
 31
0.0
 11
6.2736840274
 21
3.1803379343
 31
0.0
 11
6.2751755439
 21
3.1783202638
 31
0.0
 11
6.2766085206
 21
3.1764374092
 31
0.0
  0
SPLINE
  5
3D2
100
AcDbEntity
  8
0
100
AcDbSpline
 62
6
  6
CONTINUOUS
 70
0
 71
3
 72
11
 73
7
 74
5
 42
0.0000001
 43
0.0000001
 44
0.0000000001
 12
0.005497336
 22
-0.0071053943
 32
0.0
 13
0.0063557125
 23
-0.0063491928
 33
0.0
 40
0.0
 40
0.0
 40
0.0
 40
0.0
 40
0.2846226514
 40
0.54656117
 40
0.7851932202
 40
1.0
 40
1.0
 40
1.0
 40
1.0
 10
6.2766085206
 20
3.1764374092
 30
0.0
 10
6.2771300761
 20
3.1757632905
 30
0.0
 10
6.2781435779
 20
3.1744779446
 30
0.0
 10
6.2796430757
 20
3.1726664415
 30
0.0
 10
6.2810579671
 20
3.171057464
 30
0.0
 10
6.2819932424
 20
3.1700723241
 30
0.0
 10
6.2824483258
 20
3.1696177076
 30
0.0
 11
6.2766085206
 21
3.1764374092
 31
0.0
 11
6.278193852
 21
3.1744312114
 31
0.0
 11
6.2796969197
 21
3.1726206144
 31
0.0
 11
6.2811157392
 21
3.1710134894
 31
0.0
 11
6.2824483258
 21
3.1696177076
 31
0.0
  0
SPLINE
  5
3D3
100
AcDbEntity
  8
0
100
AcDbSpline
 62
9
  6
CONTINUOUS
 70
0
 71
3
 72
40
 73
36
 74
34
 42
0.0000001
 43
0.0000001
 44
0.0000000001
 12
0.0726825339
 22
0.0797230457
 32
0.0
 13
-0.0953787442
 23
0.0504123982
 33
0.0
 40
0.0
 40
0.0
 40
0.0
 40
0.0
 40
0.1186268557
 40
0.2301085928
 40
0.3343668976
 40
0.4313236033
 40
0.5209007466
 40
0.6030206507
 40
0.6776060529
 40
0.744580308
 40
0.7751896286
 40
0.8038678978
 40
0.8306059078
 40
0.8553946143
 40
0.8782251955
 40
0.8990891375
 40
0.9179783671
 40
0.9348854636
 40
0.949804013
 40
0.962729241
 40
0.9684437693
 40
0.9736596356
 40
0.9783774866
 40
0.9825986445
 40
0.9863254677
 40
0.9895619814
 40
0.9923150527
 40
0.9945967541
 40
0.9955677689
 40
0.9964309238
 40
0.9971927568
 40
0.9978628679
 40
0.9989848982
 40
0.9994909286
 40
1.0
 40
1.0
 40
1.0
 40
1.0
 10
6.4885656443
 20
5.0421269745
 30
0.0
 10
6.4914396778
 20
5.0452794059
 30
0.0
 10
6.4970068123
 20
5.0514015323
 30
0.0
 10
6.5050705457
 20
5.0603208613
 30
0.0
 10
6.5125848733
 20
5.0686862903
 30
0.0
 10
6.5195447625
 20
5.0764908331
 30
0.0
 10
6.5259451903
 20
5.0837274987
 30
0.0
 10
6.5317811656
 20
5.0903892761
 30
0.0
 10
6.5370476812
 20
5.096469165
 30
0.0
 10
6.5410699372
 20
5.1011760304
 30
0.0
 10
6.5439973288
 20
5.1046468034
 30
0.0
 10
6.5459805724
 20
5.1070209969
 30
0.0
 10
6.5478176433
 20
5.1092445093
 30
0.0
 10
6.5495079208
 20
5.1113164664
 30
0.0
 10
6.5510507984
 20
5.1132359847
 30
0.0
 10
6.5524456807
 20
5.1150021779
 30
0.0
 10
6.5536919821
 20
5.1166141565
 30
0.0
 10
6.5547891688
 20
5.1180710167
 30
0.0
 10
6.5557366795
 20
5.1193718688
 30
0.0
 10
6.556426988
 20
5.1203618825
 30
0.0
 10
6.5569019882
 20
5.1210762789
 30
0.0
 10
6.5572054995
 20
5.1215501704
 30
0.0
 10
6.5574711468
 20
5.121984423
 30
0.0
 10
6.557698892
 20
5.1223789398
 30
0.0
 10
6.5578887169
 20
5.1227336212
 30
0.0
 10
6.5580406836
 20
5.123048415
 30
0.0
 10
6.5581548004
 20
5.1233232741
 30
0.0
 10
6.558221913
 20
5.1235289867
 30
0.0
 10
6.5582544068
 20
5.1236735089
 30
0.0
 10
6.5582678822
 20
5.1237659759
 30
0.0
 10
6.5582717537
 20
5.123848664
 30
0.0
 10
6.558264665
 20
5.1239402108
 30
0.0
 10
6.5582384151
 20
5.124021636
 30
0.0
 10
6.5581883162
 20
5.1240810377
 30
0.0
 10
6.5581579015
 20
5.1241020557
 30
0.0
 10
6.5581417166
 20
5.1241106102
 30
0.0
 11
6.4885656443
 21
5.0421269745
 31
0.0
 11
6.4971749635
 21
5.0515959054
 31
0.0
 11
6.5052398119
 21
5.0605179988
 31
0.0
 11
6.5127551241
 21
5.0688862926
 31
0.0
 11
6.5197158349
 21
5.0766938248
 31
0.0
 11
6.5261168792
 21
5.0839336332
 31
0.0
 11
6.5319531917
 21
5.0905987559
 31
0.0
 11
6.5372197071
 21
5.0966822307
 31
0.0
 11
6.5419113602
 21
5.1021770956
 31
0.0
 11
6.5440400306
 21
5.1047016237
 31
0.0
 11
6.5460230859
 21
5.1070763886
 31
0.0
 11
6.547859893
 21
5.1093005199
 31
0.0
 11
6.5495498188
 21
5.1113731475
 31
0.0
 11
6.5510922301
 21
5.113293401
 31
0.0
 11
6.5524864938
 21
5.1150604102
 31
0.0
 11
6.5537319767
 21
5.1166733049
 31
0.0
 11
6.5548280456
 21
5.1181312148
 31
0.0
 11
6.5557740675
 21
5.1194332697
 31
0.0
 11
6.556569409
 21
5.1205785992
 31
0.0
 11
6.5569103769
 21
5.12109222
 31
0.0
 11
6.5572134372
 21
5.1215663332
 31
0.0
 11
6.5574785109
 21
5.1220008298
 31
0.0
 11
6.5577055188
 21
5.1223956013
 31
0.0
 11
6.5578943818
 21
5.1227505387
 31
0.0
 11
6.5580450207
 21
5.1230655333
 31
0.0
 11
6.5581573564
 21
5.1233404763
 31
0.0
 11
6.5582313098
 21
5.123575259
 31
0.0
 11
6.5582538683
 21
5.1236775561
 31
0.0
 11
6.5582668016
 21
5.1237697724
 31
0.0
 11
6.5582700997
 21
5.1238518943
 31
0.0
 11
6.5582637528
 21
5.123923908
 31
0.0
 11
6.5582220842
 21
5.1240375569
 31
0.0
 11
6.5581867427
 21
5.1240791648
 31
0.0
 11
6.5581417166
 21
5.1241106102
 31
0.0
  0
SPLINE
  5
3D4
100
AcDbEntity
  8
0
100
AcDbSpline
 62
9
  6
CONTINUOUS
 70
0
 71
3
 72
9
 73
5
 74
3
 42
0.0000001
 43
0.0000001
 44
0.0000000001
 12
-0.0000378171
 22
0.0000199882
 32
0.0
 13
-0.0000406104
 23
0.0000134334
 33
0.0
 40
0.0
 40
0.0
 40
0.0
 40
0.0
 40
0.2444311336
 40
1.0
 40
1.0
 40
1.0
 40
1.0
 10
6.5581417166
 20
5.1241106102
 30
0.0
 10
6.5581386354
 20
5.1241122388
 30
0.0
 10
6.5581258826
 20
5.1241186213
 30
0.0
 10
6.5581125767
 20
5.1241238824
 30
0.0
 10
6.5581023488
 20
5.1241272657
 30
0.0
 11
6.5581417166
 21
5.1241106102
 31
0.0
 11
6.558132368
 21
5.124115292
 31
0.0
 11
6.5581023488
 21
5.1241272657
 31
0.0
  0
LINE
  5
3D5
100
AcDbEntity
  8
0
100
AcDbLine
 62
6
  6
CONTINUOUS
 10
6.2266765617
 20
4.9811050376
 11
6.242789437
 21
5.0065851288
  0
LINE
  5
3D6
100
AcDbEntity
  8
0
100
AcDbLine
 62
6
  6
CONTINUOUS
 10
6.242789437
 20
5.0065851288
 11
6.2470622653
 21
5.013331183
  0
SPLINE
  5
3D7
100
AcDbEntity
  8
0
100
AcDbSpline
 62
6
  6
CONTINUOUS
 70
0
 71
3
 72
17
 73
13
 74
11
 42
0.0000001
 43
0.0000001
 44
0.0000000001
 12
0.0285066427
 22
0.0449286389
 32
0.0
 13
0.0325675534
 23
0.042078091
 33
0.0
 40
0.0
 40
0.0
 40
0.0
 40
0.0
 40
0.1552206789
 40
0.302636389
 40
0.441856062
 40
0.5724914803
 40
0.6941213938
 40
0.8062464938
 40
0.8585890049
 40
0.9083702322
 40
0.9555307572
 40
1.0
 40
1.0
 40
1.0
 40
1.0
 10
6.2470622653
 20
5.013331183
 30
0.0
 10
6.2485372054
 20
5.0156558009
 30
0.0
 10
6.2514166467
 20
5.020185788
 30
0.0
 10
6.2556406023
 20
5.0267869908
 30
0.0
 10
6.2596581019
 20
5.0330025455
 30
0.0
 10
6.2634650644
 20
5.0388094841
 30
0.0
 10
6.267056498
 20
5.0441828299
 30
0.0
 10
6.2699280167
 20
5.0483667707
 30
0.0
 10
6.2721188936
 20
5.0514716747
 30
0.0
 10
6.2736670661
 20
5.0536197177
 30
0.0
 10
6.2751573335
 20
5.0556371585
 30
0.0
 10
6.2761410411
 20
5.056930904
 30
0.0
 10
6.2766237925
 20
5.057554631
 30
0.0
 11
6.2470622653
 21
5.013331183
 31
0.0
 11
6.2514944937
 21
5.020300331
 31
0.0
 11
6.2557241436
 21
5.0269061029
 31
0.0
 11
6.2597476735
 21
5.0331259161
 31
0.0
 11
6.2635615396
 21
5.0389371793
 31
0.0
 11
6.267161623
 21
5.0443152714
 31
0.0
 11
6.270542493
 21
5.0492309417
 31
0.0
 11
6.272148969
 21
5.051506027
 31
0.0
 11
6.2736985371
 21
5.0536542969
 31
0.0
 11
6.2751904804
 21
5.0556719799
 31
0.0
 11
6.2766237925
 21
5.057554631
 31
0.0
  0
SPLINE
  5
3D8
100
AcDbEntity
  8
0
100
AcDbSpline
 62
6
  6
CONTINUOUS
 70
0
 71
3
 72
11
 73
7
 74
5
 42
0.0000001
 43
0.0000001
 44
0.0000000001
 12
0.0054833801
 22
0.0070846638
 32
0.0
 13
0.0063380711
 23
0.0063315695
 33
0.0
 40
0.0
 40
0.0
 40
0.0
 40
0.0
 40
0.2845598995
 40
0.546475947
 40
0.7851282479
 40
1.0
 40
1.0
 40
1.0
 40
1.0
 10
6.2766237925
 20
5.057554631
 30
0.0
 10
6.2771439092
 20
5.0582266347
 30
0.0
 10
6.2781546704
 20
5.0595080314
 30
0.0
 10
6.27965017
 20
5.0613141179
 30
0.0
 10
6.2810614553
 20
5.0629185955
 30
0.0
 10
6.2819943683
 20
5.0639011271
 30
0.0
 10
6.2824483258
 20
5.0643546189
 30
0.0
 11
6.2766237925
 21
5.057554631
 31
0.0
 11
6.2782047295
 21
5.0595545389
 31
0.0
 11
6.2797037778
 21
5.061359722
 31
0.0
 11
6.2811189667
 21
5.0629623565
 31
0.0
 11
6.2824483258
 21
5.0643546189
 31
0.0
  0
SPLINE
  5
3D9
100
AcDbEntity
  8
0
100
AcDbSpline
 62
9
  6
CONTINUOUS
 70
0
 71
3
 72
11
 73
7
 74
5
 42
0.0000001
 43
0.0000001
 44
0.0000000001
 12
0.0313757873
 22
-0.0216573495
 32
0.0
 13
0.0269581232
 23
-0.0269581232
 33
0.0
 40
0.0
 40
0.0
 40
0.0
 40
0.0
 40
0.2467924469
 40
0.4962971367
 40
0.7476666945
 40
1.0
 40
1.0
 40
1.0
 40
1.0
 10
6.3238741843
 20
4.8675716779
 30
0.0
 10
6.3264552868
 20
4.8657900545
 30
0.0
 10
6.3315565743
 20
4.8620762174
 30
0.0
 10
6.3389690842
 20
4.8561270087
 30
0.0
 10
6.3461604276
 20
4.8498053719
 30
0.0
 10
6.3507827362
 20
4.8453738838
 30
0.0
 10
6.3530502137
 20
4.8431064063
 30
0.0
 11
6.3238741843
 21
4.8675716779
 31
0.0
 11
6.3314839632
 21
4.8620383504
 31
0.0
 11
6.338905036
 21
4.8560876678
 31
0.0
 11
6.3461046903
 21
4.8497626723
 31
0.0
 11
6.3530502137
 21
4.8431064063
 31
0.0
  0
SPLINE
  5
3DA
100
AcDbEntity
  8
0
100
AcDbSpline
 62
9
  6
CONTINUOUS
 70
0
 71
3
 72
48
 73
44
 74
42
 42
0.0000001
 43
0.0000001
 44
0.0000000001
 12
0.1126386304
 22
0.0077880577
 32
0.0
 13
0.0925985333
 23
-0.0646036108
 33
0.0
 40
0.0
 40
0.0
 40
0.0
 40
0.0
 40
0.0000472141
 40
0.0001547229
 40
0.0003218942
 40
0.0005480446
 40
0.0008324829
 40
0.0011745159
 40
0.0020285898
 40
0.003104718
 40
0.0043973568
 40
0.0059009699
 40
0.00761003
 40
0.0095190192
 40
0.0116224298
 40
0.0163905273
 40
0.0218704936
 40
0.0280189603
 40
0.0348013398
 40
0.0421933151
 40
0.0501711922
 40
0.0587113183
 40
0.0773838565
 40
0.0980230139
 40
0.1204451201
 40
0.1445239151
 40
0.1701820583
 40
0.1973439876
 40
0.2259344258
 40
0.2558784899
 40
0.3196107321
 40
0.3882973169
 40
0.4617539121
 40
0.5398600353
 40
0.6225993192
 40
0.665708459
 40
0.709980671
 40
0.7554223954
 40
0.8020424264
 40
0.8498505098
 40
0.8988204081
 40
0.9488894359
 40
1.0
 40
1.0
 40
1.0
 40
1.0
 10
5.9629477329
 20
4.6478730326
 30
0.0
 10
5.9629495056
 20
4.6478731552
 30
0.0
 10
5.9629553149
 20
4.6478722182
 30
0.0
 10
5.9629673117
 20
4.6478708934
 30
0.0
 10
5.962985977
 20
4.6478680792
 30
0.0
 10
5.9630111973
 20
4.6478643344
 30
0.0
 10
5.9630429058
 20
4.6478593776
 30
0.0
 10
5.9630979307
 20
4.647850606
 30
0.0
 10
5.9631823112
 20
4.6478366957
 30
0.0
 10
5.9633018911
 20
4.6478163749
 30
0.0
 10
5.9634454575
 20
4.6477912925
 30
0.0
 10
5.9636123608
 20
4.6477613853
 30
0.0
 10
5.9638019515
 20
4.6477265814
 30
0.0
 10
5.96401358
 20
4.6476868132
 30
0.0
 10
5.9643380984
 20
4.6476244181
 30
0.0
 10
5.9647940129
 20
4.6475336386
 30
0.0
 10
5.9653981756
 20
4.6474079152
 30
0.0
 10
5.9660752459
 20
4.6472605754
 30
0.0
 10
5.9668211485
 20
4.6470912696
 30
0.0
 10
5.9676326673
 20
4.646900122
 30
0.0
 10
5.9685069556
 20
4.6466870345
 30
0.0
 10
5.9697913501
 20
4.646363828
 30
0.0
 10
5.9715328735
 20
4.6459047625
 30
0.0
 10
5.9737709617
 20
4.6452806379
 30
0.0
 10
5.976194871
 20
4.6445663489
 30
0.0
 10
5.9787888116
 20
4.6437617851
 30
0.0
 10
5.9815415195
 20
4.6428678065
 30
0.0
 10
5.9844434057
 20
4.6418842622
 30
0.0
 10
5.9874849931
 20
4.6408111462
 30
0.0
 10
5.991805518
 20
4.6392272261
 30
0.0
 10
5.9975035571
 20
4.6370180688
 30
0.0
 10
6.004660897
 20
4.6340483907
 30
0.0
 10
6.0122427507
 20
4.6306958099
 30
0.0
 10
6.0202232646
 20
4.6269427471
 30
0.0
 10
6.0270888311
 20
4.6235079199
 30
0.0
 10
6.0327612328
 20
4.6205381776
 30
0.0
 10
6.0371591842
 20
4.6181614712
 30
0.0
 10
6.0416385302
 20
4.615658488
 30
0.0
 10
6.0461951387
 20
4.61302212
 30
0.0
 10
6.0508240195
 20
4.6102467732
 30
0.0
 10
6.0555153501
 20
4.6073245554
 30
0.0
 10
6.0602537963
 20
4.6042447706
 30
0.0
 10
6.0634020734
 20
4.602101889
 30
0.0
 10
6.0649796611
 20
4.6010012466
 30
0.0
 11
5.9629477329
 21
4.6478730326
 31
0.0
 11
5.9629530471
 21
4.6478726113
 31
0.0
 11
5.9629650881
 21
4.6478710757
 31
0.0
 11
5.9629837748
 21
4.6478684173
 31
0.0
 11
5.9630090261
 21
4.6478646276
 31
0.0
 11
5.9630407608
 21
4.6478596981
 31
0.0
 11
5.9630788976
 21
4.6478536203
 31
0.0
 11
5.9631740532
 21
4.6478379858
 31
0.0
 11
5.9632938433
 21
4.647817656
 31
0.0
 11
5.9634376187
 21
4.6477925629
 31
0.0
 11
5.9636047298
 21
4.6477626385
 31
0.0
 11
5.9637945273
 21
4.6477278146
 31
0.0
 11
5.9640063618
 21
4.6476880234
 31
0.0
 11
5.9642395838
 21
4.6476431968
 31
0.0
 11
5.9647675929
 21
4.6475381652
 31
0.0
 11
5.9653733593
 21
4.6474121754
 31
0.0
 11
5.9660517199
 21
4.6472646899
 31
0.0
 11
5.9667985508
 21
4.6470953809
 31
0.0
 11
5.9676109622
 21
4.6469041707
 31
0.0
 11
5.9684861362
 21
4.6466909957
 31
0.0
 11
5.9694212551
 21
4.6464557926
 31
0.0
 11
5.9714600564
 21
4.6459190487
 31
0.0
 11
5.9737048235
 21
4.6452934318
 31
0.0
 11
5.9761333878
 21
4.6445784485
 31
0.0
 11
5.9787302768
 21
4.6437738515
 31
0.0
 11
5.9814858027
 21
4.6428796062
 31
0.0
 11
5.984390468
 21
4.6418956847
 31
0.0
 11
5.9874347751
 21
4.6408220594
 31
0.0
 11
5.990609229
 21
4.6396587018
 31
0.0
 11
5.9973195931
 21
4.6370603773
 31
0.0
 11
6.0044837334
 21
4.6340907394
 31
0.0
 11
6.0120697664
 21
4.6307382342
 31
0.0
 11
6.0200503387
 21
4.6269857433
 31
0.0
 11
6.028405527
 21
4.6228070193
 31
0.0
 11
6.0327175167
 21
4.6205491851
 31
0.0
 11
6.0371148744
 21
4.6181722297
 31
0.0
 11
6.0415935762
 21
4.6156691408
 31
0.0
 11
6.0461495865
 21
4.61303288
 31
0.0
 11
6.0507786543
 21
4.6102563738
 31
0.0
 11
6.0554708203
 21
4.6073316162
 31
0.0
 11
6.0602099646
 21
4.6042495947
 31
0.0
 11
6.0649796611
 21
4.6010012466
 31
0.0
  0
SPLINE
  5
3DB
100
AcDbEntity
  8
0
100
AcDbSpline
 62
9
  6
CONTINUOUS
 70
0
 71
3
 72
12
 73
8
 74
6
 42
0.0000001
 43
0.0000001
 44
0.0000000001
 12
0.0417346491
 22
-0.0189879473
 32
0.0
 13
0.0324216215
 23
-0.0324216215
 33
0.0
 40
0.0
 40
0.0
 40
0.0
 40
0.0
 40
0.2493582906
 40
0.3742533165
 40
0.4992638234
 40
0.749510259
 40
1.0
 40
1.0
 40
1.0
 40
1.0
 10
6.4885656443
 20
5.0421269745
 30
0.0
 10
6.4920346045
 20
5.0405487071
 30
0.0
 10
6.4971342808
 20
5.0379346854
 30
0.0
 10
6.503673886
 20
5.0339994019
 30
0.0
 10
6.5100421795
 20
5.0297667879
 30
0.0
 10
6.5176465215
 20
5.0239456639
 30
0.0
 10
6.5232991888
 20
5.0187695705
 30
0.0
 10
6.5260062834
 20
5.016062476
 30
0.0
 11
6.4885656443
 21
5.0421269745
 31
0.0
 11
6.498742565
 21
5.0369162352
 31
0.0
 11
6.5036495419
 21
5.0339640791
 31
0.0
 11
6.5084234197
 21
5.0307916334
 31
0.0
 11
6.5175355464
 21
5.0238185774
 31
0.0
 11
6.5260062834
 21
5.016062476
 31
0.0
  0
SPLINE
  5
3DC
100
AcDbEntity
  8
0
100
AcDbSpline
 62
9
  6
CONTINUOUS
 70
0
 71
3
 72
32
 73
28
 74
26
 42
0.0000001
 43
0.0000001
 44
0.0000000001
 12
-0.0672189349
 22
0.0827828439
 32
0.0
 13
0.0814405013
 23
0.0688391545
 33
0.0
 40
0.0
 40
0.0
 40
0.0
 40
0.0
 40
0.015547485
 40
0.0313622443
 40
0.0476688172
 40
0.0646680622
 40
0.101368838
 40
0.1213762352
 40
0.1425990176
 40
0.1651009487
 40
0.1889275375
 40
0.2141097244
 40
0.2406605304
 40
0.2685730017
 40
0.2978309848
 40
0.3284118311
 40
0.3602878341
 40
0.3934245839
 40
0.4277731389
 40
0.463278495
 40
0.4998830063
 40
0.5761439724
 40
0.6560493034
 40
0.7390407374
 40
0.8245323486
 40
0.9117939796
 40
1.0
 40
1.0
 40
1.0
 40
1.0
 10
6.0597282348
 20
4.468399318
 30
0.0
 10
6.059379873
 20
4.4688283397
 30
0.0
 10
6.0587357627
 20
4.4697431685
 30
0.0
 10
6.057951762
 20
4.4712504346
 30
0.0
 10
6.0573471509
 20
4.4728932545
 30
0.0
 10
6.0567672848
 20
4.4753180806
 30
0.0
 10
6.0565849665
 20
4.4779517584
 30
0.0
 10
6.0567437551
 20
4.4807186572
 30
0.0
 10
6.0570464222
 20
4.4829661013
 30
0.0
 10
6.0575283107
 20
4.4853199621
 30
0.0
 10
6.0581882364
 20
4.4877761592
 30
0.0
 10
6.0590252213
 20
4.4903294562
 30
0.0
 10
6.0600374955
 20
4.4929744142
 30
0.0
 10
6.0612221544
 20
4.4957053078
 30
0.0
 10
6.0625764069
 20
4.4985159795
 30
0.0
 10
6.0640973858
 20
4.5014002232
 30
0.0
 10
6.0657821964
 20
4.5043517167
 30
0.0
 10
6.0676276223
 20
4.5073637073
 30
0.0
 10
6.0696289575
 20
4.5104296379
 30
0.0
 10
6.0717813138
 20
4.5135425494
 30
0.0
 10
6.0748884123
 20
4.5178045949
 30
0.0
 10
6.079122278
 20
4.5231954631
 30
0.0
 10
6.0846541986
 20
4.5296532368
 30
0.0
 10
6.0906564841
 20
4.5361311325
 30
0.0
 10
6.0970775675
 20
4.5425688369
 30
0.0
 10
6.1038537289
 20
4.5489058995
 30
0.0
 10
6.108550373
 20
4.5530119936
 30
0.0
 10
6.1109448872
 20
4.5550360029
 30
0.0
 11
6.0597282348
 21
4.468399318
 31
0.0
 11
6.0587727828
 21
4.4697542539
 31
0.0
 11
6.0579920714
 21
4.4712490944
 31
0.0
 11
6.0573878168
 21
4.4728796087
 31
0.0
 11
6.0569617354
 21
4.4746415658
 31
0.0
 11
6.0566508234
 21
4.4785428457
 31
0.0
 11
6.0567676041
 21
4.48067317
 31
0.0
 11
6.0570649113
 21
4.4829166837
 31
0.0
 11
6.0575417544
 21
4.485268358
 31
0.0
 11
6.0581971426
 21
4.4877231642
 31
0.0
 11
6.0590300733
 21
4.4902760655
 31
0.0
 11
6.0600388314
 21
4.4929215543
 31
0.0
 11
6.0612205972
 21
4.4956533933
 31
0.0
 11
6.0625724561
 21
4.4984652821
 31
0.0
 11
6.0640914935
 21
4.5013509206
 31
0.0
 11
6.0657747948
 21
4.5043040085
 31
0.0
 11
6.0676190974
 21
4.5073181137
 31
0.0
 11
6.0696197472
 21
4.5103862767
 31
0.0
 11
6.0717717418
 21
4.5135014061
 31
0.0
 11
6.0740700792
 21
4.5166564104
 31
0.0
 11
6.0790857196
 21
4.5230576845
 31
0.0
 11
6.0846233458
 21
4.5295337493
 31
0.0
 11
6.0906345959
 21
4.5360288375
 31
0.0
 11
6.0970694676
 21
4.5424866838
 31
0.0
 11
6.1038639269
 21
4.5488446535
 31
0.0
 11
6.1109448872
 21
4.5550360029
 31
0.0
  0
SPLINE
  5
3DD
100
AcDbEntity
  8
0
100
AcDbSpline
 62
9
  6
CONTINUOUS
 70
0
 71
3
 72
44
 73
40
 74
38
 42
0.0000001
 43
0.0000001
 44
0.0000000001
 12
0.0645632102
 22
-0.0926299629
 32
0.0
 13
0.0100467279
 23
-0.1124623555
 33
0.0
 40
0.0
 40
0.0
 40
0.0
 40
0.0
 40
0.0511097414
 40
0.1011753514
 40
0.1501395566
 40
0.1979411392
 40
0.2445573802
 40
0.2899976215
 40
0.3342696577
 40
0.3773788367
 40
0.4193280653
 40
0.4601187295
 40
0.5382242691
 40
0.6116794639
 40
0.6803611921
 40
0.7440942232
 40
0.8026251023
 40
0.8554344862
 40
0.8795119473
 40
0.9019363094
 40
0.9225733559
 40
0.9412423175
 40
0.9577601293
 40
0.9651549919
 40
0.971943093
 40
0.978100402
 40
0.9835906292
 40
0.9883690846
 40
0.9923906898
 40
0.9941035309
 40
0.9956101588
 40
0.9969048819
 40
0.9979819978
 40
0.9988357937
 40
0.9994605473
 40
0.9996852427
 40
0.9998505277
 40
0.9999556851
 40
1.0
 40
1.0
 40
1.0
 40
1.0
 10
6.1109448872
 20
4.5550360029
 30
0.0
 10
6.1120448235
 20
4.553457905
 30
0.0
 10
6.1141869203
 20
4.5503091934
 30
0.0
 10
6.1172668883
 20
4.5455711622
 30
0.0
 10
6.1201899412
 20
4.5408808936
 30
0.0
 10
6.1229660853
 20
4.5362530398
 30
0.0
 10
6.1256026639
 20
4.5316969181
 30
0.0
 10
6.1281056657
 20
4.5272176749
 30
0.0
 10
6.1304823044
 20
4.5228196295
 30
0.0
 10
6.132740097
 20
4.5185072139
 30
0.0
 10
6.1348846366
 20
4.5142838214
 30
0.0
 10
6.1375586253
 20
4.5088525642
 30
0.0
 10
6.1406394762
 20
4.5023005298
 30
0.0
 10
6.1439917481
 20
4.4947186375
 30
0.0
 10
6.1469608744
 20
4.4875610635
 30
0.0
 10
6.1495584087
 20
4.480859613
 30
0.0
 10
6.1517919776
 20
4.4746598794
 30
0.0
 10
6.1534017906
 20
4.46982347
 30
0.0
 10
6.1545100686
 20
4.4662536977
 30
0.0
 10
6.1552251413
 20
4.4638300051
 30
0.0
 10
6.1558505601
 20
4.4615923539
 30
0.0
 10
6.1563872931
 20
4.4595609703
 30
0.0
 10
6.1567739684
 20
4.4580056107
 30
0.0
 10
6.1570388067
 20
4.4568808818
 30
0.0
 10
6.1572078857
 20
4.4561342342
 30
0.0
 10
6.1573546659
 20
4.4554560685
 30
0.0
 10
6.1574796464
 20
4.4548506034
 30
0.0
 10
6.1575836432
 20
4.4543229069
 30
0.0
 10
6.1576568249
 20
4.4539340569
 30
0.0
 10
6.1577054905
 20
4.4536659061
 30
0.0
 10
6.1577351511
 20
4.4534986152
 30
0.0
 10
6.1577600583
 20
4.4533547827
 30
0.0
 10
6.1577803029
 20
4.4532350796
 30
0.0
 10
6.1577959507
 20
4.4531401743
 30
0.0
 10
6.1578061453
 20
4.4530768841
 30
0.0
 10
6.1578120323
 20
4.4530391508
 30
0.0
 10
6.157814908
 20
4.453020736
 30
0.0
 10
6.1578165761
 20
4.4530090117
 30
0.0
 10
6.1578174723
 20
4.4530034522
 30
0.0
 10
6.1578176207
 20
4.453001791
 30
0.0
 11
6.1109448872
 21
4.5550360029
 31
0.0
 11
6.1141920359
 21
4.550265437
 31
0.0
 11
6.1172741316
 21
4.5455266417
 31
0.0
 11
6.1201995663
 21
4.5408355012
 31
0.0
 11
6.122976692
 21
4.5362075121
 31
0.0
 11
6.1256132256
 21
4.5316520102
 31
0.0
 11
6.128116375
 21
4.527173395
 31
0.0
 11
6.1304933337
 21
4.5227759272
 31
0.0
 11
6.1327512365
 21
4.5184638384
 31
0.0
 11
6.134895532
 21
4.5142405225
 31
0.0
 11
6.1369297752
 21
4.5101084322
 31
0.0
 11
6.1406819216
 21
4.5021275401
 31
0.0
 11
6.1440340928
 21
4.4945413179
 31
0.0
 11
6.1470030766
 21
4.4873773015
 31
0.0
 11
6.1496010828
 21
4.4806665361
 31
0.0
 11
6.151838198
 21
4.47444796
 31
0.0
 11
6.1537169388
 21
4.4687889536
 31
0.0
 11
6.1545221711
 21
4.4661923519
 31
0.0
 11
6.1552381145
 21
4.4637637425
 31
0.0
 11
6.1558649012
 21
4.4615194919
 31
0.0
 11
6.1564026869
 21
4.4594813313
 31
0.0
 11
6.1568516279
 21
4.4576711412
 31
0.0
 11
6.1570428305
 21
4.4568583729
 31
0.0
 11
6.1572118807
 21
4.4561108025
 31
0.0
 11
6.1573588279
 21
4.4554312867
 31
0.0
 11
6.1574840897
 21
4.4548241714
 31
0.0
 11
6.1575883304
 21
4.4542948006
 31
0.0
 11
6.1576722186
 21
4.4538485364
 31
0.0
 11
6.1577067395
 21
4.453658245
 31
0.0
 11
6.157736423
 21
4.4534907411
 31
0.0
 11
6.1577613528
 21
4.453346695
 31
0.0
 11
6.1577816124
 21
4.453226777
 31
0.0
 11
6.1577972853
 21
4.4531316573
 31
0.0
 11
6.1578084553
 21
4.4530620062
 31
0.0
 11
6.1578123778
 21
4.4530369408
 31
0.0
 11
6.1578152059
 21
4.453018494
 31
0.0
 11
6.15781695
 21
4.4530067494
 31
0.0
 11
6.1578176207
 21
4.453001791
 31
0.0
  0
SPLINE
  5
3DE
100
AcDbEntity
  8
0
100
AcDbSpline
 62
9
  6
CONTINUOUS
 70
0
 71
3
 72
47
 73
43
 74
41
 42
0.0000001
 43
0.0000001
 44
0.0000000001
 12
-0.0032190844
 22
-0.1128630504
 32
0.0
 13
-0.0645769353
 23
-0.0926188429
 33
0.0
 40
0.0
 40
0.0
 40
0.0
 40
0.0
 40
0.0000445995
 40
0.0001500179
 40
0.0003155487
 40
0.000540474
 40
0.0008240747
 40
0.0011656316
 40
0.0020197387
 40
0.0030970512
 40
0.0043918334
 40
0.0058983598
 40
0.0076109149
 40
0.0116312981
 40
0.0164075016
 40
0.0218942462
 40
0.0280470269
 40
0.0348321686
 40
0.04222574
 40
0.0502041843
 40
0.0587439786
 40
0.0774136415
 40
0.0980477308
 40
0.120463826
 40
0.1445379595
 40
0.1701927979
 40
0.197352537
 40
0.2259416807
 40
0.2558851458
 40
0.3196171948
 40
0.3883045897
 40
0.4617629613
 40
0.5398703412
 40
0.622610299
 40
0.6657197448
 40
0.7099919967
 40
0.7554330446
 40
0.8020512322
 40
0.8498559992
 40
0.8988223598
 40
0.9488891541
 40
1.0
 40
1.0
 40
1.0
 40
1.0
 10
6.1578177786
 20
3.780969466
 30
0.0
 10
6.1578177307
 20
3.7809677882
 30
0.0
 10
6.1578167961
 20
3.7809621986
 30
0.0
 10
6.1578152692
 20
3.7809504364
 30
0.0
 10
6.1578124046
 20
3.7809319851
 30
0.0
 10
6.1578085626
 20
3.7809069127
 30
0.0
 10
6.1578035556
 20
3.7808753113
 30
0.0
 10
6.1577947227
 20
3.7808203431
 30
0.0
 10
6.157780806
 20
3.7807359353
 30
0.0
 10
6.1577605425
 20
3.7806162156
 30
0.0
 10
6.1577355742
 20
3.7804723893
 30
0.0
 10
6.1577058255
 20
3.7803051285
 30
0.0
 10
6.157656999
 20
3.7800370716
 30
0.0
 10
6.157583559
 20
3.7796484187
 30
0.0
 10
6.1574792053
 20
3.7791210658
 30
0.0
 10
6.1573538404
 20
3.7785160817
 30
0.0
 10
6.157206634
 20
3.7778384393
 30
0.0
 10
6.1570373082
 20
3.7770921962
 30
0.0
 10
6.1568460076
 20
3.7762805121
 30
0.0
 10
6.1566326577
 20
3.775406205
 30
0.0
 10
6.1563089895
 20
3.7741220121
 30
0.0
 10
6.1558491969
 20
3.772380979
 30
0.0
 10
6.1552241962
 20
3.7701436515
 30
0.0
 10
6.1545092345
 20
3.7677205275
 30
0.0
 10
6.153704338
 20
3.7651272075
 30
0.0
 10
6.1528102402
 20
3.7623749036
 30
0.0
 10
6.1518267495
 20
3.7594732298
 30
0.0
 10
6.1507538044
 20
3.7564317034
 30
0.0
 10
6.1491702
 20
3.752111086
 30
0.0
 10
6.1469614969
 20
3.7464127894
 30
0.0
 10
6.1439923379
 20
3.7392550319
 30
0.0
 10
6.1406401236
 20
3.7316727443
 30
0.0
 10
6.1368872829
 20
3.7236918488
 30
0.0
 10
6.1334523449
 20
3.7168261328
 30
0.0
 10
6.1304822503
 20
3.7111537821
 30
0.0
 10
6.1281052361
 20
3.7067559405
 30
0.0
 10
6.1256019108
 20
3.7022768195
 30
0.0
 10
6.1229652066
 20
3.6977205834
 30
0.0
 10
6.1201894798
 20
3.693092234
 30
0.0
 10
6.1172670344
 20
3.6884013702
 30
0.0
 10
6.1141874313
 20
3.6836629744
 30
0.0
 10
6.1120451506
 20
3.6805143282
 30
0.0
 10
6.1109449567
 20
3.6789363857
 30
0.0
 11
6.1578177786
 21
3.780969466
 31
0.0
 11
6.1578171934
 21
3.7809644645
 31
0.0
 11
6.1578155216
 21
3.7809526798
 31
0.0
 11
6.1578127531
 21
3.7809341961
 31
0.0
 11
6.1578088781
 21
3.7809090974
 31
0.0
 11
6.1578038865
 21
3.7808774678
 31
0.0
 11
6.1577977684
 21
3.7808393913
 31
0.0
 11
6.1577821128
 21
3.7807442342
 31
0.0
 11
6.1577618318
 21
3.7806242987
 31
0.0
 11
6.1577368457
 21
3.7804802572
 31
0.0
 11
6.1577070748
 21
3.7803127824
 31
0.0
 11
6.1576724394
 21
3.7801225469
 31
0.0
 11
6.1575882569
 21
3.7796764838
 31
0.0
 11
6.157483661
 21
3.7791474484
 31
0.0
 11
6.1573580144
 21
3.7785408213
 31
0.0
 11
6.1572106955
 21
3.7778619172
 31
0.0
 11
6.1570413832
 21
3.7771147576
 31
0.0
 11
6.1568500311
 21
3.7763021839
 31
0.0
 11
6.156636603
 21
3.7754269942
 31
0.0
 11
6.1564010624
 21
3.7744919865
 31
0.0
 11
6.155863499
 21
3.7724537099
 31
0.0
 11
6.1552370504
 21
3.7702097389
 31
0.0
 11
6.154521433
 21
3.7677820363
 31
0.0
 11
6.1537164745
 21
3.7651857751
 31
0.0
 11
6.1528220925
 21
3.7624306481
 31
0.0
 11
6.151838207
 21
3.7595261916
 31
0.0
 11
6.1507647382
 21
3.756481942
 31
0.0
 11
6.1496016055
 21
3.7533074331
 31
0.0
 11
6.1470038021
 21
3.7465967951
 31
0.0
 11
6.1440346624
 21
3.7394322454
 31
0.0
 11
6.1406825043
 21
3.7318457274
 31
0.0
 11
6.1369302044
 21
3.7238647878
 31
0.0
 11
6.1327513361
 21
3.7155094572
 31
0.0
 11
6.1304932469
 21
3.711197494
 31
0.0
 11
6.1281159739
 21
3.7068002325
 31
0.0
 11
6.1256125378
 21
3.7023217395
 31
0.0
 11
6.1229759283
 21
3.6977660961
 31
0.0
 11
6.1201991061
 21
3.6931375766
 31
0.0
 11
6.117274204
 21
3.6884458907
 31
0.0
 11
6.1141924333
 21
3.6837068006
 31
0.0
 11
6.1109449567
 21
3.6789363857
 31
0.0
  0
LINE
  5
3DF
100
AcDbEntity
  8
0
100
AcDbLine
 62
9
  6
CONTINUOUS
 10
6.1109451128
 20
4.5550358012
 11
6.124267317
 21
4.5683119257
  0
SPLINE
  5
3E0
100
AcDbEntity
  8
0
100
AcDbSpline
 62
9
  6
CONTINUOUS
 70
0
 71
3
 72
11
 73
7
 74
5
 42
0.0000001
 43
0.0000001
 44
0.0000000001
 12
0.0269581232
 22
-0.0269581232
 32
0.0
 13
0.0216573495
 23
-0.0313757873
 33
0.0
 40
0.0
 40
0.0
 40
0.0
 40
0.0
 40
0.2523333055
 40
0.5037028633
 40
0.7532075531
 40
1.0
 40
1.0
 40
1.0
 40
1.0
 10
6.3530502137
 20
4.8431064063
 30
0.0
 10
6.3553176911
 20
4.8408389289
 30
0.0
 10
6.3597491793
 20
4.8362166202
 30
0.0
 10
6.366070816
 20
4.8290252769
 30
0.0
 10
6.3720200248
 20
4.821612767
 30
0.0
 10
6.3757338618
 20
4.8165114794
 30
0.0
 10
6.3775154852
 20
4.813930377
 30
0.0
 11
6.3530502137
 21
4.8431064063
 31
0.0
 11
6.3597064796
 21
4.8361608829
 31
0.0
 11
6.3660314751
 21
4.8289612286
 31
0.0
 11
6.3719821578
 21
4.8215401558
 31
0.0
 11
6.3775154852
 21
4.813930377
 31
0.0
  0
SPLINE
  5
3E1
100
AcDbEntity
  8
0
100
AcDbSpline
 62
9
  6
CONTINUOUS
 70
0
 71
3
 72
17
 73
13
 74
11
 42
0.0000001
 43
0.0000001
 44
0.0000000001
 12
0.249953333
 22
0.2489786005
 32
0.0
 13
0.2552606433
 23
0.2435344249
 33
0.0
 40
0.0
 40
0.0
 40
0.0
 40
0.0
 40
0.0519624319
 40
0.1062490759
 40
0.1626629131
 40
0.2210068553
 40
0.342696411
 40
0.4697401885
 40
0.6005617986
 40
0.7335912538
 40
0.8672601391
 40
1.0
 40
1.0
 40
1.0
 40
1.0
 10
6.124267317
 20
4.5683119257
 30
0.0
 10
6.1285967114
 20
4.5726244369
 30
0.0
 10
6.1374616838
 20
4.5814297736
 30
0.0
 10
6.1510658548
 20
4.5948777981
 30
0.0
 10
6.1652329461
 20
4.6088237969
 30
0.0
 10
6.1850848069
 20
4.6282938844
 30
0.0
 10
6.2109291064
 20
4.6535161969
 30
0.0
 10
6.2429539437
 20
4.6846086735
 30
0.0
 10
6.2760036257
 20
4.716559852
 30
0.0
 10
6.309677032
 20
4.7489866574
 30
0.0
 10
6.3435736291
 20
4.7815067855
 30
0.0
 10
6.3662210645
 20
4.8031548017
 30
0.0
 10
6.3775154852
 20
4.813930377
 30
0.0
 11
6.124267317
 21
4.5683119257
 31
0.0
 11
6.1372728025
 21
4.5812320659
 31
0.0
 11
6.1508925487
 21
4.5946972707
 31
0.0
 11
6.1650754052
 21
4.6086602741
 31
0.0
 11
6.1797702219
 21
4.6230738099
 31
0.0
 11
6.2104911349
 21
4.6530634137
 31
0.0
 11
6.2426460856
 21
4.6842879525
 31
0.0
 11
6.2758273294
 21
4.716368633
 31
0.0
 11
6.30963295
 21
4.748924006
 31
0.0
 11
6.3436624883
 21
4.7815719583
 31
0.0
 11
6.3775154852
 21
4.813930377
 31
0.0
  0
SPLINE
  5
3E2
100
AcDbEntity
  8
0
100
AcDbSpline
 62
9
  6
CONTINUOUS
 70
0
 71
3
 72
32
 73
28
 74
26
 42
0.0000001
 43
0.0000001
 44
0.0000000001
 12
0.0827849349
 22
0.0672175817
 32
0.0
 13
0.068839743
 23
-0.0814410124
 33
0.0
 40
0.0
 40
0.0
 40
0.0
 40
0.0
 40
0.0155474339
 40
0.0313621891
 40
0.0476688001
 40
0.0646681186
 40
0.1013691193
 40
0.121376653
 40
0.1425995811
 40
0.1651016623
 40
0.1889284008
 40
0.214110733
 40
0.2406616766
 40
0.2685742744
 40
0.2978323698
 40
0.3284133117
 40
0.3602893905
 40
0.3934261944
 40
0.4277747815
 40
0.4632801472
 40
0.4998846452
 40
0.5761455142
 40
0.6560506575
 40
0.7390418242
 40
0.8245331021
 40
0.9117943606
 40
1.0
 40
1.0
 40
1.0
 40
1.0
 10
5.9783424945
 20
3.6841886761
 30
0.0
 10
5.9787715256
 20
3.6845370298
 30
0.0
 10
5.979686374
 20
3.6851811228
 30
0.0
 10
5.981193668
 20
3.6859650951
 30
0.0
 10
5.9828365162
 20
3.6865696766
 30
0.0
 10
5.9852613829
 20
3.6871495013
 30
0.0
 10
5.9878950978
 20
3.6873317761
 30
0.0
 10
5.9906620322
 20
3.6871729441
 30
0.0
 10
5.9929095036
 20
3.6868702426
 30
0.0
 10
5.9952633911
 20
3.6863883194
 30
0.0
 10
5.9977196142
 20
3.6857283587
 30
0.0
 10
6.0002729363
 20
3.684891339
 30
0.0
 10
6.0029179185
 20
3.6838790301
 30
0.0
 10
6.0056488352
 20
3.682694337
 30
0.0
 10
6.0084595289
 20
3.6813400509
 30
0.0
 10
6.0113437934
 20
3.6798190393
 30
0.0
 10
6.0142953064
 20
3.6781341972
 30
0.0
 10
6.017307315
 20
3.676288741
 30
0.0
 10
6.0203732624
 20
3.674287377
 30
0.0
 10
6.0234861895
 20
3.6721349932
 30
0.0
 10
6.0277482529
 20
3.6690278609
 30
0.0
 10
6.0331391411
 20
3.6647939577
 30
0.0
 10
6.0395969368
 20
3.6592619987
 30
0.0
 10
6.0460748517
 20
3.6532596815
 30
0.0
 10
6.0525125741
 20
3.6468385722
 30
0.0
 10
6.0588496556
 20
3.6400623897
 30
0.0
 10
6.0629557648
 20
3.6353657346
 30
0.0
 10
6.0649797826
 20
3.6329712157
 30
0.0
 11
5.9783424945
 21
3.6841886761
 31
0.0
 11
5.9796974572
 21
3.6851441015
 31
0.0
 11
5.9811923255
 21
3.6859247851
 31
0.0
 11
5.9828228682
 21
3.6865290106
 31
0.0
 11
5.9845848541
 21
3.6869550619
 31
0.0
 11
5.9884861916
 21
3.6872659101
 31
0.0
 11
5.990616544
 21
3.687149096
 31
0.0
 11
5.9928600853
 21
3.6868517544
 31
0.0
 11
5.9952117866
 21
3.6863748766
 31
0.0
 11
5.9976666189
 21
3.6857194533
 31
0.0
 11
6.0002195455
 21
3.6848864876
 31
0.0
 11
6.0028650587
 21
3.6838776948
 31
0.0
 11
6.0055969209
 21
3.6826958946
 31
0.0
 11
6.0084088319
 21
3.681344002
 31
0.0
 11
6.0112944912
 21
3.6798249319
 31
0.0
 11
6.0142475986
 21
3.6781415989
 31
0.0
 11
6.017261722
 21
3.676297266
 31
0.0
 11
6.0203299018
 21
3.6742965873
 31
0.0
 11
6.0234450467
 21
3.6721445652
 31
0.0
 11
6.0266000654
 21
3.669846202
 31
0.0
 11
6.0330013648
 21
3.6648305156
 31
0.0
 11
6.0394774513
 21
3.6592928508
 31
0.0
 11
6.0459725585
 21
3.653281569
 31
0.0
 11
6.0524304222
 21
3.6468466719
 31
0.0
 11
6.0587884104
 21
3.6400521923
 31
0.0
 11
6.0649797826
 21
3.6329712157
 31
0.0
  0
SPLINE
  5
3E3
100
AcDbEntity
  8
0
100
AcDbSpline
 62
9
  6
CONTINUOUS
 70
0
 71
3
 72
44
 73
40
 74
38
 42
0.0000001
 43
0.0000001
 44
0.0000000001
 12
-0.0926281462
 22
-0.0645660949
 32
0.0
 13
-0.1126357744
 23
-0.0078699691
 33
0.0
 40
0.0
 40
0.0
 40
0.0
 40
0.0
 40
0.0511097755
 40
0.1011767307
 40
0.1501440633
 40
0.1979503624
 40
0.2445699696
 40
0.2900122149
 40
0.3342853657
 40
0.3773952795
 40
0.4601347084
 40
0.5382396673
 40
0.6116950864
 40
0.6803806961
 40
0.7441090613
 40
0.8026374912
 40
0.8297975468
 40
0.8554530532
 40
0.8795275295
 40
0.9019433565
 40
0.9225792917
 40
0.9412523441
 40
0.9577738534
 40
0.9651686372
 40
0.9719544119
 40
0.9781071249
 40
0.9835935355
 40
0.9883693246
 40
0.9923892977
 40
0.9941016736
 40
0.9956080498
 40
0.9969027193
 40
0.9979799642
 40
0.9988340561
 40
0.9994592568
 40
0.9996842276
 40
0.9998498201
 40
0.9999553156
 40
1.0
 40
1.0
 40
1.0
 40
1.0
 10
6.0649797826
 20
3.6329712157
 30
0.0
 10
6.0634017147
 20
3.6318712295
 30
0.0
 10
6.0602530385
 20
3.6297289791
 30
0.0
 10
6.0555149739
 20
3.6266487362
 30
0.0
 10
6.0508244613
 20
3.6237254037
 30
0.0
 10
6.046196175
 20
3.6209491454
 30
0.0
 10
6.0416397174
 20
3.6183123743
 30
0.0
 10
6.0371602356
 20
3.6158092874
 30
0.0
 10
6.032761983
 20
3.6134326959
 30
0.0
 10
6.0270891531
 20
3.6104632744
 30
0.0
 10
6.0202232692
 20
3.6070286792
 30
0.0
 10
6.0122425013
 20
3.6032758226
 30
0.0
 10
6.0046603784
 20
3.5999236635
 30
0.0
 10
5.997502873
 20
3.596954397
 30
0.0
 10
5.9908016694
 20
3.5943566161
 30
0.0
 10
5.9855104199
 20
3.5924502708
 30
0.0
 10
5.981541603
 20
3.5911046597
 30
0.0
 10
5.9787892951
 20
3.5902102856
 30
0.0
 10
5.9761959873
 20
3.5894051407
 30
0.0
 10
5.9737728275
 20
3.5886899337
 30
0.0
 10
5.9715352938
 20
3.5880648483
 30
0.0
 10
5.9695035486
 20
3.5875284879
 30
0.0
 10
5.9679478306
 20
3.5871420468
 30
0.0
 10
5.9668230406
 20
3.58687725
 30
0.0
 10
5.9660766655
 20
3.5867081582
 30
0.0
 10
5.9653989452
 20
3.5865612273
 30
0.0
 10
5.9647939135
 20
3.586436204
 30
0.0
 10
5.9642665269
 20
3.5863322096
 30
0.0
 10
5.9638778515
 20
3.5862590654
 30
0.0
 10
5.9636097815
 20
3.5862104475
 30
0.0
 10
5.963442513
 20
3.5861808251
 30
0.0
 10
5.9632986795
 20
3.5861559613
 30
0.0
 10
5.9631789542
 20
3.5861357624
 30
0.0
 10
5.9630840074
 20
3.5861201662
 30
0.0
 10
5.9630206711
 20
3.5861100117
 30
0.0
 10
5.962982892
 20
3.5861041718
 30
0.0
 10
5.9629644386
 20
3.586101309
 30
0.0
 10
5.9629526718
 20
3.5860996876
 30
0.0
 10
5.962947083
 20
3.5860987828
 30
0.0
 10
5.9629454053
 20
3.5860986655
 30
0.0
 11
6.0649797826
 21
3.6329712157
 31
0.0
 11
6.0602093226
 21
3.6297238902
 31
0.0
 11
6.0554705006
 21
3.6266415423
 31
0.0
 11
6.0507790991
 21
3.6237158441
 31
0.0
 11
6.046150613
 21
3.620938497
 31
0.0
 11
6.0415947613
 21
3.6183017942
 31
0.0
 11
6.0371159165
 21
3.615798577
 31
0.0
 11
6.0327182494
 21
3.6134217075
 31
0.0
 11
6.0284059214
 21
3.6111640679
 31
0.0
 11
6.0200502999
 21
3.60698565
 31
0.0
 11
6.0120694967
 21
3.6032334395
 31
0.0
 11
6.0044832105
 21
3.5998813213
 31
0.0
 11
5.99731883
 21
3.5969120428
 31
0.0
 11
5.9906086366
 21
3.5943139903
 31
0.0
 11
5.9843903084
 21
3.5920769757
 31
0.0
 11
5.9814858686
 21
3.5910928083
 31
0.0
 11
5.9787307163
 21
3.590198141
 31
0.0
 11
5.9761344569
 21
3.5893929298
 31
0.0
 11
5.9737068066
 21
3.5886771284
 31
0.0
 11
5.9714626097
 21
3.5880506038
 31
0.0
 11
5.9694238936
 21
3.5875131015
 31
0.0
 11
5.9676132218
 21
3.5870643578
 31
0.0
 11
5.9668004537
 21
3.5868731879
 31
0.0
 11
5.966053158
 21
3.5867041088
 31
0.0
 11
5.9653741901
 21
3.5865570787
 31
0.0
 11
5.9647675228
 21
3.5864317743
 31
0.0
 11
5.9642384572
 21
3.5863275377
 31
0.0
 11
5.9637923719
 21
3.5862436917
 31
0.0
 11
5.9636021277
 21
3.5862092035
 31
0.0
 11
5.9634346456
 21
3.5861795589
 31
0.0
 11
5.9632905978
 21
3.5861546732
 31
0.0
 11
5.9631706566
 21
3.5861344618
 31
0.0
 11
5.9630754945
 21
3.58611884
 31
0.0
 11
5.9630057837
 21
3.5861077231
 31
0.0
 11
5.9629806826
 21
3.5861038276
 31
0.0
 11
5.9629621965
 21
3.5861010265
 31
0.0
 11
5.9629504094
 21
3.5860993094
 31
0.0
 11
5.9629454053
 21
3.5860986655
 31
0.0
  0
SPLINE
  5
3E4
100
AcDbEntity
  8
0
100
AcDbSpline
 62
9
  6
CONTINUOUS
 70
0
 71
3
 72
12
 73
8
 74
6
 42
0.0000001
 43
0.0000001
 44
0.0000000001
 12
0.0324216215
 22
-0.0324216215
 32
0.0
 13
0.0189879473
 23
-0.0417346491
 33
0.0
 40
0.0
 40
0.0
 40
0.0
 40
0.0
 40
0.250489741
 40
0.5007361766
 40
0.6257466835
 40
0.7506417094
 40
1.0
 40
1.0
 40
1.0
 40
1.0
 10
6.5260062834
 20
5.016062476
 30
0.0
 10
6.5287133779
 20
5.0133553815
 30
0.0
 10
6.5338894713
 20
5.0077027141
 30
0.0
 10
6.5397105953
 20
5.0000983721
 30
0.0
 10
6.5439432092
 20
4.9937300786
 30
0.0
 10
6.5478784927
 20
4.9871904734
 30
0.0
 10
6.5504925145
 20
4.9820907972
 30
0.0
 10
6.5520707818
 20
4.9786218369
 30
0.0
 11
6.5260062834
 21
5.016062476
 31
0.0
 11
6.5337623848
 21
5.0075917391
 31
0.0
 11
6.5407354407
 21
4.9984796123
 31
0.0
 11
6.5439078865
 21
4.9937057346
 31
0.0
 11
6.5468600426
 21
4.9887987576
 31
0.0
 11
6.5520707818
 21
4.9786218369
 31
0.0
  0
SPLINE
  5
3E5
100
AcDbEntity
  8
0
100
AcDbSpline
 62
6
  6
CONTINUOUS
 70
0
 71
3
 72
17
 73
13
 74
11
 42
0.0000001
 43
0.0000001
 44
0.0000000001
 12
0.0175088836
 22
0.1420063737
 32
0.0
 13
0.0846958398
 23
0.1153212292
 33
0.0
 40
0.0
 40
0.0
 40
0.0
 40
0.0
 40
0.1250036184
 40
0.1875111569
 40
0.2500177062
 40
0.3125248794
 40
0.3750332592
 40
0.5000329794
 40
0.6250146748
 40
0.7499848591
 40
0.8749752026
 40
1.0
 40
1.0
 40
1.0
 40
1.0
 10
4.608277686
 20
3.3069505934
 30
0.0
 10
4.6090072439
 20
3.3128676969
 30
0.0
 10
4.6103862532
 20
3.3217121275
 30
0.0
 10
4.6127923397
 20
3.333392625
 30
0.0
 10
4.6148815744
 20
3.3420905521
 30
0.0
 10
4.6172527947
 20
3.3507158068
 30
0.0
 10
4.620783078
 20
3.362107218
 30
0.0
 10
4.6258770201
 20
3.3761252353
 30
0.0
 10
4.6330402875
 20
3.3925233557
 30
0.0
 10
4.641222997
 20
3.4084374564
 30
0.0
 10
4.6503947624
 20
3.423804295
 30
0.0
 10
4.6571482782
 20
3.4336431955
 30
0.0
 10
4.6606779716
 20
3.4384491999
 30
0.0
 11
4.608277686
 21
3.3069505934
 31
0.0
 11
4.611034982
 21
3.3246225101
 31
0.0
 11
4.6128397821
 21
3.3333822012
 31
0.0
 11
4.6149285626
 21
3.3420784048
 31
0.0
 11
4.6172988859
 21
3.3507022163
 31
0.0
 11
4.6199461285
 21
3.3592452692
 31
0.0
 11
4.6260525365
 21
3.3760557168
 31
0.0
 11
4.6332104534
 21
3.3924432532
 31
0.0
 11
4.6413871968
 21
3.4083451111
 31
0.0
 11
4.6505534747
 21
3.4237012411
 31
0.0
 11
4.6606779716
 21
3.4384491999
 31
0.0
  0
SPLINE
  5
3E6
100
AcDbEntity
  8
0
100
AcDbSpline
 62
9
  6
CONTINUOUS
 70
0
 71
3
 72
48
 73
44
 74
42
 42
0.0000001
 43
0.0000001
 44
0.0000000001
 12
-0.0646092613
 22
-0.0925977483
 32
0.0
 13
-0.0049468887
 23
-0.1128017196
 33
0.0
 40
0.0
 40
0.0
 40
0.0
 40
0.0
 40
0.0511245253
 40
0.1012010052
 40
0.1501657447
 40
0.197959652
 40
0.2445757007
 40
0.2900206134
 40
0.3342983188
 40
0.3774116179
 40
0.4193641401
 40
0.4601586691
 40
0.4997969366
 40
0.5382775295
 40
0.6117245234
 40
0.6804081455
 40
0.7441642976
 40
0.7740921376
 40
0.8026583957
 40
0.829816231
 40
0.8554930995
 40
0.8795836526
 40
0.9019799175
 40
0.9225735099
 40
0.9412404115
 40
0.9577815055
 40
0.965185299
 40
0.9719739198
 40
0.9781193147
 40
0.9835933381
 40
0.9883620232
 40
0.9923799127
 40
0.9940926296
 40
0.9955999976
 40
0.9968961049
 40
0.9979750268
 40
0.9988308273
 40
0.9991731992
 40
0.9994575597
 40
0.999683164
 40
0.999849267
 40
0.9999551244
 40
1.0
 40
1.0
 40
1.0
 40
1.0
 10
5.142914854
 20
4.5550358242
 30
0.0
 10
5.1418138148
 20
4.5534578189
 30
0.0
 10
5.1396706478
 20
4.5503086483
 30
0.0
 10
5.1365911695
 20
4.54556912
 30
0.0
 10
5.1336692863
 20
4.5408779675
 30
0.0
 10
5.1308936545
 20
4.5362501338
 30
0.0
 10
5.1282581172
 20
4.53169355
 30
0.0
 10
5.1257555227
 20
4.5272136523
 30
0.0
 10
5.1233779567
 20
4.5228155015
 30
0.0
 10
5.1211186711
 20
4.5185033112
 30
0.0
 10
5.1189739802
 20
4.5142795236
 30
0.0
 10
5.1169397033
 20
4.5101467679
 30
0.0
 10
5.1150117887
 20
4.506107669
 30
0.0
 10
5.1126149624
 20
4.5009310848
 30
0.0
 10
5.1098653947
 20
4.4947136406
 30
0.0
 10
5.106896982
 20
4.4875551329
 30
0.0
 10
5.1046881687
 20
4.4818566291
 30
0.0
 10
5.1031039759
 20
4.4775367548
 30
0.0
 10
5.102031121
 20
4.474496771
 30
0.0
 10
5.1010480358
 20
4.4715950312
 30
0.0
 10
5.1001544817
 20
4.4688410716
 30
0.0
 10
5.0993499355
 20
4.4662468834
 30
0.0
 10
5.098634499
 20
4.4638256061
 30
0.0
 10
5.098008289
 20
4.4615910484
 30
0.0
 10
5.0974725688
 20
4.459560253
 30
0.0
 10
5.0970868937
 20
4.4580034793
 30
0.0
 10
5.096822158
 20
4.4568774628
 30
0.0
 10
5.0966529179
 20
4.4561309495
 30
0.0
 10
5.0965053832
 20
4.4554540135
 30
0.0
 10
5.0963795318
 20
4.4548501851
 30
0.0
 10
5.0962752296
 20
4.4543236869
 30
0.0
 10
5.0962020417
 20
4.4539353586
 30
0.0
 10
5.0961534914
 20
4.4536673055
 30
0.0
 10
5.096123944
 20
4.4534999182
 30
0.0
 10
5.096099178
 20
4.4533559111
 30
0.0
 10
5.0960791029
 20
4.4532359816
 30
0.0
 10
5.0960653318
 20
4.4531513922
 30
0.0
 10
5.0960565936
 20
4.4530962835
 30
0.0
 10
5.0960516419
 20
4.4530645876
 30
0.0
 10
5.0960478334
 20
4.4530394322
 30
0.0
 10
5.0960450062
 20
4.4530209132
 30
0.0
 10
5.0960434622
 20
4.4530091
 30
0.0
 10
5.0960425531
 20
4.4530034847
 30
0.0
 10
5.0960424791
 20
4.4530017974
 30
0.0
 11
5.142914854
 21
4.5550358242
 31
0.0
 11
5.1396657605
 21
4.550264568
 31
0.0
 11
5.136583768
 21
4.5455242466
 31
0.0
 11
5.1336593631
 21
4.5408323977
 31
0.0
 11
5.1308833
 21
4.5362047862
 31
0.0
 11
5.1282475919
 21
4.5316488361
 31
0.0
 11
5.1257446217
 21
4.5271695208
 31
0.0
 11
5.1233667888
 21
4.5227718021
 31
0.0
 11
5.1211077276
 21
4.5184597989
 31
0.0
 11
5.1189631457
 21
4.5142362151
 31
0.0
 11
5.1169289494
 21
4.5101036192
 31
0.0
 11
5.1150010446
 21
4.5060645795
 31
0.0
 11
5.1131757193
 21
4.5021217504
 31
0.0
 11
5.1098234693
 21
4.4945365819
 31
0.0
 11
5.1068549305
 21
4.4873721557
 31
0.0
 11
5.1042559692
 21
4.4806589662
 31
0.0
 11
5.1030929596
 21
4.4774862532
 31
0.0
 11
5.10202005
 21
4.4744445102
 31
0.0
 11
5.1010365881
 21
4.4715401031
 31
0.0
 11
5.1001422415
 21
4.4687823174
 31
0.0
 11
5.0993370828
 21
4.4661841473
 31
0.0
 11
5.0986212114
 21
4.4637588262
 31
0.0
 11
5.0979947261
 21
4.4615195876
 31
0.0
 11
5.0974575989
 21
4.4594814954
 31
0.0
 11
5.0970091862
 21
4.4576684677
 31
0.0
 11
5.0968179885
 21
4.4568546629
 31
0.0
 11
5.0966486583
 21
4.4561070963
 31
0.0
 11
5.096501092
 21
4.4554290919
 31
0.0
 11
5.0963751842
 21
4.4548239793
 31
0.0
 11
5.0962706267
 21
4.4542957959
 31
0.0
 11
5.0961867139
 21
4.4538499636
 31
0.0
 11
5.0961522644
 21
4.4536596737
 31
0.0
 11
5.0961226943
 21
4.453492065
 31
0.0
 11
5.0960979096
 21
4.4533478354
 31
0.0
 11
5.0960778164
 21
4.4532276827
 31
0.0
 11
5.0960623206
 21
4.4531323047
 31
0.0
 11
5.0960562675
 21
4.4530941243
 31
0.0
 11
5.0960513285
 21
4.4530623993
 31
0.0
 11
5.0960474919
 21
4.4530372168
 31
0.0
 11
5.0960447459
 21
4.4530186642
 31
0.0
 11
5.0960430789
 21
4.4530068287
 31
0.0
 11
5.0960424791
 21
4.4530017974
 31
0.0
  0
SPLINE
  5
3E7
100
AcDbEntity
  8
0
100
AcDbSpline
 62
9
  6
CONTINUOUS
 70
0
 71
3
 72
32
 73
28
 74
26
 42
0.0000001
 43
0.0000001
 44
0.0000000001
 12
0.0814402495
 22
-0.0688389743
 32
0.0
 13
-0.0672164738
 23
-0.0827844446
 33
0.0
 40
0.0
 40
0.0
 40
0.0
 40
0.0
 40
0.0882057281
 40
0.1754670533
 40
0.260958367
 40
0.3439495331
 40
0.4238546398
 40
0.5001154367
 40
0.5367198872
 40
0.5722251999
 40
0.6065737298
 40
0.6397104738
 40
0.6715864917
 40
0.7021673733
 40
0.7314254118
 40
0.759337958
 40
0.7858888575
 40
0.811071155
 40
0.8348978705
 40
0.8573999426
 40
0.8786228781
 40
0.8986304379
 40
0.9353315502
 40
0.9523309483
 40
0.9686376466
 40
0.9844524889
 40
1.0
 40
1.0
 40
1.0
 40
1.0
 10
5.142914854
 20
4.5550358242
 30
0.0
 10
5.1453093529
 20
4.5530118269
 30
0.0
 10
5.1500059685
 20
4.5489057601
 30
0.0
 10
5.1567820926
 20
4.5425687437
 30
0.0
 10
5.1632031425
 20
4.5361310866
 30
0.0
 10
5.169205398
 20
4.5296532363
 30
0.0
 10
5.1747372944
 20
4.5231955053
 30
0.0
 10
5.1789711454
 20
4.5178046714
 30
0.0
 10
5.1820782364
 20
4.5135426514
 30
0.0
 10
5.1842305898
 20
4.5104297568
 30
0.0
 10
5.1862319242
 20
4.5073638415
 30
0.0
 10
5.1880773516
 20
4.5043518645
 30
0.0
 10
5.189762166
 20
4.5014003826
 30
0.0
 10
5.191283151
 20
4.4985161486
 30
0.0
 10
5.192637412
 20
4.4957054845
 30
0.0
 10
5.1938220817
 20
4.4929745963
 30
0.0
 10
5.1948343692
 20
4.4903296416
 30
0.0
 10
5.1956713697
 20
4.4877763456
 30
0.0
 10
5.1963313135
 20
4.4853201471
 30
0.0
 10
5.1968132223
 20
4.4829662824
 30
0.0
 10
5.1971159118
 20
4.4807188316
 30
0.0
 10
5.1972747318
 20
4.4779519194
 30
0.0
 10
5.1970924492
 20
4.4753182244
 30
0.0
 10
5.1965126243
 20
4.4728933736
 30
0.0
 10
5.1959080459
 20
4.4712505336
 30
0.0
 10
5.1951240805
 20
4.4697432455
 30
0.0
 10
5.1944799945
 20
4.4688283989
 30
0.0
 10
5.1941316449
 20
4.4683993682
 30
0.0
 11
5.142914854
 21
4.5550358242
 31
0.0
 11
5.1499957717
 21
4.5488445148
 31
0.0
 11
5.1567901927
 21
4.5424865913
 31
0.0
 11
5.16322503
 21
4.5360287928
 31
0.0
 11
5.16923625
 21
4.5295337506
 31
0.0
 11
5.1747738521
 21
4.523057729
 31
0.0
 11
5.1797894759
 21
4.5166564949
 31
0.0
 11
5.1820878082
 21
4.5135015088
 31
0.0
 11
5.1842398
 21
4.5103863964
 31
0.0
 11
5.1862404489
 21
4.5073182487
 31
0.0
 11
5.1880847531
 21
4.5043041571
 31
0.0
 11
5.1897680582
 21
4.5013510809
 31
0.0
 11
5.1912871018
 21
4.4984654521
 31
0.0
 11
5.1926389693
 21
4.4956535708
 31
0.0
 11
5.1938207461
 21
4.4929217373
 31
0.0
 11
5.1948295175
 21
4.4902762517
 31
0.0
 11
5.1956624641
 21
4.4877233513
 31
0.0
 11
5.1963178705
 21
4.4852685437
 31
0.0
 11
5.196794734
 21
4.4829168652
 31
0.0
 11
5.1970920637
 21
4.4806733446
 31
0.0
 11
5.1972088687
 21
4.4785430105
 31
0.0
 11
5.1968980107
 21
4.4746417016
 31
0.0
 11
5.1964719591
 21
4.4728797259
 31
0.0
 11
5.1958677366
 21
4.4712491909
 31
0.0
 11
5.1950870597
 21
4.4697543279
 31
0.0
 11
5.1941316449
 21
4.4683993682
 31
0.0
  0
SPLINE
  5
3E8
100
AcDbEntity
  8
0
100
AcDbSpline
 62
9
  6
CONTINUOUS
 70
0
 71
3
 72
18
 73
14
 74
12
 42
0.0000001
 43
0.0000001
 44
0.0000000001
 12
0.1736392715
 22
0.1656625933
 32
0.0
 13
0.1773480138
 23
0.1616860334
 33
0.0
 40
0.0
 40
0.0
 40
0.0
 40
0.0
 40
0.1423911371
 40
0.2853155858
 40
0.4258289528
 40
0.5609870454
 40
0.6880147775
 40
0.7478130983
 40
0.8048126484
 40
0.858772199
 40
0.9094506026
 40
0.9566068254
 40
1.0
 40
1.0
 40
1.0
 40
1.0
 10
6.3775154852
 20
4.813930377
 30
0.0
 10
6.3857570497
 20
4.8217933387
 30
0.0
 10
6.4022727396
 20
4.837546938
 30
0.0
 10
6.4269362132
 20
4.8610441771
 30
0.0
 10
6.4512041877
 20
4.8841176873
 30
0.0
 10
6.474584179
 20
4.9062795435
 30
0.0
 10
6.4933166233
 20
4.9239585792
 30
0.0
 10
6.507531862
 20
4.9373144072
 30
0.0
 10
6.5175032521
 20
4.9466506923
 30
0.0
 10
6.526959937
 20
4.9554692371
 30
0.0
 10
6.5358606633
 20
4.9637293375
 30
0.0
 10
6.5441641536
 20
4.9713903126
 30
0.0
 10
6.5495055507
 20
4.9762831468
 30
0.0
 10
6.5520707818
 20
4.9786218369
 30
0.0
 11
6.3775154852
 21
4.813930377
 31
0.0
 11
6.4022442166
 21
4.8375150288
 31
0.0
 11
6.4270798939
 21
4.8611729835
 31
0.0
 11
6.4515206383
 21
4.884406579
 31
0.0
 11
6.4750645709
 21
4.9067181536
 31
0.0
 11
6.497238503
 21
4.9276386519
 31
0.0
 11
6.5076979172
 21
4.9374646384
 31
0.0
 11
6.5176840071
 21
4.9468134461
 31
0.0
 11
6.5271555557
 21
4.9556443225
 31
0.0
 11
6.5360713458
 21
4.9639165148
 31
0.0
 11
6.5443901602
 21
4.9715892705
 31
0.0
 11
6.5520707818
 21
4.9786218369
 31
0.0
  0
SPLINE
  5
3E9
100
AcDbEntity
  8
0
100
AcDbSpline
 62
9
  6
CONTINUOUS
 70
0
 71
3
 72
40
 73
36
 74
34
 42
0.0000001
 43
0.0000001
 44
0.0000000001
 12
0.0797230433
 22
0.0726825317
 32
0.0
 13
0.0504137053
 23
-0.0953780497
 33
0.0
 40
0.0
 40
0.0
 40
0.0
 40
0.0
 40
0.1186268078
 40
0.2301085032
 40
0.3343667726
 40
0.4313234493
 40
0.5209005702
 40
0.6030204584
 40
0.6776058515
 40
0.7445801043
 40
0.7751894264
 40
0.8038676988
 40
0.8306057136
 40
0.8553944269
 40
0.8782250165
 40
0.8990889687
 40
0.9179782103
 40
0.9348853206
 40
0.9498038856
 40
0.962729131
 40
0.9684436686
 40
0.9736595447
 40
0.9783774058
 40
0.9825985742
 40
0.9863254083
 40
0.9895619332
 40
0.9923150158
 40
0.9945967286
 40
0.995567749
 40
0.9964309092
 40
0.9971927471
 40
0.9978628627
 40
0.998984899
 40
0.9994909299
 40
1.0
 40
1.0
 40
1.0
 40
1.0
 10
6.5520707818
 20
4.9786218369
 30
0.0
 10
6.5552232119
 20
4.9814958692
 30
0.0
 10
6.5613453357
 20
4.9870630014
 30
0.0
 10
6.5702646611
 20
4.9951267315
 30
0.0
 10
6.578630087
 20
5.0026410563
 30
0.0
 10
6.5864346272
 20
5.0096009434
 30
0.0
 10
6.5936712907
 20
5.0160013694
 30
0.0
 10
6.6003330666
 20
5.0218373435
 30
0.0
 10
6.6064129545
 20
5.0271038584
 30
0.0
 10
6.6111198194
 20
5.0311261142
 30
0.0
 10
6.6145905922
 20
5.0340535058
 30
0.0
 10
6.6169647858
 20
5.0360367497
 30
0.0
 10
6.6191882984
 20
5.037873821
 30
0.0
 10
6.6212602559
 20
5.039564099
 30
0.0
 10
6.6231797748
 20
5.0411069773
 30
0.0
 10
6.6249459687
 20
5.0425018604
 30
0.0
 10
6.6265579481
 20
5.0437481627
 30
0.0
 10
6.6280148094
 20
5.0448453505
 30
0.0
 10
6.6293156626
 20
5.0457928624
 30
0.0
 10
6.6303056773
 20
5.046483172
 30
0.0
 10
6.6310200746
 20
5.0469581732
 30
0.0
 10
6.6314939668
 20
5.0472616853
 30
0.0
 10
6.6319282202
 20
5.0475273334
 30
0.0
 10
6.6323227378
 20
5.0477550794
 30
0.0
 10
6.63267742
 20
5.0479449052
 30
0.0
 10
6.6329922147
 20
5.0480968728
 30
0.0
 10
6.6332670747
 20
5.0482109905
 30
0.0
 10
6.6334727882
 20
5.0482781039
 30
0.0
 10
6.633617311
 20
5.0483105984
 30
0.0
 10
6.6337097785
 20
5.0483240744
 30
0.0
 10
6.6337924671
 20
5.0483279464
 30
0.0
 10
6.6338840145
 20
5.0483208583
 30
0.0
 10
6.6339654403
 20
5.0482946093
 30
0.0
 10
6.634024843
 20
5.0482445112
 30
0.0
 10
6.6340458613
 20
5.0482140968
 30
0.0
 10
6.634054416
 20
5.0481979121
 30
0.0
 11
6.5520707818
 21
4.9786218369
 31
0.0
 11
6.5615397086
 21
4.9872311524
 31
0.0
 11
6.5704617984
 21
4.9952959975
 31
0.0
 11
6.5788300891
 21
5.002811307
 31
0.0
 11
6.5866376187
 21
5.0097720156
 31
0.0
 11
6.593877425
 21
5.0161730582
 31
0.0
 11
6.6005425461
 21
5.0220093694
 31
0.0
 11
6.6066260199
 21
5.0272758841
 31
0.0
 11
6.6121208844
 21
5.0319675371
 31
0.0
 11
6.6146454125
 21
5.0340962076
 31
0.0
 11
6.6170201774
 21
5.0360792631
 31
0.0
 11
6.619244309
 21
5.0379160707
 31
0.0
 11
6.621316937
 21
5.039605997
 31
0.0
 11
6.623237191
 21
5.041148409
 31
0.0
 11
6.625004201
 21
5.0425426735
 31
0.0
 11
6.6266170965
 21
5.0437881573
 31
0.0
 11
6.6280750074
 21
5.0448842273
 31
0.0
 11
6.6293770634
 21
5.0458302504
 31
0.0
 11
6.6305223942
 21
5.0466255933
 31
0.0
 11
6.6310360157
 21
5.0469665619
 31
0.0
 11
6.6315101296
 21
5.047269623
 31
0.0
 11
6.631944627
 21
5.0475346975
 31
0.0
 11
6.6323393992
 21
5.0477617063
 31
0.0
 11
6.6326943375
 21
5.0479505701
 31
0.0
 11
6.633009333
 21
5.04810121
 31
0.0
 11
6.6332842769
 21
5.0482135466
 31
0.0
 11
6.6335190606
 21
5.0482875009
 31
0.0
 11
6.6336213582
 21
5.04831006
 31
0.0
 11
6.6337135751
 21
5.0483229938
 31
0.0
 11
6.6337956974
 21
5.0483262924
 31
0.0
 11
6.6338677117
 21
5.048319946
 31
0.0
 11
6.6339813616
 21
5.0482782785
 31
0.0
 11
6.63402297
 21
5.0482429376
 31
0.0
 11
6.634054416
 21
5.0481979121
 31
0.0
  0
SPLINE
  5
3EA
100
AcDbEntity
  8
0
100
AcDbSpline
 62
9
  6
CONTINUOUS
 70
0
 71
3
 72
9
 73
5
 74
3
 42
0.0000001
 43
0.0000001
 44
0.0000000001
 12
0.0000199904
 22
-0.0000378199
 32
0.0
 13
0.0000134344
 23
-0.0000406138
 33
0.0
 40
0.0
 40
0.0
 40
0.0
 40
0.0
 40
0.2444307777
 40
1.0
 40
1.0
 40
1.0
 40
1.0
 10
6.634054416
 20
5.0481979121
 30
0.0
 10
6.6340560448
 20
5.0481948307
 30
0.0
 10
6.634062428
 20
5.0481820769
 30
0.0
 10
6.6340676896
 20
5.04816877
 30
0.0
 10
6.6340710732
 20
5.0481585411
 30
0.0
 11
6.634054416
 21
5.0481979121
 31
0.0
 11
6.6340590983
 21
5.0481885628
 31
0.0
 11
6.6340710732
 21
5.0481585411
 31
0.0
  0
SPLINE
  5
3EB
100
AcDbEntity
  8
0
100
AcDbSpline
 62
9
  6
CONTINUOUS
 70
0
 71
3
 72
50
 73
46
 74
44
 42
0.0000001
 43
0.0000001
 44
0.0000000001
 12
-0.1127893457
 22
0.0051967285
 32
0.0
 13
-0.0926163254
 23
-0.0645806376
 33
0.0
 40
0.0
 40
0.0
 40
0.0
 40
0.0
 40
0.0000463046
 40
0.000153217
 40
0.0003200556
 40
0.0005461027
 40
0.0008306352
 40
0.0011729288
 40
0.0020279008
 40
0.0031052273
 40
0.0043991238
 40
0.005903815
 40
0.0076135362
 40
0.0095225335
 40
0.0116250648
 40
0.0163878125
 40
0.0218573198
 40
0.0279997546
 40
0.0347867242
 40
0.0421899404
 40
0.0501811887
 40
0.0587323393
 40
0.0774021791
 40
0.0979993639
 40
0.1203994154
 40
0.1444934347
 40
0.1701729169
 40
0.197332128
 40
0.2258989146
 40
0.2558265902
 40
0.3195806438
 40
0.3882617432
 40
0.4617084587
 40
0.5001897443
 40
0.5398294167
 40
0.5806260637
 40
0.6225811463
 40
0.6656971977
 40
0.7099775911
 40
0.7554247219
 40
0.8020420678
 40
0.8498359026
 40
0.8987991005
 40
0.9488743587
 40
1.0
 40
1.0
 40
1.0
 40
1.0
 10
5.2909130002
 20
4.6478734285
 30
0.0
 10
5.2909112593
 20
4.6478735087
 30
0.0
 10
5.2909055196
 20
4.6478725642
 30
0.0
 10
5.2908935879
 20
4.647871204
 30
0.0
 10
5.2908749671
 20
4.6478683858
 30
0.0
 10
5.290849758
 20
4.6478646372
 30
0.0
 10
5.2908180387
 20
4.6478596905
 30
0.0
 10
5.2907629611
 20
4.6478509438
 30
0.0
 10
5.2906784805
 20
4.6478370899
 30
0.0
 10
5.2905587564
 20
4.6478168552
 30
0.0
 10
5.2904150355
 20
4.6477918735
 30
0.0
 10
5.2902479964
 20
4.647762072
 30
0.0
 10
5.2900583177
 20
4.6477273699
 30
0.0
 10
5.2898466776
 20
4.6476876905
 30
0.0
 10
5.2895223727
 20
4.6476254021
 30
0.0
 10
5.289067081
 20
4.6475346755
 30
0.0
 10
5.2884638188
 20
4.6474086196
 30
0.0
 10
5.2877872357
 20
4.6472611147
 30
0.0
 10
5.2870408843
 20
4.6470920818
 30
0.0
 10
5.2862281282
 20
4.6469013498
 30
0.0
 10
5.2853523246
 20
4.6466887679
 30
0.0
 10
5.2840668549
 20
4.6463664191
 30
0.0
 10
5.2823263817
 20
4.6459082023
 30
0.0
 10
5.2800912749
 20
4.6452826059
 30
0.0
 10
5.2776694965
 20
4.6445675065
 30
0.0
 10
5.2750749119
 20
4.6437630749
 30
0.0
 10
5.2723207063
 20
4.6428694611
 30
0.0
 10
5.2694188864
 20
4.6418861769
 30
0.0
 10
5.2663789637
 20
4.640813049
 30
0.0
 10
5.2620593522
 20
4.6392284634
 30
0.0
 10
5.2563612822
 20
4.6370192059
 30
0.0
 10
5.2492030953
 20
4.6340507161
 30
0.0
 10
5.242985695
 20
4.6313014223
 30
0.0
 10
5.237808924
 20
4.6289049747
 30
0.0
 10
5.2337695468
 20
4.6269773799
 30
0.0
 10
5.2296364542
 20
4.6249433737
 30
0.0
 10
5.2254123111
 20
4.6227988698
 30
0.0
 10
5.2210998024
 20
4.6205396474
 30
0.0
 10
5.2167014385
 20
4.6181619731
 30
0.0
 10
5.2122215059
 20
4.6156590661
 30
0.0
 10
5.2076651002
 20
4.6130230661
 30
0.0
 10
5.2030376931
 20
4.6102468489
 30
0.0
 10
5.1983471787
 20
4.60732425
 30
0.0
 10
5.1936079972
 20
4.6042444658
 30
0.0
 10
5.1904585779
 20
4.6021017567
 30
0.0
 10
5.1888802216
 20
4.6010011812
 30
0.0
 11
5.2909130002
 21
4.6478734285
 31
0.0
 11
5.2909077926
 21
4.6478729646
 31
0.0
 11
5.2908958229
 21
4.6478714007
 31
0.0
 11
5.2908771761
 21
4.6478687271
 31
0.0
 11
5.2908519367
 21
4.6478649342
 31
0.0
 11
5.2908201897
 21
4.6478600123
 31
0.0
 11
5.2907820198
 21
4.6478539516
 31
0.0
 11
5.2906867507
 21
4.6478383756
 31
0.0
 11
5.2905668077
 21
4.6478181287
 31
0.0
 11
5.2904228693
 21
4.6477931335
 31
0.0
 11
5.2902556138
 21
4.6477633126
 31
0.0
 11
5.2900657195
 21
4.6477285887
 31
0.0
 11
5.289853865
 21
4.6476888842
 31
0.0
 11
5.2896207286
 21
4.6476441218
 31
0.0
 11
5.2890933237
 21
4.6475391138
 31
0.0
 11
5.2884887858
 21
4.6474129785
 31
0.0
 11
5.2878111295
 21
4.6472654172
 31
0.0
 11
5.2870637186
 21
4.6470962786
 31
0.0
 11
5.2862499115
 21
4.6469054129
 31
0.0
 11
5.2853730668
 21
4.6466926701
 31
0.0
 11
5.2844365429
 21
4.6464579003
 31
0.0
 11
5.2823978908
 21
4.64592168
 31
0.0
 11
5.2801580792
 21
4.6452958253
 31
0.0
 11
5.2777322355
 21
4.6445803041
 31
0.0
 11
5.2751336466
 21
4.6437752676
 31
0.0
 11
5.272375599
 21
4.6428808666
 31
0.0
 11
5.2694711216
 21
4.6418972244
 31
0.0
 11
5.2664294418
 21
4.6408240539
 31
0.0
 11
5.2632568909
 21
4.6396607551
 31
0.0
 11
5.2565442083
 21
4.6370613421
 31
0.0
 11
5.2493801984
 21
4.634092747
 31
0.0
 11
5.2417950251
 21
4.6307407924
 31
0.0
 11
5.2378520329
 21
4.6289157377
 31
0.0
 11
5.2338127224
 21
4.626988137
 31
0.0
 11
5.2296797837
 21
4.6249542006
 31
0.0
 11
5.2254558402
 21
4.6228097941
 31
0.0
 11
5.2211435154
 21
4.620550783
 31
0.0
 11
5.2167455749
 21
4.6181728282
 31
0.0
 11
5.2122662072
 21
4.6156695444
 31
0.0
 11
5.2077104201
 21
4.6130333681
 31
0.0
 11
5.2030832317
 21
4.6102567216
 31
0.0
 11
5.1983920152
 21
4.6073317368
 31
0.0
 11
5.1936520384
 21
4.6042495718
 31
0.0
 11
5.1888802216
 21
4.6010011812
 31
0.0
  0
SPLINE
  5
3EC
100
AcDbEntity
  8
0
100
AcDbSpline
 62
9
  6
CONTINUOUS
 70
0
 71
3
 72
30
 73
26
 74
24
 42
0.0000001
 43
0.0000001
 44
0.0000000001
 12
0.1054158837
 22
-0.1527198124
 32
0.0
 13
-0.1239887708
 23
-0.1380674993
 33
0.0
 40
0.0
 40
0.0
 40
0.0
 40
0.0
 40
0.0663032674
 40
0.131637183
 40
0.1958898986
 40
0.2589940897
 40
0.3209359053
 40
0.3817650806
 40
0.4416057875
 40
0.5006673422
 40
0.5300053639
 40
0.5592717237
 40
0.5885203274
 40
0.6178105996
 40
0.6472072706
 40
0.6767800544
 40
0.706603219
 40
0.736755062
 40
0.767317307
 40
0.7983744442
 40
0.8300130412
 40
0.8623210515
 40
0.8953871483
 40
0.9293001045
 40
1.0
 40
1.0
 40
1.0
 40
1.0
 10
6.3775154852
 20
4.813930377
 30
0.0
 10
6.3798452911
 20
4.8105551028
 30
0.0
 10
6.3843260601
 20
4.8037522631
 30
0.0
 10
6.3905006673
 20
4.7933207797
 30
0.0
 10
6.3960244723
 20
4.7827519313
 30
0.0
 10
6.4008366121
 20
4.7720690813
 30
0.0
 10
6.4048761159
 20
4.7612951325
 30
0.0
 10
6.4080814547
 20
4.7504526833
 30
0.0
 10
6.4103904739
 20
4.7395652423
 30
0.0
 10
6.4115177293
 20
4.7304515362
 30
0.0
 10
6.4119042284
 20
4.7231810883
 30
0.0
 10
6.4119319519
 20
4.7177446695
 30
0.0
 10
6.4116912091
 20
4.7123164481
 30
0.0
 10
6.4111752292
 20
4.7068992155
 30
0.0
 10
6.4103772114
 20
4.7014959366
 30
0.0
 10
6.409290382
 20
4.696109554
 30
0.0
 10
6.4079079862
 20
4.6907430353
 30
0.0
 10
6.4062232954
 20
4.6853993539
 30
0.0
 10
6.4042296063
 20
4.6800814851
 30
0.0
 10
6.4019202465
 20
4.6747924027
 30
0.0
 10
6.3992885523
 20
4.6695350526
 30
0.0
 10
6.3963279372
 20
4.664312428
 30
0.0
 10
6.393031608
 20
4.6591272534
 30
0.0
 10
6.3881127605
 20
4.6521720489
 30
0.0
 10
6.3839939355
 20
4.6471651785
 30
0.0
 10
6.3810719378
 20
4.6439113926
 30
0.0
 11
6.3775154852
 21
4.813930377
 31
0.0
 11
6.3842749659
 21
4.8036496348
 31
0.0
 11
6.3904407339
 21
4.7932106005
 31
0.0
 11
6.3959521807
 21
4.7826375541
 31
0.0
 11
6.400748698
 21
4.7719547754
 31
0.0
 11
6.4047696774
 21
4.7611865445
 31
0.0
 11
6.4079545106
 21
4.7503571412
 31
0.0
 11
6.4102425891
 21
4.7394908456
 31
0.0
 11
6.4115733047
 21
4.7286119374
 31
0.0
 11
6.4118608561
 21
4.7231753096
 31
0.0
 11
6.4118872052
 21
4.7177444447
 31
0.0
 11
6.4116456414
 21
4.7123221891
 31
0.0
 11
6.4111294543
 21
4.7069113891
 31
0.0
 11
6.4103319331
 21
4.7015148911
 31
0.0
 11
6.4092463675
 21
4.6961355414
 31
0.0
 11
6.4078660467
 21
4.6907761862
 31
0.0
 11
6.4061842603
 21
4.6854396721
 31
0.0
 11
6.4041942977
 21
4.6801288451
 31
0.0
 11
6.4018894483
 21
4.6748465519
 31
0.0
 11
6.3992630015
 21
4.6695956385
 31
0.0
 11
6.3963082468
 21
4.6643789514
 31
0.0
 11
6.3930184737
 21
4.659199337
 31
0.0
 11
6.3893869715
 21
4.6540596415
 31
0.0
 11
6.3810719378
 21
4.6439113926
 31
0.0
  0
SPLINE
  5
3ED
100
AcDbEntity
  8
0
100
AcDbSpline
 62
9
  6
CONTINUOUS
 70
0
 71
3
 72
50
 73
46
 74
44
 42
0.0000001
 43
0.0000001
 44
0.0000000001
 12
-0.112728439
 22
-0.0063874868
 32
0.0
 13
-0.0926135681
 23
0.0645850442
 33
0.0
 40
0.0
 40
0.0
 40
0.0
 40
0.0
 40
0.0000470516
 40
0.0001545509
 40
0.0003218363
 40
0.0005482026
 40
0.0008329383
 40
0.0011753301
 40
0.0020302272
 40
0.0031071889
 40
0.0044005162
 40
0.005904519
 40
0.0076135171
 40
0.0095218413
 40
0.0116238335
 40
0.0163862392
 40
0.0218563469
 40
0.0279990005
 40
0.0347860327
 40
0.0421895075
 40
0.050181559
 40
0.058734403
 40
0.0774116603
 40
0.0980151599
 40
0.1204149694
 40
0.1445064391
 40
0.1701852588
 40
0.1973480965
 40
0.2259156757
 40
0.2558416877
 40
0.3195936451
 40
0.3882777276
 40
0.4617228717
 40
0.500203523
 40
0.5398429225
 40
0.5806387778
 40
0.6225925887
 40
0.6657069637
 40
0.7099854565
 40
0.7554307147
 40
0.8020461205
 40
0.8498378519
 40
0.8987996935
 40
0.9488745553
 40
1.0
 40
1.0
 40
1.0
 40
1.0
 10
5.2909133174
 20
3.5860992664
 30
0.0
 10
5.2909115494
 20
3.5860991662
 30
0.0
 10
5.2909057527
 20
3.5861000975
 30
0.0
 10
5.2908937543
 20
3.5861014369
 30
0.0
 10
5.2908750774
 20
3.5861042367
 30
0.0
 10
5.2908498293
 20
3.586107966
 30
0.0
 10
5.2908180831
 20
3.5861128942
 30
0.0
 10
5.2907629925
 20
3.5861216136
 30
0.0
 10
5.2906785197
 20
3.5861354374
 30
0.0
 10
5.2905588283
 20
3.5861556398
 30
0.0
 10
5.2904151634
 20
3.5861805892
 30
0.0
 10
5.2902481937
 20
3.5862103573
 30
0.0
 10
5.2900585879
 20
3.586245024
 30
0.0
 10
5.2898470142
 20
3.586284665
 30
0.0
 10
5.2895227576
 20
3.5863468987
 30
0.0
 10
5.2890674588
 20
3.5864375404
 30
0.0
 10
5.2884641466
 20
3.5865634518
 30
0.0
 10
5.2877875116
 20
3.5867108833
 30
0.0
 10
5.2870411253
 20
3.5868798622
 30
0.0
 10
5.2862283165
 20
3.5870705632
 30
0.0
 10
5.2853523995
 20
3.5872831263
 30
0.0
 10
5.2840665467
 20
3.5876054934
 30
0.0
 10
5.2823254402
 20
3.5880635987
 30
0.0
 10
5.2800897822
 20
3.5886891368
 30
0.0
 10
5.2776679401
 20
3.5894045146
 30
0.0
 10
5.2750735854
 20
3.5902092694
 30
0.0
 10
5.2723194731
 20
3.59110324
 30
0.0
 10
5.2694175378
 20
3.5920866436
 30
0.0
 10
5.2663775325
 20
3.5931598716
 30
0.0
 10
5.2620580399
 20
3.5947444876
 30
0.0
 10
5.2563600159
 20
3.5969538195
 30
0.0
 10
5.2492017889
 20
3.5999221869
 30
0.0
 10
5.2429842834
 20
3.602671358
 30
0.0
 10
5.2378076378
 20
3.6050678871
 30
0.0
 10
5.2337683695
 20
3.6069955848
 30
0.0
 10
5.2296353526
 20
3.609029569
 30
0.0
 10
5.2254113386
 20
3.6111740406
 30
0.0
 10
5.2210990324
 20
3.6134332817
 30
0.0
 10
5.2167009578
 20
3.6158110835
 30
0.0
 10
5.2122212129
 20
3.6183139074
 30
0.0
 10
5.2076649518
 20
3.6209497368
 30
0.0
 10
5.2030376584
 20
3.6237257718
 30
0.0
 10
5.1983471586
 20
3.6266481429
 30
0.0
 10
5.1936079306
 20
3.6297277458
 30
0.0
 10
5.1904585421
 20
3.6318704795
 30
0.0
 10
5.1888802388
 20
3.6329711259
 30
0.0
 11
5.2909133174
 21
3.5860992664
 31
0.0
 11
5.2909080231
 21
3.5860997066
 31
0.0
 11
5.2908959837
 21
3.586101248
 31
0.0
 11
5.2908772828
 21
3.5861039003
 31
0.0
 11
5.2908520039
 21
3.5861076729
 31
0.0
 11
5.2908202306
 21
3.5861125754
 31
0.0
 11
5.2907820464
 21
3.5861186174
 31
0.0
 11
5.2906867799
 21
3.5861341578
 31
0.0
 11
5.2905668726
 21
3.5861543705
 31
0.0
 11
5.2904229932
 21
3.5861793318
 31
0.0
 11
5.29025581
 21
3.5862091181
 31
0.0
 11
5.2900659917
 21
3.5862438056
 31
0.0
 11
5.2898542066
 21
3.5862834706
 31
0.0
 11
5.2896211233
 21
3.5863281896
 31
0.0
 11
5.289093736
 21
3.5864330946
 31
0.0
 11
5.2884891032
 21
3.586559114
 31
0.0
 11
5.2878114013
 21
3.5867065893
 31
0.0
 11
5.2870639679
 21
3.5868756688
 31
0.0
 11
5.28625012
 21
3.5870664966
 31
0.0
 11
5.2853731742
 21
3.5872792162
 31
0.0
 11
5.2844364473
 21
3.5875139716
 31
0.0
 11
5.282396917
 21
3.5880501642
 31
0.0
 11
5.2801563706
 21
3.5886760587
 31
0.0
 11
5.2777305999
 21
3.589391751
 31
0.0
 11
5.2751323846
 21
3.5901970418
 31
0.0
 11
5.2723745023
 21
3.5910917315
 31
0.0
 11
5.2694696714
 21
3.5920756282
 31
0.0
 11
5.2664279225
 21
3.5931488941
 31
0.0
 11
5.2632555593
 21
3.5943121816
 31
0.0
 11
5.2565431059
 21
3.5969115769
 31
0.0
 11
5.249378732
 21
3.5998802197
 31
0.0
 11
5.2417936642
 21
3.6032320212
 31
0.0
 11
5.2378507617
 21
3.605057123
 31
0.0
 11
5.2338115181
 21
3.6069848161
 31
0.0
 11
5.229678667
 21
3.609018752
 31
0.0
 11
5.22545486
 21
3.6111631341
 31
0.0
 11
5.2211427481
 21
3.6134221678
 31
0.0
 11
5.216745076
 21
3.615800192
 31
0.0
 11
5.212265904
 21
3.6183034166
 31
0.0
 11
5.2077102647
 21
3.6209394351
 31
0.0
 11
5.2030832138
 21
3.6237158731
 31
0.0
 11
5.1983920267
 21
3.6266406397
 31
0.0
 11
5.1936519996
 21
3.629722669
 31
0.0
 11
5.1888802388
 21
3.6329711259
 31
0.0
  0
SPLINE
  5
3EE
100
AcDbEntity
  8
0
100
AcDbSpline
 62
9
  6
CONTINUOUS
 70
0
 71
3
 72
24
 73
20
 74
18
 42
0.0000001
 43
0.0000001
 44
0.0000000001
 12
0.118187823
 22
-0.2597714876
 32
0.0
 13
-0.1898676602
 23
-0.2130724264
 33
0.0
 40
0.0
 40
0.0
 40
0.0
 40
0.0
 40
0.0531300887
 40
0.1065385913
 40
0.1603695696
 40
0.2147907287
 40
0.2699934784
 40
0.3261922342
 40
0.3836229543
 40
0.4425409794
 40
0.5032180578
 40
0.5659328023
 40
0.6309606817
 40
0.6985716266
 40
0.7334329167
 40
0.7690379093
 40
0.8425966001
 40
0.9195042322
 40
1.0
 40
1.0
 40
1.0
 40
1.0
 10
6.5520707818
 20
4.9786218369
 30
0.0
 10
6.5541638917
 20
4.9740212762
 30
0.0
 10
6.5580187393
 20
4.9646356561
 30
0.0
 10
6.5627308296
 20
4.9501104113
 30
0.0
 10
6.5663344606
 20
4.9351433461
 30
0.0
 10
6.5687784399
 20
4.9197705814
 30
0.0
 10
6.570012196
 20
4.9040272071
 30
0.0
 10
6.5699851184
 20
4.8879489064
 30
0.0
 10
6.568646868
 20
4.8715714935
 30
0.0
 10
6.5659472802
 20
4.8549308722
 30
0.0
 10
6.5618369884
 20
4.8380639634
 30
0.0
 10
6.5562851705
 20
4.8210034977
 30
0.0
 10
6.5492609709
 20
4.8037812522
 30
0.0
 10
6.5422273023
 20
4.7894684981
 30
0.0
 10
6.5358607494
 20
4.7779768935
 30
0.0
 10
6.5288364493
 20
4.7662107481
 30
0.0
 10
6.5190418885
 20
4.7514515457
 30
0.0
 10
6.5058169717
 20
4.7338913901
 30
0.0
 10
6.4961433594
 20
4.7224498972
 30
0.0
 10
6.491048845
 20
4.7167327544
 30
0.0
 11
6.5520707818
 21
4.9786218369
 31
0.0
 11
6.5578284968
 21
4.9645945375
 31
0.0
 11
6.5625297926
 21
4.9500952213
 31
0.0
 11
6.5661248403
 21
4.9351587509
 31
0.0
 11
6.5685638105
 21
4.919819989
 31
0.0
 11
6.5697968743
 21
4.9041137982
 31
0.0
 11
6.5697742024
 21
4.8880750411
 31
0.0
 11
6.5684459656
 21
4.8717385803
 31
0.0
 11
6.5657623349
 21
4.8551392784
 31
0.0
 11
6.5616764672
 21
4.8383113472
 31
0.0
 11
6.556153467
 21
4.821286394
 31
0.0
 11
6.5491614264
 21
4.8040953749
 31
0.0
 11
6.5406684377
 21
4.786769246
 31
0.0
 11
6.5358491166
 21
4.7780651891
 31
0.0
 11
6.530642593
 21
4.7693389634
 31
0.0
 11
6.5190519846
 21
4.7518354832
 31
0.0
 11
6.5058647045
 21
4.7342897615
 31
0.0
 11
6.491048845
 21
4.7167327544
 31
0.0
  0
SPLINE
  5
3EF
100
AcDbEntity
  8
0
100
AcDbSpline
 62
6
  6
CONTINUOUS
 70
0
 71
3
 72
17
 73
13
 74
11
 42
0.0000001
 43
0.0000001
 44
0.0000000001
 12
-0.1420063869
 22
0.0175088934
 32
0.0
 13
-0.1153212361
 23
0.0846958546
 33
0.0
 40
0.0
 40
0.0
 40
0.0
 40
0.0
 40
0.1250036246
 40
0.1875111658
 40
0.2500177167
 40
0.3125248904
 40
0.3750332702
 40
0.5000329903
 40
0.6250146867
 40
0.7499848688
 40
0.8749752069
 40
1.0
 40
1.0
 40
1.0
 40
1.0
 10
6.4369655401
 20
3.0983338791
 30
0.0
 10
6.4310484357
 20
3.0990634375
 30
0.0
 10
6.4222040039
 20
3.1004424475
 30
0.0
 10
6.4105235048
 20
3.1028485342
 30
0.0
 10
6.4018255764
 20
3.1049377683
 30
0.0
 10
6.3932003206
 20
3.1073089887
 30
0.0
 10
6.3818089083
 20
3.1108392724
 30
0.0
 10
6.3677908898
 20
3.1159332158
 30
0.0
 10
6.3513927684
 20
3.123096485
 30
0.0
 10
6.3354786667
 20
3.1312791958
 30
0.0
 10
6.3201118273
 20
3.1404509622
 30
0.0
 10
6.3102729265
 20
3.147204479
 30
0.0
 10
6.305466922
 20
3.1507341729
 30
0.0
 11
6.4369655401
 21
3.0983338791
 31
0.0
 11
6.4192936209
 21
3.1010911762
 31
0.0
 11
6.4105339285
 21
3.1028959765
 31
0.0
 11
6.4018377237
 21
3.1049847567
 31
0.0
 11
6.3932139111
 21
3.10735508
 31
0.0
 11
6.3846708574
 21
3.1100023229
 31
0.0
 11
6.3678604084
 21
3.1161087323
 31
0.0
 11
6.3514728708
 21
3.1232666509
 31
0.0
 11
6.3355710118
 21
3.1314433956
 31
0.0
 11
6.3202148813
 21
3.1406096746
 31
0.0
 11
6.305466922
 21
3.1507341729
 31
0.0
  0
SPLINE
  5
3F0
100
AcDbEntity
  8
0
100
AcDbSpline
 62
9
  6
CONTINUOUS
 70
0
 71
3
 72
32
 73
28
 74
26
 42
0.0000001
 43
0.0000001
 44
0.0000000001
 12
0.0672179892
 22
-0.0827813139
 32
0.0
 13
-0.0814390968
 23
-0.0688380529
 33
0.0
 40
0.0
 40
0.0
 40
0.0
 40
0.0
 40
0.0155475204
 40
0.0313623173
 40
0.0476689203
 40
0.0646681801
 40
0.1013689197
 40
0.1213762625
 40
0.1425989703
 40
0.1651008108
 40
0.1889272972
 40
0.2141093744
 40
0.2406600671
 40
0.2685724243
 40
0.2978302962
 40
0.328411038
 40
0.3602869466
 40
0.3934236151
 40
0.4277721037
 40
0.4632774102
 40
0.4998818905
 40
0.5761428571
 40
0.6560482753
 40
0.7390398772
 40
0.8245317298
 40
0.9117936563
 40
1.0
 40
1.0
 40
1.0
 40
1.0
 10
5.1941302928
 20
3.7655718607
 30
0.0
 10
5.1944786504
 20
3.765142846
 30
0.0
 10
5.1951227542
 20
3.7642280325
 30
0.0
 10
5.1959067513
 20
3.7627207926
 30
0.0
 10
5.1965113646
 20
3.7610780017
 30
0.0
 10
5.1970912408
 20
3.7586532207
 30
0.0
 10
5.1972735803
 20
3.7560195914
 30
0.0
 10
5.1971148198
 20
3.7532527432
 30
0.0
 10
5.1968121784
 20
3.7510053418
 30
0.0
 10
5.1963303196
 20
3.7486515257
 30
0.0
 10
5.1956704273
 20
3.7461953748
 30
0.0
 10
5.1948334793
 20
3.7436421252
 30
0.0
 10
5.1938212451
 20
3.7409972154
 30
0.0
 10
5.1926366292
 20
3.7382663705
 30
0.0
 10
5.1912824221
 20
3.7354557479
 30
0.0
 10
5.1897614904
 20
3.7325715534
 30
0.0
 10
5.1880767288
 20
3.7296201089
 30
0.0
 10
5.186231353
 20
3.7266081669
 30
0.0
 10
5.1842300691
 20
3.7235422844
 30
0.0
 10
5.1820777646
 20
3.7204294203
 30
0.0
 10
5.1789707359
 20
3.7161674367
 30
0.0
 10
5.1747369574
 20
3.7107766431
 30
0.0
 10
5.1692051406
 20
3.7043189558
 30
0.0
 10
5.1632029564
 20
3.6978411435
 30
0.0
 10
5.1567819706
 20
3.691403521
 30
0.0
 10
5.1500059047
 20
3.6850665387
 30
0.0
 10
5.1453093249
 20
3.6809604962
 30
0.0
 10
5.1429148432
 20
3.6789365119
 30
0.0
 11
5.1941302928
 21
3.7655718607
 31
0.0
 11
5.1950857352
 21
3.7642169474
 31
0.0
 11
5.1958664431
 21
3.7627221324
 31
0.0
 11
5.1964706997
 21
3.7610916465
 31
0.0
 11
5.1968967886
 21
3.7593297208
 31
0.0
 11
5.1972077299
 21
3.7554285127
 31
0.0
 11
5.1970909707
 21
3.7532982288
 31
0.0
 11
5.1967936891
 21
3.7510547579
 31
0.0
 11
5.1963168756
 21
3.7487031284
 31
0.0
 11
5.1956615207
 21
3.7462483686
 31
0.0
 11
5.1948286268
 21
3.7436955149
 31
0.0
 11
5.1938199088
 21
3.7410500744
 31
0.0
 11
5.1926381859
 21
3.7383182844
 31
0.0
 11
5.1912863724
 21
3.7355064448
 31
0.0
 11
5.1897673823
 21
3.7326208556
 31
0.0
 11
5.18808413
 21
3.7296678168
 31
0.0
 11
5.1862398777
 21
3.7266537603
 31
0.0
 11
5.1842392792
 21
3.7235856455
 31
0.0
 11
5.1820873365
 21
3.7204705636
 31
0.0
 11
5.1797890515
 21
3.717315606
 31
0.0
 11
5.1747735161
 21
3.7109144225
 31
0.0
 11
5.1692359937
 21
3.7044384442
 31
0.0
 11
5.1632248449
 21
3.6979434395
 31
0.0
 11
5.156790071
 21
3.6914856748
 31
0.0
 11
5.1499957073
 21
3.6851277847
 31
0.0
 11
5.1429148432
 21
3.6789365119
 31
0.0
  0
SPLINE
  5
3F1
100
AcDbEntity
  8
0
100
AcDbSpline
 62
9
  6
CONTINUOUS
 70
0
 71
3
 72
50
 73
46
 74
44
 42
0.0000001
 43
0.0000001
 44
0.0000000001
 12
-0.0646099547
 22
0.0925944814
 32
0.0
 13
0.0055330153
 23
0.112772204
 33
0.0
 40
0.0
 40
0.0
 40
0.0
 40
0.0
 40
0.0511251497
 40
0.1011993262
 40
0.1501590063
 40
0.197948029
 40
0.2445618742
 40
0.2900062879
 40
0.3342843258
 40
0.3773987935
 40
0.4193532321
 40
0.4601501185
 40
0.499790725
 40
0.5382718397
 40
0.6117172078
 40
0.6804043974
 40
0.7441551983
 40
0.7740811033
 40
0.8026512632
 40
0.8298186866
 40
0.8554990164
 40
0.8795904182
 40
0.9019905182
 40
0.922596445
 40
0.9412726068
 40
0.9498231852
 40
0.9578126302
 40
0.965213766
 40
0.9719993402
 40
0.9781420348
 40
0.9836140202
 40
0.9883784998
 40
0.9904813839
 40
0.992390452
 40
0.9941000078
 40
0.9956043437
 40
0.9968977417
 40
0.9979744738
 40
0.9988288031
 40
0.9991707723
 40
0.9994549865
 40
0.9996807274
 40
0.9998472781
 40
0.9999539272
 40
1.0
 40
1.0
 40
1.0
 40
1.0
 10
5.1429148432
 20
3.6789365119
 30
0.0
 10
5.1418137787
 20
3.6805144808
 30
0.0
 10
5.1396708292
 20
3.683663634
 30
0.0
 10
5.1365919935
 20
3.6884031402
 30
0.0
 10
5.1336705283
 20
3.6930938739
 30
0.0
 10
5.130894808
 20
3.697720992
 30
0.0
 10
5.1282589908
 20
3.702276961
 30
0.0
 10
5.1257559107
 20
3.7067563647
 30
0.0
 10
5.1233776707
 20
3.7111540808
 30
0.0
 10
5.1211182909
 20
3.7154662591
 30
0.0
 10
5.1189738208
 20
3.7196902824
 30
0.0
 10
5.1169398961
 20
3.7238233848
 30
0.0
 10
5.1150121554
 20
3.7278626833
 30
0.0
 10
5.1126156547
 20
3.7330393433
 30
0.0
 10
5.1098666338
 20
3.7392569788
 30
0.0
 10
5.1068981727
 20
3.7464151472
 30
0.0
 10
5.1046885075
 20
3.7521130352
 30
0.0
 10
5.1031038056
 20
3.756432489
 30
0.0
 10
5.1020305726
 20
3.7594727327
 30
0.0
 10
5.1010473102
 20
3.7623750207
 30
0.0
 10
5.1001534736
 20
3.7651293772
 30
0.0
 10
5.0993489383
 20
3.767723833
 30
0.0
 10
5.0986337699
 20
3.770145809
 30
0.0
 10
5.0980085885
 20
3.7723815999
 30
0.0
 10
5.0975505297
 20
3.7741226573
 30
0.0
 10
5.0972280825
 20
3.7754082412
 30
0.0
 10
5.0970154493
 20
3.7762838503
 30
0.0
 10
5.0968246528
 20
3.7770963785
 30
0.0
 10
5.096655564
 20
3.7778425852
 30
0.0
 10
5.0965080101
 20
3.7785192026
 30
0.0
 10
5.0963820149
 20
3.779122643
 30
0.0
 10
5.0962912403
 20
3.7795780951
 30
0.0
 10
5.0962288775
 20
3.7799024649
 30
0.0
 10
5.0961891387
 20
3.7801141014
 30
0.0
 10
5.0961543716
 20
3.780303749
 30
0.0
 10
5.0961245032
 20
3.7804707354
 30
0.0
 10
5.0960994561
 20
3.780614388
 30
0.0
 10
5.0960791615
 20
3.7807340345
 30
0.0
 10
5.0960652612
 20
3.780818447
 30
0.0
 10
5.0960564836
 20
3.7808734701
 30
0.0
 10
5.0960515187
 20
3.7809051503
 30
0.0
 10
5.0960477581
 20
3.7809303222
 30
0.0
 10
5.0960449271
 20
3.7809489092
 30
0.0
 10
5.0960435694
 20
3.7809608099
 30
0.0
 10
5.0960426161
 20
3.7809665313
 30
0.0
 10
5.0960427011
 20
3.7809682633
 30
0.0
 11
5.1429148432
 21
3.6789365119
 31
0.0
 11
5.1396659228
 21
3.6837078301
 31
0.0
 11
5.136584484
 21
3.688448065
 31
0.0
 11
5.1336605231
 21
3.6931393859
 31
0.0
 11
5.1308844826
 21
3.6977662405
 31
0.0
 11
5.1282484731
 21
3.7023216058
 31
0.0
 11
5.1257449958
 21
3.7068004544
 31
0.0
 11
5.1233666168
 21
3.7111978056
 31
0.0
 11
5.1211074205
 21
3.7155097759
 31
0.0
 11
5.1189630244
 21
3.7197335892
 31
0.0
 11
5.1169291135
 21
3.7238665186
 31
0.0
 11
5.1150013871
 21
3.7279058358
 31
0.0
 11
5.1131763109
 21
3.7318487483
 31
0.0
 11
5.1098246603
 21
3.7394337978
 31
0.0
 11
5.1068558126
 21
3.7465983623
 31
0.0
 11
5.1042562088
 21
3.753310499
 31
0.0
 11
5.1030928853
 21
3.7564827915
 31
0.0
 11
5.102019614
 21
3.7595248049
 31
0.0
 11
5.1010357653
 21
3.7624301586
 31
0.0
 11
5.1001412412
 21
3.7651882359
 31
0.0
 11
5.0993361871
 21
3.7677864812
 31
0.0
 11
5.0986207499
 21
3.7702123286
 31
0.0
 11
5.0979950743
 21
3.7724531907
 31
0.0
 11
5.0974589456
 21
3.7744925828
 31
0.0
 11
5.097224159
 21
3.7754290258
 31
0.0
 11
5.0970113764
 21
3.7763056419
 31
0.0
 11
5.0968204618
 21
3.7771191876
 31
0.0
 11
5.0966512793
 21
3.7778664191
 31
0.0
 11
5.096503693
 21
3.7785440928
 31
0.0
 11
5.096377555
 21
3.7791489095
 31
0.0
 11
5.0962724893
 21
3.7796764968
 31
0.0
 11
5.0962276769
 21
3.7799096617
 31
0.0
 11
5.0961879131
 21
3.780121511
 31
0.0
 11
5.0961531242
 21
3.7803113724
 31
0.0
 11
5.0961232364
 21
3.7804785734
 31
0.0
 11
5.0960981759
 21
3.7806224419
 31
0.0
 11
5.0960778689
 21
3.7807423054
 31
0.0
 11
5.0960622417
 21
3.7808374916
 31
0.0
 11
5.09605616
 21
3.7808756206
 31
0.0
 11
5.0960512205
 21
3.7809073282
 31
0.0
 11
5.0960474141
 21
3.7809325303
 31
0.0
 11
5.0960447316
 21
3.7809511429
 31
0.0
 11
5.0960431636
 21
3.7809630819
 31
0.0
 11
5.0960427011
 21
3.7809682633
 31
0.0
  0
SPLINE
  5
3F2
100
AcDbEntity
  8
0
100
AcDbSpline
 62
9
  6
CONTINUOUS
 70
0
 71
3
 72
32
 73
28
 74
26
 42
0.0000001
 43
0.0000001
 44
0.0000000001
 12
0.0827835972
 22
-0.0672168857
 32
0.0
 13
0.0688384878
 23
0.0814401393
 33
0.0
 40
0.0
 40
0.0
 40
0.0
 40
0.0
 40
0.0155476474
 40
0.0313625975
 40
0.047669375
 40
0.0646688249
 40
0.1013699695
 40
0.1213775163
 40
0.1426004234
 40
0.1651024545
 40
0.1889291193
 40
0.2141113592
 40
0.2406621964
 40
0.2685746782
 40
0.2978326521
 40
0.3284134714
 40
0.3602894307
 40
0.3934261219
 40
0.4277746053
 40
0.4632798787
 40
0.4998842979
 40
0.5761450588
 40
0.6560501667
 40
0.7390413697
 40
0.8245327525
 40
0.9117941695
 40
1.0
 40
1.0
 40
1.0
 40
1.0
 10
5.9783435242
 20
4.5497849185
 30
0.0
 10
5.9787725542
 20
4.5494365637
 30
0.0
 10
5.9796873987
 20
4.548792467
 30
0.0
 10
5.9811946836
 20
4.5480084843
 30
0.0
 10
5.9828375192
 20
4.5474038882
 30
0.0
 10
5.9852623605
 20
4.5468240389
 30
0.0
 10
5.9878960467
 20
4.5466417309
 30
0.0
 10
5.9906629497
 20
4.5468005263
 30
0.0
 10
5.9929103916
 20
4.5471031967
 30
0.0
 10
5.9952642467
 20
4.5475850862
 30
0.0
 10
5.9977204351
 20
4.5482450109
 30
0.0
 10
6.0002737204
 20
4.5490819925
 30
0.0
 10
6.0029186639
 20
4.5500942614
 30
0.0
 10
6.0056495405
 20
4.5512789129
 30
0.0
 10
6.0084601926
 20
4.5526331562
 30
0.0
 10
6.0113444144
 20
4.5541541242
 30
0.0
 10
6.0142958839
 20
4.5558389222
 30
0.0
 10
6.0173078484
 20
4.5576843342
 30
0.0
 10
6.020373751
 20
4.5596856539
 30
0.0
 10
6.0234866329
 20
4.5618379937
 30
0.0
 10
6.0277486359
 20
4.5649450681
 30
0.0
 10
6.0331394484
 20
4.5691789013
 30
0.0
 10
6.0395971525
 20
4.5747107805
 30
0.0
 10
6.0460749752
 20
4.5807130229
 30
0.0
 10
6.0525126039
 20
4.5871340631
 30
0.0
 10
6.0588495901
 20
4.593910181
 30
0.0
 10
6.0629556345
 20
4.5986067944
 30
0.0
 10
6.0649796199
 20
4.6010012928
 30
0.0
 11
5.9783435242
 21
4.5497849185
 31
0.0
 11
5.9796984823
 21
4.5488294871
 31
0.0
 11
5.9811933423
 21
4.5480487931
 31
0.0
 11
5.9828238729
 21
4.5474445532
 31
0.0
 11
5.984585843
 21
4.5470184838
 31
0.0
 11
5.9884871378
 21
4.546707589
 31
0.0
 11
5.9906174636
 21
4.546824375
 31
0.0
 11
5.9928609751
 21
4.5471216856
 31
0.0
 11
5.9952126439
 21
4.5475985299
 31
0.0
 11
5.9976674412
 21
4.5482539171
 31
0.0
 11
6.0002203308
 21
4.5490868447
 31
0.0
 11
6.0028658051
 21
4.5500955975
 31
0.0
 11
6.0055976269
 21
4.551277356
 31
0.0
 11
6.0084094961
 21
4.5526292058
 31
0.0
 11
6.0112951127
 21
4.5541482323
 31
0.0
 11
6.0142481764
 21
4.555831521
 31
0.0
 11
6.0172622555
 21
4.5576758096
 31
0.0
 11
6.0203303904
 21
4.5596764439
 31
0.0
 11
6.02344549
 21
4.561828422
 31
0.0
 11
6.0266004631
 21
4.5641267416
 31
0.0
 11
6.033001671
 21
4.5691423435
 31
0.0
 11
6.0394776658
 21
4.5746799282
 31
0.0
 11
6.0459726805
 21
4.580691135
 31
0.0
 11
6.0524304507
 21
4.5871259629
 31
0.0
 11
6.058788344
 21
4.5939203779
 31
0.0
 11
6.0649796199
 21
4.6010012928
 31
0.0
  0
SPLINE
  5
3F3
100
AcDbEntity
  8
0
100
AcDbSpline
 62
9
  6
CONTINUOUS
 70
0
 71
3
 72
11
 73
7
 74
5
 42
0.0000001
 43
0.0000001
 44
0.0000000001
 12
0.0268141421
 22
-0.0187013037
 32
0.0
 13
0.0231165918
 23
-0.0231162316
 33
0.0
 40
0.0
 40
0.0
 40
0.0
 40
0.0
 40
0.2430795706
 40
0.4917333925
 40
0.7446625765
 40
1.0
 40
1.0
 40
1.0
 40
1.0
 10
6.0649796199
 20
4.6010012928
 30
0.0
 10
6.0671522766
 20
4.5994859912
 30
0.0
 10
6.0714979373
 20
4.5963488071
 30
0.0
 10
6.0778970188
 20
4.5913551973
 30
0.0
 10
6.0841727852
 20
4.5859982474
 30
0.0
 10
6.0882002062
 20
4.5821913888
 30
0.0
 10
6.0901677165
 20
4.5802239091
 30
0.0
 11
6.0649796199
 21
4.6010012928
 31
0.0
 11
6.0714193353
 21
4.5963451946
 31
0.0
 11
6.077823043
 21
4.5913380826
 31
0.0
 11
6.0841065816
 21
4.5859633605
 31
0.0
 11
6.0901677165
 21
4.5802239091
 31
0.0
  0
SPLINE
  5
3F4
100
AcDbEntity
  8
0
100
AcDbSpline
 62
9
  6
CONTINUOUS
 70
0
 71
3
 72
11
 73
7
 74
5
 42
0.0000001
 43
0.0000001
 44
0.0000000001
 12
0.0231163612
 22
-0.0231164645
 32
0.0
 13
0.0187015553
 23
-0.0268139686
 33
0.0
 40
0.0
 40
0.0
 40
0.0
 40
0.0
 40
0.2553373908
 40
0.5082665661
 40
0.7569203883
 40
1.0
 40
1.0
 40
1.0
 40
1.0
 10
6.0901677165
 20
4.5802239091
 30
0.0
 10
6.0921352069
 20
4.5782564099
 30
0.0
 10
6.0959420376
 20
4.5742289619
 30
0.0
 10
6.1012990115
 20
4.5679532183
 30
0.0
 10
6.1062926394
 20
4.5615541476
 30
0.0
 10
6.1094297789
 20
4.5572084547
 30
0.0
 10
6.1109451011
 20
4.5550358117
 30
0.0
 11
6.0901677165
 21
4.5802239091
 31
0.0
 11
6.0959071615
 21
4.5741627691
 31
0.0
 11
6.1012818958
 21
4.5678792408
 31
0.0
 11
6.1062890123
 21
4.5614755361
 31
0.0
 11
6.1109451011
 21
4.5550358117
 31
0.0
  0
SPLINE
  5
3F5
100
AcDbEntity
  8
0
100
AcDbSpline
 62
9
  6
CONTINUOUS
 70
0
 71
3
 72
32
 73
28
 74
26
 42
0.0000001
 43
0.0000001
 44
0.0000000001
 12
-0.067216886
 22
-0.082783597
 32
0.0
 13
0.0814401389
 23
-0.0688384882
 33
0.0
 40
0.0
 40
0.0
 40
0.0
 40
0.0
 40
0.015547647
 40
0.0313625967
 40
0.0476693739
 40
0.0646688236
 40
0.101369968
 40
0.1213775148
 40
0.1426004219
 40
0.165102453
 40
0.1889291178
 40
0.2141113578
 40
0.240662195
 40
0.2685746768
 40
0.2978326508
 40
0.3284134701
 40
0.3602894295
 40
0.3934261208
 40
0.4277746043
 40
0.4632798777
 40
0.499884297
 40
0.576145058
 40
0.6560501661
 40
0.7390413692
 40
0.8245327522
 40
0.9117941693
 40
1.0
 40
1.0
 40
1.0
 40
1.0
 10
6.0597287257
 20
3.7655726097
 30
0.0
 10
6.0593803709
 20
3.7651435797
 30
0.0
 10
6.0587362743
 20
3.7642287352
 30
0.0
 10
6.0579522916
 20
3.7627214503
 30
0.0
 10
6.0573476955
 20
3.7610786148
 30
0.0
 10
6.0567678462
 20
3.7586537735
 30
0.0
 10
6.0565855382
 20
3.7560200873
 30
0.0
 10
6.0567443337
 20
3.7532531843
 30
0.0
 10
6.057047004
 20
3.7510057425
 30
0.0
 10
6.0575288935
 20
3.7486518873
 30
0.0
 10
6.0581888182
 20
3.7461956989
 30
0.0
 10
6.0590257998
 20
3.7436424136
 30
0.0
 10
6.0600380687
 20
3.7409974701
 30
0.0
 10
6.0612227202
 20
3.7382665935
 30
0.0
 10
6.0625769635
 20
3.7354559414
 30
0.0
 10
6.0640979315
 20
3.7325717196
 30
0.0
 10
6.0657827296
 20
3.7296202501
 30
0.0
 10
6.0676281415
 20
3.7266082856
 30
0.0
 10
6.0696294613
 20
3.723542383
 30
0.0
 10
6.0717818011
 20
3.7204295011
 30
0.0
 10
6.0748888754
 20
3.7161674981
 30
0.0
 10
6.0791227086
 20
3.7107766855
 30
0.0
 10
6.0846545878
 20
3.7043189814
 30
0.0
 10
6.0906568302
 20
3.6978411587
 30
0.0
 10
6.0970778705
 20
3.69140353
 30
0.0
 10
6.1038539883
 20
3.6850665437
 30
0.0
 10
6.1085506018
 20
3.6809604992
 30
0.0
 10
6.1109451001
 20
3.6789365139
 30
0.0
 11
6.0597287257
 21
3.7655726097
 31
0.0
 11
6.0587732943
 21
3.7642176516
 31
0.0
 11
6.0579926004
 21
3.7627227917
 31
0.0
 11
6.0573883605
 21
3.7610922611
 31
0.0
 11
6.0569622911
 21
3.759330291
 31
0.0
 11
6.0566513963
 21
3.7554289962
 31
0.0
 11
6.0567681824
 21
3.7532986705
 31
0.0
 11
6.0570654929
 21
3.7510551589
 31
0.0
 11
6.0575423372
 21
3.7487034902
 31
0.0
 11
6.0581977245
 21
3.7462486928
 31
0.0
 11
6.059030652
 21
3.7436958033
 31
0.0
 11
6.0600394048
 21
3.7410503289
 31
0.0
 11
6.0612211634
 21
3.7383185071
 31
0.0
 11
6.0625730131
 21
3.7355066379
 31
0.0
 11
6.0640920396
 21
3.7326210213
 31
0.0
 11
6.0657753284
 21
3.7296679576
 31
0.0
 11
6.067619617
 21
3.7266538785
 31
0.0
 11
6.0696202513
 21
3.7235857436
 31
0.0
 11
6.0717722293
 21
3.7204706439
 31
0.0
 11
6.074070549
 21
3.7173156708
 31
0.0
 11
6.0790861509
 21
3.7109144629
 31
0.0
 11
6.0846237355
 21
3.7044384681
 31
0.0
 11
6.0906349423
 21
3.6979434533
 31
0.0
 11
6.0970697702
 21
3.6914856831
 31
0.0
 11
6.1038641853
 21
3.6851277898
 31
0.0
 11
6.1109451001
 21
3.6789365139
 31
0.0
  0
SPLINE
  5
3F6
100
AcDbEntity
  8
0
100
AcDbSpline
 62
9
  6
CONTINUOUS
 70
0
 71
3
 72
11
 73
7
 74
5
 42
0.0000001
 43
0.0000001
 44
0.0000000001
 12
-0.0187012959
 22
-0.0268141474
 32
0.0
 13
-0.023116231
 23
-0.0231165922
 33
0.0
 40
0.0
 40
0.0
 40
0.0
 40
0.0
 40
0.2430795682
 40
0.4917333898
 40
0.7446625742
 40
1.0
 40
1.0
 40
1.0
 40
1.0
 10
6.1109451001
 20
3.6789365139
 30
0.0
 10
6.1094297991
 20
3.6767638568
 30
0.0
 10
6.1062926138
 20
3.672418197
 30
0.0
 10
6.1012990046
 20
3.6660191151
 30
0.0
 10
6.0959420549
 20
3.6597433486
 30
0.0
 10
6.0921351961
 20
3.6557159277
 30
0.0
 10
6.0901677165
 20
3.6537484173
 30
0.0
 11
6.1109451001
 21
3.6789365139
 31
0.0
 11
6.1062890017
 21
3.6724967987
 31
0.0
 11
6.1012818898
 21
3.6660930909
 31
0.0
 11
6.0959071679
 21
3.6598095522
 31
0.0
 11
6.0901677165
 21
3.6537484173
 31
0.0
  0
SPLINE
  5
3F7
100
AcDbEntity
  8
0
100
AcDbSpline
 62
6
  6
CONTINUOUS
 70
0
 71
3
 72
10
 73
6
 74
4
 42
0.0000001
 43
0.0000001
 44
0.0000000001
 12
0.0490088156
 22
0.0321336734
 32
0.0
 13
0.0494928811
 23
0.0313829842
 33
0.0
 40
0.0
 40
0.0
 40
0.0
 40
0.0
 40
0.5196402262
 40
0.7648953376
 40
1.0
 40
1.0
 40
1.0
 40
1.0
 10
6.4417654477
 20
4.6850224024
 30
0.0
 10
6.4502544317
 20
4.6905883855
 30
0.0
 10
6.4627937839
 20
4.6987146719
 30
0.0
 10
6.4792501259
 20
4.7092405076
 30
0.0
 10
6.4871700528
 20
4.7142732476
 30
0.0
 10
6.4910487218
 20
4.7167326763
 30
0.0
 11
6.4417654477
 21
4.6850224024
 31
0.0
 11
6.4673140968
 21
4.7015950812
 31
0.0
 11
6.4794210655
 21
4.7093412372
 31
0.0
 11
6.4910487218
 21
4.7167326763
 31
0.0
  0
LINE
  5
3F8
100
AcDbEntity
  8
0
100
AcDbLine
 62
6
  6
CONTINUOUS
 10
6.4910487218
 20
4.7167326763
 11
6.5165291459
 21
4.7328453177
  0
LINE
  5
3F9
100
AcDbEntity
  8
0
100
AcDbLine
 62
6
  6
CONTINUOUS
 10
6.5165291459
 20
4.7328453177
 11
6.5232754025
 21
4.7371180416
  0
SPLINE
  5
3FA
100
AcDbEntity
  8
0
100
AcDbSpline
 62
9
  6
CONTINUOUS
 70
0
 71
3
 72
11
 73
7
 74
5
 42
0.0000001
 43
0.0000001
 44
0.0000000001
 12
-0.0231164649
 22
-0.0231163607
 32
0.0
 13
-0.026813975
 23
-0.018701546
 33
0.0
 40
0.0
 40
0.0
 40
0.0
 40
0.0
 40
0.2553373932
 40
0.5082665689
 40
0.756920391
 40
1.0
 40
1.0
 40
1.0
 40
1.0
 10
6.0901677165
 20
3.6537484173
 30
0.0
 10
6.0882002172
 20
3.6517809269
 30
0.0
 10
6.0841727693
 20
3.6479740961
 30
0.0
 10
6.0778970256
 20
3.6426171222
 30
0.0
 10
6.0714979543
 20
3.6376234953
 30
0.0
 10
6.0671522626
 20
3.6344863542
 30
0.0
 10
6.0649796191
 20
3.6329710327
 30
0.0
 11
6.0901677165
 21
3.6537484173
 31
0.0
 11
6.0841065764
 21
3.6480089723
 31
0.0
 11
6.0778230481
 21
3.642634238
 31
0.0
 11
6.0714193431
 21
3.6376271218
 31
0.0
 11
6.0649796191
 21
3.6329710327
 31
0.0
  0
SPLINE
  5
3FB
100
AcDbEntity
  8
0
100
AcDbSpline
 62
9
  6
CONTINUOUS
 70
0
 71
3
 72
11
 73
7
 74
5
 42
0.0000001
 43
0.0000001
 44
0.0000000001
 12
-0.0231155606
 22
-0.0231172645
 32
0.0
 13
-0.018702497
 23
-0.0268133114
 33
0.0
 40
0.0
 40
0.0
 40
0.0
 40
0.0
 40
0.2553423407
 40
0.5082715763
 40
0.7569285933
 40
1.0
 40
1.0
 40
1.0
 40
1.0
 10
5.1636922249
 20
4.5802239089
 30
0.0
 10
5.1617247644
 20
4.5782563034
 30
0.0
 10
5.157917772
 20
4.5742289381
 30
0.0
 10
5.1525607995
 20
4.5679530713
 30
0.0
 10
5.1475671534
 20
4.5615540812
 30
0.0
 10
5.1444301904
 20
4.5572083307
 30
0.0
 10
5.142914843
 20
4.5550358143
 30
0.0
 11
5.1636922249
 21
4.5802239089
 31
0.0
 11
5.1579526538
 21
4.5741626655
 31
0.0
 11
5.1525779186
 21
4.5678791355
 31
0.0
 11
5.1475707509
 21
4.5614753384
 31
0.0
 11
5.142914843
 21
4.5550358143
 31
0.0
  0
SPLINE
  5
3FC
100
AcDbEntity
  8
0
100
AcDbSpline
 62
9
  6
CONTINUOUS
 70
0
 71
3
 72
11
 73
7
 74
5
 42
0.0000001
 43
0.0000001
 44
0.0000000001
 12
-0.026813056
 22
-0.0187028693
 32
0.0
 13
-0.0231172128
 23
-0.0231156173
 33
0.0
 40
0.0
 40
0.0
 40
0.0
 40
0.0
 40
0.2430716585
 40
0.4917288478
 40
0.7446579464
 40
1.0
 40
1.0
 40
1.0
 40
1.0
 10
5.1888803213
 20
4.6010012928
 30
0.0
 10
5.1867078233
 20
4.5994859136
 30
0.0
 10
5.1823620214
 20
4.5963490145
 30
0.0
 10
5.1759630513
 20
4.5913553329
 30
0.0
 10
5.1696871984
 20
4.5859983493
 30
0.0
 10
5.1656598238
 20
4.5821913719
 30
0.0
 10
5.1636922249
 20
4.5802239089
 30
0.0
 11
5.1888803213
 21
4.6010012928
 31
0.0
 11
5.1824407793
 21
4.5963453941
 31
0.0
 11
5.1760369825
 21
4.5913382154
 31
0.0
 11
5.1697534646
 21
4.5859634715
 31
0.0
 11
5.1636922249
 21
4.5802239089
 31
0.0
  0
SPLINE
  5
3FD
100
AcDbEntity
  8
0
100
AcDbSpline
 62
9
  6
CONTINUOUS
 70
0
 71
3
 72
32
 73
28
 74
26
 42
0.0000001
 43
0.0000001
 44
0.0000000001
 12
0.0688384702
 22
-0.081440129
 32
0.0
 13
0.0827835438
 23
0.067216921
 33
0.0
 40
0.0
 40
0.0
 40
0.0
 40
0.0
 40
0.0882058383
 40
0.1754672627
 40
0.260958652
 40
0.3439498601
 40
0.4238549715
 40
0.500115734
 40
0.5367201534
 40
0.5722254264
 40
0.606573909
 40
0.6397105989
 40
0.6715865566
 40
0.7021673737
 40
0.7314253453
 40
0.7593378243
 40
0.7858886586
 40
0.8110708955
 40
0.8348975572
 40
0.8573995852
 40
0.8786224894
 40
0.8986300336
 40
0.9353311742
 40
0.952330623
 40
0.9686374002
 40
0.984452351
 40
1.0
 40
1.0
 40
1.0
 40
1.0
 10
5.1888803213
 20
4.6010012928
 30
0.0
 10
5.1909043063
 20
4.5986067945
 30
0.0
 10
5.1950103501
 20
4.5939101813
 30
0.0
 10
5.2013473354
 20
4.5871340638
 30
0.0
 10
5.2077849633
 20
4.5807130242
 30
0.0
 10
5.2142627853
 20
4.5747107825
 30
0.0
 10
5.2207204886
 20
4.5691789042
 30
0.0
 10
5.2261113005
 20
4.5649450719
 30
0.0
 10
5.230373303
 20
4.5618379983
 30
0.0
 10
5.2334861844
 20
4.5596856592
 30
0.0
 10
5.2365520866
 20
4.5576843401
 30
0.0
 10
5.2395640506
 20
4.5558389289
 30
0.0
 10
5.2425155196
 20
4.5541541316
 30
0.0
 10
5.2453997409
 20
4.5526331644
 30
0.0
 10
5.2482103925
 20
4.5512789219
 30
0.0
 10
5.2509412686
 20
4.5500942712
 30
0.0
 10
5.2535862115
 20
4.5490820032
 30
0.0
 10
5.2561394963
 20
4.5482450224
 30
0.0
 10
5.2585956841
 20
4.5475850986
 30
0.0
 10
5.2609495387
 20
4.54710321
 30
0.0
 10
5.2631969799
 20
4.5468005405
 30
0.0
 10
5.2659638822
 20
4.5466417462
 30
0.0
 10
5.2685975675
 20
4.5468240553
 30
0.0
 10
5.271022408
 20
4.5474039057
 30
0.0
 10
5.2726652429
 20
4.5480085026
 30
0.0
 10
5.2741725271
 20
4.5487924861
 30
0.0
 10
5.2750873711
 20
4.5494365832
 30
0.0
 10
5.2755164009
 20
4.5497849383
 30
0.0
 11
5.1888803213
 21
4.6010012928
 31
0.0
 11
5.1950715961
 21
4.5939203782
 31
0.0
 11
5.2014294886
 21
4.5871259636
 31
0.0
 11
5.207887258
 21
4.5806911363
 31
0.0
 11
5.214382272
 21
4.5746799302
 31
0.0
 11
5.220858266
 21
4.5691423464
 31
0.0
 11
5.2272594731
 21
4.5641267456
 31
0.0
 11
5.2304144458
 21
4.5618284265
 31
0.0
 11
5.233529545
 21
4.5596764492
 31
0.0
 11
5.2365976795
 21
4.5576758155
 31
0.0
 11
5.2396117581
 21
4.5558315277
 31
0.0
 11
5.2425648214
 21
4.5541482397
 31
0.0
 11
5.2454504374
 21
4.552629214
 31
0.0
 11
5.2482623061
 21
4.551277365
 31
0.0
 11
5.2509941274
 21
4.5500956074
 31
0.0
 11
5.2536396012
 21
4.5490868554
 31
0.0
 11
5.2561924901
 21
4.5482539287
 31
0.0
 11
5.2586472869
 21
4.5475985423
 31
0.0
 11
5.2609989551
 21
4.5471216989
 31
0.0
 11
5.263242466
 21
4.5468243892
 31
0.0
 11
5.2653727912
 21
4.546707604
 31
0.0
 11
5.2692740847
 21
4.5470185005
 31
0.0
 11
5.2710360541
 21
4.5474445707
 31
0.0
 11
5.2726665841
 21
4.5480488114
 31
0.0
 11
5.2741614434
 21
4.5488295061
 31
0.0
 11
5.2755164009
 21
4.5497849383
 31
0.0
  0
SPLINE
  5
3FE
100
AcDbEntity
  8
0
100
AcDbSpline
 62
9
  6
CONTINUOUS
 70
0
 71
3
 72
32
 73
28
 74
26
 42
0.0000001
 43
0.0000001
 44
0.0000000001
 12
-0.082783597
 22
0.067216886
 32
0.0
 13
-0.0688384882
 23
-0.081440139
 33
0.0
 40
0.0
 40
0.0
 40
0.0
 40
0.0
 40
0.0155476469
 40
0.0313625967
 40
0.0476693739
 40
0.0646688236
 40
0.101369968
 40
0.1213775148
 40
0.1426004219
 40
0.165102453
 40
0.1889291179
 40
0.2141113578
 40
0.2406621951
 40
0.2685746769
 40
0.2978326509
 40
0.3284134702
 40
0.3602894296
 40
0.3934261208
 40
0.4277746043
 40
0.4632798778
 40
0.4998842971
 40
0.5761450581
 40
0.6560501661
 40
0.7390413692
 40
0.8245327522
 40
0.9117941693
 40
1.0
 40
1.0
 40
1.0
 40
1.0
 10
5.2755164171
 20
3.6841874081
 30
0.0
 10
5.275087387
 20
3.6845357629
 30
0.0
 10
5.2741725426
 20
3.6851798595
 30
0.0
 10
5.2726652577
 20
3.6859638422
 30
0.0
 10
5.2710224222
 20
3.6865684383
 30
0.0
 10
5.2685975808
 20
3.6871482876
 30
0.0
 10
5.2659638947
 20
3.6873305956
 30
0.0
 10
5.2631969917
 20
3.6871718001
 30
0.0
 10
5.2609495498
 20
3.6868691298
 30
0.0
 10
5.2585956947
 20
3.6863872403
 30
0.0
 10
5.2561395063
 20
3.6857273156
 30
0.0
 10
5.253586221
 20
3.684890334
 30
0.0
 10
5.2509412774
 20
3.6838780651
 30
0.0
 10
5.2482104008
 20
3.6826934136
 30
0.0
 10
5.2453997487
 20
3.6813391703
 30
0.0
 10
5.2425155269
 20
3.6798182023
 30
0.0
 10
5.2395640574
 20
3.6781334042
 30
0.0
 10
5.236552093
 20
3.6762879923
 30
0.0
 10
5.2334861903
 20
3.6742866725
 30
0.0
 10
5.2303733085
 20
3.6721343328
 30
0.0
 10
5.2261113054
 20
3.6690272584
 30
0.0
 10
5.2207204929
 20
3.6647934252
 30
0.0
 10
5.2142627888
 20
3.659261546
 30
0.0
 10
5.207784966
 20
3.6532593036
 30
0.0
 10
5.2013473373
 20
3.6468382634
 30
0.0
 10
5.1950103511
 20
3.6400621455
 30
0.0
 10
5.1909043066
 20
3.635365532
 30
0.0
 10
5.1888803213
 20
3.6329710337
 30
0.0
 11
5.2755164171
 21
3.6841874081
 31
0.0
 11
5.274161459
 21
3.6851428395
 31
0.0
 11
5.272666599
 21
3.6859235334
 31
0.0
 11
5.2710360684
 21
3.6865277733
 31
0.0
 11
5.2692740983
 21
3.6869538427
 31
0.0
 11
5.2653728036
 21
3.6872647375
 31
0.0
 11
5.2632424778
 21
3.6871479514
 31
0.0
 11
5.2609989663
 21
3.6868506409
 31
0.0
 11
5.2586472975
 21
3.6863737966
 31
0.0
 11
5.2561925001
 21
3.6857184093
 31
0.0
 11
5.2536396106
 21
3.6848854818
 31
0.0
 11
5.2509941363
 21
3.683876729
 31
0.0
 11
5.2482623144
 21
3.6826949705
 31
0.0
 11
5.2454504452
 21
3.6813431207
 31
0.0
 11
5.2425648287
 21
3.6798240942
 31
0.0
 11
5.2396117649
 21
3.6781408055
 31
0.0
 11
5.2365976859
 21
3.6762965169
 31
0.0
 11
5.2335295509
 21
3.6742958825
 31
0.0
 11
5.2304144513
 21
3.6721439045
 31
0.0
 11
5.2272594782
 21
3.6698455849
 31
0.0
 11
5.2208582702
 21
3.6648299829
 31
0.0
 11
5.2143822755
 21
3.6592923983
 31
0.0
 11
5.2078872607
 21
3.6532811915
 31
0.0
 11
5.2014294905
 21
3.6468463636
 31
0.0
 11
5.1950715971
 21
3.6400519485
 31
0.0
 11
5.1888803213
 21
3.6329710337
 31
0.0
  0
SPLINE
  5
3FF
100
AcDbEntity
  8
0
100
AcDbSpline
 62
9
  6
CONTINUOUS
 70
0
 71
3
 72
11
 73
7
 74
5
 42
0.0000001
 43
0.0000001
 44
0.0000000001
 12
-0.0268141474
 22
0.0187012959
 32
0.0
 13
-0.0231165922
 23
0.023116231
 33
0.0
 40
0.0
 40
0.0
 40
0.0
 40
0.0
 40
0.2430795682
 40
0.4917333898
 40
0.7446625742
 40
1.0
 40
1.0
 40
1.0
 40
1.0
 10
5.1888803213
 20
3.6329710337
 30
0.0
 10
5.1867076641
 20
3.6344863347
 30
0.0
 10
5.1823620044
 20
3.63762352
 30
0.0
 10
5.1759629224
 20
3.6426171292
 30
0.0
 10
5.1696871559
 20
3.6479740789
 30
0.0
 10
5.1656597351
 20
3.6517809377
 30
0.0
 10
5.1636922247
 20
3.6537484173
 30
0.0
 11
5.1888803213
 21
3.6329710337
 31
0.0
 11
5.1824406061
 21
3.6376271321
 31
0.0
 11
5.1760368983
 21
3.642634244
 31
0.0
 11
5.1697533596
 21
3.6480089659
 31
0.0
 11
5.1636922247
 21
3.6537484173
 31
0.0
  0
SPLINE
  5
400
100
AcDbEntity
  8
0
100
AcDbSpline
 62
6
  6
CONTINUOUS
 70
0
 71
3
 72
17
 73
13
 74
11
 42
0.0000001
 43
0.0000001
 44
0.0000000001
 12
0.0449285355
 22
0.0285065771
 32
0.0
 13
0.0420780312
 23
0.0325674306
 33
0.0
 40
0.0
 40
0.0
 40
0.0
 40
0.0
 40
0.1552207209
 40
0.3026360434
 40
0.4418552341
 40
0.5724903922
 40
0.6941204217
 40
0.8062458551
 40
0.858588556
 40
0.9083699614
 40
0.9555306366
 40
1.0
 40
1.0
 40
1.0
 40
1.0
 10
6.5232754025
 20
4.7371180416
 30
0.0
 10
6.5256000157
 20
4.7385929788
 30
0.0
 10
6.5301299577
 20
4.7414724568
 30
0.0
 10
6.5367310328
 20
4.7456965514
 30
0.0
 10
6.5429464415
 20
4.7497142087
 30
0.0
 10
6.5487532716
 20
4.7535212869
 30
0.0
 10
6.5541265853
 20
4.757112747
 30
0.0
 10
6.5583105375
 20
4.7599842483
 30
0.0
 10
6.5614154608
 20
4.7621751041
 30
0.0
 10
6.5635635183
 20
4.7637232619
 30
0.0
 10
6.5655809691
 20
4.7652135195
 30
0.0
 10
6.5668747177
 20
4.7661972247
 30
0.0
 10
6.5674984455
 20
4.7666799757
 30
0.0
 11
6.5232754025
 21
4.7371180416
 31
0.0
 11
6.5302444958
 21
4.7415503249
 31
0.0
 11
6.5368501405
 21
4.7457801018
 31
0.0
 11
6.5430698102
 21
4.749803775
 31
0.0
 11
6.5488809696
 21
4.7536177448
 31
0.0
 11
6.5542590292
 21
4.757217861
 31
0.0
 11
6.5591747137
 21
4.7605987174
 31
0.0
 11
6.5614498135
 21
4.7622051793
 31
0.0
 11
6.5635980974
 21
4.7637547336
 31
0.0
 11
6.5656157901
 21
4.7652466676
 31
0.0
 11
6.5674984455
 21
4.7666799757
 31
0.0
  0
SPLINE
  5
401
100
AcDbEntity
  8
0
100
AcDbSpline
 62
6
  6
CONTINUOUS
 70
0
 71
3
 72
11
 73
7
 74
5
 42
0.0000001
 43
0.0000001
 44
0.0000000001
 12
0.0070846707
 22
0.0054833726
 32
0.0
 13
0.0063315701
 23
0.0063380718
 33
0.0
 40
0.0
 40
0.0
 40
0.0
 40
0.0
 40
0.2845599274
 40
0.5464759548
 40
0.7851282396
 40
1.0
 40
1.0
 40
1.0
 40
1.0
 10
6.5674984455
 20
4.7666799757
 30
0.0
 10
6.5681704499
 20
4.7672000917
 30
0.0
 10
6.5694518466
 20
4.7682108533
 30
0.0
 10
6.5712579303
 20
4.7697063566
 30
0.0
 10
6.5728624043
 20
4.7711176462
 30
0.0
 10
6.5738449344
 20
4.7720505609
 30
0.0
 10
6.5742984262
 20
4.7725045185
 30
0.0
 11
6.5674984455
 21
4.7666799757
 31
0.0
 11
6.5694983537
 21
4.7682609131
 31
0.0
 11
6.5713035341
 21
4.7697599647
 31
0.0
 11
6.5729061654
 21
4.7711751574
 31
0.0
 11
6.5742984262
 21
4.7725045185
 31
0.0
  0
SPLINE
  5
402
100
AcDbEntity
  8
0
100
AcDbSpline
 62
9
  6
CONTINUOUS
 70
0
 71
3
 72
11
 73
7
 74
5
 42
0.0000001
 43
0.0000001
 44
0.0000000001
 12
-0.0231163607
 22
0.0231164649
 32
0.0
 13
-0.018701546
 23
0.026813975
 33
0.0
 40
0.0
 40
0.0
 40
0.0
 40
0.0
 40
0.2553373932
 40
0.5082665689
 40
0.756920391
 40
1.0
 40
1.0
 40
1.0
 40
1.0
 10
5.1636922247
 20
3.6537484173
 30
0.0
 10
5.1617247343
 20
3.6557159166
 30
0.0
 10
5.1579179035
 20
3.6597433645
 30
0.0
 10
5.1525609296
 20
3.6660191082
 30
0.0
 10
5.1475673026
 20
3.6724181795
 30
0.0
 10
5.1444301616
 20
3.6767638712
 30
0.0
 10
5.1429148401
 20
3.6789365147
 30
0.0
 11
5.1636922247
 21
3.6537484173
 31
0.0
 11
5.1579527796
 21
3.6598095574
 31
0.0
 11
5.1525780454
 21
3.6660930857
 31
0.0
 11
5.1475709292
 21
3.6724967907
 31
0.0
 11
5.1429148401
 21
3.6789365147
 31
0.0
  0
SPLINE
  5
403
100
AcDbEntity
  8
0
100
AcDbSpline
 62
6
  6
CONTINUOUS
 70
0
 71
3
 72
17
 73
13
 74
11
 42
0.0000001
 43
0.0000001
 44
0.0000000001
 12
0.0845744919
 22
-0.1152626754
 32
0.0
 13
0.0174945942
 23
-0.1418882243
 33
0.0
 40
0.0
 40
0.0
 40
0.0
 40
0.0
 40
0.125035556
 40
0.2500507839
 40
0.3750260123
 40
0.4999901607
 40
0.6249741934
 40
0.7499763688
 40
0.8124856057
 40
0.8749926363
 40
0.9374969755
 40
1.0
 40
1.0
 40
1.0
 40
1.0
 10
6.5932491151
 20
3.4383559403
 30
0.0
 10
6.5967740547
 20
3.4335519627
 30
0.0
 10
6.6035190517
 20
3.4237172653
 30
0.0
 10
6.6126812799
 20
3.4083598376
 30
0.0
 10
6.6208549806
 20
3.392457267
 30
0.0
 10
6.6280066467
 20
3.376071247
 30
0.0
 10
6.6341028561
 20
3.3592628416
 30
0.0
 10
6.6382802038
 20
3.3449574536
 30
0.0
 10
6.6410661115
 20
3.3333715782
 30
0.0
 10
6.6428744785
 20
3.3246186277
 30
0.0
 10
6.6443976231
 20
3.3158120389
 30
0.0
 10
6.6452217423
 20
3.309910945
 30
0.0
 10
6.6455862307
 20
3.3069547973
 30
0.0
 11
6.5932491151
 21
3.4383559403
 31
0.0
 11
6.6033605672
 21
3.42361521
 31
0.0
 11
6.6125177271
 21
3.4082668183
 31
0.0
 11
6.6206849878
 21
3.3923759976
 31
0.0
 11
6.6278303135
 21
3.3760019312
 31
0.0
 11
6.6339219096
 21
3.3592043193
 31
0.0
 11
6.6389301877
 21
3.3420498109
 31
0.0
 11
6.641019277
 21
3.3333609371
 31
0.0
 11
6.6428269747
 21
3.3246095135
 31
0.0
 11
6.6443498097
 21
3.3158044421
 31
0.0
 11
6.6455862307
 21
3.3069547973
 31
0.0
  0
SPLINE
  5
404
100
AcDbEntity
  8
0
100
AcDbSpline
 62
6
  6
CONTINUOUS
 70
0
 71
3
 72
23
 73
19
 74
17
 42
0.0000001
 43
0.0000001
 44
0.0000000001
 12
-0.0848777719
 22
0.115231989
 32
0.0
 13
-0.0177259361
 23
0.1420156282
 33
0.0
 40
0.0
 40
0.0
 40
0.0
 40
0.0
 40
0.0588647055
 40
0.1187929279
 40
0.2413224309
 40
0.3037018648
 40
0.3666543305
 40
0.4300506679
 40
0.4937618729
 40
0.5576600745
 40
0.6216195113
 40
0.6855175343
 40
0.7174074376
 40
0.7492381082
 40
0.8126639283
 40
0.8756818151
 40
0.9381697245
 40
1.0
 40
1.0
 40
1.0
 40
1.0
 10
4.6606670873
 20
4.7954966908
 30
0.0
 10
4.6590016523
 20
4.7977577231
 30
0.0
 10
4.6557093354
 20
4.8023717551
 30
0.0
 10
4.6493089989
 20
4.8119425866
 30
0.0
 10
4.6432715194
 20
4.8219524632
 30
0.0
 10
4.6376633358
 20
4.8323641516
 30
0.0
 10
4.6336490584
 20
4.8404249662
 30
0.0
 10
4.6298661825
 20
4.8486667481
 30
0.0
 10
4.6263285345
 20
4.857065748
 30
0.0
 10
4.6230500724
 20
4.8655980886
 30
0.0
 10
4.6200447564
 20
4.8742398575
 30
0.0
 10
4.6177780385
 20
4.8815174336
 30
0.0
 10
4.6161144996
 20
4.8873741717
 30
0.0
 10
4.6145565855
 20
4.8932365794
 30
0.0
 10
4.6128000844
 20
4.9005815698
 30
0.0
 10
4.6109886287
 20
4.9094123557
 30
0.0
 10
4.6094703312
 20
4.9182208939
 30
0.0
 10
4.6086447918
 20
4.9240949842
 30
0.0
 10
4.6082794587
 20
4.9270219394
 30
0.0
 11
4.6606670873
 21
4.7954966908
 31
0.0
 11
4.6557736039
 21
4.8023543354
 31
0.0
 11
4.6510059713
 21
4.8094839141
 31
0.0
 11
4.6419533261
 21
4.8245027494
 31
0.0
 11
4.6377184057
 21
4.8323619733
 31
0.0
 11
4.6337013627
 21
4.8404264858
 31
0.0
 11
4.6299161613
 21
4.8486723314
 31
0.0
 11
4.626376766
 21
4.8570755543
 31
0.0
 11
4.6230971409
 21
4.865612199
 31
0.0
 11
4.6200912503
 21
4.8742583098
 31
0.0
 11
4.6173730585
 21
4.882989931
 31
0.0
 11
4.6161262132
 21
4.8873803218
 31
0.0
 11
4.6149560043
 21
4.8917829866
 31
0.0
 11
4.612843596
 21
4.9006111255
 31
0.0
 11
4.6110304793
 21
4.9094459659
 31
0.0
 11
4.6095109887
 21
4.9182590548
 31
0.0
 11
4.6082794587
 21
4.9270219394
 31
0.0
  0
LINE
  5
405
100
AcDbEntity
  8
0
100
AcDbLine
 62
6
  6
CONTINUOUS
 10
6.1835898985
 20
3.3193567315
 11
6.1837459118
 21
3.3191227985
  0
SPLINE
  5
406
100
AcDbEntity
  8
0
100
AcDbSpline
 62
6
  6
CONTINUOUS
 70
0
 71
3
 72
23
 73
19
 74
17
 42
0.0000001
 43
0.0000001
 44
0.0000000001
 12
-0.0177185491
 22
-0.141955097
 32
0.0
 13
-0.0848165821
 23
-0.1152013192
 33
0.0
 40
0.0
 40
0.0
 40
0.0
 40
0.0
 40
0.0618282478
 40
0.1243138631
 40
0.1873293066
 40
0.2507526425
 40
0.2825820855
 40
0.3144707883
 40
0.3783665569
 40
0.4423240357
 40
0.5062207022
 40
0.5699309222
 40
0.6333269517
 40
0.6962799111
 40
0.7586607605
 40
0.8811961818
 40
0.9411291471
 40
1.0
 40
1.0
 40
1.0
 40
1.0
 10
6.6455804401
 20
4.9270216089
 30
0.0
 10
6.6452152711
 20
4.9240959973
 30
0.0
 10
6.6443901471
 20
4.9182246101
 30
0.0
 10
6.6428727299
 20
4.9094201136
 30
0.0
 10
6.6410624271
 20
4.9005933652
 30
0.0
 10
6.6393071187
 20
4.8932517016
 30
0.0
 10
6.6377503049
 20
4.8873919183
 30
0.0
 10
6.6360879597
 20
4.8815377704
 30
0.0
 10
6.6338228807
 20
4.8742633571
 30
0.0
 10
6.6308197572
 20
4.8656252448
 30
0.0
 10
6.6275436923
 20
4.8570963856
 30
0.0
 10
6.6240086273
 20
4.8487006592
 30
0.0
 10
6.6202285019
 20
4.8404619099
 30
0.0
 10
6.6162171197
 20
4.8324038566
 30
0.0
 10
6.6106129126
 20
4.8219953278
 30
0.0
 10
6.6045795968
 20
4.8119880908
 30
0.0
 10
6.5981834663
 20
4.802419385
 30
0.0
 10
6.5948932295
 20
4.7978061988
 30
0.0
 10
6.5932288213
 20
4.7955455321
 30
0.0
 11
6.6455804401
 21
4.9270216089
 31
0.0
 11
6.644349527
 21
4.918262738
 31
0.0
 11
6.6428309187
 21
4.9094536967
 31
0.0
 11
6.6410189575
 21
4.900622899
 31
0.0
 11
6.6389079857
 21
4.8917987587
 31
0.0
 11
6.6377386027
 21
4.8873980645
 31
0.0
 11
6.6364926519
 21
4.8830096198
 31
0.0
 11
6.63377643
 21
4.8742818041
 31
0.0
 11
6.6307727344
 21
4.865639356
 31
0.0
 11
6.6274955101
 21
4.8571061985
 31
0.0
 11
6.6239587025
 21
4.8487062542
 31
0.0
 11
6.6201762565
 21
4.8404634462
 31
0.0
 11
6.6161621174
 21
4.8324016971
 31
0.0
 11
6.6119302304
 21
4.8245449299
 31
0.0
 11
6.602883817
 21
4.8095300743
 31
0.0
 11
6.5981192766
 21
4.802402008
 31
0.0
 11
6.5932288213
 21
4.7955455321
 31
0.0
  0
LINE
  5
407
100
AcDbEntity
  8
0
100
AcDbLine
 62
6
  6
CONTINUOUS
 10
6.1835895236
 20
4.914612802
 11
6.1837468615
 21
4.9148487204
  0
LINE
  5
408
100
AcDbEntity
  8
0
100
AcDbLine
 62
6
  6
CONTINUOUS
 10
6.4245572601
 20
4.6736446623
 11
6.4247933353
 21
4.6738021044
  0
LINE
  5
409
100
AcDbEntity
  8
0
100
AcDbLine
 62
6
  6
CONTINUOUS
 10
6.4245587077
 20
3.5603252106
 11
6.4247925278
 21
3.5601692723
  0
SPLINE
  5
40A
100
AcDbEntity
  8
0
100
AcDbSpline
 62
6
  6
CONTINUOUS
 70
0
 71
3
 72
23
 73
19
 74
17
 42
0.0000001
 43
0.0000001
 44
0.0000000001
 12
0.1152266723
 22
0.0848666264
 32
0.0
 13
0.1420048501
 23
0.017724357
 33
0.0
 40
0.0
 40
0.0
 40
0.0
 40
0.0
 40
0.0588658626
 40
0.1187949827
 40
0.2413256197
 40
0.3037053333
 40
0.3666579059
 40
0.4300541988
 40
0.4937652303
 40
0.5576631523
 40
0.6216222263
 40
0.6855198263
 40
0.7174095023
 40
0.7492399392
 40
0.8126652816
 40
0.875682691
 40
0.9381701424
 40
1.0
 40
1.0
 40
1.0
 40
1.0
 10
6.3054496418
 20
5.0832557813
 30
0.0
 10
6.3077106143
 20
5.0849210304
 30
0.0
 10
6.3123245058
 20
5.0882129701
 30
0.0
 10
6.3218949774
 20
5.094612542
 30
0.0
 10
6.3319044011
 20
5.1006492618
 30
0.0
 10
6.3423155418
 20
5.1062567169
 30
0.0
 10
6.3503758735
 20
5.1102704626
 30
0.0
 10
6.3586171226
 20
5.1140528318
 30
0.0
 10
6.3670155451
 20
5.1175900022
 30
0.0
 10
6.3755472696
 20
5.1208680192
 30
0.0
 10
6.3841883897
 20
5.1238729259
 30
0.0
 10
6.3914654034
 20
5.1261393358
 30
0.0
 10
6.3973216801
 20
5.1278026488
 30
0.0
 10
6.4031836195
 20
5.1293603537
 30
0.0
 10
6.410528015
 20
5.1311166263
 30
0.0
 10
6.4193580775
 20
5.1329278579
 30
0.0
 10
6.4281658899
 20
5.1344459805
 30
0.0
 10
6.4340394941
 20
5.1352714342
 30
0.0
 10
6.4369662073
 20
5.1356367323
 30
0.0
 11
6.3054496418
 21
5.0832557813
 31
0.0
 11
6.312307094
 21
5.0881487159
 31
0.0
 11
6.3194364179
 21
5.0929157866
 31
0.0
 11
6.3344545699
 21
5.1019672947
 31
0.0
 11
6.342313367
 21
5.1062016594
 31
0.0
 11
6.3503773963
 21
5.110218169
 31
0.0
 11
6.3586227082
 21
5.1140028627
 31
0.0
 11
6.3670253529
 21
5.1175417797
 31
0.0
 11
6.3755613805
 21
5.120820959
 31
0.0
 11
6.3842068413
 21
5.1238264398
 31
0.0
 11
6.3929377855
 21
5.1265442613
 31
0.0
 11
6.3973278296
 21
5.1277909373
 31
0.0
 11
6.4017301428
 21
5.1289609892
 31
0.0
 11
6.410557567
 21
5.1310731222
 31
0.0
 11
6.4193916831
 21
5.1328860144
 31
0.0
 11
6.4282040452
 21
5.1344053297
 31
0.0
 11
6.4369662073
 21
5.1356367323
 31
0.0
  0
LINE
  5
40B
100
AcDbEntity
  8
0
100
AcDbLine
 62
6
  6
CONTINUOUS
 10
4.8293005388
 20
3.5603262353
 11
4.8290666059
 21
3.560170222
  0
LINE
  5
40C
100
AcDbEntity
  8
0
100
AcDbLine
 62
6
  6
CONTINUOUS
 10
5.070269018
 20
3.3193574261
 11
5.0701130796
 21
3.319123606
  0
SPLINE
  5
40D
100
AcDbEntity
  8
0
100
AcDbSpline
 62
6
  6
CONTINUOUS
 70
0
 71
3
 72
17
 73
13
 74
11
 42
0.0000001
 43
0.0000001
 44
0.0000000001
 12
0.1419981814
 22
-0.0175031617
 32
0.0
 13
0.115316969
 23
-0.0846867219
 33
0.0
 40
0.0
 40
0.0
 40
0.0
 40
0.0
 40
0.1249998206
 40
0.1875057708
 40
0.2500113885
 40
0.3125182695
 40
0.3750266765
 40
0.5000263421
 40
0.6250074234
 40
0.7499789809
 40
0.8749726029
 40
1.0
 40
1.0
 40
1.0
 40
1.0
 10
4.8168942742
 20
5.1356387423
 30
0.0
 10
4.8228108566
 20
5.134909445
 30
0.0
 10
4.8316545413
 20
5.1335308621
 30
0.0
 10
4.8433340032
 20
5.1311248561
 30
0.0
 10
4.8520311407
 20
5.1290352724
 30
0.0
 10
4.8606557706
 20
5.1266640939
 30
0.0
 10
4.8720464915
 20
5.1231341285
 30
0.0
 10
4.8860638021
 20
5.1180410517
 30
0.0
 10
4.9024612323
 20
5.1108788638
 30
0.0
 10
4.9183746934
 20
5.1026968933
 30
0.0
 10
4.9337410507
 20
5.0935258063
 30
0.0
 10
4.943579771
 20
5.0867728395
 30
0.0
 10
4.9483856979
 20
5.0832434526
 30
0.0
 11
4.8168942742
 21
5.1356387423
 31
0.0
 11
4.8345646287
 21
5.1328821192
 31
0.0
 11
4.8433235318
 21
5.1310773556
 31
0.0
 11
4.8520189789
 21
5.1289883601
 31
0.0
 11
4.860642176
 21
5.1266180418
 31
0.0
 11
4.8691847264
 21
5.1239710293
 31
0.0
 11
4.8859943239
 21
5.1178655372
 31
0.0
 11
4.9023810289
 21
5.1107086938
 31
0.0
 11
4.9182822724
 21
5.1025327392
 31
0.0
 11
4.9336380486
 21
5.093367107
 31
0.0
 11
4.9483856979
 21
5.0832434526
 31
0.0
  0
LINE
  5
40E
100
AcDbEntity
  8
0
100
AcDbLine
 62
6
  6
CONTINUOUS
 10
4.8293033412
 20
4.67364571
 11
4.8290674134
 21
4.6738030542
  0
LINE
  5
40F
100
AcDbEntity
  8
0
100
AcDbLine
 62
6
  6
CONTINUOUS
 10
5.0702714785
 20
4.9146134423
 11
5.0701140294
 21
4.9148495279
  0
ENDSEC
  0
SECTION
  2
OBJECTS
  0
DICTIONARY
  5
C
100
AcDbDictionary
280
0
281
1
  3
ACAD_GROUP
350
D
  3
ACAD_MLINESTYLE
350
17
  3
ACAD_LAYOUT
350
1A
  3
ACAD_PLOTSETTINGS
350
19
  3
ACAD_PLOTSTYLENAME
350
E
  0
DICTIONARY
  5
D
102
{ACAD_REACTORS
330
C
102
}
100
AcDbDictionary
280
0
281
1
  0
ACDBDICTIONARYWDFLT
  5
E
102
{ACAD_REACTORS
330
C
102
}
100
AcDbDictionary
281
1
  3
Normal
350
F
100
AcDbDictionaryWithDefault
340
F
  0
DICTIONARY
  5
17
102
{ACAD_REACTORS
330
C
102
}
100
AcDbDictionary
280
0
281
1
  3
Standard
350
18
  0
DICTIONARY
  5
19
102
{ACAD_REACTORS
330
C
102
}
100
AcDbDictionary
281
1
  0
DICTIONARY
  5
1A
102
{ACAD_REACTORS
330
C
102
}
100
AcDbDictionary
281
1
  3
Model
350
410
  3
Layout1
350
411
  0
ACDBPLACEHOLDER
  5
F
102
{ACAD_REACTORS
330
E
102
}
  0
MLINESTYLE
  5
18
102
{ACAD_REACTORS
330
17
102
}
100
AcDbMlineStyle
  2
STANDARD
 70
0
  3

 62
256
 51
90.0
 52
90.0
 71
2
 49
0.5
 62
256
  6
BYLAYER
 49
-0.5
 62
256
  6
BYLAYER
  0
LAYOUT
  5
410
102
{ACAD_REACTORS
330
1A
102
}
100
AcDbPlotSettings
  1

  2
none_device
  4
ISO_A4_(297.00_x_210.00_MM)
  6

 40
0.0
 41
0.0
 42
0.0
 43
0.0
 44
297.0
 45
210.0
 46
0.0
 47
0.0
 48
0.0
 49
0.0
140
0.0
141
0.0
142
1.0
143
1.0
 70
1024
 72
0
 73
0
 74
0
  7

 75
0
147
1.0
148
0.0
149
0.0
100
AcDbLayout
  1
Model
 70
0
 71
0
 10
0.0
 20
0.0
 11
11.6929133858
 21
8.2677165354
 12
0.0
 22
0.0
 32
0.0
 14
0.0
 24
0.0
 34
0.0
 15
0.0
 25
0.0
 35
0.0
146
0.0
 13
0.0
 23
0.0
 33
0.0
 16
1.0
 26
0.0
 36
0.0
 17
0.0
 27
1.0
 37
0.0
 76
0
330
203
345
0
346
0
  0
LAYOUT
  5
411
102
{ACAD_REACTORS
330
1A
102
}
100
AcDbPlotSettings
  1

  2
none_device
  4
ISO_A4_(297.00_x_210.00_MM)
  6

 40
0.0
 41
0.0
 42
0.0
 43
0.0
 44
297.0
 45
210.0
 46
0.0
 47
0.0
 48
0.0
 49
0.0
140
0.0
141
0.0
142
1.0
143
1.0
 70
0
 72
0
 73
0
 74
0
  7

 75
0
147
1.0
148
0.0
149
0.0
100
AcDbLayout
  1
Layout1
 70
0
 71
1
 10
0.0
 20
0.0
 11
11.6929133858
 21
8.2677165354
 12
0.0
 22
0.0
 32
0.0
 14
0.0
 24
0.0
 34
0.0
 15
0.0
 25
0.0
 35
0.0
146
0.0
 13
0.0
 23
0.0
 33
0.0
 16
1.0
 26
0.0
 36
0.0
 17
0.0
 27
1.0
 37
0.0
 76
0
330
204
345
0
346
0
  0
ENDSEC
  0
EOF
