  0
SECTION
  2
HEADER
  9
$ACADVER
  1
AC1015
  9
$DWGCODEPAGE
  3
ANSI_1252
  9
$EXTMAX
 10
11.6929133858
 20
8.2677165354
 30
0.0
  9
$EXTMIN
 10
0.0
 20
0.0
 30
0.0
  9
$LIMMIN
 10
0.0
 20
0.0
  9
$LIMMAX
 10
11.6929133858
 20
8.2677165354
  9
$VIEWCTR
 10
5.8464566929
 20
4.1338582677
  9
$VIEWSIZE
 40
8.2677165354
  9
$CLAYER
  8
0
  9
$LTSCALE
 40
0.6431102362
  9
$CELTYPE
  6
BYLAYER
  9
$DIMSCALE
 40
1.0
  9
$DIMASZ
 40
0.1875
  9
$DIMEXO
 40
0.0730807087
  9
$DIMDLI
 40
0.4443307087
  9
$DIMEXE
 40
0.2104724409
  9
$DIMCEN
 40
0.1052362205
  9
$DIMLFAC
 40
1.0
  9
$DIMBLK
  1
_CLOSED
  9
$DIMTXT
 40
0.15625
  9
$DIMTOL
 70
0
  9
$DIMLIM
 70
0
  9
$DIMTFAC
 40
1.0
  9
$PDMODE
 70
3
  9
$PDSIZE
 40
0.3125
  9
$HANDSEED
  5
419
  9
$TILEMODE
 70
1
  9
$MEASUREMENT
 70
0
  9
$INSUNITS
 70
1
  0
ENDSEC
  0
SECTION
  2
CLASSES
  0
CLASS
  1
ACDBDICTIONARYWDFLT
  2
AcDbDictionaryWithDefault
  3
AutoCAD 2000
 90
0
280
0
281
0
  0
CLASS
  1
ACDBPLACEHOLDER
  2
AcDbPlaceHolder
  3
AutoCAD 2000
 90
0
280
0
281
0
  0
CLASS
  1
LAYOUT
  2
AcDbLayout
  3
AutoCAD 2000
 90
0
280
0
281
0
  0
ENDSEC
  0
SECTION
  2
TABLES
  0
TABLE
  2
VPORT
  5
8
100
AcDbSymbolTable
 70
2
  0
VPORT
  5
1F4
100
AcDbSymbolTableRecord
100
AcDbViewportTableRecord
  2
*ACTIVE
 70
0
 10
0.0
 20
0.0
 11
1.0
 21
1.0
 12
5.8464566929
 22
4.1338582677
 13
0.0
 23
0.0
 14
1.0
 24
1.0
 15
0.0
 25
0.0
 16
0.0
 26
0.0
 36
1.0
 17
0.0
 27
0.0
 37
0.0
 40
8.2677165354
 41
1.4142857143
 42
50.0
 43
0.0
 44
0.0
 50
0.0
 51
0.0
 71
0
 72
100
 73
1
 74
1
 75
0
 76
0
 77
0
 78
0
  0
ENDTAB
  0
TABLE
  2
LTYPE
  5
5
100
AcDbSymbolTable
 70
6
  0
LTYPE
  5
14
100
AcDbSymbolTableRecord
100
AcDbLinetypeTableRecord
  2
BYBLOCK
 70
0
  3

 72
65
 73
0
 40
0.0
  0
LTYPE
  5
15
100
AcDbSymbolTableRecord
100
AcDbLinetypeTableRecord
  2
BYLAYER
 70
0
  3

 72
65
 73
0
 40
0.0
  0
LTYPE
  5
16
100
AcDbSymbolTableRecord
100
AcDbLinetypeTableRecord
  2
CONTINUOUS
 70
64
  3
Solid line
 72
65
 73
0
 40
0.0
  0
LTYPE
  5
1F5
100
AcDbSymbolTableRecord
100
AcDbLinetypeTableRecord
  2
CENTER
 70
64
  3
____ _ ____ _ ____ _ ____ _ ____ _ ____ _ ____
 72
65
 73
4
 40
0.6
 49
0.375
 74
0
 49
-0.075
 74
0
 49
0.075
 74
0
 49
-0.075
 74
0
  0
LTYPE
  5
1F6
100
AcDbSymbolTableRecord
100
AcDbLinetypeTableRecord
  2
HIDDEN
 70
64
  3
- - - - - - - - - - - - - - - - - - - -
 72
65
 73
2
 40
0.2
 49
0.1
 74
0
 49
-0.1
 74
0
  0
LTYPE
  5
1F7
100
AcDbSymbolTableRecord
100
AcDbLinetypeTableRecord
  2
PHANTOM
 70
64
  3
_____ _ _ _____ _ _ _____ _ _ _____
 72
65
 73
6
 40
0.8
 49
0.45
 74
0
 49
-0.05
 74
0
 49
0.1
 74
0
 49
-0.05
 74
0
 49
0.1
 74
0
 49
-0.05
 74
0
  0
LTYPE
  5
1F8
100
AcDbSymbolTableRecord
100
AcDbLinetypeTableRecord
  2
DOT
 70
64
  3
. . . . . . . . . . . . . . . . . . . .
 72
65
 73
2
 40
0.2
 49
0.1
 74
0
 49
-0.1
 74
0
  0
LTYPE
  5
1F9
100
AcDbSymbolTableRecord
100
AcDbLinetypeTableRecord
  2
DASHED
 70
64
  3
- - - - - - - - - - - - - - - - - - - -
 72
65
 73
2
 40
0.2
 49
0.1
 74
0
 49
-0.1
 74
0
  0
ENDTAB
  0
TABLE
  2
LAYER
  5
2
100
AcDbSymbolTable
 70
36
  0
LAYER
  5
10
100
AcDbSymbolTableRecord
100
AcDbLayerTableRecord
  2
0
 70
0
 62
7
  6
CONTINUOUS
370
-3
390
F
  0
LAYER
  5
1FA
100
AcDbSymbolTableRecord
100
AcDbLayerTableRecord
  2
DEFAULT_1
 70
0
 62
7
  6
CENTER
370
-3
390
F
  0
LAYER
  5
1FB
100
AcDbSymbolTableRecord
100
AcDbLayerTableRecord
  2
DEFAULT_2
 70
0
 62
8
  6
HIDDEN
370
-3
390
F
  0
LAYER
  5
1FC
100
AcDbSymbolTableRecord
100
AcDbLayerTableRecord
  2
DEFAULT_3
 70
0
 62
7
  6
PHANTOM
370
-3
390
F
  0
LAYER
  5
1FD
100
AcDbSymbolTableRecord
100
AcDbLayerTableRecord
  2
DEFAULT_COORDINATE_SYSTEM
 70
0
 62
7
  6
CONTINUOUS
370
-3
390
F
  0
LAYER
  5
1FE
100
AcDbSymbolTableRecord
100
AcDbLayerTableRecord
  2
DEFAULT_DATUM_AXES
 70
0
 62
7
  6
CONTINUOUS
370
-3
390
F
  0
LAYER
  5
1FF
100
AcDbSymbolTableRecord
100
AcDbLayerTableRecord
  2
DEFAULT_DATUM_CURVES
 70
0
 62
7
  6
CONTINUOUS
370
-3
390
F
  0
LAYER
  5
200
100
AcDbSymbolTableRecord
100
AcDbLayerTableRecord
  2
DEFAULT_DATUM_PLANES
 70
0
 62
7
  6
CONTINUOUS
370
-3
390
F
  0
ENDTAB
  0
TABLE
  2
STYLE
  5
3
100
AcDbSymbolTable
 70
1
  0
STYLE
  5
11
100
AcDbSymbolTableRecord
100
AcDbTextStyleTableRecord
  2
STANDARD
 70
0
 40
0.0
 41
0.8
 50
0.0
 71
0
 42
0.2
  3
txt
  4

  0
STYLE
  5
201
100
AcDbSymbolTableRecord
100
AcDbTextStyleTableRecord
  2
TEXTSTYLE_1
 70
0
 40
0.0
 41
0.8
 50
0.0
 71
0
 42
0.2
  3
gdt
  4

  0
ENDTAB
  0
TABLE
  2
VIEW
  5
6
100
AcDbSymbolTable
 70
0
  0
ENDTAB
  0
TABLE
  2
UCS
  5
7
100
AcDbSymbolTable
 70
0
  0
ENDTAB
  0
TABLE
  2
APPID
  5
9
100
AcDbSymbolTable
 70
1
  0
APPID
  5
202
100
AcDbSymbolTableRecord
100
AcDbRegAppTableRecord
  2
ACAD
 70
0
  0
ENDTAB
  0
TABLE
  2
BLOCK_RECORD
  5
1
100
AcDbSymbolTable
 70
0
  0
BLOCK_RECORD
  5
203
100
AcDbSymbolTableRecord
100
AcDbBlockTableRecord
  2
*Model_Space
  0
BLOCK_RECORD
  5
204
100
AcDbSymbolTableRecord
100
AcDbBlockTableRecord
  2
*Paper_Space
  0
ENDTAB
  0
TABLE
  2
DIMSTYLE
  5
A
100
AcDbSymbolTable
 70
1
100
AcDbDimStyleTable
 71
0
  0
DIMSTYLE
105
205
100
AcDbSymbolTableRecord
100
AcDbDimStyleTableRecord
  2
STANDARD
 70
0
  3

  4

 40
1.0
 41
0.1875
 42
0.0625
 43
0.38
 44
0.18
 45
0.0
 46
0.0
 47
0.01
 48
0.01
140
0.15625
141
0.09
142
0.0
143
25.4
144
1.0
145
0.0
146
1.0
147
0.09
 71
0.0
 72
0.0
 73
1
 74
1
 75
0
 76
0
 77
0
 78
4
170
0
171
2
172
0
173
0
174
0
175
0
176
0
177
0
178
0
270
2
271
2
272
2
273
2
274
2
275
0
280
0
281
0
282
0
283
1
284
4
285
0
286
0
287
3
288
0
340
11
  0
ENDTAB
  0
ENDSEC
  0
SECTION
  2
BLOCKS
  0
BLOCK
  5
20
100
AcDbEntity
  8
0
100
AcDbBlockBegin
  2
*Model_Space
 70
0
 10
0.0
 20
0.0
 30
0.0
  3
*Model_Space
  1

  0
ENDBLK
  5
21
100
AcDbEntity
  8
0
100
AcDbBlockEnd
  0
BLOCK
  5
1C
100
AcDbEntity
  8
0
100
AcDbBlockBegin
  2
*Paper_Space
 70
0
 10
0.0
 20
0.0
 30
0.0
  3
*Paper_Space
  1

  0
ENDBLK
  5
1D
100
AcDbEntity
  8
0
100
AcDbBlockEnd
  0
ENDSEC
  0
SECTION
  2
ENTITIES
  0
LINE
  5
206
100
AcDbEntity
  8
0
100
AcDbLine
 62
6
  6
CONTINUOUS
 10
2.4805355688
 20
7.3569780071
 11
2.4805355688
 21
0.8569780071
  0
LINE
  5
207
100
AcDbEntity
  8
0
100
AcDbLine
 62
6
  6
CONTINUOUS
 10
2.5955355688
 20
7.2419780071
 11
2.5955355688
 21
0.9719780071
  0
LINE
  5
208
100
AcDbEntity
  8
0
100
AcDbLine
 62
6
  6
CONTINUOUS
 10
2.4805355688
 20
0.8569780071
 11
8.9805355688
 21
0.8569780071
  0
LINE
  5
209
100
AcDbEntity
  8
0
100
AcDbLine
 62
6
  6
CONTINUOUS
 10
2.5955355688
 20
0.9719780071
 11
8.8655355688
 21
0.9719780071
  0
LINE
  5
20A
100
AcDbEntity
  8
0
100
AcDbLine
 62
9
  6
CONTINUOUS
 10
4.7233939732
 20
5.0381488805
 11
4.7233842791
 21
5.0381108564
  0
LWPOLYLINE
  5
20B
100
AcDbEntity
  8
0
100
AcDbPolyline
 62
6
  6
CONTINUOUS
 90
7
 70
0
 10
4.7229946173
 20
5.0370683464
 10
4.7183170897
 20
5.020847001
 10
4.7144115198
 20
5.0033027434
 10
4.7115160268
 20
4.9845603751
 10
4.7098563569
 20
4.9653939343
 10
4.7094948123
 20
4.9464421614
 10
4.7104116227
 20
4.9278857436
  0
LWPOLYLINE
  5
20C
100
AcDbEntity
  8
0
100
AcDbPolyline
 62
6
  6
CONTINUOUS
 90
9
 70
0
 10
4.7233939732
 20
5.0381488805
 10
4.7190102691
 20
5.0232265648
 10
4.7153269971
 20
5.0073864012
 10
4.7126021792
 20
4.9915790066
 10
4.7107919803
 20
4.9757396621
 10
4.7098787872
 20
4.9597991694
 10
4.7098708058
 20
4.9436875088
 10
4.7108018908
 20
4.9273408704
 10
4.711881884
 20
4.9170133756
  0
LINE
  5
20D
100
AcDbEntity
  8
0
100
AcDbLine
 62
9
  6
CONTINUOUS
 10
4.7229956102
 20
5.0370714441
 11
4.7229946173
 21
5.0370683464
  0
LINE
  5
20E
100
AcDbEntity
  8
0
100
AcDbLine
 62
6
  6
CONTINUOUS
 10
4.7247743154
 20
5.0422689324
 11
4.7229956102
 21
5.0370714441
  0
LWPOLYLINE
  5
20F
100
AcDbEntity
  8
0
100
AcDbPolyline
 62
6
  6
CONTINUOUS
 90
3
 70
0
 10
4.7302962219
 20
5.0548869183
 10
4.7262705957
 20
5.0460338022
 10
4.7233939739
 20
5.0381488826
  0
LWPOLYLINE
  5
210
100
AcDbEntity
  8
0
100
AcDbPolyline
 62
6
  6
CONTINUOUS
 90
3
 70
0
 10
4.7404364969
 20
5.0714514504
 10
4.7350299132
 20
5.0633779096
 10
4.7302962219
 20
5.0548869183
  0
LWPOLYLINE
  5
211
100
AcDbEntity
  8
0
100
AcDbPolyline
 62
6
  6
CONTINUOUS
 90
7
 70
0
 10
4.742267592
 20
5.073949243
 10
4.7390670853
 20
5.0695733079
 10
4.7356573526
 20
5.0644265693
 10
4.7325823296
 20
5.0592952386
 10
4.7297723491
 20
5.0539905545
 10
4.727190851
 20
5.0483821166
 10
4.7247743154
 20
5.0422689324
  0
LINE
  5
212
100
AcDbEntity
  8
0
100
AcDbLine
 62
6
  6
CONTINUOUS
 10
4.7464807603
 20
5.0790522427
 11
4.7404364969
 21
5.0714514504
  0
LINE
  5
213
100
AcDbEntity
  8
0
100
AcDbLine
 62
6
  6
CONTINUOUS
 10
4.7522533371
 20
5.0852602388
 11
4.7464807603
 21
5.0790522427
  0
LWPOLYLINE
  5
214
100
AcDbEntity
  8
0
100
AcDbPolyline
 62
6
  6
CONTINUOUS
 90
3
 70
0
 10
4.7659708865
 20
5.097010368
 10
4.7583764906
 20
5.0909593902
 10
4.7522533371
 20
5.0852602388
  0
LINE
  5
215
100
AcDbEntity
  8
0
100
AcDbLine
 62
6
  6
CONTINUOUS
 10
4.7678463444
 20
5.0983810168
 11
4.7635617217
 21
5.0952439756
  0
LINE
  5
216
100
AcDbEntity
  8
0
100
AcDbLine
 62
6
  6
CONTINUOUS
 10
4.7740390908
 20
5.1024244768
 11
4.7659708865
 21
5.097010368
  0
LWPOLYLINE
  5
217
100
AcDbEntity
  8
0
100
AcDbPolyline
 62
6
  6
CONTINUOUS
 90
3
 70
0
 10
4.7913759912
 20
5.111200793
 10
4.782525875
 20
5.1071663816
 10
4.7740390908
 20
5.1024244768
  0
LINE
  5
218
100
AcDbEntity
  8
0
100
AcDbLine
 62
6
  6
CONTINUOUS
 10
4.799364694
 20
5.1141196022
 11
4.7913759912
 21
5.111200793
  0
LWPOLYLINE
  5
219
100
AcDbEntity
  8
0
100
AcDbPolyline
 62
6
  6
CONTINUOUS
 90
7
 70
0
 10
4.8004422092
 20
5.1145179905
 10
4.7951155447
 20
5.112692049
 10
4.789010388
 20
5.1102708969
 10
4.7834089256
 20
5.1076846937
 10
4.7781106401
 20
5.1048702836
 10
4.7729859288
 20
5.1017923053
 10
4.7678463444
 20
5.0983810168
  0
LINE
  5
21A
100
AcDbEntity
  8
0
100
AcDbLine
 62
9
  6
CONTINUOUS
 10
4.8004422092
 20
5.1145179905
 11
4.8004453528
 21
5.1145189981
  0
LINE
  5
21B
100
AcDbEntity
  8
0
100
AcDbLine
 62
6
  6
CONTINUOUS
 10
4.8142077973
 20
5.1184824192
 11
4.7993646947
 21
5.1141196024
  0
LINE
  5
21C
100
AcDbEntity
  8
0
100
AcDbLine
 62
9
  6
CONTINUOUS
 10
6.6617064429
 20
3.0998364117
 11
6.6616684182
 21
3.0998267174
  0
LINE
  5
21D
100
AcDbEntity
  8
0
100
AcDbLine
 62
9
  6
CONTINUOUS
 10
4.7993646954
 20
3.0998364115
 11
4.7994027195
 21
3.0998267174
  0
LWPOLYLINE
  5
21E
100
AcDbEntity
  8
0
100
AcDbPolyline
 62
6
  6
CONTINUOUS
 90
7
 70
0
 10
4.8004452295
 20
3.0994370555
 10
4.8166666774
 20
3.0947595017
 10
4.8342110446
 20
3.0908539179
 10
4.8529535398
 20
3.0879584242
 10
4.8721200933
 20
3.0862987713
 10
4.8910719679
 20
3.0859372589
 10
4.9096284818
 20
3.0868541152
  0
LWPOLYLINE
  5
21F
100
AcDbEntity
  8
0
100
AcDbPolyline
 62
6
  6
CONTINUOUS
 90
9
 70
0
 10
4.7993646954
 20
3.0998364115
 10
4.814286902
 20
3.0954527361
 10
4.8301269579
 20
3.0917694791
 10
4.8459342447
 20
3.0890446638
 10
4.8617734798
 20
3.0872344557
 10
4.8777138593
 20
3.0863212413
 10
4.8938254016
 20
3.0863132254
 10
4.9101719148
 20
3.087244261
 10
4.9205038236
 20
3.0883247686
  0
LINE
  5
220
100
AcDbEntity
  8
0
100
AcDbLine
 62
9
  6
CONTINUOUS
 10
4.8004421318
 20
3.0994380484
 11
4.8004452295
 21
3.0994370555
  0
LINE
  5
221
100
AcDbEntity
  8
0
100
AcDbLine
 62
6
  6
CONTINUOUS
 10
4.7952446435
 20
3.1012167536
 11
4.8004421318
 21
3.0994380484
  0
LWPOLYLINE
  5
222
100
AcDbEntity
  8
0
100
AcDbPolyline
 62
6
  6
CONTINUOUS
 90
3
 70
0
 10
4.7826266575
 20
3.1067386601
 10
4.7914797736
 20
3.102713034
 10
4.7993646933
 20
3.0998364121
  0
LWPOLYLINE
  5
223
100
AcDbEntity
  8
0
100
AcDbPolyline
 62
6
  6
CONTINUOUS
 90
3
 70
0
 10
4.7660621255
 20
3.1168789351
 10
4.7741356663
 20
3.1114723514
 10
4.7826266575
 20
3.1067386601
  0
LWPOLYLINE
  5
224
100
AcDbEntity
  8
0
100
AcDbPolyline
 62
6
  6
CONTINUOUS
 90
7
 70
0
 10
4.7635648722
 20
3.1187096155
 10
4.767940268
 20
3.1155095235
 10
4.7730870066
 20
3.1120997909
 10
4.7782183373
 20
3.1090247679
 10
4.7835230213
 20
3.1062147873
 10
4.7891314593
 20
3.1036332893
 10
4.7952446435
 20
3.1012167536
  0
LINE
  5
225
100
AcDbEntity
  8
0
100
AcDbLine
 62
6
  6
CONTINUOUS
 10
4.7584613332
 20
3.1229231985
 11
4.7660621255
 21
3.1168789351
  0
LINE
  5
226
100
AcDbEntity
  8
0
100
AcDbLine
 62
6
  6
CONTINUOUS
 10
4.7522533371
 20
3.1286957753
 11
4.7584613332
 21
3.1229231985
  0
LWPOLYLINE
  5
227
100
AcDbEntity
  8
0
100
AcDbPolyline
 62
6
  6
CONTINUOUS
 90
3
 70
0
 10
4.7405032079
 20
3.1424133247
 10
4.7465541857
 20
3.1348189288
 10
4.7522533371
 20
3.1286957753
  0
LINE
  5
228
100
AcDbEntity
  8
0
100
AcDbLine
 62
6
  6
CONTINUOUS
 10
4.7391325591
 20
3.1442887827
 11
4.7422692159
 21
3.1400046597
  0
LINE
  5
229
100
AcDbEntity
  8
0
100
AcDbLine
 62
6
  6
CONTINUOUS
 10
4.7350890991
 20
3.1504815291
 11
4.7405032079
 21
3.1424133247
  0
LWPOLYLINE
  5
22A
100
AcDbEntity
  8
0
100
AcDbPolyline
 62
6
  6
CONTINUOUS
 90
3
 70
0
 10
4.7263127829
 20
3.1678184294
 10
4.7303471943
 20
3.1589683132
 10
4.7350890991
 20
3.1504815291
  0
LINE
  5
22B
100
AcDbEntity
  8
0
100
AcDbLine
 62
6
  6
CONTINUOUS
 10
4.7233939737
 20
3.1758071323
 11
4.7263127829
 21
3.1678184294
  0
LWPOLYLINE
  5
22C
100
AcDbEntity
  8
0
100
AcDbPolyline
 62
6
  6
CONTINUOUS
 90
7
 70
0
 10
4.7229955854
 20
3.1768846474
 10
4.7248215269
 20
3.171557983
 10
4.7272426789
 20
3.1654528262
 10
4.7298288822
 20
3.1598513638
 10
4.7326432923
 20
3.1545530783
 10
4.7357212706
 20
3.1494283671
 10
4.7391325591
 20
3.1442887827
  0
LINE
  5
22D
100
AcDbEntity
  8
0
100
AcDbLine
 62
9
  6
CONTINUOUS
 10
4.7229955854
 20
3.1768846474
 11
4.7229945778
 21
3.1768877911
  0
LINE
  5
22E
100
AcDbEntity
  8
0
100
AcDbLine
 62
6
  6
CONTINUOUS
 10
4.7190311551
 20
3.1906502416
 11
4.7233939735
 21
3.1758071329
  0
LINE
  5
22F
100
AcDbEntity
  8
0
100
AcDbLine
 62
9
  6
CONTINUOUS
 10
4.7233939735
 20
3.1758071329
 11
4.7233842791
 21
3.1758451577
  0
LWPOLYLINE
  5
230
100
AcDbEntity
  8
0
100
AcDbPolyline
 62
6
  6
CONTINUOUS
 90
8
 70
0
 10
4.7118818812
 20
3.2969426161
 10
4.7108009319
 20
3.2866039967
 10
4.7098701755
 20
3.2702459437
 10
4.7098797713
 20
3.2541229566
 10
4.7107958569
 20
3.2381711651
 10
4.7126102665
 20
3.2223205257
 10
4.7153407052
 20
3.2065017979
 10
4.7190311551
 20
3.1906502416
  0
LWPOLYLINE
  5
231
100
AcDbEntity
  8
0
100
AcDbPolyline
 62
6
  6
CONTINUOUS
 90
8
 70
0
 10
4.7125274446
 20
3.304229806
 10
4.7104083321
 20
3.2860308334
 10
4.7094941393
 20
3.2674690664
 10
4.7098590749
 20
3.2485107255
 10
4.7115231031
 20
3.2293369383
 10
4.7144234191
 20
3.2105904395
 10
4.718332042
 20
3.1930507123
 10
4.7229945778
 20
3.1768877911
  0
LWPOLYLINE
  5
232
100
AcDbEntity
  8
0
100
AcDbPolyline
 62
6
  6
CONTINUOUS
 90
10
 70
0
 10
4.9096284818
 20
3.0868541152
 10
4.9278224074
 20
3.0889751278
 10
4.9457474539
 20
3.0922592439
 10
4.9632833878
 20
3.0966890099
 10
4.9802652106
 20
3.1022157953
 10
4.996586288
 20
3.1087105468
 10
5.0122633452
 20
3.1161006688
 10
5.0273612037
 20
3.1243898373
 10
5.0419331589
 20
3.1335979677
 10
5.0521878558
 20
3.1408351409
  0
LWPOLYLINE
  5
233
100
AcDbEntity
  8
0
100
AcDbPolyline
 62
6
  6
CONTINUOUS
 90
8
 70
0
 10
6.5405709594
 20
3.0883243195
 10
6.5509095791
 20
3.0872433701
 10
6.5672676322
 20
3.0863126137
 10
6.5833906193
 20
3.0863222096
 10
6.5993424108
 20
3.0872382951
 10
6.6151930502
 20
3.0890527047
 10
6.6310117779
 20
3.0917831434
 10
6.6468633343
 20
3.0954735933
  0
LWPOLYLINE
  5
234
100
AcDbEntity
  8
0
100
AcDbPolyline
 62
6
  6
CONTINUOUS
 90
8
 70
0
 10
6.5332837698
 20
3.0889698829
 10
6.5514827424
 20
3.0868507703
 10
6.5700445094
 20
3.0859365775
 10
6.5890028503
 20
3.0863015132
 10
6.6081766376
 20
3.0879655413
 10
6.6269231363
 20
3.0908658573
 10
6.6444628636
 20
3.0947744802
 10
6.6606257848
 20
3.099437016
  0
LWPOLYLINE
  5
235
100
AcDbEntity
  8
0
100
AcDbPolyline
 62
6
  6
CONTINUOUS
 90
10
 70
0
 10
4.7104116227
 20
4.9278857436
 10
4.7125325779
 20
4.9096919144
 10
4.715816623
 20
4.8917669624
 10
4.7202463053
 20
4.8742311095
 10
4.7257730006
 20
4.8572493502
 10
4.7322676601
 20
4.84092832
 10
4.7396576841
 20
4.8252513035
 10
4.7479467439
 20
4.8101534823
 10
4.7571547542
 20
4.7955815665
 10
4.7643919904
 20
4.7853266857
  0
LINE
  5
236
100
AcDbEntity
  8
0
100
AcDbLine
 62
9
  6
CONTINUOUS
 10
5.1587680406
 20
4.4838735878
 11
5.3536399881
 21
4.6787455353
  0
LINE
  5
237
100
AcDbEntity
  8
0
100
AcDbLine
 62
9
  6
CONTINUOUS
 10
5.3536399881
 20
3.5352104788
 11
5.1587680406
 21
3.7300824264
  0
LWPOLYLINE
  5
238
100
AcDbEntity
  8
0
100
AcDbPolyline
 62
6
  6
CONTINUOUS
 90
9
 70
0
 10
4.7643919057
 20
3.4286292137
 10
4.7571522873
 20
3.41837079
 10
4.7479420467
 20
3.4037945733
 10
4.7396515083
 20
3.3886925874
 10
4.7322606628
 20
3.3730115888
 10
4.7257657965
 20
3.3566867611
 10
4.7202393219
 20
3.3397007423
 10
4.7158103253
 20
3.3221600687
 10
4.7125274446
 20
3.304229806
  0
LINE
  5
239
100
AcDbEntity
  8
0
100
AcDbLine
 62
6
  6
CONTINUOUS
 10
4.764282913
 20
3.4284415318
 11
4.7831671132
 21
3.4514596518
  0
LINE
  5
23A
100
AcDbEntity
  8
0
100
AcDbLine
 62
6
  6
CONTINUOUS
 10
6.3860539241
 20
5.0543464627
 11
6.4090693136
 21
5.0732286558
  0
LWPOLYLINE
  5
23B
100
AcDbEntity
  8
0
100
AcDbPolyline
 62
6
  6
CONTINUOUS
 90
6
 70
0
 10
5.5054910288
 20
4.6170402259
 10
5.4987166634
 20
4.6143507258
 10
5.4909293238
 20
4.6119357615
 10
5.4825723933
 20
4.6100921768
 10
5.4738393101
 20
4.6089480215
 10
5.4723862906
 20
4.6088330945
  0
LWPOLYLINE
  5
23C
100
AcDbEntity
  8
0
100
AcDbPolyline
 62
6
  6
CONTINUOUS
 90
7
 70
0
 10
5.4546587139
 20
3.6048203169
 10
5.4556619597
 20
3.6049218606
 10
5.4644597705
 20
3.6053777105
 10
5.4732986409
 20
3.6050546619
 10
5.4819891846
 20
3.6039663904
 10
5.4903369311
 20
3.6021776916
 10
5.4981591407
 20
3.5998036403
  0
LINE
  5
23D
100
AcDbEntity
  8
0
100
AcDbLine
 62
6
  6
CONTINUOUS
 10
5.4981591407
 20
3.5998036403
 11
5.5053267563
 21
3.5969901335
  0
LWPOLYLINE
  5
23E
100
AcDbEntity
  8
0
100
AcDbPolyline
 62
6
  6
CONTINUOUS
 90
9
 70
0
 10
6.4088843623
 20
3.1408343439
 10
6.4191427858
 20
3.1335947256
 10
6.4337190025
 20
3.124384485
 10
6.4488209884
 20
3.1160939465
 10
6.464501987
 20
3.1087031011
 10
6.4808268147
 20
3.1022082348
 10
6.4978128335
 20
3.0966817602
 10
6.5153535071
 20
3.0922527636
 10
6.5332837698
 20
3.0889698829
  0
LINE
  5
23F
100
AcDbEntity
  8
0
100
AcDbLine
 62
6
  6
CONTINUOUS
 10
6.4090720322
 20
3.1407253599
 11
6.3860539241
 21
3.1596095514
  0
LINE
  5
240
100
AcDbEntity
  8
0
100
AcDbLine
 62
6
  6
CONTINUOUS
 10
4.7831671132
 20
4.7624963623
 11
4.7642916415
 21
4.7855025998
  0
LWPOLYLINE
  5
241
100
AcDbEntity
  8
0
100
AcDbPolyline
 62
6
  6
CONTINUOUS
 90
6
 70
0
 10
5.2204323539
 20
3.8820241841
 10
5.2229561214
 20
3.8757325412
 10
5.2253415009
 20
3.8682415631
 10
5.2272350015
 20
3.8600383888
 10
5.2284674864
 20
3.8513444999
 10
5.2289140754
 20
3.8437945767
  0
LINE
  5
242
100
AcDbEntity
  8
0
100
AcDbLine
 62
6
  6
CONTINUOUS
 10
5.6005355688
 20
5.0682197892
 11
5.6005355688
 21
5.2120340969
  0
LINE
  5
243
100
AcDbEntity
  8
0
100
AcDbLine
 62
6
  6
CONTINUOUS
 10
5.1009543868
 20
3.193635394
 11
5.1204783141
 21
3.2257322351
  0
LINE
  5
244
100
AcDbEntity
  8
0
100
AcDbLine
 62
6
  6
CONTINUOUS
 10
5.1204783141
 20
3.2257322351
 11
5.1269822671
 21
3.2362765071
  0
LWPOLYLINE
  5
245
100
AcDbEntity
  8
0
100
AcDbPolyline
 62
6
  6
CONTINUOUS
 90
6
 70
0
 10
5.1269822671
 20
3.2362765071
 10
5.134439773
 20
3.2482410152
 10
5.1428787377
 20
3.2616242305
 10
5.1523409275
 20
3.276433445
 10
5.1628840938
 20
3.292684196
 10
5.1737270283
 20
3.3091099376
  0
LINE
  5
246
100
AcDbEntity
  8
0
100
AcDbLine
 62
6
  6
CONTINUOUS
 10
5.2036038399
 20
3.3528302034
 11
5.1950827677
 21
3.3405941128
  0
LINE
  5
247
100
AcDbEntity
  8
0
100
AcDbLine
 62
6
  6
CONTINUOUS
 10
6.2574672977
 20
4.8611258107
 11
6.2659884808
 21
4.8733620626
  0
LINE
  5
248
100
AcDbEntity
  8
0
100
AcDbLine
 62
9
  6
CONTINUOUS
 10
6.3506674472
 20
5.003323439
 11
6.3457850831
 21
4.9967305078
  0
LINE
  5
249
100
AcDbEntity
  8
0
100
AcDbLine
 62
9
  6
CONTINUOUS
 10
5.1104036904
 20
3.2106325751
 11
5.1152587086
 21
3.2171886874
  0
LWPOLYLINE
  5
24A
100
AcDbEntity
  8
0
100
AcDbPolyline
 62
6
  6
CONTINUOUS
 90
7
 70
0
 10
6.1923849258
 20
4.7741763035
 10
6.1781316363
 20
4.7567296252
 10
6.1638601967
 20
4.7398366577
 10
6.149569636
 20
4.7234988598
 10
6.1352501482
 20
4.7077119991
 10
6.120884583
 20
4.6924694804
 10
6.1075480348
 20
4.6788624412
  0
LWPOLYLINE
  5
24B
100
AcDbEntity
  8
0
100
AcDbPolyline
 62
6
  6
CONTINUOUS
 90
15
 70
0
 10
6.3793398719
 20
5.0475902081
 10
6.378289961
 20
5.0464106194
 10
6.3763546619
 20
5.0441425598
 10
6.3745806216
 20
5.0419503102
 10
6.3729882834
 20
5.0398853026
 10
6.3715692547
 20
5.0379652166
 10
6.3702971856
 20
5.0361801676
 10
6.3691334395
 20
5.0344961978
 10
6.368042509
 20
5.0328765043
 10
6.3669930505
 20
5.0312846832
 10
6.3659518324
 20
5.0296769646
 10
6.3648907167
 20
5.0280139652
 10
6.3637875222
 20
5.0262634508
 10
6.3626276716
 20
5.0244040899
 10
6.3600940455
 20
5.0202943354
  0
LINE
  5
24C
100
AcDbEntity
  8
0
100
AcDbLine
 62
6
  6
CONTINUOUS
 10
6.3793398719
 20
5.0475902081
 11
6.3860539241
 21
5.0543464627
  0
LINE
  5
24D
100
AcDbEntity
  8
0
100
AcDbLine
 62
6
  6
CONTINUOUS
 10
6.0665586742
 20
4.63787306
 11
6.1075479625
 21
4.6788623677
  0
LINE
  5
24E
100
AcDbEntity
  8
0
100
AcDbLine
 62
9
  6
CONTINUOUS
 10
5.3363233795
 20
3.7127658177
 11
4.7522533371
 21
3.1286957753
  0
LINE
  5
24F
100
AcDbEntity
  8
0
100
AcDbLine
 62
9
  6
CONTINUOUS
 10
6.124747758
 20
4.5011901963
 11
6.7088178006
 21
5.0852602388
  0
LINE
  5
250
100
AcDbEntity
  8
0
100
AcDbLine
 62
6
  6
CONTINUOUS
 10
5.1996485012
 20
3.770962887
 11
5.1586647212
 21
3.7299791231
  0
LINE
  5
251
100
AcDbEntity
  8
0
100
AcDbLine
 62
6
  6
CONTINUOUS
 10
4.7831671132
 20
3.4514596518
 11
4.7899489316
 21
3.4581967856
  0
LWPOLYLINE
  5
252
100
AcDbEntity
  8
0
100
AcDbPolyline
 62
6
  6
CONTINUOUS
 90
7
 70
0
 10
5.1586647212
 20
3.7299791231
 10
5.1457629507
 20
3.7173208416
 10
5.1312999132
 20
3.7036509038
 10
5.116348594
 20
3.6900277886
 10
5.1008976245
 20
3.6764308479
 10
5.0849366147
 20
3.662845475
 10
5.0684602385
 20
3.6492654352
  0
LINE
  5
253
100
AcDbEntity
  8
0
100
AcDbLine
 62
9
  6
CONTINUOUS
 10
4.8407462491
 20
3.4917011468
 11
4.8341901369
 21
3.4868461286
  0
LINE
  5
254
100
AcDbEntity
  8
0
100
AcDbLine
 62
9
  6
CONTINUOUS
 10
6.6202880696
 20
4.7222275214
 11
6.6268810008
 21
4.7271098855
  0
LINE
  5
255
100
AcDbEntity
  8
0
100
AcDbLine
 62
6
  6
CONTINUOUS
 10
6.4846802329
 20
4.6339075729
 11
6.4969228051
 21
4.6424336649
  0
LINE
  5
256
100
AcDbEntity
  8
0
100
AcDbLine
 62
6
  6
CONTINUOUS
 10
4.9763919516
 20
3.5800491631
 11
4.964149953
 21
3.5715234691
  0
LWPOLYLINE
  5
257
100
AcDbEntity
  8
0
100
AcDbPolyline
 62
6
  6
CONTINUOUS
 90
5
 70
0
 10
6.528403808
 20
4.6637865639
 10
6.544823103
 20
4.6746251154
 10
6.561069021
 20
4.6851648924
 10
6.5758729812
 20
4.6946233143
 10
6.5892507121
 20
4.7030582356
  0
LWPOLYLINE
  5
258
100
AcDbEntity
  8
0
100
AcDbPolyline
 62
6
  6
CONTINUOUS
 90
5
 70
0
 10
4.9326673736
 20
3.5501693835
 10
4.9162417577
 20
3.5393265321
 10
4.8999910067
 20
3.5287833658
 10
4.8851817922
 20
3.5193211759
 10
4.871798577
 20
3.5108822112
  0
LWPOLYLINE
  5
259
100
AcDbEntity
  8
0
100
AcDbPolyline
 62
6
  6
CONTINUOUS
 90
13
 70
0
 10
6.6498210126
 20
4.7402299604
 10
6.6515715269
 20
4.7413331549
 10
6.6532345264
 20
4.7423942707
 10
6.6548422449
 20
4.7434354887
 10
6.6564340661
 20
4.7444849472
 10
6.6580537596
 20
4.7455758777
 10
6.6597377294
 20
4.7467396239
 10
6.6615227784
 20
4.7480116929
 10
6.6634428643
 20
4.7494307216
 10
6.665507872
 20
4.7510230598
 10
6.6677001215
 20
4.7527971002
 10
6.6699681812
 20
4.7547323992
 10
6.6711477684
 20
4.7557823088
  0
LWPOLYLINE
  5
25A
100
AcDbEntity
  8
0
100
AcDbPolyline
 62
6
  6
CONTINUOUS
 90
3
 70
0
 10
6.5892507121
 20
4.7030582356
 10
6.6012097123
 20
4.7105115549
 10
6.6117487186
 20
4.717011372
  0
LINE
  5
25B
100
AcDbEntity
  8
0
100
AcDbLine
 62
6
  6
CONTINUOUS
 10
6.6459768817
 20
4.7378423079
 11
6.6498210126
 21
4.7402299604
  0
LINE
  5
25C
100
AcDbEntity
  8
0
100
AcDbLine
 62
6
  6
CONTINUOUS
 10
6.6391052812
 20
4.7336405298
 11
6.6459768817
 21
4.7378423079
  0
LINE
  5
25D
100
AcDbEntity
  8
0
100
AcDbLine
 62
6
  6
CONTINUOUS
 10
6.6117487186
 20
4.717011372
 11
6.6391052812
 21
4.7336405298
  0
LINE
  5
25E
100
AcDbEntity
  8
0
100
AcDbLine
 62
6
  6
CONTINUOUS
 10
6.6438781819
 20
3.477396825
 11
6.6117813408
 21
3.4969207523
  0
LINE
  5
25F
100
AcDbEntity
  8
0
100
AcDbLine
 62
6
  6
CONTINUOUS
 10
6.6117813408
 20
3.4969207523
 11
6.6012370688
 21
3.5034247053
  0
LWPOLYLINE
  5
260
100
AcDbEntity
  8
0
100
AcDbPolyline
 62
6
  6
CONTINUOUS
 90
6
 70
0
 10
6.6012370688
 20
3.5034247053
 10
6.5892725607
 20
3.5108822112
 10
6.5758893454
 20
3.5193211759
 10
6.5610801309
 20
3.5287833658
 10
6.5448293799
 20
3.5393265321
 10
6.5284036383
 20
3.5501694666
  0
LINE
  5
261
100
AcDbEntity
  8
0
100
AcDbLine
 62
6
  6
CONTINUOUS
 10
6.4846833725
 20
3.5800462781
 11
6.4969194631
 21
3.571525206
  0
LINE
  5
262
100
AcDbEntity
  8
0
100
AcDbLine
 62
6
  6
CONTINUOUS
 10
4.9763877652
 20
4.633909736
 11
4.9641514981
 21
4.64243093
  0
LINE
  5
263
100
AcDbEntity
  8
0
100
AcDbLine
 62
9
  6
CONTINUOUS
 10
4.8341901369
 20
4.7271098855
 11
4.8407831372
 21
4.7222274682
  0
LINE
  5
264
100
AcDbEntity
  8
0
100
AcDbLine
 62
9
  6
CONTINUOUS
 10
6.6268810008
 20
3.4868461286
 11
6.6203248885
 21
3.4917011468
  0
LWPOLYLINE
  5
265
100
AcDbEntity
  8
0
100
AcDbPolyline
 62
6
  6
CONTINUOUS
 90
7
 70
0
 10
5.063259271
 20
4.5688900479
 10
5.0807207222
 20
4.5546265927
 10
5.0976278743
 20
4.5403447843
 10
5.1139791688
 20
4.5260437281
 10
5.1297787474
 20
4.511713687
 10
5.145033137
 20
4.4973375576
 10
5.1586506713
 20
4.4839909363
  0
LWPOLYLINE
  5
266
100
AcDbEntity
  8
0
100
AcDbPolyline
 62
6
  6
CONTINUOUS
 90
15
 70
0
 10
4.7899233083
 20
4.7557823638
 10
4.7911029008
 20
4.7547324479
 10
4.793370951
 20
4.7527971536
 10
4.7955631937
 20
4.7510231152
 10
4.7976281985
 20
4.7494307758
 10
4.799548285
 20
4.7480117436
 10
4.801333337
 20
4.7467396697
 10
4.8030173114
 20
4.745575918
 10
4.804637011
 20
4.7444849815
 10
4.8062288397
 20
4.7434355163
 10
4.807836567
 20
4.7423942911
 10
4.8094995764
 20
4.7413331677
 10
4.8112501015
 20
4.7402299653
 10
4.8131094738
 20
4.7390701067
 10
4.8172192514
 20
4.7365364649
  0
LINE
  5
267
100
AcDbEntity
  8
0
100
AcDbLine
 62
6
  6
CONTINUOUS
 10
4.7899233083
 20
4.7557823638
 11
4.7831671132
 21
4.7624963623
  0
LINE
  5
268
100
AcDbEntity
  8
0
100
AcDbLine
 62
6
  6
CONTINUOUS
 10
5.1996528488
 20
4.4429887795
 11
5.1586507477
 21
4.4839908611
  0
LINE
  5
269
100
AcDbEntity
  8
0
100
AcDbLine
 62
9
  6
CONTINUOUS
 10
6.1247477582
 20
3.7127658177
 11
6.7088178006
 21
3.1286957753
  0
LINE
  5
26A
100
AcDbEntity
  8
0
100
AcDbLine
 62
9
  6
CONTINUOUS
 10
4.7522533371
 20
5.0852602388
 11
5.336323379
 21
4.501190197
  0
LINE
  5
26B
100
AcDbEntity
  8
0
100
AcDbLine
 62
6
  6
CONTINUOUS
 10
6.0665509904
 20
3.5760906379
 11
6.1075344523
 21
3.5351071599
  0
LINE
  5
26C
100
AcDbEntity
  8
0
100
AcDbLine
 62
6
  6
CONTINUOUS
 10
6.3860539241
 20
3.1596095514
 11
6.3793167903
 21
3.1663913698
  0
LWPOLYLINE
  5
26D
100
AcDbEntity
  8
0
100
AcDbPolyline
 62
6
  6
CONTINUOUS
 90
7
 70
0
 10
6.1075344523
 20
3.5351071599
 10
6.1201927725
 20
3.5222053492
 10
6.1338627486
 20
3.507742269
 10
6.1474859021
 20
3.492790904
 10
6.1610828808
 20
3.477339886
 10
6.1746682916
 20
3.4613788252
 10
6.1882483688
 20
3.4449023956
  0
LINE
  5
26E
100
AcDbEntity
  8
0
100
AcDbLine
 62
9
  6
CONTINUOUS
 10
6.345812429
 20
3.2171886874
 11
6.3506674472
 21
3.2106325751
  0
LINE
  5
26F
100
AcDbEntity
  8
0
100
AcDbLine
 62
9
  6
CONTINUOUS
 10
5.1152861077
 20
4.9967304387
 11
5.1104036904
 21
5.003323439
  0
LINE
  5
270
100
AcDbEntity
  8
0
100
AcDbLine
 62
6
  6
CONTINUOUS
 10
5.2036063996
 20
4.861122096
 11
5.195080208
 21
4.8733648136
  0
LINE
  5
271
100
AcDbEntity
  8
0
100
AcDbLine
 62
6
  6
CONTINUOUS
 10
6.2574644118
 20
3.3528343913
 11
6.2659901062
 21
3.3405923921
  0
LWPOLYLINE
  5
272
100
AcDbEntity
  8
0
100
AcDbPolyline
 62
6
  6
CONTINUOUS
 90
5
 70
0
 10
5.1737270122
 20
4.9048462464
 10
5.1628884717
 20
4.9212655251
 10
5.152348703
 20
4.9375114313
 10
5.1428902898
 20
4.9523153794
 10
5.1344553771
 20
4.965693099
  0
LWPOLYLINE
  5
273
100
AcDbEntity
  8
0
100
AcDbPolyline
 62
6
  6
CONTINUOUS
 90
5
 70
0
 10
6.2873441923
 20
3.3091098118
 10
6.2981870438
 20
3.292684196
 10
6.3087302101
 20
3.276433445
 10
6.3181923999
 20
3.2616242305
 10
6.3266313647
 20
3.2482410152
  0
LWPOLYLINE
  5
274
100
AcDbEntity
  8
0
100
AcDbPolyline
 62
6
  6
CONTINUOUS
 90
13
 70
0
 10
5.0972836106
 20
5.0262634744
 10
5.0961804082
 20
5.0280139995
 10
5.0951192848
 20
5.0296770089
 10
5.0940780596
 20
5.0312847362
 10
5.0930285944
 20
5.0328765649
 10
5.0919376578
 20
5.0344962644
 10
5.0907739062
 20
5.0361802389
 10
5.0895018323
 20
5.0379652909
 10
5.0880828
 20
5.0398853774
 10
5.0864904607
 20
5.0419503822
 10
5.0847164223
 20
5.0441426249
 10
5.082781128
 20
5.0464106751
 10
5.0817312127
 20
5.0475902668
  0
LWPOLYLINE
  5
275
100
AcDbEntity
  8
0
100
AcDbPolyline
 62
6
  6
CONTINUOUS
 90
3
 70
0
 10
5.1344553771
 20
4.965693099
 10
5.1270020654
 20
4.9776520897
 10
5.1205022544
 20
4.9881910893
  0
LINE
  5
276
100
AcDbEntity
  8
0
100
AcDbLine
 62
6
  6
CONTINUOUS
 10
5.0996712791
 20
5.0224193205
 11
5.0972836106
 21
5.0262634744
  0
LINE
  5
277
100
AcDbEntity
  8
0
100
AcDbLine
 62
6
  6
CONTINUOUS
 10
5.1038730787
 20
5.0155476872
 11
5.0996712791
 21
5.0224193205
  0
LINE
  5
278
100
AcDbEntity
  8
0
100
AcDbLine
 62
6
  6
CONTINUOUS
 10
5.1205022544
 20
4.9881910893
 11
5.1038730787
 21
5.0155476872
  0
LINE
  5
279
100
AcDbEntity
  8
0
100
AcDbLine
 62
6
  6
CONTINUOUS
 10
5.8605355688
 20
5.0682197201
 11
5.8605355688
 21
5.2120340969
  0
LWPOLYLINE
  5
27A
100
AcDbEntity
  8
0
100
AcDbPolyline
 62
6
  6
CONTINUOUS
 90
3
 70
0
 10
6.3457848478
 20
4.9967301208
 10
6.3405689338
 20
4.9881911569
 10
6.3340691167
 20
4.9776521505
  0
LINE
  5
27B
100
AcDbEntity
  8
0
100
AcDbLine
 62
6
  6
CONTINUOUS
 10
6.3600940455
 20
5.0202943354
 11
6.3457850831
 21
4.9967305078
  0
LWPOLYLINE
  5
27C
100
AcDbEntity
  8
0
100
AcDbPolyline
 62
6
  6
CONTINUOUS
 90
6
 70
0
 10
6.3340691167
 20
4.9776521505
 10
6.3266157974
 20
4.9656931503
 10
6.3181808761
 20
4.9523154194
 10
6.3087224542
 20
4.9375114592
 10
6.2981826772
 20
4.9212655412
 10
6.2873440426
 20
4.9048461205
  0
LWPOLYLINE
  5
27D
100
AcDbEntity
  8
0
100
AcDbPolyline
 62
6
  6
CONTINUOUS
 90
7
 70
0
 10
5.2683254417
 20
3.4393306409
 10
5.2826385237
 20
3.4568639287
 10
5.2969689133
 20
3.4738376712
 10
5.3113181555
 20
3.4902512173
 10
5.3256968294
 20
3.5061096643
 10
5.340123113
 20
3.5214205454
 10
5.3535198367
 20
3.5350903056
  0
LINE
  5
27E
100
AcDbEntity
  8
0
100
AcDbLine
 62
6
  6
CONTINUOUS
 10
6.6968153909
 20
4.7855514849
 11
6.6779040245
 21
4.7624963623
  0
LWPOLYLINE
  5
27F
100
AcDbEntity
  8
0
100
AcDbPolyline
 62
6
  6
CONTINUOUS
 90
15
 70
0
 10
5.0817543468
 20
3.1663913691
 10
5.0828036006
 20
3.1675710527
 10
5.0847415495
 20
3.1698440454
 10
5.086516834
 20
3.172039947
 10
5.0881083163
 20
3.1741060622
 10
5.0895244177
 20
3.1760243169
 10
5.0907921427
 20
3.1778051858
 10
5.091950831
 20
3.1794834975
 10
5.0930363764
 20
3.181096603
 10
5.0940803863
 20
3.1826813325
 10
5.0951163333
 20
3.1842818817
 10
5.0961724901
 20
3.1859378999
 10
5.0972711718
 20
3.1876818799
 10
5.0984270332
 20
3.1895353161
 10
5.1009543868
 20
3.193635394
  0
LINE
  5
280
100
AcDbEntity
  8
0
100
AcDbLine
 62
6
  6
CONTINUOUS
 10
5.0817543468
 20
3.1663913691
 11
5.0750172136
 21
3.1596095514
  0
LINE
  5
281
100
AcDbEntity
  8
0
100
AcDbLine
 62
6
  6
CONTINUOUS
 10
5.3945221655
 20
3.5760926562
 11
5.3535199113
 21
3.5350903816
  0
LINE
  5
282
100
AcDbEntity
  8
0
100
AcDbLine
 62
6
  6
CONTINUOUS
 10
6.2614227459
 20
4.4429932364
 11
6.302404407
 21
4.4839748822
  0
LINE
  5
283
100
AcDbEntity
  8
0
100
AcDbLine
 62
6
  6
CONTINUOUS
 10
6.6779040245
 20
4.7624963623
 11
6.6711477684
 21
4.7557823088
  0
LWPOLYLINE
  5
284
100
AcDbEntity
  8
0
100
AcDbPolyline
 62
6
  6
CONTINUOUS
 90
7
 70
0
 10
6.302404407
 20
4.4839748822
 10
6.3152303339
 20
4.4965601624
 10
6.3296123448
 20
4.5101576824
 10
6.3444787005
 20
4.5237098647
 10
6.3598399272
 20
4.5372364077
 10
6.3757056373
 20
4.550751205
 10
6.39208045
 20
4.5642599789
  0
LINE
  5
285
100
AcDbEntity
  8
0
100
AcDbLine
 62
6
  6
CONTINUOUS
 10
5.0750172136
 20
3.1596095514
 11
5.0519064436
 21
3.1406573448
  0
LWPOLYLINE
  5
286
100
AcDbEntity
  8
0
100
AcDbPolyline
 62
6
  6
CONTINUOUS
 90
13
 70
0
 10
4.8112394416
 20
3.47371361
 10
4.8094954616
 20
3.4726149283
 10
4.8078394434
 20
3.4715587715
 10
4.8062388943
 20
3.4705228245
 10
4.8046541648
 20
3.4694788147
 10
4.8030410593
 20
3.4683932692
 10
4.8013627476
 20
3.467234581
 10
4.7995818787
 20
3.4659668559
 10
4.797663624
 20
3.4645507545
 10
4.7955975088
 20
3.4629592722
 10
4.7934016071
 20
3.4611839877
 10
4.7911286144
 20
3.4592460388
 10
4.7899489316
 20
3.4581967856
  0
LWPOLYLINE
  5
287
100
AcDbEntity
  8
0
100
AcDbPolyline
 62
6
  6
CONTINUOUS
 90
3
 70
0
 10
4.871798577
 20
3.5108822112
 10
4.8598340689
 20
3.5034247053
 10
4.8492897968
 20
3.4969207523
  0
LINE
  5
288
100
AcDbEntity
  8
0
100
AcDbLine
 62
6
  6
CONTINUOUS
 10
4.8150724221
 20
3.476093843
 11
4.8112394416
 21
3.47371361
  0
LINE
  5
289
100
AcDbEntity
  8
0
100
AcDbLine
 62
6
  6
CONTINUOUS
 10
4.8219330167
 20
3.4802888185
 11
4.8150724221
 21
3.476093843
  0
LINE
  5
28A
100
AcDbEntity
  8
0
100
AcDbLine
 62
6
  6
CONTINUOUS
 10
4.8492897968
 20
3.4969207523
 11
4.8338023183
 21
3.48748608
  0
LINE
  5
28B
100
AcDbEntity
  8
0
100
AcDbLine
 62
6
  6
CONTINUOUS
 10
4.8338023183
 20
3.48748608
 11
4.8219330167
 21
3.4802888185
  0
LWPOLYLINE
  5
28C
100
AcDbEntity
  8
0
100
AcDbPolyline
 62
6
  6
CONTINUOUS
 90
3
 70
0
 10
4.8407835243
 20
4.7222272329
 10
4.8493224866
 20
4.7170113215
 10
4.8598614862
 20
4.7105115105
  0
LINE
  5
28D
100
AcDbEntity
  8
0
100
AcDbLine
 62
6
  6
CONTINUOUS
 10
4.8172192514
 20
4.7365364649
 11
4.8407831372
 21
4.7222274682
  0
LWPOLYLINE
  5
28E
100
AcDbEntity
  8
0
100
AcDbPolyline
 62
6
  6
CONTINUOUS
 90
6
 70
0
 10
4.8598614862
 20
4.7105115105
 10
4.8718204769
 20
4.7030581988
 10
4.8851981965
 20
4.6946232861
 10
4.9000021446
 20
4.6851648729
 10
4.9162480508
 20
4.6746251041
 10
4.9326674553
 20
4.6637864807
  0
LWPOLYLINE
  5
28F
100
AcDbEntity
  8
0
100
AcDbPolyline
 62
6
  6
CONTINUOUS
 90
7
 70
0
 10
6.3981828712
 20
3.6447679312
 10
6.3806495955
 20
3.6590810049
 10
6.3636758646
 20
3.673411386
 10
6.3472623295
 20
3.6877606196
 10
6.3314038929
 20
3.7021392849
 10
6.3160930215
 20
3.7165655599
 10
6.3024232705
 20
3.7299622747
  0
LINE
  5
290
100
AcDbEntity
  8
0
100
AcDbLine
 62
6
  6
CONTINUOUS
 10
5.0519918211
 20
5.0732360033
 11
5.0750172136
 21
5.0543464627
  0
LWPOLYLINE
  5
291
100
AcDbEntity
  8
0
100
AcDbPolyline
 62
6
  6
CONTINUOUS
 90
15
 70
0
 10
6.6711222067
 20
3.458196785
 10
6.6699425232
 20
3.4592460388
 10
6.6676695305
 20
3.4611839877
 10
6.6654736289
 20
3.4629592722
 10
6.6634075137
 20
3.4645507545
 10
6.661489259
 20
3.4659668559
 10
6.65970839
 20
3.467234581
 10
6.6580300784
 20
3.4683932692
 10
6.6564169729
 20
3.4694788147
 10
6.6548322434
 20
3.4705228245
 10
6.6532316942
 20
3.4715587715
 10
6.651575676
 20
3.4726149283
 10
6.649831696
 20
3.47371361
 10
6.6479782598
 20
3.4748694714
 10
6.6438781819
 20
3.477396825
  0
LINE
  5
292
100
AcDbEntity
  8
0
100
AcDbLine
 62
6
  6
CONTINUOUS
 10
6.6711222067
 20
3.458196785
 11
6.6779040245
 21
3.4514596518
  0
LINE
  5
293
100
AcDbEntity
  8
0
100
AcDbLine
 62
6
  6
CONTINUOUS
 10
6.2614258225
 20
3.770959701
 11
6.3024231945
 21
3.7299623494
  0
LINE
  5
294
100
AcDbEntity
  8
0
100
AcDbLine
 62
6
  6
CONTINUOUS
 10
5.3945200114
 20
4.6378655122
 11
5.353538741
 21
4.6788467979
  0
LINE
  5
295
100
AcDbEntity
  8
0
100
AcDbLine
 62
6
  6
CONTINUOUS
 10
5.0750172136
 20
5.0543464627
 11
5.0817312127
 21
5.0475902668
  0
LWPOLYLINE
  5
296
100
AcDbEntity
  8
0
100
AcDbPolyline
 62
6
  6
CONTINUOUS
 90
7
 70
0
 10
5.353538741
 20
4.6788467979
 10
5.3409340342
 20
4.6916928844
 10
5.3273171049
 20
4.7060965787
 10
5.3137455207
 20
4.7209861067
 10
5.3001996368
 20
4.7363719098
 10
5.2866656487
 20
4.7522634836
 10
5.2731379425
 20
4.7686653117
  0
LINE
  5
297
100
AcDbEntity
  8
0
100
AcDbLine
 62
6
  6
CONTINUOUS
 10
6.6779040245
 20
3.4514596518
 11
6.6968562204
 21
3.4283488963
  0
LWPOLYLINE
  5
298
100
AcDbEntity
  8
0
100
AcDbPolyline
 62
6
  6
CONTINUOUS
 90
13
 70
0
 10
6.3637999659
 20
3.1876818799
 10
6.3648986476
 20
3.1859378999
 10
6.3659548044
 20
3.1842818817
 10
6.3669907514
 20
3.1826813325
 10
6.3680347612
 20
3.181096603
 10
6.3691203067
 20
3.1794834975
 10
6.3702789949
 20
3.1778051858
 10
6.37154672
 20
3.1760243169
 10
6.3729628214
 20
3.1741060622
 10
6.3745543037
 20
3.172039947
 10
6.3763295882
 20
3.1698440454
 10
6.3782675371
 20
3.1675710527
 10
6.3793167903
 20
3.1663913698
  0
LWPOLYLINE
  5
299
100
AcDbEntity
  8
0
100
AcDbPolyline
 62
6
  6
CONTINUOUS
 90
3
 70
0
 10
6.3266313647
 20
3.2482410152
 10
6.3340888706
 20
3.2362765071
 10
6.3405928236
 20
3.2257322351
  0
LINE
  5
29A
100
AcDbEntity
  8
0
100
AcDbLine
 62
6
  6
CONTINUOUS
 10
6.3614197329
 20
3.1915148604
 11
6.3637999659
 21
3.1876818799
  0
LINE
  5
29B
100
AcDbEntity
  8
0
100
AcDbLine
 62
6
  6
CONTINUOUS
 10
6.3572247574
 20
3.1983754549
 11
6.3614197329
 21
3.1915148604
  0
LINE
  5
29C
100
AcDbEntity
  8
0
100
AcDbLine
 62
6
  6
CONTINUOUS
 10
6.3405928236
 20
3.2257322351
 11
6.3500274959
 21
3.2102447565
  0
LINE
  5
29D
100
AcDbEntity
  8
0
100
AcDbLine
 62
6
  6
CONTINUOUS
 10
6.3500274959
 20
3.2102447565
 11
6.3572247574
 21
3.1983754549
  0
LWPOLYLINE
  5
29E
100
AcDbEntity
  8
0
100
AcDbPolyline
 62
6
  6
CONTINUOUS
 90
9
 70
0
 10
6.696678798
 20
4.7853262122
 10
6.7039191636
 20
4.7955856886
 10
6.7131293556
 20
4.8101618894
 10
6.7214198502
 20
4.8252638601
 10
6.728810656
 20
4.8409448424
 10
6.7353054851
 20
4.857269651
 10
6.7408319233
 20
4.8742556441
 10
6.7452608861
 20
4.891796285
 10
6.7485437381
 20
4.9097265095
  0
LWPOLYLINE
  5
29F
100
AcDbEntity
  8
0
100
AcDbPolyline
 62
6
  6
CONTINUOUS
 90
6
 70
0
 10
5.9909529894
 20
4.608694543
 10
5.9860845782
 20
4.6090521016
 10
5.9776214107
 20
4.6102488254
 10
5.9696482318
 20
4.6120663277
 10
5.9623333221
 20
4.6143560552
 10
5.9560578226
 20
4.6168291981
  0
LWPOLYLINE
  5
2A0
100
AcDbEntity
  8
0
100
AcDbPolyline
 62
6
  6
CONTINUOUS
 90
9
 70
0
 10
5.0521868488
 20
5.0731216161
 10
5.0419283018
 20
5.0803613223
 10
5.0273520868
 20
5.0895715576
 10
5.0122501026
 20
5.0978620914
 10
4.9965691057
 20
5.1052529326
 10
4.98024428
 20
5.1117477948
 10
4.963258264
 20
5.1172742655
 10
4.9457175939
 20
5.1217032585
 10
4.9277873353
 20
5.1249861361
  0
LWPOLYLINE
  5
2A1
100
AcDbEntity
  8
0
100
AcDbPolyline
 62
6
  6
CONTINUOUS
 90
8
 70
0
 10
6.7491892134
 20
4.9170130482
 10
6.7502702688
 20
4.9273527502
 10
6.7512009794
 20
4.9437106873
 10
6.7511913516
 20
4.9598335647
 10
6.7502752462
 20
4.9757852513
 10
6.7484608281
 20
4.9916357892
 10
6.7457303918
 20
5.0074544171
 10
6.7420399559
 20
5.0233058737
  0
LWPOLYLINE
  5
2A2
100
AcDbEntity
  8
0
100
AcDbPolyline
 62
6
  6
CONTINUOUS
 90
8
 70
0
 10
6.7485437381
 20
4.9097265095
 10
6.7506628275
 20
4.9279254431
 10
6.7515770017
 20
4.9464871713
 10
6.751212053
 20
4.9654454712
 10
6.749548018
 20
4.9846192128
 10
6.7466477023
 20
5.0033656603
 10
6.742739085
 20
5.0209053432
 10
6.7380765599
 20
5.0370682231
  0
LINE
  5
2A3
100
AcDbEntity
  8
0
100
AcDbLine
 62
9
  6
CONTINUOUS
 10
6.3023030971
 20
3.7300824264
 11
6.1074311495
 21
3.5352104788
  0
LWPOLYLINE
  5
2A4
100
AcDbEntity
  8
0
100
AcDbPolyline
 62
6
  6
CONTINUOUS
 90
10
 70
0
 10
6.5514433585
 20
5.1271019576
 10
6.5332495372
 20
5.1249810072
 10
6.5153245929
 20
5.1216969678
 10
6.4977887466
 20
5.1172672923
 10
6.4808069925
 20
5.1117406045
 10
6.4644859662
 20
5.1052459525
 10
6.448808953
 20
5.0978559365
 10
6.4337111349
 20
5.0895668856
 10
6.4191392223
 20
5.0803588851
 10
6.4088841587
 20
5.07312152
  0
LWPOLYLINE
  5
2A5
100
AcDbEntity
  8
0
100
AcDbPolyline
 62
6
  6
CONTINUOUS
 90
8
 70
0
 10
4.9205000166
 20
5.1256317146
 10
4.9101615145
 20
5.1267126478
 10
4.8938034684
 20
5.1276434014
 10
4.8776804879
 20
5.1276338037
 10
4.8617287027
 20
5.1267177169
 10
4.8458780694
 20
5.1249033068
 10
4.8300593477
 20
5.1221728682
 10
4.8142077973
 20
5.1184824192
  0
LWPOLYLINE
  5
2A6
100
AcDbEntity
  8
0
100
AcDbPolyline
 62
6
  6
CONTINUOUS
 90
8
 70
0
 10
4.9277873353
 20
5.1249861361
 10
4.909588367
 20
5.1271052462
 10
4.8910266041
 20
5.128019437
 10
4.8720682676
 20
5.1276544999
 10
4.8528944853
 20
5.125990471
 10
4.8341479921
 20
5.123090155
 10
4.8166082696
 20
5.1191815328
 10
4.8004453528
 20
5.1145189981
  0
LINE
  5
2A7
100
AcDbEntity
  8
0
100
AcDbLine
 62
9
  6
CONTINUOUS
 10
6.1074311495
 20
4.6787455353
 11
6.3023030971
 21
4.4838735878
  0
LWPOLYLINE
  5
2A8
100
AcDbEntity
  8
0
100
AcDbPolyline
 62
6
  6
CONTINUOUS
 90
10
 70
0
 10
6.7506594607
 20
3.2860709201
 10
6.7485384481
 20
3.3042648456
 10
6.745254332
 20
3.3221898922
 10
6.740824566
 20
3.3397258261
 10
6.7352977805
 20
3.3567076489
 10
6.7288030291
 20
3.3730287263
 10
6.721412907
 20
3.3887057835
 10
6.7131237385
 20
3.403803642
 10
6.7039156081
 20
3.4183755972
 10
6.6966784351
 20
3.4286302939
  0
LINE
  5
2A9
100
AcDbEntity
  8
0
100
AcDbLine
 62
9
  6
CONTINUOUS
 10
6.7376771644
 20
3.1758071337
 11
6.7376868585
 21
3.1758451577
  0
LWPOLYLINE
  5
2AA
100
AcDbEntity
  8
0
100
AcDbPolyline
 62
6
  6
CONTINUOUS
 90
7
 70
0
 10
6.7380765204
 20
3.1768876678
 10
6.7427540742
 20
3.1931091156
 10
6.746659658
 20
3.2106534828
 10
6.7495551517
 20
3.229395978
 10
6.7512148046
 20
3.2485625316
 10
6.751576317
 20
3.2675144061
 10
6.7506594607
 20
3.2860709201
  0
LWPOLYLINE
  5
2AB
100
AcDbEntity
  8
0
100
AcDbPolyline
 62
6
  6
CONTINUOUS
 90
9
 70
0
 10
6.7376771644
 20
3.1758071337
 10
6.7420608398
 20
3.1907293402
 10
6.7457440968
 20
3.2065693961
 10
6.7484689121
 20
3.222376683
 10
6.7502791202
 20
3.2382159181
 10
6.7511923346
 20
3.2541562976
 10
6.7512003504
 20
3.2702678399
 10
6.7502693149
 20
3.2866143532
 10
6.7491888074
 20
3.2969462611
  0
LINE
  5
2AC
100
AcDbEntity
  8
0
100
AcDbLine
 62
9
  6
CONTINUOUS
 10
6.7380755275
 20
3.1768845701
 11
6.7380765204
 21
3.1768876678
  0
LINE
  5
2AD
100
AcDbEntity
  8
0
100
AcDbLine
 62
6
  6
CONTINUOUS
 10
6.7362968223
 20
3.1716870817
 11
6.7380755275
 21
3.1768845701
  0
LINE
  5
2AE
100
AcDbEntity
  8
0
100
AcDbLine
 62
6
  6
CONTINUOUS
 10
6.6617064436
 20
3.0998364119
 11
6.6696951465
 21
3.1027552212
  0
LWPOLYLINE
  5
2AF
100
AcDbEntity
  8
0
100
AcDbPolyline
 62
6
  6
CONTINUOUS
 90
7
 70
0
 10
6.6606289285
 20
3.0994380236
 10
6.6659555929
 20
3.1012639651
 10
6.6720607497
 20
3.1036851172
 10
6.677662212
 20
3.1062713205
 10
6.6829604976
 20
3.1090857305
 10
6.6880852088
 20
3.1121637088
 10
6.6932247932
 20
3.1155749973
  0
LINE
  5
2B0
100
AcDbEntity
  8
0
100
AcDbLine
 62
9
  6
CONTINUOUS
 10
6.6606289285
 20
3.0994380236
 11
6.6606257848
 21
3.099437016
  0
LINE
  5
2B1
100
AcDbEntity
  8
0
100
AcDbLine
 62
6
  6
CONTINUOUS
 10
6.6468633343
 20
3.0954735933
 11
6.6617064429
 21
3.0998364117
  0
LINE
  5
2B2
100
AcDbEntity
  8
0
100
AcDbLine
 62
9
  6
CONTINUOUS
 10
4.7993646947
 20
5.1141196024
 11
4.7994027195
 21
5.1141292968
  0
LINE
  5
2B3
100
AcDbEntity
  8
0
100
AcDbLine
 62
9
  6
CONTINUOUS
 10
5.6005355688
 20
5.2120340969
 11
5.8605355688
 21
5.2120340969
  0
LINE
  5
2B4
100
AcDbEntity
  8
0
100
AcDbLine
 62
9
  6
CONTINUOUS
 10
5.6402314214
 20
5.2677866744
 11
5.8208397163
 21
5.2677866744
  0
LINE
  5
2B5
100
AcDbEntity
  8
0
100
AcDbLine
 62
9
  6
CONTINUOUS
 10
6.6617064422
 20
5.1141196027
 11
6.6616684182
 21
5.1141292968
  0
LWPOLYLINE
  5
2B6
100
AcDbEntity
  8
0
100
AcDbPolyline
 62
6
  6
CONTINUOUS
 90
7
 70
0
 10
6.6606259081
 20
5.1145189586
 10
6.6444045711
 20
5.119196484
 10
6.6268603226
 20
5.1231020528
 10
6.6081179646
 20
5.1259975458
 10
6.588951533
 20
5.127657217
 10
6.5699997684
 20
5.1280187643
 10
6.5514433585
 20
5.1271019576
  0
LWPOLYLINE
  5
2B7
100
AcDbEntity
  8
0
100
AcDbPolyline
 62
6
  6
CONTINUOUS
 90
9
 70
0
 10
6.6617064422
 20
5.1141196027
 10
6.6467841331
 20
5.118503305
 10
6.6309439759
 20
5.1221865762
 10
6.6151365877
 20
5.124911394
 10
6.5992972498
 20
5.1267215934
 10
6.5833567638
 20
5.1276347877
 10
6.5672451102
 20
5.1276427712
 10
6.5508984793
 20
5.1267116892
 10
6.5405713952
 20
5.1256317483
  0
LINE
  5
2B8
100
AcDbEntity
  8
0
100
AcDbLine
 62
9
  6
CONTINUOUS
 10
6.6606290058
 20
5.1145179657
 11
6.6606259081
 21
5.1145189586
  0
LINE
  5
2B9
100
AcDbEntity
  8
0
100
AcDbLine
 62
6
  6
CONTINUOUS
 10
6.6658264942
 20
5.1127392605
 11
6.6606290058
 21
5.1145179657
  0
LINE
  5
2BA
100
AcDbEntity
  8
0
100
AcDbLine
 62
6
  6
CONTINUOUS
 10
6.737677164
 20
5.0381488818
 11
6.7347583547
 21
5.0461375847
  0
LWPOLYLINE
  5
2BB
100
AcDbEntity
  8
0
100
AcDbPolyline
 62
6
  6
CONTINUOUS
 90
7
 70
0
 10
6.7380755523
 20
5.0370713667
 10
6.7362496108
 20
5.0423980311
 10
6.7338284587
 20
5.0485031879
 10
6.7312422554
 20
5.0541046503
 10
6.7284278454
 20
5.0594029358
 10
6.7253498671
 20
5.0645276471
 10
6.7219385786
 20
5.0696672314
  0
LINE
  5
2BC
100
AcDbEntity
  8
0
100
AcDbLine
 62
9
  6
CONTINUOUS
 10
6.7380755523
 20
5.0370713667
 11
6.7380765599
 21
5.0370682231
  0
LINE
  5
2BD
100
AcDbEntity
  8
0
100
AcDbLine
 62
6
  6
CONTINUOUS
 10
6.7420399559
 20
5.0233058737
 11
6.7376771642
 21
5.0381488812
  0
LINE
  5
2BE
100
AcDbEntity
  8
0
100
AcDbLine
 62
9
  6
CONTINUOUS
 10
6.7376771642
 20
5.0381488812
 11
6.7376868585
 21
5.0381108564
  0
LWPOLYLINE
  5
2BF
100
AcDbEntity
  8
0
100
AcDbPolyline
 62
6
  6
CONTINUOUS
 90
3
 70
0
 10
6.7307749157
 20
3.1590690958
 10
6.7348005419
 20
3.1679222119
 10
6.7376771637
 20
3.1758071315
  0
LWPOLYLINE
  5
2C0
100
AcDbEntity
  8
0
100
AcDbPolyline
 62
6
  6
CONTINUOUS
 90
3
 70
0
 10
6.7206346408
 20
3.1425045637
 10
6.7260412245
 20
3.1505781045
 10
6.7307749157
 20
3.1590690958
  0
LWPOLYLINE
  5
2C1
100
AcDbEntity
  8
0
100
AcDbPolyline
 62
6
  6
CONTINUOUS
 90
7
 70
0
 10
6.7188039615
 20
3.140007312
 10
6.7220040524
 20
3.1443827062
 10
6.725413785
 20
3.1495294449
 10
6.728488808
 20
3.1546607755
 10
6.7312987886
 20
3.1599654596
 10
6.7338802866
 20
3.1655738975
 10
6.7362968223
 20
3.1716870817
  0
LINE
  5
2C2
100
AcDbEntity
  8
0
100
AcDbLine
 62
6
  6
CONTINUOUS
 10
6.7145903774
 20
3.1349037714
 11
6.7206346408
 21
3.1425045637
  0
LINE
  5
2C3
100
AcDbEntity
  8
0
100
AcDbLine
 62
6
  6
CONTINUOUS
 10
6.7088178006
 20
3.1286957753
 11
6.7145903774
 21
3.1349037714
  0
LWPOLYLINE
  5
2C4
100
AcDbEntity
  8
0
100
AcDbPolyline
 62
6
  6
CONTINUOUS
 90
3
 70
0
 10
6.6951002512
 20
3.1169456461
 10
6.7026946471
 20
3.1229966239
 10
6.7088178006
 20
3.1286957753
  0
LINE
  5
2C5
100
AcDbEntity
  8
0
100
AcDbLine
 62
6
  6
CONTINUOUS
 10
6.6932247932
 20
3.1155749973
 11
6.6975089152
 21
3.1187116533
  0
LINE
  5
2C6
100
AcDbEntity
  8
0
100
AcDbLine
 62
6
  6
CONTINUOUS
 10
6.6870320468
 20
3.1115315374
 11
6.6951002512
 21
3.1169456461
  0
LWPOLYLINE
  5
2C7
100
AcDbEntity
  8
0
100
AcDbPolyline
 62
6
  6
CONTINUOUS
 90
3
 70
0
 10
6.6696951465
 20
3.1027552212
 10
6.6785452627
 20
3.1067896326
 10
6.6870320468
 20
3.1115315374
  0
LWPOLYLINE
  5
2C8
100
AcDbEntity
  8
0
100
AcDbPolyline
 62
6
  6
CONTINUOUS
 90
3
 70
0
 10
6.6784444801
 20
5.107217354
 10
6.669591364
 20
5.1112429801
 10
6.6617064444
 20
5.114119602
  0
LWPOLYLINE
  5
2C9
100
AcDbEntity
  8
0
100
AcDbPolyline
 62
6
  6
CONTINUOUS
 90
3
 70
0
 10
6.6950090122
 20
5.097077079
 10
6.6869354714
 20
5.1024836627
 10
6.6784444801
 20
5.107217354
  0
LWPOLYLINE
  5
2CA
100
AcDbEntity
  8
0
100
AcDbPolyline
 62
6
  6
CONTINUOUS
 90
7
 70
0
 10
6.6975074441
 20
5.0952454921
 10
6.6931308697
 20
5.0984464906
 10
6.687984131
 20
5.1018562233
 10
6.6828528004
 20
5.1049312463
 10
6.6775481163
 20
5.1077412268
 10
6.6719396784
 20
5.1103227249
 10
6.6658264942
 20
5.1127392605
  0
LINE
  5
2CB
100
AcDbEntity
  8
0
100
AcDbLine
 62
6
  6
CONTINUOUS
 10
6.7026098045
 20
5.0910328156
 11
6.6950090122
 21
5.097077079
  0
LINE
  5
2CC
100
AcDbEntity
  8
0
100
AcDbLine
 62
6
  6
CONTINUOUS
 10
6.7088178006
 20
5.0852602388
 11
6.7026098045
 21
5.0910328156
  0
LWPOLYLINE
  5
2CD
100
AcDbEntity
  8
0
100
AcDbPolyline
 62
6
  6
CONTINUOUS
 90
3
 70
0
 10
6.7205679298
 20
5.0715426894
 10
6.714516952
 20
5.0791370853
 10
6.7088178006
 20
5.0852602388
  0
LINE
  5
2CE
100
AcDbEntity
  8
0
100
AcDbLine
 62
6
  6
CONTINUOUS
 10
6.7219385786
 20
5.0696672314
 11
6.7188013223
 21
5.0739521338
  0
LINE
  5
2CF
100
AcDbEntity
  8
0
100
AcDbLine
 62
6
  6
CONTINUOUS
 10
6.7259820385
 20
5.0634744851
 11
6.7205679298
 21
5.0715426894
  0
LWPOLYLINE
  5
2D0
100
AcDbEntity
  8
0
100
AcDbPolyline
 62
6
  6
CONTINUOUS
 90
3
 70
0
 10
6.7347583547
 20
5.0461375847
 10
6.7307239433
 20
5.0549877009
 10
6.7259820385
 20
5.0634744851
  0
LINE
  5
2D1
100
AcDbEntity
  8
0
100
AcDbLine
 62
6
  6
CONTINUOUS
 10
8.8655355688
 20
0.9719780071
 11
8.8655355688
 21
7.2419780071
  0
LINE
  5
2D2
100
AcDbEntity
  8
0
100
AcDbLine
 62
6
  6
CONTINUOUS
 10
8.9805355688
 20
0.8569780071
 11
8.9805355688
 21
7.3569780071
  0
LINE
  5
2D3
100
AcDbEntity
  8
0
100
AcDbLine
 62
6
  6
CONTINUOUS
 10
8.8655355688
 20
7.2419780071
 11
2.5955355688
 21
7.2419780071
  0
LINE
  5
2D4
100
AcDbEntity
  8
0
100
AcDbLine
 62
6
  6
CONTINUOUS
 10
8.9805355688
 20
7.3569780071
 11
2.4805355688
 21
7.3569780071
  0
ARC
  5
2D5
100
AcDbEntity
  8
0
100
AcDbCircle
 62
6
  6
CONTINUOUS
 10
2.8285993487
 20
1.4849141943
 40
3.8121838997
100
AcDbArc
 50
56.8052716907
 51
57.686364107
  0
ARC
  5
2D6
100
AcDbEntity
  8
0
100
AcDbCircle
 62
6
  6
CONTINUOUS
 10
3.4042284588
 20
2.3694228102
 40
2.7568642313
100
AcDbArc
 50
56.6359992049
 51
56.7520383602
  0
ARC
  5
2D7
100
AcDbEntity
  8
0
100
AcDbCircle
 62
6
  6
CONTINUOUS
 10
4.0021981137
 20
1.78652871
 40
2.7459433939
100
AcDbArc
 50
33.2500298187
 51
33.3878607394
  0
ARC
  5
2D8
100
AcDbEntity
  8
0
100
AcDbCircle
 62
6
  6
CONTINUOUS
 10
4.1748969348
 20
1.9005234049
 40
2.5390142983
100
AcDbArc
 50
33.3845955365
 51
33.6954785801
  0
ARC
  5
2D9
100
AcDbEntity
  8
0
100
AcDbCircle
 62
6
  6
CONTINUOUS
 10
3.5361593361
 20
2.5694240425
 40
2.5172683064
100
AcDbArc
 50
56.3048865605
 51
56.6404586459
  0
ARC
  5
2DA
100
AcDbEntity
  8
0
100
AcDbCircle
 62
6
  6
CONTINUOUS
 10
3.6617821293
 20
2.7573006836
 40
2.2912624534
100
AcDbArc
 50
55.3608258381
 51
56.3050312428
  0
ARC
  5
2DB
100
AcDbEntity
  8
0
100
AcDbCircle
 62
6
  6
CONTINUOUS
 10
4.4082172945
 20
2.0568928832
 40
2.2581417903
100
AcDbArc
 50
33.6859203071
 51
34.6440185139
  0
ARC
  5
2DC
100
AcDbEntity
  8
0
100
AcDbCircle
 62
6
  6
CONTINUOUS
 10
4.9840376838
 20
3.2603060052
 40
0.273996044
100
AcDbArc
 50
197.7237455211
 51
197.9541434107
  0
ARC
  5
2DD
100
AcDbEntity
  8
0
100
AcDbCircle
 62
6
  6
CONTINUOUS
 10
4.883822555
 20
3.3603535567
 40
0.2738629998
100
AcDbArc
 50
252.0458566628
 51
252.2757857692
  0
ARC
  5
2DE
100
AcDbEntity
  8
0
100
AcDbCircle
 62
6
  6
CONTINUOUS
 10
4.8386221005
 20
3.2169836925
 40
0.1236645062
100
AcDbArc
 50
234.4127365292
 51
235.761717176
  0
ARC
  5
2DF
100
AcDbEntity
  8
0
100
AcDbCircle
 62
6
  6
CONTINUOUS
 10
4.8387122522
 20
3.2137880438
 40
0.1214342553
100
AcDbArc
 50
214.2366917179
 51
215.6470514358
  0
ARC
  5
2E0
100
AcDbEntity
  8
0
100
AcDbCircle
 62
6
  6
CONTINUOUS
 10
4.8337911649
 20
3.2101820896
 40
0.1153219161
100
AcDbArc
 50
233.5669767153
 51
234.3980911756
  0
ARC
  5
2E1
100
AcDbEntity
  8
0
100
AcDbCircle
 62
6
  6
CONTINUOUS
 10
4.8329391762
 20
3.2096510927
 40
0.1143319484
100
AcDbArc
 50
215.6484117587
 51
216.4827439869
  0
ARC
  5
2E2
100
AcDbEntity
  8
0
100
AcDbCircle
 62
6
  6
CONTINUOUS
 10
4.8311968424
 20
3.2066613623
 40
0.110948586
100
AcDbArc
 50
232.2975192489
 51
233.5651007604
  0
ARC
  5
2E3
100
AcDbEntity
  8
0
100
AcDbCircle
 62
6
  6
CONTINUOUS
 10
4.8296523965
 20
3.2072107768
 40
0.1102382949
100
AcDbArc
 50
216.4786660334
 51
217.7073503663
  0
ARC
  5
2E4
100
AcDbEntity
  8
0
100
AcDbCircle
 62
6
  6
CONTINUOUS
 10
4.8296445243
 20
3.2046380419
 40
0.1083984036
100
AcDbArc
 50
231.3445757149
 51
232.2926591161
  0
ARC
  5
2E5
100
AcDbEntity
  8
0
100
AcDbCircle
 62
6
  6
CONTINUOUS
 10
4.8280575342
 20
3.2059783849
 40
0.1082227614
100
AcDbArc
 50
217.7075952332
 51
218.6598279895
  0
ARC
  5
2E6
100
AcDbEntity
  8
0
100
AcDbCircle
 62
6
  6
CONTINUOUS
 10
4.8307555702
 20
3.2018778315
 40
0.1066854276
100
AcDbArc
 50
243.7158571091
 51
244.6314542388
  0
ARC
  5
2E7
100
AcDbEntity
  8
0
100
AcDbCircle
 62
6
  6
CONTINUOUS
 10
4.8253121733
 20
3.207138401
 40
0.1065485521
100
AcDbArc
 50
205.3621490944
 51
206.3117674088
  0
ARC
  5
2E8
100
AcDbEntity
  8
0
100
AcDbCircle
 62
9
  6
CONTINUOUS
 10
5.1288839764
 20
3.8416540373
 40
0.1000536799
100
AcDbArc
 50
1.2258826477
 51
23.7954835275
  0
ARC
  5
2E9
100
AcDbEntity
  8
0
100
AcDbCircle
 62
9
  6
CONTINUOUS
 10
5.1289401192
 20
3.8416694685
 40
0.0999965008
100
AcDbArc
 50
314.999521405
 51
1.2177311582
  0
ARC
  5
2EA
100
AcDbEntity
  8
0
100
AcDbCircle
 62
9
  6
CONTINUOUS
 10
5.4652324416
 20
3.5054107884
 40
0.0999698615
100
AcDbArc
 50
68.8226355407
 51
135.0017563198
  0
ARC
  5
2EB
100
AcDbEntity
  8
0
100
AcDbCircle
 62
9
  6
CONTINUOUS
 10
5.4654657605
 20
3.5059092754
 40
0.0994214551
100
AcDbArc
 50
66.2001290712
 51
68.8442352829
  0
ARC
  5
2EC
100
AcDbEntity
  8
0
100
AcDbCircle
 62
9
  6
CONTINUOUS
 10
4.8040821967
 20
3.1107566061
 40
0.0118894836
100
AcDbArc
 50
246.9184695658
 51
252.1721323619
  0
ARC
  5
2ED
100
AcDbEntity
  8
0
100
AcDbCircle
 62
9
  6
CONTINUOUS
 10
4.7343140863
 20
3.1805246042
 40
0.0118893964
100
AcDbArc
 50
197.8274552802
 51
203.0809554662
  0
ARC
  5
2EE
100
AcDbEntity
  8
0
100
AcDbCircle
 62
9
  6
CONTINUOUS
 10
4.7337467019
 20
3.1803328377
 40
0.01129055
100
AcDbArc
 50
195.2929279881
 51
197.7657777584
  0
ARC
  5
2EF
100
AcDbEntity
  8
0
100
AcDbCircle
 62
9
  6
CONTINUOUS
 10
4.8038903153
 20
3.1101888718
 40
0.0112902688
100
AcDbArc
 50
252.2335563175
 51
254.713990135
  0
ARC
  5
2F0
100
AcDbEntity
  8
0
100
AcDbCircle
 62
9
  6
CONTINUOUS
 10
4.8038140719
 20
3.1099126225
 40
0.0110036921
100
AcDbArc
 50
254.7177203744
 51
258.2009289718
  0
ARC
  5
2F1
100
AcDbEntity
  8
0
100
AcDbCircle
 62
6
  6
CONTINUOUS
 10
3.6804504676
 20
5.4292962479
 40
2.25814175
100
AcDbArc
 50
303.6859203
 51
304.6440184876
  0
ARC
  5
2F2
100
AcDbEntity
  8
0
100
AcDbCircle
 62
6
  6
CONTINUOUS
 10
3.1085623485
 20
7.0088562284
 40
3.8120763328
100
AcDbArc
 50
326.8051896368
 51
327.6863729802
  0
ARC
  5
2F3
100
AcDbEntity
  8
0
100
AcDbCircle
 62
6
  6
CONTINUOUS
 10
3.9925894139
 20
6.433541788
 40
2.7573319145
100
AcDbArc
 50
326.6366792653
 51
326.7519406373
  0
ARC
  5
2F4
100
AcDbEntity
  8
0
100
AcDbCircle
 62
6
  6
CONTINUOUS
 10
3.4100864533
 20
5.8353151858
 40
2.7459430632
100
AcDbArc
 50
303.250029735
 51
303.3878613183
  0
ARC
  5
2F5
100
AcDbEntity
  8
0
100
AcDbCircle
 62
6
  6
CONTINUOUS
 10
3.5240810699
 20
5.6626164859
 40
2.5390141118
100
AcDbArc
 50
303.3845961332
 51
303.6954785849
  0
ARC
  5
2F6
100
AcDbEntity
  8
0
100
AcDbCircle
 62
6
  6
CONTINUOUS
 10
4.1927845217
 20
6.301485274
 40
2.5175049737
100
AcDbArc
 50
326.3048937415
 51
326.641164564
  0
ARC
  5
2F7
100
AcDbEntity
  8
0
100
AcDbCircle
 62
6
  6
CONTINUOUS
 10
4.3808791837
 20
6.1757172387
 40
2.2912371505
100
AcDbArc
 50
325.3608200819
 51
326.3050366542
  0
ARC
  5
2F8
100
AcDbEntity
  8
0
100
AcDbCircle
 62
9
  6
CONTINUOUS
 10
5.128937892
 20
4.3722651881
 40
0.099990393
100
AcDbArc
 50
336.2120008561
 51
45.0011988264
  0
ARC
  5
2F9
100
AcDbEntity
  8
0
100
AcDbCircle
 62
6
  6
CONTINUOUS
 10
4.9991835571
 20
4.9487403821
 40
0.2899177747
100
AcDbArc
 50
162.0455148625
 51
162.2631696969
  0
ARC
  5
2FA
100
AcDbEntity
  8
0
100
AcDbCircle
 62
6
  6
CONTINUOUS
 10
4.8838650417
 20
4.8534713408
 40
0.2740008282
100
AcDbArc
 50
107.7237219252
 51
107.9541434014
  0
ARC
  5
2FB
100
AcDbEntity
  8
0
100
AcDbCircle
 62
6
  6
CONTINUOUS
 10
4.8407919951
 20
4.9987165398
 40
0.1239702287
100
AcDbArc
 50
144.4297475202
 51
145.8056360936
  0
ARC
  5
2FC
100
AcDbEntity
  8
0
100
AcDbCircle
 62
6
  6
CONTINUOUS
 10
4.8375405288
 20
4.9985248968
 40
0.1217724905
100
AcDbArc
 50
124.1734093963
 51
125.6235658587
  0
ARC
  5
2FD
100
AcDbEntity
  8
0
100
AcDbCircle
 62
6
  6
CONTINUOUS
 10
4.8337610044
 20
5.0037066664
 40
0.1153484444
100
AcDbArc
 50
143.554597948
 51
144.4143745159
  0
ARC
  5
2FE
100
AcDbEntity
  8
0
100
AcDbCircle
 62
6
  6
CONTINUOUS
 10
4.8332107503
 20
5.0045720041
 40
0.1143351199
100
AcDbArc
 50
125.6249052656
 51
126.4996114019
  0
ARC
  5
2FF
100
AcDbEntity
  8
0
100
AcDbCircle
 62
6
  6
CONTINUOUS
 10
4.8301960583
 20
5.0063340369
 40
0.1109199122
100
AcDbArc
 50
142.2949882853
 51
143.5523967252
  0
ARC
  5
300
100
AcDbEntity
  8
0
100
AcDbCircle
 62
6
  6
CONTINUOUS
 10
4.830752124
 20
5.0078823945
 40
0.1102115932
100
AcDbArc
 50
126.495808072
 51
127.7105512385
  0
ARC
  5
301
100
AcDbEntity
  8
0
100
AcDbCircle
 62
6
  6
CONTINUOUS
 10
4.8281931775
 20
5.0078709556
 40
0.1083953196
100
AcDbArc
 50
141.3418858707
 51
142.2902361444
  0
ARC
  5
302
100
AcDbEntity
  8
0
100
AcDbCircle
 62
6
  6
CONTINUOUS
 10
4.829533935
 20
5.0094585899
 40
0.1082195149
100
AcDbArc
 50
127.7107594144
 51
128.6633986337
  0
ARC
  5
303
100
AcDbEntity
  8
0
100
AcDbCircle
 62
6
  6
CONTINUOUS
 10
4.8254734337
 20
5.0067396155
 40
0.1067276794
100
AcDbArc
 50
153.7420001909
 51
154.6887634872
  0
ARC
  5
304
100
AcDbEntity
  8
0
100
AcDbCircle
 62
6
  6
CONTINUOUS
 10
4.8307123332
 20
5.0121678182
 40
0.1065859135
100
AcDbArc
 50
115.2946843893
 51
116.2805081259
  0
ARC
  5
305
100
AcDbEntity
  8
0
100
AcDbCircle
 62
9
  6
CONTINUOUS
 10
4.7343141679
 20
5.0334313792
 40
0.0118894837
100
AcDbArc
 50
156.9184687748
 51
162.1721323464
  0
ARC
  5
306
100
AcDbEntity
  8
0
100
AcDbCircle
 62
9
  6
CONTINUOUS
 10
4.8040821659
 20
5.1031994896
 40
0.0118893964
100
AcDbArc
 50
107.8274552795
 51
113.080955422
  0
ARC
  5
307
100
AcDbEntity
  8
0
100
AcDbCircle
 62
9
  6
CONTINUOUS
 10
4.8038903994
 20
5.103766874
 40
0.01129055
100
AcDbArc
 50
105.2929285716
 51
107.7657777597
  0
ARC
  5
308
100
AcDbEntity
  8
0
100
AcDbCircle
 62
9
  6
CONTINUOUS
 10
4.7337464331
 20
5.0336232607
 40
0.0112902683
100
AcDbArc
 50
162.2335562427
 51
164.7140005626
  0
ARC
  5
309
100
AcDbEntity
  8
0
100
AcDbCircle
 62
9
  6
CONTINUOUS
 10
4.7335062816
 20
5.0336900456
 40
0.011041006
100
AcDbArc
 50
164.7197570042
 51
167.1059305653
  0
ARC
  5
30A
100
AcDbEntity
  8
0
100
AcDbCircle
 62
7
  6
CONTINUOUS
 10
5.7305355688
 20
4.1069780071
 40
1.125
100
AcDbArc
 50
96.5808759597
 51
124.5487492966
  0
ARC
  5
30B
100
AcDbEntity
  8
0
100
AcDbCircle
 62
7
  6
CONTINUOUS
 10
5.7305355688
 20
4.1069780071
 40
1.125
100
AcDbArc
 50
55.4512504498
 51
83.4191240403
  0
ARC
  5
30C
100
AcDbEntity
  8
0
100
AcDbCircle
 62
7
  6
CONTINUOUS
 10
5.7305355688
 20
4.1069780071
 40
1.125
100
AcDbArc
 50
145.4512507034
 51
214.5489049823
  0
ARC
  5
30D
100
AcDbEntity
  8
0
100
AcDbCircle
 62
7
  6
CONTINUOUS
 10
5.7305355688
 20
4.1069780071
 40
1.125
100
AcDbArc
 50
235.4510950177
 51
304.5489049823
  0
ARC
  5
30E
100
AcDbEntity
  8
0
100
AcDbCircle
 62
7
  6
CONTINUOUS
 10
5.7305355688
 20
4.1069780071
 40
1.125
100
AcDbArc
 50
325.4510950177
 51
34.5487495502
  0
ARC
  5
30F
100
AcDbEntity
  8
0
100
AcDbCircle
 62
6
  6
CONTINUOUS
 10
5.7305355688
 20
4.1069780071
 40
1.06
100
AcDbArc
 50
235.2710925974
 51
304.7289074026
  0
ARC
  5
310
100
AcDbEntity
  8
0
100
AcDbCircle
 62
6
  6
CONTINUOUS
 10
5.7305355688
 20
4.1069780071
 40
1.06
100
AcDbArc
 50
145.2697291387
 51
214.7303942157
  0
ARC
  5
311
100
AcDbEntity
  8
0
100
AcDbCircle
 62
6
  6
CONTINUOUS
 10
5.7305355688
 20
4.1069780071
 40
1.06
100
AcDbArc
 50
97.0498574686
 51
124.7287744337
  0
ARC
  5
312
100
AcDbEntity
  8
0
100
AcDbCircle
 62
6
  6
CONTINUOUS
 10
5.7305355688
 20
4.1069780071
 40
1.06
100
AcDbArc
 50
55.2712252467
 51
82.9501425314
  0
ARC
  5
313
100
AcDbEntity
  8
0
100
AcDbCircle
 62
6
  6
CONTINUOUS
 10
5.7305355688
 20
4.1069780071
 40
1.06
100
AcDbArc
 50
325.2696057843
 51
34.7302711594
  0
ARC
  5
314
100
AcDbEntity
  8
0
100
AcDbCircle
 62
6
  6
CONTINUOUS
 10
5.7305355688
 20
4.1069780071
 40
0.985
100
AcDbArc
 50
97.5892412066
 51
124.8948336898
  0
ARC
  5
315
100
AcDbEntity
  8
0
100
AcDbCircle
 62
6
  6
CONTINUOUS
 10
5.7305355688
 20
4.1069780071
 40
0.985
100
AcDbArc
 50
55.1051662896
 51
82.4107587934
  0
ARC
  5
316
100
AcDbEntity
  8
0
100
AcDbCircle
 62
6
  6
CONTINUOUS
 10
5.7305355688
 20
4.1069780071
 40
0.985
100
AcDbArc
 50
325.1051584422
 51
34.8948337104
  0
ARC
  5
317
100
AcDbEntity
  8
0
100
AcDbCircle
 62
6
  6
CONTINUOUS
 10
5.7305355688
 20
4.1069780071
 40
0.985
100
AcDbArc
 50
235.1051584422
 51
304.8948415578
  0
ARC
  5
318
100
AcDbEntity
  8
0
100
AcDbCircle
 62
6
  6
CONTINUOUS
 10
5.7305355688
 20
4.1069780071
 40
0.985
100
AcDbArc
 50
145.1051663102
 51
214.8948415578
  0
ARC
  5
319
100
AcDbEntity
  8
0
100
AcDbCircle
 62
6
  6
CONTINUOUS
 10
5.7305355688
 20
4.1069780071
 40
0.97
100
AcDbArc
 50
325.0859009071
 51
34.9141624046
  0
ARC
  5
31A
100
AcDbEntity
  8
0
100
AcDbCircle
 62
6
  6
CONTINUOUS
 10
5.7305355688
 20
4.1069780071
 40
0.97
100
AcDbArc
 50
55.0858980046
 51
124.9141609222
  0
ARC
  5
31B
100
AcDbEntity
  8
0
100
AcDbCircle
 62
6
  6
CONTINUOUS
 10
5.7305355688
 20
4.1069780071
 40
0.97
100
AcDbArc
 50
145.0858988696
 51
214.9141590894
  0
ARC
  5
31C
100
AcDbEntity
  8
0
100
AcDbCircle
 62
6
  6
CONTINUOUS
 10
5.7305355688
 20
4.1069780071
 40
0.97
100
AcDbArc
 50
235.0859009078
 51
304.9141590864
  0
ARC
  5
31D
100
AcDbEntity
  8
0
100
AcDbCircle
 62
9
  6
CONTINUOUS
 10
5.7305355688
 20
4.1069780071
 40
0.6465371296
100
AcDbArc
 50
147.3063680823
 51
212.6936319168
  0
ARC
  5
31E
100
AcDbEntity
  8
0
100
AcDbCircle
 62
9
  6
CONTINUOUS
 10
5.7305355688
 20
4.1069780071
 40
0.6465371296
100
AcDbArc
 50
57.3063680823
 51
122.6936319147
  0
ARC
  5
31F
100
AcDbEntity
  8
0
100
AcDbCircle
 62
9
  6
CONTINUOUS
 10
5.7305355688
 20
4.1069780071
 40
0.6465371296
100
AcDbArc
 50
327.3063680832
 51
32.6936319139
  0
ARC
  5
320
100
AcDbEntity
  8
0
100
AcDbCircle
 62
9
  6
CONTINUOUS
 10
5.7305355688
 20
4.1069780071
 40
0.6465371296
100
AcDbArc
 50
237.3063680832
 51
302.6936319168
  0
CIRCLE
  5
321
100
AcDbEntity
  8
0
100
AcDbCircle
 62
6
  6
CONTINUOUS
 10
5.7305355688
 20
4.1069780071
 40
0.5575
  0
CIRCLE
  5
322
100
AcDbEntity
  8
0
100
AcDbCircle
 62
6
  6
CONTINUOUS
 10
5.7305355688
 20
4.1069780071
 40
0.5275
  0
CIRCLE
  5
323
100
AcDbEntity
  8
0
100
AcDbCircle
 62
6
  6
CONTINUOUS
 10
5.7305355688
 20
4.1069780071
 40
0.5125
  0
CIRCLE
  5
324
100
AcDbEntity
  8
0
100
AcDbCircle
 62
6
  6
CONTINUOUS
 10
5.7305355688
 20
4.1069780071
 40
0.4545
  0
CIRCLE
  5
325
100
AcDbEntity
  8
0
100
AcDbCircle
 62
9
  6
CONTINUOUS
 10
5.7305355688
 20
4.1069780071
 40
0.3951446566
  0
ARC
  5
326
100
AcDbEntity
  8
0
100
AcDbCircle
 62
6
  6
CONTINUOUS
 10
5.7305355688
 20
5.0069780071
 40
0.276
100
AcDbArc
 50
70.9017558761
 51
109.0982441239
  0
ARC
  5
327
100
AcDbEntity
  8
0
100
AcDbCircle
 62
6
  6
CONTINUOUS
 10
5.4651990074
 20
4.7086840021
 40
0.1001099103
100
AcDbArc
 50
274.1170581948
 51
293.733129032
  0
ARC
  5
328
100
AcDbEntity
  8
0
100
AcDbCircle
 62
6
  6
CONTINUOUS
 10
5.4652285626
 20
4.7085741787
 40
0.0999974767
100
AcDbArc
 50
224.9995713965
 51
274.1046853378
  0
ARC
  5
329
100
AcDbEntity
  8
0
100
AcDbCircle
 62
6
  6
CONTINUOUS
 10
5.6595355688
 20
5.2120340969
 40
0.059
100
AcDbArc
 50
109.0982441239
 51
180.0
  0
ARC
  5
32A
100
AcDbEntity
  8
0
100
AcDbCircle
 62
6
  6
CONTINUOUS
 10
8.3532500628
 20
1.2046252781
 40
3.8129564627
100
AcDbArc
 50
146.8059278639
 51
147.6863012811
  0
ARC
  5
32B
100
AcDbEntity
  8
0
100
AcDbCircle
 62
6
  6
CONTINUOUS
 10
7.4654281263
 20
1.7824194318
 40
2.753678794
100
AcDbArc
 50
146.6309717478
 51
146.7528384023
  0
ARC
  5
32C
100
AcDbEntity
  8
0
100
AcDbCircle
 62
6
  6
CONTINUOUS
 10
8.0526272824
 20
2.376140415
 40
2.748934749
100
AcDbArc
 50
123.2508455272
 51
123.3824237071
  0
ARC
  5
32D
100
AcDbEntity
  8
0
100
AcDbCircle
 62
6
  6
CONTINUOUS
 10
7.9379934901
 20
2.5498311114
 40
2.5408257889
100
AcDbArc
 50
123.3789908264
 51
123.6954336581
  0
ARC
  5
32E
100
AcDbEntity
  8
0
100
AcDbCircle
 62
6
  6
CONTINUOUS
 10
7.2665148597
 20
1.9136490975
 40
2.5153771485
100
AcDbArc
 50
146.3048361577
 51
146.6352472159
  0
ARC
  5
32F
100
AcDbEntity
  8
0
100
AcDbCircle
 62
6
  6
CONTINUOUS
 10
7.0802330628
 20
2.0382108475
 40
2.2912868472
100
AcDbArc
 50
145.3608248906
 51
146.3050889706
  0
ARC
  5
330
100
AcDbEntity
  8
0
100
AcDbCircle
 62
6
  6
CONTINUOUS
 10
7.7806013798
 20
2.7846881818
 40
2.2581074057
100
AcDbArc
 50
123.6859782582
 51
124.6439688797
  0
ARC
  5
331
100
AcDbEntity
  8
0
100
AcDbCircle
 62
6
  6
CONTINUOUS
 10
6.5772075733
 20
3.3604801139
 40
0.2739960354
100
AcDbArc
 50
287.7237455606
 51
287.9541434109
  0
ARC
  5
332
100
AcDbEntity
  8
0
100
AcDbCircle
 62
6
  6
CONTINUOUS
 10
6.47716005
 20
3.2602649832
 40
0.2738629673
100
AcDbArc
 50
342.045856663
 51
342.2757857249
  0
ARC
  5
333
100
AcDbEntity
  8
0
100
AcDbCircle
 62
6
  6
CONTINUOUS
 10
6.6205306192
 20
3.215064025
 40
0.1236636089
100
AcDbArc
 50
324.4126875011
 51
325.7615865368
  0
ARC
  5
334
100
AcDbEntity
  8
0
100
AcDbCircle
 62
6
  6
CONTINUOUS
 10
6.6237259237
 20
3.2151541356
 40
0.1214335761
100
AcDbArc
 50
304.2368210595
 51
305.647098119
  0
ARC
  5
335
100
AcDbEntity
  8
0
100
AcDbCircle
 62
6
  6
CONTINUOUS
 10
6.6273315467
 20
3.2102335586
 40
0.1153218411
100
AcDbArc
 50
323.5670128167
 51
324.3980443161
  0
ARC
  5
336
100
AcDbEntity
  8
0
100
AcDbCircle
 62
6
  6
CONTINUOUS
 10
6.627862486
 20
3.2093816115
 40
0.1143319443
100
AcDbArc
 50
305.6484584573
 51
306.4827097447
  0
ARC
  5
337
100
AcDbEntity
  8
0
100
AcDbCircle
 62
6
  6
CONTINUOUS
 10
6.6308521471
 20
3.207639331
 40
0.1109486694
100
AcDbArc
 50
322.2975262602
 51
323.5651377915
  0
ARC
  5
338
100
AcDbEntity
  8
0
100
AcDbCircle
 62
6
  6
CONTINUOUS
 10
6.6303027661
 20
3.2060948778
 40
0.1102383491
100
AcDbArc
 50
306.4786312385
 51
307.7073439936
  0
ARC
  5
339
100
AcDbEntity
  8
0
100
AcDbCircle
 62
6
  6
CONTINUOUS
 10
6.6328755273
 20
3.2060869678
 40
0.1083984121
100
AcDbArc
 50
321.3445831466
 51
322.2926658082
  0
ARC
  5
33A
100
AcDbEntity
  8
0
100
AcDbCircle
 62
6
  6
CONTINUOUS
 10
6.6315351869
 20
3.2044999775
 40
0.1082227679
100
AcDbArc
 50
307.7075889363
 51
308.6598208795
  0
ARC
  5
33B
100
AcDbEntity
  8
0
100
AcDbCircle
 62
6
  6
CONTINUOUS
 10
6.6356358281
 20
3.2071979679
 40
0.1066853347
100
AcDbArc
 50
333.7157992128
 51
334.6313249565
  0
ARC
  5
33C
100
AcDbEntity
  8
0
100
AcDbCircle
 62
6
  6
CONTINUOUS
 10
6.6303752047
 20
3.2017545506
 40
0.1065484842
100
AcDbArc
 50
295.3622755963
 51
296.3118252577
  0
ARC
  5
33D
100
AcDbEntity
  8
0
100
AcDbCircle
 62
9
  6
CONTINUOUS
 10
5.9958430302
 20
3.5053842306
 40
0.0999941675
100
AcDbArc
 50
44.9993134033
 51
113.7997693679
  0
ARC
  5
33E
100
AcDbEntity
  8
0
100
AcDbCircle
 62
9
  6
CONTINUOUS
 10
6.3321280401
 20
3.8416671616
 40
0.0999915506
100
AcDbArc
 50
157.3141049263
 51
225.0004815233
  0
ARC
  5
33F
100
AcDbEntity
  8
0
100
AcDbCircle
 62
9
  6
CONTINUOUS
 10
6.7267569698
 20
3.1805246349
 40
0.0118894836
100
AcDbArc
 50
336.9184695653
 51
342.1721323621
  0
ARC
  5
340
100
AcDbEntity
  8
0
100
AcDbCircle
 62
9
  6
CONTINUOUS
 10
6.6569889717
 20
3.1107565245
 40
0.0118893964
100
AcDbArc
 50
287.8274552802
 51
293.0809554663
  0
ARC
  5
341
100
AcDbEntity
  8
0
100
AcDbCircle
 62
9
  6
CONTINUOUS
 10
6.6571807382
 20
3.1101891401
 40
0.01129055
100
AcDbArc
 50
285.2929279875
 51
287.7657777579
  0
ARC
  5
342
100
AcDbEntity
  8
0
100
AcDbCircle
 62
9
  6
CONTINUOUS
 10
6.7273247041
 20
3.1803327535
 40
0.0112902688
100
AcDbArc
 50
342.2335563173
 51
344.7139901371
  0
ARC
  5
343
100
AcDbEntity
  8
0
100
AcDbCircle
 62
9
  6
CONTINUOUS
 10
6.7276009586
 20
3.1802565087
 40
0.0110036867
100
AcDbArc
 50
344.7177200216
 51
348.2010954218
  0
ARC
  5
344
100
AcDbEntity
  8
0
100
AcDbCircle
 62
6
  6
CONTINUOUS
 10
8.6328882999
 20
6.7296925325
 40
3.8129564903
100
AcDbArc
 50
236.8059281113
 51
237.6863015073
  0
ARC
  5
345
100
AcDbEntity
  8
0
100
AcDbCircle
 62
6
  6
CONTINUOUS
 10
8.0550940862
 20
5.8418704763
 40
2.7536786884
100
AcDbArc
 50
236.6309715991
 51
236.7528384244
  0
ARC
  5
346
100
AcDbEntity
  8
0
100
AcDbCircle
 62
6
  6
CONTINUOUS
 10
7.461196513
 20
6.4289536836
 40
2.7487233986
100
AcDbArc
 50
213.2507939914
 51
213.382791258
  0
ARC
  5
347
100
AcDbEntity
  8
0
100
AcDbCircle
 62
6
  6
CONTINUOUS
 10
7.2875833126
 20
6.3143699801
 40
2.540706708
100
AcDbArc
 50
213.3793699227
 51
213.6954367803
  0
ARC
  5
348
100
AcDbEntity
  8
0
100
AcDbCircle
 62
6
  6
CONTINUOUS
 10
7.9238644506
 20
5.6429572562
 40
2.5153770984
100
AcDbArc
 50
236.3048361562
 51
236.6352470616
  0
ARC
  5
349
100
AcDbEntity
  8
0
100
AcDbCircle
 62
6
  6
CONTINUOUS
 10
7.7993027415
 20
5.4566755205
 40
2.2912868706
100
AcDbArc
 50
235.3608248948
 51
236.3050889657
  0
ARC
  5
34A
100
AcDbEntity
  8
0
100
AcDbCircle
 62
6
  6
CONTINUOUS
 10
7.0528389647
 20
6.1570529961
 40
2.2581237882
100
AcDbArc
 50
213.6859813737
 51
214.6439817281
  0
ARC
  5
34B
100
AcDbEntity
  8
0
100
AcDbCircle
 62
6
  6
CONTINUOUS
 10
6.461329614
 20
4.9485607505
 40
0.2905039423
100
AcDbArc
 50
17.7368277109
 51
17.9542649787
  0
ARC
  5
34C
100
AcDbEntity
  8
0
100
AcDbCircle
 62
6
  6
CONTINUOUS
 10
6.5722980522
 20
4.8383303544
 40
0.2899174219
100
AcDbArc
 50
72.0455148103
 51
72.2632083034
  0
ARC
  5
34D
100
AcDbEntity
  8
0
100
AcDbCircle
 62
6
  6
CONTINUOUS
 10
6.6220699907
 20
4.9964286312
 40
0.1243272589
100
AcDbArc
 50
54.449992853
 51
55.8557079019
  0
ARC
  5
34E
100
AcDbEntity
  8
0
100
AcDbCircle
 62
6
  6
CONTINUOUS
 10
6.6218591299
 20
4.9998157936
 40
0.1220456236
100
AcDbArc
 50
34.1240945168
 51
35.6041253281
  0
ARC
  5
34F
100
AcDbEntity
  8
0
100
AcDbCircle
 62
6
  6
CONTINUOUS
 10
6.6272447289
 20
5.0037261159
 40
0.1153813073
100
AcDbArc
 50
53.5403223909
 51
54.4337824788
  0
ARC
  5
350
100
AcDbEntity
  8
0
100
AcDbCircle
 62
6
  6
CONTINUOUS
 10
6.6281262483
 20
5.0043001079
 40
0.1143394027
100
AcDbArc
 50
35.6054227408
 51
36.5130569637
  0
ARC
  5
351
100
AcDbEntity
  8
0
100
AcDbCircle
 62
6
  6
CONTINUOUS
 10
6.6299115335
 20
5.0073438547
 40
0.1108868825
100
AcDbArc
 50
52.2919757753
 51
53.537727861
  0
ARC
  5
352
100
AcDbEntity
  8
0
100
AcDbCircle
 62
6
  6
CONTINUOUS
 10
6.6314568789
 20
5.0067743875
 40
0.110190293
100
AcDbArc
 50
36.5094763471
 51
37.7131907202
  0
ARC
  5
353
100
AcDbEntity
  8
0
100
AcDbCircle
 62
6
  6
CONTINUOUS
 10
6.6314307794
 20
5.0093232806
 40
0.1083916557
100
AcDbArc
 50
51.3386800635
 51
52.2873458567
  0
ARC
  5
354
100
AcDbEntity
  8
0
100
AcDbCircle
 62
6
  6
CONTINUOUS
 10
6.6330182422
 20
5.0079812914
 40
0.1082168513
100
AcDbArc
 50
37.7133704602
 51
38.6663422003
  0
ARC
  5
355
100
AcDbEntity
  8
0
100
AcDbCircle
 62
6
  6
CONTINUOUS
 10
6.6302724334
 20
5.0119888464
 40
0.1067846302
100
AcDbArc
 50
63.776221822
 51
64.7620505326
  0
ARC
  5
356
100
AcDbEntity
  8
0
100
AcDbCircle
 62
6
  6
CONTINUOUS
 10
6.6356879529
 20
5.0067830371
 40
0.1066275332
100
AcDbArc
 50
25.2242473496
 51
26.2468436059
  0
ARC
  5
357
100
AcDbEntity
  8
0
100
AcDbCircle
 62
6
  6
CONTINUOUS
 10
5.9958409021
 20
4.7085762541
 40
0.100000989
100
AcDbArc
 50
246.5573877158
 51
315.0004259297
  0
ARC
  5
358
100
AcDbEntity
  8
0
100
AcDbCircle
 62
9
  6
CONTINUOUS
 10
6.3321288602
 20
4.3722866942
 40
0.0999930097
100
AcDbArc
 50
134.9994735186
 51
203.7998043255
  0
ARC
  5
359
100
AcDbEntity
  8
0
100
AcDbCircle
 62
6
  6
CONTINUOUS
 10
5.8015355688
 20
5.2120340969
 40
0.059
100
AcDbArc
 50
0.0
 51
70.9017558761
  0
ARC
  5
35A
100
AcDbEntity
  8
0
100
AcDbCircle
 62
9
  6
CONTINUOUS
 10
6.6569889409
 20
5.103199408
 40
0.0118894837
100
AcDbArc
 50
66.9184688221
 51
72.1721323472
  0
ARC
  5
35B
100
AcDbEntity
  8
0
100
AcDbCircle
 62
9
  6
CONTINUOUS
 10
6.7267570515
 20
5.03343141
 40
0.0118893964
100
AcDbArc
 50
17.8274552657
 51
23.0809547306
  0
ARC
  5
35C
100
AcDbEntity
  8
0
100
AcDbCircle
 62
9
  6
CONTINUOUS
 10
6.7273244353
 20
5.0336231763
 40
0.0112905505
100
AcDbArc
 50
15.292937709
 51
17.7657777611
  0
ARC
  5
35D
100
AcDbEntity
  8
0
100
AcDbCircle
 62
9
  6
CONTINUOUS
 10
6.6571808225
 20
5.1037671427
 40
0.0112902684
100
AcDbArc
 50
72.233556239
 51
74.7139999343
  0
ARC
  5
35E
100
AcDbEntity
  8
0
100
AcDbCircle
 62
9
  6
CONTINUOUS
 10
6.6572468088
 20
5.1040042724
 40
0.0110441316
100
AcDbArc
 50
74.7198911738
 51
77.0178957483
  0
SPLINE
  5
35F
100
AcDbEntity
  8
0
100
AcDbSpline
 62
6
  6
CONTINUOUS
 70
0
 71
3
 72
13
 73
9
 74
7
 42
0.0000001
 43
0.0000001
 44
0.0000000001
 12
-0.0138695645
 22
-0.0094449765
 32
0.0
 13
-0.0150415842
 23
-0.0074379529
 33
0.0
 40
0.0
 40
0.0
 40
0.0
 40
0.0
 40
0.116899011
 40
0.2353330014
 40
0.3557051915
 40
0.4783884099
 40
0.7322094392
 40
1.0
 40
1.0
 40
1.0
 40
1.0
 10
6.6920462489
 20
3.1147626689
 30
0.0
 10
6.6915058027
 20
3.1143946328
 30
0.0
 10
6.6904121458
 20
3.1136620198
 30
0.0
 10
6.688743837
 20
3.1125778466
 30
0.0
 10
6.6870338912
 20
3.1114986589
 30
0.0
 10
6.6846606885
 20
3.1100521085
 30
0.0
 10
6.6815342942
 20
3.1082579288
 30
0.0
 10
6.6789461464
 20
3.1069089635
 30
0.0
 10
6.6776034816
 20
3.1062450257
 30
0.0
 11
6.6920462489
 21
3.1147626689
 31
0.0
 11
6.6904167898
 21
3.1136705807
 31
0.0
 11
6.68875057
 21
3.1125874288
 31
0.0
 11
6.6870420829
 21
3.1115099759
 31
0.0
 11
6.685283989
 21
3.1104389482
 31
0.0
 11
6.681588568
 21
3.1083213556
 31
0.0
 11
6.6776034816
 21
3.1062450257
 31
0.0
  0
SPLINE
  5
360
100
AcDbEntity
  8
0
100
AcDbSpline
 62
6
  6
CONTINUOUS
 70
0
 71
3
 72
10
 73
6
 74
4
 42
0.0000001
 43
0.0000001
 44
0.0000000001
 12
-0.0139399755
 22
-0.0066082208
 32
0.0
 13
-0.0146757344
 23
-0.0047554516
 33
0.0
 40
0.0
 40
0.0
 40
0.0
 40
0.0
 40
0.229917208
 40
0.4721801218
 40
1.0
 40
1.0
 40
1.0
 40
1.0
 10
6.6760142113
 20
3.1054754741
 30
0.0
 10
6.6749458645
 20
3.1049690262
 30
0.0
 10
6.6727343485
 20
3.1039652696
 30
0.0
 10
6.667983814
 20
3.1019948314
 30
0.0
 10
6.6642504586
 20
3.1006633947
 30
0.0
 10
6.6616684105
 20
3.0998267208
 30
0.0
 11
6.6760142113
 21
3.1054754741
 31
0.0
 11
6.6727846808
 21
3.1040089063
 31
0.0
 11
6.6693329346
 21
3.1025759084
 31
0.0
 11
6.6616684105
 21
3.0998267208
 31
0.0
  0
SPLINE
  5
361
100
AcDbEntity
  8
0
100
AcDbSpline
 62
6
  6
CONTINUOUS
 70
0
 71
3
 72
10
 73
6
 74
4
 42
0.0000001
 43
0.0000001
 44
0.0000000001
 12
-0.0081375357
 22
-0.0101731388
 32
0.0
 13
-0.0092117382
 23
-0.0092117382
 33
0.0
 40
0.0
 40
0.0
 40
0.0
 40
0.0
 40
0.2399369032
 40
0.4850375035
 40
1.0
 40
1.0
 40
1.0
 40
1.0
 10
6.7175256561
 20
3.1383775044
 30
0.0
 10
6.7168748244
 20
3.1375638672
 30
0.0
 10
6.7155351568
 20
3.1359380918
 30
0.0
 10
6.7126775795
 20
3.1326677796
 30
0.0
 10
6.7103990338
 20
3.1302770085
 30
0.0
 10
6.7088178006
 20
3.1286957753
 30
0.0
 11
6.7175256561
 21
3.1383775044
 31
0.0
 11
6.7155380732
 21
3.1359650782
 31
0.0
 11
6.7134376447
 21
3.133560178
 31
0.0
 11
6.7088178006
 21
3.1286957753
 31
0.0
  0
SPLINE
  5
362
100
AcDbEntity
  8
0
100
AcDbSpline
 62
6
  6
CONTINUOUS
 70
0
 71
3
 72
21
 73
17
 74
15
 42
0.0000001
 43
0.0000001
 44
0.0000000001
 12
0.1670926508
 22
-0.1670353892
 32
0.0
 13
0.1934195178
 23
-0.1356822219
 33
0.0
 40
0.0
 40
0.0
 40
0.0
 40
0.0
 40
0.0673862889
 40
0.1346328025
 40
0.201550747
 40
0.2679869358
 40
0.3338347672
 40
0.3989898059
 40
0.4633712754
 40
0.5269201203
 40
0.5895764692
 40
0.6512904201
 40
0.7120274318
 40
0.7717532539
 40
0.8880483967
 40
1.0
 40
1.0
 40
1.0
 40
1.0
 10
6.3024231946
 20
3.7299623494
 30
0.0
 10
6.3061764458
 20
3.7262103844
 30
0.0
 10
6.3137354519
 20
3.7187742967
 30
0.0
 10
6.3252210387
 20
3.7078173862
 30
0.0
 10
6.3368131279
 20
3.6970830391
 30
0.0
 10
6.3484751063
 20
3.6865887404
 30
0.0
 10
6.3601720333
 20
3.6763430083
 30
0.0
 10
6.371874313
 20
3.6663509184
 30
0.0
 10
6.3835552181
 20
3.6566143484
 30
0.0
 10
6.3951908934
 20
3.6471323757
 30
0.0
 10
6.4067594022
 20
3.6379018458
 30
0.0
 10
6.4182420506
 20
3.6289198971
 30
0.0
 10
6.4296244392
 20
3.6201853898
 30
0.0
 10
6.4445168343
 20
3.6089652983
 30
0.0
 10
6.4628010403
 20
3.5955458753
 30
0.0
 10
6.4774498666
 20
3.585126964
 30
0.0
 10
6.4846677416
 20
3.5800636832
 30
0.0
 11
6.3024231946
 21
3.7299623494
 31
0.0
 11
6.3137716558
 21
3.7187958973
 31
0.0
 11
6.3252667546
 21
3.7078282416
 31
0.0
 11
6.3368663733
 21
3.6970851085
 31
0.0
 11
6.3485328981
 21
3.6865840559
 31
0.0
 11
6.360234604
 21
3.6763319617
 31
0.0
 11
6.3719403877
 21
3.6663347713
 31
0.0
 11
6.3836235972
 21
3.6565942242
 31
0.0
 11
6.3952616762
 21
3.6471081901
 31
0.0
 11
6.4068322938
 21
3.6378743926
 31
0.0
 11
6.4183165718
 21
3.6288904615
 31
0.0
 11
6.4297005241
 21
3.6201538941
 31
0.0
 11
6.4409705357
 21
3.6116621777
 31
0.0
 11
6.4631175262
 21
3.5953998824
 31
0.0
 11
6.4846677416
 21
3.5800636832
 31
0.0
  0
SPLINE
  5
363
100
AcDbEntity
  8
0
100
AcDbSpline
 62
6
  6
CONTINUOUS
 70
0
 71
3
 72
18
 73
14
 74
12
 42
0.0000001
 43
0.0000001
 44
0.0000000001
 12
0.1670649171
 22
-0.1671169546
 32
0.0
 13
0.1357483072
 23
-0.1934196477
 33
0.0
 40
0.0
 40
0.0
 40
0.0
 40
0.0
 40
0.0673835467
 40
0.1346275019
 40
0.2015376248
 40
0.2679608752
 40
0.3337996106
 40
0.398958451
 40
0.5269122553
 40
0.651255151
 40
0.7716668434
 40
0.8879701393
 40
1.0
 40
1.0
 40
1.0
 40
1.0
 10
6.1075344523
 20
3.5351071599
 30
0.0
 10
6.1112869278
 20
3.5313535156
 30
0.0
 10
6.1187206814
 20
3.5237903375
 30
0.0
 10
6.129668863
 20
3.5122943158
 30
0.0
 10
6.1403950859
 20
3.5006937753
 30
0.0
 10
6.1508856748
 20
3.4890282675
 30
0.0
 10
6.1611324349
 20
3.477330833
 30
0.0
 10
6.1743841261
 20
3.4618245704
 30
0.0
 10
6.1903003396
 20
3.4425361045
 30
0.0
 10
6.2085045572
 20
3.4195020469
 30
0.0
 10
6.225712815
 20
3.3968575457
 30
0.0
 10
6.241967562
 20
3.3747119219
 30
0.0
 10
6.2523951238
 20
3.3600573166
 30
0.0
 10
6.2574644118
 20
3.3528343913
 30
0.0
 11
6.1075344523
 21
3.5351071599
 31
0.0
 11
6.1186982398
 21
3.5237533888
 31
0.0
 11
6.1296584655
 21
3.512248505
 31
0.0
 11
6.1403940667
 21
3.5006409631
 31
0.0
 11
6.150890848
 21
3.488971306
 31
0.0
 11
6.1611436108
 21
3.4772697111
 31
0.0
 11
6.1711478168
 21
3.465565478
 31
0.0
 11
6.1903974231
 21
3.4422490736
 31
0.0
 11
6.2086218772
 21
3.4192012736
 31
0.0
 11
6.225844226
 21
3.3965518682
 31
0.0
 11
6.2421109934
 21
3.3744002794
 31
0.0
 11
6.2574644118
 21
3.3528343913
 31
0.0
  0
SPLINE
  5
364
100
AcDbEntity
  8
0
100
AcDbSpline
 62
6
  6
CONTINUOUS
 70
0
 71
3
 72
13
 73
9
 74
7
 42
0.0000001
 43
0.0000001
 44
0.0000000001
 12
-0.0094448453
 22
0.0138694379
 32
0.0
 13
-0.0074378586
 23
0.0150414318
 33
0.0
 40
0.0
 40
0.0
 40
0.0
 40
0.0
 40
0.1168989766
 40
0.2353329666
 40
0.3557051749
 40
0.4783884189
 40
0.7322094855
 40
1.0
 40
1.0
 40
1.0
 40
1.0
 10
4.7383200699
 20
3.1454675631
 30
0.0
 10
4.737952039
 20
3.1460080042
 30
0.0
 10
4.7372194361
 20
3.1471016509
 30
0.0
 10
4.7361352773
 20
3.1487699437
 30
0.0
 10
4.7350561038
 20
3.1504798733
 30
0.0
 10
4.7336095725
 20
3.1528530536
 30
0.0
 10
4.7318154169
 20
3.1559794176
 30
0.0
 10
4.7304664693
 20
3.1585675394
 30
0.0
 10
4.7298025399
 20
3.1599101904
 30
0.0
 11
4.7383200699
 21
3.1454675631
 31
0.0
 11
4.7372279969
 21
3.1470970066
 31
0.0
 11
4.7361448595
 21
3.1487632105
 31
0.0
 11
4.7350674207
 21
3.1504716816
 31
0.0
 11
4.7339964071
 21
3.152229759
 31
0.0
 11
4.7318788426
 21
3.1559251445
 31
0.0
 11
4.7298025399
 21
3.1599101904
 31
0.0
  0
SPLINE
  5
365
100
AcDbEntity
  8
0
100
AcDbSpline
 62
6
  6
CONTINUOUS
 70
0
 71
3
 72
10
 73
6
 74
4
 42
0.0000001
 43
0.0000001
 44
0.0000000001
 12
-0.0066080891
 22
0.0139397769
 32
0.0
 13
-0.0047553789
 23
0.0146755099
 33
0.0
 40
0.0
 40
0.0
 40
0.0
 40
0.0
 40
0.2299174921
 40
0.472180537
 40
1.0
 40
1.0
 40
1.0
 40
1.0
 10
4.7290329348
 20
3.1614995779
 30
0.0
 10
4.7285264964
 20
3.1625679107
 30
0.0
 10
4.7275227585
 20
3.1647793968
 30
0.0
 10
4.7255523571
 20
3.1695298613
 30
0.0
 10
4.724220943
 20
3.1732631588
 30
0.0
 10
4.7233842825
 20
3.1758451654
 30
0.0
 11
4.7290329348
 21
3.1614995779
 31
0.0
 11
4.7275663938
 21
3.1647290658
 31
0.0
 11
4.7261334219
 21
3.1681807631
 31
0.0
 11
4.7233842825
 21
3.1758451654
 31
0.0
  0
SPLINE
  5
366
100
AcDbEntity
  8
0
100
AcDbSpline
 62
6
  6
CONTINUOUS
 70
0
 71
3
 72
10
 73
6
 74
4
 42
0.0000001
 43
0.0000001
 44
0.0000000001
 12
-0.0101731268
 22
0.0081375283
 32
0.0
 13
-0.0092117283
 23
0.0092117283
 33
0.0
 40
0.0
 40
0.0
 40
0.0
 40
0.0
 40
0.2399369059
 40
0.4850375107
 40
1.0
 40
1.0
 40
1.0
 40
1.0
 10
4.7619350552
 20
3.1199879285
 30
0.0
 10
4.761121419
 20
3.1206387596
 30
0.0
 10
4.7594956455
 20
3.121978426
 30
0.0
 10
4.756225337
 20
3.1248360005
 30
0.0
 10
4.7538345686
 20
3.1271145438
 30
0.0
 10
4.7522533371
 20
3.1286957753
 30
0.0
 11
4.7619350552
 21
3.1199879285
 31
0.0
 11
4.7595226318
 21
3.1219755096
 31
0.0
 11
4.7571177343
 21
3.124075936
 31
0.0
 11
4.7522533371
 21
3.1286957753
 31
0.0
  0
SPLINE
  5
367
100
AcDbEntity
  8
0
100
AcDbSpline
 62
6
  6
CONTINUOUS
 70
0
 71
3
 72
10
 73
6
 74
4
 42
0.0000001
 43
0.0000001
 44
0.0000000001
 12
0.0144536814
 22
-0.0046834974
 32
0.0
 13
0.013743203
 23
-0.0064783043
 33
0.0
 40
0.0
 40
0.0
 40
0.0
 40
0.0
 40
0.5274085878
 40
0.769801073
 40
1.0
 40
1.0
 40
1.0
 40
1.0
 10
6.6616684085
 20
5.1141292925
 30
0.0
 10
6.664209407
 20
5.1133059202
 30
0.0
 10
6.6678854241
 20
5.1119968661
 30
0.0
 10
6.6725667147
 20
5.1100626663
 30
0.0
 10
6.6747485474
 20
5.1090774324
 30
0.0
 10
6.6758031043
 20
5.1085803328
 30
0.0
 11
6.6616684085
 21
5.1141292925
 31
0.0
 11
6.6692124935
 21
5.1114277519
 31
0.0
 11
6.6726157714
 21
5.1100203649
 31
0.0
 11
6.6758031043
 21
5.1085803328
 31
0.0
  0
SPLINE
  5
368
100
AcDbEntity
  8
0
100
AcDbSpline
 62
6
  6
CONTINUOUS
 70
0
 71
3
 72
13
 73
9
 74
7
 42
0.0000001
 43
0.0000001
 44
0.0000000001
 12
0.0149878021
 22
-0.0073829619
 32
0.0
 13
0.013826567
 23
-0.0093791462
 33
0.0
 40
0.0
 40
0.0
 40
0.0
 40
0.0
 40
0.2678596168
 40
0.5217297173
 40
0.6444182619
 40
0.7647772195
 40
0.8831733902
 40
1.0
 40
1.0
 40
1.0
 40
1.0
 10
6.6774582318
 20
5.1077826754
 30
0.0
 10
6.6787964408
 20
5.1071234762
 30
0.0
 10
6.6813761463
 20
5.1057842216
 30
0.0
 10
6.6844926461
 20
5.1040027449
 30
0.0
 10
6.6868581298
 20
5.102566188
 30
0.0
 10
6.6885621025
 20
5.1014943983
 30
0.0
 10
6.6902241614
 20
5.1004176653
 30
0.0
 10
6.6913138274
 20
5.0996904335
 30
0.0
 10
6.6918522644
 20
5.0993251889
 30
0.0
 11
6.6774582318
 21
5.1077826754
 31
0.0
 11
6.6814304132
 21
5.1057211478
 31
0.0
 11
6.6851140802
 21
5.1036184522
 31
0.0
 11
6.6868663729
 21
5.1025548476
 31
0.0
 11
6.6885689193
 21
5.1014847686
 31
0.0
 11
6.6902290121
 21
5.1004091234
 31
0.0
 11
6.6918522644
 21
5.0993251889
 31
0.0
  0
SPLINE
  5
369
100
AcDbEntity
  8
0
100
AcDbSpline
 62
6
  6
CONTINUOUS
 70
0
 71
3
 72
10
 73
6
 74
4
 42
0.0000001
 43
0.0000001
 44
0.0000000001
 12
0.0091982044
 22
-0.0091982044
 32
0.0
 13
0.0081273819
 23
-0.0101567511
 33
0.0
 40
0.0
 40
0.0
 40
0.0
 40
0.0
 40
0.5149526903
 40
0.7600593998
 40
1.0
 40
1.0
 40
1.0
 40
1.0
 10
6.7088178006
 20
5.0852602388
 30
0.0
 10
6.7103966806
 20
5.0836813588
 30
0.0
 10
6.7126719497
 20
5.0812941996
 30
0.0
 10
6.7155256868
 20
5.0780290071
 30
0.0
 10
6.7168636666
 20
5.0764057977
 30
0.0
 10
6.7175136962
 20
5.0755934587
 30
0.0
 11
6.7088178006
 21
5.0852602388
 31
0.0
 11
6.7134309686
 21
5.0804032645
 31
0.0
 11
6.7155286276
 21
5.0780020685
 31
0.0
 11
6.7175136962
 21
5.0755934587
 31
0.0
  0
SPLINE
  5
36A
100
AcDbEntity
  8
0
100
AcDbSpline
 62
6
  6
CONTINUOUS
 70
0
 71
3
 72
21
 73
17
 74
15
 42
0.0000001
 43
0.0000001
 44
0.0000000001
 12
-0.1670353908
 22
-0.1670926523
 32
0.0
 13
-0.1356822372
 23
-0.1934195097
 33
0.0
 40
0.0
 40
0.0
 40
0.0
 40
0.0
 40
0.0673862883
 40
0.134632801
 40
0.2015507439
 40
0.267986931
 40
0.3338347615
 40
0.3989898006
 40
0.4633712719
 40
0.5269201176
 40
0.5895764637
 40
0.6512904085
 40
0.7120274133
 40
0.7717532302
 40
0.8880483749
 40
1.0
 40
1.0
 40
1.0
 40
1.0
 10
5.3535199114
 20
3.5350903815
 30
0.0
 10
5.3497679464
 20
3.5313371303
 30
0.0
 10
5.3423318586
 20
3.5237781242
 30
0.0
 10
5.3313749482
 20
3.5122925375
 30
0.0
 10
5.3206406013
 20
3.5007004484
 30
0.0
 10
5.3101463027
 20
3.4890384702
 30
0.0
 10
5.2999005706
 20
3.4773415432
 30
0.0
 10
5.2899084805
 20
3.4656392633
 30
0.0
 10
5.2801719102
 20
3.453958358
 30
0.0
 10
5.2706899374
 20
3.4423226827
 30
0.0
 10
5.2614594078
 20
3.4307541743
 30
0.0
 10
5.25247746
 20
3.4192715265
 30
0.0
 10
5.2437429538
 20
3.4078891388
 30
0.0
 10
5.2325228629
 20
3.392996744
 30
0.0
 10
5.219103439
 20
3.3747125366
 30
0.0
 10
5.2086845259
 20
3.3600637092
 30
0.0
 10
5.2036212436
 20
3.352845833
 30
0.0
 11
5.3535199114
 21
3.5350903815
 31
0.0
 11
5.3423534593
 21
3.5237419203
 31
0.0
 11
5.3313858036
 21
3.5122468215
 31
0.0
 11
5.3206426707
 21
3.500647203
 31
0.0
 11
5.3101416182
 21
3.4889806784
 31
0.0
 11
5.299889524
 21
3.4772789725
 31
0.0
 11
5.2898923334
 21
3.4655731887
 31
0.0
 11
5.280151786
 21
3.4538899789
 31
0.0
 11
5.2706657517
 21
3.4422518996
 31
0.0
 11
5.2614319545
 21
3.4306812825
 31
0.0
 11
5.2524480243
 21
3.4191970053
 31
0.0
 11
5.2437114582
 21
3.407813054
 31
0.0
 11
5.2352197426
 21
3.3965430432
 31
0.0
 11
5.2189574469
 21
3.3743960521
 31
0.0
 11
5.2036212436
 21
3.352845833
 31
0.0
  0
SPLINE
  5
36B
100
AcDbEntity
  8
0
100
AcDbSpline
 62
6
  6
CONTINUOUS
 70
0
 71
3
 72
18
 73
14
 74
12
 42
0.0000001
 43
0.0000001
 44
0.0000000001
 12
-0.1671169555
 22
-0.1670649177
 32
0.0
 13
-0.1934196487
 23
-0.1357483075
 33
0.0
 40
0.0
 40
0.0
 40
0.0
 40
0.0
 40
0.0673835457
 40
0.1346274997
 40
0.2015376218
 40
0.2679608729
 40
0.3337996088
 40
0.3989584482
 40
0.5269122463
 40
0.6512551351
 40
0.7716668264
 40
0.8879701276
 40
1.0
 40
1.0
 40
1.0
 40
1.0
 10
5.1586647212
 20
3.7299791231
 30
0.0
 10
5.1549110769
 20
3.7262266476
 30
0.0
 10
5.1473478989
 20
3.7187928941
 30
0.0
 10
5.1358518774
 20
3.7078447126
 30
0.0
 10
5.1242513368
 20
3.6971184898
 30
0.0
 10
5.112585829
 20
3.6866279009
 30
0.0
 10
5.1008883945
 20
3.6763811407
 30
0.0
 10
5.0853821322
 20
3.6631294498
 30
0.0
 10
5.066093667
 20
3.6472132369
 30
0.0
 10
5.0430596102
 20
3.6290090199
 30
0.0
 10
5.0204151092
 20
3.6118007621
 30
0.0
 10
4.9982694842
 20
3.5955460143
 30
0.0
 10
4.9836148778
 20
3.5851184516
 30
0.0
 10
4.9763919516
 20
3.5800491631
 30
0.0
 11
5.1586647212
 21
3.7299791231
 31
0.0
 11
5.1473109503
 21
3.7188153357
 31
0.0
 11
5.1358060665
 21
3.7078551102
 31
0.0
 11
5.1241985247
 21
3.6971195091
 31
0.0
 11
5.1125288675
 21
3.6866227277
 31
0.0
 11
5.1008272724
 21
3.6763699648
 31
0.0
 11
5.0891230394
 21
3.6663657588
 31
0.0
 11
5.0658066361
 21
3.6471161534
 31
0.0
 11
5.0427588373
 21
3.6288917002
 31
0.0
 11
5.020109432
 21
3.6116693513
 31
0.0
 11
4.9979578421
 21
3.5954025832
 31
0.0
 11
4.9763919516
 21
3.5800491631
 31
0.0
  0
SPLINE
  5
36C
100
AcDbEntity
  8
0
100
AcDbSpline
 62
6
  6
CONTINUOUS
 70
0
 71
3
 72
10
 73
6
 74
4
 42
0.0000001
 43
0.0000001
 44
0.0000000001
 12
0.0047257214
 22
0.0145839879
 32
0.0
 13
0.0065544289
 23
0.0138587376
 33
0.0
 40
0.0
 40
0.0
 40
0.0
 40
0.0
 40
0.5276500701
 40
0.7699665559
 40
1.0
 40
1.0
 40
1.0
 40
1.0
 10
4.7233842833
 20
5.038110847
 30
0.0
 10
4.7242154591
 20
5.0406759277
 30
0.0
 10
4.725537639
 20
5.04438559
 30
0.0
 10
4.727493078
 20
5.0491075267
 30
0.0
 10
4.7284891687
 20
5.0513067931
 30
0.0
 10
4.728991748
 20
5.0523694508
 30
0.0
 11
4.7233842833
 21
5.038110847
 31
0.0
 11
4.7261137601
 21
5.045725595
 31
0.0
 11
4.7275361606
 21
5.0491573313
 31
0.0
 11
4.728991748
 21
5.0523694508
 31
0.0
  0
SPLINE
  5
36D
100
AcDbEntity
  8
0
100
AcDbSpline
 62
6
  6
CONTINUOUS
 70
0
 71
3
 72
13
 73
9
 74
7
 42
0.0000001
 43
0.0000001
 44
0.0000000001
 12
0.0074138062
 22
0.0150278513
 32
0.0
 13
0.0094189984
 23
0.0138594122
 33
0.0
 40
0.0
 40
0.0
 40
0.0
 40
0.0
 40
0.2678484274
 40
0.5216989289
 40
0.6443818043
 40
0.764741419
 40
0.8831479532
 40
1.0
 40
1.0
 40
1.0
 40
1.0
 10
4.729758879
 20
5.0539574254
 30
0.0
 10
4.7304208045
 20
5.0552991542
 30
0.0
 10
4.7317656659
 20
5.0578854753
 30
0.0
 10
4.733554647
 20
5.0610097164
 30
0.0
 10
4.7349971508
 20
5.063381031
 30
0.0
 10
4.7360733461
 20
5.0650893208
 30
0.0
 10
4.7371545027
 20
5.0667557559
 30
0.0
 10
4.7378848968
 20
5.0678482247
 30
0.0
 10
4.7382517732
 20
5.0683880583
 30
0.0
 11
4.729758879
 21
5.0539574254
 31
0.0
 11
4.7318290374
 21
5.0579398715
 31
0.0
 11
4.7339405002
 21
5.0616326418
 31
0.0
 11
4.7350085027
 21
5.063389266
 31
0.0
 11
4.7360829697
 21
5.0650961123
 31
0.0
 11
4.7371630681
 21
5.0667605177
 31
0.0
 11
4.7382517732
 21
5.0683880583
 31
0.0
  0
SPLINE
  5
36E
100
AcDbEntity
  8
0
100
AcDbSpline
 62
6
  6
CONTINUOUS
 70
0
 71
3
 72
10
 73
6
 74
4
 42
0.0000001
 43
0.0000001
 44
0.0000000001
 12
0.0092021225
 22
0.0092021225
 32
0.0
 13
0.010161495
 23
0.008130322
 33
0.0
 40
0.0
 40
0.0
 40
0.0
 40
0.0
 40
0.5149555311
 40
0.7600604725
 40
1.0
 40
1.0
 40
1.0
 40
1.0
 10
4.7522533371
 20
5.0852602388
 30
0.0
 10
4.7538328983
 20
5.0868398001
 30
0.0
 10
4.7562211031
 20
5.0891160178
 30
0.0
 10
4.7594877778
 20
5.0919708668
 30
0.0
 10
4.76111173
 20
5.0933093353
 30
0.0
 10
4.7619244448
 20
5.0939595972
 30
0.0
 11
4.7522533371
 21
5.0852602388
 31
0.0
 11
4.7571124619
 21
5.0898753397
 31
0.0
 11
4.7595147302
 21
5.0919738006
 31
0.0
 11
4.7619244448
 21
5.0939595972
 31
0.0
  0
SPLINE
  5
36F
100
AcDbEntity
  8
0
100
AcDbSpline
 62
6
  6
CONTINUOUS
 70
0
 71
3
 72
10
 73
6
 74
4
 42
0.0000001
 43
0.0000001
 44
0.0000000001
 12
-0.0146858083
 22
0.0047587149
 32
0.0
 13
-0.0139488903
 23
0.006614136
 33
0.0
 40
0.0
 40
0.0
 40
0.0
 40
0.0
 40
0.5278385281
 40
0.7700955524
 40
1.0
 40
1.0
 40
1.0
 40
1.0
 10
4.7994027287
 20
3.0998267214
 30
0.0
 10
4.7968188169
 20
3.1006639991
 30
0.0
 10
4.7930828596
 20
3.1019964527
 30
0.0
 10
4.7883291861
 20
3.1039685397
 30
0.0
 10
4.7861163263
 20
3.1049731389
 30
0.0
 10
4.7850473557
 20
3.105480012
 30
0.0
 11
4.7994027287
 21
3.0998267214
 31
0.0
 11
4.7917327377
 21
3.1025780749
 31
0.0
 11
4.7882787957
 21
3.1040122374
 31
0.0
 11
4.7850473557
 21
3.105480012
 31
0.0
  0
SPLINE
  5
370
100
AcDbEntity
  8
0
100
AcDbSpline
 62
6
  6
CONTINUOUS
 70
0
 71
3
 72
13
 73
9
 74
7
 42
0.0000001
 43
0.0000001
 44
0.0000000001
 12
-0.0150695104
 22
0.0074428796
 32
0.0
 13
-0.0138937561
 23
0.0094578086
 33
0.0
 40
0.0
 40
0.0
 40
0.0
 40
0.0
 40
0.2678481705
 40
0.5216830373
 40
0.6443594904
 40
0.7647171246
 40
0.8831294493
 40
1.0
 40
1.0
 40
1.0
 40
1.0
 10
4.7835128023
 20
3.1062227148
 30
0.0
 10
4.7821673554
 20
3.1068872353
 30
0.0
 10
4.7795740604
 20
3.1082374425
 30
0.0
 10
4.7764416604
 20
3.1100336412
 30
0.0
 10
4.7740642563
 20
3.1114818813
 30
0.0
 10
4.7723515074
 20
3.1125623225
 30
0.0
 10
4.7706806031
 20
3.1136477595
 30
0.0
 10
4.7695852697
 20
3.1143812018
 30
0.0
 10
4.7690440128
 20
3.1147496483
 30
0.0
 11
4.7835128023
 21
3.1062227148
 31
0.0
 11
4.7795194937
 21
3.1083011328
 31
0.0
 11
4.7758171548
 21
3.1104210156
 31
0.0
 11
4.7740560205
 21
3.1114932523
 31
0.0
 11
4.7723447344
 21
3.1125719503
 31
0.0
 11
4.7706759164
 21
3.1136563516
 31
0.0
 11
4.7690440128
 21
3.1147496483
 31
0.0
  0
SPLINE
  5
371
100
AcDbEntity
  8
0
100
AcDbSpline
 62
6
  6
CONTINUOUS
 70
0
 71
3
 72
10
 73
6
 74
4
 42
0.0000001
 43
0.0000001
 44
0.0000000001
 12
-0.0092068753
 22
0.0092068753
 32
0.0
 13
-0.0081338879
 23
0.01016725
 33
0.0
 40
0.0
 40
0.0
 40
0.0
 40
0.0
 40
0.514958972
 40
0.7600617693
 40
1.0
 40
1.0
 40
1.0
 40
1.0
 10
4.7522533371
 20
3.1286957753
 30
0.0
 10
4.7506729494
 20
3.130276163
 30
0.0
 10
4.7483955811
 20
3.1326656362
 30
0.0
 10
4.7455393834
 20
3.1359341088
 30
0.0
 10
4.7442003222
 20
3.1375589621
 30
0.0
 10
4.7435497786
 20
3.1383721327
 30
0.0
 11
4.7522533371
 21
3.1286957753
 31
0.0
 11
4.7476358917
 21
3.1335575088
 31
0.0
 11
4.7455364582
 21
3.135961078
 31
0.0
 11
4.7435497786
 21
3.1383721327
 31
0.0
  0
SPLINE
  5
372
100
AcDbEntity
  8
0
100
AcDbSpline
 62
6
  6
CONTINUOUS
 70
0
 71
3
 72
10
 73
6
 74
4
 42
0.0000001
 43
0.0000001
 44
0.0000000001
 12
-0.0047587893
 22
-0.014686038
 32
0.0
 13
-0.0066142709
 23
-0.0139490934
 33
0.0
 40
0.0
 40
0.0
 40
0.0
 40
0.0
 40
0.5278389528
 40
0.770095843
 40
1.0
 40
1.0
 40
1.0
 40
1.0
 10
6.7376868544
 20
3.1758451669
 30
0.0
 10
6.736849563
 20
3.1732612126
 30
0.0
 10
6.7355170862
 20
3.1695251961
 30
0.0
 10
6.7335449616
 20
3.164771451
 30
0.0
 10
6.7325403432
 20
3.1625585606
 30
0.0
 10
6.7320334604
 20
3.1614895757
 30
0.0
 11
6.7376868544
 21
3.1758451669
 31
0.0
 11
6.7349354516
 21
3.1681750513
 31
0.0
 11
6.7335012625
 21
3.1647210593
 31
0.0
 11
6.7320334604
 21
3.1614895757
 31
0.0
  0
SPLINE
  5
373
100
AcDbEntity
  8
0
100
AcDbSpline
 62
6
  6
CONTINUOUS
 70
0
 71
3
 72
13
 73
9
 74
7
 42
0.0000001
 43
0.0000001
 44
0.0000000001
 12
-0.007442977
 22
-0.0150696693
 32
0.0
 13
-0.0094579445
 23
-0.0138938881
 33
0.0
 40
0.0
 40
0.0
 40
0.0
 40
0.0
 40
0.2678482225
 40
0.5216830519
 40
0.6443594782
 40
0.7647170926
 40
0.8831294161
 40
1.0
 40
1.0
 40
1.0
 40
1.0
 10
6.7312908137
 20
3.1599551446
 30
0.0
 10
6.7306262843
 20
3.1586096832
 30
0.0
 10
6.729276059
 20
3.1560163611
 30
0.0
 10
6.7274798354
 20
3.1528839295
 30
0.0
 10
6.7260315754
 20
3.1505065021
 30
0.0
 10
6.7249511195
 20
3.1487937364
 30
0.0
 10
6.7238656676
 20
3.1471228154
 30
0.0
 10
6.7231322148
 20
3.1460274713
 30
0.0
 10
6.7227637629
 20
3.1454862091
 30
0.0
 11
6.7312908137
 21
3.1599551446
 31
0.0
 11
6.7292123674
 21
3.1559617936
 31
0.0
 11
6.7270924556
 21
3.1522594178
 31
0.0
 11
6.7260202043
 21
3.1504982663
 31
0.0
 11
6.7249414916
 21
3.1487869634
 31
0.0
 11
6.7238570754
 21
3.1471181289
 31
0.0
 11
6.7227637629
 21
3.1454862091
 31
0.0
  0
SPLINE
  5
374
100
AcDbEntity
  8
0
100
AcDbSpline
 62
6
  6
CONTINUOUS
 70
0
 71
3
 72
10
 73
6
 74
4
 42
0.0000001
 43
0.0000001
 44
0.0000000001
 12
-0.0092068848
 22
-0.0092068848
 32
0.0
 13
-0.0101672615
 23
-0.008133895
 33
0.0
 40
0.0
 40
0.0
 40
0.0
 40
0.0
 40
0.5149589789
 40
0.7600617718
 40
1.0
 40
1.0
 40
1.0
 40
1.0
 10
6.7088178006
 20
3.1286957753
 30
0.0
 10
6.7072374113
 20
3.127115386
 30
0.0
 10
6.7048479355
 20
3.1248380153
 30
0.0
 10
6.7015794594
 20
3.121981815
 30
0.0
 10
6.6999546043
 20
3.1206427526
 30
0.0
 10
6.6991414327
 20
3.1199922085
 30
0.0
 11
6.7088178006
 21
3.1286957753
 31
0.0
 11
6.7039560619
 21
3.1240783253
 31
0.0
 11
6.7015524901
 21
3.1219788899
 31
0.0
 11
6.6991414327
 21
3.1199922085
 31
0.0
  0
SPLINE
  5
375
100
AcDbEntity
  8
0
100
AcDbSpline
 62
6
  6
CONTINUOUS
 70
0
 71
3
 72
13
 73
9
 74
7
 42
0.0000001
 43
0.0000001
 44
0.0000000001
 12
0.0138116801
 22
0.0093836502
 32
0.0
 13
0.0149718027
 23
0.0073932755
 33
0.0
 40
0.0
 40
0.0
 40
0.0
 40
0.0
 40
0.1168793668
 40
0.2353107337
 40
0.355689899
 40
0.4783845344
 40
0.7322249707
 40
1.0
 40
1.0
 40
1.0
 40
1.0
 10
4.7691409849
 20
5.0992723128
 30
0.0
 10
4.769679085
 20
5.0996378979
 30
0.0
 10
4.7707680085
 20
5.1003657424
 30
0.0
 10
4.7724289387
 20
5.1014431909
 30
0.0
 10
4.7741314612
 20
5.1025157113
 30
0.0
 10
4.7764944251
 20
5.1039532546
 30
0.0
 10
4.7796070009
 20
5.1057361314
 30
0.0
 10
4.7821833369
 20
5.1070767922
 30
0.0
 10
4.7835196952
 20
5.1077367037
 30
0.0
 11
4.7691409849
 21
5.0992723128
 31
0.0
 11
4.770763265
 21
5.1003572298
 31
0.0
 11
4.7724221889
 21
5.1014336281
 31
0.0
 11
4.774123283
 21
5.1025044374
 31
0.0
 11
4.7758738128
 21
5.1035688269
 31
0.0
 11
4.7795530608
 21
5.1056732498
 31
0.0
 11
4.7835196952
 21
5.1077367037
 31
0.0
  0
SPLINE
  5
376
100
AcDbEntity
  8
0
100
AcDbSpline
 62
6
  6
CONTINUOUS
 70
0
 71
3
 72
10
 73
6
 74
4
 42
0.0000001
 43
0.0000001
 44
0.0000000001
 12
0.0138337379
 22
0.0065379205
 32
0.0
 13
0.0145557748
 23
0.0047165803
 33
0.0
 40
0.0
 40
0.0
 40
0.0
 40
0.0
 40
0.2300692456
 40
0.4724021991
 40
1.0
 40
1.0
 40
1.0
 40
1.0
 10
4.7851709452
 20
5.1085345082
 30
0.0
 10
4.7862318511
 20
5.1090358996
 30
0.0
 10
4.7884273464
 20
5.1100296368
 30
0.0
 10
4.7931404855
 20
5.1119804712
 30
0.0
 10
4.7968428625
 20
5.1132998074
 30
0.0
 10
4.7994027274
 20
5.1141292932
 30
0.0
 11
4.7851709452
 21
5.1085345082
 31
0.0
 11
4.788377704
 21
5.1099867239
 31
0.0
 11
4.7918032824
 21
5.1114058704
 31
0.0
 11
4.7994027274
 21
5.1141292932
 31
0.0
  0
SPLINE
  5
377
100
AcDbEntity
  8
0
100
AcDbSpline
 62
6
  6
CONTINUOUS
 70
0
 71
3
 72
10
 73
6
 74
4
 42
0.0000001
 43
0.0000001
 44
0.0000000001
 12
0.008134845
 22
0.0101687949
 32
0.0
 13
0.0092081511
 23
0.0092081511
 33
0.0
 40
0.0
 40
0.0
 40
0.0
 40
0.0
 40
0.2399378776
 40
0.4850400956
 40
1.0
 40
1.0
 40
1.0
 40
1.0
 10
4.7435486512
 20
5.0755824721
 30
0.0
 10
4.7441992704
 20
5.0763957651
 30
0.0
 10
4.7455384907
 20
5.0780208603
 30
0.0
 10
4.7483950503
 20
5.0812898156
 30
0.0
 10
4.7506727275
 20
5.0836796293
 30
0.0
 10
4.7522533371
 20
5.0852602388
 30
0.0
 11
4.7435486512
 21
5.0755824721
 31
0.0
 11
4.7455355678
 21
5.0779938866
 31
0.0
 11
4.7476352623
 21
5.080397805
 31
0.0
 11
4.7522533371
 21
5.0852602388
 31
0.0
  0
SPLINE
  5
378
100
AcDbEntity
  8
0
100
AcDbSpline
 62
6
  6
CONTINUOUS
 70
0
 71
3
 72
18
 73
14
 74
12
 42
0.0000001
 43
0.0000001
 44
0.0000000001
 12
0.1671193575
 22
0.1670683334
 32
0.0
 13
0.1934231075
 23
0.1357505401
 33
0.0
 40
0.0
 40
0.0
 40
0.0
 40
0.0
 40
0.0673827692
 40
0.1346257583
 40
0.2015353628
 40
0.2679590712
 40
0.3337980773
 40
0.3989557235
 40
0.5269041075
 40
0.6512432203
 40
0.7716564703
 40
0.8879637583
 40
1.0
 40
1.0
 40
1.0
 40
1.0
 10
6.302404407
 20
4.4839748822
 30
0.0
 10
6.306158062
 20
4.4877273911
 30
0.0
 10
6.3137212491
 20
4.495161203
 30
0.0
 10
6.3252173108
 20
4.5061094852
 30
0.0
 10
6.3368179768
 20
4.5168358586
 30
0.0
 10
6.3484836929
 20
4.5273266492
 30
0.0
 10
6.3601812841
 20
4.5375735854
 30
0.0
 10
6.3756873802
 20
4.5508252491
 30
0.0
 10
6.3949755437
 20
4.5667412275
 30
0.0
 10
6.4180095213
 20
4.5849453982
 30
0.0
 10
6.4406544486
 20
4.6021541437
 30
0.0
 10
6.4628012088
 20
4.6184097406
 30
0.0
 10
6.4774567669
 20
4.6288379128
 30
0.0
 10
6.4846802329
 20
4.6339075729
 30
0.0
 11
6.302404407
 21
4.4839748822
 31
0.0
 11
6.3137582097
 21
4.4951387709
 31
0.0
 11
6.3252630987
 21
4.5060990613
 31
0.0
 11
6.3368707347
 21
4.5168347858
 31
0.0
 11
6.3485406645
 21
4.5273318345
 31
0.0
 11
6.3602424902
 21
4.537584842
 31
0.0
 11
6.3719466786
 21
4.5475890786
 31
0.0
 11
6.3952624766
 21
4.5668382346
 31
0.0
 11
6.4183099543
 21
4.5850624799
 31
0.0
 11
6.4409599902
 21
4.6022854263
 31
0.0
 11
6.4631127154
 21
4.6185530485
 31
0.0
 11
6.4846802329
 21
4.6339075729
 31
0.0
  0
SPLINE
  5
379
100
AcDbEntity
  8
0
100
AcDbSpline
 62
6
  6
CONTINUOUS
 70
0
 71
3
 72
21
 73
17
 74
15
 42
0.0000001
 43
0.0000001
 44
0.0000000001
 12
0.1670414222
 22
0.1670971257
 32
0.0
 13
0.1356996738
 23
0.1934163506
 33
0.0
 40
0.0
 40
0.0
 40
0.0
 40
0.0
 40
0.0673854615
 40
0.1346309275
 40
0.2015471243
 40
0.2679814657
 40
0.3338280399
 40
0.3989830756
 40
0.4633657575
 40
0.5269150023
 40
0.5895688539
 40
0.6512776404
 40
0.7120089095
 40
0.7717304848
 40
0.8880283099
 40
1.0
 40
1.0
 40
1.0
 40
1.0
 10
6.1075479625
 20
4.6788623677
 30
0.0
 10
6.1113000169
 20
4.6826156734
 30
0.0
 10
6.118736272
 20
4.6901747754
 30
0.0
 10
6.1296933846
 20
4.7016604651
 30
0.0
 10
6.1404278469
 20
4.7132526265
 30
0.0
 10
6.1509222609
 20
4.7249146506
 30
0.0
 10
6.1611682014
 20
4.7366117198
 30
0.0
 10
6.1711606509
 20
4.7483143238
 30
0.0
 10
6.1808976675
 20
4.7599956442
 30
0.0
 10
6.1903799431
 20
4.7716315916
 30
0.0
 10
6.1996104266
 20
4.7832000019
 30
0.0
 10
6.208591864
 20
4.7946822927
 30
0.0
 10
6.2173257093
 20
4.8060642536
 30
0.0
 10
6.228545561
 20
4.8209568427
 30
0.0
 10
6.241966317
 20
4.8392427596
 30
0.0
 10
6.2523872095
 20
4.8538930657
 30
0.0
 10
6.2574520501
 20
4.8611121176
 30
0.0
 11
6.1075479625
 21
4.6788623677
 31
0.0
 11
6.118714683
 21
4.6902109929
 31
0.0
 11
6.1296825626
 21
4.7017062267
 31
0.0
 11
6.1404257861
 21
4.7133058765
 31
0.0
 11
6.1509269166
 21
4.724972408
 31
0.0
 11
6.1611791844
 21
4.7366742175
 31
0.0
 11
6.1711767388
 21
4.7483803259
 31
0.0
 11
6.1809178313
 21
4.7600640763
 31
0.0
 11
6.1904042684
 21
4.771702558
 31
0.0
 11
6.1996379843
 21
4.7832730814
 31
0.0
 11
6.2086213175
 21
4.7947568601
 31
0.0
 11
6.2173571384
 21
4.8061402438
 31
0.0
 11
6.2258483539
 21
4.8174099321
 31
0.0
 11
6.2421116567
 21
4.839558041
 31
0.0
 11
6.2574520501
 21
4.8611121176
 31
0.0
  0
SPLINE
  5
37A
100
AcDbEntity
  8
0
100
AcDbSpline
 62
6
  6
CONTINUOUS
 70
0
 71
3
 72
10
 73
6
 74
4
 42
0.0000001
 43
0.0000001
 44
0.0000000001
 12
0.0101636325
 22
-0.0081316465
 32
0.0
 13
0.0092038878
 23
-0.0092038878
 33
0.0
 40
0.0
 40
0.0
 40
0.0
 40
0.0
 40
0.2399390392
 40
0.4850431804
 40
1.0
 40
1.0
 40
1.0
 40
1.0
 10
6.699144743
 20
5.0939611573
 30
0.0
 10
6.6999576271
 20
5.0933107908
 30
0.0
 10
6.701581914
 20
5.0919721021
 30
0.0
 10
6.7048492564
 20
5.0891167522
 30
0.0
 10
6.7072379323
 20
5.0868401071
 30
0.0
 10
6.7088178006
 20
5.0852602388
 30
0.0
 11
6.699144743
 21
5.0939611573
 31
0.0
 11
6.7015549553
 21
5.0919750327
 31
0.0
 11
6.7039577068
 21
5.0898762106
 31
0.0
 11
6.7088178006
 21
5.0852602388
 31
0.0
  0
SPLINE
  5
37B
100
AcDbEntity
  8
0
100
AcDbSpline
 62
6
  6
CONTINUOUS
 70
0
 71
3
 72
13
 73
9
 74
7
 42
0.0000001
 43
0.0000001
 44
0.0000000001
 12
0.0093454552
 22
-0.0137804413
 32
0.0
 13
0.0073635698
 23
-0.014933718
 33
0.0
 40
0.0
 40
0.0
 40
0.0
 40
0.0
 40
0.1168542512
 40
0.2352751669
 40
0.3556533783
 40
0.4783533233
 40
0.7322129333
 40
1.0
 40
1.0
 40
1.0
 40
1.0
 10
6.7228914868
 20
5.0682818224
 30
0.0
 10
6.7232555055
 20
5.0677450547
 30
0.0
 10
6.7239803151
 20
5.0666588043
 30
0.0
 10
6.7250535188
 20
5.0650020477
 30
0.0
 10
6.7261218105
 20
5.0633036376
 30
0.0
 10
6.7275536462
 20
5.0609462196
 30
0.0
 10
6.7293293188
 20
5.0578409953
 30
0.0
 10
6.7306645892
 20
5.0552709396
 30
0.0
 10
6.7313218788
 20
5.0539379207
 30
0.0
 11
6.7228914868
 21
5.0682818224
 31
0.0
 11
6.7239718245
 21
5.0666636341
 31
0.0
 11
6.7250439491
 21
5.0650088226
 31
0.0
 11
6.7261105466
 21
5.0633118244
 31
0.0
 11
6.727170714
 21
5.0615654163
 31
0.0
 11
6.7292667176
 21
5.0578948175
 31
0.0
 11
6.7313218788
 21
5.0539379207
 31
0.0
  0
SPLINE
  5
37C
100
AcDbEntity
  8
0
100
AcDbSpline
 62
6
  6
CONTINUOUS
 70
0
 71
3
 72
10
 73
6
 74
4
 42
0.0000001
 43
0.0000001
 44
0.0000000001
 12
0.0064648977
 22
-0.0137227846
 32
0.0
 13
0.004676043
 23
-0.0144306736
 33
0.0
 40
0.0
 40
0.0
 40
0.0
 40
0.0
 40
0.2302282019
 40
0.4726340982
 40
1.0
 40
1.0
 40
1.0
 40
1.0
 10
6.7321482078
 20
5.0522236583
 30
0.0
 10
6.7326443417
 20
5.0511705343
 30
0.0
 10
6.7336276626
 20
5.048991784
 30
0.0
 10
6.7355581204
 20
5.0443176737
 30
0.0
 10
6.7368648597
 20
5.0406475967
 30
0.0
 10
6.7376868549
 20
5.0381108483
 30
0.0
 11
6.7321482078
 21
5.0522236583
 31
0.0
 11
6.7335854985
 21
5.0490407089
 31
0.0
 11
6.7349902394
 21
5.0456424604
 31
0.0
 11
6.7376868549
 21
5.0381108483
 31
0.0
  0
SPLINE
  5
37D
100
AcDbEntity
  8
0
100
AcDbSpline
 62
6
  6
CONTINUOUS
 70
0
 71
3
 72
18
 73
14
 74
12
 42
0.0000001
 43
0.0000001
 44
0.0000000001
 12
-0.1670678976
 22
0.1671188992
 32
0.0
 13
-0.1357502364
 23
0.1934225483
 33
0.0
 40
0.0
 40
0.0
 40
0.0
 40
0.0
 40
0.0673831337
 40
0.1346265435
 40
0.2015362727
 40
0.2679596665
 40
0.3337985604
 40
0.3989569676
 40
0.5269085686
 40
0.6512494463
 40
0.7716614944
 40
0.8879666929
 40
1.0
 40
1.0
 40
1.0
 40
1.0
 10
5.353538741
 20
4.6788467979
 30
0.0
 10
5.3497862215
 20
4.682600463
 30
0.0
 10
5.3423523876
 20
4.6901636754
 30
0.0
 10
5.3314040866
 20
4.7016597595
 30
0.0
 10
5.320677725
 20
4.7132604036
 30
0.0
 10
5.3101869706
 20
4.7249260638
 30
0.0
 10
5.2999400451
 20
4.7366236441
 30
0.0
 10
5.2866882387
 20
4.752129947
 30
0.0
 10
5.2707720132
 20
4.7714184061
 30
0.0
 10
5.2525677005
 20
4.7944525512
 30
0.0
 10
5.2353591151
 20
4.8170973537
 30
0.0
 10
5.2191038529
 20
4.8392436596
 30
0.0
 10
5.2086759156
 20
4.8538988401
 30
0.0
 10
5.2036063996
 20
4.861122096
 30
0.0
 11
5.353538741
 21
4.6788467979
 31
0.0
 11
5.3423748227
 21
4.6902006327
 31
0.0
 11
5.3314144937
 21
4.7017055635
 31
0.0
 11
5.3206787739
 21
4.7133131864
 31
0.0
 11
5.3101817972
 21
4.7249830245
 31
0.0
 11
5.299928836
 21
4.7366848002
 31
0.0
 11
5.2899245197
 21
4.7483891028
 31
0.0
 11
5.2706749354
 21
4.7717054281
 31
0.0
 11
5.2524504843
 21
4.7947531745
 31
0.0
 11
5.2352277838
 21
4.8174029449
 31
0.0
 11
5.2189604992
 21
4.8395552142
 31
0.0
 11
5.2036063996
 21
4.861122096
 31
0.0
  0
SPLINE
  5
37E
100
AcDbEntity
  8
0
100
AcDbSpline
 62
6
  6
CONTINUOUS
 70
0
 71
3
 72
21
 73
17
 74
15
 42
0.0000001
 43
0.0000001
 44
0.0000000001
 12
-0.1670954376
 22
0.167039514
 32
0.0
 13
-0.1934197909
 23
0.1356903424
 33
0.0
 40
0.0
 40
0.0
 40
0.0
 40
0.0
 40
0.0673859321
 40
0.1346319542
 40
0.2015490898
 40
0.2679845266
 40
0.3338318951
 40
0.3989869723
 40
0.4633690603
 40
0.526918206
 40
0.5895735964
 40
0.6512854495
 40
0.7120200985
 40
0.7717441409
 40
0.8880402786
 40
1.0
 40
1.0
 40
1.0
 40
1.0
 10
5.1586507476
 20
4.4839908611
 30
0.0
 10
5.1548974537
 20
4.4877428988
 30
0.0
 10
5.1473383694
 20
4.4951791246
 30
0.0
 10
5.1358526819
 20
4.5061362162
 30
0.0
 10
5.1242604953
 20
4.5168707013
 30
0.0
 10
5.1125984271
 20
4.5273651469
 30
0.0
 10
5.1009013619
 20
4.5376110688
 30
0.0
 10
5.0891988548
 20
4.5476034061
 30
0.0
 10
5.0775176754
 20
4.5573402562
 30
0.0
 10
5.0658817832
 20
4.5668224492
 30
0.0
 10
5.0543132233
 20
4.5760530583
 30
0.0
 10
5.0428306323
 20
4.5850348776
 30
0.0
 10
5.0314483319
 20
4.59376918
 30
0.0
 10
5.016555746
 20
4.6049892472
 30
0.0
 10
4.9982707059
 20
4.6184092999
 30
0.0
 10
4.9836211685
 20
4.6288290882
 30
0.0
 10
4.9764027599
 20
4.6338930391
 30
0.0
 11
5.1586507476
 21
4.4839908611
 31
0.0
 11
5.1473021568
 21
4.4951575308
 31
0.0
 11
5.135806944
 21
4.5061253749
 31
0.0
 11
5.124207254
 21
4.516868631
 31
0.0
 11
5.1125406517
 21
4.5273698172
 31
0.0
 11
5.1008388187
 21
4.5376220888
 31
0.0
 11
5.0891328135
 21
4.5476195241
 31
0.0
 11
5.0774492749
 21
4.557360396
 31
0.0
 11
5.0658109214
 21
4.5668466974
 31
0.0
 11
5.0542402501
 21
4.5760805554
 31
0.0
 11
5.042756089
 21
4.585064321
 31
0.0
 11
5.0313722827
 21
4.5938006493
 31
0.0
 11
5.0201023201
 21
4.6022922169
 31
0.0
 11
4.9979547107
 21
4.6185550269
 31
0.0
 11
4.9764027599
 21
4.6338930391
 31
0.0
  0
LINE
  5
37F
100
AcDbEntity
  8
0
100
AcDbLine
 62
6
  6
CONTINUOUS
 10
4.9329061371
 20
3.5503180791
 11
4.9326722041
 21
3.5501620659
  0
LINE
  5
380
100
AcDbEntity
  8
0
100
AcDbLine
 62
6
  6
CONTINUOUS
 10
5.1738746162
 20
3.30934927
 11
5.1737186779
 21
3.3091154499
  0
LINE
  5
381
100
AcDbEntity
  8
0
100
AcDbLine
 62
6
  6
CONTINUOUS
 10
8.8655355688
 20
0.9719780071
 11
8.9805355688
 21
0.8569780071
  0
LINE
  5
382
100
AcDbEntity
  8
0
100
AcDbLine
 62
6
  6
CONTINUOUS
 10
8.8655355688
 20
7.2419780071
 11
8.9805355688
 21
7.3569780071
  0
LINE
  5
383
100
AcDbEntity
  8
0
100
AcDbLine
 62
6
  6
CONTINUOUS
 10
2.5955355688
 20
0.9719780071
 11
2.4805355688
 21
0.8569780071
  0
LINE
  5
384
100
AcDbEntity
  8
0
100
AcDbLine
 62
6
  6
CONTINUOUS
 10
2.5955355688
 20
7.2419780071
 11
2.4805355688
 21
7.3569780071
  0
LINE
  5
385
100
AcDbEntity
  8
0
100
AcDbLine
 62
9
  6
CONTINUOUS
 10
5.2465204266
 20
4.5450276451
 11
5.2331982224
 21
4.5583037696
  0
SPLINE
  5
386
100
AcDbEntity
  8
0
100
AcDbSpline
 62
9
  6
CONTINUOUS
 70
0
 71
3
 72
30
 73
26
 74
24
 42
0.0000001
 43
0.0000001
 44
0.0000000001
 12
-0.1240104238
 22
0.1380664662
 32
0.0
 13
0.1054236661
 23
0.152731087
 33
0.0
 40
0.0
 40
0.0
 40
0.0
 40
0.0
 40
0.0707031777
 40
0.1046174463
 40
0.1376846477
 40
0.1699935649
 40
0.2016328818
 40
0.2326905643
 40
0.2632531927
 40
0.2934052706
 40
0.3232285358
 40
0.3528013005
 40
0.3821978472
 40
0.411487904
 40
0.4407362152
 40
0.4700022188
 40
0.499339833
 40
0.5584004642
 40
0.618240175
 40
0.6790683432
 40
0.7410091831
 40
0.8041124556
 40
0.868364321
 40
0.9336974549
 40
1.0
 40
1.0
 40
1.0
 40
1.0
 10
4.9764027599
 20
4.6338930391
 30
0.0
 10
4.9734801162
 20
4.6371469518
 30
0.0
 10
4.9693603487
 20
4.6421540352
 30
0.0
 10
4.9644403017
 20
4.6491095937
 30
0.0
 10
4.9611431505
 20
4.654295027
 30
0.0
 10
4.9581817677
 20
4.6595179204
 30
0.0
 10
4.955549359
 20
4.6647755487
 30
0.0
 10
4.9532393365
 20
4.6700649182
 30
0.0
 10
4.9512450356
 20
4.6753830827
 30
0.0
 10
4.9495597822
 20
4.6807270673
 30
0.0
 10
4.9481768722
 20
4.6860938967
 30
0.0
 10
4.9470895755
 20
4.6914805965
 30
0.0
 10
4.946291136
 20
4.6968841987
 30
0.0
 10
4.945774779
 20
4.70230176
 30
0.0
 10
4.9455337023
 20
4.707730315
 30
0.0
 10
4.9455611336
 20
4.7131670718
 30
0.0
 10
4.9459472962
 20
4.7204379717
 30
0.0
 10
4.9470742303
 20
4.7295522581
 30
0.0
 10
4.9493830162
 20
4.7404404057
 30
0.0
 10
4.9525882588
 20
4.7512835636
 30
0.0
 10
4.9566277915
 20
4.7620582186
 30
0.0
 10
4.9614400734
 20
4.7727417684
 30
0.0
 10
4.9669641218
 20
4.7833113059
 30
0.0
 10
4.9731390622
 20
4.7937434636
 30
0.0
 10
4.9776201017
 20
4.8005467342
 30
0.0
 10
4.9799500542
 20
4.8039222208
 30
0.0
 11
4.9764027599
 21
4.6338930391
 31
0.0
 11
4.9680858031
 21
4.6440417519
 31
0.0
 11
4.9644534254
 21
4.6491816958
 31
0.0
 11
4.9611628324
 21
4.654361569
 31
0.0
 11
4.9582073122
 21
4.6595785246
 31
0.0
 11
4.9555801531
 21
4.6648297157
 31
0.0
 11
4.9532746431
 21
4.6701122953
 31
0.0
 11
4.9512840705
 21
4.6754234167
 31
0.0
 11
4.9496017234
 21
4.680760233
 31
0.0
 11
4.9482208899
 21
4.6861198973
 31
0.0
 11
4.9471348583
 21
4.6914995626
 31
0.0
 11
4.9463369166
 21
4.6968963823
 31
0.0
 11
4.9458203531
 21
4.7023075093
 31
0.0
 11
4.9455784559
 21
4.7077300968
 31
0.0
 11
4.9456045132
 21
4.7131612979
 31
0.0
 11
4.945891813
 21
4.7185982658
 31
0.0
 11
4.9472221431
 21
4.7294778636
 31
0.0
 11
4.9495099844
 21
4.740344858
 31
0.0
 11
4.952694717
 21
4.7511749647
 31
0.0
 11
4.9567157211
 21
4.7619438989
 31
0.0
 11
4.9615123768
 21
4.7726273762
 31
0.0
 11
4.9670240641
 21
4.783201112
 31
0.0
 11
4.9731901632
 21
4.7936408217
 31
0.0
 11
4.9799500542
 21
4.8039222208
 31
0.0
  0
SPLINE
  5
387
100
AcDbEntity
  8
0
100
AcDbSpline
 62
9
  6
CONTINUOUS
 70
0
 71
3
 72
17
 73
13
 74
11
 42
0.0000001
 43
0.0000001
 44
0.0000000001
 12
-0.249953333
 22
0.2489786005
 32
0.0
 13
-0.2552606433
 23
0.2435344249
 33
0.0
 40
0.0
 40
0.0
 40
0.0
 40
0.0
 40
0.0519624319
 40
0.1062490759
 40
0.1626629131
 40
0.2210068553
 40
0.342696411
 40
0.4697401885
 40
0.6005617986
 40
0.7335912538
 40
0.8672601391
 40
1.0
 40
1.0
 40
1.0
 40
1.0
 10
5.2331982224
 20
4.5583037696
 30
0.0
 10
5.228868828
 20
4.5626162808
 30
0.0
 10
5.2200038556
 20
4.5714216175
 30
0.0
 10
5.2063996846
 20
4.5848696419
 30
0.0
 10
5.1922325933
 20
4.5988156408
 30
0.0
 10
5.1723807325
 20
4.6182857283
 30
0.0
 10
5.146536433
 20
4.6435080407
 30
0.0
 10
5.1145115957
 20
4.6746005173
 30
0.0
 10
5.0814619138
 20
4.7065516958
 30
0.0
 10
5.0477885074
 20
4.7389785012
 30
0.0
 10
5.0138919104
 20
4.7714986293
 30
0.0
 10
4.9912444749
 20
4.7931466456
 30
0.0
 10
4.9799500542
 20
4.8039222208
 30
0.0
 11
5.2331982224
 21
4.5583037696
 31
0.0
 11
5.2201927369
 21
4.5712239097
 31
0.0
 11
5.2065729907
 21
4.5846891146
 31
0.0
 11
5.1923901342
 21
4.598652118
 31
0.0
 11
5.1776953175
 21
4.6130656537
 31
0.0
 11
5.1469744046
 21
4.6430552575
 31
0.0
 11
5.1148194538
 21
4.6742797964
 31
0.0
 11
5.08163821
 21
4.7063604769
 31
0.0
 11
5.0478325894
 21
4.7389158498
 31
0.0
 11
5.0138030511
 21
4.7715638022
 31
0.0
 11
4.9799500542
 21
4.8039222208
 31
0.0
  0
LINE
  5
388
100
AcDbEntity
  8
0
100
AcDbLine
 62
6
  6
CONTINUOUS
 10
6.2871954968
 20
3.3093485753
 11
6.28735151
 21
3.3091146423
  0
SPLINE
  5
389
100
AcDbEntity
  8
0
100
AcDbSpline
 62
9
  6
CONTINUOUS
 70
0
 71
3
 72
24
 73
20
 74
18
 42
0.0000001
 43
0.0000001
 44
0.0000000001
 12
-0.1898676602
 22
0.2130724264
 32
0.0
 13
0.118187823
 23
0.2597714876
 33
0.0
 40
0.0
 40
0.0
 40
0.0
 40
0.0
 40
0.0804957678
 40
0.1574033999
 40
0.2309620907
 40
0.2665670833
 40
0.3014283734
 40
0.3690393183
 40
0.4340671977
 40
0.4967819422
 40
0.5574590206
 40
0.6163770457
 40
0.6738077658
 40
0.7300065216
 40
0.7852092713
 40
0.8396304304
 40
0.8934614087
 40
0.9468699113
 40
1.0
 40
1.0
 40
1.0
 40
1.0
 10
4.8664166944
 20
4.7067245982
 30
0.0
 10
4.86132218
 20
4.712441741
 30
0.0
 10
4.8516485678
 20
4.7238832339
 30
0.0
 10
4.8384236509
 20
4.7414433895
 30
0.0
 10
4.8286290902
 20
4.7562025919
 30
0.0
 10
4.82160479
 20
4.7679687373
 30
0.0
 10
4.8152382371
 20
4.779460342
 30
0.0
 10
4.8082045685
 20
4.793773096
 30
0.0
 10
4.8011803689
 20
4.8109953415
 30
0.0
 10
4.795628551
 20
4.8280558073
 30
0.0
 10
4.7915182592
 20
4.844922716
 30
0.0
 10
4.7888186714
 20
4.8615633373
 30
0.0
 10
4.7874804211
 20
4.8779407502
 30
0.0
 10
4.7874533434
 20
4.894019051
 30
0.0
 10
4.7886870995
 20
4.9097624253
 30
0.0
 10
4.7911310788
 20
4.9251351899
 30
0.0
 10
4.7947347098
 20
4.9401022551
 30
0.0
 10
4.7994468001
 20
4.9546274999
 30
0.0
 10
4.8033016477
 20
4.96401312
 30
0.0
 10
4.8053947576
 20
4.9686136808
 30
0.0
 11
4.8664166944
 21
4.7067245982
 31
0.0
 11
4.8516008349
 21
4.7242816053
 31
0.0
 11
4.8384135548
 21
4.741827327
 31
0.0
 11
4.8268229464
 21
4.7593308072
 31
0.0
 11
4.8216164228
 21
4.768057033
 31
0.0
 11
4.8167971017
 21
4.7767610898
 31
0.0
 11
4.808304113
 21
4.7940872187
 31
0.0
 11
4.8013120724
 21
4.8112782378
 31
0.0
 11
4.7957890722
 21
4.828303191
 31
0.0
 11
4.7917032045
 21
4.8451311222
 31
0.0
 11
4.7890195738
 21
4.8617304241
 31
0.0
 11
4.7876913371
 21
4.8780668849
 31
0.0
 11
4.7876686651
 21
4.894105642
 31
0.0
 11
4.7889017289
 21
4.9098118328
 31
0.0
 11
4.7913406992
 21
4.9251505947
 31
0.0
 11
4.7949357468
 21
4.9400870651
 31
0.0
 11
4.7996370427
 21
4.9545863813
 31
0.0
 11
4.8053947576
 21
4.9686136808
 31
0.0
  0
SPLINE
  5
38A
100
AcDbEntity
  8
0
100
AcDbSpline
 62
9
  6
CONTINUOUS
 70
0
 71
3
 72
18
 73
14
 74
12
 42
0.0000001
 43
0.0000001
 44
0.0000000001
 12
-0.1736392715
 22
0.1656625933
 32
0.0
 13
-0.1773480138
 23
0.1616860334
 33
0.0
 40
0.0
 40
0.0
 40
0.0
 40
0.0
 40
0.1423911371
 40
0.2853155858
 40
0.4258289528
 40
0.5609870454
 40
0.6880147775
 40
0.7478130983
 40
0.8048126484
 40
0.858772199
 40
0.9094506026
 40
0.9566068254
 40
1.0
 40
1.0
 40
1.0
 40
1.0
 10
4.9799500542
 20
4.8039222208
 30
0.0
 10
4.9717084897
 20
4.8117851825
 30
0.0
 10
4.9551927998
 20
4.8275387818
 30
0.0
 10
4.9305293263
 20
4.8510360209
 30
0.0
 10
4.9062613518
 20
4.8741095311
 30
0.0
 10
4.8828813604
 20
4.8962713873
 30
0.0
 10
4.8641489161
 20
4.913950423
 30
0.0
 10
4.8499336775
 20
4.927306251
 30
0.0
 10
4.8399622873
 20
4.9366425361
 30
0.0
 10
4.8305056024
 20
4.9454610809
 30
0.0
 10
4.8216048761
 20
4.9537211814
 30
0.0
 10
4.8133013858
 20
4.9613821564
 30
0.0
 10
4.8079599887
 20
4.9662749907
 30
0.0
 10
4.8053947576
 20
4.9686136808
 30
0.0
 11
4.9799500542
 21
4.8039222208
 31
0.0
 11
4.9552213229
 21
4.8275068727
 31
0.0
 11
4.9303856455
 21
4.8511648273
 31
0.0
 11
4.9059449011
 21
4.8743984229
 31
0.0
 11
4.8824009685
 21
4.8967099974
 31
0.0
 11
4.8602270364
 21
4.9176304958
 31
0.0
 11
4.8497676223
 21
4.9274564822
 31
0.0
 11
4.8397815323
 21
4.9368052899
 31
0.0
 11
4.8303099837
 21
4.9456361663
 31
0.0
 11
4.8213941936
 21
4.9539083587
 31
0.0
 11
4.8130753792
 21
4.9615811144
 31
0.0
 11
4.8053947576
 21
4.9686136808
 31
0.0
  0
SPLINE
  5
38B
100
AcDbEntity
  8
0
100
AcDbSpline
 62
9
  6
CONTINUOUS
 70
0
 71
3
 72
40
 73
36
 74
34
 42
0.0000001
 43
0.0000001
 44
0.0000000001
 12
-0.0797230457
 22
0.0726825339
 32
0.0
 13
-0.0504123982
 23
-0.0953787442
 33
0.0
 40
0.0
 40
0.0
 40
0.0
 40
0.0
 40
0.1186268557
 40
0.2301085928
 40
0.3343668976
 40
0.4313236033
 40
0.5209007466
 40
0.6030206507
 40
0.6776060529
 40
0.744580308
 40
0.7751896286
 40
0.8038678978
 40
0.8306059078
 40
0.8553946143
 40
0.8782251955
 40
0.8990891375
 40
0.9179783671
 40
0.9348854636
 40
0.949804013
 40
0.962729241
 40
0.9684437693
 40
0.9736596356
 40
0.9783774866
 40
0.9825986445
 40
0.9863254677
 40
0.9895619814
 40
0.9923150527
 40
0.9945967541
 40
0.9955677689
 40
0.9964309238
 40
0.9971927568
 40
0.9978628679
 40
0.9989848982
 40
0.9994909286
 40
1.0
 40
1.0
 40
1.0
 40
1.0
 10
4.8053947576
 20
4.9686136808
 30
0.0
 10
4.8022423262
 20
4.9714877142
 30
0.0
 10
4.7961201998
 20
4.9770548488
 30
0.0
 10
4.7872008707
 20
4.9851185821
 30
0.0
 10
4.7788354417
 20
4.9926329097
 30
0.0
 10
4.771030899
 20
4.999592799
 30
0.0
 10
4.7637942334
 20
5.0059932268
 30
0.0
 10
4.7571324559
 20
5.0118292021
 30
0.0
 10
4.751052567
 20
5.0170957177
 30
0.0
 10
4.7463457016
 20
5.0211179737
 30
0.0
 10
4.7428749287
 20
5.0240453653
 30
0.0
 10
4.7405007351
 20
5.0260286089
 30
0.0
 10
4.7382772228
 20
5.0278656798
 30
0.0
 10
4.7362052657
 20
5.0295559573
 30
0.0
 10
4.7342857474
 20
5.0310988349
 30
0.0
 10
4.7325195541
 20
5.0324937172
 30
0.0
 10
4.7309075756
 20
5.0337400186
 30
0.0
 10
4.7294507153
 20
5.0348372053
 30
0.0
 10
4.7281498632
 20
5.035784716
 30
0.0
 10
4.7271598495
 20
5.0364750245
 30
0.0
 10
4.7264454531
 20
5.0369500246
 30
0.0
 10
4.7259715616
 20
5.037253536
 30
0.0
 10
4.725537309
 20
5.0375191833
 30
0.0
 10
4.7251427923
 20
5.0377469285
 30
0.0
 10
4.7247881109
 20
5.0379367534
 30
0.0
 10
4.7244733171
 20
5.0380887201
 30
0.0
 10
4.724198458
 20
5.0382028369
 30
0.0
 10
4.7239927453
 20
5.0382699494
 30
0.0
 10
4.7238482231
 20
5.0383024432
 30
0.0
 10
4.7237557562
 20
5.0383159187
 30
0.0
 10
4.7236730681
 20
5.0383197902
 30
0.0
 10
4.7235815212
 20
5.0383127015
 30
0.0
 10
4.7235000961
 20
5.0382864516
 30
0.0
 10
4.7234406943
 20
5.0382363526
 30
0.0
 10
4.7234196764
 20
5.038205938
 30
0.0
 10
4.7234111219
 20
5.0381897531
 30
0.0
 11
4.8053947576
 21
4.9686136808
 31
0.0
 11
4.7959258267
 21
4.977223
 31
0.0
 11
4.7870037333
 21
4.9852878483
 31
0.0
 11
4.7786354395
 21
4.9928031606
 31
0.0
 11
4.7708279073
 21
4.9997638714
 31
0.0
 11
4.7635880988
 21
5.0061649157
 31
0.0
 11
4.7569229762
 21
5.0120012281
 31
0.0
 11
4.7508395013
 21
5.0172677435
 31
0.0
 11
4.7453446364
 21
5.0219593967
 31
0.0
 11
4.7428201083
 21
5.024088067
 31
0.0
 11
4.7404453435
 21
5.0260711224
 31
0.0
 11
4.7382212122
 21
5.0279079295
 31
0.0
 11
4.7361485846
 21
5.0295978553
 31
0.0
 11
4.7342283311
 21
5.0311402666
 31
0.0
 11
4.7324613218
 21
5.0325345303
 31
0.0
 11
4.7308484271
 21
5.0337800132
 31
0.0
 11
4.7293905172
 21
5.0348760821
 31
0.0
 11
4.7280884624
 21
5.0358221039
 31
0.0
 11
4.7269431328
 21
5.0366174455
 31
0.0
 11
4.726429512
 21
5.0369584134
 31
0.0
 11
4.7259553989
 21
5.0372614737
 31
0.0
 11
4.7255209022
 21
5.0375265474
 31
0.0
 11
4.7251261308
 21
5.0377535553
 31
0.0
 11
4.7247711934
 21
5.0379424183
 31
0.0
 11
4.7244561988
 21
5.0380930572
 31
0.0
 11
4.7241812557
 21
5.0382053929
 31
0.0
 11
4.7239464731
 21
5.0382793462
 31
0.0
 11
4.7238441759
 21
5.0383019048
 31
0.0
 11
4.7237519596
 21
5.0383148381
 31
0.0
 11
4.7236698378
 21
5.0383181362
 31
0.0
 11
4.723597824
 21
5.0383117893
 31
0.0
 11
4.7234841752
 21
5.0382701207
 31
0.0
 11
4.7234425673
 21
5.0382347792
 31
0.0
 11
4.7234111219
 21
5.0381897531
 31
0.0
  0
SPLINE
  5
38C
100
AcDbEntity
  8
0
100
AcDbSpline
 62
9
  6
CONTINUOUS
 70
0
 71
3
 72
9
 73
5
 74
3
 42
0.0000001
 43
0.0000001
 44
0.0000000001
 12
-0.0000199861
 22
-0.0000378132
 32
0.0
 13
-0.0000134326
 23
-0.000040606
 33
0.0
 40
0.0
 40
0.0
 40
0.0
 40
0.0
 40
0.2444317725
 40
1.0
 40
1.0
 40
1.0
 40
1.0
 10
4.7234111219
 20
5.0381897531
 30
0.0
 10
4.7234094934
 20
5.0381866722
 30
0.0
 10
4.7234031115
 20
5.0381739207
 30
0.0
 10
4.7233978508
 20
5.0381606163
 30
0.0
 10
4.7233944677
 20
5.0381503894
 30
0.0
 11
4.7234111219
 21
5.0381897531
 31
0.0
 11
4.7234064405
 21
5.0381804054
 31
0.0
 11
4.7233944677
 21
5.0381503894
 31
0.0
  0
LINE
  5
38D
100
AcDbEntity
  8
0
100
AcDbLine
 62
6
  6
CONTINUOUS
 10
4.8664166944
 20
4.7067245982
 11
4.8409367493
 21
4.7228373811
  0
LINE
  5
38E
100
AcDbEntity
  8
0
100
AcDbLine
 62
6
  6
CONTINUOUS
 10
4.8409367493
 20
4.7228373811
 11
4.8341905491
 21
4.7271103018
  0
SPLINE
  5
38F
100
AcDbEntity
  8
0
100
AcDbSpline
 62
6
  6
CONTINUOUS
 70
0
 71
3
 72
17
 73
13
 74
11
 42
0.0000001
 43
0.0000001
 44
0.0000000001
 12
-0.0449353746
 22
0.0285109165
 32
0.0
 13
-0.0420825217
 23
0.0325748618
 33
0.0
 40
0.0
 40
0.0
 40
0.0
 40
0.0
 40
0.1552301206
 40
0.3026526288
 40
0.441876667
 40
0.5725141987
 40
0.6941431673
 40
0.8062640665
 40
0.858603361
 40
0.9083806847
 40
0.9555365696
 40
1.0
 40
1.0
 40
1.0
 40
1.0
 10
4.8341905491
 20
4.7271103018
 30
0.0
 10
4.8318654412
 20
4.7285855528
 30
0.0
 10
4.8273345329
 20
4.7314655819
 30
0.0
 10
4.820732038
 20
4.7356903762
 30
0.0
 10
4.8145153652
 20
4.739708624
 30
0.0
 10
4.8087074895
 20
4.7435162349
 30
0.0
 10
4.8033334181
 20
4.74710823
 30
0.0
 10
4.7991490238
 20
4.7499801706
 30
0.0
 10
4.7960438747
 20
4.75217134
 30
0.0
 10
4.7938957279
 20
4.7537196907
 30
0.0
 10
4.7918782461
 20
4.755210107
 30
0.0
 10
4.7905845033
 20
4.7561939145
 30
0.0
 10
4.7899607922
 20
4.7566767112
 30
0.0
 11
4.8341905491
 21
4.7271103018
 31
0.0
 11
4.827219934
 21
4.7315434671
 31
0.0
 11
4.8206128731
 21
4.7357739556
 31
0.0
 11
4.8143919439
 21
4.7397982326
 31
0.0
 11
4.8085797342
 21
4.7436127608
 31
0.0
 11
4.8032009149
 21
4.7472134117
 31
0.0
 11
4.7982847545
 21
4.7505947528
 31
0.0
 11
4.7960095096
 21
4.75220143
 31
0.0
 11
4.7938611354
 21
4.7537511771
 31
0.0
 11
4.7918434068
 21
4.7552432763
 31
0.0
 11
4.7899607922
 21
4.7566767112
 31
0.0
  0
SPLINE
  5
390
100
AcDbEntity
  8
0
100
AcDbSpline
 62
6
  6
CONTINUOUS
 70
0
 71
3
 72
11
 73
7
 74
5
 42
0.0000001
 43
0.0000001
 44
0.0000000001
 12
-0.00707804
 22
0.0054789059
 32
0.0
 13
-0.0063259321
 23
0.006332428
 33
0.0
 40
0.0
 40
0.0
 40
0.0
 40
0.0
 40
0.2845410943
 40
0.5464499927
 40
0.7851081625
 40
1.0
 40
1.0
 40
1.0
 40
1.0
 10
4.7899607922
 20
4.7566767112
 30
0.0
 10
4.7892894611
 20
4.7571963692
 30
0.0
 10
4.7880093238
 20
4.7582062556
 30
0.0
 10
4.7862049695
 20
4.7597004793
 30
0.0
 10
4.7846019366
 20
4.7611106109
 30
0.0
 10
4.7836202436
 20
4.7620427666
 30
0.0
 10
4.7831671132
 20
4.7624963623
 30
0.0
 11
4.7899607922
 21
4.7566767112
 31
0.0
 11
4.7879628859
 21
4.7582562489
 31
0.0
 11
4.7861594354
 21
4.7597540131
 31
0.0
 11
4.7845582435
 21
4.7611680392
 31
0.0
 11
4.7831671132
 21
4.7624963623
 31
0.0
  0
SPLINE
  5
391
100
AcDbEntity
  8
0
100
AcDbSpline
 62
9
  6
CONTINUOUS
 70
0
 71
3
 72
11
 73
7
 74
5
 42
0.0000001
 43
0.0000001
 44
0.0000000001
 12
0.0216573495
 22
0.0313757873
 32
0.0
 13
0.0269581232
 23
0.0269581232
 33
0.0
 40
0.0
 40
0.0
 40
0.0
 40
0.0
 40
0.2467924469
 40
0.4962971367
 40
0.7476666945
 40
1.0
 40
1.0
 40
1.0
 40
1.0
 10
4.9799500542
 20
4.8039222208
 30
0.0
 10
4.9817316776
 20
4.8065033233
 30
0.0
 10
4.9854455146
 20
4.8116046108
 30
0.0
 10
4.9913947234
 20
4.8190171207
 30
0.0
 10
4.9977163601
 20
4.826208464
 30
0.0
 10
5.0021478483
 20
4.8308307727
 30
0.0
 10
5.0044153257
 20
4.8330982502
 30
0.0
 11
4.9799500542
 21
4.8039222208
 31
0.0
 11
4.9854833817
 21
4.8115319996
 31
0.0
 11
4.9914340643
 21
4.8189530724
 31
0.0
 11
4.9977590598
 21
4.8261527268
 31
0.0
 11
5.0044153257
 21
4.8330982502
 31
0.0
  0
SPLINE
  5
392
100
AcDbEntity
  8
0
100
AcDbSpline
 62
9
  6
CONTINUOUS
 70
0
 71
3
 72
12
 73
8
 74
6
 42
0.0000001
 43
0.0000001
 44
0.0000000001
 12
0.0189879473
 22
0.0417346491
 32
0.0
 13
0.0324216215
 23
0.0324216215
 33
0.0
 40
0.0
 40
0.0
 40
0.0
 40
0.0
 40
0.2493582906
 40
0.3742533165
 40
0.4992638234
 40
0.749510259
 40
1.0
 40
1.0
 40
1.0
 40
1.0
 10
4.8053947576
 20
4.9686136808
 30
0.0
 10
4.8069730249
 20
4.972082641
 30
0.0
 10
4.8095870467
 20
4.9771823173
 30
0.0
 10
4.8135223302
 20
4.9837219225
 30
0.0
 10
4.8177549441
 20
4.990090216
 30
0.0
 10
4.8235760681
 20
4.997694558
 30
0.0
 10
4.8287521615
 20
5.0033472253
 30
0.0
 10
4.8314592561
 20
5.0060543198
 30
0.0
 11
4.8053947576
 21
4.9686136808
 31
0.0
 11
4.8106054968
 21
4.9787906014
 31
0.0
 11
4.813557653
 21
4.9836975784
 31
0.0
 11
4.8167300987
 21
4.9884714561
 31
0.0
 11
4.8237031546
 21
4.9975835829
 31
0.0
 11
4.8314592561
 21
5.0060543198
 31
0.0
  0
LINE
  5
393
100
AcDbEntity
  8
0
100
AcDbLine
 62
9
  6
CONTINUOUS
 10
5.2924859308
 20
4.5909931493
 11
5.2792098063
 21
4.6043153535
  0
SPLINE
  5
394
100
AcDbEntity
  8
0
100
AcDbSpline
 62
9
  6
CONTINUOUS
 70
0
 71
3
 72
11
 73
7
 74
5
 42
0.0000001
 43
0.0000001
 44
0.0000000001
 12
0.0269581232
 22
0.0269581232
 32
0.0
 13
0.0313757873
 23
0.0216573495
 33
0.0
 40
0.0
 40
0.0
 40
0.0
 40
0.0
 40
0.2523333055
 40
0.5037028633
 40
0.7532075531
 40
1.0
 40
1.0
 40
1.0
 40
1.0
 10
5.0044153257
 20
4.8330982502
 30
0.0
 10
5.0066828032
 20
4.8353657276
 30
0.0
 10
5.0113051118
 20
4.8397972157
 30
0.0
 10
5.0184964552
 20
4.8461188525
 30
0.0
 10
5.0259089651
 20
4.8520680613
 30
0.0
 10
5.0310102526
 20
4.8557818983
 30
0.0
 10
5.0335913551
 20
4.8575635217
 30
0.0
 11
5.0044153257
 21
4.8330982502
 31
0.0
 11
5.0113608491
 21
4.8397545161
 31
0.0
 11
5.0185605034
 21
4.8460795116
 31
0.0
 11
5.0259815763
 21
4.8520301942
 31
0.0
 11
5.0335913551
 21
4.8575635217
 31
0.0
  0
SPLINE
  5
395
100
AcDbEntity
  8
0
100
AcDbSpline
 62
9
  6
CONTINUOUS
 70
0
 71
3
 72
17
 73
13
 74
11
 42
0.0000001
 43
0.0000001
 44
0.0000000001
 12
-0.2489786005
 22
0.249953333
 32
0.0
 13
-0.2435344249
 23
0.2552606433
 33
0.0
 40
0.0
 40
0.0
 40
0.0
 40
0.0
 40
0.0519624319
 40
0.1062490759
 40
0.1626629131
 40
0.2210068553
 40
0.342696411
 40
0.4697401885
 40
0.6005617986
 40
0.7335912538
 40
0.8672601391
 40
1.0
 40
1.0
 40
1.0
 40
1.0
 10
5.2792098063
 20
4.6043153535
 30
0.0
 10
5.2748972951
 20
4.6086447479
 30
0.0
 10
5.2660919584
 20
4.6175097203
 30
0.0
 10
5.252643934
 20
4.6311138913
 30
0.0
 10
5.2386979351
 20
4.6452809825
 30
0.0
 10
5.2192278476
 20
4.6651328434
 30
0.0
 10
5.1940055352
 20
4.6909771428
 30
0.0
 10
5.1629130586
 20
4.7230019802
 30
0.0
 10
5.1309618801
 20
4.7560516621
 30
0.0
 10
5.0985350747
 20
4.7897250685
 30
0.0
 10
5.0660149465
 20
4.8236216655
 30
0.0
 10
5.0443669303
 20
4.8462691009
 30
0.0
 10
5.0335913551
 20
4.8575635217
 30
0.0
 11
5.2792098063
 21
4.6043153535
 31
0.0
 11
5.2662896662
 21
4.617320839
 31
0.0
 11
5.2528244613
 21
4.6309405852
 31
0.0
 11
5.2388614579
 21
4.6451234417
 31
0.0
 11
5.2244479222
 21
4.6598182584
 31
0.0
 11
5.1944583184
 21
4.6905391713
 31
0.0
 11
5.1632337795
 21
4.7226941221
 31
0.0
 11
5.131153099
 21
4.7558753659
 31
0.0
 11
5.0985977261
 21
4.7896809865
 31
0.0
 11
5.0659497737
 21
4.8237105248
 31
0.0
 11
5.0335913551
 21
4.8575635217
 31
0.0
  0
SPLINE
  5
396
100
AcDbEntity
  8
0
100
AcDbSpline
 62
9
  6
CONTINUOUS
 70
0
 71
3
 72
12
 73
8
 74
6
 42
0.0000001
 43
0.0000001
 44
0.0000000001
 12
0.0324216215
 22
0.0324216215
 32
0.0
 13
0.0417346491
 23
0.0189879473
 33
0.0
 40
0.0
 40
0.0
 40
0.0
 40
0.0
 40
0.250489741
 40
0.5007361766
 40
0.6257466835
 40
0.7506417094
 40
1.0
 40
1.0
 40
1.0
 40
1.0
 10
4.8314592561
 20
5.0060543198
 30
0.0
 10
4.8341663506
 20
5.0087614144
 30
0.0
 10
4.8398190179
 20
5.0139375078
 30
0.0
 10
4.8474233599
 20
5.0197586318
 30
0.0
 10
4.8537916534
 20
5.0239912457
 30
0.0
 10
4.8603312586
 20
5.0279265292
 30
0.0
 10
4.8654309349
 20
5.0305405509
 30
0.0
 10
4.8688998951
 20
5.0321188183
 30
0.0
 11
4.8314592561
 21
5.0060543198
 31
0.0
 11
4.839929993
 21
5.0138104213
 31
0.0
 11
4.8490421198
 21
5.0207834772
 31
0.0
 11
4.8538159975
 21
5.0239559229
 31
0.0
 11
4.8587229745
 21
5.0269080791
 31
0.0
 11
4.8688998951
 21
5.0321188183
 31
0.0
  0
SPLINE
  5
397
100
AcDbEntity
  8
0
100
AcDbSpline
 62
9
  6
CONTINUOUS
 70
0
 71
3
 72
18
 73
14
 74
12
 42
0.0000001
 43
0.0000001
 44
0.0000000001
 12
-0.1656625933
 22
0.1736392715
 32
0.0
 13
-0.1616860334
 23
0.1773480138
 33
0.0
 40
0.0
 40
0.0
 40
0.0
 40
0.0
 40
0.1423911371
 40
0.2853155858
 40
0.4258289528
 40
0.5609870454
 40
0.6880147775
 40
0.7478130983
 40
0.8048126484
 40
0.858772199
 40
0.9094506026
 40
0.9566068254
 40
1.0
 40
1.0
 40
1.0
 40
1.0
 10
5.0335913551
 20
4.8575635217
 30
0.0
 10
5.0257283934
 20
4.8658050861
 30
0.0
 10
5.0099747941
 20
4.8823207761
 30
0.0
 10
4.986477555
 20
4.9069842496
 30
0.0
 10
4.9634040447
 20
4.9312522241
 30
0.0
 10
4.9412421886
 20
4.9546322155
 30
0.0
 10
4.9235631528
 20
4.9733646598
 30
0.0
 10
4.9102073249
 20
4.9875798984
 30
0.0
 10
4.9008710397
 20
4.9975512886
 30
0.0
 10
4.892052495
 20
5.0070079735
 30
0.0
 10
4.8837923945
 20
5.0159086998
 30
0.0
 10
4.8761314195
 20
5.0242121901
 30
0.0
 10
4.8712385852
 20
5.0295535872
 30
0.0
 10
4.8688998951
 20
5.0321188183
 30
0.0
 11
5.0335913551
 21
4.8575635217
 31
0.0
 11
5.0100067032
 21
4.882292253
 31
0.0
 11
4.9863487486
 21
4.9071279304
 31
0.0
 11
4.963115153
 21
4.9315686748
 31
0.0
 11
4.9408035785
 21
4.9551126074
 31
0.0
 11
4.9198830801
 21
4.9772865395
 31
0.0
 11
4.9100570937
 21
4.9877459536
 31
0.0
 11
4.900708286
 21
4.9977320436
 31
0.0
 11
4.8918774096
 21
5.0072035922
 31
0.0
 11
4.8836052172
 21
5.0161193823
 31
0.0
 11
4.8759324615
 21
5.0244381967
 31
0.0
 11
4.8688998951
 21
5.0321188183
 31
0.0
  0
SPLINE
  5
398
100
AcDbEntity
  8
0
100
AcDbSpline
 62
9
  6
CONTINUOUS
 70
0
 71
3
 72
40
 73
36
 74
34
 42
0.0000001
 43
0.0000001
 44
0.0000000001
 12
-0.0726825317
 22
0.0797230433
 32
0.0
 13
0.0953780497
 23
0.0504137053
 33
0.0
 40
0.0
 40
0.0
 40
0.0
 40
0.0
 40
0.1186268078
 40
0.2301085032
 40
0.3343667726
 40
0.4313234493
 40
0.5209005702
 40
0.6030204584
 40
0.6776058515
 40
0.7445801043
 40
0.7751894264
 40
0.8038676988
 40
0.8306057136
 40
0.8553944269
 40
0.8782250165
 40
0.8990889687
 40
0.9179782103
 40
0.9348853206
 40
0.9498038856
 40
0.962729131
 40
0.9684436686
 40
0.9736595447
 40
0.9783774058
 40
0.9825985742
 40
0.9863254083
 40
0.9895619332
 40
0.9923150158
 40
0.9945967286
 40
0.995567749
 40
0.9964309092
 40
0.9971927471
 40
0.9978628627
 40
0.998984899
 40
0.9994909299
 40
1.0
 40
1.0
 40
1.0
 40
1.0
 10
4.8688998951
 20
5.0321188183
 30
0.0
 10
4.8660258629
 20
5.0352712484
 30
0.0
 10
4.8604587306
 20
5.0413933722
 30
0.0
 10
4.8523950006
 20
5.0503126976
 30
0.0
 10
4.8448806757
 20
5.0586781235
 30
0.0
 10
4.8379207887
 20
5.0664826637
 30
0.0
 10
4.8315203626
 20
5.0737193271
 30
0.0
 10
4.8256843885
 20
5.0803811031
 30
0.0
 10
4.8204178737
 20
5.086460991
 30
0.0
 10
4.8163956179
 20
5.0911678558
 30
0.0
 10
4.8134682262
 20
5.0946386287
 30
0.0
 10
4.8114849824
 20
5.0970128223
 30
0.0
 10
4.8096479111
 20
5.0992363349
 30
0.0
 10
4.807957633
 20
5.1013082924
 30
0.0
 10
4.8064147548
 20
5.1032278113
 30
0.0
 10
4.8050198717
 20
5.1049940052
 30
0.0
 10
4.8037735693
 20
5.1066059846
 30
0.0
 10
4.8026763816
 20
5.1080628458
 30
0.0
 10
4.8017288696
 20
5.1093636991
 30
0.0
 10
4.80103856
 20
5.1103537138
 30
0.0
 10
4.8005635589
 20
5.1110681111
 30
0.0
 10
4.8002600468
 20
5.1115420033
 30
0.0
 10
4.7999943986
 20
5.1119762567
 30
0.0
 10
4.7997666526
 20
5.1123707743
 30
0.0
 10
4.7995768268
 20
5.1127254565
 30
0.0
 10
4.7994248593
 20
5.1130402512
 30
0.0
 10
4.7993107415
 20
5.1133151112
 30
0.0
 10
4.7992436281
 20
5.1135208246
 30
0.0
 10
4.7992111336
 20
5.1136653475
 30
0.0
 10
4.7991976577
 20
5.1137578149
 30
0.0
 10
4.7991937857
 20
5.1138405036
 30
0.0
 10
4.7992008737
 20
5.113932051
 30
0.0
 10
4.7992271228
 20
5.1140134768
 30
0.0
 10
4.7992772209
 20
5.1140728794
 30
0.0
 10
4.7993076352
 20
5.1140938978
 30
0.0
 10
4.7993238199
 20
5.1141024525
 30
0.0
 11
4.8688998951
 21
5.0321188183
 31
0.0
 11
4.8602905796
 21
5.0415877451
 31
0.0
 11
4.8522257345
 21
5.0505098349
 31
0.0
 11
4.844710425
 21
5.0588781256
 31
0.0
 11
4.8377497164
 21
5.0666856551
 31
0.0
 11
4.8313486739
 21
5.0739254615
 31
0.0
 11
4.8255123626
 21
5.0805905826
 31
0.0
 11
4.8202458479
 21
5.0866740564
 31
0.0
 11
4.8155541949
 21
5.0921689209
 31
0.0
 11
4.8134255245
 21
5.0946934489
 31
0.0
 11
4.8114424689
 21
5.0970682139
 31
0.0
 11
4.8096056614
 21
5.0992923455
 31
0.0
 11
4.8079157351
 21
5.1013649734
 31
0.0
 11
4.8063733231
 21
5.1032852275
 31
0.0
 11
4.8049790586
 21
5.1050522375
 31
0.0
 11
4.8037335748
 21
5.106665133
 31
0.0
 11
4.8026375047
 21
5.1081230439
 31
0.0
 11
4.8016914817
 21
5.1094250998
 31
0.0
 11
4.8008961387
 21
5.1105704307
 31
0.0
 11
4.8005551702
 21
5.1110840522
 31
0.0
 11
4.8002521091
 21
5.111558166
 31
0.0
 11
4.7999870345
 21
5.1119926635
 31
0.0
 11
4.7997600258
 21
5.1123874357
 31
0.0
 11
4.7995711619
 21
5.112742374
 31
0.0
 11
4.7994205221
 21
5.1130573695
 31
0.0
 11
4.7993081854
 21
5.1133323134
 31
0.0
 11
4.7992342311
 21
5.113567097
 31
0.0
 11
4.7992116721
 21
5.1136693947
 31
0.0
 11
4.7991987383
 21
5.1137616115
 31
0.0
 11
4.7991954396
 21
5.1138437339
 31
0.0
 11
4.799201786
 21
5.1139157481
 31
0.0
 11
4.7992434535
 21
5.1140293981
 31
0.0
 11
4.7992787944
 21
5.1140710065
 31
0.0
 11
4.7993238199
 21
5.1141024525
 31
0.0
  0
SPLINE
  5
399
100
AcDbEntity
  8
0
100
AcDbSpline
 62
9
  6
CONTINUOUS
 70
0
 71
3
 72
9
 73
5
 74
3
 42
0.0000001
 43
0.0000001
 44
0.0000000001
 12
0.0000378161
 22
0.0000199883
 32
0.0
 13
0.0000406094
 23
0.0000134337
 33
0.0
 40
0.0
 40
0.0
 40
0.0
 40
0.0
 40
0.2444314051
 40
1.0
 40
1.0
 40
1.0
 40
1.0
 10
4.7993238199
 20
5.1141024525
 30
0.0
 10
4.7993269011
 20
5.1141040811
 30
0.0
 10
4.7993396536
 20
5.1141104637
 30
0.0
 10
4.7993529591
 20
5.1141157249
 30
0.0
 10
4.7993631868
 20
5.1141191083
 30
0.0
 11
4.7993238199
 21
5.1141024525
 31
0.0
 11
4.7993331683
 21
5.1141071343
 31
0.0
 11
4.7993631868
 21
5.1141191083
 31
0.0
  0
SPLINE
  5
39A
100
AcDbEntity
  8
0
100
AcDbSpline
 62
9
  6
CONTINUOUS
 70
0
 71
3
 72
30
 73
26
 74
24
 42
0.0000001
 43
0.0000001
 44
0.0000000001
 12
0.1527210277
 22
0.1054167225
 32
0.0
 13
0.138067388
 23
-0.1239911048
 33
0.0
 40
0.0
 40
0.0
 40
0.0
 40
0.0
 40
0.0663031895
 40
0.1316370209
 40
0.1958896449
 40
0.258993737
 40
0.3209354474
 40
0.3817645142
 40
0.4416051137
 40
0.5006665688
 40
0.5300045466
 40
0.5592708681
 40
0.5885194402
 40
0.6178096891
 40
0.6472063468
 40
0.6767791285
 40
0.706602304
 40
0.7367541723
 40
0.7673164586
 40
0.7983736546
 40
0.8300123291
 40
0.8623204372
 40
0.8953866531
 40
0.9292997507
 40
1.0
 40
1.0
 40
1.0
 40
1.0
 10
5.0335913551
 20
4.8575635217
 30
0.0
 10
5.0369666522
 20
4.8598933434
 30
0.0
 10
5.0437695383
 20
4.8643741415
 30
0.0
 10
5.0542010944
 20
4.8705487846
 30
0.0
 10
5.064770017
 20
4.8760726159
 30
0.0
 10
5.0754529425
 20
4.8808847711
 30
0.0
 10
5.0862269674
 20
4.8849242779
 30
0.0
 10
5.097069493
 20
4.8881296063
 30
0.0
 10
5.1079570102
 20
4.8904386005
 30
0.0
 10
5.1170707788
 20
4.8915658212
 30
0.0
 10
5.1243412754
 20
4.8919522841
 30
0.0
 10
5.1297777307
 20
4.891979976
 30
0.0
 10
5.135205988
 20
4.8917391972
 30
0.0
 10
5.1406232561
 20
4.8912231767
 30
0.0
 10
5.1460265698
 20
4.8904251134
 30
0.0
 10
5.1514129866
 20
4.8893382337
 30
0.0
 10
5.1567795388
 20
4.8879557825
 30
0.0
 10
5.1621232528
 20
4.886271031
 30
0.0
 10
5.1674411536
 20
4.884277276
 30
0.0
 10
5.1727302669
 20
4.8819678448
 30
0.0
 10
5.177987647
 20
4.8793360736
 30
0.0
 10
5.1832103005
 20
4.8763753757
 30
0.0
 10
5.188395503
 20
4.8730789578
 30
0.0
 10
5.1953507457
 20
4.8681599811
 30
0.0
 10
5.2003576391
 20
4.8640410545
 30
0.0
 10
5.2036114387
 20
4.8611189872
 30
0.0
 11
5.0335913551
 21
4.8575635217
 31
0.0
 11
5.0438721681
 21
4.8643230466
 31
0.0
 11
5.0543112752
 21
4.8704888503
 31
0.0
 11
5.0648843959
 21
4.876000323
 31
0.0
 11
5.0755672499
 21
4.8807968552
 31
0.0
 11
5.0863355566
 21
4.8848178373
 31
0.0
 11
5.0971650357
 21
4.8880026596
 31
0.0
 11
5.1080314067
 21
4.8902907126
 31
0.0
 11
5.1189103891
 21
4.8916213867
 31
0.0
 11
5.1243470536
 21
4.8919089109
 31
0.0
 11
5.1297779548
 21
4.8919352286
 31
0.0
 11
5.1352002461
 21
4.8916936289
 31
0.0
 11
5.1406110814
 21
4.8911774011
 31
0.0
 11
5.146007614
 21
4.8903798347
 31
0.0
 11
5.1513869978
 21
4.8892942188
 31
0.0
 11
5.1567463863
 21
4.8879138428
 31
0.0
 11
5.162082933
 21
4.8862319959
 31
0.0
 11
5.1673937917
 21
4.8842419676
 31
0.0
 11
5.1726761158
 21
4.8819370469
 31
0.0
 11
5.1779270591
 21
4.8793105234
 31
0.0
 11
5.1831437751
 21
4.8763556862
 31
0.0
 11
5.1883234175
 21
4.8730658247
 31
0.0
 11
5.1934631398
 21
4.8694342282
 31
0.0
 11
5.2036114387
 21
4.8611189872
 31
0.0
  0
SPLINE
  5
39B
100
AcDbEntity
  8
0
100
AcDbSpline
 62
9
  6
CONTINUOUS
 70
0
 71
3
 72
24
 73
20
 74
18
 42
0.0000001
 43
0.0000001
 44
0.0000000001
 12
0.2597714876
 22
0.118187823
 32
0.0
 13
0.2130724264
 23
-0.1898676602
 33
0.0
 40
0.0
 40
0.0
 40
0.0
 40
0.0
 40
0.0531300887
 40
0.1065385913
 40
0.1603695696
 40
0.2147907287
 40
0.2699934784
 40
0.3261922342
 40
0.3836229543
 40
0.4425409794
 40
0.5032180578
 40
0.5659328023
 40
0.6309606817
 40
0.6985716266
 40
0.7334329167
 40
0.7690379093
 40
0.8425966001
 40
0.9195042322
 40
1.0
 40
1.0
 40
1.0
 40
1.0
 10
4.8688998951
 20
5.0321188183
 30
0.0
 10
4.8735004559
 20
5.0342119281
 30
0.0
 10
4.882886076
 20
5.0380667758
 30
0.0
 10
4.8974113208
 20
5.0427788661
 30
0.0
 10
4.912378386
 20
5.0463824971
 30
0.0
 10
4.9277511506
 20
5.0488264764
 30
0.0
 10
4.9434945249
 20
5.0500602325
 30
0.0
 10
4.9595728256
 20
5.0500331548
 30
0.0
 10
4.9759502385
 20
5.0486949045
 30
0.0
 10
4.9925908599
 20
5.0459953167
 30
0.0
 10
5.0094577686
 20
5.0418850249
 30
0.0
 10
5.0265182344
 20
5.036333207
 30
0.0
 10
5.0437404799
 20
5.0293090073
 30
0.0
 10
5.0580532339
 20
5.0222753388
 30
0.0
 10
5.0695448386
 20
5.0159087858
 30
0.0
 10
5.0813109839
 20
5.0088844857
 30
0.0
 10
5.0960701864
 20
4.999089925
 30
0.0
 10
5.113630342
 20
4.9858650081
 30
0.0
 10
5.1250718348
 20
4.9761913959
 30
0.0
 10
5.1307889777
 20
4.9710968815
 30
0.0
 11
4.8688998951
 21
5.0321188183
 31
0.0
 11
4.8829271946
 21
5.0378765332
 31
0.0
 11
4.8974265108
 21
5.0425778291
 31
0.0
 11
4.9123629811
 21
5.0461728767
 31
0.0
 11
4.927701743
 21
5.048611847
 31
0.0
 11
4.9434079339
 21
5.0498449107
 31
0.0
 11
4.959446691
 21
5.0498222388
 31
0.0
 11
4.9757831518
 21
5.0484940021
 31
0.0
 11
4.9923824537
 21
5.0458103714
 31
0.0
 11
5.0092103849
 21
5.0417245037
 31
0.0
 11
5.0262353381
 21
5.0362015035
 31
0.0
 11
5.0434263572
 21
5.0292094629
 31
0.0
 11
5.0607524861
 21
5.0207164742
 31
0.0
 11
5.0694565429
 21
5.0158971531
 31
0.0
 11
5.0781827687
 21
5.0106906295
 31
0.0
 11
5.0956862489
 21
4.999100021
 31
0.0
 11
5.1132319706
 21
4.985912741
 31
0.0
 11
5.1307889777
 21
4.9710968815
 31
0.0
  0
SPLINE
  5
39C
100
AcDbEntity
  8
0
100
AcDbSpline
 62
6
  6
CONTINUOUS
 70
0
 71
3
 72
10
 73
6
 74
4
 42
0.0000001
 43
0.0000001
 44
0.0000000001
 12
-0.0321323781
 22
0.0490069264
 32
0.0
 13
-0.0313817578
 23
0.049490947
 33
0.0
 40
0.0
 40
0.0
 40
0.0
 40
0.0
 40
0.5196397182
 40
0.7648949424
 40
1.0
 40
1.0
 40
1.0
 40
1.0
 10
5.1624980738
 20
4.9218153994
 30
0.0
 10
5.1569323205
 20
4.9303040478
 30
0.0
 10
5.148806362
 20
4.9428429076
 30
0.0
 10
5.1382809404
 20
4.9592986083
 30
0.0
 10
5.1332483924
 20
4.9672182344
 30
0.0
 10
5.1307890557
 20
4.9710967584
 30
0.0
 11
5.1624980738
 21
4.9218153994
 31
0.0
 11
5.1459260723
 21
4.9473630339
 31
0.0
 11
5.1381802176
 21
4.9594695364
 31
0.0
 11
5.1307890557
 21
4.9710967584
 31
0.0
  0
LINE
  5
39D
100
AcDbEntity
  8
0
100
AcDbLine
 62
6
  6
CONTINUOUS
 10
5.1307890557
 20
4.9710967584
 11
5.1146765186
 21
4.9965770174
  0
LINE
  5
39E
100
AcDbEntity
  8
0
100
AcDbLine
 62
6
  6
CONTINUOUS
 10
5.1146765186
 20
4.9965770174
 11
5.1104036904
 21
5.003323439
  0
SPLINE
  5
39F
100
AcDbEntity
  8
0
100
AcDbSpline
 62
6
  6
CONTINUOUS
 70
0
 71
3
 72
17
 73
13
 74
11
 42
0.0000001
 43
0.0000001
 44
0.0000000001
 12
-0.0285108514
 22
0.0449352722
 32
0.0
 13
-0.0325747416
 23
0.0420824612
 33
0.0
 40
0.0
 40
0.0
 40
0.0
 40
0.0
 40
0.1552301623
 40
0.3026522809
 40
0.4418758357
 40
0.5725131093
 40
0.6941421967
 40
0.8062634307
 40
0.8586029149
 40
0.9083804161
 40
0.9555364502
 40
1.0
 40
1.0
 40
1.0
 40
1.0
 10
5.1104036904
 20
5.003323439
 30
0.0
 10
5.1089284424
 20
5.0056485422
 30
0.0
 10
5.1060483762
 20
5.0101794052
 30
0.0
 10
5.1018234421
 20
5.0167817721
 30
0.0
 10
5.0978050361
 20
5.0229982986
 30
0.0
 10
5.0939973098
 20
5.0288060662
 30
0.0
 10
5.0904052888
 20
5.0341801063
 30
0.0
 10
5.0875333658
 20
5.0383645124
 30
0.0
 10
5.0853422177
 20
5.0414696811
 30
0.0
 10
5.0837938818
 20
5.0436178424
 30
0.0
 10
5.0823034751
 20
5.0456353341
 30
0.0
 10
5.0813196698
 20
5.04692908
 30
0.0
 10
5.0808368736
 20
5.0475527918
 30
0.0
 11
5.1104036904
 21
5.003323439
 31
0.0
 11
5.1059704698
 21
5.0102939992
 31
0.0
 11
5.1017398537
 21
5.0169009325
 31
0.0
 11
5.097715433
 21
5.0231217181
 31
0.0
 11
5.0939008013
 21
5.0289338244
 31
0.0
 11
5.090300118
 21
5.0343126119
 31
0.0
 11
5.0869187909
 21
5.039228787
 31
0.0
 11
5.0853121279
 21
5.0415040466
 31
0.0
 11
5.0837623945
 21
5.0436524348
 31
0.0
 11
5.0822703046
 21
5.045670173
 31
0.0
 11
5.0808368736
 21
5.0475527918
 31
0.0
  0
SPLINE
  5
3A0
100
AcDbEntity
  8
0
100
AcDbSpline
 62
6
  6
CONTINUOUS
 70
0
 71
3
 72
11
 73
7
 74
5
 42
0.0000001
 43
0.0000001
 44
0.0000000001
 12
-0.005478898
 22
0.0070780458
 32
0.0
 13
-0.0063324278
 23
0.0063259319
 33
0.0
 40
0.0
 40
0.0
 40
0.0
 40
0.0
 40
0.284541119
 40
0.5464499961
 40
0.785108151
 40
1.0
 40
1.0
 40
1.0
 40
1.0
 10
5.0808368736
 20
5.0475527918
 30
0.0
 10
5.0803172163
 20
5.0482241235
 30
0.0
 10
5.0793073296
 20
5.0495042606
 30
0.0
 10
5.0778131023
 20
5.0513086118
 30
0.0
 10
5.0764029665
 20
5.0529116409
 30
0.0
 10
5.0754708093
 20
5.0538933323
 30
0.0
 10
5.0750172136
 20
5.0543464627
 30
0.0
 11
5.0808368736
 21
5.0475527918
 31
0.0
 11
5.0792573357
 21
5.049550698
 31
0.0
 11
5.0777595682
 21
5.0513541456
 31
0.0
 11
5.0763455385
 21
5.052955334
 31
0.0
 11
5.0750172136
 21
5.0543464627
 31
0.0
  0
LINE
  5
3A1
100
AcDbEntity
  8
0
100
AcDbLine
 62
6
  6
CONTINUOUS
 10
6.5281643059
 20
3.5503170545
 11
6.528398126
 21
3.5501611161
  0
LINE
  5
3A2
100
AcDbEntity
  8
0
100
AcDbLine
 62
9
  6
CONTINUOUS
 10
5.2924859308
 20
3.6229628648
 11
5.2792098063
 21
3.6096406606
  0
SPLINE
  5
3A3
100
AcDbEntity
  8
0
100
AcDbSpline
 62
9
  6
CONTINUOUS
 70
0
 71
3
 72
30
 73
26
 74
24
 42
0.0000001
 43
0.0000001
 44
0.0000000001
 12
-0.1380663945
 22
-0.1240119248
 32
0.0
 13
-0.1527318686
 23
0.1054242055
 33
0.0
 40
0.0
 40
0.0
 40
0.0
 40
0.0
 40
0.0707034052
 40
0.1046177648
 40
0.1376850428
 40
0.1699940228
 40
0.2016333897
 40
0.23269111
 40
0.2632537649
 40
0.2934058591
 40
0.3232291313
 40
0.3528018947
 40
0.3821984328
 40
0.4114884746
 40
0.4407367656
 40
0.4700027445
 40
0.4993403304
 40
0.5584008976
 40
0.6182405393
 40
0.6790686377
 40
0.74100941
 40
0.8041126188
 40
0.8683644253
 40
0.933697505
 40
1.0
 40
1.0
 40
1.0
 40
1.0
 10
5.2036212436
 20
3.352845833
 30
0.0
 10
5.2003673222
 20
3.3499231446
 30
0.0
 10
5.195360224
 20
3.3458033117
 30
0.0
 10
5.1884046409
 20
3.3408831816
 30
0.0
 10
5.1832191897
 20
3.3375859734
 30
0.0
 10
5.1779962777
 20
3.3346245373
 30
0.0
 10
5.1727386301
 20
3.3319920791
 30
0.0
 10
5.1674492407
 20
3.3296820107
 30
0.0
 10
5.1621310557
 20
3.3276876673
 30
0.0
 10
5.15678705
 20
3.326002375
 30
0.0
 10
5.1514201992
 20
3.3246194293
 30
0.0
 10
5.1460334773
 20
3.3235321002
 30
0.0
 10
5.1406298528
 20
3.3227336315
 30
0.0
 10
5.1352122686
 20
3.3222172484
 30
0.0
 10
5.1297836905
 20
3.3219761485
 30
0.0
 10
5.1243469104
 20
3.3220035596
 30
0.0
 10
5.1170759791
 20
3.3223896989
 30
0.0
 10
5.1079616525
 20
3.3235166107
 30
0.0
 10
5.0970734558
 20
3.3258253804
 30
0.0
 10
5.0862302489
 20
3.3290306163
 30
0.0
 10
5.0754555449
 20
3.333070151
 30
0.0
 10
5.0647719466
 20
3.3378824427
 30
0.0
 10
5.0542023613
 20
3.343406508
 30
0.0
 10
5.0437701569
 20
3.3495814715
 30
0.0
 10
5.0369668564
 20
3.3540625298
 30
0.0
 10
5.0335913551
 20
3.3563924924
 30
0.0
 11
5.2036212436
 21
3.352845833
 31
0.0
 11
5.1934724987
 21
3.3445287429
 31
0.0
 11
5.1883325375
 21
3.3408963045
 31
0.0
 11
5.1831526464
 21
3.3376056546
 31
0.0
 11
5.1779356722
 21
3.3346500814
 31
0.0
 11
5.1726844619
 21
3.3320228729
 31
0.0
 11
5.1674018624
 21
3.3297173172
 31
0.0
 11
5.1620907206
 21
3.3277267023
 31
0.0
 11
5.1567538834
 21
3.3260443163
 31
0.0
 11
5.1513941977
 21
3.3246634473
 31
0.0
 11
5.1460145104
 21
3.3235773833
 31
0.0
 11
5.1406176685
 21
3.3227794125
 31
0.0
 11
5.1352065188
 21
3.3222628229
 31
0.0
 11
5.1297839083
 21
3.3220209026
 31
0.0
 11
5.1243526839
 21
3.3220469396
 31
0.0
 11
5.1189156924
 21
3.322334222
 31
0.0
 11
5.1080360468
 21
3.3236645254
 31
0.0
 11
5.0971690039
 21
3.3259523502
 31
0.0
 11
5.0863388485
 21
3.3291370759
 31
0.0
 11
5.0755698655
 21
3.3331580817
 31
0.0
 11
5.0648863398
 21
3.3379547469
 31
0.0
 11
5.0543125563
 21
3.3434664509
 31
0.0
 11
5.0438727997
 21
3.349632573
 31
0.0
 11
5.0335913551
 21
3.3563924924
 31
0.0
  0
SPLINE
  5
3A4
100
AcDbEntity
  8
0
100
AcDbSpline
 62
9
  6
CONTINUOUS
 70
0
 71
3
 72
17
 73
13
 74
11
 42
0.0000001
 43
0.0000001
 44
0.0000000001
 12
-0.2489786005
 22
-0.249953333
 32
0.0
 13
-0.2435344249
 23
-0.2552606433
 33
0.0
 40
0.0
 40
0.0
 40
0.0
 40
0.0
 40
0.0519624319
 40
0.1062490759
 40
0.1626629131
 40
0.2210068553
 40
0.342696411
 40
0.4697401885
 40
0.6005617986
 40
0.7335912538
 40
0.8672601391
 40
1.0
 40
1.0
 40
1.0
 40
1.0
 10
5.2792098063
 20
3.6096406606
 30
0.0
 10
5.2748972951
 20
3.6053112663
 30
0.0
 10
5.2660919584
 20
3.5964462938
 30
0.0
 10
5.252643934
 20
3.5828421228
 30
0.0
 10
5.2386979351
 20
3.5686750316
 30
0.0
 10
5.2192278476
 20
3.5488231707
 30
0.0
 10
5.1940055352
 20
3.5229788713
 30
0.0
 10
5.1629130586
 20
3.4909540339
 30
0.0
 10
5.1309618801
 20
3.457904352
 30
0.0
 10
5.0985350747
 20
3.4242309456
 30
0.0
 10
5.0660149465
 20
3.3903343486
 30
0.0
 10
5.0443669303
 20
3.3676869132
 30
0.0
 10
5.0335913551
 20
3.3563924924
 30
0.0
 11
5.2792098063
 21
3.6096406606
 31
0.0
 11
5.2662896662
 21
3.5966351751
 31
0.0
 11
5.2528244613
 21
3.583015429
 31
0.0
 11
5.2388614579
 21
3.5688325724
 31
0.0
 11
5.2244479222
 21
3.5541377557
 31
0.0
 11
5.1944583184
 21
3.5234168428
 31
0.0
 11
5.1632337795
 21
3.491261892
 31
0.0
 11
5.131153099
 21
3.4580806483
 31
0.0
 11
5.0985977261
 21
3.4242750277
 31
0.0
 11
5.0659497737
 21
3.3902454893
 31
0.0
 11
5.0335913551
 21
3.3563924924
 31
0.0
  0
SPLINE
  5
3A5
100
AcDbEntity
  8
0
100
AcDbSpline
 62
9
  6
CONTINUOUS
 70
0
 71
3
 72
24
 73
20
 74
18
 42
0.0000001
 43
0.0000001
 44
0.0000000001
 12
-0.213072426
 22
-0.1898676589
 32
0.0
 13
-0.2597714865
 23
0.1181878225
 33
0.0
 40
0.0
 40
0.0
 40
0.0
 40
0.0
 40
0.0804957677
 40
0.1574033997
 40
0.2309620905
 40
0.266567083
 40
0.3014283732
 40
0.369039318
 40
0.4340671973
 40
0.4967819419
 40
0.5574590203
 40
0.6163770454
 40
0.6738077655
 40
0.7300065214
 40
0.7852092711
 40
0.8396304302
 40
0.8934614086
 40
0.9468699112
 40
1.0
 40
1.0
 40
1.0
 40
1.0
 10
5.1307889768
 20
3.2428591319
 30
0.0
 10
5.125071834
 20
3.2377646176
 30
0.0
 10
5.1136303412
 20
3.2280910053
 30
0.0
 10
5.0960701857
 20
3.2148660886
 30
0.0
 10
5.0813109832
 20
3.2050715279
 30
0.0
 10
5.0695448379
 20
3.1980472279
 30
0.0
 10
5.0580532333
 20
3.191680675
 30
0.0
 10
5.0437404793
 20
3.1846470065
 30
0.0
 10
5.0265182338
 20
3.177622807
 30
0.0
 10
5.0094577682
 20
3.1720709891
 30
0.0
 10
4.9925908595
 20
3.1679606973
 30
0.0
 10
4.9759502382
 20
3.1652611096
 30
0.0
 10
4.9595728254
 20
3.1639228593
 30
0.0
 10
4.9434945247
 20
3.1638957816
 30
0.0
 10
4.9277511504
 20
3.1651295378
 30
0.0
 10
4.9123783859
 20
3.1675735171
 30
0.0
 10
4.8974113207
 20
3.171177148
 30
0.0
 10
4.8828860759
 20
3.1758892384
 30
0.0
 10
4.8735004559
 20
3.179744086
 30
0.0
 10
4.8688998951
 20
3.1818371958
 30
0.0
 11
5.1307889768
 21
3.2428591319
 31
0.0
 11
5.1132319698
 21
3.2280432725
 31
0.0
 11
5.0956862481
 21
3.2148559926
 31
0.0
 11
5.078182768
 21
3.2032653842
 31
0.0
 11
5.0694565423
 21
3.1980588607
 31
0.0
 11
5.0607524855
 21
3.1932395396
 31
0.0
 11
5.0434263566
 21
3.184746551
 31
0.0
 11
5.0262353376
 21
3.1777545105
 31
0.0
 11
5.0092103844
 21
3.1722315103
 31
0.0
 11
4.9923824533
 21
3.1681456426
 31
0.0
 11
4.9757831514
 21
3.165462012
 31
0.0
 11
4.9594466907
 21
3.1641337753
 31
0.0
 11
4.9434079336
 21
3.1641111034
 31
0.0
 11
4.9277017429
 21
3.1653441671
 31
0.0
 11
4.912362981
 21
3.1677831374
 31
0.0
 11
4.8974265107
 21
3.1713781851
 31
0.0
 11
4.8829271945
 21
3.1760794809
 31
0.0
 11
4.8688998951
 21
3.1818371958
 31
0.0
  0
SPLINE
  5
3A6
100
AcDbEntity
  8
0
100
AcDbSpline
 62
9
  6
CONTINUOUS
 70
0
 71
3
 72
18
 73
14
 74
12
 42
0.0000001
 43
0.0000001
 44
0.0000000001
 12
-0.1656625933
 22
-0.1736392715
 32
0.0
 13
-0.1616860334
 23
-0.1773480138
 33
0.0
 40
0.0
 40
0.0
 40
0.0
 40
0.0
 40
0.1423911371
 40
0.2853155858
 40
0.4258289528
 40
0.5609870454
 40
0.6880147775
 40
0.7478130983
 40
0.8048126484
 40
0.858772199
 40
0.9094506026
 40
0.9566068254
 40
1.0
 40
1.0
 40
1.0
 40
1.0
 10
5.0335913551
 20
3.3563924924
 30
0.0
 10
5.0257283934
 20
3.348150928
 30
0.0
 10
5.0099747941
 20
3.331635238
 30
0.0
 10
4.986477555
 20
3.3069717645
 30
0.0
 10
4.9634040447
 20
3.28270379
 30
0.0
 10
4.9412421886
 20
3.2593237987
 30
0.0
 10
4.9235631528
 20
3.2405913543
 30
0.0
 10
4.9102073249
 20
3.2263761157
 30
0.0
 10
4.9008710397
 20
3.2164047256
 30
0.0
 10
4.892052495
 20
3.2069480406
 30
0.0
 10
4.8837923945
 20
3.1980473143
 30
0.0
 10
4.8761314195
 20
3.1897438241
 30
0.0
 10
4.8712385852
 20
3.1844024269
 30
0.0
 10
4.8688998951
 20
3.1818371958
 30
0.0
 11
5.0335913551
 21
3.3563924924
 31
0.0
 11
5.0100067032
 21
3.3316637611
 31
0.0
 11
4.9863487486
 21
3.3068280838
 31
0.0
 11
4.963115153
 21
3.2823873393
 31
0.0
 11
4.9408035785
 21
3.2588434067
 31
0.0
 11
4.9198830801
 21
3.2366694746
 31
0.0
 11
4.9100570937
 21
3.2262100605
 31
0.0
 11
4.900708286
 21
3.2162239705
 31
0.0
 11
4.8918774096
 21
3.2067524219
 31
0.0
 11
4.8836052172
 21
3.1978366318
 31
0.0
 11
4.8759324615
 21
3.1895178174
 31
0.0
 11
4.8688998951
 21
3.1818371958
 31
0.0
  0
SPLINE
  5
3A7
100
AcDbEntity
  8
0
100
AcDbSpline
 62
9
  6
CONTINUOUS
 70
0
 71
3
 72
40
 73
36
 74
34
 42
0.0000001
 43
0.0000001
 44
0.0000000001
 12
-0.0726825339
 22
-0.0797230457
 32
0.0
 13
0.0953787442
 23
-0.0504123982
 33
0.0
 40
0.0
 40
0.0
 40
0.0
 40
0.0
 40
0.1186268557
 40
0.2301085928
 40
0.3343668976
 40
0.4313236033
 40
0.5209007466
 40
0.6030206507
 40
0.6776060529
 40
0.744580308
 40
0.7751896286
 40
0.8038678978
 40
0.8306059078
 40
0.8553946143
 40
0.8782251955
 40
0.8990891375
 40
0.9179783671
 40
0.9348854636
 40
0.949804013
 40
0.962729241
 40
0.9684437693
 40
0.9736596356
 40
0.9783774866
 40
0.9825986445
 40
0.9863254677
 40
0.9895619814
 40
0.9923150527
 40
0.9945967541
 40
0.9955677689
 40
0.9964309238
 40
0.9971927568
 40
0.9978628679
 40
0.9989848982
 40
0.9994909286
 40
1.0
 40
1.0
 40
1.0
 40
1.0
 10
4.8688998951
 20
3.1818371958
 30
0.0
 10
4.8660258617
 20
3.1786847644
 30
0.0
 10
4.8604587271
 20
3.172562638
 30
0.0
 10
4.8523949937
 20
3.163643309
 30
0.0
 10
4.8448806662
 20
3.15527788
 30
0.0
 10
4.8379207769
 20
3.1474733372
 30
0.0
 10
4.8315203491
 20
3.1402366716
 30
0.0
 10
4.8256843738
 20
3.1335748942
 30
0.0
 10
4.8204178582
 20
3.1274950052
 30
0.0
 10
4.8163956022
 20
3.1227881399
 30
0.0
 10
4.8134682106
 20
3.1193173669
 30
0.0
 10
4.811484967
 20
3.1169431733
 30
0.0
 10
4.8096478961
 20
3.114719661
 30
0.0
 10
4.8079576186
 20
3.1126477039
 30
0.0
 10
4.806414741
 20
3.1107281856
 30
0.0
 10
4.8050198587
 20
3.1089619924
 30
0.0
 10
4.8037735573
 20
3.1073500138
 30
0.0
 10
4.8026763706
 20
3.1058931535
 30
0.0
 10
4.8017288599
 20
3.1045923014
 30
0.0
 10
4.8010385514
 20
3.1036022878
 30
0.0
 10
4.8005635513
 20
3.1028878913
 30
0.0
 10
4.8002600399
 20
3.1024139999
 30
0.0
 10
4.7999943926
 20
3.1019797473
 30
0.0
 10
4.7997666474
 20
3.1015852305
 30
0.0
 10
4.7995768225
 20
3.1012305491
 30
0.0
 10
4.7994248558
 20
3.1009157553
 30
0.0
 10
4.799310739
 20
3.1006408962
 30
0.0
 10
4.7992436264
 20
3.1004351836
 30
0.0
 10
4.7992111326
 20
3.1002906614
 30
0.0
 10
4.7991976572
 20
3.1001981944
 30
0.0
 10
4.7991937857
 20
3.1001155063
 30
0.0
 10
4.7992008744
 20
3.1000239594
 30
0.0
 10
4.7992271243
 20
3.0999425343
 30
0.0
 10
4.7992772232
 20
3.0998831325
 30
0.0
 10
4.7993076379
 20
3.0998621146
 30
0.0
 10
4.7993238228
 20
3.0998535601
 30
0.0
 11
4.8688998951
 21
3.1818371958
 31
0.0
 11
4.8602905759
 21
3.1723682649
 31
0.0
 11
4.8522257275
 21
3.1634461715
 31
0.0
 11
4.8447104153
 21
3.1550778777
 31
0.0
 11
4.8377497045
 21
3.1472703455
 31
0.0
 11
4.8313486602
 21
3.1400305371
 31
0.0
 11
4.8255123478
 21
3.1333654144
 31
0.0
 11
4.8202458323
 21
3.1272819396
 31
0.0
 11
4.8155541792
 21
3.1217870747
 31
0.0
 11
4.8134255089
 21
3.1192625466
 31
0.0
 11
4.8114424535
 21
3.1168877817
 31
0.0
 11
4.8096056464
 21
3.1146636504
 31
0.0
 11
4.8079157206
 21
3.1125910228
 31
0.0
 11
4.8063733093
 21
3.1106707693
 31
0.0
 11
4.8049790456
 21
3.10890376
 31
0.0
 11
4.8037335627
 21
3.1072908653
 31
0.0
 11
4.8026374938
 21
3.1058329554
 31
0.0
 11
4.801691472
 21
3.1045309006
 31
0.0
 11
4.8008961304
 21
3.1033855711
 31
0.0
 11
4.8005551625
 21
3.1028719503
 31
0.0
 11
4.8002521022
 21
3.1023978371
 31
0.0
 11
4.7999870285
 21
3.1019633404
 31
0.0
 11
4.7997600206
 21
3.101568569
 31
0.0
 11
4.7995711576
 21
3.1012136316
 31
0.0
 11
4.7994205187
 21
3.100898637
 31
0.0
 11
4.799308183
 21
3.100623694
 31
0.0
 11
4.7992342296
 21
3.1003889113
 31
0.0
 11
4.7992116711
 21
3.1002866141
 31
0.0
 11
4.7991987378
 21
3.1001943978
 31
0.0
 11
4.7991954397
 21
3.100112276
 31
0.0
 11
4.7992017866
 21
3.1000402623
 31
0.0
 11
4.7992434552
 21
3.0999266134
 31
0.0
 11
4.7992787967
 21
3.0998850055
 31
0.0
 11
4.7993238228
 21
3.0998535601
 31
0.0
  0
SPLINE
  5
3A8
100
AcDbEntity
  8
0
100
AcDbSpline
 62
9
  6
CONTINUOUS
 70
0
 71
3
 72
9
 73
5
 74
3
 42
0.0000001
 43
0.0000001
 44
0.0000000001
 12
0.0000378102
 22
-0.0000199846
 32
0.0
 13
0.0000406026
 23
-0.000013432
 33
0.0
 40
0.0
 40
0.0
 40
0.0
 40
0.0
 40
0.2444322638
 40
1.0
 40
1.0
 40
1.0
 40
1.0
 10
4.7993238228
 20
3.0998535601
 30
0.0
 10
4.7993269035
 20
3.0998519318
 30
0.0
 10
4.7993396539
 20
3.0998455504
 30
0.0
 10
4.7993529572
 20
3.09984029
 30
0.0
 10
4.7993631832
 20
3.099836907
 30
0.0
 11
4.7993238228
 21
3.0998535601
 31
0.0
 11
4.7993331697
 21
3.0998488791
 31
0.0
 11
4.7993631832
 21
3.099836907
 31
0.0
  0
LINE
  5
3A9
100
AcDbEntity
  8
0
100
AcDbLine
 62
6
  6
CONTINUOUS
 10
5.1307889769
 20
3.2428591319
 11
5.1146518348
 21
3.2173406743
  0
LINE
  5
3AA
100
AcDbEntity
  8
0
100
AcDbLine
 62
6
  6
CONTINUOUS
 10
5.1146518348
 20
3.2173406743
 11
5.1104032741
 21
3.2106329873
  0
SPLINE
  5
3AB
100
AcDbEntity
  8
0
100
AcDbSpline
 62
6
  6
CONTINUOUS
 70
0
 71
3
 72
17
 73
13
 74
11
 42
0.0000001
 43
0.0000001
 44
0.0000000001
 12
-0.0284933067
 22
-0.0449076203
 32
0.0
 13
-0.0325446432
 23
-0.0420643446
 33
0.0
 40
0.0
 40
0.0
 40
0.0
 40
0.0
 40
0.1551902554
 40
0.3025821738
 40
0.4417859915
 40
0.5724147414
 40
0.6940471477
 40
0.8061849015
 40
0.8585380763
 40
0.9083331294
 40
0.9555107349
 40
1.0
 40
1.0
 40
1.0
 40
1.0
 10
5.1104032741
 20
3.2106329873
 30
0.0
 10
5.1089293129
 20
3.2083099123
 30
0.0
 10
5.1060517352
 20
3.203782855
 30
0.0
 10
5.1018304462
 20
3.1971857734
 30
0.0
 10
5.0978153265
 20
3.1909737807
 30
0.0
 10
5.0940104544
 20
3.1851697808
 30
0.0
 10
5.0904207853
 20
3.1797987118
 30
0.0
 10
5.0875505614
 20
3.1756162076
 30
0.0
 10
5.0853605673
 20
3.172512051
 30
0.0
 10
5.0838128998
 20
3.1703642628
 30
0.0
 10
5.0823230499
 20
3.1683468503
 30
0.0
 10
5.0813396113
 20
3.1670530295
 30
0.0
 10
5.0808569823
 20
3.1664292256
 30
0.0
 11
5.1104032741
 21
3.2106329873
 31
0.0
 11
5.105973992
 21
3.203668462
 31
0.0
 11
5.1017470275
 21
3.1970668305
 31
0.0
 11
5.097725899
 21
3.1908505956
 31
0.0
 11
5.0939141281
 21
3.1850422711
 31
0.0
 11
5.0903158317
 21
3.1796664667
 31
0.0
 11
5.0869364239
 21
3.1747523614
 31
0.0
 11
5.0853305487
 21
3.1724777526
 31
0.0
 11
5.0837814901
 21
3.1703297365
 31
0.0
 11
5.0822899635
 21
3.1683120756
 31
0.0
 11
5.0808569823
 21
3.1664292256
 31
0.0
  0
SPLINE
  5
3AC
100
AcDbEntity
  8
0
100
AcDbSpline
 62
6
  6
CONTINUOUS
 70
0
 71
3
 72
11
 73
7
 74
5
 42
0.0000001
 43
0.0000001
 44
0.0000000001
 12
-0.0054973188
 22
-0.0071053509
 32
0.0
 13
-0.0063556808
 23
-0.0063491611
 33
0.0
 40
0.0
 40
0.0
 40
0.0
 40
0.0
 40
0.2846225148
 40
0.5465610141
 40
0.7851931152
 40
1.0
 40
1.0
 40
1.0
 40
1.0
 10
5.0808569823
 20
3.1664292256
 30
0.0
 10
5.0803354287
 20
3.1657551113
 30
0.0
 10
5.079321932
 20
3.1644697723
 30
0.0
 10
5.0778224451
 20
3.1626582759
 30
0.0
 10
5.0764075644
 20
3.1610493027
 30
0.0
 10
5.0754722949
 20
3.1600641659
 30
0.0
 10
5.0750172136
 20
3.1596095514
 30
0.0
 11
5.0808569823
 21
3.1664292256
 31
0.0
 11
5.0792716591
 21
3.1644230391
 31
0.0
 11
5.0777686018
 21
3.1626124489
 31
0.0
 11
5.0763497925
 21
3.1610053285
 31
0.0
 11
5.0750172136
 21
3.1596095514
 31
0.0
  0
SPLINE
  5
3AD
100
AcDbEntity
  8
0
100
AcDbSpline
 62
9
  6
CONTINUOUS
 70
0
 71
3
 72
11
 73
7
 74
5
 42
0.0000001
 43
0.0000001
 44
0.0000000001
 12
-0.0313757873
 22
0.0216573495
 32
0.0
 13
-0.0269581232
 23
0.0269581232
 33
0.0
 40
0.0
 40
0.0
 40
0.0
 40
0.0
 40
0.2467924469
 40
0.4962971367
 40
0.7476666945
 40
1.0
 40
1.0
 40
1.0
 40
1.0
 10
5.0335913551
 20
3.3563924924
 30
0.0
 10
5.0310102526
 20
3.3581741158
 30
0.0
 10
5.0259089651
 20
3.3618879529
 30
0.0
 10
5.0184964552
 20
3.3678371616
 30
0.0
 10
5.0113051118
 20
3.3741587984
 30
0.0
 10
5.0066828032
 20
3.3785902865
 30
0.0
 10
5.0044153257
 20
3.380857764
 30
0.0
 11
5.0335913551
 21
3.3563924924
 31
0.0
 11
5.0259815763
 21
3.3619258199
 31
0.0
 11
5.0185605034
 21
3.3678765025
 31
0.0
 11
5.0113608491
 21
3.374201498
 31
0.0
 11
5.0044153257
 21
3.380857764
 31
0.0
  0
SPLINE
  5
3AE
100
AcDbEntity
  8
0
100
AcDbSpline
 62
9
  6
CONTINUOUS
 70
0
 71
3
 72
12
 73
8
 74
6
 42
0.0000001
 43
0.0000001
 44
0.0000000001
 12
-0.0417346491
 22
0.0189879473
 32
0.0
 13
-0.0324216215
 23
0.0324216215
 33
0.0
 40
0.0
 40
0.0
 40
0.0
 40
0.0
 40
0.2493582906
 40
0.3742533165
 40
0.4992638234
 40
0.749510259
 40
1.0
 40
1.0
 40
1.0
 40
1.0
 10
4.8688998951
 20
3.1818371958
 30
0.0
 10
4.8654309349
 20
3.1834154632
 30
0.0
 10
4.8603312586
 20
3.1860294849
 30
0.0
 10
4.8537916534
 20
3.1899647684
 30
0.0
 10
4.8474233599
 20
3.1941973823
 30
0.0
 10
4.8398190179
 20
3.2000185064
 30
0.0
 10
4.8341663506
 20
3.2051945998
 30
0.0
 10
4.8314592561
 20
3.2079016943
 30
0.0
 11
4.8688998951
 21
3.1818371958
 31
0.0
 11
4.8587229745
 21
3.187047935
 31
0.0
 11
4.8538159975
 21
3.1900000912
 31
0.0
 11
4.8490421198
 21
3.1931725369
 31
0.0
 11
4.839929993
 21
3.2001455928
 31
0.0
 11
4.8314592561
 21
3.2079016943
 31
0.0
  0
LINE
  5
3AF
100
AcDbEntity
  8
0
100
AcDbLine
 62
9
  6
CONTINUOUS
 10
5.2465204266
 20
3.668928369
 11
5.2331982224
 21
3.6556522446
  0
SPLINE
  5
3B0
100
AcDbEntity
  8
0
100
AcDbSpline
 62
9
  6
CONTINUOUS
 70
0
 71
3
 72
11
 73
7
 74
5
 42
0.0000001
 43
0.0000001
 44
0.0000000001
 12
-0.0269581232
 22
0.0269581232
 32
0.0
 13
-0.0216573495
 23
0.0313757873
 33
0.0
 40
0.0
 40
0.0
 40
0.0
 40
0.0
 40
0.2523333055
 40
0.5037028633
 40
0.7532075531
 40
1.0
 40
1.0
 40
1.0
 40
1.0
 10
5.0044153257
 20
3.380857764
 30
0.0
 10
5.0021478483
 20
3.3831252414
 30
0.0
 10
4.9977163601
 20
3.3877475501
 30
0.0
 10
4.9913947234
 20
3.3949388934
 30
0.0
 10
4.9854455146
 20
3.4023514033
 30
0.0
 10
4.9817316776
 20
3.4074526909
 30
0.0
 10
4.9799500542
 20
3.4100337933
 30
0.0
 11
5.0044153257
 21
3.380857764
 31
0.0
 11
4.9977590598
 21
3.3878032873
 31
0.0
 11
4.9914340643
 21
3.3950029417
 31
0.0
 11
4.9854833817
 21
3.4024240145
 31
0.0
 11
4.9799500542
 21
3.4100337933
 31
0.0
  0
SPLINE
  5
3B1
100
AcDbEntity
  8
0
100
AcDbSpline
 62
9
  6
CONTINUOUS
 70
0
 71
3
 72
17
 73
13
 74
11
 42
0.0000001
 43
0.0000001
 44
0.0000000001
 12
-0.249953333
 22
-0.2489786005
 32
0.0
 13
-0.2552606433
 23
-0.2435344249
 33
0.0
 40
0.0
 40
0.0
 40
0.0
 40
0.0
 40
0.0519624319
 40
0.1062490759
 40
0.1626629131
 40
0.2210068553
 40
0.342696411
 40
0.4697401885
 40
0.6005617986
 40
0.7335912538
 40
0.8672601391
 40
1.0
 40
1.0
 40
1.0
 40
1.0
 10
5.2331982224
 20
3.6556522446
 30
0.0
 10
5.228868828
 20
3.6513397334
 30
0.0
 10
5.2200038556
 20
3.6425343967
 30
0.0
 10
5.2063996846
 20
3.6290863722
 30
0.0
 10
5.1922325933
 20
3.6151403734
 30
0.0
 10
5.1723807325
 20
3.5956702858
 30
0.0
 10
5.146536433
 20
3.5704479734
 30
0.0
 10
5.1145115957
 20
3.5393554968
 30
0.0
 10
5.0814619138
 20
3.5074043183
 30
0.0
 10
5.0477885074
 20
3.4749775129
 30
0.0
 10
5.0138919104
 20
3.4424573848
 30
0.0
 10
4.9912444749
 20
3.4208093685
 30
0.0
 10
4.9799500542
 20
3.4100337933
 30
0.0
 11
5.2331982224
 21
3.6556522446
 31
0.0
 11
5.2201927369
 21
3.6427321044
 31
0.0
 11
5.2065729907
 21
3.6292668996
 31
0.0
 11
5.1923901342
 21
3.6153038962
 31
0.0
 11
5.1776953175
 21
3.6008903604
 31
0.0
 11
5.1469744046
 21
3.5709007566
 31
0.0
 11
5.1148194538
 21
3.5396762177
 31
0.0
 11
5.08163821
 21
3.5075955372
 31
0.0
 11
5.0478325894
 21
3.4750401643
 31
0.0
 11
5.0138030511
 21
3.4423922119
 31
0.0
 11
4.9799500542
 21
3.4100337933
 31
0.0
  0
SPLINE
  5
3B2
100
AcDbEntity
  8
0
100
AcDbSpline
 62
9
  6
CONTINUOUS
 70
0
 71
3
 72
12
 73
8
 74
6
 42
0.0000001
 43
0.0000001
 44
0.0000000001
 12
-0.0324216215
 22
0.0324216215
 32
0.0
 13
-0.0189879473
 23
0.0417346491
 33
0.0
 40
0.0
 40
0.0
 40
0.0
 40
0.0
 40
0.250489741
 40
0.5007361766
 40
0.6257466835
 40
0.7506417094
 40
1.0
 40
1.0
 40
1.0
 40
1.0
 10
4.8314592561
 20
3.2079016943
 30
0.0
 10
4.8287521615
 20
3.2106087888
 30
0.0
 10
4.8235760681
 20
3.2162614562
 30
0.0
 10
4.8177549441
 20
3.2238657981
 30
0.0
 10
4.8135223302
 20
3.2302340917
 30
0.0
 10
4.8095870467
 20
3.2367736969
 30
0.0
 10
4.8069730249
 20
3.2418733731
 30
0.0
 10
4.8053947576
 20
3.2453423334
 30
0.0
 11
4.8314592561
 21
3.2079016943
 31
0.0
 11
4.8237031546
 21
3.2163724312
 31
0.0
 11
4.8167300987
 21
3.225484558
 31
0.0
 11
4.813557653
 21
3.2302584357
 31
0.0
 11
4.8106054968
 21
3.2351654127
 31
0.0
 11
4.8053947576
 21
3.2453423334
 31
0.0
  0
SPLINE
  5
3B3
100
AcDbEntity
  8
0
100
AcDbSpline
 62
9
  6
CONTINUOUS
 70
0
 71
3
 72
18
 73
14
 74
12
 42
0.0000001
 43
0.0000001
 44
0.0000000001
 12
-0.1736392715
 22
-0.1656625933
 32
0.0
 13
-0.1773480138
 23
-0.1616860334
 33
0.0
 40
0.0
 40
0.0
 40
0.0
 40
0.0
 40
0.1423911371
 40
0.2853155858
 40
0.4258289528
 40
0.5609870454
 40
0.6880147775
 40
0.7478130983
 40
0.8048126484
 40
0.858772199
 40
0.9094506026
 40
0.9566068254
 40
1.0
 40
1.0
 40
1.0
 40
1.0
 10
4.9799500542
 20
3.4100337933
 30
0.0
 10
4.9717084897
 20
3.4021708316
 30
0.0
 10
4.9551927998
 20
3.3864172323
 30
0.0
 10
4.9305293263
 20
3.3629199932
 30
0.0
 10
4.9062613518
 20
3.339846483
 30
0.0
 10
4.8828813604
 20
3.3176846268
 30
0.0
 10
4.8641489161
 20
3.3000055911
 30
0.0
 10
4.8499336775
 20
3.2866497631
 30
0.0
 10
4.8399622873
 20
3.277313478
 30
0.0
 10
4.8305056024
 20
3.2684949332
 30
0.0
 10
4.8216048761
 20
3.2602348327
 30
0.0
 10
4.8133013858
 20
3.2525738577
 30
0.0
 10
4.8079599887
 20
3.2476810235
 30
0.0
 10
4.8053947576
 20
3.2453423334
 30
0.0
 11
4.9799500542
 21
3.4100337933
 31
0.0
 11
4.9552213229
 21
3.3864491414
 31
0.0
 11
4.9303856455
 21
3.3627911868
 31
0.0
 11
4.9059449011
 21
3.3395575912
 31
0.0
 11
4.8824009685
 21
3.3172460167
 31
0.0
 11
4.8602270364
 21
3.2963255184
 31
0.0
 11
4.8497676223
 21
3.2864995319
 31
0.0
 11
4.8397815323
 21
3.2771507242
 31
0.0
 11
4.8303099837
 21
3.2683198478
 31
0.0
 11
4.8213941936
 21
3.2600476555
 31
0.0
 11
4.8130753792
 21
3.2523748998
 31
0.0
 11
4.8053947576
 21
3.2453423334
 31
0.0
  0
SPLINE
  5
3B4
100
AcDbEntity
  8
0
100
AcDbSpline
 62
6
  6
CONTINUOUS
 70
0
 71
3
 72
17
 73
13
 74
11
 42
0.0000001
 43
0.0000001
 44
0.0000000001
 12
0.0845744919
 22
-0.1152626754
 32
0.0
 13
0.0174945942
 23
-0.1418882243
 33
0.0
 40
0.0
 40
0.0
 40
0.0
 40
0.0
 40
0.125035556
 40
0.2500507839
 40
0.3750260123
 40
0.4999901607
 40
0.6249741934
 40
0.7499763688
 40
0.8124856057
 40
0.8749926363
 40
0.9374969755
 40
1.0
 40
1.0
 40
1.0
 40
1.0
 10
6.6968547134
 20
3.4283477841
 30
0.0
 10
6.7003796529
 20
3.4235438066
 30
0.0
 10
6.70712465
 20
3.4137091091
 30
0.0
 10
6.7162868782
 20
3.3983516815
 30
0.0
 10
6.7244605789
 20
3.3824491109
 30
0.0
 10
6.731612245
 20
3.3660630908
 30
0.0
 10
6.7377084544
 20
3.3492546854
 30
0.0
 10
6.741885802
 20
3.3349492974
 30
0.0
 10
6.7446717098
 20
3.3233634221
 30
0.0
 10
6.7464800768
 20
3.3146104715
 30
0.0
 10
6.7480032213
 20
3.3058038827
 30
0.0
 10
6.7488273406
 20
3.2999027889
 30
0.0
 10
6.7491918289
 20
3.2969466411
 30
0.0
 11
6.6968547134
 21
3.4283477841
 31
0.0
 11
6.7069661655
 21
3.4136070539
 31
0.0
 11
6.7161233253
 21
3.3982586622
 31
0.0
 11
6.7242905861
 21
3.3823678415
 31
0.0
 11
6.7314359117
 21
3.365993775
 31
0.0
 11
6.7375275079
 21
3.3491961631
 31
0.0
 11
6.742535786
 21
3.3320416548
 31
0.0
 11
6.7446248752
 21
3.3233527809
 31
0.0
 11
6.7464325729
 21
3.3146013573
 31
0.0
 11
6.7479554079
 21
3.3057962859
 31
0.0
 11
6.7491918289
 21
3.2969466411
 31
0.0
  0
SPLINE
  5
3B5
100
AcDbEntity
  8
0
100
AcDbSpline
 62
9
  6
CONTINUOUS
 70
0
 71
3
 72
40
 73
36
 74
34
 42
0.0000001
 43
0.0000001
 44
0.0000000001
 12
-0.0797230433
 22
-0.0726825317
 32
0.0
 13
-0.0504137053
 23
0.0953780497
 33
0.0
 40
0.0
 40
0.0
 40
0.0
 40
0.0
 40
0.1186268078
 40
0.2301085032
 40
0.3343667726
 40
0.4313234493
 40
0.5209005702
 40
0.6030204584
 40
0.6776058515
 40
0.7445801043
 40
0.7751894264
 40
0.8038676988
 40
0.8306057136
 40
0.8553944269
 40
0.8782250165
 40
0.8990889687
 40
0.9179782103
 40
0.9348853206
 40
0.9498038856
 40
0.962729131
 40
0.9684436686
 40
0.9736595447
 40
0.9783774058
 40
0.9825985742
 40
0.9863254083
 40
0.9895619332
 40
0.9923150158
 40
0.9945967286
 40
0.995567749
 40
0.9964309092
 40
0.9971927471
 40
0.9978628627
 40
0.998984899
 40
0.9994909299
 40
1.0
 40
1.0
 40
1.0
 40
1.0
 10
4.8053947576
 20
3.2453423334
 30
0.0
 10
4.8022423275
 20
3.2424683011
 30
0.0
 10
4.7961202037
 20
3.2369011689
 30
0.0
 10
4.7872008783
 20
3.2288374388
 30
0.0
 10
4.7788354524
 20
3.2213231139
 30
0.0
 10
4.7710309122
 20
3.2143632269
 30
0.0
 10
4.7637942487
 20
3.2079628009
 30
0.0
 10
4.7571324728
 20
3.2021268268
 30
0.0
 10
4.7510525849
 20
3.1968603119
 30
0.0
 10
4.7463457201
 20
3.1928380561
 30
0.0
 10
4.7428749472
 20
3.1899106644
 30
0.0
 10
4.7405007536
 20
3.1879274206
 30
0.0
 10
4.738277241
 20
3.1860903493
 30
0.0
 10
4.7362052835
 20
3.1844000713
 30
0.0
 10
4.7342857646
 20
3.182857193
 30
0.0
 10
4.7325195707
 20
3.1814623099
 30
0.0
 10
4.7309075913
 20
3.1802160075
 30
0.0
 10
4.7294507301
 20
3.1791188198
 30
0.0
 10
4.7281498768
 20
3.1781713079
 30
0.0
 10
4.7271598621
 20
3.1774809983
 30
0.0
 10
4.7264454648
 20
3.1770059971
 30
0.0
 10
4.7259715726
 20
3.176702485
 30
0.0
 10
4.7255373192
 20
3.1764368369
 30
0.0
 10
4.7251428016
 20
3.1762090909
 30
0.0
 10
4.7247881194
 20
3.1760192651
 30
0.0
 10
4.7244733247
 20
3.1758672975
 30
0.0
 10
4.7241984647
 20
3.1757531798
 30
0.0
 10
4.7239927513
 20
3.1756860664
 30
0.0
 10
4.7238482284
 20
3.1756535719
 30
0.0
 10
4.7237557609
 20
3.1756400959
 30
0.0
 10
4.7236730723
 20
3.1756362239
 30
0.0
 10
4.7235815249
 20
3.1756433119
 30
0.0
 10
4.7235000991
 20
3.175669561
 30
0.0
 10
4.7234406965
 20
3.1757196591
 30
0.0
 10
4.7234196781
 20
3.1757500735
 30
0.0
 10
4.7234111234
 20
3.1757662582
 30
0.0
 11
4.8053947576
 21
3.2453423334
 31
0.0
 11
4.7959258308
 21
3.2367330178
 31
0.0
 11
4.787003741
 21
3.2286681727
 31
0.0
 11
4.7786354503
 21
3.2211528633
 31
0.0
 11
4.7708279208
 21
3.2141921547
 31
0.0
 11
4.7635881144
 21
3.2077911121
 31
0.0
 11
4.7569229933
 21
3.2019548009
 31
0.0
 11
4.7508395195
 21
3.1966882862
 31
0.0
 11
4.745344655
 21
3.1919966332
 31
0.0
 11
4.742820127
 21
3.1898679627
 31
0.0
 11
4.740445362
 21
3.1878849071
 31
0.0
 11
4.7382212304
 21
3.1860480996
 31
0.0
 11
4.7361486024
 21
3.1843581733
 31
0.0
 11
4.7342283484
 21
3.1828157613
 31
0.0
 11
4.7324613384
 21
3.1814214968
 31
0.0
 11
4.7308484429
 21
3.180176013
 31
0.0
 11
4.729390532
 21
3.179079943
 31
0.0
 11
4.728088476
 21
3.1781339199
 31
0.0
 11
4.7269431452
 21
3.177338577
 31
0.0
 11
4.7264295237
 21
3.1769976084
 31
0.0
 11
4.7259554099
 21
3.1766945473
 31
0.0
 11
4.7255209124
 21
3.1764294728
 31
0.0
 11
4.7251261402
 21
3.176202464
 31
0.0
 11
4.7247712019
 21
3.1760136001
 31
0.0
 11
4.7244562064
 21
3.1758629603
 31
0.0
 11
4.7241812625
 21
3.1757506237
 31
0.0
 11
4.7239464789
 21
3.1756766693
 31
0.0
 11
4.7238441812
 21
3.1756541103
 31
0.0
 11
4.7237519644
 21
3.1756411765
 31
0.0
 11
4.723669842
 21
3.1756378778
 31
0.0
 11
4.7235978278
 21
3.1756442242
 31
0.0
 11
4.7234841778
 21
3.1756858917
 31
0.0
 11
4.7234425694
 21
3.1757212326
 31
0.0
 11
4.7234111234
 21
3.1757662582
 31
0.0
  0
SPLINE
  5
3B6
100
AcDbEntity
  8
0
100
AcDbSpline
 62
9
  6
CONTINUOUS
 70
0
 71
3
 72
9
 73
5
 74
3
 42
0.0000001
 43
0.0000001
 44
0.0000000001
 12
-0.0000199864
 22
0.0000378125
 32
0.0
 13
-0.000013433
 23
0.0000406054
 33
0.0
 40
0.0
 40
0.0
 40
0.0
 40
0.0
 40
0.2444319956
 40
1.0
 40
1.0
 40
1.0
 40
1.0
 10
4.7234111234
 20
3.1757662582
 30
0.0
 10
4.7234094949
 20
3.175769339
 30
0.0
 10
4.7234031129
 20
3.1757820903
 30
0.0
 10
4.7233978521
 20
3.1757953944
 30
0.0
 10
4.7233944689
 20
3.1758056211
 30
0.0
 11
4.7234111234
 21
3.1757662582
 31
0.0
 11
4.723406442
 21
3.1757756057
 31
0.0
 11
4.7233944689
 21
3.1758056211
 31
0.0
  0
SPLINE
  5
3B7
100
AcDbEntity
  8
0
100
AcDbSpline
 62
9
  6
CONTINUOUS
 70
0
 71
3
 72
30
 73
26
 74
24
 42
0.0000001
 43
0.0000001
 44
0.0000000001
 12
-0.1054174111
 22
0.1527220252
 32
0.0
 13
0.1239930205
 23
0.1380672966
 33
0.0
 40
0.0
 40
0.0
 40
0.0
 40
0.0
 40
0.0663031256
 40
0.1316368878
 40
0.1958894366
 40
0.2589934474
 40
0.3209350716
 40
0.3817640492
 40
0.4416045606
 40
0.500665934
 40
0.5300038758
 40
0.5592701657
 40
0.588518712
 40
0.6178089419
 40
0.6472055885
 40
0.6767783686
 40
0.7066015529
 40
0.736753442
 40
0.7673157622
 40
0.7983730065
 40
0.8300117447
 40
0.862319933
 40
0.8953862466
 40
0.9292994604
 40
1.0
 40
1.0
 40
1.0
 40
1.0
 10
4.9799500542
 20
3.4100337933
 30
0.0
 10
4.9776202196
 20
3.4134091092
 30
0.0
 10
4.9731393975
 20
3.4202120334
 30
0.0
 10
4.9669647249
 20
3.4306436492
 30
0.0
 10
4.9614408721
 20
3.4412126328
 30
0.0
 10
4.9566287043
 20
3.4518956202
 30
0.0
 10
4.9525891949
 20
3.4626697076
 30
0.0
 10
4.949383875
 20
3.4735122959
 30
0.0
 10
4.9470749015
 20
3.4843998756
 30
0.0
 10
4.9459477092
 20
3.4935136956
 30
0.0
 10
4.9455612761
 20
3.5007842322
 30
0.0
 10
4.94553361
 20
3.5062207173
 30
0.0
 10
4.9457744184
 20
3.5116490042
 30
0.0
 10
4.9462904722
 20
3.5170663013
 30
0.0
 10
4.9470885728
 20
3.5224696436
 30
0.0
 10
4.9481754939
 20
3.5278560885
 30
0.0
 10
4.9495579906
 20
3.5332226682
 30
0.0
 10
4.9512427919
 20
3.5385664091
 30
0.0
 10
4.953236601
 20
3.5438843359
 30
0.0
 10
4.9555460909
 20
3.5491734747
 30
0.0
 10
4.9581779253
 20
3.5544308794
 30
0.0
 10
4.9611386911
 20
3.5596535567
 30
0.0
 10
4.9644351816
 20
3.5648387821
 30
0.0
 10
4.9693542645
 20
3.5717940561
 30
0.0
 10
4.9734732745
 20
3.5768009683
 30
0.0
 10
4.976395399
 20
3.5800547791
 30
0.0
 11
4.9799500542
 21
3.4100337933
 31
0.0
 11
4.9731904929
 21
3.4203146644
 31
0.0
 11
4.96702466
 21
3.4307538313
 31
0.0
 11
4.961513166
 21
3.441327013
 31
0.0
 11
4.9567166215
 21
3.4520099288
 31
0.0
 11
4.9526956373
 21
3.4627782977
 31
0.0
 11
4.9495108238
 21
3.473607839
 31
0.0
 11
4.9472227918
 21
3.4844742719
 31
0.0
 11
4.9458921519
 21
3.4953533154
 31
0.0
 11
4.9456046499
 21
3.5007900099
 31
0.0
 11
4.9455783581
 21
3.5062209408
 31
0.0
 11
4.9458199873
 21
3.5116432615
 31
0.0
 11
4.9463362483
 21
3.5170541257
 31
0.0
 11
4.947133852
 21
3.5224506868
 31
0.0
 11
4.9482195091
 21
3.5278300985
 31
0.0
 11
4.9495999305
 21
3.5331895143
 31
0.0
 11
4.9512818269
 21
3.5385260878
 31
0.0
 11
4.9532719092
 21
3.5438369725
 31
0.0
 11
4.9555768883
 21
3.549119322
 31
0.0
 11
4.9582034749
 21
3.5543702899
 31
0.0
 11
4.9611583798
 21
3.5595870296
 31
0.0
 11
4.9644483138
 21
3.5647666949
 31
0.0
 11
4.9680799878
 21
3.5699064392
 31
0.0
 11
4.976395399
 21
3.5800547791
 31
0.0
  0
SPLINE
  5
3B8
100
AcDbEntity
  8
0
100
AcDbSpline
 62
9
  6
CONTINUOUS
 70
0
 71
3
 72
24
 73
20
 74
18
 42
0.0000001
 43
0.0000001
 44
0.0000000001
 12
-0.1181878225
 22
0.2597714865
 32
0.0
 13
0.1898676589
 23
0.213072426
 33
0.0
 40
0.0
 40
0.0
 40
0.0
 40
0.0
 40
0.0531300888
 40
0.1065385914
 40
0.1603695698
 40
0.2147907289
 40
0.2699934786
 40
0.3261922345
 40
0.3836229546
 40
0.4425409797
 40
0.5032180581
 40
0.5659328027
 40
0.630960682
 40
0.6985716268
 40
0.733432917
 40
0.7690379095
 40
0.8425966003
 40
0.9195042323
 40
1.0
 40
1.0
 40
1.0
 40
1.0
 10
4.8053947576
 20
3.2453423334
 30
0.0
 10
4.8033016477
 20
3.2499428941
 30
0.0
 10
4.7994468002
 20
3.2593285142
 30
0.0
 10
4.7947347098
 20
3.2738537589
 30
0.0
 10
4.7911310789
 20
3.2888208241
 30
0.0
 10
4.7886870995
 20
3.3041935887
 30
0.0
 10
4.7874533434
 20
3.3199369629
 30
0.0
 10
4.787480421
 20
3.3360152636
 30
0.0
 10
4.7888186713
 20
3.3523926764
 30
0.0
 10
4.7915182591
 20
3.3690332977
 30
0.0
 10
4.7956285509
 20
3.3859002064
 30
0.0
 10
4.8011803687
 20
3.4029606721
 30
0.0
 10
4.8082045683
 20
3.4201829175
 30
0.0
 10
4.8152382368
 20
3.4344956715
 30
0.0
 10
4.8216047897
 20
3.4459872761
 30
0.0
 10
4.8286290897
 20
3.4577534215
 30
0.0
 10
4.8384236504
 20
3.4725126239
 30
0.0
 10
4.8516485671
 20
3.4900727794
 30
0.0
 10
4.8613221793
 20
3.5015142722
 30
0.0
 10
4.8664166936
 20
3.5072314151
 30
0.0
 11
4.8053947576
 21
3.2453423334
 31
0.0
 11
4.7996370427
 21
3.2593696328
 31
0.0
 11
4.7949357468
 21
3.2738689489
 31
0.0
 11
4.7913406992
 21
3.2888054192
 31
0.0
 11
4.7889017289
 21
3.3041441811
 31
0.0
 11
4.7876686652
 21
3.3198503719
 31
0.0
 11
4.787691337
 21
3.3358891289
 31
0.0
 11
4.7890195738
 21
3.3522255897
 31
0.0
 11
4.7917032044
 21
3.3688248915
 31
0.0
 11
4.7957890721
 21
3.3856528226
 31
0.0
 11
4.8013120722
 21
3.4026777758
 31
0.0
 11
4.8083041127
 21
3.4198687948
 31
0.0
 11
4.8167971014
 21
3.4371949237
 31
0.0
 11
4.8216164224
 21
3.4458989805
 31
0.0
 11
4.826822946
 21
3.4546252062
 31
0.0
 11
4.8384135543
 21
3.4721286864
 31
0.0
 11
4.8516008343
 21
3.489674408
 31
0.0
 11
4.8664166936
 21
3.5072314151
 31
0.0
  0
SPLINE
  5
3B9
100
AcDbEntity
  8
0
100
AcDbSpline
 62
6
  6
CONTINUOUS
 70
0
 71
3
 72
10
 73
6
 74
4
 42
0.0000001
 43
0.0000001
 44
0.0000000001
 12
-0.0489787726
 22
-0.0321130761
 32
0.0
 13
-0.0494621252
 23
-0.0313634818
 33
0.0
 40
0.0
 40
0.0
 40
0.0
 40
0.0
 40
0.5196307735
 40
0.7648880291
 40
1.0
 40
1.0
 40
1.0
 40
1.0
 10
4.9156696353
 20
3.5389217987
 30
0.0
 10
4.9071860095
 20
3.5333594845
 30
0.0
 10
4.8946545064
 20
3.5252384233
 30
0.0
 10
4.8782083603
 20
3.5147191762
 30
0.0
 10
4.8702931961
 20
3.5096894698
 30
0.0
 10
4.8664168168
 20
3.5072314932
 30
0.0
 11
4.9156696353
 21
3.5389217987
 31
0.0
 11
4.8901371888
 21
3.522359933
 31
0.0
 11
4.8780376146
 21
3.5146185594
 31
0.0
 11
4.8664168168
 21
3.5072314932
 31
0.0
  0
LINE
  5
3BA
100
AcDbEntity
  8
0
100
AcDbLine
 62
6
  6
CONTINUOUS
 10
4.8664168168
 20
3.5072314932
 11
4.840898063
 21
3.4910946101
  0
LINE
  5
3BB
100
AcDbEntity
  8
0
100
AcDbLine
 62
6
  6
CONTINUOUS
 10
4.840898063
 20
3.4910946101
 11
4.8341901369
 21
3.4868461286
  0
SPLINE
  5
3BC
100
AcDbEntity
  8
0
100
AcDbSpline
 62
6
  6
CONTINUOUS
 70
0
 71
3
 72
17
 73
13
 74
11
 42
0.0000001
 43
0.0000001
 44
0.0000000001
 12
-0.044907518
 22
-0.0284932418
 32
0.0
 13
-0.0420642846
 23
-0.0325445227
 33
0.0
 40
0.0
 40
0.0
 40
0.0
 40
0.0
 40
0.1551902966
 40
0.3025818242
 40
0.4417851574
 40
0.5724136494
 40
0.6940461754
 40
0.8061842648
 40
0.8585376296
 40
0.9083328604
 40
0.9555106153
 40
1.0
 40
1.0
 40
1.0
 40
1.0
 10
4.8341901369
 20
3.4868461286
 30
0.0
 10
4.8318670666
 20
3.4853721704
 30
0.0
 10
4.8273400546
 20
3.4824945556
 30
0.0
 10
4.8207431012
 20
3.4782731266
 30
0.0
 10
4.814531255
 20
3.4742578484
 30
0.0
 10
4.8087273629
 20
3.470452861
 30
0.0
 10
4.8033563252
 20
3.4668631662
 30
0.0
 10
4.7991738091
 20
3.4639929601
 30
0.0
 10
4.7960696328
 20
3.4618029872
 30
0.0
 10
4.7939218301
 20
3.4602553345
 30
0.0
 10
4.7919044077
 20
3.4587654942
 30
0.0
 10
4.7906105838
 20
3.457782058
 30
0.0
 10
4.7899867791
 20
3.4572994294
 30
0.0
 11
4.8341901369
 21
3.4868461286
 31
0.0
 11
4.8272256665
 21
3.4824167912
 31
0.0
 11
4.8206241628
 21
3.4781896988
 31
0.0
 11
4.8144080716
 21
3.4741684265
 31
0.0
 11
4.8085998504
 21
3.4703565522
 31
0.0
 11
4.8032240776
 21
3.4667582235
 31
0.0
 11
4.7983099576
 21
3.4633788298
 31
0.0
 11
4.7960353341
 21
3.4617729689
 31
0.0
 11
4.7938873039
 21
3.460223924
 31
0.0
 11
4.7918696333
 21
3.4587324067
 31
0.0
 11
4.7899867791
 21
3.4572994294
 31
0.0
  0
SPLINE
  5
3BD
100
AcDbEntity
  8
0
100
AcDbSpline
 62
6
  6
CONTINUOUS
 70
0
 71
3
 72
11
 73
7
 74
5
 42
0.0000001
 43
0.0000001
 44
0.0000000001
 12
-0.0071053567
 22
-0.0054973107
 32
0.0
 13
-0.0063491608
 23
-0.0063556806
 33
0.0
 40
0.0
 40
0.0
 40
0.0
 40
0.0
 40
0.2846225394
 40
0.5465610173
 40
0.7851931034
 40
1.0
 40
1.0
 40
1.0
 40
1.0
 10
4.7899867791
 20
3.4572994294
 30
0.0
 10
4.7893126642
 20
3.4567778765
 30
0.0
 10
4.7880273254
 20
3.4557643796
 30
0.0
 10
4.7862158321
 20
3.4542648891
 30
0.0
 10
4.7846068628
 20
3.4528500042
 30
0.0
 10
4.7836217277
 20
3.4519147332
 30
0.0
 10
4.7831671132
 20
3.4514596518
 30
0.0
 11
4.7899867791
 21
3.4572994294
 31
0.0
 11
4.7879805926
 21
3.455714106
 31
0.0
 11
4.7861700055
 21
3.4542110455
 31
0.0
 11
4.7845628886
 21
3.4527922325
 31
0.0
 11
4.7831671132
 21
3.4514596518
 31
0.0
  0
LINE
  5
3BE
100
AcDbEntity
  8
0
100
AcDbLine
 62
9
  6
CONTINUOUS
 10
6.214550711
 20
3.668928369
 11
6.2278729153
 21
3.6556522446
  0
SPLINE
  5
3BF
100
AcDbEntity
  8
0
100
AcDbSpline
 62
9
  6
CONTINUOUS
 70
0
 71
3
 72
30
 73
26
 74
24
 42
0.0000001
 43
0.0000001
 44
0.0000000001
 12
0.1240119278
 22
-0.1380663944
 32
0.0
 13
-0.1054242066
 23
-0.1527318701
 33
0.0
 40
0.0
 40
0.0
 40
0.0
 40
0.0
 40
0.0707034056
 40
0.1046177654
 40
0.1376850436
 40
0.1699940237
 40
0.2016333907
 40
0.2326911111
 40
0.263253766
 40
0.2934058603
 40
0.3232291325
 40
0.3528018959
 40
0.3821984339
 40
0.4114884757
 40
0.4407367667
 40
0.4700027455
 40
0.4993403314
 40
0.5584008985
 40
0.61824054
 40
0.6790686383
 40
0.7410094105
 40
0.8041126191
 40
0.8683644255
 40
0.9336975051
 40
1.0
 40
1.0
 40
1.0
 40
1.0
 10
6.4846677416
 20
3.5800636832
 30
0.0
 10
6.4875904301
 20
3.5768097618
 30
0.0
 10
6.4917102631
 20
3.5718026636
 30
0.0
 10
6.4966303934
 20
3.5648470805
 30
0.0
 10
6.4999276017
 20
3.5596616292
 30
0.0
 10
6.5028890379
 20
3.5544387172
 30
0.0
 10
6.5055214962
 20
3.5491810695
 30
0.0
 10
6.5078315647
 20
3.5438916801
 30
0.0
 10
6.5098259082
 20
3.5385734951
 30
0.0
 10
6.5115112006
 20
3.5332294894
 30
0.0
 10
6.5128941464
 20
3.5278626385
 30
0.0
 10
6.5139814755
 20
3.5224759166
 30
0.0
 10
6.5147799443
 20
3.517072292
 30
0.0
 10
6.5152963274
 20
3.5116547078
 30
0.0
 10
6.5155374274
 20
3.5062261296
 30
0.0
 10
6.5155100164
 20
3.5007893494
 30
0.0
 10
6.5151238771
 20
3.4935184181
 30
0.0
 10
6.5139969653
 20
3.4844040914
 30
0.0
 10
6.5116881957
 20
3.4735158946
 30
0.0
 10
6.5084829598
 20
3.4626726876
 30
0.0
 10
6.5044434251
 20
3.4518979835
 30
0.0
 10
6.4996311333
 20
3.4412143851
 30
0.0
 10
6.494107068
 20
3.4306447997
 30
0.0
 10
6.4879321045
 20
3.4202125952
 30
0.0
 10
6.4834510461
 20
3.4134092947
 30
0.0
 10
6.4811210835
 20
3.4100337933
 30
0.0
 11
6.4846677416
 21
3.5800636832
 31
0.0
 11
6.492984832
 21
3.5699149383
 31
0.0
 11
6.4966172705
 21
3.5647749771
 31
0.0
 11
6.4999079205
 21
3.5595950859
 31
0.0
 11
6.5028634938
 21
3.5543781117
 31
0.0
 11
6.5054907024
 21
3.5491269013
 31
0.0
 11
6.5077962582
 21
3.5438443018
 31
0.0
 11
6.5097868732
 21
3.5385331599
 31
0.0
 11
6.5114692593
 21
3.5331963227
 31
0.0
 11
6.5128501284
 21
3.5278366369
 31
0.0
 11
6.5139361924
 21
3.5224569496
 31
0.0
 11
6.5147341632
 21
3.5170601077
 31
0.0
 11
6.5152507529
 21
3.5116489579
 31
0.0
 11
6.5154926733
 21
3.5062263474
 31
0.0
 11
6.5154666363
 21
3.5007951229
 31
0.0
 11
6.5151793539
 21
3.4953581314
 31
0.0
 11
6.5138490506
 21
3.4844784857
 31
0.0
 11
6.5115612258
 21
3.4736114427
 31
0.0
 11
6.5083765002
 21
3.4627812872
 31
0.0
 11
6.5043554944
 21
3.4520123041
 31
0.0
 11
6.4995588291
 21
3.4413287783
 31
0.0
 11
6.4940471251
 21
3.4307549947
 31
0.0
 11
6.487881003
 21
3.420315238
 31
0.0
 11
6.4811210835
 21
3.4100337933
 31
0.0
  0
SPLINE
  5
3C0
100
AcDbEntity
  8
0
100
AcDbSpline
 62
9
  6
CONTINUOUS
 70
0
 71
3
 72
17
 73
13
 74
11
 42
0.0000001
 43
0.0000001
 44
0.0000000001
 12
0.249953333
 22
-0.2489786005
 32
0.0
 13
0.2552606433
 23
-0.2435344249
 33
0.0
 40
0.0
 40
0.0
 40
0.0
 40
0.0
 40
0.0519624319
 40
0.1062490759
 40
0.1626629131
 40
0.2210068553
 40
0.342696411
 40
0.4697401885
 40
0.6005617986
 40
0.7335912538
 40
0.8672601391
 40
1.0
 40
1.0
 40
1.0
 40
1.0
 10
6.2278729153
 20
3.6556522446
 30
0.0
 10
6.2322023096
 20
3.6513397334
 30
0.0
 10
6.2410672821
 20
3.6425343967
 30
0.0
 10
6.2546714531
 20
3.6290863722
 30
0.0
 10
6.2688385443
 20
3.6151403734
 30
0.0
 10
6.2886904052
 20
3.5956702858
 30
0.0
 10
6.3145347046
 20
3.5704479734
 30
0.0
 10
6.346559542
 20
3.5393554968
 30
0.0
 10
6.3796092239
 20
3.5074043183
 30
0.0
 10
6.4132826303
 20
3.4749775129
 30
0.0
 10
6.4471792273
 20
3.4424573848
 30
0.0
 10
6.4698266627
 20
3.4208093685
 30
0.0
 10
6.4811210835
 20
3.4100337933
 30
0.0
 11
6.2278729153
 21
3.6556522446
 31
0.0
 11
6.2408784008
 21
3.6427321044
 31
0.0
 11
6.2544981469
 21
3.6292668996
 31
0.0
 11
6.2686810035
 21
3.6153038962
 31
0.0
 11
6.2833758202
 21
3.6008903604
 31
0.0
 11
6.3140967331
 21
3.5709007566
 31
0.0
 11
6.3462516838
 21
3.5396762177
 31
0.0
 11
6.3794329276
 21
3.5075955372
 31
0.0
 11
6.4132385482
 21
3.4750401643
 31
0.0
 11
6.4472680865
 21
3.4423922119
 31
0.0
 11
6.4811210835
 21
3.4100337933
 31
0.0
  0
SPLINE
  5
3C1
100
AcDbEntity
  8
0
100
AcDbSpline
 62
9
  6
CONTINUOUS
 70
0
 71
3
 72
24
 73
20
 74
18
 42
0.0000001
 43
0.0000001
 44
0.0000000001
 12
0.1898676589
 22
-0.213072426
 32
0.0
 13
-0.1181878225
 23
-0.2597714865
 33
0.0
 40
0.0
 40
0.0
 40
0.0
 40
0.0
 40
0.0804957677
 40
0.1574033997
 40
0.2309620905
 40
0.266567083
 40
0.3014283732
 40
0.369039318
 40
0.4340671973
 40
0.4967819419
 40
0.5574590203
 40
0.6163770454
 40
0.6738077655
 40
0.7300065214
 40
0.7852092711
 40
0.8396304302
 40
0.8934614086
 40
0.9468699112
 40
1.0
 40
1.0
 40
1.0
 40
1.0
 10
6.594654444
 20
3.5072314151
 30
0.0
 10
6.5997489583
 20
3.5015142722
 30
0.0
 10
6.6094225705
 20
3.4900727794
 30
0.0
 10
6.6226474873
 20
3.4725126239
 30
0.0
 10
6.6324420479
 20
3.4577534215
 30
0.0
 10
6.639466348
 20
3.4459872761
 30
0.0
 10
6.6458329009
 20
3.4344956715
 30
0.0
 10
6.6528665694
 20
3.4201829175
 30
0.0
 10
6.6598907689
 20
3.4029606721
 30
0.0
 10
6.6654425868
 20
3.3859002064
 30
0.0
 10
6.6695528786
 20
3.3690332977
 30
0.0
 10
6.6722524663
 20
3.3523926764
 30
0.0
 10
6.6735907166
 20
3.3360152636
 30
0.0
 10
6.6736177943
 20
3.3199369629
 30
0.0
 10
6.6723840381
 20
3.3041935887
 30
0.0
 10
6.6699400588
 20
3.2888208241
 30
0.0
 10
6.6663364279
 20
3.2738537589
 30
0.0
 10
6.6616243375
 20
3.2593285142
 30
0.0
 10
6.6577694899
 20
3.2499428941
 30
0.0
 10
6.6556763801
 20
3.2453423334
 30
0.0
 11
6.594654444
 21
3.5072314151
 31
0.0
 11
6.6094703034
 21
3.489674408
 31
0.0
 11
6.6226575833
 21
3.4721286864
 31
0.0
 11
6.6342481917
 21
3.4546252062
 31
0.0
 11
6.6394547152
 21
3.4458989805
 31
0.0
 11
6.6442740363
 21
3.4371949237
 31
0.0
 11
6.6527670249
 21
3.4198687948
 31
0.0
 11
6.6597590654
 21
3.4026777758
 31
0.0
 11
6.6652820656
 21
3.3856528226
 31
0.0
 11
6.6693679332
 21
3.3688248915
 31
0.0
 11
6.6720515639
 21
3.3522255897
 31
0.0
 11
6.6733798006
 21
3.3358891289
 31
0.0
 11
6.6734024725
 21
3.3198503719
 31
0.0
 11
6.6721694087
 21
3.3041441811
 31
0.0
 11
6.6697304385
 21
3.2888054192
 31
0.0
 11
6.6661353908
 21
3.2738689489
 31
0.0
 11
6.661434095
 21
3.2593696328
 31
0.0
 11
6.6556763801
 21
3.2453423334
 31
0.0
  0
SPLINE
  5
3C2
100
AcDbEntity
  8
0
100
AcDbSpline
 62
9
  6
CONTINUOUS
 70
0
 71
3
 72
18
 73
14
 74
12
 42
0.0000001
 43
0.0000001
 44
0.0000000001
 12
0.1736392715
 22
-0.1656625933
 32
0.0
 13
0.1773480138
 23
-0.1616860334
 33
0.0
 40
0.0
 40
0.0
 40
0.0
 40
0.0
 40
0.1423911371
 40
0.2853155858
 40
0.4258289528
 40
0.5609870454
 40
0.6880147775
 40
0.7478130983
 40
0.8048126484
 40
0.858772199
 40
0.9094506026
 40
0.9566068254
 40
1.0
 40
1.0
 40
1.0
 40
1.0
 10
6.4811210835
 20
3.4100337933
 30
0.0
 10
6.4893626479
 20
3.4021708316
 30
0.0
 10
6.5058783379
 20
3.3864172323
 30
0.0
 10
6.5305418114
 20
3.3629199932
 30
0.0
 10
6.5548097859
 20
3.339846483
 30
0.0
 10
6.5781897772
 20
3.3176846268
 30
0.0
 10
6.5969222216
 20
3.3000055911
 30
0.0
 10
6.6111374602
 20
3.2866497631
 30
0.0
 10
6.6211088503
 20
3.277313478
 30
0.0
 10
6.6305655353
 20
3.2684949332
 30
0.0
 10
6.6394662616
 20
3.2602348327
 30
0.0
 10
6.6477697518
 20
3.2525738577
 30
0.0
 10
6.653111149
 20
3.2476810235
 30
0.0
 10
6.6556763801
 20
3.2453423334
 30
0.0
 11
6.4811210835
 21
3.4100337933
 31
0.0
 11
6.5058498148
 21
3.3864491414
 31
0.0
 11
6.5306854921
 21
3.3627911868
 31
0.0
 11
6.5551262366
 21
3.3395575912
 31
0.0
 11
6.5786701692
 21
3.3172460167
 31
0.0
 11
6.6008441013
 21
3.2963255184
 31
0.0
 11
6.6113035154
 21
3.2864995319
 31
0.0
 11
6.6212896053
 21
3.2771507242
 31
0.0
 11
6.6307611539
 21
3.2683198478
 31
0.0
 11
6.639676944
 21
3.2600476555
 31
0.0
 11
6.6479957585
 21
3.2523748998
 31
0.0
 11
6.6556763801
 21
3.2453423334
 31
0.0
  0
SPLINE
  5
3C3
100
AcDbEntity
  8
0
100
AcDbSpline
 62
9
  6
CONTINUOUS
 70
0
 71
3
 72
40
 73
36
 74
34
 42
0.0000001
 43
0.0000001
 44
0.0000000001
 12
0.0797230457
 22
-0.0726825339
 32
0.0
 13
0.0504123982
 23
0.0953787442
 33
0.0
 40
0.0
 40
0.0
 40
0.0
 40
0.0
 40
0.1186268557
 40
0.2301085928
 40
0.3343668976
 40
0.4313236033
 40
0.5209007466
 40
0.6030206507
 40
0.6776060529
 40
0.744580308
 40
0.7751896286
 40
0.8038678978
 40
0.8306059078
 40
0.8553946143
 40
0.8782251955
 40
0.8990891375
 40
0.9179783671
 40
0.9348854636
 40
0.949804013
 40
0.962729241
 40
0.9684437693
 40
0.9736596356
 40
0.9783774866
 40
0.9825986445
 40
0.9863254677
 40
0.9895619814
 40
0.9923150527
 40
0.9945967541
 40
0.9955677689
 40
0.9964309238
 40
0.9971927568
 40
0.9978628679
 40
0.9989848982
 40
0.9994909286
 40
1.0
 40
1.0
 40
1.0
 40
1.0
 10
6.6556763801
 20
3.2453423334
 30
0.0
 10
6.6588288115
 20
3.2424682999
 30
0.0
 10
6.6649509379
 20
3.2369011653
 30
0.0
 10
6.6738702669
 20
3.228837432
 30
0.0
 10
6.6822356959
 20
3.2213231044
 30
0.0
 10
6.6900402387
 20
3.2143632151
 30
0.0
 10
6.6972769043
 20
3.2079627873
 30
0.0
 10
6.7039386817
 20
3.202126812
 30
0.0
 10
6.7100185707
 20
3.1968602965
 30
0.0
 10
6.714725436
 20
3.1928380404
 30
0.0
 10
6.718196209
 20
3.1899106489
 30
0.0
 10
6.7205704025
 20
3.1879274053
 30
0.0
 10
6.7227939149
 20
3.1860903344
 30
0.0
 10
6.724865872
 20
3.1844000568
 30
0.0
 10
6.7267853903
 20
3.1828571792
 30
0.0
 10
6.7285515835
 20
3.181462297
 30
0.0
 10
6.7301635621
 20
3.1802159955
 30
0.0
 10
6.7316204223
 20
3.1791188089
 30
0.0
 10
6.7329212745
 20
3.1781712981
 30
0.0
 10
6.7339112881
 20
3.1774809897
 30
0.0
 10
6.7346256845
 20
3.1770059895
 30
0.0
 10
6.735099576
 20
3.1767024781
 30
0.0
 10
6.7355338286
 20
3.1764368308
 30
0.0
 10
6.7359283454
 20
3.1762090856
 30
0.0
 10
6.7362830268
 20
3.1760192607
 30
0.0
 10
6.7365978206
 20
3.1758672941
 30
0.0
 10
6.7368726797
 20
3.1757531773
 30
0.0
 10
6.7370783923
 20
3.1756860647
 30
0.0
 10
6.7372229145
 20
3.1756535709
 30
0.0
 10
6.7373153815
 20
3.1756400955
 30
0.0
 10
6.7373980696
 20
3.175636224
 30
0.0
 10
6.7374896164
 20
3.1756433127
 30
0.0
 10
6.7375710416
 20
3.1756695626
 30
0.0
 10
6.7376304433
 20
3.1757196615
 30
0.0
 10
6.7376514613
 20
3.1757500761
 30
0.0
 10
6.7376600158
 20
3.175766261
 30
0.0
 11
6.6556763801
 21
3.2453423334
 31
0.0
 11
6.665145311
 21
3.2367330141
 31
0.0
 11
6.6740674044
 21
3.2286681658
 31
0.0
 11
6.6824356982
 21
3.2211528536
 31
0.0
 11
6.6902432304
 21
3.2141921427
 31
0.0
 11
6.6974830388
 21
3.2077910984
 31
0.0
 11
6.7041481615
 21
3.201954786
 31
0.0
 11
6.7102316363
 21
3.1966882706
 31
0.0
 11
6.7157265012
 21
3.1919966174
 31
0.0
 11
6.7182510293
 21
3.1898679471
 31
0.0
 11
6.7206257942
 21
3.1878848918
 31
0.0
 11
6.7228499255
 21
3.1860480846
 31
0.0
 11
6.7249225531
 21
3.1843581588
 31
0.0
 11
6.7268428066
 21
3.1828157475
 31
0.0
 11
6.7286098158
 21
3.1814214838
 31
0.0
 11
6.7302227106
 21
3.180176001
 31
0.0
 11
6.7316806205
 21
3.179079932
 31
0.0
 11
6.7329826753
 21
3.1781339102
 31
0.0
 11
6.7341280048
 21
3.1773385686
 31
0.0
 11
6.7346416256
 21
3.1769976008
 31
0.0
 11
6.7351157388
 21
3.1766945404
 31
0.0
 11
6.7355502354
 21
3.1764294667
 31
0.0
 11
6.7359450069
 21
3.1762024588
 31
0.0
 11
6.7362999443
 21
3.1760135958
 31
0.0
 11
6.7366149389
 21
3.1758629569
 31
0.0
 11
6.7368898819
 21
3.1757506212
 31
0.0
 11
6.7371246646
 21
3.1756766679
 31
0.0
 11
6.7372269618
 21
3.1756541093
 31
0.0
 11
6.7373191781
 21
3.175641176
 31
0.0
 11
6.7374012999
 21
3.1756378779
 31
0.0
 11
6.7374733136
 21
3.1756442249
 31
0.0
 11
6.7375869625
 21
3.1756858935
 31
0.0
 11
6.7376285704
 21
3.1757212349
 31
0.0
 11
6.7376600158
 21
3.175766261
 31
0.0
  0
SPLINE
  5
3C4
100
AcDbEntity
  8
0
100
AcDbSpline
 62
9
  6
CONTINUOUS
 70
0
 71
3
 72
9
 73
5
 74
3
 42
0.0000001
 43
0.0000001
 44
0.0000000001
 12
0.0000199846
 22
0.0000378102
 32
0.0
 13
0.000013432
 23
0.0000406026
 33
0.0
 40
0.0
 40
0.0
 40
0.0
 40
0.0
 40
0.2444322649
 40
1.0
 40
1.0
 40
1.0
 40
1.0
 10
6.7376600158
 20
3.175766261
 30
0.0
 10
6.7376616441
 20
3.1757693417
 30
0.0
 10
6.7376680255
 20
3.1757820922
 30
0.0
 10
6.7376732859
 20
3.1757953954
 30
0.0
 10
6.7376766689
 20
3.1758056214
 30
0.0
 11
6.7376600158
 21
3.175766261
 31
0.0
 11
6.7376646968
 21
3.175775608
 31
0.0
 11
6.7376766689
 21
3.1758056214
 31
0.0
  0
LINE
  5
3C5
100
AcDbEntity
  8
0
100
AcDbLine
 62
6
  6
CONTINUOUS
 10
6.594654444
 20
3.5072314151
 11
6.6201729014
 21
3.4910942731
  0
LINE
  5
3C6
100
AcDbEntity
  8
0
100
AcDbLine
 62
6
  6
CONTINUOUS
 10
6.6201729014
 20
3.4910942731
 11
6.6268805886
 21
3.4868457123
  0
SPLINE
  5
3C7
100
AcDbEntity
  8
0
100
AcDbSpline
 62
6
  6
CONTINUOUS
 70
0
 71
3
 72
17
 73
13
 74
11
 42
0.0000001
 43
0.0000001
 44
0.0000000001
 12
0.0449076282
 22
-0.0284933117
 32
0.0
 13
0.0420643498
 23
-0.0325446517
 33
0.0
 40
0.0
 40
0.0
 40
0.0
 40
0.0
 40
0.1551902664
 40
0.3025821927
 40
0.4417860154
 40
0.5724147677
 40
0.6940471729
 40
0.8061849219
 40
0.8585380929
 40
0.9083331415
 40
0.9555107416
 40
1.0
 40
1.0
 40
1.0
 40
1.0
 10
6.6268805886
 20
3.4868457123
 30
0.0
 10
6.6292036642
 20
3.4853717508
 30
0.0
 10
6.6337307226
 20
3.4824941724
 30
0.0
 10
6.6403278057
 20
3.4782728824
 30
0.0
 10
6.6465397996
 20
3.4742577619
 30
0.0
 10
6.6523438007
 20
3.470452889
 30
0.0
 10
6.6577148704
 20
3.4668632193
 30
0.0
 10
6.6618973751
 20
3.4639929949
 30
0.0
 10
6.6650015321
 20
3.4618030004
 30
0.0
 10
6.6671493204
 20
3.4602553327
 30
0.0
 10
6.669166733
 20
3.4587654826
 30
0.0
 10
6.6704605538
 20
3.457782044
 30
0.0
 10
6.6710843577
 20
3.4572994148
 30
0.0
 11
6.6268805886
 21
3.4868457123
 31
0.0
 11
6.6338451156
 21
3.4824164292
 31
0.0
 11
6.6404467486
 21
3.4781894636
 31
0.0
 11
6.6466629848
 21
3.4741683343
 31
0.0
 11
6.6524713104
 21
3.4703565626
 31
0.0
 11
6.6578471157
 21
3.4667582655
 31
0.0
 11
6.6627612215
 21
3.4633788572
 31
0.0
 11
6.6650358305
 21
3.4617729818
 31
0.0
 11
6.6671838467
 21
3.460223923
 31
0.0
 11
6.6692015077
 21
3.4587323962
 31
0.0
 11
6.6710843577
 21
3.4572994148
 31
0.0
  0
SPLINE
  5
3C8
100
AcDbEntity
  8
0
100
AcDbSpline
 62
6
  6
CONTINUOUS
 70
0
 71
3
 72
11
 73
7
 74
5
 42
0.0000001
 43
0.0000001
 44
0.0000000001
 12
0.0071053432
 22
-0.0054973136
 32
0.0
 13
0.0063491545
 23
-0.0063556743
 33
0.0
 40
0.0
 40
0.0
 40
0.0
 40
0.0
 40
0.284622493
 40
0.546560984
 40
0.7851930919
 40
1.0
 40
1.0
 40
1.0
 40
1.0
 10
6.6710843577
 20
3.4572994148
 30
0.0
 10
6.6717584712
 20
3.4567778618
 30
0.0
 10
6.6730438087
 20
3.4557643661
 30
0.0
 10
6.6748553031
 20
3.4542648807
 30
0.0
 10
6.6764642746
 20
3.4528500013
 30
0.0
 10
6.6774494104
 20
3.4519147327
 30
0.0
 10
6.6779040245
 20
3.4514596518
 30
0.0
 11
6.6710843577
 21
3.4572994148
 31
0.0
 11
6.6730905418
 21
3.4557140933
 31
0.0
 11
6.67490113
 21
3.4542110374
 31
0.0
 11
6.6765082487
 21
3.4527922295
 31
0.0
 11
6.6779040245
 21
3.4514596518
 31
0.0
  0
SPLINE
  5
3C9
100
AcDbEntity
  8
0
100
AcDbSpline
 62
9
  6
CONTINUOUS
 70
0
 71
3
 72
11
 73
7
 74
5
 42
0.0000001
 43
0.0000001
 44
0.0000000001
 12
-0.0216573495
 22
-0.0313757873
 32
0.0
 13
-0.0269581232
 23
-0.0269581232
 33
0.0
 40
0.0
 40
0.0
 40
0.0
 40
0.0
 40
0.2467924469
 40
0.4962971367
 40
0.7476666945
 40
1.0
 40
1.0
 40
1.0
 40
1.0
 10
6.4811210835
 20
3.4100337933
 30
0.0
 10
6.4793394601
 20
3.4074526909
 30
0.0
 10
6.475625623
 20
3.4023514033
 30
0.0
 10
6.4696764143
 20
3.3949388934
 30
0.0
 10
6.4633547775
 20
3.3877475501
 30
0.0
 10
6.4589232894
 20
3.3831252414
 30
0.0
 10
6.4566558119
 20
3.380857764
 30
0.0
 11
6.4811210835
 21
3.4100337933
 31
0.0
 11
6.475587756
 21
3.4024240145
 31
0.0
 11
6.4696370734
 21
3.3950029417
 31
0.0
 11
6.4633120779
 21
3.3878032873
 31
0.0
 11
6.4566558119
 21
3.380857764
 31
0.0
  0
SPLINE
  5
3CA
100
AcDbEntity
  8
0
100
AcDbSpline
 62
9
  6
CONTINUOUS
 70
0
 71
3
 72
12
 73
8
 74
6
 42
0.0000001
 43
0.0000001
 44
0.0000000001
 12
-0.0189879473
 22
-0.0417346491
 32
0.0
 13
-0.0324216215
 23
-0.0324216215
 33
0.0
 40
0.0
 40
0.0
 40
0.0
 40
0.0
 40
0.2493582906
 40
0.3742533165
 40
0.4992638234
 40
0.749510259
 40
1.0
 40
1.0
 40
1.0
 40
1.0
 10
6.6556763801
 20
3.2453423334
 30
0.0
 10
6.6540981127
 20
3.2418733731
 30
0.0
 10
6.651484091
 20
3.2367736969
 30
0.0
 10
6.6475488075
 20
3.2302340917
 30
0.0
 10
6.6433161936
 20
3.2238657981
 30
0.0
 10
6.6374950695
 20
3.2162614562
 30
0.0
 10
6.6323189761
 20
3.2106087888
 30
0.0
 10
6.6296118816
 20
3.2079016943
 30
0.0
 11
6.6556763801
 21
3.2453423334
 31
0.0
 11
6.6504656408
 21
3.2351654127
 31
0.0
 11
6.6475134847
 21
3.2302584357
 31
0.0
 11
6.644341039
 21
3.225484558
 31
0.0
 11
6.637367983
 21
3.2163724312
 31
0.0
 11
6.6296118816
 21
3.2079016943
 31
0.0
  0
LINE
  5
3CB
100
AcDbEntity
  8
0
100
AcDbLine
 62
9
  6
CONTINUOUS
 10
6.1685852068
 20
3.6229628648
 11
6.1818613313
 21
3.6096406606
  0
SPLINE
  5
3CC
100
AcDbEntity
  8
0
100
AcDbSpline
 62
9
  6
CONTINUOUS
 70
0
 71
3
 72
11
 73
7
 74
5
 42
0.0000001
 43
0.0000001
 44
0.0000000001
 12
-0.0269581232
 22
-0.0269581232
 32
0.0
 13
-0.0313757873
 23
-0.0216573495
 33
0.0
 40
0.0
 40
0.0
 40
0.0
 40
0.0
 40
0.2523333055
 40
0.5037028633
 40
0.7532075531
 40
1.0
 40
1.0
 40
1.0
 40
1.0
 10
6.4566558119
 20
3.380857764
 30
0.0
 10
6.4543883345
 20
3.3785902865
 30
0.0
 10
6.4497660258
 20
3.3741587984
 30
0.0
 10
6.4425746825
 20
3.3678371616
 30
0.0
 10
6.4351621726
 20
3.3618879529
 30
0.0
 10
6.430060885
 20
3.3581741158
 30
0.0
 10
6.4274797826
 20
3.3563924924
 30
0.0
 11
6.4566558119
 21
3.380857764
 31
0.0
 11
6.4497102885
 21
3.374201498
 31
0.0
 11
6.4425106342
 21
3.3678765025
 31
0.0
 11
6.4350895614
 21
3.3619258199
 31
0.0
 11
6.4274797826
 21
3.3563924924
 31
0.0
  0
SPLINE
  5
3CD
100
AcDbEntity
  8
0
100
AcDbSpline
 62
9
  6
CONTINUOUS
 70
0
 71
3
 72
17
 73
13
 74
11
 42
0.0000001
 43
0.0000001
 44
0.0000000001
 12
0.2489786005
 22
-0.249953333
 32
0.0
 13
0.2435344249
 23
-0.2552606433
 33
0.0
 40
0.0
 40
0.0
 40
0.0
 40
0.0
 40
0.0519624319
 40
0.1062490759
 40
0.1626629131
 40
0.2210068553
 40
0.342696411
 40
0.4697401885
 40
0.6005617986
 40
0.7335912538
 40
0.8672601391
 40
1.0
 40
1.0
 40
1.0
 40
1.0
 10
6.1818613313
 20
3.6096406606
 30
0.0
 10
6.1861738425
 20
3.6053112663
 30
0.0
 10
6.1949791792
 20
3.5964462938
 30
0.0
 10
6.2084272037
 20
3.5828421228
 30
0.0
 10
6.2223732025
 20
3.5686750316
 30
0.0
 10
6.24184329
 20
3.5488231707
 30
0.0
 10
6.2670656025
 20
3.5229788713
 30
0.0
 10
6.2981580791
 20
3.4909540339
 30
0.0
 10
6.3301092576
 20
3.457904352
 30
0.0
 10
6.362536063
 20
3.4242309456
 30
0.0
 10
6.3950561911
 20
3.3903343486
 30
0.0
 10
6.4167042074
 20
3.3676869132
 30
0.0
 10
6.4274797826
 20
3.3563924924
 30
0.0
 11
6.1818613313
 21
3.6096406606
 31
0.0
 11
6.1947814715
 21
3.5966351751
 31
0.0
 11
6.2082466763
 21
3.583015429
 31
0.0
 11
6.2222096797
 21
3.5688325724
 31
0.0
 11
6.2366232155
 21
3.5541377557
 31
0.0
 11
6.2666128193
 21
3.5234168428
 31
0.0
 11
6.2978373581
 21
3.491261892
 31
0.0
 11
6.3299180386
 21
3.4580806483
 31
0.0
 11
6.3624734116
 21
3.4242750277
 31
0.0
 11
6.3951213639
 21
3.3902454893
 31
0.0
 11
6.4274797826
 21
3.3563924924
 31
0.0
  0
SPLINE
  5
3CE
100
AcDbEntity
  8
0
100
AcDbSpline
 62
9
  6
CONTINUOUS
 70
0
 71
3
 72
12
 73
8
 74
6
 42
0.0000001
 43
0.0000001
 44
0.0000000001
 12
-0.0324216215
 22
-0.0324216215
 32
0.0
 13
-0.0417346491
 23
-0.0189879473
 33
0.0
 40
0.0
 40
0.0
 40
0.0
 40
0.0
 40
0.250489741
 40
0.5007361766
 40
0.6257466835
 40
0.7506417094
 40
1.0
 40
1.0
 40
1.0
 40
1.0
 10
6.6296118816
 20
3.2079016943
 30
0.0
 10
6.6269047871
 20
3.2051945998
 30
0.0
 10
6.6212521197
 20
3.2000185064
 30
0.0
 10
6.6136477777
 20
3.1941973823
 30
0.0
 10
6.6072794842
 20
3.1899647684
 30
0.0
 10
6.600739879
 20
3.1860294849
 30
0.0
 10
6.5956402028
 20
3.1834154632
 30
0.0
 10
6.5921712425
 20
3.1818371958
 30
0.0
 11
6.6296118816
 21
3.2079016943
 31
0.0
 11
6.6211411447
 21
3.2001455928
 31
0.0
 11
6.6120290179
 21
3.1931725369
 31
0.0
 11
6.6072551402
 21
3.1900000912
 31
0.0
 11
6.6023481632
 21
3.187047935
 31
0.0
 11
6.5921712425
 21
3.1818371958
 31
0.0
  0
SPLINE
  5
3CF
100
AcDbEntity
  8
0
100
AcDbSpline
 62
9
  6
CONTINUOUS
 70
0
 71
3
 72
18
 73
14
 74
12
 42
0.0000001
 43
0.0000001
 44
0.0000000001
 12
0.1656625933
 22
-0.1736392715
 32
0.0
 13
0.1616860334
 23
-0.1773480138
 33
0.0
 40
0.0
 40
0.0
 40
0.0
 40
0.0
 40
0.1423911371
 40
0.2853155858
 40
0.4258289528
 40
0.5609870454
 40
0.6880147775
 40
0.7478130983
 40
0.8048126484
 40
0.858772199
 40
0.9094506026
 40
0.9566068254
 40
1.0
 40
1.0
 40
1.0
 40
1.0
 10
6.4274797826
 20
3.3563924924
 30
0.0
 10
6.4353427443
 20
3.348150928
 30
0.0
 10
6.4510963436
 20
3.331635238
 30
0.0
 10
6.4745935827
 20
3.3069717645
 30
0.0
 10
6.4976670929
 20
3.28270379
 30
0.0
 10
6.5198289491
 20
3.2593237987
 30
0.0
 10
6.5375079848
 20
3.2405913543
 30
0.0
 10
6.5508638128
 20
3.2263761157
 30
0.0
 10
6.5602000979
 20
3.2164047256
 30
0.0
 10
6.5690186427
 20
3.2069480406
 30
0.0
 10
6.5772787431
 20
3.1980473143
 30
0.0
 10
6.5849397182
 20
3.1897438241
 30
0.0
 10
6.5898325524
 20
3.1844024269
 30
0.0
 10
6.5921712425
 20
3.1818371958
 30
0.0
 11
6.4274797826
 21
3.3563924924
 31
0.0
 11
6.4510644344
 21
3.3316637611
 31
0.0
 11
6.4747223891
 21
3.3068280838
 31
0.0
 11
6.4979559847
 21
3.2823873393
 31
0.0
 11
6.5202675592
 21
3.2588434067
 31
0.0
 11
6.5411880575
 21
3.2366694746
 31
0.0
 11
6.551014044
 21
3.2262100605
 31
0.0
 11
6.5603628517
 21
3.2162239705
 31
0.0
 11
6.5691937281
 21
3.2067524219
 31
0.0
 11
6.5774659204
 21
3.1978366318
 31
0.0
 11
6.5851386761
 21
3.1895178174
 31
0.0
 11
6.5921712425
 21
3.1818371958
 31
0.0
  0
SPLINE
  5
3D0
100
AcDbEntity
  8
0
100
AcDbSpline
 62
9
  6
CONTINUOUS
 70
0
 71
3
 72
40
 73
36
 74
34
 42
0.0000001
 43
0.0000001
 44
0.0000000001
 12
0.0726825317
 22
-0.0797230433
 32
0.0
 13
-0.0953780497
 23
-0.0504137053
 33
0.0
 40
0.0
 40
0.0
 40
0.0
 40
0.0
 40
0.1186268078
 40
0.2301085032
 40
0.3343667726
 40
0.4313234493
 40
0.5209005702
 40
0.6030204584
 40
0.6776058515
 40
0.7445801043
 40
0.7751894264
 40
0.8038676988
 40
0.8306057136
 40
0.8553944269
 40
0.8782250165
 40
0.8990889687
 40
0.9179782103
 40
0.9348853206
 40
0.9498038856
 40
0.962729131
 40
0.9684436686
 40
0.9736595447
 40
0.9783774058
 40
0.9825985742
 40
0.9863254083
 40
0.9895619332
 40
0.9923150158
 40
0.9945967286
 40
0.995567749
 40
0.9964309092
 40
0.9971927471
 40
0.9978628627
 40
0.998984899
 40
0.9994909299
 40
1.0
 40
1.0
 40
1.0
 40
1.0
 10
6.5921712425
 20
3.1818371958
 30
0.0
 10
6.5950452748
 20
3.1786847658
 30
0.0
 10
6.600612407
 20
3.1725626419
 30
0.0
 10
6.6086761371
 20
3.1636433165
 30
0.0
 10
6.616190462
 20
3.1552778906
 30
0.0
 10
6.623150349
 20
3.1474733505
 30
0.0
 10
6.629550775
 20
3.140236687
 30
0.0
 10
6.6353867491
 20
3.1335749111
 30
0.0
 10
6.640653264
 20
3.1274950232
 30
0.0
 10
6.6446755198
 20
3.1227881583
 30
0.0
 10
6.6476029115
 20
3.1193173855
 30
0.0
 10
6.6495861553
 20
3.1169431918
 30
0.0
 10
6.6514232266
 20
3.1147196792
 30
0.0
 10
6.6531135046
 20
3.1126477217
 30
0.0
 10
6.6546563829
 20
3.1107282029
 30
0.0
 10
6.656051266
 20
3.1089620089
 30
0.0
 10
6.6572975684
 20
3.1073500295
 30
0.0
 10
6.6583947561
 20
3.1058931683
 30
0.0
 10
6.659342268
 20
3.104592315
 30
0.0
 10
6.6600325776
 20
3.1036023003
 30
0.0
 10
6.6605075788
 20
3.102887903
 30
0.0
 10
6.6608110909
 20
3.1024140108
 30
0.0
 10
6.661076739
 20
3.1019797574
 30
0.0
 10
6.661304485
 20
3.1015852398
 30
0.0
 10
6.6614943108
 20
3.1012305576
 30
0.0
 10
6.6616462784
 20
3.100915763
 30
0.0
 10
6.6617603961
 20
3.1006409029
 30
0.0
 10
6.6618275095
 20
3.1004351895
 30
0.0
 10
6.661860004
 20
3.1002906666
 30
0.0
 10
6.66187348
 20
3.1001981992
 30
0.0
 10
6.661877352
 20
3.1001155106
 30
0.0
 10
6.6618702639
 20
3.1000239631
 30
0.0
 10
6.6618440149
 20
3.0999425373
 30
0.0
 10
6.6617939168
 20
3.0998831347
 30
0.0
 10
6.6617635024
 20
3.0998621163
 30
0.0
 10
6.6617473177
 20
3.0998535616
 30
0.0
 11
6.5921712425
 21
3.1818371958
 31
0.0
 11
6.600780558
 21
3.172368269
 31
0.0
 11
6.6088454032
 21
3.1634461792
 31
0.0
 11
6.6163607126
 21
3.1550778885
 31
0.0
 11
6.6233214212
 21
3.147270359
 31
0.0
 11
6.6297224638
 21
3.1400305526
 31
0.0
 11
6.635558775
 21
3.1333654315
 31
0.0
 11
6.6408252897
 21
3.1272819577
 31
0.0
 11
6.6455169427
 21
3.1217870933
 31
0.0
 11
6.6476456132
 21
3.1192625652
 31
0.0
 11
6.6496286688
 21
3.1168878002
 31
0.0
 11
6.6514654763
 21
3.1146636686
 31
0.0
 11
6.6531554026
 21
3.1125910407
 31
0.0
 11
6.6546978146
 21
3.1106707866
 31
0.0
 11
6.6560920791
 21
3.1089037767
 31
0.0
 11
6.6573375629
 21
3.1072908811
 31
0.0
 11
6.6584336329
 21
3.1058329702
 31
0.0
 11
6.659379656
 21
3.1045309143
 31
0.0
 11
6.6601749989
 21
3.1033855835
 31
0.0
 11
6.6605159675
 21
3.102871962
 31
0.0
 11
6.6608190286
 21
3.1023978481
 31
0.0
 11
6.6610841031
 21
3.1019633506
 31
0.0
 11
6.6613111119
 21
3.1015685784
 31
0.0
 11
6.6614999757
 21
3.1012136401
 31
0.0
 11
6.6616506156
 21
3.1008986446
 31
0.0
 11
6.6617629522
 21
3.1006237007
 31
0.0
 11
6.6618369066
 21
3.1003889171
 31
0.0
 11
6.6618594656
 21
3.1002866194
 31
0.0
 11
6.6618723994
 21
3.1001944026
 31
0.0
 11
6.6618756981
 21
3.1001122802
 31
0.0
 11
6.6618693517
 21
3.100040266
 31
0.0
 11
6.6618276841
 21
3.0999266161
 31
0.0
 11
6.6617923432
 21
3.0998850076
 31
0.0
 11
6.6617473177
 21
3.0998535616
 31
0.0
  0
SPLINE
  5
3D1
100
AcDbEntity
  8
0
100
AcDbSpline
 62
9
  6
CONTINUOUS
 70
0
 71
3
 72
9
 73
5
 74
3
 42
0.0000001
 43
0.0000001
 44
0.0000000001
 12
-0.0000378125
 22
-0.0000199864
 32
0.0
 13
-0.0000406054
 23
-0.000013433
 33
0.0
 40
0.0
 40
0.0
 40
0.0
 40
0.0
 40
0.2444319967
 40
1.0
 40
1.0
 40
1.0
 40
1.0
 10
6.6617473177
 20
3.0998535616
 30
0.0
 10
6.6617442369
 20
3.0998519332
 30
0.0
 10
6.6617314856
 20
3.0998455512
 30
0.0
 10
6.6617181815
 20
3.0998402903
 30
0.0
 10
6.6617079548
 20
3.0998369071
 30
0.0
 11
6.6617473177
 21
3.0998535616
 31
0.0
 11
6.6617379702
 21
3.0998488802
 31
0.0
 11
6.6617079548
 21
3.0998369071
 31
0.0
  0
SPLINE
  5
3D2
100
AcDbEntity
  8
0
100
AcDbSpline
 62
9
  6
CONTINUOUS
 70
0
 71
3
 72
30
 73
26
 74
24
 42
0.0000001
 43
0.0000001
 44
0.0000000001
 12
-0.1527220281
 22
-0.1054174131
 32
0.0
 13
-0.1380672964
 23
0.1239930262
 33
0.0
 40
0.0
 40
0.0
 40
0.0
 40
0.0
 40
0.0663031254
 40
0.1316368874
 40
0.195889436
 40
0.2589934466
 40
0.3209350704
 40
0.3817640479
 40
0.441604559
 40
0.5006659322
 40
0.5300038738
 40
0.5592701636
 40
0.5885187098
 40
0.6178089397
 40
0.6472055863
 40
0.6767783663
 40
0.7066015507
 40
0.7367534398
 40
0.7673157602
 40
0.7983730046
 40
0.830011743
 40
0.8623199315
 40
0.8953862454
 40
0.9292994595
 40
1.0
 40
1.0
 40
1.0
 40
1.0
 10
6.4274797826
 20
3.3563924924
 30
0.0
 10
6.4241044667
 20
3.3540626578
 30
0.0
 10
6.4173015423
 20
3.3495818356
 30
0.0
 10
6.4068699264
 20
3.3434071629
 30
0.0
 10
6.3963009426
 20
3.3378833101
 30
0.0
 10
6.385617955
 20
3.3330711423
 30
0.0
 10
6.3748438674
 20
3.3290316328
 30
0.0
 10
6.3640012789
 20
3.325826313
 30
0.0
 10
6.353113699
 20
3.3235173396
 30
0.0
 10
6.3439998789
 20
3.3223901473
 30
0.0
 10
6.3367293422
 20
3.3220037143
 30
0.0
 10
6.331292857
 20
3.3219760483
 30
0.0
 10
6.32586457
 20
3.3222168567
 30
0.0
 10
6.3204472728
 20
3.3227329107
 30
0.0
 10
6.3150439304
 20
3.3235310114
 30
0.0
 10
6.3096574854
 20
3.3246179326
 30
0.0
 10
6.3042909056
 20
3.3260004294
 30
0.0
 10
6.2989471647
 20
3.3276852308
 30
0.0
 10
6.2936292377
 20
3.3296790401
 30
0.0
 10
6.2883400989
 20
3.3319885301
 30
0.0
 10
6.2830826941
 20
3.3346203647
 30
0.0
 10
6.2778600168
 20
3.3375811308
 30
0.0
 10
6.2726747913
 20
3.3408776215
 30
0.0
 10
6.2657195172
 20
3.3457967047
 30
0.0
 10
6.260712605
 20
3.3499157149
 30
0.0
 10
6.2574587941
 20
3.3528378396
 30
0.0
 11
6.4274797826
 21
3.3563924924
 31
0.0
 11
6.4171989113
 21
3.3496329311
 31
0.0
 11
6.4067597443
 21
3.343467098
 31
0.0
 11
6.3961865623
 21
3.337955604
 31
0.0
 11
6.3855036464
 21
3.3331590595
 31
0.0
 11
6.3747352773
 21
3.3291380752
 31
0.0
 11
6.3639057358
 21
3.3259532618
 31
0.0
 11
6.3530393028
 21
3.3236652298
 31
0.0
 11
6.3421602591
 21
3.32233459
 31
0.0
 11
6.3367235644
 21
3.3220470881
 31
0.0
 11
6.3312926335
 21
3.3220207964
 31
0.0
 11
6.3258703126
 21
3.3222624256
 31
0.0
 11
6.3204594484
 21
3.3227786868
 31
0.0
 11
6.3150628872
 21
3.3235762905
 31
0.0
 11
6.3096834754
 21
3.3246619478
 31
0.0
 11
6.3043240595
 21
3.3260423693
 31
0.0
 11
6.298987486
 21
3.3277242659
 31
0.0
 11
6.2936766012
 21
3.3297143484
 31
0.0
 11
6.2883942516
 21
3.3320193276
 31
0.0
 11
6.2831432837
 21
3.3346459143
 31
0.0
 11
6.2779265438
 21
3.3376008194
 31
0.0
 11
6.2727468785
 21
3.3408907537
 31
0.0
 11
6.2676071342
 21
3.3445224279
 31
0.0
 11
6.2574587941
 21
3.3528378396
 31
0.0
  0
SPLINE
  5
3D3
100
AcDbEntity
  8
0
100
AcDbSpline
 62
9
  6
CONTINUOUS
 70
0
 71
3
 72
24
 73
20
 74
18
 42
0.0000001
 43
0.0000001
 44
0.0000000001
 12
-0.2597714865
 22
-0.1181878225
 32
0.0
 13
-0.213072426
 23
0.1898676589
 33
0.0
 40
0.0
 40
0.0
 40
0.0
 40
0.0
 40
0.0531300888
 40
0.1065385914
 40
0.1603695698
 40
0.2147907289
 40
0.2699934786
 40
0.3261922345
 40
0.3836229546
 40
0.4425409797
 40
0.5032180581
 40
0.5659328027
 40
0.630960682
 40
0.6985716268
 40
0.733432917
 40
0.7690379095
 40
0.8425966003
 40
0.9195042323
 40
1.0
 40
1.0
 40
1.0
 40
1.0
 10
6.5921712425
 20
3.1818371958
 30
0.0
 10
6.5875706818
 20
3.179744086
 30
0.0
 10
6.5781850617
 20
3.1758892384
 30
0.0
 10
6.563659817
 20
3.171177148
 30
0.0
 10
6.5486927518
 20
3.1675735171
 30
0.0
 10
6.5333199872
 20
3.1651295378
 30
0.0
 10
6.517576613
 20
3.1638957816
 30
0.0
 10
6.5014983123
 20
3.1639228593
 30
0.0
 10
6.4851208995
 20
3.1652611096
 30
0.0
 10
6.4684802782
 20
3.1679606973
 30
0.0
 10
6.4516133695
 20
3.1720709891
 30
0.0
 10
6.4345529038
 20
3.177622807
 30
0.0
 10
6.4173306584
 20
3.1846470065
 30
0.0
 10
6.4030179044
 20
3.191680675
 30
0.0
 10
6.3915262998
 20
3.1980472279
 30
0.0
 10
6.3797601544
 20
3.2050715279
 30
0.0
 10
6.365000952
 20
3.2148660886
 30
0.0
 10
6.3474407965
 20
3.2280910053
 30
0.0
 10
6.3359993037
 20
3.2377646176
 30
0.0
 10
6.3302821608
 20
3.2428591319
 30
0.0
 11
6.5921712425
 21
3.1818371958
 31
0.0
 11
6.5781439431
 21
3.1760794809
 31
0.0
 11
6.563644627
 21
3.1713781851
 31
0.0
 11
6.5487081567
 21
3.1677831374
 31
0.0
 11
6.5333693948
 21
3.1653441671
 31
0.0
 11
6.517663204
 21
3.1641111034
 31
0.0
 11
6.501624447
 21
3.1641337753
 31
0.0
 11
6.4852879862
 21
3.165462012
 31
0.0
 11
6.4686886844
 21
3.1681456426
 31
0.0
 11
6.4518607533
 21
3.1722315103
 31
0.0
 11
6.4348358001
 21
3.1777545105
 31
0.0
 11
6.4176447811
 21
3.184746551
 31
0.0
 11
6.4003186522
 21
3.1932395396
 31
0.0
 11
6.3916145954
 21
3.1980588607
 31
0.0
 11
6.3828883697
 21
3.2032653842
 31
0.0
 11
6.3653848895
 21
3.2148559926
 31
0.0
 11
6.3478391679
 21
3.2280432725
 31
0.0
 11
6.3302821608
 21
3.2428591319
 31
0.0
  0
SPLINE
  5
3D4
100
AcDbEntity
  8
0
100
AcDbSpline
 62
6
  6
CONTINUOUS
 70
0
 71
3
 72
10
 73
6
 74
4
 42
0.0000001
 43
0.0000001
 44
0.0000000001
 12
0.0321130782
 22
-0.0489787756
 32
0.0
 13
0.0313634838
 23
-0.0494621283
 33
0.0
 40
0.0
 40
0.0
 40
0.0
 40
0.0
 40
0.5196307746
 40
0.76488803
 40
1.0
 40
1.0
 40
1.0
 40
1.0
 10
6.2985917752
 20
3.2921120766
 30
0.0
 10
6.3041540898
 20
3.2836284502
 30
0.0
 10
6.3122751515
 20
3.2710969464
 30
0.0
 10
6.3227943992
 20
3.2546507993
 30
0.0
 10
6.3278241059
 20
3.2467356345
 30
0.0
 10
6.3302820827
 20
3.242859255
 30
0.0
 11
6.2985917752
 21
3.2921120766
 31
0.0
 11
6.315153642
 21
3.2665796285
 31
0.0
 11
6.3228950161
 21
3.2544800535
 31
0.0
 11
6.3302820827
 21
3.242859255
 31
0.0
  0
LINE
  5
3D5
100
AcDbEntity
  8
0
100
AcDbLine
 62
6
  6
CONTINUOUS
 10
6.3302820827
 20
3.242859255
 11
6.3464189656
 21
3.2173405014
  0
LINE
  5
3D6
100
AcDbEntity
  8
0
100
AcDbLine
 62
6
  6
CONTINUOUS
 10
6.3464189656
 20
3.2173405014
 11
6.3506674472
 21
3.2106325751
  0
SPLINE
  5
3D7
100
AcDbEntity
  8
0
100
AcDbSpline
 62
6
  6
CONTINUOUS
 70
0
 71
3
 72
17
 73
13
 74
11
 42
0.0000001
 43
0.0000001
 44
0.0000000001
 12
0.0284932467
 22
-0.0449075258
 32
0.0
 13
0.0325445312
 23
-0.0420642897
 33
0.0
 40
0.0
 40
0.0
 40
0.0
 40
0.0
 40
0.1551903076
 40
0.302581843
 40
0.4417851813
 40
0.5724136758
 40
0.6940462006
 40
0.8061842851
 40
0.8585376462
 40
0.9083328726
 40
0.955510622
 40
1.0
 40
1.0
 40
1.0
 40
1.0
 10
6.3506674472
 20
3.2106325751
 30
0.0
 10
6.3521414058
 20
3.2083095042
 30
0.0
 10
6.3550190213
 20
3.2037824912
 30
0.0
 10
6.3592404514
 20
3.1971855363
 30
0.0
 10
6.3632557304
 20
3.1909736888
 30
0.0
 10
6.3670607185
 20
3.1851697956
 30
0.0
 10
6.370650414
 20
3.179798757
 30
0.0
 10
6.3735206206
 20
3.1756162404
 30
0.0
 10
6.3757105938
 20
3.1725120638
 30
0.0
 10
6.3772582468
 20
3.170364261
 30
0.0
 10
6.3787480872
 20
3.1683468385
 30
0.0
 10
6.3797315235
 20
3.1670530146
 30
0.0
 10
6.3802141522
 20
3.1664292099
 30
0.0
 11
6.3506674472
 21
3.2106325751
 31
0.0
 11
6.3550967858
 21
3.2036681031
 31
0.0
 11
6.3593238792
 21
3.1970665978
 31
0.0
 11
6.3633451524
 21
3.1908505054
 31
0.0
 11
6.3671570274
 21
3.185042283
 31
0.0
 11
6.3707553567
 21
3.1796665094
 31
0.0
 11
6.374134751
 21
3.1747523888
 31
0.0
 11
6.3757406122
 21
3.1724777651
 31
0.0
 11
6.3772896572
 21
3.1703297348
 31
0.0
 11
6.3787811747
 21
3.1683120642
 31
0.0
 11
6.3802141522
 21
3.1664292099
 31
0.0
  0
SPLINE
  5
3D8
100
AcDbEntity
  8
0
100
AcDbSpline
 62
6
  6
CONTINUOUS
 70
0
 71
3
 72
11
 73
7
 74
5
 42
0.0000001
 43
0.0000001
 44
0.0000000001
 12
0.0054973055
 22
-0.007105349
 32
0.0
 13
0.006355674
 23
-0.0063491543
 33
0.0
 40
0.0
 40
0.0
 40
0.0
 40
0.0
 40
0.2846225176
 40
0.5465609872
 40
0.7851930801
 40
1.0
 40
1.0
 40
1.0
 40
1.0
 10
6.3802141522
 20
3.1664292099
 30
0.0
 10
6.3807357045
 20
3.1657550958
 30
0.0
 10
6.3817492004
 20
3.1644697585
 30
0.0
 10
6.3832486894
 20
3.1626582673
 30
0.0
 10
6.384663573
 20
3.1610492996
 30
0.0
 10
6.3855988431
 20
3.1600641655
 30
0.0
 10
6.3860539241
 20
3.1596095514
 30
0.0
 11
6.3802141522
 21
3.1664292099
 31
0.0
 11
6.381799474
 21
3.1644230259
 31
0.0
 11
6.383302533
 21
3.1626124407
 31
0.0
 11
6.3847213445
 21
3.1610053255
 31
0.0
 11
6.3860539241
 21
3.1596095514
 31
0.0
  0
SPLINE
  5
3D9
100
AcDbEntity
  8
0
100
AcDbSpline
 62
9
  6
CONTINUOUS
 70
0
 71
3
 72
48
 73
44
 74
42
 42
0.0000001
 43
0.0000001
 44
0.0000000001
 12
0.1126386304
 22
0.0077880577
 32
0.0
 13
0.0925985333
 23
-0.0646036108
 33
0.0
 40
0.0
 40
0.0
 40
0.0
 40
0.0
 40
0.0000472141
 40
0.0001547229
 40
0.0003218942
 40
0.0005480446
 40
0.0008324829
 40
0.0011745159
 40
0.0020285898
 40
0.003104718
 40
0.0043973568
 40
0.0059009699
 40
0.00761003
 40
0.0095190192
 40
0.0116224298
 40
0.0163905273
 40
0.0218704936
 40
0.0280189603
 40
0.0348013398
 40
0.0421933151
 40
0.0501711922
 40
0.0587113183
 40
0.0773838565
 40
0.0980230139
 40
0.1204451201
 40
0.1445239151
 40
0.1701820583
 40
0.1973439876
 40
0.2259344258
 40
0.2558784899
 40
0.3196107321
 40
0.3882973169
 40
0.4617539121
 40
0.5398600353
 40
0.6225993192
 40
0.665708459
 40
0.709980671
 40
0.7554223954
 40
0.8020424264
 40
0.8498505098
 40
0.8988204081
 40
0.9488894359
 40
1.0
 40
1.0
 40
1.0
 40
1.0
 10
6.0665533311
 20
4.6378648764
 30
0.0
 10
6.0665551039
 20
4.637864999
 30
0.0
 10
6.0665609131
 20
4.6378640621
 30
0.0
 10
6.06657291
 20
4.6378627372
 30
0.0
 10
6.0665915753
 20
4.6378599231
 30
0.0
 10
6.0666167955
 20
4.6378561783
 30
0.0
 10
6.0666485041
 20
4.6378512215
 30
0.0
 10
6.0667035289
 20
4.6378424498
 30
0.0
 10
6.0667879094
 20
4.6378285396
 30
0.0
 10
6.0669074893
 20
4.6378082188
 30
0.0
 10
6.0670510557
 20
4.6377831364
 30
0.0
 10
6.0672179591
 20
4.6377532291
 30
0.0
 10
6.0674075497
 20
4.6377184252
 30
0.0
 10
6.0676191783
 20
4.6376786571
 30
0.0
 10
6.0679436967
 20
4.637616262
 30
0.0
 10
6.0683996112
 20
4.6375254824
 30
0.0
 10
6.0690037739
 20
4.6373997591
 30
0.0
 10
6.0696808441
 20
4.6372524193
 30
0.0
 10
6.0704267468
 20
4.6370831134
 30
0.0
 10
6.0712382655
 20
4.6368919659
 30
0.0
 10
6.0721125538
 20
4.6366788783
 30
0.0
 10
6.0733969483
 20
4.6363556719
 30
0.0
 10
6.0751384717
 20
4.6358966064
 30
0.0
 10
6.0773765599
 20
4.6352724818
 30
0.0
 10
6.0798004692
 20
4.6345581928
 30
0.0
 10
6.0823944099
 20
4.6337536289
 30
0.0
 10
6.0851471178
 20
4.6328596504
 30
0.0
 10
6.088049004
 20
4.6318761061
 30
0.0
 10
6.0910905913
 20
4.6308029901
 30
0.0
 10
6.0954111162
 20
4.6292190699
 30
0.0
 10
6.1011091554
 20
4.6270099127
 30
0.0
 10
6.1082664952
 20
4.6240402346
 30
0.0
 10
6.1158483489
 20
4.6206876537
 30
0.0
 10
6.1238288629
 20
4.6169345909
 30
0.0
 10
6.1306944293
 20
4.6134997638
 30
0.0
 10
6.1363668311
 20
4.6105300215
 30
0.0
 10
6.1407647825
 20
4.608153315
 30
0.0
 10
6.1452441285
 20
4.6056503318
 30
0.0
 10
6.149800737
 20
4.6030139639
 30
0.0
 10
6.1544296177
 20
4.600238617
 30
0.0
 10
6.1591209484
 20
4.5973163992
 30
0.0
 10
6.1638593945
 20
4.5942366144
 30
0.0
 10
6.1670076716
 20
4.5920937328
 30
0.0
 10
6.1685852594
 20
4.5909930905
 30
0.0
 11
6.0665533311
 21
4.6378648764
 31
0.0
 11
6.0665586453
 21
4.6378644551
 31
0.0
 11
6.0665706863
 21
4.6378629195
 31
0.0
 11
6.0665893731
 21
4.6378602611
 31
0.0
 11
6.0666146244
 21
4.6378564714
 31
0.0
 11
6.066646359
 21
4.637851542
 31
0.0
 11
6.0666844959
 21
4.6378454642
 31
0.0
 11
6.0667796514
 21
4.6378298296
 31
0.0
 11
6.0668994416
 21
4.6378094998
 31
0.0
 11
6.0670432169
 21
4.6377844067
 31
0.0
 11
6.067210328
 21
4.6377544823
 31
0.0
 11
6.0674001256
 21
4.6377196585
 31
0.0
 11
6.0676119601
 21
4.6376798673
 31
0.0
 11
6.0678451821
 21
4.6376350407
 31
0.0
 11
6.0683731912
 21
4.637530009
 31
0.0
 11
6.0689789575
 21
4.6374040192
 31
0.0
 11
6.0696573182
 21
4.6372565337
 31
0.0
 11
6.070404149
 21
4.6370872247
 31
0.0
 11
6.0712165604
 21
4.6368960145
 31
0.0
 11
6.0720917344
 21
4.6366828395
 31
0.0
 11
6.0730268534
 21
4.6364476365
 31
0.0
 11
6.0750656547
 21
4.6359108926
 31
0.0
 11
6.0773104218
 21
4.6352852756
 31
0.0
 11
6.079738986
 21
4.6345702923
 31
0.0
 11
6.082335875
 21
4.6337656954
 31
0.0
 11
6.085091401
 21
4.63287145
 31
0.0
 11
6.0879960663
 21
4.6318875285
 31
0.0
 11
6.0910403733
 21
4.6308139032
 31
0.0
 11
6.0942148273
 21
4.6296505456
 31
0.0
 11
6.1009251914
 21
4.6270522212
 31
0.0
 11
6.1080893316
 21
4.6240825832
 31
0.0
 11
6.1156753647
 21
4.6207300781
 31
0.0
 11
6.1236559369
 21
4.6169775871
 31
0.0
 11
6.1320111253
 21
4.6127988631
 31
0.0
 11
6.1363231149
 21
4.6105410289
 31
0.0
 11
6.1407204727
 21
4.6081640736
 31
0.0
 11
6.1451991745
 21
4.6056609846
 31
0.0
 11
6.1497551848
 21
4.6030247238
 31
0.0
 11
6.1543842526
 21
4.6002482177
 31
0.0
 11
6.1590764186
 21
4.5973234601
 31
0.0
 11
6.1638155628
 21
4.5942414385
 31
0.0
 11
6.1685852594
 21
4.5909930905
 31
0.0
  0
SPLINE
  5
3DA
100
AcDbEntity
  8
0
100
AcDbSpline
 62
6
  6
CONTINUOUS
 70
0
 71
3
 72
17
 73
13
 74
11
 42
0.0000001
 43
0.0000001
 44
0.0000000001
 12
-0.1152626661
 22
-0.0845744726
 32
0.0
 13
-0.1418882044
 23
-0.0174946011
 33
0.0
 40
0.0
 40
0.0
 40
0.0
 40
0.0
 40
0.1250355579
 40
0.2500507912
 40
0.3750260228
 40
0.4999901706
 40
0.6249741999
 40
0.7499763743
 40
0.812485611
 40
0.8749926411
 40
0.9374969788
 40
1.0
 40
1.0
 40
1.0
 40
1.0
 10
5.0519053313
 20
3.1406588521
 30
0.0
 10
5.0471013541
 20
3.1371339133
 30
0.0
 10
5.0372666572
 20
3.1303889175
 30
0.0
 10
5.0219092309
 20
3.1212266908
 30
0.0
 10
5.0060066619
 20
3.1130529913
 30
0.0
 10
4.9896206439
 20
3.1059013265
 30
0.0
 10
4.9728122404
 20
3.0998051193
 30
0.0
 10
4.958506854
 20
3.095627774
 30
0.0
 10
4.9469209801
 20
3.0928418672
 30
0.0
 10
4.9381680308
 20
3.0910335004
 30
0.0
 10
4.9293614436
 20
3.089510355
 30
0.0
 10
4.9234603508
 20
3.0886862354
 30
0.0
 10
4.9205042037
 20
3.088321747
 30
0.0
 11
5.0519053313
 21
3.1406588521
 31
0.0
 11
5.0371646022
 21
3.130547402
 31
0.0
 11
5.0218162115
 21
3.1213902435
 31
0.0
 11
5.0059253923
 21
3.113222984
 31
0.0
 11
4.9895513279
 21
3.1060776599
 31
0.0
 11
4.9727537182
 21
3.099986066
 31
0.0
 11
4.9555992117
 21
3.0949777902
 31
0.0
 11
4.9469103389
 21
3.0928887017
 31
0.0
 11
4.9381589166
 21
3.0910810041
 31
0.0
 11
4.9293538467
 21
3.0895581685
 31
0.0
 11
4.9205042037
 21
3.088321747
 31
0.0
  0
SPLINE
  5
3DB
100
AcDbEntity
  8
0
100
AcDbSpline
 62
9
  6
CONTINUOUS
 70
0
 71
3
 72
32
 73
28
 74
26
 42
0.0000001
 43
0.0000001
 44
0.0000000001
 12
-0.0672189349
 22
0.0827828439
 32
0.0
 13
0.0814405013
 23
0.0688391545
 33
0.0
 40
0.0
 40
0.0
 40
0.0
 40
0.0
 40
0.015547485
 40
0.0313622443
 40
0.0476688172
 40
0.0646680622
 40
0.101368838
 40
0.1213762352
 40
0.1425990176
 40
0.1651009487
 40
0.1889275375
 40
0.2141097244
 40
0.2406605304
 40
0.2685730017
 40
0.2978309848
 40
0.3284118311
 40
0.3602878341
 40
0.3934245839
 40
0.4277731389
 40
0.463278495
 40
0.4998830063
 40
0.5761439724
 40
0.6560493034
 40
0.7390407374
 40
0.8245323486
 40
0.9117939796
 40
1.0
 40
1.0
 40
1.0
 40
1.0
 10
6.163333833
 20
4.4583911619
 30
0.0
 10
6.1629854712
 20
4.4588201835
 30
0.0
 10
6.162341361
 20
4.4597350124
 30
0.0
 10
6.1615573602
 20
4.4612422784
 30
0.0
 10
6.1609527492
 20
4.4628850983
 30
0.0
 10
6.160372883
 20
4.4653099244
 30
0.0
 10
6.1601905647
 20
4.4679436022
 30
0.0
 10
6.1603493533
 20
4.4707105011
 30
0.0
 10
6.1606520205
 20
4.4729579452
 30
0.0
 10
6.1611339089
 20
4.4753118059
 30
0.0
 10
6.1617938347
 20
4.4777680031
 30
0.0
 10
6.1626308195
 20
4.4803213001
 30
0.0
 10
6.1636430938
 20
4.482966258
 30
0.0
 10
6.1648277526
 20
4.4856971517
 30
0.0
 10
6.1661820051
 20
4.4885078233
 30
0.0
 10
6.1677029841
 20
4.491392067
 30
0.0
 10
6.1693877947
 20
4.4943435605
 30
0.0
 10
6.1712332206
 20
4.4973555511
 30
0.0
 10
6.1732345557
 20
4.5004214818
 30
0.0
 10
6.1753869121
 20
4.5035343933
 30
0.0
 10
6.1784940106
 20
4.5077964387
 30
0.0
 10
6.1827278763
 20
4.5131873069
 30
0.0
 10
6.1882597968
 20
4.5196450806
 30
0.0
 10
6.1942620823
 20
4.5261229763
 30
0.0
 10
6.2006831657
 20
4.5325606808
 30
0.0
 10
6.2074593272
 20
4.5388977433
 30
0.0
 10
6.2121559712
 20
4.5430038374
 30
0.0
 10
6.2145504854
 20
4.5450278467
 30
0.0
 11
6.163333833
 21
4.4583911619
 31
0.0
 11
6.162378381
 21
4.4597460978
 31
0.0
 11
6.1615976696
 21
4.4612409383
 31
0.0
 11
6.1609934151
 21
4.4628714525
 31
0.0
 11
6.1605673336
 21
4.4646334096
 31
0.0
 11
6.1602564217
 21
4.4685346896
 31
0.0
 11
6.1603732023
 21
4.4706650138
 31
0.0
 11
6.1606705095
 21
4.4729085275
 31
0.0
 11
6.1611473526
 21
4.4752602019
 31
0.0
 11
6.1618027408
 21
4.477715008
 31
0.0
 11
6.1626356716
 21
4.4802679093
 31
0.0
 11
6.1636444296
 21
4.4829133982
 31
0.0
 11
6.1648261954
 21
4.4856452371
 31
0.0
 11
6.1661780544
 21
4.4884571259
 31
0.0
 11
6.1676970918
 21
4.4913427644
 31
0.0
 11
6.1693803931
 21
4.4942958523
 31
0.0
 11
6.1712246957
 21
4.4973099576
 31
0.0
 11
6.1732253454
 21
4.5003781206
 31
0.0
 11
6.17537734
 21
4.50349325
 31
0.0
 11
6.1776756775
 21
4.5066482543
 31
0.0
 11
6.1826913179
 21
4.5130495283
 31
0.0
 11
6.188228944
 21
4.5195255932
 31
0.0
 11
6.1942401942
 21
4.5260206814
 31
0.0
 11
6.2006750658
 21
4.5324785276
 31
0.0
 11
6.2074695251
 21
4.5388364973
 31
0.0
 11
6.2145504854
 21
4.5450278467
 31
0.0
  0
SPLINE
  5
3DC
100
AcDbEntity
  8
0
100
AcDbSpline
 62
9
  6
CONTINUOUS
 70
0
 71
3
 72
44
 73
40
 74
38
 42
0.0000001
 43
0.0000001
 44
0.0000000001
 12
0.0645632102
 22
-0.0926299629
 32
0.0
 13
0.0100467279
 23
-0.1124623555
 33
0.0
 40
0.0
 40
0.0
 40
0.0
 40
0.0
 40
0.0511097414
 40
0.1011753514
 40
0.1501395566
 40
0.1979411392
 40
0.2445573802
 40
0.2899976215
 40
0.3342696577
 40
0.3773788367
 40
0.4193280653
 40
0.4601187295
 40
0.5382242691
 40
0.6116794639
 40
0.6803611921
 40
0.7440942232
 40
0.8026251023
 40
0.8554344862
 40
0.8795119473
 40
0.9019363094
 40
0.9225733559
 40
0.9412423175
 40
0.9577601293
 40
0.9651549919
 40
0.971943093
 40
0.978100402
 40
0.9835906292
 40
0.9883690846
 40
0.9923906898
 40
0.9941035309
 40
0.9956101588
 40
0.9969048819
 40
0.9979819978
 40
0.9988357937
 40
0.9994605473
 40
0.9996852427
 40
0.9998505277
 40
0.9999556851
 40
1.0
 40
1.0
 40
1.0
 40
1.0
 10
6.2145504854
 20
4.5450278467
 30
0.0
 10
6.2156504217
 20
4.5434497489
 30
0.0
 10
6.2177925186
 20
4.5403010372
 30
0.0
 10
6.2208724866
 20
4.535563006
 30
0.0
 10
6.2237955394
 20
4.5308727374
 30
0.0
 10
6.2265716836
 20
4.5262448836
 30
0.0
 10
6.2292082622
 20
4.521688762
 30
0.0
 10
6.2317112639
 20
4.5172095187
 30
0.0
 10
6.2340879027
 20
4.5128114733
 30
0.0
 10
6.2363456953
 20
4.5084990578
 30
0.0
 10
6.2384902349
 20
4.5042756652
 30
0.0
 10
6.2411642236
 20
4.4988444081
 30
0.0
 10
6.2442450745
 20
4.4922923737
 30
0.0
 10
6.2475973463
 20
4.4847104813
 30
0.0
 10
6.2505664727
 20
4.4775529074
 30
0.0
 10
6.2531640069
 20
4.4708514569
 30
0.0
 10
6.2553975759
 20
4.4646517233
 30
0.0
 10
6.2570073888
 20
4.4598153139
 30
0.0
 10
6.2581156668
 20
4.4562455415
 30
0.0
 10
6.2588307396
 20
4.453821849
 30
0.0
 10
6.2594561583
 20
4.4515841977
 30
0.0
 10
6.2599928913
 20
4.4495528141
 30
0.0
 10
6.2603795667
 20
4.4479974545
 30
0.0
 10
6.2606444049
 20
4.4468727257
 30
0.0
 10
6.2608134839
 20
4.446126078
 30
0.0
 10
6.2609602642
 20
4.4454479123
 30
0.0
 10
6.2610852447
 20
4.4448424472
 30
0.0
 10
6.2611892414
 20
4.4443147508
 30
0.0
 10
6.2612624231
 20
4.4439259007
 30
0.0
 10
6.2613110887
 20
4.4436577499
 30
0.0
 10
6.2613407493
 20
4.443490459
 30
0.0
 10
6.2613656566
 20
4.4433466265
 30
0.0
 10
6.2613859012
 20
4.4432269234
 30
0.0
 10
6.261401549
 20
4.4431320182
 30
0.0
 10
6.2614117436
 20
4.443068728
 30
0.0
 10
6.2614176306
 20
4.4430309946
 30
0.0
 10
6.2614205063
 20
4.4430125799
 30
0.0
 10
6.2614221744
 20
4.4430008555
 30
0.0
 10
6.2614230705
 20
4.4429952961
 30
0.0
 10
6.2614232189
 20
4.4429936348
 30
0.0
 11
6.2145504854
 21
4.5450278467
 31
0.0
 11
6.2177976341
 21
4.5402572808
 31
0.0
 11
6.2208797299
 21
4.5355184855
 31
0.0
 11
6.2238051646
 21
4.530827345
 31
0.0
 11
6.2265822903
 21
4.526199356
 31
0.0
 11
6.2292188239
 21
4.5216438541
 31
0.0
 11
6.2317219732
 21
4.5171652388
 31
0.0
 11
6.2340989319
 21
4.512767771
 31
0.0
 11
6.2363568347
 21
4.5084556822
 31
0.0
 11
6.2385011302
 21
4.5042323663
 31
0.0
 11
6.2405353734
 21
4.500100276
 31
0.0
 11
6.2442875198
 21
4.492119384
 31
0.0
 11
6.2476396911
 21
4.4845331617
 31
0.0
 11
6.2506086749
 21
4.4773691453
 31
0.0
 11
6.253206681
 21
4.4706583799
 31
0.0
 11
6.2554437962
 21
4.4644398039
 31
0.0
 11
6.257322537
 21
4.4587807975
 31
0.0
 11
6.2581277693
 21
4.4561841957
 31
0.0
 11
6.2588437127
 21
4.4537555863
 31
0.0
 11
6.2594704994
 21
4.4515113358
 31
0.0
 11
6.2600082851
 21
4.4494731751
 31
0.0
 11
6.2604572261
 21
4.447662985
 31
0.0
 11
6.2606484288
 21
4.4468502167
 31
0.0
 11
6.2608174789
 21
4.4461026463
 31
0.0
 11
6.2609644261
 21
4.4454231305
 31
0.0
 11
6.261089688
 21
4.4448160153
 31
0.0
 11
6.2611939286
 21
4.4442866444
 31
0.0
 11
6.2612778168
 21
4.4438403803
 31
0.0
 11
6.2613123377
 21
4.4436500889
 31
0.0
 11
6.2613420212
 21
4.443482585
 31
0.0
 11
6.261366951
 21
4.4433385389
 31
0.0
 11
6.2613872106
 21
4.4432186208
 31
0.0
 11
6.2614028836
 21
4.4431235011
 31
0.0
 11
6.2614140536
 21
4.44305385
 31
0.0
 11
6.2614179761
 21
4.4430287847
 31
0.0
 11
6.2614208042
 21
4.4430103378
 31
0.0
 11
6.2614225483
 21
4.4429985933
 31
0.0
 11
6.2614232189
 21
4.4429936348
 31
0.0
  0
SPLINE
  5
3DD
100
AcDbEntity
  8
0
100
AcDbSpline
 62
6
  6
CONTINUOUS
 70
0
 71
3
 72
17
 73
13
 74
11
 42
0.0000001
 43
0.0000001
 44
0.0000000001
 12
0.0175088836
 22
0.1420063737
 32
0.0
 13
0.0846958398
 23
0.1153212292
 33
0.0
 40
0.0
 40
0.0
 40
0.0
 40
0.0
 40
0.1250036184
 40
0.1875111569
 40
0.2500177062
 40
0.3125248794
 40
0.3750332592
 40
0.5000329794
 40
0.6250146748
 40
0.7499848591
 40
0.8749752026
 40
1.0
 40
1.0
 40
1.0
 40
1.0
 10
4.7118832842
 20
3.2969424372
 30
0.0
 10
4.7126128422
 20
3.3028595408
 30
0.0
 10
4.7139918515
 20
3.3117039714
 30
0.0
 10
4.7163979379
 20
3.3233844688
 30
0.0
 10
4.7184871726
 20
3.3320823959
 30
0.0
 10
4.720858393
 20
3.3407076507
 30
0.0
 10
4.7243886762
 20
3.3520990618
 30
0.0
 10
4.7294826183
 20
3.3661170792
 30
0.0
 10
4.7366458857
 20
3.3825151995
 30
0.0
 10
4.7448285952
 20
3.3984293002
 30
0.0
 10
4.7540003606
 20
3.4137961388
 30
0.0
 10
4.7607538765
 20
3.4236350393
 30
0.0
 10
4.7642835699
 20
3.4284410438
 30
0.0
 11
4.7118832842
 21
3.2969424372
 31
0.0
 11
4.7146405802
 21
3.3146143539
 31
0.0
 11
4.7164453803
 21
3.3233740451
 31
0.0
 11
4.7185341609
 21
3.3320702486
 31
0.0
 11
4.7209044842
 21
3.3406940601
 31
0.0
 11
4.7235517268
 21
3.349237113
 31
0.0
 11
4.7296581347
 21
3.3660475607
 31
0.0
 11
4.7368160516
 21
3.382435097
 31
0.0
 11
4.744992795
 21
3.3983369549
 31
0.0
 11
4.7541590729
 21
3.4136930849
 31
0.0
 11
4.7642835699
 21
3.4284410438
 31
0.0
  0
SPLINE
  5
3DE
100
AcDbEntity
  8
0
100
AcDbSpline
 62
9
  6
CONTINUOUS
 70
0
 71
3
 72
47
 73
43
 74
41
 42
0.0000001
 43
0.0000001
 44
0.0000000001
 12
-0.0032190844
 22
-0.1128630503
 32
0.0
 13
-0.0645769353
 23
-0.0926188429
 33
0.0
 40
0.0
 40
0.0
 40
0.0
 40
0.0
 40
0.0000445995
 40
0.0001500179
 40
0.0003155487
 40
0.000540474
 40
0.0008240747
 40
0.0011656316
 40
0.0020197387
 40
0.0030970512
 40
0.0043918334
 40
0.0058983598
 40
0.0076109149
 40
0.0116312981
 40
0.0164075016
 40
0.0218942462
 40
0.0280470269
 40
0.0348321686
 40
0.04222574
 40
0.0502041843
 40
0.0587439786
 40
0.0774136415
 40
0.0980477308
 40
0.120463826
 40
0.1445379595
 40
0.1701927979
 40
0.197352537
 40
0.2259416807
 40
0.2558851458
 40
0.3196171948
 40
0.3883045897
 40
0.4617629613
 40
0.5398703412
 40
0.622610299
 40
0.6657197448
 40
0.7099919967
 40
0.7554330446
 40
0.8020512322
 40
0.8498559992
 40
0.8988223598
 40
0.9488891541
 40
1.0
 40
1.0
 40
1.0
 40
1.0
 10
6.2614233768
 20
3.7709613099
 30
0.0
 10
6.261423329
 20
3.770959632
 30
0.0
 10
6.2614223943
 20
3.7709540425
 30
0.0
 10
6.2614208675
 20
3.7709422802
 30
0.0
 10
6.2614180029
 20
3.7709238289
 30
0.0
 10
6.2614141608
 20
3.7708987565
 30
0.0
 10
6.2614091538
 20
3.7708671551
 30
0.0
 10
6.2614003209
 20
3.7708121869
 30
0.0
 10
6.2613864043
 20
3.7707277792
 30
0.0
 10
6.2613661407
 20
3.7706080595
 30
0.0
 10
6.2613411725
 20
3.7704642331
 30
0.0
 10
6.2613114237
 20
3.7702969724
 30
0.0
 10
6.2612625972
 20
3.7700289155
 30
0.0
 10
6.2611891572
 20
3.7696402626
 30
0.0
 10
6.2610848035
 20
3.7691129097
 30
0.0
 10
6.2609594386
 20
3.7685079256
 30
0.0
 10
6.2608122322
 20
3.7678302831
 30
0.0
 10
6.2606429064
 20
3.7670840401
 30
0.0
 10
6.2604516058
 20
3.7662723559
 30
0.0
 10
6.2602382559
 20
3.7653980489
 30
0.0
 10
6.2599145877
 20
3.7641138559
 30
0.0
 10
6.2594547952
 20
3.7623728228
 30
0.0
 10
6.2588297945
 20
3.7601354953
 30
0.0
 10
6.2581148327
 20
3.7577123713
 30
0.0
 10
6.2573099363
 20
3.7551190513
 30
0.0
 10
6.2564158385
 20
3.7523667474
 30
0.0
 10
6.2554323478
 20
3.7494650737
 30
0.0
 10
6.2543594027
 20
3.7464235472
 30
0.0
 10
6.2527757982
 20
3.7421029298
 30
0.0
 10
6.2505670952
 20
3.7364046333
 30
0.0
 10
6.2475979362
 20
3.7292468757
 30
0.0
 10
6.2442457218
 20
3.7216645881
 30
0.0
 10
6.2404928812
 20
3.7136836927
 30
0.0
 10
6.2370579431
 20
3.7068179766
 30
0.0
 10
6.2340878486
 20
3.7011456259
 30
0.0
 10
6.2317108343
 20
3.6967477843
 30
0.0
 10
6.229207509
 20
3.6922686633
 30
0.0
 10
6.2265708049
 20
3.6877124272
 30
0.0
 10
6.2237950781
 20
3.6830840779
 30
0.0
 10
6.2208726327
 20
3.6783932141
 30
0.0
 10
6.2177930295
 20
3.6736548183
 30
0.0
 10
6.2156507489
 20
3.6705061721
 30
0.0
 10
6.2145505549
 20
3.6689282296
 30
0.0
 11
6.2614233768
 21
3.7709613099
 31
0.0
 11
6.2614227917
 21
3.7709563083
 31
0.0
 11
6.2614211198
 21
3.7709445236
 31
0.0
 11
6.2614183514
 21
3.7709260399
 31
0.0
 11
6.2614144763
 21
3.7709009412
 31
0.0
 11
6.2614094847
 21
3.7708693116
 31
0.0
 11
6.2614033666
 21
3.7708312352
 31
0.0
 11
6.2613877111
 21
3.7707360781
 31
0.0
 11
6.2613674301
 21
3.7706161425
 31
0.0
 11
6.2613424439
 21
3.7704721011
 31
0.0
 11
6.261312673
 21
3.7703046263
 31
0.0
 11
6.2612780377
 21
3.7701143907
 31
0.0
 11
6.2611938552
 21
3.7696683276
 31
0.0
 11
6.2610892592
 21
3.7691392922
 31
0.0
 11
6.2609636127
 21
3.7685326652
 31
0.0
 11
6.2608162938
 21
3.7678537611
 31
0.0
 11
6.2606469814
 21
3.7671066015
 31
0.0
 11
6.2604556294
 21
3.7662940278
 31
0.0
 11
6.2602422012
 21
3.765418838
 31
0.0
 11
6.2600066607
 21
3.7644838304
 31
0.0
 11
6.2594690973
 21
3.7624455537
 31
0.0
 11
6.2588426486
 21
3.7602015827
 31
0.0
 11
6.2581270312
 21
3.7577738801
 31
0.0
 11
6.2573220727
 21
3.7551776189
 31
0.0
 11
6.2564276907
 21
3.752422492
 31
0.0
 11
6.2554438053
 21
3.7495180355
 31
0.0
 11
6.2543703364
 21
3.7464737858
 31
0.0
 11
6.2532072038
 21
3.7432992769
 31
0.0
 11
6.2506094004
 21
3.7365886389
 31
0.0
 11
6.2476402606
 21
3.7294240892
 31
0.0
 11
6.2442881026
 21
3.7218375712
 31
0.0
 11
6.2405358027
 21
3.7138566316
 31
0.0
 11
6.2363569344
 21
3.705501301
 31
0.0
 11
6.2340988452
 21
3.7011893378
 31
0.0
 11
6.2317215722
 21
3.6967920763
 31
0.0
 11
6.229218136
 21
3.6923135833
 31
0.0
 11
6.2265815266
 21
3.68775794
 31
0.0
 11
6.2238047044
 21
3.6831294204
 31
0.0
 11
6.2208798023
 21
3.6784377345
 31
0.0
 11
6.2177980315
 21
3.6736986445
 31
0.0
 11
6.2145505549
 21
3.6689282296
 31
0.0
  0
LINE
  5
3DF
100
AcDbEntity
  8
0
100
AcDbLine
 62
9
  6
CONTINUOUS
 10
6.1685852068
 20
4.5909931493
 11
6.1818613313
 21
4.6043153535
  0
SPLINE
  5
3E0
100
AcDbEntity
  8
0
100
AcDbSpline
 62
9
  6
CONTINUOUS
 70
0
 71
3
 72
30
 73
26
 74
24
 42
0.0000001
 43
0.0000001
 44
0.0000000001
 12
0.1380666131
 22
0.1240073466
 32
0.0
 13
0.1527294847
 23
-0.10542256
 33
0.0
 40
0.0
 40
0.0
 40
0.0
 40
0.0
 40
0.0707027112
 40
0.1046167933
 40
0.1376838377
 40
0.169992626
 40
0.2016318406
 40
0.2326894456
 40
0.2632520195
 40
0.293404064
 40
0.3232273149
 40
0.3528000823
 40
0.3821966467
 40
0.4114867341
 40
0.4407350869
 40
0.4700011411
 40
0.4993388132
 40
0.5583995757
 40
0.618239428
 40
0.6790677394
 40
0.7410087179
 40
0.804112121
 40
0.8683641073
 40
0.9336973523
 40
1.0
 40
1.0
 40
1.0
 40
1.0
 10
6.2574520501
 20
4.8611121176
 30
0.0
 10
6.2607059447
 20
4.8640346695
 30
0.0
 10
6.2657129979
 20
4.868154303
 30
0.0
 10
6.2726685061
 20
4.8730741795
 30
0.0
 10
6.2778539026
 20
4.8763712139
 30
0.0
 10
6.2830767578
 20
4.8793324876
 30
0.0
 10
6.2883343466
 20
4.8819647948
 30
0.0
 10
6.2936236753
 20
4.8842747231
 30
0.0
 10
6.2989417977
 20
4.8862689371
 30
0.0
 10
6.3042857393
 20
4.8879541105
 30
0.0
 10
6.3096525245
 20
4.8893369474
 30
0.0
 10
6.3150391792
 20
4.8904241777
 30
0.0
 10
6.3204427354
 20
4.8912225573
 30
0.0
 10
6.3258602501
 20
4.8917388606
 30
0.0
 10
6.3312887577
 20
4.8919798899
 30
0.0
 10
6.3367254664
 20
4.8919524171
 30
0.0
 10
6.3439963021
 20
4.8915662066
 30
0.0
 10
6.353110506
 20
4.8904392269
 30
0.0
 10
6.3639985532
 20
4.8881304078
 30
0.0
 10
6.3748416103
 20
4.8849251516
 30
0.0
 10
6.385616165
 20
4.880885623
 30
0.0
 10
6.3962996154
 20
4.8760733613
 30
0.0
 10
6.4068690549
 20
4.8705493474
 30
0.0
 10
6.4173011168
 20
4.8643744544
 30
0.0
 10
6.4241043262
 20
4.8598934533
 30
0.0
 10
6.4274797826
 20
4.8575635217
 30
0.0
 11
6.2574520501
 21
4.8611121176
 31
0.0
 11
6.2676006969
 21
4.8694288011
 31
0.0
 11
6.2727406056
 21
4.8730610544
 31
0.0
 11
6.277920442
 21
4.8763515309
 31
0.0
 11
6.2831373594
 21
4.8793069422
 31
0.0
 11
6.288388511
 21
4.8819340001
 31
0.0
 11
6.29367105
 21
4.8842394162
 31
0.0
 11
6.2989821295
 21
4.8862299021
 31
0.0
 11
6.3043189029
 21
4.8879121695
 31
0.0
 11
6.3096785232
 21
4.8892929301
 31
0.0
 11
6.3150581437
 21
4.8903788955
 31
0.0
 11
6.3204549176
 21
4.8911767774
 31
0.0
 11
6.3258659982
 21
4.8916932875
 31
0.0
 11
6.3312885385
 21
4.8919351373
 31
0.0
 11
6.3367196918
 21
4.8919090386
 31
0.0
 11
6.3421566114
 21
4.891621703
 31
0.0
 11
6.3530361112
 21
4.8902913181
 31
0.0
 11
6.3639030063
 21
4.8880034431
 31
0.0
 11
6.374733013
 21
4.8848186962
 31
0.0
 11
6.3855018473
 21
4.8807976956
 31
0.0
 11
6.3961852253
 21
4.8760010596
 31
0.0
 11
6.4067588631
 21
4.8704894064
 31
0.0
 11
6.4171984768
 21
4.8643233544
 31
0.0
 11
6.4274797826
 21
4.8575635217
 31
0.0
  0
SPLINE
  5
3E1
100
AcDbEntity
  8
0
100
AcDbSpline
 62
9
  6
CONTINUOUS
 70
0
 71
3
 72
32
 73
28
 74
26
 42
0.0000001
 43
0.0000001
 44
0.0000000001
 12
0.0827849349
 22
0.0672175817
 32
0.0
 13
0.068839743
 23
-0.0814410124
 33
0.0
 40
0.0
 40
0.0
 40
0.0
 40
0.0
 40
0.0155474339
 40
0.0313621891
 40
0.0476688001
 40
0.0646681186
 40
0.1013691193
 40
0.121376653
 40
0.1425995811
 40
0.1651016623
 40
0.1889284008
 40
0.214110733
 40
0.2406616766
 40
0.2685742744
 40
0.2978323698
 40
0.3284133117
 40
0.3602893905
 40
0.3934261944
 40
0.4277747815
 40
0.4632801472
 40
0.4998846452
 40
0.5761455142
 40
0.6560506575
 40
0.7390418242
 40
0.8245331021
 40
0.9117943606
 40
1.0
 40
1.0
 40
1.0
 40
1.0
 10
6.0819480927
 20
3.67418052
 30
0.0
 10
6.0823771238
 20
3.6745288736
 30
0.0
 10
6.0832919723
 20
3.6751729666
 30
0.0
 10
6.0847992662
 20
3.675956939
 30
0.0
 10
6.0864421145
 20
3.6765615204
 30
0.0
 10
6.0888669812
 20
3.6771413451
 30
0.0
 10
6.091500696
 20
3.6773236199
 30
0.0
 10
6.0942676305
 20
3.6771647879
 30
0.0
 10
6.0965151019
 20
3.6768620864
 30
0.0
 10
6.0988689893
 20
3.6763801632
 30
0.0
 10
6.1013252124
 20
3.6757202026
 30
0.0
 10
6.1038785346
 20
3.6748831828
 30
0.0
 10
6.1065235167
 20
3.6738708739
 30
0.0
 10
6.1092544335
 20
3.6726861808
 30
0.0
 10
6.1120651272
 20
3.6713318948
 30
0.0
 10
6.1149493916
 20
3.6698108832
 30
0.0
 10
6.1179009046
 20
3.668126041
 30
0.0
 10
6.1209129133
 20
3.6662805848
 30
0.0
 10
6.1239788607
 20
3.6642792208
 30
0.0
 10
6.1270917877
 20
3.662126837
 30
0.0
 10
6.1313538512
 20
3.6590197047
 30
0.0
 10
6.1367447394
 20
3.6547858016
 30
0.0
 10
6.143202535
 20
3.6492538426
 30
0.0
 10
6.14968045
 20
3.6432515254
 30
0.0
 10
6.1561181724
 20
3.636830416
 30
0.0
 10
6.1624552539
 20
3.6300542335
 30
0.0
 10
6.166561363
 20
3.6253575784
 30
0.0
 10
6.1685853809
 20
3.6229630596
 30
0.0
 11
6.0819480927
 21
3.67418052
 31
0.0
 11
6.0833030554
 21
3.6751359453
 31
0.0
 11
6.0847979237
 21
3.6759166289
 31
0.0
 11
6.0864284664
 21
3.6765208545
 31
0.0
 11
6.0881904524
 21
3.6769469058
 31
0.0
 11
6.0920917898
 21
3.6772577539
 31
0.0
 11
6.0942221422
 21
3.6771409398
 31
0.0
 11
6.0964656836
 21
3.6768435983
 31
0.0
 11
6.0988173849
 21
3.6763667204
 31
0.0
 11
6.1012722172
 21
3.6757112972
 31
0.0
 11
6.1038251438
 21
3.6748783315
 31
0.0
 11
6.1064706569
 21
3.6738695386
 31
0.0
 11
6.1092025191
 21
3.6726877385
 31
0.0
 11
6.1120144301
 21
3.6713358459
 31
0.0
 11
6.1149000895
 21
3.6698167757
 31
0.0
 11
6.1178531969
 21
3.6681334428
 31
0.0
 11
6.1208673203
 21
3.6662891098
 31
0.0
 11
6.1239355001
 21
3.6642884311
 31
0.0
 11
6.127050645
 21
3.6621364091
 31
0.0
 11
6.1302056636
 21
3.6598380459
 31
0.0
 11
6.136606963
 21
3.6548223594
 31
0.0
 11
6.1430830496
 21
3.6492846946
 31
0.0
 11
6.1495781567
 21
3.6432734129
 31
0.0
 11
6.1560360204
 21
3.6368385158
 31
0.0
 11
6.1623940086
 21
3.6300440362
 31
0.0
 11
6.1685853809
 21
3.6229630596
 31
0.0
  0
SPLINE
  5
3E2
100
AcDbEntity
  8
0
100
AcDbSpline
 62
9
  6
CONTINUOUS
 70
0
 71
3
 72
44
 73
40
 74
38
 42
0.0000001
 43
0.0000001
 44
0.0000000001
 12
-0.0926281462
 22
-0.0645660949
 32
0.0
 13
-0.1126357744
 23
-0.007869969
 33
0.0
 40
0.0
 40
0.0
 40
0.0
 40
0.0
 40
0.0511097755
 40
0.1011767307
 40
0.1501440633
 40
0.1979503624
 40
0.2445699696
 40
0.2900122149
 40
0.3342853657
 40
0.3773952795
 40
0.4601347084
 40
0.5382396673
 40
0.6116950864
 40
0.6803806961
 40
0.7441090613
 40
0.8026374912
 40
0.8297975468
 40
0.8554530532
 40
0.8795275295
 40
0.9019433565
 40
0.9225792917
 40
0.9412523441
 40
0.9577738534
 40
0.9651686372
 40
0.9719544119
 40
0.9781071249
 40
0.9835935355
 40
0.9883693246
 40
0.9923892977
 40
0.9941016736
 40
0.9956080498
 40
0.9969027193
 40
0.9979799642
 40
0.9988340561
 40
0.9994592568
 40
0.9996842276
 40
0.9998498201
 40
0.9999553156
 40
1.0
 40
1.0
 40
1.0
 40
1.0
 10
6.1685853809
 20
3.6229630596
 30
0.0
 10
6.1670073129
 20
3.6218630734
 30
0.0
 10
6.1638586368
 20
3.619720823
 30
0.0
 10
6.1591205722
 20
3.61664058
 30
0.0
 10
6.1544300595
 20
3.6137172475
 30
0.0
 10
6.1498017732
 20
3.6109409892
 30
0.0
 10
6.1452453157
 20
3.6083042182
 30
0.0
 10
6.1407658339
 20
3.6058011312
 30
0.0
 10
6.1363675812
 20
3.6034245397
 30
0.0
 10
6.1306947514
 20
3.6004551183
 30
0.0
 10
6.1238288675
 20
3.597020523
 30
0.0
 10
6.1158480995
 20
3.5932676665
 30
0.0
 10
6.1082659767
 20
3.5899155073
 30
0.0
 10
6.1011084713
 20
3.5869462408
 30
0.0
 10
6.0944072677
 20
3.5843484599
 30
0.0
 10
6.0891160181
 20
3.5824421146
 30
0.0
 10
6.0851472013
 20
3.5810965035
 30
0.0
 10
6.0823948934
 20
3.5802021295
 30
0.0
 10
6.0798015856
 20
3.5793969845
 30
0.0
 10
6.0773784257
 20
3.5786817776
 30
0.0
 10
6.0751408921
 20
3.5780566922
 30
0.0
 10
6.0731091468
 20
3.5775203317
 30
0.0
 10
6.0715534288
 20
3.5771338906
 30
0.0
 10
6.0704286388
 20
3.5768690939
 30
0.0
 10
6.0696822638
 20
3.5767000021
 30
0.0
 10
6.0690045434
 20
3.5765530712
 30
0.0
 10
6.0683995117
 20
3.5764280478
 30
0.0
 10
6.0678721252
 20
3.5763240534
 30
0.0
 10
6.0674834498
 20
3.5762509092
 30
0.0
 10
6.0672153798
 20
3.5762022914
 30
0.0
 10
6.0670481112
 20
3.5761726689
 30
0.0
 10
6.0669042778
 20
3.5761478051
 30
0.0
 10
6.0667845524
 20
3.5761276063
 30
0.0
 10
6.0666896056
 20
3.57611201
 30
0.0
 10
6.0666262693
 20
3.5761018556
 30
0.0
 10
6.0665884903
 20
3.5760960157
 30
0.0
 10
6.0665700368
 20
3.5760931528
 30
0.0
 10
6.06655827
 20
3.5760915315
 30
0.0
 10
6.0665526813
 20
3.5760906266
 30
0.0
 10
6.0665510036
 20
3.5760905094
 30
0.0
 11
6.1685853809
 21
3.6229630596
 31
0.0
 11
6.1638149209
 21
3.619715734
 31
0.0
 11
6.1590760989
 21
3.6166333862
 31
0.0
 11
6.1543846974
 21
3.613707688
 31
0.0
 11
6.1497562112
 21
3.6109303408
 31
0.0
 11
6.1452003596
 21
3.608293638
 31
0.0
 11
6.1407215147
 21
3.6057904208
 31
0.0
 11
6.1363238477
 21
3.6034135513
 31
0.0
 11
6.1320115197
 21
3.6011559117
 31
0.0
 11
6.1236558981
 21
3.5969774938
 31
0.0
 11
6.115675095
 21
3.5932252833
 31
0.0
 11
6.1080888088
 21
3.5898731651
 31
0.0
 11
6.1009244283
 21
3.5869038867
 31
0.0
 11
6.0942142349
 21
3.5843058341
 31
0.0
 11
6.0879959066
 21
3.5820688196
 31
0.0
 11
6.0850914669
 21
3.5810846521
 31
0.0
 11
6.0823363146
 21
3.5801899849
 31
0.0
 11
6.0797400552
 21
3.5793847736
 31
0.0
 11
6.0773124049
 21
3.5786689722
 31
0.0
 11
6.075068208
 21
3.5780424477
 31
0.0
 11
6.0730294918
 21
3.5775049454
 31
0.0
 11
6.07121882
 21
3.5770562016
 31
0.0
 11
6.0704060519
 21
3.5768650318
 31
0.0
 11
6.0696587563
 21
3.5766959526
 31
0.0
 11
6.0689797884
 21
3.5765489225
 31
0.0
 11
6.068373121
 21
3.5764236181
 31
0.0
 11
6.0678440554
 21
3.5763193816
 31
0.0
 11
6.0673979702
 21
3.5762355356
 31
0.0
 11
6.067207726
 21
3.5762010473
 31
0.0
 11
6.0670402438
 21
3.5761714027
 31
0.0
 11
6.066896196
 21
3.576146517
 31
0.0
 11
6.0667762549
 21
3.5761263056
 31
0.0
 11
6.0666810927
 21
3.5761106838
 31
0.0
 11
6.0666113819
 21
3.576099567
 31
0.0
 11
6.0665862809
 21
3.5760956714
 31
0.0
 11
6.0665677948
 21
3.5760928704
 31
0.0
 11
6.0665560077
 21
3.5760911532
 31
0.0
 11
6.0665510036
 21
3.5760905094
 31
0.0
  0
SPLINE
  5
3E3
100
AcDbEntity
  8
0
100
AcDbSpline
 62
9
  6
CONTINUOUS
 70
0
 71
3
 72
17
 73
13
 74
11
 42
0.0000001
 43
0.0000001
 44
0.0000000001
 12
0.2489786005
 22
0.249953333
 32
0.0
 13
0.2435344249
 23
0.2552606433
 33
0.0
 40
0.0
 40
0.0
 40
0.0
 40
0.0
 40
0.0519624319
 40
0.1062490759
 40
0.1626629131
 40
0.2210068553
 40
0.342696411
 40
0.4697401885
 40
0.6005617986
 40
0.7335912538
 40
0.8672601391
 40
1.0
 40
1.0
 40
1.0
 40
1.0
 10
6.1818613313
 20
4.6043153535
 30
0.0
 10
6.1861738425
 20
4.6086447479
 30
0.0
 10
6.1949791792
 20
4.6175097203
 30
0.0
 10
6.2084272037
 20
4.6311138913
 30
0.0
 10
6.2223732025
 20
4.6452809825
 30
0.0
 10
6.24184329
 20
4.6651328434
 30
0.0
 10
6.2670656025
 20
4.6909771428
 30
0.0
 10
6.2981580791
 20
4.7230019802
 30
0.0
 10
6.3301092576
 20
4.7560516621
 30
0.0
 10
6.362536063
 20
4.7897250685
 30
0.0
 10
6.3950561911
 20
4.8236216655
 30
0.0
 10
6.4167042074
 20
4.8462691009
 30
0.0
 10
6.4274797826
 20
4.8575635217
 30
0.0
 11
6.1818613313
 21
4.6043153535
 31
0.0
 11
6.1947814715
 21
4.617320839
 31
0.0
 11
6.2082466763
 21
4.6309405852
 31
0.0
 11
6.2222096797
 21
4.6451234417
 31
0.0
 11
6.2366232155
 21
4.6598182584
 31
0.0
 11
6.2666128193
 21
4.6905391713
 31
0.0
 11
6.2978373581
 21
4.7226941221
 31
0.0
 11
6.3299180386
 21
4.7558753659
 31
0.0
 11
6.3624734116
 21
4.7896809865
 31
0.0
 11
6.3951213639
 21
4.8237105248
 31
0.0
 11
6.4274797826
 21
4.8575635217
 31
0.0
  0
SPLINE
  5
3E4
100
AcDbEntity
  8
0
100
AcDbSpline
 62
9
  6
CONTINUOUS
 70
0
 71
3
 72
48
 73
44
 74
42
 42
0.0000001
 43
0.0000001
 44
0.0000000001
 12
-0.0646092613
 22
-0.0925977483
 32
0.0
 13
-0.0049468887
 23
-0.1128017195
 33
0.0
 40
0.0
 40
0.0
 40
0.0
 40
0.0
 40
0.0511245253
 40
0.1012010052
 40
0.1501657447
 40
0.197959652
 40
0.2445757007
 40
0.2900206134
 40
0.3342983188
 40
0.3774116179
 40
0.4193641401
 40
0.4601586691
 40
0.4997969366
 40
0.5382775295
 40
0.6117245234
 40
0.6804081455
 40
0.7441642976
 40
0.7740921376
 40
0.8026583957
 40
0.829816231
 40
0.8554930995
 40
0.8795836526
 40
0.9019799175
 40
0.9225735099
 40
0.9412404115
 40
0.9577815055
 40
0.965185299
 40
0.9719739198
 40
0.9781193147
 40
0.9835933381
 40
0.9883620232
 40
0.9923799127
 40
0.9940926296
 40
0.9955999976
 40
0.9968961049
 40
0.9979750268
 40
0.9988308273
 40
0.9991731992
 40
0.9994575597
 40
0.999683164
 40
0.999849267
 40
0.9999551244
 40
1.0
 40
1.0
 40
1.0
 40
1.0
 10
5.2465204523
 20
4.545027668
 30
0.0
 10
5.245419413
 20
4.5434496627
 30
0.0
 10
5.2432762461
 20
4.5403004922
 30
0.0
 10
5.2401967677
 20
4.5355609639
 30
0.0
 10
5.2372748846
 20
4.5308698114
 30
0.0
 10
5.2344992528
 20
4.5262419777
 30
0.0
 10
5.2318637155
 20
4.5216853938
 30
0.0
 10
5.229361121
 20
4.5172054962
 30
0.0
 10
5.2269835549
 20
4.5128073453
 30
0.0
 10
5.2247242694
 20
4.508495155
 30
0.0
 10
5.2225795784
 20
4.5042713674
 30
0.0
 10
5.2205453016
 20
4.5001386117
 30
0.0
 10
5.2186173869
 20
4.4960995128
 30
0.0
 10
5.2162205607
 20
4.4909229287
 30
0.0
 10
5.213470993
 20
4.4847054844
 30
0.0
 10
5.2105025802
 20
4.4775469767
 30
0.0
 10
5.2082937669
 20
4.4718484729
 30
0.0
 10
5.2067095741
 20
4.4675285986
 30
0.0
 10
5.2056367192
 20
4.4644886149
 30
0.0
 10
5.204653634
 20
4.4615868751
 30
0.0
 10
5.2037600799
 20
4.4588329154
 30
0.0
 10
5.2029555338
 20
4.4562387272
 30
0.0
 10
5.2022400973
 20
4.4538174499
 30
0.0
 10
5.2016138872
 20
4.4515828922
 30
0.0
 10
5.201078167
 20
4.4495520969
 30
0.0
 10
5.200692492
 20
4.4479953231
 30
0.0
 10
5.2004277562
 20
4.4468693067
 30
0.0
 10
5.2002585161
 20
4.4461227933
 30
0.0
 10
5.2001109815
 20
4.4454458574
 30
0.0
 10
5.19998513
 20
4.444842029
 30
0.0
 10
5.1998808279
 20
4.4443155307
 30
0.0
 10
5.19980764
 20
4.4439272025
 30
0.0
 10
5.1997590896
 20
4.4436591494
 30
0.0
 10
5.1997295422
 20
4.4434917621
 30
0.0
 10
5.1997047763
 20
4.4433477549
 30
0.0
 10
5.1996847011
 20
4.4432278255
 30
0.0
 10
5.1996709301
 20
4.443143236
 30
0.0
 10
5.1996621918
 20
4.4430881273
 30
0.0
 10
5.1996572401
 20
4.4430564315
 30
0.0
 10
5.1996534317
 20
4.443031276
 30
0.0
 10
5.1996506044
 20
4.443012757
 30
0.0
 10
5.1996490604
 20
4.4430009438
 30
0.0
 10
5.1996481513
 20
4.4429953286
 30
0.0
 10
5.1996480773
 20
4.4429936412
 30
0.0
 11
5.2465204523
 21
4.545027668
 31
0.0
 11
5.2432713588
 21
4.5402564119
 31
0.0
 11
5.2401893662
 21
4.5355160904
 31
0.0
 11
5.2372649613
 21
4.5308242415
 31
0.0
 11
5.2344888983
 21
4.5261966301
 31
0.0
 11
5.2318531902
 21
4.52164068
 31
0.0
 11
5.22935022
 21
4.5171613647
 31
0.0
 11
5.2269723871
 21
4.5127636459
 31
0.0
 11
5.2247133258
 21
4.5084516428
 31
0.0
 11
5.222568744
 21
4.504228059
 31
0.0
 11
5.2205345476
 21
4.500095463
 31
0.0
 11
5.2186066429
 21
4.4960564233
 31
0.0
 11
5.2167813175
 21
4.4921135942
 31
0.0
 11
5.2134290676
 21
4.4845284257
 31
0.0
 11
5.2104605288
 21
4.4773639995
 31
0.0
 11
5.2078615674
 21
4.4706508101
 31
0.0
 11
5.2066985579
 21
4.467478097
 31
0.0
 11
5.2056256482
 21
4.4644363541
 31
0.0
 11
5.2046421864
 21
4.4615319469
 31
0.0
 11
5.2037478397
 21
4.4587741612
 31
0.0
 11
5.2029426811
 21
4.4561759911
 31
0.0
 11
5.2022268096
 21
4.45375067
 31
0.0
 11
5.2016003244
 21
4.4515114314
 31
0.0
 11
5.2010631972
 21
4.4494733392
 31
0.0
 11
5.2006147844
 21
4.4476603115
 31
0.0
 11
5.2004235868
 21
4.4468465068
 31
0.0
 11
5.2002542566
 21
4.4460989401
 31
0.0
 11
5.2001066903
 21
4.4454209357
 31
0.0
 11
5.1999807825
 21
4.4448158232
 31
0.0
 11
5.1998762249
 21
4.4442876398
 31
0.0
 11
5.1997923121
 21
4.4438418075
 31
0.0
 11
5.1997578627
 21
4.4436515175
 31
0.0
 11
5.1997282926
 21
4.4434839088
 31
0.0
 11
5.1997035079
 21
4.4433396792
 31
0.0
 11
5.1996834146
 21
4.4432195265
 31
0.0
 11
5.1996679189
 21
4.4431241485
 31
0.0
 11
5.1996618657
 21
4.4430859681
 31
0.0
 11
5.1996569267
 21
4.4430542431
 31
0.0
 11
5.1996530901
 21
4.4430290607
 31
0.0
 11
5.1996503442
 21
4.4430105081
 31
0.0
 11
5.1996486772
 21
4.4429986725
 31
0.0
 11
5.1996480773
 21
4.4429936412
 31
0.0
  0
SPLINE
  5
3E5
100
AcDbEntity
  8
0
100
AcDbSpline
 62
9
  6
CONTINUOUS
 70
0
 71
3
 72
32
 73
28
 74
26
 42
0.0000001
 43
0.0000001
 44
0.0000000001
 12
0.0814402495
 22
-0.0688389743
 32
0.0
 13
-0.0672164738
 23
-0.0827844446
 33
0.0
 40
0.0
 40
0.0
 40
0.0
 40
0.0
 40
0.0882057281
 40
0.1754670533
 40
0.260958367
 40
0.3439495331
 40
0.4238546398
 40
0.5001154367
 40
0.5367198872
 40
0.5722251999
 40
0.6065737298
 40
0.6397104738
 40
0.6715864917
 40
0.7021673733
 40
0.7314254118
 40
0.759337958
 40
0.7858888575
 40
0.811071155
 40
0.8348978705
 40
0.8573999426
 40
0.8786228781
 40
0.8986304379
 40
0.9353315502
 40
0.9523309483
 40
0.9686376466
 40
0.9844524889
 40
1.0
 40
1.0
 40
1.0
 40
1.0
 10
5.2465204523
 20
4.545027668
 30
0.0
 10
5.2489149511
 20
4.5430036707
 30
0.0
 10
5.2536115667
 20
4.5388976039
 30
0.0
 10
5.2603876909
 20
4.5325605875
 30
0.0
 10
5.2668087407
 20
4.5261229305
 30
0.0
 10
5.2728109962
 20
4.5196450802
 30
0.0
 10
5.2783428926
 20
4.5131873492
 30
0.0
 10
5.2825767436
 20
4.5077965152
 30
0.0
 10
5.2856838346
 20
4.5035344953
 30
0.0
 10
5.2878361881
 20
4.5004216006
 30
0.0
 10
5.2898375224
 20
4.4973556853
 30
0.0
 10
5.2916829499
 20
4.4943437083
 30
0.0
 10
5.2933677642
 20
4.4913922264
 30
0.0
 10
5.2948887493
 20
4.4885079924
 30
0.0
 10
5.2962430102
 20
4.4856973284
 30
0.0
 10
5.2974276799
 20
4.4829664402
 30
0.0
 10
5.2984399674
 20
4.4803214855
 30
0.0
 10
5.299276968
 20
4.4777681895
 30
0.0
 10
5.2999369118
 20
4.4753119909
 30
0.0
 10
5.3004188205
 20
4.4729581262
 30
0.0
 10
5.30072151
 20
4.4707106755
 30
0.0
 10
5.3008803301
 20
4.4679437632
 30
0.0
 10
5.3006980475
 20
4.4653100682
 30
0.0
 10
5.3001182225
 20
4.4628852174
 30
0.0
 10
5.2995136442
 20
4.4612423774
 30
0.0
 10
5.2987296788
 20
4.4597350893
 30
0.0
 10
5.2980855928
 20
4.4588202427
 30
0.0
 10
5.2977372432
 20
4.4583912121
 30
0.0
 11
5.2465204523
 21
4.545027668
 31
0.0
 11
5.2536013699
 21
4.5388363586
 31
0.0
 11
5.260395791
 21
4.5324784352
 31
0.0
 11
5.2668306283
 21
4.5260206367
 31
0.0
 11
5.2728418483
 21
4.5195255944
 31
0.0
 11
5.2783794503
 21
4.5130495729
 31
0.0
 11
5.2833950742
 21
4.5066483387
 31
0.0
 11
5.2856934065
 21
4.5034933527
 31
0.0
 11
5.2878453982
 21
4.5003782402
 31
0.0
 11
5.2898460472
 21
4.4973100926
 31
0.0
 11
5.2916903513
 21
4.494296001
 31
0.0
 11
5.2933736564
 21
4.4913429247
 31
0.0
 11
5.2948927
 21
4.4884572959
 31
0.0
 11
5.2962445675
 21
4.4856454147
 31
0.0
 11
5.2974263443
 21
4.4829135812
 31
0.0
 11
5.2984351158
 21
4.4802680955
 31
0.0
 11
5.2992680623
 21
4.4777151952
 31
0.0
 11
5.2999234687
 21
4.4752603875
 31
0.0
 11
5.3004003322
 21
4.472908709
 31
0.0
 11
5.3006976619
 21
4.4706651884
 31
0.0
 11
5.3008144669
 21
4.4685348544
 31
0.0
 11
5.3005036089
 21
4.4646335455
 31
0.0
 11
5.3000775574
 21
4.4628715698
 31
0.0
 11
5.2994733349
 21
4.4612410347
 31
0.0
 11
5.2986926579
 21
4.4597461717
 31
0.0
 11
5.2977372432
 21
4.4583912121
 31
0.0
  0
SPLINE
  5
3E6
100
AcDbEntity
  8
0
100
AcDbSpline
 62
9
  6
CONTINUOUS
 70
0
 71
3
 72
24
 73
20
 74
18
 42
0.0000001
 43
0.0000001
 44
0.0000000001
 12
0.2130724264
 22
0.1898676602
 32
0.0
 13
0.2597714876
 23
-0.118187823
 33
0.0
 40
0.0
 40
0.0
 40
0.0
 40
0.0
 40
0.0804957678
 40
0.1574033999
 40
0.2309620907
 40
0.2665670833
 40
0.3014283734
 40
0.3690393183
 40
0.4340671977
 40
0.4967819422
 40
0.5574590206
 40
0.6163770457
 40
0.6738077658
 40
0.7300065216
 40
0.7852092713
 40
0.8396304304
 40
0.8934614087
 40
0.9468699113
 40
1.0
 40
1.0
 40
1.0
 40
1.0
 10
6.33028216
 20
4.9710968815
 30
0.0
 10
6.3359993028
 20
4.9761913959
 30
0.0
 10
6.3474407957
 20
4.9858650081
 30
0.0
 10
6.3650009513
 20
4.999089925
 30
0.0
 10
6.3797601537
 20
5.0088844857
 30
0.0
 10
6.3915262991
 20
5.0159087858
 30
0.0
 10
6.4030179037
 20
5.0222753388
 30
0.0
 10
6.4173306578
 20
5.0293090073
 30
0.0
 10
6.4345529033
 20
5.036333207
 30
0.0
 10
6.451613369
 20
5.0418850249
 30
0.0
 10
6.4684802778
 20
5.0459953167
 30
0.0
 10
6.4851208991
 20
5.0486949045
 30
0.0
 10
6.501498312
 20
5.0500331548
 30
0.0
 10
6.5175766127
 20
5.0500602325
 30
0.0
 10
6.533319987
 20
5.0488264764
 30
0.0
 10
6.5486927517
 20
5.0463824971
 30
0.0
 10
6.5636598169
 20
5.0427788661
 30
0.0
 10
6.5781850617
 20
5.0380667758
 30
0.0
 10
6.5875706818
 20
5.0342119281
 30
0.0
 10
6.5921712425
 20
5.0321188183
 30
0.0
 11
6.33028216
 21
4.9710968815
 31
0.0
 11
6.3478391671
 21
4.985912741
 31
0.0
 11
6.3653848888
 21
4.999100021
 31
0.0
 11
6.382888369
 21
5.0106906295
 31
0.0
 11
6.3916145947
 21
5.0158971531
 31
0.0
 11
6.4003186516
 21
5.0207164742
 31
0.0
 11
6.4176447805
 21
5.0292094629
 31
0.0
 11
6.4348357996
 21
5.0362015035
 31
0.0
 11
6.4518607528
 21
5.0417245037
 31
0.0
 11
6.468688684
 21
5.0458103714
 31
0.0
 11
6.4852879859
 21
5.0484940021
 31
0.0
 11
6.5016244467
 21
5.0498222388
 31
0.0
 11
6.5176632038
 21
5.0498449107
 31
0.0
 11
6.5333693946
 21
5.048611847
 31
0.0
 11
6.5487081565
 21
5.0461728767
 31
0.0
 11
6.5636446269
 21
5.0425778291
 31
0.0
 11
6.5781439431
 21
5.0378765332
 31
0.0
 11
6.5921712425
 21
5.0321188183
 31
0.0
  0
SPLINE
  5
3E7
100
AcDbEntity
  8
0
100
AcDbSpline
 62
9
  6
CONTINUOUS
 70
0
 71
3
 72
18
 73
14
 74
12
 42
0.0000001
 43
0.0000001
 44
0.0000000001
 12
0.1656625933
 22
0.1736392715
 32
0.0
 13
0.1616860334
 23
0.1773480138
 33
0.0
 40
0.0
 40
0.0
 40
0.0
 40
0.0
 40
0.1423911371
 40
0.2853155858
 40
0.4258289528
 40
0.5609870454
 40
0.6880147775
 40
0.7478130983
 40
0.8048126484
 40
0.858772199
 40
0.9094506026
 40
0.9566068254
 40
1.0
 40
1.0
 40
1.0
 40
1.0
 10
6.4274797826
 20
4.8575635217
 30
0.0
 10
6.4353427443
 20
4.8658050861
 30
0.0
 10
6.4510963436
 20
4.8823207761
 30
0.0
 10
6.4745935827
 20
4.9069842496
 30
0.0
 10
6.4976670929
 20
4.9312522241
 30
0.0
 10
6.5198289491
 20
4.9546322155
 30
0.0
 10
6.5375079848
 20
4.9733646598
 30
0.0
 10
6.5508638128
 20
4.9875798984
 30
0.0
 10
6.5602000979
 20
4.9975512886
 30
0.0
 10
6.5690186427
 20
5.0070079735
 30
0.0
 10
6.5772787431
 20
5.0159086998
 30
0.0
 10
6.5849397182
 20
5.0242121901
 30
0.0
 10
6.5898325524
 20
5.0295535872
 30
0.0
 10
6.5921712425
 20
5.0321188183
 30
0.0
 11
6.4274797826
 21
4.8575635217
 31
0.0
 11
6.4510644344
 21
4.882292253
 31
0.0
 11
6.4747223891
 21
4.9071279304
 31
0.0
 11
6.4979559847
 21
4.9315686748
 31
0.0
 11
6.5202675592
 21
4.9551126074
 31
0.0
 11
6.5411880575
 21
4.9772865395
 31
0.0
 11
6.551014044
 21
4.9877459536
 31
0.0
 11
6.5603628517
 21
4.9977320436
 31
0.0
 11
6.5691937281
 21
5.0072035922
 31
0.0
 11
6.5774659204
 21
5.0161193823
 31
0.0
 11
6.5851386761
 21
5.0244381967
 31
0.0
 11
6.5921712425
 21
5.0321188183
 31
0.0
  0
SPLINE
  5
3E8
100
AcDbEntity
  8
0
100
AcDbSpline
 62
9
  6
CONTINUOUS
 70
0
 71
3
 72
50
 73
46
 74
44
 42
0.0000001
 43
0.0000001
 44
0.0000000001
 12
-0.1127893457
 22
0.0051967285
 32
0.0
 13
-0.0926163254
 23
-0.0645806376
 33
0.0
 40
0.0
 40
0.0
 40
0.0
 40
0.0
 40
0.0000463046
 40
0.000153217
 40
0.0003200556
 40
0.0005461027
 40
0.0008306352
 40
0.0011729288
 40
0.0020279008
 40
0.0031052273
 40
0.0043991238
 40
0.005903815
 40
0.0076135362
 40
0.0095225335
 40
0.0116250648
 40
0.0163878125
 40
0.0218573198
 40
0.0279997546
 40
0.0347867242
 40
0.0421899404
 40
0.0501811887
 40
0.0587323393
 40
0.0774021791
 40
0.0979993639
 40
0.1203994154
 40
0.1444934347
 40
0.1701729169
 40
0.197332128
 40
0.2258989146
 40
0.2558265902
 40
0.3195806438
 40
0.3882617432
 40
0.4617084587
 40
0.5001897443
 40
0.5398294167
 40
0.5806260637
 40
0.6225811463
 40
0.6656971977
 40
0.7099775911
 40
0.7554247219
 40
0.8020420678
 40
0.8498359026
 40
0.8987991005
 40
0.9488743587
 40
1.0
 40
1.0
 40
1.0
 40
1.0
 10
5.3945185984
 20
4.6378652724
 30
0.0
 10
5.3945168575
 20
4.6378653526
 30
0.0
 10
5.3945111179
 20
4.637864408
 30
0.0
 10
5.3944991862
 20
4.6378630479
 30
0.0
 10
5.3944805653
 20
4.6378602297
 30
0.0
 10
5.3944553563
 20
4.6378564811
 30
0.0
 10
5.3944236369
 20
4.6378515344
 30
0.0
 10
5.3943685593
 20
4.6378427877
 30
0.0
 10
5.3942840788
 20
4.6378289337
 30
0.0
 10
5.3941643546
 20
4.6378086991
 30
0.0
 10
5.3940206337
 20
4.6377837174
 30
0.0
 10
5.3938535946
 20
4.6377539159
 30
0.0
 10
5.3936639159
 20
4.6377192138
 30
0.0
 10
5.3934522759
 20
4.6376795344
 30
0.0
 10
5.393127971
 20
4.6376172459
 30
0.0
 10
5.3926726793
 20
4.6375265193
 30
0.0
 10
5.3920694171
 20
4.6374004634
 30
0.0
 10
5.3913928339
 20
4.6372529585
 30
0.0
 10
5.3906464825
 20
4.6370839256
 30
0.0
 10
5.3898337264
 20
4.6368931937
 30
0.0
 10
5.3889579228
 20
4.6366806117
 30
0.0
 10
5.3876724532
 20
4.6363582629
 30
0.0
 10
5.38593198
 20
4.6359000461
 30
0.0
 10
5.3836968732
 20
4.6352744498
 30
0.0
 10
5.3812750947
 20
4.6345593503
 30
0.0
 10
5.3786805102
 20
4.6337549188
 30
0.0
 10
5.3759263045
 20
4.6328613049
 30
0.0
 10
5.3730244846
 20
4.6318780207
 30
0.0
 10
5.369984562
 20
4.6308048929
 30
0.0
 10
5.3656649505
 20
4.6292203072
 30
0.0
 10
5.3599668804
 20
4.6270110498
 30
0.0
 10
5.3528086935
 20
4.6240425599
 30
0.0
 10
5.3465912932
 20
4.6212932662
 30
0.0
 10
5.3414145223
 20
4.6188968185
 30
0.0
 10
5.337375145
 20
4.6169692237
 30
0.0
 10
5.3332420524
 20
4.6149352175
 30
0.0
 10
5.3290179093
 20
4.6127907137
 30
0.0
 10
5.3247054006
 20
4.6105314913
 30
0.0
 10
5.3203070368
 20
4.6081538169
 30
0.0
 10
5.3158271042
 20
4.6056509099
 30
0.0
 10
5.3112706984
 20
4.6030149099
 30
0.0
 10
5.3066432913
 20
4.6002386928
 30
0.0
 10
5.3019527769
 20
4.5973160938
 30
0.0
 10
5.2972135955
 20
4.5942363096
 30
0.0
 10
5.2940641762
 20
4.5920936006
 30
0.0
 10
5.2924858199
 20
4.5909930251
 30
0.0
 11
5.3945185984
 21
4.6378652724
 31
0.0
 11
5.3945133908
 21
4.6378648084
 31
0.0
 11
5.3945014212
 21
4.6378632445
 31
0.0
 11
5.3944827743
 21
4.637860571
 31
0.0
 11
5.394457535
 21
4.637856778
 31
0.0
 11
5.3944257879
 21
4.6378518561
 31
0.0
 11
5.3943876181
 21
4.6378457955
 31
0.0
 11
5.3942923489
 21
4.6378302194
 31
0.0
 11
5.394172406
 21
4.6378099725
 31
0.0
 11
5.3940284675
 21
4.6377849773
 31
0.0
 11
5.393861212
 21
4.6377551565
 31
0.0
 11
5.3936713178
 21
4.6377204325
 31
0.0
 11
5.3934594633
 21
4.637680728
 31
0.0
 11
5.3932263269
 21
4.6376359657
 31
0.0
 11
5.3926989219
 21
4.6375309577
 31
0.0
 11
5.392094384
 21
4.6374048224
 31
0.0
 11
5.3914167277
 21
4.637257261
 31
0.0
 11
5.3906693168
 21
4.6370881225
 31
0.0
 11
5.3898555097
 21
4.6368972568
 31
0.0
 11
5.388978665
 21
4.636684514
 31
0.0
 11
5.3880421411
 21
4.6364497442
 31
0.0
 11
5.3860034891
 21
4.6359135238
 31
0.0
 11
5.3837636774
 21
4.6352876691
 31
0.0
 11
5.3813378338
 21
4.634572148
 31
0.0
 11
5.3787392448
 21
4.6337671114
 31
0.0
 11
5.3759811973
 21
4.6328727104
 31
0.0
 11
5.3730767198
 21
4.6318890683
 31
0.0
 11
5.3700350401
 21
4.6308158977
 31
0.0
 11
5.3668624891
 21
4.629652599
 31
0.0
 11
5.3601498065
 21
4.6270531859
 31
0.0
 11
5.3529857967
 21
4.6240845908
 31
0.0
 11
5.3454006234
 21
4.6207326363
 31
0.0
 11
5.3414576311
 21
4.6189075816
 31
0.0
 11
5.3374183206
 21
4.6169799808
 31
0.0
 11
5.3332853819
 21
4.6149460445
 31
0.0
 11
5.3290614384
 21
4.612801638
 31
0.0
 11
5.3247491136
 21
4.6105426268
 31
0.0
 11
5.3203511731
 21
4.608164672
 31
0.0
 11
5.3158718054
 21
4.6056613882
 31
0.0
 11
5.3113160183
 21
4.603025212
 31
0.0
 11
5.30668883
 21
4.6002485655
 31
0.0
 11
5.3019976134
 21
4.5973235806
 31
0.0
 11
5.2972576366
 21
4.5942414156
 31
0.0
 11
5.2924858199
 21
4.5909930251
 31
0.0
  0
SPLINE
  5
3E9
100
AcDbEntity
  8
0
100
AcDbSpline
 62
9
  6
CONTINUOUS
 70
0
 71
3
 72
40
 73
36
 74
34
 42
0.0000001
 43
0.0000001
 44
0.0000000001
 12
0.0726825339
 22
0.0797230457
 32
0.0
 13
-0.0953787442
 23
0.0504123982
 33
0.0
 40
0.0
 40
0.0
 40
0.0
 40
0.0
 40
0.1186268557
 40
0.2301085928
 40
0.3343668976
 40
0.4313236033
 40
0.5209007466
 40
0.6030206507
 40
0.6776060529
 40
0.744580308
 40
0.7751896286
 40
0.8038678978
 40
0.8306059078
 40
0.8553946143
 40
0.8782251955
 40
0.8990891375
 40
0.9179783671
 40
0.9348854636
 40
0.949804013
 40
0.962729241
 40
0.9684437693
 40
0.9736596356
 40
0.9783774866
 40
0.9825986445
 40
0.9863254677
 40
0.9895619814
 40
0.9923150527
 40
0.9945967541
 40
0.9955677689
 40
0.9964309238
 40
0.9971927568
 40
0.9978628679
 40
0.9989848982
 40
0.9994909286
 40
1.0
 40
1.0
 40
1.0
 40
1.0
 10
6.5921712425
 20
5.0321188183
 30
0.0
 10
6.595045276
 20
5.0352712497
 30
0.0
 10
6.6006124106
 20
5.0413933761
 30
0.0
 10
6.6086761439
 20
5.0503127052
 30
0.0
 10
6.6161904715
 20
5.0586781342
 30
0.0
 10
6.6231503608
 20
5.0664826769
 30
0.0
 10
6.6295507886
 20
5.0737193425
 30
0.0
 10
6.6353867639
 20
5.08038112
 30
0.0
 10
6.6406532794
 20
5.0864610089
 30
0.0
 10
6.6446755355
 20
5.0911678743
 30
0.0
 10
6.647602927
 20
5.0946386472
 30
0.0
 10
6.6495861706
 20
5.0970128408
 30
0.0
 10
6.6514232415
 20
5.0992363531
 30
0.0
 10
6.6531135191
 20
5.1013083102
 30
0.0
 10
6.6546563966
 20
5.1032278285
 30
0.0
 10
6.6560512789
 20
5.1049940218
 30
0.0
 10
6.6572975804
 20
5.1066060003
 30
0.0
 10
6.658394767
 20
5.1080628606
 30
0.0
 10
6.6593422778
 20
5.1093637127
 30
0.0
 10
6.6600325862
 20
5.1103537264
 30
0.0
 10
6.6605075864
 20
5.1110681228
 30
0.0
 10
6.6608110978
 20
5.1115420143
 30
0.0
 10
6.6610767451
 20
5.1119762669
 30
0.0
 10
6.6613044903
 20
5.1123707836
 30
0.0
 10
6.6614943152
 20
5.112725465
 30
0.0
 10
6.6616462818
 20
5.1130402588
 30
0.0
 10
6.6617603986
 20
5.1133151179
 30
0.0
 10
6.6618275112
 20
5.1135208306
 30
0.0
 10
6.661860005
 20
5.1136653528
 30
0.0
 10
6.6618734804
 20
5.1137578197
 30
0.0
 10
6.6618773519
 20
5.1138405078
 30
0.0
 10
6.6618702632
 20
5.1139320547
 30
0.0
 10
6.6618440133
 20
5.1140134798
 30
0.0
 10
6.6617939144
 20
5.1140728816
 30
0.0
 10
6.6617634997
 20
5.1140938995
 30
0.0
 10
6.6617473149
 20
5.114102454
 30
0.0
 11
6.5921712425
 21
5.0321188183
 31
0.0
 11
6.6007805618
 21
5.0415877492
 31
0.0
 11
6.6088454101
 21
5.0505098426
 31
0.0
 11
6.6163607223
 21
5.0588781364
 31
0.0
 11
6.6233214332
 21
5.0666856686
 31
0.0
 11
6.6297224775
 21
5.073925477
 31
0.0
 11
6.6355587899
 21
5.0805905997
 31
0.0
 11
6.6408253053
 21
5.0866740745
 31
0.0
 11
6.6455169585
 21
5.0921689395
 31
0.0
 11
6.6476456288
 21
5.0946934676
 31
0.0
 11
6.6496286841
 21
5.0970682324
 31
0.0
 11
6.6514654913
 21
5.0992923637
 31
0.0
 11
6.6531554171
 21
5.1013649913
 31
0.0
 11
6.6546978284
 21
5.1032852448
 31
0.0
 11
6.656092092
 21
5.1050522541
 31
0.0
 11
6.6573375749
 21
5.1066651488
 31
0.0
 11
6.6584336439
 21
5.1081230587
 31
0.0
 11
6.6593796657
 21
5.1094251135
 31
0.0
 11
6.6601750073
 21
5.110570443
 31
0.0
 11
6.6605159751
 21
5.1110840639
 31
0.0
 11
6.6608190355
 21
5.111558177
 31
0.0
 11
6.6610841092
 21
5.1119926737
 31
0.0
 11
6.6613111171
 21
5.1123874451
 31
0.0
 11
6.6614999801
 21
5.1127423825
 31
0.0
 11
6.661650619
 21
5.1130573771
 31
0.0
 11
6.6617629547
 21
5.1133323201
 31
0.0
 11
6.661836908
 21
5.1135671028
 31
0.0
 11
6.6618594666
 21
5.1136694
 31
0.0
 11
6.6618723999
 21
5.1137616163
 31
0.0
 11
6.661875698
 21
5.1138437381
 31
0.0
 11
6.661869351
 21
5.1139157518
 31
0.0
 11
6.6618276824
 21
5.1140294007
 31
0.0
 11
6.661792341
 21
5.1140710086
 31
0.0
 11
6.6617473149
 21
5.114102454
 31
0.0
  0
SPLINE
  5
3EA
100
AcDbEntity
  8
0
100
AcDbSpline
 62
9
  6
CONTINUOUS
 70
0
 71
3
 72
9
 73
5
 74
3
 42
0.0000001
 43
0.0000001
 44
0.0000000001
 12
-0.0000378171
 22
0.0000199882
 32
0.0
 13
-0.0000406104
 23
0.0000134334
 33
0.0
 40
0.0
 40
0.0
 40
0.0
 40
0.0
 40
0.2444311336
 40
1.0
 40
1.0
 40
1.0
 40
1.0
 10
6.6617473149
 20
5.114102454
 30
0.0
 10
6.6617442337
 20
5.1141040826
 30
0.0
 10
6.6617314808
 20
5.1141104651
 30
0.0
 10
6.661718175
 20
5.1141157263
 30
0.0
 10
6.661707947
 20
5.1141191096
 30
0.0
 11
6.6617473149
 21
5.114102454
 31
0.0
 11
6.6617379662
 21
5.1141071358
 31
0.0
 11
6.661707947
 21
5.1141191096
 31
0.0
  0
SPLINE
  5
3EB
100
AcDbEntity
  8
0
100
AcDbSpline
 62
9
  6
CONTINUOUS
 70
0
 71
3
 72
50
 73
46
 74
44
 42
0.0000001
 43
0.0000001
 44
0.0000000001
 12
-0.112728439
 22
-0.0063874868
 32
0.0
 13
-0.0926135681
 23
0.0645850442
 33
0.0
 40
0.0
 40
0.0
 40
0.0
 40
0.0
 40
0.0000470516
 40
0.0001545509
 40
0.0003218363
 40
0.0005482026
 40
0.0008329383
 40
0.0011753301
 40
0.0020302272
 40
0.0031071889
 40
0.0044005162
 40
0.005904519
 40
0.0076135171
 40
0.0095218413
 40
0.0116238335
 40
0.0163862392
 40
0.0218563469
 40
0.0279990005
 40
0.0347860327
 40
0.0421895075
 40
0.050181559
 40
0.058734403
 40
0.0774116603
 40
0.0980151599
 40
0.1204149694
 40
0.1445064391
 40
0.1701852588
 40
0.1973480965
 40
0.2259156757
 40
0.2558416877
 40
0.3195936451
 40
0.3882777276
 40
0.4617228717
 40
0.500203523
 40
0.5398429225
 40
0.5806387778
 40
0.6225925887
 40
0.6657069637
 40
0.7099854565
 40
0.7554307147
 40
0.8020461205
 40
0.8498378519
 40
0.8987996935
 40
0.9488745553
 40
1.0
 40
1.0
 40
1.0
 40
1.0
 10
5.3945189156
 20
3.5760911103
 30
0.0
 10
5.3945171476
 20
3.5760910101
 30
0.0
 10
5.3945113509
 20
3.5760919413
 30
0.0
 10
5.3944993525
 20
3.5760932807
 30
0.0
 10
5.3944806756
 20
3.5760960805
 30
0.0
 10
5.3944554275
 20
3.5760998098
 30
0.0
 10
5.3944236813
 20
3.576104738
 30
0.0
 10
5.3943685907
 20
3.5761134574
 30
0.0
 10
5.394284118
 20
3.5761272813
 30
0.0
 10
5.3941644266
 20
3.5761474836
 30
0.0
 10
5.3940207617
 20
3.576172433
 30
0.0
 10
5.393853792
 20
3.5762022012
 30
0.0
 10
5.3936641861
 20
3.5762368679
 30
0.0
 10
5.3934526125
 20
3.5762765089
 30
0.0
 10
5.3931283559
 20
3.5763387425
 30
0.0
 10
5.3926730571
 20
3.5764293843
 30
0.0
 10
5.3920697448
 20
3.5765552956
 30
0.0
 10
5.3913931099
 20
3.5767027271
 30
0.0
 10
5.3906467236
 20
3.576871706
 30
0.0
 10
5.3898339147
 20
3.5770624071
 30
0.0
 10
5.3889579977
 20
3.5772749701
 30
0.0
 10
5.387672145
 20
3.5775973372
 30
0.0
 10
5.3859310384
 20
3.5780554426
 30
0.0
 10
5.3836953805
 20
3.5786809807
 30
0.0
 10
5.3812735384
 20
3.5793963584
 30
0.0
 10
5.3786791836
 20
3.5802011132
 30
0.0
 10
5.3759250713
 20
3.5810950838
 30
0.0
 10
5.3730231361
 20
3.5820784875
 30
0.0
 10
5.3699831308
 20
3.5831517155
 30
0.0
 10
5.3656636382
 20
3.5847363315
 30
0.0
 10
5.3599656142
 20
3.5869456633
 30
0.0
 10
5.3528073872
 20
3.5899140307
 30
0.0
 10
5.3465898817
 20
3.5926632019
 30
0.0
 10
5.3414132361
 20
3.595059731
 30
0.0
 10
5.3373739677
 20
3.5969874287
 30
0.0
 10
5.3332409509
 20
3.5990214128
 30
0.0
 10
5.3290169369
 20
3.6011658844
 30
0.0
 10
5.3247046306
 20
3.6034251256
 30
0.0
 10
5.320306556
 20
3.6058029273
 30
0.0
 10
5.3158268111
 20
3.6083057513
 30
0.0
 10
5.3112705501
 20
3.6109415806
 30
0.0
 10
5.3066432567
 20
3.6137176156
 30
0.0
 10
5.3019527568
 20
3.6166399867
 30
0.0
 10
5.2972135289
 20
3.6197195896
 30
0.0
 10
5.2940641404
 20
3.6218623234
 30
0.0
 10
5.2924858371
 20
3.6229629698
 30
0.0
 11
5.3945189156
 21
3.5760911103
 31
0.0
 11
5.3945136213
 21
3.5760915504
 31
0.0
 11
5.394501582
 21
3.5760930918
 31
0.0
 11
5.394482881
 21
3.5760957441
 31
0.0
 11
5.3944576021
 21
3.5760995167
 31
0.0
 11
5.3944258288
 21
3.5761044192
 31
0.0
 11
5.3943876447
 21
3.5761104612
 31
0.0
 11
5.3942923781
 21
3.5761260016
 31
0.0
 11
5.3941724708
 21
3.5761462144
 31
0.0
 11
5.3940285914
 21
3.5761711757
 31
0.0
 11
5.3938614083
 21
3.5762009619
 31
0.0
 11
5.3936715899
 21
3.5762356494
 31
0.0
 11
5.3934598049
 21
3.5762753145
 31
0.0
 11
5.3932267216
 21
3.5763200335
 31
0.0
 11
5.3926993342
 21
3.5764249384
 31
0.0
 11
5.3920947015
 21
3.5765509579
 31
0.0
 11
5.3914169995
 21
3.5766984331
 31
0.0
 11
5.3906695662
 21
3.5768675127
 31
0.0
 11
5.3898557183
 21
3.5770583404
 31
0.0
 11
5.3889787725
 21
3.5772710601
 31
0.0
 11
5.3880420456
 21
3.5775058154
 31
0.0
 11
5.3860025153
 21
3.5780420081
 31
0.0
 11
5.3837619689
 21
3.5786679025
 31
0.0
 11
5.3813361982
 21
3.5793835949
 31
0.0
 11
5.3787379828
 21
3.5801888857
 31
0.0
 11
5.3759801006
 21
3.5810835753
 31
0.0
 11
5.3730752696
 21
3.5820674721
 31
0.0
 11
5.3700335208
 21
3.5831407379
 31
0.0
 11
5.3668611575
 21
3.5843040254
 31
0.0
 11
5.3601487042
 21
3.5869034208
 31
0.0
 11
5.3529843302
 21
3.5898720636
 31
0.0
 11
5.3453992625
 21
3.5932238651
 31
0.0
 11
5.3414563599
 21
3.5950489668
 31
0.0
 11
5.3374171163
 21
3.5969766599
 31
0.0
 11
5.3332842652
 21
3.5990105959
 31
0.0
 11
5.3290604582
 21
3.6011549779
 31
0.0
 11
5.3247483463
 21
3.6034140117
 31
0.0
 11
5.3203506742
 21
3.6057920358
 31
0.0
 11
5.3158715022
 21
3.6082952605
 31
0.0
 11
5.311315863
 21
3.610931279
 31
0.0
 11
5.306688812
 21
3.6137077169
 31
0.0
 11
5.301997625
 21
3.6166324836
 31
0.0
 11
5.2972575978
 21
3.6197145128
 31
0.0
 11
5.2924858371
 21
3.6229629698
 31
0.0
  0
LINE
  5
3EC
100
AcDbEntity
  8
0
100
AcDbLine
 62
6
  6
CONTINUOUS
 10
6.3302821599
 20
4.9710968815
 11
6.3463950353
 21
4.9965769726
  0
LINE
  5
3ED
100
AcDbEntity
  8
0
100
AcDbLine
 62
6
  6
CONTINUOUS
 10
6.3463950353
 20
4.9965769726
 11
6.3506678635
 21
5.0033230268
  0
SPLINE
  5
3EE
100
AcDbEntity
  8
0
100
AcDbSpline
 62
6
  6
CONTINUOUS
 70
0
 71
3
 72
17
 73
13
 74
11
 42
0.0000001
 43
0.0000001
 44
0.0000000001
 12
0.0285066717
 22
0.0449286846
 32
0.0
 13
0.0325676031
 23
0.0420781209
 33
0.0
 40
0.0
 40
0.0
 40
0.0
 40
0.0
 40
0.1552207443
 40
0.3026365041
 40
0.4418562099
 40
0.5724916426
 40
0.6941215503
 40
0.8062466224
 40
0.8585891109
 40
0.9083703094
 40
0.9555307993
 40
1.0
 40
1.0
 40
1.0
 40
1.0
 10
6.3506678635
 20
5.0033230268
 30
0.0
 10
6.3521428058
 20
5.0056476481
 30
0.0
 10
6.3550222511
 20
5.0101776415
 30
0.0
 10
6.3592462124
 20
5.0167788532
 30
0.0
 10
6.3632637172
 20
5.0229944156
 30
0.0
 10
6.3670706842
 20
5.0288013606
 30
0.0
 10
6.3706621216
 20
5.0341747113
 30
0.0
 10
6.3735336431
 20
5.0383586552
 30
0.0
 10
6.3757245219
 20
5.0414635608
 30
0.0
 10
6.3772726956
 20
5.0436116044
 30
0.0
 10
6.3787629639
 20
5.0456290454
 30
0.0
 10
6.3797466721
 20
5.0469227908
 30
0.0
 10
6.3802294239
 20
5.0475465176
 30
0.0
 11
6.3506678635
 21
5.0033230268
 31
0.0
 11
6.3551000984
 21
5.0102921848
 31
0.0
 11
6.359329754
 21
5.0168979657
 31
0.0
 11
6.3633532891
 21
5.0231177866
 31
0.0
 11
6.3671671597
 21
5.0289290562
 31
0.0
 11
6.370767247
 21
5.0343071532
 31
0.0
 11
6.3741481201
 21
5.0392228269
 31
0.0
 11
6.3757545975
 21
5.0414979132
 31
0.0
 11
6.3773041667
 21
5.0436461837
 31
0.0
 11
6.378796111
 21
5.0456638669
 31
0.0
 11
6.3802294239
 21
5.0475465176
 31
0.0
  0
SPLINE
  5
3EF
100
AcDbEntity
  8
0
100
AcDbSpline
 62
6
  6
CONTINUOUS
 70
0
 71
3
 72
11
 73
7
 74
5
 42
0.0000001
 43
0.0000001
 44
0.0000000001
 12
0.0054833498
 22
0.0070846189
 32
0.0
 13
0.0063380329
 23
0.0063315313
 33
0.0
 40
0.0
 40
0.0
 40
0.0
 40
0.0
 40
0.2845597664
 40
0.5464757653
 40
0.7851281086
 40
1.0
 40
1.0
 40
1.0
 40
1.0
 10
6.3802294239
 20
5.0475465176
 30
0.0
 10
6.3807495375
 20
5.0482185167
 30
0.0
 10
6.3817602927
 20
5.0494999049
 30
0.0
 10
6.3832557836
 20
5.0513059796
 30
0.0
 10
6.3846670611
 20
5.0529104474
 30
0.0
 10
6.385599969
 20
5.0538929733
 30
0.0
 10
6.3860539241
 20
5.0543464627
 30
0.0
 11
6.3802294239
 21
5.0475465176
 31
0.0
 11
6.3818103514
 21
5.0495464119
 31
0.0
 11
6.3833093909
 21
5.0513515832
 31
0.0
 11
6.384724572
 21
5.052954208
 31
0.0
 11
6.3860539241
 21
5.0543464627
 31
0.0
  0
SPLINE
  5
3F0
100
AcDbEntity
  8
0
100
AcDbSpline
 62
9
  6
CONTINUOUS
 70
0
 71
3
 72
32
 73
28
 74
26
 42
0.0000001
 43
0.0000001
 44
0.0000000001
 12
0.0672179892
 22
-0.0827813139
 32
0.0
 13
-0.0814390968
 23
-0.0688380529
 33
0.0
 40
0.0
 40
0.0
 40
0.0
 40
0.0
 40
0.0155475204
 40
0.0313623173
 40
0.0476689203
 40
0.0646681801
 40
0.1013689197
 40
0.1213762625
 40
0.1425989703
 40
0.1651008108
 40
0.1889272972
 40
0.2141093744
 40
0.2406600671
 40
0.2685724243
 40
0.2978302962
 40
0.328411038
 40
0.3602869466
 40
0.3934236151
 40
0.4277721037
 40
0.4632774102
 40
0.4998818905
 40
0.5761428571
 40
0.6560482753
 40
0.7390398772
 40
0.8245317298
 40
0.9117936563
 40
1.0
 40
1.0
 40
1.0
 40
1.0
 10
5.297735891
 20
3.7555637046
 30
0.0
 10
5.2980842487
 20
3.7551346898
 30
0.0
 10
5.2987283525
 20
3.7542198763
 30
0.0
 10
5.2995123496
 20
3.7527126364
 30
0.0
 10
5.3001169628
 20
3.7510698455
 30
0.0
 10
5.3006968391
 20
3.7486450645
 30
0.0
 10
5.3008791786
 20
3.7460114353
 30
0.0
 10
5.300720418
 20
3.7432445871
 30
0.0
 10
5.3004177767
 20
3.7409971857
 30
0.0
 10
5.2999359179
 20
3.7386433696
 30
0.0
 10
5.2992760255
 20
3.7361872186
 30
0.0
 10
5.2984390775
 20
3.733633969
 30
0.0
 10
5.2974268434
 20
3.7309890592
 30
0.0
 10
5.2962422275
 20
3.7282582143
 30
0.0
 10
5.2948880203
 20
3.7254475918
 30
0.0
 10
5.2933670887
 20
3.7225633972
 30
0.0
 10
5.291682327
 20
3.7196119527
 30
0.0
 10
5.2898369513
 20
3.7166000108
 30
0.0
 10
5.2878356673
 20
3.7135341282
 30
0.0
 10
5.2856833628
 20
3.7104212641
 30
0.0
 10
5.2825763342
 20
3.7061592805
 30
0.0
 10
5.2783425556
 20
3.7007684869
 30
0.0
 10
5.2728107388
 20
3.6943107996
 30
0.0
 10
5.2668085547
 20
3.6878329873
 30
0.0
 10
5.2603875688
 20
3.6813953648
 30
0.0
 10
5.2536115029
 20
3.6750583825
 30
0.0
 10
5.2489149231
 20
3.6709523401
 30
0.0
 10
5.2465204415
 20
3.6689283558
 30
0.0
 11
5.297735891
 21
3.7555637046
 31
0.0
 11
5.2986913335
 21
3.7542087912
 31
0.0
 11
5.2994720413
 21
3.7527139762
 31
0.0
 11
5.300076298
 21
3.7510834903
 31
0.0
 11
5.3005023868
 21
3.7493215646
 31
0.0
 11
5.3008133281
 21
3.7454203565
 31
0.0
 11
5.3006965689
 21
3.7432900727
 31
0.0
 11
5.3003992873
 21
3.7410466018
 31
0.0
 11
5.2999224739
 21
3.7386949722
 31
0.0
 11
5.299267119
 21
3.7362402125
 31
0.0
 11
5.2984342251
 21
3.7336873587
 31
0.0
 11
5.2974255071
 21
3.7310419182
 31
0.0
 11
5.2962437842
 21
3.7283101282
 31
0.0
 11
5.2948919706
 21
3.7254982886
 31
0.0
 11
5.2933729806
 21
3.7226126995
 31
0.0
 11
5.2916897283
 21
3.7196596607
 31
0.0
 11
5.2898454759
 21
3.7166456041
 31
0.0
 11
5.2878448774
 21
3.7135774893
 31
0.0
 11
5.2856929348
 21
3.7104624075
 31
0.0
 11
5.2833946497
 21
3.7073074499
 31
0.0
 11
5.2783791143
 21
3.7009062663
 31
0.0
 11
5.272841592
 21
3.694430288
 31
0.0
 11
5.2668304432
 21
3.6879352833
 31
0.0
 11
5.2603956692
 21
3.6814775187
 31
0.0
 11
5.2536013055
 21
3.6751196285
 31
0.0
 11
5.2465204415
 21
3.6689283558
 31
0.0
  0
SPLINE
  5
3F1
100
AcDbEntity
  8
0
100
AcDbSpline
 62
9
  6
CONTINUOUS
 70
0
 71
3
 72
50
 73
46
 74
44
 42
0.0000001
 43
0.0000001
 44
0.0000000001
 12
-0.0646099547
 22
0.0925944814
 32
0.0
 13
0.0055330153
 23
0.112772204
 33
0.0
 40
0.0
 40
0.0
 40
0.0
 40
0.0
 40
0.0511251497
 40
0.1011993262
 40
0.1501590063
 40
0.197948029
 40
0.2445618742
 40
0.2900062879
 40
0.3342843258
 40
0.3773987935
 40
0.4193532321
 40
0.4601501185
 40
0.499790725
 40
0.5382718397
 40
0.6117172078
 40
0.6804043974
 40
0.7441551983
 40
0.7740811033
 40
0.8026512632
 40
0.8298186866
 40
0.8554990164
 40
0.8795904182
 40
0.9019905182
 40
0.922596445
 40
0.9412726068
 40
0.9498231852
 40
0.9578126302
 40
0.965213766
 40
0.9719993402
 40
0.9781420348
 40
0.9836140202
 40
0.9883784998
 40
0.9904813839
 40
0.992390452
 40
0.9941000078
 40
0.9956043437
 40
0.9968977417
 40
0.9979744738
 40
0.9988288031
 40
0.9991707723
 40
0.9994549865
 40
0.9996807274
 40
0.9998472781
 40
0.9999539272
 40
1.0
 40
1.0
 40
1.0
 40
1.0
 10
5.2465204415
 20
3.6689283558
 30
0.0
 10
5.2454193769
 20
3.6705063247
 30
0.0
 10
5.2432764274
 20
3.6736554778
 30
0.0
 10
5.2401975918
 20
3.678394984
 30
0.0
 10
5.2372761265
 20
3.6830857178
 30
0.0
 10
5.2345004063
 20
3.6877128358
 30
0.0
 10
5.2318645891
 20
3.6922688048
 30
0.0
 10
5.2293615089
 20
3.6967482085
 30
0.0
 10
5.2269832689
 20
3.7011459246
 30
0.0
 10
5.2247238891
 20
3.7054581029
 30
0.0
 10
5.222579419
 20
3.7096821263
 30
0.0
 10
5.2205454943
 20
3.7138152286
 30
0.0
 10
5.2186177536
 20
3.7178545272
 30
0.0
 10
5.2162212529
 20
3.7230311871
 30
0.0
 10
5.213472232
 20
3.7292488227
 30
0.0
 10
5.210503771
 20
3.736406991
 30
0.0
 10
5.2082941057
 20
3.7421048791
 30
0.0
 10
5.2067094038
 20
3.7464243329
 30
0.0
 10
5.2056361708
 20
3.7494645766
 30
0.0
 10
5.2046529084
 20
3.7523668645
 30
0.0
 10
5.2037590719
 20
3.7551212211
 30
0.0
 10
5.2029545365
 20
3.7577156769
 30
0.0
 10
5.2022393681
 20
3.7601376529
 30
0.0
 10
5.2016141867
 20
3.7623734437
 30
0.0
 10
5.2011561279
 20
3.7641145011
 30
0.0
 10
5.2008336807
 20
3.7654000851
 30
0.0
 10
5.2006210475
 20
3.7662756942
 30
0.0
 10
5.200430251
 20
3.7670882223
 30
0.0
 10
5.2002611622
 20
3.767834429
 30
0.0
 10
5.2001136083
 20
3.7685110464
 30
0.0
 10
5.1999876131
 20
3.7691144868
 30
0.0
 10
5.1998968386
 20
3.7695699389
 30
0.0
 10
5.1998344758
 20
3.7698943087
 30
0.0
 10
5.199794737
 20
3.7701059452
 30
0.0
 10
5.1997599699
 20
3.7702955928
 30
0.0
 10
5.1997301014
 20
3.7704625792
 30
0.0
 10
5.1997050544
 20
3.7706062319
 30
0.0
 10
5.1996847597
 20
3.7707258784
 30
0.0
 10
5.1996708594
 20
3.7708102909
 30
0.0
 10
5.1996620818
 20
3.770865314
 30
0.0
 10
5.199657117
 20
3.7708969942
 30
0.0
 10
5.1996533564
 20
3.770922166
 30
0.0
 10
5.1996505254
 20
3.770940753
 30
0.0
 10
5.1996491677
 20
3.7709526537
 30
0.0
 10
5.1996482143
 20
3.7709583752
 30
0.0
 10
5.1996482993
 20
3.7709601071
 30
0.0
 11
5.2465204415
 21
3.6689283558
 31
0.0
 11
5.2432715211
 21
3.673699674
 31
0.0
 11
5.2401900822
 21
3.6784399088
 31
0.0
 11
5.2372661214
 21
3.6831312297
 31
0.0
 11
5.2344900809
 21
3.6877580843
 31
0.0
 11
5.2318540714
 21
3.6923134496
 31
0.0
 11
5.2293505941
 21
3.6967922982
 31
0.0
 11
5.2269722151
 21
3.7011896494
 31
0.0
 11
5.2247130188
 21
3.7055016197
 31
0.0
 11
5.2225686226
 21
3.7097254331
 31
0.0
 11
5.2205347118
 21
3.7138583624
 31
0.0
 11
5.2186069854
 21
3.7178976796
 31
0.0
 11
5.2167819092
 21
3.7218405922
 31
0.0
 11
5.2134302585
 21
3.7294256416
 31
0.0
 11
5.2104614108
 21
3.7365902061
 31
0.0
 11
5.2078618071
 21
3.7433023428
 31
0.0
 11
5.2066984835
 21
3.7464746353
 31
0.0
 11
5.2056252123
 21
3.7495166487
 31
0.0
 11
5.2046413636
 21
3.7524220024
 31
0.0
 11
5.2037468394
 21
3.7551800798
 31
0.0
 11
5.2029417854
 21
3.757778325
 31
0.0
 11
5.2022263482
 21
3.7602041724
 31
0.0
 11
5.2016006725
 21
3.7624450345
 31
0.0
 11
5.2010645438
 21
3.7644844266
 31
0.0
 11
5.2008297573
 21
3.7654208696
 31
0.0
 11
5.2006169747
 21
3.7662974858
 31
0.0
 11
5.2004260601
 21
3.7671110314
 31
0.0
 11
5.2002568776
 21
3.7678582629
 31
0.0
 11
5.2001092912
 21
3.7685359366
 31
0.0
 11
5.1999831532
 21
3.7691407533
 31
0.0
 11
5.1998780875
 21
3.7696683406
 31
0.0
 11
5.1998332752
 21
3.7699015056
 31
0.0
 11
5.1997935114
 21
3.7701133548
 31
0.0
 11
5.1997587225
 21
3.7703032162
 31
0.0
 11
5.1997288347
 21
3.7704704173
 31
0.0
 11
5.1997037742
 21
3.7706142857
 31
0.0
 11
5.1996834672
 21
3.7707341492
 31
0.0
 11
5.19966784
 21
3.7708293355
 31
0.0
 11
5.1996617583
 21
3.7708674645
 31
0.0
 11
5.1996568188
 21
3.7708991721
 31
0.0
 11
5.1996530124
 21
3.7709243742
 31
0.0
 11
5.1996503298
 21
3.7709429867
 31
0.0
 11
5.1996487619
 21
3.7709549257
 31
0.0
 11
5.1996482993
 21
3.7709601071
 31
0.0
  0
SPLINE
  5
3F2
100
AcDbEntity
  8
0
100
AcDbSpline
 62
9
  6
CONTINUOUS
 70
0
 71
3
 72
11
 73
7
 74
5
 42
0.0000001
 43
0.0000001
 44
0.0000000001
 12
0.0313757873
 22
-0.0216573495
 32
0.0
 13
0.0269581232
 23
-0.0269581232
 33
0.0
 40
0.0
 40
0.0
 40
0.0
 40
0.0
 40
0.2467924469
 40
0.4962971367
 40
0.7476666945
 40
1.0
 40
1.0
 40
1.0
 40
1.0
 10
6.4274797826
 20
4.8575635217
 30
0.0
 10
6.430060885
 20
4.8557818983
 30
0.0
 10
6.4351621726
 20
4.8520680613
 30
0.0
 10
6.4425746825
 20
4.8461188525
 30
0.0
 10
6.4497660258
 20
4.8397972157
 30
0.0
 10
6.4543883345
 20
4.8353657276
 30
0.0
 10
6.4566558119
 20
4.8330982502
 30
0.0
 11
6.4274797826
 21
4.8575635217
 31
0.0
 11
6.4350895614
 21
4.8520301942
 31
0.0
 11
6.4425106342
 21
4.8460795116
 31
0.0
 11
6.4497102885
 21
4.8397545161
 31
0.0
 11
6.4566558119
 21
4.8330982502
 31
0.0
  0
SPLINE
  5
3F3
100
AcDbEntity
  8
0
100
AcDbSpline
 62
9
  6
CONTINUOUS
 70
0
 71
3
 72
32
 73
28
 74
26
 42
0.0000001
 43
0.0000001
 44
0.0000000001
 12
0.0827835972
 22
-0.0672168857
 32
0.0
 13
0.0688384878
 23
0.0814401393
 33
0.0
 40
0.0
 40
0.0
 40
0.0
 40
0.0
 40
0.0155476474
 40
0.0313625975
 40
0.047669375
 40
0.0646688249
 40
0.1013699695
 40
0.1213775163
 40
0.1426004234
 40
0.1651024545
 40
0.1889291193
 40
0.2141113592
 40
0.2406621964
 40
0.2685746782
 40
0.2978326521
 40
0.3284134714
 40
0.3602894307
 40
0.3934261219
 40
0.4277746053
 40
0.4632798787
 40
0.4998842979
 40
0.5761450588
 40
0.6560501667
 40
0.7390413697
 40
0.8245327525
 40
0.9117941695
 40
1.0
 40
1.0
 40
1.0
 40
1.0
 10
6.0819491224
 20
4.5397767623
 30
0.0
 10
6.0823781525
 20
4.5394284075
 30
0.0
 10
6.083292997
 20
4.5387843108
 30
0.0
 10
6.0848002819
 20
4.5380003281
 30
0.0
 10
6.0864431174
 20
4.537395732
 30
0.0
 10
6.0888679588
 20
4.5368158827
 30
0.0
 10
6.0915016449
 20
4.5366335747
 30
0.0
 10
6.0942685479
 20
4.5367923702
 30
0.0
 10
6.0965159898
 20
4.5370950405
 30
0.0
 10
6.098869845
 20
4.53757693
 30
0.0
 10
6.1013260334
 20
4.5382368547
 30
0.0
 10
6.1038793187
 20
4.5390738363
 30
0.0
 10
6.1065242622
 20
4.5400861052
 30
0.0
 10
6.1092551388
 20
4.5412707567
 30
0.0
 10
6.1120657909
 20
4.542625
 30
0.0
 10
6.1149500127
 20
4.544145968
 30
0.0
 10
6.1179014822
 20
4.5458307661
 30
0.0
 10
6.1209134466
 20
4.547676178
 30
0.0
 10
6.1239793492
 20
4.5496774978
 30
0.0
 10
6.1270922311
 20
4.5518298376
 30
0.0
 10
6.1313542341
 20
4.5549369119
 30
0.0
 10
6.1367450466
 20
4.5591707451
 30
0.0
 10
6.1432027507
 20
4.5647026243
 30
0.0
 10
6.1496805735
 20
4.5707048667
 30
0.0
 10
6.1561182021
 20
4.577125907
 30
0.0
 10
6.1624551883
 20
4.5839020248
 30
0.0
 10
6.1665612328
 20
4.5885986383
 30
0.0
 10
6.1685852181
 20
4.5909931367
 30
0.0
 11
6.0819491224
 21
4.5397767623
 31
0.0
 11
6.0833040806
 21
4.5388213309
 31
0.0
 11
6.0847989405
 21
4.538040637
 31
0.0
 11
6.0864294712
 21
4.537436397
 31
0.0
 11
6.0881914413
 21
4.5370103276
 31
0.0
 11
6.092092736
 21
4.5366994328
 31
0.0
 11
6.0942230618
 21
4.5368162189
 31
0.0
 11
6.0964665734
 21
4.5371135294
 31
0.0
 11
6.0988182421
 21
4.5375903737
 31
0.0
 11
6.1012730395
 21
4.538245761
 31
0.0
 11
6.103825929
 21
4.5390786886
 31
0.0
 11
6.1064714033
 21
4.5400874413
 31
0.0
 11
6.1092032252
 21
4.5412691999
 31
0.0
 11
6.1120150944
 21
4.5426210496
 31
0.0
 11
6.1149007109
 21
4.5441400761
 31
0.0
 11
6.1178537747
 21
4.5458233649
 31
0.0
 11
6.1208678537
 21
4.5476676535
 31
0.0
 11
6.1239359887
 21
4.5496682878
 31
0.0
 11
6.1270510883
 21
4.5518202658
 31
0.0
 11
6.1302060614
 21
4.5541185855
 31
0.0
 11
6.1366072693
 21
4.5591341874
 31
0.0
 11
6.143083264
 21
4.564671772
 31
0.0
 11
6.1495782788
 21
4.5706829788
 31
0.0
 11
6.156036049
 21
4.5771178067
 31
0.0
 11
6.1623939423
 21
4.5839122218
 31
0.0
 11
6.1685852181
 21
4.5909931367
 31
0.0
  0
SPLINE
  5
3F4
100
AcDbEntity
  8
0
100
AcDbSpline
 62
9
  6
CONTINUOUS
 70
0
 71
3
 72
11
 73
7
 74
5
 42
0.0000001
 43
0.0000001
 44
0.0000000001
 12
0.0268141421
 22
-0.0187013037
 32
0.0
 13
0.0231165918
 23
-0.0231162316
 33
0.0
 40
0.0
 40
0.0
 40
0.0
 40
0.0
 40
0.2430795706
 40
0.4917333925
 40
0.7446625765
 40
1.0
 40
1.0
 40
1.0
 40
1.0
 10
6.1685852181
 20
4.5909931367
 30
0.0
 10
6.1707578748
 20
4.589477835
 30
0.0
 10
6.1751035355
 20
4.586340651
 30
0.0
 10
6.181502617
 20
4.5813470411
 30
0.0
 10
6.1877783834
 20
4.5759900912
 30
0.0
 10
6.1918058044
 20
4.5721832326
 30
0.0
 10
6.1937733147
 20
4.570215753
 30
0.0
 11
6.1685852181
 21
4.5909931367
 31
0.0
 11
6.1750249336
 21
4.5863370384
 31
0.0
 11
6.1814286412
 21
4.5813299264
 31
0.0
 11
6.1877121798
 21
4.5759552043
 31
0.0
 11
6.1937733147
 21
4.570215753
 31
0.0
  0
SPLINE
  5
3F5
100
AcDbEntity
  8
0
100
AcDbSpline
 62
9
  6
CONTINUOUS
 70
0
 71
3
 72
12
 73
8
 74
6
 42
0.0000001
 43
0.0000001
 44
0.0000000001
 12
0.0417346491
 22
-0.0189879473
 32
0.0
 13
0.0324216215
 23
-0.0324216215
 33
0.0
 40
0.0
 40
0.0
 40
0.0
 40
0.0
 40
0.2493582906
 40
0.3742533165
 40
0.4992638234
 40
0.749510259
 40
1.0
 40
1.0
 40
1.0
 40
1.0
 10
6.5921712425
 20
5.0321188183
 30
0.0
 10
6.5956402028
 20
5.0305405509
 30
0.0
 10
6.600739879
 20
5.0279265292
 30
0.0
 10
6.6072794842
 20
5.0239912457
 30
0.0
 10
6.6136477777
 20
5.0197586318
 30
0.0
 10
6.6212521197
 20
5.0139375078
 30
0.0
 10
6.6269047871
 20
5.0087614144
 30
0.0
 10
6.6296118816
 20
5.0060543198
 30
0.0
 11
6.5921712425
 21
5.0321188183
 31
0.0
 11
6.6023481632
 21
5.0269080791
 31
0.0
 11
6.6072551402
 21
5.0239559229
 31
0.0
 11
6.6120290179
 21
5.0207834772
 31
0.0
 11
6.6211411447
 21
5.0138104213
 31
0.0
 11
6.6296118816
 21
5.0060543198
 31
0.0
  0
SPLINE
  5
3F6
100
AcDbEntity
  8
0
100
AcDbSpline
 62
9
  6
CONTINUOUS
 70
0
 71
3
 72
11
 73
7
 74
5
 42
0.0000001
 43
0.0000001
 44
0.0000000001
 12
0.0231163612
 22
-0.0231164645
 32
0.0
 13
0.0187015553
 23
-0.0268139686
 33
0.0
 40
0.0
 40
0.0
 40
0.0
 40
0.0
 40
0.2553373908
 40
0.5082665661
 40
0.7569203883
 40
1.0
 40
1.0
 40
1.0
 40
1.0
 10
6.1937733147
 20
4.5702157529
 30
0.0
 10
6.1957408052
 20
4.5682482537
 30
0.0
 10
6.1995476358
 20
4.5642208057
 30
0.0
 10
6.2049046098
 20
4.5579450621
 30
0.0
 10
6.2098982377
 20
4.5515459914
 30
0.0
 10
6.2130353771
 20
4.5472002985
 30
0.0
 10
6.2145506994
 20
4.5450276555
 30
0.0
 11
6.1937733147
 21
4.5702157529
 31
0.0
 11
6.1995127597
 21
4.5641546129
 31
0.0
 11
6.2048874941
 21
4.5578710847
 31
0.0
 11
6.2098946105
 21
4.5514673799
 31
0.0
 11
6.2145506994
 21
4.5450276555
 31
0.0
  0
SPLINE
  5
3F7
100
AcDbEntity
  8
0
100
AcDbSpline
 62
9
  6
CONTINUOUS
 70
0
 71
3
 72
32
 73
28
 74
26
 42
0.0000001
 43
0.0000001
 44
0.0000000001
 12
-0.067216886
 22
-0.082783597
 32
0.0
 13
0.0814401389
 23
-0.0688384882
 33
0.0
 40
0.0
 40
0.0
 40
0.0
 40
0.0
 40
0.015547647
 40
0.0313625967
 40
0.0476693739
 40
0.0646688236
 40
0.101369968
 40
0.1213775148
 40
0.1426004219
 40
0.165102453
 40
0.1889291178
 40
0.2141113578
 40
0.240662195
 40
0.2685746768
 40
0.2978326508
 40
0.3284134701
 40
0.3602894295
 40
0.3934261208
 40
0.4277746043
 40
0.4632798777
 40
0.499884297
 40
0.576145058
 40
0.6560501661
 40
0.7390413692
 40
0.8245327522
 40
0.9117941693
 40
1.0
 40
1.0
 40
1.0
 40
1.0
 10
6.163334324
 20
3.7555644536
 30
0.0
 10
6.1629859692
 20
3.7551354235
 30
0.0
 10
6.1623418725
 20
3.754220579
 30
0.0
 10
6.1615578898
 20
3.7527132942
 30
0.0
 10
6.1609532937
 20
3.7510704587
 30
0.0
 10
6.1603734444
 20
3.7486456173
 30
0.0
 10
6.1601911364
 20
3.7460119312
 30
0.0
 10
6.1603499319
 20
3.7432450282
 30
0.0
 10
6.1606526023
 20
3.7409975863
 30
0.0
 10
6.1611344918
 20
3.7386437311
 30
0.0
 10
6.1617944165
 20
3.7361875427
 30
0.0
 10
6.1626313981
 20
3.7336342574
 30
0.0
 10
6.163643667
 20
3.7309893139
 30
0.0
 10
6.1648283184
 20
3.7282584373
 30
0.0
 10
6.1661825618
 20
3.7254477852
 30
0.0
 10
6.1677035298
 20
3.7225635634
 30
0.0
 10
6.1693883278
 20
3.7196120939
 30
0.0
 10
6.1712337397
 20
3.7166001294
 30
0.0
 10
6.1732350595
 20
3.7135342268
 30
0.0
 10
6.1753873993
 20
3.7104213449
 30
0.0
 10
6.1784944737
 20
3.7061593419
 30
0.0
 10
6.1827283069
 20
3.7007685294
 30
0.0
 10
6.1882601861
 20
3.6943108253
 30
0.0
 10
6.1942624285
 20
3.6878330025
 30
0.0
 10
6.2006834687
 20
3.6813953738
 30
0.0
 10
6.2074595866
 20
3.6750583875
 30
0.0
 10
6.2121562
 20
3.6709523431
 30
0.0
 10
6.2145506984
 20
3.6689283577
 30
0.0
 11
6.163334324
 21
3.7555644536
 31
0.0
 11
6.1623788926
 21
3.7542094954
 31
0.0
 11
6.1615981987
 21
3.7527146355
 31
0.0
 11
6.1609939587
 21
3.7510841049
 31
0.0
 11
6.1605678893
 21
3.7493221348
 31
0.0
 11
6.1602569945
 21
3.7454208401
 31
0.0
 11
6.1603737806
 21
3.7432905143
 31
0.0
 11
6.1606710912
 21
3.7410470028
 31
0.0
 11
6.1611479355
 21
3.738695334
 31
0.0
 11
6.1618033227
 21
3.7362405366
 31
0.0
 11
6.1626362503
 21
3.7336876471
 31
0.0
 11
6.1636450031
 21
3.7310421728
 31
0.0
 11
6.1648267616
 21
3.7283103509
 31
0.0
 11
6.1661786114
 21
3.7254984817
 31
0.0
 11
6.1676976379
 21
3.7226128652
 31
0.0
 11
6.1693809266
 21
3.7196598014
 31
0.0
 11
6.1712252152
 21
3.7166457224
 31
0.0
 11
6.1732258495
 21
3.7135775874
 31
0.0
 11
6.1753778276
 21
3.7104624878
 31
0.0
 11
6.1776761472
 21
3.7073075147
 31
0.0
 11
6.1826917491
 21
3.7009063067
 31
0.0
 11
6.1882293338
 21
3.694430312
 31
0.0
 11
6.1942405406
 21
3.6879352972
 31
0.0
 11
6.2006753685
 21
3.6814775269
 31
0.0
 11
6.2074697835
 21
3.6751196336
 31
0.0
 11
6.2145506984
 21
3.6689283577
 31
0.0
  0
SPLINE
  5
3F8
100
AcDbEntity
  8
0
100
AcDbSpline
 62
9
  6
CONTINUOUS
 70
0
 71
3
 72
11
 73
7
 74
5
 42
0.0000001
 43
0.0000001
 44
0.0000000001
 12
-0.0187012959
 22
-0.0268141474
 32
0.0
 13
-0.023116231
 23
-0.0231165922
 33
0.0
 40
0.0
 40
0.0
 40
0.0
 40
0.0
 40
0.2430795682
 40
0.4917333898
 40
0.7446625742
 40
1.0
 40
1.0
 40
1.0
 40
1.0
 10
6.2145506984
 20
3.6689283577
 30
0.0
 10
6.2130353974
 20
3.6667557006
 30
0.0
 10
6.2098982121
 20
3.6624100409
 30
0.0
 10
6.2049046029
 20
3.6560109589
 30
0.0
 10
6.1995476531
 20
3.6497351924
 30
0.0
 10
6.1957407944
 20
3.6457077715
 30
0.0
 10
6.1937733147
 20
3.6437402612
 30
0.0
 11
6.2145506984
 21
3.6689283577
 31
0.0
 11
6.2098946
 21
3.6624886425
 31
0.0
 11
6.2048874881
 21
3.6560849348
 31
0.0
 11
6.1995127662
 21
3.6498013961
 31
0.0
 11
6.1937733147
 21
3.6437402612
 31
0.0
  0
SPLINE
  5
3F9
100
AcDbEntity
  8
0
100
AcDbSpline
 62
9
  6
CONTINUOUS
 70
0
 71
3
 72
11
 73
7
 74
5
 42
0.0000001
 43
0.0000001
 44
0.0000000001
 12
-0.0231164649
 22
-0.0231163607
 32
0.0
 13
-0.026813975
 23
-0.018701546
 33
0.0
 40
0.0
 40
0.0
 40
0.0
 40
0.0
 40
0.2553373932
 40
0.5082665689
 40
0.756920391
 40
1.0
 40
1.0
 40
1.0
 40
1.0
 10
6.1937733147
 20
3.6437402612
 30
0.0
 10
6.1918058154
 20
3.6417727707
 30
0.0
 10
6.1877783676
 20
3.63796594
 30
0.0
 10
6.1815026239
 20
3.632608966
 30
0.0
 10
6.1751035525
 20
3.6276153391
 30
0.0
 10
6.1707578608
 20
3.624478198
 30
0.0
 10
6.1685852173
 20
3.6229628765
 30
0.0
 11
6.1937733147
 21
3.6437402612
 31
0.0
 11
6.1877121747
 21
3.6380008161
 31
0.0
 11
6.1814286463
 21
3.6326260819
 31
0.0
 11
6.1750249414
 21
3.6276189657
 31
0.0
 11
6.1685852173
 21
3.6229628765
 31
0.0
  0
SPLINE
  5
3FA
100
AcDbEntity
  8
0
100
AcDbSpline
 62
9
  6
CONTINUOUS
 70
0
 71
3
 72
11
 73
7
 74
5
 42
0.0000001
 43
0.0000001
 44
0.0000000001
 12
-0.0231155606
 22
-0.0231172645
 32
0.0
 13
-0.018702497
 23
-0.0268133114
 33
0.0
 40
0.0
 40
0.0
 40
0.0
 40
0.0
 40
0.2553423407
 40
0.5082715763
 40
0.7569285933
 40
1.0
 40
1.0
 40
1.0
 40
1.0
 10
5.2672978231
 20
4.5702157528
 30
0.0
 10
5.2653303627
 20
4.5682481473
 30
0.0
 10
5.2615233702
 20
4.5642207819
 30
0.0
 10
5.2561663978
 20
4.5579449151
 30
0.0
 10
5.2511727517
 20
4.551545925
 30
0.0
 10
5.2480357886
 20
4.5472001746
 30
0.0
 10
5.2465204412
 20
4.5450276581
 30
0.0
 11
5.2672978231
 21
4.5702157528
 31
0.0
 11
5.2615582521
 21
4.5641545093
 31
0.0
 11
5.2561835168
 21
4.5578709794
 31
0.0
 11
5.2511763491
 21
4.5514671823
 31
0.0
 11
5.2465204412
 21
4.5450276581
 31
0.0
  0
SPLINE
  5
3FB
100
AcDbEntity
  8
0
100
AcDbSpline
 62
9
  6
CONTINUOUS
 70
0
 71
3
 72
11
 73
7
 74
5
 42
0.0000001
 43
0.0000001
 44
0.0000000001
 12
-0.026813056
 22
-0.0187028693
 32
0.0
 13
-0.0231172128
 23
-0.0231156173
 33
0.0
 40
0.0
 40
0.0
 40
0.0
 40
0.0
 40
0.2430716585
 40
0.4917288478
 40
0.7446579464
 40
1.0
 40
1.0
 40
1.0
 40
1.0
 10
5.2924859195
 20
4.5909931366
 30
0.0
 10
5.2903134215
 20
4.5894777575
 30
0.0
 10
5.2859676196
 20
4.5863408583
 30
0.0
 10
5.2795686496
 20
4.5813471768
 30
0.0
 10
5.2732927967
 20
4.5759901932
 30
0.0
 10
5.269265422
 20
4.5721832158
 30
0.0
 10
5.2672978232
 20
4.5702157527
 30
0.0
 11
5.2924859195
 21
4.5909931366
 31
0.0
 11
5.2860463776
 21
4.5863372379
 31
0.0
 11
5.2796425808
 21
4.5813300592
 31
0.0
 11
5.2733590628
 21
4.5759553154
 31
0.0
 11
5.2672978232
 21
4.5702157527
 31
0.0
  0
SPLINE
  5
3FC
100
AcDbEntity
  8
0
100
AcDbSpline
 62
9
  6
CONTINUOUS
 70
0
 71
3
 72
32
 73
28
 74
26
 42
0.0000001
 43
0.0000001
 44
0.0000000001
 12
0.0688384702
 22
-0.081440129
 32
0.0
 13
0.0827835438
 23
0.067216921
 33
0.0
 40
0.0
 40
0.0
 40
0.0
 40
0.0
 40
0.0882058383
 40
0.1754672627
 40
0.260958652
 40
0.3439498601
 40
0.4238549715
 40
0.500115734
 40
0.5367201534
 40
0.5722254264
 40
0.606573909
 40
0.6397105989
 40
0.6715865566
 40
0.7021673737
 40
0.7314253453
 40
0.7593378243
 40
0.7858886586
 40
0.8110708955
 40
0.8348975572
 40
0.8573995852
 40
0.8786224894
 40
0.8986300336
 40
0.9353311742
 40
0.952330623
 40
0.9686374002
 40
0.984452351
 40
1.0
 40
1.0
 40
1.0
 40
1.0
 10
5.2924859195
 20
4.5909931366
 30
0.0
 10
5.2945099045
 20
4.5885986383
 30
0.0
 10
5.2986159483
 20
4.5839020251
 30
0.0
 10
5.3049529337
 20
4.5771259077
 30
0.0
 10
5.3113905615
 20
4.570704868
 30
0.0
 10
5.3178683835
 20
4.5647026263
 30
0.0
 10
5.3243260868
 20
4.559170748
 30
0.0
 10
5.3297168987
 20
4.5549369157
 30
0.0
 10
5.3339789012
 20
4.5518298421
 30
0.0
 10
5.3370917827
 20
4.549677503
 30
0.0
 10
5.3401576849
 20
4.5476761839
 30
0.0
 10
5.3431696489
 20
4.5458307727
 30
0.0
 10
5.3461211178
 20
4.5441459754
 30
0.0
 10
5.3490053392
 20
4.5426250082
 30
0.0
 10
5.3518159908
 20
4.5412707657
 30
0.0
 10
5.3545468668
 20
4.5400861151
 30
0.0
 10
5.3571918098
 20
4.539073847
 30
0.0
 10
5.3597450945
 20
4.5382368663
 30
0.0
 10
5.3622012823
 20
4.5375769425
 30
0.0
 10
5.3645551369
 20
4.5370950538
 30
0.0
 10
5.3668025782
 20
4.5367923844
 30
0.0
 10
5.3695694804
 20
4.53663359
 30
0.0
 10
5.3722031657
 20
4.5368158992
 30
0.0
 10
5.3746280062
 20
4.5373957496
 30
0.0
 10
5.3762708411
 20
4.5380003465
 30
0.0
 10
5.3777781253
 20
4.5387843299
 30
0.0
 10
5.3786929693
 20
4.5394284271
 30
0.0
 10
5.3791219992
 20
4.5397767821
 30
0.0
 11
5.2924859195
 21
4.5909931366
 31
0.0
 11
5.2986771944
 21
4.5839122221
 31
0.0
 11
5.3050350868
 21
4.5771178074
 31
0.0
 11
5.3114928563
 21
4.5706829801
 31
0.0
 11
5.3179878703
 21
4.564671774
 31
0.0
 11
5.3244638642
 21
4.5591341903
 31
0.0
 11
5.3308650714
 21
4.5541185894
 31
0.0
 11
5.3340200441
 21
4.5518202704
 31
0.0
 11
5.3371351433
 21
4.549668293
 31
0.0
 11
5.3402032778
 21
4.5476676594
 31
0.0
 11
5.3432173564
 21
4.5458233715
 31
0.0
 11
5.3461704196
 21
4.5441400835
 31
0.0
 11
5.3490560357
 21
4.5426210578
 31
0.0
 11
5.3518679044
 21
4.5412692089
 31
0.0
 11
5.3545997257
 21
4.5400874512
 31
0.0
 11
5.3572451994
 21
4.5390786993
 31
0.0
 11
5.3597980884
 21
4.5382457726
 31
0.0
 11
5.3622528852
 21
4.5375903862
 31
0.0
 11
5.3646045533
 21
4.5371135428
 31
0.0
 11
5.3668480643
 21
4.5368162331
 31
0.0
 11
5.3689783894
 21
4.5366994479
 31
0.0
 11
5.3728796829
 21
4.5370103444
 31
0.0
 11
5.3746416524
 21
4.5374364146
 31
0.0
 11
5.3762721824
 21
4.5380406553
 31
0.0
 11
5.3777670417
 21
4.53882135
 31
0.0
 11
5.3791219992
 21
4.5397767821
 31
0.0
  0
SPLINE
  5
3FD
100
AcDbEntity
  8
0
100
AcDbSpline
 62
9
  6
CONTINUOUS
 70
0
 71
3
 72
32
 73
28
 74
26
 42
0.0000001
 43
0.0000001
 44
0.0000000001
 12
-0.082783597
 22
0.067216886
 32
0.0
 13
-0.0688384882
 23
-0.081440139
 33
0.0
 40
0.0
 40
0.0
 40
0.0
 40
0.0
 40
0.0155476469
 40
0.0313625967
 40
0.0476693739
 40
0.0646688236
 40
0.101369968
 40
0.1213775148
 40
0.1426004219
 40
0.165102453
 40
0.1889291179
 40
0.2141113578
 40
0.2406621951
 40
0.2685746769
 40
0.2978326509
 40
0.3284134702
 40
0.3602894296
 40
0.3934261208
 40
0.4277746043
 40
0.4632798778
 40
0.4998842971
 40
0.5761450581
 40
0.6560501661
 40
0.7390413692
 40
0.8245327522
 40
0.9117941693
 40
1.0
 40
1.0
 40
1.0
 40
1.0
 10
5.3791220153
 20
3.6741792519
 30
0.0
 10
5.3786929853
 20
3.6745276067
 30
0.0
 10
5.3777781408
 20
3.6751717034
 30
0.0
 10
5.376270856
 20
3.6759556861
 30
0.0
 10
5.3746280204
 20
3.6765602822
 30
0.0
 10
5.3722031791
 20
3.6771401314
 30
0.0
 10
5.3695694929
 20
3.6773224394
 30
0.0
 10
5.3668025899
 20
3.677163644
 30
0.0
 10
5.3645551481
 20
3.6768609736
 30
0.0
 10
5.3622012929
 20
3.6763790841
 30
0.0
 10
5.3597451045
 20
3.6757191594
 30
0.0
 10
5.3571918192
 20
3.6748821778
 30
0.0
 10
5.3545468757
 20
3.6738699089
 30
0.0
 10
5.3518159991
 20
3.6726852574
 30
0.0
 10
5.349005347
 20
3.6713310141
 30
0.0
 10
5.3461211251
 20
3.6698100461
 30
0.0
 10
5.3431696557
 20
3.6681252481
 30
0.0
 10
5.3401576912
 20
3.6662798362
 30
0.0
 10
5.3370917886
 20
3.6642785164
 30
0.0
 10
5.3339789067
 20
3.6621261766
 30
0.0
 10
5.3297169037
 20
3.6590191022
 30
0.0
 10
5.3243260911
 20
3.654785269
 30
0.0
 10
5.317868387
 20
3.6492533898
 30
0.0
 10
5.3113905643
 20
3.6432511474
 30
0.0
 10
5.3049529356
 20
3.6368301072
 30
0.0
 10
5.2986159493
 20
3.6300539893
 30
0.0
 10
5.2945099048
 20
3.6253573759
 30
0.0
 10
5.2924859195
 20
3.6229628775
 30
0.0
 11
5.3791220153
 21
3.6741792519
 31
0.0
 11
5.3777670572
 21
3.6751346833
 31
0.0
 11
5.3762721973
 21
3.6759153772
 31
0.0
 11
5.3746416667
 21
3.6765196172
 31
0.0
 11
5.3728796966
 21
3.6769456865
 31
0.0
 11
5.3689784018
 21
3.6772565813
 31
0.0
 11
5.3668480761
 21
3.6771397953
 31
0.0
 11
5.3646045645
 21
3.6768424847
 31
0.0
 11
5.3622528958
 21
3.6763656404
 31
0.0
 11
5.3597980984
 21
3.6757102532
 31
0.0
 11
5.3572452089
 21
3.6748773256
 31
0.0
 11
5.3545997345
 21
3.6738685728
 31
0.0
 11
5.3518679127
 21
3.6726868143
 31
0.0
 11
5.3490560435
 21
3.6713349645
 31
0.0
 11
5.3461704269
 21
3.669815938
 31
0.0
 11
5.3432173632
 21
3.6681326493
 31
0.0
 11
5.3402032841
 21
3.6662883607
 31
0.0
 11
5.3371351492
 21
3.6642877264
 31
0.0
 11
5.3340200495
 21
3.6621357483
 31
0.0
 11
5.3308650764
 21
3.6598374287
 31
0.0
 11
5.3244638685
 21
3.6548218268
 31
0.0
 11
5.3179878737
 21
3.6492842421
 31
0.0
 11
5.3114928589
 21
3.6432730353
 31
0.0
 11
5.3050350887
 21
3.6368382074
 31
0.0
 11
5.2986771954
 21
3.6300437924
 31
0.0
 11
5.2924859195
 21
3.6229628775
 31
0.0
  0
SPLINE
  5
3FE
100
AcDbEntity
  8
0
100
AcDbSpline
 62
9
  6
CONTINUOUS
 70
0
 71
3
 72
11
 73
7
 74
5
 42
0.0000001
 43
0.0000001
 44
0.0000000001
 12
-0.0268141474
 22
0.0187012959
 32
0.0
 13
-0.0231165922
 23
0.023116231
 33
0.0
 40
0.0
 40
0.0
 40
0.0
 40
0.0
 40
0.2430795682
 40
0.4917333898
 40
0.7446625742
 40
1.0
 40
1.0
 40
1.0
 40
1.0
 10
5.2924859195
 20
3.6229628775
 30
0.0
 10
5.2903132624
 20
3.6244781785
 30
0.0
 10
5.2859676026
 20
3.6276153638
 30
0.0
 10
5.2795685207
 20
3.632608973
 30
0.0
 10
5.2732927542
 20
3.6379659228
 30
0.0
 10
5.2692653333
 20
3.6417727815
 30
0.0
 10
5.2672978229
 20
3.6437402612
 30
0.0
 11
5.2924859195
 21
3.6229628775
 31
0.0
 11
5.2860462043
 21
3.6276189759
 31
0.0
 11
5.2796424965
 21
3.6326260878
 31
0.0
 11
5.2733589578
 21
3.6380008097
 31
0.0
 11
5.2672978229
 21
3.6437402612
 31
0.0
  0
LINE
  5
3FF
100
AcDbEntity
  8
0
100
AcDbLine
 62
9
  6
CONTINUOUS
 10
6.214550711
 20
4.5450276451
 11
6.2278729153
 21
4.5583037696
  0
SPLINE
  5
400
100
AcDbEntity
  8
0
100
AcDbSpline
 62
9
  6
CONTINUOUS
 70
0
 71
3
 72
11
 73
7
 74
5
 42
0.0000001
 43
0.0000001
 44
0.0000000001
 12
-0.0231163607
 22
0.0231164649
 32
0.0
 13
-0.018701546
 23
0.026813975
 33
0.0
 40
0.0
 40
0.0
 40
0.0
 40
0.0
 40
0.2553373932
 40
0.5082665689
 40
0.756920391
 40
1.0
 40
1.0
 40
1.0
 40
1.0
 10
5.2672978229
 20
3.6437402612
 30
0.0
 10
5.2653303325
 20
3.6457077605
 30
0.0
 10
5.2615235018
 20
3.6497352083
 30
0.0
 10
5.2561665278
 20
3.656010952
 30
0.0
 10
5.2511729009
 20
3.6624100234
 30
0.0
 10
5.2480357598
 20
3.666755715
 30
0.0
 10
5.2465204383
 20
3.6689283586
 30
0.0
 11
5.2672978229
 21
3.6437402612
 31
0.0
 11
5.2615583779
 21
3.6498014012
 31
0.0
 11
5.2561836436
 21
3.6560849296
 31
0.0
 11
5.2511765275
 21
3.6624886345
 31
0.0
 11
5.2465204383
 21
3.6689283586
 31
0.0
  0
SPLINE
  5
401
100
AcDbEntity
  8
0
100
AcDbSpline
 62
9
  6
CONTINUOUS
 70
0
 71
3
 72
11
 73
7
 74
5
 42
0.0000001
 43
0.0000001
 44
0.0000000001
 12
0.0269581232
 22
-0.0269581232
 32
0.0
 13
0.0216573495
 23
-0.0313757873
 33
0.0
 40
0.0
 40
0.0
 40
0.0
 40
0.0
 40
0.2523333055
 40
0.5037028633
 40
0.7532075531
 40
1.0
 40
1.0
 40
1.0
 40
1.0
 10
6.4566558119
 20
4.8330982502
 30
0.0
 10
6.4589232894
 20
4.8308307727
 30
0.0
 10
6.4633547775
 20
4.826208464
 30
0.0
 10
6.4696764143
 20
4.8190171207
 30
0.0
 10
6.475625623
 20
4.8116046108
 30
0.0
 10
6.4793394601
 20
4.8065033233
 30
0.0
 10
6.4811210835
 20
4.8039222208
 30
0.0
 11
6.4566558119
 21
4.8330982502
 31
0.0
 11
6.4633120779
 21
4.8261527268
 31
0.0
 11
6.4696370734
 21
4.8189530724
 31
0.0
 11
6.475587756
 21
4.8115319996
 31
0.0
 11
6.4811210835
 21
4.8039222208
 31
0.0
  0
SPLINE
  5
402
100
AcDbEntity
  8
0
100
AcDbSpline
 62
9
  6
CONTINUOUS
 70
0
 71
3
 72
17
 73
13
 74
11
 42
0.0000001
 43
0.0000001
 44
0.0000000001
 12
0.249953333
 22
0.2489786005
 32
0.0
 13
0.2552606433
 23
0.2435344249
 33
0.0
 40
0.0
 40
0.0
 40
0.0
 40
0.0
 40
0.0519624319
 40
0.1062490759
 40
0.1626629131
 40
0.2210068553
 40
0.342696411
 40
0.4697401885
 40
0.6005617986
 40
0.7335912538
 40
0.8672601391
 40
1.0
 40
1.0
 40
1.0
 40
1.0
 10
6.2278729153
 20
4.5583037696
 30
0.0
 10
6.2322023096
 20
4.5626162808
 30
0.0
 10
6.2410672821
 20
4.5714216175
 30
0.0
 10
6.2546714531
 20
4.5848696419
 30
0.0
 10
6.2688385443
 20
4.5988156408
 30
0.0
 10
6.2886904052
 20
4.6182857283
 30
0.0
 10
6.3145347046
 20
4.6435080407
 30
0.0
 10
6.346559542
 20
4.6746005173
 30
0.0
 10
6.3796092239
 20
4.7065516958
 30
0.0
 10
6.4132826303
 20
4.7389785012
 30
0.0
 10
6.4471792273
 20
4.7714986293
 30
0.0
 10
6.4698266627
 20
4.7931466456
 30
0.0
 10
6.4811210835
 20
4.8039222208
 30
0.0
 11
6.2278729153
 21
4.5583037696
 31
0.0
 11
6.2408784008
 21
4.5712239097
 31
0.0
 11
6.2544981469
 21
4.5846891146
 31
0.0
 11
6.2686810035
 21
4.598652118
 31
0.0
 11
6.2833758202
 21
4.6130656537
 31
0.0
 11
6.3140967331
 21
4.6430552575
 31
0.0
 11
6.3462516838
 21
4.6742797964
 31
0.0
 11
6.3794329276
 21
4.7063604769
 31
0.0
 11
6.4132385482
 21
4.7389158498
 31
0.0
 11
6.4472680865
 21
4.7715638022
 31
0.0
 11
6.4811210835
 21
4.8039222208
 31
0.0
  0
SPLINE
  5
403
100
AcDbEntity
  8
0
100
AcDbSpline
 62
9
  6
CONTINUOUS
 70
0
 71
3
 72
12
 73
8
 74
6
 42
0.0000001
 43
0.0000001
 44
0.0000000001
 12
0.0324216215
 22
-0.0324216215
 32
0.0
 13
0.0189879473
 23
-0.0417346491
 33
0.0
 40
0.0
 40
0.0
 40
0.0
 40
0.0
 40
0.250489741
 40
0.5007361766
 40
0.6257466835
 40
0.7506417094
 40
1.0
 40
1.0
 40
1.0
 40
1.0
 10
6.6296118816
 20
5.0060543198
 30
0.0
 10
6.6323189761
 20
5.0033472253
 30
0.0
 10
6.6374950695
 20
4.997694558
 30
0.0
 10
6.6433161936
 20
4.990090216
 30
0.0
 10
6.6475488075
 20
4.9837219225
 30
0.0
 10
6.651484091
 20
4.9771823173
 30
0.0
 10
6.6540981127
 20
4.972082641
 30
0.0
 10
6.6556763801
 20
4.9686136808
 30
0.0
 11
6.6296118816
 21
5.0060543198
 31
0.0
 11
6.637367983
 21
4.9975835829
 31
0.0
 11
6.644341039
 21
4.9884714561
 31
0.0
 11
6.6475134847
 21
4.9836975784
 31
0.0
 11
6.6504656408
 21
4.9787906014
 31
0.0
 11
6.6556763801
 21
4.9686136808
 31
0.0
  0
SPLINE
  5
404
100
AcDbEntity
  8
0
100
AcDbSpline
 62
9
  6
CONTINUOUS
 70
0
 71
3
 72
18
 73
14
 74
12
 42
0.0000001
 43
0.0000001
 44
0.0000000001
 12
0.1736392715
 22
0.1656625933
 32
0.0
 13
0.1773480138
 23
0.1616860334
 33
0.0
 40
0.0
 40
0.0
 40
0.0
 40
0.0
 40
0.1423911371
 40
0.2853155858
 40
0.4258289528
 40
0.5609870454
 40
0.6880147775
 40
0.7478130983
 40
0.8048126484
 40
0.858772199
 40
0.9094506026
 40
0.9566068254
 40
1.0
 40
1.0
 40
1.0
 40
1.0
 10
6.4811210835
 20
4.8039222208
 30
0.0
 10
6.4893626479
 20
4.8117851825
 30
0.0
 10
6.5058783379
 20
4.8275387818
 30
0.0
 10
6.5305418114
 20
4.8510360209
 30
0.0
 10
6.5548097859
 20
4.8741095311
 30
0.0
 10
6.5781897772
 20
4.8962713873
 30
0.0
 10
6.5969222216
 20
4.913950423
 30
0.0
 10
6.6111374602
 20
4.927306251
 30
0.0
 10
6.6211088503
 20
4.9366425361
 30
0.0
 10
6.6305655353
 20
4.9454610809
 30
0.0
 10
6.6394662616
 20
4.9537211814
 30
0.0
 10
6.6477697518
 20
4.9613821564
 30
0.0
 10
6.653111149
 20
4.9662749907
 30
0.0
 10
6.6556763801
 20
4.9686136808
 30
0.0
 11
6.4811210835
 21
4.8039222208
 31
0.0
 11
6.5058498148
 21
4.8275068727
 31
0.0
 11
6.5306854921
 21
4.8511648273
 31
0.0
 11
6.5551262366
 21
4.8743984229
 31
0.0
 11
6.5786701692
 21
4.8967099974
 31
0.0
 11
6.6008441013
 21
4.9176304958
 31
0.0
 11
6.6113035154
 21
4.9274564822
 31
0.0
 11
6.6212896053
 21
4.9368052899
 31
0.0
 11
6.6307611539
 21
4.9456361663
 31
0.0
 11
6.639676944
 21
4.9539083587
 31
0.0
 11
6.6479957585
 21
4.9615811144
 31
0.0
 11
6.6556763801
 21
4.9686136808
 31
0.0
  0
SPLINE
  5
405
100
AcDbEntity
  8
0
100
AcDbSpline
 62
9
  6
CONTINUOUS
 70
0
 71
3
 72
40
 73
36
 74
34
 42
0.0000001
 43
0.0000001
 44
0.0000000001
 12
0.0797230433
 22
0.0726825317
 32
0.0
 13
0.0504137053
 23
-0.0953780497
 33
0.0
 40
0.0
 40
0.0
 40
0.0
 40
0.0
 40
0.1186268078
 40
0.2301085032
 40
0.3343667726
 40
0.4313234493
 40
0.5209005702
 40
0.6030204584
 40
0.6776058515
 40
0.7445801043
 40
0.7751894264
 40
0.8038676988
 40
0.8306057136
 40
0.8553944269
 40
0.8782250165
 40
0.8990889687
 40
0.9179782103
 40
0.9348853206
 40
0.9498038856
 40
0.962729131
 40
0.9684436686
 40
0.9736595447
 40
0.9783774058
 40
0.9825985742
 40
0.9863254083
 40
0.9895619332
 40
0.9923150158
 40
0.9945967286
 40
0.995567749
 40
0.9964309092
 40
0.9971927471
 40
0.9978628627
 40
0.998984899
 40
0.9994909299
 40
1.0
 40
1.0
 40
1.0
 40
1.0
 10
6.6556763801
 20
4.9686136808
 30
0.0
 10
6.6588288101
 20
4.971487713
 30
0.0
 10
6.664950934
 20
4.9770548452
 30
0.0
 10
6.6738702594
 20
4.9851185753
 30
0.0
 10
6.6822356853
 20
4.9926329002
 30
0.0
 10
6.6900402254
 20
4.9995927872
 30
0.0
 10
6.6972768889
 20
5.0059932133
 30
0.0
 10
6.7039386648
 20
5.0118291874
 30
0.0
 10
6.7100185527
 20
5.0170957022
 30
0.0
 10
6.7147254176
 20
5.021117958
 30
0.0
 10
6.7181961904
 20
5.0240453497
 30
0.0
 10
6.7205703841
 20
5.0260285935
 30
0.0
 10
6.7227938967
 20
5.0278656648
 30
0.0
 10
6.7248658542
 20
5.0295559429
 30
0.0
 10
6.726785373
 20
5.0310988211
 30
0.0
 10
6.728551567
 20
5.0324937042
 30
0.0
 10
6.7301635464
 20
5.0337400066
 30
0.0
 10
6.7316204076
 20
5.0348371943
 30
0.0
 10
6.7329212608
 20
5.0357847063
 30
0.0
 10
6.7339112756
 20
5.0364750159
 30
0.0
 10
6.7346256729
 20
5.036950017
 30
0.0
 10
6.7350995651
 20
5.0372535291
 30
0.0
 10
6.7355338185
 20
5.0375191773
 30
0.0
 10
6.735928336
 20
5.0377469233
 30
0.0
 10
6.7362830183
 20
5.0379367491
 30
0.0
 10
6.7365978129
 20
5.0380887166
 30
0.0
 10
6.736872673
 20
5.0382028344
 30
0.0
 10
6.7370783864
 20
5.0382699478
 30
0.0
 10
6.7372229093
 20
5.0383024423
 30
0.0
 10
6.7373153767
 20
5.0383159182
 30
0.0
 10
6.7373980653
 20
5.0383197902
 30
0.0
 10
6.7374896128
 20
5.0383127022
 30
0.0
 10
6.7375710386
 20
5.0382864531
 30
0.0
 10
6.7376304412
 20
5.038236355
 30
0.0
 10
6.7376514596
 20
5.0382059407
 30
0.0
 10
6.7376600143
 20
5.038189756
 30
0.0
 11
6.6556763801
 21
4.9686136808
 31
0.0
 11
6.6651453069
 21
4.9772229963
 31
0.0
 11
6.6740673967
 21
4.9852878414
 31
0.0
 11
6.6824356873
 21
4.9928031509
 31
0.0
 11
6.6902432169
 21
4.9997638595
 31
0.0
 11
6.6974830233
 21
5.006164902
 31
0.0
 11
6.7041481444
 21
5.0120012132
 31
0.0
 11
6.7102316182
 21
5.017267728
 31
0.0
 11
6.7157264826
 21
5.021959381
 31
0.0
 11
6.7182510107
 21
5.0240880514
 31
0.0
 11
6.7206257757
 21
5.026071107
 31
0.0
 11
6.7228499073
 21
5.0279079145
 31
0.0
 11
6.7249225352
 21
5.0295978408
 31
0.0
 11
6.7268427893
 21
5.0311402528
 31
0.0
 11
6.7286097992
 21
5.0325345173
 31
0.0
 11
6.7302226948
 21
5.0337800011
 31
0.0
 11
6.7316806056
 21
5.0348760711
 31
0.0
 11
6.7329826616
 21
5.0358220942
 31
0.0
 11
6.7341279924
 21
5.0366174371
 31
0.0
 11
6.7346416139
 21
5.0369584057
 31
0.0
 11
6.7351157278
 21
5.0372614668
 31
0.0
 11
6.7355502252
 21
5.0375265413
 31
0.0
 11
6.7359449975
 21
5.0377535501
 31
0.0
 11
6.7362999358
 21
5.037942414
 31
0.0
 11
6.7366149312
 21
5.0380930538
 31
0.0
 11
6.7368898752
 21
5.0382053905
 31
0.0
 11
6.7371246588
 21
5.0382793448
 31
0.0
 11
6.7372269565
 21
5.0383019038
 31
0.0
 11
6.7373191733
 21
5.0383148376
 31
0.0
 11
6.7374012956
 21
5.0383181363
 31
0.0
 11
6.7374733099
 21
5.0383117899
 31
0.0
 11
6.7375869598
 21
5.0382701224
 31
0.0
 11
6.7376285683
 21
5.0382347815
 31
0.0
 11
6.7376600143
 21
5.038189756
 31
0.0
  0
SPLINE
  5
406
100
AcDbEntity
  8
0
100
AcDbSpline
 62
9
  6
CONTINUOUS
 70
0
 71
3
 72
9
 73
5
 74
3
 42
0.0000001
 43
0.0000001
 44
0.0000000001
 12
0.0000199904
 22
-0.0000378199
 32
0.0
 13
0.0000134344
 23
-0.0000406138
 33
0.0
 40
0.0
 40
0.0
 40
0.0
 40
0.0
 40
0.2444307777
 40
1.0
 40
1.0
 40
1.0
 40
1.0
 10
6.7376600143
 20
5.038189756
 30
0.0
 10
6.737661643
 20
5.0381866745
 30
0.0
 10
6.7376680263
 20
5.0381739207
 30
0.0
 10
6.7376732879
 20
5.0381606138
 30
0.0
 10
6.7376766714
 20
5.038150385
 30
0.0
 11
6.7376600143
 21
5.038189756
 31
0.0
 11
6.7376646965
 21
5.0381804066
 31
0.0
 11
6.7376766714
 21
5.038150385
 31
0.0
  0
SPLINE
  5
407
100
AcDbEntity
  8
0
100
AcDbSpline
 62
9
  6
CONTINUOUS
 70
0
 71
3
 72
30
 73
26
 74
24
 42
0.0000001
 43
0.0000001
 44
0.0000000001
 12
0.1054158837
 22
-0.1527198124
 32
0.0
 13
-0.1239887708
 23
-0.1380674993
 33
0.0
 40
0.0
 40
0.0
 40
0.0
 40
0.0
 40
0.0663032674
 40
0.131637183
 40
0.1958898986
 40
0.2589940897
 40
0.3209359053
 40
0.3817650806
 40
0.4416057875
 40
0.5006673422
 40
0.5300053639
 40
0.5592717237
 40
0.5885203274
 40
0.6178105996
 40
0.6472072706
 40
0.6767800544
 40
0.706603219
 40
0.736755062
 40
0.767317307
 40
0.7983744442
 40
0.8300130412
 40
0.8623210515
 40
0.8953871483
 40
0.9293001045
 40
1.0
 40
1.0
 40
1.0
 40
1.0
 10
6.4811210835
 20
4.8039222208
 30
0.0
 10
6.4834508893
 20
4.8005469466
 30
0.0
 10
6.4879316583
 20
4.7937441069
 30
0.0
 10
6.4941062655
 20
4.7833126235
 30
0.0
 10
6.4996300705
 20
4.7727437752
 30
0.0
 10
6.5044422104
 20
4.7620609251
 30
0.0
 10
6.5084817142
 20
4.7512869763
 30
0.0
 10
6.5116870529
 20
4.7404445271
 30
0.0
 10
6.5139960722
 20
4.7295570861
 30
0.0
 10
6.5151233275
 20
4.72044338
 30
0.0
 10
6.5155098267
 20
4.7131729322
 30
0.0
 10
6.5155375501
 20
4.7077365133
 30
0.0
 10
6.5152968073
 20
4.7023082919
 30
0.0
 10
6.5147808275
 20
4.6968910593
 30
0.0
 10
6.5139828096
 20
4.6914877804
 30
0.0
 10
6.5128959802
 20
4.6861013978
 30
0.0
 10
6.5115135845
 20
4.6807348791
 30
0.0
 10
6.5098288936
 20
4.6753911978
 30
0.0
 10
6.5078352046
 20
4.6700733289
 30
0.0
 10
6.5055258448
 20
4.6647842465
 30
0.0
 10
6.5028941506
 20
4.6595268964
 30
0.0
 10
6.4999335354
 20
4.6543042719
 30
0.0
 10
6.4966372062
 20
4.6491190973
 30
0.0
 10
6.4917183587
 20
4.6421638928
 30
0.0
 10
6.4875995337
 20
4.6371570223
 30
0.0
 10
6.484677536
 20
4.6339032364
 30
0.0
 11
6.4811210835
 21
4.8039222208
 31
0.0
 11
6.4878805642
 21
4.7936414786
 31
0.0
 11
6.4940463321
 21
4.7832024443
 31
0.0
 11
6.4995577789
 21
4.7726293979
 31
0.0
 11
6.5043542962
 21
4.7619466193
 31
0.0
 11
6.5083752757
 21
4.7511783883
 31
0.0
 11
6.5115601088
 21
4.7403489851
 31
0.0
 11
6.5138481874
 21
4.7294826894
 31
0.0
 11
6.515178903
 21
4.7186037813
 31
0.0
 11
6.5154664543
 21
4.7131671534
 31
0.0
 11
6.5154928034
 21
4.7077362886
 31
0.0
 11
6.5152512397
 21
4.702314033
 31
0.0
 11
6.5147350525
 21
4.696903233
 31
0.0
 11
6.5139375314
 21
4.6915067349
 31
0.0
 11
6.5128519657
 21
4.6861273852
 31
0.0
 11
6.511471645
 21
4.6807680301
 31
0.0
 11
6.5097898586
 21
4.6754315159
 31
0.0
 11
6.5077998959
 21
4.670120689
 31
0.0
 11
6.5054950465
 21
4.6648383957
 31
0.0
 11
6.5028685997
 21
4.6595874823
 31
0.0
 11
6.4999138451
 21
4.6543707953
 31
0.0
 11
6.4966240719
 21
4.6491911808
 31
0.0
 11
6.4929925698
 21
4.6440514853
 31
0.0
 11
6.484677536
 21
4.6339032364
 31
0.0
  0
SPLINE
  5
408
100
AcDbEntity
  8
0
100
AcDbSpline
 62
9
  6
CONTINUOUS
 70
0
 71
3
 72
24
 73
20
 74
18
 42
0.0000001
 43
0.0000001
 44
0.0000000001
 12
0.118187823
 22
-0.2597714876
 32
0.0
 13
-0.1898676602
 23
-0.2130724264
 33
0.0
 40
0.0
 40
0.0
 40
0.0
 40
0.0
 40
0.0531300887
 40
0.1065385913
 40
0.1603695696
 40
0.2147907287
 40
0.2699934784
 40
0.3261922342
 40
0.3836229543
 40
0.4425409794
 40
0.5032180578
 40
0.5659328023
 40
0.6309606817
 40
0.6985716266
 40
0.7334329167
 40
0.7690379093
 40
0.8425966001
 40
0.9195042322
 40
1.0
 40
1.0
 40
1.0
 40
1.0
 10
6.6556763801
 20
4.9686136808
 30
0.0
 10
6.6577694899
 20
4.96401312
 30
0.0
 10
6.6616243375
 20
4.9546274999
 30
0.0
 10
6.6663364279
 20
4.9401022551
 30
0.0
 10
6.6699400588
 20
4.9251351899
 30
0.0
 10
6.6723840381
 20
4.9097624253
 30
0.0
 10
6.6736177943
 20
4.894019051
 30
0.0
 10
6.6735907166
 20
4.8779407502
 30
0.0
 10
6.6722524663
 20
4.8615633373
 30
0.0
 10
6.6695528785
 20
4.844922716
 30
0.0
 10
6.6654425866
 20
4.8280558073
 30
0.0
 10
6.6598907687
 20
4.8109953415
 30
0.0
 10
6.6528665691
 20
4.793773096
 30
0.0
 10
6.6458329006
 20
4.779460342
 30
0.0
 10
6.6394663476
 20
4.7679687373
 30
0.0
 10
6.6324420475
 20
4.7562025919
 30
0.0
 10
6.6226474868
 20
4.7414433895
 30
0.0
 10
6.6094225699
 20
4.7238832339
 30
0.0
 10
6.5997489576
 20
4.7124417411
 30
0.0
 10
6.5946544433
 20
4.7067245982
 30
0.0
 11
6.6556763801
 21
4.9686136808
 31
0.0
 11
6.661434095
 21
4.9545863813
 31
0.0
 11
6.6661353909
 21
4.9400870651
 31
0.0
 11
6.6697304385
 21
4.9251505947
 31
0.0
 11
6.6721694088
 21
4.9098118328
 31
0.0
 11
6.6734024725
 21
4.894105642
 31
0.0
 11
6.6733798006
 21
4.8780668849
 31
0.0
 11
6.6720515639
 21
4.8617304241
 31
0.0
 11
6.6693679332
 21
4.8451311222
 31
0.0
 11
6.6652820655
 21
4.828303191
 31
0.0
 11
6.6597590652
 21
4.8112782378
 31
0.0
 11
6.6527670247
 21
4.7940872187
 31
0.0
 11
6.644274036
 21
4.7767610898
 31
0.0
 11
6.6394547149
 21
4.768057033
 31
0.0
 11
6.6342481913
 21
4.7593308072
 31
0.0
 11
6.6226575828
 21
4.741827327
 31
0.0
 11
6.6094703027
 21
4.7242816053
 31
0.0
 11
6.5946544433
 21
4.7067245982
 31
0.0
  0
SPLINE
  5
409
100
AcDbEntity
  8
0
100
AcDbSpline
 62
6
  6
CONTINUOUS
 70
0
 71
3
 72
23
 73
19
 74
17
 42
0.0000001
 43
0.0000001
 44
0.0000000001
 12
-0.0848777719
 22
0.115231989
 32
0.0
 13
-0.0177259361
 23
0.1420156282
 33
0.0
 40
0.0
 40
0.0
 40
0.0
 40
0.0
 40
0.0588647055
 40
0.1187929279
 40
0.2413224309
 40
0.3037018648
 40
0.3666543305
 40
0.4300506679
 40
0.4937618729
 40
0.5576600745
 40
0.6216195113
 40
0.6855175343
 40
0.7174074376
 40
0.7492381082
 40
0.8126639283
 40
0.8756818151
 40
0.9381697245
 40
1.0
 40
1.0
 40
1.0
 40
1.0
 10
4.7642726855
 20
4.7854885346
 30
0.0
 10
4.7626072505
 20
4.787749567
 30
0.0
 10
4.7593149336
 20
4.7923635989
 30
0.0
 10
4.7529145972
 20
4.8019344304
 30
0.0
 10
4.7468771177
 20
4.811944307
 30
0.0
 10
4.7412689341
 20
4.8223559955
 30
0.0
 10
4.7372546566
 20
4.8304168101
 30
0.0
 10
4.7334717807
 20
4.8386585919
 30
0.0
 10
4.7299341328
 20
4.8470575918
 30
0.0
 10
4.7266556707
 20
4.8555899324
 30
0.0
 10
4.7236503546
 20
4.8642317013
 30
0.0
 10
4.7213836367
 20
4.8715092774
 30
0.0
 10
4.7197200979
 20
4.8773660155
 30
0.0
 10
4.7181621837
 20
4.8832284233
 30
0.0
 10
4.7164056826
 20
4.8905734137
 30
0.0
 10
4.714594227
 20
4.8994041996
 30
0.0
 10
4.7130759294
 20
4.9082127378
 30
0.0
 10
4.7122503901
 20
4.9140868281
 30
0.0
 10
4.7118850569
 20
4.9170137832
 30
0.0
 11
4.7642726855
 21
4.7854885346
 31
0.0
 11
4.7593792021
 21
4.7923461792
 31
0.0
 11
4.7546115695
 21
4.7994757579
 31
0.0
 11
4.7455589243
 21
4.8144945933
 31
0.0
 11
4.7413240039
 21
4.8223538171
 31
0.0
 11
4.7373069609
 21
4.8304183296
 31
0.0
 11
4.7335217596
 21
4.8386641752
 31
0.0
 11
4.7299823642
 21
4.8470673982
 31
0.0
 11
4.7267027391
 21
4.8556040429
 31
0.0
 11
4.7236968485
 21
4.8642501536
 31
0.0
 11
4.7209786567
 21
4.8729817749
 31
0.0
 11
4.7197318115
 21
4.8773721657
 31
0.0
 11
4.7185616025
 21
4.8817748305
 31
0.0
 11
4.7164491943
 21
4.8906029693
 31
0.0
 11
4.7146360776
 21
4.8994378097
 31
0.0
 11
4.7131165869
 21
4.9082508986
 31
0.0
 11
4.7118850569
 21
4.9170137832
 31
0.0
  0
SPLINE
  5
40A
100
AcDbEntity
  8
0
100
AcDbSpline
 62
6
  6
CONTINUOUS
 70
0
 71
3
 72
17
 73
13
 74
11
 42
0.0000001
 43
0.0000001
 44
0.0000000001
 12
-0.1420063869
 22
0.0175088934
 32
0.0
 13
-0.1153212361
 23
0.0846958546
 33
0.0
 40
0.0
 40
0.0
 40
0.0
 40
0.0
 40
0.1250036246
 40
0.1875111658
 40
0.2500177167
 40
0.3125248904
 40
0.3750332702
 40
0.5000329903
 40
0.6250146867
 40
0.7499848688
 40
0.8749752069
 40
1.0
 40
1.0
 40
1.0
 40
1.0
 10
6.5405711383
 20
3.0883257229
 30
0.0
 10
6.534654034
 20
3.0890552813
 30
0.0
 10
6.5258096021
 20
3.0904342913
 30
0.0
 10
6.5141291031
 20
3.092840378
 30
0.0
 10
6.5054311747
 20
3.0949296122
 30
0.0
 10
6.4968059189
 20
3.0973008325
 30
0.0
 10
6.4854145066
 20
3.1008311163
 30
0.0
 10
6.4713964881
 20
3.1059250597
 30
0.0
 10
6.4549983667
 20
3.1130883289
 30
0.0
 10
6.4390842649
 20
3.1212710396
 30
0.0
 10
6.4237174255
 20
3.1304428061
 30
0.0
 10
6.4138785248
 20
3.1371963228
 30
0.0
 10
6.4090725202
 20
3.1407260167
 30
0.0
 11
6.5405711383
 21
3.0883257229
 31
0.0
 11
6.5228992192
 21
3.0910830201
 31
0.0
 11
6.5141395267
 21
3.0928878203
 31
0.0
 11
6.5054433219
 21
3.0949766005
 31
0.0
 11
6.4968195094
 21
3.0973469238
 31
0.0
 11
6.4882764557
 21
3.0999941667
 31
0.0
 11
6.4714660067
 21
3.1061005761
 31
0.0
 11
6.455078469
 21
3.1132584948
 31
0.0
 11
6.4391766101
 21
3.1214352395
 31
0.0
 11
6.4238204795
 21
3.1306015184
 31
0.0
 11
6.4090725202
 21
3.1407260167
 31
0.0
  0
SPLINE
  5
40B
100
AcDbEntity
  8
0
100
AcDbSpline
 62
6
  6
CONTINUOUS
 70
0
 71
3
 72
10
 73
6
 74
4
 42
0.0000001
 43
0.0000001
 44
0.0000000001
 12
0.0490088156
 22
0.0321336734
 32
0.0
 13
0.0494928811
 23
0.0313829842
 33
0.0
 40
0.0
 40
0.0
 40
0.0
 40
0.0
 40
0.5196402262
 40
0.7648953376
 40
1.0
 40
1.0
 40
1.0
 40
1.0
 10
6.5453710459
 20
4.6750142462
 30
0.0
 10
6.5538600299
 20
4.6805802293
 30
0.0
 10
6.5663993822
 20
4.6887065158
 30
0.0
 10
6.5828557241
 20
4.6992323515
 30
0.0
 10
6.590775651
 20
4.7042650915
 30
0.0
 10
6.5946543201
 20
4.7067245201
 30
0.0
 11
6.5453710459
 21
4.6750142462
 31
0.0
 11
6.5709196951
 21
4.691586925
 31
0.0
 11
6.5830266637
 21
4.6993330811
 31
0.0
 11
6.5946543201
 21
4.7067245201
 31
0.0
  0
LINE
  5
40C
100
AcDbEntity
  8
0
100
AcDbLine
 62
6
  6
CONTINUOUS
 10
6.5946543201
 20
4.7067245201
 11
6.6201347441
 21
4.7228371616
  0
LINE
  5
40D
100
AcDbEntity
  8
0
100
AcDbLine
 62
6
  6
CONTINUOUS
 10
6.6201347441
 20
4.7228371616
 11
6.6268810008
 21
4.7271098855
  0
SPLINE
  5
40E
100
AcDbEntity
  8
0
100
AcDbSpline
 62
6
  6
CONTINUOUS
 70
0
 71
3
 72
17
 73
13
 74
11
 42
0.0000001
 43
0.0000001
 44
0.0000000001
 12
0.0449285812
 22
0.0285066061
 32
0.0
 13
0.0420780611
 23
0.0325674803
 33
0.0
 40
0.0
 40
0.0
 40
0.0
 40
0.0
 40
0.1552207863
 40
0.3026361585
 40
0.4418553819
 40
0.5724905544
 40
0.6941205782
 40
0.8062459838
 40
0.858588662
 40
0.9083700386
 40
0.9555306787
 40
1.0
 40
1.0
 40
1.0
 40
1.0
 10
6.6268810008
 20
4.7271098855
 30
0.0
 10
6.6292056173
 20
4.7285848248
 30
0.0
 10
6.6337355656
 20
4.7314643068
 30
0.0
 10
6.6403366496
 20
4.7356884071
 30
0.0
 10
6.6465520659
 20
4.7397060696
 30
0.0
 10
6.6523589024
 20
4.7435131523
 30
0.0
 10
6.6577322211
 20
4.7471046162
 30
0.0
 10
6.6619161764
 20
4.7499761203
 30
0.0
 10
6.6650211014
 20
4.752166978
 30
0.0
 10
6.6671691594
 20
4.753715137
 30
0.0
 10
6.6691866104
 20
4.7552053955
 30
0.0
 10
6.6704803589
 20
4.7561891014
 30
0.0
 10
6.6711040865
 20
4.7566718526
 30
0.0
 11
6.6268810008
 21
4.7271098855
 31
0.0
 11
6.633850104
 21
4.7315421752
 31
0.0
 11
6.6404557576
 21
4.7357719578
 31
0.0
 11
6.646675435
 21
4.7397956361
 31
0.0
 11
6.6524866008
 21
4.7436096105
 31
0.0
 11
6.6578646654
 21
4.7472097305
 31
0.0
 11
6.6627803533
 21
4.7505905901
 31
0.0
 11
6.6650554541
 21
4.7521970534
 31
0.0
 11
6.6672037387
 21
4.7537466088
 31
0.0
 11
6.6692214315
 21
4.7552385438
 31
0.0
 11
6.6711040865
 21
4.7566718526
 31
0.0
  0
SPLINE
  5
40F
100
AcDbEntity
  8
0
100
AcDbSpline
 62
6
  6
CONTINUOUS
 70
0
 71
3
 72
11
 73
7
 74
5
 42
0.0000001
 43
0.0000001
 44
0.0000000001
 12
0.0070846258
 22
0.0054833423
 32
0.0
 13
0.0063315319
 23
0.0063380335
 33
0.0
 40
0.0
 40
0.0
 40
0.0
 40
0.0
 40
0.2845597943
 40
0.5464757731
 40
0.7851281003
 40
1.0
 40
1.0
 40
1.0
 40
1.0
 10
6.6711040865
 20
4.7566718526
 30
0.0
 10
6.6717760864
 20
4.7571919656
 30
0.0
 10
6.6730574745
 20
4.7582027211
 30
0.0
 10
6.6748635465
 20
4.7596982158
 30
0.0
 10
6.6764680107
 20
4.7611094976
 30
0.0
 10
6.6774505351
 20
4.7620424072
 30
0.0
 10
6.6779040245
 20
4.7624963623
 30
0.0
 11
6.6711040865
 21
4.7566718526
 31
0.0
 11
6.6731039811
 21
4.7582527805
 31
0.0
 11
6.6749091498
 21
4.7597518234
 31
0.0
 11
6.6765117713
 21
4.7611670083
 31
0.0
 11
6.6779040245
 21
4.7624963623
 31
0.0
  0
SPLINE
  5
410
100
AcDbEntity
  8
0
100
AcDbSpline
 62
6
  6
CONTINUOUS
 70
0
 71
3
 72
23
 73
19
 74
17
 42
0.0000001
 43
0.0000001
 44
0.0000000001
 12
-0.0177185491
 22
-0.141955097
 32
0.0
 13
-0.0848165821
 23
-0.1152013192
 33
0.0
 40
0.0
 40
0.0
 40
0.0
 40
0.0
 40
0.0618282478
 40
0.1243138631
 40
0.1873293066
 40
0.2507526425
 40
0.2825820855
 40
0.3144707883
 40
0.3783665569
 40
0.4423240357
 40
0.5062207022
 40
0.5699309222
 40
0.6333269517
 40
0.6962799111
 40
0.7586607605
 40
0.8811961818
 40
0.9411291471
 40
1.0
 40
1.0
 40
1.0
 40
1.0
 10
6.7491860383
 20
4.9170134528
 30
0.0
 10
6.7488208694
 20
4.9140878411
 30
0.0
 10
6.7479957453
 20
4.9082164539
 30
0.0
 10
6.7464783281
 20
4.8994119574
 30
0.0
 10
6.7446680254
 20
4.890585209
 30
0.0
 10
6.7429127169
 20
4.8832435454
 30
0.0
 10
6.7413559032
 20
4.8773837622
 30
0.0
 10
6.7396935579
 20
4.8715296142
 30
0.0
 10
6.7374284789
 20
4.864255201
 30
0.0
 10
6.7344253554
 20
4.8556170886
 30
0.0
 10
6.7311492906
 20
4.8470882294
 30
0.0
 10
6.7276142255
 20
4.838692503
 30
0.0
 10
6.7238341002
 20
4.8304537537
 30
0.0
 10
6.7198227179
 20
4.8223957004
 30
0.0
 10
6.7142185108
 20
4.8119871716
 30
0.0
 10
6.708185195
 20
4.8019799347
 30
0.0
 10
6.7017890645
 20
4.7924112288
 30
0.0
 10
6.6984988278
 20
4.7877980426
 30
0.0
 10
6.6968344196
 20
4.785537376
 30
0.0
 11
6.7491860383
 21
4.9170134528
 31
0.0
 11
6.7479551253
 21
4.9082545819
 31
0.0
 11
6.746436517
 21
4.8994455406
 31
0.0
 11
6.7446245558
 21
4.8906147428
 31
0.0
 11
6.7425135839
 21
4.8817906026
 31
0.0
 11
6.741344201
 21
4.8773899084
 31
0.0
 11
6.7400982502
 21
4.8730014636
 31
0.0
 11
6.7373820283
 21
4.8642736479
 31
0.0
 11
6.7343783326
 21
4.8556311999
 31
0.0
 11
6.7311011084
 21
4.8470980423
 31
0.0
 11
6.7275643007
 21
4.8386980981
 31
0.0
 11
6.7237818547
 21
4.83045529
 31
0.0
 11
6.7197677157
 21
4.8223935409
 31
0.0
 11
6.7155358286
 21
4.8145367737
 31
0.0
 11
6.7064894152
 21
4.7995219181
 31
0.0
 11
6.7017248748
 21
4.7923938519
 31
0.0
 11
6.6968344196
 21
4.785537376
 31
0.0
  0
LINE
  5
411
100
AcDbEntity
  8
0
100
AcDbLine
 62
6
  6
CONTINUOUS
 10
6.2871951218
 20
4.9046046458
 11
6.2873524598
 21
4.9048405642
  0
LINE
  5
412
100
AcDbEntity
  8
0
100
AcDbLine
 62
6
  6
CONTINUOUS
 10
6.5281628584
 20
4.6636365062
 11
6.5283989336
 21
4.6637939482
  0
SPLINE
  5
413
100
AcDbEntity
  8
0
100
AcDbSpline
 62
6
  6
CONTINUOUS
 70
0
 71
3
 72
23
 73
19
 74
17
 42
0.0000001
 43
0.0000001
 44
0.0000000001
 12
0.1152266723
 22
0.0848666264
 32
0.0
 13
0.1420048501
 23
0.017724357
 33
0.0
 40
0.0
 40
0.0
 40
0.0
 40
0.0
 40
0.0588658626
 40
0.1187949827
 40
0.2413256197
 40
0.3037053333
 40
0.3666579059
 40
0.4300541988
 40
0.4937652303
 40
0.5576631523
 40
0.6216222263
 40
0.6855198263
 40
0.7174095023
 40
0.7492399392
 40
0.8126652816
 40
0.875682691
 40
0.9381701424
 40
1.0
 40
1.0
 40
1.0
 40
1.0
 10
6.4090552401
 20
5.0732476251
 30
0.0
 10
6.4113162126
 20
5.0749128742
 30
0.0
 10
6.415930104
 20
5.0782048139
 30
0.0
 10
6.4255005757
 20
5.0846043859
 30
0.0
 10
6.4355099993
 20
5.0906411056
 30
0.0
 10
6.44592114
 20
5.0962485607
 30
0.0
 10
6.4539814718
 20
5.1002623064
 30
0.0
 10
6.4622227208
 20
5.1040446756
 30
0.0
 10
6.4706211433
 20
5.107581846
 30
0.0
 10
6.4791528678
 20
5.110859863
 30
0.0
 10
6.4877939879
 20
5.1138647698
 30
0.0
 10
6.4950710016
 20
5.1161311797
 30
0.0
 10
6.5009272783
 20
5.1177944927
 30
0.0
 10
6.5067892177
 20
5.1193521976
 30
0.0
 10
6.5141336133
 20
5.1211084701
 30
0.0
 10
6.5229636758
 20
5.1229197017
 30
0.0
 10
6.5317714882
 20
5.1244378243
 30
0.0
 10
6.5376450923
 20
5.125263278
 30
0.0
 10
6.5405718055
 20
5.1256285762
 30
0.0
 11
6.4090552401
 21
5.0732476251
 31
0.0
 11
6.4159126923
 21
5.0781405597
 31
0.0
 11
6.4230420161
 21
5.0829076304
 31
0.0
 11
6.4380601682
 21
5.0919591385
 31
0.0
 11
6.4459189652
 21
5.0961935032
 31
0.0
 11
6.4539829946
 21
5.1002100128
 31
0.0
 11
6.4622283065
 21
5.1039947066
 31
0.0
 11
6.4706309511
 21
5.1075336235
 31
0.0
 11
6.4791669787
 21
5.1108128028
 31
0.0
 11
6.4878124395
 21
5.1138182836
 31
0.0
 11
6.4965433838
 21
5.1165361051
 31
0.0
 11
6.5009334278
 21
5.1177827811
 31
0.0
 11
6.5053357411
 21
5.118952833
 31
0.0
 11
6.5141631652
 21
5.1210649661
 31
0.0
 11
6.5229972813
 21
5.1228778582
 31
0.0
 11
6.5318096434
 21
5.1243971736
 31
0.0
 11
6.5405718055
 21
5.1256285762
 31
0.0
  0
SPLINE
  5
414
100
AcDbEntity
  8
0
100
AcDbSpline
 62
6
  6
CONTINUOUS
 70
0
 71
3
 72
17
 73
13
 74
11
 42
0.0000001
 43
0.0000001
 44
0.0000000001
 12
0.1419981814
 22
-0.0175031617
 32
0.0
 13
0.115316969
 23
-0.0846867219
 33
0.0
 40
0.0
 40
0.0
 40
0.0
 40
0.0
 40
0.1249998206
 40
0.1875057708
 40
0.2500113885
 40
0.3125182695
 40
0.3750266765
 40
0.5000263421
 40
0.6250074234
 40
0.7499789809
 40
0.8749726029
 40
1.0
 40
1.0
 40
1.0
 40
1.0
 10
4.9204998725
 20
5.1256305862
 30
0.0
 10
4.9264164549
 20
5.1249012888
 30
0.0
 10
4.9352601396
 20
5.123522706
 30
0.0
 10
4.9469396014
 20
5.1211166999
 30
0.0
 10
4.955636739
 20
5.1190271163
 30
0.0
 10
4.9642613689
 20
5.1166559378
 30
0.0
 10
4.9756520897
 20
5.1131259723
 30
0.0
 10
4.9896694003
 20
5.1080328956
 30
0.0
 10
5.0060668305
 20
5.1008707076
 30
0.0
 10
5.0219802916
 20
5.0926887371
 30
0.0
 10
5.037346649
 20
5.0835176501
 30
0.0
 10
5.0471853693
 20
5.0767646833
 30
0.0
 10
5.0519912961
 20
5.0732352965
 30
0.0
 11
4.9204998725
 21
5.1256305862
 31
0.0
 11
4.9381702269
 21
5.1228739631
 31
0.0
 11
4.94692913
 21
5.1210691994
 31
0.0
 11
4.9556245772
 21
5.1189802039
 31
0.0
 11
4.9642477742
 21
5.1166098856
 31
0.0
 11
4.9727903246
 21
5.1139628732
 31
0.0
 11
4.9895999221
 21
5.107857381
 31
0.0
 11
5.0059866271
 21
5.1007005376
 31
0.0
 11
5.0218878707
 21
5.0925245831
 31
0.0
 11
5.0372436469
 21
5.0833589508
 31
0.0
 11
5.0519912961
 21
5.0732352965
 31
0.0
  0
LINE
  5
415
100
AcDbEntity
  8
0
100
AcDbLine
 62
6
  6
CONTINUOUS
 10
4.9329089395
 20
4.6636375538
 11
4.9326730116
 21
4.663794898
  0
LINE
  5
416
100
AcDbEntity
  8
0
100
AcDbLine
 62
6
  6
CONTINUOUS
 10
5.1738770767
 20
4.9046052861
 11
5.1737196276
 21
4.9048413718
  0
ENDSEC
  0
SECTION
  2
OBJECTS
  0
DICTIONARY
  5
C
100
AcDbDictionary
280
0
281
1
  3
ACAD_GROUP
350
D
  3
ACAD_MLINESTYLE
350
17
  3
ACAD_LAYOUT
350
1A
  3
ACAD_PLOTSETTINGS
350
19
  3
ACAD_PLOTSTYLENAME
350
E
  0
DICTIONARY
  5
D
102
{ACAD_REACTORS
330
C
102
}
100
AcDbDictionary
280
0
281
1
  0
ACDBDICTIONARYWDFLT
  5
E
102
{ACAD_REACTORS
330
C
102
}
100
AcDbDictionary
281
1
  3
Normal
350
F
100
AcDbDictionaryWithDefault
340
F
  0
DICTIONARY
  5
17
102
{ACAD_REACTORS
330
C
102
}
100
AcDbDictionary
280
0
281
1
  3
Standard
350
18
  0
DICTIONARY
  5
19
102
{ACAD_REACTORS
330
C
102
}
100
AcDbDictionary
281
1
  0
DICTIONARY
  5
1A
102
{ACAD_REACTORS
330
C
102
}
100
AcDbDictionary
281
1
  3
Model
350
417
  3
Layout1
350
418
  0
ACDBPLACEHOLDER
  5
F
102
{ACAD_REACTORS
330
E
102
}
  0
MLINESTYLE
  5
18
102
{ACAD_REACTORS
330
17
102
}
100
AcDbMlineStyle
  2
STANDARD
 70
0
  3

 62
256
 51
90.0
 52
90.0
 71
2
 49
0.5
 62
256
  6
BYLAYER
 49
-0.5
 62
256
  6
BYLAYER
  0
LAYOUT
  5
417
102
{ACAD_REACTORS
330
1A
102
}
100
AcDbPlotSettings
  1

  2
none_device
  4
ISO_A4_(297.00_x_210.00_MM)
  6

 40
0.0
 41
0.0
 42
0.0
 43
0.0
 44
297.0
 45
210.0
 46
0.0
 47
0.0
 48
0.0
 49
0.0
140
0.0
141
0.0
142
1.0
143
1.0
 70
1024
 72
0
 73
0
 74
0
  7

 75
0
147
1.0
148
0.0
149
0.0
100
AcDbLayout
  1
Model
 70
0
 71
0
 10
0.0
 20
0.0
 11
11.6929133858
 21
8.2677165354
 12
0.0
 22
0.0
 32
0.0
 14
0.0
 24
0.0
 34
0.0
 15
0.0
 25
0.0
 35
0.0
146
0.0
 13
0.0
 23
0.0
 33
0.0
 16
1.0
 26
0.0
 36
0.0
 17
0.0
 27
1.0
 37
0.0
 76
0
330
203
345
0
346
0
  0
LAYOUT
  5
418
102
{ACAD_REACTORS
330
1A
102
}
100
AcDbPlotSettings
  1

  2
none_device
  4
ISO_A4_(297.00_x_210.00_MM)
  6

 40
0.0
 41
0.0
 42
0.0
 43
0.0
 44
297.0
 45
210.0
 46
0.0
 47
0.0
 48
0.0
 49
0.0
140
0.0
141
0.0
142
1.0
143
1.0
 70
0
 72
0
 73
0
 74
0
  7

 75
0
147
1.0
148
0.0
149
0.0
100
AcDbLayout
  1
Layout1
 70
0
 71
1
 10
0.0
 20
0.0
 11
11.6929133858
 21
8.2677165354
 12
0.0
 22
0.0
 32
0.0
 14
0.0
 24
0.0
 34
0.0
 15
0.0
 25
0.0
 35
0.0
146
0.0
 13
0.0
 23
0.0
 33
0.0
 16
1.0
 26
0.0
 36
0.0
 17
0.0
 27
1.0
 37
0.0
 76
0
330
204
345
0
346
0
  0
ENDSEC
  0
EOF
