999
DXF file: E:\BT Custom\CADOUTPUT\_RIGHT.dxf
999
Pro/ENGINEER 2018400 by Parametric Technology Corporation
  0
SECTION
  2
HEADER
  9
$ACADVER
  1
AC1018
  9
$DWGCODEPAGE
  3
ANSI_1252
  9
$EXTMAX
 10
22.0
 20
17.0
 30
0.0
  9
$EXTMIN
 10
0.0
 20
0.0
 30
0.0
  9
$LIMMIN
 10
0.0
 20
0.0
  9
$LIMMAX
 10
22.0
 20
17.0
  9
$VIEWCTR
 10
11.0
 20
8.5
  9
$VIEWSIZE
 40
17.0
  9
$CLAYER
  8
0
  9
$LTSCALE
 40
1.21
  9
$CELTYPE
  6
BYLAYER
  9
$DIMSCALE
 40
1.0
  9
$DIMASZ
 40
0.1
  9
$DIMEXO
 40
0.0625
  9
$DIMDLI
 40
0.836
  9
$DIMEXE
 40
0.125
  9
$DIMCEN
 40
0.198
  9
$DIMLFAC
 40
1.0
  9
$DIMBLK
  1
_FILLED
  9
$DIMALT
 70
1
  9
$DIMALTD
 70
2
  9
$DIMALTTD
 70
2
  9
$DIMALTF
 40
25.4
  9
$DIMTXT
 40
0.08
  9
$DIMTOL
 70
1
  9
$DIMLIM
 70
0
  9
$DIMTFAC
 40
1.0
  9
$DIMTP
 40
0.001
  9
$DIMTM
 40
0.001
  9
$DIMGAP
 40
0.09
  9
$DIMDSEP
 70
46
  9
$AUNITS
 70
0
  9
$PDMODE
 70
3
  9
$PDSIZE
 40
0.06
  9
$HANDSEED
  5
5B0
  9
$TILEMODE
 70
1
  9
$MEASUREMENT
 70
0
  9
$INSUNITS
 70
1
  0
ENDSEC
  0
SECTION
  2
CLASSES
  0
CLASS
  1
ACDBDICTIONARYWDFLT
  2
AcDbDictionaryWithDefault
  3
AutoCAD 2000
 90
0
 91
1
280
0
281
0
  0
CLASS
  1
ACDBPLACEHOLDER
  2
AcDbPlaceHolder
  3
AutoCAD 2000
 90
0
 91
1
280
0
281
0
  0
CLASS
  1
LAYOUT
  2
AcDbLayout
  3
AutoCAD 2000
 90
0
 91
0
280
0
281
0
  0
ENDSEC
  0
SECTION
  2
TABLES
  0
TABLE
  2
VPORT
  5
8
100
AcDbSymbolTable
 70
2
  0
VPORT
  5
1F4
100
AcDbSymbolTableRecord
100
AcDbViewportTableRecord
  2
*ACTIVE
 70
0
 10
0.0
 20
0.0
 11
1.0
 21
1.0
 12
11.0
 22
8.5
 13
0.0
 23
0.0
 14
1.0
 24
1.0
 15
0.0
 25
0.0
 16
0.0
 26
0.0
 36
1.0
 17
0.0
 27
0.0
 37
0.0
 40
17.0
 41
1.2941176471
 42
50.0
 43
0.0
 44
0.0
 50
0.0
 51
0.0
 71
0
 72
100
 73
1
 74
1
 75
0
 76
0
 77
0
 78
0
  0
ENDTAB
  0
TABLE
  2
LTYPE
  5
5
100
AcDbSymbolTable
 70
6
  0
LTYPE
  5
14
100
AcDbSymbolTableRecord
100
AcDbLinetypeTableRecord
  2
BYBLOCK
 70
0
  3

 72
65
 73
0
 40
0.0
  0
LTYPE
  5
15
100
AcDbSymbolTableRecord
100
AcDbLinetypeTableRecord
  2
BYLAYER
 70
0
  3

 72
65
 73
0
 40
0.0
  0
LTYPE
  5
16
100
AcDbSymbolTableRecord
100
AcDbLinetypeTableRecord
  2
CONTINUOUS
 70
64
  3
Solid line
 72
65
 73
0
 40
0.0
  0
LTYPE
  5
1F5
100
AcDbSymbolTableRecord
100
AcDbLinetypeTableRecord
  2
CENTER
 70
64
  3
____ _ ____ _ ____ _ ____ _ ____ _ ____ _ ____
 72
65
 73
4
 40
0.6
 49
0.375
 74
0
 49
-0.075
 74
0
 49
0.075
 74
0
 49
-0.075
 74
0
  0
LTYPE
  5
1F6
100
AcDbSymbolTableRecord
100
AcDbLinetypeTableRecord
  2
HIDDEN
 70
64
  3
- - - - - - - - - - - - - - - - - - - -
 72
65
 73
2
 40
0.2
 49
0.1
 74
0
 49
-0.1
 74
0
  0
LTYPE
  5
1F7
100
AcDbSymbolTableRecord
100
AcDbLinetypeTableRecord
  2
PHANTOM
 70
64
  3
_____ _ _ _____ _ _ _____ _ _ _____
 72
65
 73
6
 40
0.8
 49
0.45
 74
0
 49
-0.05
 74
0
 49
0.1
 74
0
 49
-0.05
 74
0
 49
0.1
 74
0
 49
-0.05
 74
0
  0
LTYPE
  5
1F8
100
AcDbSymbolTableRecord
100
AcDbLinetypeTableRecord
  2
DOT
 70
64
  3
. . . . . . . . . . . . . . . . . . . .
 72
65
 73
2
 40
0.2
 49
0.1
 74
0
 49
-0.1
 74
0
  0
LTYPE
  5
1F9
100
AcDbSymbolTableRecord
100
AcDbLinetypeTableRecord
  2
DASHED
 70
64
  3
- - - - - - - - - - - - - - - - - - - -
 72
65
 73
2
 40
0.2
 49
0.1
 74
0
 49
-0.1
 74
0
  0
ENDTAB
  0
TABLE
  2
LAYER
  5
2
100
AcDbSymbolTable
 70
36
  0
LAYER
  5
10
100
AcDbSymbolTableRecord
100
AcDbLayerTableRecord
  2
0
 70
0
 62
7
  6
CONTINUOUS
370
-3
390
F
  0
LAYER
  5
1FA
100
AcDbSymbolTableRecord
100
AcDbLayerTableRecord
  2
DEFAULT_1
 70
0
 62
7
  6
CENTER
370
-3
390
F
  0
LAYER
  5
1FB
100
AcDbSymbolTableRecord
100
AcDbLayerTableRecord
  2
DEFAULT_2
 70
0
 62
8
  6
HIDDEN
370
-3
390
F
  0
LAYER
  5
1FC
100
AcDbSymbolTableRecord
100
AcDbLayerTableRecord
  2
DEFAULT_3
 70
0
 62
7
  6
PHANTOM
370
-3
390
F
  0
LAYER
  5
1FD
100
AcDbSymbolTableRecord
100
AcDbLayerTableRecord
  2
ALL_FEATURES
 70
0
 62
7
  6
CONTINUOUS
370
-3
390
F
  0
LAYER
  5
1FE
100
AcDbSymbolTableRecord
100
AcDbLayerTableRecord
  2
AXES_FEATURES
 70
0
 62
7
  6
CONTINUOUS
370
-3
390
F
  0
LAYER
  5
1FF
100
AcDbSymbolTableRecord
100
AcDbLayerTableRecord
  2
DEFAULT_COORDINATE_SYSTEM
 70
0
 62
7
  6
CONTINUOUS
370
-3
390
F
  0
LAYER
  5
200
100
AcDbSymbolTableRecord
100
AcDbLayerTableRecord
  2
DEFAULT_DATUM_AXES
 70
0
 62
7
  6
CONTINUOUS
370
-3
390
F
  0
LAYER
  5
201
100
AcDbSymbolTableRecord
100
AcDbLayerTableRecord
  2
DEFAULT_DATUM_PLANES
 70
0
 62
7
  6
CONTINUOUS
370
-3
390
F
  0
LAYER
  5
202
100
AcDbSymbolTableRecord
100
AcDbLayerTableRecord
  2
DIMENSIONS
 70
0
 62
7
  6
CONTINUOUS
370
-3
390
F
  0
ENDTAB
  0
TABLE
  2
STYLE
  5
3
100
AcDbSymbolTable
 70
1
  0
STYLE
  5
11
100
AcDbSymbolTableRecord
100
AcDbTextStyleTableRecord
  2
STANDARD
 70
0
 40
0.0
 41
0.8
 50
0.0
 71
0
 42
0.2
  3
txt
  4

  0
STYLE
  5
203
100
AcDbSymbolTableRecord
100
AcDbTextStyleTableRecord
  2
TEXTSTYLE_1
 70
0
 40
0.0
 41
0.8
 50
0.0
 71
0
 42
0.2
  3
gdt
  4

  0
ENDTAB
  0
TABLE
  2
VIEW
  5
6
100
AcDbSymbolTable
 70
0
  0
ENDTAB
  0
TABLE
  2
UCS
  5
7
100
AcDbSymbolTable
 70
0
  0
ENDTAB
  0
TABLE
  2
APPID
  5
9
100
AcDbSymbolTable
 70
1
  0
APPID
  5
204
100
AcDbSymbolTableRecord
100
AcDbRegAppTableRecord
  2
ACAD
 70
0
  0
ENDTAB
  0
TABLE
  2
BLOCK_RECORD
  5
1
100
AcDbSymbolTable
 70
0
  0
BLOCK_RECORD
  5
205
100
AcDbSymbolTableRecord
100
AcDbBlockTableRecord
  2
*Model_Space
  0
BLOCK_RECORD
  5
206
100
AcDbSymbolTableRecord
100
AcDbBlockTableRecord
  2
*Paper_Space
  0
BLOCK_RECORD
  5
207
100
AcDbSymbolTableRecord
100
AcDbBlockTableRecord
  2
_FILLED
  0
ENDTAB
  0
TABLE
  2
DIMSTYLE
  5
A
100
AcDbSymbolTable
 70
1
100
AcDbDimStyleTable
 71
0
  0
DIMSTYLE
105
208
100
AcDbSymbolTableRecord
100
AcDbDimStyleTableRecord
  2
STANDARD
 70
0
  3

  4

 40
1.0
 41
0.1
 42
0.0625
 43
0.38
 44
0.125
 45
0.0
 46
0.0
 47
0.001
 48
0.001
140
0.08
141
0.09
142
0.0
143
25.4
144
1.0
145
0.0
146
1.0
147
0.09
 71
1.0
 72
0.0
 73
1
 74
1
 75
0
 76
0
 77
0
 78
4
 79
1
170
1
171
2
172
0
173
0
174
0
175
0
176
0
177
0
178
0
270
2
179
3
271
3
272
3
273
2
274
2
275
0
280
0
281
0
282
0
283
1
284
4
285
0
286
0
287
3
288
0
340
11
278
46
341
207
342
207
343
207
344
207
  0
ENDTAB
  0
ENDSEC
  0
SECTION
  2
BLOCKS
  0
BLOCK
  5
20
100
AcDbEntity
  8
0
100
AcDbBlockBegin
  2
*Model_Space
 70
0
 10
0.0
 20
0.0
 30
0.0
  3
*Model_Space
  1

  0
ENDBLK
  5
21
100
AcDbEntity
  8
0
100
AcDbBlockEnd
  0
BLOCK
  5
1C
100
AcDbEntity
  8
0
100
AcDbBlockBegin
  2
*Paper_Space
 70
0
 10
0.0
 20
0.0
 30
0.0
  3
*Paper_Space
  1

  0
ENDBLK
  5
1D
100
AcDbEntity
  8
0
100
AcDbBlockEnd
  0
BLOCK
  5
209
100
AcDbEntity
  8
0
100
AcDbBlockBegin
  2
_FILLED
 70
64
 10
0.0
 20
0.0
  3
_FILLED
  1

  0
SOLID
  5
20A
100
AcDbEntity
  8
0
  6
BYBLOCK
 62
0
100
AcDbTrace
 10
0.0
 20
0.0
 11
-1.0
 21
0.2
 12
-1.0
 22
-0.2
 13
-1.0
 23
-0.2
  0
ENDBLK
  5
20B
100
AcDbEntity
  8
0
  6
BYBLOCK
 62
0
100
AcDbBlockEnd
  0
ENDSEC
  0
SECTION
  2
ENTITIES
  0
LINE
  5
20C
100
AcDbEntity
  8
0
100
AcDbLine
 62
7
  6
CONTINUOUS
 10
14.6468926102
 20
-2.245452196
 11
14.8348926102
 21
-2.268764196
  0
LINE
  5
20D
100
AcDbEntity
  8
0
100
AcDbLine
 62
7
  6
CONTINUOUS
 10
7.4681983276
 20
-0.313952196
 11
8.822308988
 21
-0.5527184402
  0
LINE
  5
20E
100
AcDbEntity
  8
0
100
AcDbLine
 62
7
  6
CONTINUOUS
 10
14.6468926102
 20
0.442547804
 11
14.8348926102
 21
0.465859804
  0
LINE
  5
20F
100
AcDbEntity
  8
0
100
AcDbLine
 62
7
  6
CONTINUOUS
 10
9.0904345852
 20
-0.2160786141
 11
9.0960441596
 21
-0.2160649286
  0
LINE
  5
210
100
AcDbEntity
  8
0
100
AcDbLine
 62
7
  6
CONTINUOUS
 10
9.0912562274
 20
-0.2160762763
 11
9.0921573672
 21
-0.2160739593
  0
LINE
  5
211
100
AcDbEntity
  8
0
100
AcDbLine
 62
7
  6
CONTINUOUS
 10
9.0960440718
 20
-0.2160649288
 11
9.2933367496
 21
-0.2190927015
  0
LWPOLYLINE
  5
212
100
AcDbEntity
  8
0
100
AcDbPolyline
 62
7
  6
CONTINUOUS
 90
5
 70
0
 10
9.2933340364
 20
-0.2190925645
 10
9.4923457454
 20
-0.2291413971
 10
9.6900369566
 20
-0.2461967108
 10
9.886153057
 20
-0.2701932271
 10
10.0774907979
 20
-0.3004959991
  0
LWPOLYLINE
  5
213
100
AcDbEntity
  8
0
100
AcDbPolyline
 62
7
  6
CONTINUOUS
 90
13
 70
0
 10
10.0968926102
 20
-0.303952196
 10
10.4112119583
 20
-0.3718801828
 10
10.7345081912
 20
-0.4545218018
 10
11.0675135082
 20
-0.5524459682
 10
11.4108729741
 20
-0.6662008779
 10
11.7653121806
 20
-0.7963414208
 10
12.1316438778
 20
-0.9434211378
 10
12.5106556967
 20
-1.1079255292
 10
12.9035035106
 20
-1.2904347416
 10
13.311935201
 20
-1.4917579089
 10
13.737771464
 20
-1.7126492341
 10
14.1829582641
 20
-1.953748907
 10
14.6468926102
 20
-2.213952196
  0
LINE
  5
214
100
AcDbEntity
  8
0
100
AcDbLine
 62
7
  6
CONTINUOUS
 10
7.2083858367
 20
17.140991601
 11
7.0789507695
 21
17.0115565338
  0
LINE
  5
215
100
AcDbEntity
  8
0
100
AcDbLine
 62
7
  6
CONTINUOUS
 10
6.8279197819
 20
16.46615755
 11
6.8032277429
 21
16.4414655109
  0
LINE
  5
216
100
AcDbEntity
  8
0
100
AcDbLine
 62
7
  6
CONTINUOUS
 10
6.8668117997
 20
16.4272655323
 11
6.8421197606
 21
16.4025734932
  0
LINE
  5
217
100
AcDbEntity
  8
0
100
AcDbLine
 62
7
  6
CONTINUOUS
 10
7.5672936726
 20
17.0968485717
 11
7.5432602215
 21
17.0728151205
  0
LINE
  5
218
100
AcDbEntity
  8
0
100
AcDbLine
 62
9
  6
CONTINUOUS
 10
10.0943442046
 20
0.983536215
 11
10.0968926102
 21
0.9835473908
  0
LINE
  5
219
100
AcDbEntity
  8
0
100
AcDbLine
 62
7
  6
CONTINUOUS
 10
10.0968926102
 20
1.046047804
 11
10.0994604297
 21
1.0460473875
  0
LINE
  5
21A
100
AcDbEntity
  8
0
100
AcDbLine
 62
7
  6
CONTINUOUS
 10
10.4781705764
 20
1.0393397674
 11
10.0968926102
 21
1.046047804
  0
LINE
  5
21B
100
AcDbEntity
  8
0
100
AcDbLine
 62
7
  6
CONTINUOUS
 10
7.2352226965
 20
15.8191901327
 11
7.2348765034
 21
15.8188292591
  0
LINE
  5
21C
100
AcDbEntity
  8
0
100
AcDbLine
 62
7
  6
CONTINUOUS
 10
6.9808374262
 20
16.3132399057
 11
6.9561453872
 21
16.2885478666
  0
LINE
  5
21D
100
AcDbEntity
  8
0
100
AcDbLine
 62
7
  6
CONTINUOUS
 10
6.9527066622
 20
16.2538641123
 11
6.9423896174
 21
16.2435470675
  0
LINE
  5
21E
100
AcDbEntity
  8
0
100
AcDbLine
 62
7
  6
CONTINUOUS
 10
7.0189503162
 20
16.1863728589
 11
7.0092570711
 21
16.1766796138
  0
LINE
  5
21F
100
AcDbEntity
  8
0
100
AcDbLine
 62
7
  6
CONTINUOUS
 10
7.0886030418
 20
16.1871591843
 11
7.0730685557
 21
16.1716246981
  0
LINE
  5
220
100
AcDbEntity
  8
0
100
AcDbLine
 62
7
  6
CONTINUOUS
 10
7.1622260035
 20
16.1318513284
 11
7.1375339645
 21
16.1071592893
  0
LINE
  5
221
100
AcDbEntity
  8
0
100
AcDbLine
 62
7
  6
CONTINUOUS
 10
7.123957509
 20
16.0909403342
 11
7.1094769299
 21
16.0764597551
  0
LINE
  5
222
100
AcDbEntity
  8
0
100
AcDbLine
 62
7
  6
CONTINUOUS
 10
7.1481283171
 20
16.057194858
 11
7.138435072
 21
16.0475016129
  0
LINE
  5
223
100
AcDbEntity
  8
0
100
AcDbLine
 62
7
  6
CONTINUOUS
 10
7.1183426963
 20
15.9993637539
 11
7.1135515095
 21
15.994572567
  0
LINE
  5
224
100
AcDbEntity
  8
0
100
AcDbLine
 62
7
  6
CONTINUOUS
 10
7.2721480389
 20
16.0079270267
 11
7.254457133
 21
15.9902361208
  0
LINE
  5
225
100
AcDbEntity
  8
0
100
AcDbLine
 62
7
  6
CONTINUOUS
 10
7.2544436309
 20
15.9630704543
 11
7.2386549308
 21
15.9472817542
  0
LINE
  5
226
100
AcDbEntity
  8
0
100
AcDbLine
 62
7
  6
CONTINUOUS
 10
7.2174138866
 20
15.8367009966
 11
7.198685357
 21
15.8179724669
  0
LINE
  5
227
100
AcDbEntity
  8
0
100
AcDbLine
 62
7
  6
CONTINUOUS
 10
7.2348758571
 20
15.8188290049
 11
7.2163523381
 21
15.8003054858
  0
LINE
  5
228
100
AcDbEntity
  8
0
100
AcDbLine
 62
7
  6
CONTINUOUS
 10
7.3509827928
 20
15.8946787721
 11
7.3211203529
 21
15.8648163321
  0
LINE
  5
229
100
AcDbEntity
  8
0
100
AcDbLine
 62
7
  6
CONTINUOUS
 10
7.3986161998
 20
15.8954611321
 11
7.3739241607
 21
15.8707690931
  0
LINE
  5
22A
100
AcDbEntity
  8
0
100
AcDbLine
 62
7
  6
CONTINUOUS
 10
7.2888943327
 20
15.7635377358
 11
7.2710072104
 21
15.7456506135
  0
LINE
  5
22B
100
AcDbEntity
  8
0
100
AcDbLine
 62
7
  6
CONTINUOUS
 10
7.4310334567
 20
15.7742897184
 11
7.4213402116
 21
15.7645964733
  0
LWPOLYLINE
  5
22C
100
AcDbEntity
  8
0
100
AcDbPolyline
 62
7
  6
CONTINUOUS
 90
5
 70
0
 10
7.3759288439
 20
15.6501356727
 10
7.3768290162
 20
15.6509464157
 10
7.3787663522
 20
15.6522142794
 10
7.3808189203
 20
15.6530408742
 10
7.3828146161
 20
15.6534390318
  0
LWPOLYLINE
  5
22D
100
AcDbEntity
  8
0
100
AcDbPolyline
 62
7
  6
CONTINUOUS
 90
10
 70
0
 10
14.6468926102
 20
0.411047804
 10
14.1037260326
 20
0.5206809322
 10
13.5826620199
 20
0.6246948599
 10
13.0844882847
 20
0.7199445554
 10
12.6072080578
 20
0.804651469
 10
12.1491299218
 20
0.8775788952
 10
11.7086484076
 20
0.9379179988
 10
11.2841868475
 20
0.9851705394
 10
10.8744314576
 20
1.0190296056
 10
10.4781705764
 20
1.0393397674
  0
LINE
  5
22E
100
AcDbEntity
  8
0
100
AcDbLine
 62
7
  6
CONTINUOUS
 10
7.3759312489
 20
15.6501349345
 11
7.3712270691
 21
15.6454307547
  0
LINE
  5
22F
100
AcDbEntity
  8
0
100
AcDbLine
 62
7
  6
CONTINUOUS
 10
7.5113499567
 20
15.7743485519
 11
7.4908473293
 21
15.7538459245
  0
LINE
  5
230
100
AcDbEntity
  8
0
100
AcDbLine
 62
7
  6
CONTINUOUS
 10
7.3859660097
 20
15.6380941093
 11
7.3822648621
 21
15.6343929617
  0
LINE
  5
231
100
AcDbEntity
  8
0
100
AcDbLine
 62
7
  6
CONTINUOUS
 10
7.5724536795
 20
15.6686639371
 11
7.5448632137
 21
15.6410734713
  0
LINE
  5
232
100
AcDbEntity
  8
0
100
AcDbLine
 62
7
  6
CONTINUOUS
 10
9.4419279646
 20
17.493629691
 11
8.7772475903
 21
16.8289493167
  0
LINE
  5
233
100
AcDbEntity
  8
0
100
AcDbLine
 62
7
  6
CONTINUOUS
 10
9.4524168181
 20
17.4831408376
 11
9.2049294446
 21
17.2356534642
  0
LINE
  5
234
100
AcDbEntity
  8
0
100
AcDbLine
 62
7
  6
CONTINUOUS
 10
7.6738984139
 20
15.6201789181
 11
7.6492063748
 21
15.595486879
  0
LINE
  5
235
100
AcDbEntity
  8
0
100
AcDbLine
 62
7
  6
CONTINUOUS
 10
7.6547763175
 20
15.5505468576
 11
7.6450830724
 21
15.5408536125
  0
LINE
  5
236
100
AcDbEntity
  8
0
100
AcDbLine
 62
7
  6
CONTINUOUS
 10
10.0447364956
 20
17.9231970606
 11
9.8169577083
 21
17.6954182732
  0
LINE
  5
237
100
AcDbEntity
  8
0
100
AcDbLine
 62
7
  6
CONTINUOUS
 10
9.9658705651
 20
17.8252862958
 11
9.8264801254
 21
17.6858958561
  0
LINE
  5
238
100
AcDbEntity
  8
0
100
AcDbLine
 62
7
  6
CONTINUOUS
 10
11.0601936133
 20
18.873246801
 11
10.282890745
 21
18.0959439327
  0
LINE
  5
239
100
AcDbEntity
  8
0
100
AcDbLine
 62
7
  6
CONTINUOUS
 10
10.2520590072
 20
18.0651121949
 11
10.245604375
 21
18.0586575627
  0
LINE
  5
23A
100
AcDbEntity
  8
0
100
AcDbLine
 62
7
  6
CONTINUOUS
 10
10.2136001223
 20
18.02665331
 11
10.1958268243
 21
18.008880012
  0
LINE
  5
23B
100
AcDbEntity
  8
0
100
AcDbLine
 62
7
  6
CONTINUOUS
 10
10.1623603752
 20
17.9754135629
 11
10.1461793334
 21
17.9592325211
  0
LINE
  5
23C
100
AcDbEntity
  8
0
100
AcDbLine
 62
7
  6
CONTINUOUS
 10
10.1109905794
 20
17.9240437671
 11
10.0963706735
 21
17.9094238612
  0
LINE
  5
23D
100
AcDbEntity
  8
0
100
AcDbLine
 62
7
  6
CONTINUOUS
 10
9.5710022303
 20
17.3645554253
 11
9.3235148569
 21
17.1170680519
  0
LINE
  5
23E
100
AcDbEntity
  8
0
100
AcDbLine
 62
7
  6
CONTINUOUS
 10
10.276924509
 20
18.0584495038
 11
10.2895534361
 21
18.0710784309
  0
LINE
  5
23F
100
AcDbEntity
  8
0
100
AcDbLine
 62
7
  6
CONTINUOUS
 10
10.2527025592
 20
18.0321968706
 11
10.2402802982
 21
18.0197746095
  0
LINE
  5
240
100
AcDbEntity
  8
0
100
AcDbLine
 62
7
  6
CONTINUOUS
 10
10.203459497
 20
17.9804211722
 11
10.1910381998
 21
17.967999875
  0
LINE
  5
241
100
AcDbEntity
  8
0
100
AcDbLine
 62
7
  6
CONTINUOUS
 10
10.1544413118
 20
17.928419819
 11
10.1420212685
 21
17.9159997756
  0
LINE
  5
242
100
AcDbEntity
  8
0
100
AcDbLine
 62
7
  6
CONTINUOUS
 10
10.1051469307
 20
17.8767007879
 11
10.0981898495
 21
17.8697437067
  0
LINE
  5
243
100
AcDbEntity
  8
0
100
AcDbLine
 62
7
  6
CONTINUOUS
 10
7.6494363484
 20
15.3945213799
 11
7.6357863962
 21
15.3808714277
  0
LINE
  5
244
100
AcDbEntity
  8
0
100
AcDbLine
 62
7
  6
CONTINUOUS
 10
7.7899085193
 20
15.5023426865
 11
7.7661295433
 21
15.4785637105
  0
LINE
  5
245
100
AcDbEntity
  8
0
100
AcDbLine
 62
7
  6
CONTINUOUS
 10
10.0539933487
 20
17.7371635121
 11
9.9146029091
 21
17.5977730724
  0
LINE
  5
246
100
AcDbEntity
  8
0
100
AcDbLine
 62
7
  6
CONTINUOUS
 10
7.8194735895
 20
15.416578378
 11
7.7944159482
 21
15.3915207368
  0
LINE
  5
247
100
AcDbEntity
  8
0
100
AcDbLine
 62
7
  6
CONTINUOUS
 10
7.7449403177
 20
15.2895856317
 11
7.736006255
 21
15.2806515689
  0
LINE
  5
248
100
AcDbEntity
  8
0
100
AcDbLine
 62
7
  6
CONTINUOUS
 10
7.8005923532
 20
15.2398148446
 11
7.7887176662
 21
15.2279401576
  0
LINE
  5
249
100
AcDbEntity
  8
0
100
AcDbLine
 62
7
  6
CONTINUOUS
 10
7.9170726435
 20
15.3137377145
 11
7.8946358069
 21
15.291300878
  0
LINE
  5
24A
100
AcDbEntity
  8
0
100
AcDbLine
 62
7
  6
CONTINUOUS
 10
7.9693126177
 20
15.3247647143
 11
7.9446205786
 21
15.3000726752
  0
LINE
  5
24B
100
AcDbEntity
  8
0
100
AcDbLine
 62
7
  6
CONTINUOUS
 10
7.8996457814
 20
15.1384285553
 11
7.888937525
 21
15.1277202989
  0
LWPOLYLINE
  5
24C
100
AcDbEntity
  8
0
100
AcDbPolyline
 62
7
  6
CONTINUOUS
 90
8
 70
0
 10
7.7449404147
 20
15.2895878552
 10
7.7461444928
 20
15.2906240826
 10
7.7481400129
 20
15.2917824502
 10
7.7500997162
 20
15.2924211283
 10
7.7517757296
 20
15.2926338032
 10
7.7530036139
 20
15.292592389
 10
7.7537798891
 20
15.2924640904
 10
7.7540752356
 20
15.2923868046
  0
LWPOLYLINE
  5
24D
100
AcDbEntity
  8
0
100
AcDbPolyline
 62
7
  6
CONTINUOUS
 90
8
 70
0
 10
7.8996421802
 20
15.1384277191
 10
7.9008569782
 20
15.1394700907
 10
7.902906575
 20
15.1406398176
 10
7.9049215689
 20
15.1412587215
 10
7.906568584
 20
15.1414250699
 10
7.9076539044
 20
15.1413563304
 10
7.90818074
 20
15.1412545676
 10
7.9082468639
 20
15.141236288
  0
LINE
  5
24E
100
AcDbEntity
  8
0
100
AcDbLine
 62
7
  6
CONTINUOUS
 10
7.38737797
 20
15.6022155948
 11
7.3523138448
 21
15.5270203357
  0
LINE
  5
24F
100
AcDbEntity
  8
0
100
AcDbLine
 62
7
  6
CONTINUOUS
 10
10.8201259149
 20
17.5156589459
 11
10.8201198573
 21
17.5156527185
  0
LINE
  5
250
100
AcDbEntity
  8
0
100
AcDbLine
 62
7
  6
CONTINUOUS
 10
7.9546984693
 20
15.0820894238
 11
7.9446334347
 21
15.0720243891
  0
LINE
  5
251
100
AcDbEntity
  8
0
100
AcDbLine
 62
7
  6
CONTINUOUS
 10
8.0862357863
 20
15.2078415457
 11
8.0615437472
 21
15.1831495066
  0
LINE
  5
252
100
AcDbEntity
  8
0
100
AcDbLine
 62
7
  6
CONTINUOUS
 10
8.0752087865
 20
15.1556015715
 11
8.05277195
 21
15.1331647349
  0
LINE
  5
253
100
AcDbEntity
  8
0
100
AcDbLine
 62
7
  6
CONTINUOUS
 10
8.0573711171
 20
14.984322354
 11
8.0448532935
 21
14.9718045304
  0
LINE
  5
254
100
AcDbEntity
  8
0
100
AcDbLine
 62
7
  6
CONTINUOUS
 10
8.17804945
 20
15.0580025175
 11
8.1529918088
 21
15.0329448762
  0
LINE
  5
255
100
AcDbEntity
  8
0
100
AcDbLine
 62
7
  6
CONTINUOUS
 10
8.2638137585
 20
15.0284374473
 11
8.2400347825
 21
15.0046584713
  0
LINE
  5
256
100
AcDbEntity
  8
0
100
AcDbLine
 62
7
  6
CONTINUOUS
 10
10.6514774626
 20
17.3556211312
 11
10.6638971584
 21
17.368040827
  0
LINE
  5
257
100
AcDbEntity
  8
0
100
AcDbLine
 62
7
  6
CONTINUOUS
 10
10.7033156199
 20
17.4048034524
 11
10.7157363756
 21
17.417224208
  0
LINE
  5
258
100
AcDbEntity
  8
0
100
AcDbLine
 62
7
  6
CONTINUOUS
 10
10.7551237898
 20
17.4540083897
 11
10.7675455157
 21
17.4664301157
  0
LINE
  5
259
100
AcDbEntity
  8
0
100
AcDbLine
 62
7
  6
CONTINUOUS
 10
10.8069739702
 20
17.5031761982
 11
10.8193967295
 21
17.5155989576
  0
LINE
  5
25A
100
AcDbEntity
  8
0
100
AcDbLine
 62
7
  6
CONTINUOUS
 10
10.8201198573
 20
17.5156527185
 11
10.8325495029
 21
17.5280823641
  0
LINE
  5
25B
100
AcDbEntity
  8
0
100
AcDbLine
 62
7
  6
CONTINUOUS
 10
11.634717873
 20
18.2987225413
 11
10.8574150047
 21
17.521419673
  0
LINE
  5
25C
100
AcDbEntity
  8
0
100
AcDbLine
 62
7
  6
CONTINUOUS
 10
10.8137716774
 20
17.4777763457
 11
10.7952556574
 21
17.4592603257
  0
LINE
  5
25D
100
AcDbEntity
  8
0
100
AcDbLine
 62
7
  6
CONTINUOUS
 10
10.7624887045
 20
17.4264933728
 11
10.7454985407
 21
17.409503209
  0
LINE
  5
25E
100
AcDbEntity
  8
0
100
AcDbLine
 62
7
  6
CONTINUOUS
 10
10.7112285403
 20
17.3752332086
 11
10.6957565604
 21
17.3597612287
  0
LINE
  5
25F
100
AcDbEntity
  8
0
100
AcDbLine
 62
7
  6
CONTINUOUS
 10
10.6599532694
 20
17.3239579377
 11
10.6519644439
 21
17.3159691122
  0
LINE
  5
260
100
AcDbEntity
  8
0
100
AcDbLine
 62
7
  6
CONTINUOUS
 10
10.6846681326
 20
17.2832654236
 11
10.4568893452
 21
17.0554866363
  0
LINE
  5
261
100
AcDbEntity
  8
0
100
AcDbLine
 62
7
  6
CONTINUOUS
 10
8.3120179296
 20
14.8933052455
 11
8.3023246845
 21
14.8836120004
  0
LINE
  5
262
100
AcDbEntity
  8
0
100
AcDbLine
 62
7
  6
CONTINUOUS
 10
8.3816499901
 20
14.9124273419
 11
8.356957951
 21
14.8877353028
  0
LINE
  5
263
100
AcDbEntity
  8
0
100
AcDbLine
 62
7
  6
CONTINUOUS
 10
10.255100763
 20
16.6804568926
 11
9.5904203887
 21
16.0157765183
  0
LINE
  5
264
100
AcDbEntity
  8
0
100
AcDbLine
 62
7
  6
CONTINUOUS
 10
8.4301350091
 20
14.8109826075
 11
8.4025445433
 21
14.7833921417
  0
LINE
  5
265
100
AcDbEntity
  8
0
100
AcDbLine
 62
7
  6
CONTINUOUS
 10
8.3589799124
 20
14.668319986
 11
8.3536588751
 21
14.6629989487
  0
LINE
  5
266
100
AcDbEntity
  8
0
100
AcDbLine
 62
7
  6
CONTINUOUS
 10
8.5358196239
 20
14.7498788847
 11
8.5153169965
 21
14.7293762573
  0
LINE
  5
267
100
AcDbEntity
  8
0
100
AcDbLine
 62
7
  6
CONTINUOUS
 10
8.5357607904
 20
14.6695623847
 11
8.5260675453
 21
14.6598691396
  0
LINE
  5
268
100
AcDbEntity
  8
0
100
AcDbLine
 62
7
  6
CONTINUOUS
 10
8.4711475856
 20
14.5800479418
 11
8.4538787339
 21
14.56277909
  0
LWPOLYLINE
  5
269
100
AcDbEntity
  8
0
100
AcDbPolyline
 62
7
  6
CONTINUOUS
 90
11
 70
0
 10
8.5488908435
 20
14.5040910315
 10
8.5497512206
 20
14.5048701765
 10
8.551696748
 20
14.5061574213
 10
8.5537734601
 20
14.5070028722
 10
8.5557685849
 20
14.507406
 10
8.5574425351
 20
14.50746386
 10
8.5587013442
 20
14.5073364233
 10
8.5595642458
 20
14.50715559
 10
8.5600965194
 20
14.5069989718
 10
8.560381992
 20
14.5068958703
 10
8.5604631155
 20
14.5068626186
  0
LWPOLYLINE
  5
26A
100
AcDbEntity
  8
0
100
AcDbPolyline
 62
7
  6
CONTINUOUS
 90
9
 70
0
 10
8.4711447042
 20
14.5800464532
 10
8.4721177456
 20
14.5809141846
 10
8.4740180746
 20
14.5821321903
 10
8.4759832177
 20
14.5829052915
 10
8.4778131598
 20
14.5832629421
 10
8.4792935127
 20
14.5833134819
 10
8.4803463787
 20
14.5832112901
 10
8.4809875538
 20
14.5830812811
 10
8.4812347415
 20
14.5830120403
  0
LWPOLYLINE
  5
26B
100
AcDbEntity
  8
0
100
AcDbPolyline
 62
7
  6
CONTINUOUS
 90
7
 70
0
 10
8.0573699953
 20
14.9843206635
 10
8.0585913353
 20
14.9853683085
 10
8.0606061634
 20
14.9865224999
 10
8.0625637041
 20
14.9871367148
 10
8.064151227
 20
14.9873144633
 10
8.0651840785
 20
14.9872645014
 10
8.0655904406
 20
14.9871973616
  0
LWPOLYLINE
  5
26C
100
AcDbEntity
  8
0
100
AcDbPolyline
 62
7
  6
CONTINUOUS
 90
9
 70
0
 10
8.5910824168
 20
14.4628713862
 10
8.5926309334
 20
14.4641741128
 10
8.5941664413
 20
14.4650892606
 10
8.5957664864
 20
14.4657433938
 10
8.5973662639
 20
14.4661419377
 10
8.5988855342
 20
14.4663079049
 10
8.600270225
 20
14.4662860506
 10
8.6015042848
 20
14.4661260875
 10
8.6025802708
 20
14.4658731294
  0
LINE
  5
26D
100
AcDbEntity
  8
0
100
AcDbLine
 62
7
  6
CONTINUOUS
 10
8.3584399316
 20
14.6234603052
 11
8.2884914077
 21
14.5908427728
  0
LINE
  5
26E
100
AcDbEntity
  8
0
100
AcDbLine
 62
7
  6
CONTINUOUS
 10
8.6569322041
 20
14.6371451278
 11
8.6322401651
 21
14.6124530887
  0
LINE
  5
26F
100
AcDbEntity
  8
0
100
AcDbLine
 62
7
  6
CONTINUOUS
 10
8.5488901157
 20
14.5040909884
 11
8.5307284756
 21
14.4859293483
  0
LINE
  5
270
100
AcDbEntity
  8
0
100
AcDbLine
 62
7
  6
CONTINUOUS
 10
8.6561498441
 20
14.5895117208
 11
8.6262874041
 21
14.5596492809
  0
LINE
  5
271
100
AcDbEntity
  8
0
100
AcDbLine
 62
7
  6
CONTINUOUS
 10
8.5910827203
 20
14.462870849
 11
8.5724348476
 21
14.4442229763
  0
LINE
  5
272
100
AcDbEntity
  8
0
100
AcDbLine
 62
7
  6
CONTINUOUS
 10
8.7245415263
 20
14.4929725589
 11
8.7087528262
 21
14.4771838588
  0
LINE
  5
273
100
AcDbEntity
  8
0
100
AcDbLine
 62
7
  6
CONTINUOUS
 10
8.7693980987
 20
14.5106769669
 11
8.7517071928
 21
14.492986061
  0
LINE
  5
274
100
AcDbEntity
  8
0
100
AcDbLine
 62
7
  6
CONTINUOUS
 10
8.7608348259
 20
14.3568716243
 11
8.756043639
 21
14.3520804375
  0
LINE
  5
275
100
AcDbEntity
  8
0
100
AcDbLine
 62
7
  6
CONTINUOUS
 10
8.81866593
 20
14.3866572451
 11
8.8089726849
 21
14.376964
  0
LINE
  5
276
100
AcDbEntity
  8
0
100
AcDbLine
 62
7
  6
CONTINUOUS
 10
8.8524114062
 20
14.362486437
 11
8.8379308271
 21
14.3480058579
  0
LINE
  5
277
100
AcDbEntity
  8
0
100
AcDbLine
 62
7
  6
CONTINUOUS
 10
8.8933224004
 20
14.4007549315
 11
8.8686303613
 21
14.3760628925
  0
LINE
  5
278
100
AcDbEntity
  8
0
100
AcDbLine
 62
7
  6
CONTINUOUS
 10
8.9486302563
 20
14.3271319698
 11
8.9330957701
 21
14.3115974837
  0
LINE
  5
279
100
AcDbEntity
  8
0
100
AcDbLine
 62
7
  6
CONTINUOUS
 10
8.9478439309
 20
14.2574792442
 11
8.9381506858
 21
14.2477859991
  0
LINE
  5
27A
100
AcDbEntity
  8
0
100
AcDbLine
 62
7
  6
CONTINUOUS
 10
9.0153351843
 20
14.1912355902
 11
9.0050181395
 21
14.1809185454
  0
LINE
  5
27B
100
AcDbEntity
  8
0
100
AcDbLine
 62
7
  6
CONTINUOUS
 10
9.0747109777
 20
14.2193663542
 11
9.0500189386
 21
14.1946743152
  0
LINE
  5
27C
100
AcDbEntity
  8
0
100
AcDbLine
 62
7
  6
CONTINUOUS
 10
9.8583196437
 20
14.8058226006
 11
9.8342861925
 21
14.7817891495
  0
LINE
  5
27D
100
AcDbEntity
  8
0
100
AcDbLine
 62
7
  6
CONTINUOUS
 10
6.7974621283
 20
16.4275460861
 11
6.7974621283
 21
16.4160145008
  0
LINE
  5
27E
100
AcDbEntity
  8
0
100
AcDbLine
 62
7
  6
CONTINUOUS
 10
9.1887366043
 20
14.1053407277
 11
9.1640445652
 21
14.0806486886
  0
LINE
  5
27F
100
AcDbEntity
  8
0
100
AcDbLine
 62
7
  6
CONTINUOUS
 10
9.3591239226
 20
13.9640976734
 11
9.3342660977
 21
13.9392398485
  0
LINE
  5
280
100
AcDbEntity
  8
0
100
AcDbLine
 62
7
  6
CONTINUOUS
 10
9.902462673
 20
14.4469147647
 11
9.7730276058
 21
14.3174796974
  0
LINE
  5
281
100
AcDbEntity
  8
0
100
AcDbLine
 62
7
  6
CONTINUOUS
 10
13.0738976407
 20
5.3777483074
 11
12.9378976407
 21
5.3462483074
  0
LINE
  5
282
100
AcDbEntity
  8
0
100
AcDbLine
 62
7
  6
CONTINUOUS
 10
13.1708926102
 20
4.478547804
 11
13.0808926102
 21
4.478547804
  0
LINE
  5
283
100
AcDbEntity
  8
0
100
AcDbLine
 62
7
  6
CONTINUOUS
 10
14.0808926102
 20
4.692547804
 11
13.9978926102
 21
4.692547804
  0
LINE
  5
284
100
AcDbEntity
  8
0
100
AcDbLine
 62
7
  6
CONTINUOUS
 10
13.4068926102
 20
4.751547804
 11
13.9858926102
 21
4.751547804
  0
LINE
  5
285
100
AcDbEntity
  8
0
100
AcDbLine
 62
7
  6
CONTINUOUS
 10
13.4068926102
 20
5.105547804
 11
13.9858926102
 21
5.105547804
  0
LINE
  5
286
100
AcDbEntity
  8
0
100
AcDbLine
 62
7
  6
CONTINUOUS
 10
6.8363541461
 20
16.3886532236
 11
6.8363541461
 21
16.3771224465
  0
LINE
  5
287
100
AcDbEntity
  8
0
100
AcDbLine
 62
7
  6
CONTINUOUS
 10
6.9366240029
 20
16.2296272287
 11
6.9366240029
 21
16.2180959576
  0
LINE
  5
288
100
AcDbEntity
  8
0
100
AcDbLine
 62
7
  6
CONTINUOUS
 10
6.9503797726
 20
16.274627597
 11
6.9503797726
 21
16.2630968199
  0
LINE
  5
289
100
AcDbEntity
  8
0
100
AcDbLine
 62
7
  6
CONTINUOUS
 10
7.0034914566
 20
16.1627597751
 11
7.0034914566
 21
16.1512285039
  0
LINE
  5
28A
100
AcDbEntity
  8
0
100
AcDbLine
 62
7
  6
CONTINUOUS
 10
7.1317683499
 20
16.0932390197
 11
7.1317683499
 21
16.0817082426
  0
LINE
  5
28B
100
AcDbEntity
  8
0
100
AcDbLine
 62
7
  6
CONTINUOUS
 10
7.1326694575
 20
16.0335817742
 11
7.1326694575
 21
16.022050503
  0
LINE
  5
28C
100
AcDbEntity
  8
0
100
AcDbLine
 62
7
  6
CONTINUOUS
 10
7.1952259882
 20
15.8096207502
 11
7.1952259882
 21
15.7915665298
  0
LINE
  5
28D
100
AcDbEntity
  8
0
100
AcDbLine
 62
7
  6
CONTINUOUS
 10
7.2128929693
 20
15.7919537691
 11
7.2128929693
 21
15.7738995014
  0
LINE
  5
28E
100
AcDbEntity
  8
0
100
AcDbLine
 62
7
  6
CONTINUOUS
 10
7.2675478416
 20
15.7372988968
 11
7.2675478416
 21
15.7192446291
  0
LINE
  5
28F
100
AcDbEntity
  8
0
100
AcDbLine
 62
7
  6
CONTINUOUS
 10
7.3153547383
 20
15.8508964933
 11
7.3153547383
 21
15.8393652222
  0
LINE
  5
290
100
AcDbEntity
  8
0
100
AcDbLine
 62
7
  6
CONTINUOUS
 10
7.3681585462
 20
15.8568488235
 11
7.3681585462
 21
15.8453180463
  0
LINE
  5
291
100
AcDbEntity
  8
0
100
AcDbLine
 62
7
  6
CONTINUOUS
 10
7.3788054934
 20
15.626041245
 11
7.3788054934
 21
15.6079869773
  0
LINE
  5
292
100
AcDbEntity
  8
0
100
AcDbLine
 62
7
  6
CONTINUOUS
 10
7.4104209561
 20
15.442441222
 11
7.4104209561
 21
15.4309099447
  0
LINE
  5
293
100
AcDbEntity
  8
0
100
AcDbLine
 62
7
  6
CONTINUOUS
 10
7.5390975991
 20
15.6271536325
 11
7.5390975991
 21
15.6156223614
  0
LINE
  5
294
100
AcDbEntity
  8
0
100
AcDbLine
 62
7
  6
CONTINUOUS
 10
7.588956337
 20
15.2639058388
 11
7.588956337
 21
15.2523745638
  0
LINE
  5
295
100
AcDbEntity
  8
0
100
AcDbLine
 62
7
  6
CONTINUOUS
 10
14.0808926102
 20
5.164547804
 11
13.9978926102
 21
5.164547804
  0
LINE
  5
296
100
AcDbEntity
  8
0
100
AcDbLine
 62
7
  6
CONTINUOUS
 10
13.1708926102
 20
5.378547804
 11
13.0808926102
 21
5.378547804
  0
LINE
  5
297
100
AcDbEntity
  8
0
100
AcDbLine
 62
7
  6
CONTINUOUS
 10
13.0738976407
 20
4.4793473007
 11
12.9378976407
 21
4.5108473007
  0
LINE
  5
298
100
AcDbEntity
  8
0
100
AcDbLine
 62
7
  6
CONTINUOUS
 10
7.6323270275
 20
15.3725197108
 11
7.6323270275
 21
15.3544654439
  0
LINE
  5
299
100
AcDbEntity
  8
0
100
AcDbLine
 62
7
  6
CONTINUOUS
 10
7.6434407602
 20
15.5815666094
 11
7.6434407602
 21
15.5700358323
  0
LINE
  5
29A
100
AcDbEntity
  8
0
100
AcDbLine
 62
7
  6
CONTINUOUS
 10
7.7852582975
 20
15.2195884409
 11
7.7852582975
 21
15.2015341732
  0
LINE
  5
29B
100
AcDbEntity
  8
0
100
AcDbLine
 62
7
  6
CONTINUOUS
 10
7.7886503337
 20
15.377600898
 11
7.7886503337
 21
15.3660696269
  0
LINE
  5
29C
100
AcDbEntity
  8
0
100
AcDbLine
 62
7
  6
CONTINUOUS
 10
7.8414434939
 20
15.0114186842
 11
7.8414434939
 21
14.9998874069
  0
LINE
  5
29D
100
AcDbEntity
  8
0
100
AcDbLine
 62
7
  6
CONTINUOUS
 10
7.9388549641
 20
15.2861524058
 11
7.9388549641
 21
15.2746216285
  0
LINE
  5
29E
100
AcDbEntity
  8
0
100
AcDbLine
 62
7
  6
CONTINUOUS
 10
7.941174066
 20
15.0636726724
 11
7.941174066
 21
15.0456184047
  0
LINE
  5
29F
100
AcDbEntity
  8
0
100
AcDbLine
 62
7
  6
CONTINUOUS
 10
8.0199788748
 20
14.827485265
 11
8.0199788748
 21
14.821352026
  0
LINE
  5
2A0
100
AcDbEntity
  8
0
100
AcDbLine
 62
7
  6
CONTINUOUS
 10
8.0470063355
 20
15.1192448961
 11
8.0470063355
 21
15.107713625
  0
LINE
  5
2A1
100
AcDbEntity
  8
0
100
AcDbLine
 62
9
  6
CONTINUOUS
 10
8.1452536578
 20
-0.2948183153
 11
8.1452536578
 21
-0.4333353181
  0
LINE
  5
2A2
100
AcDbEntity
  8
0
100
AcDbLine
 62
7
  6
CONTINUOUS
 10
8.1452536578
 20
-0.2948183153
 11
8.1452536578
 21
0.6909363745
  0
LINE
  5
2A3
100
AcDbEntity
  8
0
100
AcDbLine
 62
7
  6
CONTINUOUS
 10
8.2342691679
 20
14.9907382017
 11
8.2342691679
 21
14.9792074246
  0
LINE
  5
2A4
100
AcDbEntity
  8
0
100
AcDbLine
 62
7
  6
CONTINUOUS
 10
8.29655907
 20
14.8696921617
 11
8.29655907
 21
14.8581608905
  0
LINE
  5
2A5
100
AcDbEntity
  8
0
100
AcDbLine
 62
7
  6
CONTINUOUS
 10
8.3501995064
 20
14.654647232
 11
8.3501995064
 21
14.6365929643
  0
LINE
  5
2A6
100
AcDbEntity
  8
0
100
AcDbLine
 62
7
  6
CONTINUOUS
 10
10.6928926102
 20
5.918547804
 11
10.1288926102
 21
5.918547804
  0
LINE
  5
2A7
100
AcDbEntity
  8
0
100
AcDbLine
 62
9
  6
CONTINUOUS
 10
10.7227837253
 20
6.0370051862
 11
10.0990014951
 21
6.0370051862
  0
LINE
  5
2A8
100
AcDbEntity
  8
0
100
AcDbLine
 62
9
  6
CONTINUOUS
 10
10.1856234906
 20
6.1731181327
 11
10.6361617298
 21
6.1731181327
  0
LINE
  5
2A9
100
AcDbEntity
  8
0
100
AcDbLine
 62
7
  6
CONTINUOUS
 10
10.1956072136
 20
6.182547804
 11
10.6261780068
 21
6.182547804
  0
LINE
  5
2AA
100
AcDbEntity
  8
0
100
AcDbLine
 62
7
  6
CONTINUOUS
 10
13.7058926102
 20
6.286047804
 11
13.6188926102
 21
6.286047804
  0
LINE
  5
2AB
100
AcDbEntity
  8
0
100
AcDbLine
 62
9
  6
CONTINUOUS
 10
10.2158926102
 20
6.648547804
 11
10.6058926102
 21
6.648547804
  0
LINE
  5
2AC
100
AcDbEntity
  8
0
100
AcDbLine
 62
7
  6
CONTINUOUS
 10
8.509551382
 20
14.7154559877
 11
8.509551382
 21
14.7039252106
  0
LINE
  5
2AD
100
AcDbEntity
  8
0
100
AcDbLine
 62
7
  6
CONTINUOUS
 10
8.5203019308
 20
14.6459493009
 11
8.5203019308
 21
14.6344180297
  0
LINE
  5
2AE
100
AcDbEntity
  8
0
100
AcDbLine
 62
7
  6
CONTINUOUS
 10
8.7029872116
 20
14.46326402
 11
8.7029872116
 21
14.4517327489
  0
LINE
  5
2AF
100
AcDbEntity
  8
0
100
AcDbLine
 62
7
  6
CONTINUOUS
 10
8.7459415783
 20
14.4790657914
 11
8.7459415783
 21
14.4675350143
  0
LINE
  5
2B0
100
AcDbEntity
  8
0
100
AcDbLine
 62
7
  6
CONTINUOUS
 10
8.8321652125
 20
14.3340860191
 11
8.8321652125
 21
14.322554748
  0
LINE
  5
2B1
100
AcDbEntity
  8
0
100
AcDbLine
 62
7
  6
CONTINUOUS
 10
8.9273301556
 20
14.2976772141
 11
8.9273301556
 21
14.286146437
  0
LINE
  5
2B2
100
AcDbEntity
  8
0
100
AcDbLine
 62
7
  6
CONTINUOUS
 10
9.0413557821
 20
14.1836515876
 11
9.0413557821
 21
14.1721208104
  0
LINE
  5
2B3
100
AcDbEntity
  8
0
100
AcDbLine
 62
7
  6
CONTINUOUS
 10
7.6205945742
 20
0.5503298669
 11
7.4681983276
 21
-0.313952196
  0
LINE
  5
2B4
100
AcDbEntity
  8
0
100
AcDbLine
 62
7
  6
CONTINUOUS
 10
12.2758926102
 20
6.746047804
 11
11.8758926102
 21
6.746047804
  0
LINE
  5
2B5
100
AcDbEntity
  8
0
100
AcDbLine
 62
7
  6
CONTINUOUS
 10
11.2657362073
 20
6.861047804
 11
11.2157362073
 21
6.861047804
  0
LINE
  5
2B6
100
AcDbEntity
  8
0
100
AcDbLine
 62
7
  6
CONTINUOUS
 10
12.3058926102
 20
6.898547804
 11
12.2758926102
 21
6.898547804
  0
LINE
  5
2B7
100
AcDbEntity
  8
0
100
AcDbLine
 62
7
  6
CONTINUOUS
 10
10.8608926102
 20
6.903547804
 11
11.0758926102
 21
6.903547804
  0
LINE
  5
2B8
100
AcDbEntity
  8
0
100
AcDbLine
 62
7
  6
CONTINUOUS
 10
10.8608926102
 20
7.293547804
 11
11.0758926102
 21
7.293547804
  0
LINE
  5
2B9
100
AcDbEntity
  8
0
100
AcDbLine
 62
7
  6
CONTINUOUS
 10
12.3058926102
 20
7.298547804
 11
12.2758926102
 21
7.298547804
  0
LINE
  5
2BA
100
AcDbEntity
  8
0
100
AcDbLine
 62
7
  6
CONTINUOUS
 10
11.2657362073
 20
7.336047804
 11
11.2157362073
 21
7.336047804
  0
LINE
  5
2BB
100
AcDbEntity
  8
0
100
AcDbLine
 62
7
  6
CONTINUOUS
 10
12.2758926102
 20
7.451047804
 11
11.8758926102
 21
7.451047804
  0
LWPOLYLINE
  5
2BC
100
AcDbEntity
  8
0
100
AcDbPolyline
 62
7
  6
CONTINUOUS
 90
7
 70
0
 10
7.2204140051
 20
15.8483136292
 10
7.2208278237
 20
15.8460864331
 10
7.2208062181
 20
15.843800152
 10
7.2203288869
 20
15.8415093108
 10
7.2194079092
 20
15.8393566138
 10
7.2180875738
 20
15.8374347558
 10
7.2174132342
 20
15.8367017104
  0
LWPOLYLINE
  5
2BD
100
AcDbEntity
  8
0
100
AcDbPolyline
 62
7
  6
CONTINUOUS
 90
8
 70
0
 10
7.2380181613
 20
15.8296282944
 10
7.2382085425
 20
15.8285809857
 10
7.2383049337
 20
15.8272981658
 10
7.2382360481
 20
15.8258091571
 10
7.2379289601
 20
15.8241502517
 10
7.2373320718
 20
15.8224282799
 10
7.2364303735
 20
15.8207513914
 10
7.2352226965
 20
15.8191901327
  0
LINE
  5
2BE
100
AcDbEntity
  8
0
100
AcDbLine
 62
7
  6
CONTINUOUS
 10
9.7618937831
 20
17.5624821984
 11
9.7618937831
 21
17.4891660336
  0
LINE
  5
2BF
100
AcDbEntity
  8
0
100
AcDbLine
 62
7
  6
CONTINUOUS
 10
10.1461280245
 20
17.958521546
 11
10.1461793334
 21
17.9592325211
  0
LINE
  5
2C0
100
AcDbEntity
  8
0
100
AcDbLine
 62
7
  6
CONTINUOUS
 10
10.0963197985
 20
17.908719845
 11
10.0963706735
 21
17.9094238612
  0
LINE
  5
2C1
100
AcDbEntity
  8
0
100
AcDbLine
 62
7
  6
CONTINUOUS
 10
10.1957757646
 20
18.0081735543
 11
10.1958268243
 21
18.008880012
  0
LINE
  5
2C2
100
AcDbEntity
  8
0
100
AcDbLine
 62
7
  6
CONTINUOUS
 10
10.245604375
 20
18.0586575627
 11
10.245553509
 21
18.0579536785
  0
LINE
  5
2C3
100
AcDbEntity
  8
0
100
AcDbLine
 62
7
  6
CONTINUOUS
 10
13.7058926102
 20
7.911047804
 11
13.6188926102
 21
7.911047804
  0
LINE
  5
2C4
100
AcDbEntity
  8
0
100
AcDbLine
 62
7
  6
CONTINUOUS
 10
11.8758926102
 20
6.746047804
 11
11.8158712183
 21
6.798047804
  0
LINE
  5
2C5
100
AcDbEntity
  8
0
100
AcDbLine
 62
7
  6
CONTINUOUS
 10
13.4068926102
 20
5.153547804
 11
13.1929065693
 21
5.3693740636
  0
LINE
  5
2C6
100
AcDbEntity
  8
0
100
AcDbLine
 62
7
  6
CONTINUOUS
 10
7.2196049443
 20
15.8503772048
 11
7.2204140051
 21
15.8483136292
  0
LWPOLYLINE
  5
2C7
100
AcDbEntity
  8
0
100
AcDbPolyline
 62
7
  6
CONTINUOUS
 90
11
 70
0
 10
7.2917644985
 20
15.7745335163
 10
7.2917683589
 20
15.7745227838
 10
7.2918426495
 20
15.7743083998
 10
7.2919752677
 20
15.7738341608
 10
7.2921311361
 20
15.7730384767
 10
7.2922369313
 20
15.7718625974
 10
7.2921699265
 20
15.7702744426
 10
7.2917731087
 20
15.7683497191
 10
7.290944623
 20
15.7663213195
 10
7.2896768293
 20
15.7644028059
 10
7.2888956049
 20
15.763539114
  0
LWPOLYLINE
  5
2C8
100
AcDbEntity
  8
0
100
AcDbPolyline
 62
7
  6
CONTINUOUS
 90
9
 70
0
 10
7.6524010735
 20
15.4026483824
 10
7.6523227496
 20
15.4028741766
 10
7.6523371288
 20
15.402805206
 10
7.652423871
 20
15.4022271179
 10
7.6524465852
 20
15.4011044375
 10
7.6522192027
 20
15.3994924107
 10
7.6515746213
 20
15.3975973366
 10
7.6504341477
 20
15.3956722474
 10
7.6494387284
 20
15.3945230554
  0
LINE
  5
2C9
100
AcDbEntity
  8
0
100
AcDbLine
 62
7
  6
CONTINUOUS
 10
10.7957444885
 20
2.978547804
 11
10.5965081403
 21
5.753547804
  0
LINE
  5
2CA
100
AcDbEntity
  8
0
100
AcDbLine
 62
7
  6
CONTINUOUS
 10
10.8359968316
 20
2.8751425288
 11
10.6733926102
 21
5.753547804
  0
LINE
  5
2CB
100
AcDbEntity
  8
0
100
AcDbLine
 62
7
  6
CONTINUOUS
 10
10.5358926102
 20
2.978547804
 11
10.4108926102
 21
5.753547804
  0
LINE
  5
2CC
100
AcDbEntity
  8
0
100
AcDbLine
 62
7
  6
CONTINUOUS
 10
10.6189677932
 20
2.978547804
 11
10.5965081403
 21
5.753547804
  0
LINE
  5
2CD
100
AcDbEntity
  8
0
100
AcDbLine
 62
9
  6
CONTINUOUS
 10
10.0968926102
 20
-0.1487933487
 11
10.0968926102
 21
0.9835473908
  0
LINE
  5
2CE
100
AcDbEntity
  8
0
100
AcDbLine
 62
7
  6
CONTINUOUS
 10
10.1483926102
 20
5.7535478009
 11
10.1483926102
 21
5.918547804
  0
LINE
  5
2CF
100
AcDbEntity
  8
0
100
AcDbLine
 62
7
  6
CONTINUOUS
 10
10.2158926102
 20
6.182547804
 11
10.2158926102
 21
6.648547804
  0
LINE
  5
2D0
100
AcDbEntity
  8
0
100
AcDbLine
 62
7
  6
CONTINUOUS
 10
10.6058926102
 20
6.182547804
 11
10.6058926102
 21
6.648547804
  0
LINE
  5
2D1
100
AcDbEntity
  8
0
100
AcDbLine
 62
7
  6
CONTINUOUS
 10
10.6733926102
 20
5.7535478006
 11
10.6733926102
 21
5.918547804
  0
LINE
  5
2D2
100
AcDbEntity
  8
0
100
AcDbLine
 62
7
  6
CONTINUOUS
 10
10.2028174272
 20
2.978547804
 11
10.2252770801
 21
5.753547804
  0
LINE
  5
2D3
100
AcDbEntity
  8
0
100
AcDbLine
 62
7
  6
CONTINUOUS
 10
10.2858926102
 20
2.978547804
 11
10.4108926102
 21
5.753547804
  0
LINE
  5
2D4
100
AcDbEntity
  8
0
100
AcDbLine
 62
7
  6
CONTINUOUS
 10
9.9857883888
 20
2.8751425288
 11
10.1483926102
 21
5.753547804
  0
LINE
  5
2D5
100
AcDbEntity
  8
0
100
AcDbLine
 62
7
  6
CONTINUOUS
 10
10.0260407319
 20
2.978547804
 11
10.2252770801
 21
5.753547804
  0
LINE
  5
2D6
100
AcDbEntity
  8
0
100
AcDbLine
 62
7
  6
CONTINUOUS
 10
10.7112831208
 20
17.3759877366
 11
10.7112285403
 21
17.3752332086
  0
LINE
  5
2D7
100
AcDbEntity
  8
0
100
AcDbLine
 62
7
  6
CONTINUOUS
 10
10.7625427388
 20
17.4272408358
 11
10.7624887045
 21
17.4264933728
  0
LINE
  5
2D8
100
AcDbEntity
  8
0
100
AcDbLine
 62
7
  6
CONTINUOUS
 10
10.8138258132
 20
17.4785251248
 11
10.8137716774
 21
17.4777763457
  0
LINE
  5
2D9
100
AcDbEntity
  8
0
100
AcDbLine
 62
7
  6
CONTINUOUS
 10
8.8451926113
 20
-0.422938963
 11
8.822308988
 21
-0.5527184402
  0
LINE
  5
2DA
100
AcDbEntity
  8
0
100
AcDbLine
 62
7
  6
CONTINUOUS
 10
8.8458341123
 20
-0.4194451355
 11
8.8451926113
 21
-0.422938963
  0
LINE
  5
2DB
100
AcDbEntity
  8
0
100
AcDbLine
 62
7
  6
CONTINUOUS
 10
12.3258926102
 20
6.689047804
 11
12.3058926102
 21
6.709047804
  0
LWPOLYLINE
  5
2DC
100
AcDbEntity
  8
0
100
AcDbPolyline
 62
7
  6
CONTINUOUS
 90
9
 70
0
 10
7.9575856092
 20
15.0906419286
 10
7.9575055553
 20
15.0908410052
 10
7.9575186606
 20
15.0907890914
 10
7.9576288791
 20
15.0902493186
 10
7.9577098928
 20
15.0891688028
 10
7.9575630192
 20
15.0875125478
 10
7.9569532277
 20
15.0854501486
 10
7.9557701246
 20
15.0833447465
 10
7.954696791
 20
15.0820881581
  0
LWPOLYLINE
  5
2DD
100
AcDbEntity
  8
0
100
AcDbPolyline
 62
7
  6
CONTINUOUS
 90
9
 70
0
 10
7.8035198436
 20
15.247934876
 10
7.8034354138
 20
15.2481657167
 10
7.8034428103
 20
15.2481262916
 10
7.8035329793
 20
15.2475935904
 10
7.803577163
 20
15.2465317091
 10
7.8033871993
 20
15.2449342182
 10
7.8027617057
 20
15.2429844196
 10
7.8016064594
 20
15.2409916673
 10
7.8005892093
 20
15.2398111556
  0
LINE
  5
2DE
100
AcDbEntity
  8
0
100
AcDbLine
 62
9
  6
CONTINUOUS
 10
10.8608926102
 20
7.293547804
 11
10.8608926102
 21
6.903547804
  0
LINE
  5
2DF
100
AcDbEntity
  8
0
100
AcDbLine
 62
7
  6
CONTINUOUS
 10
11.0758926102
 20
7.351047804
 11
11.0758926102
 21
6.846047804
  0
LINE
  5
2E0
100
AcDbEntity
  8
0
100
AcDbLine
 62
9
  6
CONTINUOUS
 10
11.195775308
 20
7.354797804
 11
11.195775308
 21
6.842297804
  0
LINE
  5
2E1
100
AcDbEntity
  8
0
100
AcDbLine
 62
9
  6
CONTINUOUS
 10
11.2157362073
 20
7.336047804
 11
11.2157362073
 21
6.861047804
  0
LINE
  5
2E2
100
AcDbEntity
  8
0
100
AcDbLine
 62
9
  6
CONTINUOUS
 10
11.2657362073
 20
7.336047804
 11
11.2657362073
 21
6.861047804
  0
LINE
  5
2E3
100
AcDbEntity
  8
0
100
AcDbLine
 62
9
  6
CONTINUOUS
 10
11.5449443611
 20
7.4138326952
 11
11.5449443611
 21
6.7832629129
  0
LINE
  5
2E4
100
AcDbEntity
  8
0
100
AcDbLine
 62
7
  6
CONTINUOUS
 10
8.8458352705
 20
-0.4194391235
 11
8.8493545527
 21
-0.403746615
  0
LINE
  5
2E5
100
AcDbEntity
  8
0
100
AcDbLine
 62
7
  6
CONTINUOUS
 10
7.2184821388
 20
15.852176877
 11
7.2196049443
 21
15.8503772048
  0
LWPOLYLINE
  5
2E6
100
AcDbEntity
  8
0
100
AcDbPolyline
 62
7
  6
CONTINUOUS
 90
7
 70
0
 10
7.2373834316
 20
15.8315110642
 10
7.2373469754
 20
15.8315777315
 10
7.2373590141
 20
15.8315535799
 10
7.2374401423
 20
15.8313809562
 10
7.2375913408
 20
15.8310195793
 10
7.2377962577
 20
15.8304390686
 10
7.2380181613
 20
15.8296282944
  0
LINE
  5
2E7
100
AcDbEntity
  8
0
100
AcDbLine
 62
7
  6
CONTINUOUS
 10
11.8158712183
 20
7.399047804
 11
11.8158712183
 21
6.798047804
  0
LINE
  5
2E8
100
AcDbEntity
  8
0
100
AcDbLine
 62
7
  6
CONTINUOUS
 10
11.8758926102
 20
7.451047804
 11
11.8758926102
 21
6.746047804
  0
LINE
  5
2E9
100
AcDbEntity
  8
0
100
AcDbLine
 62
7
  6
CONTINUOUS
 10
12.2758926102
 20
7.451047804
 11
12.2758926102
 21
6.746047804
  0
LINE
  5
2EA
100
AcDbEntity
  8
0
100
AcDbLine
 62
7
  6
CONTINUOUS
 10
12.3058926102
 20
6.709047804
 11
12.3058926102
 21
7.488047804
  0
LINE
  5
2EB
100
AcDbEntity
  8
0
100
AcDbLine
 62
7
  6
CONTINUOUS
 10
12.3258926102
 20
6.689047804
 11
12.3258926102
 21
7.508047804
  0
LWPOLYLINE
  5
2EC
100
AcDbEntity
  8
0
100
AcDbPolyline
 62
7
  6
CONTINUOUS
 90
12
 70
0
 10
8.849353687
 20
-0.4037512508
 10
8.855811057
 20
-0.3826174515
 10
8.8640963621
 20
-0.3621424578
 10
8.874145767
 20
-0.3424836135
 10
8.8858819583
 20
-0.3237920687
 10
8.8992152855
 20
-0.3062110853
 10
8.9140444641
 20
-0.2898755321
 10
8.9302572947
 20
-0.2749110379
 10
8.9477309971
 20
-0.2614336497
 10
8.9663317938
 20
-0.2495496239
 10
8.9859165453
 20
-0.2393533936
 10
9.0063341854
 20
-0.2309265477
  0
LINE
  5
2ED
100
AcDbEntity
  8
0
100
AcDbLine
 62
7
  6
CONTINUOUS
 10
7.1135515095
 20
15.994572567
 11
7.2186984771
 21
15.8518777652
  0
LWPOLYLINE
  5
2EE
100
AcDbEntity
  8
0
100
AcDbPolyline
 62
7
  6
CONTINUOUS
 90
12
 70
0
 10
8.3612707622
 20
14.6806431415
 10
8.3612676576
 20
14.6806479821
 10
8.3613575417
 20
14.6804832578
 10
8.3615626096
 20
14.6800408405
 10
8.3618285083
 20
14.6793133605
 10
8.362088329
 20
14.678295374
 10
8.3622649057
 20
14.6769479588
 10
8.3622393096
 20
14.6752216686
 10
8.3618559266
 20
14.6731950117
 10
8.3610141134
 20
14.6710908804
 10
8.3597190666
 20
14.6691334222
 10
8.3589786679
 20
14.668318127
  0
LINE
  5
2EF
100
AcDbEntity
  8
0
100
AcDbLine
 62
7
  6
CONTINUOUS
 10
9.8297567196
 20
14.7604796549
 11
9.9194481964
 21
14.5268253695
  0
LINE
  5
2F0
100
AcDbEntity
  8
0
100
AcDbLine
 62
7
  6
CONTINUOUS
 10
10.0963197985
 20
17.908719845
 11
10.104898816
 21
17.8766344546
  0
LINE
  5
2F1
100
AcDbEntity
  8
0
100
AcDbLine
 62
9
  6
CONTINUOUS
 10
12.5848926102
 20
18.692297804
 11
12.5848926102
 21
19.504797804
  0
LINE
  5
2F2
100
AcDbEntity
  8
0
100
AcDbLine
 62
7
  6
CONTINUOUS
 10
12.9138926102
 20
4.541047804
 11
12.9138926102
 21
5.316047804
  0
LINE
  5
2F3
100
AcDbEntity
  8
0
100
AcDbLine
 62
9
  6
CONTINUOUS
 10
12.9378976407
 20
4.5108473007
 11
12.9378976407
 21
5.3462483074
  0
LINE
  5
2F4
100
AcDbEntity
  8
0
100
AcDbLine
 62
9
  6
CONTINUOUS
 10
13.0738976407
 20
4.4793473007
 11
13.0738976407
 21
5.3777483074
  0
LINE
  5
2F5
100
AcDbEntity
  8
0
100
AcDbLine
 62
9
  6
CONTINUOUS
 10
13.0808926102
 20
4.478547804
 11
13.0808926102
 21
5.378547804
  0
LINE
  5
2F6
100
AcDbEntity
  8
0
100
AcDbLine
 62
9
  6
CONTINUOUS
 10
13.1708926102
 20
4.478547804
 11
13.1708926102
 21
5.378547804
  0
LINE
  5
2F7
100
AcDbEntity
  8
0
100
AcDbLine
 62
9
  6
CONTINUOUS
 10
13.1929065693
 20
4.4877215445
 11
13.1929065693
 21
5.3693740636
  0
LINE
  5
2F8
100
AcDbEntity
  8
0
100
AcDbLine
 62
7
  6
CONTINUOUS
 10
12.3258926102
 20
7.508047804
 11
12.3058926102
 21
7.488047804
  0
LINE
  5
2F9
100
AcDbEntity
  8
0
100
AcDbLine
 62
7
  6
CONTINUOUS
 10
11.8758926102
 20
7.451047804
 11
11.8158712183
 21
7.399047804
  0
LINE
  5
2FA
100
AcDbEntity
  8
0
100
AcDbLine
 62
7
  6
CONTINUOUS
 10
7.4161906689
 20
15.4169873029
 11
7.5689004563
 21
15.2642775155
  0
LINE
  5
2FB
100
AcDbEntity
  8
0
100
AcDbLine
 62
7
  6
CONTINUOUS
 10
7.5947230061
 20
15.2384549658
 11
7.7474388808
 21
15.085739091
  0
LINE
  5
2FC
100
AcDbEntity
  8
0
100
AcDbLine
 62
7
  6
CONTINUOUS
 10
7.8472101665
 20
14.9859678053
 11
7.9999260343
 21
14.8332519375
  0
LINE
  5
2FD
100
AcDbEntity
  8
0
100
AcDbLine
 62
7
  6
CONTINUOUS
 10
8.0257484889
 20
14.8074294829
 11
8.1784584736
 21
14.6547194982
  0
LINE
  5
2FE
100
AcDbEntity
  8
0
100
AcDbLine
 62
9
  6
CONTINUOUS
 10
8.0138456359
 20
14.827485265
 11
7.8414434939
 21
14.9998874069
  0
LINE
  5
2FF
100
AcDbEntity
  8
0
100
AcDbLine
 62
9
  6
CONTINUOUS
 10
7.7613584789
 20
15.0799724219
 11
7.588956337
 21
15.2523745638
  0
LINE
  5
300
100
AcDbEntity
  8
0
100
AcDbLine
 62
9
  6
CONTINUOUS
 10
7.582823098
 20
15.2585078028
 11
7.4104209561
 21
15.4309099447
  0
LINE
  5
301
100
AcDbEntity
  8
0
100
AcDbLine
 62
9
  6
CONTINUOUS
 10
7.768318394
 20
15.0799724219
 11
7.8414434939
 21
15.006847322
  0
LINE
  5
302
100
AcDbEntity
  8
0
100
AcDbLine
 62
9
  6
CONTINUOUS
 10
8.2039122916
 20
14.6489498841
 11
7.8414434939
 21
15.0114186842
  0
LINE
  5
303
100
AcDbEntity
  8
0
100
AcDbLine
 62
9
  6
CONTINUOUS
 10
7.7728897538
 20
15.0799724219
 11
7.4104209561
 21
15.442441222
  0
LINE
  5
304
100
AcDbEntity
  8
0
100
AcDbLine
 62
7
  6
CONTINUOUS
 10
7.3562350988
 20
15.5047817227
 11
8.2662527947
 21
14.5947640268
  0
LINE
  5
305
100
AcDbEntity
  8
0
100
AcDbLine
 62
9
  6
CONTINUOUS
 10
8.2884914077
 20
14.5908427728
 11
7.3523138448
 21
15.5270203357
  0
LINE
  5
306
100
AcDbEntity
  8
0
100
AcDbLine
 62
7
  6
CONTINUOUS
 10
7.1986841497
 20
15.7832160871
 11
7.3364661173
 21
15.6454341195
  0
LINE
  5
307
100
AcDbEntity
  8
0
100
AcDbLine
 62
7
  6
CONTINUOUS
 10
7.3822650977
 20
15.599635139
 11
7.3849313772
 21
15.5969688596
  0
LINE
  5
308
100
AcDbEntity
  8
0
100
AcDbLine
 62
7
  6
CONTINUOUS
 10
7.6357875537
 20
15.3461126831
 11
7.7012475104
 21
15.2806527264
  0
LINE
  5
309
100
AcDbEntity
  8
0
100
AcDbLine
 62
7
  6
CONTINUOUS
 10
7.7887185341
 20
15.1931817027
 11
7.8541790701
 21
15.1277211667
  0
LINE
  5
30A
100
AcDbEntity
  8
0
100
AcDbLine
 62
7
  6
CONTINUOUS
 10
7.9446339651
 20
15.0372662717
 11
8.010095176
 21
14.9718050607
  0
LINE
  5
30B
100
AcDbEntity
  8
0
100
AcDbLine
 62
7
  6
CONTINUOUS
 10
8.3536606354
 20
14.6282396014
 11
8.4256875617
 21
14.5562126751
  0
LINE
  5
30C
100
AcDbEntity
  8
0
100
AcDbLine
 62
7
  6
CONTINUOUS
 10
8.4305100098
 20
14.5513902269
 11
8.537683675
 21
14.4442165618
  0
LINE
  5
30D
100
AcDbEntity
  8
0
100
AcDbLine
 62
9
  6
CONTINUOUS
 10
7.3788054934
 20
15.6079869773
 11
7.3864871804
 21
15.6003052903
  0
LINE
  5
30E
100
AcDbEntity
  8
0
100
AcDbLine
 62
9
  6
CONTINUOUS
 10
8.0184473091
 20
14.9683451617
 11
7.941174066
 21
15.0456184047
  0
LINE
  5
30F
100
AcDbEntity
  8
0
100
AcDbLine
 62
9
  6
CONTINUOUS
 10
7.8625315406
 20
15.1242609301
 11
7.7852582975
 21
15.2015341732
  0
LINE
  5
310
100
AcDbEntity
  8
0
100
AcDbLine
 62
9
  6
CONTINUOUS
 10
7.7096002712
 20
15.2771922002
 11
7.6323270275
 21
15.3544654439
  0
LINE
  5
311
100
AcDbEntity
  8
0
100
AcDbLine
 62
9
  6
CONTINUOUS
 10
7.3448210847
 20
15.641971386
 11
7.1952259882
 21
15.7915665298
  0
LINE
  5
312
100
AcDbEntity
  8
0
100
AcDbLine
 62
9
  6
CONTINUOUS
 10
7.38737797
 20
15.6022155948
 11
7.6323270275
 21
15.357266537
  0
LINE
  5
313
100
AcDbEntity
  8
0
100
AcDbLine
 62
9
  6
CONTINUOUS
 10
7.7124013643
 20
15.2771922002
 11
7.7852582975
 21
15.204335267
  0
LINE
  5
314
100
AcDbEntity
  8
0
100
AcDbLine
 62
9
  6
CONTINUOUS
 10
7.8653326344
 20
15.1242609301
 11
7.941174066
 21
15.0484194985
  0
LINE
  5
315
100
AcDbEntity
  8
0
100
AcDbLine
 62
9
  6
CONTINUOUS
 10
8.0212484028
 20
14.9683451617
 11
8.3501995064
 21
14.6393940605
  0
LINE
  5
316
100
AcDbEntity
  8
0
100
AcDbLine
 62
9
  6
CONTINUOUS
 10
7.3788054934
 20
15.626041245
 11
7.3907090238
 21
15.6141377146
  0
LINE
  5
317
100
AcDbEntity
  8
0
100
AcDbLine
 62
9
  6
CONTINUOUS
 10
8.5640831308
 20
14.4407636076
 11
8.3501995064
 21
14.654647232
  0
LINE
  5
318
100
AcDbEntity
  8
0
100
AcDbLine
 62
9
  6
CONTINUOUS
 10
8.0365015767
 20
14.9683451617
 11
7.941174066
 21
15.0636726724
  0
LINE
  5
319
100
AcDbEntity
  8
0
100
AcDbLine
 62
9
  6
CONTINUOUS
 10
7.8805858083
 20
15.1242609301
 11
7.7852582975
 21
15.2195884409
  0
LINE
  5
31A
100
AcDbEntity
  8
0
100
AcDbLine
 62
9
  6
CONTINUOUS
 10
7.7276545381
 20
15.2771922002
 11
7.6323270275
 21
15.3725197108
  0
LINE
  5
31B
100
AcDbEntity
  8
0
100
AcDbLine
 62
9
  6
CONTINUOUS
 10
7.3628753524
 20
15.641971386
 11
7.1952259882
 21
15.8096207502
  0
LINE
  5
31C
100
AcDbEntity
  8
0
100
AcDbLine
 62
9
  6
CONTINUOUS
 10
8.5724348476
 20
14.4442229763
 11
8.3536588751
 21
14.6629989487
  0
LINE
  5
31D
100
AcDbEntity
  8
0
100
AcDbLine
 62
9
  6
CONTINUOUS
 10
8.0448532935
 20
14.9718045304
 11
7.9446334347
 21
15.0720243891
  0
LINE
  5
31E
100
AcDbEntity
  8
0
100
AcDbLine
 62
9
  6
CONTINUOUS
 10
7.888937525
 20
15.1277202989
 11
7.7887176662
 21
15.2279401576
  0
LINE
  5
31F
100
AcDbEntity
  8
0
100
AcDbLine
 62
9
  6
CONTINUOUS
 10
7.736006255
 20
15.2806515689
 11
7.6357863962
 21
15.3808714277
  0
LINE
  5
320
100
AcDbEntity
  8
0
100
AcDbLine
 62
9
  6
CONTINUOUS
 10
7.3902336695
 20
15.6264241543
 11
7.3822648621
 21
15.6343929617
  0
LINE
  5
321
100
AcDbEntity
  8
0
100
AcDbLine
 62
9
  6
CONTINUOUS
 10
7.3712270691
 20
15.6454307547
 11
7.198685357
 21
15.8179724669
  0
LINE
  5
322
100
AcDbEntity
  8
0
100
AcDbLine
 62
7
  6
CONTINUOUS
 10
7.3822025105
 20
15.6437417402
 11
7.6404296097
 21
15.3855146411
  0
LINE
  5
323
100
AcDbEntity
  8
0
100
AcDbLine
 62
7
  6
CONTINUOUS
 10
7.7406494684
 20
15.2852947824
 11
7.7933608797
 21
15.2325833711
  0
LINE
  5
324
100
AcDbEntity
  8
0
100
AcDbLine
 62
7
  6
CONTINUOUS
 10
7.8935807384
 20
15.1323635123
 11
7.9493853607
 21
15.0765588901
  0
LINE
  5
325
100
AcDbEntity
  8
0
100
AcDbLine
 62
7
  6
CONTINUOUS
 10
8.0494965069
 20
14.9764477438
 11
8.3583020886
 21
14.6676421622
  0
LINE
  5
326
100
AcDbEntity
  8
0
100
AcDbLine
 62
7
  6
CONTINUOUS
 10
7.1100008231
 20
16.0077056272
 11
8.7691766992
 21
14.3485297511
  0
LINE
  5
327
100
AcDbEntity
  8
0
100
AcDbLine
 62
7
  6
CONTINUOUS
 10
8.8429229021
 20
14.2964806479
 11
7.0579517199
 21
16.0814518301
  0
LINE
  5
328
100
AcDbEntity
  8
0
100
AcDbLine
 62
7
  6
CONTINUOUS
 10
6.9423832049
 20
16.2041834013
 11
7.00324581
 21
16.1433207962
  0
LINE
  5
329
100
AcDbEntity
  8
0
100
AcDbLine
 62
7
  6
CONTINUOUS
 10
7.0092585899
 20
16.1373080163
 11
7.0700912587
 21
16.0764753475
  0
LINE
  5
32A
100
AcDbEntity
  8
0
100
AcDbLine
 62
7
  6
CONTINUOUS
 10
7.1384367218
 20
16.0081298844
 11
7.1992832022
 21
15.947283404
  0
LINE
  5
32B
100
AcDbEntity
  8
0
100
AcDbLine
 62
7
  6
CONTINUOUS
 10
7.3211209977
 20
15.8254456086
 11
7.3819694881
 21
15.7645971181
  0
LINE
  5
32C
100
AcDbEntity
  8
0
100
AcDbLine
 62
7
  6
CONTINUOUS
 10
7.5448645144
 20
15.6017020918
 11
7.605711693
 21
15.5408549132
  0
LINE
  5
32D
100
AcDbEntity
  8
0
100
AcDbLine
 62
7
  6
CONTINUOUS
 10
7.7944165337
 20
15.3521500725
 11
7.8552651427
 21
15.2913014635
  0
LINE
  5
32E
100
AcDbEntity
  8
0
100
AcDbLine
 62
7
  6
CONTINUOUS
 10
8.052772554
 20
15.0937940522
 11
8.1136211261
 21
15.0329454802
  0
LINE
  5
32F
100
AcDbEntity
  8
0
100
AcDbLine
 62
7
  6
CONTINUOUS
 10
8.3023259955
 20
14.8442406107
 11
8.3631731536
 21
14.7833934526
  0
LINE
  5
330
100
AcDbEntity
  8
0
100
AcDbLine
 62
7
  6
CONTINUOUS
 10
8.5260681544
 20
14.6204984518
 11
8.5869167163
 21
14.5596498899
  0
LINE
  5
331
100
AcDbEntity
  8
0
100
AcDbLine
 62
7
  6
CONTINUOUS
 10
8.7087543745
 20
14.4378122317
 11
8.7696010579
 21
14.3769655483
  0
LINE
  5
332
100
AcDbEntity
  8
0
100
AcDbLine
 62
7
  6
CONTINUOUS
 10
8.837932353
 20
14.3086342532
 11
8.8987790812
 21
14.247787525
  0
LINE
  5
333
100
AcDbEntity
  8
0
100
AcDbLine
 62
7
  6
CONTINUOUS
 10
8.9047919979
 20
14.2417746083
 11
8.9656543436
 21
14.1809122626
  0
LINE
  5
334
100
AcDbEntity
  8
0
100
AcDbLine
 62
9
  6
CONTINUOUS
 10
8.8332744656
 20
14.3161199346
 11
8.7770867617
 21
14.3723076385
  0
LINE
  5
335
100
AcDbEntity
  8
0
100
AcDbLine
 62
9
  6
CONTINUOUS
 10
8.7040964647
 20
14.4452979355
 11
8.5944014808
 21
14.5549929194
  0
LINE
  5
336
100
AcDbEntity
  8
0
100
AcDbLine
 62
9
  6
CONTINUOUS
 10
8.5214111838
 20
14.6279832164
 11
8.37065862
 21
14.7787357802
  0
LINE
  5
337
100
AcDbEntity
  8
0
100
AcDbLine
 62
9
  6
CONTINUOUS
 10
8.297668323
 20
14.8517260772
 11
8.1211058855
 21
15.0282885147
  0
LINE
  5
338
100
AcDbEntity
  8
0
100
AcDbLine
 62
9
  6
CONTINUOUS
 10
8.0481155885
 20
15.1012788117
 11
7.8627498837
 21
15.2866445165
  0
LINE
  5
339
100
AcDbEntity
  8
0
100
AcDbLine
 62
9
  6
CONTINUOUS
 10
7.7897595867
 20
15.3596348135
 11
7.6131971492
 21
15.536197251
  0
LINE
  5
33A
100
AcDbEntity
  8
0
100
AcDbLine
 62
9
  6
CONTINUOUS
 10
7.5402068522
 20
15.609187548
 11
7.3894542884
 21
15.7599401118
  0
LINE
  5
33B
100
AcDbEntity
  8
0
100
AcDbLine
 62
9
  6
CONTINUOUS
 10
7.3164639914
 20
15.8329304088
 11
7.2067690075
 21
15.9426253927
  0
LINE
  5
33C
100
AcDbEntity
  8
0
100
AcDbLine
 62
9
  6
CONTINUOUS
 10
7.1337787105
 20
16.0156156897
 11
7.0775910066
 21
16.0718033936
  0
LINE
  5
33D
100
AcDbEntity
  8
0
100
AcDbLine
 62
9
  6
CONTINUOUS
 10
8.783521575
 20
14.3711983855
 11
8.7029872116
 21
14.4517327489
  0
LINE
  5
33E
100
AcDbEntity
  8
0
100
AcDbLine
 62
9
  6
CONTINUOUS
 10
8.6008362942
 20
14.5538836663
 11
8.5203019308
 21
14.6344180297
  0
LINE
  5
33F
100
AcDbEntity
  8
0
100
AcDbLine
 62
9
  6
CONTINUOUS
 10
8.3770934334
 20
14.7776265271
 11
8.29655907
 21
14.8581608905
  0
LINE
  5
340
100
AcDbEntity
  8
0
100
AcDbLine
 62
9
  6
CONTINUOUS
 10
8.1275406989
 20
15.0271792616
 11
8.0470063355
 21
15.107713625
  0
LINE
  5
341
100
AcDbEntity
  8
0
100
AcDbLine
 62
9
  6
CONTINUOUS
 10
7.869184697
 20
15.2855352635
 11
7.7886503337
 21
15.3660696269
  0
LINE
  5
342
100
AcDbEntity
  8
0
100
AcDbLine
 62
9
  6
CONTINUOUS
 10
7.6196319625
 20
15.535087998
 11
7.5390975991
 21
15.6156223614
  0
LINE
  5
343
100
AcDbEntity
  8
0
100
AcDbLine
 62
9
  6
CONTINUOUS
 10
7.3958891017
 20
15.7588308588
 11
7.3153547383
 21
15.8393652222
  0
LINE
  5
344
100
AcDbEntity
  8
0
100
AcDbLine
 62
9
  6
CONTINUOUS
 10
7.2132038209
 20
15.9415161396
 11
7.1326694575
 21
16.022050503
  0
LINE
  5
345
100
AcDbEntity
  8
0
100
AcDbLine
 62
9
  6
CONTINUOUS
 10
7.08402582
 20
16.0706941405
 11
6.9366240029
 21
16.2180959576
  0
LINE
  5
346
100
AcDbEntity
  8
0
100
AcDbLine
 62
9
  6
CONTINUOUS
 10
8.7950528462
 20
14.3711983855
 11
8.7029872116
 21
14.46326402
  0
LINE
  5
347
100
AcDbEntity
  8
0
100
AcDbLine
 62
9
  6
CONTINUOUS
 10
8.3886247045
 20
14.7776265271
 11
8.29655907
 21
14.8696921617
  0
LINE
  5
348
100
AcDbEntity
  8
0
100
AcDbLine
 62
9
  6
CONTINUOUS
 10
7.8807159682
 20
15.2855352635
 11
7.7886503337
 21
15.377600898
  0
LINE
  5
349
100
AcDbEntity
  8
0
100
AcDbLine
 62
9
  6
CONTINUOUS
 10
7.4074203729
 20
15.7588308588
 11
7.3153547383
 21
15.8508964933
  0
LINE
  5
34A
100
AcDbEntity
  8
0
100
AcDbLine
 62
9
  6
CONTINUOUS
 10
7.0955570911
 20
16.0706941405
 11
6.9366240029
 21
16.2296272287
  0
LINE
  5
34B
100
AcDbEntity
  8
0
100
AcDbLine
 62
9
  6
CONTINUOUS
 10
8.9910983008
 20
14.1751529309
 11
8.8321652125
 21
14.3340860191
  0
LINE
  5
34C
100
AcDbEntity
  8
0
100
AcDbLine
 62
9
  6
CONTINUOUS
 10
8.6123675653
 20
14.5538836663
 11
8.5203019308
 21
14.6459493009
  0
LINE
  5
34D
100
AcDbEntity
  8
0
100
AcDbLine
 62
9
  6
CONTINUOUS
 10
8.1390719699
 20
15.0271792616
 11
8.0470063355
 21
15.1192448961
  0
LINE
  5
34E
100
AcDbEntity
  8
0
100
AcDbLine
 62
9
  6
CONTINUOUS
 10
7.6311632337
 20
15.535087998
 11
7.5390975991
 21
15.6271536325
  0
LINE
  5
34F
100
AcDbEntity
  8
0
100
AcDbLine
 62
9
  6
CONTINUOUS
 10
7.224735092
 20
15.9415161396
 11
7.1326694575
 21
16.0335817742
  0
LINE
  5
350
100
AcDbEntity
  8
0
100
AcDbLine
 62
9
  6
CONTINUOUS
 10
8.8342850785
 20
14.3429613014
 11
8.8039281285
 21
14.3733182515
  0
LINE
  5
351
100
AcDbEntity
  8
0
100
AcDbLine
 62
9
  6
CONTINUOUS
 10
8.7051070776
 20
14.4721393023
 11
8.6212428476
 21
14.5560035323
  0
LINE
  5
352
100
AcDbEntity
  8
0
100
AcDbLine
 62
9
  6
CONTINUOUS
 10
8.5224217968
 20
14.6548245832
 11
8.3974999868
 21
14.7797463931
  0
LINE
  5
353
100
AcDbEntity
  8
0
100
AcDbLine
 62
9
  6
CONTINUOUS
 10
8.298678936
 20
14.878567444
 11
8.1479472523
 21
15.0292991277
  0
LINE
  5
354
100
AcDbEntity
  8
0
100
AcDbLine
 62
9
  6
CONTINUOUS
 10
8.0491262015
 20
15.1281201785
 11
7.8895912505
 21
15.2876551295
  0
LINE
  5
355
100
AcDbEntity
  8
0
100
AcDbLine
 62
9
  6
CONTINUOUS
 10
7.7907701997
 20
15.3864761803
 11
7.640038516
 21
15.537207864
  0
LINE
  5
356
100
AcDbEntity
  8
0
100
AcDbLine
 62
9
  6
CONTINUOUS
 10
7.5412174651
 20
15.6360289148
 11
7.4162956552
 21
15.7609507248
  0
LINE
  5
357
100
AcDbEntity
  8
0
100
AcDbLine
 62
9
  6
CONTINUOUS
 10
7.3174746043
 20
15.8597717756
 11
7.2336103743
 21
15.9436360056
  0
LINE
  5
358
100
AcDbEntity
  8
0
100
AcDbLine
 62
9
  6
CONTINUOUS
 10
7.1347893235
 20
16.0424570565
 11
7.1044323734
 21
16.0728140065
  0
LINE
  5
359
100
AcDbEntity
  8
0
100
AcDbLine
 62
9
  6
CONTINUOUS
 10
9.0050181395
 20
14.1809185454
 11
8.8379308271
 21
14.3480058579
  0
LINE
  5
35A
100
AcDbEntity
  8
0
100
AcDbLine
 62
9
  6
CONTINUOUS
 10
8.8089726849
 20
14.376964
 11
8.7087528262
 21
14.4771838588
  0
LINE
  5
35B
100
AcDbEntity
  8
0
100
AcDbLine
 62
9
  6
CONTINUOUS
 10
8.6262874041
 20
14.5596492809
 11
8.5260675453
 21
14.6598691396
  0
LINE
  5
35C
100
AcDbEntity
  8
0
100
AcDbLine
 62
9
  6
CONTINUOUS
 10
8.4025445433
 20
14.7833921417
 11
8.3023246845
 21
14.8836120004
  0
LINE
  5
35D
100
AcDbEntity
  8
0
100
AcDbLine
 62
9
  6
CONTINUOUS
 10
8.1529918088
 20
15.0329448762
 11
8.05277195
 21
15.1331647349
  0
LINE
  5
35E
100
AcDbEntity
  8
0
100
AcDbLine
 62
9
  6
CONTINUOUS
 10
7.8946358069
 20
15.291300878
 11
7.7944159482
 21
15.3915207368
  0
LINE
  5
35F
100
AcDbEntity
  8
0
100
AcDbLine
 62
9
  6
CONTINUOUS
 10
7.6450830724
 20
15.5408536125
 11
7.5448632137
 21
15.6410734713
  0
LINE
  5
360
100
AcDbEntity
  8
0
100
AcDbLine
 62
9
  6
CONTINUOUS
 10
7.4213402116
 20
15.7645964733
 11
7.3211203529
 21
15.8648163321
  0
LINE
  5
361
100
AcDbEntity
  8
0
100
AcDbLine
 62
9
  6
CONTINUOUS
 10
7.2386549308
 20
15.9472817542
 11
7.138435072
 21
16.0475016129
  0
LINE
  5
362
100
AcDbEntity
  8
0
100
AcDbLine
 62
9
  6
CONTINUOUS
 10
7.1094769299
 20
16.0764597551
 11
6.9423896174
 21
16.2435470675
  0
LINE
  5
363
100
AcDbEntity
  8
0
100
AcDbLine
 62
7
  6
CONTINUOUS
 10
7.1176092906
 20
16.0845921158
 11
7.1465674328
 21
16.0556339737
  0
LINE
  5
364
100
AcDbEntity
  8
0
100
AcDbLine
 62
7
  6
CONTINUOUS
 10
7.2467872915
 20
15.9554141149
 11
7.3292527136
 21
15.8729486928
  0
LINE
  5
365
100
AcDbEntity
  8
0
100
AcDbLine
 62
7
  6
CONTINUOUS
 10
7.4294725724
 20
15.7727288341
 11
7.5529955744
 21
15.649205832
  0
LINE
  5
366
100
AcDbEntity
  8
0
100
AcDbLine
 62
7
  6
CONTINUOUS
 10
7.6532154332
 20
15.5489859733
 11
7.8025483089
 21
15.3996530975
  0
LINE
  5
367
100
AcDbEntity
  8
0
100
AcDbLine
 62
7
  6
CONTINUOUS
 10
7.9027681677
 20
15.2994332387
 11
8.0609043107
 21
15.1412970957
  0
LINE
  5
368
100
AcDbEntity
  8
0
100
AcDbLine
 62
7
  6
CONTINUOUS
 10
8.1611241695
 20
15.0410772369
 11
8.3104570453
 21
14.8917443611
  0
LINE
  5
369
100
AcDbEntity
  8
0
100
AcDbLine
 62
7
  6
CONTINUOUS
 10
8.410676904
 20
14.7915245024
 11
8.5341999061
 21
14.6680015004
  0
LINE
  5
36A
100
AcDbEntity
  8
0
100
AcDbLine
 62
7
  6
CONTINUOUS
 10
8.6344197648
 20
14.5677816416
 11
8.7168851869
 21
14.4853162195
  0
LINE
  5
36B
100
AcDbEntity
  8
0
100
AcDbLine
 62
7
  6
CONTINUOUS
 10
8.8171050457
 20
14.3850963608
 11
8.8460631878
 21
14.3561382186
  0
LINE
  5
36C
100
AcDbEntity
  8
0
100
AcDbLine
 62
7
  6
CONTINUOUS
 10
6.8032279636
 20
16.4020952115
 11
6.9196768926
 21
16.2856462825
  0
LINE
  5
36D
100
AcDbEntity
  8
0
100
AcDbLine
 62
7
  6
CONTINUOUS
 10
6.956148888
 20
16.249174287
 11
7.0336949761
 21
16.171628199
  0
LINE
  5
36E
100
AcDbEntity
  8
0
100
AcDbLine
 62
7
  6
CONTINUOUS
 10
7.1375346271
 20
16.067788548
 11
7.2150863916
 21
15.9902367834
  0
LINE
  5
36F
100
AcDbEntity
  8
0
100
AcDbLine
 62
7
  6
CONTINUOUS
 10
7.3739249539
 20
15.8313982212
 11
7.4514764574
 21
15.7538467176
  0
LINE
  5
370
100
AcDbEntity
  8
0
100
AcDbLine
 62
7
  6
CONTINUOUS
 10
7.6492077745
 20
15.5561154006
 11
7.7267580649
 21
15.4785651102
  0
LINE
  5
371
100
AcDbEntity
  8
0
100
AcDbLine
 62
7
  6
CONTINUOUS
 10
7.9446219731
 20
15.260701202
 11
8.022172274
 21
15.1831509011
  0
LINE
  5
372
100
AcDbEntity
  8
0
100
AcDbLine
 62
7
  6
CONTINUOUS
 10
8.2400361262
 20
14.9652870489
 11
8.3175865286
 21
14.8877366465
  0
LINE
  5
373
100
AcDbEntity
  8
0
100
AcDbLine
 62
7
  6
CONTINUOUS
 10
8.5153178063
 20
14.6900053687
 11
8.5928692765
 21
14.6124538986
  0
LINE
  5
374
100
AcDbEntity
  8
0
100
AcDbLine
 62
7
  6
CONTINUOUS
 10
8.7517078159
 20
14.4536153592
 11
8.8292596596
 21
14.3760635155
  0
LINE
  5
375
100
AcDbEntity
  8
0
100
AcDbLine
 62
7
  6
CONTINUOUS
 10
8.9330991171
 20
14.272224058
 11
9.010645513
 21
14.1946776621
  0
LINE
  5
376
100
AcDbEntity
  8
0
100
AcDbLine
 62
7
  6
CONTINUOUS
 10
9.0471175233
 20
14.1582056517
 11
9.1246783598
 21
14.0806448153
  0
LINE
  5
377
100
AcDbEntity
  8
0
100
AcDbLine
 62
9
  6
CONTINUOUS
 10
9.1385935185
 20
14.0748830741
 11
9.0413557821
 21
14.1721208104
  0
LINE
  5
378
100
AcDbEntity
  8
0
100
AcDbLine
 62
9
  6
CONTINUOUS
 10
9.0245678919
 20
14.1889087006
 11
8.9273301556
 21
14.286146437
  0
LINE
  5
379
100
AcDbEntity
  8
0
100
AcDbLine
 62
9
  6
CONTINUOUS
 10
8.8431793146
 20
14.3702972779
 11
8.7459415783
 21
14.4675350143
  0
LINE
  5
37A
100
AcDbEntity
  8
0
100
AcDbLine
 62
9
  6
CONTINUOUS
 10
8.6067891183
 20
14.6066874742
 11
8.509551382
 21
14.7039252106
  0
LINE
  5
37B
100
AcDbEntity
  8
0
100
AcDbLine
 62
9
  6
CONTINUOUS
 10
8.3315069043
 20
14.8819696882
 11
8.2342691679
 21
14.9792074246
  0
LINE
  5
37C
100
AcDbEntity
  8
0
100
AcDbLine
 62
9
  6
CONTINUOUS
 10
8.0360927005
 20
15.1773838921
 11
7.9388549641
 21
15.2746216285
  0
LINE
  5
37D
100
AcDbEntity
  8
0
100
AcDbLine
 62
9
  6
CONTINUOUS
 10
7.7406784966
 20
15.4727980959
 11
7.6434407602
 21
15.5700358323
  0
LINE
  5
37E
100
AcDbEntity
  8
0
100
AcDbLine
 62
9
  6
CONTINUOUS
 10
7.4653962826
 20
15.74808031
 11
7.3681585462
 21
15.8453180463
  0
LINE
  5
37F
100
AcDbEntity
  8
0
100
AcDbLine
 62
9
  6
CONTINUOUS
 10
7.2290060863
 20
15.9844705063
 11
7.1317683499
 21
16.0817082426
  0
LINE
  5
380
100
AcDbEntity
  8
0
100
AcDbLine
 62
9
  6
CONTINUOUS
 10
7.047617509
 20
16.1658590836
 11
6.9503797726
 21
16.2630968199
  0
LINE
  5
381
100
AcDbEntity
  8
0
100
AcDbLine
 62
9
  6
CONTINUOUS
 10
6.9335918824
 20
16.2798847101
 11
6.7974621283
 21
16.4160145008
  0
LINE
  5
382
100
AcDbEntity
  8
0
100
AcDbLine
 62
9
  6
CONTINUOUS
 10
7.2405368634
 20
15.9844705063
 11
7.1476971299
 21
16.0773102397
  0
LINE
  5
383
100
AcDbEntity
  8
0
100
AcDbLine
 62
9
  6
CONTINUOUS
 10
7.0591482861
 20
16.1658590836
 11
6.9576658814
 21
16.2673414882
  0
LINE
  5
384
100
AcDbEntity
  8
0
100
AcDbLine
 62
9
  6
CONTINUOUS
 10
6.7974621283
 20
16.4275457345
 11
6.9451226596
 21
16.2798847101
  0
LINE
  5
385
100
AcDbEntity
  8
0
100
AcDbLine
 62
9
  6
CONTINUOUS
 10
9.1501242956
 20
14.0748830741
 11
9.0413557821
 21
14.1836515876
  0
LINE
  5
386
100
AcDbEntity
  8
0
100
AcDbLine
 62
9
  6
CONTINUOUS
 10
9.0360986691
 20
14.1889087006
 11
8.9273301556
 21
14.2976772141
  0
LINE
  5
387
100
AcDbEntity
  8
0
100
AcDbLine
 62
9
  6
CONTINUOUS
 10
8.8547100917
 20
14.3702972779
 11
8.7459415783
 21
14.4790657914
  0
LINE
  5
388
100
AcDbEntity
  8
0
100
AcDbLine
 62
9
  6
CONTINUOUS
 10
8.6183198955
 20
14.6066874742
 11
8.509551382
 21
14.7154559877
  0
LINE
  5
389
100
AcDbEntity
  8
0
100
AcDbLine
 62
9
  6
CONTINUOUS
 10
8.3430376814
 20
14.8819696882
 11
8.2342691679
 21
14.9907382017
  0
LINE
  5
38A
100
AcDbEntity
  8
0
100
AcDbLine
 62
9
  6
CONTINUOUS
 10
8.0476234778
 20
15.1773838921
 11
7.9388549641
 21
15.2861524058
  0
LINE
  5
38B
100
AcDbEntity
  8
0
100
AcDbLine
 62
9
  6
CONTINUOUS
 10
7.7522092737
 20
15.4727980959
 11
7.6434407602
 21
15.5815666094
  0
LINE
  5
38C
100
AcDbEntity
  8
0
100
AcDbLine
 62
9
  6
CONTINUOUS
 10
7.4769270597
 20
15.74808031
 11
7.3681585462
 21
15.8568488235
  0
LINE
  5
38D
100
AcDbEntity
  8
0
100
AcDbLine
 62
9
  6
CONTINUOUS
 10
7.1476972536
 20
16.0773109608
 11
7.1317683499
 21
16.0932390197
  0
LINE
  5
38E
100
AcDbEntity
  8
0
100
AcDbLine
 62
9
  6
CONTINUOUS
 10
6.957665938
 20
16.2673422764
 11
6.9503797726
 21
16.274627597
  0
LINE
  5
38F
100
AcDbEntity
  8
0
100
AcDbLine
 62
9
  6
CONTINUOUS
 10
9.1640445652
 20
14.0806486886
 11
8.9330957701
 21
14.3115974837
  0
LINE
  5
390
100
AcDbEntity
  8
0
100
AcDbLine
 62
9
  6
CONTINUOUS
 10
8.8686303613
 20
14.3760628925
 11
8.7517071928
 21
14.492986061
  0
LINE
  5
391
100
AcDbEntity
  8
0
100
AcDbLine
 62
9
  6
CONTINUOUS
 10
8.6322401651
 20
14.6124530887
 11
8.5153169965
 21
14.7293762573
  0
LINE
  5
392
100
AcDbEntity
  8
0
100
AcDbLine
 62
9
  6
CONTINUOUS
 10
8.356957951
 20
14.8877353028
 11
8.2400347825
 21
15.0046584713
  0
LINE
  5
393
100
AcDbEntity
  8
0
100
AcDbLine
 62
9
  6
CONTINUOUS
 10
8.0615437472
 20
15.1831495066
 11
7.9446205786
 21
15.3000726752
  0
LINE
  5
394
100
AcDbEntity
  8
0
100
AcDbLine
 62
9
  6
CONTINUOUS
 10
7.7661295433
 20
15.4785637105
 11
7.6492063748
 21
15.595486879
  0
LINE
  5
395
100
AcDbEntity
  8
0
100
AcDbLine
 62
9
  6
CONTINUOUS
 10
7.4908473293
 20
15.7538459245
 11
7.3739241607
 21
15.8707690931
  0
LINE
  5
396
100
AcDbEntity
  8
0
100
AcDbLine
 62
9
  6
CONTINUOUS
 10
7.254457133
 20
15.9902361208
 11
7.1375339645
 21
16.1071592893
  0
LINE
  5
397
100
AcDbEntity
  8
0
100
AcDbLine
 62
9
  6
CONTINUOUS
 10
7.0730685557
 20
16.1716246981
 11
6.8032277429
 21
16.4414655109
  0
LINE
  5
398
100
AcDbEntity
  8
0
100
AcDbLine
 62
9
  6
CONTINUOUS
 10
8.0199788748
 20
14.821352026
 11
8.1923810167
 21
14.6489498841
  0
LINE
  5
399
100
AcDbEntity
  8
0
100
AcDbLine
 62
9
  6
CONTINUOUS
 10
8.3501995064
 20
14.6365929643
 11
8.5460288613
 21
14.4407636076
  0
LINE
  5
39A
100
AcDbEntity
  8
0
100
AcDbLine
 62
7
  6
CONTINUOUS
 10
8.756043639
 20
14.3520804375
 11
7.1135515095
 21
15.994572567
  0
LINE
  5
39B
100
AcDbEntity
  8
0
100
AcDbLine
 62
9
  6
CONTINUOUS
 10
8.8321652125
 20
14.322554748
 11
8.9795670395
 21
14.1751529309
  0
LINE
  5
39C
100
AcDbEntity
  8
0
100
AcDbLine
 62
7
  6
CONTINUOUS
 10
9.2749017631
 20
14.0191755689
 11
9.2747790103
 21
14.0193010383
  0
LINE
  5
39D
100
AcDbEntity
  8
0
100
AcDbLine
 62
7
  6
CONTINUOUS
 10
6.6159396707
 20
16.7182510625
 11
6.7151069057
 21
16.6081146903
  0
LINE
  5
39E
100
AcDbEntity
  8
0
100
AcDbLine
 62
7
  6
CONTINUOUS
 10
10.2895534361
 20
18.0710784309
 11
10.282890745
 21
18.0959439327
  0
LINE
  5
39F
100
AcDbEntity
  8
0
100
AcDbLine
 62
7
  6
CONTINUOUS
 10
10.1461280237
 20
17.9585215451
 11
10.1541942174
 21
17.9283537588
  0
LINE
  5
3A0
100
AcDbEntity
  8
0
100
AcDbLine
 62
7
  6
CONTINUOUS
 10
10.1957757648
 20
18.0081735545
 11
10.2032138813
 21
17.9803555048
  0
LINE
  5
3A1
100
AcDbEntity
  8
0
100
AcDbLine
 62
7
  6
CONTINUOUS
 10
10.245553509
 20
18.0579536785
 11
10.2524580792
 21
18.032131505
  0
LINE
  5
3A2
100
AcDbEntity
  8
0
100
AcDbLine
 62
7
  6
CONTINUOUS
 10
10.660007412
 20
17.32470682
 11
10.651724906
 21
17.3556872763
  0
LINE
  5
3A3
100
AcDbEntity
  8
0
100
AcDbLine
 62
7
  6
CONTINUOUS
 10
10.7112831209
 20
17.3759877367
 11
10.7035618006
 21
17.4048692602
  0
LINE
  5
3A4
100
AcDbEntity
  8
0
100
AcDbLine
 62
7
  6
CONTINUOUS
 10
10.7625427388
 20
17.4272408358
 11
10.7553688362
 21
17.4540738973
  0
LINE
  5
3A5
100
AcDbEntity
  8
0
100
AcDbLine
 62
7
  6
CONTINUOUS
 10
10.8138258132
 20
17.4785251248
 11
10.8072177988
 21
17.5032413814
  0
LINE
  5
3A6
100
AcDbEntity
  8
0
100
AcDbLine
 62
7
  6
CONTINUOUS
 10
13.4068926102
 20
4.703547804
 11
13.4068926102
 21
5.153547804
  0
LINE
  5
3A7
100
AcDbEntity
  8
0
100
AcDbLine
 62
7
  6
CONTINUOUS
 10
13.6188926102
 20
6.286047804
 11
13.6188926102
 21
7.911047804
  0
LINE
  5
3A8
100
AcDbEntity
  8
0
100
AcDbLine
 62
7
  6
CONTINUOUS
 10
13.7058926102
 20
6.2855451302
 11
13.7058926102
 21
7.9115504779
  0
LINE
  5
3A9
100
AcDbEntity
  8
0
100
AcDbLine
 62
7
  6
CONTINUOUS
 10
13.8938926102
 20
6.098547804
 11
13.8938926102
 21
8.098547804
  0
LINE
  5
3AA
100
AcDbEntity
  8
0
100
AcDbLine
 62
7
  6
CONTINUOUS
 10
13.9858926102
 20
4.704547804
 11
13.9858926102
 21
5.152547804
  0
LINE
  5
3AB
100
AcDbEntity
  8
0
100
AcDbLine
 62
9
  6
CONTINUOUS
 10
13.9978926102
 20
4.692547804
 11
13.9978926102
 21
5.164547804
  0
LINE
  5
3AC
100
AcDbEntity
  8
0
100
AcDbLine
 62
7
  6
CONTINUOUS
 10
14.4180355079
 20
19.5457627713
 11
14.4182233165
 21
19.5491143746
  0
LINE
  5
3AD
100
AcDbEntity
  8
0
100
AcDbLine
 62
7
  6
CONTINUOUS
 10
9.4797221345
 20
13.8544685987
 11
9.3695857623
 21
13.9536358337
  0
LINE
  5
3AE
100
AcDbEntity
  8
0
100
AcDbLine
 62
7
  6
CONTINUOUS
 10
6.7787274174
 20
16.5153499145
 11
9.2749017674
 21
14.0191755646
  0
LINE
  5
3AF
100
AcDbEntity
  8
0
100
AcDbLine
 62
7
  6
CONTINUOUS
 10
6.7775254029
 20
16.5168964728
 11
9.2764606525
 21
14.0179612233
  0
LINE
  5
3B0
100
AcDbEntity
  8
0
100
AcDbLine
 62
7
  6
CONTINUOUS
 10
9.3695857623
 20
13.9536358337
 11
6.7151069057
 21
16.6081146903
  0
LINE
  5
3B1
100
AcDbEntity
  8
0
100
AcDbLine
 62
9
  6
CONTINUOUS
 10
9.4797221345
 20
13.8544685987
 11
6.6159396707
 21
16.7182510625
  0
LINE
  5
3B2
100
AcDbEntity
  8
0
100
AcDbLine
 62
7
  6
CONTINUOUS
 10
9.6456509822
 20
13.8437096465
 11
6.6051807185
 21
16.8841799102
  0
LINE
  5
3B3
100
AcDbEntity
  8
0
100
AcDbLine
 62
9
  6
CONTINUOUS
 10
6.6896082926
 20
16.8995167389
 11
9.660987811
 21
13.9281372206
  0
LINE
  5
3B4
100
AcDbEntity
  8
0
100
AcDbLine
 62
9
  6
CONTINUOUS
 10
6.8126383913
 20
16.8827558416
 11
9.6442269136
 21
14.0511673193
  0
LINE
  5
3B5
100
AcDbEntity
  8
0
100
AcDbLine
 62
9
  6
CONTINUOUS
 10
9.7730276058
 20
14.3174796974
 11
7.0789507695
 21
17.0115565338
  0
LINE
  5
3B6
100
AcDbEntity
  8
0
100
AcDbLine
 62
9
  6
CONTINUOUS
 10
9.902462673
 20
14.4469147647
 11
7.2083858367
 21
17.140991601
  0
LINE
  5
3B7
100
AcDbEntity
  8
0
100
AcDbLine
 62
7
  6
CONTINUOUS
 10
14.0808926102
 20
9.8521259897
 11
14.0808926102
 21
4.3449696183
  0
LINE
  5
3B8
100
AcDbEntity
  8
0
100
AcDbLine
 62
9
  6
CONTINUOUS
 10
14.2088926102
 20
4.1267587112
 11
14.2088926102
 21
10.0703368969
  0
LINE
  5
3B9
100
AcDbEntity
  8
0
100
AcDbLine
 62
7
  6
CONTINUOUS
 10
14.336882775
 20
10.2916839345
 11
14.336882775
 21
3.9054116736
  0
LINE
  5
3BA
100
AcDbEntity
  8
0
100
AcDbLine
 62
7
  6
CONTINUOUS
 10
14.4180355079
 20
19.5457627713
 11
14.4180355079
 21
18.6516610116
  0
LINE
  5
3BB
100
AcDbEntity
  8
0
100
AcDbLine
 62
9
  6
CONTINUOUS
 10
14.4182233165
 20
18.6479812335
 11
14.4182233165
 21
19.5491143746
  0
LINE
  5
3BC
100
AcDbEntity
  8
0
100
AcDbLine
 62
9
  6
CONTINUOUS
 10
14.4608904151
 20
3.6894749982
 11
14.4608904151
 21
10.5076206099
  0
LINE
  5
3BD
100
AcDbEntity
  8
0
100
AcDbLine
 62
9
  6
CONTINUOUS
 10
14.5545470859
 20
17.9451525916
 11
14.5545470859
 21
20.2519430165
  0
LINE
  5
3BE
100
AcDbEntity
  8
0
100
AcDbLine
 62
7
  6
CONTINUOUS
 10
14.5848926102
 20
10.723547804
 11
14.5848926102
 21
3.473547804
  0
LINE
  5
3BF
100
AcDbEntity
  8
0
100
AcDbLine
 62
9
  6
CONTINUOUS
 10
14.602719363
 20
17.908547804
 11
14.602719363
 21
20.288547804
  0
LINE
  5
3C0
100
AcDbEntity
  8
0
100
AcDbLine
 62
7
  6
CONTINUOUS
 10
14.6468926102
 20
0.442547804
 11
14.6468926102
 21
-2.245452196
  0
LINE
  5
3C1
100
AcDbEntity
  8
0
100
AcDbLine
 62
9
  6
CONTINUOUS
 10
9.9194481964
 20
14.5268253695
 11
7.2882964415
 21
17.1579771244
  0
LINE
  5
3C2
100
AcDbEntity
  8
0
100
AcDbLine
 62
9
  6
CONTINUOUS
 10
7.5219507269
 20
17.0682856476
 11
9.8297567196
 21
14.7604796549
  0
LINE
  5
3C3
100
AcDbEntity
  8
0
100
AcDbLine
 62
9
  6
CONTINUOUS
 10
7.5432602215
 20
17.0728151205
 11
9.8342861925
 21
14.7817891495
  0
LINE
  5
3C4
100
AcDbEntity
  8
0
100
AcDbLine
 62
9
  6
CONTINUOUS
 10
9.8583196437
 20
14.8058226006
 11
7.5672936726
 21
17.0968485717
  0
LINE
  5
3C5
100
AcDbEntity
  8
0
100
AcDbLine
 62
9
  6
CONTINUOUS
 10
9.8610374085
 20
14.8307231635
 11
7.5921942355
 21
17.0995663365
  0
LINE
  5
3C6
100
AcDbEntity
  8
0
100
AcDbLine
 62
7
  6
CONTINUOUS
 10
14.4180355079
 20
18.6513328367
 11
14.4182233165
 21
18.6479812335
  0
LINE
  5
3C7
100
AcDbEntity
  8
0
100
AcDbLine
 62
7
  6
CONTINUOUS
 10
14.8348926102
 20
-2.268764196
 11
14.8348926102
 21
0.465859804
  0
LINE
  5
3C8
100
AcDbEntity
  8
0
100
AcDbLine
 62
7
  6
CONTINUOUS
 10
14.8348926102
 20
3.2235502776
 11
14.8348926102
 21
10.9735453305
  0
LINE
  5
3C9
100
AcDbEntity
  8
0
100
AcDbLine
 62
7
  6
CONTINUOUS
 10
14.8348926102
 20
17.908547804
 11
14.8348926102
 21
20.288547804
  0
LWPOLYLINE
  5
3CA
100
AcDbEntity
  8
0
100
AcDbPolyline
 62
7
  6
CONTINUOUS
 90
6
 70
0
 10
8.6025802708
 20
14.4658731294
 10
8.6034429951
 20
14.4655866948
 10
8.6040513208
 20
14.4653338291
 10
8.6044141789
 20
14.465158801
 10
8.6045841821
 20
14.465068314
 10
8.6046146344
 20
14.465051134
  0
LINE
  5
3CB
100
AcDbEntity
  8
0
100
AcDbLine
 62
7
  6
CONTINUOUS
 10
9.5904201628
 20
16.0157767442
 11
8.7772478162
 21
16.8289490908
  0
LINE
  5
3CC
100
AcDbEntity
  8
0
100
AcDbLine
 62
7
  6
CONTINUOUS
 10
9.3235148569
 20
17.1170680519
 11
9.2049294446
 21
17.2356534642
  0
LINE
  5
3CD
100
AcDbEntity
  8
0
100
AcDbLine
 62
7
  6
CONTINUOUS
 10
13.4068926102
 20
4.703547804
 11
13.1929065693
 21
4.4877215445
  0
LINE
  5
3CE
100
AcDbEntity
  8
0
100
AcDbLine
 62
7
  6
CONTINUOUS
 10
9.1501242956
 20
14.0748830741
 11
9.1385935185
 21
14.0748830741
  0
LINE
  5
3CF
100
AcDbEntity
  8
0
100
AcDbLine
 62
7
  6
CONTINUOUS
 10
8.9910983008
 20
14.1751529309
 11
8.9795670395
 21
14.1751529309
  0
LINE
  5
3D0
100
AcDbEntity
  8
0
100
AcDbLine
 62
7
  6
CONTINUOUS
 10
9.0360986691
 20
14.1889087006
 11
9.0245678919
 21
14.1889087006
  0
LINE
  5
3D1
100
AcDbEntity
  8
0
100
AcDbLine
 62
7
  6
CONTINUOUS
 10
8.9242308471
 20
14.2420203846
 11
8.9126995759
 21
14.2420203846
  0
LINE
  5
3D2
100
AcDbEntity
  8
0
100
AcDbLine
 62
7
  6
CONTINUOUS
 10
8.8547100917
 20
14.3702972779
 11
8.8431793146
 21
14.3702972779
  0
LINE
  5
3D3
100
AcDbEntity
  8
0
100
AcDbLine
 62
7
  6
CONTINUOUS
 10
8.7950528462
 20
14.3711983855
 11
8.783521575
 21
14.3711983855
  0
LINE
  5
3D4
100
AcDbEntity
  8
0
100
AcDbLine
 62
7
  6
CONTINUOUS
 10
8.5640831308
 20
14.4407636076
 11
8.5460288613
 21
14.4407636076
  0
LINE
  5
3D5
100
AcDbEntity
  8
0
100
AcDbLine
 62
7
  6
CONTINUOUS
 10
8.5223767589
 20
14.4824699796
 11
8.5043224913
 21
14.4824699796
  0
LINE
  5
3D6
100
AcDbEntity
  8
0
100
AcDbLine
 62
7
  6
CONTINUOUS
 10
8.6123675653
 20
14.5538836663
 11
8.6008362942
 21
14.5538836663
  0
LINE
  5
3D7
100
AcDbEntity
  8
0
100
AcDbLine
 62
7
  6
CONTINUOUS
 10
8.4455270171
 20
14.5593197213
 11
8.4274727494
 21
14.5593197213
  0
LINE
  5
3D8
100
AcDbEntity
  8
0
100
AcDbLine
 62
7
  6
CONTINUOUS
 10
8.6183198955
 20
14.6066874742
 11
8.6067891183
 21
14.6066874742
  0
LINE
  5
3D9
100
AcDbEntity
  8
0
100
AcDbLine
 62
7
  6
CONTINUOUS
 10
8.2039122916
 20
14.6489498841
 11
8.1923810167
 21
14.6489498841
  0
LINE
  5
3DA
100
AcDbEntity
  8
0
100
AcDbLine
 62
7
  6
CONTINUOUS
 10
10.2551007194
 20
16.6804569362
 11
9.4419280082
 21
17.4936296474
  0
LINE
  5
3DB
100
AcDbEntity
  8
0
100
AcDbLine
 62
9
  6
CONTINUOUS
 10
10.1706371137
 20
16.920386631
 11
9.681857703
 21
17.4091660417
  0
LINE
  5
3DC
100
AcDbEntity
  8
0
100
AcDbLine
 62
9
  6
CONTINUOUS
 10
10.2506371056
 20
17.0004227111
 11
9.7618937831
 21
17.4891660336
  0
LINE
  5
3DD
100
AcDbEntity
  8
0
100
AcDbLine
 62
9
  6
CONTINUOUS
 10
9.7618937831
 20
17.5624821984
 11
10.3239532704
 21
17.0004227111
  0
LINE
  5
3DE
100
AcDbEntity
  8
0
100
AcDbLine
 62
9
  6
CONTINUOUS
 10
9.8169577083
 20
17.6954182732
 11
9.8264801254
 21
17.6858958561
  0
LINE
  5
3DF
100
AcDbEntity
  8
0
100
AcDbLine
 62
9
  6
CONTINUOUS
 10
9.9146029091
 20
17.5977730724
 11
10.4568893452
 21
17.0554866363
  0
LINE
  5
3E0
100
AcDbEntity
  8
0
100
AcDbLine
 62
7
  6
CONTINUOUS
 10
9.9658705651
 20
17.8252862958
 11
10.0539933487
 21
17.7371635121
  0
LINE
  5
3E1
100
AcDbEntity
  8
0
100
AcDbLine
 62
7
  6
CONTINUOUS
 10
8.3886247045
 20
14.7776265271
 11
8.3770934334
 21
14.7776265271
  0
LINE
  5
3E2
100
AcDbEntity
  8
0
100
AcDbLine
 62
7
  6
CONTINUOUS
 10
8.0253769131
 20
14.827485265
 11
8.0138456359
 21
14.827485265
  0
LINE
  5
3E3
100
AcDbEntity
  8
0
100
AcDbLine
 62
7
  6
CONTINUOUS
 10
8.3430376814
 20
14.8819696882
 11
8.3315069043
 21
14.8819696882
  0
LINE
  5
3E4
100
AcDbEntity
  8
0
100
AcDbLine
 62
7
  6
CONTINUOUS
 10
8.0365015767
 20
14.9683451617
 11
8.0184473091
 21
14.9683451617
  0
LINE
  5
3E5
100
AcDbEntity
  8
0
100
AcDbLine
 62
7
  6
CONTINUOUS
 10
8.1390719699
 20
15.0271792616
 11
8.1275406989
 21
15.0271792616
  0
LINE
  5
3E6
100
AcDbEntity
  8
0
100
AcDbLine
 62
7
  6
CONTINUOUS
 10
7.7728897538
 20
15.0799724219
 11
7.7613584789
 21
15.0799724219
  0
LINE
  5
3E7
100
AcDbEntity
  8
0
100
AcDbLine
 62
7
  6
CONTINUOUS
 10
7.8805858083
 20
15.1242609301
 11
7.8625315406
 21
15.1242609301
  0
LINE
  5
3E8
100
AcDbEntity
  8
0
100
AcDbLine
 62
7
  6
CONTINUOUS
 10
8.0476234778
 20
15.1773838921
 11
8.0360927005
 21
15.1773838921
  0
LINE
  5
3E9
100
AcDbEntity
  8
0
100
AcDbLine
 62
7
  6
CONTINUOUS
 10
7.588956337
 20
15.2585078028
 11
7.582823098
 21
15.2585078028
  0
LINE
  5
3EA
100
AcDbEntity
  8
0
100
AcDbLine
 62
7
  6
CONTINUOUS
 10
7.7276545381
 20
15.2771922002
 11
7.7096002712
 21
15.2771922002
  0
LINE
  5
3EB
100
AcDbEntity
  8
0
100
AcDbLine
 62
7
  6
CONTINUOUS
 10
7.8807159682
 20
15.2855352635
 11
7.869184697
 21
15.2855352635
  0
LINE
  5
3EC
100
AcDbEntity
  8
0
100
AcDbLine
 62
7
  6
CONTINUOUS
 10
7.7522092737
 20
15.4727980959
 11
7.7406784966
 21
15.4727980959
  0
LINE
  5
3ED
100
AcDbEntity
  8
0
100
AcDbLine
 62
7
  6
CONTINUOUS
 10
7.5219507269
 20
17.0682856476
 11
7.2882964415
 21
17.1579771244
  0
LINE
  5
3EE
100
AcDbEntity
  8
0
100
AcDbLine
 62
7
  6
CONTINUOUS
 10
10.6846676682
 20
17.283265888
 11
10.04473696
 21
17.9231965962
  0
LINE
  5
3EF
100
AcDbEntity
  8
0
100
AcDbLine
 62
7
  6
CONTINUOUS
 10
10.2520590072
 20
18.0651121949
 11
10.3424261057
 21
17.9747450965
  0
LINE
  5
3F0
100
AcDbEntity
  8
0
100
AcDbLine
 62
7
  6
CONTINUOUS
 10
10.8198304795
 20
17.5155435334
 11
10.276924509
 21
18.0584495038
  0
LINE
  5
3F1
100
AcDbEntity
  8
0
100
AcDbLine
 62
7
  6
CONTINUOUS
 10
10.8325495029
 20
17.5280823641
 11
10.2895534361
 21
18.0710784309
  0
LINE
  5
3F2
100
AcDbEntity
  8
0
100
AcDbLine
 62
7
  6
CONTINUOUS
 10
10.8574150047
 20
17.521419673
 11
10.282890745
 21
18.0959439327
  0
LWPOLYLINE
  5
3F3
100
AcDbEntity
  8
0
100
AcDbPolyline
 62
7
  6
CONTINUOUS
 90
10
 70
0
 10
7.6611456196
 20
0.5983442632
 10
7.654079362
 20
0.5953220297
 10
7.6474370748
 20
0.5914551204
 10
7.6413196366
 20
0.5868021637
 10
7.6358195616
 20
0.5814335239
 10
7.631020029
 20
0.5754303904
 10
7.6269936222
 20
0.5688835485
 10
7.6238012321
 20
0.5618920065
 10
7.6214911351
 20
0.5545614959
 10
7.6205930242
 20
0.5503300893
  0
LWPOLYLINE
  5
3F4
100
AcDbEntity
  8
0
100
AcDbPolyline
 62
7
  6
CONTINUOUS
 90
8
 70
0
 10
7.3828146161
 20
15.6534390318
 10
7.3845765437
 20
15.6534911012
 10
7.3860526665
 20
15.6533185078
 10
7.387274667
 20
15.6530153107
 10
7.3882420823
 20
15.652656432
 10
7.388897285
 20
15.6523393035
 10
7.3892382658
 20
15.6521409901
 10
7.3893106981
 20
15.6520941016
  0
LINE
  5
3F5
100
AcDbEntity
  8
0
100
AcDbLine
 62
7
  6
CONTINUOUS
 10
7.6311632337
 20
15.535087998
 11
7.6196319625
 21
15.535087998
  0
LINE
  5
3F6
100
AcDbEntity
  8
0
100
AcDbLine
 62
7
  6
CONTINUOUS
 10
7.3628753524
 20
15.641971386
 11
7.3448210847
 21
15.641971386
  0
LINE
  5
3F7
100
AcDbEntity
  8
0
100
AcDbLine
 62
7
  6
CONTINUOUS
 10
7.4769270597
 20
15.74808031
 11
7.4653962826
 21
15.74808031
  0
LINE
  5
3F8
100
AcDbEntity
  8
0
100
AcDbLine
 62
7
  6
CONTINUOUS
 10
7.4074203729
 20
15.7588308588
 11
7.3958891017
 21
15.7588308588
  0
LINE
  5
3F9
100
AcDbEntity
  8
0
100
AcDbLine
 62
7
  6
CONTINUOUS
 10
7.224735092
 20
15.9415161396
 11
7.2132038209
 21
15.9415161396
  0
LINE
  5
3FA
100
AcDbEntity
  8
0
100
AcDbLine
 62
7
  6
CONTINUOUS
 10
7.2405368634
 20
15.9844705063
 11
7.2290060863
 21
15.9844705063
  0
LINE
  5
3FB
100
AcDbEntity
  8
0
100
AcDbLine
 62
7
  6
CONTINUOUS
 10
7.0955570911
 20
16.0706941405
 11
7.08402582
 21
16.0706941405
  0
LINE
  5
3FC
100
AcDbEntity
  8
0
100
AcDbLine
 62
7
  6
CONTINUOUS
 10
7.0591482861
 20
16.1658590836
 11
7.047617509
 21
16.1658590836
  0
LINE
  5
3FD
100
AcDbEntity
  8
0
100
AcDbLine
 62
7
  6
CONTINUOUS
 10
6.9451226596
 20
16.2798847101
 11
6.9335918824
 21
16.2798847101
  0
LINE
  5
3FE
100
AcDbEntity
  8
0
100
AcDbLine
 62
9
  6
CONTINUOUS
 10
11.634717873
 20
18.2987225413
 11
11.0601936133
 21
18.873246801
  0
LINE
  5
3FF
100
AcDbEntity
  8
0
100
AcDbLine
 62
7
  6
CONTINUOUS
 10
10.3239532704
 20
17.0004227111
 11
10.2506371056
 21
17.0004227111
  0
LINE
  5
400
100
AcDbEntity
  8
0
100
AcDbLine
 62
7
  6
CONTINUOUS
 10
10.6633257571
 20
17.3681935926
 11
10.6950527715
 21
17.3597103679
  0
LWPOLYLINE
  5
401
100
AcDbEntity
  8
0
100
AcDbPolyline
 62
7
  6
CONTINUOUS
 90
5
 70
0
 10
9.0063355321
 20
-0.2309213643
 10
9.0274277017
 20
-0.2243322254
 10
9.0490313279
 20
-0.2196346339
 10
9.0709788127
 20
-0.216868069
 10
9.0904350144
 20
-0.2160510032
  0
LINE
  5
402
100
AcDbEntity
  8
0
100
AcDbLine
 62
7
  6
CONTINUOUS
 10
10.6950527715
 20
17.3597103679
 11
10.6957565604
 21
17.3597612287
  0
LINE
  5
403
100
AcDbEntity
  8
0
100
AcDbLine
 62
7
  6
CONTINUOUS
 10
10.7448005488
 20
17.4094527472
 11
10.7454985407
 21
17.409503209
  0
LINE
  5
404
100
AcDbEntity
  8
0
100
AcDbLine
 62
7
  6
CONTINUOUS
 10
10.794550424
 20
17.4592093643
 11
10.7952556574
 21
17.4592603257
  0
LINE
  5
405
100
AcDbEntity
  8
0
100
AcDbLine
 62
7
  6
CONTINUOUS
 10
10.8198304795
 20
17.5155435334
 11
10.819646814
 21
17.5155320955
  0
LINE
  5
406
100
AcDbEntity
  8
0
100
AcDbLine
 62
7
  6
CONTINUOUS
 10
14.602719363
 20
17.908547804
 11
14.8348926102
 21
17.908547804
  0
LINE
  5
407
100
AcDbEntity
  8
0
100
AcDbLine
 62
7
  6
CONTINUOUS
 10
10.7151678538
 20
17.4173762093
 11
10.7448005478
 21
17.4094527462
  0
LINE
  5
408
100
AcDbEntity
  8
0
100
AcDbLine
 62
7
  6
CONTINUOUS
 10
10.7669796535
 20
17.4665814056
 11
10.794550424
 21
17.4592093643
  0
LINE
  5
409
100
AcDbEntity
  8
0
100
AcDbLine
 62
7
  6
CONTINUOUS
 10
10.1425916669
 20
17.9158472959
 11
10.1117331388
 21
17.9240973739
  0
LINE
  5
40A
100
AcDbEntity
  8
0
100
AcDbLine
 62
7
  6
CONTINUOUS
 10
10.1916051751
 20
17.9678483081
 11
10.1631064513
 21
17.9754675052
  0
LINE
  5
40B
100
AcDbEntity
  8
0
100
AcDbLine
 62
7
  6
CONTINUOUS
 10
10.2408446399
 20
18.0196237446
 11
10.2143489376
 21
18.0267074455
  0
LINE
  5
40C
100
AcDbEntity
  8
0
100
AcDbLine
 62
7
  6
CONTINUOUS
 10
10.8325495029
 20
17.5280823641
 11
10.8574150047
 21
17.521419673
  0
LINE
  5
40D
100
AcDbEntity
  8
0
100
AcDbLine
 62
7
  6
CONTINUOUS
 10
10.2520590072
 20
18.0651121949
 11
10.276924509
 21
18.0584495038
  0
LINE
  5
40E
100
AcDbEntity
  8
0
100
AcDbLine
 62
7
  6
CONTINUOUS
 10
10.1117331397
 20
17.9240973749
 11
10.1109905794
 21
17.9240437671
  0
LINE
  5
40F
100
AcDbEntity
  8
0
100
AcDbLine
 62
7
  6
CONTINUOUS
 10
10.1631064511
 20
17.9754675049
 11
10.1623603752
 21
17.9754135629
  0
LINE
  5
410
100
AcDbEntity
  8
0
100
AcDbLine
 62
7
  6
CONTINUOUS
 10
10.2143489376
 20
18.0267074455
 11
10.2136001223
 21
18.02665331
  0
LINE
  5
411
100
AcDbEntity
  8
0
100
AcDbLine
 62
7
  6
CONTINUOUS
 10
14.4180355079
 20
18.692297804
 11
12.5848926102
 21
18.692297804
  0
LINE
  5
412
100
AcDbEntity
  8
0
100
AcDbLine
 62
7
  6
CONTINUOUS
 10
14.4180355079
 20
19.504797804
 11
12.5848926102
 21
19.504797804
  0
LINE
  5
413
100
AcDbEntity
  8
0
100
AcDbLine
 62
7
  6
CONTINUOUS
 10
14.602719363
 20
20.288547804
 11
14.8348926102
 21
20.288547804
  0
ARC
  5
414
100
AcDbEntity
  8
0
100
AcDbCircle
 62
7
  6
CONTINUOUS
 10
10.0956924514
 20
-7.0558676053
 40
8.10191807
100
AcDbArc
 50
87.7647939784
 51
89.8255690871
  0
ARC
  5
415
100
AcDbEntity
  8
0
100
AcDbCircle
 62
7
  6
CONTINUOUS
 10
10.4045968017
 20
-7.0125985087
 40
8.0896873758
100
AcDbArc
 50
105.2305457223
 51
106.3239689975
  0
ARC
  5
416
100
AcDbEntity
  8
0
100
AcDbCircle
 62
7
  6
CONTINUOUS
 10
10.0976557654
 20
-5.2522670626
 40
6.2983148679
100
AcDbArc
 50
90.0069424239
 51
92.0983326892
  0
ARC
  5
417
100
AcDbEntity
  8
0
100
AcDbCircle
 62
7
  6
CONTINUOUS
 10
9.1091968296
 20
-5.7922017799
 40
5.5764169903
100
AcDbArc
 50
79.7979384938
 51
80.0003803849
  0
ARC
  5
418
100
AcDbEntity
  8
0
100
AcDbCircle
 62
9
  6
CONTINUOUS
 10
9.1906130911
 20
-5.5179701755
 40
5.4451264783
100
AcDbArc
 50
80.2062285397
 51
80.4191810241
  0
ARC
  5
419
100
AcDbEntity
  8
0
100
AcDbCircle
 62
7
  6
CONTINUOUS
 10
12.102751087
 20
3.6973580038
 40
3.0
100
AcDbArc
 50
59.6433854291
 51
85.7343714095
  0
ARC
  5
41A
100
AcDbEntity
  8
0
100
AcDbCircle
 62
7
  6
CONTINUOUS
 10
11.2657362073
 20
6.321047804
 40
0.54
100
AcDbArc
 50
58.8652784311
 51
90.0
  0
ARC
  5
41B
100
AcDbEntity
  8
0
100
AcDbCircle
 62
7
  6
CONTINUOUS
 10
10.4108926102
 20
2.978547804
 40
0.4375
100
AcDbArc
 50
193.6715038208
 51
346.3284961792
  0
ARC
  5
41C
100
AcDbEntity
  8
0
100
AcDbCircle
 62
7
  6
CONTINUOUS
 10
9.0932703276
 20
-0.4666847492
 40
0.2519052518
100
AcDbArc
 50
168.1344486683
 51
169.1913680036
  0
ARC
  5
41D
100
AcDbEntity
  8
0
100
AcDbCircle
 62
7
  6
CONTINUOUS
 10
10.0205551102
 20
6.182547804
 40
0.1653375
100
AcDbArc
 50
298.3243361106
 51
356.7304834094
  0
ARC
  5
41E
100
AcDbEntity
  8
0
100
AcDbCircle
 62
7
  6
CONTINUOUS
 10
10.8012301102
 20
6.182547804
 40
0.1653375
100
AcDbArc
 50
183.2695165906
 51
241.6756638894
  0
ARC
  5
41F
100
AcDbEntity
  8
0
100
AcDbCircle
 62
7
  6
CONTINUOUS
 10
10.6928926102
 20
5.981547804
 40
0.063
100
AcDbArc
 50
270.0
 51
61.6756638894
  0
ARC
  5
420
100
AcDbEntity
  8
0
100
AcDbCircle
 62
7
  6
CONTINUOUS
 10
10.1288926102
 20
5.981547804
 40
0.063
100
AcDbArc
 50
118.3243361106
 51
270.0
  0
ARC
  5
421
100
AcDbEntity
  8
0
100
AcDbCircle
 62
7
  6
CONTINUOUS
 10
10.1956072136
 20
6.172547804
 40
0.01
100
AcDbArc
 50
90.0
 51
176.7304834037
  0
ARC
  5
422
100
AcDbEntity
  8
0
100
AcDbCircle
 62
7
  6
CONTINUOUS
 10
10.6261780068
 20
6.172547804
 40
0.01
100
AcDbArc
 50
3.2695165963
 51
90.0
  0
ARC
  5
423
100
AcDbEntity
  8
0
100
AcDbCircle
 62
7
  6
CONTINUOUS
 10
6.398433743
 20
15.6834097244
 40
0.8340482011
100
AcDbArc
 50
35.7808177884
 51
35.8944145478
  0
ARC
  5
424
100
AcDbEntity
  8
0
100
AcDbCircle
 62
7
  6
CONTINUOUS
 10
7.1514533893
 20
16.0932398645
 40
0.0196850394
100
AcDbArc
 50
135.0
 51
180.0024588136
  0
ARC
  5
425
100
AcDbEntity
  8
0
100
AcDbCircle
 62
7
  6
CONTINUOUS
 10
7.1514533893
 20
16.0817086354
 40
0.0196850394
100
AcDbArc
 50
180.0011432902
 51
225.00183548
  0
ARC
  5
426
100
AcDbEntity
  8
0
100
AcDbCircle
 62
7
  6
CONTINUOUS
 10
7.1523544969
 20
16.0335821881
 40
0.0196850394
100
AcDbArc
 50
135.0
 51
180.0012047959
  0
ARC
  5
427
100
AcDbEntity
  8
0
100
AcDbCircle
 62
7
  6
CONTINUOUS
 10
7.1523544969
 20
16.022050959
 40
0.0196850394
100
AcDbArc
 50
180.0013272051
 51
225.00464724
  0
ARC
  5
428
100
AcDbEntity
  8
0
100
AcDbCircle
 62
7
  6
CONTINUOUS
 10
7.084026276
 20
16.0903791799
 40
0.0196850394
100
AcDbArc
 50
224.9939188646
 51
269.998672795
  0
ARC
  5
429
100
AcDbEntity
  8
0
100
AcDbCircle
 62
7
  6
CONTINUOUS
 10
7.095557505
 20
16.0903791799
 40
0.0196850394
100
AcDbArc
 50
269.9987952045
 51
315.0
  0
ARC
  5
42A
100
AcDbEntity
  8
0
100
AcDbCircle
 62
7
  6
CONTINUOUS
 10
7.0644132658
 20
16.0859516688
 40
0.0078740157
100
AcDbArc
 50
155.0338927671
 51
214.8534612382
  0
ARC
  5
42B
100
AcDbEntity
  8
0
100
AcDbCircle
 62
7
  6
CONTINUOUS
 10
7.4287508259
 20
15.4432756687
 40
0.2686216808
100
AcDbArc
 50
34.6111159382
 51
34.9877794476
  0
ARC
  5
42C
100
AcDbEntity
  8
0
100
AcDbCircle
 62
9
  6
CONTINUOUS
 10
7.9384094063
 20
15.1931862141
 40
0.0607324941
100
AcDbArc
 50
238.5888311084
 51
239.4582689409
  0
ARC
  5
42D
100
AcDbEntity
  8
0
100
AcDbCircle
 62
9
  6
CONTINUOUS
 10
7.7856330203
 20
15.3418452598
 40
0.0592556947
100
AcDbArc
 50
236.348281143
 51
237.4599833575
  0
ARC
  5
42E
100
AcDbEntity
  8
0
100
AcDbCircle
 62
7
  6
CONTINUOUS
 10
7.7522101185
 20
15.4924831353
 40
0.0196850394
100
AcDbArc
 50
269.9975411861
 51
315.0
  0
ARC
  5
42F
100
AcDbEntity
  8
0
100
AcDbCircle
 62
7
  6
CONTINUOUS
 10
7.7406788894
 20
15.4924831353
 40
0.0196850394
100
AcDbArc
 50
224.9958655024
 51
269.9988567095
  0
ARC
  5
430
100
AcDbEntity
  8
0
100
AcDbCircle
 62
7
  6
CONTINUOUS
 10
7.869185153
 20
15.3052203028
 40
0.0196850394
100
AcDbArc
 50
224.9976249033
 51
269.9986727883
  0
ARC
  5
431
100
AcDbEntity
  8
0
100
AcDbCircle
 62
7
  6
CONTINUOUS
 10
7.8807163821
 20
15.3052203028
 40
0.0196850394
100
AcDbArc
 50
269.9987952044
 51
315.0
  0
ARC
  5
432
100
AcDbEntity
  8
0
100
AcDbCircle
 62
7
  6
CONTINUOUS
 10
7.808335373
 20
15.3776013119
 40
0.0196850394
100
AcDbArc
 50
135.0
 51
180.0012047956
  0
ARC
  5
433
100
AcDbEntity
  8
0
100
AcDbCircle
 62
7
  6
CONTINUOUS
 10
7.808335373
 20
15.3660700828
 40
0.0196850394
100
AcDbArc
 50
180.0013272117
 51
225.0023750967
  0
ARC
  5
434
100
AcDbEntity
  8
0
100
AcDbCircle
 62
7
  6
CONTINUOUS
 10
7.8217584545
 20
15.0114195173
 40
0.0196850394
100
AcDbArc
 50
359.9975750785
 51
44.9960818716
  0
ARC
  5
435
100
AcDbEntity
  8
0
100
AcDbCircle
 62
7
  6
CONTINUOUS
 10
7.8611285333
 20
14.9998882882
 40
0.0196850394
100
AcDbArc
 50
180.0025651318
 51
225.0041748092
  0
ARC
  5
436
100
AcDbEntity
  8
0
100
AcDbCircle
 62
7
  6
CONTINUOUS
 10
7.7613593602
 20
15.0996574613
 40
0.0196850394
100
AcDbArc
 50
224.9958502723
 51
269.9974348102
  0
ARC
  5
437
100
AcDbEntity
  8
0
100
AcDbCircle
 62
7
  6
CONTINUOUS
 10
7.7728905893
 20
15.0602873825
 40
0.0196850394
100
AcDbArc
 50
45.00392895
 51
90.0024317524
  0
ARC
  5
438
100
AcDbEntity
  8
0
100
AcDbCircle
 62
7
  6
CONTINUOUS
 10
7.5692712976
 20
15.2639066742
 40
0.0196850394
100
AcDbArc
 50
359.9975682479
 51
44.9960710504
  0
ARC
  5
439
100
AcDbEntity
  8
0
100
AcDbCircle
 62
7
  6
CONTINUOUS
 10
7.6086413763
 20
15.2523754452
 40
0.0196850394
100
AcDbArc
 50
180.0025651901
 51
225.0041497282
  0
ARC
  5
43A
100
AcDbEntity
  8
0
100
AcDbCircle
 62
7
  6
CONTINUOUS
 10
7.5828239793
 20
15.2781928421
 40
0.0196850394
100
AcDbArc
 50
224.9862190795
 51
269.9974348681
  0
ARC
  5
43B
100
AcDbEntity
  8
0
100
AcDbCircle
 62
7
  6
CONTINUOUS
 10
7.3907359167
 20
15.4424420551
 40
0.0196850394
100
AcDbArc
 50
359.9975750784
 51
44.9960818714
  0
ARC
  5
43C
100
AcDbEntity
  8
0
100
AcDbCircle
 62
7
  6
CONTINUOUS
 10
7.4301059955
 20
15.430910826
 40
0.0196850394
100
AcDbArc
 50
180.0025651318
 51
225.0137809205
  0
ARC
  5
43D
100
AcDbEntity
  8
0
100
AcDbCircle
 62
7
  6
CONTINUOUS
 10
7.370154563
 20
15.5187011081
 40
0.0196850394
100
AcDbArc
 50
155.0000948195
 51
224.9997561633
  0
ARC
  5
43E
100
AcDbEntity
  8
0
100
AcDbCircle
 62
7
  6
CONTINUOUS
 10
7.8625315928
 20
15.1360719538
 40
0.0118110236
100
AcDbArc
 50
224.9958316547
 51
269.999746835
  0
ARC
  5
43F
100
AcDbEntity
  8
0
100
AcDbCircle
 62
7
  6
CONTINUOUS
 10
7.8805858701
 20
15.1360719538
 40
0.0118110236
100
AcDbArc
 50
269.9997000112
 51
315.0
  0
ARC
  5
440
100
AcDbEntity
  8
0
100
AcDbCircle
 62
7
  6
CONTINUOUS
 10
7.7970693211
 20
15.2195885027
 40
0.0118110236
100
AcDbArc
 50
135.0
 51
180.0002999888
  0
ARC
  5
441
100
AcDbEntity
  8
0
100
AcDbCircle
 62
7
  6
CONTINUOUS
 10
7.7970693211
 20
15.2015342254
 40
0.0118110236
100
AcDbArc
 50
180.0002531649
 51
225.0041683452
  0
ARC
  5
442
100
AcDbEntity
  8
0
100
AcDbCircle
 62
7
  6
CONTINUOUS
 10
7.7096003227
 20
15.2890032238
 40
0.0118110236
100
AcDbArc
 50
224.9936484249
 51
269.9997499651
  0
ARC
  5
443
100
AcDbEntity
  8
0
100
AcDbCircle
 62
7
  6
CONTINUOUS
 10
7.7276546001
 20
15.2890032238
 40
0.0118110236
100
AcDbArc
 50
269.9996996385
 51
315.0
  0
ARC
  5
444
100
AcDbEntity
  8
0
100
AcDbCircle
 62
7
  6
CONTINUOUS
 10
7.6441380511
 20
15.3725197728
 40
0.0118110236
100
AcDbArc
 50
135.0
 51
180.0003003629
  0
ARC
  5
445
100
AcDbEntity
  8
0
100
AcDbCircle
 62
7
  6
CONTINUOUS
 10
7.6441380511
 20
15.3544654954
 40
0.0118110236
100
AcDbArc
 50
180.0002500349
 51
225.0063515751
  0
ARC
  5
446
100
AcDbEntity
  8
0
100
AcDbCircle
 62
7
  6
CONTINUOUS
 10
7.2035522836
 20
15.7081041349
 40
0.2417411531
100
AcDbArc
 50
43.7221755226
 51
44.9889813403
  0
ARC
  5
447
100
AcDbEntity
  8
0
100
AcDbCircle
 62
7
  6
CONTINUOUS
 10
7.3516965851
 20
15.6188541607
 40
0.0393700787
100
AcDbArc
 50
334.9999170079
 51
39.208519173
  0
ARC
  5
448
100
AcDbEntity
  8
0
100
AcDbCircle
 62
7
  6
CONTINUOUS
 10
7.6631257996
 20
15.5815674542
 40
0.0196850394
100
AcDbArc
 50
135.0
 51
180.0024588139
  0
ARC
  5
449
100
AcDbEntity
  8
0
100
AcDbCircle
 62
7
  6
CONTINUOUS
 10
7.6631257996
 20
15.5700362251
 40
0.0196850394
100
AcDbArc
 50
180.0011432895
 51
225.0041344961
  0
ARC
  5
44A
100
AcDbEntity
  8
0
100
AcDbCircle
 62
7
  6
CONTINUOUS
 10
7.4769279045
 20
15.7677653493
 40
0.0196850394
100
AcDbArc
 50
269.9975411859
 51
315.0
  0
ARC
  5
44B
100
AcDbEntity
  8
0
100
AcDbCircle
 62
7
  6
CONTINUOUS
 10
7.3878435856
 20
15.8568496682
 40
0.0196850394
100
AcDbArc
 50
135.0
 51
180.0024588141
  0
ARC
  5
44C
100
AcDbEntity
  8
0
100
AcDbCircle
 62
7
  6
CONTINUOUS
 10
7.3878435856
 20
15.8453184391
 40
0.0196850394
100
AcDbArc
 50
180.00114329
 51
225.0027777387
  0
ARC
  5
44D
100
AcDbEntity
  8
0
100
AcDbCircle
 62
7
  6
CONTINUOUS
 10
7.4653966754
 20
15.7677653493
 40
0.0196850394
100
AcDbArc
 50
224.9972222613
 51
269.99885671
  0
ARC
  5
44E
100
AcDbEntity
  8
0
100
AcDbCircle
 62
7
  6
CONTINUOUS
 10
7.2405377082
 20
16.0041555456
 40
0.0196850394
100
AcDbArc
 50
269.9975411859
 51
315.0
  0
ARC
  5
44F
100
AcDbEntity
  8
0
100
AcDbCircle
 62
7
  6
CONTINUOUS
 10
7.2290064791
 20
16.0041555456
 40
0.0196850394
100
AcDbArc
 50
224.99816452
 51
269.9988567098
  0
ARC
  5
450
100
AcDbEntity
  8
0
100
AcDbCircle
 62
7
  6
CONTINUOUS
 10
7.224735506
 20
15.961201179
 40
0.0196850394
100
AcDbArc
 50
269.9987952046
 51
315.0
  0
ARC
  5
451
100
AcDbEntity
  8
0
100
AcDbCircle
 62
7
  6
CONTINUOUS
 10
7.2132042769
 20
15.961201179
 40
0.0196850394
100
AcDbArc
 50
224.99535276
 51
269.9986727949
  0
ARC
  5
452
100
AcDbEntity
  8
0
100
AcDbCircle
 62
7
  6
CONTINUOUS
 10
7.5587826385
 20
15.6271540465
 40
0.0196850394
100
AcDbArc
 50
135.0
 51
180.0012047948
  0
ARC
  5
453
100
AcDbEntity
  8
0
100
AcDbCircle
 62
7
  6
CONTINUOUS
 10
7.6311636476
 20
15.5547730374
 40
0.0196850394
100
AcDbArc
 50
269.9987952044
 51
315.0
  0
ARC
  5
454
100
AcDbEntity
  8
0
100
AcDbCircle
 62
7
  6
CONTINUOUS
 10
7.6196324185
 20
15.5547730374
 40
0.0196850394
100
AcDbArc
 50
224.9958104251
 51
269.998672795
  0
ARC
  5
455
100
AcDbEntity
  8
0
100
AcDbCircle
 62
7
  6
CONTINUOUS
 10
7.5587826385
 20
15.6156228174
 40
0.0196850394
100
AcDbArc
 50
180.0013272057
 51
225.0041895759
  0
ARC
  5
456
100
AcDbEntity
  8
0
100
AcDbCircle
 62
7
  6
CONTINUOUS
 10
7.3958895577
 20
15.7785158982
 40
0.0196850394
100
AcDbArc
 50
224.9978408484
 51
269.9986727948
  0
ARC
  5
457
100
AcDbEntity
  8
0
100
AcDbCircle
 62
7
  6
CONTINUOUS
 10
7.4074207868
 20
15.7785158982
 40
0.0196850394
100
AcDbArc
 50
269.9987952051
 51
315.0
  0
ARC
  5
458
100
AcDbEntity
  8
0
100
AcDbCircle
 62
7
  6
CONTINUOUS
 10
7.3350397777
 20
15.8508969073
 40
0.0196850394
100
AcDbArc
 50
135.0
 51
180.0012047956
  0
ARC
  5
459
100
AcDbEntity
  8
0
100
AcDbCircle
 62
7
  6
CONTINUOUS
 10
7.3350397777
 20
15.8393656782
 40
0.0196850394
100
AcDbArc
 50
180.0013272052
 51
225.0021591516
  0
ARC
  5
45A
100
AcDbEntity
  8
0
100
AcDbCircle
 62
7
  6
CONTINUOUS
 10
7.390616517
 20
15.6079870295
 40
0.0118110236
100
AcDbArc
 50
180.0002531639
 51
225.0004233584
  0
ARC
  5
45B
100
AcDbEntity
  8
0
100
AcDbCircle
 62
7
  6
CONTINUOUS
 10
7.390616517
 20
15.6260413068
 40
0.0118110236
100
AcDbArc
 50
135.0
 51
180.0002999894
  0
ARC
  5
45C
100
AcDbEntity
  8
0
100
AcDbCircle
 62
7
  6
CONTINUOUS
 10
7.224703993
 20
15.7919538309
 40
0.0118110236
100
AcDbArc
 50
135.0
 51
180.0002999879
  0
ARC
  5
45D
100
AcDbEntity
  8
0
100
AcDbCircle
 62
7
  6
CONTINUOUS
 10
7.224703993
 20
15.7738995536
 40
0.0118110236
100
AcDbArc
 50
180.0002531652
 51
224.9692948978
  0
ARC
  5
45E
100
AcDbEntity
  8
0
100
AcDbCircle
 62
7
  6
CONTINUOUS
 10
7.2070370118
 20
15.7915665347
 40
0.0118110236
100
AcDbArc
 50
180.0002531643
 51
224.9948564502
  0
ARC
  5
45F
100
AcDbEntity
  8
0
100
AcDbCircle
 62
7
  6
CONTINUOUS
 10
7.2070370118
 20
15.809620812
 40
0.0118110236
100
AcDbArc
 50
135.0
 51
180.0002999892
  0
ARC
  5
460
100
AcDbEntity
  8
0
100
AcDbCircle
 62
7
  6
CONTINUOUS
 10
7.3448211369
 20
15.6537824096
 40
0.0118110236
100
AcDbArc
 50
224.9818568019
 51
269.9997468346
  0
ARC
  5
461
100
AcDbEntity
  8
0
100
AcDbCircle
 62
7
  6
CONTINUOUS
 10
7.3628754142
 20
15.6537824096
 40
0.0118110236
100
AcDbArc
 50
269.9997000108
 51
315.0
  0
ARC
  5
462
100
AcDbEntity
  8
0
100
AcDbCircle
 62
7
  6
CONTINUOUS
 10
7.2793588653
 20
15.7372989586
 40
0.0118110236
100
AcDbArc
 50
135.0
 51
180.0002999885
  0
ARC
  5
463
100
AcDbEntity
  8
0
100
AcDbCircle
 62
7
  6
CONTINUOUS
 10
7.2793588653
 20
15.7192446813
 40
0.0118110236
100
AcDbArc
 50
180.0002531654
 51
225.0181431981
  0
ARC
  5
464
100
AcDbEntity
  8
0
100
AcDbCircle
 62
7
  6
CONTINUOUS
 10
6.7607527179
 20
17.3297545853
 40
0.45
100
AcDbArc
 50
276.6210152008
 51
315.0
  0
ARC
  5
465
100
AcDbEntity
  8
0
100
AcDbCircle
 62
7
  6
CONTINUOUS
 10
6.7838130172
 20
17.131088477
 40
0.25
100
AcDbArc
 50
247.8632234306
 51
276.6210152008
  0
ARC
  5
466
100
AcDbEntity
  8
0
100
AcDbCircle
 62
7
  6
CONTINUOUS
 10
6.6594627807
 20
16.8254137828
 40
0.08
100
AcDbArc
 50
67.8632234306
 51
132.7285491583
  0
ARC
  5
467
100
AcDbEntity
  8
0
100
AcDbCircle
 62
7
  6
CONTINUOUS
 10
7.2614188453
 20
17.0879585924
 40
0.075
100
AcDbArc
 50
69.0
 51
135.0
  0
ARC
  5
468
100
AcDbEntity
  8
0
100
AcDbCircle
 62
7
  6
CONTINUOUS
 10
7.5814358083
 20
17.082706436
 40
0.02
100
AcDbArc
 50
57.4577510794
 51
135.0
  0
ARC
  5
469
100
AcDbEntity
  8
0
100
AcDbCircle
 62
7
  6
CONTINUOUS
 10
7.5291180859
 20
17.0869572561
 40
0.02
100
AcDbArc
 50
249.0
 51
315.0
  0
ARC
  5
46A
100
AcDbEntity
  8
0
100
AcDbCircle
 62
7
  6
CONTINUOUS
 10
6.8171471677
 20
16.416014857
 40
0.0196850394
100
AcDbArc
 50
180.0010369649
 51
225.0009085171
  0
ARC
  5
46B
100
AcDbEntity
  8
0
100
AcDbCircle
 62
7
  6
CONTINUOUS
 10
6.8171471677
 20
16.4275460861
 40
0.0196850394
100
AcDbArc
 50
135.0
 51
180.0010232871
  0
ARC
  5
46C
100
AcDbEntity
  8
0
100
AcDbCircle
 62
7
  6
CONTINUOUS
 10
7.0591491309
 20
16.1855441229
 40
0.0196850394
100
AcDbArc
 50
269.9975411863
 51
315.0
  0
ARC
  5
46D
100
AcDbEntity
  8
0
100
AcDbCircle
 62
7
  6
CONTINUOUS
 10
6.970064812
 20
16.2746284418
 40
0.0196850394
100
AcDbArc
 50
135.0
 51
180.0024588143
  0
ARC
  5
46E
100
AcDbEntity
  8
0
100
AcDbCircle
 62
7
  6
CONTINUOUS
 10
6.970064812
 20
16.2630972127
 40
0.0196850394
100
AcDbArc
 50
180.0011432902
 51
225.0141027316
  0
ARC
  5
46F
100
AcDbEntity
  8
0
100
AcDbCircle
 62
7
  6
CONTINUOUS
 10
7.0476179018
 20
16.1855441229
 40
0.0196850394
100
AcDbArc
 50
224.9858972684
 51
269.9988567098
  0
ARC
  5
470
100
AcDbEntity
  8
0
100
AcDbCircle
 62
7
  6
CONTINUOUS
 10
6.9451235043
 20
16.2995697495
 40
0.0196850394
100
AcDbArc
 50
269.9975411863
 51
288.7362451431
  0
ARC
  5
471
100
AcDbEntity
  8
0
100
AcDbCircle
 62
7
  6
CONTINUOUS
 10
6.8560391854
 20
16.3886540684
 40
0.0196850394
100
AcDbArc
 50
135.0
 51
180.0024588147
  0
ARC
  5
472
100
AcDbEntity
  8
0
100
AcDbCircle
 62
7
  6
CONTINUOUS
 10
6.8560391854
 20
16.3771228393
 40
0.0196850394
100
AcDbArc
 50
180.0011432896
 51
224.9839638501
  0
ARC
  5
473
100
AcDbEntity
  8
0
100
AcDbCircle
 62
7
  6
CONTINUOUS
 10
6.9335922752
 20
16.2995697495
 40
0.0196850394
100
AcDbArc
 50
225.0160361486
 51
269.9988567095
  0
ARC
  5
474
100
AcDbEntity
  8
0
100
AcDbCircle
 62
7
  6
CONTINUOUS
 10
6.9563090423
 20
16.2296276427
 40
0.0196850394
100
AcDbArc
 50
135.0
 51
180.0012049649
  0
ARC
  5
475
100
AcDbEntity
  8
0
100
AcDbCircle
 62
7
  6
CONTINUOUS
 10
7.0171588223
 20
16.1572466336
 40
0.0196850394
100
AcDbArc
 50
225.0252021648
 51
237.5229740722
  0
ARC
  5
476
100
AcDbEntity
  8
0
100
AcDbCircle
 62
7
  6
CONTINUOUS
 10
6.9563090423
 20
16.2180964136
 40
0.0196850394
100
AcDbArc
 50
180.0013272064
 51
224.9747978352
  0
ARC
  5
477
100
AcDbEntity
  8
0
100
AcDbCircle
 62
7
  6
CONTINUOUS
 10
7.0231764959
 20
16.162760189
 40
0.0196850394
100
AcDbArc
 50
135.0
 51
180.0012047948
  0
ARC
  5
478
100
AcDbEntity
  8
0
100
AcDbCircle
 62
7
  6
CONTINUOUS
 10
7.0231764959
 20
16.1512289599
 40
0.0196850394
100
AcDbArc
 50
180.0013272052
 51
225.0060811357
  0
ARC
  5
479
100
AcDbEntity
  8
0
100
AcDbCircle
 62
7
  6
CONTINUOUS
 10
6.7842951873
 20
16.5209176845
 40
0.0078740157
100
AcDbArc
 50
210.7100596427
 51
225.0
  0
ARC
  5
47A
100
AcDbEntity
  8
0
100
AcDbCircle
 62
7
  6
CONTINUOUS
 10
8.4427951398
 20
13.6340749851
 40
0.8376103186
100
AcDbArc
 50
54.1057747135
 51
54.2229071701
  0
ARC
  5
47B
100
AcDbEntity
  8
0
100
AcDbCircle
 62
7
  6
CONTINUOUS
 10
8.2058985766
 20
14.6689376114
 40
0.2666029743
100
AcDbArc
 50
55.0222233036
 51
55.3900571346
  0
ARC
  5
47C
100
AcDbEntity
  8
0
100
AcDbCircle
 62
7
  6
CONTINUOUS
 10
8.0138465172
 20
14.8471703043
 40
0.0196850394
100
AcDbArc
 50
224.9958251907
 51
269.9974348682
  0
ARC
  5
47D
100
AcDbEntity
  8
0
100
AcDbCircle
 62
7
  6
CONTINUOUS
 10
8.0253777462
 20
14.8078002256
 40
0.0196850394
100
AcDbArc
 50
45.0039181287
 51
90.0024249216
  0
ARC
  5
47E
100
AcDbEntity
  8
0
100
AcDbCircle
 62
7
  6
CONTINUOUS
 10
8.192381898
 20
14.6686349235
 40
0.0196850394
100
AcDbArc
 50
224.9866177591
 51
269.9974348102
  0
ARC
  5
47F
100
AcDbEntity
  8
0
100
AcDbCircle
 62
7
  6
CONTINUOUS
 10
8.2039131271
 20
14.6292648447
 40
0.0196850394
100
AcDbArc
 50
45.00392895
 51
90.0024317524
  0
ARC
  5
480
100
AcDbEntity
  8
0
100
AcDbCircle
 62
7
  6
CONTINUOUS
 10
8.0396639141
 20
14.8213529073
 40
0.0196850394
100
AcDbArc
 50
180.0025651901
 51
225.0133822414
  0
ARC
  5
481
100
AcDbEntity
  8
0
100
AcDbCircle
 62
7
  6
CONTINUOUS
 10
8.2801721801
 20
14.608683491
 40
0.0196850394
100
AcDbArc
 50
225.0002438367
 51
294.9999051805
  0
ARC
  5
482
100
AcDbEntity
  8
0
100
AcDbCircle
 62
9
  6
CONTINUOUS
 10
8.0958961796
 20
15.0426534597
 40
0.063815145
100
AcDbArc
 50
240.1934013468
 51
240.582573649
  0
ARC
  5
483
100
AcDbEntity
  8
0
100
AcDbCircle
 62
7
  6
CONTINUOUS
 10
8.2539542073
 20
14.9907390465
 40
0.0196850394
100
AcDbArc
 50
135.0
 51
180.0024588147
  0
ARC
  5
484
100
AcDbEntity
  8
0
100
AcDbCircle
 62
7
  6
CONTINUOUS
 10
8.2539542073
 20
14.9792078174
 40
0.0196850394
100
AcDbArc
 50
180.0011432896
 51
225.0039193772
  0
ARC
  5
485
100
AcDbEntity
  8
0
100
AcDbCircle
 62
7
  6
CONTINUOUS
 10
8.0476243223
 20
15.1970689315
 40
0.0196850394
100
AcDbArc
 50
269.9975417674
 51
315.0
  0
ARC
  5
486
100
AcDbEntity
  8
0
100
AcDbCircle
 62
7
  6
CONTINUOUS
 10
7.9585400035
 20
15.2861532503
 40
0.0196850394
100
AcDbArc
 50
135.0
 51
180.0024582326
  0
ARC
  5
487
100
AcDbEntity
  8
0
100
AcDbCircle
 62
7
  6
CONTINUOUS
 10
7.9585400035
 20
15.2746220213
 40
0.0196850394
100
AcDbArc
 50
180.0011432897
 51
225.00468718
  0
ARC
  5
488
100
AcDbEntity
  8
0
100
AcDbCircle
 62
7
  6
CONTINUOUS
 10
8.0360930933
 20
15.1970689315
 40
0.0196850394
100
AcDbArc
 50
224.99531282
 51
269.9988567103
  0
ARC
  5
489
100
AcDbEntity
  8
0
100
AcDbCircle
 62
7
  6
CONTINUOUS
 10
8.0666913748
 20
15.1192453101
 40
0.0196850394
100
AcDbArc
 50
135.0
 51
180.0012049649
  0
ARC
  5
48A
100
AcDbEntity
  8
0
100
AcDbCircle
 62
7
  6
CONTINUOUS
 10
8.1390723839
 20
15.046864301
 40
0.0196850394
100
AcDbArc
 50
269.9987950343
 51
315.0
  0
ARC
  5
48B
100
AcDbEntity
  8
0
100
AcDbCircle
 62
7
  6
CONTINUOUS
 10
8.1275411548
 20
15.046864301
 40
0.0196850394
100
AcDbArc
 50
224.997547682
 51
269.9986727936
  0
ARC
  5
48C
100
AcDbEntity
  8
0
100
AcDbCircle
 62
7
  6
CONTINUOUS
 10
8.0666913748
 20
15.107714081
 40
0.0196850394
100
AcDbArc
 50
180.0013272063
 51
225.002452318
  0
ARC
  5
48D
100
AcDbEntity
  8
0
100
AcDbCircle
 62
7
  6
CONTINUOUS
 10
8.0184473613
 20
14.9801561853
 40
0.0118110236
100
AcDbArc
 50
224.9972333239
 51
269.9997468357
  0
ARC
  5
48E
100
AcDbEntity
  8
0
100
AcDbCircle
 62
7
  6
CONTINUOUS
 10
8.0365016386
 20
14.9801561853
 40
0.0118110236
100
AcDbArc
 50
269.9997000107
 51
315.0
  0
ARC
  5
48F
100
AcDbEntity
  8
0
100
AcDbCircle
 62
7
  6
CONTINUOUS
 10
7.9529850896
 20
15.0636727343
 40
0.0118110236
100
AcDbArc
 50
135.0
 51
180.000299988
  0
ARC
  5
490
100
AcDbEntity
  8
0
100
AcDbCircle
 62
7
  6
CONTINUOUS
 10
7.9529850896
 20
15.0456184569
 40
0.0118110236
100
AcDbArc
 50
180.0002531656
 51
225.0027666779
  0
ARC
  5
491
100
AcDbEntity
  8
0
100
AcDbCircle
 62
7
  6
CONTINUOUS
 10
8.4639401067
 20
14.4363178951
 40
0.249801084
100
AcDbArc
 50
45.0314580217
 51
46.2573386908
  0
ARC
  5
492
100
AcDbEntity
  8
0
100
AcDbCircle
 62
7
  6
CONTINUOUS
 10
8.6183207402
 20
14.6263725136
 40
0.0196850394
100
AcDbArc
 50
269.9975411863
 51
315.0
  0
ARC
  5
493
100
AcDbEntity
  8
0
100
AcDbCircle
 62
7
  6
CONTINUOUS
 10
8.5292364213
 20
14.7154568325
 40
0.0196850394
100
AcDbArc
 50
135.0
 51
180.0024588143
  0
ARC
  5
494
100
AcDbEntity
  8
0
100
AcDbCircle
 62
7
  6
CONTINUOUS
 10
8.5292364213
 20
14.7039256034
 40
0.0196850394
100
AcDbArc
 50
180.0011432902
 51
225.0027964971
  0
ARC
  5
495
100
AcDbEntity
  8
0
100
AcDbCircle
 62
7
  6
CONTINUOUS
 10
8.6067895111
 20
14.6263725136
 40
0.0196850394
100
AcDbArc
 50
224.9972035029
 51
269.9988567098
  0
ARC
  5
496
100
AcDbEntity
  8
0
100
AcDbCircle
 62
7
  6
CONTINUOUS
 10
8.5399869702
 20
14.6459497148
 40
0.0196850394
100
AcDbArc
 50
135.0
 51
180.0012047959
  0
ARC
  5
497
100
AcDbEntity
  8
0
100
AcDbCircle
 62
7
  6
CONTINUOUS
 10
8.6123679793
 20
14.5735687057
 40
0.0196850394
100
AcDbArc
 50
269.9987952047
 51
315.0
  0
ARC
  5
498
100
AcDbEntity
  8
0
100
AcDbCircle
 62
7
  6
CONTINUOUS
 10
8.6008367502
 20
14.5735687057
 40
0.0196850394
100
AcDbArc
 50
224.9980045294
 51
269.998672795
  0
ARC
  5
499
100
AcDbEntity
  8
0
100
AcDbCircle
 62
7
  6
CONTINUOUS
 10
8.5399869702
 20
14.6344184857
 40
0.0196850394
100
AcDbArc
 50
180.0013272051
 51
225.0019954706
  0
ARC
  5
49A
100
AcDbEntity
  8
0
100
AcDbCircle
 62
7
  6
CONTINUOUS
 10
8.3770938894
 20
14.7973115665
 40
0.0196850394
100
AcDbArc
 50
224.9957394013
 51
269.998672795
  0
ARC
  5
49B
100
AcDbEntity
  8
0
100
AcDbCircle
 62
7
  6
CONTINUOUS
 10
8.3886251185
 20
14.7973115665
 40
0.0196850394
100
AcDbArc
 50
269.9987952045
 51
315.0
  0
ARC
  5
49C
100
AcDbEntity
  8
0
100
AcDbCircle
 62
7
  6
CONTINUOUS
 10
8.3162441094
 20
14.8581613465
 40
0.0196850394
100
AcDbArc
 50
180.0013272052
 51
225.004260599
  0
ARC
  5
49D
100
AcDbEntity
  8
0
100
AcDbCircle
 62
7
  6
CONTINUOUS
 10
8.4274728017
 20
14.5711307449
 40
0.0118110236
100
AcDbArc
 50
224.9918137509
 51
269.9997466605
  0
ARC
  5
49E
100
AcDbEntity
  8
0
100
AcDbCircle
 62
7
  6
CONTINUOUS
 10
8.445527079
 20
14.5711307449
 40
0.0118110236
100
AcDbArc
 50
269.9997000109
 51
315.0
  0
ARC
  5
49F
100
AcDbEntity
  8
0
100
AcDbCircle
 62
7
  6
CONTINUOUS
 10
8.36201053
 20
14.6546472938
 40
0.0118110236
100
AcDbArc
 50
135.0
 51
180.0002999879
  0
ARC
  5
4A0
100
AcDbEntity
  8
0
100
AcDbCircle
 62
7
  6
CONTINUOUS
 10
8.36201053
 20
14.6365930165
 40
0.0118110236
100
AcDbArc
 50
180.0002533395
 51
225.0081862491
  0
ARC
  5
4A1
100
AcDbEntity
  8
0
100
AcDbCircle
 62
7
  6
CONTINUOUS
 10
8.5460289154
 20
14.4525746312
 40
0.0118110236
100
AcDbArc
 50
225.046466486
 51
269.9997468347
  0
ARC
  5
4A2
100
AcDbEntity
  8
0
100
AcDbCircle
 62
7
  6
CONTINUOUS
 10
8.5640831927
 20
14.4525746312
 40
0.0118110236
100
AcDbArc
 50
269.9996999689
 51
315.0
  0
ARC
  5
4A3
100
AcDbEntity
  8
0
100
AcDbCircle
 62
7
  6
CONTINUOUS
 10
8.5043225434
 20
14.4942810032
 40
0.0118110236
100
AcDbArc
 50
224.990812678
 51
269.9997472495
  0
ARC
  5
4A4
100
AcDbEntity
  8
0
100
AcDbCircle
 62
7
  6
CONTINUOUS
 10
8.5223768207
 20
14.4942810032
 40
0.0118110236
100
AcDbArc
 50
269.9997000847
 51
315.0
  0
ARC
  5
4A5
100
AcDbEntity
  8
0
100
AcDbCircle
 62
7
  6
CONTINUOUS
 10
8.4388602717
 20
14.5597432748
 40
0.0118110236
100
AcDbArc
 50
181.8824798174
 51
225.0091873219
  0
ARC
  5
4A6
100
AcDbEntity
  8
0
100
AcDbCircle
 62
7
  6
CONTINUOUS
 10
8.434041354
 20
14.5645621926
 40
0.0118110236
100
AcDbArc
 50
224.9886659131
 51
241.8518773465
  0
ARC
  5
4A7
100
AcDbEntity
  8
0
100
AcDbCircle
 62
7
  6
CONTINUOUS
 10
8.3430385262
 20
14.9016547276
 40
0.0196850394
100
AcDbArc
 50
269.9975411863
 51
315.0
  0
ARC
  5
4A8
100
AcDbEntity
  8
0
100
AcDbCircle
 62
7
  6
CONTINUOUS
 10
8.3315072971
 20
14.9016547276
 40
0.0196850394
100
AcDbArc
 50
224.9960806215
 51
269.9988567094
  0
ARC
  5
4A9
100
AcDbEntity
  8
0
100
AcDbCircle
 62
7
  6
CONTINUOUS
 10
8.3162441094
 20
14.8696925756
 40
0.0196850394
100
AcDbArc
 50
135.0
 51
180.0012047948
  0
ARC
  5
4AA
100
AcDbEntity
  8
0
100
AcDbCircle
 62
7
  6
CONTINUOUS
 10
9.4810821107
 20
14.0841280479
 40
0.5118110236
100
AcDbArc
 50
169.7158850771
 51
249.6710480593
  0
ARC
  5
4AB
100
AcDbEntity
  8
0
100
AcDbCircle
 62
7
  6
CONTINUOUS
 10
9.0751070636
 20
13.5442246065
 40
0.4724409449
100
AcDbArc
 50
34.4249168973
 51
56.7360171921
  0
ARC
  5
4AC
100
AcDbEntity
  8
0
100
AcDbCircle
 62
9
  6
CONTINUOUS
 10
9.4806976618
 20
14.0837350389
 40
0.4449133295
100
AcDbArc
 50
169.6569711081
 51
249.668495228
  0
ARC
  5
4AD
100
AcDbEntity
  8
0
100
AcDbCircle
 62
7
  6
CONTINUOUS
 10
9.3511454759
 20
13.7334084295
 40
0.1377952756
100
AcDbArc
 50
249.6710480599
 51
34.4249168912
  0
ARC
  5
4AE
100
AcDbEntity
  8
0
100
AcDbCircle
 62
7
  6
CONTINUOUS
 10
9.1501251404
 20
14.0945681134
 40
0.0196850394
100
AcDbArc
 50
269.9975411861
 51
315.0
  0
ARC
  5
4AF
100
AcDbEntity
  8
0
100
AcDbCircle
 62
7
  6
CONTINUOUS
 10
9.0610408215
 20
14.1836524323
 40
0.0196850394
100
AcDbArc
 50
161.2637548569
 51
180.0024588139
  0
ARC
  5
4B0
100
AcDbEntity
  8
0
100
AcDbCircle
 62
7
  6
CONTINUOUS
 10
9.0610408215
 20
14.1721212032
 40
0.0196850394
100
AcDbArc
 50
180.0011432895
 51
224.9846661657
  0
ARC
  5
4B1
100
AcDbEntity
  8
0
100
AcDbCircle
 62
7
  6
CONTINUOUS
 10
9.1385939113
 20
14.0945681134
 40
0.0196850394
100
AcDbArc
 50
225.0153338328
 51
269.9988567094
  0
ARC
  5
4B2
100
AcDbEntity
  8
0
100
AcDbCircle
 62
7
  6
CONTINUOUS
 10
9.0360995138
 20
14.20859374
 40
0.0196850394
100
AcDbArc
 50
269.9975411858
 51
315.0
  0
ARC
  5
4B3
100
AcDbEntity
  8
0
100
AcDbCircle
 62
7
  6
CONTINUOUS
 10
8.9470151949
 20
14.2976780589
 40
0.0196850394
100
AcDbArc
 50
135.0
 51
180.0024588142
  0
ARC
  5
4B4
100
AcDbEntity
  8
0
100
AcDbCircle
 62
7
  6
CONTINUOUS
 10
8.9470151949
 20
14.2861468298
 40
0.0196850394
100
AcDbArc
 50
180.00114329
 51
225.0134346003
  0
ARC
  5
4B5
100
AcDbEntity
  8
0
100
AcDbCircle
 62
7
  6
CONTINUOUS
 10
9.0245682847
 20
14.20859374
 40
0.0196850394
100
AcDbArc
 50
224.9865653997
 51
269.99885671
  0
ARC
  5
4B6
100
AcDbEntity
  8
0
100
AcDbCircle
 62
7
  6
CONTINUOUS
 10
8.8547109365
 20
14.3899823173
 40
0.0196850394
100
AcDbArc
 50
269.9975411859
 51
315.0
  0
ARC
  5
4B7
100
AcDbEntity
  8
0
100
AcDbCircle
 62
7
  6
CONTINUOUS
 10
8.8431797074
 20
14.3899823173
 40
0.0196850394
100
AcDbArc
 50
224.9982979705
 51
269.9988567098
  0
ARC
  5
4B8
100
AcDbEntity
  8
0
100
AcDbCircle
 62
7
  6
CONTINUOUS
 10
8.8518502519
 20
14.334086433
 40
0.0196850394
100
AcDbArc
 50
135.0
 51
180.0012047948
  0
ARC
  5
4B9
100
AcDbEntity
  8
0
100
AcDbCircle
 62
7
  6
CONTINUOUS
 10
8.924231261
 20
14.2617054239
 40
0.0196850394
100
AcDbArc
 50
269.9987952044
 51
315.0
  0
ARC
  5
4BA
100
AcDbEntity
  8
0
100
AcDbCircle
 62
7
  6
CONTINUOUS
 10
8.9127000319
 20
14.2617054239
 40
0.0196850394
100
AcDbArc
 50
224.9939262618
 51
269.998672795
  0
ARC
  5
4BB
100
AcDbEntity
  8
0
100
AcDbCircle
 62
7
  6
CONTINUOUS
 10
8.8518502519
 20
14.322555204
 40
0.0196850394
100
AcDbArc
 50
180.0013272057
 51
225.0060737392
  0
ARC
  5
4BC
100
AcDbEntity
  8
0
100
AcDbCircle
 62
7
  6
CONTINUOUS
 10
8.783522031
 20
14.3908834249
 40
0.0196850394
100
AcDbArc
 50
224.9957408501
 51
269.9986727947
  0
ARC
  5
4BD
100
AcDbEntity
  8
0
100
AcDbCircle
 62
7
  6
CONTINUOUS
 10
8.7950532601
 20
14.3908834249
 40
0.0196850394
100
AcDbArc
 50
269.9987952051
 51
315.0
  0
ARC
  5
4BE
100
AcDbEntity
  8
0
100
AcDbCircle
 62
7
  6
CONTINUOUS
 10
8.9795674856
 20
14.1948379703
 40
0.0196850394
100
AcDbArc
 50
225.024692783
 51
269.9986727884
  0
ARC
  5
4BF
100
AcDbEntity
  8
0
100
AcDbCircle
 62
7
  6
CONTINUOUS
 10
8.9910987147
 20
14.1948379703
 40
0.0196850394
100
AcDbArc
 50
269.9987952044
 51
315.0
  0
ARC
  5
4C0
100
AcDbEntity
  8
0
100
AcDbCircle
 62
7
  6
CONTINUOUS
 10
8.9187177056
 20
14.2556877503
 40
0.0196850394
100
AcDbArc
 50
212.4770259276
 51
224.975307217
  0
ARC
  5
4C1
100
AcDbEntity
  8
0
100
AcDbCircle
 62
7
  6
CONTINUOUS
 10
9.2805876778
 20
14.0248671154
 40
0.0080451031
100
AcDbArc
 50
225.0285947495
 51
239.1370683213
  0
ARC
  5
4C2
100
AcDbEntity
  8
0
100
AcDbCircle
 62
7
  6
CONTINUOUS
 10
8.8474227408
 20
14.3029421938
 40
0.0078740157
100
AcDbArc
 50
235.1465387619
 51
294.9661125861
  0
ARC
  5
4C3
100
AcDbEntity
  8
0
100
AcDbCircle
 62
7
  6
CONTINUOUS
 10
8.7656266176
 20
14.4790666362
 40
0.0196850394
100
AcDbArc
 50
135.0
 51
180.0024588136
  0
ARC
  5
4C4
100
AcDbEntity
  8
0
100
AcDbCircle
 62
7
  6
CONTINUOUS
 10
8.7656266176
 20
14.4675354071
 40
0.0196850394
100
AcDbArc
 50
180.0011432902
 51
225.0017020294
  0
ARC
  5
4C5
100
AcDbEntity
  8
0
100
AcDbCircle
 62
7
  6
CONTINUOUS
 10
8.722672251
 20
14.463264434
 40
0.0196850394
100
AcDbArc
 50
135.0
 51
180.0012047956
  0
ARC
  5
4C6
100
AcDbEntity
  8
0
100
AcDbCircle
 62
7
  6
CONTINUOUS
 10
8.722672251
 20
14.4517332049
 40
0.0196850394
100
AcDbArc
 50
180.0013272052
 51
225.0042591499
  0
ARC
  5
4C7
100
AcDbEntity
  8
0
100
AcDbCircle
 62
7
  6
CONTINUOUS
 10
8.6142448282
 20
18.7012568765
 40
1.9
100
AcDbArc
 50
237.4577510794
 51
275.4956073781
  0
ARC
  5
4C8
100
AcDbEntity
  8
0
100
AcDbCircle
 62
7
  6
CONTINUOUS
 10
12.102751087
 20
10.4997376042
 40
3.0
100
AcDbArc
 50
274.2656285905
 51
300.3566145709
  0
ARC
  5
4C9
100
AcDbEntity
  8
0
100
AcDbCircle
 62
7
  6
CONTINUOUS
 10
10.8608926102
 20
6.648547804
 40
0.645
100
AcDbArc
 50
90.0
 51
180.0
  0
ARC
  5
4CA
100
AcDbEntity
  8
0
100
AcDbCircle
 62
7
  6
CONTINUOUS
 10
11.2657362073
 20
7.876047804
 40
0.54
100
AcDbArc
 50
270.0
 51
301.1347215689
  0
ARC
  5
4CB
100
AcDbEntity
  8
0
100
AcDbCircle
 62
7
  6
CONTINUOUS
 10
10.8608926102
 20
6.648547804
 40
0.255
100
AcDbArc
 50
90.0
 51
180.0
  0
ARC
  5
4CC
100
AcDbEntity
  8
0
100
AcDbCircle
 62
7
  6
CONTINUOUS
 10
11.6695539261
 20
7.207547804
 40
0.241
100
AcDbArc
 50
52.6180391693
 51
121.1347215689
  0
ARC
  5
4CD
100
AcDbEntity
  8
0
100
AcDbCircle
 62
7
  6
CONTINUOUS
 10
11.6695539261
 20
6.989547804
 40
0.241
100
AcDbArc
 50
238.8652784311
 51
307.3819608307
  0
ARC
  5
4CE
100
AcDbEntity
  8
0
100
AcDbCircle
 62
7
  6
CONTINUOUS
 10
11.1358926102
 20
7.351047804
 40
0.06
100
AcDbArc
 50
3.5833216985
 51
180.0
  0
ARC
  5
4CF
100
AcDbEntity
  8
0
100
AcDbCircle
 62
7
  6
CONTINUOUS
 10
11.1358926102
 20
6.846047804
 40
0.06
100
AcDbArc
 50
180.0
 51
356.4166783015
  0
ARC
  5
4D0
100
AcDbEntity
  8
0
100
AcDbCircle
 62
7
  6
CONTINUOUS
 10
11.2157362073
 20
7.356047804
 40
0.02
100
AcDbArc
 50
183.5833216985
 51
270.0
  0
ARC
  5
4D1
100
AcDbEntity
  8
0
100
AcDbCircle
 62
7
  6
CONTINUOUS
 10
11.2157362073
 20
6.841047804
 40
0.02
100
AcDbArc
 50
90.0
 51
176.4166783015
  0
ARC
  5
4D2
100
AcDbEntity
  8
0
100
AcDbCircle
 62
7
  6
CONTINUOUS
 10
9.6046776979
 20
16.8432066259
 40
2.5590551181
100
AcDbArc
 50
222.3528405071
 51
227.6471594929
  0
ARC
  5
4D3
100
AcDbEntity
  8
0
100
AcDbCircle
 62
7
  6
CONTINUOUS
 10
12.5848926102
 20
17.348547804
 40
2.15625
100
AcDbArc
 50
90.0
 51
135.0
  0
ARC
  5
4D4
100
AcDbEntity
  8
0
100
AcDbCircle
 62
7
  6
CONTINUOUS
 10
11.4627279485
 20
15.8527737562
 40
1.9
100
AcDbArc
 50
174.5043926219
 51
212.5422489206
  0
ARC
  5
4D5
100
AcDbEntity
  8
0
100
AcDbCircle
 62
7
  6
CONTINUOUS
 10
12.5848926102
 20
17.348547804
 40
1.34375
100
AcDbArc
 50
90.0
 51
135.0
  0
ARC
  5
4D6
100
AcDbEntity
  8
0
100
AcDbCircle
 62
7
  6
CONTINUOUS
 10
9.6816371635
 20
16.9201660915
 40
0.489
100
AcDbArc
 50
343.8676339181
 51
0.0258404644
  0
ARC
  5
4D7
100
AcDbEntity
  8
0
100
AcDbCircle
 62
7
  6
CONTINUOUS
 10
9.6816371635
 20
16.9201660915
 40
0.489
100
AcDbArc
 50
89.9741595356
 51
106.1323660819
  0
ARC
  5
4D8
100
AcDbEntity
  8
0
100
AcDbCircle
 62
7
  6
CONTINUOUS
 10
10.0912256573
 20
13.9992816459
 40
0.45
100
AcDbArc
 50
135.0
 51
173.3789847992
  0
ARC
  5
4D9
100
AcDbEntity
  8
0
100
AcDbCircle
 62
7
  6
CONTINUOUS
 10
9.892559549
 20
14.0223419452
 40
0.25
100
AcDbArc
 50
173.3789847992
 51
202.1367765694
  0
ARC
  5
4DA
100
AcDbEntity
  8
0
100
AcDbCircle
 62
7
  6
CONTINUOUS
 10
10.3239532704
 20
17.1884227111
 40
0.188
100
AcDbArc
 50
270.0
 51
315.0
  0
ARC
  5
4DB
100
AcDbEntity
  8
0
100
AcDbCircle
 62
7
  6
CONTINUOUS
 10
9.9498937831
 20
17.5624821984
 40
0.188
100
AcDbArc
 50
135.0
 51
180.0
  0
ARC
  5
4DC
100
AcDbEntity
  8
0
100
AcDbCircle
 62
7
  6
CONTINUOUS
 10
10.2506371056
 20
16.9204227111
 40
0.08
100
AcDbArc
 50
90.0
 51
180.0258404644
  0
ARC
  5
4DD
100
AcDbEntity
  8
0
100
AcDbCircle
 62
7
  6
CONTINUOUS
 10
9.6818937831
 20
17.4891660336
 40
0.08
100
AcDbArc
 50
269.9741595356
 51
360.0
  0
ARC
  5
4DE
100
AcDbEntity
  8
0
100
AcDbCircle
 62
7
  6
CONTINUOUS
 10
9.5868848548
 20
13.8979917087
 40
0.08
100
AcDbArc
 50
317.2714508417
 51
22.1367765694
  0
ARC
  5
4DF
100
AcDbEntity
  8
0
100
AcDbCircle
 62
7
  6
CONTINUOUS
 10
9.8494296644
 20
14.4999477733
 40
0.075
100
AcDbArc
 50
315.0
 51
21.0
  0
ARC
  5
4E0
100
AcDbEntity
  8
0
100
AcDbCircle
 62
7
  6
CONTINUOUS
 10
9.8441775081
 20
14.8199647363
 40
0.02
100
AcDbArc
 50
315.0
 51
32.5422489206
  0
ARC
  5
4E1
100
AcDbEntity
  8
0
100
AcDbCircle
 62
7
  6
CONTINUOUS
 10
9.8484283281
 20
14.7676470138
 40
0.02
100
AcDbArc
 50
135.0
 51
201.0
  0
ARC
  5
4E2
100
AcDbEntity
  8
0
100
AcDbCircle
 62
7
  6
CONTINUOUS
 10
14.5868937524
 20
3.9054116736
 40
0.2500109774
100
AcDbArc
 50
180.0
 51
239.7355898687
  0
ARC
  5
4E3
100
AcDbEntity
  8
0
100
AcDbCircle
 62
7
  6
CONTINUOUS
 10
14.8348926102
 20
3.473547804
 40
0.25
100
AcDbArc
 50
180.0
 51
270.0
  0
ARC
  5
4E4
100
AcDbEntity
  8
0
100
AcDbCircle
 62
7
  6
CONTINUOUS
 10
14.3348926102
 20
3.473547804
 40
0.25
100
AcDbArc
 50
0.0
 51
59.7355898687
  0
ARC
  5
4E5
100
AcDbEntity
  8
0
100
AcDbCircle
 62
7
  6
CONTINUOUS
 10
14.0868926102
 20
3.908547804
 40
0.25
100
AcDbArc
 50
0.0545644831
 51
60.7907880662
  0
ARC
  5
4E6
100
AcDbEntity
  8
0
100
AcDbCircle
 62
7
  6
CONTINUOUS
 10
14.3308926102
 20
4.3449696183
 40
0.25
100
AcDbArc
 50
180.0
 51
240.7907880662
  0
ARC
  5
4E7
100
AcDbEntity
  8
0
100
AcDbCircle
 62
7
  6
CONTINUOUS
 10
14.0808926102
 20
6.1056839152
 40
0.1871361111
100
AcDbArc
 50
182.1854050713
 51
270.0
  0
ARC
  5
4E8
100
AcDbEntity
  8
0
100
AcDbCircle
 62
7
  6
CONTINUOUS
 10
13.8928926102
 20
6.2855451302
 40
0.187
100
AcDbArc
 50
180.0
 51
270.3063960032
  0
ARC
  5
4E9
100
AcDbEntity
  8
0
100
AcDbCircle
 62
7
  6
CONTINUOUS
 10
12.9448926102
 20
4.541047804
 40
0.031
100
AcDbArc
 50
180.0
 51
256.9592389661
  0
ARC
  5
4EA
100
AcDbEntity
  8
0
100
AcDbCircle
 62
7
  6
CONTINUOUS
 10
12.9448926102
 20
5.316047804
 40
0.031
100
AcDbArc
 50
103.0407610339
 51
180.0
  0
ARC
  5
4EB
100
AcDbEntity
  8
0
100
AcDbCircle
 62
7
  6
CONTINUOUS
 10
13.0808926102
 20
4.509547804
 40
0.031
100
AcDbArc
 50
256.9592389661
 51
270.0
  0
ARC
  5
4EC
100
AcDbEntity
  8
0
100
AcDbCircle
 62
7
  6
CONTINUOUS
 10
13.1708926102
 20
4.509547804
 40
0.031
100
AcDbArc
 50
270.0
 51
315.2453073495
  0
ARC
  5
4ED
100
AcDbEntity
  8
0
100
AcDbCircle
 62
7
  6
CONTINUOUS
 10
13.0808926102
 20
5.347547804
 40
0.031
100
AcDbArc
 50
90.0
 51
103.0407610339
  0
ARC
  5
4EE
100
AcDbEntity
  8
0
100
AcDbCircle
 62
7
  6
CONTINUOUS
 10
13.1708926102
 20
5.347547804
 40
0.031
100
AcDbArc
 50
44.7546926505
 51
90.0
  0
ARC
  5
4EF
100
AcDbEntity
  8
0
100
AcDbCircle
 62
7
  6
CONTINUOUS
 10
13.9978926102
 20
4.704547804
 40
0.012
100
AcDbArc
 50
180.0
 51
270.0
  0
ARC
  5
4F0
100
AcDbEntity
  8
0
100
AcDbCircle
 62
7
  6
CONTINUOUS
 10
13.9978926102
 20
5.152547804
 40
0.012
100
AcDbArc
 50
90.0
 51
180.0
  0
ARC
  5
4F1
100
AcDbEntity
  8
0
100
AcDbCircle
 62
7
  6
CONTINUOUS
 10
12.9371680015
 20
20.1756773664
 40
7.1691060897
100
AcDbArc
 50
232.7963885826
 51
234.3230697234
  0
ARC
  5
4F2
100
AcDbEntity
  8
0
100
AcDbCircle
 62
7
  6
CONTINUOUS
 10
12.9371484384
 20
20.1756969295
 40
7.1691060897
100
AcDbArc
 50
219.137747313
 51
219.2089918143
  0
ARC
  5
4F3
100
AcDbEntity
  8
0
100
AcDbCircle
 62
7
  6
CONTINUOUS
 10
12.9371734063
 20
20.1757218974
 40
7.1643816803
100
AcDbArc
 50
214.8532231336
 51
215.5750973652
  0
ARC
  5
4F4
100
AcDbEntity
  8
0
100
AcDbCircle
 62
7
  6
CONTINUOUS
 10
12.9371929694
 20
20.1757023343
 40
7.1643816803
100
AcDbArc
 50
234.4249026348
 51
235.1467768664
  0
ARC
  5
4F5
100
AcDbEntity
  8
0
100
AcDbCircle
 62
7
  6
CONTINUOUS
 10
12.9371734063
 20
20.1757218974
 40
7.1643816803
100
AcDbArc
 50
210.0673065852
 51
210.7102731828
  0
ARC
  5
4F6
100
AcDbEntity
  8
0
100
AcDbCircle
 62
7
  6
CONTINUOUS
 10
12.9367693826
 20
20.1754046382
 40
7.1632441833
100
AcDbArc
 50
239.2705208902
 51
239.9166489963
  0
ARC
  5
4F7
100
AcDbEntity
  8
0
100
AcDbCircle
 62
9
  6
CONTINUOUS
 10
12.9406917244
 20
20.1816420845
 40
7.1507436038
100
AcDbArc
 50
238.2880417734
 51
238.6171785401
  0
ARC
  5
4F8
100
AcDbEntity
  8
0
100
AcDbCircle
 62
9
  6
CONTINUOUS
 10
12.8068929571
 20
19.9545923912
 40
6.9265790663
100
AcDbArc
 50
239.2610109886
 51
240.0308013472
  0
ARC
  5
4F9
100
AcDbEntity
  8
0
100
AcDbCircle
 62
7
  6
CONTINUOUS
 10
18.890052026
 20
19.1507217162
 40
4.5
100
AcDbArc
 50
186.4144817261
 51
195.5395954904
  0
ARC
  5
4FA
100
AcDbEntity
  8
0
100
AcDbCircle
 62
7
  6
CONTINUOUS
 10
18.890052026
 20
19.0463738919
 40
4.5
100
AcDbArc
 50
164.4604045096
 51
173.5855182739
  0
ARC
  5
4FB
100
AcDbEntity
  8
0
100
AcDbCircle
 62
7
  6
CONTINUOUS
 10
14.5868937524
 20
10.2916839345
 40
0.2500109774
100
AcDbArc
 50
120.2644101313
 51
180.0
  0
ARC
  5
4FC
100
AcDbEntity
  8
0
100
AcDbCircle
 62
7
  6
CONTINUOUS
 10
14.8348926102
 20
10.723547804
 40
0.25
100
AcDbArc
 50
90.0
 51
180.0
  0
ARC
  5
4FD
100
AcDbEntity
  8
0
100
AcDbCircle
 62
7
  6
CONTINUOUS
 10
14.3348926102
 20
10.723547804
 40
0.25
100
AcDbArc
 50
300.2644101313
 51
360.0
  0
ARC
  5
4FE
100
AcDbEntity
  8
0
100
AcDbCircle
 62
7
  6
CONTINUOUS
 10
14.0868926102
 20
10.288547804
 40
0.25
100
AcDbArc
 50
299.2092119338
 51
359.9454355169
  0
ARC
  5
4FF
100
AcDbEntity
  8
0
100
AcDbCircle
 62
7
  6
CONTINUOUS
 10
14.3308926102
 20
9.8521259897
 40
0.25
100
AcDbArc
 50
119.2092119338
 51
180.0
  0
ARC
  5
500
100
AcDbEntity
  8
0
100
AcDbCircle
 62
7
  6
CONTINUOUS
 10
14.0808926102
 20
8.0914116929
 40
0.1871361111
100
AcDbArc
 50
90.0
 51
177.8145949287
  0
ARC
  5
501
100
AcDbEntity
  8
0
100
AcDbCircle
 62
7
  6
CONTINUOUS
 10
13.8928926102
 20
7.9115504779
 40
0.187
100
AcDbArc
 50
89.6936039968
 51
180.0
  0
ARC
  5
502
100
AcDbEntity
  8
0
100
AcDbCircle
 62
7
  6
CONTINUOUS
 10
14.602719363
 20
20.238547804
 40
0.05
100
AcDbArc
 50
90.0
 51
164.4604045096
  0
ARC
  5
503
100
AcDbEntity
  8
0
100
AcDbCircle
 62
7
  6
CONTINUOUS
 10
14.602719363
 20
17.958547804
 40
0.05
100
AcDbArc
 50
195.5395954904
 51
270.0
  0
LINE
  5
504
100
AcDbEntity
  8
0
100
AcDbLine
 62
7
  6
CONTINUOUS
 10
10.6599532532
 20
17.3239579539
 11
10.6600073806
 21
17.3247068515
  0
SPLINE
  5
505
100
AcDbEntity
  8
0
100
AcDbSpline
 62
7
  6
CONTINUOUS
 70
0
 71
3
 72
23
 73
19
 74
0
 42
0.0000001
 43
0.0000001
 44
0.0000000001
 40
0.0
 40
0.0
 40
0.0
 40
0.0
 40
0.0062980433
 40
0.0156128684
 40
0.0305932597
 40
0.0525908907
 40
0.0831906683
 40
0.1242045857
 40
0.1774623053
 40
0.2445724705
 40
0.326071102
 40
0.4209676028
 40
0.5266363777
 40
0.6398212957
 40
0.6983226164
 40
0.757700341
 40
0.8782041012
 40
1.0
 40
1.0
 40
1.0
 40
1.0
 10
7.6611169954
 20
0.5983340536
 30
0.0
 10
7.6601404259
 20
0.5979858472
 30
0.0
 10
7.6658563831
 20
0.6000240509
 30
0.0
 10
7.6685650896
 20
0.6009871867
 30
0.0
 10
7.6767737584
 20
0.6039049228
 30
0.0
 10
7.6867795774
 20
0.6074470031
 30
0.0
 10
7.7015219339
 20
0.6126442747
 30
0.0
 10
7.7208372785
 20
0.6194088324
 30
0.0
 10
7.7459673613
 20
0.6281366939
 30
0.0
 10
7.77738369
 20
0.6389284453
 30
0.0
 10
7.8153543529
 20
0.6517938984
 30
0.0
 10
7.8594047271
 20
0.6664746262
 30
0.0
 10
7.9084994208
 20
0.6825217227
 30
0.0
 10
7.9519869433
 20
0.6964341131
 30
0.0
 10
7.988274551
 20
0.7078405294
 30
0.0
 10
8.0257514165
 20
0.719480585
 30
0.0
 10
8.0732574371
 20
0.7339575809
 30
0.0
 10
8.1114961104
 20
0.7453092696
 30
0.0
 10
8.1307380109
 20
0.7509447798
 30
0.0
  0
LINE
  5
506
100
AcDbEntity
  8
0
100
AcDbLine
 62
7
  6
CONTINUOUS
 10
10.1021621168
 20
-0.3049020907
 11
10.0968921657
 21
-0.303952116
  0
SPLINE
  5
507
100
AcDbEntity
  8
0
100
AcDbSpline
 62
7
  6
CONTINUOUS
 70
0
 71
3
 72
23
 73
19
 74
0
 42
0.0000001
 43
0.0000001
 44
0.0000000001
 40
0.0
 40
0.0
 40
0.0
 40
0.0
 40
0.0625350545
 40
0.1250851655
 40
0.1876473775
 40
0.2502203896
 40
0.3128015173
 40
0.3753873746
 40
0.437973538
 40
0.5005545767
 40
0.5631239827
 40
0.625674097
 40
0.6881961805
 40
0.7506803166
 40
0.8131152017
 40
0.875489067
 40
0.9377865433
 40
1.0
 40
1.0
 40
1.0
 40
1.0
 10
9.0905415298
 20
-0.2160029336
 30
0.0
 10
9.0834496672
 20
-0.2160212551
 30
0.0
 10
9.069258326
 20
-0.2166632404
 30
0.0
 10
9.0481347624
 20
-0.2194383719
 30
0.0
 10
9.0273189896
 20
-0.2240057217
 30
0.0
 10
9.0069657743
 20
-0.2303331947
 30
0.0
 10
8.987223967
 20
-0.2383749704
 30
0.0
 10
8.9682387774
 20
-0.2480720702
 30
0.0
 10
8.9501496919
 20
-0.2593528164
 30
0.0
 10
8.9330894763
 20
-0.2721332012
 30
0.0
 10
8.9171828802
 20
-0.2863174549
 30
0.0
 10
8.9025455871
 20
-0.3017988947
 30
0.0
 10
8.8892831429
 20
-0.3184607467
 30
0.0
 10
8.8774899241
 20
-0.336177129
 30
0.0
 10
8.867248195
 20
-0.354813998
 30
0.0
 10
8.8586277069
 20
-0.3742311129
 30
0.0
 10
8.8516842527
 20
-0.3942807546
 30
0.0
 10
8.8481982901
 20
-0.4079843814
 30
0.0
 10
8.846747589
 20
-0.4148890426
 30
0.0
  0
LINE
  5
508
100
AcDbEntity
  8
0
100
AcDbLine
 62
7
  6
CONTINUOUS
 10
10.0994604297
 20
1.0460473474
 11
10.120357842
 21
1.0460129191
  0
SPLINE
  5
509
100
AcDbEntity
  8
0
100
AcDbSpline
 62
7
  6
CONTINUOUS
 70
0
 71
3
 72
17
 73
13
 74
0
 42
0.0000001
 43
0.0000001
 44
0.0000000001
 40
0.0
 40
0.0
 40
0.0
 40
0.0
 40
0.1249922266
 40
0.2499844756
 40
0.3749770419
 40
0.4999716173
 40
0.5624724657
 40
0.6249742713
 40
0.6874772562
 40
0.7499813749
 40
0.8749876565
 40
1.0
 40
1.0
 40
1.0
 40
1.0
 10
8.1307379721
 20
0.7509449751
 30
0.0
 10
8.2105019314
 20
0.7743051738
 30
0.0
 10
8.3707537112
 20
0.8185972929
 30
0.0
 10
8.6131178422
 20
0.8773573617
 30
0.0
 10
8.8573034099
 20
0.9280479196
 30
0.0
 10
9.0621388622
 20
0.9632457285
 30
0.0
 10
9.2266783036
 20
0.9869957423
 30
0.0
 10
9.3503932036
 20
1.0025606819
 30
0.0
 10
9.4743778481
 20
1.0158294657
 30
0.0
 10
9.6399937353
 20
1.0304075495
 30
0.0
 10
9.8474966116
 20
1.042705661
 30
0.0
 10
10.013764926
 20
1.0460474248
 30
0.0
 10
10.0968926102
 20
1.0460477483
 30
0.0
  0
SPLINE
  5
50A
100
AcDbEntity
  8
0
100
AcDbSpline
 62
7
  6
CONTINUOUS
 70
0
 71
3
 72
20
 73
16
 74
0
 42
0.0000001
 43
0.0000001
 44
0.0000000001
 40
0.0
 40
0.0
 40
0.0
 40
0.0
 40
0.0624834969
 40
0.1249673574
 40
0.1874517404
 40
0.249937614
 40
0.3124253095
 40
0.3749153749
 40
0.4374080537
 40
0.4999037475
 40
0.5624029173
 40
0.6249056567
 40
0.7499184253
 40
0.8749502431
 40
1.0
 40
1.0
 40
1.0
 40
1.0
 10
10.0994604297
 20
1.0460473381
 30
0.0
 10
10.1970765491
 20
1.0460154296
 30
0.0
 10
10.392325228
 20
1.0423333357
 30
0.0
 10
10.6848020932
 20
1.0265120878
 30
0.0
 10
10.9765885851
 20
1.0009210057
 30
0.0
 10
11.267419813
 20
0.96612239
 30
0.0
 10
11.5570909671
 20
0.9226871897
 30
0.0
 10
11.845441598
 20
0.8711778039
 30
0.0
 10
12.1323543302
 20
0.8121430755
 30
0.0
 10
12.4177515071
 20
0.7461259212
 30
0.0
 10
12.7015893027
 20
0.6736457218
 30
0.0
 10
13.0779424062
 20
0.5690613987
 30
0.0
 10
13.544503843
 20
0.4246497835
 30
0.0
 10
14.0984972397
 20
0.23340885
 30
0.0
 10
14.4645034085
 20
0.0966276929
 30
0.0
 10
14.6468926102
 20
0.0266254544
 30
0.0
  0
LINE
  5
50B
100
AcDbEntity
  8
0
100
AcDbLine
 62
7
  6
CONTINUOUS
 10
7.2382082221
 20
15.8265744002
 11
7.2359798575
 21
15.8294578011
  0
LINE
  5
50C
100
AcDbEntity
  8
0
100
AcDbLine
 62
7
  6
CONTINUOUS
 10
7.2359798575
 20
15.8294578011
 11
7.2354867416
 21
15.8300959615
  0
LINE
  5
50D
100
AcDbEntity
  8
0
100
AcDbLine
 62
7
  6
CONTINUOUS
 10
7.2354867416
 20
15.8300959615
 11
7.2186987351
 21
15.8518774247
  0
SPLINE
  5
50E
100
AcDbEntity
  8
0
100
AcDbSpline
 62
7
  6
CONTINUOUS
 70
0
 71
3
 72
13
 73
9
 74
0
 42
0.0000001
 43
0.0000001
 44
0.0000000001
 40
0.0
 40
0.0
 40
0.0
 40
0.0
 40
0.1219678571
 40
0.2479396378
 40
0.50556362
 40
0.7602750557
 40
0.8827261151
 40
1.0
 40
1.0
 40
1.0
 40
1.0
 10
7.6095935755
 20
15.643936454
 30
0.0
 10
7.6113474788
 20
15.6421825507
 30
0.0
 10
7.6148691962
 20
15.638573256
 30
0.0
 10
7.6218844309
 20
15.6310561811
 30
0.0
 10
7.6304392531
 20
15.6212879261
 30
0.0
 10
7.6385515524
 20
15.6112408733
 30
0.0
 10
7.6446108204
 20
15.6032156831
 30
0.0
 10
7.6474581787
 20
15.5992577307
 30
0.0
 10
7.6488256824
 20
15.5973037991
 30
0.0
  0
SPLINE
  5
50F
100
AcDbEntity
  8
0
100
AcDbSpline
 62
7
  6
CONTINUOUS
 70
0
 71
3
 72
20
 73
16
 74
0
 42
0.0000001
 43
0.0000001
 44
0.0000000001
 40
0.0
 40
0.0
 40
0.0
 40
0.0
 40
0.2081099353
 40
0.3946855436
 40
0.5580288368
 40
0.6967163291
 40
0.7564776011
 40
0.8097236981
 40
0.8564224262
 40
0.896616848
 40
0.9304621991
 40
0.9583323052
 40
0.9702619261
 40
0.9810396468
 40
1.0
 40
1.0
 40
1.0
 40
1.0
 10
7.2459523683
 20
15.9852153734
 30
0.0
 10
7.2467809155
 20
15.9837533732
 30
0.0
 10
7.248323934
 20
15.9809644083
 30
0.0
 10
7.250401868
 20
15.9769653693
 30
0.0
 10
7.2521040615
 20
15.9734051804
 30
0.0
 10
7.2532480911
 20
15.9707152584
 30
0.0
 10
7.253948307
 20
15.9688068357
 30
0.0
 10
7.2543429203
 20
15.9675786094
 30
0.0
 10
7.2546329188
 20
15.9664841643
 30
0.0
 10
7.2548178901
 20
15.965525789
 30
0.0
 10
7.254897226
 20
15.9647053496
 30
0.0
 10
7.2548745759
 20
15.9641078304
 30
0.0
 10
7.2547927707
 20
15.9637065109
 30
0.0
 10
7.2546837327
 20
15.9633879181
 30
0.0
 10
7.2545518603
 20
15.9631787509
 30
0.0
 10
7.2544436121
 20
15.9630704802
 30
0.0
  0
SPLINE
  5
510
100
AcDbEntity
  8
0
100
AcDbSpline
 62
7
  6
CONTINUOUS
 70
0
 71
3
 72
15
 73
11
 74
0
 42
0.0000001
 43
0.0000001
 44
0.0000000001
 40
0.0
 40
0.0
 40
0.0
 40
0.0
 40
0.3275872937
 40
0.4754920692
 40
0.6108013475
 40
0.7321212772
 40
0.8381661801
 40
0.9277847726
 40
0.9661212142
 40
1.0
 40
1.0
 40
1.0
 40
1.0
 10
6.9509584205
 20
16.3431100726
 30
0.0
 10
6.9534218579
 20
16.3389690956
 30
0.0
 10
6.9569596261
 20
16.3329356495
 30
0.0
 10
6.9614000317
 20
16.3251256113
 30
0.0
 10
6.9642874604
 20
16.3199229376
 30
0.0
 10
6.9668175002
 20
16.3152264792
 30
0.0
 10
6.9689626098
 20
16.3110866793
 30
0.0
 10
6.9704807214
 20
16.3079972405
 30
0.0
 10
6.9714766028
 20
16.3058351266
 30
0.0
 10
6.9719011339
 20
16.3048613425
 30
0.0
 10
6.9720937131
 20
16.3044017529
 30
0.0
  0
SPLINE
  5
511
100
AcDbEntity
  8
0
100
AcDbSpline
 62
7
  6
CONTINUOUS
 70
0
 71
3
 72
24
 73
20
 74
0
 42
0.0000001
 43
0.0000001
 44
0.0000000001
 40
0.0
 40
0.0
 40
0.0
 40
0.0
 40
0.0103272194
 40
0.0208925723
 40
0.0440627035
 40
0.0572906847
 40
0.0718522945
 40
0.0878778468
 40
0.1054612612
 40
0.1455273121
 40
0.1923552167
 40
0.2460194499
 40
0.3064530834
 40
0.3734905276
 40
0.4468909679
 40
0.5263442285
 40
0.6114883997
 40
0.7971210476
 40
1.0
 40
1.0
 40
1.0
 40
1.0
 10
7.5724536964
 20
15.6686639175
 30
0.0
 10
7.5725661821
 20
15.6687764204
 30
0.0
 10
7.5728171417
 20
15.6689819685
 30
0.0
 10
7.5734201379
 20
15.6693018843
 30
0.0
 10
7.5741426642
 20
15.6694527245
 30
0.0
 10
7.5749280639
 20
15.6694636838
 30
0.0
 10
7.5756014195
 20
15.6693994138
 30
0.0
 10
7.5763314344
 20
15.669262158
 30
0.0
 10
7.5774288011
 20
15.6689689536
 30
0.0
 10
7.5789394762
 20
15.6684036493
 30
0.0
 10
7.5808942457
 20
15.6674681575
 30
0.0
 10
7.5830550621
 20
15.6662499105
 30
0.0
 10
7.585411595
 20
15.6647537533
 30
0.0
 10
7.5879522158
 20
15.6629858576
 30
0.0
 10
7.5906636311
 20
15.6609544083
 30
0.0
 10
7.5935315504
 20
15.6586695254
 30
0.0
 10
7.5976633848
 20
15.6551992923
 30
0.0
 10
7.6030859647
 20
15.650313608
 30
0.0
 10
7.6073836177
 20
15.6461464118
 30
0.0
 10
7.6095935756
 20
15.6439364539
 30
0.0
  0
SPLINE
  5
512
100
AcDbEntity
  8
0
100
AcDbSpline
 62
7
  6
CONTINUOUS
 70
0
 71
3
 72
20
 73
16
 74
0
 42
0.0000001
 43
0.0000001
 44
0.0000000001
 40
0.0
 40
0.0
 40
0.0
 40
0.0
 40
0.2077366819
 40
0.3947547502
 40
0.5590564808
 40
0.6321353844
 40
0.6989088178
 40
0.7592114892
 40
0.812917493
 40
0.8599399403
 40
0.9002620187
 40
0.933970025
 40
0.9484280687
 40
0.961364233
 40
1.0
 40
1.0
 40
1.0
 40
1.0
 10
7.0777005344
 20
16.2163679588
 30
0.0
 10
7.0787371491
 20
16.2144316402
 30
0.0
 10
7.0806728672
 20
16.210733616
 30
0.0
 10
7.0832899679
 20
16.2054332095
 30
0.0
 10
7.0851572402
 20
16.201351999
 30
0.0
 10
7.0864035167
 20
16.1983873236
 30
0.0
 10
7.0871763937
 20
16.1964170633
 30
0.0
 10
7.0878222701
 20
16.1946177952
 30
0.0
 10
7.0883391094
 20
16.1929950978
 30
0.0
 10
7.0887254591
 20
16.1915540701
 30
0.0
 10
7.0889799546
 20
16.1902984873
 30
0.0
 10
7.0890877945
 20
16.1893680908
 30
0.0
 10
7.0890970095
 20
16.1887198395
 30
0.0
 10
7.0890519304
 20
16.188029696
 30
0.0
 10
7.0888918433
 20
16.1874480791
 30
0.0
 10
7.0886030172
 20
16.187159221
 30
0.0
  0
SPLINE
  5
513
100
AcDbEntity
  8
0
100
AcDbSpline
 62
7
  6
CONTINUOUS
 70
0
 71
3
 72
32
 73
28
 74
0
 42
0.0000001
 43
0.0000001
 44
0.0000000001
 40
0.0
 40
0.0
 40
0.0
 40
0.0
 40
0.2231986549
 40
0.3256320271
 40
0.4215961273
 40
0.5108474986
 40
0.5931519501
 40
0.6682993947
 40
0.7360972741
 40
0.7963741055
 40
0.8489797738
 40
0.8723648739
 40
0.8937862992
 40
0.9132328108
 40
0.9306939432
 40
0.9461620684
 40
0.9596337297
 40
0.9711086291
 40
0.9805927027
 40
0.9845943004
 40
0.9881075999
 40
0.9911396515
 40
0.9937018125
 40
0.9958134407
 40
0.9975100236
 40
0.9988608078
 40
1.0
 40
1.0
 40
1.0
 40
1.0
 10
10.3424261057
 20
17.9747450965
 30
0.0
 10
10.3354146169
 20
17.9812453948
 30
0.0
 10
10.3251694099
 20
17.9907117929
 30
0.0
 10
10.3118590254
 20
18.0029179977
 30
0.0
 10
10.3027533999
 20
18.0112197175
 30
0.0
 10
10.2942584105
 20
18.0189112911
 30
0.0
 10
10.2863950563
 20
18.0259717802
 30
0.0
 10
10.279182918
 20
18.0323818287
 30
0.0
 10
10.2726397691
 20
18.0381239726
 30
0.0
 10
10.2667816544
 20
18.0431824185
 30
0.0
 10
10.2623239652
 20
18.0469513299
 30
0.0
 10
10.2591075063
 20
18.0496097514
 30
0.0
 10
10.2569708049
 20
18.0513448028
 30
0.0
 10
10.2550147738
 20
18.0528995893
 30
0.0
 10
10.2532405757
 20
18.0542730362
 30
0.0
 10
10.2516492667
 20
18.0554642357
 30
0.0
 10
10.2502418107
 20
18.0564726425
 30
0.0
 10
10.2490190038
 20
18.0572976608
 30
0.0
 10
10.2481095172
 20
18.0578608776
 30
0.0
 10
10.2474726869
 20
18.0582142949
 30
0.0
 10
10.2470691446
 20
18.0584177866
 30
0.0
 10
10.246711973
 20
18.0585753188
 30
0.0
 10
10.2464009814
 20
18.0586870476
 30
0.0
 10
10.2461355796
 20
18.0587533636
 30
0.0
 10
10.2459143932
 20
18.0587741759
 30
0.0
 10
10.245734199
 20
18.0587484746
 30
0.0
 10
10.2456389209
 20
18.0586920295
 30
0.0
 10
10.2456044152
 20
18.0586575225
 30
0.0
  0
SPLINE
  5
514
100
AcDbEntity
  8
0
100
AcDbSpline
 62
7
  6
CONTINUOUS
 70
0
 71
3
 72
19
 73
15
 74
0
 42
0.0000001
 43
0.0000001
 44
0.0000000001
 40
0.0
 40
0.0
 40
0.0
 40
0.0
 40
0.1965399819
 40
0.3726324123
 40
0.5276748827
 40
0.6613273929
 40
0.7201545743
 40
0.7737165107
 40
0.8221451803
 40
0.8656509215
 40
0.9045642849
 40
0.9393900782
 40
0.9708615346
 40
1.0
 40
1.0
 40
1.0
 40
1.0
 10
7.2691882974
 20
16.0248801957
 30
0.0
 10
7.2696390993
 20
16.023806112
 30
0.0
 10
7.2704621718
 20
16.0217561201
 30
0.0
 10
7.2715101995
 20
16.0188083804
 30
0.0
 10
7.2723001617
 20
16.0161680182
 30
0.0
 10
7.2727587381
 20
16.0141574213
 30
0.0
 10
7.2729791812
 20
16.0127153153
 30
0.0
 10
7.2730696369
 20
16.0117658674
 30
0.0
 10
7.2730923924
 20
16.0109030204
 30
0.0
 10
7.2730470325
 20
16.0101276882
 30
0.0
 10
7.2729330201
 20
16.0094405999
 30
0.0
 10
7.2727494067
 20
16.0088422312
 30
0.0
 10
7.2724947645
 20
16.0083338018
 30
0.0
 10
7.2722701409
 20
16.0080491635
 30
0.0
 10
7.272148019
 20
16.0079270542
 30
0.0
  0
SPLINE
  5
515
100
AcDbEntity
  8
0
100
AcDbSpline
 62
7
  6
CONTINUOUS
 70
0
 71
3
 72
26
 73
22
 74
0
 42
0.0000001
 43
0.0000001
 44
0.0000000001
 40
0.0
 40
0.0
 40
0.0
 40
0.0
 40
0.0089375172
 40
0.0185025442
 40
0.0291562047
 40
0.0412271922
 40
0.0549295353
 40
0.0703966089
 40
0.0877068989
 40
0.1068988069
 40
0.1279867164
 40
0.150962404
 40
0.2024711136
 40
0.261116717
 40
0.3264329175
 40
0.3978336613
 40
0.4746291769
 40
0.5560372302
 40
0.6411957645
 40
0.8189774656
 40
1.0
 40
1.0
 40
1.0
 40
1.0
 10
8.0752088095
 20
15.1556015497
 30
0.0
 10
8.0753857039
 20
15.155778462
 30
0.0
 10
8.0758040019
 20
15.1560956158
 30
0.0
 10
8.076562448
 20
15.1564146608
 30
0.0
 10
8.0774542186
 20
15.1565899104
 30
0.0
 10
8.0784765439
 20
15.1566249647
 30
0.0
 10
8.0796286232
 20
15.1565223686
 30
0.0
 10
8.0809090439
 20
15.156282915
 30
0.0
 10
8.0823155509
 20
15.1559071234
 30
0.0
 10
8.0838452399
 20
15.1553957929
 30
0.0
 10
8.0854945159
 20
15.1547497736
 30
0.0
 10
8.0879422874
 20
15.1536686087
 30
0.0
 10
8.0912645284
 20
15.1519741684
 30
0.0
 10
8.0955153299
 20
15.149509945
 30
0.0
 10
8.1001250472
 20
15.1465651453
 30
0.0
 10
8.105044352
 20
15.1431690604
 30
0.0
 10
8.1102195044
 20
15.1393563613
 30
0.0
 10
8.1155927766
 20
15.1351677459
 30
0.0
 10
8.1230465494
 20
15.1290548526
 30
0.0
 10
8.1323794535
 20
15.1208425376
 30
0.0
 10
8.1396361682
 20
15.1138938613
 30
0.0
 10
8.14321921
 20
15.1103108196
 30
0.0
  0
SPLINE
  5
516
100
AcDbEntity
  8
0
100
AcDbSpline
 62
7
  6
CONTINUOUS
 70
0
 71
3
 72
45
 73
41
 74
0
 42
0.0000001
 43
0.0000001
 44
0.0000000001
 40
0.0
 40
0.0
 40
0.0
 40
0.0
 40
0.029239613
 40
0.0608108024
 40
0.1301997359
 40
0.2065621543
 40
0.2881307661
 40
0.3730179565
 40
0.4592597074
 40
0.5448613151
 40
0.627843637
 40
0.6677496809
 40
0.7062890383
 40
0.7432389681
 40
0.7783859699
 40
0.8115270781
 40
0.8424710867
 40
0.8710396194
 40
0.897068235
 40
0.9204075236
 40
0.9409240463
 40
0.9500867891
 40
0.9585015445
 40
0.966156834
 40
0.9730419749
 40
0.9791482136
 40
0.98446773
 40
0.9889950036
 40
0.9909604389
 40
0.9927267211
 40
0.9942941048
 40
0.9956632542
 40
0.9968354273
 40
0.997812956
 40
0.9986004159
 40
0.9992072033
 40
0.9994491931
 40
0.9996560445
 40
0.9998356741
 40
1.0
 40
1.0
 40
1.0
 40
1.0
 10
10.1618448681
 20
17.8060886881
 30
0.0
 10
10.166641888
 20
17.8017178587
 30
0.0
 10
10.1765990214
 20
17.7926063428
 30
0.0
 10
10.1978543503
 20
17.7730288967
 30
0.0
 10
10.2266970201
 20
17.7462515806
 30
0.0
 10
10.2635593388
 20
17.7118033376
 30
0.0
 10
10.3028569908
 20
17.6749233537
 30
0.0
 10
10.3437068923
 20
17.6364932849
 30
0.0
 10
10.3851902831
 20
17.5974302679
 30
0.0
 10
10.4263742913
 20
17.5586660223
 30
0.0
 10
10.4600990281
 20
17.5269815691
 30
0.0
 10
10.4862440516
 20
17.5024843377
 30
0.0
 10
10.5049536676
 20
17.4849941078
 30
0.0
 10
10.5229157282
 20
17.4682509562
 30
0.0
 10
10.5400297658
 20
17.4523552583
 30
0.0
 10
10.5562002077
 20
17.437402431
 30
0.0
 10
10.5713369334
 20
17.4234823798
 30
0.0
 10
10.5853557932
 20
17.4106789831
 30
0.0
 10
10.5981790206
 20
17.3990694912
 30
0.0
 10
10.6097358299
 20
17.3887242859
 30
0.0
 10
10.6185614584
 20
17.3809408248
 30
0.0
 10
10.6249472508
 20
17.3753994297
 30
0.0
 10
10.629199981
 20
17.371755442
 30
0.0
 10
10.6330938029
 20
17.3684696933
 30
0.0
 10
10.6366235649
 20
17.3655472739
 30
0.0
 10
10.6397844142
 20
17.3629925512
 30
0.0
 10
10.6425722428
 20
17.3608094696
 30
0.0
 10
10.6446694604
 20
17.3592357323
 30
0.0
 10
10.6461610238
 20
17.3581700648
 30
0.0
 10
10.647130658
 20
17.3575042788
 30
0.0
 10
10.6480047259
 20
17.3569335699
 30
0.0
 10
10.6487830359
 20
17.3564579881
 30
0.0
 10
10.6494653486
 20
17.3560775235
 30
0.0
 10
10.6500518853
 20
17.3557916237
 30
0.0
 10
10.6505426856
 20
17.3556000814
 30
0.0
 10
10.6508971473
 20
17.3555108855
 30
0.0
 10
10.6511317185
 20
17.3554962737
 30
0.0
 10
10.6512713284
 20
17.3555105614
 30
0.0
 10
10.651388384
 20
17.3555500841
 30
0.0
 10
10.6514516711
 20
17.355595344
 30
0.0
 10
10.6514774619
 20
17.3556211319
 30
0.0
  0
SPLINE
  5
517
100
AcDbEntity
  8
0
100
AcDbSpline
 62
7
  6
CONTINUOUS
 70
0
 71
3
 72
15
 73
11
 74
0
 42
0.0000001
 43
0.0000001
 44
0.0000000001
 40
0.0
 40
0.0
 40
0.0
 40
0.0
 40
0.1687599802
 40
0.3232404955
 40
0.4638937183
 40
0.5914482966
 40
0.7069754105
 40
0.8120234148
 40
0.9087547724
 40
1.0
 40
1.0
 40
1.0
 40
1.0
 10
7.5123721351
 20
15.781696358
 30
0.0
 10
7.5124462645
 20
15.7812709131
 30
0.0
 10
7.5125679014
 20
15.7804522152
 30
0.0
 10
7.5126693111
 20
15.7792685742
 30
0.0
 10
7.5126811001
 20
15.7781857774
 30
0.0
 10
7.512602955
 20
15.7772052934
 30
0.0
 10
7.5124342163
 20
15.7763283317
 30
0.0
 10
7.5121735557
 20
15.7755561071
 30
0.0
 10
7.5118198258
 20
15.7748907596
 30
0.0
 10
7.5115150665
 20
15.7745136558
 30
0.0
 10
7.5113499519
 20
15.774348558
 30
0.0
  0
LINE
  5
518
100
AcDbEntity
  8
0
100
AcDbLine
 62
7
  6
CONTINUOUS
 10
7.7906798071
 20
15.503389648
 11
7.7899085181
 21
15.5023426879
  0
SPLINE
  5
519
100
AcDbEntity
  8
0
100
AcDbSpline
 62
7
  6
CONTINUOUS
 70
0
 71
3
 72
29
 73
25
 74
0
 42
0.0000001
 43
0.0000001
 44
0.0000000001
 40
0.0
 40
0.0
 40
0.0
 40
0.0
 40
0.0017814977
 40
0.0038894802
 40
0.0064528307
 40
0.0095426601
 40
0.0131973839
 40
0.0174374962
 40
0.0277112964
 40
0.0404008847
 40
0.0554910186
 40
0.072945495
 40
0.0927095181
 40
0.1147193575
 40
0.1388991916
 40
0.1934328956
 40
0.2555714263
 40
0.3244837907
 40
0.3992638771
 40
0.4789435658
 40
0.5625009253
 40
0.6488697627
 40
0.8255972891
 40
1.0
 40
1.0
 40
1.0
 40
1.0
 10
8.8524114133
 20
14.3624864321
 30
0.0
 10
8.8524510146
 20
14.3625260196
 30
0.0
 10
8.8525558106
 20
14.3625944988
 30
0.0
 10
8.8527524401
 20
14.3626509495
 30
0.0
 10
8.852996539
 20
14.3626717303
 30
0.0
 10
8.8532893284
 20
14.3626575136
 30
0.0
 10
8.8536314828
 20
14.3626086888
 30
0.0
 10
8.8541902578
 20
14.3624892815
 30
0.0
 10
8.8550104714
 20
14.3622437258
 30
0.0
 10
8.8561332718
 20
14.3618304825
 30
0.0
 10
8.8574453072
 20
14.3612818064
 30
0.0
 10
8.8589414625
 20
14.3605996776
 30
0.0
 10
8.8606162025
 20
14.3597863803
 30
0.0
 10
8.8624632022
 20
14.3588448893
 30
0.0
 10
8.8652607335
 20
14.357362584
 30
0.0
 10
8.8691300832
 20
14.3552104083
 30
0.0
 10
8.8741726635
 20
14.3522776345
 30
0.0
 10
8.8797147542
 20
14.3489395096
 30
0.0
 10
8.8856824293
 20
14.3452405969
 30
0.0
 10
8.891997407
 20
14.3412291842
 30
0.0
 10
8.8985778829
 20
14.3369571454
 30
0.0
 10
8.9076620504
 20
14.3309405831
 30
0.0
 10
8.9190271096
 20
14.323197893
 30
0.0
 10
8.9280427808
 20
14.3168310468
 30
0.0
 10
8.9324900751
 20
14.313626246
 30
0.0
  0
SPLINE
  5
51A
100
AcDbEntity
  8
0
100
AcDbSpline
 62
7
  6
CONTINUOUS
 70
0
 71
3
 72
21
 73
17
 74
0
 42
0.0000001
 43
0.0000001
 44
0.0000000001
 40
0.0
 40
0.0
 40
0.0
 40
0.0
 40
0.0108362331
 40
0.0217859181
 40
0.0452571513
 40
0.0726717872
 40
0.105406821
 40
0.1442336021
 40
0.1895708415
 40
0.2416113482
 40
0.3004248487
 40
0.3659804132
 40
0.4381877278
 40
0.6018959776
 40
0.7899139346
 40
1.0
 40
1.0
 40
1.0
 40
1.0
 10
7.3509828066
 20
15.8946787546
 30
0.0
 10
7.3510578172
 20
15.8947537801
 30
0.0
 10
7.3512225825
 20
15.8948914214
 30
0.0
 10
7.3516105842
 20
15.8951099622
 30
0.0
 10
7.3522087522
 20
15.8952590283
 30
0.0
 10
7.3530334698
 20
15.8952374718
 30
0.0
 10
7.3539846601
 20
15.8950332002
 30
0.0
 10
7.3550647267
 20
15.8946477755
 30
0.0
 10
7.3562736973
 20
15.8940816045
 30
0.0
 10
7.3576095343
 20
15.8933353092
 30
0.0
 10
7.3590687056
 20
15.8924100004
 30
0.0
 10
7.3606471429
 20
15.8913079643
 30
0.0
 10
7.3630042562
 20
15.8895307086
 30
0.0
 10
7.3661992217
 20
15.8868779878
 30
0.0
 10
7.3702735299
 20
15.8831811024
 30
0.0
 10
7.3730675605
 20
15.880462469
 30
0.0
 10
7.3745219623
 20
15.8790080672
 30
0.0
  0
SPLINE
  5
51B
100
AcDbEntity
  8
0
100
AcDbSpline
 62
9
  6
CONTINUOUS
 70
0
 71
3
 72
35
 73
31
 74
0
 42
0.0000001
 43
0.0000001
 44
0.0000000001
 40
0.0
 40
0.0
 40
0.0
 40
0.0
 40
0.0217655389
 40
0.0466332011
 40
0.0744208269
 40
0.1049379957
 40
0.1732712466
 40
0.2496908542
 40
0.3320403613
 40
0.418025529
 40
0.505287617
 40
0.5914667909
 40
0.6742578907
 40
0.7514592823
 40
0.8210172411
 40
0.8523395354
 40
0.8810710241
 40
0.9070168537
 40
0.9300007394
 40
0.9498689444
 40
0.966491243
 40
0.9735542315
 40
0.9797723683
 40
0.9851420775
 40
0.9896643937
 40
0.99334975
 40
0.9962298131
 40
0.9973906613
 40
0.9983862758
 40
1.0
 40
1.0
 40
1.0
 40
1.0
 10
7.2953978025
 20
15.7587174473
 30
0.0
 10
7.2960947974
 20
15.7580211653
 30
0.0
 10
7.2975668644
 20
15.7565080532
 30
0.0
 10
7.2998673264
 20
15.7540471116
 30
0.0
 10
7.302394696
 20
15.751256681
 30
0.0
 10
7.3061889391
 20
15.7469598748
 30
0.0
 10
7.3113431926
 20
15.7409282051
 30
0.0
 10
7.3178976738
 20
15.7330089402
 30
0.0
 10
7.3248454662
 20
15.7243793725
 30
0.0
 10
7.331994477
 20
15.7152828449
 30
0.0
 10
7.339146967
 20
15.7059695143
 30
0.0
 10
7.3461094425
 20
15.6966934395
 30
0.0
 10
7.3526947124
 20
15.6877045196
 30
0.0
 10
7.3587270461
 20
15.6792441983
 30
0.0
 10
7.3633071028
 20
15.6726105515
 30
0.0
 10
7.3665671014
 20
15.6677328116
 30
0.0
 10
7.3686924087
 20
15.6644713817
 30
0.0
 10
7.3705702376
 20
15.6614995604
 30
0.0
 10
7.3721878534
 20
15.6588383351
 30
0.0
 10
7.3735339075
 20
15.656506697
 30
0.0
 10
7.3744672171
 20
15.6547695586
 30
0.0
 10
7.3750640003
 20
15.6535545081
 30
0.0
 10
7.3754133152
 20
15.6527857676
 30
0.0
 10
7.3756889681
 20
15.6521104387
 30
0.0
 10
7.3758910247
 20
15.6515295302
 30
0.0
 10
7.3760191708
 20
15.6510437976
 30
0.0
 10
7.3760693044
 20
15.6506960232
 30
0.0
 10
7.3760642182
 20
15.6504672209
 30
0.0
 10
7.3760367607
 20
15.6502990328
 30
0.0
 10
7.3759827844
 20
15.6501864979
 30
0.0
 10
7.3759311244
 20
15.6501348585
 30
0.0
  0
SPLINE
  5
51C
100
AcDbEntity
  8
0
100
AcDbSpline
 62
9
  6
CONTINUOUS
 70
0
 71
3
 72
15
 73
11
 74
0
 42
0.0000001
 43
0.0000001
 44
0.0000000001
 40
0.0
 40
0.0
 40
0.0
 40
0.0
 40
0.1242553036
 40
0.2430432653
 40
0.3551414227
 40
0.4643717356
 40
0.5835680321
 40
0.7137712462
 40
0.8535219093
 40
1.0
 40
1.0
 40
1.0
 40
1.0
 10
7.2972798127
 20
15.7733769233
 30
0.0
 10
7.2976719635
 20
15.7728399239
 30
0.0
 10
7.2983290749
 20
15.7717041137
 30
0.0
 10
7.2989323306
 20
15.7698901043
 30
0.0
 10
7.2991869407
 20
15.7680787338
 30
0.0
 10
7.2991399655
 20
15.7662495295
 30
0.0
 10
7.2987831959
 20
15.7643551771
 30
0.0
 10
7.2980623292
 20
15.7623906685
 30
0.0
 10
7.2969441513
 20
15.7604507933
 30
0.0
 10
7.2959551432
 20
15.7592686611
 30
0.0
 10
7.2954006643
 20
15.7587145835
 30
0.0
  0
SPLINE
  5
51D
100
AcDbEntity
  8
0
100
AcDbSpline
 62
7
  6
CONTINUOUS
 70
0
 71
3
 72
25
 73
21
 74
0
 42
0.0000001
 43
0.0000001
 44
0.0000000001
 40
0.0
 40
0.0
 40
0.0
 40
0.0
 40
0.0096979397
 40
0.0198002192
 40
0.0307113477
 40
0.0427511125
 40
0.0561534323
 40
0.0710791321
 40
0.0876378663
 40
0.1059003978
 40
0.1476689254
 40
0.1965177188
 40
0.2523496754
 40
0.3149240556
 40
0.3838925799
 40
0.458816628
 40
0.5391770948
 40
0.6243875339
 40
0.8066952326
 40
1.0
 40
1.0
 40
1.0
 40
1.0
 10
7.819473609
 20
15.4165783576
 30
0.0
 10
7.8196218669
 20
15.4167266342
 30
0.0
 10
7.8199603645
 20
15.4169956446
 30
0.0
 10
7.8205620334
 20
15.417287128
 30
0.0
 10
7.8212565742
 20
15.4174707258
 30
0.0
 10
7.8220414486
 20
15.4175481286
 30
0.0
 10
7.8229157678
 20
15.4175208534
 30
0.0
 10
7.8238787949
 20
15.417389803
 30
0.0
 10
7.8249295794
 20
15.4171553008
 30
0.0
 10
7.8265179153
 20
15.4166831807
 30
0.0
 10
7.8287103647
 20
15.4158141621
 30
0.0
 10
7.8315530137
 20
15.4144144743
 30
0.0
 10
7.83469534
 20
15.4126209941
 30
0.0
 10
7.8381141861
 20
15.4104451702
 30
0.0
 10
7.8417837573
 20
15.4079013766
 30
0.0
 10
7.8456753184
 20
15.4050078855
 30
0.0
 10
7.8497578894
 20
15.4017865212
 30
0.0
 10
7.8555427166
 20
15.3969782057
 30
0.0
 10
7.8629804521
 20
15.3903436565
 30
0.0
 10
7.8688265454
 20
15.3847034841
 30
0.0
 10
7.8717818916
 20
15.3817481379
 30
0.0
  0
SPLINE
  5
51E
100
AcDbEntity
  8
0
100
AcDbSpline
 62
7
  6
CONTINUOUS
 70
0
 71
3
 72
13
 73
9
 74
0
 42
0.0000001
 43
0.0000001
 44
0.0000000001
 40
0.0
 40
0.0
 40
0.0
 40
0.0
 40
0.1172413441
 40
0.2396744055
 40
0.4943840371
 40
0.7520331472
 40
0.8780198824
 40
1.0
 40
1.0
 40
1.0
 40
1.0
 10
8.3587310427
 20
14.8873852783
 30
0.0
 10
8.3606864122
 20
14.886017338
 30
0.0
 10
8.3646474902
 20
14.8831687637
 30
0.0
 10
8.3726797019
 20
14.8771059308
 30
0.0
 10
8.3827364335
 20
14.8689874118
 30
0.0
 10
8.3925143444
 20
14.8604251448
 30
0.0
 10
8.4000390108
 20
14.8534032702
 30
0.0
 10
8.4036519087
 20
14.8498781208
 30
0.0
 10
8.405407526
 20
14.8481225035
 30
0.0
  0
SPLINE
  5
51F
100
AcDbEntity
  8
0
100
AcDbSpline
 62
7
  6
CONTINUOUS
 70
0
 71
3
 72
20
 73
16
 74
0
 42
0.0000001
 43
0.0000001
 44
0.0000000001
 40
0.0
 40
0.0
 40
0.0
 40
0.0
 40
0.0189600598
 40
0.0297376259
 40
0.0416670119
 40
0.0695371833
 40
0.1033826848
 40
0.1435771957
 40
0.1902764078
 40
0.2435226362
 40
0.3032843246
 40
0.4419721341
 40
0.6053153896
 40
0.7918906229
 40
1.0
 40
1.0
 40
1.0
 40
1.0
 10
8.7245415494
 20
14.4929725421
 30
0.0
 10
8.7246498273
 20
14.4930807954
 30
0.0
 10
8.7248590117
 20
14.4932126678
 30
0.0
 10
8.7251776231
 20
14.4933217073
 30
0.0
 10
8.7255789691
 20
14.4934035183
 30
0.0
 10
8.7261765328
 20
14.4934261489
 30
0.0
 10
8.7269970316
 20
14.4933467933
 30
0.0
 10
8.7279554794
 20
14.493161794
 30
0.0
 10
8.729050003
 20
14.4928717515
 30
0.0
 10
8.7302783218
 20
14.4924770954
 30
0.0
 10
8.7321868785
 20
14.491776799
 30
0.0
 10
8.7348769883
 20
14.4906326596
 30
0.0
 10
8.738437417
 20
14.4889303101
 30
0.0
 10
8.7424367201
 20
14.4868521975
 30
0.0
 10
8.7452258681
 20
14.4853090513
 30
0.0
 10
8.7466879637
 20
14.484480436
 30
0.0
  0
SPLINE
  5
520
100
AcDbEntity
  8
0
100
AcDbSpline
 62
9
  6
CONTINUOUS
 70
0
 71
3
 72
18
 73
14
 74
0
 42
0.0000001
 43
0.0000001
 44
0.0000000001
 40
0.0
 40
0.0
 40
0.0
 40
0.0
 40
0.0231397219
 40
0.0534103493
 40
0.0905676399
 40
0.1343147694
 40
0.1842882976
 40
0.2400732562
 40
0.367195308
 40
0.51152782
 40
0.6684341311
 40
0.8329621073
 40
1.0
 40
1.0
 40
1.0
 40
1.0
 10
7.2364655924
 20
15.8176496574
 30
0.0
 10
7.2368798503
 20
15.817235964
 30
0.0
 10
7.2378070965
 20
15.8162523133
 30
0.0
 10
7.239331715
 20
15.8145416147
 30
0.0
 10
7.2411640262
 20
15.8124072988
 30
0.0
 10
7.2432895185
 20
15.8098681484
 30
0.0
 10
7.2456899942
 20
15.8069447807
 30
0.0
 10
7.2493948113
 20
15.8023632051
 30
0.0
 10
7.2545392719
 20
15.7958758676
 30
0.0
 10
7.2611978065
 20
15.7873245996
 30
0.0
 10
7.2683699924
 20
15.7779742262
 30
0.0
 10
7.2758295333
 20
15.7681206153
 30
0.0
 10
7.2808531293
 20
15.7614022075
 30
0.0
 10
7.2833738072
 20
15.7580100575
 30
0.0
  0
SPLINE
  5
521
100
AcDbEntity
  8
0
100
AcDbSpline
 62
7
  6
CONTINUOUS
 70
0
 71
3
 72
15
 73
11
 74
0
 42
0.0000001
 43
0.0000001
 44
0.0000000001
 40
0.0
 40
0.0
 40
0.0
 40
0.0
 40
0.0338768707
 40
0.0722117113
 40
0.1618279672
 40
0.2678716269
 40
0.3891913746
 40
0.5245014223
 40
0.6724077196
 40
1.0
 40
1.0
 40
1.0
 40
1.0
 10
9.0658720837
 20
14.2106229516
 30
0.0
 10
9.0663316589
 20
14.210430387
 30
0.0
 10
9.0673054194
 20
14.2100058811
 30
0.0
 10
9.0694675051
 20
14.209010037
 30
0.0
 10
9.0725569423
 20
14.2074919481
 30
0.0
 10
9.0766967785
 20
14.2053468382
 30
0.0
 10
9.0813933222
 20
14.2028167655
 30
0.0
 10
9.0865961248
 20
14.1999292746
 30
0.0
 10
9.0944064064
 20
14.1954887386
 30
0.0
 10
9.1004400492
 20
14.1919508566
 30
0.0
 10
9.1045811671
 20
14.1894873352
 30
0.0
  0
SPLINE
  5
522
100
AcDbEntity
  8
0
100
AcDbSpline
 62
9
  6
CONTINUOUS
 70
0
 71
3
 72
16
 73
12
 74
0
 42
0.0000001
 43
0.0000001
 44
0.0000000001
 40
0.0
 40
0.0
 40
0.0
 40
0.0
 40
0.1302554677
 40
0.2533692191
 40
0.3679048715
 40
0.4778700757
 40
0.5961283817
 40
0.7235574568
 40
0.8588626902
 40
0.9288776149
 40
1.0
 40
1.0
 40
1.0
 40
1.0
 10
7.2377327972
 20
15.8329239388
 30
0.0
 10
7.2381680893
 20
15.8323443173
 30
0.0
 10
7.238907441
 20
15.8311312293
 30
0.0
 10
7.2396287726
 20
15.8292036466
 30
0.0
 10
7.2399852027
 20
15.8272930287
 30
0.0
 10
7.240026249
 20
15.8253781521
 30
0.0
 10
7.2397457656
 20
15.8234094818
 30
0.0
 10
7.2390868044
 20
15.8213825708
 30
0.0
 10
7.2381956762
 20
15.8197457945
 30
0.0
 10
7.2372777627
 20
15.8185089555
 30
0.0
 10
7.2367487006
 20
15.8179262881
 30
0.0
 10
7.2364687188
 20
15.817646529
 30
0.0
  0
SPLINE
  5
523
100
AcDbEntity
  8
0
100
AcDbSpline
 62
7
  6
CONTINUOUS
 70
0
 71
3
 72
20
 73
16
 74
0
 42
0.0000001
 43
0.0000001
 44
0.0000000001
 40
0.0
 40
0.0
 40
0.0
 40
0.0
 40
0.0386357717
 40
0.0515719461
 40
0.0660300003
 40
0.0997380157
 40
0.1400601301
 40
0.1870825813
 40
0.2407886015
 40
0.301091292
 40
0.3678647725
 40
0.440943704
 40
0.6052453967
 40
0.7922634974
 40
1.0
 40
1.0
 40
1.0
 40
1.0
 10
8.9486302929
 20
14.3271319453
 30
0.0
 10
8.9489191515
 20
14.3274207713
 30
0.0
 10
8.9495007688
 20
14.3275808589
 30
0.0
 10
8.950190913
 20
14.3276259374
 30
0.0
 10
8.9508391651
 20
14.3276167221
 30
0.0
 10
8.9517695629
 20
14.3275088823
 30
0.0
 10
8.9530251469
 20
14.3272543857
 30
0.0
 10
8.9544661762
 20
14.3268680358
 30
0.0
 10
8.9560888749
 20
14.3263511954
 30
0.0
 10
8.9578881451
 20
14.3257053182
 30
0.0
 10
8.9598584075
 20
14.3249324398
 30
0.0
 10
8.9628230852
 20
14.323686162
 30
0.0
 10
8.9669042986
 20
14.3218188878
 30
0.0
 10
8.9722047067
 20
14.3192017855
 30
0.0
 10
8.975902732
 20
14.3172660667
 30
0.0
 10
8.9778390502
 20
14.316229452
 30
0.0
  0
SPLINE
  5
524
100
AcDbEntity
  8
0
100
AcDbSpline
 62
9
  6
CONTINUOUS
 70
0
 71
3
 72
33
 73
29
 74
0
 42
0.0000001
 43
0.0000001
 44
0.0000000001
 40
0.0
 40
0.0
 40
0.0
 40
0.0
 40
0.0019763383
 40
0.0043615926
 40
0.0073385853
 40
0.010999782
 40
0.0153911748
 40
0.0205343866
 40
0.0264392461
 40
0.0331086952
 40
0.048723336
 40
0.0673216178
 40
0.0888089082
 40
0.1130678924
 40
0.1399591139
 40
0.1693271253
 40
0.2010011695
 40
0.2347959702
 40
0.3079490758
 40
0.3870809004
 40
0.4703376855
 40
0.5557529094
 40
0.6412848619
 40
0.7248600798
 40
0.8044233873
 40
0.8779959615
 40
0.9437334484
 40
1.0
 40
1.0
 40
1.0
 40
1.0
 10
8.3589797879
 20
14.6683198466
 30
0.0
 10
8.3590403803
 20
14.6683804611
 30
0.0
 10
8.3592075173
 20
14.6684814509
 30
0.0
 10
8.3595229319
 20
14.6685446763
 30
0.0
 10
8.3599159868
 20
14.6685404322
 30
0.0
 10
8.3603899965
 20
14.6684694379
 30
0.0
 10
8.3609461201
 20
14.6683321579
 30
0.0
 10
8.3615842986
 20
14.6681284074
 30
0.0
 10
8.3623038673
 20
14.6678583284
 30
0.0
 10
8.3634309562
 20
14.6673843853
 30
0.0
 10
8.3650314028
 20
14.6666195556
 30
0.0
 10
8.3671670126
 20
14.6654900903
 30
0.0
 10
8.3695934746
 20
14.6641115307
 30
0.0
 10
8.3722956626
 20
14.6624922493
 30
0.0
 10
8.375256986
 20
14.6606417983
 30
0.0
 10
8.3784593696
 20
14.6585712489
 30
0.0
 10
8.3818834796
 20
14.656292935
 30
0.0
 10
8.3868499405
 20
14.6529056502
 30
0.0
 10
8.3934457708
 20
14.6482557927
 30
0.0
 10
8.4016957887
 20
14.6422323523
 30
0.0
 10
8.4102807851
 20
14.6357679343
 30
0.0
 10
8.4189957709
 20
14.6290165205
 30
0.0
 10
8.4276301469
 20
14.6221401154
 30
0.0
 10
8.4359720896
 20
14.6153054877
 30
0.0
 10
8.4438149323
 20
14.6086817637
 30
0.0
 10
8.450962423
 20
14.6024354558
 30
0.0
 10
8.4572361838
 20
14.5967272148
 30
0.0
 10
8.4610540382
 20
14.5930626056
 30
0.0
 10
8.4627787271
 20
14.5913365227
 30
0.0
  0
SPLINE
  5
525
100
AcDbEntity
  8
0
100
AcDbSpline
 62
9
  6
CONTINUOUS
 70
0
 71
3
 72
19
 73
15
 74
0
 42
0.0000001
 43
0.0000001
 44
0.0000000001
 40
0.0
 40
0.0
 40
0.0
 40
0.0
 40
0.1843245156
 40
0.3593417195
 40
0.5207872354
 40
0.664661425
 40
0.7873404181
 40
0.8397312283
 40
0.8856911556
 40
0.9249254545
 40
0.9571805411
 40
0.9822553149
 40
0.9920511522
 40
1.0
 40
1.0
 40
1.0
 40
1.0
 10
8.5443554511
 20
14.4995221356
 30
0.0
 10
8.5472381378
 20
14.4973608036
 30
0.0
 10
8.5528508863
 20
14.4931378379
 30
0.0
 10
8.5609629991
 20
14.486987997
 30
0.0
 10
8.5684212198
 20
14.481284526
 30
0.0
 10
8.5750405834
 20
14.4761684269
 30
0.0
 10
8.5799483448
 20
14.472323736
 30
0.0
 10
8.5833293395
 20
14.4696339271
 30
0.0
 10
8.5854235057
 20
14.4679465845
 30
0.0
 10
8.5871996104
 20
14.466491885
 30
0.0
 10
8.5886460455
 20
14.4652791852
 30
0.0
 10
8.5896364974
 20
14.4644183285
 30
0.0
 10
8.5902534852
 20
14.4638527053
 30
0.0
 10
8.5905034954
 20
14.4636121852
 30
0.0
 10
8.590613146
 20
14.4635021038
 30
0.0
  0
SPLINE
  5
526
100
AcDbEntity
  8
0
100
AcDbSpline
 62
7
  6
CONTINUOUS
 70
0
 71
3
 72
19
 73
15
 74
0
 42
0.0000001
 43
0.0000001
 44
0.0000000001
 40
0.0
 40
0.0
 40
0.0
 40
0.0
 40
0.0291384645
 40
0.0606099082
 40
0.0954357075
 40
0.134349082
 40
0.1778548355
 40
0.2262835509
 40
0.2798455214
 40
0.3386726886
 40
0.4723251995
 40
0.6273677246
 40
0.8034601836
 40
1.0
 40
1.0
 40
1.0
 40
1.0
 10
8.7693981264
 20
14.5106769468
 30
0.0
 10
8.7695202359
 20
14.5107990688
 30
0.0
 10
8.7698048743
 20
14.5110236926
 30
0.0
 10
8.7703133039
 20
14.5112783355
 30
0.0
 10
8.7709116734
 20
14.5114619485
 30
0.0
 10
8.7715987626
 20
14.5115759606
 30
0.0
 10
8.7723740959
 20
14.5116213206
 30
0.0
 10
8.7732369443
 20
14.5115985644
 30
0.0
 10
8.7741863934
 20
14.5115081082
 30
0.0
 10
8.7756285009
 20
14.5112876651
 30
0.0
 10
8.7776390997
 20
14.5108290871
 30
0.0
 10
8.7802794647
 20
14.5100391234
 30
0.0
 10
8.7832272064
 20
14.5089910943
 30
0.0
 10
8.7852771994
 20
14.5081680212
 30
0.0
 10
8.7863512832
 20
14.5077172191
 30
0.0
  0
SPLINE
  5
527
100
AcDbEntity
  8
0
100
AcDbSpline
 62
9
  6
CONTINUOUS
 70
0
 71
3
 72
18
 73
14
 74
0
 42
0.0000001
 43
0.0000001
 44
0.0000000001
 40
0.0
 40
0.0
 40
0.0
 40
0.0
 40
0.1339373564
 40
0.2785736839
 40
0.4273080559
 40
0.5732921257
 40
0.7096915024
 40
0.7722396396
 40
0.829992544
 40
0.8822449771
 40
0.9283553587
 40
0.9677657183
 40
1.0
 40
1.0
 40
1.0
 40
1.0
 10
8.4638564378
 20
14.5728510771
 30
0.0
 10
8.4676564534
 20
14.5701712015
 30
0.0
 10
8.4755120933
 20
14.5645292903
 30
0.0
 10
8.4874470033
 20
14.5557177442
 30
0.0
 10
8.49960896
 20
14.546511364
 30
0.0
 10
8.5114343755
 20
14.5373360113
 30
0.0
 10
8.5207995944
 20
14.529872353
 30
0.0
 10
8.5277000914
 20
14.5242325614
 30
0.0
 10
8.5323032415
 20
14.5203986017
 30
0.0
 10
8.5364293999
 20
14.5168841373
 30
0.0
 10
8.5400283081
 20
14.5137332656
 30
0.0
 10
8.5430547969
 20
14.5109846424
 30
0.0
 10
8.5448521206
 20
14.5092644004
 30
0.0
 10
8.5456427967
 20
14.5084724531
 30
0.0
  0
SPLINE
  5
528
100
AcDbEntity
  8
0
100
AcDbSpline
 62
9
  6
CONTINUOUS
 70
0
 71
3
 72
27
 73
23
 74
0
 42
0.0000001
 43
0.0000001
 44
0.0000000001
 40
0.0
 40
0.0
 40
0.0
 40
0.0
 40
0.0072841153
 40
0.0152023319
 40
0.0242720905
 40
0.0348361299
 40
0.0471050235
 40
0.0611998599
 40
0.0771899623
 40
0.0951110951
 40
0.1149727248
 40
0.1367707225
 40
0.1860900053
 40
0.2428216717
 40
0.306593545
 40
0.3769420579
 40
0.4533239123
 40
0.5351229767
 40
0.6216640843
 40
0.7122168901
 40
0.8059992115
 40
1.0
 40
1.0
 40
1.0
 40
1.0
 10
7.8005922463
 20
15.2398146728
 30
0.0
 10
7.8007079218
 20
15.2399303614
 30
0.0
 10
7.8009905485
 20
15.2401333266
 30
0.0
 10
7.8015125179
 20
15.2403100688
 30
0.0
 10
7.802132206
 20
15.2403715987
 30
0.0
 10
7.802849422
 20
15.2403224569
 30
0.0
 10
7.8036651566
 20
15.2401643242
 30
0.0
 10
7.8045793585
 20
15.239897782
 30
0.0
 10
7.8055910747
 20
15.2395229851
 30
0.0
 10
7.8066986846
 20
15.2390402747
 30
0.0
 10
7.8079002908
 20
15.2384504954
 30
0.0
 10
7.8096998442
 20
15.2374817388
 30
0.0
 10
7.8121607568
 20
15.23599905
 30
0.0
 10
7.8153356715
 20
15.2338837378
 30
0.0
 10
7.818816289
 20
15.2313805755
 30
0.0
 10
7.8225732813
 20
15.2285096246
 30
0.0
 10
7.8265746278
 20
15.2252942878
 30
0.0
 10
7.8307859153
 20
15.2217616922
 30
0.0
 10
7.8351704829
 20
15.2179420915
 30
0.0
 10
7.8396896799
 20
15.2138686503
 30
0.0
 10
7.8459121773
 20
15.2080816846
 30
0.0
 10
7.8505446148
 20
15.2035724229
 30
0.0
 10
7.8536247273
 20
15.2004905224
 30
0.0
  0
SPLINE
  5
529
100
AcDbEntity
  8
0
100
AcDbSpline
 62
9
  6
CONTINUOUS
 70
0
 71
3
 72
12
 73
8
 74
0
 42
0.0000001
 43
0.0000001
 44
0.0000000001
 40
0.0
 40
0.0
 40
0.0
 40
0.0
 40
0.3418104659
 40
0.6224363616
 40
0.841717158
 40
0.928419185
 40
1.0
 40
1.0
 40
1.0
 40
1.0
 10
8.5597579055
 20
14.5070814539
 30
0.0
 10
8.5602032286
 20
14.5068172661
 30
0.0
 10
8.5610194972
 20
14.5063449033
 30
0.0
 10
8.5621442721
 20
14.5057439961
 30
0.0
 10
8.5629485416
 20
14.5053639422
 30
0.0
 10
8.5634820317
 20
14.5051571709
 30
0.0
 10
8.5637111056
 20
14.5050851943
 30
0.0
 10
8.5638161813
 20
14.5050584162
 30
0.0
  0
SPLINE
  5
52A
100
AcDbEntity
  8
0
100
AcDbSpline
 62
9
  6
CONTINUOUS
 70
0
 71
3
 72
18
 73
14
 74
0
 42
0.0000001
 43
0.0000001
 44
0.0000000001
 40
0.0
 40
0.0
 40
0.0
 40
0.0
 40
0.1564489586
 40
0.2737819981
 40
0.3200039569
 40
0.3600492947
 40
0.3966934219
 40
0.4335121466
 40
0.4740517793
 40
0.5210123091
 40
0.6402877208
 40
0.7990125225
 40
1.0
 40
1.0
 40
1.0
 40
1.0
 10
8.5638161813
 20
14.5050584162
 30
0.0
 10
8.5639021746
 20
14.5050365011
 30
0.0
 10
8.5640543552
 20
14.5050047858
 30
0.0
 10
8.5642379051
 20
14.5049971939
 30
0.0
 10
8.5643514266
 20
14.5050220257
 30
0.0
 10
8.5644150593
 20
14.50505248
 30
0.0
 10
8.5644630655
 20
14.5050970926
 30
0.0
 10
8.5644936753
 20
14.5051553414
 30
0.0
 10
8.5645068941
 20
14.5052254191
 30
0.0
 10
8.5645023907
 20
14.5053433069
 30
0.0
 10
8.5644495901
 20
14.5055220966
 30
0.0
 10
8.5643322185
 20
14.5057674034
 30
0.0
 10
8.5642262291
 20
14.5059421722
 30
0.0
 10
8.5641643118
 20
14.5060378981
 30
0.0
  0
SPLINE
  5
52B
100
AcDbEntity
  8
0
100
AcDbSpline
 62
9
  6
CONTINUOUS
 70
0
 71
3
 72
12
 73
8
 74
0
 42
0.0000001
 43
0.0000001
 44
0.0000000001
 40
0.0
 40
0.0
 40
0.0
 40
0.0
 40
0.0766000672
 40
0.1669964518
 40
0.3894503493
 40
0.6674232244
 40
1.0
 40
1.0
 40
1.0
 40
1.0
 10
8.5641643118
 20
14.5060378981
 30
0.0
 10
8.5640890981
 20
14.5061541807
 30
0.0
 10
8.5639160268
 20
14.5064018071
 30
0.0
 10
8.5634863858
 20
14.5069598084
 30
0.0
 10
8.5627904145
 20
14.5077709439
 30
0.0
 10
8.5617653506
 20
14.5088744727
 30
0.0
 10
8.5609919826
 20
14.5096622887
 30
0.0
 10
8.5605668464
 20
14.5100874827
 30
0.0
  0
SPLINE
  5
52C
100
AcDbEntity
  8
0
100
AcDbSpline
 62
9
  6
CONTINUOUS
 70
0
 71
3
 72
25
 73
21
 74
0
 42
0.0000001
 43
0.0000001
 44
0.0000000001
 40
0.0
 40
0.0
 40
0.0
 40
0.0
 40
0.0077502988
 40
0.0159675067
 40
0.0251259211
 40
0.0355676059
 40
0.0475203628
 40
0.0611317832
 40
0.0764922227
 40
0.0936560396
 40
0.1334979029
 40
0.1807377534
 40
0.2352842301
 40
0.2969328455
 40
0.3654035828
 40
0.4403478121
 40
0.5213599797
 40
0.6079872364
 40
0.7960171927
 40
1.0
 40
1.0
 40
1.0
 40
1.0
 10
7.6494384036
 20
15.3945233593
 30
0.0
 10
7.6495299884
 20
15.3946145815
 30
0.0
 10
7.6497464592
 20
15.394776524
 30
0.0
 10
7.6501405011
 20
15.3949306792
 30
0.0
 10
7.6506021027
 20
15.3950010029
 30
0.0
 10
7.6511301491
 20
15.3949905403
 30
0.0
 10
7.6517252223
 20
15.3949007926
 30
0.0
 10
7.6523875028
 20
15.3947321047
 30
0.0
 10
7.653116792
 20
15.3944847772
 30
0.0
 10
7.6542341687
 20
15.3940268573
 30
0.0
 10
7.6557891943
 20
15.3932438857
 30
0.0
 10
7.6578237828
 20
15.392041697
 30
0.0
 10
7.6600987503
 20
15.3905383627
 30
0.0
 10
7.6626011865
 20
15.3887418098
 30
0.0
 10
7.665316461
 20
15.3866614161
 30
0.0
 10
7.6682284477
 20
15.3843089806
 30
0.0
 10
7.6713197349
 20
15.3816982281
 30
0.0
 10
7.6757783566
 20
15.3777849659
 30
0.0
 10
7.6816431069
 20
15.3723668702
 30
0.0
 10
7.6863199777
 20
15.3677967505
 30
0.0
 10
7.6887249232
 20
15.3653903266
 30
0.0
  0
SPLINE
  5
52D
100
AcDbEntity
  8
0
100
AcDbSpline
 62
7
  6
CONTINUOUS
 70
0
 71
3
 72
15
 73
11
 74
0
 42
0.0000001
 43
0.0000001
 44
0.0000000001
 40
0.0
 40
0.0
 40
0.0
 40
0.0
 40
0.0912451993
 40
0.1879765296
 40
0.2930245361
 40
0.4085516919
 40
0.5361063829
 40
0.6767596538
 40
0.8312400888
 40
1.0
 40
1.0
 40
1.0
 40
1.0
 10
8.5358196302
 20
14.7498788797
 30
0.0
 10
8.5359847281
 20
14.7500439946
 30
0.0
 10
8.5363618319
 20
14.7503487548
 30
0.0
 10
8.5370271806
 20
14.7507024846
 30
0.0
 10
8.5377994065
 20
14.7509631449
 30
0.0
 10
8.5386763699
 20
14.7511318837
 30
0.0
 10
8.5396568559
 20
14.751210028
 30
0.0
 10
8.5407396545
 20
14.7511982386
 30
0.0
 10
8.5419232969
 20
14.7510968287
 30
0.0
 10
8.5427419955
 20
14.7509751912
 30
0.0
 10
8.5431674408
 20
14.7509010614
 30
0.0
  0
LINE
  5
52E
100
AcDbEntity
  8
0
100
AcDbLine
 62
9
  6
CONTINUOUS
 10
8.6060063586
 20
14.4646479704
 11
8.6021093932
 21
14.4681244326
  0
SPLINE
  5
52F
100
AcDbEntity
  8
0
100
AcDbSpline
 62
9
  6
CONTINUOUS
 70
0
 71
3
 72
13
 73
9
 74
0
 42
0.0000001
 43
0.0000001
 44
0.0000000001
 40
0.0
 40
0.0
 40
0.0
 40
0.0
 40
0.0745469376
 40
0.1666582789
 40
0.2748796547
 40
0.3976058925
 40
0.6803981423
 40
1.0
 40
1.0
 40
1.0
 40
1.0
 10
8.6021093932
 20
14.4681244326
 30
0.0
 10
8.6010377156
 20
14.4690369062
 30
0.0
 10
8.598625285
 20
14.4710573602
 30
0.0
 10
8.5946181511
 20
14.4743557061
 30
0.0
 10
8.589885209
 20
14.4782034915
 30
0.0
 10
8.582331255
 20
14.484288396
 30
0.0
 10
8.5716198887
 20
14.4928155116
 30
0.0
 10
8.5626837309
 20
14.4998517435
 30
0.0
 10
8.5579347957
 20
14.5035748307
 30
0.0
  0
LINE
  5
530
100
AcDbEntity
  8
0
100
AcDbLine
 62
9
  6
CONTINUOUS
 10
8.5579347957
 20
14.5035748307
 11
8.5536339708
 21
14.5069421311
  0
SPLINE
  5
531
100
AcDbEntity
  8
0
100
AcDbSpline
 62
9
  6
CONTINUOUS
 70
0
 71
3
 72
28
 73
24
 74
0
 42
0.0000001
 43
0.0000001
 44
0.0000000001
 40
0.0
 40
0.0
 40
0.0
 40
0.0
 40
0.1349504746
 40
0.2560967938
 40
0.3633741432
 40
0.4567334037
 40
0.5361357173
 40
0.601561376
 40
0.6530356157
 40
0.6735841749
 40
0.6907193639
 40
0.704513851
 40
0.715113577
 40
0.7282681881
 40
0.7339097939
 40
0.7414186464
 40
0.7517531371
 40
0.7652916297
 40
0.7822059374
 40
0.8025882986
 40
0.8539614393
 40
0.9197065753
 40
1.0
 40
1.0
 40
1.0
 40
1.0
 10
8.6043889686
 20
14.4651480499
 30
0.0
 10
8.6045193756
 20
14.4650614534
 30
0.0
 10
8.6047674394
 20
14.4648980022
 30
0.0
 10
8.6051215451
 20
14.4646693439
 30
0.0
 10
8.605437442
 20
14.4644704912
 30
0.0
 10
8.6057149179
 20
14.4643015562
 30
0.0
 10
8.605953739
 20
14.4641625758
 30
0.0
 10
8.6061537618
 20
14.4640536579
 30
0.0
 10
8.6062968456
 20
14.4639831987
 30
0.0
 10
8.6063922859
 20
14.4639430493
 30
0.0
 10
8.6064482771
 20
14.463922749
 30
0.0
 10
8.6064953734
 20
14.4639099958
 30
0.0
 10
8.606536841
 20
14.4639032381
 30
0.0
 10
8.6065776415
 20
14.4639084355
 30
0.0
 10
8.6065883677
 20
14.4639396749
 30
0.0
 10
8.606583393
 20
14.4639668916
 30
0.0
 10
8.6065698432
 20
14.4640007761
 30
0.0
 10
8.6065465121
 20
14.4640420605
 30
0.0
 10
8.6065135827
 20
14.4640910084
 30
0.0
 10
8.6064515184
 20
14.4641730818
 30
0.0
 10
8.6063477297
 20
14.4642943353
 30
0.0
 10
8.6061915436
 20
14.4644618366
 30
0.0
 10
8.6060724424
 20
14.4645823363
 30
0.0
 10
8.6060063586
 20
14.4646479704
 30
0.0
  0
SPLINE
  5
532
100
AcDbEntity
  8
0
100
AcDbSpline
 62
9
  6
CONTINUOUS
 70
0
 71
3
 72
26
 73
22
 74
0
 42
0.0000001
 43
0.0000001
 44
0.0000000001
 40
0.0
 40
0.0
 40
0.0
 40
0.0
 40
0.1978417205
 40
0.3836198773
 40
0.4702078322
 40
0.5517165745
 40
0.6275534371
 40
0.6971847391
 40
0.7601425235
 40
0.8160304103
 40
0.8645435823
 40
0.8859729651
 40
0.9054986581
 40
0.9231219835
 40
0.9388638375
 40
0.9527658631
 40
0.9649048452
 40
0.9754145501
 40
0.9845114027
 40
0.9925391377
 40
1.0
 40
1.0
 40
1.0
 40
1.0
 10
8.0217426009
 20
15.0323726488
 30
0.0
 10
8.0245927163
 20
15.0295239258
 30
0.0
 10
8.0300473541
 20
15.0239277293
 30
0.0
 10
8.0365325711
 20
15.0168779752
 30
0.0
 10
8.0412751205
 20
15.0114497394
 30
0.0
 10
8.0444733246
 20
15.0076470097
 30
0.0
 10
8.0473732639
 20
15.004045987
 30
0.0
 10
8.0499527005
 20
15.0006735765
 30
0.0
 10
8.052193189
 20
14.9975553518
 30
0.0
 10
8.0540792739
 20
14.9947148672
 30
0.0
 10
8.0553957014
 20
14.9925140408
 30
0.0
 10
8.056251415
 20
14.99090472
 30
0.0
 10
8.0567701676
 20
14.9898298497
 30
0.0
 10
8.0571922787
 20
14.9888381694
 30
0.0
 10
8.0575173389
 20
14.9879312395
 30
0.0
 10
8.0577450647
 20
14.9871102221
 30
0.0
 10
8.0578751471
 20
14.9863757226
 30
0.0
 10
8.0579072902
 20
14.985727706
 30
0.0
 10
8.0578396898
 20
14.9851652754
 30
0.0
 10
8.0576682322
 20
14.9846892227
 30
0.0
 10
8.0574788018
 20
14.9844301041
 30
0.0
 10
8.057371358
 20
14.9843226374
 30
0.0
  0
SPLINE
  5
533
100
AcDbEntity
  8
0
100
AcDbSpline
 62
9
  6
CONTINUOUS
 70
0
 71
3
 72
17
 73
13
 74
0
 42
0.0000001
 43
0.0000001
 44
0.0000000001
 40
0.0
 40
0.0
 40
0.0
 40
0.0
 40
0.0232903767
 40
0.0527215333
 40
0.08811112
 40
0.1288027498
 40
0.2220255675
 40
0.3299560884
 40
0.4631688447
 40
0.6224309681
 40
0.8039438465
 40
1.0
 40
1.0
 40
1.0
 40
1.0
 10
8.0312031095
 20
15.0394556801
 30
0.0
 10
8.0311107026
 20
15.0394636638
 30
0.0
 10
8.0308988043
 20
15.0394428071
 30
0.0
 10
8.0305613058
 20
15.0393446675
 30
0.0
 10
8.030172706
 20
15.0391829062
 30
0.0
 10
8.0295714072
 20
15.0388770954
 30
0.0
 10
8.0287502709
 20
15.0383712125
 30
0.0
 10
8.0276615808
 20
15.0376038146
 30
0.0
 10
8.0264027835
 20
15.0366240904
 30
0.0
 10
8.0249597831
 20
15.0354065759
 30
0.0
 10
8.023375347
 20
15.0339706967
 30
0.0
 10
8.0222946984
 20
15.0329247276
 30
0.0
 10
8.0217426536
 20
15.0323725963
 30
0.0
  0
SPLINE
  5
534
100
AcDbEntity
  8
0
100
AcDbSpline
 62
9
  6
CONTINUOUS
 70
0
 71
3
 72
28
 73
24
 74
0
 42
0.0000001
 43
0.0000001
 44
0.0000000001
 40
0.0
 40
0.0
 40
0.0
 40
0.0
 40
0.0033162795
 40
0.0067543327
 40
0.0143447679
 40
0.0233652032
 40
0.0341490514
 40
0.0468744102
 40
0.0616338173
 40
0.0784675806
 40
0.0973826128
 40
0.1183667086
 40
0.141388141
 40
0.1933624822
 40
0.2528532147
 40
0.3192728256
 40
0.3919261226
 40
0.4700242544
 40
0.5526963882
 40
0.6390007522
 40
0.7279400823
 40
0.8184663873
 40
1.0
 40
1.0
 40
1.0
 40
1.0
 10
7.9546982323
 20
15.082089144
 30
0.0
 10
7.9547646197
 20
15.0821555456
 30
0.0
 10
7.9549128798
 20
15.0822783492
 30
0.0
 10
7.9552685161
 20
15.0824783452
 30
0.0
 10
7.9558248433
 20
15.0826279179
 30
0.0
 10
7.9566042745
 20
15.0826512189
 30
0.0
 10
7.9575204272
 20
15.0825324492
 30
0.0
 10
7.9585739376
 20
15.0822724658
 30
0.0
 10
7.9597641746
 20
15.0818717094
 30
0.0
 10
7.9610887183
 20
15.0813306445
 30
0.0
 10
7.9625444253
 20
15.0806503308
 30
0.0
 10
7.9641273967
 20
15.0798321881
 30
0.0
 10
7.9664995571
 20
15.0785055408
 30
0.0
 10
7.9697423724
 20
15.0765065172
 30
0.0
 10
7.9739208736
 20
15.073692904
 30
0.0
 10
7.978482019
 20
15.0704046317
 30
0.0
 10
7.9833736332
 20
15.0666779175
 30
0.0
 10
7.9885389771
 20
15.0625541218
 30
0.0
 10
7.9939174018
 20
15.0580801256
 30
0.0
 10
7.9994462106
 20
15.0533088996
 30
0.0
 10
8.0050594823
 20
15.048296801
 30
0.0
 10
8.0125729821
 20
15.0413667195
 30
0.0
 10
8.0181092762
 20
15.0360082087
 30
0.0
 10
8.0217426009
 20
15.0323726488
 30
0.0
  0
SPLINE
  5
535
100
AcDbEntity
  8
0
100
AcDbSpline
 62
7
  6
CONTINUOUS
 70
0
 71
3
 72
21
 73
17
 74
0
 42
0.0000001
 43
0.0000001
 44
0.0000000001
 40
0.0
 40
0.0
 40
0.0
 40
0.0
 40
0.0454645939
 40
0.0912832191
 40
0.1377966077
 40
0.1853798593
 40
0.2344295319
 40
0.2853731827
 40
0.3386780252
 40
0.3948547508
 40
0.4544574545
 40
0.5180693261
 40
0.6593808578
 40
0.738003356
 40
0.8217784669
 40
1.0
 40
1.0
 40
1.0
 40
1.0
 10
9.8145337053
 20
17.5858266523
 30
0.0
 10
9.8133371733
 20
17.5870231843
 30
0.0
 10
9.8110539101
 20
17.5895481743
 30
0.0
 10
9.8080089277
 20
17.5936852812
 30
0.0
 10
9.80535329
 20
17.5981750378
 30
0.0
 10
9.803109689
 20
17.6030171419
 30
0.0
 10
9.8013060624
 20
17.6082148537
 30
0.0
 10
9.7999772813
 20
17.613773182
 30
0.0
 10
9.7991682092
 20
17.6196987863
 30
0.0
 10
9.7989322995
 20
17.6259974703
 30
0.0
 10
9.7993346389
 20
17.6326731336
 30
0.0
 10
9.8008777405
 20
17.6424096954
 30
0.0
 10
9.8040910605
 20
17.652543624
 30
0.0
 10
9.8089762088
 20
17.6627518826
 30
0.0
 10
9.8155304225
 20
17.6736214622
 30
0.0
 10
9.8217897116
 20
17.6812054423
 30
0.0
 10
9.8264801254
 20
17.6858958561
 30
0.0
  0
SPLINE
  5
536
100
AcDbEntity
  8
0
100
AcDbSpline
 62
7
  6
CONTINUOUS
 70
0
 71
3
 72
21
 73
17
 74
0
 42
0.0000001
 43
0.0000001
 44
0.0000000001
 40
0.0
 40
0.0
 40
0.0
 40
0.0
 40
0.1782224793
 40
0.2619980319
 40
0.3406205826
 40
0.4819316268
 40
0.5455432161
 40
0.6051458056
 40
0.6613224251
 40
0.7146271564
 40
0.7655707261
 40
0.814620366
 40
0.8622035505
 40
0.9087168245
 40
0.9545353969
 40
1.0
 40
1.0
 40
1.0
 40
1.0
 10
9.9146029091
 20
17.5977730724
 30
0.0
 10
9.9099124704
 20
17.5930826338
 30
0.0
 10
9.9023284436
 20
17.5868233188
 30
0.0
 10
9.8914588127
 20
17.5802690865
 30
0.0
 10
9.8812505446
 20
17.575383957
 30
0.0
 10
9.8711166362
 20
17.5721706639
 30
0.0
 10
9.8613801051
 20
17.5706275814
 30
0.0
 10
9.8547044607
 20
17.5702252456
 30
0.0
 10
9.8484057888
 20
17.5704611572
 30
0.0
 10
9.8424801972
 20
17.5712702399
 30
0.0
 10
9.8369218777
 20
17.5725990195
 30
0.0
 10
9.8317241713
 20
17.5744026417
 30
0.0
 10
9.8268820795
 20
17.5766462501
 30
0.0
 10
9.8223923277
 20
17.579301878
 30
0.0
 10
9.8182552264
 20
17.5823468584
 30
0.0
 10
9.8157302375
 20
17.5846301201
 30
0.0
 10
9.8145337053
 20
17.5858266523
 30
0.0
  0
SPLINE
  5
537
100
AcDbEntity
  8
0
100
AcDbSpline
 62
9
  6
CONTINUOUS
 70
0
 71
3
 72
28
 73
24
 74
0
 42
0.0000001
 43
0.0000001
 44
0.0000000001
 40
0.0
 40
0.0
 40
0.0
 40
0.0
 40
0.1720549247
 40
0.3476449722
 40
0.4336819862
 40
0.516945131
 40
0.5962987567
 40
0.6706798689
 40
0.7391131961
 40
0.8007256227
 40
0.8547612679
 40
0.878740516
 40
0.9006081101
 40
0.9203135386
 40
0.9378244384
 40
0.953128029
 40
0.9662424777
 40
0.9772357095
 40
0.9862601686
 40
0.9901318175
 40
0.9936513338
 40
0.9969042436
 40
1.0
 40
1.0
 40
1.0
 40
1.0
 10
7.6887249246
 20
15.3653903252
 30
0.0
 10
7.6926127686
 20
15.3615044298
 30
0.0
 10
7.7003181434
 20
15.3535016569
 30
0.0
 10
7.7095956218
 20
15.3432074094
 30
0.0
 10
7.7167645331
 20
15.3348391288
 30
0.0
 10
7.7218248878
 20
15.3287147198
 30
0.0
 10
7.7265350747
 20
15.3227857887
 30
0.0
 10
7.7308315764
 20
15.3171352488
 30
0.0
 10
7.7346567755
 20
15.3118405731
 30
0.0
 10
7.7379599856
 20
15.3069736835
 30
0.0
 10
7.7403298027
 20
15.3031925041
 30
0.0
 10
7.74191976
 20
15.3004253086
 30
0.0
 10
7.7429090376
 20
15.2985789864
 30
0.0
 10
7.7437405754
 20
15.2968838372
 30
0.0
 10
7.744412026
 20
15.2953453405
 30
0.0
 10
7.7449217111
 20
15.2939683262
 30
0.0
 10
7.745268709
 20
15.2927561067
 30
0.0
 10
7.7454526775
 20
15.2917115506
 30
0.0
 10
7.7454703871
 20
15.2909430274
 30
0.0
 10
7.7453871408
 20
15.2904237565
 30
0.0
 10
7.7452850136
 20
15.2900978704
 30
0.0
 10
7.7451394397
 20
15.2898162581
 30
0.0
 10
7.7450112814
 20
15.2896568402
 30
0.0
 10
7.7449414311
 20
15.2895868191
 30
0.0
  0
SPLINE
  5
538
100
AcDbEntity
  8
0
100
AcDbSpline
 62
9
  6
CONTINUOUS
 70
0
 71
3
 72
17
 73
13
 74
0
 42
0.0000001
 43
0.0000001
 44
0.0000000001
 40
0.0
 40
0.0
 40
0.0
 40
0.0
 40
0.0686898004
 40
0.1087667831
 40
0.1524889118
 40
0.1992823019
 40
0.2482164163
 40
0.3553923169
 40
0.485268725
 40
0.6388307073
 40
0.812725316
 40
1.0
 40
1.0
 40
1.0
 40
1.0
 10
7.6947102457
 20
15.3759464497
 30
0.0
 10
7.6948150462
 20
15.375679776
 30
0.0
 10
7.6948614971
 20
15.375211994
 30
0.0
 10
7.6947904763
 20
15.3745808842
 30
0.0
 10
7.6946699408
 20
15.3740481151
 30
0.0
 10
7.6944925704
 20
15.3734937222
 30
0.0
 10
7.6941805843
 20
15.3727063417
 30
0.0
 10
7.6936460795
 20
15.3716375024
 30
0.0
 10
7.6927946101
 20
15.3702464945
 30
0.0
 10
7.6916796833
 20
15.3686964914
 30
0.0
 10
7.6903105825
 20
15.3670406711
 30
0.0
 10
7.6892784449
 20
15.3659415634
 30
0.0
 10
7.6887259952
 20
15.3653892526
 30
0.0
  0
LINE
  5
539
100
AcDbEntity
  8
0
100
AcDbLine
 62
9
  6
CONTINUOUS
 10
8.4732414972
 20
14.581671304
 11
8.4742485981
 21
14.5809125034
  0
SPLINE
  5
53A
100
AcDbEntity
  8
0
100
AcDbSpline
 62
9
  6
CONTINUOUS
 70
0
 71
3
 72
18
 73
14
 74
0
 42
0.0000001
 43
0.0000001
 44
0.0000000001
 40
0.0
 40
0.0
 40
0.0
 40
0.0
 40
0.1412565404
 40
0.2893803379
 40
0.4385088584
 40
0.5826657946
 40
0.7159768073
 40
0.7768984129
 40
0.8331393266
 40
0.8841173238
 40
0.929271824
 40
0.9680824909
 40
1.0
 40
1.0
 40
1.0
 40
1.0
 10
8.4742485981
 20
14.5809125034
 30
0.0
 10
8.478447837
 20
14.5777453796
 30
0.0
 10
8.4870117953
 20
14.5712057994
 30
0.0
 10
8.4998901266
 20
14.5611681053
 30
0.0
 10
8.5127575742
 20
14.5509419149
 30
0.0
 10
8.5250959466
 20
14.5409377085
 30
0.0
 10
8.5347953596
 20
14.5328947947
 30
0.0
 10
8.5419133299
 20
14.526868422
 30
0.0
 10
8.5466596126
 20
14.5227854974
 30
0.0
 10
8.550926132
 20
14.5190454708
 30
0.0
 10
8.5546660287
 20
14.515689642
 30
0.0
 10
8.5578330934
 20
14.5127589167
 30
0.0
 10
8.5597282639
 20
14.5109296154
 30
0.0
 10
8.5605668464
 20
14.5100874827
 30
0.0
  0
SPLINE
  5
53B
100
AcDbEntity
  8
0
100
AcDbSpline
 62
9
  6
CONTINUOUS
 70
0
 71
3
 72
16
 73
12
 74
0
 42
0.0000001
 43
0.0000001
 44
0.0000000001
 40
0.0
 40
0.0
 40
0.0
 40
0.0
 40
0.1269081444
 40
0.247598044
 40
0.3607570751
 40
0.4702890172
 40
0.5890466441
 40
0.7180089143
 40
0.8557926805
 40
0.9272971833
 40
1.0
 40
1.0
 40
1.0
 40
1.0
 10
8.5605677449
 20
14.5100888179
 30
0.0
 10
8.5600123602
 20
14.5104996528
 30
0.0
 10
8.5588432603
 20
14.5111924378
 30
0.0
 10
8.5569800952
 20
14.5118469098
 30
0.0
 10
8.5551257048
 20
14.5121456053
 30
0.0
 10
8.5532593818
 20
14.5121367038
 30
0.0
 10
8.5513328144
 20
14.5118128307
 30
0.0
 10
8.5493414515
 20
14.5111188609
 30
0.0
 10
8.5477273976
 20
14.5102105586
 30
0.0
 10
8.5465001252
 20
14.5092858294
 30
0.0
 10
8.545919177
 20
14.5087557562
 30
0.0
 10
8.5456394394
 20
14.5084758084
 30
0.0
  0
SPLINE
  5
53C
100
AcDbEntity
  8
0
100
AcDbSpline
 62
9
  6
CONTINUOUS
 70
0
 71
3
 72
25
 73
21
 74
0
 42
0.0000001
 43
0.0000001
 44
0.0000000001
 40
0.0
 40
0.0
 40
0.0
 40
0.0
 40
0.0624966403
 40
0.1250099868
 40
0.187534775
 40
0.2500652615
 40
0.2813312686
 40
0.3125972096
 40
0.3438623771
 40
0.3751262704
 40
0.4063887136
 40
0.4376494803
 40
0.5001640673
 40
0.5626699413
 40
0.6251667186
 40
0.7501271537
 40
0.8126017783
 40
0.8750710643
 40
0.9375369725
 40
1.0
 40
1.0
 40
1.0
 40
1.0
 10
14.6468926102
 20
-1.8295298463
 30
0.0
 10
14.5556526392
 20
-1.786555298
 30
0.0
 10
14.3732683945
 20
-1.7003400121
 30
0.0
 10
14.0996789344
 20
-1.5709703015
 30
0.0
 10
13.8257110993
 20
-1.4422739493
 30
0.0
 10
13.5968260091
 20
-1.3362094213
 30
0.0
 10
13.4132116559
 20
-1.252440591
 30
0.0
 10
13.2752120686
 20
-1.1902493869
 30
0.0
 10
13.1368929219
 20
-1.1287801991
 30
0.0
 10
12.9982230223
 20
-1.068120125
 30
0.0
 10
12.859171573
 20
-1.0083570836
 30
0.0
 10
12.6732314325
 20
-0.9299862412
 30
0.0
 10
12.4397219407
 20
-0.8346793301
 30
0.0
 10
12.1575871284
 20
-0.7252157043
 30
0.0
 10
11.7787261037
 20
-0.5866816866
 30
0.0
 10
11.3954511677
 20
-0.4605003314
 30
0.0
 10
11.007739099
 20
-0.3493674301
 30
0.0
 10
10.7147437579
 20
-0.2742226671
 30
0.0
 10
10.4196234698
 20
-0.2079927231
 30
0.0
 10
10.2215350673
 20
-0.1702612698
 30
0.0
 10
10.1222024766
 20
-0.153125277
 30
0.0
  0
SPLINE
  5
53D
100
AcDbEntity
  8
0
100
AcDbSpline
 62
9
  6
CONTINUOUS
 70
0
 71
3
 72
25
 73
21
 74
0
 42
0.0000001
 43
0.0000001
 44
0.0000000001
 40
0.0
 40
0.0
 40
0.0
 40
0.0
 40
0.0624942291
 40
0.0937371428
 40
0.1249778655
 40
0.1562167594
 40
0.1874543235
 40
0.2186911448
 40
0.2499277574
 40
0.2811646751
 40
0.3124023881
 40
0.3748807039
 40
0.4373639402
 40
0.4998539057
 40
0.6248506406
 40
0.7498716893
 40
0.81239505
 40
0.8749241342
 40
0.9374595473
 40
1.0
 40
1.0
 40
1.0
 40
1.0
 10
14.6468926102
 20
-1.8295298463
 30
0.0
 10
14.5532463338
 20
-1.7943970853
 30
0.0
 10
14.4129863497
 20
-1.7411576093
 30
0.0
 10
14.2263045175
 20
-1.6693321796
 30
0.0
 10
14.0864483702
 20
-1.6151091935
 30
0.0
 10
13.9467180683
 20
-1.5605865298
 30
0.0
 10
13.807081805
 20
-1.5058406878
 30
0.0
 10
13.6675021272
 20
-1.4509608057
 30
0.0
 10
13.5279424771
 20
-1.3960328701
 30
0.0
 10
13.3883659477
 20
-1.341143895
 30
0.0
 10
13.2021908163
 20
-1.268124478
 30
0.0
 10
12.9692454777
 20
-1.1773921957
 30
0.0
 10
12.6890619316
 20
-1.0701332507
 30
0.0
 10
12.3142317664
 20
-0.9302783443
 30
0.0
 10
11.842727007
 20
-0.7632507128
 30
0.0
 10
11.3658898343
 20
-0.6116809819
 30
0.0
 10
10.9807070937
 20
-0.5028386912
 30
0.0
 10
10.6898669999
 20
-0.4282142063
 30
0.0
 10
10.3970958891
 20
-0.3614290654
 30
0.0
 10
10.2006625383
 20
-0.3226871313
 30
0.0
 10
10.1021616287
 20
-0.3049019979
 30
0.0
  0
LINE
  5
53E
100
AcDbEntity
  8
0
100
AcDbLine
 62
9
  6
CONTINUOUS
 10
10.1222024767
 20
-0.153125277
 11
10.1168420422
 21
-0.1521988149
  0
SPLINE
  5
53F
100
AcDbEntity
  8
0
100
AcDbSpline
 62
9
  6
CONTINUOUS
 70
0
 71
3
 72
35
 73
31
 74
0
 42
0.0000001
 43
0.0000001
 44
0.0000000001
 40
0.0
 40
0.0
 40
0.0
 40
0.0
 40
0.1951748941
 40
0.2903101383
 40
0.3825987512
 40
0.4711636922
 40
0.5551634581
 40
0.6338001434
 40
0.7063271154
 40
0.7720562539
 40
0.8303647331
 40
0.856560889
 40
0.8807015583
 40
0.9027292327
 40
0.9225933528
 40
0.9402471601
 40
0.9556515037
 40
0.9687718127
 40
0.9744673872
 40
0.9795829135
 40
0.9841163229
 40
0.9880670309
 40
0.9914356267
 40
0.994224433
 40
0.9964395435
 40
0.9980962989
 40
0.998726986
 40
0.999238132
 40
0.9996498605
 40
1.0
 40
1.0
 40
1.0
 40
1.0
 10
10.1168420422
 20
-0.1521988149
 30
0.0
 10
10.1152691602
 20
-0.1620448618
 30
0.0
 10
10.1129684911
 20
-0.1766964852
 30
0.0
 10
10.1100180275
 20
-0.1960183312
 30
0.0
 10
10.1079308996
 20
-0.2099624433
 30
0.0
 10
10.105970358
 20
-0.2233502203
 30
0.0
 10
10.1041549889
 20
-0.2360543095
 30
0.0
 10
10.1025019555
 20
-0.247953855
 30
0.0
 10
10.1010267927
 20
-0.2589356546
 30
0.0
 10
10.0997433735
 20
-0.2688952375
 30
0.0
 10
10.0988127552
 20
-0.2765136781
 30
0.0
 10
10.098176836
 20
-0.2820275037
 30
0.0
 10
10.097772068
 20
-0.2857021777
 30
0.0
 10
10.0974230301
 20
-0.2890574934
 30
0.0
 10
10.0971304777
 20
-0.2920854277
 30
0.0
 10
10.0968949843
 20
-0.2947788396
 30
0.0
 10
10.0967169848
 20
-0.2971312888
 30
0.0
 10
10.096612031
 20
-0.2988764635
 30
0.0
 10
10.0965598586
 20
-0.3000979621
 30
0.0
 10
10.0965372319
 20
-0.3008815713
 30
0.0
 10
10.0965291464
 20
-0.3015763278
 30
0.0
 10
10.0965355152
 20
-0.3021818882
 30
0.0
 10
10.0965562425
 20
-0.3026979335
 30
0.0
 10
10.096590959
 20
-0.303124505
 30
0.0
 10
10.0966396422
 20
-0.3034613824
 30
0.0
 10
10.0966945646
 20
-0.3036858004
 30
0.0
 10
10.0967500732
 20
-0.3038179411
 30
0.0
 10
10.0967917799
 20
-0.3038859681
 30
0.0
 10
10.096838207
 20
-0.3039327832
 30
0.0
 10
10.0968750478
 20
-0.3039490353
 30
0.0
 10
10.0968926525
 20
-0.3039522036
 30
0.0
  0
SPLINE
  5
540
100
AcDbEntity
  8
0
100
AcDbSpline
 62
9
  6
CONTINUOUS
 70
0
 71
3
 72
27
 73
23
 74
0
 42
0.0000001
 43
0.0000001
 44
0.0000000001
 40
0.0
 40
0.0
 40
0.0
 40
0.0
 40
0.1862895644
 40
0.2780718929
 40
0.3676441049
 40
0.4540554475
 40
0.5364084096
 40
0.6138617629
 40
0.6856421319
 40
0.7510537021
 40
0.8094891133
 40
0.860444159
 40
0.882995567
 40
0.9035462
 40
0.9220773882
 40
0.9385832188
 40
0.9530826331
 40
0.9656272788
 40
0.9763195035
 40
0.9853523914
 40
0.9930625007
 40
1.0
 40
1.0
 40
1.0
 40
1.0
 10
7.8536247288
 20
15.2004905209
 30
0.0
 10
7.8570816163
 20
15.1970352717
 30
0.0
 10
7.8621623786
 20
15.1917973658
 30
0.0
 10
7.8687142836
 20
15.1847179319
 30
0.0
 10
7.8734032506
 20
15.1794860075
 30
0.0
 10
7.8778408412
 20
15.1743623149
 30
0.0
 10
7.8819802471
 20
15.1694023511
 30
0.0
 10
7.8857770832
 20
15.1646580371
 30
0.0
 10
7.8891924922
 20
15.1601796258
 30
0.0
 10
7.8921926525
 20
15.156014168
 30
0.0
 10
7.8947477599
 20
15.1522045297
 30
0.0
 10
7.8965538459
 20
15.1492493637
 30
0.0
 10
7.8977455932
 20
15.1470880116
 30
0.0
 10
7.8984770214
 20
15.145645403
 30
0.0
 10
7.8990818439
 20
15.144317724
 30
0.0
 10
7.8995587535
 20
15.1431079311
 30
0.0
 10
7.8999070493
 20
15.1420185986
 30
0.0
 10
7.9001264311
 20
15.1410514711
 30
0.0
 10
7.900216376
 20
15.1402070225
 30
0.0
 10
7.9001753388
 20
15.1394839516
 30
0.0
 10
7.8999976291
 20
15.1388810209
 30
0.0
 10
7.8997745718
 20
15.1385574267
 30
0.0
 10
7.8996458731
 20
15.1384287146
 30
0.0
  0
SPLINE
  5
541
100
AcDbEntity
  8
0
100
AcDbSpline
 62
9
  6
CONTINUOUS
 70
0
 71
3
 72
11
 73
7
 74
0
 42
0.0000001
 43
0.0000001
 44
0.0000000001
 40
0.0
 40
0.0
 40
0.0
 40
0.0
 40
0.2499888074
 40
0.4999821279
 40
0.7499851052
 40
1.0
 40
1.0
 40
1.0
 40
1.0
 10
10.0968925968
 20
-0.1487933466
 30
0.0
 10
10.0138059036
 20
-0.1347671394
 30
0.0
 10
9.8468998968
 20
-0.11087638
 30
0.0
 10
9.595125663
 20
-0.0872124882
 30
0.0
 10
9.3425237254
 20
-0.0752352773
 30
0.0
 10
9.1739270568
 20
-0.0746513635
 30
0.0
 10
9.0896684491
 20
-0.0761012003
 30
0.0
  0
SPLINE
  5
542
100
AcDbEntity
  8
0
100
AcDbSpline
 62
9
  6
CONTINUOUS
 70
0
 71
3
 72
35
 73
31
 74
0
 42
0.0000001
 43
0.0000001
 44
0.0000000001
 40
0.0
 40
0.0
 40
0.0
 40
0.0
 40
0.1950829649
 40
0.2901932018
 40
0.3824684423
 40
0.4710298035
 40
0.5550339387
 40
0.6336811154
 40
0.7062229312
 40
0.771969583
 40
0.8302966815
 40
0.8565021112
 40
0.880651814
 40
0.9026881268
 40
0.9225603564
 40
0.9402216136
 40
0.9556326384
 40
0.9687587552
 40
0.974456874
 40
0.9795747073
 40
0.9841101644
 40
0.9880626389
 40
0.991432724
 40
0.9942227443
 40
0.9964387687
 40
0.9980961123
 40
0.998726969
 40
0.9992381991
 40
0.9996499272
 40
1.0
 40
1.0
 40
1.0
 40
1.0
 10
10.0968925968
 20
-0.1487933466
 30
0.0
 10
10.0953560917
 20
-0.1586324188
 30
0.0
 10
10.0931093871
 20
-0.1732745292
 30
0.0
 10
10.090229856
 20
-0.1925847463
 30
0.0
 10
10.0881935096
 20
-0.2065229506
 30
0.0
 10
10.0862815011
 20
-0.2199063054
 30
0.0
 10
10.0845119991
 20
-0.2326072162
 30
0.0
 10
10.0829017708
 20
-0.2445045883
 30
0.0
 10
10.0814659796
 20
-0.2554849882
 30
0.0
 10
10.0802181552
 20
-0.2654437258
 30
0.0
 10
10.0793146903
 20
-0.2730616662
 30
0.0
 10
10.0786983706
 20
-0.2785752044
 30
0.0
 10
10.0783066365
 20
-0.2822497387
 30
0.0
 10
10.0779694769
 20
-0.2856049147
 30
0.0
 10
10.0776876201
 20
-0.2886326918
 30
0.0
 10
10.0774616155
 20
-0.2913259137
 30
0.0
 10
10.0772918761
 20
-0.2936781263
 30
0.0
 10
10.0771930234
 20
-0.2954230433
 30
0.0
 10
10.0771451007
 20
-0.2966442944
 30
0.0
 10
10.0771251892
 20
-0.2974277105
 30
0.0
 10
10.0771194988
 20
-0.2981222546
 30
0.0
 10
10.0771279422
 20
-0.2987275822
 30
0.0
 10
10.077150422
 20
-0.2992433742
 30
0.0
 10
10.0771865682
 20
-0.299669673
 30
0.0
 10
10.077236358
 20
-0.300006257
 30
0.0
 10
10.0772919944
 20
-0.3002303984
 30
0.0
 10
10.0773479012
 20
-0.3003622947
 30
0.0
 10
10.0773897978
 20
-0.3004301459
 30
0.0
 10
10.0774363365
 20
-0.3004767781
 30
0.0
 10
10.0774731996
 20
-0.300492895
 30
0.0
 10
10.0774907979
 20
-0.300495999
 30
0.0
  0
LINE
  5
543
100
AcDbEntity
  8
0
100
AcDbLine
 62
9
  6
CONTINUOUS
 10
9.0896265265
 20
-0.0761019736
 11
9.0840268051
 21
-0.0761868972
  0
SPLINE
  5
544
100
AcDbEntity
  8
0
100
AcDbSpline
 62
9
  6
CONTINUOUS
 70
0
 71
3
 72
35
 73
31
 74
0
 42
0.0000001
 43
0.0000001
 44
0.0000000001
 40
0.0
 40
0.0
 40
0.0
 40
0.0
 40
0.0964913469
 40
0.1924110232
 40
0.2867860975
 40
0.378660889
 40
0.4671041866
 40
0.5512201275
 40
0.6301567733
 40
0.7031150446
 40
0.7693569079
 40
0.8282131646
 40
0.8790907238
 40
0.9013747268
 40
0.9214799641
 40
0.9393565749
 40
0.9549617157
 40
0.9682587996
 40
0.9740327243
 40
0.9792200362
 40
0.9838186144
 40
0.9878272699
 40
0.9912468451
 40
0.9940802771
 40
0.9963343767
 40
0.9980253464
 40
0.9986723906
 40
0.9992002959
 40
0.9996300945
 40
1.0
 40
1.0
 40
1.0
 40
1.0
 10
9.0896265265
 20
-0.0761019736
 30
0.0
 10
9.0897057196
 20
-0.0806143041
 30
0.0
 10
9.0898729026
 20
-0.0896120652
 30
0.0
 10
9.0901352476
 20
-0.1030228716
 30
0.0
 10
9.0904421284
 20
-0.1162167685
 30
0.0
 10
9.0907815399
 20
-0.1290600613
 30
0.0
 10
9.0911516815
 20
-0.1414224719
 30
0.0
 10
9.0915483261
 20
-0.1531786021
 30
0.0
 10
9.0919672894
 20
-0.1642092202
 30
0.0
 10
9.0924040371
 20
-0.1744024533
 30
0.0
 10
9.0928536611
 20
-0.1836549545
 30
0.0
 10
9.0933112562
 20
-0.1918729083
 30
0.0
 10
9.0937101563
 20
-0.1980347945
 30
0.0
 10
9.0940347823
 20
-0.2023849427
 30
0.0
 10
9.0942663259
 20
-0.2051941618
 30
0.0
 10
9.0944960851
 20
-0.2076899932
 30
0.0
 10
9.0947233841
 20
-0.2098661203
 30
0.0
 10
9.094917975
 20
-0.2114763771
 30
0.0
 10
9.0950745793
 20
-0.2126001411
 30
0.0
 10
9.0951854362
 20
-0.2133194335
 30
0.0
 10
9.0952951745
 20
-0.213955262
 30
0.0
 10
9.095403667
 20
-0.2145072867
 30
0.0
 10
9.0955107518
 20
-0.2149752124
 30
0.0
 10
9.0956160992
 20
-0.2153591649
 30
0.0
 10
9.0957196052
 20
-0.2156589494
 30
0.0
 10
9.0958101144
 20
-0.2158548447
 30
0.0
 10
9.0958854292
 20
-0.2159661464
 30
0.0
 10
9.0959368691
 20
-0.2160213796
 30
0.0
 10
9.0959892177
 20
-0.2160563154
 30
0.0
 10
9.0960268525
 20
-0.2160649047
 30
0.0
 10
9.0960441534
 20
-0.2160648812
 30
0.0
  0
SPLINE
  5
545
100
AcDbEntity
  8
0
100
AcDbSpline
 62
9
  6
CONTINUOUS
 70
0
 71
3
 72
29
 73
25
 74
0
 42
0.0000001
 43
0.0000001
 44
0.0000000001
 40
0.0
 40
0.0
 40
0.0
 40
0.0
 40
0.0312368062
 40
0.0624799389
 40
0.0937229931
 40
0.1249680789
 40
0.1562159338
 40
0.1874661195
 40
0.2499592346
 40
0.2812160893
 40
0.3124749649
 40
0.3749836735
 40
0.4374981396
 40
0.5000167554
 40
0.5625374669
 40
0.6250578247
 40
0.687574899
 40
0.7188385584
 40
0.7501001019
 40
0.8125996442
 40
0.8750840774
 40
0.9063259362
 40
0.9375624528
 40
1.0
 40
1.0
 40
1.0
 40
1.0
 10
9.0839376754
 20
-0.0761896655
 30
0.0
 10
9.0784259543
 20
-0.0762889564
 30
0.0
 10
9.0674040672
 20
-0.0767151363
 30
0.0
 10
9.0509133302
 20
-0.0780528891
 30
0.0
 10
9.0344938812
 20
-0.0801009625
 30
0.0
 10
9.0181755796
 20
-0.082843415
 30
0.0
 10
9.0019856435
 20
-0.0862715246
 30
0.0
 10
8.980614719
 20
-0.0917550698
 30
0.0
 10
8.9596107387
 20
-0.0986018701
 30
0.0
 10
8.9391107402
 20
-0.1067680963
 30
0.0
 10
8.9189750655
 20
-0.1158035406
 30
0.0
 10
8.8945554317
 20
-0.1287023752
 30
0.0
 10
8.8666894567
 20
-0.1466339322
 30
0.0
 10
8.8404640145
 20
-0.1668948109
 30
0.0
 10
8.816080327
 20
-0.1893402895
 30
0.0
 10
8.7937275878
 20
-0.2138074188
 30
0.0
 10
8.7769342195
 20
-0.2357375279
 30
0.0
 10
8.7646858106
 20
-0.2541006716
 30
0.0
 10
8.7532510453
 20
-0.2729777331
 30
0.0
 10
8.7405227164
 20
-0.2974803494
 30
0.0
 10
8.7299937801
 20
-0.3230020325
 30
0.0
 10
8.7229490574
 20
-0.3439067687
 30
0.0
 10
8.7168395497
 20
-0.3650934984
 30
0.0
 10
8.7133216379
 20
-0.3812758576
 30
0.0
 10
8.7114653444
 20
-0.3921372379
 30
0.0
  0
SPLINE
  5
546
100
AcDbEntity
  8
0
100
AcDbSpline
 62
9
  6
CONTINUOUS
 70
0
 71
3
 72
33
 73
29
 74
0
 42
0.0000001
 43
0.0000001
 44
0.0000000001
 40
0.0
 40
0.0
 40
0.0
 40
0.0
 40
0.0960239246
 40
0.1914868384
 40
0.2854301096
 40
0.3769123922
 40
0.4650157312
 40
0.5488567767
 40
0.6275949118
 40
0.7004410858
 40
0.7666657868
 40
0.8256066839
 40
0.8521588884
 40
0.8766759208
 40
0.8990968623
 40
0.9193665643
 40
0.9374355454
 40
0.9532604436
 40
0.9668047027
 40
0.9780391134
 40
0.9869445998
 40
0.9905220224
 40
0.9935180126
 40
0.9959378185
 40
0.9977935466
 40
0.9985190695
 40
0.9991187858
 40
1.0
 40
1.0
 40
1.0
 40
1.0
 10
9.0839376754
 20
-0.0761896655
 30
0.0
 10
9.0840275828
 20
-0.0806757125
 30
0.0
 10
9.0842089233
 20
-0.0896215534
 30
0.0
 10
9.0844644245
 20
-0.1029565283
 30
0.0
 10
9.0847735583
 20
-0.1160781122
 30
0.0
 10
9.0851151653
 20
-0.1288548587
 30
0.0
 10
9.0854883921
 20
-0.1411584706
 30
0.0
 10
9.0858884431
 20
-0.1528654094
 30
0.0
 10
9.0863107781
 20
-0.1638581497
 30
0.0
 10
9.0867506374
 20
-0.1740263356
 30
0.0
 10
9.0872030842
 20
-0.1832678948
 30
0.0
 10
9.0875988227
 20
-0.190346305
 30
0.0
 10
9.0879216266
 20
-0.1954766659
 30
0.0
 10
9.0881554203
 20
-0.1989027215
 30
0.0
 10
9.0883887621
 20
-0.2020345047
 30
0.0
 10
9.0886210066
 20
-0.2048641603
 30
0.0
 10
9.0888514413
 20
-0.2073846198
 30
0.0
 10
9.0890793671
 20
-0.2095895882
 30
0.0
 10
9.0893037835
 20
-0.2114736976
 30
0.0
 10
9.0895240449
 20
-0.2130322862
 30
0.0
 10
9.0897135985
 20
-0.2141246347
 30
0.0
 10
9.0898683505
 20
-0.2148312952
 30
0.0
 10
9.0899740875
 20
-0.2152381688
 30
0.0
 10
9.0900781373
 20
-0.2155618658
 30
0.0
 10
9.0901684898
 20
-0.215777904
 30
0.0
 10
9.0902436007
 20
-0.2159069094
 30
0.0
 10
9.0903051378
 20
-0.2159887205
 30
0.0
 10
9.0903622365
 20
-0.2160357813
 30
0.0
 10
9.0904019898
 20
-0.2160465145
 30
0.0
  0
SPLINE
  5
547
100
AcDbEntity
  8
0
100
AcDbSpline
 62
9
  6
CONTINUOUS
 70
0
 71
3
 72
18
 73
14
 74
0
 42
0.0000001
 43
0.0000001
 44
0.0000000001
 40
0.0
 40
0.0
 40
0.0
 40
0.0
 40
0.019228855
 40
0.046095831
 40
0.0798661725
 40
0.1195847179
 40
0.1641357587
 40
0.2121707864
 40
0.3205371937
 40
0.45505845
 40
0.6164448815
 40
0.800746036
 40
1.0
 40
1.0
 40
1.0
 40
1.0
 10
7.8613303662
 20
15.2093263697
 30
0.0
 10
7.8613103186
 20
15.209253734
 30
0.0
 10
7.8612350514
 20
15.209087941
 30
0.0
 10
7.8610768915
 20
15.2088180931
 30
0.0
 10
7.8608569949
 20
15.2084916469
 30
0.0
 10
7.8605838936
 20
15.2081183014
 30
0.0
 10
7.8602663549
 20
15.207708376
 30
0.0
 10
7.8597717243
 20
15.2070956023
 30
0.0
 10
7.8590340605
 20
15.2062261864
 30
0.0
 10
7.8579821065
 20
15.2050415216
 30
0.0
 10
7.8567060333
 20
15.2036583602
 30
0.0
 10
7.8552317152
 20
15.2021134057
 30
0.0
 10
7.8541771414
 20
15.2010423392
 30
0.0
 10
7.8536250096
 20
15.2004902382
 30
0.0
  0
LINE
  5
548
100
AcDbEntity
  8
0
100
AcDbLine
 62
9
  6
CONTINUOUS
 10
8.7114653274
 20
-0.3921373454
 11
8.7092798626
 21
-0.4049234979
  0
SPLINE
  5
549
100
AcDbEntity
  8
0
100
AcDbSpline
 62
9
  6
CONTINUOUS
 70
0
 71
3
 72
31
 73
27
 74
0
 42
0.0000001
 43
0.0000001
 44
0.0000000001
 40
0.0
 40
0.0
 40
0.0
 40
0.0
 40
0.1896392708
 40
0.374130554
 40
0.462016724
 40
0.5457572177
 40
0.6244763088
 40
0.6973528087
 40
0.7636295802
 40
0.8226229853
 40
0.8491975358
 40
0.8737338566
 40
0.8961710383
 40
0.9164570305
 40
0.9345457849
 40
0.9504024959
 40
0.9640021627
 40
0.9753383412
 40
0.9801629497
 40
0.9844327599
 40
0.98815936
 40
0.9913615875
 40
0.9940710231
 40
0.9963421873
 40
0.9982682814
 40
1.0
 40
1.0
 40
1.0
 40
1.0
 10
8.7114653274
 20
-0.3921373454
 30
0.0
 10
8.720090885
 20
-0.393478555
 30
0.0
 10
8.7370885686
 20
-0.3962500598
 30
0.0
 10
8.7580264175
 20
-0.3999819018
 30
0.0
 10
8.7741274365
 20
-0.4030594619
 30
0.0
 10
8.7854263695
 20
-0.4053245654
 30
0.0
 10
8.7960260966
 20
-0.4075598835
 30
0.0
 10
8.805814997
 20
-0.4097415114
 30
0.0
 10
8.8146899825
 20
-0.4118461001
 30
0.0
 10
8.821463719
 20
-0.4135713442
 30
0.0
 10
8.8263535792
 20
-0.4149042649
 30
0.0
 10
8.8296084146
 20
-0.4158359936
 30
0.0
 10
8.8325719102
 20
-0.4167324944
 30
0.0
 10
8.8352363462
 20
-0.4175912217
 30
0.0
 10
8.8375948678
 20
-0.4184098348
 30
0.0
 10
8.8396416807
 20
-0.4191857554
 30
0.0
 10
8.8413716918
 20
-0.4199168914
 30
0.0
 10
8.8426056329
 20
-0.420514433
 30
0.0
 10
8.8434257274
 20
-0.4209753192
 30
0.0
 10
8.8439254288
 20
-0.42128988
 30
0.0
 10
8.8443436224
 20
-0.4215920374
 30
0.0
 10
8.8446804411
 20
-0.4218818857
 30
0.0
 10
8.844936244
 20
-0.4221599288
 30
0.0
 10
8.845111304
 20
-0.4224277252
 30
0.0
 10
8.8452041937
 20
-0.4226879974
 30
0.0
 10
8.8452064532
 20
-0.422860462
 30
0.0
 10
8.8451926113
 20
-0.422938963
 30
0.0
  0
LINE
  5
54A
100
AcDbEntity
  8
0
100
AcDbLine
 62
9
  6
CONTINUOUS
 10
8.7092798626
 20
-0.4049234979
 11
8.6885645689
 21
-0.5291356906
  0
SPLINE
  5
54B
100
AcDbEntity
  8
0
100
AcDbSpline
 62
9
  6
CONTINUOUS
 70
0
 71
3
 72
31
 73
27
 74
0
 42
0.0000001
 43
0.0000001
 44
0.0000000001
 40
0.0
 40
0.0
 40
0.0
 40
0.0
 40
0.1895236414
 40
0.3739366534
 40
0.4617960332
 40
0.5455169858
 40
0.6242230929
 40
0.6970925467
 40
0.7633677198
 40
0.8223646923
 40
0.8489429822
 40
0.8734843973
 40
0.8959281288
 40
0.9162222943
 40
0.9343211083
 40
0.950190176
 40
0.9638051435
 40
0.975160621
 40
0.9799969422
 40
0.9842802502
 40
0.9880226015
 40
0.9912434734
 40
0.9939752899
 40
0.996273526
 40
0.9982319316
 40
1.0
 40
1.0
 40
1.0
 40
1.0
 10
8.7092798626
 20
-0.4049234979
 30
0.0
 10
8.7178991572
 20
-0.406257783
 30
0.0
 10
8.7348857137
 20
-0.4090186107
 30
0.0
 10
8.755809617
 20
-0.4127442615
 30
0.0
 10
8.7719011202
 20
-0.4158218079
 30
0.0
 10
8.7831941878
 20
-0.4180893618
 30
0.0
 10
8.793788613
 20
-0.4203294288
 30
0.0
 10
8.8035726809
 20
-0.4225180147
 30
0.0
 10
8.8124432155
 20
-0.4246316582
 30
0.0
 10
8.8192132413
 20
-0.4263663334
 30
0.0
 10
8.8241001708
 20
-0.4277079029
 30
0.0
 10
8.8273530363
 20
-0.4286463575
 30
0.0
 10
8.830314606
 20
-0.4295500008
 30
0.0
 10
8.8329771588
 20
-0.4304162633
 30
0.0
 10
8.83533384
 20
-0.4312427814
 30
0.0
 10
8.8373788653
 20
-0.4320269525
 30
0.0
 10
8.8391071483
 20
-0.432766663
 30
0.0
 10
8.8403394348
 20
-0.433371866
 30
0.0
 10
8.8411580703
 20
-0.4338390848
 30
0.0
 10
8.8416569079
 20
-0.4341583008
 30
0.0
 10
8.8420742531
 20
-0.4344651949
 30
0.0
 10
8.8424102327
 20
-0.4347598747
 30
0.0
 10
8.842665174
 20
-0.4350428602
 30
0.0
 10
8.8428392801
 20
-0.4353157037
 30
0.0
 10
8.8429310029
 20
-0.4355809693
 30
0.0
 10
8.8429325376
 20
-0.4357564782
 30
0.0
 10
8.8429184083
 20
-0.4358366093
 30
0.0
  0
LINE
  5
54C
100
AcDbEntity
  8
0
100
AcDbLine
 62
7
  6
CONTINUOUS
 10
8.2638137598
 20
15.0284374462
 11
8.2648607125
 21
15.0292087315
  0
SPLINE
  5
54D
100
AcDbEntity
  8
0
100
AcDbSpline
 62
9
  6
CONTINUOUS
 70
0
 71
3
 72
11
 73
7
 74
0
 42
0.0000001
 43
0.0000001
 44
0.0000000001
 40
0.0
 40
0.0
 40
0.0
 40
0.0
 40
0.3115701092
 40
0.5818659629
 40
0.8113754359
 40
1.0
 40
1.0
 40
1.0
 40
1.0
 10
7.29727839
 20
15.773375939
 30
0.0
 10
7.2967657249
 20
15.7738913861
 30
0.0
 10
7.2958002273
 20
15.7748460289
 30
0.0
 10
7.2944247853
 20
15.7761472264
 30
0.0
 10
7.2932269971
 20
15.7772178381
 30
0.0
 10
7.2924743071
 20
15.7778393833
 30
0.0
 10
7.2921256916
 20
15.7781080309
 30
0.0
  0
SPLINE
  5
54E
100
AcDbEntity
  8
0
100
AcDbSpline
 62
9
  6
CONTINUOUS
 70
0
 71
3
 72
22
 73
18
 74
0
 42
0.0000001
 43
0.0000001
 44
0.0000000001
 40
0.0
 40
0.0
 40
0.0
 40
0.0
 40
0.2250451956
 40
0.3200611623
 40
0.4035970814
 40
0.475893268
 40
0.5373243572
 40
0.5885119247
 40
0.630533221
 40
0.6653175761
 40
0.6961713496
 40
0.7276530955
 40
0.7640664602
 40
0.8082552237
 40
0.8617996567
 40
0.9255556751
 40
1.0
 40
1.0
 40
1.0
 40
1.0
 10
7.2921256916
 20
15.7781080309
 30
0.0
 10
7.2919056096
 20
15.7782776289
 30
0.0
 10
7.2915873528
 20
15.7785124367
 30
0.0
 10
7.2911699988
 20
15.7787849054
 30
0.0
 10
7.2909029005
 20
15.7789419575
 30
0.0
 10
7.2906636546
 20
15.7790637364
 30
0.0
 10
7.2904520924
 20
15.7791504432
 30
0.0
 10
7.2902677366
 20
15.779202324
 30
0.0
 10
7.2901096032
 20
15.7792193347
 30
0.0
 10
7.2899759537
 20
15.7791999282
 30
0.0
 10
7.2898686617
 20
15.779139222
 30
0.0
 10
7.2897949165
 20
15.7790382254
 30
0.0
 10
7.2897544956
 20
15.778904069
 30
0.0
 10
7.2897429825
 20
15.7787379869
 30
0.0
 10
7.2897590847
 20
15.778538754
 30
0.0
 10
7.289802524
 20
15.7783057492
 30
0.0
 10
7.2898463056
 20
15.7781406937
 30
0.0
 10
7.2898721779
 20
15.7780524989
 30
0.0
  0
SPLINE
  5
54F
100
AcDbEntity
  8
0
100
AcDbSpline
 62
9
  6
CONTINUOUS
 70
0
 71
3
 72
11
 73
7
 74
0
 42
0.0000001
 43
0.0000001
 44
0.0000000001
 40
0.0
 40
0.0
 40
0.0
 40
0.0
 40
0.1737228881
 40
0.3979255599
 40
0.6733233932
 40
1.0
 40
1.0
 40
1.0
 40
1.0
 10
7.2898721779
 20
15.7780524989
 30
0.0
 10
7.2899494254
 20
15.7777891732
 30
0.0
 10
7.2901702831
 20
15.7771992261
 30
0.0
 10
7.2906131369
 20
15.7762318804
 30
0.0
 10
7.2912124405
 20
15.7750718848
 30
0.0
 10
7.2916768659
 20
15.7742417845
 30
0.0
 10
7.2919339732
 20
15.773794359
 30
0.0
  0
SPLINE
  5
550
100
AcDbEntity
  8
0
100
AcDbSpline
 62
9
  6
CONTINUOUS
 70
0
 71
3
 72
44
 73
40
 74
0
 42
0.0000001
 43
0.0000001
 44
0.0000000001
 40
0.0
 40
0.0
 40
0.0
 40
0.0
 40
0.0011127426
 40
0.0022753858
 40
0.0038740649
 40
0.0060382235
 40
0.008818687
 40
0.0122580236
 40
0.0163585967
 40
0.0210856849
 40
0.032277679
 40
0.0386870991
 40
0.0456238068
 40
0.0611160871
 40
0.0788016083
 40
0.0986815574
 40
0.120710216
 40
0.1448325978
 40
0.1709929569
 40
0.2291875826
 40
0.2947675291
 40
0.3671227748
 40
0.4455749965
 40
0.5293933715
 40
0.5730705219
 40
0.6177855393
 40
0.6634336779
 40
0.7099153963
 40
0.7334381519
 40
0.7571326341
 40
0.7809826941
 40
0.804968071
 40
0.8290697822
 40
0.8532724016
 40
0.8775661579
 40
0.9019463737
 40
0.9264008851
 40
0.9509089966
 40
1.0
 40
1.0
 40
1.0
 40
1.0
 10
8.1307380109
 20
0.7509447798
 30
0.0
 10
8.1307160131
 20
0.7509383387
 30
0.0
 10
8.1306718361
 20
0.7509130016
 30
0.0
 10
8.1306451788
 20
0.7508335185
 30
0.0
 10
8.1306416449
 20
0.7507324987
 30
0.0
 10
8.1306455874
 20
0.7505975538
 30
0.0
 10
8.1306496336
 20
0.7504249465
 30
0.0
 10
8.1306427484
 20
0.7502123428
 30
0.0
 10
8.1306273592
 20
0.7499601396
 30
0.0
 10
8.1306028207
 20
0.7495484968
 30
0.0
 10
8.1305889362
 20
0.7490884237
 30
0.0
 10
8.1306042405
 20
0.7485830207
 30
0.0
 10
8.1306479871
 20
0.7479904475
 30
0.0
 10
8.1307477085
 20
0.7471698218
 30
0.0
 10
8.1309126912
 20
0.7460893922
 30
0.0
 10
8.1311113768
 20
0.7448779658
 30
0.0
 10
8.131347502
 20
0.7435384085
 30
0.0
 10
8.1316243734
 20
0.7420747798
 30
0.0
 10
8.1320661135
 20
0.7398843059
 30
0.0
 10
8.1327189152
 20
0.7368654293
 30
0.0
 10
8.1336216091
 20
0.7329274066
 30
0.0
 10
8.1346631782
 20
0.7285933504
 30
0.0
 10
8.1358367921
 20
0.7239048888
 30
0.0
 10
8.1368937779
 20
0.7197963199
 30
0.0
 10
8.1377926596
 20
0.7163647149
 30
0.0
 10
8.138505754
 20
0.7136972634
 30
0.0
 10
8.1392516664
 20
0.7109788608
 30
0.0
 10
8.1398835245
 20
0.7086818472
 30
0.0
 10
8.1403882574
 20
0.7068188956
 30
0.0
 10
8.1407645062
 20
0.7054041495
 30
0.0
 10
8.1411398027
 20
0.7039792985
 30
0.0
 10
8.1415226824
 20
0.7025477711
 30
0.0
 10
8.1419204987
 20
0.7011127606
 30
0.0
 10
8.1423406075
 20
0.6996774557
 30
0.0
 10
8.1427915492
 20
0.698245454
 30
0.0
 10
8.1432767189
 20
0.6968192604
 30
0.0
 10
8.1437799506
 20
0.6953947242
 30
0.0
 10
8.1444572569
 20
0.6934919343
 30
0.0
 10
8.1449501559
 20
0.6920578029
 30
0.0
 10
8.1452534882
 20
0.6910931415
 30
0.0
  0
SPLINE
  5
551
100
AcDbEntity
  8
0
100
AcDbSpline
 62
9
  6
CONTINUOUS
 70
0
 71
3
 72
12
 73
8
 74
0
 42
0.0000001
 43
0.0000001
 44
0.0000000001
 40
0.0
 40
0.0
 40
0.0
 40
0.0
 40
0.3403086231
 40
0.620785924
 40
0.8401549657
 40
0.9273315157
 40
1.0
 40
1.0
 40
1.0
 40
1.0
 10
7.3885954691
 20
15.652463005
 30
0.0
 10
7.3890186379
 20
15.6520698764
 30
0.0
 10
7.3897992811
 20
15.651361845
 30
0.0
 10
7.3908907286
 20
15.6504437799
 30
0.0
 10
7.3916889889
 20
15.6498454163
 30
0.0
 10
7.3922332645
 20
15.6495013115
 30
0.0
 10
7.3924726066
 20
15.6493726596
 30
0.0
 10
7.3925843733
 20
15.6493204991
 30
0.0
  0
SPLINE
  5
552
100
AcDbEntity
  8
0
100
AcDbSpline
 62
9
  6
CONTINUOUS
 70
0
 71
3
 72
19
 73
15
 74
0
 42
0.0000001
 43
0.0000001
 44
0.0000000001
 40
0.0
 40
0.0
 40
0.0
 40
0.0
 40
0.117177242
 40
0.1620218349
 40
0.1993367275
 40
0.2315532163
 40
0.2623457138
 40
0.2958651422
 40
0.3354068074
 40
0.383025226
 40
0.4399007821
 40
0.5838128757
 40
0.7701365991
 40
1.0
 40
1.0
 40
1.0
 40
1.0
 10
7.3925843733
 20
15.6493204991
 30
0.0
 10
7.3927061694
 20
15.6492636579
 30
0.0
 10
7.3928803763
 20
15.6491932307
 30
0.0
 10
7.3931070384
 20
15.6491562585
 30
0.0
 10
7.3932394402
 20
15.6491623567
 30
0.0
 10
7.3933498627
 20
15.6492024384
 30
0.0
 10
7.3934338494
 20
15.6492788507
 30
0.0
 10
7.3934879911
 20
15.6493872685
 30
0.0
 10
7.3935149905
 20
15.6495241259
 30
0.0
 10
7.3935170867
 20
15.649689943
 30
0.0
 10
7.3934844337
 20
15.6499735224
 30
0.0
 10
7.3933719864
 20
15.6504048053
 30
0.0
 10
7.3931514341
 20
15.6510085356
 30
0.0
 10
7.3929593909
 20
15.6514459502
 30
0.0
 10
7.3928486708
 20
15.6516852384
 30
0.0
  0
LINE
  5
553
100
AcDbEntity
  8
0
100
AcDbLine
 62
9
  6
CONTINUOUS
 10
7.3928486708
 20
15.6516852384
 11
7.391569931
 21
15.6541328997
  0
SPLINE
  5
554
100
AcDbEntity
  8
0
100
AcDbSpline
 62
9
  6
CONTINUOUS
 70
0
 71
3
 72
25
 73
21
 74
0
 42
0.0000001
 43
0.0000001
 44
0.0000000001
 40
0.0
 40
0.0
 40
0.0
 40
0.0
 40
0.0150010719
 40
0.0325940247
 40
0.0526764782
 40
0.0751423078
 40
0.1267161006
 40
0.1862762145
 40
0.2526409487
 40
0.3244195858
 40
0.4001606249
 40
0.478304644
 40
0.6353770755
 40
0.7110352233
 40
0.7826334101
 40
0.8486849323
 40
0.9077877904
 40
0.9586203436
 40
0.9805737397
 40
1.0
 40
1.0
 40
1.0
 40
1.0
 10
7.391569931
 20
15.6541328997
 30
0.0
 10
7.3911953504
 20
15.6547953976
 30
0.0
 10
7.390354344
 20
15.6562195225
 30
0.0
 10
7.3889407642
 20
15.6584877166
 30
0.0
 10
7.3872805358
 20
15.6610478483
 30
0.0
 10
7.3846255577
 20
15.6650170358
 30
0.0
 10
7.3807580981
 20
15.6705839909
 30
0.0
 10
7.3755019141
 20
15.6778963359
 30
0.0
 10
7.369543067
 20
15.6859649633
 30
0.0
 10
7.363004649
 20
15.694625248
 30
0.0
 10
7.3560202735
 20
15.7036970013
 30
0.0
 10
7.346288655
 20
15.7161140593
 30
0.0
 10
7.3364070104
 20
15.7284076728
 30
0.0
 10
7.3265766529
 20
15.740313772
 30
0.0
 10
7.3196064693
 20
15.7485923241
 30
0.0
 10
7.313094823
 20
15.7561582833
 30
0.0
 10
7.3071822557
 20
15.7628488735
 30
0.0
 10
7.302667288
 20
15.7677880057
 30
0.0
 10
7.2994455539
 20
15.7711803224
 30
0.0
 10
7.2979761019
 20
15.7726798488
 30
0.0
 10
7.29727839
 20
15.773375939
 30
0.0
  0
SPLINE
  5
555
100
AcDbEntity
  8
0
100
AcDbSpline
 62
9
  6
CONTINUOUS
 70
0
 71
3
 72
16
 73
12
 74
0
 42
0.0000001
 43
0.0000001
 44
0.0000000001
 40
0.0
 40
0.0
 40
0.0
 40
0.0
 40
0.1249925671
 40
0.24998662
 40
0.3124849581
 40
0.3749840855
 40
0.4999796142
 40
0.6249778208
 40
0.7499797838
 40
0.8749870556
 40
1.0
 40
1.0
 40
1.0
 40
1.0
 10
8.1452536579
 20
0.6909363745
 30
0.0
 10
8.2244300567
 20
0.7136671213
 30
0.0
 10
8.3834488093
 20
0.7568494559
 30
0.0
 10
8.5837670362
 20
0.8047849413
 30
0.0
 10
8.7448718808
 20
0.8392976907
 30
0.0
 10
8.9065177666
 20
0.8711833388
 30
0.0
 10
9.1095412198
 20
0.9059987209
 30
0.0
 10
9.3544705234
 20
0.9393234794
 30
0.0
 10
9.6004531106
 20
0.9638252269
 30
0.0
 10
9.847183836
 20
0.9791852245
 30
0.0
 10
10.0119569418
 20
0.983161348
 30
0.0
 10
10.0943442049
 20
0.983536215
 30
0.0
  0
SPLINE
  5
556
100
AcDbEntity
  8
0
100
AcDbSpline
 62
9
  6
CONTINUOUS
 70
0
 71
3
 72
29
 73
25
 74
0
 42
0.0000001
 43
0.0000001
 44
0.0000000001
 40
0.0
 40
0.0
 40
0.0
 40
0.0
 40
0.0010411073
 40
0.0023843422
 40
0.004184663
 40
0.0065065868
 40
0.0128137707
 40
0.0214052533
 40
0.0265643924
 40
0.0322990314
 40
0.0454880002
 40
0.0609494167
 40
0.0786537016
 40
0.120627878
 40
0.1710285631
 40
0.2293818665
 40
0.2951328897
 40
0.3676534238
 40
0.4462489909
 40
0.5301657008
 40
0.6185974351
 40
0.710695814
 40
0.8055697569
 40
1.0
 40
1.0
 40
1.0
 40
1.0
 10
10.0968926102
 20
1.046047804
 30
0.0
 10
10.0968708435
 20
1.046047804
 30
0.0
 10
10.096821075
 20
1.0460302541
 30
0.0
 10
10.0967586408
 20
1.0459670808
 30
0.0
 10
10.0966973082
 20
1.0458701815
 30
0.0
 10
10.0966065209
 20
1.0456714383
 30
0.0
 10
10.0965005145
 20
1.0453263058
 30
0.0
 10
10.0964074995
 20
1.044917348
 30
0.0
 10
10.0963309124
 20
1.0445171786
 30
0.0
 10
10.096246204
 20
1.0440208279
 30
0.0
 10
10.0961431288
 20
1.0433092494
 30
0.0
 10
10.0960257342
 20
1.0423471841
 30
0.0
 10
10.0958622037
 20
1.0407846843
 30
0.0
 10
10.0956696826
 20
1.038491084
 30
0.0
 10
10.0954594133
 20
1.0353467015
 30
0.0
 10
10.095261827
 20
1.0317035459
 30
0.0
 10
10.0950790141
 20
1.0275966681
 30
0.0
 10
10.0949130414
 20
1.02306556
 30
0.0
 10
10.094765633
 20
1.0181538383
 30
0.0
 10
10.0946383119
 20
1.0129087947
 30
0.0
 10
10.0945323672
 20
1.0073809179
 30
0.0
 10
10.0944488585
 20
1.001623546
 30
0.0
 10
10.0943679131
 20
0.99364984
 30
0.0
 10
10.0943441739
 20
0.9876012275
 30
0.0
 10
10.0943442046
 20
0.983536215
 30
0.0
  0
SPLINE
  5
557
100
AcDbEntity
  8
0
100
AcDbSpline
 62
9
  6
CONTINUOUS
 70
0
 71
3
 72
20
 73
16
 74
0
 42
0.0000001
 43
0.0000001
 44
0.0000000001
 40
0.0
 40
0.0
 40
0.0
 40
0.0
 40
0.0624686141
 40
0.1249414319
 40
0.187418605
 40
0.2499009377
 40
0.3748705979
 40
0.4373691421
 40
0.4998728492
 40
0.5623813742
 40
0.624893854
 40
0.687409554
 40
0.7499276444
 40
0.8749639187
 40
1.0
 40
1.0
 40
1.0
 40
1.0
 10
10.0968926103
 20
0.9835473908
 30
0.0
 10
10.1942058318
 20
0.9839583821
 30
0.0
 10
10.3888700167
 20
0.9812512531
 30
0.0
 10
10.6805431384
 20
0.9671689519
 30
0.0
 10
10.971625726
 20
0.9436057538
 30
0.0
 10
11.3586023175
 20
0.900330698
 30
0.0
 10
11.7435707615
 20
0.8404475066
 30
0.0
 10
12.1258763813
 20
0.7662927157
 30
0.0
 10
12.4113074473
 20
0.7040796229
 30
0.0
 10
12.6953627332
 20
0.6357970324
 30
0.0
 10
12.9780366494
 20
0.5619390506
 30
0.0
 10
13.2593408075
 20
0.4829790294
 30
0.0
 10
13.6326252731
 20
0.3714974477
 30
0.0
 10
14.0960063683
 20
0.2216003144
 30
0.0
 10
14.4636673556
 20
0.0927208467
 30
0.0
 10
14.6468926102
 20
0.0266254544
 30
0.0
  0
SPLINE
  5
558
100
AcDbEntity
  8
0
100
AcDbSpline
 62
9
  6
CONTINUOUS
 70
0
 71
3
 72
15
 73
11
 74
0
 42
0.0000001
 43
0.0000001
 44
0.0000000001
 40
0.0
 40
0.0
 40
0.0
 40
0.0
 40
0.0976044977
 40
0.1356962801
 40
0.1801492577
 40
0.2889372576
 40
0.4250346792
 40
0.5888350481
 40
0.7804812337
 40
1.0
 40
1.0
 40
1.0
 40
1.0
 10
10.0994604297
 20
1.0460473381
 30
0.0
 10
10.0993966054
 20
1.0460473583
 30
0.0
 10
10.0993233486
 20
1.0459653999
 30
0.0
 10
10.0992655698
 20
1.0458665161
 30
0.0
 10
10.0992105063
 20
1.0457530019
 30
0.0
 10
10.0991449529
 20
1.0455757723
 30
0.0
 10
10.0990698387
 20
1.0453189508
 30
0.0
 10
10.0989949612
 20
1.0450063466
 30
0.0
 10
10.0989201417
 20
1.0446378147
 30
0.0
 10
10.098873634
 20
1.0443729816
 30
0.0
 10
10.098850169
 20
1.0442313677
 30
0.0
  0
SPLINE
  5
559
100
AcDbEntity
  8
0
100
AcDbSpline
 62
9
  6
CONTINUOUS
 70
0
 71
3
 72
18
 73
14
 74
0
 42
0.0000001
 43
0.0000001
 44
0.0000000001
 40
0.0
 40
0.0
 40
0.0
 40
0.0
 40
0.0241105427
 40
0.0548854849
 40
0.0921344405
 40
0.1356138735
 40
0.1850307088
 40
0.24004886
 40
0.3653510879
 40
0.5080902252
 40
0.6643500093
 40
0.8298323704
 40
1.0
 40
1.0
 40
1.0
 40
1.0
 10
10.098850169
 20
1.0442313677
 30
0.0
 10
10.0987703665
 20
1.043749751
 30
0.0
 10
10.0986221565
 20
1.0426479477
 30
0.0
 10
10.0984290976
 20
1.0407923598
 30
0.0
 10
10.098241563
 20
1.0385423331
 30
0.0
 10
10.0980611555
 20
1.0359133142
 30
0.0
 10
10.0978895504
 20
1.0329232526
 30
0.0
 10
10.0976644935
 20
1.0282770001
 30
0.0
 10
10.0974216996
 20
1.021740092
 30
0.0
 10
10.0971930764
 20
1.0131518967
 30
0.0
 10
10.0970237518
 20
1.0037486311
 30
0.0
 10
10.0969186758
 20
0.9937890579
 30
0.0
 10
10.0968937265
 20
0.9869928963
 30
0.0
 10
10.0968926103
 20
0.9835473908
 30
0.0
  0
SPLINE
  5
55A
100
AcDbEntity
  8
0
100
AcDbSpline
 62
9
  6
CONTINUOUS
 70
0
 71
3
 72
19
 73
15
 74
0
 42
0.0000001
 43
0.0000001
 44
0.0000000001
 40
0.0
 40
0.0
 40
0.0
 40
0.0
 40
0.2232224871
 40
0.4179898062
 40
0.5838745206
 40
0.7206829475
 40
0.778243835
 40
0.8286462553
 40
0.8720008274
 40
0.9085095541
 40
0.9385399572
 40
0.9627659775
 40
0.9824767091
 40
1.0
 40
1.0
 40
1.0
 40
1.0
 10
8.5456427973
 20
14.5084724525
 30
0.0
 10
8.5459379632
 20
14.5081776031
 30
0.0
 10
8.5464858441
 20
14.5076206154
 30
0.0
 10
8.5472322943
 20
14.5068243738
 30
0.0
 10
8.5478459422
 20
14.5061256622
 30
0.0
 10
8.5482672672
 20
14.5055998954
 30
0.0
 10
8.5485333995
 20
14.5052276465
 30
0.0
 10
8.5486873243
 20
14.5049902421
 30
0.0
 10
8.5488074912
 20
14.5047782774
 30
0.0
 10
8.5488940414
 20
14.5045916736
 30
0.0
 10
8.5489472177
 20
14.504429999
 30
0.0
 10
8.5489670273
 20
14.5042921575
 30
0.0
 10
8.5489516268
 20
14.504176043
 30
0.0
 10
8.5489136014
 20
14.504114591
 30
0.0
 10
8.5488905013
 20
14.5040913742
 30
0.0
  0
SPLINE
  5
55B
100
AcDbEntity
  8
0
100
AcDbSpline
 62
7
  6
CONTINUOUS
 70
0
 71
3
 72
63
 73
59
 74
0
 42
0.0000001
 43
0.0000001
 44
0.0000000001
 40
0.0
 40
0.0
 40
0.0
 40
0.0
 40
0.0001733332
 40
0.0003738811
 40
0.0006199431
 40
0.0009216217
 40
0.0012843816
 40
0.0017113301
 40
0.0022043472
 40
0.0027646262
 40
0.0040895849
 40
0.0056897952
 40
0.0075667279
 40
0.0097208811
 40
0.0121518897
 40
0.0148589669
 40
0.0178411391
 40
0.0210971051
 40
0.0284234727
 40
0.0368231834
 40
0.0462778817
 40
0.0567669546
 40
0.0682668152
 40
0.0807517571
 40
0.108561741
 40
0.1399452904
 40
0.1746174821
 40
0.2122631558
 40
0.2525397551
 40
0.2950806619
 40
0.3394985041
 40
0.3853887489
 40
0.4323334047
 40
0.4799047929
 40
0.5276695902
 40
0.5751925814
 40
0.622040909
 40
0.6677877429
 40
0.7120164442
 40
0.7543241607
 40
0.7943256949
 40
0.8316569029
 40
0.8659781514
 40
0.8969774967
 40
0.9243735907
 40
0.9366416802
 40
0.9479186675
 40
0.9581794768
 40
0.9674010521
 40
0.9755633272
 40
0.9826486847
 40
0.9886427279
 40
0.9912270224
 40
0.9935348702
 40
0.9955656138
 40
0.9973192518
 40
0.9987966726
 40
1.0
 40
1.0
 40
1.0
 40
1.0
 10
10.8137716774
 20
17.4777763457
 30
0.0
 10
10.813738485
 20
17.4777431533
 30
0.0
 10
10.8136499293
 20
17.4776876065
 30
0.0
 10
10.8134827948
 20
17.4776551772
 30
0.0
 10
10.8132791922
 20
17.477664333
 30
0.0
 10
10.8130369288
 20
17.4777136318
 30
0.0
 10
10.8127547741
 20
17.4778028844
 30
0.0
 10
10.8124321667
 20
17.4779323512
 30
0.0
 10
10.8120688763
 20
17.4781021815
 30
0.0
 10
10.8114975148
 20
17.4783997686
 30
0.0
 10
10.8106836462
 20
17.4788789561
 30
0.0
 10
10.8095919567
 20
17.4795860679
 30
0.0
 10
10.8083379723
 20
17.480454315
 30
0.0
 10
10.8069222875
 20
17.4814833004
 30
0.0
 10
10.8053456284
 20
17.4826726182
 30
0.0
 10
10.8036088266
 20
17.4840215928
 30
0.0
 10
10.8017127695
 20
17.4855294549
 30
0.0
 10
10.7988595539
 20
17.4878432843
 30
0.0
 10
10.7949068187
 20
17.4911301735
 30
0.0
 10
10.789713821
 20
17.495550258
 30
0.0
 10
10.7839128383
 20
17.500576992
 30
0.0
 10
10.777516371
 20
17.5061981901
 30
0.0
 10
10.7705381598
 20
17.5124003298
 30
0.0
 10
10.7600970136
 20
17.5217669592
 30
0.0
 10
10.7457239153
 20
17.5348141256
 30
0.0
 10
10.7269938186
 20
17.5520005368
 30
0.0
 10
10.7063774222
 20
17.5710706333
 30
0.0
 10
10.6840558893
 20
17.5918438047
 30
0.0
 10
10.660225967
 20
17.6141239741
 30
0.0
 10
10.635098028
 20
17.637701135
 30
0.0
 10
10.6088942343
 20
17.6623534201
 30
0.0
 10
10.5818465196
 20
17.6878491115
 30
0.0
 10
10.5541944971
 20
17.7139487709
 30
0.0
 10
10.5261832678
 20
17.7404074451
 30
0.0
 10
10.4980612179
 20
17.7669768821
 30
0.0
 10
10.4700777204
 20
17.7934078378
 30
0.0
 10
10.4424809109
 20
17.8194523123
 30
0.0
 10
10.4155153817
 20
17.8448658626
 30
0.0
 10
10.3894200065
 20
17.8694097948
 30
0.0
 10
10.3644257272
 20
17.8928533881
 30
0.0
 10
10.3407535028
 20
17.914975989
 30
0.0
 10
10.3186122683
 20
17.935569042
 30
0.0
 10
10.2981971451
 20
17.9544381281
 30
0.0
 10
10.2796874628
 20
17.9714044953
 30
0.0
 10
10.2655087376
 20
17.984256853
 30
0.0
 10
10.2552309162
 20
17.9934593529
 30
0.0
 10
10.2483809076
 20
17.9995334212
 30
0.0
 10
10.2421158447
 20
18.0050234267
 30
0.0
 10
10.2364491357
 20
18.0099161047
 30
0.0
 10
10.2313930791
 20
18.0141998015
 30
0.0
 10
10.2269583963
 20
18.0178641136
 30
0.0
 10
10.2236434667
 20
18.0205114575
 30
0.0
 10
10.2213045116
 20
18.022306261
 30
0.0
 10
10.2197993968
 20
18.0234242671
 30
0.0
 10
10.2184556163
 20
18.0243817176
 30
0.0
 10
10.2172737966
 20
18.0251783078
 30
0.0
 10
10.2162545629
 20
18.0258138216
 30
0.0
 10
10.2156192891
 20
18.0261665856
 30
0.0
 10
10.2153275729
 20
18.0263118379
 30
0.0
  0
LINE
  5
55C
100
AcDbEntity
  8
0
100
AcDbLine
 62
7
  6
CONTINUOUS
 10
10.2153275729
 20
18.0263118379
 11
10.2143490246
 21
18.0267073584
  0
SPLINE
  5
55D
100
AcDbEntity
  8
0
100
AcDbSpline
 62
9
  6
CONTINUOUS
 70
0
 71
3
 72
39
 73
35
 74
0
 42
0.0000001
 43
0.0000001
 44
0.0000000001
 40
0.0
 40
0.0
 40
0.0
 40
0.0
 40
0.1029197004
 40
0.20630652
 40
0.3083760175
 40
0.4073856246
 40
0.5016466985
 40
0.5895725257
 40
0.6697198472
 40
0.706471269
 40
0.7408161823
 40
0.7726239882
 40
0.801774233
 40
0.8281681145
 40
0.8517207713
 40
0.8723674068
 40
0.8900711809
 40
0.9048458006
 40
0.9111616752
 40
0.9167910663
 40
0.921770313
 40
0.9261540625
 40
0.9300251235
 40
0.9335050359
 40
0.9367608674
 40
0.9399959733
 40
0.9434175528
 40
0.9472012525
 40
0.9514773398
 40
0.9563357573
 40
0.9618371649
 40
0.9680226502
 40
0.9825412439
 40
1.0
 40
1.0
 40
1.0
 40
1.0
 10
8.0312009437
 20
15.0394533854
 30
0.0
 10
8.0286563606
 20
15.0419994475
 30
0.0
 10
8.023510334
 20
15.0470580244
 30
0.0
 10
8.0156951355
 20
15.0544916817
 30
0.0
 10
8.0078589174
 20
15.0617027865
 30
0.0
 10
8.0001389476
 20
15.0685666723
 30
0.0
 10
7.992668568
 20
15.0749644119
 30
0.0
 10
7.985576589
 20
15.0807868212
 30
0.0
 10
7.9799308418
 20
15.0851980901
 30
0.0
 10
7.9756884986
 20
15.0883582117
 30
0.0
 10
7.9727657814
 20
15.090458827
 30
0.0
 10
7.9700213355
 20
15.0923509476
 30
0.0
 10
7.9674664464
 20
15.0940267724
 30
0.0
 10
7.9651118619
 20
15.0954798472
 30
0.0
 10
7.9629673372
 20
15.0967044949
 30
0.0
 10
7.9610417466
 20
15.097696356
 30
0.0
 10
7.9593428804
 20
15.0984514832
 30
0.0
 10
7.9580612049
 20
15.0989046036
 30
0.0
 10
7.9571543595
 20
15.0991331792
 30
0.0
 10
7.9565704775
 20
15.099234591
 30
0.0
 10
7.9560467161
 20
15.0992753202
 30
0.0
 10
7.9555828499
 20
15.0992549486
 30
0.0
 10
7.9551785959
 20
15.0991725293
 30
0.0
 10
7.9548343968
 20
15.099026079
 30
0.0
 10
7.9545530387
 20
15.098813461
 30
0.0
 10
7.9543390547
 20
15.0985355961
 30
0.0
 10
7.9541940309
 20
15.0981969083
 30
0.0
 10
7.9541160247
 20
15.097800636
 30
0.0
 10
7.9541028425
 20
15.0973474449
 30
0.0
 10
7.9541534133
 20
15.09683699
 30
0.0
 10
7.9542673831
 20
15.0962688947
 30
0.0
 10
7.9545179181
 20
15.0953864981
 30
0.0
 10
7.955006443
 20
15.0941414278
 30
0.0
 10
7.9554983458
 20
15.0931361416
 30
0.0
 10
7.9557814951
 20
15.092595137
 30
0.0
  0
LINE
  5
55E
100
AcDbEntity
  8
0
100
AcDbLine
 62
9
  6
CONTINUOUS
 10
7.9557814951
 20
15.092595137
 11
7.957682008
 21
15.0893302886
  0
SPLINE
  5
55F
100
AcDbEntity
  8
0
100
AcDbSpline
 62
7
  6
CONTINUOUS
 70
0
 71
3
 72
63
 73
59
 74
0
 42
0.0000001
 43
0.0000001
 44
0.0000000001
 40
0.0
 40
0.0
 40
0.0
 40
0.0
 40
0.0001685901
 40
0.0003650574
 40
0.0006078128
 40
0.0009068102
 40
0.0012673539
 40
0.0016924325
 40
0.0021838428
 40
0.0027427206
 40
0.0040653458
 40
0.0056636722
 40
0.0075390471
 40
0.0096918916
 40
0.0121217894
 40
0.0148279181
 40
0.0178092783
 40
0.0210645495
 40
0.0283898254
 40
0.0367887709
 40
0.0462429746
 40
0.0567317846
 40
0.0682315847
 40
0.0807166464
 40
0.0941587275
 40
0.1085273815
 40
0.1399121913
 40
0.1745861052
 40
0.2122338967
 40
0.2525129473
 40
0.2950565865
 40
0.3394773868
 40
0.3853707653
 40
0.4323186788
 40
0.4798933993
 40
0.5276615516
 40
0.5751878712
 40
0.6220394491
 40
0.6677894036
 40
0.7120210452
 40
0.7543314673
 40
0.7943354189
 40
0.8316686991
 40
0.8659916096
 40
0.8969921384
 40
0.9243888491
 40
0.9366569981
 40
0.9479338557
 40
0.9581943216
 40
0.9674153078
 40
0.9755767051
 40
0.9826608332
 40
0.9886531988
 40
0.9935429009
 40
0.9955721812
 40
0.9973240683
 40
0.9987993534
 40
1.0
 40
1.0
 40
1.0
 40
1.0
 10
10.1958268243
 20
18.008880012
 30
0.0
 10
10.1958591054
 20
18.0089122931
 30
0.0
 10
10.195946109
 20
18.0089659645
 30
0.0
 10
10.196110462
 20
18.0089953045
 30
0.0
 10
10.1963111252
 20
18.0089832785
 30
0.0
 10
10.1965504877
 20
18.0089311879
 30
0.0
 10
10.1968297793
 20
18.0088391771
 30
0.0
 10
10.1971495533
 20
18.0087069537
 30
0.0
 10
10.197510027
 20
18.0085343639
 30
0.0
 10
10.1980775786
 20
18.0082327859
 30
0.0
 10
10.1988866763
 20
18.0077487679
 30
0.0
 10
10.1999727789
 20
18.0070361931
 30
0.0
 10
10.2012211876
 20
18.0061624548
 30
0.0
 10
10.2026313039
 20
18.0051279569
 30
0.0
 10
10.2042023968
 20
18.0039331129
 30
0.0
 10
10.2059336335
 20
18.0025786025
 30
0.0
 10
10.2078241259
 20
18.001065198
 30
0.0
 10
10.2106696809
 20
17.9987436123
 30
0.0
 10
10.2146129234
 20
17.9954471806
 30
0.0
 10
10.2197948422
 20
17.9910160786
 30
0.0
 10
10.2255847377
 20
17.9859783028
 30
0.0
 10
10.2319701167
 20
17.9803460508
 30
0.0
 10
10.2389372135
 20
17.9741328221
 30
0.0
 10
10.2464708922
 20
17.9673535506
 30
0.0
 10
10.2545548109
 20
17.9600244965
 30
0.0
 10
10.266396369
 20
17.9492206468
 30
0.0
 10
10.2824252134
 20
17.9344762128
 30
0.0
 10
10.3030195569
 20
17.9153841401
 30
0.0
 10
10.3253189098
 20
17.8945888272
 30
0.0
 10
10.3491266455
 20
17.8722865093
 30
0.0
 10
10.3742323549
 20
17.8486871484
 30
0.0
 10
10.4004138853
 20
17.8240126248
 30
0.0
 10
10.4274392974
 20
17.7984946512
 30
0.0
 10
10.4550689766
 20
17.7723726645
 30
0.0
 10
10.4830578178
 20
17.7458916145
 30
0.0
 10
10.5111574363
 20
17.7192997542
 30
0.0
 10
10.5391184622
 20
17.6928463321
 30
0.0
 10
10.5666927627
 20
17.6667793515
 30
0.0
 10
10.5936357485
 20
17.6413432592
 30
0.0
 10
10.6197085488
 20
17.6167767541
 30
0.0
 10
10.6446802257
 20
17.5933105622
 30
0.0
 10
10.6683298245
 20
17.5711653441
 30
0.0
 10
10.6904484152
 20
17.550549664
 30
0.0
 10
10.710840885
 20
17.5316579553
 30
0.0
 10
10.7293279108
 20
17.5146689829
 30
0.0
 10
10.7434871903
 20
17.5017971216
 30
0.0
 10
10.7537492616
 20
17.4925787677
 30
0.0
 10
10.7605878457
 20
17.486493294
 30
0.0
 10
10.7668414898
 20
17.4809919044
 30
0.0
 10
10.7724967634
 20
17.4760878212
 30
0.0
 10
10.7775414424
 20
17.4717928576
 30
0.0
 10
10.7819645887
 20
17.4681169801
 30
0.0
 10
10.7857568504
 20
17.4650691187
 30
0.0
 10
10.7885325636
 20
17.4629422007
 30
0.0
 10
10.7904381801
 20
17.4615701926
 30
0.0
 10
10.7916142643
 20
17.460767984
 30
0.0
 10
10.7926277187
 20
17.4601268496
 30
0.0
 10
10.7932589769
 20
17.4597697953
 30
0.0
 10
10.7935487101
 20
17.4596222862
 30
0.0
  0
LINE
  5
560
100
AcDbEntity
  8
0
100
AcDbLine
 62
7
  6
CONTINUOUS
 10
10.7935487101
 20
17.4596222862
 11
10.7945503361
 21
17.4592094522
  0
SPLINE
  5
561
100
AcDbEntity
  8
0
100
AcDbSpline
 62
7
  6
CONTINUOUS
 70
0
 71
3
 72
63
 73
59
 74
0
 42
0.0000001
 43
0.0000001
 44
0.0000000001
 40
0.0
 40
0.0
 40
0.0
 40
0.0
 40
0.0001731831
 40
0.0003736005
 40
0.0006195556
 40
0.000921147
 40
0.0012838343
 40
0.0017107214
 40
0.0022036855
 40
0.0027639182
 40
0.0040887997
 40
0.0056889478
 40
0.0075658293
 40
0.0097199398
 40
0.0121509128
 40
0.0148579603
 40
0.0178401077
 40
0.0210960534
 40
0.0284223929
 40
0.0368220903
 40
0.0462767854
 40
0.0567658627
 40
0.0682657383
 40
0.0807507066
 40
0.108560762
 40
0.139944408
 40
0.1746167275
 40
0.212262539
 40
0.2525393045
 40
0.2950803833
 40
0.3394984238
 40
0.385388858
 40
0.4323337252
 40
0.479905308
 40
0.5276703044
 40
0.5751934903
 40
0.6220419898
 40
0.6677889919
 40
0.7120178303
 40
0.7543256735
 40
0.7943272954
 40
0.8316585729
 40
0.8659798378
 40
0.8969791684
 40
0.9243751965
 40
0.9366432315
 40
0.9479201532
 40
0.9581808817
 40
0.9674023549
 40
0.9755645073
 40
0.9826497196
 40
0.9886435883
 40
0.9912277812
 40
0.9935355158
 40
0.9955661319
 40
0.9973196244
 40
0.9987968756
 40
1.0
 40
1.0
 40
1.0
 40
1.0
 10
10.7624887045
 20
17.4264933728
 30
0.0
 10
10.762455541
 20
17.4264602093
 30
0.0
 10
10.762367035
 20
17.4264047218
 30
0.0
 10
10.7621999889
 20
17.4263723909
 30
0.0
 10
10.7619964806
 20
17.4263816394
 30
0.0
 10
10.7617543111
 20
17.426431029
 30
0.0
 10
10.7614722499
 20
17.426520372
 30
0.0
 10
10.7611497358
 20
17.42664993
 30
0.0
 10
10.7607865387
 20
17.4268198521
 30
0.0
 10
10.7602153044
 20
17.4271175731
 30
0.0
 10
10.759401597
 20
17.4275969248
 30
0.0
 10
10.7583100988
 20
17.4283042251
 30
0.0
 10
10.7570563079
 20
17.4291726646
 30
0.0
 10
10.7556408192
 20
17.4302018458
 30
0.0
 10
10.7540643586
 20
17.431391363
 30
0.0
 10
10.7523277581
 20
17.4327405401
 30
0.0
 10
10.7504319047
 20
17.4342486078
 30
0.0
 10
10.7475789734
 20
17.436562729
 30
0.0
 10
10.7436265969
 20
17.4398499859
 30
0.0
 10
10.738434028
 20
17.4442705067
 30
0.0
 10
10.7326334853
 20
17.449297689
 30
0.0
 10
10.726237469
 20
17.4549193472
 30
0.0
 10
10.7192597191
 20
17.4611219595
 30
0.0
 10
10.7088192227
 20
17.4704892618
 30
0.0
 10
10.694446956
 20
17.4835372889
 30
0.0
 10
10.6757178696
 20
17.5007247458
 30
0.0
 10
10.6551025269
 20
17.5197959348
 30
0.0
 10
10.6327820886
 20
17.5405702472
 30
0.0
 10
10.608953305
 20
17.5628516023
 30
0.0
 10
10.5838265438
 20
17.5864299982
 30
0.0
 10
10.5576239728
 20
17.6110835617
 30
0.0
 10
10.530577521
 20
17.636580579
 30
0.0
 10
10.5029268084
 20
17.6626816053
 30
0.0
 10
10.4749169319
 20
17.689141691
 30
0.0
 10
10.4467962809
 20
17.7157125806
 30
0.0
 10
10.4188142286
 20
17.7421450304
 30
0.0
 10
10.3912189078
 20
17.7681910379
 30
0.0
 10
10.3642549075
 20
17.7936061492
 30
0.0
 10
10.3381610911
 20
17.8181516678
 30
0.0
 10
10.3131683994
 20
17.8415968613
 30
0.0
 10
10.2894977806
 20
17.8637210734
 30
0.0
 10
10.2673581697
 20
17.8843157357
 30
0.0
 10
10.2469446777
 20
17.9031864254
 30
0.0
 10
10.2284366318
 20
17.9201543798
 30
0.0
 10
10.2142593052
 20
17.9330080933
 30
0.0
 10
10.2039826112
 20
17.942211681
 30
0.0
 10
10.1971334183
 20
17.9482865231
 30
0.0
 10
10.1908691671
 20
17.9537772939
 30
0.0
 10
10.1852032654
 20
17.9586707269
 30
0.0
 10
10.1801480108
 20
17.962955167
 30
0.0
 10
10.1757141229
 20
17.9666202104
 30
0.0
 10
10.1723998698
 20
17.9692681849
 30
0.0
 10
10.1700614571
 20
17.9710634991
 30
0.0
 10
10.168556733
 20
17.9721818604
 30
0.0
 10
10.1672133412
 20
17.9731396621
 30
0.0
 10
10.1660319085
 20
17.9739365987
 30
0.0
 10
10.1650130604
 20
17.9745724534
 30
0.0
 10
10.1643780523
 20
17.9749254768
 30
0.0
 10
10.1640864667
 20
17.9750708647
 30
0.0
  0
LINE
  5
562
100
AcDbEntity
  8
0
100
AcDbLine
 62
7
  6
CONTINUOUS
 10
10.1640864667
 20
17.9750708647
 11
10.1631065384
 21
17.9754674179
  0
SPLINE
  5
563
100
AcDbEntity
  8
0
100
AcDbSpline
 62
7
  6
CONTINUOUS
 70
0
 71
3
 72
63
 73
59
 74
0
 42
0.0000001
 43
0.0000001
 44
0.0000000001
 40
0.0
 40
0.0
 40
0.0
 40
0.0
 40
0.0001690345
 40
0.0003658682
 40
0.000608908
 40
0.0009081263
 40
0.0012688451
 40
0.0016940651
 40
0.0021855917
 40
0.0027445666
 40
0.0040673426
 40
0.0056657794
 40
0.0075412363
 40
0.0096941422
 40
0.0121240858
 40
0.014830248
 40
0.0178116321
 40
0.0210669195
 40
0.0283922115
 40
0.036791159
 40
0.0462453532
 40
0.0567341454
 40
0.0682339268
 40
0.0807189729
 40
0.0941610387
 40
0.1085296789
 40
0.1399144753
 40
0.1745884094
 40
0.212236237
 40
0.2525153672
 40
0.2950591064
 40
0.3394800507
 40
0.3853735822
 40
0.4323216864
 40
0.4798965941
 40
0.5276649493
 40
0.5751914731
 40
0.6220432353
 40
0.6677933686
 40
0.7120251504
 40
0.7543356909
 40
0.7943397061
 40
0.8316730081
 40
0.8659958625
 40
0.8969962683
 40
0.9243927629
 40
0.9366607633
 40
0.947937446
 40
0.9581977045
 40
0.9674184421
 40
0.9755795458
 40
0.9826633273
 40
0.9886552774
 40
0.9935444686
 40
0.9955734431
 40
0.9973249791
 40
0.9987998521
 40
1.0
 40
1.0
 40
1.0
 40
1.0
 10
10.1461793334
 20
17.9592325211
 30
0.0
 10
10.1462116994
 20
17.9592648871
 30
0.0
 10
10.1462988424
 20
17.9593187334
 30
0.0
 10
10.1464634468
 20
17.9593483529
 30
0.0
 10
10.146664364
 20
17.9593365733
 30
0.0
 10
10.1469039653
 20
17.9592847125
 30
0.0
 10
10.1471834813
 20
17.9591929188
 30
0.0
 10
10.1475034664
 20
17.9590609032
 30
0.0
 10
10.1478641395
 20
17.9588885118
 30
0.0
 10
10.1484319444
 20
17.9585872083
 30
0.0
 10
10.1492413328
 20
17.9581034945
 30
0.0
 10
10.1503277385
 20
17.9573912263
 30
0.0
 10
10.15157641
 20
17.95651776
 30
0.0
 10
10.1529867499
 20
17.9554834991
 30
0.0
 10
10.1545580279
 20
17.9542888569
 30
0.0
 10
10.1562894119
 20
17.9529345131
 30
0.0
 10
10.1581800145
 20
17.95142124
 30
0.0
 10
10.1610256686
 20
17.9490997904
 30
0.0
 10
10.1649689374
 20
17.9458034282
 30
0.0
 10
10.1701507524
 20
17.9413722711
 30
0.0
 10
10.1759404091
 20
17.9363343094
 30
0.0
 10
10.1823254186
 20
17.9307017435
 30
0.0
 10
10.1892920201
 20
17.924488075
 30
0.0
 10
10.1968250826
 20
17.9177082405
 30
0.0
 10
10.2049082674
 20
17.9103785043
 30
0.0
 10
10.2167486621
 20
17.8995735565
 30
0.0
 10
10.232775776
 20
17.8848274603
 30
0.0
 10
10.2533676961
 20
17.8657330344
 30
0.0
 10
10.2756642592
 20
17.844934977
 30
0.0
 10
10.2994688669
 20
17.8226295561
 30
0.0
 10
10.3245711471
 20
17.7990267581
 30
0.0
 10
10.3507489721
 20
17.7743484997
 30
0.0
 10
10.3777704385
 20
17.7488265201
 30
0.0
 10
10.4053959548
 20
17.7227002943
 30
0.0
 10
10.4333804507
 20
17.6962148009
 30
0.0
 10
10.4614755634
 20
17.6696183249
 30
0.0
 10
10.4894319463
 20
17.64316014
 30
0.0
 10
10.5170014898
 20
17.6170882767
 30
0.0
 10
10.5439396244
 20
17.5916472118
 30
0.0
 10
10.5700075068
 20
17.5670756675
 30
0.0
 10
10.5949742174
 20
17.5436044014
 30
0.0
 10
10.6186188293
 20
17.5214540977
 30
0.0
 10
10.6407324308
 20
17.5008333534
 30
0.0
 10
10.6611199368
 20
17.481936627
 30
0.0
 10
10.6796020453
 20
17.4649427145
 30
0.0
 10
10.6937571673
 20
17.4520666717
 30
0.0
 10
10.7040159239
 20
17.4428449873
 30
0.0
 10
10.7108521309
 20
17.4367571527
 30
0.0
 10
10.7171034282
 20
17.4312534409
 30
0.0
 10
10.7227563881
 20
17.4263470788
 30
0.0
 10
10.7277987901
 20
17.4220498837
 30
0.0
 10
10.7322197004
 20
17.4183718281
 30
0.0
 10
10.7360097704
 20
17.4153218471
 30
0.0
 10
10.7387836283
 20
17.4131931073
 30
0.0
 10
10.7406877671
 20
17.4118196194
 30
0.0
 10
10.7418628007
 20
17.4110164063
 30
0.0
 10
10.7428752153
 20
17.4103742881
 30
0.0
 10
10.743505758
 20
17.4100164922
 30
0.0
 10
10.74379514
 20
17.4098685966
 30
0.0
  0
LINE
  5
564
100
AcDbEntity
  8
0
100
AcDbLine
 62
7
  6
CONTINUOUS
 10
10.74379514
 20
17.4098685966
 11
10.7448004599
 21
17.4094528342
  0
SPLINE
  5
565
100
AcDbEntity
  8
0
100
AcDbSpline
 62
7
  6
CONTINUOUS
 70
0
 71
3
 72
63
 73
59
 74
0
 42
0.0000001
 43
0.0000001
 44
0.0000000001
 40
0.0
 40
0.0
 40
0.0
 40
0.0
 40
0.0001683059
 40
0.0003645285
 40
0.0006070852
 40
0.000905921
 40
0.0012663307
 40
0.0016912956
 40
0.0021826079
 40
0.0027413997
 40
0.0040638808
 40
0.0056620896
 40
0.0075373662
 40
0.0096901273
 40
0.0121199534
 40
0.0148260202
 40
0.0178073267
 40
0.0210625512
 40
0.0283877519
 40
0.0367866422
 40
0.0462408074
 40
0.0567295931
 40
0.0682293816
 40
0.0807144431
 40
0.0941565345
 40
0.1085252083
 40
0.139910083
 40
0.1745840911
 40
0.2122320026
 40
0.2525111936
 40
0.2950549911
 40
0.3394759622
 40
0.3853695217
 40
0.4323176217
 40
0.4798925313
 40
0.5276608715
 40
0.5751873754
 40
0.6220391308
 40
0.667789253
 40
0.7120210508
 40
0.7543316137
 40
0.7943356893
 40
0.8316690747
 40
0.865992067
 40
0.8969926544
 40
0.9243893965
 40
0.93665755
 40
0.9479344041
 40
0.9581948576
 40
0.9674158214
 40
0.9755771849
 40
0.9826612661
 40
0.9886535687
 40
0.9935431864
 40
0.9955724134
 40
0.9973242377
 40
0.998799447
 40
1.0
 40
1.0
 40
1.0
 40
1.0
 10
10.0963706735
 20
17.9094238612
 30
0.0
 10
10.0964029
 20
17.9094560877
 30
0.0
 10
10.0964898107
 20
17.9095096464
 30
0.0
 10
10.096653996
 20
17.9095388
 30
0.0
 10
10.096854481
 20
17.9095266004
 30
0.0
 10
10.0970936671
 20
17.9094743398
 30
0.0
 10
10.0973727836
 20
17.9093821601
 30
0.0
 10
10.0976923834
 20
17.9092497672
 30
0.0
 10
10.0980526833
 20
17.9090770066
 30
0.0
 10
10.0986199981
 20
17.9087751806
 30
0.0
 10
10.0994287973
 20
17.90829086
 30
0.0
 10
10.1005145477
 20
17.9075779397
 30
0.0
 10
10.1017626018
 20
17.9067038511
 30
0.0
 10
10.1031723612
 20
17.9056689986
 30
0.0
 10
10.1047430945
 20
17.9044737961
 30
0.0
 10
10.1064739689
 20
17.9031189239
 30
0.0
 10
10.1083640965
 20
17.9016051544
 30
0.0
 10
10.1112091459
 20
17.8992830544
 30
0.0
 10
10.1151517554
 20
17.8959859828
 30
0.0
 10
10.1203329275
 20
17.8915541328
 30
0.0
 10
10.1261220682
 20
17.8865155989
 30
0.0
 10
10.1325066851
 20
17.8808825802
 30
0.0
 10
10.1394730134
 20
17.8746685772
 30
0.0
 10
10.1470059182
 20
17.8678885248
 30
0.0
 10
10.1550890584
 20
17.8605586841
 30
0.0
 10
10.1669295446
 20
17.8497537443
 30
0.0
 10
10.1829570531
 20
17.8350079532
 30
0.0
 10
10.2035498264
 20
17.8159142891
 30
0.0
 10
10.2258476085
 20
17.7951173822
 30
0.0
 10
10.2496537793
 20
17.7728134744
 30
0.0
 10
10.2747579354
 20
17.7492125354
 30
0.0
 10
10.3009379305
 20
17.7245364522
 30
0.0
 10
10.3279618309
 20
17.699016945
 30
0.0
 10
10.3555900281
 20
17.6728934572
 30
0.0
 10
10.3835774233
 20
17.6464109463
 30
0.0
 10
10.4116756339
 20
17.6198176677
 30
0.0
 10
10.4396352892
 20
17.5933628695
 30
0.0
 10
10.4672082568
 20
17.5672945554
 30
0.0
 10
10.4941499474
 20
17.5418571722
 30
0.0
 10
10.5202214905
 20
17.517289419
 30
0.0
 10
10.5451919483
 20
17.4938220216
 30
0.0
 10
10.5688403663
 20
17.4716756408
 30
0.0
 10
10.590957815
 20
17.451058841
 30
0.0
 10
10.6113491821
 20
17.4321660554
 30
0.0
 10
10.6298351448
 20
17.4151760493
 30
0.0
 10
10.6439935464
 20
17.4023033316
 30
0.0
 10
10.6542549291
 20
17.3930843047
 30
0.0
 10
10.6610930242
 20
17.3869983573
 30
0.0
 10
10.6673461895
 20
17.3814965046
 30
0.0
 10
10.6730009948
 20
17.376591969
 30
0.0
 10
10.6780452161
 20
17.3722965639
 30
0.0
 10
10.6824679153
 20
17.3686202564
 30
0.0
 10
10.6862597407
 20
17.365571977
 30
0.0
 10
10.6890350857
 20
17.3634446997
 30
0.0
 10
10.6909404094
 20
17.3620723992
 30
0.0
 10
10.6921162857
 20
17.3612699917
 30
0.0
 10
10.6931295343
 20
17.3606286621
 30
0.0
 10
10.6937606508
 20
17.3602714604
 30
0.0
 10
10.6940503145
 20
17.3601238744
 30
0.0
  0
LINE
  5
566
100
AcDbEntity
  8
0
100
AcDbLine
 62
7
  6
CONTINUOUS
 10
10.6940503145
 20
17.3601238744
 11
10.6950526836
 21
17.3597104559
  0
SPLINE
  5
567
100
AcDbEntity
  8
0
100
AcDbSpline
 62
7
  6
CONTINUOUS
 70
0
 71
3
 72
63
 73
59
 74
0
 42
0.0000001
 43
0.0000001
 44
0.0000000001
 40
0.0
 40
0.0
 40
0.0
 40
0.0
 40
0.0001739916
 40
0.0003751132
 40
0.0006216459
 40
0.0009237109
 40
0.0012867935
 40
0.0017140172
 40
0.0022072731
 40
0.0027677627
 40
0.0040930774
 40
0.0056935815
 40
0.0075707629
 40
0.0097251302
 40
0.0121563256
 40
0.0148635671
 40
0.0178458848
 40
0.02110198
 40
0.0284285651
 40
0.0368284481
 40
0.0462832813
 40
0.0567724572
 40
0.0682723927
 40
0.0807573844
 40
0.1085674028
 40
0.1399509126
 40
0.1746230027
 40
0.2122685241
 40
0.2525449295
 40
0.2950856109
 40
0.3395032043
 40
0.3853931857
 40
0.4323375714
 40
0.4799086906
 40
0.5276732264
 40
0.57519597
 40
0.6220440686
 40
0.6677906958
 40
0.7120192153
 40
0.7543267755
 40
0.7943281783
 40
0.8316592767
 40
0.8659804317
 40
0.8969796915
 40
0.9243756956
 40
0.9366437326
 40
0.9479206584
 40
0.9581813933
 40
0.9674028757
 40
0.9755650325
 40
0.9826502355
 40
0.9886440725
 40
0.9912282365
 40
0.9935359297
 40
0.9955664877
 40
0.9973198992
 40
0.9987970371
 40
1.0
 40
1.0
 40
1.0
 40
1.0
 10
10.7112285403
 20
17.3752332086
 30
0.0
 10
10.7111952216
 20
17.3751998899
 30
0.0
 10
10.7111064482
 20
17.3751440837
 30
0.0
 10
10.7109389271
 20
17.3751112243
 30
0.0
 10
10.7107349121
 20
17.3751199748
 30
0.0
 10
10.7104922376
 20
17.3751688762
 30
0.0
 10
10.7102096738
 20
17.375257733
 30
0.0
 10
10.7098866584
 20
17.3753868014
 30
0.0
 10
10.7095229593
 20
17.3755562299
 30
0.0
 10
10.7089510408
 20
17.375853232
 30
0.0
 10
10.7081364671
 20
17.3763317024
 30
0.0
 10
10.7070439415
 20
17.3770379917
 30
0.0
 10
10.7057891122
 20
17.3779054014
 30
0.0
 10
10.7043725737
 20
17.3789335354
 30
0.0
 10
10.7027950516
 20
17.3801219895
 30
0.0
 10
10.7010573778
 20
17.3814700888
 30
0.0
 10
10.6991604399
 20
17.382977065
 30
0.0
 10
10.6963060002
 20
17.385289642
 30
0.0
 10
10.6923517265
 20
17.3885749656
 30
0.0
 10
10.6871569056
 20
17.3929932102
 30
0.0
 10
10.6813540734
 20
17.3980180716
 30
0.0
 10
10.6749557337
 20
17.4036373682
 30
0.0
 10
10.6679756302
 20
17.4098375816
 30
0.0
 10
10.6575318532
 20
17.4192015072
 30
0.0
 10
10.6431554686
 20
17.4322452987
 30
0.0
 10
10.6244215102
 20
17.4494277533
 30
0.0
 10
10.6038012441
 20
17.4684938731
 30
0.0
 10
10.5814758572
 20
17.4892630755
 30
0.0
 10
10.5576421203
 20
17.5115393118
 30
0.0
 10
10.5325104292
 20
17.5351126034
 30
0.0
 10
10.5063029692
 20
17.5597611105
 30
0.0
 10
10.4792516966
 20
17.5852531424
 30
0.0
 10
10.4515962476
 20
17.6113492882
 30
0.0
 10
10.4235817462
 20
17.6378046214
 30
0.0
 10
10.3954566017
 20
17.6643709168
 30
0.0
 10
10.3674702105
 20
17.6907989562
 30
0.0
 10
10.339870732
 20
17.7168407654
 30
0.0
 10
10.3129027827
 20
17.7422519267
 30
0.0
 10
10.2868052611
 20
17.7667937703
 30
0.0
 10
10.2618091339
 20
17.7902355995
 30
0.0
 10
10.238135386
 20
17.8123567835
 30
0.0
 10
10.2159929781
 20
17.832948789
 30
0.0
 10
10.1955770578
 20
17.8518172173
 30
0.0
 10
10.1770669817
 20
17.8687833368
 30
0.0
 10
10.1628882811
 20
17.8816358507
 30
0.0
 10
10.1526107322
 20
17.8908387334
 30
0.0
 10
10.1457610427
 20
17.8969131922
 30
0.0
 10
10.1394964217
 20
17.902403706
 30
0.0
 10
10.1338302806
 20
17.907297012
 30
0.0
 10
10.1287749213
 20
17.9115814568
 30
0.0
 10
10.1243410687
 20
17.9152466384
 30
0.0
 10
10.121026966
 20
17.9178948526
 30
0.0
 10
10.1186887577
 20
17.9196904469
 30
0.0
 10
10.1171842211
 20
17.9208090404
 30
0.0
 10
10.1158410554
 20
17.9217671093
 30
0.0
 10
10.114659889
 20
17.9225643477
 30
0.0
 10
10.1136413481
 20
17.9232005382
 30
0.0
 10
10.1130065775
 20
17.9235538473
 30
0.0
 10
10.1127151159
 20
17.923699395
 30
0.0
  0
LINE
  5
568
100
AcDbEntity
  8
0
100
AcDbLine
 62
7
  6
CONTINUOUS
 10
10.1127151159
 20
17.923699395
 11
10.1117332259
 21
17.9240972867
  0
SPLINE
  5
569
100
AcDbEntity
  8
0
100
AcDbSpline
 62
9
  6
CONTINUOUS
 70
0
 71
3
 72
38
 73
34
 74
0
 42
0.0000001
 43
0.0000001
 44
0.0000000001
 40
0.0
 40
0.0
 40
0.0
 40
0.0
 40
0.0254069657
 40
0.0478193936
 40
0.0672140536
 40
0.0836339172
 40
0.0971896591
 40
0.1029618162
 40
0.1081182853
 40
0.1127277736
 40
0.1168904153
 40
0.1207444676
 40
0.1244629854
 40
0.1282377288
 40
0.1322522292
 40
0.1366586834
 40
0.1415711897
 40
0.1532015451
 40
0.1675583035
 40
0.1848321262
 40
0.205110177
 40
0.2284098777
 40
0.2547138175
 40
0.2839714406
 40
0.3161157627
 40
0.351059854
 40
0.3887056234
 40
0.4716191456
 40
0.5637883651
 40
0.6640333931
 40
0.7711009198
 40
0.8835885053
 40
1.0
 40
1.0
 40
1.0
 40
1.0
 10
8.0645521773
 20
14.9870663547
 30
0.0
 10
8.0651466111
 20
14.9867312141
 30
0.0
 10
8.0662759365
 20
14.9861186633
 30
0.0
 10
8.0678995459
 20
14.9853278544
 30
0.0
 10
8.0693435572
 20
14.9847240697
 30
0.0
 10
8.0706040781
 20
14.9843080077
 30
0.0
 10
8.0715463945
 20
14.9841062184
 30
0.0
 10
8.0722028265
 20
14.9840531964
 30
0.0
 10
8.0726209953
 20
14.984063783
 30
0.0
 10
8.0729917809
 20
14.9841229634
 30
0.0
 10
8.0733149499
 20
14.984231912
 30
0.0
 10
8.0735894744
 20
14.9843917672
 30
0.0
 10
8.0738131255
 20
14.9846029274
 30
0.0
 10
8.0739837696
 20
14.9848638328
 30
0.0
 10
8.0741011004
 20
14.9851719596
 30
0.0
 10
8.0741665453
 20
14.9855256528
 30
0.0
 10
8.0741870662
 20
14.9860895214
 30
0.0
 10
8.0740674665
 20
14.9869165182
 30
0.0
 10
8.0737378495
 20
14.9880327624
 30
0.0
 10
8.0732129069
 20
14.9893262848
 30
0.0
 10
8.0724925887
 20
14.9907944021
 30
0.0
 10
8.0715778173
 20
14.9924341176
 30
0.0
 10
8.070470528
 20
14.9942402976
 30
0.0
 10
8.0691739002
 20
14.9962074244
 30
0.0
 10
8.0676917103
 20
14.9983289459
 30
0.0
 10
8.0660286703
 20
15.0005980055
 30
0.0
 10
8.0634942916
 20
15.0039180955
 30
0.0
 10
8.0599103931
 20
15.008369204
 30
0.0
 10
8.055123199
 20
15.0140063758
 30
0.0
 10
8.0497834072
 20
15.0200227929
 30
0.0
 10
8.0439596576
 20
15.0263371091
 30
0.0
 10
8.0377286666
 20
15.0328646051
 30
0.0
 10
8.0334130537
 20
15.0372437117
 30
0.0
 10
8.0312009437
 20
15.0394533854
 30
0.0
  0
SPLINE
  5
56A
100
AcDbEntity
  8
0
100
AcDbSpline
 62
9
  6
CONTINUOUS
 70
0
 71
3
 72
49
 73
45
 74
0
 42
0.0000001
 43
0.0000001
 44
0.0000000001
 40
0.0
 40
0.0
 40
0.0
 40
0.0
 40
0.0299558704
 40
0.063319866
 40
0.0997041961
 40
0.1387791315
 40
0.2235748407
 40
0.3148177626
 40
0.4095451902
 40
0.5046528239
 40
0.551375003
 40
0.5970392852
 40
0.6412823145
 40
0.6837538103
 40
0.7241047315
 40
0.7620057388
 40
0.7971472399
 40
0.8292397433
 40
0.8580420884
 40
0.8833628963
 40
0.8946675192
 40
0.9050413686
 40
0.91446403
 40
0.9229100596
 40
0.9303538093
 40
0.9367758548
 40
0.9421670543
 40
0.9465334435
 40
0.9483475169
 40
0.9499292873
 40
0.9512952523
 40
0.9524700053
 40
0.9534908316
 40
0.9544127567
 40
0.9553081932
 40
0.9562546943
 40
0.9573178727
 40
0.9585442754
 40
0.9615932028
 40
0.9655418305
 40
0.9704457882
 40
0.9763282863
 40
0.983199768
 40
1.0
 40
1.0
 40
1.0
 40
1.0
 10
8.476838279
 20
14.59381605
 30
0.0
 10
8.4757243083
 20
14.5949340404
 30
0.0
 10
8.4733423766
 20
14.597270089
 30
0.0
 10
8.4695340769
 20
14.600888368
 30
0.0
 10
8.4653266836
 20
14.6047834114
 30
0.0
 10
8.4590680506
 20
14.6104506582
 30
0.0
 10
8.4505565204
 20
14.6179348353
 30
0.0
 10
8.4396998347
 20
14.627189448
 30
0.0
 10
8.428296192
 20
14.6366376564
 30
0.0
 10
8.4185913958
 20
14.6444579306
 30
0.0
 10
8.4108360708
 20
14.6505763589
 30
0.0
 10
8.4051528163
 20
14.6549943084
 30
0.0
 10
8.3996143006
 20
14.6592332362
 30
0.0
 10
8.3942655096
 20
14.6632591233
 30
0.0
 10
8.3891498978
 20
14.6670387953
 30
0.0
 10
8.3843097529
 20
14.670540961
 30
0.0
 10
8.3797853322
 20
14.6737366714
 30
0.0
 10
8.3756133924
 20
14.6765998121
 30
0.0
 10
8.371826551
 20
14.6791086719
 30
0.0
 10
8.368914647
 20
14.6809541432
 30
0.0
 10
8.3667959464
 20
14.6822359281
 30
0.0
 10
8.3653805346
 20
14.6830616482
 30
0.0
 10
8.3640811294
 20
14.6837868512
 30
0.0
 10
8.3629014545
 20
14.6844091662
 30
0.0
 10
8.3618454604
 20
14.6849260714
 30
0.0
 10
8.3609167325
 20
14.6853355142
 30
0.0
 10
8.3601185464
 20
14.6856359849
 30
0.0
 10
8.3595313474
 20
14.6858048001
 30
0.0
 10
8.3591285029
 20
14.685877339
 30
0.0
 10
8.3588783365
 20
14.6859007716
 30
0.0
 10
8.3586605921
 20
14.6858969576
 30
0.0
 10
8.3584746419
 20
14.6858657101
 30
0.0
 10
8.3583200089
 20
14.6858061583
 30
0.0
 10
8.3581975872
 20
14.6857166937
 30
0.0
 10
8.3581101935
 20
14.6855973445
 30
0.0
 10
8.3580591487
 20
14.6854510754
 30
0.0
 10
8.3580426946
 20
14.6852801487
 30
0.0
 10
8.3580667858
 20
14.6849988062
 30
0.0
 10
8.3581928742
 20
14.6845805345
 30
0.0
 10
8.3584581582
 20
14.6840115802
 30
0.0
 10
8.3588503971
 20
14.6833405603
 30
0.0
 10
8.3593696261
 20
14.6825681928
 30
0.0
 10
8.3602967761
 20
14.6813167429
 30
0.0
 10
8.3610939847
 20
14.6803563745
 30
0.0
 10
8.3616723464
 20
14.6796863388
 30
0.0
  0
SPLINE
  5
56B
100
AcDbEntity
  8
0
100
AcDbSpline
 62
9
  6
CONTINUOUS
 70
0
 71
3
 72
31
 73
27
 74
0
 42
0.0000001
 43
0.0000001
 44
0.0000000001
 40
0.0
 40
0.0
 40
0.0
 40
0.0
 40
0.0812031407
 40
0.1492753657
 40
0.1783544862
 40
0.2041269506
 40
0.2266203763
 40
0.2458920441
 40
0.2620482856
 40
0.2752920637
 40
0.2860197829
 40
0.2949760068
 40
0.3033931342
 40
0.3127212221
 40
0.3240583711
 40
0.3380272496
 40
0.3549547448
 40
0.3750174861
 40
0.3983163033
 40
0.4249109617
 40
0.4881005596
 40
0.5646267888
 40
0.6543417273
 40
0.7570050393
 40
0.872328251
 40
1.0
 40
1.0
 40
1.0
 40
1.0
 10
8.4803691081
 20
14.583137898
 30
0.0
 10
8.4809299285
 20
14.582827294
 30
0.0
 10
8.481969022
 20
14.5822708006
 30
0.0
 10
8.4832372676
 20
14.5816573698
 30
0.0
 10
8.484130535
 20
14.5812775584
 30
0.0
 10
8.4847016682
 20
14.5810609537
 30
0.0
 10
8.4852094143
 20
14.5808972168
 30
0.0
 10
8.4856535167
 20
14.5807863278
 30
0.0
 10
8.4860341134
 20
14.5807280988
 30
0.0
 10
8.4863522415
 20
14.5807227489
 30
0.0
 10
8.4866102911
 20
14.5807713345
 30
0.0
 10
8.4868094619
 20
14.5808813573
 30
0.0
 10
8.4869362468
 20
14.5810584807
 30
0.0
 10
8.4869831638
 20
14.5812881718
 30
0.0
 10
8.4869612098
 20
14.5815628114
 30
0.0
 10
8.4868749987
 20
14.5818861324
 30
0.0
 10
8.4867248151
 20
14.5822600661
 30
0.0
 10
8.4865103533
 20
14.5826854454
 30
0.0
 10
8.4862313199
 20
14.583162378
 30
0.0
 10
8.4857440606
 20
14.5839107666
 30
0.0
 10
8.4849646718
 20
14.5849685967
 30
0.0
 10
8.4838224301
 20
14.5863748309
 30
0.0
 10
8.4824278938
 20
14.58797599
 30
0.0
 10
8.4807855635
 20
14.5897662466
 30
0.0
 10
8.4789001606
 20
14.5917393487
 30
0.0
 10
8.4775516442
 20
14.5931039562
 30
0.0
 10
8.476838279
 20
14.59381605
 30
0.0
  0
SPLINE
  5
56C
100
AcDbEntity
  8
0
100
AcDbSpline
 62
9
  6
CONTINUOUS
 70
0
 71
3
 72
36
 73
32
 74
0
 42
0.0000001
 43
0.0000001
 44
0.0000000001
 40
0.0
 40
0.0
 40
0.0
 40
0.0
 40
0.1203179994
 40
0.235065695
 40
0.3431398807
 40
0.4435488805
 40
0.5353890239
 40
0.6178706296
 40
0.6903277511
 40
0.7225726158
 40
0.7520423229
 40
0.7786598747
 40
0.8023677529
 40
0.823173318
 40
0.8411232261
 40
0.8563041264
 40
0.8688754827
 40
0.8742746934
 40
0.8791528618
 40
0.8876641032
 40
0.8915708355
 40
0.8954365762
 40
0.8994230325
 40
0.9036774997
 40
0.908321168
 40
0.9134470929
 40
0.9253906485
 40
0.9398777012
 40
0.9570941089
 40
0.9771267802
 40
1.0
 40
1.0
 40
1.0
 40
1.0
 10
7.6947089856
 20
15.3759453435
 30
0.0
 10
7.692875106
 20
15.3777841936
 30
0.0
 10
7.6892651096
 20
15.3813498154
 30
0.0
 10
7.6839172304
 20
15.3864743796
 30
0.0
 10
7.6788005375
 20
15.3912178286
 30
0.0
 10
7.6739653611
 20
15.3955360856
 30
0.0
 10
7.669458514
 20
15.3993908728
 30
0.0
 10
7.6653219997
 20
15.4027477721
 30
0.0
 10
7.6621046675
 20
15.4051934772
 30
0.0
 10
7.6597412874
 20
15.4068676963
 30
0.0
 10
7.6581568771
 20
15.4079287422
 30
0.0
 10
7.6566957348
 20
15.4088413002
 30
0.0
 10
7.655361584
 20
15.4096021456
 30
0.0
 10
7.6541575664
 20
15.4102103941
 30
0.0
 10
7.6530851983
 20
15.4106666281
 30
0.0
 10
7.6521454456
 20
15.4109713299
 30
0.0
 10
7.6514394321
 20
15.4111065403
 30
0.0
 10
7.6509455265
 20
15.4111270217
 30
0.0
 10
7.6505408491
 20
15.4110966671
 30
0.0
 10
7.6501738328
 20
15.4109903619
 30
0.0
 10
7.6498792779
 20
15.4107942195
 30
0.0
 10
7.6497007688
 20
15.4106111422
 30
0.0
 10
7.6495595804
 20
15.4103892497
 30
0.0
 10
7.6494555024
 20
15.4101298933
 30
0.0
 10
7.649387831
 20
15.4098337987
 30
0.0
 10
7.649343332
 20
15.4093661954
 30
0.0
 10
7.6493901478
 20
15.4086826904
 30
0.0
 10
7.6495824549
 20
15.4077588033
 30
0.0
 10
7.6499144811
 20
15.4066911822
 30
0.0
 10
7.6503859984
 20
15.4054813943
 30
0.0
 10
7.6507677095
 20
15.4046371726
 30
0.0
 10
7.6509798566
 20
15.4041913674
 30
0.0
  0
LINE
  5
56D
100
AcDbEntity
  8
0
100
AcDbLine
 62
9
  6
CONTINUOUS
 10
7.6509798566
 20
15.4041913674
 11
7.6523541072
 21
15.4015342971
  0
SPLINE
  5
56E
100
AcDbEntity
  8
0
100
AcDbSpline
 62
7
  6
CONTINUOUS
 70
0
 71
3
 72
33
 73
29
 74
0
 42
0.0000001
 43
0.0000001
 44
0.0000000001
 40
0.0
 40
0.0
 40
0.0
 40
0.0
 40
0.218894762
 40
0.3202607295
 40
0.4157330445
 40
0.5049526901
 40
0.5875879045
 40
0.6633322024
 40
0.7319043362
 40
0.7930512641
 40
0.8465495906
 40
0.8703691495
 40
0.8922068784
 40
0.9120436077
 40
0.9298637631
 40
0.9456530868
 40
0.9594013509
 40
0.9711028964
 40
0.980756937
 40
0.9848195262
 40
0.9883760905
 40
0.9914317802
 40
0.9939952961
 40
0.9960823441
 40
0.9977233164
 40
0.9983957904
 40
0.9989858655
 40
1.0
 40
1.0
 40
1.0
 40
1.0
 10
10.5250594168
 20
17.4428741394
 30
0.0
 10
10.5346725453
 20
17.4338977799
 30
0.0
 10
10.5487545275
 20
17.4207830096
 30
0.0
 10
10.5670857149
 20
17.4038138893
 30
0.0
 10
10.5797266935
 20
17.3921676817
 30
0.0
 10
10.5915708764
 20
17.3813177024
 30
0.0
 10
10.6025756702
 20
17.371306392
 30
0.0
 10
10.6127017019
 20
17.3621728949
 30
0.0
 10
10.6219127991
 20
17.3539529709
 30
0.0
 10
10.6301762465
 20
17.346679025
 30
0.0
 10
10.6364698455
 20
17.3412373233
 30
0.0
 10
10.6410136608
 20
17.3373837345
 30
0.0
 10
10.6440337432
 20
17.3348606988
 30
0.0
 10
10.6467975996
 20
17.3325934188
 30
0.0
 10
10.6493028125
 20
17.330584126
 30
0.0
 10
10.6515472394
 20
17.3288347875
 30
0.0
 10
10.6535289072
 20
17.3273468704
 30
0.0
 10
10.6552461334
 20
17.3261217479
 30
0.0
 10
10.6565192395
 20
17.3252770516
 30
0.0
 10
10.6574074205
 20
17.3247398087
 30
0.0
 10
10.6579675978
 20
17.3244270309
 30
0.0
 10
10.6584609568
 20
17.3241804365
 30
0.0
 10
10.6588877909
 20
17.3239996298
 30
0.0
 10
10.6592483776
 20
17.3238844435
 30
0.0
 10
10.6595107314
 20
17.3238391476
 30
0.0
 10
10.6596858804
 20
17.3238428164
 30
0.0
 10
10.6598206987
 20
17.323867102
 30
0.0
 10
10.6599101586
 20
17.3239148732
 30
0.0
 10
10.6599532532
 20
17.3239579539
 30
0.0
  0
LINE
  5
56F
100
AcDbEntity
  8
0
100
AcDbLine
 62
9
  6
CONTINUOUS
 10
8.5906131462
 20
14.4635021036
 11
8.5910828612
 21
14.4628709698
  0
SPLINE
  5
570
100
AcDbEntity
  8
0
100
AcDbSpline
 62
9
  6
CONTINUOUS
 70
0
 71
3
 72
40
 73
36
 74
0
 42
0.0000001
 43
0.0000001
 44
0.0000000001
 40
0.0
 40
0.0
 40
0.0
 40
0.0
 40
0.019818437
 40
0.0364083132
 40
0.0435068136
 40
0.0498226956
 40
0.0553784712
 40
0.0602129927
 40
0.0643891943
 40
0.0680055404
 40
0.0712132899
 40
0.0742275416
 40
0.0773068176
 40
0.0806966685
 40
0.0845835639
 40
0.0890916156
 40
0.0942992756
 40
0.1002515743
 40
0.1069731174
 40
0.1144772386
 40
0.1318553952
 40
0.1524075372
 40
0.1760892175
 40
0.2028078706
 40
0.2324429496
 40
0.2648589319
 40
0.2999142653
 40
0.3374510908
 40
0.4192203545
 40
0.508531065
 40
0.6035484805
 40
0.7022859893
 40
0.802693945
 40
0.9026539199
 40
1.0
 40
1.0
 40
1.0
 40
1.0
 10
7.7537600623
 20
15.2918917624
 30
0.0
 10
7.7544274694
 20
15.2914663708
 30
0.0
 10
7.7556709357
 20
15.2907115797
 30
0.0
 10
7.757212406
 20
15.2899054098
 30
0.0
 10
7.7583129883
 20
15.2894302485
 30
0.0
 10
7.7590258019
 20
15.2891720413
 30
0.0
 10
7.7596693233
 20
15.2889929418
 30
0.0
 10
7.7602436316
 20
15.2888929745
 30
0.0
 10
7.7607493777
 20
15.28887228
 30
0.0
 10
7.7611876074
 20
15.2889322216
 30
0.0
 10
7.7615579997
 20
15.289076608
 30
0.0
 10
7.7618548888
 20
15.2893094764
 30
0.0
 10
7.7620704488
 20
15.2896275072
 30
0.0
 10
7.7622042394
 20
15.2900229171
 30
0.0
 10
7.7622608404
 20
15.290492561
 30
0.0
 10
7.7622428705
 20
15.2910370258
 30
0.0
 10
7.7621510865
 20
15.2916569675
 30
0.0
 10
7.7619860724
 20
15.2923524176
 30
0.0
 10
7.7617482724
 20
15.2931228224
 30
0.0
 10
7.7613126061
 20
15.2943078263
 30
0.0
 10
7.7605746733
 20
15.295967377
 30
0.0
 10
7.7594457503
 20
15.2981545115
 30
0.0
 10
7.7580375995
 20
15.3006141578
 30
0.0
 10
7.7563573732
 20
15.3033336192
 30
0.0
 10
7.7544135673
 20
15.3062986214
 30
0.0
 10
7.7522158435
 20
15.3094940042
 30
0.0
 10
7.7497743687
 20
15.3129037612
 30
0.0
 10
7.7461032153
 20
15.317856078
 30
0.0
 10
7.7409937302
 20
15.3244377467
 30
0.0
 10
7.7342819058
 20
15.3326774145
 30
0.0
 10
7.7269647635
 20
15.3412948887
 30
0.0
 10
7.7191975172
 20
15.3501088049
 30
0.0
 10
7.7111442192
 20
15.3589313054
 30
0.0
 10
7.7029757204
 20
15.3675708715
 30
0.0
 10
7.6974594267
 20
15.3731980158
 30
0.0
 10
7.6947089856
 20
15.3759453435
 30
0.0
  0
SPLINE
  5
571
100
AcDbEntity
  8
0
100
AcDbSpline
 62
9
  6
CONTINUOUS
 70
0
 71
3
 72
16
 73
12
 74
0
 42
0.0000001
 43
0.0000001
 44
0.0000000001
 40
0.0
 40
0.0
 40
0.0
 40
0.0
 40
0.1313660918
 40
0.2552895073
 40
0.3702909873
 40
0.4804074225
 40
0.5985042254
 40
0.7254231205
 40
0.8598965276
 40
0.9294100457
 40
1.0
 40
1.0
 40
1.0
 40
1.0
 10
8.6060073103
 20
14.4646494097
 30
0.0
 10
8.6054193544
 20
14.4650931268
 30
0.0
 10
8.6041910978
 20
14.4658484898
 30
0.0
 10
8.6022413819
 20
14.4665927754
 30
0.0
 10
8.6003114717
 20
14.4669690324
 30
0.0
 10
8.598379954
 20
14.4670272384
 30
0.0
 10
8.5963968694
 20
14.4667616812
 30
0.0
 10
8.5943577668
 20
14.4661147974
 30
0.0
 10
8.5927131323
 20
14.4652296014
 30
0.0
 10
8.5914729789
 20
14.4643140206
 30
0.0
 10
8.5908897123
 20
14.4637852999
 30
0.0
 10
8.5906099437
 20
14.4635053041
 30
0.0
  0
SPLINE
  5
572
100
AcDbEntity
  8
0
100
AcDbSpline
 62
9
  6
CONTINUOUS
 70
0
 71
3
 72
29
 73
25
 74
0
 42
0.0000001
 43
0.0000001
 44
0.0000000001
 40
0.0
 40
0.0
 40
0.0
 40
0.0
 40
0.1013920307
 40
0.1871817438
 40
0.2577148579
 40
0.3133864123
 40
0.3357866032
 40
0.3546362195
 40
0.3700335989
 40
0.382159368
 40
0.3982473352
 40
0.4049943097
 40
0.4132222172
 40
0.424065384
 40
0.4380232644
 40
0.4553183562
 40
0.4760583209
 40
0.5002983716
 40
0.5280671144
 40
0.5942324179
 40
0.6745760042
 40
0.7690445649
 40
0.8775549767
 40
1.0
 40
1.0
 40
1.0
 40
1.0
 10
7.2377313564
 20
15.8329229726
 30
0.0
 10
7.2375904126
 20
15.833065403
 30
0.0
 10
7.2373279866
 20
15.8333261648
 30
0.0
 10
7.2369581871
 20
15.8336764787
 30
0.0
 10
7.2366445178
 20
15.8339543608
 30
0.0
 10
7.2364155616
 20
15.8341385771
 30
0.0
 10
7.2362586659
 20
15.8342487654
 30
0.0
 10
7.2361637217
 20
15.8343077819
 30
0.0
 10
7.2360812994
 20
15.8343497404
 30
0.0
 10
7.2360022883
 20
15.8343790347
 30
0.0
 10
7.2359233107
 20
15.8343857216
 30
0.0
 10
7.235879857
 20
15.8343371337
 30
0.0
 10
7.2358684275
 20
15.8342862095
 30
0.0
 10
7.2358701774
 20
15.8342207085
 30
0.0
 10
7.2358851438
 20
15.8341386231
 30
0.0
 10
7.2359131351
 20
15.834039675
 30
0.0
 10
7.2359543563
 20
15.8339236374
 30
0.0
 10
7.2360088128
 20
15.8337905392
 30
0.0
 10
7.2361049026
 20
15.8335776367
 30
0.0
 10
7.2362598806
 20
15.8332699056
 30
0.0
 10
7.2364885697
 20
15.8328521135
 30
0.0
 10
7.2367694897
 20
15.8323677065
 30
0.0
 10
7.2371022822
 20
15.8318173488
 30
0.0
 10
7.2373440124
 20
15.8314301673
 30
0.0
 10
7.2374732639
 20
15.8312255926
 30
0.0
  0
LINE
  5
573
100
AcDbEntity
  8
0
100
AcDbLine
 62
9
  6
CONTINUOUS
 10
7.2913209118
 20
15.7672289725
 11
7.2879499395
 21
15.7715554899
  0
SPLINE
  5
574
100
AcDbEntity
  8
0
100
AcDbSpline
 62
9
  6
CONTINUOUS
 70
0
 71
3
 72
15
 73
11
 74
0
 42
0.0000001
 43
0.0000001
 44
0.0000000001
 40
0.0
 40
0.0
 40
0.0
 40
0.0
 40
0.3191346514
 40
0.4693019038
 40
0.6086678983
 40
0.7340673767
 40
0.8426581483
 40
0.9320157324
 40
0.9687973304
 40
1.0
 40
1.0
 40
1.0
 40
1.0
 10
7.2879499395
 20
15.7715554899
 30
0.0
 10
7.2829470592
 20
15.7779638263
 30
0.0
 10
7.2755511503
 20
15.7873573119
 30
0.0
 10
7.2658717012
 20
15.7994708594
 30
0.0
 10
7.2592285438
 20
15.8076929208
 30
0.0
 10
7.2532036221
 20
15.8150526215
 30
0.0
 10
7.2479333192
 20
15.8213833036
 30
0.0
 10
7.2440570816
 20
15.8259368637
 30
0.0
 10
7.2414158421
 20
15.8289519114
 30
0.0
 10
7.2402585988
 20
15.8302405231
 30
0.0
 10
7.2397217565
 20
15.8308267327
 30
0.0
  0
LINE
  5
575
100
AcDbEntity
  8
0
100
AcDbLine
 62
9
  6
CONTINUOUS
 10
7.2397217565
 20
15.8308267327
 11
7.2377313564
 21
15.8329229726
  0
SPLINE
  5
576
100
AcDbEntity
  8
0
100
AcDbSpline
 62
9
  6
CONTINUOUS
 70
0
 71
3
 72
22
 73
18
 74
0
 42
0.0000001
 43
0.0000001
 44
0.0000000001
 40
0.0
 40
0.0
 40
0.0
 40
0.0
 40
0.2200238059
 40
0.4137436046
 40
0.5799492425
 40
0.652497143
 40
0.7179151062
 40
0.776172701
 40
0.8272673973
 40
0.8712551274
 40
0.8906340357
 40
0.9083072886
 40
0.9387119773
 40
0.9630934736
 40
0.9827038428
 40
0.9914557756
 40
1.0
 40
1.0
 40
1.0
 40
1.0
 10
8.462778728
 20
14.5913365218
 30
0.0
 10
8.4635276714
 20
14.5905881731
 30
0.0
 10
8.4649230655
 20
14.5891678132
 30
0.0
 10
8.4668287953
 20
14.5871287303
 30
0.0
 10
8.4682000009
 20
14.585562492
 30
0.0
 10
8.4691245128
 20
14.5844275814
 30
0.0
 10
8.4697002314
 20
14.5836789997
 30
0.0
 10
8.4701897724
 20
14.5829949112
 30
0.0
 10
8.4705924953
 20
14.5823763159
 30
0.0
 10
8.4708661362
 20
14.5818977561
 30
0.0
 10
8.4710383095
 20
14.5815476916
 30
0.0
 10
8.4711672494
 20
14.5812497434
 30
0.0
 10
8.4712795514
 20
14.5809183963
 30
0.0
 10
8.4713362574
 20
14.5805626655
 30
0.0
 10
8.4713055711
 20
14.5803048021
 30
0.0
 10
8.4712290994
 20
14.5801429538
 30
0.0
 10
8.4711767577
 20
14.5800771353
 30
0.0
 10
8.4711476903
 20
14.5800480581
 30
0.0
  0
SPLINE
  5
577
100
AcDbEntity
  8
0
100
AcDbSpline
 62
9
  6
CONTINUOUS
 70
0
 71
3
 72
37
 73
33
 74
0
 42
0.0000001
 43
0.0000001
 44
0.0000000001
 40
0.0
 40
0.0
 40
0.0
 40
0.0
 40
0.1123817095
 40
0.2221243788
 40
0.327739953
 40
0.4278667378
 40
0.5212490655
 40
0.6067727638
 40
0.6832929384
 40
0.7178141915
 40
0.7496750409
 40
0.7788106575
 40
0.805169954
 40
0.8287137098
 40
0.8494167394
 40
0.8672805304
 40
0.8823447982
 40
0.8947252502
 40
0.9046747163
 40
0.9088997208
 40
0.9127526079
 40
0.9163770187
 40
0.9199467614
 40
0.9236444637
 40
0.9276341868
 40
0.9320463789
 40
0.9369770176
 40
0.9424935002
 40
0.9486420925
 40
0.9629479941
 40
0.9800520206
 40
1.0
 40
1.0
 40
1.0
 40
1.0
 10
7.861329144
 20
15.209325185
 30
0.0
 10
7.8590822414
 20
15.2115778218
 30
0.0
 10
7.8546038592
 20
15.2159930989
 30
0.0
 10
7.847894749
 20
15.2224031697
 30
0.0
 10
7.8413353518
 20
15.228466034
 30
0.0
 10
7.8350153634
 20
15.2341036351
 30
0.0
 10
7.82901694
 20
15.2392450792
 30
0.0
 10
7.8234206748
 20
15.2438259774
 30
0.0
 10
7.8190180578
 20
15.2472315969
 30
0.0
 10
7.8157490495
 20
15.2496156253
 30
0.0
 10
7.8135298322
 20
15.2511613325
 30
0.0
 10
7.8114651634
 20
15.2525233534
 30
0.0
 10
7.8095606874
 20
15.2536989402
 30
0.0
 10
7.8078216952
 20
15.2546857867
 30
0.0
 10
7.8062528788
 20
15.2554819106
 30
0.0
 10
7.8048586791
 20
15.2560860917
 30
0.0
 10
7.8036413652
 20
15.2564977479
 30
0.0
 10
7.8026029807
 20
15.2567170902
 30
0.0
 10
7.801843523
 20
15.2567398949
 30
0.0
 10
7.8013406736
 20
15.2566403965
 30
0.0
 10
7.8010305033
 20
15.2565179833
 30
0.0
 10
7.8007682855
 20
15.2563426775
 30
0.0
 10
7.8005567842
 20
15.2561144082
 30
0.0
 10
7.8003975404
 20
15.2558354731
 30
0.0
 10
7.800289978
 20
15.2555082298
 30
0.0
 10
7.8002327783
 20
15.2551337329
 30
0.0
 10
7.800224998
 20
15.2547121459
 30
0.0
 10
7.8002660723
 20
15.2542434006
 30
0.0
 10
7.8003924059
 20
15.2535183645
 30
0.0
 10
7.8006857465
 20
15.2524935158
 30
0.0
 10
7.8012114593
 20
15.2511367006
 30
0.0
 10
7.8016544242
 20
15.2501850338
 30
0.0
 10
7.8019045148
 20
15.2496786764
 30
0.0
  0
LINE
  5
578
100
AcDbEntity
  8
0
100
AcDbLine
 62
9
  6
CONTINUOUS
 10
7.8019045148
 20
15.2496786764
 11
7.8035089556
 21
15.2467198569
  0
SPLINE
  5
579
100
AcDbEntity
  8
0
100
AcDbSpline
 62
9
  6
CONTINUOUS
 70
0
 71
3
 72
14
 73
10
 74
0
 42
0.0000001
 43
0.0000001
 44
0.0000000001
 40
0.0
 40
0.0
 40
0.0
 40
0.0
 40
0.1179267611
 40
0.2322575441
 40
0.3419556787
 40
0.4505934469
 40
0.7033767661
 40
0.8478016706
 40
1.0
 40
1.0
 40
1.0
 40
1.0
 10
8.4768392642
 20
14.5938174298
 30
0.0
 10
8.4763435566
 20
14.5941676352
 30
0.0
 10
8.4752820557
 20
14.5947442236
 30
0.0
 10
8.4735790645
 20
14.5952317337
 30
0.0
 10
8.4718647433
 20
14.5953868288
 30
0.0
 10
8.4694388369
 20
14.5952028857
 30
0.0
 10
8.4669194912
 20
14.5943638055
 30
0.0
 10
8.4644990291
 20
14.5928880338
 30
0.0
 10
8.4633298111
 20
14.5918932193
 30
0.0
 10
8.4627761034
 20
14.5913391444
 30
0.0
  0
SPLINE
  5
57A
100
AcDbEntity
  8
0
100
AcDbSpline
 62
9
  6
CONTINUOUS
 70
0
 71
3
 72
39
 73
35
 74
0
 42
0.0000001
 43
0.0000001
 44
0.0000000001
 40
0.0
 40
0.0
 40
0.0
 40
0.0
 40
0.0221195132
 40
0.0412048071
 40
0.0572665829
 40
0.0641828923
 40
0.0703754456
 40
0.0758740935
 40
0.0807256124
 40
0.0850015062
 40
0.0888106224
 40
0.0923098733
 40
0.0956982688
 40
0.0991919414
 40
0.1029877259
 40
0.1072403222
 40
0.1120603857
 40
0.1175238217
 40
0.1236797782
 40
0.1381741252
 40
0.1556814149
 40
0.176227394
 40
0.1997894571
 40
0.226322118
 40
0.2557608465
 40
0.2880090426
 40
0.3229532999
 40
0.4003799776
 40
0.4868225069
 40
0.580850276
 40
0.6808823174
 40
0.785273506
 40
0.8922611502
 40
1.0
 40
1.0
 40
1.0
 40
1.0
 10
7.9075472304
 20
15.1408797906
 30
0.0
 10
7.908185771
 20
15.1405032708
 30
0.0
 10
7.9093892252
 20
15.1398247861
 30
0.0
 10
7.9111104913
 20
15.1389738485
 30
0.0
 10
7.9124184255
 20
15.13844203
 30
0.0
 10
7.9133524837
 20
15.1381515899
 30
0.0
 10
7.9139597664
 20
15.13800732
 30
0.0
 10
7.9145089439
 20
15.1379255254
 30
0.0
 10
7.9149999733
 20
15.1379065633
 30
0.0
 10
7.9154330624
 20
15.1379512586
 30
0.0
 10
7.9158081285
 20
15.1380614749
 30
0.0
 10
7.9161236044
 20
15.1382391847
 30
0.0
 10
7.9163757128
 20
15.1384847269
 30
0.0
 10
7.9165614784
 20
15.1387947588
 30
0.0
 10
7.9166815245
 20
15.1391652802
 30
0.0
 10
7.9167379711
 20
15.1395946911
 30
0.0
 10
7.9167322431
 20
15.1400830572
 30
0.0
 10
7.9166648802
 20
15.1406307314
 30
0.0
 10
7.916482794
 20
15.1414875805
 30
0.0
 10
7.9160847985
 20
15.1427061319
 30
0.0
 10
7.9153925422
 20
15.1443267079
 30
0.0
 10
7.9144626222
 20
15.1461715966
 30
0.0
 10
7.9132982324
 20
15.1482335286
 30
0.0
 10
7.9119024734
 20
15.1505048136
 30
0.0
 10
7.9102797005
 20
15.15297654
 30
0.0
 10
7.9084359506
 20
15.1556391375
 30
0.0
 10
7.9055935734
 20
15.1595650656
 30
0.0
 10
7.9015377052
 20
15.1648527392
 30
0.0
 10
7.8960888219
 20
15.1715625875
 30
0.0
 10
7.889995587
 20
15.1787217354
 30
0.0
 10
7.8833624424
 20
15.1862084406
 30
0.0
 10
7.8763004657
 20
15.1938931235
 30
0.0
 10
7.8689297082
 20
15.2016425734
 30
0.0
 10
7.8638835998
 20
15.2067734613
 30
0.0
 10
7.861329144
 20
15.209325185
 30
0.0
  0
SPLINE
  5
57B
100
AcDbEntity
  8
0
100
AcDbSpline
 62
9
  6
CONTINUOUS
 70
0
 71
3
 72
17
 73
13
 74
0
 42
0.0000001
 43
0.0000001
 44
0.0000000001
 40
0.0
 40
0.0
 40
0.0
 40
0.0
 40
0.0177170828
 40
0.0375245867
 40
0.0617362157
 40
0.0916604514
 40
0.1710479103
 40
0.2784901016
 40
0.4149057782
 40
0.5805965764
 40
0.7756379485
 40
1.0
 40
1.0
 40
1.0
 40
1.0
 10
7.2348763419
 20
15.818829493
 30
0.0
 10
7.2348848964
 20
15.8188379405
 30
0.0
 10
7.2349073265
 20
15.8188518796
 30
0.0
 10
7.2349496233
 20
15.8188577999
 30
0.0
 10
7.2349997103
 20
15.818850917
 30
0.0
 10
7.2350861383
 20
15.8188227233
 30
0.0
 10
7.2352160447
 20
15.8187519
 30
0.0
 10
7.2353961202
 20
15.8186265458
 30
0.0
 10
7.2356128258
 20
15.8184522146
 30
0.0
 10
7.2358659723
 20
15.8182291506
 30
0.0
 10
7.236155342
 20
15.8179572199
 30
0.0
 10
7.2363580703
 20
15.8177574463
 30
0.0
 10
7.2364655921
 20
15.8176496577
 30
0.0
  0
LINE
  5
57C
100
AcDbEntity
  8
0
100
AcDbLine
 62
9
  6
CONTINUOUS
 10
9.2665243672
 20
14.0011643843
 11
9.2764606671
 21
14.0179613118
  0
LINE
  5
57D
100
AcDbEntity
  8
0
100
AcDbLine
 62
7
  6
CONTINUOUS
 10
9.357742566
 20
13.9655234616
 11
9.346822152
 21
13.9541316529
  0
SPLINE
  5
57E
100
AcDbEntity
  8
0
100
AcDbSpline
 62
9
  6
CONTINUOUS
 70
0
 71
3
 72
15
 73
11
 74
0
 42
0.0000001
 43
0.0000001
 44
0.0000000001
 40
0.0
 40
0.0
 40
0.0
 40
0.0
 40
0.1249905254
 40
0.2499956734
 40
0.3749960092
 40
0.4999971089
 40
0.6249989733
 40
0.7500076629
 40
0.8750023069
 40
1.0
 40
1.0
 40
1.0
 40
1.0
 10
9.2562147409
 20
14.0378299454
 30
0.0
 10
9.2553980418
 20
14.0362841941
 30
0.0
 10
9.2540577738
 20
14.0330276965
 30
0.0
 10
9.2530008978
 20
14.0278597749
 30
0.0
 10
9.2529390021
 20
14.0225827078
 30
0.0
 10
9.2538782459
 20
14.0173899442
 30
0.0
 10
9.2557848666
 20
14.0124694631
 30
0.0
 10
9.2585854189
 20
14.0079968842
 30
0.0
 10
9.2621743123
 20
14.0041314403
 30
0.0
 10
9.2650173291
 20
14.0020506304
 30
0.0
 10
9.2665248935
 20
14.0011652238
 30
0.0
  0
LINE
  5
57F
100
AcDbEntity
  8
0
100
AcDbLine
 62
7
  6
CONTINUOUS
 10
9.3468286635
 20
13.9541379885
 11
9.2838668917
 21
13.8911533488
  0
SPLINE
  5
580
100
AcDbEntity
  8
0
100
AcDbSpline
 62
9
  6
CONTINUOUS
 70
0
 71
3
 72
14
 73
10
 74
0
 42
0.0000001
 43
0.0000001
 44
0.0000000001
 40
0.0
 40
0.0
 40
0.0
 40
0.0
 40
0.2499314005
 40
0.3749411092
 40
0.4999533416
 40
0.6249656812
 40
0.7499752417
 40
0.8749917316
 40
1.0
 40
1.0
 40
1.0
 40
1.0
 10
9.2838668917
 20
13.8911533488
 30
0.0
 10
9.2962665372
 20
13.8837269484
 30
0.0
 10
9.3142691495
 20
13.8715401255
 30
0.0
 10
9.3368345765
 20
13.8534506765
 30
0.0
 10
9.3530158578
 20
13.8389927113
 30
0.0
 10
9.3684001254
 20
13.8236912437
 30
0.0
 10
9.3829447607
 20
13.8075885675
 30
0.0
 10
9.3966084465
 20
13.7907332369
 30
0.0
 10
9.4051040121
 20
13.7790232044
 30
0.0
 10
9.4091882335
 20
13.7730582753
 30
0.0
  0
SPLINE
  5
581
100
AcDbEntity
  8
0
100
AcDbSpline
 62
9
  6
CONTINUOUS
 70
0
 71
3
 72
23
 73
19
 74
0
 42
0.0000001
 43
0.0000001
 44
0.0000000001
 40
0.0
 40
0.0
 40
0.0
 40
0.0
 40
0.0625000622
 40
0.1249986376
 40
0.1875006799
 40
0.2500017607
 40
0.3125022737
 40
0.3750021404
 40
0.4375018209
 40
0.5000016773
 40
0.5625014421
 40
0.6250008588
 40
0.6875003139
 40
0.7500003097
 40
0.8125008167
 40
0.875002287
 40
0.9375003436
 40
1.0
 40
1.0
 40
1.0
 40
1.0
 10
9.4091882335
 20
13.7730582753
 30
0.0
 10
9.4113047278
 20
13.7699916623
 30
0.0
 10
9.4150366653
 20
13.7634969727
 30
0.0
 10
9.4190205752
 20
13.7530058464
 30
0.0
 10
9.4213131007
 20
13.7420176123
 30
0.0
 10
9.4218607758
 20
13.7308061252
 30
0.0
 10
9.4206289527
 20
13.7196487548
 30
0.0
 10
9.417661358
 20
13.708823445
 30
0.0
 10
9.4130257022
 20
13.6986007197
 30
0.0
 10
9.4068442044
 20
13.6892313958
 30
0.0
 10
9.3992624743
 20
13.6809541882
 30
0.0
 10
9.3904765758
 20
13.6739684604
 30
0.0
 10
9.3807000082
 20
13.6684538347
 30
0.0
 10
9.3701786619
 20
13.6645418574
 30
0.0
 10
9.3591714585
 20
13.6623426185
 30
0.0
 10
9.3479558428
 20
13.6618900935
 30
0.0
 10
9.3368104551
 20
13.6631991664
 30
0.0
 10
9.3296025234
 20
13.6652371249
 30
0.0
 10
9.3261128406
 20
13.66654311
 30
0.0
  0
LINE
  5
582
100
AcDbEntity
  8
0
100
AcDbLine
 62
9
  6
CONTINUOUS
 10
7.2174138873
 20
15.8367009867
 11
7.2320455374
 21
15.8168507555
  0
LINE
  5
583
100
AcDbEntity
  8
0
100
AcDbLine
 62
9
  6
CONTINUOUS
 10
7.2320455374
 20
15.8168507555
 11
7.2323592381
 21
15.8164267138
  0
SPLINE
  5
584
100
AcDbEntity
  8
0
100
AcDbSpline
 62
7
  6
CONTINUOUS
 70
0
 71
3
 72
37
 73
33
 74
0
 42
0.0000001
 43
0.0000001
 44
0.0000000001
 40
0.0
 40
0.0
 40
0.0
 40
0.0
 40
0.1917060812
 40
0.2855296879
 40
0.3768714065
 40
0.4648813137
 40
0.5487264574
 40
0.627594015
 40
0.7006952115
 40
0.767275247
 40
0.7978967903
 40
0.8266253556
 40
0.8533825088
 40
0.8780915053
 40
0.9006816292
 40
0.9210902127
 40
0.9392558257
 40
0.9551225786
 40
0.9686373483
 40
0.9744983171
 40
0.979758775
 40
0.9844175945
 40
0.9884736675
 40
0.9919259153
 40
0.9947719378
 40
0.9970060392
 40
0.9978917855
 40
0.9986224376
 40
0.999197491
 40
0.9996167965
 40
0.9998814049
 40
1.0
 40
1.0
 40
1.0
 40
1.0
 10
9.2839033324
 20
13.8911667638
 30
0.0
 10
9.2870485631
 20
13.8943143519
 30
0.0
 10
9.2917515411
 20
13.8989840547
 30
0.0
 10
9.2979949716
 20
13.9051110324
 30
0.0
 10
9.3025376229
 20
13.9095346881
 30
0.0
 10
9.3069304675
 20
13.9137801319
 30
0.0
 10
9.3111301123
 20
13.9178087867
 30
0.0
 10
9.3150937899
 20
13.9215834927
 30
0.0
 10
9.31877972
 20
13.9250687093
 30
0.0
 10
9.3216614795
 20
13.9277744386
 30
0.0
 10
9.3237978225
 20
13.9297693794
 30
0.0
 10
9.3252610337
 20
13.9311308386
 30
0.0
 10
9.3266260981
 20
13.9323963107
 30
0.0
 10
9.3278888978
 20
13.9335625158
 30
0.0
 10
9.3290455891
 20
13.9346264174
 30
0.0
 10
9.3300926024
 20
13.9355852068
 30
0.0
 10
9.3310266072
 20
13.9364363241
 30
0.0
 10
9.3318444835
 20
13.9371773061
 30
0.0
 10
9.3324526591
 20
13.937724366
 30
0.0
 10
9.3328792465
 20
13.9381051746
 30
0.0
 10
9.3331532004
 20
13.9383482949
 30
0.0
 10
9.3333965831
 20
13.9385627471
 30
0.0
 10
9.3336093071
 20
13.9387485005
 30
0.0
 10
9.3337912612
 20
13.9389055281
 30
0.0
 10
9.3339422296
 20
13.9390336849
 30
0.0
 10
9.3340488934
 20
13.9391220662
 30
0.0
 10
9.3341186434
 20
13.9391778516
 30
0.0
 10
9.3341589654
 20
13.9392090802
 30
0.0
 10
9.3341909372
 20
13.9392326126
 30
0.0
 10
9.3342157406
 20
13.9392495582
 30
0.0
 10
9.3342307611
 20
13.9392578252
 30
0.0
 10
9.334240696
 20
13.9392620574
 30
0.0
 10
9.3342429981
 20
13.9392605481
 30
0.0
  0
LINE
  5
585
100
AcDbEntity
  8
0
100
AcDbLine
 62
9
  6
CONTINUOUS
 10
9.4091881164
 20
13.7730581951
 11
9.4648082009
 21
13.8113075474
  0
LINE
  5
586
100
AcDbEntity
  8
0
100
AcDbLine
 62
9
  6
CONTINUOUS
 10
9.0401088916
 20
14.1893816061
 11
9.0418907644
 21
14.1879888008
  0
SPLINE
  5
587
100
AcDbEntity
  8
0
100
AcDbSpline
 62
9
  6
CONTINUOUS
 70
0
 71
3
 72
38
 73
34
 74
0
 42
0.0000001
 43
0.0000001
 44
0.0000000001
 40
0.0
 40
0.0
 40
0.0
 40
0.0
 40
0.1955079634
 40
0.2908085144
 40
0.3832665155
 40
0.4719932155
 40
0.556143501
 40
0.6349162833
 40
0.7075599574
 40
0.7733813601
 40
0.8035354782
 40
0.8317536066
 40
0.8579701614
 40
0.8821208166
 40
0.9041488636
 40
0.9240025078
 40
0.9416324009
 40
0.9569986316
 40
0.970063754
 40
0.975722934
 40
0.9807958338
 40
0.9852796243
 40
0.9891714864
 40
0.9924686308
 40
0.9951690032
 40
0.9962951133
 40
0.9972717179
 40
0.998098747
 40
0.9987761639
 40
0.9993040017
 40
0.9996824757
 40
0.9999124549
 40
1.0
 40
1.0
 40
1.0
 40
1.0
 10
9.3261129972
 20
13.6665435326
 30
0.0
 10
9.3246097777
 20
13.6624857422
 30
0.0
 10
9.3223759193
 20
13.656449197
 30
0.0
 10
9.3194362578
 20
13.6484917946
 30
0.0
 10
9.3173178407
 20
13.6427505679
 30
0.0
 10
9.3152871509
 20
13.6372400307
 30
0.0
 10
9.313363586
 20
13.6320128318
 30
0.0
 10
9.3115654678
 20
13.6271187818
 30
0.0
 10
9.3099099336
 20
13.6226045435
 30
0.0
 10
9.3086273836
 20
13.6190997041
 30
0.0
 10
9.3076844942
 20
13.6165176333
 30
0.0
 10
9.3070431748
 20
13.6147586509
 30
0.0
 10
9.3064483128
 20
13.6131241645
 30
0.0
 10
9.3059013217
 20
13.6116180561
 30
0.0
 10
9.3054035039
 20
13.6102439232
 30
0.0
 10
9.304956045
 20
13.6090050536
 30
0.0
 10
9.304560001
 20
13.6079043869
 30
0.0
 10
9.304216314
 20
13.6069445669
 30
0.0
 10
9.3039634018
 20
13.6062336715
 30
0.0
 10
9.303788007
 20
13.6057370164
 30
0.0
 10
9.3036764475
 20
13.6054192494
 30
0.0
 10
9.303578496
 20
13.6051381637
 30
0.0
 10
9.3034942077
 20
13.604893938
 30
0.0
 10
9.3034236389
 20
13.6046867417
 30
0.0
 10
9.3033736464
 20
13.6045371962
 30
0.0
 10
9.3033406633
 20
13.6044361461
 30
0.0
 10
9.3033208974
 20
13.6043743546
 30
0.0
 10
9.3033046241
 20
13.6043219973
 30
0.0
 10
9.3032916517
 20
13.6042786737
 30
0.0
 10
9.3032824595
 20
13.6042454855
 30
0.0
 10
9.3032757941
 20
13.6042197779
 30
0.0
 10
9.3032739896
 20
13.6042069611
 30
0.0
 10
9.3032725173
 20
13.6041972868
 30
0.0
 10
9.3032743344
 20
13.6041966139
 30
0.0
  0
SPLINE
  5
588
100
AcDbEntity
  8
0
100
AcDbSpline
 62
9
  6
CONTINUOUS
 70
0
 71
3
 72
19
 73
15
 74
0
 42
0.0000001
 43
0.0000001
 44
0.0000000001
 40
0.0
 40
0.0
 40
0.0
 40
0.0
 40
0.0174162603
 40
0.0371072317
 40
0.0614003022
 40
0.0915733033
 40
0.1282733584
 40
0.171839489
 40
0.2224589985
 40
0.2802371214
 40
0.4173961426
 40
0.5833521101
 40
0.7777872729
 40
1.0
 40
1.0
 40
1.0
 40
1.0
 10
7.2888956128
 20
15.7635389586
 30
0.0
 10
7.288929934
 20
15.7635729387
 30
0.0
 10
7.2890211712
 20
15.763628676
 30
0.0
 10
7.2891934311
 20
15.7636502833
 30
0.0
 10
7.2893982836
 20
15.7636197145
 30
0.0
 10
7.2896388943
 20
15.7635395136
 30
0.0
 10
7.2899167971
 20
15.7634097601
 30
0.0
 10
7.2902325195
 20
15.7632301508
 30
0.0
 10
7.2905860904
 20
15.7630005312
 30
0.0
 10
7.2911400909
 20
15.7626042838
 30
0.0
 10
7.2919218157
 20
15.7619783727
 30
0.0
 10
7.292959329
 20
15.7610684342
 30
0.0
 10
7.294138522
 20
15.7599636916
 30
0.0
 10
7.2949623441
 20
15.7591534516
 30
0.0
 10
7.2953978018
 20
15.758717448
 30
0.0
  0
SPLINE
  5
589
100
AcDbEntity
  8
0
100
AcDbSpline
 62
7
  6
CONTINUOUS
 70
0
 71
3
 72
43
 73
39
 74
0
 42
0.0000001
 43
0.0000001
 44
0.0000000001
 40
0.0
 40
0.0
 40
0.0
 40
0.0
 40
0.0000164224
 40
0.0000656509
 40
0.0001476288
 40
0.000262301
 40
0.0004096137
 40
0.0005895148
 40
0.0010468798
 40
0.0016340097
 40
0.0023505418
 40
0.0031961383
 40
0.004170486
 40
0.0065042887
 40
0.0093499598
 40
0.0127058989
 40
0.016570913
 40
0.0209442747
 40
0.0258256167
 40
0.0312145349
 40
0.0371105713
 40
0.0504219196
 40
0.0657558911
 40
0.0831076702
 40
0.1024679044
 40
0.1238247517
 40
0.1471653976
 40
0.1724753753
 40
0.1997357693
 40
0.2600339688
 40
0.3279302998
 40
0.403267617
 40
0.4858558893
 40
0.5754879636
 40
0.6719553958
 40
0.7750380192
 40
0.8844905717
 40
1.0
 40
1.0
 40
1.0
 40
1.0
 10
10.6733926102
 20
5.7535478006
 30
0.0
 10
10.6733926102
 20
5.7535473797
 30
0.0
 10
10.6733899601
 20
5.7535478495
 30
0.0
 10
10.6733872207
 20
5.7535463045
 30
0.0
 10
10.67338049
 20
5.753545509
 30
0.0
 10
10.6733720827
 20
5.7535436059
 30
0.0
 10
10.6733608665
 20
5.7535415341
 30
0.0
 10
10.6733411494
 20
5.7535377605
 30
0.0
 10
10.6733102436
 20
5.7535321454
 30
0.0
 10
10.6732657859
 20
5.7535243693
 30
0.0
 10
10.6732114343
 20
5.753515321
 30
0.0
 10
10.6731472153
 20
5.7535051423
 30
0.0
 10
10.6730419181
 20
5.7534893108
 30
0.0
 10
10.672885632
 20
5.7534678176
 30
0.0
 10
10.6726684166
 20
5.7534414502
 30
0.0
 10
10.6724117687
 20
5.7534144536
 30
0.0
 10
10.6721157087
 20
5.7533881357
 30
0.0
 10
10.6717802675
 20
5.7533637078
 30
0.0
 10
10.6714055353
 20
5.7533414748
 30
0.0
 10
10.6709915781
 20
5.7533218239
 30
0.0
 10
10.6703614825
 20
5.7532986044
 30
0.0
 10
10.6694761931
 20
5.7532791856
 30
0.0
 10
10.6682970528
 20
5.7532727647
 30
0.0
 10
10.6669629032
 20
5.7532849475
 30
0.0
 10
10.6654745771
 20
5.753312188
 30
0.0
 10
10.6638329539
 20
5.7533513952
 30
0.0
 10
10.6620389905
 20
5.753399359
 30
0.0
 10
10.6600937753
 20
5.753452573
 30
0.0
 10
10.6572012591
 20
5.7535208368
 30
0.0
 10
10.6532161798
 20
5.753568036
 30
0.0
 10
10.6479988807
 20
5.7535011993
 30
0.0
 10
10.642211196
 20
5.7533896101
 30
0.0
 10
10.6358657234
 20
5.753301685
 30
0.0
 10
10.6289780508
 20
5.753263094
 30
0.0
 10
10.6215650055
 20
5.7532996574
 30
0.0
 10
10.6136443599
 20
5.7533882482
 30
0.0
 10
10.6052359486
 20
5.7535059669
 30
0.0
 10
10.5994691755
 20
5.7535478048
 30
0.0
 10
10.5965081517
 20
5.7535478003
 30
0.0
  0
SPLINE
  5
58A
100
AcDbEntity
  8
0
100
AcDbSpline
 62
7
  6
CONTINUOUS
 70
0
 71
3
 72
29
 73
25
 74
0
 42
0.0000001
 43
0.0000001
 44
0.0000000001
 40
0.0
 40
0.0
 40
0.0
 40
0.0
 40
0.0502657749
 40
0.102832984
 40
0.1575569155
 40
0.1856861986
 40
0.2143056764
 40
0.2581180869
 40
0.302937084
 40
0.3487014902
 40
0.3953484128
 40
0.442813207
 40
0.466832497
 40
0.4910326248
 40
0.5399428614
 40
0.5894774996
 40
0.6395686833
 40
0.6901471908
 40
0.7411438714
 40
0.7924910078
 40
0.8441221998
 40
0.8959699604
 40
0.9479569966
 40
1.0
 40
1.0
 40
1.0
 40
1.0
 10
10.5965081517
 20
5.7535478003
 30
0.0
 10
10.5933980515
 20
5.7535477955
 30
0.0
 10
10.5870355021
 20
5.7535006609
 30
0.0
 10
10.5772877118
 20
5.7533826781
 30
0.0
 10
10.5689090879
 20
5.7533114339
 30
0.0
 10
10.5620119888
 20
5.7532800968
 30
0.0
 10
10.5557899492
 20
5.753271321
 30
0.0
 10
10.548535277
 20
5.7532931027
 30
0.0
 10
10.5402199604
 20
5.7533480927
 30
0.0
 10
10.5317294303
 20
5.7534241593
 30
0.0
 10
10.5230752258
 20
5.7535036853
 30
0.0
 10
10.5157661745
 20
5.7535457328
 30
0.0
 10
10.5098458814
 20
5.7535496303
 30
0.0
 10
10.5038361841
 20
5.7535311963
 30
0.0
 10
10.4962479247
 20
5.7534777559
 30
0.0
 10
10.4870579056
 20
5.7533956481
 30
0.0
 10
10.477764548
 20
5.7533262309
 30
0.0
 10
10.4683805738
 20
5.7532803031
 30
0.0
 10
10.4589187681
 20
5.7532702751
 30
0.0
 10
10.4493918834
 20
5.753301617
 30
0.0
 10
10.4398124888
 20
5.75336177
 30
0.0
 10
10.4301936757
 20
5.7534443638
 30
0.0
 10
10.4205493493
 20
5.7535227814
 30
0.0
 10
10.4141126856
 20
5.753547803
 30
0.0
 10
10.4108926228
 20
5.7535478002
 30
0.0
  0
SPLINE
  5
58B
100
AcDbEntity
  8
0
100
AcDbSpline
 62
7
  6
CONTINUOUS
 70
0
 71
3
 72
28
 73
24
 74
0
 42
0.0000001
 43
0.0000001
 44
0.0000000001
 40
0.0
 40
0.0
 40
0.0
 40
0.0
 40
0.0693822768
 40
0.1386157699
 40
0.2075089576
 40
0.2417760609
 40
0.2758972512
 40
0.3267621921
 40
0.3771859812
 40
0.4270992976
 40
0.4764332974
 40
0.5251205353
 40
0.5492009901
 40
0.5730953891
 40
0.6202947068
 40
0.6666546532
 40
0.7121107795
 40
0.756601029
 40
0.8000644809
 40
0.8424432165
 40
0.8836830494
 40
0.9237292632
 40
1.0
 40
1.0
 40
1.0
 40
1.0
 10
10.4108926228
 20
5.7535478002
 30
0.0
 10
10.4065997259
 20
5.7535477966
 30
0.0
 10
10.3980231589
 20
5.7535032092
 30
0.0
 10
10.3851844979
 20
5.7533851845
 30
0.0
 10
10.3745181819
 20
5.7533121628
 30
0.0
 10
10.3660242038
 20
5.753280274
 30
0.0
 10
10.3586456313
 20
5.753271306
 30
0.0
 10
10.3502674017
 20
5.7532924493
 30
0.0
 10
10.3409122095
 20
5.7533470469
 30
0.0
 10
10.3316519001
 20
5.7534228978
 30
0.0
 10
10.3224990804
 20
5.7535026002
 30
0.0
 10
10.3149443561
 20
5.7535455663
 30
0.0
 10
10.3089635595
 20
5.7535496725
 30
0.0
 10
10.3030748546
 20
5.7535315363
 30
0.0
 10
10.2958078001
 20
5.753478957
 30
0.0
 10
10.2872068806
 20
5.7533968711
 30
0.0
 10
10.2787734678
 20
5.7533271592
 30
0.0
 10
10.2705191026
 20
5.753280784
 30
0.0
 10
10.2624550013
 20
5.7532700986
 30
0.0
 10
10.2545920767
 20
5.7533008387
 30
0.0
 10
10.2469407577
 20
5.7533605857
 30
0.0
 10
10.2371928751
 20
5.7534683458
 30
0.0
 10
10.2299961875
 20
5.7535478004
 30
0.0
 10
10.2252770802
 20
5.7535478004
 30
0.0
  0
SPLINE
  5
58C
100
AcDbEntity
  8
0
100
AcDbSpline
 62
7
  6
CONTINUOUS
 70
0
 71
3
 72
43
 73
39
 74
0
 42
0.0000001
 43
0.0000001
 44
0.0000000001
 40
0.0
 40
0.0
 40
0.0
 40
0.0
 40
0.1155094278
 40
0.2249619781
 40
0.3280445985
 40
0.4245120283
 40
0.5141441018
 40
0.5967323741
 40
0.6720696921
 40
0.7399660239
 40
0.8002642254
 40
0.8275246203
 40
0.8528345984
 40
0.8761752447
 40
0.8975320925
 40
0.9168923273
 40
0.9342441067
 40
0.9495780785
 40
0.9628894271
 40
0.9687854638
 40
0.9741743822
 40
0.9790557243
 40
0.9834290862
 40
0.9872941006
 40
0.9906500398
 40
0.993495711
 40
0.9958295138
 40
0.9968038616
 40
0.9976494581
 40
0.9983659903
 40
0.9989531202
 40
0.9994104852
 40
0.9995903863
 40
0.999737699
 40
0.9998523712
 40
0.9999343491
 40
0.9999835776
 40
1.0
 40
1.0
 40
1.0
 40
1.0
 10
10.2252770802
 20
5.7535478004
 30
0.0
 10
10.2223160559
 20
5.7535478003
 30
0.0
 10
10.2165492821
 20
5.7535059609
 30
0.0
 10
10.2081408696
 20
5.7533882494
 30
0.0
 10
10.200220223
 20
5.7532996589
 30
0.0
 10
10.1928071768
 20
5.753263094
 30
0.0
 10
10.1859195032
 20
5.7533016838
 30
0.0
 10
10.1795740297
 20
5.7533896094
 30
0.0
 10
10.1737863442
 20
5.7535012022
 30
0.0
 10
10.1685690441
 20
5.7535680362
 30
0.0
 10
10.1645839642
 20
5.7535208345
 30
0.0
 10
10.1616914474
 20
5.7534525719
 30
0.0
 10
10.1597462319
 20
5.7533993591
 30
0.0
 10
10.1579522682
 20
5.753351396
 30
0.0
 10
10.1563106447
 20
5.7533121886
 30
0.0
 10
10.1548223183
 20
5.7532849478
 30
0.0
 10
10.1534881685
 20
5.7532727647
 30
0.0
 10
10.152309028
 20
5.7532791856
 30
0.0
 10
10.1514237384
 20
5.7532986043
 30
0.0
 10
10.1507936428
 20
5.7533218238
 30
0.0
 10
10.1503796855
 20
5.7533414746
 30
0.0
 10
10.1500049532
 20
5.7533637077
 30
0.0
 10
10.1496695119
 20
5.7533881357
 30
0.0
 10
10.1493734519
 20
5.7534144537
 30
0.0
 10
10.149116804
 20
5.7534414503
 30
0.0
 10
10.1488995884
 20
5.7534678178
 30
0.0
 10
10.1487433024
 20
5.7534893111
 30
0.0
 10
10.1486380051
 20
5.7535051426
 30
0.0
 10
10.1485737862
 20
5.7535153213
 30
0.0
 10
10.1485194345
 20
5.7535243695
 30
0.0
 10
10.1484749768
 20
5.7535321457
 30
0.0
 10
10.148444071
 20
5.7535377607
 30
0.0
 10
10.1484243539
 20
5.7535415344
 30
0.0
 10
10.1484131377
 20
5.7535436062
 30
0.0
 10
10.1484047304
 20
5.7535455093
 30
0.0
 10
10.1483979997
 20
5.7535463048
 30
0.0
 10
10.1483952603
 20
5.7535478497
 30
0.0
 10
10.1483926102
 20
5.7535473799
 30
0.0
 10
10.1483926102
 20
5.7535478009
 30
0.0
  0
LINE
  5
58D
100
AcDbEntity
  8
0
100
AcDbLine
 62
7
  6
CONTINUOUS
 10
10.830155356
 20
2.978547804
 11
10.7957444885
 21
2.978547804
  0
LINE
  5
58E
100
AcDbEntity
  8
0
100
AcDbLine
 62
7
  6
CONTINUOUS
 10
10.6189677932
 20
2.978547804
 11
10.5358926102
 21
2.978547804
  0
LINE
  5
58F
100
AcDbEntity
  8
0
100
AcDbLine
 62
7
  6
CONTINUOUS
 10
10.2858926102
 20
2.978547804
 11
10.2028174272
 21
2.978547804
  0
LINE
  5
590
100
AcDbEntity
  8
0
100
AcDbLine
 62
7
  6
CONTINUOUS
 10
10.0260407319
 20
2.978547804
 11
9.9916298644
 21
2.978547804
  0
SPLINE
  5
591
100
AcDbEntity
  8
0
100
AcDbSpline
 62
9
  6
CONTINUOUS
 70
0
 71
3
 72
46
 73
42
 74
0
 42
0.0000001
 43
0.0000001
 44
0.0000000001
 40
0.0
 40
0.0
 40
0.0
 40
0.0
 40
0.0000246769
 40
0.0000963672
 40
0.0002149937
 40
0.0003804794
 40
0.0005927471
 40
0.0008517223
 40
0.0015140914
 40
0.002385658
 40
0.003487175
 40
0.0048394018
 40
0.0064631039
 40
0.0083789567
 40
0.0106063945
 40
0.0160702398
 40
0.0230034848
 40
0.0315714304
 40
0.041959121
 40
0.0543595281
 40
0.0689762493
 40
0.0860237896
 40
0.1057222131
 40
0.1282721569
 40
0.1827273066
 40
0.2149774598
 40
0.2506607645
 40
0.2897785375
 40
0.3106183762
 40
0.332292659
 40
0.3779867831
 40
0.4265689279
 40
0.4777465536
 40
0.5311494821
 40
0.5863827197
 40
0.6431042967
 40
0.7010051246
 40
0.7598083939
 40
0.8192792581
 40
0.8792285118
 40
1.0
 40
1.0
 40
1.0
 40
1.0
 10
7.6205599892
 20
0.5503183392
 30
0.0
 10
7.6205642008
 20
0.5503198329
 30
0.0
 10
7.6205813839
 20
0.5503232516
 30
0.0
 10
7.6206188751
 20
0.5503336182
 30
0.0
 10
7.6206814949
 20
0.5503489004
 30
0.0
 10
7.6207685982
 20
0.5503710543
 30
0.0
 10
7.6208804405
 20
0.5503991068
 30
0.0
 10
7.6210795165
 20
0.5504491882
 30
0.0
 10
7.6213943899
 20
0.5505283497
 30
0.0
 10
7.6218569928
 20
0.5506456484
 30
0.0
 10
7.6224403347
 20
0.5507950376
 30
0.0
 10
7.6231551343
 20
0.5509801008
 30
0.0
 10
7.6240121085
 20
0.5512043649
 30
0.0
 10
7.6250217234
 20
0.5514713543
 30
0.0
 10
7.6267026412
 20
0.5519198245
 30
0.0
 10
7.6292595202
 20
0.5526096405
 30
0.0
 10
7.6329224377
 20
0.5536077464
 30
0.0
 10
7.6374435181
 20
0.5548479774
 30
0.0
 10
7.6429178461
 20
0.5563555882
 30
0.0
 10
7.6494475273
 20
0.5581564876
 30
0.0
 10
7.6571404504
 20
0.560275692
 30
0.0
 10
7.666109503
 20
0.5627385283
 30
0.0
 10
7.6764674087
 20
0.5655688562
 30
0.0
 10
7.6933685685
 20
0.5701523068
 30
0.0
 10
7.7124818222
 20
0.5752626149
 30
0.0
 10
7.7339092763
 20
0.5809243432
 30
0.0
 10
7.7526614839
 20
0.5858386737
 30
0.0
 10
7.7694229707
 20
0.5901984105
 30
0.0
 10
7.7837306554
 20
0.5939143823
 30
0.0
 10
7.7991906608
 20
0.5979309567
 30
0.0
 10
7.8195116679
 20
0.6032158295
 30
0.0
 10
7.8449989352
 20
0.6098622331
 30
0.0
 10
7.871825086
 20
0.6169064138
 30
0.0
 10
7.8997986279
 20
0.6243229629
 30
0.0
 10
7.9287257369
 20
0.6320599929
 30
0.0
 10
7.9584236813
 20
0.6400670906
 30
0.0
 10
7.9887311566
 20
0.648296646
 30
0.0
 10
8.0195075167
 20
0.6566991426
 30
0.0
 10
8.0506352204
 20
0.6652230919
 30
0.0
 10
8.0925842619
 20
0.6767172036
 30
0.0
 10
8.1241509673
 20
0.6853503393
 30
0.0
 10
8.1452534882
 20
0.6910931415
 30
0.0
  0
SPLINE
  5
592
100
AcDbEntity
  8
0
100
AcDbSpline
 62
7
  6
CONTINUOUS
 70
0
 71
3
 72
33
 73
29
 74
0
 42
0.0000001
 43
0.0000001
 44
0.0000000001
 40
0.0
 40
0.0
 40
0.0
 40
0.0
 40
0.0734159853
 40
0.1449533433
 40
0.1797538211
 40
0.2137682491
 40
0.2791171659
 40
0.3104215551
 40
0.340784301
 40
0.370232752
 40
0.3988257837
 40
0.4266541056
 40
0.453839635
 40
0.4805331521
 40
0.5069087669
 40
0.5331564149
 40
0.5594726654
 40
0.5860506
 40
0.6130701149
 40
0.6406895023
 40
0.6690398939
 40
0.6982218496
 40
0.7283035871
 40
0.7912264556
 40
0.8241105931
 40
0.85787219
 40
0.9276947835
 40
1.0
 40
1.0
 40
1.0
 40
1.0
 10
10.2028174272
 20
2.978547804
 30
0.0
 10
10.2015767226
 20
2.9714142667
 30
0.0
 10
10.1982660148
 20
2.9574635253
 30
0.0
 10
10.1920001537
 20
2.9408222556
 30
0.0
 10
10.185813134
 20
2.9284273379
 30
0.0
 10
10.1790736116
 20
2.9170316778
 30
0.0
 10
10.1712940185
 20
2.9066771904
 30
0.0
 10
10.162555457
 20
2.8976834405
 30
0.0
 10
10.1557372723
 20
2.8918098955
 30
0.0
 10
10.1486136678
 20
2.886759125
 30
0.0
 10
10.1412364886
 20
2.8825692988
 30
0.0
 10
10.1336602141
 20
2.8792736092
 30
0.0
 10
10.125941326
 20
2.8768988251
 30
0.0
 10
10.1181383712
 20
2.8754645283
 30
0.0
 10
10.110311249
 20
2.8749832604
 30
0.0
 10
10.1025208279
 20
2.8754599535
 30
0.0
 10
10.0948279718
 20
2.8768906989
 30
0.0
 10
10.0872924486
 20
2.8792636582
 30
0.0
 10
10.0799723008
 20
2.8825594954
 30
0.0
 10
10.0729228583
 20
2.8867512552
 30
0.0
 10
10.0661966423
 20
2.8918052633
 30
0.0
 10
10.0598427796
 20
2.8976829176
 30
0.0
 10
10.0518127461
 20
2.9066880857
 30
0.0
 10
10.0448551683
 20
2.917058093
 30
0.0
 10
10.0390336641
 20
2.9284428862
 30
0.0
 10
10.0338264812
 20
2.9408672649
 30
0.0
 10
10.0288865237
 20
2.9575567306
 30
0.0
 10
10.0267083586
 20
2.9714480457
 30
0.0
 10
10.0260407319
 20
2.978547804
 30
0.0
  0
SPLINE
  5
593
100
AcDbEntity
  8
0
100
AcDbSpline
 62
7
  6
CONTINUOUS
 70
0
 71
3
 72
39
 73
35
 74
0
 42
0.0000001
 43
0.0000001
 44
0.0000000001
 40
0.0
 40
0.0
 40
0.0
 40
0.0
 40
0.0312214613
 40
0.062453178
 40
0.0936816233
 40
0.1249148006
 40
0.1561520393
 40
0.1873929248
 40
0.2186381568
 40
0.2498874842
 40
0.2811408562
 40
0.3123981918
 40
0.3436590266
 40
0.3749230341
 40
0.4061898094
 40
0.4374586532
 40
0.4687289297
 40
0.5
 40
0.5312710703
 40
0.5625413468
 40
0.5938101906
 40
0.6250769659
 40
0.6563409734
 40
0.6876018082
 40
0.7188591438
 40
0.7501125158
 40
0.7813618432
 40
0.8126070752
 40
0.8438479607
 40
0.8750851994
 40
0.9063183767
 40
0.937546822
 40
0.9687785387
 40
1.0
 40
1.0
 40
1.0
 40
1.0
 10
10.5358926102
 20
2.978547804
 30
0.0
 10
10.5352111327
 20
2.974951177
 30
0.0
 10
10.5335350554
 20
2.9678120191
 30
0.0
 10
10.5301056063
 20
2.9573634906
 30
0.0
 10
10.5257840577
 20
2.9472488408
 30
0.0
 10
10.5206038992
 20
2.9375454023
 30
0.0
 10
10.5146035566
 20
2.928324774
 30
0.0
 10
10.5078279322
 20
2.9196561096
 30
0.0
 10
10.5003275652
 20
2.911604369
 30
0.0
 10
10.4921586476
 20
2.9042296345
 30
0.0
 10
10.483382364
 20
2.897586898
 30
0.0
 10
10.4740641576
 20
2.8917260232
 30
0.0
 10
10.4642737333
 20
2.8866907874
 30
0.0
 10
10.4540843747
 20
2.8825185922
 30
0.0
 10
10.4435721504
 20
2.8792407623
 30
0.0
 10
10.4328156135
 20
2.8768819518
 30
0.0
 10
10.4218952399
 20
2.8754594873
 30
0.0
 10
10.4108926102
 20
2.8749840476
 30
0.0
 10
10.3998899806
 20
2.8754594873
 30
0.0
 10
10.3889696069
 20
2.8768819518
 30
0.0
 10
10.37821307
 20
2.8792407623
 30
0.0
 10
10.3677008457
 20
2.8825185922
 30
0.0
 10
10.3575114871
 20
2.8866907874
 30
0.0
 10
10.3477210628
 20
2.8917260232
 30
0.0
 10
10.3384028564
 20
2.897586898
 30
0.0
 10
10.3296265728
 20
2.9042296345
 30
0.0
 10
10.3214576552
 20
2.911604369
 30
0.0
 10
10.3139572882
 20
2.9196561096
 30
0.0
 10
10.3071816638
 20
2.928324774
 30
0.0
 10
10.3011813212
 20
2.9375454023
 30
0.0
 10
10.2960011627
 20
2.9472488408
 30
0.0
 10
10.2916796141
 20
2.9573634906
 30
0.0
 10
10.288250165
 20
2.9678120191
 30
0.0
 10
10.2865740877
 20
2.974951177
 30
0.0
 10
10.2858926102
 20
2.978547804
 30
0.0
  0
SPLINE
  5
594
100
AcDbEntity
  8
0
100
AcDbSpline
 62
7
  6
CONTINUOUS
 70
0
 71
3
 72
33
 73
29
 74
0
 42
0.0000001
 43
0.0000001
 44
0.0000000001
 40
0.0
 40
0.0
 40
0.0
 40
0.0
 40
0.0723052165
 40
0.14212781
 40
0.1758894069
 40
0.2087735444
 40
0.2716964129
 40
0.3017781504
 40
0.3309601061
 40
0.3593104977
 40
0.3869298851
 40
0.4139494
 40
0.4405273346
 40
0.4668435851
 40
0.4930912331
 40
0.5194668479
 40
0.546160365
 40
0.5733458944
 40
0.6011742163
 40
0.629767248
 40
0.659215699
 40
0.6895784449
 40
0.7208828341
 40
0.7862317509
 40
0.8202461789
 40
0.8550466567
 40
0.9265840147
 40
1.0
 40
1.0
 40
1.0
 40
1.0
 10
10.7957444885
 20
2.978547804
 30
0.0
 10
10.7950768618
 20
2.9714480457
 30
0.0
 10
10.7928986967
 20
2.9575567306
 30
0.0
 10
10.7879587392
 20
2.9408672649
 30
0.0
 10
10.7827515563
 20
2.9284428862
 30
0.0
 10
10.7769300521
 20
2.917058093
 30
0.0
 10
10.7699724743
 20
2.9066880857
 30
0.0
 10
10.7619424408
 20
2.8976829176
 30
0.0
 10
10.7555885781
 20
2.8918052633
 30
0.0
 10
10.7488623621
 20
2.8867512552
 30
0.0
 10
10.7418129196
 20
2.8825594954
 30
0.0
 10
10.7344927718
 20
2.8792636582
 30
0.0
 10
10.7269572486
 20
2.8768906989
 30
0.0
 10
10.7192643925
 20
2.8754599535
 30
0.0
 10
10.7114739714
 20
2.8749832604
 30
0.0
 10
10.7036468492
 20
2.8754645283
 30
0.0
 10
10.6958438944
 20
2.8768988251
 30
0.0
 10
10.6881250063
 20
2.8792736092
 30
0.0
 10
10.6805487318
 20
2.8825692988
 30
0.0
 10
10.6731715526
 20
2.886759125
 30
0.0
 10
10.6660479481
 20
2.8918098955
 30
0.0
 10
10.6592297634
 20
2.8976834405
 30
0.0
 10
10.6504912019
 20
2.9066771904
 30
0.0
 10
10.6427116088
 20
2.9170316778
 30
0.0
 10
10.6359720864
 20
2.9284273379
 30
0.0
 10
10.6297850667
 20
2.9408222556
 30
0.0
 10
10.6235192056
 20
2.9574635253
 30
0.0
 10
10.6202084978
 20
2.9714142667
 30
0.0
 10
10.6189677932
 20
2.978547804
 30
0.0
  0
SPLINE
  5
595
100
AcDbEntity
  8
0
100
AcDbSpline
 62
7
  6
CONTINUOUS
 70
0
 71
3
 72
24
 73
20
 74
0
 42
0.0000001
 43
0.0000001
 44
0.0000000001
 40
0.0
 40
0.0
 40
0.0
 40
0.0
 40
0.2028789472
 40
0.3885115912
 40
0.4736557775
 40
0.5531090319
 40
0.6265094572
 40
0.6935469229
 40
0.7539805289
 40
0.8076447906
 40
0.8544726758
 40
0.8945387394
 40
0.912122141
 40
0.9281477189
 40
0.9427093405
 40
0.9559372963
 40
0.9791074454
 40
0.9896727887
 40
1.0
 40
1.0
 40
1.0
 40
1.0
 10
8.405407526
 20
14.8481225035
 30
0.0
 10
8.4076174838
 20
14.8459125457
 30
0.0
 10
8.4117846799
 20
14.8416148928
 30
0.0
 10
8.4166703642
 20
14.8361923127
 30
0.0
 10
8.4201405975
 20
14.8320604784
 30
0.0
 10
8.4224254804
 20
14.8291925592
 30
0.0
 10
8.4244569292
 20
14.8264811436
 30
0.0
 10
8.4262248257
 20
14.8239405236
 30
0.0
 10
8.4277209819
 20
14.8215839897
 30
0.0
 10
8.4289392302
 20
14.8194231743
 30
0.0
 10
8.4298747207
 20
14.8174684039
 30
0.0
 10
8.4304400264
 20
14.8159577295
 30
0.0
 10
8.4307332292
 20
14.8148603619
 30
0.0
 10
8.4308704861
 20
14.814130347
 30
0.0
 10
8.4309347574
 20
14.8134569911
 30
0.0
 10
8.4309237942
 20
14.8126715916
 30
0.0
 10
8.4307729578
 20
14.8119490648
 30
0.0
 10
8.4304530406
 20
14.811346069
 30
0.0
 10
8.4302474914
 20
14.8110951108
 30
0.0
 10
8.4301349889
 20
14.810982625
 30
0.0
  0
SPLINE
  5
596
100
AcDbEntity
  8
0
100
AcDbSpline
 62
7
  6
CONTINUOUS
 70
0
 71
3
 72
26
 73
22
 74
0
 42
0.0000001
 43
0.0000001
 44
0.0000000001
 40
0.0
 40
0.0
 40
0.0
 40
0.0
 40
0.1810223443
 40
0.3588039145
 40
0.4439623785
 40
0.5253703753
 40
0.6021658572
 40
0.6735665863
 40
0.7388827899
 40
0.7975283998
 40
0.849037104
 40
0.8720128124
 40
0.8931007086
 40
0.9122926434
 40
0.9296029809
 40
0.9450700815
 40
0.958772516
 40
0.9708435634
 40
0.981497306
 40
0.991062412
 40
1.0
 40
1.0
 40
1.0
 40
1.0
 10
7.8717818916
 20
15.3817481379
 30
0.0
 10
7.8753649295
 20
15.3781650999
 30
0.0
 10
7.8823135997
 20
15.370908392
 30
0.0
 10
7.8905259081
 20
15.3615754967
 30
0.0
 10
7.8966387974
 20
15.35412173
 30
0.0
 10
7.9008274107
 20
15.3487484619
 30
0.0
 10
7.9046401091
 20
15.3435733127
 30
0.0
 10
7.9080361946
 20
15.3386540098
 30
0.0
 10
7.9109809953
 20
15.3340442934
 30
0.0
 10
7.9134452207
 20
15.3297934929
 30
0.0
 10
7.9151396617
 20
15.3264712517
 30
0.0
 10
7.9162208308
 20
15.324023482
 30
0.0
 10
7.9168668506
 20
15.3223742051
 30
0.0
 10
7.917378184
 20
15.3208445155
 30
0.0
 10
7.9177539809
 20
15.3194380068
 30
0.0
 10
7.917993434
 20
15.3181575815
 30
0.0
 10
7.9180960381
 20
15.3170054978
 30
0.0
 10
7.9180609831
 20
15.3159831658
 30
0.0
 10
7.917885736
 20
15.3150913888
 30
0.0
 10
7.9175666927
 20
15.3143329344
 30
0.0
 10
7.9172495346
 20
15.3139146342
 30
0.0
 10
7.9170726209
 20
15.3137377383
 30
0.0
  0
SPLINE
  5
597
100
AcDbEntity
  8
0
100
AcDbSpline
 62
7
  6
CONTINUOUS
 70
0
 71
3
 72
61
 73
57
 74
0
 42
0.0000001
 43
0.0000001
 44
0.0000000001
 40
0.0
 40
0.0
 40
0.0
 40
0.0
 40
0.0001835513
 40
0.000393029
 40
0.0006465015
 40
0.0009543562
 40
0.0013223792
 40
0.0017539218
 40
0.0022510338
 40
0.0028150339
 40
0.0041467107
 40
0.0057530132
 40
0.0076356075
 40
0.0097951439
 40
0.012231468
 40
0.0149437993
 40
0.0179311347
 40
0.0211922891
 40
0.0285292378
 40
0.0369396515
 40
0.0464053686
 40
0.0569056556
 40
0.0809133171
 40
0.1087464462
 40
0.1401526347
 40
0.1748463043
 40
0.212511554
 40
0.2528051977
 40
0.2953600171
 40
0.339788088
 40
0.3856844787
 40
0.4326308549
 40
0.4801994268
 40
0.5279567812
 40
0.5754679004
 40
0.6223001055
 40
0.6680270096
 40
0.7122324673
 40
0.7545142729
 40
0.7944879927
 40
0.8317903317
 40
0.8660826355
 40
0.8970539398
 40
0.9244239916
 40
0.9366801534
 40
0.9479461354
 40
0.9581970086
 40
0.9674099585
 40
0.9755650056
 40
0.9826448715
 40
0.9886353529
 40
0.9935262248
 40
0.9955575098
 40
0.9973126119
 40
0.9987926242
 40
1.0
 40
1.0
 40
1.0
 40
1.0
 10
10.1051469337
 20
17.8767007849
 30
0.0
 10
10.1051795887
 20
17.8767334468
 30
0.0
 10
10.1052650287
 20
17.8767887671
 30
0.0
 10
10.1054258818
 20
17.8768249181
 30
0.0
 10
10.1056209632
 20
17.8768220124
 30
0.0
 10
10.1058519454
 20
17.8767815998
 30
0.0
 10
10.106119957
 20
17.8767039556
 30
0.0
 10
10.1064255303
 20
17.8765889027
 30
0.0
 10
10.1067689036
 20
17.8764363209
 30
0.0
 10
10.1073077248
 20
17.8761673196
 30
0.0
 10
10.1080739833
 20
17.875731047
 30
0.0
 10
10.109100241
 20
17.8750840241
 30
0.0
 10
10.110277405
 20
17.8742872104
 30
0.0
 10
10.1116049301
 20
17.8733409566
 30
0.0
 10
10.113082142
 20
17.8722456059
 30
0.0
 10
10.1147082699
 20
17.871001804
 30
0.0
 10
10.1164824817
 20
17.8696102814
 30
0.0
 10
10.119150889
 20
17.8674735588
 30
0.0
 10
10.1228453302
 20
17.8644354448
 30
0.0
 10
10.1276961797
 20
17.8603464578
 30
0.0
 10
10.1331122806
 20
17.8556935454
 30
0.0
 10
10.1414517132
 20
17.8484212313
 30
0.0
 10
10.153179802
 20
17.8380035079
 30
0.0
 10
10.1687308048
 20
17.8239697028
 30
0.0
 10
10.1861870363
 20
17.8080342665
 30
0.0
 10
10.2053956189
 20
17.7903493144
 30
0.0
 10
10.2261875921
 20
17.7710827535
 30
0.0
 10
10.248379818
 20
17.7504172199
 30
0.0
 10
10.2717764604
 20
17.7285481432
 30
0.0
 10
10.2961708027
 20
17.705681965
 30
0.0
 10
10.3213470929
 20
17.6820342221
 30
0.0
 10
10.3470825275
 20
17.6578275482
 30
0.0
 10
10.3731492602
 20
17.6332896448
 30
0.0
 10
10.3993164906
 20
17.608651182
 30
0.0
 10
10.4253525521
 20
17.5841437
 30
0.0
 10
10.4510270233
 20
17.5599974886
 30
0.0
 10
10.4761128261
 20
17.5364394797
 30
0.0
 10
10.500388277
 20
17.5136911819
 30
0.0
 10
10.5236391163
 20
17.491966639
 30
0.0
 10
10.5456604171
 20
17.4714704787
 30
0.0
 10
10.5662584771
 20
17.4523960322
 30
0.0
 10
10.5852524519
 20
17.4349234541
 30
0.0
 10
10.6024762038
 20
17.4192183173
 30
0.0
 10
10.6156729927
 20
17.4073265907
 30
0.0
 10
10.6252415687
 20
17.3988160021
 30
0.0
 10
10.6316202421
 20
17.3932007238
 30
0.0
 10
10.6374558523
 20
17.3881276392
 30
0.0
 10
10.6427359612
 20
17.3836089591
 30
0.0
 10
10.6474492867
 20
17.3796555812
 30
0.0
 10
10.6515856833
 20
17.376276647
 30
0.0
 10
10.6551365457
 20
17.3734803669
 30
0.0
 10
10.6577397116
 20
17.3715348298
 30
0.0
 10
10.6595302744
 20
17.3702850377
 30
0.0
 10
10.660637643
 20
17.3695567125
 30
0.0
 10
10.6615941433
 20
17.3689777292
 30
0.0
 10
10.6621910708
 20
17.3686585741
 30
0.0
 10
10.662465423
 20
17.3685280804
 30
0.0
  0
LINE
  5
598
100
AcDbEntity
  8
0
100
AcDbLine
 62
7
  6
CONTINUOUS
 10
10.662465423
 20
17.3685280804
 11
10.6633257223
 21
17.3681936274
  0
LINE
  5
599
100
AcDbEntity
  8
0
100
AcDbLine
 62
7
  6
CONTINUOUS
 10
10.1425917078
 20
17.9158472551
 11
10.1437413563
 21
17.9153692474
  0
SPLINE
  5
59A
100
AcDbEntity
  8
0
100
AcDbSpline
 62
7
  6
CONTINUOUS
 70
0
 71
3
 72
61
 73
57
 74
0
 42
0.0000001
 43
0.0000001
 44
0.0000000001
 40
0.0
 40
0.0
 40
0.0
 40
0.0
 40
0.0013056864
 40
0.002884385
 40
0.0047378431
 40
0.0068667596
 40
0.0119498504
 40
0.018127457
 40
0.0253885783
 40
0.0337183468
 40
0.043099004
 40
0.0535100641
 40
0.064928341
 40
0.0773284849
 40
0.104960301
 40
0.1361565552
 40
0.1706352284
 40
0.2080842029
 40
0.2481642389
 40
0.2905120659
 40
0.3347439279
 40
0.3804588289
 40
0.427242521
 40
0.4746709852
 40
0.5223145285
 40
0.5697415713
 40
0.6165225993
 40
0.6622341101
 40
0.7064623671
 40
0.7488073018
 40
0.7888859659
 40
0.8263362615
 40
0.8608200013
 40
0.8920262842
 40
0.9196742576
 40
0.9435159876
 40
0.9539418136
 40
0.9633393717
 40
0.971688409
 40
0.9789709987
 40
0.9822077952
 40
0.98517278
 40
0.9878645663
 40
0.9902822824
 40
0.9924253479
 40
0.9942935091
 40
0.995887271
 40
0.9972084635
 40
0.9977680368
 40
0.998261234
 40
0.9986893165
 40
0.999054295
 40
0.9993595102
 40
0.9996107188
 40
0.9998182375
 40
1.0
 40
1.0
 40
1.0
 40
1.0
 10
10.1437413563
 20
17.9153692474
 30
0.0
 10
10.144034802
 20
17.915218365
 30
0.0
 10
10.1446699736
 20
17.9148596916
 30
0.0
 10
10.1456844114
 20
17.9142233056
 30
0.0
 10
10.1468497125
 20
17.9134373724
 30
0.0
 10
10.1487168589
 20
17.9121095955
 30
0.0
 10
10.1514159171
 20
17.9100677984
 30
0.0
 10
10.1550817103
 20
17.907156973
 30
0.0
 10
10.1593320823
 20
17.9036641845
 30
0.0
 10
10.1641581547
 20
17.8995979339
 30
0.0
 10
10.1695495216
 20
17.8949677174
 30
0.0
 10
10.175494657
 20
17.8897847123
 30
0.0
 10
10.1819808593
 20
17.884061404
 30
0.0
 10
10.1916877808
 20
17.8754108548
 30
0.0
 10
10.2050510117
 20
17.8633510154
 30
0.0
 10
10.2224658201
 20
17.8474533787
 30
0.0
 10
10.2416377125
 20
17.8298011108
 30
0.0
 10
10.2623992301
 20
17.8105611198
 30
0.0
 10
10.2845684628
 20
17.7899146508
 30
0.0
 10
10.3079509032
 20
17.7680558483
 30
0.0
 10
10.3323410881
 20
17.7451898817
 30
0.0
 10
10.3575245133
 20
17.7215310427
 30
0.0
 10
10.3832795188
 20
17.6973008173
 30
0.0
 10
10.4093793433
 20
17.6727258213
 30
0.0
 10
10.4355941425
 20
17.6480357675
 30
0.0
 10
10.4616930946
 20
17.6234613511
 30
0.0
 10
10.4874464803
 20
17.5992321611
 30
0.0
 10
10.5126277545
 20
17.5755745977
 30
0.0
 10
10.5370156094
 20
17.5527097994
 30
0.0
 10
10.5603959421
 20
17.5308516543
 30
0.0
 10
10.582563819
 20
17.5102048221
 30
0.0
 10
10.6033252588
 20
17.4909628795
 30
0.0
 10
10.6224990398
 20
17.4733065499
 30
0.0
 10
10.6399181112
 20
17.4574018361
 30
0.0
 10
10.6554314834
 20
17.4433989717
 30
0.0
 10
10.6671286461
 20
17.4330062306
 30
0.0
 10
10.6754444006
 20
17.4257526063
 30
0.0
 10
10.6808441377
 20
17.4211123779
 30
0.0
 10
10.6856797572
 20
17.4170348649
 30
0.0
 10
10.6893622665
 20
17.4140054199
 30
0.0
 10
10.6920218288
 20
17.4118748656
 30
0.0
 10
10.6937900096
 20
17.4104873952
 30
0.0
 10
10.6954105117
 20
17.4092472509
 30
0.0
 10
10.6968825194
 20
17.4081551329
 30
0.0
 10
10.69820529
 20
17.4072116233
 30
0.0
 10
10.69937815
 20
17.4064170758
 30
0.0
 10
10.7004005693
 20
17.4057718817
 30
0.0
 10
10.7011638947
 20
17.4053367869
 30
0.0
 10
10.7017006203
 20
17.4050684137
 30
0.0
 10
10.7020426409
 20
17.4049161361
 30
0.0
 10
10.7023469768
 20
17.4048012693
 30
0.0
 10
10.7026138589
 20
17.4047237077
 30
0.0
 10
10.7028438197
 20
17.4046832631
 30
0.0
 10
10.7030379975
 20
17.4046801931
 30
0.0
 10
10.7031980766
 20
17.4047160242
 30
0.0
 10
10.7032831064
 20
17.4047710058
 30
0.0
 10
10.7033155918
 20
17.4048034804
 30
0.0
  0
LINE
  5
59B
100
AcDbEntity
  8
0
100
AcDbLine
 62
7
  6
CONTINUOUS
 10
10.1916051815
 20
17.9678483016
 11
10.1941255631
 21
17.966579094
  0
SPLINE
  5
59C
100
AcDbEntity
  8
0
100
AcDbSpline
 62
7
  6
CONTINUOUS
 70
0
 71
3
 72
57
 73
53
 74
0
 42
0.0000001
 43
0.0000001
 44
0.0000000001
 40
0.0
 40
0.0
 40
0.0
 40
0.0
 40
0.0016976367
 40
0.0036646987
 40
0.0084070403
 40
0.0142231817
 40
0.021103156
 40
0.0290337847
 40
0.037998556
 40
0.0479784884
 40
0.0589519959
 40
0.0837817796
 40
0.1122702303
 40
0.1441662046
 40
0.1791879733
 40
0.2170257953
 40
0.2573448972
 40
0.2997884373
 40
0.3439807082
 40
0.4360349549
 40
0.5302562542
 40
0.5771396172
 40
0.6233177138
 40
0.6683822332
 40
0.7119348826
 40
0.7535907976
 40
0.7929821307
 40
0.8297611423
 40
0.86360352
 40
0.8942111254
 40
0.9213149212
 40
0.9446774735
 40
0.954890869
 40
0.9640957701
 40
0.9722723891
 40
0.9794040503
 40
0.9825734288
 40
0.9854766072
 40
0.9881123573
 40
0.9904796267
 40
0.9925779081
 40
0.9944071773
 40
0.9959679518
 40
0.9972618444
 40
0.9978099287
 40
0.9982931037
 40
0.9987126424
 40
0.9990705328
 40
0.9993700345
 40
0.9996167857
 40
0.9998209233
 40
1.0
 40
1.0
 40
1.0
 40
1.0
 10
10.1941255631
 20
17.966579094
 30
0.0
 10
10.1944905973
 20
17.9663511621
 30
0.0
 10
10.1952683308
 20
17.9658426587
 30
0.0
 10
10.1970186937
 20
17.9646265419
 30
0.0
 10
10.1995655807
 20
17.962729125
 30
0.0
 10
10.2030418282
 20
17.9599978355
 30
0.0
 10
10.20709435
 20
17.9566931603
 30
0.0
 10
10.2117147961
 20
17.9528229539
 30
0.0
 10
10.216893469
 20
17.948395945
 30
0.0
 10
10.2226195767
 20
17.9434226141
 30
0.0
 10
10.2313337752
 20
17.9357567669
 30
0.0
 10
10.2434853238
 20
17.9248952619
 30
0.0
 10
10.2594902376
 20
17.9103870701
 30
0.0
 10
10.2773255059
 20
17.894051605
 30
0.0
 10
10.2968392722
 20
17.8760400616
 30
0.0
 10
10.3178647613
 20
17.856518356
 30
0.0
 10
10.3402220061
 20
17.8356660106
 30
0.0
 10
10.3637193416
 20
17.8136743852
 30
0.0
 10
10.3967517121
 20
17.7826779851
 30
0.0
 10
10.4392991772
 20
17.7426398796
 30
0.0
 10
10.4823161065
 20
17.7021052538
 30
0.0
 10
10.5168778372
 20
17.669555498
 30
0.0
 10
10.5423788771
 20
17.6455607191
 30
0.0
 10
10.5672823813
 20
17.6221630277
 30
0.0
 10
10.5913745767
 20
17.5995760382
 30
0.0
 10
10.6144488987
 20
17.5780061049
 30
0.0
 10
10.6363077855
 20
17.5576505202
 30
0.0
 10
10.6567644253
 20
17.5386956977
 30
0.0
 10
10.6756443869
 20
17.5213155774
 30
0.0
 10
10.692787001
 20
17.5056697893
 30
0.0
 10
10.7080471114
 20
17.4919027553
 30
0.0
 10
10.7195499018
 20
17.4816894435
 30
0.0
 10
10.727725529
 20
17.4745638404
 30
0.0
 10
10.7330331418
 20
17.4700069685
 30
0.0
 10
10.7377859625
 20
17.4660035833
 30
0.0
 10
10.7414052657
 20
17.4630298279
 30
0.0
 10
10.7440191781
 20
17.4609388856
 30
0.0
 10
10.7457569867
 20
17.4595774339
 30
0.0
 10
10.7473496978
 20
17.4583607033
 30
0.0
 10
10.7487965274
 20
17.4572894155
 30
0.0
 10
10.7500967553
 20
17.4563641302
 30
0.0
 10
10.7512497568
 20
17.4555851281
 30
0.0
 10
10.7522550016
 20
17.4549527706
 30
0.0
 10
10.7530056369
 20
17.4545266344
 30
0.0
 10
10.7535335111
 20
17.4542640484
 30
0.0
 10
10.7538699803
 20
17.4541151703
 30
0.0
 10
10.7541694659
 20
17.4540030084
 30
0.0
 10
10.7544321932
 20
17.4539274559
 30
0.0
 10
10.754658676
 20
17.453888351
 30
0.0
 10
10.7548500184
 20
17.4538859841
 30
0.0
 10
10.7550078253
 20
17.4539218854
 30
0.0
 10
10.7550916594
 20
17.4539763204
 30
0.0
 10
10.7551237552
 20
17.4540084243
 30
0.0
  0
LINE
  5
59D
100
AcDbEntity
  8
0
100
AcDbLine
 62
7
  6
CONTINUOUS
 10
10.2408446575
 20
18.019623727
 11
10.2412912134
 21
18.0194712651
  0
SPLINE
  5
59E
100
AcDbEntity
  8
0
100
AcDbSpline
 62
7
  6
CONTINUOUS
 70
0
 71
3
 72
63
 73
59
 74
0
 42
0.0000001
 43
0.0000001
 44
0.0000000001
 40
0.0
 40
0.0
 40
0.0
 40
0.0
 40
0.0010418619
 40
0.0023569134
 40
0.0039491853
 40
0.0058205515
 40
0.0079716152
 40
0.0104020781
 40
0.0160982129
 40
0.0228999137
 40
0.0307935861
 40
0.0397623434
 40
0.0497864855
 40
0.0608433629
 40
0.0729081528
 40
0.0999486016
 40
0.1306604679
 40
0.1647618046
 40
0.2019390116
 40
0.2418500526
 40
0.2841274729
 40
0.3283821275
 40
0.3742065284
 40
0.4211788685
 40
0.4688667871
 40
0.5168314245
 40
0.564631486
 40
0.6118272538
 40
0.6579847567
 40
0.7026795956
 40
0.7455011161
 40
0.7860559058
 40
0.8239717415
 40
0.8589008049
 40
0.8905230987
 40
0.9185494674
 40
0.9311330413
 40
0.9427245345
 40
0.9532979778
 40
0.9628294826
 40
0.9712980767
 40
0.9786854094
 40
0.9819687654
 40
0.9849762823
 40
0.9877067542
 40
0.9901591487
 40
0.9923326526
 40
0.9942270807
 40
0.9958430329
 40
0.9971820954
 40
0.9977488994
 40
0.9982481954
 40
0.9986812694
 40
0.9990501255
 40
0.9993580547
 40
0.9996107759
 40
0.9998186611
 40
1.0
 40
1.0
 40
1.0
 40
1.0
 10
10.2412912134
 20
18.0194712651
 30
0.0
 10
10.2415382192
 20
18.0193719857
 30
0.0
 10
10.2420819602
 20
18.0191105235
 30
0.0
 10
10.2429595313
 20
18.0186118303
 30
0.0
 10
10.2439923313
 20
18.0179598057
 30
0.0
 10
10.2451798077
 20
18.0171544842
 30
0.0
 10
10.2465214892
 20
18.0161958917
 30
0.0
 10
10.2486290526
 20
18.014629001
 30
0.0
 10
10.2516370696
 20
18.012282749
 30
0.0
 10
10.2556828144
 20
18.0089992528
 30
0.0
 10
10.2603235818
 20
18.0051229411
 30
0.0
 10
10.2655494166
 20
18.0006633889
 30
0.0
 10
10.2713488634
 20
17.9956313327
 30
0.0
 10
10.2777093773
 20
17.9900391331
 30
0.0
 10
10.2872898945
 20
17.9815247698
 30
0.0
 10
10.3005442356
 20
17.9695845223
 30
0.0
 10
10.3178863238
 20
17.9537701364
 30
0.0
 10
10.3370629271
 20
17.9361239654
 30
0.0
 10
10.3579039181
 20
17.9168155322
 30
0.0
 10
10.3802237894
 20
17.8960295962
 30
0.0
 10
10.403823618
 20
17.8739646856
 30
0.0
 10
10.4284927428
 20
17.8508311428
 30
0.0
 10
10.4540107586
 20
17.8268491456
 30
0.0
 10
10.4801494954
 20
17.8022466806
 30
0.0
 10
10.5066751443
 20
17.7772574046
 30
0.0
 10
10.5333503915
 20
17.7521184955
 30
0.0
 10
10.5599366002
 20
17.7270684607
 30
0.0
 10
10.5861960132
 20
17.7023449243
 30
0.0
 10
10.611893913
 20
17.6781824574
 30
0.0
 10
10.6368008082
 20
17.6548103788
 30
0.0
 10
10.6606944962
 20
17.6324506781
 30
0.0
 10
10.6833621357
 20
17.6113159069
 30
0.0
 10
10.7046021585
 20
17.5916072717
 30
0.0
 10
10.7242260595
 20
17.5735126173
 30
0.0
 10
10.7420602763
 20
17.5572049589
 30
0.0
 10
10.7557501061
 20
17.5448262275
 30
0.0
 10
10.7656979317
 20
17.5359408324
 30
0.0
 10
10.7723481314
 20
17.5300579898
 30
0.0
 10
10.77844539
 20
17.52472727
 30
0.0
 10
10.7839765468
 20
17.519961609
 30
0.0
 10
10.788929668
 20
17.5157726648
 30
0.0
 10
10.7927012469
 20
17.5126593482
 30
0.0
 10
10.7954247961
 20
17.5104690298
 30
0.0
 10
10.7972353245
 20
17.5090422797
 30
0.0
 10
10.7988944029
 20
17.5077665989
 30
0.0
 10
10.8004011799
 20
17.5066427365
 30
0.0
 10
10.8017548682
 20
17.5056713542
 30
0.0
 10
10.8029547763
 20
17.5048528052
 30
0.0
 10
10.8040003471
 20
17.50418745
 30
0.0
 10
10.8047806088
 20
17.5037380305
 30
0.0
 10
10.8053289619
 20
17.5034602325
 30
0.0
 10
10.8056781324
 20
17.5033023205
 30
0.0
 10
10.8059886375
 20
17.5031827831
 30
0.0
 10
10.8062607131
 20
17.5031014918
 30
0.0
 10
10.8064949009
 20
17.5030582446
 30
0.0
 10
10.806692363
 20
17.5030532891
 30
0.0
 10
10.8068549379
 20
17.5030881494
 30
0.0
 10
10.806941207
 20
17.5031434342
 30
0.0
 10
10.806973967
 20
17.5031762014
 30
0.0
  0
SPLINE
  5
59F
100
AcDbEntity
  8
0
100
AcDbSpline
 62
7
  6
CONTINUOUS
 70
0
 71
3
 72
29
 73
25
 74
0
 42
0.0000001
 43
0.0000001
 44
0.0000000001
 40
0.0
 40
0.0
 40
0.0
 40
0.0
 40
0.1743495421
 40
0.3510538247
 40
0.4374201291
 40
0.5209798657
 40
0.6006658165
 40
0.6754549819
 40
0.7443781553
 40
0.806528116
 40
0.861072936
 40
0.8852579549
 40
0.9072726652
 40
0.9270411169
 40
0.9444995113
 40
0.9595930234
 40
0.972285304
 40
0.9825611777
 40
0.9868019794
 40
0.9904572282
 40
0.993547437
 40
0.9961108993
 40
0.9982187632
 40
1.0
 40
1.0
 40
1.0
 40
1.0
 10
7.075063364
 20
16.1710661176
 30
0.0
 10
7.0782694661
 20
16.1666176611
 30
0.0
 10
7.0846393743
 20
16.1575987718
 30
0.0
 10
7.0923859959
 20
16.1462291474
 30
0.0
 10
7.0984062799
 20
16.137140279
 30
0.0
 10
7.1026813527
 20
16.1305557832
 30
0.0
 10
7.1066958196
 20
16.1242366271
 30
0.0
 10
7.1103977173
 20
16.1182647473
 30
0.0
 10
7.1137386703
 20
16.1127185591
 30
0.0
 10
7.1166740339
 20
16.1076721155
 30
0.0
 10
7.118828175
 20
16.1037997411
 30
0.0
 10
7.1203118777
 20
16.1009999901
 30
0.0
 10
7.1212542794
 20
16.0991515105
 30
0.0
 10
7.1220683825
 20
16.0974754249
 30
0.0
 10
7.1227512054
 20
16.0959780681
 30
0.0
 10
7.123300464
 20
16.0946649865
 30
0.0
 10
7.1237141664
 20
16.0935412975
 30
0.0
 10
7.1239600313
 20
16.0927204472
 30
0.0
 10
7.1240796134
 20
16.092161244
 30
0.0
 10
7.1241285293
 20
16.0918188373
 30
0.0
 10
7.1241428143
 20
16.0915258385
 30
0.0
 10
7.1241220664
 20
16.0912815735
 30
0.0
 10
7.1240656154
 20
16.0910848211
 30
0.0
 10
7.1239971083
 20
16.0909799637
 30
0.0
 10
7.1239575027
 20
16.0909403435
 30
0.0
  0
SPLINE
  5
5A0
100
AcDbEntity
  8
0
100
AcDbSpline
 62
7
  6
CONTINUOUS
 70
0
 71
3
 72
57
 73
53
 74
0
 42
0.0000001
 43
0.0000001
 44
0.0000000001
 40
0.0
 40
0.0
 40
0.0
 40
0.0
 40
0.0001801951
 40
0.0003852987
 40
0.0006327929
 40
0.0009328077
 40
0.0012910194
 40
0.0017107278
 40
0.0021939553
 40
0.0027420048
 40
0.0040356165
 40
0.0055956694
 40
0.0074238208
 40
0.0095207276
 40
0.0118863888
 40
0.0145201113
 40
0.0174209218
 40
0.0205877098
 40
0.027713177
 40
0.0358823026
 40
0.0450783309
 40
0.0552815655
 40
0.0786194809
 40
0.105692838
 40
0.1362641688
 40
0.1700644789
 40
0.2067959215
 40
0.2461345891
 40
0.2877334058
 40
0.3312253756
 40
0.3762266738
 40
0.4223403231
 40
0.469159433
 40
0.563259781
 40
0.6552160209
 40
0.6993731698
 40
0.7417938074
 40
0.782104413
 40
0.8199503579
 40
0.8549988833
 40
0.8869422042
 40
0.9155002585
 40
0.9404233713
 40
0.9514527842
 40
0.9614949524
 40
0.9705283242
 40
0.9785340013
 40
0.9854954267
 40
0.9913993733
 40
0.9962356699
 40
0.9982518873
 40
1.0
 40
1.0
 40
1.0
 40
1.0
 10
10.1544413189
 20
17.9284198119
 30
0.0
 10
10.1544734373
 20
17.9284519398
 30
0.0
 10
10.1545571515
 20
17.9285064843
 30
0.0
 10
10.1547146651
 20
17.9285428656
 30
0.0
 10
10.1549055298
 20
17.9285411997
 30
0.0
 10
10.1551313002
 20
17.9285030266
 30
0.0
 10
10.1553930666
 20
17.9284286341
 30
0.0
 10
10.1556913476
 20
17.928317863
 30
0.0
 10
10.1560263774
 20
17.9281706008
 30
0.0
 10
10.1565518646
 20
17.9279106251
 30
0.0
 10
10.1572989286
 20
17.927488307
 30
0.0
 10
10.1582991879
 20
17.9268612602
 30
0.0
 10
10.1594462343
 20
17.9260885224
 30
0.0
 10
10.160739562
 20
17.9251704202
 30
0.0
 10
10.1621785359
 20
17.9241072395
 30
0.0
 10
10.1637624397
 20
17.9228995835
 30
0.0
 10
10.1654904792
 20
17.9215481531
 30
0.0
 10
10.1680894623
 20
17.9194724419
 30
0.0
 10
10.1716877601
 20
17.9165200567
 30
0.0
 10
10.1764125211
 20
17.9125450965
 30
0.0
 10
10.1816883319
 20
17.908020354
 30
0.0
 10
10.1898141535
 20
17.9009449006
 30
0.0
 10
10.20124567
 20
17.8908031652
 30
0.0
 10
10.2164097272
 20
17.8771323371
 30
0.0
 10
10.2334427886
 20
17.8615960415
 30
0.0
 10
10.2522005345
 20
17.8443378566
 30
0.0
 10
10.2725232996
 20
17.8255164046
 30
0.0
 10
10.2942378453
 20
17.8053044299
 30
0.0
 10
10.3171587215
 20
17.7838869809
 30
0.0
 10
10.3410899013
 20
17.7614598124
 30
0.0
 10
10.3658265216
 20
17.7382275753
 30
0.0
 10
10.3911566522
 20
17.7144020389
 30
0.0
 10
10.4254884281
 20
17.6820797512
 30
0.0
 10
10.468223777
 20
17.6418231569
 30
0.0
 10
10.5104969833
 20
17.6020546962
 30
0.0
 10
10.5433236215
 20
17.571259646
 30
0.0
 10
10.5666825835
 20
17.5494030539
 30
0.0
 10
10.5889153041
 20
17.5286716623
 30
0.0
 10
10.6098323163
 20
17.5092546395
 30
0.0
 10
10.6292557481
 20
17.4913294234
 30
0.0
 10
10.6470207569
 20
17.4750600227
 30
0.0
 10
10.6629772397
 20
17.4605958964
 30
0.0
 10
10.6751025093
 20
17.4497563579
 30
0.0
 10
10.6838075386
 20
17.4420957564
 30
0.0
 10
10.6895363637
 20
17.4371172027
 30
0.0
 10
10.6947241841
 20
17.4326785309
 30
0.0
 10
10.6993602935
 20
17.4287901378
 30
0.0
 10
10.7034350947
 20
17.4254607333
 30
0.0
 10
10.7069402766
 20
17.4226981292
 30
0.0
 10
10.7095151866
 20
17.4207701447
 30
0.0
 10
10.7112910381
 20
17.4195257197
 30
0.0
 10
10.7120826083
 20
17.4190018569
 30
0.0
 10
10.7124547976
 20
17.4187658344
 30
0.0
  0
LINE
  5
5A1
100
AcDbEntity
  8
0
100
AcDbLine
 62
7
  6
CONTINUOUS
 10
10.7124547976
 20
17.4187658344
 11
10.7151678511
 21
17.4173762119
  0
SPLINE
  5
5A2
100
AcDbEntity
  8
0
100
AcDbSpline
 62
7
  6
CONTINUOUS
 70
0
 71
3
 72
62
 73
58
 74
0
 42
0.0000001
 43
0.0000001
 44
0.0000000001
 40
0.0
 40
0.0
 40
0.0
 40
0.0
 40
0.0001822429
 40
0.0003908135
 40
0.0006439258
 40
0.0009519754
 40
0.0013207261
 40
0.001753511
 40
0.0022523592
 40
0.0028185279
 40
0.0041556859
 40
0.0057690189
 40
0.0076602774
 40
0.0098300068
 40
0.0122778698
 40
0.0150031781
 40
0.0180050157
 40
0.0212820052
 40
0.028654567
 40
0.0371059701
 40
0.0466176049
 40
0.0571686292
 40
0.0812910612
 40
0.1092548205
 40
0.1408048973
 40
0.1756528995
 40
0.2134797436
 40
0.2539389714
 40
0.2966597899
 40
0.3412507051
 40
0.3873030719
 40
0.4343948693
 40
0.4820946456
 40
0.5299653939
 40
0.5775687037
 40
0.624468596
 40
0.6702357893
 40
0.7144513412
 40
0.7567108086
 40
0.7966277168
 40
0.8338372898
 40
0.8679997903
 40
0.8988036587
 40
0.9259686102
 40
0.9381082014
 40
0.9492484433
 40
0.9593645261
 40
0.9684338585
 40
0.9764366672
 40
0.9833560202
 40
0.9891780953
 40
0.9916745349
 40
0.993893473
 40
0.9958344821
 40
0.9974979615
 40
0.9988853949
 40
1.0
 40
1.0
 40
1.0
 40
1.0
 10
10.2034595122
 20
17.9804211571
 30
0.0
 10
10.2034922784
 20
17.9804539115
 30
0.0
 10
10.2035783433
 20
17.9805092483
 30
0.0
 10
10.2037404535
 20
17.9805446199
 30
0.0
 10
10.2039372443
 20
17.9805404151
 30
0.0
 10
10.2041704973
 20
17.9804981619
 30
0.0
 10
10.2044413731
 20
17.9804181091
 30
0.0
 10
10.204750417
 20
17.9803000556
 30
0.0
 10
10.20509786
 20
17.9801438752
 30
0.0
 10
10.2056433253
 20
17.9798689411
 30
0.0
 10
10.2064192965
 20
17.9794238223
 30
0.0
 10
10.2074589106
 20
17.9787644287
 30
0.0
 10
10.2086517648
 20
17.9779528953
 30
0.0
 10
10.2099972959
 20
17.9769896118
 30
0.0
 10
10.2114948095
 20
17.975874968
 30
0.0
 10
10.2131435192
 20
17.9746095898
 30
0.0
 10
10.2149425803
 20
17.9731942043
 30
0.0
 10
10.2176486332
 20
17.9710212323
 30
0.0
 10
10.2213956202
 20
17.9679323065
 30
0.0
 10
10.2263159459
 20
17.9637758276
 30
0.0
 10
10.2318100495
 20
17.9590469319
 30
0.0
 10
10.2402698126
 20
17.9516570779
 30
0.0
 10
10.252167523
 20
17.9410731761
 30
0.0
 10
10.2679435705
 20
17.9268183456
 30
0.0
 10
10.285651573
 20
17.910635186
 30
0.0
 10
10.3051355422
 20
17.8926789176
 30
0.0
 10
10.3262231192
 20
17.8731208441
 30
0.0
 10
10.34872748
 20
17.8521472852
 30
0.0
 10
10.3724489005
 20
17.8299575577
 30
0.0
 10
10.3971765823
 20
17.8067621826
 30
0.0
 10
10.4226905781
 20
17.7827808916
 30
0.0
 10
10.4487637982
 20
17.7582406025
 30
0.0
 10
10.4751640797
 20
17.733373332
 30
0.0
 10
10.5016563271
 20
17.7084140437
 30
0.0
 10
10.5280046344
 20
17.6835985146
 30
0.0
 10
10.5539744793
 20
17.6591611334
 30
0.0
 10
10.5793348229
 20
17.6353327882
 30
0.0
 10
10.6038602683
 20
17.6123386974
 30
0.0
 10
10.6273330702
 20
17.5903963829
 30
0.0
 10
10.6495451479
 20
17.5697136163
 30
0.0
 10
10.6702999669
 20
17.5504865478
 30
0.0
 10
10.689414235
 20
17.5328977486
 30
0.0
 10
10.706719781
 20
17.5171148055
 30
0.0
 10
10.719960252
 20
17.5051834105
 30
0.0
 10
10.7295435985
 20
17.4966617023
 30
0.0
 10
10.7359174557
 20
17.4910532999
 30
0.0
 10
10.7417377404
 20
17.4859975408
 30
0.0
 10
10.746991984
 20
17.4815067105
 30
0.0
 10
10.7516688246
 20
17.4775915208
 30
0.0
 10
10.7557583359
 20
17.4742615219
 30
0.0
 10
10.7588073421
 20
17.471871328
 30
0.0
 10
10.7609512885
 20
17.4702650027
 30
0.0
 10
10.7623234476
 20
17.4692744931
 30
0.0
 10
10.7635433207
 20
17.4684354205
 30
0.0
 10
10.76461039
 20
17.4677479218
 30
0.0
 10
10.7655241023
 20
17.4672120905
 30
0.0
 10
10.7660921417
 20
17.4669239235
 30
0.0
 10
10.7663516507
 20
17.4668101428
 30
0.0
  0
LINE
  5
5A3
100
AcDbEntity
  8
0
100
AcDbLine
 62
7
  6
CONTINUOUS
 10
10.7663516507
 20
17.4668101428
 11
10.7669796256
 21
17.4665814336
  0
SPLINE
  5
5A4
100
AcDbEntity
  8
0
100
AcDbSpline
 62
7
  6
CONTINUOUS
 70
0
 71
3
 72
62
 73
58
 74
0
 42
0.0000001
 43
0.0000001
 44
0.0000000001
 40
0.0
 40
0.0
 40
0.0
 40
0.0
 40
0.0001794202
 40
0.0003843899
 40
0.0006327014
 40
0.0009345761
 40
0.0012956737
 40
0.0017192448
 40
0.0022072638
 40
0.0027609903
 40
0.0040685124
 40
0.0056460154
 40
0.0074951172
 40
0.0096162537
 40
0.0120093207
 40
0.0146738077
 40
0.0176086263
 40
0.0208124569
 40
0.0280212164
 40
0.0362855582
 40
0.0455882239
 40
0.0559088948
 40
0.0795119128
 40
0.1068861668
 40
0.137788229
 40
0.1719424706
 40
0.2090439363
 40
0.2487610396
 40
0.290738812
 40
0.3346019399
 40
0.3799583513
 40
0.4264025805
 40
0.4735195545
 40
0.5208882317
 40
0.5680853755
 40
0.6146894764
 40
0.6602842926
 40
0.7044628922
 40
0.7468309746
 40
0.7870106905
 40
0.8246438409
 40
0.8593952261
 40
0.8909556205
 40
0.9190448764
 40
0.931708562
 40
0.9434136872
 40
0.9541358228
 40
0.9638499471
 40
0.9725308887
 40
0.9801688506
 40
0.9867616533
 40
0.989651163
 40
0.992255505
 40
0.9945669071
 40
0.9966044236
 40
0.99840307
 40
1.0
 40
1.0
 40
1.0
 40
1.0
 10
10.2527025998
 20
18.03219683
 30
0.0
 10
10.2527349446
 20
18.0322291792
 30
0.0
 10
10.2528196903
 20
18.0322839262
 30
0.0
 10
10.2529792868
 20
18.0323194253
 30
0.0
 10
10.2531729356
 20
18.0323160628
 30
0.0
 10
10.2534023334
 20
18.0322753527
 30
0.0
 10
10.2536686083
 20
18.0321975741
 30
0.0
 10
10.2539722817
 20
18.0320825576
 30
0.0
 10
10.2543135751
 20
18.0319301946
 30
0.0
 10
10.2548492073
 20
18.0316617693
 30
0.0
 10
10.2556110629
 20
18.0312267309
 30
0.0
 10
10.2566315765
 20
18.0305817527
 30
0.0
 10
10.2578023308
 20
18.0297876326
 30
0.0
 10
10.2591227755
 20
18.0288447658
 30
0.0
 10
10.2605922568
 20
18.0277534612
 30
0.0
 10
10.2622100264
 20
18.0265142941
 30
0.0
 10
10.2639752739
 20
18.0251280114
 30
0.0
 10
10.2666304986
 20
18.0229993554
 30
0.0
 10
10.2703070873
 20
18.019972722
 30
0.0
 10
10.2751351795
 20
18.0158991286
 30
0.0
 10
10.2805266692
 20
18.0112634083
 30
0.0
 10
10.2888303508
 20
18.0040166224
 30
0.0
 10
10.3005115543
 20
17.9936331897
 30
0.0
 10
10.3160055041
 20
17.9796417862
 30
0.0
 10
10.3334055657
 20
17.9637478306
 30
0.0
 10
10.3525622498
 20
17.9461000693
 30
0.0
 10
10.3733102333
 20
17.9268627789
 30
0.0
 10
10.3954702368
 20
17.9062147441
 30
0.0
 10
10.4188504105
 20
17.8843474128
 30
0.0
 10
10.4432481052
 20
17.8614631631
 30
0.0
 10
10.4684516261
 20
17.837773478
 30
0.0
 10
10.4942421529
 20
17.8134970124
 30
0.0
 10
10.5203956669
 20
17.7888576439
 30
0.0
 10
10.5466849607
 20
17.7640824544
 30
0.0
 10
10.5728816718
 20
17.7393996864
 30
0.0
 10
10.5987582991
 20
17.7150367165
 30
0.0
 10
10.6240902695
 20
17.6912179826
 30
0.0
 10
10.6486578914
 20
17.6681630156
 30
0.0
 10
10.6722483588
 20
17.646084424
 30
0.0
 10
10.6946575942
 20
17.6251860247
 30
0.0
 10
10.7156920897
 20
17.605660974
 30
0.0
 10
10.7351705688
 20
17.5876900165
 30
0.0
 10
10.7529256543
 20
17.571439863
 30
0.0
 10
10.7665926439
 20
17.5590644522
 30
0.0
 10
10.7765584637
 20
17.5501442036
 30
0.0
 10
10.7832516538
 20
17.5442071222
 30
0.0
 10
10.7894121147
 20
17.5388029107
 30
0.0
 10
10.7950258446
 20
17.5339449179
 30
0.0
 10
10.8000797838
 20
17.5296420351
 30
0.0
 10
10.804568106
 20
17.5259028235
 30
0.0
 10
10.8079673596
 20
17.5231640161
 30
0.0
 10
10.8103960519
 20
17.5212670864
 30
0.0
 10
10.8119770513
 20
17.5200584126
 30
0.0
 10
10.8133967078
 20
17.5189965138
 30
0.0
 10
10.8146685188
 20
17.5180801352
 30
0.0
 10
10.8158172017
 20
17.5173054254
 30
0.0
 10
10.8165576151
 20
17.5168556215
 30
0.0
 10
10.8169128789
 20
17.5166567103
 30
0.0
  0
LINE
  5
5A5
100
AcDbEntity
  8
0
100
AcDbLine
 62
7
  6
CONTINUOUS
 10
10.8169128789
 20
17.5166567103
 11
10.8191756531
 21
17.5156579999
  0
SPLINE
  5
5A6
100
AcDbEntity
  8
0
100
AcDbSpline
 62
7
  6
CONTINUOUS
 70
0
 71
3
 72
41
 73
37
 74
0
 42
0.0000001
 43
0.0000001
 44
0.0000000001
 40
0.0
 40
0.0
 40
0.0
 40
0.0
 40
0.0001758125
 40
0.0003962195
 40
0.0009754171
 40
0.001742938
 40
0.0027006147
 40
0.0038490707
 40
0.0051883802
 40
0.0084387575
 40
0.0124489239
 40
0.0172135015
 40
0.0227262368
 40
0.028979385
 40
0.0359642331
 40
0.0436712208
 40
0.0520894504
 40
0.061207583
 40
0.0814920742
 40
0.1044142323
 40
0.1298503019
 40
0.1576640978
 40
0.1877076992
 40
0.2198225271
 40
0.2538402152
 40
0.2895834995
 40
0.3268672589
 40
0.3654995618
 40
0.4460135159
 40
0.5294919104
 40
0.6142588254
 40
0.6986298768
 40
0.7809457204
 40
0.8596036985
 40
0.9330882023
 40
1.0
 40
1.0
 40
1.0
 40
1.0
 10
10.8196467783
 20
17.5155320849
 30
0.0
 10
10.8196092791
 20
17.5155421146
 30
0.0
 10
10.8195267006
 20
17.5155717857
 30
0.0
 10
10.819331337
 20
17.5156627062
 30
0.0
 10
10.8190322825
 20
17.515837918
 30
0.0
 10
10.8186090087
 20
17.5161203053
 30
0.0
 10
10.8180950484
 20
17.5164925788
 30
0.0
 10
10.8174905785
 20
17.5169544875
 30
0.0
 10
10.8164985401
 20
17.5177425789
 30
0.0
 10
10.8150378094
 20
17.5189559152
 30
0.0
 10
10.8130240851
 20
17.5206863137
 30
0.0
 10
10.8106558742
 20
17.5227702648
 30
0.0
 10
10.8079365533
 20
17.525204609
 30
0.0
 10
10.8048699872
 20
17.527985877
 30
0.0
 10
10.8014604094
 20
17.5311099807
 30
0.0
 10
10.7977125136
 20
17.5345723725
 30
0.0
 10
10.7936313313
 20
17.5383680514
 30
0.0
 10
10.78753265
 20
17.5440720244
 30
0.0
 10
10.7791237601
 20
17.5519938938
 30
0.0
 10
10.7681279376
 20
17.5624237298
 30
0.0
 10
10.7559563373
 20
17.5740294867
 30
0.0
 10
10.7426727998
 20
17.5867474908
 30
0.0
 10
10.7283465962
 20
17.6005086775
 30
0.0
 10
10.7130519615
 20
17.615238921
 30
0.0
 10
10.6968676897
 20
17.6308595123
 30
0.0
 10
10.6798767
 20
17.6472875933
 30
0.0
 10
10.6621655712
 20
17.6644366175
 30
0.0
 10
10.6373671465
 20
17.6884762437
 30
0.0
 10
10.6052678161
 20
17.7196377953
 30
0.0
 10
10.5658814691
 20
17.7579165179
 30
0.0
 10
10.5258945396
 20
17.79679917
 30
0.0
 10
10.4860909522
 20
17.835502184
 30
0.0
 10
10.447243217
 20
17.8732534552
 30
0.0
 10
10.4100975394
 20
17.9093072623
 30
0.0
 10
10.3753595669
 20
17.9429585055
 30
0.0
 10
10.3530638725
 20
17.9644937979
 30
0.0
 10
10.3424261057
 20
17.9747450965
 30
0.0
  0
LINE
  5
5A7
100
AcDbEntity
  8
0
100
AcDbLine
 62
9
  6
CONTINUOUS
 10
10.8201196578
 20
17.5156526283
 11
10.8199286443
 21
17.5155555982
  0
SPLINE
  5
5A8
100
AcDbEntity
  8
0
100
AcDbSpline
 62
9
  6
CONTINUOUS
 70
0
 71
3
 72
9
 73
5
 74
0
 42
0.0000001
 43
0.0000001
 44
0.0000000001
 40
0.0
 40
0.0
 40
0.0
 40
0.0
 40
0.2389665487
 40
1.0
 40
1.0
 40
1.0
 40
1.0
 10
10.8199286443
 20
17.5155555982
 30
0.0
 10
10.8199209277
 20
17.5155539874
 30
0.0
 10
10.8198884857
 20
17.5155479719
 30
0.0
 10
10.8198555548
 20
17.5155447453
 30
0.0
 10
10.8198304795
 20
17.5155435334
 30
0.0
  0
SPLINE
  5
5A9
100
AcDbEntity
  8
0
100
AcDbSpline
 62
7
  6
CONTINUOUS
 70
0
 71
3
 72
21
 73
17
 74
0
 42
0.0000001
 43
0.0000001
 44
0.0000000001
 40
0.0
 40
0.0
 40
0.0
 40
0.0
 40
0.2100861167
 40
0.3981039755
 40
0.5618122849
 40
0.6340195644
 40
0.6995751522
 40
0.7583886223
 40
0.8104291529
 40
0.8557663819
 40
0.8945931605
 40
0.9273282149
 40
0.9547428246
 40
0.9782140832
 40
0.9891637638
 40
1.0
 40
1.0
 40
1.0
 40
1.0
 10
8.6404791392
 20
14.6130508903
 30
0.0
 10
8.6419335413
 20
14.6115964882
 30
0.0
 10
8.6446521747
 20
14.608802458
 30
0.0
 10
8.6483490598
 20
14.6047281494
 30
0.0
 10
8.6510017809
 20
14.6015331849
 30
0.0
 10
8.652779036
 20
14.5991760706
 30
0.0
 10
8.6538810726
 20
14.5975976341
 30
0.0
 10
8.6548063807
 20
14.5961384622
 30
0.0
 10
8.6555526766
 20
14.5948026257
 30
0.0
 10
8.6561188477
 20
14.5935936548
 30
0.0
 10
8.6565042716
 20
14.5925135882
 30
0.0
 10
8.6567085452
 20
14.591562398
 30
0.0
 10
8.6567300985
 20
14.5907376805
 30
0.0
 10
8.656581036
 20
14.5901395116
 30
0.0
 10
8.6563624933
 20
14.5897515104
 30
0.0
 10
8.6562248513
 20
14.5895867458
 30
0.0
 10
8.6561498259
 20
14.5895117352
 30
0.0
  0
SPLINE
  5
5AA
100
AcDbEntity
  8
0
100
AcDbSpline
 62
7
  6
CONTINUOUS
 70
0
 71
3
 72
25
 73
21
 74
0
 42
0.0000001
 43
0.0000001
 44
0.0000000001
 40
0.0
 40
0.0
 40
0.0
 40
0.0
 40
0.1933047489
 40
0.3756124794
 40
0.4608229154
 40
0.5411833728
 40
0.6161074223
 40
0.6850759595
 40
0.7476503278
 40
0.8034822845
 40
0.8523311152
 40
0.8940996339
 40
0.9123621675
 40
0.9289208649
 40
0.9438465727
 40
0.9572488826
 40
0.9692886216
 40
0.9801997655
 40
0.9903020482
 40
1.0
 40
1.0
 40
1.0
 40
1.0
 10
8.1432192099
 20
15.1103108196
 30
0.0
 10
8.1461745559
 20
15.1073554736
 30
0.0
 10
8.1518147284
 20
15.1015093801
 30
0.0
 10
8.158449278
 20
15.0940716446
 30
0.0
 10
8.1632575938
 20
15.088286817
 30
0.0
 10
8.1664789576
 20
15.084204246
 30
0.0
 10
8.1693724488
 20
15.0803126848
 30
0.0
 10
8.1719162429
 20
15.0766431138
 30
0.0
 10
8.1740920665
 20
15.0732242674
 30
0.0
 10
8.1758855462
 20
15.0700819403
 30
0.0
 10
8.177285236
 20
15.0672392914
 30
0.0
 10
8.1781542528
 20
15.0650468408
 30
0.0
 10
8.1786263744
 20
15.0634585062
 30
0.0
 10
8.1788608738
 20
15.0624077217
 30
0.0
 10
8.1789919261
 20
15.0614446958
 30
0.0
 10
8.1790192021
 20
15.060570377
 30
0.0
 10
8.1789417957
 20
15.0597855035
 30
0.0
 10
8.178758202
 20
15.0590909621
 30
0.0
 10
8.1784667182
 20
15.058489292
 30
0.0
 10
8.178197705
 20
15.0581507964
 30
0.0
 10
8.1780494286
 20
15.0580025379
 30
0.0
  0
ELLIPSE
  5
5AB
100
AcDbEntity
  8
0
100
AcDbEllipse
 62
7
  6
CONTINUOUS
 10
9.5617685428
 20
13.8799464645
 30
0.0
 11
0.0990569532
 21
-0.0104875583
 31
0.0
 40
0.5588552877
 41
-2.4851433616
 42
-0.5072414241
  0
ELLIPSE
  5
5AC
100
AcDbEntity
  8
0
100
AcDbEllipse
 62
7
  6
CONTINUOUS
 10
6.6414175365
 20
16.8002974708
 30
0.0
 11
0.0104875583
 21
-0.0990569532
 31
0.0
 40
0.5588552877
 41
3.6488340777
 42
5.6267360152
  0
ELLIPSE
  5
5AD
100
AcDbEntity
  8
0
100
AcDbEllipse
 62
7
  6
CONTINUOUS
 10
9.9687225166
 20
17.2072514446
 30
0.0
 11
-0.0
 21
0.6181264952
 31
0.0
 40
0.2679491924
 41
-0.5408188012
 42
0.0172200256
  0
ENDSEC
  0
SECTION
  2
OBJECTS
  0
DICTIONARY
  5
C
100
AcDbDictionary
280
0
281
1
  3
ACAD_GROUP
350
D
  3
ACAD_MLINESTYLE
350
17
  3
ACAD_LAYOUT
350
1A
  3
ACAD_PLOTSETTINGS
350
19
  3
ACAD_PLOTSTYLENAME
350
E
  0
DICTIONARY
  5
D
102
{ACAD_REACTORS
330
C
102
}
100
AcDbDictionary
280
0
281
1
  0
ACDBDICTIONARYWDFLT
  5
E
102
{ACAD_REACTORS
330
C
102
}
100
AcDbDictionary
281
1
  3
Normal
350
F
100
AcDbDictionaryWithDefault
340
F
  0
DICTIONARY
  5
17
102
{ACAD_REACTORS
330
C
102
}
100
AcDbDictionary
280
0
281
1
  3
Standard
350
18
  0
DICTIONARY
  5
19
102
{ACAD_REACTORS
330
C
102
}
100
AcDbDictionary
281
1
  0
DICTIONARY
  5
1A
102
{ACAD_REACTORS
330
C
102
}
100
AcDbDictionary
281
1
  3
Model
350
5AE
  3
Layout1
350
5AF
  0
ACDBPLACEHOLDER
  5
F
102
{ACAD_REACTORS
330
E
102
}
  0
MLINESTYLE
  5
18
102
{ACAD_REACTORS
330
17
102
}
100
AcDbMlineStyle
  2
STANDARD
 70
0
  3

 62
256
 51
90.0
 52
90.0
 71
2
 49
0.5
 62
256
  6
BYLAYER
 49
-0.5
 62
256
  6
BYLAYER
  0
LAYOUT
  5
5AE
102
{ACAD_REACTORS
330
1A
102
}
100
AcDbPlotSettings
  1

  2
none_device
  4
ANSI_C_(22.00_x_17.00_Inches)
  6

 40
0.0
 41
0.0
 42
0.0
 43
0.0
 44
558.8
 45
431.8
 46
0.0
 47
0.0
 48
0.0
 49
0.0
140
0.0
141
0.0
142
1.0
143
1.0
 70
1024
 72
0
 73
0
 74
0
  7

 75
0
147
1.0
148
0.0
149
0.0
100
AcDbLayout
  1
Model
 70
0
 71
0
 10
0.0
 20
0.0
 11
22.0
 21
17.0
 12
0.0
 22
0.0
 32
0.0
 14
0.0
 24
0.0
 34
0.0
 15
0.0
 25
0.0
 35
0.0
146
0.0
 13
0.0
 23
0.0
 33
0.0
 16
1.0
 26
0.0
 36
0.0
 17
0.0
 27
1.0
 37
0.0
 76
0
330
205
345
0
346
0
  0
LAYOUT
  5
5AF
102
{ACAD_REACTORS
330
1A
102
}
100
AcDbPlotSettings
  1

  2
none_device
  4
ANSI_C_(22.00_x_17.00_Inches)
  6

 40
0.0
 41
0.0
 42
0.0
 43
0.0
 44
558.8
 45
431.8
 46
0.0
 47
0.0
 48
0.0
 49
0.0
140
0.0
141
0.0
142
1.0
143
1.0
 70
0
 72
0
 73
0
 74
0
  7

 75
0
147
1.0
148
0.0
149
0.0
100
AcDbLayout
  1
Layout1
 70
0
 71
1
 10
0.0
 20
0.0
 11
22.0
 21
17.0
 12
0.0
 22
0.0
 32
0.0
 14
0.0
 24
0.0
 34
0.0
 15
0.0
 25
0.0
 35
0.0
146
0.0
 13
0.0
 23
0.0
 33
0.0
 16
1.0
 26
0.0
 36
0.0
 17
0.0
 27
1.0
 37
0.0
 76
0
330
206
345
0
346
0
  0
ENDSEC
  0
EOF
