999
DXF file: E:\BT Custom\CADOUTPUT\_TOP.dxf
999
Pro/ENGINEER 2018400 by Parametric Technology Corporation
  0
SECTION
  2
HEADER
  9
$ACADVER
  1
AC1018
  9
$DWGCODEPAGE
  3
ANSI_1252
  9
$EXTMAX
 10
22.0
 20
17.0
 30
0.0
  9
$EXTMIN
 10
0.0
 20
0.0
 30
0.0
  9
$LIMMIN
 10
0.0
 20
0.0
  9
$LIMMAX
 10
22.0
 20
17.0
  9
$VIEWCTR
 10
11.0
 20
8.5
  9
$VIEWSIZE
 40
17.0
  9
$CLAYER
  8
0
  9
$LTSCALE
 40
1.21
  9
$CELTYPE
  6
BYLAYER
  9
$DIMSCALE
 40
1.0
  9
$DIMASZ
 40
0.1
  9
$DIMEXO
 40
0.0625
  9
$DIMDLI
 40
0.836
  9
$DIMEXE
 40
0.125
  9
$DIMCEN
 40
0.198
  9
$DIMLFAC
 40
1.0
  9
$DIMBLK
  1
_FILLED
  9
$DIMALT
 70
1
  9
$DIMALTD
 70
2
  9
$DIMALTTD
 70
2
  9
$DIMALTF
 40
25.4
  9
$DIMTXT
 40
0.08
  9
$DIMTOL
 70
1
  9
$DIMLIM
 70
0
  9
$DIMTFAC
 40
1.0
  9
$DIMTP
 40
0.001
  9
$DIMTM
 40
0.001
  9
$DIMGAP
 40
0.09
  9
$DIMDSEP
 70
46
  9
$AUNITS
 70
0
  9
$PDMODE
 70
3
  9
$PDSIZE
 40
0.06
  9
$HANDSEED
  5
2F2
  9
$TILEMODE
 70
1
  9
$MEASUREMENT
 70
0
  9
$INSUNITS
 70
1
  0
ENDSEC
  0
SECTION
  2
CLASSES
  0
CLASS
  1
ACDBDICTIONARYWDFLT
  2
AcDbDictionaryWithDefault
  3
AutoCAD 2000
 90
0
 91
1
280
0
281
0
  0
CLASS
  1
ACDBPLACEHOLDER
  2
AcDbPlaceHolder
  3
AutoCAD 2000
 90
0
 91
1
280
0
281
0
  0
CLASS
  1
LAYOUT
  2
AcDbLayout
  3
AutoCAD 2000
 90
0
 91
0
280
0
281
0
  0
ENDSEC
  0
SECTION
  2
TABLES
  0
TABLE
  2
VPORT
  5
8
100
AcDbSymbolTable
 70
2
  0
VPORT
  5
1F4
100
AcDbSymbolTableRecord
100
AcDbViewportTableRecord
  2
*ACTIVE
 70
0
 10
0.0
 20
0.0
 11
1.0
 21
1.0
 12
11.0
 22
8.5
 13
0.0
 23
0.0
 14
1.0
 24
1.0
 15
0.0
 25
0.0
 16
0.0
 26
0.0
 36
1.0
 17
0.0
 27
0.0
 37
0.0
 40
17.0
 41
1.2941176471
 42
50.0
 43
0.0
 44
0.0
 50
0.0
 51
0.0
 71
0
 72
100
 73
1
 74
1
 75
0
 76
0
 77
0
 78
0
  0
ENDTAB
  0
TABLE
  2
LTYPE
  5
5
100
AcDbSymbolTable
 70
6
  0
LTYPE
  5
14
100
AcDbSymbolTableRecord
100
AcDbLinetypeTableRecord
  2
BYBLOCK
 70
0
  3

 72
65
 73
0
 40
0.0
  0
LTYPE
  5
15
100
AcDbSymbolTableRecord
100
AcDbLinetypeTableRecord
  2
BYLAYER
 70
0
  3

 72
65
 73
0
 40
0.0
  0
LTYPE
  5
16
100
AcDbSymbolTableRecord
100
AcDbLinetypeTableRecord
  2
CONTINUOUS
 70
64
  3
Solid line
 72
65
 73
0
 40
0.0
  0
LTYPE
  5
1F5
100
AcDbSymbolTableRecord
100
AcDbLinetypeTableRecord
  2
CENTER
 70
64
  3
____ _ ____ _ ____ _ ____ _ ____ _ ____ _ ____
 72
65
 73
4
 40
0.6
 49
0.375
 74
0
 49
-0.075
 74
0
 49
0.075
 74
0
 49
-0.075
 74
0
  0
LTYPE
  5
1F6
100
AcDbSymbolTableRecord
100
AcDbLinetypeTableRecord
  2
HIDDEN
 70
64
  3
- - - - - - - - - - - - - - - - - - - -
 72
65
 73
2
 40
0.2
 49
0.1
 74
0
 49
-0.1
 74
0
  0
LTYPE
  5
1F7
100
AcDbSymbolTableRecord
100
AcDbLinetypeTableRecord
  2
PHANTOM
 70
64
  3
_____ _ _ _____ _ _ _____ _ _ _____
 72
65
 73
6
 40
0.8
 49
0.45
 74
0
 49
-0.05
 74
0
 49
0.1
 74
0
 49
-0.05
 74
0
 49
0.1
 74
0
 49
-0.05
 74
0
  0
LTYPE
  5
1F8
100
AcDbSymbolTableRecord
100
AcDbLinetypeTableRecord
  2
DOT
 70
64
  3
. . . . . . . . . . . . . . . . . . . .
 72
65
 73
2
 40
0.2
 49
0.1
 74
0
 49
-0.1
 74
0
  0
LTYPE
  5
1F9
100
AcDbSymbolTableRecord
100
AcDbLinetypeTableRecord
  2
DASHED
 70
64
  3
- - - - - - - - - - - - - - - - - - - -
 72
65
 73
2
 40
0.2
 49
0.1
 74
0
 49
-0.1
 74
0
  0
ENDTAB
  0
TABLE
  2
LAYER
  5
2
100
AcDbSymbolTable
 70
36
  0
LAYER
  5
10
100
AcDbSymbolTableRecord
100
AcDbLayerTableRecord
  2
0
 70
0
 62
7
  6
CONTINUOUS
370
-3
390
F
  0
LAYER
  5
1FA
100
AcDbSymbolTableRecord
100
AcDbLayerTableRecord
  2
DEFAULT_1
 70
0
 62
7
  6
CENTER
370
-3
390
F
  0
LAYER
  5
1FB
100
AcDbSymbolTableRecord
100
AcDbLayerTableRecord
  2
DEFAULT_2
 70
0
 62
8
  6
HIDDEN
370
-3
390
F
  0
LAYER
  5
1FC
100
AcDbSymbolTableRecord
100
AcDbLayerTableRecord
  2
DEFAULT_3
 70
0
 62
7
  6
PHANTOM
370
-3
390
F
  0
LAYER
  5
1FD
100
AcDbSymbolTableRecord
100
AcDbLayerTableRecord
  2
ALL_FEATURES
 70
0
 62
7
  6
CONTINUOUS
370
-3
390
F
  0
LAYER
  5
1FE
100
AcDbSymbolTableRecord
100
AcDbLayerTableRecord
  2
AXES_FEATURES
 70
0
 62
7
  6
CONTINUOUS
370
-3
390
F
  0
LAYER
  5
1FF
100
AcDbSymbolTableRecord
100
AcDbLayerTableRecord
  2
DEFAULT_COORDINATE_SYSTEM
 70
0
 62
7
  6
CONTINUOUS
370
-3
390
F
  0
LAYER
  5
200
100
AcDbSymbolTableRecord
100
AcDbLayerTableRecord
  2
DEFAULT_DATUM_AXES
 70
0
 62
7
  6
CONTINUOUS
370
-3
390
F
  0
LAYER
  5
201
100
AcDbSymbolTableRecord
100
AcDbLayerTableRecord
  2
DEFAULT_DATUM_PLANES
 70
0
 62
7
  6
CONTINUOUS
370
-3
390
F
  0
LAYER
  5
202
100
AcDbSymbolTableRecord
100
AcDbLayerTableRecord
  2
DIMENSIONS
 70
0
 62
7
  6
CONTINUOUS
370
-3
390
F
  0
ENDTAB
  0
TABLE
  2
STYLE
  5
3
100
AcDbSymbolTable
 70
1
  0
STYLE
  5
11
100
AcDbSymbolTableRecord
100
AcDbTextStyleTableRecord
  2
STANDARD
 70
0
 40
0.0
 41
0.8
 50
0.0
 71
0
 42
0.2
  3
txt
  4

  0
STYLE
  5
203
100
AcDbSymbolTableRecord
100
AcDbTextStyleTableRecord
  2
TEXTSTYLE_1
 70
0
 40
0.0
 41
0.8
 50
0.0
 71
0
 42
0.2
  3
gdt
  4

  0
ENDTAB
  0
TABLE
  2
VIEW
  5
6
100
AcDbSymbolTable
 70
0
  0
ENDTAB
  0
TABLE
  2
UCS
  5
7
100
AcDbSymbolTable
 70
0
  0
ENDTAB
  0
TABLE
  2
APPID
  5
9
100
AcDbSymbolTable
 70
1
  0
APPID
  5
204
100
AcDbSymbolTableRecord
100
AcDbRegAppTableRecord
  2
ACAD
 70
0
  0
ENDTAB
  0
TABLE
  2
BLOCK_RECORD
  5
1
100
AcDbSymbolTable
 70
0
  0
BLOCK_RECORD
  5
205
100
AcDbSymbolTableRecord
100
AcDbBlockTableRecord
  2
*Model_Space
  0
BLOCK_RECORD
  5
206
100
AcDbSymbolTableRecord
100
AcDbBlockTableRecord
  2
*Paper_Space
  0
BLOCK_RECORD
  5
207
100
AcDbSymbolTableRecord
100
AcDbBlockTableRecord
  2
_FILLED
  0
ENDTAB
  0
TABLE
  2
DIMSTYLE
  5
A
100
AcDbSymbolTable
 70
1
100
AcDbDimStyleTable
 71
0
  0
DIMSTYLE
105
208
100
AcDbSymbolTableRecord
100
AcDbDimStyleTableRecord
  2
STANDARD
 70
0
  3

  4

 40
1.0
 41
0.1
 42
0.0625
 43
0.38
 44
0.125
 45
0.0
 46
0.0
 47
0.001
 48
0.001
140
0.08
141
0.09
142
0.0
143
25.4
144
1.0
145
0.0
146
1.0
147
0.09
 71
1.0
 72
0.0
 73
1
 74
1
 75
0
 76
0
 77
0
 78
4
 79
1
170
1
171
2
172
0
173
0
174
0
175
0
176
0
177
0
178
0
270
2
179
3
271
3
272
3
273
2
274
2
275
0
280
0
281
0
282
0
283
1
284
4
285
0
286
0
287
3
288
0
340
11
278
46
341
207
342
207
343
207
344
207
  0
ENDTAB
  0
ENDSEC
  0
SECTION
  2
BLOCKS
  0
BLOCK
  5
20
100
AcDbEntity
  8
0
100
AcDbBlockBegin
  2
*Model_Space
 70
0
 10
0.0
 20
0.0
 30
0.0
  3
*Model_Space
  1

  0
ENDBLK
  5
21
100
AcDbEntity
  8
0
100
AcDbBlockEnd
  0
BLOCK
  5
1C
100
AcDbEntity
  8
0
100
AcDbBlockBegin
  2
*Paper_Space
 70
0
 10
0.0
 20
0.0
 30
0.0
  3
*Paper_Space
  1

  0
ENDBLK
  5
1D
100
AcDbEntity
  8
0
100
AcDbBlockEnd
  0
BLOCK
  5
209
100
AcDbEntity
  8
0
100
AcDbBlockBegin
  2
_FILLED
 70
64
 10
0.0
 20
0.0
  3
_FILLED
  1

  0
SOLID
  5
20A
100
AcDbEntity
  8
0
  6
BYBLOCK
 62
0
100
AcDbTrace
 10
0.0
 20
0.0
 11
-1.0
 21
0.2
 12
-1.0
 22
-0.2
 13
-1.0
 23
-0.2
  0
ENDBLK
  5
20B
100
AcDbEntity
  8
0
  6
BYBLOCK
 62
0
100
AcDbBlockEnd
  0
ENDSEC
  0
SECTION
  2
ENTITIES
  0
LINE
  5
20C
100
AcDbEntity
  8
0
100
AcDbLine
 62
7
  6
CONTINUOUS
 10
9.1423183383
 20
5.3277726261
 11
9.1423183383
 21
5.1983375589
  0
LINE
  5
20D
100
AcDbEntity
  8
0
100
AcDbLine
 62
7
  6
CONTINUOUS
 10
9.4273183383
 20
5.4851550294
 11
9.4273183383
 21
5.4611215783
  0
LINE
  5
20E
100
AcDbEntity
  8
0
100
AcDbLine
 62
7
  6
CONTINUOUS
 10
9.8573183383
 20
11.6072409815
 11
9.8573183383
 21
11.3750677343
  0
LINE
  5
20F
100
AcDbEntity
  8
0
100
AcDbLine
 62
7
  6
CONTINUOUS
 10
10.2348183383
 20
10.3912409815
 11
10.2348183383
 21
10.4782409815
  0
LINE
  5
210
100
AcDbEntity
  8
0
100
AcDbLine
 62
7
  6
CONTINUOUS
 10
11.4535683383
 20
9.0949909815
 11
11.4568183383
 21
9.0982409815
  0
LINE
  5
211
100
AcDbEntity
  8
0
100
AcDbLine
 62
7
  6
CONTINUOUS
 10
11.0463785112
 20
6.5342429401
 11
11.0483363447
 21
6.5342430763
  0
LINE
  5
212
100
AcDbEntity
  8
0
100
AcDbLine
 62
7
  6
CONTINUOUS
 10
10.4723183383
 20
6.6208627351
 11
10.4723183383
 21
5.9561823608
  0
LINE
  5
213
100
AcDbEntity
  8
0
100
AcDbLine
 62
7
  6
CONTINUOUS
 10
10.5948183383
 20
7.1370506854
 11
10.5948183383
 21
6.909271898
  0
LINE
  5
214
100
AcDbEntity
  8
0
100
AcDbLine
 62
7
  6
CONTINUOUS
 10
10.6410683383
 20
11.1903838792
 11
10.6410683383
 21
7.3425012461
  0
LINE
  5
215
100
AcDbEntity
  8
0
100
AcDbLine
 62
7
  6
CONTINUOUS
 10
10.6410683383
 20
7.2603898439
 11
10.6410683383
 21
7.2429926138
  0
LINE
  5
216
100
AcDbEntity
  8
0
100
AcDbLine
 62
7
  6
CONTINUOUS
 10
10.6410683383
 20
7.2091612713
 11
10.6410683383
 21
7.1932751954
  0
LINE
  5
217
100
AcDbEntity
  8
0
100
AcDbLine
 62
7
  6
CONTINUOUS
 10
10.6410683383
 20
7.1578614209
 11
10.6410683383
 21
7.1435459954
  0
LINE
  5
218
100
AcDbEntity
  8
0
100
AcDbLine
 62
7
  6
CONTINUOUS
 10
10.6410685839
 20
7.3119853632
 11
10.6410683383
 21
7.2927813287
  0
LINE
  5
219
100
AcDbEntity
  8
0
100
AcDbLine
 62
7
  6
CONTINUOUS
 10
10.6280555925
 20
7.3082409815
 11
10.6410683383
 21
7.2978648349
  0
LINE
  5
21A
100
AcDbEntity
  8
0
100
AcDbLine
 62
9
  6
CONTINUOUS
 10
10.6410685839
 20
7.3119853632
 11
10.6434889297
 21
7.312971584
  0
LINE
  5
21B
100
AcDbEntity
  8
0
100
AcDbLine
 62
7
  6
CONTINUOUS
 10
11.1568904109
 20
6.7382189364
 11
11.1568904109
 21
6.5988284967
  0
LINE
  5
21C
100
AcDbEntity
  8
0
100
AcDbLine
 62
7
  6
CONTINUOUS
 10
11.1770814628
 20
6.2247651893
 11
11.1770814628
 21
5.9772778159
  0
LINE
  5
21D
100
AcDbEntity
  8
0
100
AcDbLine
 62
7
  6
CONTINUOUS
 10
11.3727462656
 20
6.82634172
 11
11.3727462656
 21
6.6869512803
  0
LINE
  5
21E
100
AcDbEntity
  8
0
100
AcDbLine
 62
7
  6
CONTINUOUS
 10
11.4535683383
 20
7.2860343074
 11
11.4535683383
 21
7.2678936138
  0
LINE
  5
21F
100
AcDbEntity
  8
0
100
AcDbLine
 62
7
  6
CONTINUOUS
 10
11.4535683383
 20
7.2347689064
 11
11.4535683383
 21
7.2182144969
  0
LINE
  5
220
100
AcDbEntity
  8
0
100
AcDbLine
 62
7
  6
CONTINUOUS
 10
11.4535683383
 20
7.1834307389
 11
11.4535683383
 21
7.1684124525
  0
LINE
  5
221
100
AcDbEntity
  8
0
100
AcDbLine
 62
7
  6
CONTINUOUS
 10
11.4675552138
 20
6.3433506016
 11
11.4675552138
 21
6.0958632282
  0
LINE
  5
222
100
AcDbEntity
  8
0
100
AcDbLine
 62
7
  6
CONTINUOUS
 10
11.4535683383
 20
11.1903838792
 11
11.4535680927
 21
7.3421853913
  0
LINE
  5
223
100
AcDbEntity
  8
0
100
AcDbLine
 62
7
  6
CONTINUOUS
 10
11.4665810841
 20
7.3082409815
 11
11.4532303077
 21
7.2975952949
  0
LINE
  5
224
100
AcDbEntity
  8
0
100
AcDbLine
 62
7
  6
CONTINUOUS
 10
11.4998183383
 20
7.1370506854
 11
11.4998183383
 21
6.909271898
  0
LINE
  5
225
100
AcDbEntity
  8
0
100
AcDbLine
 62
7
  6
CONTINUOUS
 10
11.6223183383
 20
6.6208627351
 11
11.6223183383
 21
5.9561823608
  0
LINE
  5
226
100
AcDbEntity
  8
0
100
AcDbLine
 62
7
  6
CONTINUOUS
 10
11.8598183383
 20
10.3912409815
 11
11.8598183383
 21
10.4782409815
  0
LINE
  5
227
100
AcDbEntity
  8
0
100
AcDbLine
 62
7
  6
CONTINUOUS
 10
10.6410683383
 20
9.0949909815
 11
10.6378183383
 21
9.0982409815
  0
LINE
  5
228
100
AcDbEntity
  8
0
100
AcDbLine
 62
7
  6
CONTINUOUS
 10
12.2373183383
 20
11.6072409815
 11
12.2373183383
 21
11.3750677343
  0
LINE
  5
229
100
AcDbEntity
  8
0
100
AcDbLine
 62
7
  6
CONTINUOUS
 10
11.4675552138
 20
6.3433506016
 11
11.1770814628
 21
6.2247651893
  0
LINE
  5
22A
100
AcDbEntity
  8
0
100
AcDbLine
 62
7
  6
CONTINUOUS
 10
11.4675552138
 20
6.0958632282
 11
11.1770814628
 21
5.9772778159
  0
LINE
  5
22B
100
AcDbEntity
  8
0
100
AcDbLine
 62
7
  6
CONTINUOUS
 10
12.6673183383
 20
5.4851550294
 11
12.6673183383
 21
5.4611215783
  0
LINE
  5
22C
100
AcDbEntity
  8
0
100
AcDbLine
 62
7
  6
CONTINUOUS
 10
12.9523183383
 20
5.3277726261
 11
12.9523183383
 21
5.1983375589
  0
LINE
  5
22D
100
AcDbEntity
  8
0
100
AcDbLine
 62
7
  6
CONTINUOUS
 10
11.4568183383
 20
9.0982409815
 11
11.4535683383
 21
9.0982409815
  0
LINE
  5
22E
100
AcDbEntity
  8
0
100
AcDbLine
 62
7
  6
CONTINUOUS
 10
10.6378183383
 20
9.0982409815
 11
10.6410683383
 21
9.0982409815
  0
LINE
  5
22F
100
AcDbEntity
  8
0
100
AcDbLine
 62
9
  6
CONTINUOUS
 10
11.4535683383
 20
9.3572409815
 11
10.6410683383
 21
9.3572409815
  0
LINE
  5
230
100
AcDbEntity
  8
0
100
AcDbLine
 62
7
  6
CONTINUOUS
 10
11.8598183383
 20
10.3912409815
 11
11.4535683383
 21
10.3912409815
  0
LINE
  5
231
100
AcDbEntity
  8
0
100
AcDbLine
 62
7
  6
CONTINUOUS
 10
10.2348183383
 20
10.3912409815
 11
10.6410683383
 21
10.3912409815
  0
LINE
  5
232
100
AcDbEntity
  8
0
100
AcDbLine
 62
7
  6
CONTINUOUS
 10
11.8603210121
 20
10.4782409815
 11
11.4535683383
 21
10.4782409815
  0
LINE
  5
233
100
AcDbEntity
  8
0
100
AcDbLine
 62
7
  6
CONTINUOUS
 10
10.2343156645
 20
10.4782409815
 11
10.6410683383
 21
10.4782409815
  0
LINE
  5
234
100
AcDbEntity
  8
0
100
AcDbLine
 62
7
  6
CONTINUOUS
 10
12.0473183383
 20
10.6662409815
 11
11.4535683383
 21
10.6662409815
  0
LINE
  5
235
100
AcDbEntity
  8
0
100
AcDbLine
 62
7
  6
CONTINUOUS
 10
10.0473183383
 20
10.6662409815
 11
10.6410683383
 21
10.6662409815
  0
LINE
  5
236
100
AcDbEntity
  8
0
100
AcDbLine
 62
7
  6
CONTINUOUS
 10
13.8041570779
 20
10.8532409815
 11
11.4535683383
 21
10.8532409815
  0
LINE
  5
237
100
AcDbEntity
  8
0
100
AcDbLine
 62
7
  6
CONTINUOUS
 10
10.6410683383
 20
10.8532409815
 11
8.2904795986
 21
10.8532409815
  0
LINE
  5
238
100
AcDbEntity
  8
0
100
AcDbLine
 62
7
  6
CONTINUOUS
 10
11.4945333056
 20
11.1903838792
 11
11.4978849088
 21
11.1905716878
  0
LINE
  5
239
100
AcDbEntity
  8
0
100
AcDbLine
 62
9
  6
CONTINUOUS
 10
14.0212377081
 20
10.9792409815
 11
11.4535683383
 21
10.9792409815
  0
LINE
  5
23A
100
AcDbEntity
  8
0
100
AcDbLine
 62
9
  6
CONTINUOUS
 10
10.6410683383
 20
10.9792409815
 11
8.0733989685
 21
10.9792409815
  0
LINE
  5
23B
100
AcDbEntity
  8
0
100
AcDbLine
 62
7
  6
CONTINUOUS
 10
14.2382345161
 20
11.1052409674
 11
11.4535683383
 21
11.1052409674
  0
LINE
  5
23C
100
AcDbEntity
  8
0
100
AcDbLine
 62
7
  6
CONTINUOUS
 10
10.6410683383
 20
11.1052409674
 11
7.8564021604
 21
11.1052409674
  0
LINE
  5
23D
100
AcDbEntity
  8
0
100
AcDbLine
 62
7
  6
CONTINUOUS
 10
10.600103371
 20
11.1903838792
 11
11.4945333056
 21
11.1903838792
  0
LINE
  5
23E
100
AcDbEntity
  8
0
100
AcDbLine
 62
9
  6
CONTINUOUS
 10
11.4978849088
 20
11.1905716878
 11
10.5967517678
 21
11.1905716878
  0
LINE
  5
23F
100
AcDbEntity
  8
0
100
AcDbLine
 62
9
  6
CONTINUOUS
 10
14.4552392802
 20
11.2312437337
 11
11.7742071354
 21
11.2312437337
  0
LINE
  5
240
100
AcDbEntity
  8
0
100
AcDbLine
 62
9
  6
CONTINUOUS
 10
10.3204295411
 20
11.2312437337
 11
7.6393973963
 21
11.2312437337
  0
LINE
  5
241
100
AcDbEntity
  8
0
100
AcDbLine
 62
7
  6
CONTINUOUS
 10
10.600103371
 20
11.1903838792
 11
10.5967517678
 21
11.1905716878
  0
LINE
  5
242
100
AcDbEntity
  8
0
100
AcDbLine
 62
9
  6
CONTINUOUS
 10
12.2007135508
 20
11.3268954572
 11
9.8939231258
 21
11.3268954572
  0
LINE
  5
243
100
AcDbEntity
  8
0
100
AcDbLine
 62
7
  6
CONTINUOUS
 10
14.6723183383
 20
11.3572409815
 11
12.2338935402
 21
11.3572409815
  0
LINE
  5
244
100
AcDbEntity
  8
0
100
AcDbLine
 62
7
  6
CONTINUOUS
 10
9.8607431363
 20
11.3572409815
 11
7.4223183383
 21
11.3572409815
  0
LINE
  5
245
100
AcDbEntity
  8
0
100
AcDbLine
 62
9
  6
CONTINUOUS
 10
12.2373183383
 20
11.3750677343
 11
9.8573183383
 21
11.3750677343
  0
LINE
  5
246
100
AcDbEntity
  8
0
100
AcDbLine
 62
7
  6
CONTINUOUS
 10
14.9223183383
 20
11.6072409815
 11
7.1723183383
 21
11.6072409815
  0
ARC
  5
247
100
AcDbEntity
  8
0
100
AcDbCircle
 62
7
  6
CONTINUOUS
 10
7.6461285381
 20
8.8750994583
 40
3.0
100
AcDbArc
 50
4.2656285905
 51
30.3566145709
  0
ARC
  5
248
100
AcDbEntity
  8
0
100
AcDbCircle
 62
9
  6
CONTINUOUS
 10
11.0473119721
 20
6.5970423481
 40
2.3027444852
100
AcDbArc
 50
264.6690262679
 51
275.3331943293
  0
ARC
  5
249
100
AcDbEntity
  8
0
100
AcDbCircle
 62
7
  6
CONTINUOUS
 10
10.9476877664
 20
4.7494010934
 40
1.8730052794
100
AcDbArc
 50
112.0765756898
 51
112.2076299845
  0
ARC
  5
24A
100
AcDbEntity
  8
0
100
AcDbCircle
 62
7
  6
CONTINUOUS
 10
9.9753468408
 20
4.8977699621
 40
1.0779626045
100
AcDbArc
 50
176.7935540762
 51
188.3555881491
  0
ARC
  5
24B
100
AcDbEntity
  8
0
100
AcDbCircle
 62
9
  6
CONTINUOUS
 10
10.237426949
 20
5.4851539682
 40
0.8101085696
100
AcDbArc
 50
179.999924943
 51
181.6008109692
  0
ARC
  5
24C
100
AcDbEntity
  8
0
100
AcDbCircle
 62
7
  6
CONTINUOUS
 10
11.0472647341
 20
6.4539523684
 40
0.4890629454
100
AcDbArc
 50
28.6910649612
 51
34.9067885354
  0
ARC
  5
24D
100
AcDbEntity
  8
0
100
AcDbCircle
 62
7
  6
CONTINUOUS
 10
11.0472718002
 20
7.1832252131
 40
0.4375491034
100
AcDbArc
 50
16.6017872002
 51
21.3703494189
  0
ARC
  5
24E
100
AcDbEntity
  8
0
100
AcDbCircle
 62
7
  6
CONTINUOUS
 10
11.0472712758
 20
7.1832600699
 40
0.4374492367
100
AcDbArc
 50
158.2844160714
 51
158.591218323
  0
ARC
  5
24F
100
AcDbEntity
  8
0
100
AcDbCircle
 62
7
  6
CONTINUOUS
 10
10.8180665382
 20
6.5712318541
 40
0.233253007
100
AcDbArc
 50
171.3689481225
 51
175.6175450066
  0
ARC
  5
250
100
AcDbEntity
  8
0
100
AcDbCircle
 62
7
  6
CONTINUOUS
 10
10.8452288073
 20
7.3425360769
 40
0.2041604717
100
AcDbArc
 50
180.0097749446
 51
188.5743828241
  0
ARC
  5
251
100
AcDbEntity
  8
0
100
AcDbCircle
 62
7
  6
CONTINUOUS
 10
10.8377736363
 20
7.2435413676
 40
0.1967417925
100
AcDbArc
 50
189.9555284939
 51
190.5495302863
  0
ARC
  5
252
100
AcDbEntity
  8
0
100
AcDbCircle
 62
7
  6
CONTINUOUS
 10
10.8345597764
 20
7.1933301263
 40
0.1934914178
100
AcDbArc
 50
180.016265881
 51
190.3499504072
  0
ARC
  5
253
100
AcDbEntity
  8
0
100
AcDbCircle
 62
7
  6
CONTINUOUS
 10
10.834455103
 20
7.2430408512
 40
0.1933867147
100
AcDbArc
 50
180.0142915511
 51
189.9794499793
  0
ARC
  5
254
100
AcDbEntity
  8
0
100
AcDbCircle
 62
7
  6
CONTINUOUS
 10
10.8343274239
 20
7.2928229099
 40
0.1932590553
100
AcDbArc
 50
180.0123276379
 51
189.5282153787
  0
ARC
  5
255
100
AcDbEntity
  8
0
100
AcDbCircle
 62
7
  6
CONTINUOUS
 10
10.8333526984
 20
7.1578468945
 40
0.1922843253
100
AcDbArc
 50
174.3631666192
 51
179.9956715035
  0
ARC
  5
256
100
AcDbEntity
  8
0
100
AcDbCircle
 62
7
  6
CONTINUOUS
 10
10.8332328032
 20
7.2603993337
 40
0.192164409
100
AcDbArc
 50
180.0028294828
 51
185.1620473608
  0
ARC
  5
257
100
AcDbEntity
  8
0
100
AcDbCircle
 62
7
  6
CONTINUOUS
 10
10.8331546231
 20
7.2091680566
 40
0.1920862288
100
AcDbArc
 50
180.0020239469
 51
184.7167863594
  0
ARC
  5
258
100
AcDbEntity
  8
0
100
AcDbCircle
 62
7
  6
CONTINUOUS
 10
10.8330535827
 20
7.2091593379
 40
0.1919851883
100
AcDbArc
 50
174.9437829096
 51
179.9994229968
  0
ARC
  5
259
100
AcDbEntity
  8
0
100
AcDbCircle
 62
7
  6
CONTINUOUS
 10
10.8330283854
 20
7.3116747098
 40
0.1919600529
100
AcDbArc
 50
175.4983186473
 51
179.9072768826
  0
ARC
  5
25A
100
AcDbEntity
  8
0
100
AcDbCircle
 62
7
  6
CONTINUOUS
 10
10.8330206395
 20
7.2603884585
 40
0.1919522452
100
AcDbArc
 50
175.4275746351
 51
179.9995864742
  0
ARC
  5
25B
100
AcDbEntity
  8
0
100
AcDbCircle
 62
7
  6
CONTINUOUS
 10
10.8329470625
 20
7.1578613223
 40
0.1918786888
100
AcDbArc
 50
179.9999705769
 51
184.2578312281
  0
ARC
  5
25C
100
AcDbEntity
  8
0
100
AcDbCircle
 62
7
  6
CONTINUOUS
 10
10.9951444261
 20
15.6624003973
 40
4.5
100
AcDbArc
 50
276.4144817261
 51
285.5395954904
  0
ARC
  5
25D
100
AcDbEntity
  8
0
100
AcDbCircle
 62
7
  6
CONTINUOUS
 10
7.8564859863
 20
11.3552519308
 40
0.2500109774
100
AcDbArc
 50
209.7364395186
 51
269.9807893772
  0
ARC
  5
25E
100
AcDbEntity
  8
0
100
AcDbCircle
 62
7
  6
CONTINUOUS
 10
7.4223183383
 20
11.6072409815
 40
0.25
100
AcDbArc
 50
180.0
 51
270.0
  0
ARC
  5
25F
100
AcDbEntity
  8
0
100
AcDbCircle
 62
7
  6
CONTINUOUS
 10
7.4223183383
 20
11.1072409815
 40
0.25
100
AcDbArc
 50
29.7364395186
 51
90.0
  0
ARC
  5
260
100
AcDbEntity
  8
0
100
AcDbCircle
 62
7
  6
CONTINUOUS
 10
7.8563183383
 20
10.8552409815
 40
0.25
100
AcDbArc
 50
29.7357131076
 51
89.9807893772
  0
ARC
  5
261
100
AcDbEntity
  8
0
100
AcDbCircle
 62
7
  6
CONTINUOUS
 10
8.2904795986
 20
11.1032409815
 40
0.25
100
AcDbArc
 50
209.7357131076
 51
270.0
  0
ARC
  5
262
100
AcDbEntity
  8
0
100
AcDbCircle
 62
7
  6
CONTINUOUS
 10
10.0544544494
 20
10.8532409815
 40
0.1871361111
100
AcDbArc
 50
180.0
 51
267.8145949287
  0
ARC
  5
263
100
AcDbEntity
  8
0
100
AcDbCircle
 62
7
  6
CONTINUOUS
 10
10.2343156645
 20
10.6652409815
 40
0.187
100
AcDbArc
 50
179.6936039968
 51
270.0
  0
ARC
  5
264
100
AcDbEntity
  8
0
100
AcDbCircle
 62
7
  6
CONTINUOUS
 10
9.9073183383
 20
11.3750677343
 40
0.05
100
AcDbArc
 50
180.0
 51
254.4604045097
  0
ARC
  5
265
100
AcDbEntity
  8
0
100
AcDbCircle
 62
7
  6
CONTINUOUS
 10
14.4485081385
 20
8.8750994583
 40
3.0
100
AcDbArc
 50
149.6433854291
 51
175.7343714095
  0
ARC
  5
266
100
AcDbEntity
  8
0
100
AcDbCircle
 62
9
  6
CONTINUOUS
 10
11.060822731
 20
6.5757499119
 40
2.5142243784
100
AcDbArc
 50
278.9558964887
 51
280.9090066343
  0
ARC
  5
267
100
AcDbEntity
  8
0
100
AcDbCircle
 62
9
  6
CONTINUOUS
 10
11.1709124402
 20
6.1806794641
 40
1.7971793708
100
AcDbArc
 50
292.1833154587
 51
295.6398840536
  0
ARC
  5
268
100
AcDbEntity
  8
0
100
AcDbCircle
 62
7
  6
CONTINUOUS
 10
12.1192949095
 20
4.8977695191
 40
1.0779575261
100
AcDbArc
 50
351.6443186458
 51
3.2064845892
  0
ARC
  5
269
100
AcDbEntity
  8
0
100
AcDbCircle
 62
7
  6
CONTINUOUS
 10
11.0761547832
 20
6.8457171631
 40
0.5620113138
100
AcDbArc
 50
291.1910826387
 51
292.2069104658
  0
ARC
  5
26A
100
AcDbEntity
  8
0
100
AcDbCircle
 62
7
  6
CONTINUOUS
 10
11.0783346624
 20
6.8140217703
 40
0.52981766
100
AcDbArc
 50
292.2054844148
 51
293.284233737
  0
ARC
  5
26B
100
AcDbEntity
  8
0
100
AcDbCircle
 62
7
  6
CONTINUOUS
 10
11.0473546817
 20
6.4539629844
 40
0.4890427073
100
AcDbArc
 50
145.1044821318
 51
151.3090552304
  0
ARC
  5
26C
100
AcDbEntity
  8
0
100
AcDbCircle
 62
7
  6
CONTINUOUS
 10
11.0473624695
 20
7.1832260281
 40
0.437546564
100
AcDbArc
 50
158.5914271289
 51
163.3982250225
  0
ARC
  5
26D
100
AcDbEntity
  8
0
100
AcDbCircle
 62
7
  6
CONTINUOUS
 10
11.0473654011
 20
7.18326007
 40
0.4374492364
100
AcDbArc
 50
21.4087816768
 51
21.7155839628
  0
ARC
  5
26E
100
AcDbEntity
  8
0
100
AcDbCircle
 62
7
  6
CONTINUOUS
 10
11.2760837413
 20
6.5711763781
 40
0.2337422218
100
AcDbArc
 50
4.3869031146
 51
8.6266037609
  0
ARC
  5
26F
100
AcDbEntity
  8
0
100
AcDbCircle
 62
7
  6
CONTINUOUS
 10
11.2347953147
 20
7.2186967448
 40
0.2188029428
100
AcDbArc
 50
350.0120359435
 51
350.8124167262
  0
ARC
  5
270
100
AcDbEntity
  8
0
100
AcDbCircle
 62
7
  6
CONTINUOUS
 10
11.237954761
 20
7.2182551063
 40
0.2156135251
100
AcDbArc
 50
350.7942172996
 51
359.9892087155
  0
ARC
  5
271
100
AcDbEntity
  8
0
100
AcDbCircle
 62
7
  6
CONTINUOUS
 10
11.2379631651
 20
7.2860135677
 40
0.2156051181
100
AcDbArc
 50
0.0055114505
 51
7.5082958554
  0
ARC
  5
272
100
AcDbEntity
  8
0
100
AcDbCircle
 62
7
  6
CONTINUOUS
 10
11.2380026238
 20
7.2679283021
 40
0.2155656612
100
AcDbArc
 50
351.2329810127
 51
359.9907801036
  0
ARC
  5
273
100
AcDbEntity
  8
0
100
AcDbCircle
 62
7
  6
CONTINUOUS
 10
11.2383315411
 20
7.1834238736
 40
0.2152367413
100
AcDbArc
 50
0.0018275341
 51
4.6423993283
  0
ARC
  5
274
100
AcDbEntity
  8
0
100
AcDbCircle
 62
7
  6
CONTINUOUS
 10
11.2384381157
 20
7.2347632549
 40
0.2151301666
100
AcDbArc
 50
0.0015051767
 51
4.4196955531
  0
ARC
  5
275
100
AcDbEntity
  8
0
100
AcDbCircle
 62
7
  6
CONTINUOUS
 10
11.2384983432
 20
7.2860360097
 40
0.215069939
100
AcDbArc
 50
355.1896593587
 51
359.999546499
  0
ARC
  5
276
100
AcDbEntity
  8
0
100
AcDbCircle
 62
7
  6
CONTINUOUS
 10
11.2385127322
 20
7.1834316298
 40
0.21505555
100
AcDbArc
 50
356.0142972097
 51
359.9997626557
  0
ARC
  5
277
100
AcDbEntity
  8
0
100
AcDbCircle
 62
7
  6
CONTINUOUS
 10
11.2385540499
 20
7.2347701518
 40
0.2150142323
100
AcDbArc
 50
355.6077456209
 51
359.9996681375
  0
ARC
  5
278
100
AcDbEntity
  8
0
100
AcDbCircle
 62
7
  6
CONTINUOUS
 10
11.0994922504
 20
15.6624003973
 40
4.5
100
AcDbArc
 50
254.4604045096
 51
263.5855182739
  0
ARC
  5
279
100
AcDbEntity
  8
0
100
AcDbCircle
 62
7
  6
CONTINUOUS
 10
14.2381506903
 20
11.3552519308
 40
0.2500109774
100
AcDbArc
 50
270.0192106228
 51
330.2635604814
  0
ARC
  5
27A
100
AcDbEntity
  8
0
100
AcDbCircle
 62
7
  6
CONTINUOUS
 10
14.6723183383
 20
11.6072409815
 40
0.25
100
AcDbArc
 50
270.0
 51
360.0
  0
ARC
  5
27B
100
AcDbEntity
  8
0
100
AcDbCircle
 62
7
  6
CONTINUOUS
 10
14.6723183383
 20
11.1072409815
 40
0.25
100
AcDbArc
 50
90.0
 51
150.2635604814
  0
ARC
  5
27C
100
AcDbEntity
  8
0
100
AcDbCircle
 62
7
  6
CONTINUOUS
 10
14.2383183383
 20
10.8552409815
 40
0.25
100
AcDbArc
 50
90.0192106228
 51
150.2642868924
  0
ARC
  5
27D
100
AcDbEntity
  8
0
100
AcDbCircle
 62
7
  6
CONTINUOUS
 10
13.8041570779
 20
11.1032409815
 40
0.25
100
AcDbArc
 50
270.0
 51
330.2642868924
  0
ARC
  5
27E
100
AcDbEntity
  8
0
100
AcDbCircle
 62
7
  6
CONTINUOUS
 10
12.0401822272
 20
10.8532409815
 40
0.1871361111
100
AcDbArc
 50
272.1854050713
 51
360.0
  0
ARC
  5
27F
100
AcDbEntity
  8
0
100
AcDbCircle
 62
7
  6
CONTINUOUS
 10
11.8603210121
 20
10.6652409815
 40
0.187
100
AcDbArc
 50
270.0
 51
0.3063960032
  0
ARC
  5
280
100
AcDbEntity
  8
0
100
AcDbCircle
 62
7
  6
CONTINUOUS
 10
12.1873183383
 20
11.3750677343
 40
0.05
100
AcDbArc
 50
285.5395954903
 51
360.0
  0
SPLINE
  5
281
100
AcDbEntity
  8
0
100
AcDbSpline
 62
7
  6
CONTINUOUS
 70
0
 71
3
 72
26
 73
22
 74
0
 42
0.0000001
 43
0.0000001
 44
0.0000000001
 40
0.0
 40
0.0
 40
0.0
 40
0.0
 40
0.0253240185
 40
0.0507140859
 40
0.0762351392
 40
0.1019498682
 40
0.1279177673
 40
0.1541942786
 40
0.1808299976
 40
0.2078703098
 40
0.2632922825
 40
0.3207319391
 40
0.3803374207
 40
0.4421643616
 40
0.5061838922
 40
0.5722920447
 40
0.6403201998
 40
0.7100451217
 40
0.7811990481
 40
0.85347967
 40
1.0
 40
1.0
 40
1.0
 40
1.0
 10
10.6410683402
 20
7.1435459954
 30
0.0
 10
10.6410683263
 20
7.1389742196
 30
0.0
 10
10.6413957893
 20
7.1298153968
 30
0.0
 10
10.6428669081
 20
7.1161203509
 30
0.0
 10
10.6453148456
 20
7.1024935612
 30
0.0
 10
10.6487332102
 20
7.0889701335
 30
0.0
 10
10.6531133414
 20
7.0755835912
 30
0.0
 10
10.6584444395
 20
7.0623676327
 30
0.0
 10
10.6647132009
 20
7.0493545345
 30
0.0
 10
10.6743780101
 20
7.0321805107
 30
0.0
 10
10.688800346
 20
7.011365665
 30
0.0
 10
10.7094028092
 20
6.9879383319
 30
0.0
 10
10.733243344
 20
6.9660715455
 30
0.0
 10
10.7600880469
 20
6.9459789304
 30
0.0
 10
10.7896786422
 20
6.9278537475
 30
0.0
 10
10.8217313878
 20
6.9118727277
 30
0.0
 10
10.855940263
 20
6.8981928891
 30
0.0
 10
10.8919774817
 20
6.886950451
 30
0.0
 10
10.929503183
 20
6.8782583472
 30
0.0
 10
10.9812492962
 20
6.8701558494
 30
0.0
 10
11.0208718642
 20
6.868203791
 30
0.0
 10
11.0473183383
 20
6.8687190447
 30
0.0
  0
SPLINE
  5
282
100
AcDbEntity
  8
0
100
AcDbSpline
 62
7
  6
CONTINUOUS
 70
0
 71
3
 72
14
 73
10
 74
0
 42
0.0000001
 43
0.0000001
 44
0.0000000001
 40
0.0
 40
0.0
 40
0.0
 40
0.0
 40
0.119539421
 40
0.2401527607
 40
0.3621155546
 40
0.4856813197
 40
0.6110748993
 40
0.7385014341
 40
1.0
 40
1.0
 40
1.0
 40
1.0
 10
10.6442166992
 20
7.1585674781
 30
0.0
 10
10.6450573645
 20
7.1539525512
 30
0.0
 10
10.6470784806
 20
7.1447384058
 30
0.0
 10
10.6510925334
 20
7.1310959748
 30
0.0
 10
10.6560899138
 20
7.1176131837
 30
0.0
 10
10.6620578597
 20
7.104326033
 30
0.0
 10
10.6689812843
 20
7.0912671015
 30
0.0
 10
10.679550158
 20
7.0740618758
 30
0.0
 10
10.6887378652
 20
7.0618157816
 30
0.0
 10
10.6953467171
 20
7.0539658238
 30
0.0
  0
SPLINE
  5
283
100
AcDbEntity
  8
0
100
AcDbSpline
 62
7
  6
CONTINUOUS
 70
0
 71
3
 72
25
 73
21
 74
0
 42
0.0000001
 43
0.0000001
 44
0.0000000001
 40
0.0
 40
0.0
 40
0.0
 40
0.0
 40
0.0252027852
 40
0.0506085776
 40
0.0762653451
 40
0.1022175682
 40
0.1551450066
 40
0.2096898234
 40
0.2660541079
 40
0.3243663231
 40
0.3542812368
 40
0.384698981
 40
0.4470129683
 40
0.511255613
 40
0.5773067764
 40
0.6450013456
 40
0.7141363176
 40
0.7844777039
 40
0.8557674277
 40
1.0
 40
1.0
 40
1.0
 40
1.0
 10
10.6443573696
 20
7.2075208083
 30
0.0
 10
10.6451355644
 20
7.2033421574
 30
0.0
 10
10.6469705072
 20
7.1949993978
 30
0.0
 10
10.6505287525
 20
7.182630734
 30
0.0
 10
10.6548958481
 20
7.1703889737
 30
0.0
 10
10.6618272429
 20
7.1541684641
 30
0.0
 10
10.6725254064
 20
7.1343082346
 30
0.0
 10
10.6883232514
 20
7.1115728419
 30
0.0
 10
10.7070329968
 20
7.0899558755
 30
0.0
 10
10.7247715286
 20
7.07316413
 30
0.0
 10
10.7402224885
 20
7.0604409776
 30
0.0
 10
10.7567704749
 20
7.0480202894
 30
0.0
 10
10.7789723005
 20
7.0335363234
 30
0.0
 10
10.8075676627
 20
7.0180557305
 30
0.0
 10
10.8381014494
 20
7.0044622588
 30
0.0
 10
10.8703258264
 20
6.9928708536
 30
0.0
 10
10.9039801093
 20
6.9833796278
 30
0.0
 10
10.9387957504
 20
6.976069993
 30
0.0
 10
10.9865525269
 20
6.9692947425
 30
0.0
 10
11.0229978853
 20
6.9677005251
 30
0.0
 10
11.0473183383
 20
6.9681751956
 30
0.0
  0
SPLINE
  5
284
100
AcDbEntity
  8
0
100
AcDbSpline
 62
7
  6
CONTINUOUS
 70
0
 71
3
 72
22
 73
18
 74
0
 42
0.0000001
 43
0.0000001
 44
0.0000000001
 40
0.0
 40
0.0
 40
0.0
 40
0.0
 40
0.0615560036
 40
0.1231198216
 40
0.1847032936
 40
0.246319119
 40
0.3079875169
 40
0.3697332204
 40
0.4315886628
 40
0.4935920461
 40
0.5557861967
 40
0.6182178267
 40
0.6809332797
 40
0.7439765634
 40
0.8073871825
 40
0.8711928483
 40
1.0
 40
1.0
 40
1.0
 40
1.0
 10
11.4998183383
 20
6.909271898
 30
0.0
 10
11.4998183383
 20
6.9001591113
 30
0.0
 10
11.499039148
 20
6.8819228174
 30
0.0
 10
11.4955458653
 20
6.8547716884
 30
0.0
 10
11.4897668665
 20
6.8280031273
 30
0.0
 10
11.4817640835
 20
6.8017984975
 30
0.0
 10
11.471619882
 20
6.7763212476
 30
0.0
 10
11.4594326803
 20
6.7517174677
 30
0.0
 10
11.4453124666
 20
6.7281135212
 30
0.0
 10
11.4293766784
 20
6.7056156215
 30
0.0
 10
11.411745813
 20
6.6843109669
 30
0.0
 10
11.3925407562
 20
6.6642694871
 30
0.0
 10
11.3718800333
 20
6.6455464435
 30
0.0
 10
11.3498796755
 20
6.6281854232
 30
0.0
 10
11.3266496424
 20
6.6122202545
 30
0.0
 10
11.2940939777
 20
6.592777125
 30
0.0
 10
11.268279832
 20
6.5804524959
 30
0.0
 10
11.2506256592
 20
6.57324521
 30
0.0
  0
SPLINE
  5
285
100
AcDbEntity
  8
0
100
AcDbSpline
 62
7
  6
CONTINUOUS
 70
0
 71
3
 72
29
 73
25
 74
0
 42
0.0000001
 43
0.0000001
 44
0.0000000001
 40
0.0
 40
0.0
 40
0.0
 40
0.0
 40
0.0654533296
 40
0.1307389728
 40
0.1957058829
 40
0.2602285233
 40
0.3242158096
 40
0.3876165733
 40
0.4504243694
 40
0.5126704262
 40
0.5744201214
 40
0.6357607631
 40
0.6663177888
 40
0.6968082953
 40
0.7272434765
 40
0.7576339954
 40
0.7879889599
 40
0.818316137
 40
0.8486220827
 40
0.878912408
 40
0.9091923858
 40
0.9394657865
 40
0.9697319695
 40
1.0
 40
1.0
 40
1.0
 40
1.0
 10
11.046378511
 20
6.5342429629
 30
0.0
 10
11.032165325
 20
6.5342667213
 30
0.0
 10
11.0037652886
 20
6.5353910954
 30
0.0
 10
10.9615127672
 20
6.5403037094
 30
0.0
 10
10.9199595321
 20
6.54842214
 30
0.0
 10
10.8794459913
 20
6.5597159168
 30
0.0
 10
10.8402997595
 20
6.5741455713
 30
0.0
 10
10.8028419321
 20
6.5916642326
 30
0.0
 10
10.767390628
 20
6.6122165924
 30
0.0
 10
10.7342663438
 20
6.6357362082
 30
0.0
 10
10.7038019817
 20
6.6621328796
 30
0.0
 10
10.6808813917
 20
6.6864688346
 30
0.0
 10
10.6642507172
 20
6.707212707
 30
0.0
 10
10.6526764016
 20
6.7233707874
 30
0.0
 10
10.642032807
 20
6.7401135967
 30
0.0
 10
10.6323642452
 20
6.7574046312
 30
0.0
 10
10.623713906
 20
6.7752011527
 30
0.0
 10
10.6161225198
 20
6.7934549873
 30
0.0
 10
10.6096284883
 20
6.8121128509
 30
0.0
 10
10.6042652519
 20
6.8311162561
 30
0.0
 10
10.6000618428
 20
6.8504023333
 30
0.0
 10
10.5970424667
 20
6.8699039242
 30
0.0
 10
10.5952233138
 20
6.8895505719
 30
0.0
 10
10.5948183383
 20
6.9026991881
 30
0.0
 10
10.5948183383
 20
6.909271898
 30
0.0
  0
SPLINE
  5
286
100
AcDbEntity
  8
0
100
AcDbSpline
 62
7
  6
CONTINUOUS
 70
0
 71
3
 72
13
 73
9
 74
0
 42
0.0000001
 43
0.0000001
 44
0.0000000001
 40
0.0
 40
0.0
 40
0.0
 40
0.0
 40
0.1277957886
 40
0.255310489
 40
0.4454499066
 40
0.6334816334
 40
0.8185790699
 40
1.0
 40
1.0
 40
1.0
 40
1.0
 10
11.048336345
 20
6.5342430849
 30
0.0
 10
11.056960437
 20
6.5342586781
 30
0.0
 10
11.0741917736
 20
6.5346864423
 30
0.0
 10
11.1041858484
 20
6.5368176921
 30
0.0
 10
11.1380578153
 20
6.5412066004
 30
0.0
 10
11.1753459669
 20
6.5487517321
 30
0.0
 10
11.211420728
 20
6.5588270755
 30
0.0
 10
11.2347016362
 20
6.5672656128
 30
0.0
 10
11.2460363757
 20
6.5718930008
 30
0.0
  0
SPLINE
  5
287
100
AcDbEntity
  8
0
100
AcDbSpline
 62
7
  6
CONTINUOUS
 70
0
 71
3
 72
11
 73
7
 74
0
 42
0.0000001
 43
0.0000001
 44
0.0000000001
 40
0.0
 40
0.0
 40
0.0
 40
0.0
 40
0.2470634912
 40
0.4965271273
 40
0.747783925
 40
1.0
 40
1.0
 40
1.0
 40
1.0
 10
11.2506256592
 20
6.57324521
 30
0.0
 10
11.2348270767
 20
6.5667954657
 30
0.0
 10
11.2023835851
 20
6.5554700277
 30
0.0
 10
11.1521061509
 20
6.5433146556
 30
0.0
 10
11.1005496653
 20
6.535954201
 30
0.0
 10
11.0657566195
 20
6.534274652
 30
0.0
 10
11.048336345
 20
6.5342430996
 30
0.0
  0
SPLINE
  5
288
100
AcDbEntity
  8
0
100
AcDbSpline
 62
7
  6
CONTINUOUS
 70
0
 71
3
 72
15
 73
11
 74
0
 42
0.0000001
 43
0.0000001
 44
0.0000000001
 40
0.0
 40
0.0
 40
0.0
 40
0.0
 40
0.1211615122
 40
0.2427131108
 40
0.3650361109
 40
0.4884948475
 40
0.6134292388
 40
0.7401487539
 40
0.8689273403
 40
1.0
 40
1.0
 40
1.0
 40
1.0
 10
11.4998182951
 20
7.1370506854
 30
0.0
 10
11.499818325
 20
7.1431194144
 30
0.0
 10
11.4993281973
 20
7.1552820527
 30
0.0
 10
11.4971267586
 20
7.1734516136
 30
0.0
 10
11.4934658717
 20
7.1915024646
 30
0.0
 10
11.4883582881
 20
7.2093738563
 30
0.0
 10
11.4818214982
 20
7.2270077821
 30
0.0
 10
11.4738772188
 20
7.2443469296
 30
0.0
 10
11.4645527709
 20
7.2613342166
 30
0.0
 10
11.4575013327
 20
7.2722882987
 30
0.0
 10
11.4537653763
 20
7.2776868103
 30
0.0
  0
SPLINE
  5
289
100
AcDbEntity
  8
0
100
AcDbSpline
 62
7
  6
CONTINUOUS
 70
0
 71
3
 72
15
 73
11
 74
0
 42
0.0000001
 43
0.0000001
 44
0.0000000001
 40
0.0
 40
0.0
 40
0.0
 40
0.0
 40
0.1211073849
 40
0.2426107813
 40
0.364897039
 40
0.4883355753
 40
0.6132708621
 40
0.7400157157
 40
0.8688465054
 40
1.0
 40
1.0
 40
1.0
 40
1.0
 10
10.5948183815
 20
7.1370506854
 30
0.0
 10
10.5948184116
 20
7.143166644
 30
0.0
 10
10.5953160378
 20
7.1554243404
 30
0.0
 10
10.5975521402
 20
7.1737346929
 30
0.0
 10
10.6012701379
 20
7.1919235286
 30
0.0
 10
10.6064570803
 20
7.209928686
 30
0.0
 10
10.6130951671
 20
7.2276907115
 30
0.0
 10
10.6211617179
 20
7.2451510524
 30
0.0
 10
10.6306284562
 20
7.2622514397
 30
0.0
 10
10.6377860827
 20
7.2732727512
 30
0.0
 10
10.6415778573
 20
7.2787032593
 30
0.0
  0
SPLINE
  5
28A
100
AcDbEntity
  8
0
100
AcDbSpline
 62
7
  6
CONTINUOUS
 70
0
 71
3
 72
21
 73
17
 74
0
 42
0.0000001
 43
0.0000001
 44
0.0000000001
 40
0.0
 40
0.0
 40
0.0
 40
0.0
 40
0.0554312148
 40
0.1110880321
 40
0.1671896965
 40
0.2239431172
 40
0.2815377411
 40
0.3401414715
 40
0.3998975498
 40
0.4609228936
 40
0.5233071806
 40
0.58711286
 40
0.7190393707
 40
0.7872246345
 40
0.8568278075
 40
1.0
 40
1.0
 40
1.0
 40
1.0
 10
11.5098183383
 20
6.6067205995
 30
0.0
 10
11.5098183383
 20
6.5997409571
 30
0.0
 10
11.5091835268
 20
6.5857450569
 30
0.0
 10
11.5063331066
 20
6.5648599839
 30
0.0
 10
11.5015964784
 20
6.5441484522
 30
0.0
 10
11.4949944427
 20
6.5236989385
 30
0.0
 10
11.4865556534
 20
6.5035954514
 30
0.0
 10
11.4763163747
 20
6.4839208654
 30
0.0
 10
11.4643201635
 20
6.4647554699
 30
0.0
 10
11.450617808
 20
6.4461774624
 30
0.0
 10
11.4352655362
 20
6.428261255
 30
0.0
 10
11.412434139
 20
6.4051011874
 30
0.0
 10
11.3867534541
 20
6.3838408055
 30
0.0
 10
11.3587329084
 20
6.3646266091
 30
0.0
 10
11.3284237605
 20
6.3463496338
 30
0.0
 10
11.3043269808
 20
6.3344813957
 30
0.0
 10
11.2877677453
 20
6.3273550089
 30
0.0
  0
SPLINE
  5
28B
100
AcDbEntity
  8
0
100
AcDbSpline
 62
7
  6
CONTINUOUS
 70
0
 71
3
 72
21
 73
17
 74
0
 42
0.0000001
 43
0.0000001
 44
0.0000000001
 40
0.0
 40
0.0
 40
0.0
 40
0.0
 40
0.0552266317
 40
0.1106882439
 40
0.16661287
 40
0.2232151743
 40
0.2806908359
 40
0.3392122553
 40
0.3989253796
 40
0.4599478627
 40
0.5223683293
 40
0.5862464221
 40
0.7184063054
 40
0.7867418665
 40
0.8565069269
 40
1.0
 40
1.0
 40
1.0
 40
1.0
 10
11.6223182974
 20
5.9561823608
 30
0.0
 10
11.6223182626
 20
5.9473088594
 30
0.0
 10
11.6214928994
 20
5.9295131907
 30
0.0
 10
11.6177868192
 20
5.9029644101
 30
0.0
 10
11.6116291413
 20
5.8766465514
 30
0.0
 10
11.6030481872
 20
5.8506772393
 30
0.0
 10
11.5920830682
 20
5.8251680058
 30
0.0
 10
11.5787831623
 20
5.8002287207
 30
0.0
 10
11.5632075648
 20
5.7759657556
 30
0.0
 10
11.5454251734
 20
5.7524825329
 30
0.0
 10
11.5255122952
 20
5.7298773594
 30
0.0
 10
11.4959102578
 20
5.7007133602
 30
0.0
 10
11.4626550744
 20
5.6740584286
 30
0.0
 10
11.4264195943
 20
5.6500950958
 30
0.0
 10
11.3872555258
 20
5.6273975256
 30
0.0
 10
11.3561637241
 20
5.6127824275
 30
0.0
 10
11.3348183383
 20
5.6040682103
 30
0.0
  0
SPLINE
  5
28C
100
AcDbEntity
  8
0
100
AcDbSpline
 62
7
  6
CONTINUOUS
 70
0
 71
3
 72
21
 73
17
 74
0
 42
0.0000001
 43
0.0000001
 44
0.0000000001
 40
0.0
 40
0.0
 40
0.0
 40
0.0
 40
0.0587070076
 40
0.1175169832
 40
0.1765316276
 40
0.2358501716
 40
0.2955681682
 40
0.3557766317
 40
0.4165607383
 40
0.4779995292
 40
0.540164833
 40
0.6031211618
 40
0.6669248642
 40
0.7316246228
 40
0.8638297057
 40
1.0
 40
1.0
 40
1.0
 40
1.0
 10
10.4723183724
 20
6.6208627351
 30
0.0
 10
10.4723184
 20
6.6265473336
 30
0.0
 10
10.4726561594
 20
6.637929383
 30
0.0
 10
10.474175167
 20
6.654964818
 30
0.0
 10
10.4767034903
 20
6.6719403215
 30
0.0
 10
10.4802369908
 20
6.6888249083
 30
0.0
 10
10.4847687402
 20
6.7055889917
 30
0.0
 10
10.4902910899
 20
6.7222026989
 30
0.0
 10
10.4967935244
 20
6.7386368972
 30
0.0
 10
10.5042648468
 20
6.7548624049
 30
0.0
 10
10.512691266
 20
6.770850887
 30
0.0
 10
10.5220579658
 20
6.7865740079
 30
0.0
 10
10.5323482811
 20
6.802004591
 30
0.0
 10
10.5473817261
 20
6.822295519
 30
0.0
 10
10.5684447866
 20
6.8467851137
 30
0.0
 10
10.5871331477
 20
6.8648969799
 30
0.0
 10
10.5969792432
 20
6.8736667183
 30
0.0
  0
LINE
  5
28D
100
AcDbEntity
  8
0
100
AcDbLine
 62
7
  6
CONTINUOUS
 10
11.4546305879
 20
7.3429375638
 11
11.4547370028
 21
7.3426658809
  0
SPLINE
  5
28E
100
AcDbEntity
  8
0
100
AcDbSpline
 62
7
  6
CONTINUOUS
 70
0
 71
3
 72
18
 73
14
 74
0
 42
0.0000001
 43
0.0000001
 44
0.0000000001
 40
0.0
 40
0.0
 40
0.0
 40
0.0
 40
0.1859610652
 40
0.3578230118
 40
0.5136657654
 40
0.6517551014
 40
0.7705697201
 40
0.8223390886
 40
0.8688253763
 40
0.9099165653
 40
0.9455189434
 40
0.9755596678
 40
1.0
 40
1.0
 40
1.0
 40
1.0
 10
10.6232129409
 20
7.2479882767
 30
0.0
 10
10.6233379766
 20
7.2517376158
 30
0.0
 10
10.623606483
 20
7.2589511472
 30
0.0
 10
10.6240870942
 20
7.2693024199
 30
0.0
 10
10.624625199
 20
7.2786837835
 30
0.0
 10
10.6252142608
 20
7.286989597
 30
0.0
 10
10.6257626647
 20
7.2931928565
 30
0.0
 10
10.6262321046
 20
7.2975467467
 30
0.0
 10
10.6265761566
 20
7.3003368212
 30
0.0
 10
10.6269272734
 20
7.3027969912
 30
0.0
 10
10.6272841343
 20
7.3049207257
 30
0.0
 10
10.627645323
 20
7.3067020572
 30
0.0
 10
10.6279147243
 20
7.307768495
 30
0.0
 10
10.6280555925
 20
7.3082409815
 30
0.0
  0
SPLINE
  5
28F
100
AcDbEntity
  8
0
100
AcDbSpline
 62
7
  6
CONTINUOUS
 70
0
 71
3
 72
18
 73
14
 74
0
 42
0.0000001
 43
0.0000001
 44
0.0000000001
 40
0.0
 40
0.0
 40
0.0
 40
0.0
 40
0.0245219171
 40
0.05462419
 40
0.0902689214
 40
0.1313846993
 40
0.1778791637
 40
0.2296427166
 40
0.3484127334
 40
0.4864319225
 40
0.6422042285
 40
0.8140234555
 40
1.0
 40
1.0
 40
1.0
 40
1.0
 10
11.4665810841
 20
7.3082409815
 30
0.0
 10
11.4667207266
 20
7.3077726062
 30
0.0
 10
11.4669879436
 20
7.3067162961
 30
0.0
 10
11.4673464412
 20
7.3049528994
 30
0.0
 10
11.4677006889
 20
7.3028523333
 30
0.0
 10
11.4680492928
 20
7.3004204137
 30
0.0
 10
11.4683909731
 20
7.2976634939
 30
0.0
 10
11.4688572784
 20
7.2933629634
 30
0.0
 10
11.4694024535
 20
7.2872368465
 30
0.0
 10
11.4699887085
 20
7.2790346989
 30
0.0
 10
11.4705250467
 20
7.2697698334
 30
0.0
 10
11.4710050525
 20
7.2595449573
 30
0.0
 10
11.4712739249
 20
7.2524186601
 30
0.0
 10
11.4713993478
 20
7.2487140647
 30
0.0
  0
SPLINE
  5
290
100
AcDbEntity
  8
0
100
AcDbSpline
 62
7
  6
CONTINUOUS
 70
0
 71
3
 72
35
 73
31
 74
0
 42
0.0000001
 43
0.0000001
 44
0.0000000001
 40
0.0
 40
0.0
 40
0.0
 40
0.0
 40
0.0619984221
 40
0.0939824959
 40
0.126562087
 40
0.1932664602
 40
0.227290114
 40
0.2616567791
 40
0.3310777222
 40
0.3659863792
 40
0.4009038041
 40
0.4703918175
 40
0.5048112635
 40
0.538895269
 40
0.605720486
 40
0.6383440511
 40
0.6703502657
 40
0.7016873785
 40
0.7323137231
 40
0.7621989727
 40
0.7913255055
 40
0.8196898447
 40
0.8473037061
 40
0.8741951471
 40
0.8873864269
 40
0.9004155133
 40
0.9260149813
 40
0.9510793824
 40
0.9757044744
 40
1.0
 40
1.0
 40
1.0
 40
1.0
 10
11.3431286757
 20
7.1147744769
 30
0.0
 10
11.3296669961
 20
7.1042796498
 30
0.0
 10
11.3081329417
 20
7.0897636752
 30
0.0
 10
11.2775624699
 20
7.0730152355
 30
0.0
 10
11.2448734656
 20
7.0575581232
 30
0.0
 10
11.2103767839
 20
7.0447679904
 30
0.0
 10
11.1745653603
 20
7.0346733142
 30
0.0
 10
11.1375409428
 20
7.0263134799
 30
0.0
 10
11.0996754501
 20
7.0208062566
 30
0.0
 10
11.0614170242
 20
7.0181591583
 30
0.0
 10
11.0230554257
 20
7.0174331382
 30
0.0
 10
10.9848177805
 20
7.0195795459
 30
0.0
 10
10.9471458227
 20
7.0246038302
 30
0.0
 10
10.9105060983
 20
7.0314337709
 30
0.0
 10
10.8749211018
 20
7.04100585
 30
0.0
 10
10.8408703968
 20
7.0533151374
 30
0.0
 10
10.8165672457
 20
7.0637212018
 30
0.0
 10
10.7934228008
 20
7.0753182926
 30
0.0
 10
10.7715520984
 20
7.088046436
 30
0.0
 10
10.7510652744
 20
7.1018396425
 30
0.0
 10
10.7320653858
 20
7.116626794
 30
0.0
 10
10.7146480882
 20
7.1323321734
 30
0.0
 10
10.6989022249
 20
7.1488743944
 30
0.0
 10
10.6871638602
 20
7.1633814141
 30
0.0
 10
10.6787085094
 20
7.1753164853
 30
0.0
 10
10.6709717425
 20
7.1873078941
 30
0.0
 10
10.6624494559
 20
7.2026631723
 30
0.0
 10
10.6541053495
 20
7.2216717545
 30
0.0
 10
10.6477469369
 20
7.2410561731
 30
0.0
 10
10.6448393294
 20
7.2542350023
 30
0.0
 10
10.643734531
 20
7.260832104
 30
0.0
  0
SPLINE
  5
291
100
AcDbEntity
  8
0
100
AcDbSpline
 62
7
  6
CONTINUOUS
 70
0
 71
3
 72
17
 73
13
 74
0
 42
0.0000001
 43
0.0000001
 44
0.0000000001
 40
0.0
 40
0.0
 40
0.0
 40
0.0
 40
0.0580936815
 40
0.116462871
 40
0.1751926514
 40
0.2343638586
 40
0.3542873542
 40
0.4768149738
 40
0.6023817507
 40
0.731310671
 40
0.8638164893
 40
1.0
 40
1.0
 40
1.0
 40
1.0
 10
11.4449642643
 20
7.2837335345
 30
0.0
 10
11.4445083576
 20
7.2798424024
 30
0.0
 10
11.4433733155
 20
7.2720657943
 30
0.0
 10
11.4410135403
 20
7.2604832655
 30
0.0
 10
11.4379980208
 20
7.2489781949
 30
0.0
 10
11.4330899991
 20
7.233702175
 30
0.0
 10
11.4253092472
 20
7.2148635243
 30
0.0
 10
11.4135079198
 20
7.1929841566
 30
0.0
 10
11.3992847921
 20
7.1718618163
 30
0.0
 10
11.3827408833
 20
7.1516304339
 30
0.0
 10
11.3639920339
 20
7.1324163165
 30
0.0
 10
11.3502910563
 20
7.1205230689
 30
0.0
 10
11.3431286757
 20
7.1147744769
 30
0.0
  0
SPLINE
  5
292
100
AcDbEntity
  8
0
100
AcDbSpline
 62
7
  6
CONTINUOUS
 70
0
 71
3
 72
11
 73
7
 74
0
 42
0.0000001
 43
0.0000001
 44
0.0000000001
 40
0.0
 40
0.0
 40
0.0
 40
0.0
 40
0.2455659975
 40
0.4929683975
 40
0.7439316989
 40
1.0
 40
1.0
 40
1.0
 40
1.0
 10
11.4535680927
 20
7.3421853913
 30
0.0
 10
11.4535552053
 20
7.3338975289
 30
0.0
 10
11.4525066439
 20
7.3172438382
 30
0.0
 10
11.4478848665
 20
7.2925055632
 30
0.0
 10
11.4402533738
 20
7.2681545819
 30
0.0
 10
11.4332793717
 20
7.252481642
 30
0.0
 10
11.4293433939
 20
7.2447876262
 30
0.0
  0
SPLINE
  5
293
100
AcDbEntity
  8
0
100
AcDbSpline
 62
7
  6
CONTINUOUS
 70
0
 71
3
 72
21
 73
17
 74
0
 42
0.0000001
 43
0.0000001
 44
0.0000000001
 40
0.0
 40
0.0
 40
0.0
 40
0.0
 40
0.0525037492
 40
0.1063084814
 40
0.1615376145
 40
0.2182733314
 40
0.3363119275
 40
0.3976704923
 40
0.4604873847
 40
0.5246708058
 40
0.590103775
 40
0.6566474349
 40
0.72414438
 40
0.7924223157
 40
0.861295734
 40
1.0
 40
1.0
 40
1.0
 40
1.0
 10
11.4293433939
 20
7.2447876262
 30
0.0
 10
11.4257811191
 20
7.2378241219
 30
0.0
 10
11.4178719965
 20
7.2240703907
 30
0.0
 10
11.4039802087
 20
7.2043822948
 30
0.0
 10
11.3880050063
 20
7.1855079917
 30
0.0
 10
11.363745798
 20
7.1612650576
 30
0.0
 10
11.3359450925
 20
7.1394525846
 30
0.0
 10
11.3053615427
 20
7.120269124
 30
0.0
 10
11.2806166716
 20
7.106988345
 30
0.0
 10
11.2545164316
 20
7.0950850676
 30
0.0
 10
11.2272097772
 20
7.0846256235
 30
0.0
 10
11.1988562731
 20
7.0756709713
 30
0.0
 10
11.1696211846
 20
7.0682726783
 30
0.0
 10
11.1396726672
 20
7.0624734606
 30
0.0
 10
11.0989415011
 20
7.0569063686
 30
0.0
 10
11.0679818878
 20
7.0552391163
 30
0.0
 10
11.0473183383
 20
7.0552391163
 30
0.0
  0
SPLINE
  5
294
100
AcDbEntity
  8
0
100
AcDbSpline
 62
7
  6
CONTINUOUS
 70
0
 71
3
 72
25
 73
21
 74
0
 42
0.0000001
 43
0.0000001
 44
0.0000000001
 40
0.0
 40
0.0
 40
0.0
 40
0.0
 40
0.1430919014
 40
0.2139337163
 40
0.2839022518
 40
0.3527366217
 40
0.4202013556
 40
0.4860936983
 40
0.5502507192
 40
0.6125562958
 40
0.6729486144
 40
0.7314267689
 40
0.788057102
 40
0.8429773495
 40
0.8698704163
 40
0.8964209875
 40
0.9226665055
 40
0.9486480706
 40
0.9744098792
 40
1.0
 40
1.0
 40
1.0
 40
1.0
 10
11.0473183383
 20
7.0552391163
 30
0.0
 10
11.0226106991
 20
7.0552391163
 30
0.0
 10
10.9856091188
 20
7.057619942
 30
0.0
 10
10.9372125744
 20
7.0655751943
 30
0.0
 10
10.9019371226
 20
7.0738342629
 30
0.0
 10
10.8678741211
 20
7.084335276
 30
0.0
 10
10.8353033262
 20
7.0969922553
 30
0.0
 10
10.8044965474
 20
7.1117011158
 30
0.0
 10
10.7757099359
 20
7.128341381
 30
0.0
 10
10.7491834447
 20
7.1467771649
 30
0.0
 10
10.7251389823
 20
7.1668580466
 30
0.0
 10
10.70377851
 20
7.1884213784
 30
0.0
 10
10.685284743
 20
7.2112890207
 30
0.0
 10
10.6723011483
 20
7.2314248924
 30
0.0
 10
10.663544492
 20
7.2479706312
 30
0.0
 10
10.6578258631
 20
7.2604950655
 30
0.0
 10
10.652923762
 20
7.2731923633
 30
0.0
 10
10.6488489439
 20
7.2860365236
 30
0.0
 10
10.645609798
 20
7.2989994576
 30
0.0
 10
10.6440079349
 20
7.3077277156
 30
0.0
 10
10.6433502086
 20
7.3120971284
 30
0.0
  0
SPLINE
  5
295
100
AcDbEntity
  8
0
100
AcDbSpline
 62
7
  6
CONTINUOUS
 70
0
 71
3
 72
41
 73
37
 74
0
 42
0.0000001
 43
0.0000001
 44
0.0000000001
 40
0.0
 40
0.0
 40
0.0
 40
0.0
 40
0.0125790251
 40
0.0252172367
 40
0.0379249425
 40
0.0507116793
 40
0.0635862485
 40
0.0765568724
 40
0.102810869
 40
0.1295314165
 40
0.1567596049
 40
0.1845255589
 40
0.2128491593
 40
0.2417409874
 40
0.2712033044
 40
0.3012309364
 40
0.3318119956
 40
0.3629284234
 40
0.394556397
 40
0.4266666599
 40
0.4592248212
 40
0.4921916753
 40
0.5255235678
 40
0.5591728215
 40
0.5930882255
 40
0.6272155819
 40
0.6614982996
 40
0.6958780255
 40
0.7302953051
 40
0.7646902567
 40
0.7990032532
 40
0.8331755966
 40
0.8671501922
 40
0.9008721498
 40
0.9342895314
 40
1.0
 40
1.0
 40
1.0
 40
1.0
 10
8.9090516785
 20
4.7411577011
 30
0.0
 10
8.911388775
 20
4.7252041059
 30
0.0
 10
8.9167650799
 20
4.6933188199
 30
0.0
 10
8.9268934516
 20
4.6457589491
 30
0.0
 10
8.939095633
 20
4.5984126495
 30
0.0
 10
8.953360743
 20
4.5513305566
 30
0.0
 10
8.9696770432
 20
4.504561756
 30
0.0
 10
8.9942404163
 20
4.4424456488
 30
0.0
 10
9.0300802606
 20
4.3657830629
 30
0.0
 10
9.080797679
 20
4.2762475415
 30
0.0
 10
9.1391786993
 20
4.1891688411
 30
0.0
 10
9.2049584756
 20
4.1049210065
 30
0.0
 10
9.2778409531
 20
4.0238526963
 30
0.0
 10
9.3575013864
 20
3.946291432
 30
0.0
 10
9.4435920405
 20
3.8725399723
 30
0.0
 10
9.5357463879
 20
3.802876499
 30
0.0
 10
9.6335825994
 20
3.7375550829
 30
0.0
 10
9.7367059128
 20
3.6768069412
 30
0.0
 10
9.8447100993
 20
3.6208418824
 30
0.0
 10
9.9571782097
 20
3.5698496474
 30
0.0
 10
10.073682923
 20
3.5240009622
 30
0.0
 10
10.1937867509
 20
3.4834482204
 30
0.0
 10
10.3170423152
 20
3.4483258031
 30
0.0
 10
10.442992833
 20
3.4187500949
 30
0.0
 10
10.5711728767
 20
3.394819286
 30
0.0
 10
10.7011094264
 20
3.3766130504
 30
0.0
 10
10.8323231907
 20
3.3641921863
 30
0.0
 10
10.9643301602
 20
3.3575982746
 30
0.0
 10
11.0966433121
 20
3.3568534193
 30
0.0
 10
11.2287745064
 20
3.3619601294
 30
0.0
 10
11.3602361026
 20
3.3729012263
 30
0.0
 10
11.4905437384
 20
3.3896402353
 30
0.0
 10
11.6192146181
 20
3.412120571
 30
0.0
 10
11.7457819129
 20
3.4402697797
 30
0.0
 10
11.9101379431
 20
3.4849698367
 30
0.0
 10
12.0303197505
 20
3.5270345888
 30
0.0
 10
12.1082998162
 20
3.5588697688
 30
0.0
  0
SPLINE
  5
296
100
AcDbEntity
  8
0
100
AcDbSpline
 62
7
  6
CONTINUOUS
 70
0
 71
3
 72
26
 73
22
 74
0
 42
0.0000001
 43
0.0000001
 44
0.0000000001
 40
0.0
 40
0.0
 40
0.0
 40
0.0
 40
0.14031971
 40
0.20895811
 40
0.2764956155
 40
0.3428915093
 40
0.408116225
 40
0.4721524651
 40
0.5037269575
 40
0.5350040884
 40
0.5966662733
 40
0.6571741594
 40
0.6870133403
 40
0.7165827065
 40
0.7749386787
 40
0.8323380053
 40
0.8888886442
 40
0.9168907088
 40
0.9447302618
 40
0.9724264866
 40
1.0
 40
1.0
 40
1.0
 40
1.0
 10
12.1082998182
 20
3.5588697694
 30
0.0
 10
12.1807196422
 20
3.5884350788
 30
0.0
 10
12.2865923509
 20
3.6376181978
 30
0.0
 10
12.421002929
 20
3.7131620117
 30
0.0
 10
12.516430795
 20
3.7736499965
 30
0.0
 10
12.6068458017
 20
3.8381778213
 30
0.0
 10
12.6919149338
 20
3.9065351553
 30
0.0
 10
12.758394499
 20
3.9667845109
 30
0.0
 10
12.8085454157
 20
4.0166817658
 30
0.0
 10
12.8561884816
 20
4.0671737271
 30
0.0
 10
12.911879064
 20
4.1321873482
 30
0.0
 10
12.9626125848
 20
4.2001491757
 30
0.0
 10
12.9997407097
 20
4.2557539517
 30
0.0
 10
13.034240374
 20
4.3116203246
 30
0.0
 10
13.0730597899
 20
4.3828171401
 30
0.0
 10
13.1126379244
 20
4.4704344637
 30
0.0
 10
13.1395810816
 20
4.5449335483
 30
0.0
 10
13.1573427695
 20
4.6050315225
 30
0.0
 10
13.1687457929
 20
4.6501964271
 30
0.0
 10
13.1782629027
 20
4.6955505713
 30
0.0
 10
13.1833567918
 20
4.7259475014
 30
0.0
 10
13.1855847935
 20
4.741156252
 30
0.0
  0
SPLINE
  5
297
100
AcDbEntity
  8
0
100
AcDbSpline
 62
7
  6
CONTINUOUS
 70
0
 71
3
 72
30
 73
26
 74
0
 42
0.0000001
 43
0.0000001
 44
0.0000000001
 40
0.0
 40
0.0
 40
0.0
 40
0.0
 40
0.0277600834
 40
0.0555495644
 40
0.0833936234
 40
0.1113201641
 40
0.1393562907
 40
0.1675277004
 40
0.1958593791
 40
0.2243753581
 40
0.2530984149
 40
0.2820500043
 40
0.3407050148
 40
0.4004953508
 40
0.4308590474
 40
0.4615476591
 40
0.5239285653
 40
0.5877100764
 40
0.6201422695
 40
0.6529352005
 40
0.7195943215
 40
0.7876798982
 40
0.8571528885
 40
0.9279523671
 40
1.0
 40
1.0
 40
1.0
 40
1.0
 10
9.4273183383
 20
5.4851550294
 30
0.0
 10
9.4273183383
 20
5.4977879704
 30
0.0
 10
9.4279030656
 20
5.5230711133
 30
0.0
 10
9.430531744
 20
5.5609432083
 30
0.0
 10
9.434909735
 20
5.598730157
 30
0.0
 10
9.4410310438
 20
5.6363874843
 30
0.0
 10
9.4488879735
 20
5.6738734122
 30
0.0
 10
9.4584709938
 20
5.7111458001
 30
0.0
 10
9.46976798
 20
5.7481631485
 30
0.0
 10
9.4827654276
 20
5.7848841944
 30
0.0
 10
9.4974475398
 20
5.8212694125
 30
0.0
 10
9.5193385484
 20
5.8694848784
 30
0.0
 10
9.5509077644
 20
5.9287610693
 30
0.0
 10
9.587499506
 20
5.9858310492
 30
0.0
 10
9.6198116752
 20
6.0303433871
 30
0.0
 10
9.6545140662
 20
6.0745284508
 30
0.0
 10
9.701711273
 20
6.1281660897
 30
0.0
 10
9.7531423327
 20
6.1788850548
 30
0.0
 10
9.7969731623
 20
6.2179560381
 30
0.0
 10
9.8430761693
 20
6.25639744
 30
0.0
 10
9.9039837703
 20
6.3023499428
 30
0.0
 10
9.9815297639
 20
6.3536687949
 30
0.0
 10
10.0636039056
 20
6.4012575184
 30
0.0
 10
10.1498517826
 20
6.4449186379
 30
0.0
 10
10.2094040638
 20
6.4710749578
 30
0.0
 10
10.2397590488
 20
6.4834673285
 30
0.0
  0
SPLINE
  5
298
100
AcDbEntity
  8
0
100
AcDbSpline
 62
7
  6
CONTINUOUS
 70
0
 71
3
 72
9
 73
5
 74
0
 42
0.0000001
 43
0.0000001
 44
0.0000000001
 40
0.0
 40
0.0
 40
0.0
 40
0.0
 40
0.2469240183
 40
1.0
 40
1.0
 40
1.0
 40
1.0
 10
10.2437272772
 20
6.4850820568
 30
0.0
 10
10.2621032562
 20
6.4925350272
 30
0.0
 10
10.3369978635
 20
6.5215372135
 30
0.0
 10
10.4136936529
 20
6.5458576458
 30
0.0
 10
10.4720862901
 20
6.5616008894
 30
0.0
  0
SPLINE
  5
299
100
AcDbEntity
  8
0
100
AcDbSpline
 62
7
  6
CONTINUOUS
 70
0
 71
3
 72
29
 73
25
 74
0
 42
0.0000001
 43
0.0000001
 44
0.0000000001
 40
0.0
 40
0.0
 40
0.0
 40
0.0
 40
0.0728196331
 40
0.1445080639
 40
0.2149170712
 40
0.283920636
 40
0.3514183442
 40
0.4173388108
 40
0.4816429738
 40
0.544327121
 40
0.6054255258
 40
0.6650124045
 40
0.6942809139
 40
0.7232181688
 40
0.7518448795
 40
0.7801841599
 40
0.8082614141
 40
0.8361041846
 40
0.863742021
 40
0.8912062754
 40
0.9185295616
 40
0.9457460224
 40
0.9728916877
 40
1.0
 40
1.0
 40
1.0
 40
1.0
 10
11.6224862501
 20
6.5616182105
 30
0.0
 10
11.6602302565
 20
6.5514434487
 30
0.0
 10
11.7345795009
 20
6.5291264136
 30
0.0
 10
11.843008119
 20
6.4895133023
 30
0.0
 10
11.94696296
 20
6.4442105098
 30
0.0
 10
12.0458548416
 20
6.3934660152
 30
0.0
 10
12.1391281906
 20
6.3375546691
 30
0.0
 10
12.226256137
 20
6.2767785629
 30
0.0
 10
12.3067441761
 20
6.2114656619
 30
0.0
 10
12.3801325282
 20
6.1419662059
 30
0.0
 10
12.4459927327
 20
6.0686598822
 30
0.0
 10
12.4945762169
 20
6.0043334153
 30
0.0
 10
12.5292043854
 20
5.9514017629
 30
0.0
 10
12.5529173889
 20
5.9112500517
 30
0.0
 10
12.5744868752
 20
5.8704710002
 30
0.0
 10
12.5938800743
 20
5.8291216779
 30
0.0
 10
12.6110661482
 20
5.7872614095
 30
0.0
 10
12.6260181696
 20
5.7449507744
 30
0.0
 10
12.6387118129
 20
5.7022513757
 30
0.0
 10
12.6491262477
 20
5.6592260778
 30
0.0
 10
12.6572447152
 20
5.6159389861
 30
0.0
 10
12.6630533588
 20
5.5724538222
 30
0.0
 10
12.6665422075
 20
5.5288382514
 30
0.0
 10
12.6673183383
 20
5.499707441
 30
0.0
 10
12.6673183383
 20
5.4851550294
 30
0.0
  0
SPLINE
  5
29A
100
AcDbEntity
  8
0
100
AcDbSpline
 62
7
  6
CONTINUOUS
 70
0
 71
3
 72
30
 73
26
 74
0
 42
0.0000001
 43
0.0000001
 44
0.0000000001
 40
0.0
 40
0.0
 40
0.0
 40
0.0
 40
0.0280965484
 40
0.0562177728
 40
0.08438727
 40
0.1126291538
 40
0.1409670044
 40
0.1694237033
 40
0.1980215761
 40
0.2267821481
 40
0.2557260241
 40
0.2848728248
 40
0.3438354351
 40
0.4038161918
 40
0.4342296537
 40
0.4649374374
 40
0.5272653125
 40
0.5908745351
 40
0.6231773946
 40
0.6558132208
 40
0.7220785154
 40
0.7896707864
 40
0.8585594563
 40
0.9286923537
 40
1.0
 40
1.0
 40
1.0
 40
1.0
 10
9.1423183383
 20
5.3277726261
 30
0.0
 10
9.1423183383
 20
5.3429742098
 30
0.0
 10
9.1430194555
 20
5.3733953738
 30
0.0
 10
9.14617167
 20
5.4189593303
 30
0.0
 10
9.1514199548
 20
5.4644097163
 30
0.0
 10
9.1587558907
 20
5.509688467
 30
0.0
 10
9.1681675989
 20
5.5547403148
 30
0.0
 10
9.1796410104
 20
5.5995102939
 30
0.0
 10
9.1931582257
 20
5.6439450363
 30
0.0
 10
9.2086992337
 20
5.687992133
 30
0.0
 10
9.2262419156
 20
5.7316016277
 30
0.0
 10
9.2523636995
 20
5.7893126631
 30
0.0
 10
9.289983655
 20
5.8601661954
 30
0.0
 10
9.3335585134
 20
5.928325052
 30
0.0
 10
9.3719889841
 20
5.9814098965
 30
0.0
 10
9.4131857396
 20
6.034001571
 30
0.0
 10
9.4691450901
 20
6.097759496
 30
0.0
 10
9.5300855049
 20
6.1579968511
 30
0.0
 10
9.5819629108
 20
6.2043384312
 30
0.0
 10
9.6364481286
 20
6.249860104
 30
0.0
 10
9.708363167
 20
6.30421722
 30
0.0
 10
9.7998519837
 20
6.3648568243
 30
0.0
 10
9.8965856805
 20
6.4210130245
 30
0.0
 10
9.9981496508
 20
6.4724687504
 30
0.0
 10
10.0682520622
 20
6.5032684945
 30
0.0
 10
10.1039710028
 20
6.5178506909
 30
0.0
  0
SPLINE
  5
29B
100
AcDbEntity
  8
0
100
AcDbSpline
 62
7
  6
CONTINUOUS
 70
0
 71
3
 72
10
 73
6
 74
0
 42
0.0000001
 43
0.0000001
 44
0.0000000001
 40
0.0
 40
0.0
 40
0.0
 40
0.0
 40
0.4949223807
 40
0.7463398163
 40
1.0
 40
1.0
 40
1.0
 40
1.0
 10
10.1039710028
 20
6.5178506909
 30
0.0
 10
10.1630200031
 20
6.5419573443
 30
0.0
 10
10.2537052958
 20
6.574449431
 30
0.0
 10
10.3774767014
 20
6.6104086002
 30
0.0
 10
10.4406840781
 20
6.6260405857
 30
0.0
 10
10.4725656492
 20
6.6332609578
 30
0.0
  0
SPLINE
  5
29C
100
AcDbEntity
  8
0
100
AcDbSpline
 62
7
  6
CONTINUOUS
 70
0
 71
3
 72
30
 73
26
 74
0
 42
0.0000001
 43
0.0000001
 44
0.0000000001
 40
0.0
 40
0.0
 40
0.0
 40
0.0
 40
0.0722211899
 40
0.1434368403
 40
0.2134839825
 40
0.2822229687
 40
0.3495413603
 40
0.4153576694
 40
0.4796248841
 40
0.542333505
 40
0.6035138784
 40
0.6335591093
 40
0.6632526836
 40
0.6926100213
 40
0.7216490253
 40
0.7503900196
 40
0.7788556217
 40
0.8070705875
 40
0.8350616703
 40
0.8628573881
 40
0.8904878398
 40
0.917984441
 40
0.945379642
 40
0.9727070342
 40
1.0
 40
1.0
 40
1.0
 40
1.0
 10
11.6220517475
 20
6.6332653363
 30
0.0
 10
11.6692384664
 20
6.6225791049
 30
0.0
 10
11.7623604355
 20
6.5986132051
 30
0.0
 10
11.898543366
 20
6.554660003
 30
0.0
 10
12.0295652378
 20
6.5031667123
 30
0.0
 10
12.1546270779
 20
6.4444229309
 30
0.0
 10
12.2729727688
 20
6.3787537403
 30
0.0
 10
12.3838807253
 20
6.3065199098
 30
0.0
 10
12.4866703155
 20
6.2281135949
 30
0.0
 10
12.5806942889
 20
6.1439662651
 30
0.0
 10
12.6516788518
 20
6.068974875
 30
0.0
 10
12.7033785397
 20
6.0065841893
 30
0.0
 10
12.7393717666
 20
5.9589449571
 30
0.0
 10
12.7727486591
 20
5.9102526827
 30
0.0
 10
12.8034502276
 20
5.8605781283
 30
0.0
 10
12.8314192716
 20
5.8099959389
 30
0.0
 10
12.8566025657
 20
5.7585837474
 30
0.0
 10
12.8789506551
 20
5.7064224955
 30
0.0
 10
12.8984179173
 20
5.653596243
 30
0.0
 10
12.9149635285
 20
5.6001924292
 30
0.0
 10
12.9285520041
 20
5.5463016403
 30
0.0
 10
12.9391531276
 20
5.4920174846
 30
0.0
 10
12.9467428039
 20
5.4374351909
 30
0.0
 10
12.9513036965
 20
5.3826551845
 30
0.0
 10
12.9523183383
 20
5.3460564308
 30
0.0
 10
12.9523183383
 20
5.3277726261
 30
0.0
  0
SPLINE
  5
29D
100
AcDbEntity
  8
0
100
AcDbSpline
 62
7
  6
CONTINUOUS
 70
0
 71
3
 72
21
 73
17
 74
0
 42
0.0000001
 43
0.0000001
 44
0.0000000001
 40
0.0
 40
0.0
 40
0.0
 40
0.0
 40
0.0601455404
 40
0.1204028526
 40
0.1808183342
 40
0.2414398247
 40
0.3023138544
 40
0.3634850869
 40
0.4249968828
 40
0.4868907562
 40
0.5492062997
 40
0.6119808221
 40
0.6752493299
 40
0.7390443208
 40
0.8683075654
 40
1.0
 40
1.0
 40
1.0
 40
1.0
 10
8.8990731305
 20
4.9580644672
 30
0.0
 10
8.9000017228
 20
4.9746053955
 30
0.0
 10
8.9025978526
 20
5.0076812924
 30
0.0
 10
8.90869266
 20
5.0571285734
 30
0.0
 10
8.9169827452
 20
5.1063893221
 30
0.0
 10
8.9274556612
 20
5.1554058181
 30
0.0
 10
8.9400964921
 20
5.2041234046
 30
0.0
 10
8.9548879196
 20
5.2524878807
 30
0.0
 10
8.9718091618
 20
5.3004466507
 30
0.0
 10
8.9908381182
 20
5.3479481691
 30
0.0
 10
9.0119493286
 20
5.3949428103
 30
0.0
 10
9.0351161194
 20
5.4413818322
 30
0.0
 10
9.0603097631
 20
5.4872189828
 30
0.0
 10
9.0967179847
 20
5.5477304457
 30
0.0
 10
9.1472332585
 20
5.6216613926
 30
0.0
 10
9.1920858171
 20
5.6779210345
 30
0.0
 10
9.2156747877
 20
5.7054781481
 30
0.0
  0
SPLINE
  5
29E
100
AcDbEntity
  8
0
100
AcDbSpline
 62
7
  6
CONTINUOUS
 70
0
 71
3
 72
20
 73
16
 74
0
 42
0.0000001
 43
0.0000001
 44
0.0000000001
 40
0.0
 40
0.0
 40
0.0
 40
0.0
 40
0.1316941465
 40
0.2609595388
 40
0.3880013539
 40
0.4507773292
 40
0.5130944059
 40
0.574989914
 40
0.6365034198
 40
0.6976764359
 40
0.7585523222
 40
0.8191757316
 40
0.8795931511
 40
0.9398524233
 40
1.0
 40
1.0
 40
1.0
 40
1.0
 10
12.8790425715
 20
5.7053838584
 30
0.0
 10
12.9026255438
 20
5.6778293167
 30
0.0
 10
12.9474680157
 20
5.6215726157
 30
0.0
 10
13.0077992781
 20
5.5332651697
 30
0.0
 10
13.0517147644
 20
5.4570349992
 30
0.0
 10
13.0827151024
 20
5.3948837688
 30
0.0
 10
13.1038212305
 20
5.347894673
 30
0.0
 10
13.1228451523
 20
5.3003994692
 30
0.0
 10
13.1397620968
 20
5.2524470525
 30
0.0
 10
13.1545497799
 20
5.2040891273
 30
0.0
 10
13.1671874286
 20
5.1553782026
 30
0.0
 10
13.1776578179
 20
5.1063685004
 30
0.0
 10
13.1859459327
 20
5.0571146333
 30
0.0
 10
13.1920394383
 20
5.0076743033
 30
0.0
 10
13.1946350842
 20
4.9746030709
 30
0.0
 10
13.1955635461
 20
4.9580644672
 30
0.0
  0
SPLINE
  5
29F
100
AcDbEntity
  8
0
100
AcDbSpline
 62
7
  6
CONTINUOUS
 70
0
 71
3
 72
18
 73
14
 74
0
 42
0.0000001
 43
0.0000001
 44
0.0000000001
 40
0.0
 40
0.0
 40
0.0
 40
0.0
 40
0.053664652
 40
0.108677107
 40
0.1650612995
 40
0.2228258017
 40
0.3423483967
 40
0.4040643586
 40
0.4669726871
 40
0.5959546618
 40
0.728480153
 40
0.8635331387
 40
1.0
 40
1.0
 40
1.0
 40
1.0
 10
10.6953467171
 20
7.0539658238
 30
0.0
 10
10.6998293669
 20
7.0486440426
 30
0.0
 10
10.7093207906
 20
7.0382087558
 30
0.0
 10
10.7248290258
 20
7.0234363021
 30
0.0
 10
10.7417180907
 20
7.0094154658
 30
0.0
 10
10.7662513855
 20
6.9916087602
 30
0.0
 10
10.7930047156
 20
6.9757967479
 30
0.0
 10
10.8215282262
 20
6.9620410402
 30
0.0
 10
10.8518987001
 20
6.9493964146
 30
0.0
 10
10.8919750727
 20
6.936357246
 30
0.0
 10
10.9422872957
 20
6.925372333
 30
0.0
 10
10.9943754288
 20
6.919115612
 30
0.0
 10
11.0296275188
 20
6.918181456
 30
0.0
 10
11.0473183383
 20
6.9185277047
 30
0.0
  0
SPLINE
  5
2A0
100
AcDbEntity
  8
0
100
AcDbSpline
 62
7
  6
CONTINUOUS
 70
0
 71
3
 72
13
 73
9
 74
0
 42
0.0000001
 43
0.0000001
 44
0.0000000001
 40
0.0
 40
0.0
 40
0.0
 40
0.0
 40
0.2570925344
 40
0.3848573526
 40
0.5115270221
 40
0.6367211296
 40
0.7600894268
 40
1.0
 40
1.0
 40
1.0
 40
1.0
 10
11.0473183383
 20
6.8687190447
 30
0.0
 10
11.0692862467
 20
6.8691470431
 30
0.0
 10
11.1021772497
 20
6.8716726202
 30
0.0
 10
11.1453259289
 20
6.878805183
 30
0.0
 10
11.1769877178
 20
6.8859804012
 30
0.0
 10
11.2077995517
 20
6.8949498243
 30
0.0
 10
11.247095921
 20
6.9090890837
 30
0.0
 10
11.2752858958
 20
6.9223877407
 30
0.0
 10
11.293160489
 20
6.9324325559
 30
0.0
  0
SPLINE
  5
2A1
100
AcDbEntity
  8
0
100
AcDbSpline
 62
7
  6
CONTINUOUS
 70
0
 71
3
 72
19
 73
15
 74
0
 42
0.0000001
 43
0.0000001
 44
0.0000000001
 40
0.0
 40
0.0
 40
0.0
 40
0.0
 40
0.1403584632
 40
0.2758417264
 40
0.4063347441
 40
0.531994931
 40
0.5931779317
 40
0.6533480568
 40
0.7126087483
 40
0.7710807558
 40
0.8289006136
 40
0.886218517
 40
0.9431954512
 40
1.0
 40
1.0
 40
1.0
 40
1.0
 10
11.293160489
 20
6.9324325559
 30
0.0
 10
11.3053613963
 20
6.9392889838
 30
0.0
 10
11.3287030351
 20
6.9539443779
 30
0.0
 10
11.3606027468
 20
6.979053258
 30
0.0
 10
11.3883925038
 20
7.006616602
 30
0.0
 10
11.4079906638
 20
7.0315823359
 30
0.0
 10
11.4211735738
 20
7.0524071907
 30
0.0
 10
11.4297376978
 20
7.0682674638
 30
0.0
 10
11.4370345635
 20
7.0844532791
 30
0.0
 10
11.4430395153
 20
7.1009131773
 30
0.0
 10
11.4477317854
 20
7.1175935616
 30
0.0
 10
11.4510952908
 20
7.1344405689
 30
0.0
 10
11.4531180681
 20
7.1513978307
 30
0.0
 10
11.4535682822
 20
7.1627483447
 30
0.0
 10
11.4535682822
 20
7.1684124525
 30
0.0
  0
SPLINE
  5
2A2
100
AcDbEntity
  8
0
100
AcDbSpline
 62
7
  6
CONTINUOUS
 70
0
 71
3
 72
22
 73
18
 74
0
 42
0.0000001
 43
0.0000001
 44
0.0000000001
 40
0.0
 40
0.0
 40
0.0
 40
0.0
 40
0.1412692979
 40
0.2113623948
 40
0.2807080969
 40
0.3490563522
 40
0.4161810357
 40
0.4818864643
 40
0.5460137215
 40
0.6084471516
 40
0.6691205757
 40
0.7280235185
 40
0.785206167
 40
0.8407833909
 40
0.8949357585
 40
0.9479075562
 40
1.0
 40
1.0
 40
1.0
 40
1.0
 10
11.0473183383
 20
6.9185277047
 30
0.0
 10
11.0717005598
 20
6.919004919
 30
0.0
 10
11.1081938437
 20
6.9220389468
 30
0.0
 10
11.1558918051
 20
6.9307192408
 30
0.0
 10
11.1907096598
 20
6.9394610741
 30
0.0
 10
11.2243660877
 20
6.9503845556
 30
0.0
 10
11.2565924828
 20
6.9634086067
 30
0.0
 10
11.287127473
 20
6.9784348686
 30
0.0
 10
11.3157243086
 20
6.9953494499
 30
0.0
 10
11.3421512832
 20
7.0140236302
 30
0.0
 10
11.3661936936
 20
7.0343150397
 30
0.0
 10
11.3876551182
 20
7.0560685776
 30
0.0
 10
11.4063587129
 20
7.0791175838
 30
0.0
 10
11.4221481657
 20
7.1032839166
 30
0.0
 10
11.4348893783
 20
7.128380981
 30
0.0
 10
11.4444704751
 20
7.1542055012
 30
0.0
 10
11.448722475
 20
7.1718910014
 30
0.0
 10
11.4502821258
 20
7.1807472783
 30
0.0
  0
SPLINE
  5
2A3
100
AcDbEntity
  8
0
100
AcDbSpline
 62
7
  6
CONTINUOUS
 70
0
 71
3
 72
24
 73
20
 74
0
 42
0.0000001
 43
0.0000001
 44
0.0000000001
 40
0.0
 40
0.0
 40
0.0
 40
0.0
 40
0.1415144563
 40
0.2117158953
 40
0.2811517943
 40
0.349567125
 40
0.4167318641
 40
0.4824478188
 40
0.5465553684
 40
0.608940065
 40
0.669539355
 40
0.7283488041
 40
0.7854273268
 40
0.8409010679
 40
0.8949640332
 40
0.9215566414
 40
0.9478988898
 40
0.9740319868
 40
1.0
 40
1.0
 40
1.0
 40
1.0
 10
11.0473183383
 20
6.9681751956
 30
0.0
 10
11.0719671211
 20
6.9686562742
 30
0.0
 10
11.1088580653
 20
6.9717474825
 30
0.0
 10
11.1570549373
 20
6.9806068133
 30
0.0
 10
11.1922152964
 20
6.989530424
 30
0.0
 10
11.2261762525
 20
7.0006809918
 30
0.0
 10
11.2586608303
 20
7.0139738787
 30
0.0
 10
11.2893997775
 20
7.0293064593
 30
0.0
 10
11.3181392198
 20
7.046559954
 30
0.0
 10
11.3446411329
 20
7.0656001809
 30
0.0
 10
11.3686853763
 20
7.0862788663
 30
0.0
 10
11.3900709501
 20
7.1084343196
 30
0.0
 10
11.4086176652
 20
7.1318936972
 30
0.0
 10
11.4241658915
 20
7.1564692835
 30
0.0
 10
11.4345712112
 20
7.1778428026
 30
0.0
 10
11.4412313457
 20
7.1952623938
 30
0.0
 10
11.4453806852
 20
7.2084062576
 30
0.0
 10
11.448700672
 20
7.2216708008
 30
0.0
 10
11.4503614081
 20
7.23060117
 30
0.0
 10
11.4510496763
 20
7.2350724394
 30
0.0
  0
SPLINE
  5
2A4
100
AcDbEntity
  8
0
100
AcDbSpline
 62
7
  6
CONTINUOUS
 70
0
 71
3
 72
18
 73
14
 74
0
 42
0.0000001
 43
0.0000001
 44
0.0000000001
 40
0.0
 40
0.0
 40
0.0
 40
0.0
 40
0.1411547043
 40
0.2778118237
 40
0.4096172783
 40
0.5364229905
 40
0.6583302794
 40
0.717584576
 40
0.7757775514
 40
0.8329999832
 40
0.8893596634
 40
0.944980257
 40
1.0
 40
1.0
 40
1.0
 40
1.0
 10
11.2201279562
 20
6.4869480864
 30
0.0
 10
11.2311124456
 20
6.4914324854
 30
0.0
 10
11.252354226
 20
6.5012256356
 30
0.0
 10
11.2821474902
 20
6.5185888318
 30
0.0
 10
11.309041963
 20
6.5382041088
 30
0.0
 10
11.3326966405
 20
6.5598324067
 30
0.0
 10
11.3496257808
 20
6.5795132754
 30
0.0
 10
11.3611971296
 20
6.5959867785
 30
0.0
 10
11.3688161841
 20
6.6085505887
 30
0.0
 10
11.3754312791
 20
6.6213978109
 30
0.0
 10
11.3810216614
 20
6.6344891271
 30
0.0
 10
11.3855685866
 20
6.6477824682
 30
0.0
 10
11.3879058152
 20
6.6567948712
 30
0.0
 10
11.3888921074
 20
6.6613130986
 30
0.0
  0
SPLINE
  5
2A5
100
AcDbEntity
  8
0
100
AcDbSpline
 62
7
  6
CONTINUOUS
 70
0
 71
3
 72
31
 73
27
 74
0
 42
0.0000001
 43
0.0000001
 44
0.0000000001
 40
0.0
 40
0.0
 40
0.0
 40
0.0
 40
0.0667240216
 40
0.1007584923
 40
0.1351529054
 40
0.2047287181
 40
0.2749010157
 40
0.3450733123
 40
0.4146491584
 40
0.4830580044
 40
0.5166708272
 40
0.5498036148
 40
0.6144034231
 40
0.6458117474
 40
0.6765760532
 40
0.7360739828
 40
0.7648316575
 40
0.7929331198
 40
0.8204052338
 40
0.8472878744
 40
0.8736340153
 40
0.8995093432
 40
0.9249914854
 40
0.9501685501
 40
0.9751371661
 40
1.0
 40
1.0
 40
1.0
 40
1.0
 10
11.2785683383
 20
6.323498348
 30
0.0
 10
11.2608347278
 20
6.3162586318
 30
0.0
 10
11.2334460559
 20
6.3067527122
 30
0.0
 10
11.195940051
 20
6.2967827836
 30
0.0
 10
11.1571880826
 20
6.288479688
 30
0.0
 10
11.1076002868
 20
6.2815354834
 30
0.0
 10
11.0473189371
 20
6.2787538479
 30
0.0
 10
10.9870339996
 20
6.2815358145
 30
0.0
 10
10.9277710299
 20
6.2898347652
 30
0.0
 10
10.8797763358
 20
6.3013030796
 30
0.0
 10
10.8428088095
 20
6.3131330258
 30
0.0
 10
10.807521882
 20
6.3264537968
 30
0.0
 10
10.7738919098
 20
6.3422627959
 30
0.0
 10
10.7423888808
 20
6.3605200091
 30
0.0
 10
10.7132432508
 20
6.3797948017
 30
0.0
 10
10.6864943771
 20
6.4012346491
 30
0.0
 10
10.6626841052
 20
6.4246926849
 30
0.0
 10
10.6466672223
 20
6.4428751056
 30
0.0
 10
10.632363969
 20
6.4617637679
 30
0.0
 10
10.6198357293
 20
6.4812796145
 30
0.0
 10
10.6091379716
 20
6.5013394746
 30
0.0
 10
10.6003182456
 20
6.5218577879
 30
0.0
 10
10.5934162208
 20
6.5427461559
 30
0.0
 10
10.5884633026
 20
6.5639148631
 30
0.0
 10
10.585482297
 20
6.5852693097
 30
0.0
 10
10.5848183383
 20
6.5995832169
 30
0.0
 10
10.5848183383
 20
6.6067205995
 30
0.0
  0
SPLINE
  5
2A6
100
AcDbEntity
  8
0
100
AcDbSpline
 62
7
  6
CONTINUOUS
 70
0
 71
3
 72
35
 73
31
 74
0
 42
0.0000001
 43
0.0000001
 44
0.0000000001
 40
0.0
 40
0.0
 40
0.0
 40
0.0
 40
0.0667176644
 40
0.1007491132
 40
0.1351402801
 40
0.2047095938
 40
0.2397643529
 40
0.2748942188
 40
0.3450599589
 40
0.3799653394
 40
0.4146486663
 40
0.483051134
 40
0.5166608146
 40
0.5497904947
 40
0.58238814
 40
0.6144084728
 40
0.6458138709
 40
0.676575301
 40
0.7066732559
 40
0.7360986296
 40
0.7648536282
 40
0.7929524659
 40
0.8204220089
 40
0.8473021419
 40
0.8736458143
 40
0.8995187378
 40
0.9249985
 40
0.9501732109
 40
0.9751394943
 40
1.0
 40
1.0
 40
1.0
 40
1.0
 10
11.3348183383
 20
5.6040682103
 30
0.0
 10
11.3127711879
 20
5.5950674988
 30
0.0
 10
11.2787204984
 20
5.5832493467
 30
0.0
 10
11.2320911376
 20
5.5708542242
 30
0.0
 10
11.1839141199
 20
5.5605316537
 30
0.0
 10
11.1346883295
 20
5.5536381951
 30
0.0
 10
11.0849118214
 20
5.5501753117
 30
0.0
 10
11.0348152097
 20
5.5490168746
 30
0.0
 10
10.984741193
 20
5.5513276833
 30
0.0
 10
10.935179024
 20
5.5571075381
 30
0.0
 10
10.8865663834
 20
5.5651136123
 30
0.0
 10
10.8390212566
 20
5.5764744969
 30
0.0
 10
10.7930644508
 20
5.5911811518
 30
0.0
 10
10.7598770783
 20
5.6037094088
 30
0.0
 10
10.727917404
 20
5.6177448573
 30
0.0
 10
10.6973205333
 20
5.6332284543
 30
0.0
 10
10.6682174134
 20
5.650094554
 30
0.0
 10
10.6407322792
 20
5.6682718798
 30
0.0
 10
10.6149827027
 20
5.6876836515
 30
0.0
 10
10.591078982
 20
5.7082479372
 30
0.0
 10
10.5691237699
 20
5.7298779509
 30
0.0
 10
10.5492117013
 20
5.7524824033
 30
0.0
 10
10.5314290746
 20
5.7759657976
 30
0.0
 10
10.5158534962
 20
5.8002287004
 30
0.0
 10
10.5025535582
 20
5.8251679963
 30
0.0
 10
10.4915884601
 20
5.850677234
 30
0.0
 10
10.4830075576
 20
5.8766465604
 30
0.0
 10
10.4768498981
 20
5.9029644193
 30
0.0
 10
10.4731438502
 20
5.9295131942
 30
0.0
 10
10.4723183442
 20
5.9473088602
 30
0.0
 10
10.4723183791
 20
5.9561823608
 30
0.0
  0
SPLINE
  5
2A7
100
AcDbEntity
  8
0
100
AcDbSpline
 62
7
  6
CONTINUOUS
 70
0
 71
3
 72
19
 73
15
 74
0
 42
0.0000001
 43
0.0000001
 44
0.0000000001
 40
0.0
 40
0.0
 40
0.0
 40
0.0
 40
0.136169
 40
0.2683756421
 40
0.3330778648
 40
0.3968851809
 40
0.5219742837
 40
0.6441655106
 40
0.7043821861
 40
0.7641092256
 40
0.8234373632
 40
0.8824620829
 40
0.941282452
 40
1.0
 40
1.0
 40
1.0
 40
1.0
 10
11.4978667454
 20
6.8734801104
 30
0.0
 10
11.5076971266
 20
6.8647137976
 30
0.0
 10
11.526355407
 20
6.8466101957
 30
0.0
 10
11.547383259
 20
6.8221352587
 30
0.0
 10
11.5623915726
 20
6.8018572575
 30
0.0
 10
11.5759969925
 20
6.7814357962
 30
0.0
 10
11.5907654654
 20
6.7551527606
 30
0.0
 10
11.6025050133
 20
6.7277540198
 30
0.0
 10
11.6098893578
 20
6.705516134
 30
0.0
 10
11.614413664
 20
6.6887659523
 30
0.0
 10
11.6179407306
 20
6.6718958463
 30
0.0
 10
11.6204648406
 20
6.6549350422
 30
0.0
 10
11.6219810366
 20
6.6379144481
 30
0.0
 10
11.6223183317
 20
6.6265423668
 30
0.0
 10
11.6223183042
 20
6.6208627351
 30
0.0
  0
SPLINE
  5
2A8
100
AcDbEntity
  8
0
100
AcDbSpline
 62
7
  6
CONTINUOUS
 70
0
 71
3
 72
21
 73
17
 74
0
 42
0.0000001
 43
0.0000001
 44
0.0000000001
 40
0.0
 40
0.0
 40
0.0
 40
0.0
 40
0.1179009925
 40
0.1788181062
 40
0.2408264098
 40
0.3037541159
 40
0.3674147982
 40
0.4316114486
 40
0.4961396026
 40
0.5607909315
 40
0.6253567723
 40
0.6896312334
 40
0.7534148327
 40
0.8165178618
 40
0.8787636964
 40
1.0
 40
1.0
 40
1.0
 40
1.0
 10
10.8149769503
 20
6.9652705448
 30
0.0
 10
10.831395844
 20
6.9566809721
 30
0.0
 10
10.8572696506
 20
6.9454274454
 30
0.0
 10
10.8932696949
 20
6.9336944564
 30
0.0
 10
10.92156873
 20
6.9263755076
 30
0.0
 10
10.9506763064
 20
6.920689446
 30
0.0
 10
10.9804085365
 20
6.9166754745
 30
0.0
 10
11.0105730296
 20
6.9143637984
 30
0.0
 10
11.04097581
 20
6.9137732636
 30
0.0
 10
11.0714210512
 20
6.9149118201
 30
0.0
 10
11.1017126632
 20
6.9177762764
 30
0.0
 10
11.1316558599
 20
6.9223524964
 30
0.0
 10
11.1610569995
 20
6.928614955
 30
0.0
 10
11.1897301276
 20
6.936529017
 30
0.0
 10
11.2264033353
 20
6.9491033758
 30
0.0
 10
11.252787457
 20
6.9610088054
 30
0.0
 10
11.2695695286
 20
6.9700323529
 30
0.0
  0
SPLINE
  5
2A9
100
AcDbEntity
  8
0
100
AcDbSpline
 62
7
  6
CONTINUOUS
 70
0
 71
3
 72
15
 73
11
 74
0
 42
0.0000001
 43
0.0000001
 44
0.0000000001
 40
0.0
 40
0.0
 40
0.0
 40
0.0
 40
0.1209667383
 40
0.2423447451
 40
0.3645356129
 40
0.4879220844
 40
0.6128597683
 40
0.7396704825
 40
0.8686371093
 40
1.0
 40
1.0
 40
1.0
 40
1.0
 10
10.5848183383
 20
6.6067205995
 30
0.0
 10
10.5848183383
 20
6.6130961603
 30
0.0
 10
10.5853476517
 20
6.6258752203
 30
0.0
 10
10.5877251654
 20
6.6449611485
 30
0.0
 10
10.5916779525
 20
6.6639152433
 30
0.0
 10
10.597191784
 20
6.6826700481
 30
0.0
 10
10.6042467813
 20
6.7011611754
 30
0.0
 10
10.6128177961
 20
6.7193252631
 30
0.0
 10
10.6228737185
 20
6.7370992445
 30
0.0
 10
10.6304722992
 20
6.7485395874
 30
0.0
 10
10.6344967654
 20
6.7541732716
 30
0.0
  0
SPLINE
  5
2AA
100
AcDbEntity
  8
0
100
AcDbSpline
 62
9
  6
CONTINUOUS
 70
0
 71
3
 72
9
 73
5
 74
0
 42
0.0000001
 43
0.0000001
 44
0.0000000001
 40
0.0
 40
0.0
 40
0.0
 40
0.0
 40
0.2468290489
 40
1.0
 40
1.0
 40
1.0
 40
1.0
 10
10.2451611418
 20
6.4814021058
 30
0.0
 10
10.2634087039
 20
6.4888516418
 30
0.0
 10
10.3378136641
 20
6.5178543871
 30
0.0
 10
10.4140266923
 20
6.5421878971
 30
0.0
 10
10.4720656943
 20
6.5579516412
 30
0.0
  0
SPLINE
  5
2AB
100
AcDbEntity
  8
0
100
AcDbSpline
 62
9
  6
CONTINUOUS
 70
0
 71
3
 72
36
 73
32
 74
0
 42
0.0000001
 43
0.0000001
 44
0.0000000001
 40
0.0
 40
0.0
 40
0.0
 40
0.0
 40
0.0751526225
 40
0.1121282537
 40
0.1486522612
 40
0.2202097974
 40
0.2552095744
 40
0.2896583829
 40
0.3235424466
 40
0.3568531195
 40
0.4217255479
 40
0.4533204773
 40
0.4843651976
 40
0.5148812335
 40
0.5448967058
 40
0.5744463274
 40
0.6035712811
 40
0.6323189416
 40
0.6607424371
 40
0.6889000444
 40
0.7168544124
 40
0.7446716282
 40
0.7724201491
 40
0.8001696329
 40
0.8279897202
 40
0.8559488178
 40
0.8841129341
 40
0.9125446122
 40
0.9413019949
 40
0.9704380557
 40
1.0
 40
1.0
 40
1.0
 40
1.0
 10
11.6225221457
 20
6.5579649354
 30
0.0
 10
11.6721458095
 20
6.5444882799
 30
0.0
 10
11.7454748801
 20
6.5215888657
 30
0.0
 10
11.8406076625
 20
6.4855435391
 30
0.0
 10
11.9319428311
 20
6.4466479706
 30
0.0
 10
12.019604108
 20
6.4027437525
 30
0.0
 10
12.1028409166
 20
6.3539081119
 30
0.0
 10
12.1621620408
 20
6.3153925105
 30
0.0
 10
12.2186807021
 20
6.2748173388
 30
0.0
 10
12.2894722413
 20
6.218616771
 30
0.0
 10
12.354860741
 20
6.1582569487
 30
0.0
 10
12.4139755911
 20
6.0940420065
 30
0.0
 10
12.4544912829
 20
6.0447904471
 30
0.0
 10
12.4914631427
 20
5.9941582385
 30
0.0
 10
12.5247987175
 20
5.9422704109
 30
0.0
 10
12.5544120975
 20
5.8892575406
 30
0.0
 10
12.5802272274
 20
5.8352527806
 30
0.0
 10
12.6021773277
 20
5.7803922769
 30
0.0
 10
12.6202053297
 20
5.7248146912
 30
0.0
 10
12.6342640826
 20
5.66866094
 30
0.0
 10
12.6443166163
 20
5.6120738217
 30
0.0
 10
12.6503363515
 20
5.5551976124
 30
0.0
 10
12.6523073879
 20
5.4981776131
 30
0.0
 10
12.6502245292
 20
5.441159629
 30
0.0
 10
12.6440933055
 20
5.3842894508
 30
0.0
 10
12.6339299465
 20
5.3277123574
 30
0.0
 10
12.6197612208
 20
5.2715725468
 30
0.0
 10
12.6016244235
 20
5.2160129684
 30
0.0
 10
12.5795666317
 20
5.1611738072
 30
0.0
 10
12.5536467002
 20
5.107196206
 30
0.0
 10
12.5339847604
 20
5.0721404003
 30
0.0
 10
12.523555904
 20
5.0548092747
 30
0.0
  0
SPLINE
  5
2AC
100
AcDbEntity
  8
0
100
AcDbSpline
 62
9
  6
CONTINUOUS
 70
0
 71
3
 72
15
 73
11
 74
0
 42
0.0000001
 43
0.0000001
 44
0.0000000001
 40
0.0
 40
0.0
 40
0.0
 40
0.0
 40
0.1145838956
 40
0.2319494357
 40
0.3522796656
 40
0.4756862314
 40
0.602212215
 40
0.7318361659
 40
0.8644775872
 40
1.0
 40
1.0
 40
1.0
 40
1.0
 10
12.523555904
 20
5.0548092747
 30
0.0
 10
12.5084231944
 20
5.029661082
 30
0.0
 10
12.4755175498
 20
4.9800890634
 30
0.0
 10
12.4194455431
 20
4.9092700771
 30
0.0
 10
12.3563795226
 20
4.8414804919
 30
0.0
 10
12.2866498747
 20
4.7770687198
 30
0.0
 10
12.21061365
 20
4.7163558362
 30
0.0
 10
12.1286589701
 20
4.6596464237
 30
0.0
 10
12.0412081897
 20
4.6072274395
 30
0.0
 10
11.9801578276
 20
4.5756370204
 30
0.0
 10
11.9488675817
 20
4.5606056039
 30
0.0
  0
LINE
  5
2AD
100
AcDbEntity
  8
0
100
AcDbLine
 62
9
  6
CONTINUOUS
 10
11.9488675817
 20
4.5606056039
 11
11.9485760666
 21
4.560465597
  0
SPLINE
  5
2AE
100
AcDbEntity
  8
0
100
AcDbSpline
 62
9
  6
CONTINUOUS
 70
0
 71
3
 72
28
 73
24
 74
0
 42
0.0000001
 43
0.0000001
 44
0.0000000001
 40
0.0
 40
0.0
 40
0.0
 40
0.0
 40
0.0724006469
 40
0.1435185051
 40
0.2132710093
 40
0.281593077
 40
0.3484415896
 40
0.4137963001
 40
0.4776620799
 40
0.5400705089
 40
0.6010812455
 40
0.6607828632
 40
0.7192929956
 40
0.7481522552
 40
0.7767706587
 40
0.8051705508
 40
0.8333757345
 40
0.8614113707
 40
0.8893037829
 40
0.9170803495
 40
0.9447692645
 40
0.9723993863
 40
1.0
 40
1.0
 40
1.0
 40
1.0
 10
11.8573183383
 20
4.4690782324
 30
0.0
 10
11.8876674832
 20
4.481468219
 30
0.0
 10
11.9471976361
 20
4.5076113008
 30
0.0
 10
12.0333987633
 20
4.551233868
 30
0.0
 10
12.1153941118
 20
4.5987524442
 30
0.0
 10
12.1928303101
 20
4.6499651216
 30
0.0
 10
12.2653769716
 20
4.7046556836
 30
0.0
 10
12.3327231353
 20
4.7625932711
 30
0.0
 10
12.3945796484
 20
4.8235334956
 30
0.0
 10
12.4506797008
 20
4.8872188953
 30
0.0
 10
12.5007805783
 20
4.9533814542
 30
0.0
 10
12.5446620893
 20
5.0217372543
 30
0.0
 10
12.5760345815
 20
5.0805670458
 30
0.0
 10
12.5977737138
 20
5.1283865555
 30
0.0
 10
12.6123450141
 20
5.1644492441
 30
0.0
 10
12.6252393363
 20
5.2008305867
 30
0.0
 10
12.6364429887
 20
5.237492228
 30
0.0
 10
12.6459439122
 20
5.2743945388
 30
0.0
 10
12.6537313856
 20
5.3114980154
 30
0.0
 10
12.6597973978
 20
5.3487625488
 30
0.0
 10
12.6641347628
 20
5.386148404
 30
0.0
 10
12.6667393073
 20
5.4236141875
 30
0.0
 10
12.6673182744
 20
5.4486248552
 30
0.0
 10
12.6673182971
 20
5.4611215783
 30
0.0
  0
SPLINE
  5
2AF
100
AcDbEntity
  8
0
100
AcDbSpline
 62
9
  6
CONTINUOUS
 70
0
 71
3
 72
34
 73
30
 74
0
 42
0.0000001
 43
0.0000001
 44
0.0000000001
 40
0.0
 40
0.0
 40
0.0
 40
0.0
 40
0.0739918983
 40
0.1103423459
 40
0.1462346399
 40
0.2165721216
 40
0.2849318812
 40
0.3512824154
 40
0.4156512604
 40
0.4471278989
 40
0.4781488891
 40
0.5087360762
 40
0.5389155019
 40
0.568717336
 40
0.5981757561
 40
0.6273287207
 40
0.6562176698
 40
0.6848871549
 40
0.7133843987
 40
0.7417587628
 40
0.7700611592
 40
0.7983434192
 40
0.8266576338
 40
0.8550554832
 40
0.8835875823
 40
0.912302857
 40
0.9412479632
 40
0.9704667836
 40
1.0
 40
1.0
 40
1.0
 40
1.0
 10
12.0484360611
 20
3.774667227
 30
0.0
 10
12.0975186618
 20
3.7947051149
 30
0.0
 10
12.1697274695
 20
3.8271135772
 30
0.0
 10
12.2628439611
 20
3.875190639
 30
0.0
 10
12.3518294181
 20
3.9254121897
 30
0.0
 10
12.4572154928
 20
3.9930621942
 30
0.0
 10
12.5741894121
 20
4.0822300679
 30
0.0
 10
12.679962438
 20
4.1781965266
 30
0.0
 10
12.7587146025
 20
4.2639136575
 30
0.0
 10
12.8151890315
 20
4.3351816508
 30
0.0
 10
12.8539778987
 20
4.3894735201
 30
0.0
 10
12.8894360943
 20
4.4448966631
 30
0.0
 10
12.921498526
 20
4.50135041
 30
0.0
 10
12.9501047767
 20
4.5587306221
 30
0.0
 10
12.9752012875
 20
4.6169315706
 30
0.0
 10
12.9967408066
 20
4.6758457555
 30
0.0
 10
13.0146825923
 20
4.7353642047
 30
0.0
 10
13.0289924756
 20
4.7953766232
 30
0.0
 10
13.039643315
 20
4.8557715377
 30
0.0
 10
13.0466148508
 20
4.9164366136
 30
0.0
 10
13.0498937322
 20
4.9772588907
 30
0.0
 10
13.0494735485
 20
5.0381250178
 30
0.0
 10
13.0453551952
 20
5.0989215306
 30
0.0
 10
13.0375466244
 20
5.159535139
 30
0.0
 10
13.0260627165
 20
5.2198530437
 30
0.0
 10
13.010925315
 20
5.2797629076
 30
0.0
 10
12.992163018
 20
5.3391541263
 30
0.0
 10
12.969812501
 20
5.3979144365
 30
0.0
 10
12.9526446137
 20
5.436378574
 30
0.0
 10
12.943494377
 20
5.4554584916
 30
0.0
  0
SPLINE
  5
2B0
100
AcDbEntity
  8
0
100
AcDbSpline
 62
9
  6
CONTINUOUS
 70
0
 71
3
 72
27
 73
23
 74
0
 42
0.0000001
 43
0.0000001
 44
0.0000000001
 40
0.0
 40
0.0
 40
0.0
 40
0.0
 40
0.0623877498
 40
0.0940580227
 40
0.1260057864
 40
0.1906011855
 40
0.2559270682
 40
0.3217101849
 40
0.3876671629
 40
0.4535108307
 40
0.5189564843
 40
0.5837282229
 40
0.647565306
 40
0.7102287346
 40
0.7715079006
 40
0.8015779912
 40
0.8312397064
 40
0.8892671243
 40
0.9176252071
 40
0.9455336865
 40
0.9729911143
 40
1.0
 40
1.0
 40
1.0
 40
1.0
 10
11.8494755348
 20
4.5165262808
 30
0.0
 10
11.8057494369
 20
4.4986751761
 30
0.0
 10
11.7387692845
 20
4.4742636095
 30
0.0
 10
11.6475025018
 20
4.4464733824
 30
0.0
 10
11.5536870475
 20
4.4215076563
 30
0.0
 10
11.4336739831
 20
4.3962337133
 30
0.0
 10
11.2868541901
 20
4.3755939057
 30
0.0
 10
11.1379562367
 20
4.3647058746
 30
0.0
 10
10.9882741926
 20
4.3636640829
 30
0.0
 10
10.8391033152
 20
4.3724772222
 30
0.0
 10
10.6917357964
 20
4.3910697276
 30
0.0
 10
10.5474480749
 20
4.4192813256
 30
0.0
 10
10.4074879702
 20
4.4568707732
 30
0.0
 10
10.2730722306
 20
4.5035130141
 30
0.0
 10
10.1659646157
 20
4.5498899837
 30
0.0
 10
10.0841757599
 20
4.591205497
 30
0.0
 10
10.0062711509
 20
4.63457985
 30
0.0
 10
9.9321842961
 20
4.6820299791
 30
0.0
 10
9.8625621376
 20
4.7334419456
 30
0.0
 10
9.8133173729
 20
4.7733824181
 30
0.0
 10
9.7667620437
 20
4.8149055803
 30
0.0
 10
9.7373416737
 20
4.8438231365
 30
0.0
 10
9.7231259946
 20
4.8585193474
 30
0.0
  0
SPLINE
  5
2B1
100
AcDbEntity
  8
0
100
AcDbSpline
 62
9
  6
CONTINUOUS
 70
0
 71
3
 72
11
 73
7
 74
0
 42
0.0000001
 43
0.0000001
 44
0.0000000001
 40
0.0
 40
0.0
 40
0.0
 40
0.0
 40
0.2563980356
 40
0.5084094333
 40
0.7562034159
 40
1.0
 40
1.0
 40
1.0
 40
1.0
 10
9.7231259946
 20
4.8585193474
 30
0.0
 10
9.7083651493
 20
4.8737791528
 30
0.0
 10
9.6798830128
 20
4.9048119687
 30
0.0
 10
9.6401113243
 20
4.9532163623
 30
0.0
 10
9.6037596874
 20
5.0029538771
 30
0.0
 10
9.5816909187
 20
5.0371917793
 30
0.0
 10
9.5712759471
 20
5.0544849862
 30
0.0
  0
SPLINE
  5
2B2
100
AcDbEntity
  8
0
100
AcDbSpline
 62
9
  6
CONTINUOUS
 70
0
 71
3
 72
36
 73
32
 74
0
 42
0.0000001
 43
0.0000001
 44
0.0000000001
 40
0.0
 40
0.0
 40
0.0
 40
0.0
 40
0.0302252599
 40
0.0600536162
 40
0.0895235945
 40
0.1186781225
 40
0.147564158
 40
0.1762322197
 40
0.2047357894
 40
0.2331306331
 40
0.261474053
 40
0.2898240879
 40
0.3182386812
 40
0.3467748583
 40
0.3754879319
 40
0.4044307579
 40
0.4336530876
 40
0.4632010107
 40
0.4931164906
 40
0.5234369924
 40
0.5541952514
 40
0.5854191246
 40
0.6171315115
 40
0.6493503351
 40
0.7153362776
 40
0.7491337612
 40
0.7834618961
 40
0.8536708163
 40
0.8895452733
 40
0.9259068952
 40
1.0
 40
1.0
 40
1.0
 40
1.0
 10
9.5712759471
 20
5.0544849862
 30
0.0
 10
9.5618497253
 20
5.0701364551
 30
0.0
 10
9.543974599
 20
5.1017582022
 30
0.0
 10
9.5200639139
 20
5.1503373471
 30
0.0
 10
9.4992883413
 20
5.1996390903
 30
0.0
 10
9.4816927316
 20
5.2495602101
 30
0.0
 10
9.4673140802
 20
5.2999983395
 30
0.0
 10
9.4561828401
 20
5.350849121
 30
0.0
 10
9.4483226309
 20
5.4020073303
 30
0.0
 10
9.4437502699
 20
5.4533668925
 30
0.0
 10
9.4424756598
 20
5.5048211826
 30
0.0
 10
9.4445014046
 20
5.5562632975
 30
0.0
 10
9.449823126
 20
5.6075863917
 30
0.0
 10
9.4584294925
 20
5.6586839427
 30
0.0
 10
9.4703022713
 20
5.7094500052
 30
0.0
 10
9.4854160935
 20
5.7597795601
 30
0.0
 10
9.5037389006
 20
5.8095687136
 30
0.0
 10
9.525232068
 20
5.8587148982
 30
0.0
 10
9.5498505352
 20
5.9071170563
 30
0.0
 10
9.5775426275
 20
5.9546759346
 30
0.0
 10
9.6082506535
 20
6.0012942793
 30
0.0
 10
9.6419104593
 20
6.0468764352
 30
0.0
 10
9.6784537696
 20
6.0913305938
 30
0.0
 10
9.7313318724
 20
6.1494293625
 30
0.0
 10
9.7893443505
 20
6.2044230338
 30
0.0
 10
9.8518511568
 20
6.2560782523
 30
0.0
 10
9.9186261232
 20
6.3064530158
 30
0.0
 10
9.9896556376
 20
6.3531302672
 30
0.0
 10
10.0643496832
 20
6.3960030518
 30
0.0
 10
10.1427562542
 20
6.436987213
 30
0.0
 10
10.2036951629
 20
6.4644736908
 30
0.0
 10
10.2451611418
 20
6.4814021058
 30
0.0
  0
SPLINE
  5
2B3
100
AcDbEntity
  8
0
100
AcDbSpline
 62
9
  6
CONTINUOUS
 70
0
 71
3
 72
45
 73
41
 74
0
 42
0.0000001
 43
0.0000001
 44
0.0000000001
 40
0.0
 40
0.0
 40
0.0
 40
0.0
 40
0.0665639064
 40
0.1005122133
 40
0.134817266
 40
0.1694137916
 40
0.2042332019
 40
0.2392045452
 40
0.2742552468
 40
0.3093118978
 40
0.3443010264
 40
0.3791498711
 40
0.4137871584
 40
0.448143886
 40
0.4821541168
 40
0.5157557855
 40
0.5488915217
 40
0.5815094903
 40
0.6135642506
 40
0.6450176317
 40
0.6758396195
 40
0.7060092446
 40
0.7355154557
 40
0.7643579507
 40
0.778535511
 40
0.7925523549
 40
0.8201131344
 40
0.8470805766
 40
0.8603591272
 40
0.8735086042
 40
0.8865370346
 40
0.8994531582
 40
0.9122664448
 40
0.9249870136
 40
0.9376256094
 40
0.9501935314
 40
0.9627025664
 40
0.9751649235
 40
0.9875931379
 40
1.0
 40
1.0
 40
1.0
 40
1.0
 10
11.8573183383
 20
4.4931116836
 30
0.0
 10
11.7958327049
 20
4.4680102789
 30
0.0
 10
11.7008966698
 20
4.4350031841
 30
0.0
 10
11.5709132831
 20
4.4002776563
 30
0.0
 10
11.4705694258
 20
4.3785997609
 30
0.0
 10
11.3684603028
 20
4.361558622
 30
0.0
 10
11.2650062119
 20
4.349223233
 30
0.0
 10
11.1606417918
 20
4.341645559
 30
0.0
 10
11.0558031552
 20
4.338857056
 30
0.0
 10
10.9509290478
 20
4.3408693931
 30
0.0
 10
10.8464581945
 20
4.3476741713
 30
0.0
 10
10.7428276697
 20
4.3592430224
 30
0.0
 10
10.6404709997
 20
4.3755277165
 30
0.0
 10
10.5398163546
 20
4.3964603764
 30
0.0
 10
10.4412847497
 20
4.4219537929
 30
0.0
 10
10.3452882887
 20
4.4519018162
 30
0.0
 10
10.252228452
 20
4.4861798316
 30
0.0
 10
10.162494436
 20
4.5246453241
 30
0.0
 10
10.0764615832
 20
4.567138495
 30
0.0
 10
9.994489802
 20
4.6134830416
 30
0.0
 10
9.9169223961
 20
4.6634866631
 30
0.0
 10
9.8440838289
 20
4.7169428324
 30
0.0
 10
9.7762817951
 20
4.7736282015
 30
0.0
 10
9.7239122612
 20
4.8236512195
 30
0.0
 10
9.6848631718
 20
4.8650606849
 30
0.0
 10
9.6481496303
 20
4.9068662709
 30
0.0
 10
9.6058244913
 20
4.9606674596
 30
0.0
 10
9.5681029808
 20
5.016915151
 30
0.0
 10
9.5411135546
 20
5.0628602408
 30
0.0
 10
9.5225543446
 20
5.0975900852
 30
0.0
 10
9.505595689
 20
5.1327276488
 30
0.0
 10
9.4902556639
 20
5.1682367999
 30
0.0
 10
9.4765502453
 20
5.2040799069
 30
0.0
 10
9.4644943333
 20
5.2402194717
 30
0.0
 10
9.4541005611
 20
5.276617369
 30
0.0
 10
9.4453801014
 20
5.3132353287
 30
0.0
 10
9.4383423491
 20
5.3500346957
 30
0.0
 10
9.4329946024
 20
5.3869769027
 30
0.0
 10
9.429342979
 20
5.4240219922
 30
0.0
 10
9.4280408764
 20
5.4487764314
 30
0.0
 10
9.4276740954
 20
5.4611495584
 30
0.0
  0
LINE
  5
2B4
100
AcDbEntity
  8
0
100
AcDbLine
 62
9
  6
CONTINUOUS
 10
9.4276740954
 20
5.4611495584
 11
9.4276345489
 21
5.4625229475
  0
SPLINE
  5
2B5
100
AcDbEntity
  8
0
100
AcDbSpline
 62
9
  6
CONTINUOUS
 70
0
 71
3
 72
13
 73
9
 74
0
 42
0.0000001
 43
0.0000001
 44
0.0000000001
 40
0.0
 40
0.0
 40
0.0
 40
0.0
 40
0.2434769294
 40
0.367204394
 40
0.492070986
 40
0.6179365318
 40
0.7446554535
 40
1.0
 40
1.0
 40
1.0
 40
1.0
 10
11.9998183383
 20
4.1612031361
 30
0.0
 10
11.9436026917
 20
4.1382531945
 30
0.0
 10
11.8573447618
 20
4.1071223601
 30
0.0
 10
11.7396732038
 20
4.0722337424
 30
0.0
 10
11.6491678639
 20
4.0491230831
 30
0.0
 10
11.5571299886
 20
4.0292728644
 30
0.0
 10
11.4323832637
 20
4.0071662361
 30
0.0
 10
11.3376820267
 20
3.9957069026
 30
0.0
 10
11.2742304575
 20
3.9903243329
 30
0.0
  0
SPLINE
  5
2B6
100
AcDbEntity
  8
0
100
AcDbSpline
 62
9
  6
CONTINUOUS
 70
0
 71
3
 72
37
 73
33
 74
0
 42
0.0000001
 43
0.0000001
 44
0.0000000001
 40
0.0
 40
0.0
 40
0.0
 40
0.0
 40
0.0717637607
 40
0.1076965053
 40
0.1435922177
 40
0.215061119
 40
0.2505495646
 40
0.2858067399
 40
0.3207873831
 40
0.3554482723
 40
0.3897485962
 40
0.4236503296
 40
0.4571186167
 40
0.4901221605
 40
0.522633619
 40
0.5546300057
 40
0.5860930931
 40
0.6170098125
 40
0.6473726478
 40
0.677180012
 40
0.7064365964
 40
0.7351536779
 40
0.7633493648
 40
0.7910487608
 40
0.8182840204
 40
0.8450942705
 40
0.8715253706
 40
0.8976294898
 40
0.9234644859
 40
0.9490930798
 40
0.9745818397
 40
1.0
 40
1.0
 40
1.0
 40
1.0
 10
11.2742304575
 20
3.9903243329
 30
0.0
 10
11.2074959927
 20
3.9846632765
 30
0.0
 10
11.1069749625
 20
3.979936458
 30
0.0
 10
10.9729489719
 20
3.9811348185
 30
0.0
 10
10.8393333468
 20
3.9873245655
 30
0.0
 10
10.7065624594
 20
4.0009662626
 30
0.0
 10
10.5755008477
 20
4.0220570676
 30
0.0
 10
10.4787342128
 20
4.0414775005
 30
0.0
 10
10.3835519104
 20
4.0644808374
 30
0.0
 10
10.2902164437
 20
4.091003641
 30
0.0
 10
10.1989881663
 20
4.1209722357
 30
0.0
 10
10.1101207702
 20
4.1543035512
 30
0.0
 10
10.0238615909
 20
4.1909051985
 30
0.0
 10
9.9404506655
 20
4.2306757818
 30
0.0
 10
9.8601201504
 20
4.273505182
 30
0.0
 10
9.7830936755
 20
4.3192748696
 30
0.0
 10
9.7095857541
 20
4.3678582445
 30
0.0
 10
9.6398012215
 20
4.4191209924
 30
0.0
 10
9.5739347051
 20
4.4729214514
 30
0.0
 10
9.51217013
 20
4.5291109892
 30
0.0
 10
9.4546802562
 20
4.5875343839
 30
0.0
 10
9.4016262464
 20
4.6480302055
 30
0.0
 10
9.3531572591
 20
4.7104311911
 30
0.0
 10
9.3094100587
 20
4.7745646168
 30
0.0
 10
9.2705086337
 20
4.8402526592
 30
0.0
 10
9.2365638134
 20
4.9073127742
 30
0.0
 10
9.2076728729
 20
4.9755580306
 30
0.0
 10
9.1839191279
 20
5.0447976917
 30
0.0
 10
9.165371509
 20
5.1148370548
 30
0.0
 10
9.1520841692
 20
5.1854802769
 30
0.0
 10
9.1440960537
 20
5.2565225543
 30
0.0
 10
9.1423184187
 20
5.3040509094
 30
0.0
 10
9.14231838
 20
5.3277726261
 30
0.0
  0
SPLINE
  5
2B7
100
AcDbEntity
  8
0
100
AcDbSpline
 62
9
  6
CONTINUOUS
 70
0
 71
3
 72
37
 73
33
 74
0
 42
0.0000001
 43
0.0000001
 44
0.0000000001
 40
0.0
 40
0.0
 40
0.0
 40
0.0
 40
0.0740868451
 40
0.1104004306
 40
0.1461931979
 40
0.2161320934
 40
0.2502739081
 40
0.283851495
 40
0.3168662389
 40
0.3493249288
 40
0.381239976
 40
0.4126295826
 40
0.4435178514
 40
0.4739348156
 40
0.5039163749
 40
0.5335041209
 40
0.5627450301
 40
0.5916910219
 40
0.6203983751
 40
0.6489270073
 40
0.6773396291
 40
0.7057007962
 40
0.7340758913
 40
0.7625300726
 40
0.7911272319
 40
0.8199290024
 40
0.8489938506
 40
0.8783762813
 40
0.9081261737
 40
0.9382882556
 40
0.9689017247
 40
1.0
 40
1.0
 40
1.0
 40
1.0
 10
12.0978596418
 20
3.6610013494
 30
0.0
 10
12.1554270393
 20
3.6845031411
 30
0.0
 10
12.2399250437
 20
3.7228361775
 30
0.0
 10
12.3483510259
 20
3.7803290452
 30
0.0
 10
12.4512606781
 20
3.8405663866
 30
0.0
 10
12.5487024629
 20
3.9063708889
 30
0.0
 10
12.6397419418
 20
3.9775600963
 30
0.0
 10
12.7038116695
 20
4.0327752732
 30
0.0
 10
12.7640592302
 20
4.0901065208
 30
0.0
 10
12.8203470728
 20
4.1494239622
 30
0.0
 10
12.8725440274
 20
4.2105912322
 30
0.0
 10
12.9205287949
 20
4.2734681482
 30
0.0
 10
12.9641893755
 20
4.3379103449
 30
0.0
 10
13.0034235483
 20
4.4037697053
 30
0.0
 10
13.0381390742
 20
4.4708945841
 30
0.0
 10
13.0682540234
 20
4.5391300723
 30
0.0
 10
13.093696985
 20
4.6083183179
 30
0.0
 10
13.1144073301
 20
4.6782988406
 30
0.0
 10
13.1303354687
 20
4.7489088848
 30
0.0
 10
13.1414430915
 20
4.8199838164
 30
0.0
 10
13.1477033789
 20
4.8913575678
 30
0.0
 10
13.1491011648
 20
4.962863123
 30
0.0
 10
13.1456330927
 20
5.0343330418
 30
0.0
 10
13.1373075737
 20
5.1056000039
 30
0.0
 10
13.1241447352
 20
5.1764973368
 30
0.0
 10
13.106176291
 20
5.2468595288
 30
0.0
 10
13.0834453729
 20
5.3165226791
 30
0.0
 10
13.0560062511
 20
5.3853249938
 30
0.0
 10
13.0239242943
 20
5.4531068895
 30
0.0
 10
12.9872749851
 20
5.5197123962
 30
0.0
 10
12.9461465277
 20
5.5849854844
 30
0.0
 10
12.916046524
 20
5.6271748238
 30
0.0
 10
12.9003076586
 20
5.6479957946
 30
0.0
  0
SPLINE
  5
2B8
100
AcDbEntity
  8
0
100
AcDbSpline
 62
9
  6
CONTINUOUS
 70
0
 71
3
 72
52
 73
48
 74
0
 42
0.0000001
 43
0.0000001
 44
0.0000000001
 40
0.0
 40
0.0
 40
0.0
 40
0.0
 40
0.014119843
 40
0.028052712
 40
0.0418088092
 40
0.0553999064
 40
0.0688393132
 40
0.0821418012
 40
0.0953235046
 40
0.1084018032
 40
0.1213951796
 40
0.1343230371
 40
0.147205504
 40
0.1600632206
 40
0.1729171089
 40
0.1857881345
 40
0.1986970678
 40
0.2116642493
 40
0.2247093707
 40
0.2378512727
 40
0.2511077557
 40
0.2644954231
 40
0.2780295564
 40
0.2917240094
 40
0.3055911191
 40
0.3196416642
 40
0.3338848394
 40
0.3483282358
 40
0.377831163
 40
0.4081873632
 40
0.4394024386
 40
0.4714600603
 40
0.5043239855
 40
0.537940293
 40
0.5722395877
 40
0.6071392191
 40
0.6425454472
 40
0.6783555317
 40
0.7144598021
 40
0.7507436439
 40
0.7870894822
 40
0.8233787257
 40
0.8594937079
 40
0.8953196444
 40
0.9307465914
 40
0.9656712958
 40
1.0
 40
1.0
 40
1.0
 40
1.0
 10
9.1958392801
 20
5.6499901363
 30
0.0
 10
9.1825491763
 20
5.632472871
 30
0.0
 10
9.1569481663
 20
5.5970515192
 30
0.0
 10
9.1213728624
 20
5.5424940664
 30
0.0
 10
9.0889421707
 20
5.4869593383
 30
0.0
 10
9.0597109774
 20
5.4305392855
 30
0.0
 10
9.0337273955
 20
5.3733256671
 30
0.0
 10
9.0110346435
 20
5.3154121359
 30
0.0
 10
8.991670644
 20
5.2568934462
 30
0.0
 10
8.9756678986
 20
5.1978655513
 30
0.0
 10
8.963053091
 20
5.1384254502
 30
0.0
 10
8.9538474239
 20
5.0786709033
 30
0.0
 10
8.9480665756
 20
5.0187002995
 30
0.0
 10
8.9457202403
 20
4.9586125131
 30
0.0
 10
8.9468122648
 20
4.8985066415
 30
0.0
 10
8.9513408696
 20
4.8384818106
 30
0.0
 10
8.9592985511
 20
4.7786370099
 30
0.0
 10
8.9706717207
 20
4.7190708211
 30
0.0
 10
8.9854412081
 20
4.6598812526
 30
0.0
 10
9.0035823528
 20
4.6011656092
 30
0.0
 10
9.0250647625
 20
4.5430202456
 30
0.0
 10
9.0498524266
 20
4.4855403712
 30
0.0
 10
9.0779041124
 20
4.4288199968
 30
0.0
 10
9.1091733619
 20
4.3729518473
 30
0.0
 10
9.1436083309
 20
4.3180269119
 30
0.0
 10
9.1811518408
 20
4.2641348938
 30
0.0
 10
9.2217430792
 20
4.2113625611
 30
0.0
 10
9.2802445704
 20
4.1421265417
 30
0.0
 10
9.3608169714
 20
4.0588585028
 30
0.0
 10
9.4677830664
 20
3.965497175
 30
0.0
 10
9.5850226352
 20
3.8785683702
 30
0.0
 10
9.7117648031
 20
3.7986344165
 30
0.0
 10
9.8471853943
 20
3.726204708
 30
0.0
 10
9.9904035683
 20
3.6617443956
 30
0.0
 10
10.1404888183
 20
3.6056673141
 30
0.0
 10
10.2964662098
 20
3.5583343486
 30
0.0
 10
10.4573226093
 20
3.5200507215
 30
0.0
 10
10.6220129695
 20
3.4910631888
 30
0.0
 10
10.7894672873
 20
3.4715593589
 30
0.0
 10
10.9585973491
 20
3.4616648867
 30
0.0
 10
11.1283040345
 20
3.4614441325
 30
0.0
 10
11.2974843473
 20
3.4708982052
 30
0.0
 10
11.4650389802
 20
3.4899662263
 30
0.0
 10
11.6298784656
 20
3.5185246444
 30
0.0
 10
11.7909339129
 20
3.5563898333
 30
0.0
 10
11.9471508183
 20
3.6033140637
 30
0.0
 10
12.0483666108
 20
3.6407959041
 30
0.0
 10
12.0978596418
 20
3.6610013494
 30
0.0
  0
SPLINE
  5
2B9
100
AcDbEntity
  8
0
100
AcDbSpline
 62
7
  6
CONTINUOUS
 70
0
 71
3
 72
42
 73
38
 74
0
 42
0.0000001
 43
0.0000001
 44
0.0000000001
 40
0.0
 40
0.0
 40
0.0
 40
0.0
 40
0.0327681438
 40
0.0659901648
 40
0.0996150524
 40
0.1335868403
 40
0.1678462977
 40
0.202331166
 40
0.2369769727
 40
0.2717176574
 40
0.3064862375
 40
0.3412154593
 40
0.375838451
 40
0.4102893763
 40
0.4445040922
 40
0.4784208143
 40
0.5119807911
 40
0.5451289903
 40
0.5778147991
 40
0.6099927394
 40
0.6416231968
 40
0.6726731645
 40
0.7031169918
 40
0.732937132
 40
0.7621248734
 40
0.7906810332
 40
0.8186165821
 40
0.8459531581
 40
0.8727234182
 40
0.8989711638
 40
0.924751173
 40
0.9374884498
 40
0.9501340816
 40
0.9626976957
 40
0.9751894243
 40
0.9876198647
 40
1.0
 40
1.0
 40
1.0
 40
1.0
 10
12.122286909
 20
3.5812019778
 30
0.0
 10
12.0833839736
 20
3.5653199209
 30
0.0
 10
12.0042164268
 20
3.5353143734
 30
0.0
 10
11.8826568089
 20
3.4959081283
 30
0.0
 10
11.7578707518
 20
3.4619182714
 30
0.0
 10
11.6303433354
 20
3.4334771637
 30
0.0
 10
11.5005658073
 20
3.4106935971
 30
0.0
 10
11.3690391427
 20
3.3936553524
 30
0.0
 10
11.236270854
 20
3.3824279148
 30
0.0
 10
11.1027733346
 20
3.3770545032
 30
0.0
 10
10.9690617917
 20
3.3775557944
 30
0.0
 10
10.83565227
 20
3.3839298708
 30
0.0
 10
10.7030596405
 20
3.3961521988
 30
0.0
 10
10.5717956021
 20
3.4141757476
 30
0.0
 10
10.4423666988
 20
3.437931187
 30
0.0
 10
10.3152723593
 20
3.4673271716
 30
0.0
 10
10.1910029701
 20
3.5022507189
 30
0.0
 10
10.0700379899
 20
3.5425676741
 30
0.0
 10
9.9528441162
 20
3.5881232639
 30
0.0
 10
9.839873513
 20
3.6387427314
 30
0.0
 10
9.7315621124
 20
3.6942320547
 30
0.0
 10
9.6283279879
 20
3.7543787155
 30
0.0
 10
9.530569832
 20
3.8189525579
 30
0.0
 10
9.4386655429
 20
3.8877066908
 30
0.0
 10
9.3529709062
 20
3.9603784272
 30
0.0
 10
9.2738184047
 20
4.0366901847
 30
0.0
 10
9.2015160584
 20
4.1163505719
 30
0.0
 10
9.136346589
 20
4.1990547362
 30
0.0
 10
9.0785657454
 20
4.2844872285
 30
0.0
 10
9.0284038287
 20
4.3723155652
 30
0.0
 10
8.9929710069
 20
4.4475364624
 30
0.0
 10
8.9686947907
 20
4.5085048993
 30
0.0
 10
8.9525707171
 20
4.55443174
 30
0.0
 10
8.9384755384
 20
4.6006916846
 30
0.0
 10
8.9264227735
 20
4.6472410168
 30
0.0
 10
8.9164242259
 20
4.6940330399
 30
0.0
 10
8.9111253117
 20
4.7254163126
 30
0.0
 10
8.9088241729
 20
4.7411242236
 30
0.0
  0
SPLINE
  5
2BA
100
AcDbEntity
  8
0
100
AcDbSpline
 62
7
  6
CONTINUOUS
 70
0
 71
3
 72
28
 73
24
 74
0
 42
0.0000001
 43
0.0000001
 44
0.0000000001
 40
0.0
 40
0.0
 40
0.0
 40
0.0
 40
0.0260139144
 40
0.0521375123
 40
0.0784218621
 40
0.1049155659
 40
0.131664203
 40
0.1587097941
 40
0.1860902292
 40
0.2138391227
 40
0.2419852359
 40
0.2705527218
 40
0.2995607764
 40
0.3290238238
 40
0.3893311714
 40
0.4515159252
 40
0.5155316437
 40
0.5812703721
 40
0.6485706602
 40
0.717225213
 40
0.7869889933
 40
0.8575873155
 40
1.0
 40
1.0
 40
1.0
 40
1.0
 10
11.4530481544
 20
7.1684836462
 30
0.0
 10
11.4527222802
 20
7.1638049356
 30
0.0
 10
11.4517626937
 20
7.154446298
 30
0.0
 10
11.449411314
 20
7.1404950843
 30
0.0
 10
11.446151064
 20
7.1266385459
 30
0.0
 10
11.4419896056
 20
7.1129081238
 30
0.0
 10
11.4369367836
 20
7.0993338221
 30
0.0
 10
11.431003984
 20
7.0859456983
 30
0.0
 10
11.4242053327
 20
7.072772891
 30
0.0
 10
11.4165559906
 20
7.0598444949
 30
0.0
 10
11.4080739183
 20
7.0471884394
 30
0.0
 10
11.3987782001
 20
7.0348326063
 30
0.0
 10
11.3886899448
 20
7.0228034092
 30
0.0
 10
11.374101905
 20
7.0071156281
 30
0.0
 10
11.3539617351
 20
6.988475061
 30
0.0
 10
11.3272344281
 20
6.9679986425
 30
0.0
 10
11.2979974947
 20
6.9494085621
 30
0.0
 10
11.2665155053
 20
6.9328630975
 30
0.0
 10
11.2330700737
 20
6.9185005219
 30
0.0
 10
11.197961986
 20
6.9064410885
 30
0.0
 10
11.161501687
 20
6.8967839725
 30
0.0
 10
11.1114023776
 20
6.8871924798
 30
0.0
 10
11.0729887693
 20
6.8838524337
 30
0.0
 10
11.0473183383
 20
6.8833389507
 30
0.0
  0
SPLINE
  5
2BB
100
AcDbEntity
  8
0
100
AcDbSpline
 62
9
  6
CONTINUOUS
 70
0
 71
3
 72
15
 73
11
 74
0
 42
0.0000001
 43
0.0000001
 44
0.0000000001
 40
0.0
 40
0.0
 40
0.0
 40
0.0
 40
0.1338111475
 40
0.2653122834
 40
0.3943566184
 40
0.5208275417
 40
0.6446458511
 40
0.7657713532
 40
0.8842066806
 40
1.0
 40
1.0
 40
1.0
 40
1.0
 10
11.8632509719
 20
4.4488927861
 30
0.0
 10
11.8931026403
 20
4.4610796787
 30
0.0
 10
11.951684672
 20
4.4867633504
 30
0.0
 10
12.0365951389
 20
4.5295241549
 30
0.0
 10
12.1174834682
 20
4.5760339839
 30
0.0
 10
12.1940174609
 20
4.6261044184
 30
0.0
 10
12.2658856335
 20
4.6795335055
 30
0.0
 10
12.3327954996
 20
4.7361074136
 30
0.0
 10
12.3944696186
 20
4.7955938937
 30
0.0
 10
12.4323523787
 20
4.8375059353
 30
0.0
 10
12.4503000973
 20
4.858869301
 30
0.0
  0
SPLINE
  5
2BC
100
AcDbEntity
  8
0
100
AcDbSpline
 62
9
  6
CONTINUOUS
 70
0
 71
3
 72
23
 73
19
 74
0
 42
0.0000001
 43
0.0000001
 44
0.0000000001
 40
0.0
 40
0.0
 40
0.0
 40
0.0
 40
0.0673747533
 40
0.1336520327
 40
0.1988923131
 40
0.263168932
 40
0.3265678053
 40
0.3891868537
 40
0.451135123
 40
0.5125316048
 40
0.5735037482
 40
0.6341856863
 40
0.6947162183
 40
0.7552366042
 40
0.8158882691
 40
0.8768105019
 40
0.9381382379
 40
1.0
 40
1.0
 40
1.0
 40
1.0
 10
12.4503000973
 20
4.858869301
 30
0.0
 10
12.4636369336
 20
4.8747442832
 30
0.0
 10
12.4892514292
 20
4.9069556532
 30
0.0
 10
12.5246163904
 20
4.9569500969
 30
0.0
 10
12.5565216828
 20
5.00810412
 30
0.0
 10
12.5848897872
 20
5.0602965024
 30
0.0
 10
12.609653232
 20
5.1134056044
 30
0.0
 10
12.6307524384
 20
5.167306735
 30
0.0
 10
12.6481364825
 20
5.2218731821
 30
0.0
 10
12.6617631579
 20
5.2769762743
 30
0.0
 10
12.6715992096
 20
5.3324857407
 30
0.0
 10
12.6776205217
 20
5.3882700414
 30
0.0
 10
12.6798123773
 20
5.4441967297
 30
0.0
 10
12.6781693931
 20
5.5001329783
 30
0.0
 10
12.6726956828
 20
5.5559456685
 30
0.0
 10
12.66340439
 20
5.6115030654
 30
0.0
 10
12.6503192455
 20
5.6666705414
 30
0.0
 10
12.6391410045
 20
5.702928498
 30
0.0
 10
12.6329484259
 20
5.7209303025
 30
0.0
  0
SPLINE
  5
2BD
100
AcDbEntity
  8
0
100
AcDbSpline
 62
9
  6
CONTINUOUS
 70
0
 71
3
 72
10
 73
6
 74
0
 42
0.0000001
 43
0.0000001
 44
0.0000000001
 40
0.0
 40
0.0
 40
0.0
 40
0.0
 40
0.2459077447
 40
0.6201311797
 40
1.0
 40
1.0
 40
1.0
 40
1.0
 10
10.1170657142
 20
6.5155428207
 30
0.0
 10
10.1453574203
 20
6.5270928613
 30
0.0
 10
10.2173301348
 20
6.5547040528
 30
0.0
 10
10.3355704933
 20
6.5931849951
 30
0.0
 10
10.4263160533
 20
6.6168205041
 30
0.0
 10
10.4723227392
 20
6.6273920773
 30
0.0
  0
SPLINE
  5
2BE
100
AcDbEntity
  8
0
100
AcDbSpline
 62
9
  6
CONTINUOUS
 70
0
 71
3
 72
51
 73
47
 74
0
 42
0.0000001
 43
0.0000001
 44
0.0000000001
 40
0.0
 40
0.0
 40
0.0
 40
0.0
 40
0.0371959283
 40
0.0738924586
 40
0.1100128458
 40
0.145488847
 40
0.1802621609
 40
0.2142858843
 40
0.2475259915
 40
0.2799628103
 40
0.311592442
 40
0.3424280356
 40
0.3725008476
 40
0.3872695087
 40
0.4018678664
 40
0.4163051465
 40
0.4305917324
 40
0.4447391473
 40
0.45875997
 40
0.4726677992
 40
0.4864771587
 40
0.5002033906
 40
0.5138625633
 40
0.5274713248
 40
0.5410467715
 40
0.554606302
 40
0.5681674562
 40
0.5817477585
 40
0.5953645631
 40
0.609034897
 40
0.6227753074
 40
0.6366017397
 40
0.6505293946
 40
0.6645726261
 40
0.6787448573
 40
0.6930584717
 40
0.7075247834
 40
0.7369481678
 40
0.7670896881
 40
0.7979976594
 40
0.8297016306
 40
0.8622131276
 40
0.8955267273
 40
0.9296214375
 40
0.9644616541
 40
1.0
 40
1.0
 40
1.0
 40
1.0
 10
11.6224617062
 20
6.6273581115
 30
0.0
 10
11.6646641693
 20
6.6176579258
 30
0.0
 10
11.7480092595
 20
6.5961567731
 30
0.0
 10
11.8701480173
 20
6.557407963
 30
0.0
 10
11.9880452015
 20
6.5125501869
 30
0.0
 10
12.1010880182
 20
6.4618141435
 30
0.0
 10
12.2086945055
 20
6.4054590468
 30
0.0
 10
12.3103088892
 20
6.3437727684
 30
0.0
 10
12.405406242
 20
6.2770697086
 30
0.0
 10
12.493494037
 20
6.2056899453
 30
0.0
 10
12.5741159475
 20
6.1299955011
 30
0.0
 10
12.6468485904
 20
6.050376331
 30
0.0
 10
12.7008996551
 20
5.9806625838
 30
0.0
 10
12.7397274172
 20
5.9233616857
 30
0.0
 10
12.7664843911
 20
5.8799287723
 30
0.0
 10
12.7910136812
 20
5.835841351
 30
0.0
 10
12.8132836469
 20
5.7911556376
 30
0.0
 10
12.8332652137
 20
5.7459298718
 30
0.0
 10
12.8509318088
 20
5.7002224793
 30
0.0
 10
12.8662603201
 20
5.6540928948
 30
0.0
 10
12.8792306061
 20
5.6076010758
 30
0.0
 10
12.8898251672
 20
5.560807425
 30
0.0
 10
12.8980303626
 20
5.5137729836
 30
0.0
 10
12.9038350535
 20
5.4665590045
 30
0.0
 10
12.9072314932
 20
5.4192270978
 30
0.0
 10
12.9082154625
 20
5.3718390502
 30
0.0
 10
12.9067852325
 20
5.3244567214
 30
0.0
 10
12.9029430248
 20
5.2771419742
 30
0.0
 10
12.8966939081
 20
5.2299565427
 30
0.0
 10
12.8880459341
 20
5.1829620266
 30
0.0
 10
12.8770109779
 20
5.1362196006
 30
0.0
 10
12.8636033223
 20
5.0897901972
 30
0.0
 10
12.8478408201
 20
5.0437342137
 30
0.0
 10
12.8297444019
 20
4.9981113508
 30
0.0
 10
12.8093377185
 20
4.9529812
 30
0.0
 10
12.7866472993
 20
4.9084012464
 30
0.0
 10
12.7532047086
 20
4.8494476713
 30
0.0
 10
12.7057112482
 20
4.7773865328
 30
0.0
 10
12.6404675758
 20
4.6945530091
 30
0.0
 10
12.5669868571
 20
4.6152764757
 30
0.0
 10
12.4856571489
 20
4.5399660373
 30
0.0
 10
12.3969013746
 20
4.4690034656
 30
0.0
 10
12.3011805802
 20
4.4027504401
 30
0.0
 10
12.1989890355
 20
4.3415440229
 30
0.0
 10
12.0908594345
 20
4.2856978873
 30
0.0
 10
12.0158750777
 20
4.2525361493
 30
0.0
 10
11.9775709624
 20
4.2368985597
 30
0.0
  0
SPLINE
  5
2BF
100
AcDbEntity
  8
0
100
AcDbSpline
 62
9
  6
CONTINUOUS
 70
0
 71
3
 72
24
 73
20
 74
0
 42
0.0000001
 43
0.0000001
 44
0.0000000001
 40
0.0
 40
0.0
 40
0.0
 40
0.0
 40
0.0618476819
 40
0.1231649867
 40
0.1840801816
 40
0.2447278683
 40
0.3052469454
 40
0.3657784
 40
0.4264630165
 40
0.4874390976
 40
0.5488402824
 40
0.6107935395
 40
0.6734173937
 40
0.736820457
 40
0.8011002637
 40
0.8663424107
 40
0.8993511181
 40
0.932626713
 40
1.0
 40
1.0
 40
1.0
 40
1.0
 10
9.461242266
 20
5.7196305429
 30
0.0
 10
9.4550888716
 20
5.7016521436
 30
0.0
 10
9.443985902
 20
5.6654426611
 30
0.0
 10
9.4310031107
 20
5.6103544987
 30
0.0
 10
9.4218025063
 20
5.5548803818
 30
0.0
 10
9.4164075458
 20
5.4991543159
 30
0.0
 10
9.414831187
 20
5.443307408
 30
0.0
 10
9.4170773035
 20
5.3874721423
 30
0.0
 10
9.42314036
 20
5.3317806933
 30
0.0
 10
9.4330055376
 20
5.2763648392
 30
0.0
 10
9.4466487996
 20
5.2213554726
 30
0.0
 10
9.464037054
 20
5.1668822274
 30
0.0
 10
9.4851281443
 20
5.1130731887
 30
0.0
 10
9.5098714323
 20
5.0600542205
 30
0.0
 10
9.5382070277
 20
5.0079501928
 30
0.0
 10
9.5646558419
 20
4.9655566845
 30
0.0
 10
9.5875112851
 20
4.9322244678
 30
0.0
 10
9.611691585
 20
4.8990277879
 30
0.0
 10
9.6309501003
 20
4.8748066161
 30
0.0
 10
9.6442636589
 20
4.8589560934
 30
0.0
  0
SPLINE
  5
2C0
100
AcDbEntity
  8
0
100
AcDbSpline
 62
9
  6
CONTINUOUS
 70
0
 71
3
 72
15
 73
11
 74
0
 42
0.0000001
 43
0.0000001
 44
0.0000000001
 40
0.0
 40
0.0
 40
0.0
 40
0.0
 40
0.1160103708
 40
0.2345941242
 40
0.3557988107
 40
0.4796298189
 40
0.6060529399
 40
0.7349972261
 40
0.8663580109
 40
1.0
 40
1.0
 40
1.0
 40
1.0
 10
9.6442636589
 20
4.8589560934
 30
0.0
 10
9.6617117883
 20
4.8381831369
 30
0.0
 10
9.6984863496
 20
4.7974073806
 30
0.0
 10
9.7582443275
 20
4.739434994
 30
0.0
 10
9.8229697688
 20
4.6842047728
 30
0.0
 10
9.8924087109
 20
4.6319312572
 30
0.0
 10
9.9662937734
 20
4.5828125973
 30
0.0
 10
10.0443405121
 20
4.5370361115
 30
0.0
 10
10.1262455306
 20
4.4947776372
 30
0.0
 10
10.1827546789
 20
4.4692643736
 30
0.0
 10
10.2115510937
 20
4.4571225461
 30
0.0
  0
SPLINE
  5
2C1
100
AcDbEntity
  8
0
100
AcDbSpline
 62
9
  6
CONTINUOUS
 70
0
 71
3
 72
13
 73
9
 74
0
 42
0.0000001
 43
0.0000001
 44
0.0000000001
 40
0.0
 40
0.0
 40
0.0
 40
0.0
 40
0.2432158378
 40
0.3668779491
 40
0.4917222083
 40
0.6176097718
 40
0.7443945968
 40
1.0
 40
1.0
 40
1.0
 40
1.0
 10
10.2115510937
 20
4.4571225461
 30
0.0
 10
10.2595634909
 20
4.4368784203
 30
0.0
 10
10.3333042155
 20
4.409351509
 30
0.0
 10
10.4340051058
 20
4.3783613886
 30
0.0
 10
10.5115400498
 20
4.3577403462
 30
0.0
 10
10.5904526582
 20
4.3399275009
 30
0.0
 10
10.6975101458
 20
4.3199299942
 30
0.0
 10
10.7788445291
 20
4.3093582539
 30
0.0
 10
10.8333667523
 20
4.3042595779
 30
0.0
  0
SPLINE
  5
2C2
100
AcDbEntity
  8
0
100
AcDbSpline
 62
9
  6
CONTINUOUS
 70
0
 71
3
 72
13
 73
9
 74
0
 42
0.0000001
 43
0.0000001
 44
0.0000000001
 40
0.0
 40
0.0
 40
0.0
 40
0.0
 40
0.2553101934
 40
0.3819962847
 40
0.5078323122
 40
0.6326821416
 40
0.7564138655
 40
1.0
 40
1.0
 40
1.0
 40
1.0
 10
11.2613461582
 20
4.3042667406
 30
0.0
 10
11.3139800336
 20
4.3091906184
 30
0.0
 10
11.3925134168
 20
4.3193015948
 30
0.0
 10
11.4959519425
 20
4.3382825053
 30
0.0
 10
11.5722664553
 20
4.355145562
 30
0.0
 10
11.6473230436
 20
4.3746311573
 30
0.0
 10
11.7449552277
 20
4.4038876309
 30
0.0
 10
11.8165561777
 20
4.4298297163
 30
0.0
 10
11.8632509719
 20
4.4488927861
 30
0.0
  0
SPLINE
  5
2C3
100
AcDbEntity
  8
0
100
AcDbSpline
 62
9
  6
CONTINUOUS
 70
0
 71
3
 72
11
 73
7
 74
0
 42
0.0000001
 43
0.0000001
 44
0.0000000001
 40
0.0
 40
0.0
 40
0.0
 40
0.0
 40
0.2451722567
 40
0.4938432115
 40
0.7456026596
 40
1.0
 40
1.0
 40
1.0
 40
1.0
 10
11.9775709624
 20
4.2368985597
 30
0.0
 10
11.9427381437
 20
4.222678121
 30
0.0
 10
11.8718127565
 20
4.1958675061
 30
0.0
 10
11.762838816
 20
4.1608427722
 30
0.0
 10
11.650910867
 20
4.1308425066
 30
0.0
 10
11.5749729419
 20
4.1143492724
 30
0.0
 10
11.5366391919
 20
4.1069601435
 30
0.0
  0
SPLINE
  5
2C4
100
AcDbEntity
  8
0
100
AcDbSpline
 62
9
  6
CONTINUOUS
 70
0
 71
3
 72
10
 73
6
 74
0
 42
0.0000001
 43
0.0000001
 44
0.0000000001
 40
0.0
 40
0.0
 40
0.0
 40
0.0
 40
0.2486995808
 40
0.6237230016
 40
1.0
 40
1.0
 40
1.0
 40
1.0
 10
11.4522224594
 20
4.0921777914
 30
0.0
 10
11.4183331289
 20
4.0868345785
 30
0.0
 10
11.3330616466
 20
4.0751558068
 30
0.0
 10
11.195542704
 20
4.0632861542
 30
0.0
 10
11.0918675066
 20
4.0605099148
 30
0.0
 10
11.0399605087
 20
4.0606551031
 30
0.0
  0
SPLINE
  5
2C5
100
AcDbEntity
  8
0
100
AcDbSpline
 62
9
  6
CONTINUOUS
 70
0
 71
3
 72
56
 73
52
 74
0
 42
0.0000001
 43
0.0000001
 44
0.0000000001
 40
0.0
 40
0.0
 40
0.0
 40
0.0
 40
0.0373578786
 40
0.0745855035
 40
0.1115608367
 40
0.1481661327
 40
0.1842900627
 40
0.2198298878
 40
0.2546937096
 40
0.2888027286
 40
0.3220936329
 40
0.338420243
 40
0.3545269266
 40
0.3704111817
 40
0.3860719243
 40
0.4015095522
 40
0.4167259893
 40
0.4317247523
 40
0.4465110096
 40
0.4610915947
 40
0.4754750273
 40
0.4896715366
 40
0.5036930293
 40
0.5175530425
 40
0.5312666923
 40
0.5448505788
 40
0.5583226517
 40
0.5717020643
 40
0.5850089993
 40
0.5982644544
 40
0.6114900153
 40
0.6247076156
 40
0.6379392817
 40
0.6512068774
 40
0.6645318495
 40
0.6779349884
 40
0.6914362114
 40
0.7050543598
 40
0.7188070183
 40
0.7327103832
 40
0.7467791481
 40
0.761026402
 40
0.775463582
 40
0.7901004485
 40
0.8049450582
 40
0.8352739955
 40
0.8664894984
 40
0.8985975018
 40
0.9315806691
 40
0.9654003791
 40
1.0
 40
1.0
 40
1.0
 40
1.0
 10
11.0399605087
 20
4.0606551031
 30
0.0
 10
10.9893394278
 20
4.0607966947
 30
0.0
 10
10.8882574391
 20
4.063995265
 30
0.0
 10
10.7376131594
 20
4.0775188007
 30
0.0
 10
10.5890187586
 20
4.099675982
 30
0.0
 10
10.443466743
 20
4.1303204799
 30
0.0
 10
10.3019207722
 20
4.1692503397
 30
0.0
 10
10.1653205727
 20
4.2162092696
 30
0.0
 10
10.0345705466
 20
4.2708890774
 30
0.0
 10
9.9105429626
 20
4.3329281934
 30
0.0
 10
9.8128332095
 20
4.3908018672
 30
0.0
 10
9.7388696522
 20
4.4404412218
 30
0.0
 10
9.6859312143
 20
4.4789944277
 30
0.0
 10
9.6352615862
 20
4.5190449379
 30
0.0
 10
9.5869444886
 20
4.5605268305
 30
0.0
 10
9.5410607312
 20
4.6033710754
 30
0.0
 10
9.4976870125
 20
4.6475067288
 30
0.0
 10
9.4568959912
 20
4.6928606312
 30
0.0
 10
9.4187558661
 20
4.7393574163
 30
0.0
 10
9.3833306405
 20
4.7869199234
 30
0.0
 10
9.350680022
 20
4.8354692594
 30
0.0
 10
9.3208588902
 20
4.8849246258
 30
0.0
 10
9.2939175383
 20
4.9352037011
 30
0.0
 10
9.2699017403
 20
4.986222791
 30
0.0
 10
9.24885226
 20
5.03789674
 30
0.0
 10
9.2308047989
 20
5.0901391326
 30
0.0
 10
9.215790276
 20
5.1428625514
 30
0.0
 10
9.2038345433
 20
5.1959786083
 30
0.0
 10
9.1949579352
 20
5.2493980479
 30
0.0
 10
9.189175733
 20
5.3030310549
 30
0.0
 10
9.1864981152
 20
5.35678736
 30
0.0
 10
9.1869295512
 20
5.4105763957
 30
0.0
 10
9.1904692087
 20
5.4643075604
 30
0.0
 10
9.1971111547
 20
5.5178903543
 30
0.0
 10
9.2068439413
 20
5.5712345839
 30
0.0
 10
9.2196506532
 20
5.6242506057
 30
0.0
 10
9.2355093965
 20
5.6768494125
 30
0.0
 10
9.2543931652
 20
5.7289427884
 30
0.0
 10
9.2762695315
 20
5.7804436247
 30
0.0
 10
9.3011012737
 20
5.8312659075
 30
0.0
 10
9.3288464199
 20
5.8813247632
 30
0.0
 10
9.3594579734
 20
5.9305369254
 30
0.0
 10
9.3928839666
 20
5.9788203441
 30
0.0
 10
9.4290691351
 20
6.0260956072
 30
0.0
 10
9.481279066
 20
6.0881148972
 30
0.0
 10
9.553281893
 20
6.1626821802
 30
0.0
 10
9.6489847318
 20
6.2462333368
 30
0.0
 10
9.7539737825
 20
6.3239652854
 30
0.0
 10
9.8675456853
 20
6.3953654948
 30
0.0
 10
9.9889396419
 20
6.4599667152
 30
0.0
 10
10.0736598054
 20
6.4978224326
 30
0.0
 10
10.1170657142
 20
6.5155428207
 30
0.0
  0
SPLINE
  5
2C6
100
AcDbEntity
  8
0
100
AcDbSpline
 62
7
  6
CONTINUOUS
 70
0
 71
3
 72
19
 73
15
 74
0
 42
0.0000001
 43
0.0000001
 44
0.0000000001
 40
0.0
 40
0.0
 40
0.0
 40
0.0
 40
0.0579658395
 40
0.1160590309
 40
0.1744049347
 40
0.233125152
 40
0.2923356587
 40
0.3521453471
 40
0.4126546984
 40
0.4739546286
 40
0.5991876227
 40
0.7284133781
 40
0.8619634608
 40
1.0
 40
1.0
 40
1.0
 40
1.0
 10
11.6223183042
 20
6.6208627351
 30
0.0
 10
11.6223182733
 20
6.6144981967
 30
0.0
 10
11.6218946833
 20
6.6017510943
 30
0.0
 10
11.6199900814
 20
6.5826833747
 30
0.0
 10
11.6168209644
 20
6.5636999673
 30
0.0
 10
11.6123941707
 20
6.5448443464
 30
0.0
 10
11.606720061
 20
6.5261580568
 30
0.0
 10
11.5998117042
 20
6.5076827444
 30
0.0
 10
11.5916840927
 20
6.4894588168
 30
0.0
 10
11.5791608285
 20
6.4653826112
 30
0.0
 10
11.5604631851
 20
6.4360891097
 30
0.0
 10
11.5336783913
 20
6.4028581194
 30
0.0
 10
11.5026274372
 20
6.3715718966
 30
0.0
 10
11.4796385337
 20
6.3524994927
 30
0.0
 10
11.4675552138
 20
6.3433506016
 30
0.0
  0
SPLINE
  5
2C7
100
AcDbEntity
  8
0
100
AcDbSpline
 62
9
  6
CONTINUOUS
 70
0
 71
3
 72
28
 73
24
 74
0
 42
0.0000001
 43
0.0000001
 44
0.0000000001
 40
0.0
 40
0.0
 40
0.0
 40
0.0
 40
0.0251805018
 40
0.0504416358
 40
0.0758622355
 40
0.1015176242
 40
0.1274781311
 40
0.1538078116
 40
0.1805633849
 40
0.2077935874
 40
0.2355387597
 40
0.2638305645
 40
0.3221116912
 40
0.3827509861
 40
0.4457093991
 40
0.510839378
 40
0.5779014414
 40
0.6465809625
 40
0.7165047541
 40
0.7872567936
 40
0.8583936443
 40
0.9294585962
 40
1.0
 40
1.0
 40
1.0
 40
1.0
 10
10.5948183883
 20
6.909271898
 30
0.0
 10
10.5948183856
 20
6.9032196718
 30
0.0
 10
10.5953057497
 20
6.8910902403
 30
0.0
 10
10.5974952838
 20
6.8729698873
 30
0.0
 10
10.6011363055
 20
6.8549672649
 30
0.0
 10
10.6062162218
 20
6.8371426303
 30
0.0
 10
10.6127178712
 20
6.8195534855
 30
0.0
 10
10.6206195654
 20
6.8022569412
 30
0.0
 10
10.6298948592
 20
6.7853086105
 30
0.0
 10
10.6405128893
 20
6.7687629898
 30
0.0
 10
10.652439424
 20
6.7526725726
 30
0.0
 10
10.670205563
 20
6.7316911233
 30
0.0
 10
10.6955762783
 20
6.706893637
 30
0.0
 10
10.7301997898
 20
6.6800662633
 30
0.0
 10
10.7688647128
 20
6.6561930193
 30
0.0
 10
10.8110735295
 20
6.6355730923
 30
0.0
 10
10.8562895914
 20
6.6184615268
 30
0.0
 10
10.9039372691
 20
6.6050720477
 30
0.0
 10
10.9534105777
 20
6.5955727408
 30
0.0
 10
11.0040794291
 20
6.5900827283
 30
0.0
 10
11.0552997531
 20
6.5886715872
 30
0.0
 10
11.1064149661
 20
6.5913561332
 30
0.0
 10
11.1401935356
 20
6.5958818867
 30
0.0
 10
11.1568904109
 20
6.5988284967
 30
0.0
  0
SPLINE
  5
2C8
100
AcDbEntity
  8
0
100
AcDbSpline
 62
7
  6
CONTINUOUS
 70
0
 71
3
 72
15
 73
11
 74
0
 42
0.0000001
 43
0.0000001
 44
0.0000000001
 40
0.0
 40
0.0
 40
0.0
 40
0.0
 40
0.1194661634
 40
0.2397612141
 40
0.3613045139
 40
0.484487009
 40
0.6096612987
 40
0.7371347255
 40
0.8671840536
 40
1.0
 40
1.0
 40
1.0
 40
1.0
 10
10.64159795
 20
7.1436153285
 30
0.0
 10
10.642006418
 20
7.1381253473
 30
0.0
 10
10.6432999517
 20
7.1271368405
 30
0.0
 10
10.6466452939
 20
7.1108079187
 30
0.0
 10
10.6513876344
 20
7.0946494889
 30
0.0
 10
10.6575094068
 20
7.0787216676
 30
0.0
 10
10.6649882348
 20
7.0630816344
 30
0.0
 10
10.67379723
 20
7.0477848651
 30
0.0
 10
10.6839042206
 20
7.0328875586
 30
0.0
 10
10.6914026373
 20
7.0233598009
 30
0.0
 10
10.6953467171
 20
7.0186797703
 30
0.0
  0
SPLINE
  5
2C9
100
AcDbEntity
  8
0
100
AcDbSpline
 62
7
  6
CONTINUOUS
 70
0
 71
3
 72
28
 73
24
 74
0
 42
0.0000001
 43
0.0000001
 44
0.0000000001
 40
0.0
 40
0.0
 40
0.0
 40
0.0
 40
0.0274403566
 40
0.0549852206
 40
0.0826565533
 40
0.1104755689
 40
0.1384626426
 40
0.1666372058
 40
0.2236109057
 40
0.2815411116
 40
0.3109061041
 40
0.3405513238
 40
0.4007164449
 40
0.4621183832
 40
0.4933040384
 40
0.5248165228
 40
0.5888263959
 40
0.654167229
 40
0.7208318346
 40
0.7887955118
 40
0.8580175605
 40
0.9284419478
 40
1.0
 40
1.0
 40
1.0
 40
1.0
 10
13.1858123295
 20
4.741122779
 30
0.0
 10
13.1836306253
 20
4.7262304919
 30
0.0
 10
13.178641263
 20
4.6964760111
 30
0.0
 10
13.1693139353
 20
4.6520958478
 30
0.0
 10
13.1581387902
 20
4.6079296162
 30
0.0
 10
13.1451259593
 20
4.564017047
 30
0.0
 10
13.1302865644
 20
4.5203955059
 30
0.0
 10
13.1080031679
 20
4.4624643907
 30
0.0
 10
13.0755693446
 20
4.390910082
 30
0.0
 10
13.0375421217
 20
4.3214272818
 30
0.0
 10
13.0037411287
 20
4.2668994925
 30
0.0
 10
12.9673383209
 20
4.2125902688
 30
0.0
 10
12.9175564716
 20
4.1461631564
 30
0.0
 10
12.8628861302
 20
4.0825875802
 30
0.0
 10
12.8160711027
 20
4.0331590346
 30
0.0
 10
12.7667051704
 20
3.9842233246
 30
0.0
 10
12.7011755406
 20
3.9250486946
 30
0.0
 10
12.61720906
 20
3.857803616
 30
0.0
 10
12.5277917131
 20
3.7941811622
 30
0.0
 10
12.4332366993
 20
3.7344022044
 30
0.0
 10
12.3338712612
 20
3.678671801
 30
0.0
 10
12.2300436587
 20
3.6271831671
 30
0.0
 10
12.1586254813
 20
3.5960371378
 30
0.0
 10
12.122286909
 20
3.5812019778
 30
0.0
  0
SPLINE
  5
2CA
100
AcDbEntity
  8
0
100
AcDbSpline
 62
7
  6
CONTINUOUS
 70
0
 71
3
 72
11
 73
7
 74
0
 42
0.0000001
 43
0.0000001
 44
0.0000000001
 40
0.0
 40
0.0
 40
0.0
 40
0.0
 40
0.2451154195
 40
0.4928994654
 40
0.7442583843
 40
1.0
 40
1.0
 40
1.0
 40
1.0
 10
10.5874550763
 20
6.6062364094
 30
0.0
 10
10.5885431437
 20
6.6134106292
 30
0.0
 10
10.5914013904
 20
6.6277440396
 30
0.0
 10
10.59765838
 20
6.6488990612
 30
0.0
 10
10.6058736725
 20
6.669710896
 30
0.0
 10
10.6125691336
 20
6.683170132
 30
0.0
 10
10.6162149623
 20
6.6898052991
 30
0.0
  0
SPLINE
  5
2CB
100
AcDbEntity
  8
0
100
AcDbSpline
 62
7
  6
CONTINUOUS
 70
0
 71
3
 72
9
 73
5
 74
0
 42
0.0000001
 43
0.0000001
 44
0.0000000001
 40
0.0
 40
0.0
 40
0.0
 40
0.0
 40
0.4938724707
 40
1.0
 40
1.0
 40
1.0
 40
1.0
 10
10.6162149623
 20
6.6898052991
 30
0.0
 10
10.6204415888
 20
6.6974974798
 30
0.0
 10
10.6297417873
 20
6.7126745427
 30
0.0
 10
10.6403570652
 20
6.7269584452
 30
0.0
 10
10.6460197007
 20
6.733946942
 30
0.0
  0
SPLINE
  5
2CC
100
AcDbEntity
  8
0
100
AcDbSpline
 62
7
  6
CONTINUOUS
 70
0
 71
3
 72
28
 73
24
 74
0
 42
0.0000001
 43
0.0000001
 44
0.0000000001
 40
0.0
 40
0.0
 40
0.0
 40
0.0
 40
0.0260054058
 40
0.0521256149
 40
0.0784111205
 40
0.1049099465
 40
0.1316670103
 40
0.1587236833
 40
0.1861172036
 40
0.213880569
 40
0.2420419468
 40
0.270624919
 40
0.2996481866
 40
0.3291256947
 40
0.3894584388
 40
0.4516615567
 40
0.5156870467
 40
0.5814261774
 40
0.6487174898
 40
0.7173543243
 40
0.78709278
 40
0.8576597564
 40
1.0
 40
1.0
 40
1.0
 40
1.0
 10
11.4529368101
 20
7.2183034504
 30
0.0
 10
11.4525789495
 20
7.2136420793
 30
0.0
 10
11.4515574404
 20
7.2043193091
 30
0.0
 10
11.4491200423
 20
7.1904260352
 30
0.0
 10
11.4457807068
 20
7.1766298328
 30
0.0
 10
11.441547033
 20
7.1629618322
 30
0.0
 10
11.4364291254
 20
7.1494516398
 30
0.0
 10
11.4304383191
 20
7.1361290082
 30
0.0
 10
11.4235888302
 20
7.1230227049
 30
0.0
 10
11.4158958276
 20
7.110161472
 30
0.0
 10
11.4073771939
 20
7.0975729305
 30
0.0
 10
11.3980520408
 20
7.0852845687
 30
0.0
 10
11.3879413065
 20
7.0733225477
 30
0.0
 10
11.3733326978
 20
7.0577244329
 30
0.0
 10
11.3531845301
 20
7.0391936957
 30
0.0
 10
11.3264726
 20
7.0188408204
 30
0.0
 10
11.2972747449
 20
7.0003655118
 30
0.0
 10
11.2658533795
 20
6.9839239947
 30
0.0
 10
11.2324876776
 20
6.9696527419
 30
0.0
 10
11.1974756918
 20
6.9576704098
 30
0.0
 10
11.1611249391
 20
6.9480748423
 30
0.0
 10
11.1111866719
 20
6.9385435675
 30
0.0
 10
11.0729022226
 20
6.9352219027
 30
0.0
 10
11.0473183383
 20
6.9347087464
 30
0.0
  0
SPLINE
  5
2CD
100
AcDbEntity
  8
0
100
AcDbSpline
 62
9
  6
CONTINUOUS
 70
0
 71
3
 72
52
 73
48
 74
0
 42
0.0000001
 43
0.0000001
 44
0.0000000001
 40
0.0
 40
0.0
 40
0.0
 40
0.0
 40
0.0133202643
 40
0.0265143702
 40
0.0395963609
 40
0.0525813025
 40
0.0654851553
 40
0.0783246468
 40
0.0911171332
 40
0.1038804292
 40
0.1166326382
 40
0.1293919751
 40
0.1421765848
 40
0.1550043604
 40
0.1678927672
 40
0.1808586866
 40
0.1939182601
 40
0.2070867495
 40
0.2203784359
 40
0.2338065116
 40
0.2473829957
 40
0.261118696
 40
0.2890977017
 40
0.3178117235
 40
0.3324606946
 40
0.3473067526
 40
0.3623517831
 40
0.3775964754
 40
0.3930403895
 40
0.408681975
 40
0.4405420753
 40
0.4731492872
 40
0.5064567668
 40
0.5404050416
 40
0.5749237118
 40
0.6099330834
 40
0.6453457709
 40
0.6810682802
 40
0.7170025336
 40
0.753047373
 40
0.7891000537
 40
0.8250577176
 40
0.8608188716
 40
0.8962848736
 40
0.9313614568
 40
0.9659599706
 40
1.0
 40
1.0
 40
1.0
 40
1.0
 10
9.1502211942
 20
5.4535331714
 30
0.0
 10
9.1421926788
 20
5.4367129034
 30
0.0
 10
9.1270172262
 20
5.4028397427
 30
0.0
 10
9.106886781
 20
5.3511982337
 30
0.0
 10
9.0895316799
 20
5.2990512984
 30
0.0
 10
9.0749776841
 20
5.2464753798
 30
0.0
 10
9.0632459698
 20
5.1935455423
 30
0.0
 10
9.0543539939
 20
5.1403379756
 30
0.0
 10
9.0483145105
 20
5.0869292965
 30
0.0
 10
9.0451365029
 20
5.0333964264
 30
0.0
 10
9.0448248372
 20
4.9798165319
 30
0.0
 10
9.0473796736
 20
4.9262668651
 30
0.0
 10
9.0527973783
 20
4.8728246075
 30
0.0
 10
9.0610701429
 20
4.8195667957
 30
0.0
 10
9.0721855231
 20
4.7665700643
 30
0.0
 10
9.0861273636
 20
4.7139106564
 30
0.0
 10
9.1028753857
 20
4.6616642709
 30
0.0
 10
9.122404845
 20
4.6099057997
 30
0.0
 10
9.1446874955
 20
4.5587093876
 30
0.0
 10
9.169690844
 20
4.508148599
 30
0.0
 10
9.1973791141
 20
4.458294646
 30
0.0
 10
9.2380668479
 20
4.3924652229
 30
0.0
 10
9.2955940354
 20
4.312280316
 30
0.0
 10
9.3606622318
 20
4.236414448
 30
0.0
 10
9.4173784015
 20
4.177934371
 30
0.0
 10
9.4625322195
 20
4.1349546462
 30
0.0
 10
9.5099487759
 20
4.0932150675
 30
0.0
 10
9.5595608755
 20
4.0527738629
 30
0.0
 10
9.6112981285
 20
4.0136885238
 30
0.0
 10
9.6834512444
 20
3.9631518214
 30
0.0
 10
9.7786172736
 20
3.9037429761
 30
0.0
 10
9.8993319538
 20
3.8391632006
 30
0.0
 10
10.0265819766
 20
3.7812152881
 30
0.0
 10
10.1596390812
 20
3.7302282754
 30
0.0
 10
10.2977475051
 20
3.6864891627
 30
0.0
 10
10.4401212835
 20
3.6502452896
 30
0.0
 10
10.5859504659
 20
3.6217013718
 30
0.0
 10
10.7344053044
 20
3.6010190627
 30
0.0
 10
10.8846410195
 20
3.5883155778
 30
0.0
 10
11.0358025848
 20
3.5836627035
 30
0.0
 10
11.1870297026
 20
3.5870868774
 30
0.0
 10
11.3374616307
 20
3.5985688072
 30
0.0
 10
11.4862423851
 20
3.618043314
 30
0.0
 10
11.6325248574
 20
3.6453999287
 30
0.0
 10
11.7754781842
 20
3.6804847369
 30
0.0
 10
11.9142829221
 20
3.7230962366
 30
0.0
 10
12.0043394572
 20
3.7566648639
 30
0.0
 10
12.0484360611
 20
3.774667227
 30
0.0
  0
SPLINE
  5
2CE
100
AcDbEntity
  8
0
100
AcDbSpline
 62
9
  6
CONTINUOUS
 70
0
 71
3
 72
25
 73
21
 74
0
 42
0.0000001
 43
0.0000001
 44
0.0000000001
 40
0.0
 40
0.0
 40
0.0
 40
0.0
 40
0.0282675409
 40
0.0565574792
 40
0.084892091
 40
0.1132934036
 40
0.1417830797
 40
0.1703823026
 40
0.2279804847
 40
0.28625487
 40
0.3453477287
 40
0.4053853696
 40
0.466476563
 40
0.528711557
 40
0.5921616264
 40
0.6568790728
 40
0.7228975883
 40
0.7902328982
 40
0.8588836075
 40
1.0
 40
1.0
 40
1.0
 40
1.0
 10
9.14231838
 20
5.1983375589
 30
0.0
 10
9.1423184006
 20
5.1856894575
 30
0.0
 10
9.1428226136
 20
5.1603803361
 30
0.0
 10
9.1450910831
 20
5.1224542632
 30
0.0
 10
9.1488696553
 20
5.0845880014
 30
0.0
 10
9.1541554741
 20
5.0468127132
 30
0.0
 10
9.1609443279
 20
5.0091575938
 30
0.0
 10
9.1720171654
 20
4.9590395564
 30
0.0
 10
9.1896346525
 20
4.8967714092
 30
0.0
 10
9.2166277757
 20
4.8232090539
 30
0.0
 10
9.2494361807
 20
4.7508501139
 30
0.0
 10
9.2879515493
 20
4.6799276837
 30
0.0
 10
9.3320483812
 20
4.6106653851
 30
0.0
 10
9.38158378
 20
4.5432819826
 30
0.0
 10
9.4363981126
 20
4.4779895581
 30
0.0
 10
9.4963159161
 20
4.4149931266
 30
0.0
 10
9.5611447612
 20
4.3544911686
 30
0.0
 10
9.6306822662
 20
4.2966708264
 30
0.0
 10
9.7302683576
 20
4.2227352726
 30
0.0
 10
9.8100485347
 20
4.1728800305
 30
0.0
 10
9.8651496442
 20
4.1420463712
 30
0.0
  0
SPLINE
  5
2CF
100
AcDbEntity
  8
0
100
AcDbSpline
 62
9
  6
CONTINUOUS
 70
0
 71
3
 72
23
 73
19
 74
0
 42
0.0000001
 43
0.0000001
 44
0.0000000001
 40
0.0
 40
0.0
 40
0.0
 40
0.0
 40
0.0584999507
 40
0.1182126263
 40
0.1790307128
 40
0.240828731
 40
0.3034657828
 40
0.3667882808
 40
0.4306325811
 40
0.4948275477
 40
0.5591971024
 40
0.6235627306
 40
0.6877459718
 40
0.7515709128
 40
0.8148666956
 40
0.8774701169
 40
0.9392276395
 40
1.0
 40
1.0
 40
1.0
 40
1.0
 10
9.8651496442
 20
4.1420463712
 30
0.0
 10
9.9026812213
 20
4.1210443284
 30
0.0
 10
9.9799427126
 20
4.0810958881
 30
0.0
 10
10.1004767416
 20
4.0280305693
 30
0.0
 10
10.2262548207
 20
3.9814560709
 30
0.0
 10
10.356574638
 20
3.9416318654
 30
0.0
 10
10.4907170391
 20
3.9087756157
 30
0.0
 10
10.6279394167
 20
3.8830683204
 30
0.0
 10
10.7674826823
 20
3.8646515622
 30
0.0
 10
10.908574602
 20
3.8536266963
 30
0.0
 10
11.050434371
 20
3.8500543974
 30
0.0
 10
11.1922769031
 20
3.8539544884
 30
0.0
 10
11.3333171575
 20
3.8653054457
 30
0.0
 10
11.4727747433
 20
3.8840446639
 30
0.0
 10
11.609877551
 20
3.9100688168
 30
0.0
 10
11.743868338
 20
3.9432354431
 30
0.0
 10
11.874000252
 20
3.9833593137
 30
0.0
 10
11.9584537739
 20
4.0148810562
 30
0.0
 10
11.9998183383
 20
4.0317680689
 30
0.0
  0
SPLINE
  5
2D0
100
AcDbEntity
  8
0
100
AcDbSpline
 62
9
  6
CONTINUOUS
 70
0
 71
3
 72
42
 73
38
 74
0
 42
0.0000001
 43
0.0000001
 44
0.0000000001
 40
0.0
 40
0.0
 40
0.0
 40
0.0
 40
0.0124258905
 40
0.0248650666
 40
0.0373307121
 40
0.0498358162
 40
0.0623930789
 40
0.0750148151
 40
0.100492447
 40
0.1263631987
 40
0.1394735266
 40
0.1527102454
 40
0.1795881195
 40
0.2070553619
 40
0.2351518492
 40
0.2639044403
 40
0.293327355
 40
0.3234227801
 40
0.3541816285
 40
0.3855843914
 40
0.4176020424
 40
0.4501969636
 40
0.4833238724
 40
0.5169307372
 40
0.5509596763
 40
0.5853478378
 40
0.6200282603
 40
0.6549307168
 40
0.6899825435
 40
0.7251094586
 40
0.7602363733
 40
0.7952881996
 40
0.8301906545
 40
0.864871082
 40
0.8992592272
 40
0.933288225
 40
1.0
 40
1.0
 40
1.0
 40
1.0
 10
9.4273183795
 20
5.4611215783
 30
0.0
 10
9.4273183567
 20
5.4486248559
 30
0.0
 10
9.4278974397
 20
5.4236141896
 30
0.0
 10
9.4305018295
 20
5.386148404
 30
0.0
 10
9.4348393988
 20
5.3487625393
 30
0.0
 10
9.4409051292
 20
5.3114980927
 30
0.0
 10
9.4486930497
 20
5.2743941949
 30
0.0
 10
9.461398181
 20
5.2250435092
 30
0.0
 10
9.4816094686
 20
5.1638715893
 30
0.0
 10
9.5072436873
 20
5.1042388785
 30
0.0
 10
9.5309697634
 20
5.0573742335
 30
0.0
 10
9.5570987218
 20
5.010641165
 30
0.0
 10
9.5938571637
 20
4.9533794018
 30
0.0
 10
9.6439567234
 20
4.8872194836
 30
0.0
 10
9.7000571204
 20
4.8235333431
 30
0.0
 10
9.7619135093
 20
4.7625933089
 30
0.0
 10
9.8292596939
 20
4.7046556563
 30
0.0
 10
9.9018063074
 20
4.6499650964
 30
0.0
 10
9.9792426318
 20
4.5987524133
 30
0.0
 10
10.0612375257
 20
4.5512339654
 30
0.0
 10
10.1474407367
 20
4.5076106624
 30
0.0
 10
10.2374842671
 20
4.4680671424
 30
0.0
 10
10.3309838532
 20
4.4327709416
 30
0.0
 10
10.4275405375
 20
4.4018717415
 30
0.0
 10
10.526742326
 20
4.3755006854
 30
0.0
 10
10.6281659189
 20
4.3537697785
 30
0.0
 10
10.7313785033
 20
4.336771374
 30
0.0
 10
10.8359395945
 20
4.3245777471
 30
0.0
 10
10.9414029234
 20
4.3172407674
 30
0.0
 10
11.0473183321
 20
4.3147916424
 30
0.0
 10
11.1532337688
 20
4.3172407949
 30
0.0
 10
11.258697007
 20
4.3245777617
 30
0.0
 10
11.3632584193
 20
4.3367714756
 30
0.0
 10
11.4664698209
 20
4.3537695192
 30
0.0
 10
11.5678977792
 20
4.3755017061
 30
0.0
 10
11.6992678056
 20
4.4104233334
 30
0.0
 10
11.7952031652
 20
4.4437198192
 30
0.0
 10
11.8573183383
 20
4.4690782324
 30
0.0
  0
SPLINE
  5
2D1
100
AcDbEntity
  8
0
100
AcDbSpline
 62
9
  6
CONTINUOUS
 70
0
 71
3
 72
22
 73
18
 74
0
 42
0.0000001
 43
0.0000001
 44
0.0000000001
 40
0.0
 40
0.0
 40
0.0
 40
0.0
 40
0.056548967
 40
0.1132764586
 40
0.1703570786
 40
0.2279577973
 40
0.2862346276
 40
0.3453298252
 40
0.4053696895
 40
0.4664629862
 40
0.5286999639
 40
0.5921519026
 40
0.6568711134
 40
0.7228913034
 40
0.7902282107
 40
0.8588804769
 40
1.0
 40
1.0
 40
1.0
 40
1.0
 10
12.9523182965
 20
5.1983375589
 30
0.0
 10
12.9523183377
 20
5.1730388072
 30
0.0
 10
12.9502955121
 20
5.1223383616
 30
0.0
 10
12.9412081356
 20
5.0465917701
 30
0.0
 10
12.9260965265
 20
4.9713301508
 30
0.0
 10
12.9050114487
 20
4.8968019481
 30
0.0
 10
12.8780232158
 20
4.823244254
 30
0.0
 10
12.845221184
 20
4.75089222
 30
0.0
 10
12.8067131225
 20
4.6799755702
 30
0.0
 10
12.762624622
 20
4.6107187699
 30
0.0
 10
12.7130984861
 20
4.543340276
 30
0.0
 10
12.6582942977
 20
4.4780521828
 30
0.0
 10
12.598387451
 20
4.4150594327
 30
0.0
 10
12.5335703034
 20
4.3545604646
 30
0.0
 10
12.4640451591
 20
4.2967423672
 30
0.0
 10
12.3644764792
 20
4.2228087779
 30
0.0
 10
12.284709782
 20
4.1729537454
 30
0.0
 10
12.2296178077
 20
4.1421196169
 30
0.0
  0
SPLINE
  5
2D2
100
AcDbEntity
  8
0
100
AcDbSpline
 62
9
  6
CONTINUOUS
 70
0
 71
3
 72
9
 73
5
 74
0
 42
0.0000001
 43
0.0000001
 44
0.0000000001
 40
0.0
 40
0.0
 40
0.0
 40
0.0
 40
0.2462366076
 40
1.0
 40
1.0
 40
1.0
 40
1.0
 10
12.2296178077
 20
4.1421196169
 30
0.0
 10
12.2113527896
 20
4.1318969679
 30
0.0
 10
12.1365127653
 20
4.0915741796
 30
0.0
 10
12.0591384986
 20
4.0559854229
 30
0.0
 10
11.9998183383
 20
4.0317680689
 30
0.0
  0
SPLINE
  5
2D3
100
AcDbEntity
  8
0
100
AcDbSpline
 62
9
  6
CONTINUOUS
 70
0
 71
3
 72
29
 73
25
 74
0
 42
0.0000001
 43
0.0000001
 44
0.0000000001
 40
0.0
 40
0.0
 40
0.0
 40
0.0
 40
0.0276002701
 40
0.0552300495
 40
0.0829186234
 40
0.1106948407
 40
0.1385869141
 40
0.1666221949
 40
0.1948270359
 40
0.2232265719
 40
0.2518446202
 40
0.2807035276
 40
0.3098240543
 40
0.3392253361
 40
0.3989262105
 40
0.459936184
 40
0.5223438336
 40
0.5862088208
 40
0.6515627258
 40
0.7184104107
 40
0.7867316391
 40
0.8564832799
 40
0.927600217
 40
1.0
 40
1.0
 40
1.0
 40
1.0
 10
12.9523182965
 20
5.3277726261
 30
0.0
 10
12.9523183205
 20
5.3130774062
 30
0.0
 10
12.9516373525
 20
5.2836667184
 30
0.0
 10
12.9485748051
 20
5.2396097164
 30
0.0
 10
12.9434741325
 20
5.1956467522
 30
0.0
 10
12.9363412414
 20
5.1518263706
 30
0.0
 10
12.9271834676
 20
5.1081954941
 30
0.0
 10
12.9160113177
 20
5.0648010397
 30
0.0
 10
12.9028365152
 20
5.021689744
 30
0.0
 10
12.8876737283
 20
4.978907842
 30
0.0
 10
12.8705392888
 20
4.9365012247
 30
0.0
 10
12.8514518357
 20
4.8945155971
 30
0.0
 10
12.8304318167
 20
4.8529951156
 30
0.0
 10
12.7997062792
 20
4.7980413588
 30
0.0
 10
12.7564810088
 20
4.7307053179
 30
0.0
 10
12.6975676902
 20
4.6529062861
 30
0.0
 10
12.6315977812
 20
4.578016053
 30
0.0
 10
12.5588592261
 20
4.506355111
 30
0.0
 10
12.4796650788
 20
4.4382247421
 30
0.0
 10
12.3943555732
 20
4.3739127189
 30
0.0
 10
12.3032963249
 20
4.3136904076
 30
0.0
 10
12.2068758818
 20
4.2578120946
 30
0.0
 10
12.1055097496
 20
4.2065151748
 30
0.0
 10
12.0355067014
 20
4.1757728493
 30
0.0
 10
11.9998183383
 20
4.1612031361
 30
0.0
  0
SPLINE
  5
2D4
100
AcDbEntity
  8
0
100
AcDbSpline
 62
9
  6
CONTINUOUS
 70
0
 71
3
 72
28
 73
24
 74
0
 42
0.0000001
 43
0.0000001
 44
0.0000000001
 40
0.0
 40
0.0
 40
0.0
 40
0.0
 40
0.0276006137
 40
0.0552307355
 40
0.0829196505
 40
0.1106962171
 40
0.1385886293
 40
0.1666242655
 40
0.1948294492
 40
0.2232293413
 40
0.2518477448
 40
0.2807070044
 40
0.3392171368
 40
0.3989187545
 40
0.4599294911
 40
0.5223379201
 40
0.5862036999
 40
0.6515584104
 40
0.718406923
 40
0.7867289907
 40
0.8564814949
 40
0.9275993531
 40
1.0
 40
1.0
 40
1.0
 40
1.0
 10
12.6673182971
 20
5.4851550294
 30
0.0
 10
12.6673182744
 20
5.4726583063
 30
0.0
 10
12.6667393073
 20
5.4476476386
 30
0.0
 10
12.6641347628
 20
5.4101818551
 30
0.0
 10
12.6597973978
 20
5.372796
 30
0.0
 10
12.6537313856
 20
5.3355314665
 30
0.0
 10
12.6459439122
 20
5.29842799
 30
0.0
 10
12.6364429887
 20
5.2615256791
 30
0.0
 10
12.6252393363
 20
5.2248640379
 30
0.0
 10
12.6123450141
 20
5.1884826952
 30
0.0
 10
12.5977737138
 20
5.1524200067
 30
0.0
 10
12.5760345815
 20
5.104600497
 30
0.0
 10
12.5446620893
 20
5.0457707055
 30
0.0
 10
12.5007805783
 20
4.9774149054
 30
0.0
 10
12.4506797008
 20
4.9112523464
 30
0.0
 10
12.3945796484
 20
4.8475669468
 30
0.0
 10
12.3327231353
 20
4.7866267222
 30
0.0
 10
12.2653769716
 20
4.7286891347
 30
0.0
 10
12.1928303101
 20
4.6739985727
 30
0.0
 10
12.1153941118
 20
4.6227858954
 30
0.0
 10
12.0333987633
 20
4.5752673192
 30
0.0
 10
11.9471976361
 20
4.531644752
 30
0.0
 10
11.8876674832
 20
4.5055016701
 30
0.0
 10
11.8573183383
 20
4.4931116836
 30
0.0
  0
SPLINE
  5
2D5
100
AcDbEntity
  8
0
100
AcDbSpline
 62
7
  6
CONTINUOUS
 70
0
 71
3
 72
23
 73
19
 74
0
 42
0.0000001
 43
0.0000001
 44
0.0000000001
 40
0.0
 40
0.0
 40
0.0
 40
0.0
 40
0.1170472074
 40
0.1474112186
 40
0.1781600775
 40
0.240693523
 40
0.304421511
 40
0.3690733617
 40
0.4343548384
 40
0.4999557938
 40
0.5655583373
 40
0.6308445362
 40
0.6955041308
 40
0.7592426856
 40
0.8217892449
 40
0.852545501
 40
0.882917407
 40
1.0
 40
1.0
 40
1.0
 40
1.0
 10
10.7746075809
 20
7.1296541875
 30
0.0
 10
10.7929313128
 20
7.1165807688
 30
0.0
 10
10.8176498996
 20
7.1022928048
 30
0.0
 10
10.8488829662
 20
7.0882142097
 30
0.0
 10
10.8709431774
 20
7.0793194416
 30
0.0
 10
10.8995963293
 20
7.0696949041
 30
0.0
 10
10.9352116087
 20
7.0606438928
 30
0.0
 10
10.9719101778
 20
7.0541122763
 30
0.0
 10
11.0093367082
 20
7.0501628654
 30
0.0
 10
11.0471301018
 20
7.0488334116
 30
0.0
 10
11.0849253129
 20
7.0501367057
 30
0.0
 10
11.1223572793
 20
7.0540602057
 30
0.0
 10
11.1590648493
 20
7.0605664087
 30
0.0
 10
11.1946926065
 20
7.0695927494
 30
0.0
 10
11.223358738
 20
7.0791973248
 30
0.0
 10
11.245431031
 20
7.0880766989
 30
0.0
 10
11.2766843951
 20
7.1021339672
 30
0.0
 10
11.3014223476
 20
7.1164046765
 30
0.0
 10
11.3197637355
 20
7.1294650486
 30
0.0
  0
SPLINE
  5
2D6
100
AcDbEntity
  8
0
100
AcDbSpline
 62
7
  6
CONTINUOUS
 70
0
 71
3
 72
21
 73
17
 74
0
 42
0.0000001
 43
0.0000001
 44
0.0000000001
 40
0.0
 40
0.0
 40
0.0
 40
0.0
 40
0.1159861517
 40
0.1765035126
 40
0.2384397562
 40
0.3015781446
 40
0.3656755916
 40
0.4304694969
 40
0.495684226
 40
0.5610371954
 40
0.6262454598
 40
0.6910314236
 40
0.755129477
 40
0.8182919262
 40
0.8802955729
 40
1.0
 40
1.0
 40
1.0
 40
1.0
 10
10.7836490259
 20
7.0810464072
 30
0.0
 10
10.8013785387
 20
7.0696011948
 30
0.0
 10
10.8299707939
 20
7.0545701602
 30
0.0
 10
10.8704415305
 20
7.0388846962
 30
0.0
 10
10.9027725353
 20
7.0290264165
 30
0.0
 10
10.9363496158
 20
7.0213417013
 30
0.0
 10
10.970889035
 20
7.0158997584
 30
0.0
 10
11.0060909681
 20
7.0127543241
 30
0.0
 10
11.0416519591
 20
7.0119384877
 30
0.0
 10
11.0772649412
 20
7.0134656638
 30
0.0
 10
11.1126224277
 20
7.0173290218
 30
0.0
 10
11.1474197357
 20
7.0235020116
 30
0.0
 10
11.1813551413
 20
7.0319373408
 30
0.0
 10
11.2141416493
 20
7.0425720483
 30
0.0
 10
11.2554340004
 20
7.0593599305
 30
0.0
 10
11.2846376899
 20
7.0752452519
 30
0.0
 10
11.3028059472
 20
7.0872557982
 30
0.0
  0
SPLINE
  5
2D7
100
AcDbEntity
  8
0
100
AcDbSpline
 62
7
  6
CONTINUOUS
 70
0
 71
3
 72
21
 73
17
 74
0
 42
0.0000001
 43
0.0000001
 44
0.0000000001
 40
0.0
 40
0.0
 40
0.0
 40
0.0
 40
0.1169507564
 40
0.1776782237
 40
0.2396623632
 40
0.3027072239
 40
0.3665971377
 40
0.4311015395
 40
0.4959798962
 40
0.5609866075
 40
0.625875445
 40
0.6904045701
 40
0.7543409487
 40
0.8174652491
 40
0.8795767168
 40
1.0
 40
1.0
 40
1.0
 40
1.0
 10
10.7986415973
 20
7.0229908634
 30
0.0
 10
10.8158319482
 20
7.0129609622
 30
0.0
 10
10.8432229199
 20
6.999809615
 30
0.0
 10
10.8816533758
 20
6.9860985186
 30
0.0
 10
10.9121058043
 20
6.9775176034
 30
0.0
 10
10.9435777389
 20
6.9708452397
 30
0.0
 10
10.9758362748
 20
6.966134612
 30
0.0
 10
11.0086365787
 20
6.9634267676
 30
0.0
 10
11.0417313568
 20
6.962747076
 30
0.0
 10
11.0748706725
 20
6.964105866
 30
0.0
 10
11.1078043151
 20
6.9674980878
 30
0.0
 10
11.140284039
 20
6.9729036268
 30
0.0
 10
11.1720635959
 20
6.980286599
 30
0.0
 10
11.2029076683
 20
6.9895989048
 30
0.0
 10
11.2420480149
 20
7.0043391005
 30
0.0
 10
11.2699665088
 20
7.0182848448
 30
0.0
 10
11.2875320934
 20
7.0288408445
 30
0.0
  0
SPLINE
  5
2D8
100
AcDbEntity
  8
0
100
AcDbSpline
 62
7
  6
CONTINUOUS
 70
0
 71
3
 72
36
 73
32
 74
0
 42
0.0000001
 43
0.0000001
 44
0.0000000001
 40
0.0
 40
0.0
 40
0.0
 40
0.0
 40
0.0248353436
 40
0.0498082844
 40
0.0750490809
 40
0.1006805462
 40
0.1268100144
 40
0.1535287225
 40
0.1809092339
 40
0.2090048461
 40
0.2378496549
 40
0.2674591757
 40
0.2978313684
 40
0.3289480957
 40
0.3607764801
 40
0.3932705083
 40
0.4263726289
 40
0.4600151813
 40
0.4941220264
 40
0.5286099716
 40
0.5983447876
 40
0.6334276849
 40
0.6685167332
 40
0.738300421
 40
0.77283029
 40
0.8069900272
 40
0.8406956207
 40
0.8738699219
 40
0.9064443456
 40
0.9383593218
 40
1.0
 40
1.0
 40
1.0
 40
1.0
 10
10.6410683386
 20
7.3116695084
 30
0.0
 10
10.6410683515
 20
7.3045253632
 30
0.0
 10
10.641826766
 20
7.2901861159
 30
0.0
 10
10.6452291045
 20
7.2688294746
 30
0.0
 10
10.6508767649
 20
7.2477156373
 30
0.0
 10
10.6587348858
 20
7.2269674629
 30
0.0
 10
10.6687569369
 20
7.2067003784
 30
0.0
 10
10.6808838604
 20
7.1870272488
 30
0.0
 10
10.6950456674
 20
7.168056446
 30
0.0
 10
10.7111615779
 20
7.1498919572
 30
0.0
 10
10.7291406499
 20
7.1326330042
 30
0.0
 10
10.7488821492
 20
7.1163737143
 30
0.0
 10
10.7702760395
 20
7.1012027431
 30
0.0
 10
10.7932034774
 20
7.0872029048
 30
0.0
 10
10.8175373598
 20
7.0744506943
 30
0.0
 10
10.8431429258
 20
7.0630159294
 30
0.0
 10
10.8698785544
 20
7.0529612683
 30
0.0
 10
10.8975959598
 20
7.0443419903
 30
0.0
 10
10.926143153
 20
7.0372052025
 30
0.0
 10
10.965235095
 20
7.0296929133
 30
0.0
 10
11.0051620375
 20
7.0253388586
 30
0.0
 10
11.0454047423
 20
7.0241447496
 30
0.0
 10
11.0856685942
 20
7.0250711183
 30
0.0
 10
11.1256513619
 20
7.0291603201
 30
0.0
 10
11.164834663
 20
7.0364108646
 30
0.0
 10
11.193475385
 20
7.0433572876
 30
0.0
 10
11.2213062235
 20
7.0517917304
 30
0.0
 10
11.248173756
 20
7.0616675144
 30
0.0
 10
11.2739319799
 20
7.0729323756
 30
0.0
 10
11.3062164643
 20
7.0895193313
 30
0.0
 10
11.3289514974
 20
7.1041247519
 30
0.0
 10
11.3431286757
 20
7.1147744769
 30
0.0
  0
SPLINE
  5
2D9
100
AcDbEntity
  8
0
100
AcDbSpline
 62
7
  6
CONTINUOUS
 70
0
 71
3
 72
28
 73
24
 74
0
 42
0.0000001
 43
0.0000001
 44
0.0000000001
 40
0.0
 40
0.0
 40
0.0
 40
0.0
 40
0.0260006886
 40
0.0521212923
 40
0.0784116658
 40
0.1049191717
 40
0.1316880326
 40
0.1587589594
 40
0.1861684958
 40
0.2139489649
 40
0.2421279256
 40
0.2707283728
 40
0.2997685185
 40
0.3292618067
 40
0.3896214726
 40
0.4518431197
 40
0.5158771501
 40
0.5816142059
 40
0.6488929371
 40
0.71750747
 40
0.7872152548
 40
0.8577449371
 40
1.0
 40
1.0
 40
1.0
 40
1.0
 10
11.4528107502
 20
7.268000742
 30
0.0
 10
11.4524201635
 20
7.2633563877
 30
0.0
 10
11.451335312
 20
7.2540688739
 30
0.0
 10
11.4488099923
 20
7.2402326814
 30
0.0
 10
11.4453898747
 20
7.2264960207
 30
0.0
 10
11.4410825067
 20
7.2128897105
 30
0.0
 10
11.4358982175
 20
7.1994429639
 30
0.0
 10
11.4298483332
 20
7.1861852025
 30
0.0
 10
11.4229471105
 20
7.1731448406
 30
0.0
 10
11.4152097681
 20
7.1603502468
 30
0.0
 10
11.4066540717
 20
7.1478287549
 30
0.0
 10
11.3972991808
 20
7.135607433
 30
0.0
 10
11.387165838
 20
7.1237122001
 30
0.0
 10
11.3725368246
 20
7.1082033725
 30
0.0
 10
11.3523813155
 20
7.0897820443
 30
0.0
 10
11.3256860253
 20
7.0695522111
 30
0.0
 10
11.2965290746
 20
7.0511912885
 30
0.0
 10
11.2651706675
 20
7.0348534518
 30
0.0
 10
11.2318874672
 20
7.0206733695
 30
0.0
 10
11.1969747174
 20
7.0087681153
 30
0.0
 10
11.1607369363
 20
6.9992342095
 30
0.0
 10
11.1109646607
 20
6.9897635329
 30
0.0
 10
11.0728131009
 20
6.9864607862
 30
0.0
 10
11.0473183383
 20
6.9859484935
 30
0.0
  0
SPLINE
  5
2DA
100
AcDbEntity
  8
0
100
AcDbSpline
 62
9
  6
CONTINUOUS
 70
0
 71
3
 72
26
 73
22
 74
0
 42
0.0000001
 43
0.0000001
 44
0.0000000001
 40
0.0
 40
0.0
 40
0.0
 40
0.0
 40
0.0257136465
 40
0.0514890254
 40
0.0773868056
 40
0.1034656774
 40
0.1297813695
 40
0.1563858627
 40
0.1833268066
 40
0.2106467923
 40
0.2665437939
 40
0.3243344405
 40
0.3841589246
 40
0.4460694498
 40
0.5100368905
 40
0.5759594233
 40
0.6436719984
 40
0.7129560445
 40
0.783548896
 40
0.8551537028
 40
1.0
 40
1.0
 40
1.0
 40
1.0
 10
11.4535682832
 20
8.1198041144
 30
0.0
 10
11.4535682832
 20
8.1151028564
 30
0.0
 10
11.4532410945
 20
8.1056857897
 30
0.0
 10
11.4517700623
 20
8.0916029687
 30
0.0
 10
11.4493226923
 20
8.0775883042
 30
0.0
 10
11.4459049759
 20
8.0636768624
 30
0.0
 10
11.4415254017
 20
8.0499022313
 30
0.0
 10
11.4361952789
 20
8.036297874
 30
0.0
 10
11.4299270804
 20
8.0228964068
 30
0.0
 10
11.42026915
 20
8.0052103557
 30
0.0
 10
11.4058594593
 20
7.983753804
 30
0.0
 10
11.3852608467
 20
7.9595466406
 30
0.0
 10
11.3614227621
 20
7.9368995726
 30
0.0
 10
11.3345792528
 20
7.9160267136
 30
0.0
 10
11.3049889004
 20
7.8971216908
 30
0.0
 10
11.2729357669
 20
7.8803614101
 30
0.0
 10
11.2387261659
 20
7.8659028835
 30
0.0
 10
11.2026881376
 20
7.8538822734
 30
0.0
 10
11.1651616386
 20
7.8444123554
 30
0.0
 10
11.1134512875
 20
7.8352754635
 30
0.0
 10
11.073800767
 20
7.8325419845
 30
0.0
 10
11.0473183383
 20
7.8325419845
 30
0.0
  0
SPLINE
  5
2DB
100
AcDbEntity
  8
0
100
AcDbSpline
 62
7
  6
CONTINUOUS
 70
0
 71
3
 72
18
 73
14
 74
0
 42
0.0000001
 43
0.0000001
 44
0.0000000001
 40
0.0
 40
0.0
 40
0.0
 40
0.0
 40
0.1364726914
 40
0.2715272505
 40
0.4040512076
 40
0.5330297792
 40
0.5959361481
 40
0.6576502066
 40
0.7771699011
 40
0.8349338829
 40
0.8913184584
 40
0.9463324377
 40
1.0
 40
1.0
 40
1.0
 40
1.0
 10
11.0473183383
 20
6.8833389507
 30
0.0
 10
11.0296279868
 20
6.8829850924
 30
0.0
 10
10.9943766383
 20
6.8839047442
 30
0.0
 10
10.942288549
 20
6.890142124
 30
0.0
 10
10.8919762331
 20
6.9011102882
 30
0.0
 10
10.8518995887
 20
6.9141377313
 30
0.0
 10
10.8215289749
 20
6.9267744165
 30
0.0
 10
10.79300528
 20
6.9405233278
 30
0.0
 10
10.7662516979
 20
6.9563300235
 30
0.0
 10
10.7417183334
 20
6.974132859
 30
0.0
 10
10.7248291101
 20
6.9881517269
 30
0.0
 10
10.7093207196
 20
7.0029230609
 30
0.0
 10
10.6998293381
 20
7.0133580233
 30
0.0
 10
10.6953467171
 20
7.0186797703
 30
0.0
  0
SPLINE
  5
2DC
100
AcDbEntity
  8
0
100
AcDbSpline
 62
7
  6
CONTINUOUS
 70
0
 71
3
 72
26
 73
22
 74
0
 42
0.0000001
 43
0.0000001
 44
0.0000000001
 40
0.0
 40
0.0
 40
0.0
 40
0.0
 40
0.1455818156
 40
0.2174583223
 40
0.2882859375
 40
0.3577821115
 40
0.425693757
 40
0.491805813
 40
0.5559498994
 40
0.6180127828
 40
0.6779455749
 40
0.7357719745
 40
0.7915958073
 40
0.8188242199
 40
0.845630076
 40
0.8720505132
 40
0.8981275888
 40
0.9239082144
 40
0.9494434772
 40
0.9747881598
 40
1.0
 40
1.0
 40
1.0
 40
1.0
 10
11.0473183383
 20
6.9347087464
 30
0.0
 10
11.0218172881
 20
6.9341972517
 30
0.0
 10
10.9836066639
 20
6.9359644038
 30
0.0
 10
10.9336261838
 20
6.9434338777
 30
0.0
 10
10.8972945156
 20
6.9514759272
 30
0.0
 10
10.8622994852
 20
6.961901677
 30
0.0
 10
10.8289479724
 20
6.9746131542
 30
0.0
 10
10.7975370993
 20
6.9894920246
 30
0.0
 10
10.7683456438
 20
7.0064016674
 30
0.0
 10
10.7416335929
 20
7.0251879685
 30
0.0
 10
10.7176392478
 20
7.0456820285
 30
0.0
 10
10.6965802953
 20
7.0676970284
 30
0.0
 10
10.6815089073
 20
7.0873154481
 30
0.0
 10
10.6711565335
 20
7.1035529496
 30
0.0
 10
10.6642973242
 20
7.115877504
 30
0.0
 10
10.6582958611
 20
7.1284184958
 30
0.0
 10
10.6531661041
 20
7.1411475991
 30
0.0
 10
10.6489195419
 20
7.154035009
 30
0.0
 10
10.6455663615
 20
7.1670512086
 30
0.0
 10
10.6431142336
 20
7.1801650204
 30
0.0
 10
10.6420820446
 20
7.1889705043
 30
0.0
 10
10.6417189254
 20
7.1933727105
 30
0.0
  0
SPLINE
  5
2DD
100
AcDbEntity
  8
0
100
AcDbSpline
 62
7
  6
CONTINUOUS
 70
0
 71
3
 72
25
 73
21
 74
0
 42
0.0000001
 43
0.0000001
 44
0.0000000001
 40
0.0
 40
0.0
 40
0.0
 40
0.0
 40
0.1454895346
 40
0.2173261353
 40
0.2881212358
 40
0.3575941561
 40
0.4254932516
 40
0.4916043214
 40
0.5557591467
 40
0.6178438431
 40
0.6778078545
 40
0.7356722168
 40
0.7915369057
 40
0.8455859712
 40
0.8720231753
 40
0.8981142918
 40
0.9239054549
 40
0.9494469436
 40
0.9747927913
 40
1.0
 40
1.0
 40
1.0
 40
1.0
 10
11.0473183383
 20
6.9859484935
 30
0.0
 10
11.0219067268
 20
6.9854378717
 30
0.0
 10
10.983829711
 20
6.9871887169
 30
0.0
 10
10.9340168483
 20
6.994600732
 30
0.0
 10
10.8977990065
 20
7.0025834421
 30
0.0
 10
10.8629039751
 20
7.0129343902
 30
0.0
 10
10.8296356221
 20
7.0255569437
 30
0.0
 10
10.7982882409
 20
7.0403343949
 30
0.0
 10
10.7691381321
 20
7.0571318773
 30
0.0
 10
10.7424429282
 20
7.0757975882
 30
0.0
 10
10.7184395846
 20
7.0961638392
 30
0.0
 10
10.6973424069
 20
7.1180497386
 30
0.0
 10
10.6793438361
 20
7.1412572545
 30
0.0
 10
10.666971429
 20
7.161684663
 30
0.0
 10
10.6588322218
 20
7.1784416752
 30
0.0
 10
10.6536355083
 20
7.1911089776
 30
0.0
 10
10.6493148744
 20
7.2039360781
 30
0.0
 10
10.6458804061
 20
7.2168942511
 30
0.0
 10
10.6433398149
 20
7.2299525351
 30
0.0
 10
10.6422438349
 20
7.2387239432
 30
0.0
 10
10.6418477717
 20
7.2431097468
 30
0.0
  0
SPLINE
  5
2DE
100
AcDbEntity
  8
0
100
AcDbSpline
 62
9
  6
CONTINUOUS
 70
0
 71
3
 72
26
 73
22
 74
0
 42
0.0000001
 43
0.0000001
 44
0.0000000001
 40
0.0
 40
0.0
 40
0.0
 40
0.0
 40
0.1448462972
 40
0.216451104
 40
0.2870439555
 40
0.3563280016
 40
0.4240405767
 40
0.4899631095
 40
0.5539305502
 40
0.6158410754
 40
0.6756655595
 40
0.7334562061
 40
0.7893532077
 40
0.8166731934
 40
0.8436141373
 40
0.8702186305
 40
0.8965343226
 40
0.9226131944
 40
0.9485109746
 40
0.9742863535
 40
1.0
 40
1.0
 40
1.0
 40
1.0
 10
11.0473183383
 20
7.8325419845
 30
0.0
 10
11.0208359096
 20
7.8325419845
 30
0.0
 10
10.9811853891
 20
7.8352754635
 30
0.0
 10
10.9294750379
 20
7.8444123554
 30
0.0
 10
10.891948539
 20
7.8538822734
 30
0.0
 10
10.8559105107
 20
7.8659028835
 30
0.0
 10
10.8217009097
 20
7.8803614101
 30
0.0
 10
10.7896477762
 20
7.8971216908
 30
0.0
 10
10.7600574238
 20
7.9160267136
 30
0.0
 10
10.7332139145
 20
7.9368995726
 30
0.0
 10
10.7093758298
 20
7.9595466406
 30
0.0
 10
10.6887772173
 20
7.983753804
 30
0.0
 10
10.6743675266
 20
8.0052103557
 30
0.0
 10
10.6647095961
 20
8.0228964068
 30
0.0
 10
10.6584413977
 20
8.036297874
 30
0.0
 10
10.6531112749
 20
8.0499022313
 30
0.0
 10
10.6487317007
 20
8.0636768624
 30
0.0
 10
10.6453139842
 20
8.0775883042
 30
0.0
 10
10.6428666142
 20
8.0916029687
 30
0.0
 10
10.6413955821
 20
8.1056857897
 30
0.0
 10
10.6410683934
 20
8.1151028564
 30
0.0
 10
10.6410683934
 20
8.1198041144
 30
0.0
  0
SPLINE
  5
2DF
100
AcDbEntity
  8
0
100
AcDbSpline
 62
7
  6
CONTINUOUS
 70
0
 71
3
 72
15
 73
11
 74
0
 42
0.0000001
 43
0.0000001
 44
0.0000000001
 40
0.0
 40
0.0
 40
0.0
 40
0.0
 40
0.1291688634
 40
0.2567456478
 40
0.3829109186
 40
0.5078625967
 40
0.631814817
 40
0.7549950926
 40
0.8776415574
 40
1.0
 40
1.0
 40
1.0
 40
1.0
 10
11.4762809961
 20
6.6887449739
 30
0.0
 10
11.4787703046
 20
6.6841963769
 30
0.0
 10
11.483464976
 20
6.6750136817
 30
0.0
 10
11.4896575257
 20
6.6609358509
 30
0.0
 10
11.4949426812
 20
6.6466724004
 30
0.0
 10
11.4993085594
 20
6.6322530588
 30
0.0
 10
11.5027463195
 20
6.6177075975
 30
0.0
 10
11.505248476
 20
6.603065857
 30
0.0
 10
11.506809685
 20
6.5883589602
 30
0.0
 10
11.5072212844
 20
6.5785244204
 30
0.0
 10
11.5072693055
 20
6.573612836
 30
0.0
  0
SPLINE
  5
2E0
100
AcDbEntity
  8
0
100
AcDbSpline
 62
7
  6
CONTINUOUS
 70
0
 71
3
 72
24
 73
20
 74
0
 42
0.0000001
 43
0.0000001
 44
0.0000000001
 40
0.0
 40
0.0
 40
0.0
 40
0.0
 40
0.0491206211
 40
0.0755393887
 40
0.1031169436
 40
0.131750395
 40
0.1613165448
 40
0.1916821062
 40
0.2227177512
 40
0.2863141939
 40
0.3513096321
 40
0.4170923311
 40
0.4832211905
 40
0.5493817345
 40
0.6153509612
 40
0.6809648272
 40
0.7460974195
 40
0.8745221176
 40
1.0
 40
1.0
 40
1.0
 40
1.0
 10
11.3727462656
 20
6.6869512803
 30
0.0
 10
11.3727462656
 20
6.6844415926
 30
0.0
 10
11.372259303
 20
6.6805736075
 30
0.0
 10
11.3708806125
 20
6.6754862419
 30
0.0
 10
11.3694373478
 20
6.6715131612
 30
0.0
 10
11.3676397325
 20
6.6675127154
 30
0.0
 10
11.3655196266
 20
6.6635118621
 30
0.0
 10
11.3631095361
 20
6.6595351462
 30
0.0
 10
11.3595229627
 20
6.6542481891
 30
0.0
 10
11.3544831058
 20
6.6478226299
 30
0.0
 10
11.3477839783
 20
6.6404816239
 30
0.0
 10
11.3405441034
 20
6.6334877887
 30
0.0
 10
11.3328905164
 20
6.6268602539
 30
0.0
 10
11.3249200083
 20
6.6206033325
 30
0.0
 10
11.3167068749
 20
6.6147145957
 30
0.0
 10
11.3083086079
 20
6.609188576
 30
0.0
 10
11.2969792715
 20
6.6023288591
 30
0.0
 10
11.2825936637
 20
6.5946348548
 30
0.0
 10
11.2707537332
 20
6.5893051914
 30
0.0
 10
11.2648183383
 20
6.5868820766
 30
0.0
  0
SPLINE
  5
2E1
100
AcDbEntity
  8
0
100
AcDbSpline
 62
7
  6
CONTINUOUS
 70
0
 71
3
 72
27
 73
23
 74
0
 42
0.0000001
 43
0.0000001
 44
0.0000000001
 40
0.0
 40
0.0
 40
0.0
 40
0.0
 40
0.150041355
 40
0.2231609427
 40
0.2948306809
 40
0.3648951089
 40
0.4331728859
 40
0.4994495168
 40
0.5634880304
 40
0.6250361381
 40
0.6838510502
 40
0.7397723637
 40
0.7666767765
 40
0.7929186656
 40
0.8185820906
 40
0.8438037457
 40
0.8687788572
 40
0.8937615096
 40
0.9190569298
 40
0.9449915793
 40
0.9718880065
 40
1.0
 40
1.0
 40
1.0
 40
1.0
 10
11.2648183383
 20
6.5868820766
 30
0.0
 10
11.2590515228
 20
6.584527784
 30
0.0
 10
11.25034905
 20
6.5813183981
 30
0.0
 10
11.2386371624
 20
6.5777545293
 30
0.0
 10
11.230001049
 20
6.5755123144
 30
0.0
 10
11.2214685441
 20
6.5737051888
 30
0.0
 10
11.2130758398
 20
6.5723669686
 30
0.0
 10
11.2048675278
 20
6.571540894
 30
0.0
 10
11.1968997423
 20
6.5712787701
 30
0.0
 10
11.189242853
 20
6.5716437605
 30
0.0
 10
11.1819892314
 20
6.5727117188
 30
0.0
 10
11.1763005547
 20
6.5742848063
 30
0.0
 10
11.1721081625
 20
6.5760084367
 30
0.0
 10
11.1692017749
 20
6.5775217971
 30
0.0
 10
11.1665214071
 20
6.5792844823
 30
0.0
 10
11.1640976399
 20
6.5813070608
 30
0.0
 10
11.1619646589
 20
6.5835976554
 30
0.0
 10
11.1601578994
 20
6.5861586514
 30
0.0
 10
11.1587127941
 20
6.5889854135
 30
0.0
 10
11.157660408
 20
6.5920649502
 30
0.0
 10
11.1570246479
 20
6.5953746949
 30
0.0
 10
11.1568904109
 20
6.5976614449
 30
0.0
 10
11.1568904109
 20
6.5988284967
 30
0.0
  0
SPLINE
  5
2E2
100
AcDbEntity
  8
0
100
AcDbSpline
 62
9
  6
CONTINUOUS
 70
0
 71
3
 72
19
 73
15
 74
0
 42
0.0000001
 43
0.0000001
 44
0.0000000001
 40
0.0
 40
0.0
 40
0.0
 40
0.0
 40
0.1384143884
 40
0.2722444132
 40
0.4016331869
 40
0.526903131
 40
0.5881757565
 40
0.6486285068
 40
0.7083546206
 40
0.767457788
 40
0.8260506391
 40
0.8842536068
 40
0.9421931935
 40
1.0
 40
1.0
 40
1.0
 40
1.0
 10
11.3727462656
 20
6.6869512803
 30
0.0
 10
11.3826423218
 20
6.6941940927
 30
0.0
 10
11.4014795054
 20
6.7093265474
 30
0.0
 10
11.4269553678
 20
6.7342546448
 30
0.0
 10
11.4489508736
 20
6.7608147143
 30
0.0
 10
11.4643209684
 20
6.7842906908
 30
0.0
 10
11.4746190647
 20
6.8036126866
 30
0.0
 10
11.481302567
 20
6.8182457156
 30
0.0
 10
11.486984617
 20
6.8330902259
 30
0.0
 10
11.4916524827
 20
6.8481122041
 30
0.0
 10
11.4952945864
 20
6.8632767433
 30
0.0
 10
11.4979023856
 20
6.8785488039
 30
0.0
 10
11.4994696859
 20
6.893891864
 30
0.0
 10
11.4998182859
 20
6.9041502752
 30
0.0
 10
11.4998182882
 20
6.909271898
 30
0.0
  0
SPLINE
  5
2E3
100
AcDbEntity
  8
0
100
AcDbSpline
 62
7
  6
CONTINUOUS
 70
0
 71
3
 72
21
 73
17
 74
0
 42
0.0000001
 43
0.0000001
 44
0.0000000001
 40
0.0
 40
0.0
 40
0.0
 40
0.0
 40
0.1434934773
 40
0.2132580234
 40
0.2815937145
 40
0.4137535613
 40
0.4776316462
 40
0.5400521012
 40
0.6010746384
 40
0.6607877724
 40
0.719309177
 40
0.7767848291
 40
0.8333871173
 40
0.8893117533
 40
0.944773377
 40
1.0
 40
1.0
 40
1.0
 40
1.0
 10
11.2735683383
 20
6.8599521582
 30
0.0
 10
11.2903662758
 20
6.8668098875
 30
0.0
 10
11.3148341658
 20
6.8783113186
 30
0.0
 10
11.3456545604
 20
6.896173362
 30
0.0
 10
11.3741703051
 20
6.9150313689
 30
0.0
 10
11.4003406638
 20
6.9360076962
 30
0.0
 10
11.4236361443
 20
6.9589585184
 30
0.0
 10
11.4393067305
 20
6.9767477956
 30
0.0
 10
11.4533007499
 20
6.9952280401
 30
0.0
 10
11.4655580892
 20
7.014321934
 30
0.0
 10
11.4760244939
 20
7.0339480882
 30
0.0
 10
11.4846535326
 20
7.0540227531
 30
0.0
 10
11.4914063679
 20
7.0744594696
 30
0.0
 10
11.4962522289
 20
7.0951704711
 30
0.0
 10
11.4991687694
 20
7.1160632084
 30
0.0
 10
11.4998182607
 20
7.1300676268
 30
0.0
 10
11.4998182951
 20
7.1370506854
 30
0.0
  0
SPLINE
  5
2E4
100
AcDbEntity
  8
0
100
AcDbSpline
 62
7
  6
CONTINUOUS
 70
0
 71
3
 72
31
 73
27
 74
0
 42
0.0000001
 43
0.0000001
 44
0.0000000001
 40
0.0
 40
0.0
 40
0.0
 40
0.0
 40
0.0667240908
 40
0.1007584781
 40
0.1351529009
 40
0.2047287171
 40
0.2749010117
 40
0.3450733166
 40
0.4146491549
 40
0.4830580088
 40
0.5166708366
 40
0.5498036022
 40
0.6144034283
 40
0.6458117609
 40
0.676576064
 40
0.7360739637
 40
0.764831663
 40
0.7929331386
 40
0.8204052414
 40
0.8472878712
 40
0.873634
 40
0.8995093399
 40
0.9249914967
 40
0.9501685545
 40
0.9751371699
 40
1.0
 40
1.0
 40
1.0
 40
1.0
 10
11.2735683383
 20
6.8599521582
 30
0.0
 10
11.2562181393
 20
6.8528689691
 30
0.0
 10
11.2294216588
 20
6.8435685825
 30
0.0
 10
11.1927265936
 20
6.833814231
 30
0.0
 10
11.15481253
 20
6.8256906405
 30
0.0
 10
11.1062968925
 20
6.8188966335
 30
0.0
 10
11.0473189259
 20
6.8161750952
 30
0.0
 10
10.988337443
 20
6.8188969081
 30
0.0
 10
10.9303558454
 20
6.8270164859
 30
0.0
 10
10.883398851
 20
6.8382367432
 30
0.0
 10
10.8472306343
 20
6.8498109409
 30
0.0
 10
10.8127066932
 20
6.8628437617
 30
0.0
 10
10.7798038347
 20
6.8783108922
 30
0.0
 10
10.7489819174
 20
6.8961733108
 30
0.0
 10
10.7204664976
 20
6.9150313946
 30
0.0
 10
10.694296026
 20
6.9360077245
 30
0.0
 10
10.671000512
 20
6.9589585004
 30
0.0
 10
10.6553298984
 20
6.9767477632
 30
0.0
 10
10.6413359418
 20
6.9952280493
 30
0.0
 10
10.6290786421
 20
7.0143219574
 30
0.0
 10
10.6186121956
 20
7.033948089
 30
0.0
 10
10.6099831006
 20
7.0540227381
 30
0.0
 10
10.6032302618
 20
7.0744594578
 30
0.0
 10
10.5983844722
 20
7.0951704778
 30
0.0
 10
10.5954680052
 20
7.1160632109
 30
0.0
 10
10.5948183471
 20
7.1300676257
 30
0.0
 10
10.5948183815
 20
7.1370506854
 30
0.0
  0
SPLINE
  5
2E5
100
AcDbEntity
  8
0
100
AcDbSpline
 62
9
  6
CONTINUOUS
 70
0
 71
3
 72
26
 73
22
 74
0
 42
0.0000001
 43
0.0000001
 44
0.0000000001
 40
0.0
 40
0.0
 40
0.0
 40
0.0
 40
0.0656145452
 40
0.1327974107
 40
0.2011188314
 40
0.2701018963
 40
0.3392457782
 40
0.4080436932
 40
0.4760016813
 40
0.5426575466
 40
0.6076003299
 40
0.6704905598
 40
0.7310809986
 40
0.7892382869
 40
0.844963513
 40
0.871972362
 40
0.8984442553
 40
0.9244237896
 40
0.9499655043
 40
0.9751333996
 40
1.0
 40
1.0
 40
1.0
 40
1.0
 10
11.2201279562
 20
6.4869480864
 30
0.0
 10
11.2078603536
 20
6.4819398586
 30
0.0
 10
11.1825146461
 20
6.4730304327
 30
0.0
 10
11.1430658648
 20
6.4631500961
 30
0.0
 10
11.102222392
 20
6.4567046553
 30
0.0
 10
11.0605820342
 20
6.4537887174
 30
0.0
 10
11.0187486635
 20
6.4544433602
 30
0.0
 10
10.9773305349
 20
6.4586596267
 30
0.0
 10
10.9369292723
 20
6.4663767322
 30
0.0
 10
10.8981316095
 20
6.4774842047
 30
0.0
 10
10.8615006834
 20
6.4918238042
 30
0.0
 10
10.8275683665
 20
6.5091913798
 30
0.0
 10
10.7968273346
 20
6.5293434736
 30
0.0
 10
10.7697300382
 20
6.5519931609
 30
0.0
 10
10.7503110892
 20
6.5729138095
 30
0.0
 10
10.737063651
 20
6.5905650906
 30
0.0
 10
10.72836875
 20
6.6040694302
 30
0.0
 10
10.7208467474
 20
6.6179245794
 30
0.0
 10
10.7145257578
 20
6.6320806985
 30
0.0
 10
10.7094304907
 20
6.6464841028
 30
0.0
 10
10.7068501581
 20
6.6562675377
 30
0.0
 10
10.7057752479
 20
6.6611728286
 30
0.0
  0
SPLINE
  5
2E6
100
AcDbEntity
  8
0
100
AcDbSpline
 62
7
  6
CONTINUOUS
 70
0
 71
3
 72
15
 73
11
 74
0
 42
0.0000001
 43
0.0000001
 44
0.0000000001
 40
0.0
 40
0.0
 40
0.0
 40
0.0
 40
0.1223584425
 40
0.2450049073
 40
0.3681851829
 40
0.4921374031
 40
0.6170890812
 40
0.743254352
 40
0.8708311363
 40
1.0
 40
1.0
 40
1.0
 40
1.0
 10
10.5873673711
 20
6.573612836
 30
0.0
 10
10.5874153922
 20
6.5785244204
 30
0.0
 10
10.5878269916
 20
6.5883589602
 30
0.0
 10
10.5893882005
 20
6.603065857
 30
0.0
 10
10.5918903571
 20
6.6177075975
 30
0.0
 10
10.5953281172
 20
6.6322530588
 30
0.0
 10
10.5996939954
 20
6.6466724004
 30
0.0
 10
10.6049791509
 20
6.6609358509
 30
0.0
 10
10.6111717006
 20
6.6750136817
 30
0.0
 10
10.615866372
 20
6.6841963769
 30
0.0
 10
10.6183556805
 20
6.6887449739
 30
0.0
  0
SPLINE
  5
2E7
100
AcDbEntity
  8
0
100
AcDbSpline
 62
7
  6
CONTINUOUS
 70
0
 71
3
 72
15
 73
11
 74
0
 42
0.0000001
 43
0.0000001
 44
0.0000000001
 40
0.0
 40
0.0
 40
0.0
 40
0.0
 40
0.1313626038
 40
0.260329044
 40
0.3871396671
 40
0.5120773473
 40
0.6354638903
 40
0.7576548891
 40
0.8790330682
 40
1.0
 40
1.0
 40
1.0
 40
1.0
 10
11.4601425139
 20
6.754169628
 30
0.0
 10
11.4641667747
 20
6.7485360565
 30
0.0
 10
11.4717649656
 20
6.7370959519
 30
0.0
 10
11.4818203636
 20
6.7193223729
 30
0.0
 10
11.4903909279
 20
6.7011587184
 30
0.0
 10
11.4974455521
 20
6.6826680506
 30
0.0
 10
11.5029590905
 20
6.6639137263
 30
0.0
 10
11.5069116668
 20
6.6449601282
 30
0.0
 10
11.5092890532
 20
6.6258747073
 30
0.0
 10
11.5098183383
 20
6.6130959901
 30
0.0
 10
11.5098183383
 20
6.6067205995
 30
0.0
  0
SPLINE
  5
2E8
100
AcDbEntity
  8
0
100
AcDbSpline
 62
7
  6
CONTINUOUS
 70
0
 71
3
 72
9
 73
5
 74
0
 42
0.0000001
 43
0.0000001
 44
0.0000000001
 40
0.0
 40
0.0
 40
0.0
 40
0.0
 40
0.5061383631
 40
1.0
 40
1.0
 40
1.0
 40
1.0
 10
11.4485600098
 20
6.7340172265
 30
0.0
 10
11.454234332
 20
6.7270183251
 30
0.0
 10
11.464870798
 20
6.7127124855
 30
0.0
 10
11.4741880152
 20
6.6975103515
 30
0.0
 10
11.4784217143
 20
6.6898052991
 30
0.0
  0
SPLINE
  5
2E9
100
AcDbEntity
  8
0
100
AcDbSpline
 62
7
  6
CONTINUOUS
 70
0
 71
3
 72
11
 73
7
 74
0
 42
0.0000001
 43
0.0000001
 44
0.0000000001
 40
0.0
 40
0.0
 40
0.0
 40
0.0
 40
0.2557416153
 40
0.5071005344
 40
0.7548845804
 40
1.0
 40
1.0
 40
1.0
 40
1.0
 10
11.4784217143
 20
6.6898052991
 30
0.0
 10
11.482067543
 20
6.683170132
 30
0.0
 10
11.4887630041
 20
6.669710896
 30
0.0
 10
11.4969782966
 20
6.6488990613
 30
0.0
 10
11.5032352862
 20
6.6277440396
 30
0.0
 10
11.5060935328
 20
6.6134106292
 30
0.0
 10
11.5071816003
 20
6.6062364094
 30
0.0
  0
SPLINE
  5
2EA
100
AcDbEntity
  8
0
100
AcDbSpline
 62
7
  6
CONTINUOUS
 70
0
 71
3
 72
10
 73
6
 74
0
 42
0.0000001
 43
0.0000001
 44
0.0000000001
 40
0.0
 40
0.0
 40
0.0
 40
0.0
 40
0.4887327762
 40
0.7417546144
 40
1.0
 40
1.0
 40
1.0
 40
1.0
 10
11.4675552138
 20
6.0958632282
 30
0.0
 10
11.4477321833
 20
6.0808542117
 30
0.0
 10
11.4159396623
 20
6.0602418959
 30
0.0
 10
11.3707811858
 20
6.0367750715
 30
0.0
 10
11.3469818878
 20
6.0262269595
 30
0.0
 10
11.3348183383
 20
6.0212612112
 30
0.0
  0
SPLINE
  5
2EB
100
AcDbEntity
  8
0
100
AcDbSpline
 62
7
  6
CONTINUOUS
 70
0
 71
3
 72
10
 73
6
 74
0
 42
0.0000001
 43
0.0000001
 44
0.0000000001
 40
0.0
 40
0.0
 40
0.0
 40
0.0
 40
0.2446842429
 40
0.6188665633
 40
1.0
 40
1.0
 40
1.0
 40
1.0
 10
11.3348183383
 20
6.0212612112
 30
0.0
 10
11.322430141
 20
6.0162037508
 30
0.0
 10
11.290706017
 20
6.0043545766
 30
0.0
 10
11.2381652936
 20
5.988955144
 30
0.0
 10
11.1976499832
 20
5.9806469803
 30
0.0
 10
11.1770814628
 20
5.9772778159
 30
0.0
  0
SPLINE
  5
2EC
100
AcDbEntity
  8
0
100
AcDbSpline
 62
7
  6
CONTINUOUS
 70
0
 71
3
 72
39
 73
35
 74
0
 42
0.0000001
 43
0.0000001
 44
0.0000000001
 40
0.0
 40
0.0
 40
0.0
 40
0.0
 40
0.0695868116
 40
0.1051526214
 40
0.1410877617
 40
0.1772831935
 40
0.2136253276
 40
0.2499983053
 40
0.2862857262
 40
0.3223725913
 40
0.3581471496
 40
0.3935028022
 40
0.4283400688
 40
0.4625685202
 40
0.4961088776
 40
0.5288950353
 40
0.5608762527
 40
0.5920192596
 40
0.6072744212
 40
0.622316689
 40
0.6517638124
 40
0.6803980429
 40
0.7082749116
 40
0.735474699
 40
0.7621017656
 40
0.7882823735
 40
0.8141609912
 40
0.8398949944
 40
0.8656481046
 40
0.8915832185
 40
0.9178552408
 40
0.9446048421
 40
0.9719534613
 40
1.0
 40
1.0
 40
1.0
 40
1.0
 10
11.2793103302
 20
6.3217090138
 30
0.0
 10
11.2563490886
 20
6.3128060417
 30
0.0
 10
11.2207346042
 20
6.301591513
 30
0.0
 10
11.1719471647
 20
6.2908849652
 30
0.0
 10
11.1342819351
 20
6.284901001
 30
0.0
 10
11.0960652803
 20
6.2810636385
 30
0.0
 10
11.0575369916
 20
6.2793962406
 30
0.0
 10
11.0189437712
 20
6.2799096394
 30
0.0
 10
10.980531408
 20
6.2826005128
 30
0.0
 10
10.942544888
 20
6.2874518072
 30
0.0
 10
10.9052263612
 20
6.294432754
 30
0.0
 10
10.8688137084
 20
6.303499123
 30
0.0
 10
10.8335390083
 20
6.3145935092
 30
0.0
 10
10.7996270286
 20
6.3276457916
 30
0.0
 10
10.767293981
 20
6.3425734923
 30
0.0
 10
10.7367456618
 20
6.3592827992
 30
0.0
 10
10.708178142
 20
6.3776676639
 30
0.0
 10
10.6860204556
 20
6.3944051655
 30
0.0
 10
10.6694821379
 20
6.4085300246
 30
0.0
 10
10.6539742026
 20
6.4229093437
 30
0.0
 10
10.6361102079
 20
6.4416807879
 30
0.0
 10
10.6171506176
 20
6.465523668
 30
0.0
 10
10.6009419062
 20
6.4903767139
 30
0.0
 10
10.5875930169
 20
6.5160817478
 30
0.0
 10
10.5771944385
 20
6.5424747342
 30
0.0
 10
10.569818379
 20
6.5693850019
 30
0.0
 10
10.5655170444
 20
6.5966364608
 30
0.0
 10
10.5643213804
 20
6.6240489486
 30
0.0
 10
10.5662400523
 20
6.6514402327
 30
0.0
 10
10.5712591894
 20
6.6786284095
 30
0.0
 10
10.5793426759
 20
6.7054339286
 30
0.0
 10
10.5904340219
 20
6.7316825296
 30
0.0
 10
10.6044547635
 20
6.7572024066
 30
0.0
 10
10.6155467938
 20
6.7734093785
 30
0.0
 10
10.6215212587
 20
6.7813356185
 30
0.0
  0
SPLINE
  5
2ED
100
AcDbEntity
  8
0
100
AcDbSpline
 62
7
  6
CONTINUOUS
 70
0
 71
3
 72
31
 73
27
 74
0
 42
0.0000001
 43
0.0000001
 44
0.0000000001
 40
0.0
 40
0.0
 40
0.0
 40
0.0
 40
0.0616707
 40
0.0918266603
 40
0.1215716773
 40
0.1509505537
 40
0.1800131534
 40
0.2088140376
 40
0.2374116284
 40
0.2658675381
 40
0.2942456053
 40
0.3226108847
 40
0.3510286674
 40
0.379563417
 40
0.4082776803
 40
0.4372312548
 40
0.4664803019
 40
0.4960765618
 40
0.5260669317
 40
0.5873641486
 40
0.6506629034
 40
0.7161317835
 40
0.7838472515
 40
0.8538001592
 40
0.9259020245
 40
1.0
 40
1.0
 40
1.0
 40
1.0
 10
11.4731229977
 20
6.7813255623
 30
0.0
 10
11.4802705009
 20
6.771842304
 30
0.0
 10
11.4901533505
 20
6.7571177588
 30
0.0
 10
11.5014141384
 20
6.7365829094
 30
0.0
 10
11.5087521831
 20
6.7210232887
 30
0.0
 10
11.5150248685
 20
6.7052313491
 30
0.0
 10
11.5202177447
 20
6.6892425579
 30
0.0
 10
11.5243186414
 20
6.6730943899
 30
0.0
 10
11.5273173652
 20
6.656824214
 30
0.0
 10
11.5292069621
 20
6.6404700442
 30
0.0
 10
11.5299828533
 20
6.6240700361
 30
0.0
 10
11.5296429245
 20
6.6076625349
 30
0.0
 10
11.5281884114
 20
6.5912858779
 30
0.0
 10
11.5256223745
 20
6.5749783586
 30
0.0
 10
11.5219513335
 20
6.5587779921
 30
0.0
 10
11.5171839776
 20
6.5427224529
 30
0.0
 10
11.5113316457
 20
6.526849225
 30
0.0
 10
11.5044082069
 20
6.5111944177
 30
0.0
 10
11.49369532
 20
6.4905152279
 30
0.0
 10
11.4776295624
 20
6.465368236
 30
0.0
 10
11.454537391
 20
6.4368843727
 30
0.0
 10
11.4277062706
 20
6.4101164777
 30
0.0
 10
11.3973892194
 20
6.3853072649
 30
0.0
 10
11.3638657485
 20
6.3626772023
 30
0.0
 10
11.3274472036
 20
6.3424298599
 30
0.0
 10
11.3017780357
 20
6.3307858712
 30
0.0
 10
11.2885683383
 20
6.3253930349
 30
0.0
  0
SPLINE
  5
2EE
100
AcDbEntity
  8
0
100
AcDbSpline
 62
7
  6
CONTINUOUS
 70
0
 71
3
 72
28
 73
24
 74
0
 42
0.0000001
 43
0.0000001
 44
0.0000000001
 40
0.0
 40
0.0
 40
0.0
 40
0.0
 40
0.0707273023
 40
0.1419117703
 40
0.2131081181
 40
0.2838685121
 40
0.353759558
 40
0.4223762691
 40
0.4893568476
 40
0.5543980475
 40
0.6172710887
 40
0.6778378617
 40
0.7360670529
 40
0.7643420713
 40
0.7920772464
 40
0.819304385
 40
0.8460636535
 40
0.8724034402
 40
0.8983799017
 40
0.9240562374
 40
0.9495017211
 40
0.9747904754
 40
1.0
 40
1.0
 40
1.0
 40
1.0
 10
11.1770814628
 20
6.2247651893
 30
0.0
 10
11.1559872781
 20
6.2213099201
 30
0.0
 10
11.1133597179
 20
6.2161076277
 30
0.0
 10
11.0489455058
 20
6.2134246369
 30
0.0
 10
10.9845066825
 20
6.2158508989
 30
0.0
 10
10.9208540826
 20
6.2233571628
 30
0.0
 10
10.8587819347
 20
6.2358505481
 30
0.0
 10
10.7990661564
 20
6.2531767754
 30
0.0
 10
10.7424523277
 20
6.2751227398
 30
0.0
 10
10.68964795
 20
6.3014192142
 30
0.0
 10
10.6413120338
 20
6.3317467675
 30
0.0
 10
10.5980556302
 20
6.3657326686
 30
0.0
 10
10.56637909
 20
6.3970787266
 30
0.0
 10
10.5442048934
 20
6.4235683351
 30
0.0
 10
10.5293205394
 20
6.443871594
 30
0.0
 10
10.5160713337
 20
6.4647375002
 30
0.0
 10
10.5044994369
 20
6.4861012239
 30
0.0
 10
10.4946426513
 20
6.507895295
 30
0.0
 10
10.4865330308
 20
6.5300508064
 30
0.0
 10
10.4801973074
 20
6.552497253
 30
0.0
 10
10.4756566428
 20
6.5751635888
 30
0.0
 10
10.4729262082
 20
6.5979753042
 30
0.0
 10
10.4723183355
 20
6.6132438783
 30
0.0
 10
10.4723183724
 20
6.6208627351
 30
0.0
  0
ELLIPSE
  5
2EF
100
AcDbEntity
  8
0
100
AcDbEllipse
 62
7
  6
CONTINUOUS
 10
11.0473183383
 20
6.7410708879
 30
0.0
 11
0.4522967215
 21
0.1611958191
 31
0.0
 40
0.084133201
 41
-1.3561925479
 42
-0.7981537211
  0
ENDSEC
  0
SECTION
  2
OBJECTS
  0
DICTIONARY
  5
C
100
AcDbDictionary
280
0
281
1
  3
ACAD_GROUP
350
D
  3
ACAD_MLINESTYLE
350
17
  3
ACAD_LAYOUT
350
1A
  3
ACAD_PLOTSETTINGS
350
19
  3
ACAD_PLOTSTYLENAME
350
E
  0
DICTIONARY
  5
D
102
{ACAD_REACTORS
330
C
102
}
100
AcDbDictionary
280
0
281
1
  0
ACDBDICTIONARYWDFLT
  5
E
102
{ACAD_REACTORS
330
C
102
}
100
AcDbDictionary
281
1
  3
Normal
350
F
100
AcDbDictionaryWithDefault
340
F
  0
DICTIONARY
  5
17
102
{ACAD_REACTORS
330
C
102
}
100
AcDbDictionary
280
0
281
1
  3
Standard
350
18
  0
DICTIONARY
  5
19
102
{ACAD_REACTORS
330
C
102
}
100
AcDbDictionary
281
1
  0
DICTIONARY
  5
1A
102
{ACAD_REACTORS
330
C
102
}
100
AcDbDictionary
281
1
  3
Model
350
2F0
  3
Layout1
350
2F1
  0
ACDBPLACEHOLDER
  5
F
102
{ACAD_REACTORS
330
E
102
}
  0
MLINESTYLE
  5
18
102
{ACAD_REACTORS
330
17
102
}
100
AcDbMlineStyle
  2
STANDARD
 70
0
  3

 62
256
 51
90.0
 52
90.0
 71
2
 49
0.5
 62
256
  6
BYLAYER
 49
-0.5
 62
256
  6
BYLAYER
  0
LAYOUT
  5
2F0
102
{ACAD_REACTORS
330
1A
102
}
100
AcDbPlotSettings
  1

  2
none_device
  4
ANSI_C_(22.00_x_17.00_Inches)
  6

 40
0.0
 41
0.0
 42
0.0
 43
0.0
 44
558.8
 45
431.8
 46
0.0
 47
0.0
 48
0.0
 49
0.0
140
0.0
141
0.0
142
1.0
143
1.0
 70
1024
 72
0
 73
0
 74
0
  7

 75
0
147
1.0
148
0.0
149
0.0
100
AcDbLayout
  1
Model
 70
0
 71
0
 10
0.0
 20
0.0
 11
22.0
 21
17.0
 12
0.0
 22
0.0
 32
0.0
 14
0.0
 24
0.0
 34
0.0
 15
0.0
 25
0.0
 35
0.0
146
0.0
 13
0.0
 23
0.0
 33
0.0
 16
1.0
 26
0.0
 36
0.0
 17
0.0
 27
1.0
 37
0.0
 76
0
330
205
345
0
346
0
  0
LAYOUT
  5
2F1
102
{ACAD_REACTORS
330
1A
102
}
100
AcDbPlotSettings
  1

  2
none_device
  4
ANSI_C_(22.00_x_17.00_Inches)
  6

 40
0.0
 41
0.0
 42
0.0
 43
0.0
 44
558.8
 45
431.8
 46
0.0
 47
0.0
 48
0.0
 49
0.0
140
0.0
141
0.0
142
1.0
143
1.0
 70
0
 72
0
 73
0
 74
0
  7

 75
0
147
1.0
148
0.0
149
0.0
100
AcDbLayout
  1
Layout1
 70
0
 71
1
 10
0.0
 20
0.0
 11
22.0
 21
17.0
 12
0.0
 22
0.0
 32
0.0
 14
0.0
 24
0.0
 34
0.0
 15
0.0
 25
0.0
 35
0.0
146
0.0
 13
0.0
 23
0.0
 33
0.0
 16
1.0
 26
0.0
 36
0.0
 17
0.0
 27
1.0
 37
0.0
 76
0
330
206
345
0
346
0
  0
ENDSEC
  0
EOF
