999
DXF file: E:\BT Custom\CADOUTPUT\_RIGHT.dxf
999
Pro/ENGINEER 2018400 by Parametric Technology Corporation
  0
SECTION
  2
HEADER
  9
$ACADVER
  1
AC1018
  9
$DWGCODEPAGE
  3
ANSI_1252
  9
$EXTMAX
 10
22.0
 20
17.0
 30
0.0
  9
$EXTMIN
 10
0.0
 20
0.0
 30
0.0
  9
$LIMMIN
 10
0.0
 20
0.0
  9
$LIMMAX
 10
22.0
 20
17.0
  9
$VIEWCTR
 10
11.0
 20
8.5
  9
$VIEWSIZE
 40
17.0
  9
$CLAYER
  8
0
  9
$LTSCALE
 40
1.21
  9
$CELTYPE
  6
BYLAYER
  9
$DIMSCALE
 40
1.0
  9
$DIMASZ
 40
0.1
  9
$DIMEXO
 40
0.0625
  9
$DIMDLI
 40
0.836
  9
$DIMEXE
 40
0.125
  9
$DIMCEN
 40
0.198
  9
$DIMLFAC
 40
1.0
  9
$DIMBLK
  1
_FILLED
  9
$DIMALT
 70
1
  9
$DIMALTD
 70
2
  9
$DIMALTTD
 70
2
  9
$DIMALTF
 40
25.4
  9
$DIMTXT
 40
0.08
  9
$DIMTOL
 70
1
  9
$DIMLIM
 70
0
  9
$DIMTFAC
 40
1.0
  9
$DIMTP
 40
0.001
  9
$DIMTM
 40
0.001
  9
$DIMGAP
 40
0.09
  9
$DIMDSEP
 70
46
  9
$AUNITS
 70
0
  9
$PDMODE
 70
3
  9
$PDSIZE
 40
0.06
  9
$HANDSEED
  5
270
  9
$TILEMODE
 70
1
  9
$MEASUREMENT
 70
0
  9
$INSUNITS
 70
1
  0
ENDSEC
  0
SECTION
  2
CLASSES
  0
CLASS
  1
ACDBDICTIONARYWDFLT
  2
AcDbDictionaryWithDefault
  3
AutoCAD 2000
 90
0
 91
1
280
0
281
0
  0
CLASS
  1
ACDBPLACEHOLDER
  2
AcDbPlaceHolder
  3
AutoCAD 2000
 90
0
 91
1
280
0
281
0
  0
CLASS
  1
LAYOUT
  2
AcDbLayout
  3
AutoCAD 2000
 90
0
 91
0
280
0
281
0
  0
ENDSEC
  0
SECTION
  2
TABLES
  0
TABLE
  2
VPORT
  5
8
100
AcDbSymbolTable
 70
2
  0
VPORT
  5
1F4
100
AcDbSymbolTableRecord
100
AcDbViewportTableRecord
  2
*ACTIVE
 70
0
 10
0.0
 20
0.0
 11
1.0
 21
1.0
 12
11.0
 22
8.5
 13
0.0
 23
0.0
 14
1.0
 24
1.0
 15
0.0
 25
0.0
 16
0.0
 26
0.0
 36
1.0
 17
0.0
 27
0.0
 37
0.0
 40
17.0
 41
1.2941176471
 42
50.0
 43
0.0
 44
0.0
 50
0.0
 51
0.0
 71
0
 72
100
 73
1
 74
1
 75
0
 76
0
 77
0
 78
0
  0
ENDTAB
  0
TABLE
  2
LTYPE
  5
5
100
AcDbSymbolTable
 70
6
  0
LTYPE
  5
14
100
AcDbSymbolTableRecord
100
AcDbLinetypeTableRecord
  2
BYBLOCK
 70
0
  3

 72
65
 73
0
 40
0.0
  0
LTYPE
  5
15
100
AcDbSymbolTableRecord
100
AcDbLinetypeTableRecord
  2
BYLAYER
 70
0
  3

 72
65
 73
0
 40
0.0
  0
LTYPE
  5
16
100
AcDbSymbolTableRecord
100
AcDbLinetypeTableRecord
  2
CONTINUOUS
 70
64
  3
Solid line
 72
65
 73
0
 40
0.0
  0
LTYPE
  5
1F5
100
AcDbSymbolTableRecord
100
AcDbLinetypeTableRecord
  2
CENTER
 70
64
  3
____ _ ____ _ ____ _ ____ _ ____ _ ____ _ ____
 72
65
 73
4
 40
0.6
 49
0.375
 74
0
 49
-0.075
 74
0
 49
0.075
 74
0
 49
-0.075
 74
0
  0
LTYPE
  5
1F6
100
AcDbSymbolTableRecord
100
AcDbLinetypeTableRecord
  2
HIDDEN
 70
64
  3
- - - - - - - - - - - - - - - - - - - -
 72
65
 73
2
 40
0.2
 49
0.1
 74
0
 49
-0.1
 74
0
  0
LTYPE
  5
1F7
100
AcDbSymbolTableRecord
100
AcDbLinetypeTableRecord
  2
PHANTOM
 70
64
  3
_____ _ _ _____ _ _ _____ _ _ _____
 72
65
 73
6
 40
0.8
 49
0.45
 74
0
 49
-0.05
 74
0
 49
0.1
 74
0
 49
-0.05
 74
0
 49
0.1
 74
0
 49
-0.05
 74
0
  0
LTYPE
  5
1F8
100
AcDbSymbolTableRecord
100
AcDbLinetypeTableRecord
  2
DOT
 70
64
  3
. . . . . . . . . . . . . . . . . . . .
 72
65
 73
2
 40
0.2
 49
0.1
 74
0
 49
-0.1
 74
0
  0
LTYPE
  5
1F9
100
AcDbSymbolTableRecord
100
AcDbLinetypeTableRecord
  2
DASHED
 70
64
  3
- - - - - - - - - - - - - - - - - - - -
 72
65
 73
2
 40
0.2
 49
0.1
 74
0
 49
-0.1
 74
0
  0
ENDTAB
  0
TABLE
  2
LAYER
  5
2
100
AcDbSymbolTable
 70
36
  0
LAYER
  5
10
100
AcDbSymbolTableRecord
100
AcDbLayerTableRecord
  2
0
 70
0
 62
7
  6
CONTINUOUS
370
-3
390
F
  0
LAYER
  5
1FA
100
AcDbSymbolTableRecord
100
AcDbLayerTableRecord
  2
DEFAULT_1
 70
0
 62
7
  6
CENTER
370
-3
390
F
  0
LAYER
  5
1FB
100
AcDbSymbolTableRecord
100
AcDbLayerTableRecord
  2
DEFAULT_2
 70
0
 62
8
  6
HIDDEN
370
-3
390
F
  0
LAYER
  5
1FC
100
AcDbSymbolTableRecord
100
AcDbLayerTableRecord
  2
DEFAULT_3
 70
0
 62
7
  6
PHANTOM
370
-3
390
F
  0
LAYER
  5
1FD
100
AcDbSymbolTableRecord
100
AcDbLayerTableRecord
  2
ALL_FEATURES
 70
0
 62
7
  6
CONTINUOUS
370
-3
390
F
  0
LAYER
  5
1FE
100
AcDbSymbolTableRecord
100
AcDbLayerTableRecord
  2
AXES_FEATURES
 70
0
 62
7
  6
CONTINUOUS
370
-3
390
F
  0
LAYER
  5
1FF
100
AcDbSymbolTableRecord
100
AcDbLayerTableRecord
  2
DIMENSIONS
 70
0
 62
7
  6
CONTINUOUS
370
-3
390
F
  0
ENDTAB
  0
TABLE
  2
STYLE
  5
3
100
AcDbSymbolTable
 70
1
  0
STYLE
  5
11
100
AcDbSymbolTableRecord
100
AcDbTextStyleTableRecord
  2
STANDARD
 70
0
 40
0.0
 41
0.8
 50
0.0
 71
0
 42
0.2
  3
txt
  4

  0
STYLE
  5
200
100
AcDbSymbolTableRecord
100
AcDbTextStyleTableRecord
  2
TEXTSTYLE_1
 70
0
 40
0.0
 41
0.8
 50
0.0
 71
0
 42
0.2
  3
gdt
  4

  0
ENDTAB
  0
TABLE
  2
VIEW
  5
6
100
AcDbSymbolTable
 70
0
  0
ENDTAB
  0
TABLE
  2
UCS
  5
7
100
AcDbSymbolTable
 70
0
  0
ENDTAB
  0
TABLE
  2
APPID
  5
9
100
AcDbSymbolTable
 70
1
  0
APPID
  5
201
100
AcDbSymbolTableRecord
100
AcDbRegAppTableRecord
  2
ACAD
 70
0
  0
ENDTAB
  0
TABLE
  2
BLOCK_RECORD
  5
1
100
AcDbSymbolTable
 70
0
  0
BLOCK_RECORD
  5
202
100
AcDbSymbolTableRecord
100
AcDbBlockTableRecord
  2
*Model_Space
  0
BLOCK_RECORD
  5
203
100
AcDbSymbolTableRecord
100
AcDbBlockTableRecord
  2
*Paper_Space
  0
BLOCK_RECORD
  5
204
100
AcDbSymbolTableRecord
100
AcDbBlockTableRecord
  2
_FILLED
  0
ENDTAB
  0
TABLE
  2
DIMSTYLE
  5
A
100
AcDbSymbolTable
 70
1
100
AcDbDimStyleTable
 71
0
  0
DIMSTYLE
105
205
100
AcDbSymbolTableRecord
100
AcDbDimStyleTableRecord
  2
STANDARD
 70
0
  3

  4

 40
1.0
 41
0.1
 42
0.0625
 43
0.38
 44
0.125
 45
0.0
 46
0.0
 47
0.001
 48
0.001
140
0.08
141
0.09
142
0.0
143
25.4
144
1.0
145
0.0
146
1.0
147
0.09
 71
1.0
 72
0.0
 73
1
 74
1
 75
0
 76
0
 77
0
 78
4
 79
1
170
1
171
2
172
0
173
0
174
0
175
0
176
0
177
0
178
0
270
2
179
3
271
3
272
3
273
2
274
2
275
0
280
0
281
0
282
0
283
1
284
4
285
0
286
0
287
3
288
0
340
11
278
46
341
204
342
204
343
204
344
204
  0
ENDTAB
  0
ENDSEC
  0
SECTION
  2
BLOCKS
  0
BLOCK
  5
20
100
AcDbEntity
  8
0
100
AcDbBlockBegin
  2
*Model_Space
 70
0
 10
0.0
 20
0.0
 30
0.0
  3
*Model_Space
  1

  0
ENDBLK
  5
21
100
AcDbEntity
  8
0
100
AcDbBlockEnd
  0
BLOCK
  5
1C
100
AcDbEntity
  8
0
100
AcDbBlockBegin
  2
*Paper_Space
 70
0
 10
0.0
 20
0.0
 30
0.0
  3
*Paper_Space
  1

  0
ENDBLK
  5
1D
100
AcDbEntity
  8
0
100
AcDbBlockEnd
  0
BLOCK
  5
206
100
AcDbEntity
  8
0
100
AcDbBlockBegin
  2
_FILLED
 70
64
 10
0.0
 20
0.0
  3
_FILLED
  1

  0
SOLID
  5
207
100
AcDbEntity
  8
0
  6
BYBLOCK
 62
0
100
AcDbTrace
 10
0.0
 20
0.0
 11
-1.0
 21
0.2
 12
-1.0
 22
-0.2
 13
-1.0
 23
-0.2
  0
ENDBLK
  5
208
100
AcDbEntity
  8
0
  6
BYBLOCK
 62
0
100
AcDbBlockEnd
  0
ENDSEC
  0
SECTION
  2
ENTITIES
  0
LINE
  5
209
100
AcDbEntity
  8
0
100
AcDbLine
 62
7
  6
CONTINUOUS
 10
5.4483560864
 20
11.0074830807
 11
4.9475791052
 21
10.4256785605
  0
LINE
  5
20A
100
AcDbEntity
  8
0
100
AcDbLine
 62
7
  6
CONTINUOUS
 10
6.0363016395
 20
11.5404845486
 11
5.4483560864
 21
11.0074830807
  0
LINE
  5
20B
100
AcDbEntity
  8
0
100
AcDbLine
 62
7
  6
CONTINUOUS
 10
6.5331195834
 20
10.1461049952
 11
6.8514220921
 21
10.5352537795
  0
LWPOLYLINE
  5
20C
100
AcDbEntity
  8
0
100
AcDbPolyline
 62
7
  6
CONTINUOUS
 90
6
 70
0
 10
6.8514220921
 20
10.5352537795
 10
7.2354283491
 20
10.8874454309
 10
7.6672444461
 20
11.1808037978
 10
8.137030133
 20
11.4087876254
 10
8.6340236391
 20
11.5664756038
 10
9.147090868
 20
11.6505958495
  0
LINE
  5
20D
100
AcDbEntity
  8
0
100
AcDbLine
 62
7
  6
CONTINUOUS
 10
13.7031225419
 20
5.1108917778
 11
16.5530483491
 21
5.1108917778
  0
LINE
  5
20E
100
AcDbEntity
  8
0
100
AcDbLine
 62
9
  6
CONTINUOUS
 10
16.5530854455
 20
5.2438917778
 11
16.2518453829
 21
5.2438917778
  0
LINE
  5
20F
100
AcDbEntity
  8
0
100
AcDbLine
 62
9
  6
CONTINUOUS
 10
14.0043255081
 20
5.2438917778
 11
13.7030854455
 21
5.2438917778
  0
LINE
  5
210
100
AcDbEntity
  8
0
100
AcDbLine
 62
7
  6
CONTINUOUS
 10
14.1280854455
 20
5.2978917778
 11
16.1280854455
 21
5.2978917778
  0
LINE
  5
211
100
AcDbEntity
  8
0
100
AcDbLine
 62
9
  6
CONTINUOUS
 10
13.8349177808
 20
5.4677631494
 11
14.238331841
 21
5.4677631494
  0
LINE
  5
212
100
AcDbEntity
  8
0
100
AcDbLine
 62
9
  6
CONTINUOUS
 10
16.0178390499
 20
5.4677631494
 11
16.4212531102
 21
5.4677631494
  0
LINE
  5
213
100
AcDbEntity
  8
0
100
AcDbLine
 62
7
  6
CONTINUOUS
 10
15.9410881193
 20
5.4858917778
 11
14.3150827717
 21
5.4858917778
  0
LINE
  5
214
100
AcDbEntity
  8
0
100
AcDbLine
 62
9
  6
CONTINUOUS
 10
13.8750854455
 20
5.535973958
 11
14.3155854455
 21
5.535973958
  0
LINE
  5
215
100
AcDbEntity
  8
0
100
AcDbLine
 62
9
  6
CONTINUOUS
 10
15.9405854455
 20
5.535973958
 11
16.3810854455
 21
5.535973958
  0
LINE
  5
216
100
AcDbEntity
  8
0
100
AcDbLine
 62
9
  6
CONTINUOUS
 10
16.3810854455
 20
5.5378917778
 11
15.9405854455
 21
5.5378917778
  0
LINE
  5
217
100
AcDbEntity
  8
0
100
AcDbLine
 62
9
  6
CONTINUOUS
 10
14.3155854455
 20
5.5378917778
 11
13.8750854455
 21
5.5378917778
  0
LINE
  5
218
100
AcDbEntity
  8
0
100
AcDbLine
 62
7
  6
CONTINUOUS
 10
15.9405854455
 20
5.5728917778
 11
14.3155854455
 21
5.5728917778
  0
LINE
  5
219
100
AcDbEntity
  8
0
100
AcDbLine
 62
7
  6
CONTINUOUS
 10
14.0030854456
 20
5.6858917778
 11
14.3733986246
 21
5.6858917778
  0
LINE
  5
21A
100
AcDbEntity
  8
0
100
AcDbLine
 62
7
  6
CONTINUOUS
 10
15.8827722663
 20
5.6858917778
 11
16.2530854454
 21
5.6858917778
  0
LINE
  5
21B
100
AcDbEntity
  8
0
100
AcDbLine
 62
7
  6
CONTINUOUS
 10
14.7185854455
 20
6.8658917778
 11
15.5375854455
 21
6.8658917778
  0
LINE
  5
21C
100
AcDbEntity
  8
0
100
AcDbLine
 62
7
  6
CONTINUOUS
 10
15.5175684668
 20
6.8858917778
 11
14.7386024242
 21
6.8858917778
  0
LINE
  5
21D
100
AcDbEntity
  8
0
100
AcDbLine
 62
7
  6
CONTINUOUS
 10
14.7755865174
 20
6.9158917778
 11
15.4805843736
 21
6.9158917778
  0
LINE
  5
21E
100
AcDbEntity
  8
0
100
AcDbLine
 62
7
  6
CONTINUOUS
 10
15.4805854455
 20
7.3158917778
 11
14.7755854455
 21
7.3158917778
  0
LINE
  5
21F
100
AcDbEntity
  8
0
100
AcDbLine
 62
7
  6
CONTINUOUS
 10
15.4285854455
 20
7.3759131697
 11
14.8275854455
 21
7.3759131697
  0
LINE
  5
220
100
AcDbEntity
  8
0
100
AcDbLine
 62
9
  6
CONTINUOUS
 10
14.8128005543
 20
7.6468400268
 11
15.4433703366
 21
7.6468400268
  0
LINE
  5
221
100
AcDbEntity
  8
0
100
AcDbLine
 62
9
  6
CONTINUOUS
 10
14.8905854455
 20
7.9260481807
 11
15.3655854455
 21
7.9260481807
  0
LINE
  5
222
100
AcDbEntity
  8
0
100
AcDbLine
 62
9
  6
CONTINUOUS
 10
15.3655854455
 20
7.9760481807
 11
14.8905854455
 21
7.9760481807
  0
LINE
  5
223
100
AcDbEntity
  8
0
100
AcDbLine
 62
9
  6
CONTINUOUS
 10
14.8718354455
 20
7.9960090799
 11
15.3843354455
 21
7.9960090799
  0
LINE
  5
224
100
AcDbEntity
  8
0
100
AcDbLine
 62
7
  6
CONTINUOUS
 10
15.3805692206
 20
8.1158917778
 11
14.8756016703
 21
8.1158917778
  0
LINE
  5
225
100
AcDbEntity
  8
0
100
AcDbLine
 62
9
  6
CONTINUOUS
 10
15.3230854455
 20
8.3308917778
 11
14.9330854455
 21
8.3308917778
  0
LINE
  5
226
100
AcDbEntity
  8
0
100
AcDbLine
 62
7
  6
CONTINUOUS
 10
4.92255557
 20
10.1356171675
 11
6.4574271765
 21
9.8649778913
  0
LINE
  5
227
100
AcDbEntity
  8
0
100
AcDbLine
 62
7
  6
CONTINUOUS
 10
4.9475792152
 20
10.4256785411
 11
6.5331194603
 21
10.1461050169
  0
LINE
  5
228
100
AcDbEntity
  8
0
100
AcDbLine
 62
7
  6
CONTINUOUS
 10
15.5175854455
 20
6.8858917778
 11
15.5375854455
 21
6.8658917778
  0
LINE
  5
229
100
AcDbEntity
  8
0
100
AcDbLine
 62
7
  6
CONTINUOUS
 10
9.1470908705
 20
11.6505958495
 11
9.6553569879
 21
11.6602799087
  0
LINE
  5
22A
100
AcDbEntity
  8
0
100
AcDbLine
 62
7
  6
CONTINUOUS
 10
9.6555404588
 20
11.6602703023
 11
9.6553569872
 21
11.6602799088
  0
LINE
  5
22B
100
AcDbEntity
  8
0
100
AcDbLine
 62
7
  6
CONTINUOUS
 10
15.4285854455
 20
7.3759131697
 11
15.4805854455
 21
7.3158917778
  0
LINE
  5
22C
100
AcDbEntity
  8
0
100
AcDbLine
 62
7
  6
CONTINUOUS
 10
13.7030854455
 20
5.2438917778
 11
13.7030854455
 21
5.1108917778
  0
LINE
  5
22D
100
AcDbEntity
  8
0
100
AcDbLine
 62
7
  6
CONTINUOUS
 10
13.8750854455
 20
5.5378917778
 11
13.8750854455
 21
5.535973958
  0
LINE
  5
22E
100
AcDbEntity
  8
0
100
AcDbLine
 62
7
  6
CONTINUOUS
 10
14.0030854455
 20
6.6178917778
 11
14.0030854455
 21
5.6858920931
  0
LINE
  5
22F
100
AcDbEntity
  8
0
100
AcDbLine
 62
7
  6
CONTINUOUS
 10
14.3155854455
 20
5.5728917778
 11
14.3155854455
 21
5.4858911022
  0
LINE
  5
230
100
AcDbEntity
  8
0
100
AcDbLine
 62
7
  6
CONTINUOUS
 10
14.7755854455
 20
7.3158917778
 11
14.7755854455
 21
6.9158917778
  0
LINE
  5
231
100
AcDbEntity
  8
0
100
AcDbLine
 62
7
  6
CONTINUOUS
 10
14.8905854455
 20
7.9760481807
 11
14.8905854455
 21
7.9260481807
  0
LINE
  5
232
100
AcDbEntity
  8
0
100
AcDbLine
 62
7
  6
CONTINUOUS
 10
14.9280854455
 20
6.9158917778
 11
14.9280854455
 21
6.8858917778
  0
LINE
  5
233
100
AcDbEntity
  8
0
100
AcDbLine
 62
7
  6
CONTINUOUS
 10
14.9330854455
 20
8.3895401326
 11
14.9330854455
 21
8.1158917778
  0
LINE
  5
234
100
AcDbEntity
  8
0
100
AcDbLine
 62
7
  6
CONTINUOUS
 10
14.8275854455
 20
7.3759131697
 11
14.7755854455
 21
7.3158917778
  0
LWPOLYLINE
  5
235
100
AcDbEntity
  8
0
100
AcDbPolyline
 62
7
  6
CONTINUOUS
 90
5
 70
0
 10
8.906474448
 20
12.823537057
 10
8.1333951175
 20
12.6420695051
 10
7.3896376858
 20
12.3645835369
 10
6.6868510255
 20
11.9953515961
 10
6.0363016395
 20
11.5404845486
  0
LINE
  5
236
100
AcDbEntity
  8
0
100
AcDbLine
 62
7
  6
CONTINUOUS
 10
9.7647806878
 20
12.9088918299
 11
8.906474448
 21
12.823537057
  0
LINE
  5
237
100
AcDbEntity
  8
0
100
AcDbLine
 62
7
  6
CONTINUOUS
 10
15.3230854455
 20
8.3895401326
 11
15.3230854455
 21
8.1158917778
  0
LINE
  5
238
100
AcDbEntity
  8
0
100
AcDbLine
 62
7
  6
CONTINUOUS
 10
15.3280854455
 20
6.9158917778
 11
15.3280854455
 21
6.8858917778
  0
LINE
  5
239
100
AcDbEntity
  8
0
100
AcDbLine
 62
7
  6
CONTINUOUS
 10
15.3655854455
 20
7.9760481807
 11
15.3655854455
 21
7.9260481807
  0
LINE
  5
23A
100
AcDbEntity
  8
0
100
AcDbLine
 62
7
  6
CONTINUOUS
 10
14.7385854455
 20
6.8858917778
 11
14.7185854455
 21
6.8658917778
  0
LINE
  5
23B
100
AcDbEntity
  8
0
100
AcDbLine
 62
7
  6
CONTINUOUS
 10
15.4805854455
 20
7.3158917778
 11
15.4805854455
 21
6.9158917778
  0
LINE
  5
23C
100
AcDbEntity
  8
0
100
AcDbLine
 62
7
  6
CONTINUOUS
 10
15.9405854455
 20
5.5728917778
 11
15.9405854455
 21
5.4858911022
  0
LINE
  5
23D
100
AcDbEntity
  8
0
100
AcDbLine
 62
7
  6
CONTINUOUS
 10
16.2530854455
 20
5.6858920931
 11
16.2530854455
 21
6.6178917788
  0
LINE
  5
23E
100
AcDbEntity
  8
0
100
AcDbLine
 62
7
  6
CONTINUOUS
 10
16.3810854455
 20
5.5378917778
 11
16.3810854455
 21
5.535973958
  0
LINE
  5
23F
100
AcDbEntity
  8
0
100
AcDbLine
 62
7
  6
CONTINUOUS
 10
16.5530854455
 20
5.2438917778
 11
16.5530854455
 21
5.1108917778
  0
ARC
  5
240
100
AcDbEntity
  8
0
100
AcDbCircle
 62
7
  6
CONTINUOUS
 10
9.9590705737
 20
6.6178837235
 40
6.2940003129
100
AcDbArc
 50
0.0006097387
 51
91.7689459401
  0
ARC
  5
241
100
AcDbEntity
  8
0
100
AcDbCircle
 62
7
  6
CONTINUOUS
 10
8.817085063
 20
6.6178903417
 40
5.1859999442
100
AcDbArc
 50
0.000015866
 51
65.9154440392
  0
ARC
  5
242
100
AcDbEntity
  8
0
100
AcDbCircle
 62
7
  6
CONTINUOUS
 10
9.4671526471
 20
8.0722165409
 40
3.5929999891
100
AcDbArc
 50
65.9152464912
 51
86.9944919431
  0
ARC
  5
243
100
AcDbEntity
  8
0
100
AcDbCircle
 62
7
  6
CONTINUOUS
 10
11.7268956453
 20
7.089033301
 40
3.0
100
AcDbArc
 50
329.6433854291
 51
355.7343714095
  0
ARC
  5
244
100
AcDbEntity
  8
0
100
AcDbCircle
 62
7
  6
CONTINUOUS
 10
18.5292752457
 20
7.089033301
 40
3.0
100
AcDbArc
 50
184.2656285905
 51
210.3566145709
  0
ARC
  5
245
100
AcDbEntity
  8
0
100
AcDbCircle
 62
7
  6
CONTINUOUS
 10
14.3505854455
 20
7.9260481807
 40
0.54
100
AcDbArc
 50
328.8652784311
 51
360.0
  0
ARC
  5
246
100
AcDbEntity
  8
0
100
AcDbCircle
 62
7
  6
CONTINUOUS
 10
15.9055854455
 20
7.9260481807
 40
0.54
100
AcDbArc
 50
180.0
 51
211.1347215689
  0
ARC
  5
247
100
AcDbEntity
  8
0
100
AcDbCircle
 62
7
  6
CONTINUOUS
 10
15.1282419159
 20
8.7812695307
 40
0.4379086951
100
AcDbArc
 50
241.6070473044
 51
253.3929526956
  0
ARC
  5
248
100
AcDbEntity
  8
0
100
AcDbCircle
 62
7
  6
CONTINUOUS
 10
15.1284631984
 20
8.7810482482
 40
0.437908695
100
AcDbArc
 50
196.6070473036
 51
208.3929526961
  0
ARC
  5
249
100
AcDbEntity
  8
0
100
AcDbCircle
 62
7
  6
CONTINUOUS
 10
15.1284631984
 20
8.7807353074
 40
0.437908695
100
AcDbArc
 50
151.6070473038
 51
163.392952696
  0
ARC
  5
24A
100
AcDbEntity
  8
0
100
AcDbCircle
 62
7
  6
CONTINUOUS
 10
15.1280854455
 20
8.7808917778
 40
0.4374999993
100
AcDbArc
 50
106.601549599
 51
118.398450401
  0
ARC
  5
24B
100
AcDbEntity
  8
0
100
AcDbCircle
 62
7
  6
CONTINUOUS
 10
15.1280854455
 20
8.7808917778
 40
0.4374999993
100
AcDbArc
 50
286.601549599
 51
298.398450401
  0
ARC
  5
24C
100
AcDbEntity
  8
0
100
AcDbCircle
 62
7
  6
CONTINUOUS
 10
15.1280854455
 20
8.7808917778
 40
0.4374999993
100
AcDbArc
 50
331.601549599
 51
343.398450401
  0
ARC
  5
24D
100
AcDbEntity
  8
0
100
AcDbCircle
 62
7
  6
CONTINUOUS
 10
15.1280854455
 20
8.7808917778
 40
0.4374999993
100
AcDbArc
 50
16.601549599
 51
28.398450401
  0
ARC
  5
24E
100
AcDbEntity
  8
0
100
AcDbCircle
 62
7
  6
CONTINUOUS
 10
15.1280854455
 20
8.7808917778
 40
0.4374999993
100
AcDbArc
 50
61.601549599
 51
73.398450401
  0
ARC
  5
24F
100
AcDbEntity
  8
0
100
AcDbCircle
 62
7
  6
CONTINUOUS
 10
16.2970854455
 20
5.2438917778
 40
0.256
100
AcDbArc
 50
0.0
 51
60.9855659775
  0
ARC
  5
250
100
AcDbEntity
  8
0
100
AcDbCircle
 62
7
  6
CONTINUOUS
 10
13.9590854455
 20
5.2438917778
 40
0.256
100
AcDbArc
 50
119.0144340225
 51
180.0
  0
ARC
  5
251
100
AcDbEntity
  8
0
100
AcDbCircle
 62
7
  6
CONTINUOUS
 10
15.2370854455
 20
7.5222304619
 40
0.241
100
AcDbArc
 50
322.6180391694
 51
31.1347215689
  0
ARC
  5
252
100
AcDbEntity
  8
0
100
AcDbCircle
 62
7
  6
CONTINUOUS
 10
15.0190854455
 20
7.5222304619
 40
0.241
100
AcDbArc
 50
148.8652784311
 51
217.3819608306
  0
ARC
  5
253
100
AcDbEntity
  8
0
100
AcDbCircle
 62
7
  6
CONTINUOUS
 10
16.1210854914
 20
5.111022838
 40
0.187
100
AcDbArc
 50
359.9598438511
 51
87.8547510776
  0
ARC
  5
254
100
AcDbEntity
  8
0
100
AcDbCircle
 62
7
  6
CONTINUOUS
 10
14.1350853996
 20
5.111022838
 40
0.187
100
AcDbArc
 50
92.1452489224
 51
180.0401561489
  0
ARC
  5
255
100
AcDbEntity
  8
0
100
AcDbCircle
 62
7
  6
CONTINUOUS
 10
14.3150827717
 20
5.2988917778
 40
0.187
100
AcDbArc
 50
89.8459833005
 51
180.3063960032
  0
ARC
  5
256
100
AcDbEntity
  8
0
100
AcDbCircle
 62
7
  6
CONTINUOUS
 10
15.9410881193
 20
5.2988917778
 40
0.187
100
AcDbArc
 50
359.6936039968
 51
90.1540166995
  0
ARC
  5
257
100
AcDbEntity
  8
0
100
AcDbCircle
 62
7
  6
CONTINUOUS
 10
6.3774339702
 20
10.026205082
 40
0.18
100
AcDbArc
 50
296.396658426
 51
43.7246306644
  0
ARC
  5
258
100
AcDbEntity
  8
0
100
AcDbCircle
 62
7
  6
CONTINUOUS
 10
5.0528675424
 20
10.259761881
 40
0.18
100
AcDbArc
 50
116.2753693356
 51
223.603341574
  0
ARC
  5
259
100
AcDbEntity
  8
0
100
AcDbCircle
 62
7
  6
CONTINUOUS
 10
16.2330854455
 20
5.5378917778
 40
0.148
100
AcDbArc
 50
0.0
 51
82.3211130523
  0
ARC
  5
25A
100
AcDbEntity
  8
0
100
AcDbCircle
 62
7
  6
CONTINUOUS
 10
14.0230854455
 20
5.5378917778
 40
0.148
100
AcDbArc
 50
97.6788869474
 51
180.0
  0
ARC
  5
25B
100
AcDbEntity
  8
0
100
AcDbCircle
 62
7
  6
CONTINUOUS
 10
13.7970854455
 20
5.535973958
 40
0.078
100
AcDbArc
 50
299.0144340224
 51
360.0
  0
ARC
  5
25C
100
AcDbEntity
  8
0
100
AcDbCircle
 62
7
  6
CONTINUOUS
 10
16.4590854455
 20
5.535973958
 40
0.078
100
AcDbArc
 50
180.0
 51
240.9855659776
  0
ARC
  5
25D
100
AcDbEntity
  8
0
100
AcDbCircle
 62
7
  6
CONTINUOUS
 10
15.3805854455
 20
8.0558917778
 40
0.06
100
AcDbArc
 50
273.5833216985
 51
90.0
  0
ARC
  5
25E
100
AcDbEntity
  8
0
100
AcDbCircle
 62
7
  6
CONTINUOUS
 10
14.8755854455
 20
8.0558917778
 40
0.06
100
AcDbArc
 50
90.0
 51
266.4166783015
  0
ARC
  5
25F
100
AcDbEntity
  8
0
100
AcDbCircle
 62
7
  6
CONTINUOUS
 10
14.8705854455
 20
7.9760481807
 40
0.02
100
AcDbArc
 50
0.0
 51
86.4166783015
  0
ARC
  5
260
100
AcDbEntity
  8
0
100
AcDbCircle
 62
7
  6
CONTINUOUS
 10
15.3855854455
 20
7.9760481807
 40
0.02
100
AcDbArc
 50
93.5833216985
 51
180.0
  0
SPLINE
  5
261
100
AcDbEntity
  8
0
100
AcDbSpline
 62
7
  6
CONTINUOUS
 70
0
 71
3
 72
29
 73
25
 74
0
 42
0.0000001
 43
0.0000001
 44
0.0000000001
 40
0.0
 40
0.0
 40
0.0
 40
0.0
 40
0.0102958895
 40
0.0241768607
 40
0.041558244
 40
0.0623333676
 40
0.0863479395
 40
0.1134225924
 40
0.1759830539
 40
0.2481638226
 40
0.3278357683
 40
0.4126229006
 40
0.5000097897
 40
0.5873958953
 40
0.672181621
 40
0.7518506391
 40
0.8240282611
 40
0.8865856545
 40
0.91365849
 40
0.9376710159
 40
0.9584446484
 40
0.9758247165
 40
0.9897045752
 40
1.0
 40
1.0
 40
1.0
 40
1.0
 10
14.7432335672
 20
8.9889669608
 30
0.0
 10
14.7436425287
 20
8.9897233682
 30
0.0
 10
14.7447245931
 20
8.9914322064
 30
0.0
 10
14.7467420774
 20
8.9942566155
 30
0.0
 10
14.7493963547
 20
8.9976992107
 30
0.0
 10
14.7526680052
 20
9.0017315062
 30
0.0
 10
14.7565342092
 20
9.0063226942
 30
0.0
 10
14.7627499787
 20
9.0134963279
 30
0.0
 10
14.771778267
 20
9.0235539476
 30
0.0
 10
14.7839475104
 20
9.036691476
 30
0.0
 10
14.7975611993
 20
9.0510191719
 30
0.0
 10
14.8122136082
 20
9.0661098882
 30
0.0
 10
14.8274681891
 20
9.0815124129
 30
0.0
 10
14.8428706692
 20
9.0967668717
 30
0.0
 10
14.8579610925
 20
9.1114189689
 30
0.0
 10
14.8722883862
 20
9.1250321739
 30
0.0
 10
14.8854253694
 20
9.1372008824
 30
0.0
 10
14.8954825229
 20
9.1462286857
 30
0.0
 10
14.9026557373
 20
9.1524440553
 30
0.0
 10
14.9072466054
 20
9.1563099446
 30
0.0
 10
14.9112785819
 20
9.159581345
 30
0.0
 10
14.9147209202
 20
9.1622354194
 30
0.0
 10
14.9175451486
 20
9.1642527425
 30
0.0
 10
14.9192538892
 20
9.165334713
 30
0.0
 10
14.9200102625
 20
9.1657436561
 30
0.0
  0
SPLINE
  5
262
100
AcDbEntity
  8
0
100
AcDbSpline
 62
7
  6
CONTINUOUS
 70
0
 71
3
 72
18
 73
14
 74
0
 42
0.0000001
 43
0.0000001
 44
0.0000000001
 40
0.0
 40
0.0
 40
0.0
 40
0.0
 40
0.0205909958
 40
0.0483507141
 40
0.0831102103
 40
0.1246555991
 40
0.1726786145
 40
0.2268249938
 40
0.3519527983
 40
0.4962927496
 40
0.6556081258
 40
0.8253317031
 40
1.0
 40
1.0
 40
1.0
 40
1.0
 10
15.0030854455
 20
9.2001545236
 30
0.0
 10
15.0039094544
 20
9.2004001956
 30
0.0
 10
15.0058827933
 20
9.200843382
 30
0.0
 10
15.0093062681
 20
9.2014139386
 30
0.0
 10
15.0136169789
 20
9.2019713101
 30
0.0
 10
15.0187810549
 20
9.2025091202
 30
0.0
 10
15.0247607494
 20
9.2030217785
 30
0.0
 10
15.0342283948
 20
9.2036991189
 30
0.0
 10
15.0477234388
 20
9.2044268562
 30
0.0
 10
15.0656162155
 20
9.2051116558
 30
0.0
 10
15.0853779
 20
9.2056169001
 30
0.0
 10
15.1064100959
 20
9.2059263174
 30
0.0
 10
15.1207915349
 20
9.2059959992
 30
0.0
 10
15.1280854455
 20
9.2059959992
 30
0.0
  0
SPLINE
  5
263
100
AcDbEntity
  8
0
100
AcDbSpline
 62
7
  6
CONTINUOUS
 70
0
 71
3
 72
18
 73
14
 74
0
 42
0.0000001
 43
0.0000001
 44
0.0000000001
 40
0.0
 40
0.0
 40
0.0
 40
0.0
 40
0.1746683553
 40
0.3443920566
 40
0.5037074672
 40
0.6480473922
 40
0.7731751698
 40
0.8273215218
 40
0.8753444991
 40
0.9168898581
 40
0.9516493247
 40
0.9794090159
 40
1.0
 40
1.0
 40
1.0
 40
1.0
 10
15.1280854455
 20
8.3557875564
 30
0.0
 10
15.1207915324
 20
8.3557875564
 30
0.0
 10
15.1064100858
 20
8.3558572384
 30
0.0
 10
15.0853778809
 20
8.3561666557
 30
0.0
 10
15.0656161909
 20
8.3566719006
 30
0.0
 10
15.0477234149
 20
8.3573567004
 30
0.0
 10
15.0342283744
 20
8.358084438
 30
0.0
 10
15.0247607328
 20
8.3587617784
 30
0.0
 10
15.0187810422
 20
8.3592744366
 30
0.0
 10
15.0136169703
 20
8.3598122463
 30
0.0
 10
15.0093062631
 20
8.3603696172
 30
0.0
 10
15.0058827912
 20
8.3609401737
 30
0.0
 10
15.0039094539
 20
8.3613833601
 30
0.0
 10
15.0030854455
 20
8.361629032
 30
0.0
  0
SPLINE
  5
264
100
AcDbEntity
  8
0
100
AcDbSpline
 62
7
  6
CONTINUOUS
 70
0
 71
3
 72
29
 73
25
 74
0
 42
0.0000001
 43
0.0000001
 44
0.0000000001
 40
0.0
 40
0.0
 40
0.0
 40
0.0
 40
0.0102958895
 40
0.0241768607
 40
0.041558244
 40
0.0623333676
 40
0.0863479395
 40
0.1134225924
 40
0.1759830539
 40
0.2481638226
 40
0.3278357683
 40
0.4126229006
 40
0.5000097897
 40
0.5873958953
 40
0.672181621
 40
0.7518506391
 40
0.8240282611
 40
0.8865856545
 40
0.91365849
 40
0.9376710159
 40
0.9584446484
 40
0.9758247165
 40
0.9897045752
 40
1.0
 40
1.0
 40
1.0
 40
1.0
 10
14.9200102625
 20
8.3960398995
 30
0.0
 10
14.9192538551
 20
8.396448861
 30
0.0
 10
14.9175450169
 20
8.3975309254
 30
0.0
 10
14.9147206078
 20
8.3995484097
 30
0.0
 10
14.9112780126
 20
8.402202687
 30
0.0
 10
14.907245717
 20
8.4054743375
 30
0.0
 10
14.9026545291
 20
8.4093405415
 30
0.0
 10
14.8954808953
 20
8.415556311
 30
0.0
 10
14.8854232757
 20
8.4245845993
 30
0.0
 10
14.8722857473
 20
8.4367538427
 30
0.0
 10
14.8579580514
 20
8.4503675316
 30
0.0
 10
14.8428673351
 20
8.4650199405
 30
0.0
 10
14.8274648104
 20
8.4802745214
 30
0.0
 10
14.8122103516
 20
8.4956770014
 30
0.0
 10
14.7975582543
 20
8.5107674248
 30
0.0
 10
14.7839450493
 20
8.5250947185
 30
0.0
 10
14.7717763409
 20
8.5382317016
 30
0.0
 10
14.7627485375
 20
8.5482888552
 30
0.0
 10
14.756533168
 20
8.5554620696
 30
0.0
 10
14.7526672786
 20
8.5600529377
 30
0.0
 10
14.7493958782
 20
8.5640849142
 30
0.0
 10
14.7467418039
 20
8.5675272525
 30
0.0
 10
14.7447244807
 20
8.5703514809
 30
0.0
 10
14.7436425102
 20
8.5720602215
 30
0.0
 10
14.7432335672
 20
8.5728165948
 30
0.0
  0
SPLINE
  5
265
100
AcDbEntity
  8
0
100
AcDbSpline
 62
7
  6
CONTINUOUS
 70
0
 71
3
 72
29
 73
25
 74
0
 42
0.0000001
 43
0.0000001
 44
0.0000000001
 40
0.0
 40
0.0
 40
0.0
 40
0.0
 40
0.0102958895
 40
0.0241768607
 40
0.041558244
 40
0.0623333676
 40
0.0863479395
 40
0.1134225924
 40
0.1759830539
 40
0.2481638226
 40
0.3278357683
 40
0.4126229006
 40
0.5000097897
 40
0.5873958953
 40
0.672181621
 40
0.7518506391
 40
0.8240282611
 40
0.8865856545
 40
0.91365849
 40
0.9376710159
 40
0.9584446484
 40
0.9758247165
 40
0.9897045752
 40
1.0
 40
1.0
 40
1.0
 40
1.0
 10
14.7088226997
 20
8.6558917778
 30
0.0
 10
14.7085770184
 20
8.656715818
 30
0.0
 10
14.7081338223
 20
8.6586892842
 30
0.0
 10
14.7075632403
 20
8.6621130198
 30
0.0
 10
14.7070058154
 20
8.6664241597
 30
0.0
 10
14.7064679582
 20
8.6715888296
 30
0.0
 10
14.7059553171
 20
8.6775691087
 30
0.0
 10
14.7052780047
 20
8.6870368465
 30
0.0
 10
14.7045501576
 20
8.7005326215
 30
0.0
 10
14.7038654767
 20
8.7184272114
 30
0.0
 10
14.7033605975
 20
8.7381847541
 30
0.0
 10
14.7030506674
 20
8.7592163196
 30
0.0
 10
14.7029460553
 20
8.7808941669
 30
0.0
 10
14.7030507221
 20
8.8025718963
 30
0.0
 10
14.7033606655
 20
8.8236030342
 30
0.0
 10
14.7038656025
 20
8.8433599504
 30
0.0
 10
14.704550276
 20
8.8612537765
 30
0.0
 10
14.7052781365
 20
8.8747488789
 30
0.0
 10
14.7059554351
 20
8.8842160374
 30
0.0
 10
14.7064680725
 20
8.8901958679
 30
0.0
 10
14.7070058811
 20
8.8953601353
 30
0.0
 10
14.7075632679
 20
8.89967095
 30
0.0
 10
14.708133836
 20
8.903094444
 30
0.0
 10
14.7085770295
 20
8.9050677747
 30
0.0
 10
14.7088226997
 20
8.9058917778
 30
0.0
  0
SPLINE
  5
266
100
AcDbEntity
  8
0
100
AcDbSpline
 62
7
  6
CONTINUOUS
 70
0
 71
3
 72
29
 73
25
 74
0
 42
0.0000001
 43
0.0000001
 44
0.0000000001
 40
0.0
 40
0.0
 40
0.0
 40
0.0
 40
0.0102958895
 40
0.0241768607
 40
0.041558244
 40
0.0623333676
 40
0.0863479395
 40
0.1134225924
 40
0.1759830539
 40
0.2481638226
 40
0.3278357683
 40
0.4126229006
 40
0.5000097897
 40
0.5873958953
 40
0.672181621
 40
0.7518506391
 40
0.8240282611
 40
0.8865856545
 40
0.91365849
 40
0.9376710159
 40
0.9584446484
 40
0.9758247165
 40
0.9897045752
 40
1.0
 40
1.0
 40
1.0
 40
1.0
 10
15.5129373238
 20
8.5728165948
 30
0.0
 10
15.5125283623
 20
8.5720601874
 30
0.0
 10
15.5114462978
 20
8.5703513491
 30
0.0
 10
15.5094288136
 20
8.5675269401
 30
0.0
 10
15.5067745363
 20
8.5640843449
 30
0.0
 10
15.5035028857
 20
8.5600520493
 30
0.0
 10
15.4996366818
 20
8.5554608614
 30
0.0
 10
15.4934209123
 20
8.5482872276
 30
0.0
 10
15.4843926239
 20
8.538229608
 30
0.0
 10
15.4722233805
 20
8.5250920796
 30
0.0
 10
15.4586096917
 20
8.5107643837
 30
0.0
 10
15.4439572828
 20
8.4956736674
 30
0.0
 10
15.4287027018
 20
8.4802711427
 30
0.0
 10
15.4133002218
 20
8.4650166839
 30
0.0
 10
15.3982097985
 20
8.4503645866
 30
0.0
 10
15.3838825047
 20
8.4367513816
 30
0.0
 10
15.3707455216
 20
8.4245826732
 30
0.0
 10
15.3606883681
 20
8.4155548698
 30
0.0
 10
15.3535151537
 20
8.4093395002
 30
0.0
 10
15.3489242856
 20
8.4054736109
 30
0.0
 10
15.3448923091
 20
8.4022022105
 30
0.0
 10
15.3414499707
 20
8.3995481362
 30
0.0
 10
15.3386257423
 20
8.397530813
 30
0.0
 10
15.3369170017
 20
8.3964488425
 30
0.0
 10
15.3361606285
 20
8.3960398995
 30
0.0
  0
SPLINE
  5
267
100
AcDbEntity
  8
0
100
AcDbSpline
 62
7
  6
CONTINUOUS
 70
0
 71
3
 72
29
 73
25
 74
0
 42
0.0000001
 43
0.0000001
 44
0.0000000001
 40
0.0
 40
0.0
 40
0.0
 40
0.0
 40
0.0102958895
 40
0.0241768607
 40
0.041558244
 40
0.0623333676
 40
0.0863479395
 40
0.1134225924
 40
0.1759830539
 40
0.2481638226
 40
0.3278357683
 40
0.4126229006
 40
0.5000097897
 40
0.5873958953
 40
0.672181621
 40
0.7518506391
 40
0.8240282611
 40
0.8865856545
 40
0.91365849
 40
0.9376710159
 40
0.9584446484
 40
0.9758247165
 40
0.9897045752
 40
1.0
 40
1.0
 40
1.0
 40
1.0
 10
15.5473481913
 20
8.9058917778
 30
0.0
 10
15.5475938726
 20
8.9050677375
 30
0.0
 10
15.5480370686
 20
8.9030942713
 30
0.0
 10
15.5486076506
 20
8.8996705357
 30
0.0
 10
15.5491650756
 20
8.8953593958
 30
0.0
 10
15.5497029328
 20
8.890194726
 30
0.0
 10
15.5502155739
 20
8.8842144468
 30
0.0
 10
15.5508928862
 20
8.874746709
 30
0.0
 10
15.5516207334
 20
8.861250934
 30
0.0
 10
15.5523054142
 20
8.8433563441
 30
0.0
 10
15.5528102935
 20
8.8235988014
 30
0.0
 10
15.5531202236
 20
8.8025672359
 30
0.0
 10
15.5532248356
 20
8.7808893887
 30
0.0
 10
15.5531201688
 20
8.7592116593
 30
0.0
 10
15.5528102255
 20
8.7381805213
 30
0.0
 10
15.5523052885
 20
8.7184236052
 30
0.0
 10
15.5516206149
 20
8.7005297791
 30
0.0
 10
15.5508927544
 20
8.6870346766
 30
0.0
 10
15.5502154558
 20
8.6775675181
 30
0.0
 10
15.5497028184
 20
8.6715876876
 30
0.0
 10
15.5491650099
 20
8.6664234203
 30
0.0
 10
15.5486076231
 20
8.6621126055
 30
0.0
 10
15.5480370549
 20
8.6586891116
 30
0.0
 10
15.5475938615
 20
8.6567157808
 30
0.0
 10
15.5473481913
 20
8.6558917778
 30
0.0
  0
SPLINE
  5
268
100
AcDbEntity
  8
0
100
AcDbSpline
 62
7
  6
CONTINUOUS
 70
0
 71
3
 72
29
 73
25
 74
0
 42
0.0000001
 43
0.0000001
 44
0.0000000001
 40
0.0
 40
0.0
 40
0.0
 40
0.0
 40
0.0102958895
 40
0.0241768607
 40
0.041558244
 40
0.0623333676
 40
0.0863479395
 40
0.1134225924
 40
0.1759830539
 40
0.2481638226
 40
0.3278357683
 40
0.4126229006
 40
0.5000097897
 40
0.5873958953
 40
0.672181621
 40
0.7518506391
 40
0.8240282611
 40
0.8865856545
 40
0.91365849
 40
0.9376710159
 40
0.9584446484
 40
0.9758247165
 40
0.9897045752
 40
1.0
 40
1.0
 40
1.0
 40
1.0
 10
15.3361606285
 20
9.1657436561
 30
0.0
 10
15.3369170359
 20
9.1653346946
 30
0.0
 10
15.3386258741
 20
9.1642526301
 30
0.0
 10
15.3414502832
 20
9.1622351459
 30
0.0
 10
15.3448928784
 20
9.1595808686
 30
0.0
 10
15.3489251739
 20
9.156309218
 30
0.0
 10
15.3535163619
 20
9.1524430141
 30
0.0
 10
15.3606899956
 20
9.1462272446
 30
0.0
 10
15.3707476153
 20
9.1371989562
 30
0.0
 10
15.3838851437
 20
9.1250297128
 30
0.0
 10
15.3982128396
 20
9.111416024
 30
0.0
 10
15.4133035559
 20
9.0967636151
 30
0.0
 10
15.4287060806
 20
9.0815090341
 30
0.0
 10
15.4439605394
 20
9.0661065541
 30
0.0
 10
15.4586126366
 20
9.0510161308
 30
0.0
 10
15.4722258417
 20
9.036688837
 30
0.0
 10
15.4843945501
 20
9.0235518539
 30
0.0
 10
15.4934223534
 20
9.0134947004
 30
0.0
 10
15.499637723
 20
9.006321486
 30
0.0
 10
15.5035036123
 20
9.0017306179
 30
0.0
 10
15.5067750127
 20
8.9976986414
 30
0.0
 10
15.5094290871
 20
8.994256303
 30
0.0
 10
15.5114464102
 20
8.9914320746
 30
0.0
 10
15.5125283807
 20
8.989723334
 30
0.0
 10
15.5129373238
 20
8.9889669608
 30
0.0
  0
SPLINE
  5
269
100
AcDbEntity
  8
0
100
AcDbSpline
 62
7
  6
CONTINUOUS
 70
0
 71
3
 72
18
 73
14
 74
0
 42
0.0000001
 43
0.0000001
 44
0.0000000001
 40
0.0
 40
0.0
 40
0.0
 40
0.0
 40
0.1746683553
 40
0.3443920566
 40
0.5037074672
 40
0.6480473922
 40
0.7731751698
 40
0.8273215218
 40
0.8753444991
 40
0.9168898581
 40
0.9516493247
 40
0.9794090159
 40
1.0
 40
1.0
 40
1.0
 40
1.0
 10
15.1280854455
 20
9.2059959992
 30
0.0
 10
15.1353793585
 20
9.2059959992
 30
0.0
 10
15.1497608052
 20
9.2059263171
 30
0.0
 10
15.1707930101
 20
9.2056168999
 30
0.0
 10
15.1905547001
 20
9.2051116549
 30
0.0
 10
15.208447476
 20
9.2044268551
 30
0.0
 10
15.2219425166
 20
9.2036991176
 30
0.0
 10
15.2314101582
 20
9.2030217772
 30
0.0
 10
15.2373898487
 20
9.2025091189
 30
0.0
 10
15.2425539206
 20
9.2019713093
 30
0.0
 10
15.2468646279
 20
9.2014139383
 30
0.0
 10
15.2502880998
 20
9.2008433818
 30
0.0
 10
15.252261437
 20
9.2004001954
 30
0.0
 10
15.2530854455
 20
9.2001545236
 30
0.0
  0
SPLINE
  5
26A
100
AcDbEntity
  8
0
100
AcDbSpline
 62
7
  6
CONTINUOUS
 70
0
 71
3
 72
18
 73
14
 74
0
 42
0.0000001
 43
0.0000001
 44
0.0000000001
 40
0.0
 40
0.0
 40
0.0
 40
0.0
 40
0.0205909958
 40
0.0483507141
 40
0.0831102103
 40
0.1246555991
 40
0.1726786145
 40
0.2268249938
 40
0.3519527983
 40
0.4962927496
 40
0.6556081258
 40
0.8253317031
 40
1.0
 40
1.0
 40
1.0
 40
1.0
 10
15.2530854455
 20
8.361629032
 30
0.0
 10
15.2522614366
 20
8.36138336
 30
0.0
 10
15.2502880976
 20
8.3609401736
 30
0.0
 10
15.2468646229
 20
8.3603696169
 30
0.0
 10
15.2425539121
 20
8.3598122455
 30
0.0
 10
15.2373898361
 20
8.3592744353
 30
0.0
 10
15.2314101416
 20
8.3587617771
 30
0.0
 10
15.2219424961
 20
8.3580844366
 30
0.0
 10
15.2084474522
 20
8.3573566993
 30
0.0
 10
15.1905546755
 20
8.3566718998
 30
0.0
 10
15.170792991
 20
8.3561666554
 30
0.0
 10
15.1497607951
 20
8.3558572382
 30
0.0
 10
15.1353793561
 20
8.3557875564
 30
0.0
 10
15.1280854455
 20
8.3557875564
 30
0.0
  0
SPLINE
  5
26B
100
AcDbEntity
  8
0
100
AcDbSpline
 62
9
  6
CONTINUOUS
 70
0
 71
3
 72
40
 73
36
 74
0
 42
0.0000001
 43
0.0000001
 44
0.0000000001
 40
0.0
 40
0.0
 40
0.0
 40
0.0
 40
0.002657454
 40
0.0063441983
 40
0.0110583893
 40
0.0167937123
 40
0.0235421208
 40
0.0312947591
 40
0.0497752367
 40
0.0721338212
 40
0.0981681092
 40
0.1276500376
 40
0.1603510823
 40
0.2148739454
 40
0.2749681064
 40
0.4071582159
 40
0.476662724
 40
0.5466225227
 40
0.6156717564
 40
0.6824446052
 40
0.7456100034
 40
0.8039756871
 40
0.8563867383
 40
0.8800304032
 40
0.9018311603
 40
0.921692616
 40
0.9395185187
 40
0.9552132361
 40
0.968704741
 40
0.9799576465
 40
0.9889409808
 40
0.9925728044
 40
0.9956274014
 40
0.9981029703
 40
1.0
 40
1.0
 40
1.0
 40
1.0
 10
11.6867936538
 20
12.6701195728
 30
0.0
 10
11.6864211846
 20
12.6688272383
 30
0.0
 10
11.685315382
 20
12.6658071123
 30
0.0
 10
11.683122486
 20
12.6606582528
 30
0.0
 10
11.6801046332
 20
12.6541699295
 30
0.0
 10
11.6762705308
 20
12.6463558331
 30
0.0
 10
11.6716231463
 20
12.637228929
 30
0.0
 10
11.6638860671
 20
12.6224381724
 30
0.0
 10
11.6522040669
 20
12.6007966332
 30
0.0
 10
11.6358218795
 20
12.5711807064
 30
0.0
 10
11.6165004117
 20
12.5368289042
 30
0.0
 10
11.5944155534
 20
12.4980267298
 30
0.0
 10
11.5650025927
 20
12.4468060905
 30
0.0
 10
11.5276352013
 20
12.3822881339
 30
0.0
 10
11.4647229861
 20
12.2743789043
 30
0.0
 10
11.3976562624
 20
12.1601156127
 30
0.0
 10
11.3279550474
 20
12.0416094169
 30
0.0
 10
11.2744387958
 20
11.9506569587
 30
0.0
 10
11.2216529182
 20
11.8608788164
 30
0.0
 10
11.1706829961
 20
11.7740219668
 30
0.0
 10
11.1225706453
 20
11.6917574814
 30
0.0
 10
11.0782960537
 20
11.6156690505
 30
0.0
 10
11.0442732986
 20
11.5567572587
 30
0.0
 10
11.0196716139
 20
11.5137751525
 30
0.0
 10
11.003342185
 20
11.4850393582
 30
0.0
 10
10.9885686487
 20
11.4588062097
 30
0.0
 10
10.97542768
 20
11.4352005853
 30
0.0
 10
10.9639903715
 20
11.414336799
 30
0.0
 10
10.9543106441
 20
11.3963037828
 30
0.0
 10
10.9464250243
 20
11.3811643876
 30
0.0
 10
10.9410376238
 20
11.3703509144
 30
0.0
 10
10.9376790489
 20
11.3631663543
 30
0.0
 10
10.9358084238
 20
11.3589227319
 30
0.0
 10
10.9344034851
 20
11.3554358752
 30
0.0
 10
10.9336772076
 20
11.3533428795
 30
0.0
 10
10.933411317
 20
11.3524203443
 30
0.0
  0
LINE
  5
26C
100
AcDbEntity
  8
0
100
AcDbLine
 62
9
  6
CONTINUOUS
 10
16.2530854471
 20
6.6178917785
 11
15.5707774581
 21
6.617891961
  0
LINE
  5
26D
100
AcDbEntity
  8
0
100
AcDbLine
 62
9
  6
CONTINUOUS
 10
14.6853625643
 20
6.6178918655
 11
14.0030848476
 21
6.6178917853
  0
ENDSEC
  0
SECTION
  2
OBJECTS
  0
DICTIONARY
  5
C
100
AcDbDictionary
280
0
281
1
  3
ACAD_GROUP
350
D
  3
ACAD_MLINESTYLE
350
17
  3
ACAD_LAYOUT
350
1A
  3
ACAD_PLOTSETTINGS
350
19
  3
ACAD_PLOTSTYLENAME
350
E
  0
DICTIONARY
  5
D
102
{ACAD_REACTORS
330
C
102
}
100
AcDbDictionary
280
0
281
1
  0
ACDBDICTIONARYWDFLT
  5
E
102
{ACAD_REACTORS
330
C
102
}
100
AcDbDictionary
281
1
  3
Normal
350
F
100
AcDbDictionaryWithDefault
340
F
  0
DICTIONARY
  5
17
102
{ACAD_REACTORS
330
C
102
}
100
AcDbDictionary
280
0
281
1
  3
Standard
350
18
  0
DICTIONARY
  5
19
102
{ACAD_REACTORS
330
C
102
}
100
AcDbDictionary
281
1
  0
DICTIONARY
  5
1A
102
{ACAD_REACTORS
330
C
102
}
100
AcDbDictionary
281
1
  3
Model
350
26E
  3
Layout1
350
26F
  0
ACDBPLACEHOLDER
  5
F
102
{ACAD_REACTORS
330
E
102
}
  0
MLINESTYLE
  5
18
102
{ACAD_REACTORS
330
17
102
}
100
AcDbMlineStyle
  2
STANDARD
 70
0
  3

 62
256
 51
90.0
 52
90.0
 71
2
 49
0.5
 62
256
  6
BYLAYER
 49
-0.5
 62
256
  6
BYLAYER
  0
LAYOUT
  5
26E
102
{ACAD_REACTORS
330
1A
102
}
100
AcDbPlotSettings
  1

  2
none_device
  4
ANSI_C_(22.00_x_17.00_Inches)
  6

 40
0.0
 41
0.0
 42
0.0
 43
0.0
 44
558.8
 45
431.8
 46
0.0
 47
0.0
 48
0.0
 49
0.0
140
0.0
141
0.0
142
1.0
143
1.0
 70
1024
 72
0
 73
0
 74
0
  7

 75
0
147
1.0
148
0.0
149
0.0
100
AcDbLayout
  1
Model
 70
0
 71
0
 10
0.0
 20
0.0
 11
22.0
 21
17.0
 12
0.0
 22
0.0
 32
0.0
 14
0.0
 24
0.0
 34
0.0
 15
0.0
 25
0.0
 35
0.0
146
0.0
 13
0.0
 23
0.0
 33
0.0
 16
1.0
 26
0.0
 36
0.0
 17
0.0
 27
1.0
 37
0.0
 76
0
330
202
345
0
346
0
  0
LAYOUT
  5
26F
102
{ACAD_REACTORS
330
1A
102
}
100
AcDbPlotSettings
  1

  2
none_device
  4
ANSI_C_(22.00_x_17.00_Inches)
  6

 40
0.0
 41
0.0
 42
0.0
 43
0.0
 44
558.8
 45
431.8
 46
0.0
 47
0.0
 48
0.0
 49
0.0
140
0.0
141
0.0
142
1.0
143
1.0
 70
0
 72
0
 73
0
 74
0
  7

 75
0
147
1.0
148
0.0
149
0.0
100
AcDbLayout
  1
Layout1
 70
0
 71
1
 10
0.0
 20
0.0
 11
22.0
 21
17.0
 12
0.0
 22
0.0
 32
0.0
 14
0.0
 24
0.0
 34
0.0
 15
0.0
 25
0.0
 35
0.0
146
0.0
 13
0.0
 23
0.0
 33
0.0
 16
1.0
 26
0.0
 36
0.0
 17
0.0
 27
1.0
 37
0.0
 76
0
330
203
345
0
346
0
  0
ENDSEC
  0
EOF
