999
DXF file: E:\BT Custom\CADOUTPUT\_TOP.dxf
999
Pro/ENGINEER 2018400 by Parametric Technology Corporation
  0
SECTION
  2
HEADER
  9
$ACADVER
  1
AC1018
  9
$DWGCODEPAGE
  3
ANSI_1252
  9
$EXTMAX
 10
22.0
 20
17.0
 30
0.0
  9
$EXTMIN
 10
0.0
 20
0.0
 30
0.0
  9
$LIMMIN
 10
0.0
 20
0.0
  9
$LIMMAX
 10
22.0
 20
17.0
  9
$VIEWCTR
 10
11.0
 20
8.5
  9
$VIEWSIZE
 40
17.0
  9
$CLAYER
  8
0
  9
$LTSCALE
 40
1.21
  9
$CELTYPE
  6
BYLAYER
  9
$DIMSCALE
 40
1.0
  9
$DIMASZ
 40
0.1
  9
$DIMEXO
 40
0.0625
  9
$DIMDLI
 40
0.836
  9
$DIMEXE
 40
0.125
  9
$DIMCEN
 40
0.198
  9
$DIMLFAC
 40
1.0
  9
$DIMBLK
  1
_FILLED
  9
$DIMALT
 70
1
  9
$DIMALTD
 70
2
  9
$DIMALTTD
 70
2
  9
$DIMALTF
 40
25.4
  9
$DIMTXT
 40
0.08
  9
$DIMTOL
 70
1
  9
$DIMLIM
 70
0
  9
$DIMTFAC
 40
1.0
  9
$DIMTP
 40
0.001
  9
$DIMTM
 40
0.001
  9
$DIMGAP
 40
0.09
  9
$DIMDSEP
 70
46
  9
$AUNITS
 70
0
  9
$PDMODE
 70
3
  9
$PDSIZE
 40
0.06
  9
$HANDSEED
  5
3B7
  9
$TILEMODE
 70
1
  9
$MEASUREMENT
 70
0
  9
$INSUNITS
 70
1
  0
ENDSEC
  0
SECTION
  2
CLASSES
  0
CLASS
  1
ACDBDICTIONARYWDFLT
  2
AcDbDictionaryWithDefault
  3
AutoCAD 2000
 90
0
 91
1
280
0
281
0
  0
CLASS
  1
ACDBPLACEHOLDER
  2
AcDbPlaceHolder
  3
AutoCAD 2000
 90
0
 91
1
280
0
281
0
  0
CLASS
  1
LAYOUT
  2
AcDbLayout
  3
AutoCAD 2000
 90
0
 91
0
280
0
281
0
  0
ENDSEC
  0
SECTION
  2
TABLES
  0
TABLE
  2
VPORT
  5
8
100
AcDbSymbolTable
 70
2
  0
VPORT
  5
1F4
100
AcDbSymbolTableRecord
100
AcDbViewportTableRecord
  2
*ACTIVE
 70
0
 10
0.0
 20
0.0
 11
1.0
 21
1.0
 12
11.0
 22
8.5
 13
0.0
 23
0.0
 14
1.0
 24
1.0
 15
0.0
 25
0.0
 16
0.0
 26
0.0
 36
1.0
 17
0.0
 27
0.0
 37
0.0
 40
17.0
 41
1.2941176471
 42
50.0
 43
0.0
 44
0.0
 50
0.0
 51
0.0
 71
0
 72
100
 73
1
 74
1
 75
0
 76
0
 77
0
 78
0
  0
ENDTAB
  0
TABLE
  2
LTYPE
  5
5
100
AcDbSymbolTable
 70
6
  0
LTYPE
  5
14
100
AcDbSymbolTableRecord
100
AcDbLinetypeTableRecord
  2
BYBLOCK
 70
0
  3

 72
65
 73
0
 40
0.0
  0
LTYPE
  5
15
100
AcDbSymbolTableRecord
100
AcDbLinetypeTableRecord
  2
BYLAYER
 70
0
  3

 72
65
 73
0
 40
0.0
  0
LTYPE
  5
16
100
AcDbSymbolTableRecord
100
AcDbLinetypeTableRecord
  2
CONTINUOUS
 70
64
  3
Solid line
 72
65
 73
0
 40
0.0
  0
LTYPE
  5
1F5
100
AcDbSymbolTableRecord
100
AcDbLinetypeTableRecord
  2
CENTER
 70
64
  3
____ _ ____ _ ____ _ ____ _ ____ _ ____ _ ____
 72
65
 73
4
 40
0.6
 49
0.375
 74
0
 49
-0.075
 74
0
 49
0.075
 74
0
 49
-0.075
 74
0
  0
LTYPE
  5
1F6
100
AcDbSymbolTableRecord
100
AcDbLinetypeTableRecord
  2
HIDDEN
 70
64
  3
- - - - - - - - - - - - - - - - - - - -
 72
65
 73
2
 40
0.2
 49
0.1
 74
0
 49
-0.1
 74
0
  0
LTYPE
  5
1F7
100
AcDbSymbolTableRecord
100
AcDbLinetypeTableRecord
  2
PHANTOM
 70
64
  3
_____ _ _ _____ _ _ _____ _ _ _____
 72
65
 73
6
 40
0.8
 49
0.45
 74
0
 49
-0.05
 74
0
 49
0.1
 74
0
 49
-0.05
 74
0
 49
0.1
 74
0
 49
-0.05
 74
0
  0
LTYPE
  5
1F8
100
AcDbSymbolTableRecord
100
AcDbLinetypeTableRecord
  2
DOT
 70
64
  3
. . . . . . . . . . . . . . . . . . . .
 72
65
 73
2
 40
0.2
 49
0.1
 74
0
 49
-0.1
 74
0
  0
LTYPE
  5
1F9
100
AcDbSymbolTableRecord
100
AcDbLinetypeTableRecord
  2
DASHED
 70
64
  3
- - - - - - - - - - - - - - - - - - - -
 72
65
 73
2
 40
0.2
 49
0.1
 74
0
 49
-0.1
 74
0
  0
ENDTAB
  0
TABLE
  2
LAYER
  5
2
100
AcDbSymbolTable
 70
36
  0
LAYER
  5
10
100
AcDbSymbolTableRecord
100
AcDbLayerTableRecord
  2
0
 70
0
 62
7
  6
CONTINUOUS
370
-3
390
F
  0
LAYER
  5
1FA
100
AcDbSymbolTableRecord
100
AcDbLayerTableRecord
  2
DEFAULT_1
 70
0
 62
7
  6
CENTER
370
-3
390
F
  0
LAYER
  5
1FB
100
AcDbSymbolTableRecord
100
AcDbLayerTableRecord
  2
DEFAULT_2
 70
0
 62
8
  6
HIDDEN
370
-3
390
F
  0
LAYER
  5
1FC
100
AcDbSymbolTableRecord
100
AcDbLayerTableRecord
  2
DEFAULT_3
 70
0
 62
7
  6
PHANTOM
370
-3
390
F
  0
LAYER
  5
1FD
100
AcDbSymbolTableRecord
100
AcDbLayerTableRecord
  2
ALL_FEATURES
 70
0
 62
7
  6
CONTINUOUS
370
-3
390
F
  0
LAYER
  5
1FE
100
AcDbSymbolTableRecord
100
AcDbLayerTableRecord
  2
AXES_FEATURES
 70
0
 62
7
  6
CONTINUOUS
370
-3
390
F
  0
LAYER
  5
1FF
100
AcDbSymbolTableRecord
100
AcDbLayerTableRecord
  2
DEFAULT_COORDINATE_SYSTEM
 70
0
 62
7
  6
CONTINUOUS
370
-3
390
F
  0
LAYER
  5
200
100
AcDbSymbolTableRecord
100
AcDbLayerTableRecord
  2
DEFAULT_DATUM_AXES
 70
0
 62
7
  6
CONTINUOUS
370
-3
390
F
  0
LAYER
  5
201
100
AcDbSymbolTableRecord
100
AcDbLayerTableRecord
  2
DEFAULT_DATUM_PLANES
 70
0
 62
7
  6
CONTINUOUS
370
-3
390
F
  0
LAYER
  5
202
100
AcDbSymbolTableRecord
100
AcDbLayerTableRecord
  2
DIMENSIONS
 70
0
 62
7
  6
CONTINUOUS
370
-3
390
F
  0
ENDTAB
  0
TABLE
  2
STYLE
  5
3
100
AcDbSymbolTable
 70
1
  0
STYLE
  5
11
100
AcDbSymbolTableRecord
100
AcDbTextStyleTableRecord
  2
STANDARD
 70
0
 40
0.0
 41
0.8
 50
0.0
 71
0
 42
0.2
  3
txt
  4

  0
STYLE
  5
203
100
AcDbSymbolTableRecord
100
AcDbTextStyleTableRecord
  2
TEXTSTYLE_1
 70
0
 40
0.0
 41
0.8
 50
0.0
 71
0
 42
0.2
  3
gdt
  4

  0
ENDTAB
  0
TABLE
  2
VIEW
  5
6
100
AcDbSymbolTable
 70
0
  0
ENDTAB
  0
TABLE
  2
UCS
  5
7
100
AcDbSymbolTable
 70
0
  0
ENDTAB
  0
TABLE
  2
APPID
  5
9
100
AcDbSymbolTable
 70
1
  0
APPID
  5
204
100
AcDbSymbolTableRecord
100
AcDbRegAppTableRecord
  2
ACAD
 70
0
  0
ENDTAB
  0
TABLE
  2
BLOCK_RECORD
  5
1
100
AcDbSymbolTable
 70
0
  0
BLOCK_RECORD
  5
205
100
AcDbSymbolTableRecord
100
AcDbBlockTableRecord
  2
*Model_Space
  0
BLOCK_RECORD
  5
206
100
AcDbSymbolTableRecord
100
AcDbBlockTableRecord
  2
*Paper_Space
  0
BLOCK_RECORD
  5
207
100
AcDbSymbolTableRecord
100
AcDbBlockTableRecord
  2
_FILLED
  0
ENDTAB
  0
TABLE
  2
DIMSTYLE
  5
A
100
AcDbSymbolTable
 70
1
100
AcDbDimStyleTable
 71
0
  0
DIMSTYLE
105
208
100
AcDbSymbolTableRecord
100
AcDbDimStyleTableRecord
  2
STANDARD
 70
0
  3

  4

 40
1.0
 41
0.1
 42
0.0625
 43
0.38
 44
0.125
 45
0.0
 46
0.0
 47
0.001
 48
0.001
140
0.08
141
0.09
142
0.0
143
25.4
144
1.0
145
0.0
146
1.0
147
0.09
 71
1.0
 72
0.0
 73
1
 74
1
 75
0
 76
0
 77
0
 78
4
 79
1
170
1
171
2
172
0
173
0
174
0
175
0
176
0
177
0
178
0
270
2
179
3
271
3
272
3
273
2
274
2
275
0
280
0
281
0
282
0
283
1
284
4
285
0
286
0
287
3
288
0
340
11
278
46
341
207
342
207
343
207
344
207
  0
ENDTAB
  0
ENDSEC
  0
SECTION
  2
BLOCKS
  0
BLOCK
  5
20
100
AcDbEntity
  8
0
100
AcDbBlockBegin
  2
*Model_Space
 70
0
 10
0.0
 20
0.0
 30
0.0
  3
*Model_Space
  1

  0
ENDBLK
  5
21
100
AcDbEntity
  8
0
100
AcDbBlockEnd
  0
BLOCK
  5
1C
100
AcDbEntity
  8
0
100
AcDbBlockBegin
  2
*Paper_Space
 70
0
 10
0.0
 20
0.0
 30
0.0
  3
*Paper_Space
  1

  0
ENDBLK
  5
1D
100
AcDbEntity
  8
0
100
AcDbBlockEnd
  0
BLOCK
  5
209
100
AcDbEntity
  8
0
100
AcDbBlockBegin
  2
_FILLED
 70
64
 10
0.0
 20
0.0
  3
_FILLED
  1

  0
SOLID
  5
20A
100
AcDbEntity
  8
0
  6
BYBLOCK
 62
0
100
AcDbTrace
 10
0.0
 20
0.0
 11
-1.0
 21
0.2
 12
-1.0
 22
-0.2
 13
-1.0
 23
-0.2
  0
ENDBLK
  5
20B
100
AcDbEntity
  8
0
  6
BYBLOCK
 62
0
100
AcDbBlockEnd
  0
ENDSEC
  0
SECTION
  2
ENTITIES
  0
LINE
  5
20C
100
AcDbEntity
  8
0
100
AcDbLine
 62
7
  6
CONTINUOUS
 10
9.9973183383
 20
11.9184839588
 11
10.001960599
 21
11.9218823079
  0
LINE
  5
20D
100
AcDbEntity
  8
0
100
AcDbLine
 62
7
  6
CONTINUOUS
 10
7.7973183383
 20
12.3677777211
 11
7.7973183383
 21
12.5072409815
  0
LINE
  5
20E
100
AcDbEntity
  8
0
100
AcDbLine
 62
7
  6
CONTINUOUS
 10
9.1423183383
 20
4.4277726261
 11
9.1423183383
 21
4.2983375589
  0
LINE
  5
20F
100
AcDbEntity
  8
0
100
AcDbLine
 62
7
  6
CONTINUOUS
 10
9.4273183383
 20
4.5851550294
 11
9.4273183383
 21
4.5611215783
  0
LINE
  5
210
100
AcDbEntity
  8
0
100
AcDbLine
 62
7
  6
CONTINUOUS
 10
10.4090192031
 20
9.2344510278
 11
10.3794326772
 21
9.1934141388
  0
LINE
  5
211
100
AcDbEntity
  8
0
100
AcDbLine
 62
9
  6
CONTINUOUS
 10
10.4090215498
 20
9.2344542827
 11
10.4090192031
 21
9.2344510278
  0
LINE
  5
212
100
AcDbEntity
  8
0
100
AcDbLine
 62
7
  6
CONTINUOUS
 10
11.0472652536
 20
5.6342421569
 11
11.0474842211
 21
5.6342421789
  0
LINE
  5
213
100
AcDbEntity
  8
0
100
AcDbLine
 62
7
  6
CONTINUOUS
 10
10.5173183372
 20
9.0542409797
 11
10.5091773221
 21
9.0401403279
  0
LINE
  5
214
100
AcDbEntity
  8
0
100
AcDbLine
 62
7
  6
CONTINUOUS
 10
9.9973183383
 20
11.9184696508
 11
9.9973183383
 21
11.6960151177
  0
LINE
  5
215
100
AcDbEntity
  8
0
100
AcDbLine
 62
7
  6
CONTINUOUS
 10
10.3598183383
 20
11.7160178899
 11
10.3598183383
 21
11.5624592972
  0
LINE
  5
216
100
AcDbEntity
  8
0
100
AcDbLine
 62
7
  6
CONTINUOUS
 10
10.4723183383
 20
5.7208627351
 11
10.4723183383
 21
5.0561823608
  0
LINE
  5
217
100
AcDbEntity
  8
0
100
AcDbLine
 62
7
  6
CONTINUOUS
 10
10.5473183383
 20
10.1672409815
 11
10.5473183383
 21
9.6542409815
  0
LINE
  5
218
100
AcDbEntity
  8
0
100
AcDbLine
 62
7
  6
CONTINUOUS
 10
10.5473183383
 20
8.9681876752
 11
10.5473183383
 21
5.9215457103
  0
LINE
  5
219
100
AcDbEntity
  8
0
100
AcDbLine
 62
7
  6
CONTINUOUS
 10
10.5948183383
 20
6.2370506854
 11
10.5948183383
 21
6.009271898
  0
LINE
  5
21A
100
AcDbEntity
  8
0
100
AcDbLine
 62
7
  6
CONTINUOUS
 10
10.6410683383
 20
12.0272409815
 11
10.6410683383
 21
6.4424877582
  0
LINE
  5
21B
100
AcDbEntity
  8
0
100
AcDbLine
 62
7
  6
CONTINUOUS
 10
10.6410683383
 20
6.3604131827
 11
10.6410683383
 21
6.3429596716
  0
LINE
  5
21C
100
AcDbEntity
  8
0
100
AcDbLine
 62
7
  6
CONTINUOUS
 10
10.6410683383
 20
6.3091942134
 11
10.6410683383
 21
6.293231699
  0
LINE
  5
21D
100
AcDbEntity
  8
0
100
AcDbLine
 62
7
  6
CONTINUOUS
 10
10.6410683383
 20
6.2579049173
 11
10.6410683383
 21
6.2434921019
  0
LINE
  5
21E
100
AcDbEntity
  8
0
100
AcDbLine
 62
7
  6
CONTINUOUS
 10
10.6410683383
 20
6.3927579899
 11
10.6410685839
 21
6.411998299
  0
LINE
  5
21F
100
AcDbEntity
  8
0
100
AcDbLine
 62
7
  6
CONTINUOUS
 10
11.6856174734
 20
9.4740309352
 11
11.7152039994
 21
9.5150678242
  0
LINE
  5
220
100
AcDbEntity
  8
0
100
AcDbLine
 62
7
  6
CONTINUOUS
 10
10.8497861108
 20
6.1909359888
 11
10.8497861108
 21
6.1783070617
  0
LINE
  5
221
100
AcDbEntity
  8
0
100
AcDbLine
 62
7
  6
CONTINUOUS
 10
12.1992675002
 20
12.3773984034
 11
12.2323183383
 21
12.5072409815
  0
LINE
  5
222
100
AcDbEntity
  8
0
100
AcDbLine
 62
7
  6
CONTINUOUS
 10
9.895982351
 20
12.0601173824
 11
9.8648183383
 21
12.1942409815
  0
LINE
  5
223
100
AcDbEntity
  8
0
100
AcDbLine
 62
7
  6
CONTINUOUS
 10
11.1568904109
 20
5.8382189364
 11
11.1568904109
 21
5.6988284967
  0
LINE
  5
224
100
AcDbEntity
  8
0
100
AcDbLine
 62
7
  6
CONTINUOUS
 10
11.1770814628
 20
5.3247651893
 11
11.1770814628
 21
5.0772778159
  0
LINE
  5
225
100
AcDbEntity
  8
0
100
AcDbLine
 62
7
  6
CONTINUOUS
 10
11.3727462656
 20
5.92634172
 11
11.3727462656
 21
5.7869512803
  0
LINE
  5
226
100
AcDbEntity
  8
0
100
AcDbLine
 62
7
  6
CONTINUOUS
 10
11.4535683383
 20
12.0272409815
 11
11.4535683383
 21
6.4176273792
  0
LINE
  5
227
100
AcDbEntity
  8
0
100
AcDbLine
 62
7
  6
CONTINUOUS
 10
11.4535683383
 20
6.386052442
 11
11.4535683383
 21
6.3678653846
  0
LINE
  5
228
100
AcDbEntity
  8
0
100
AcDbLine
 62
7
  6
CONTINUOUS
 10
11.4535683383
 20
6.3347971356
 11
11.4535683383
 21
6.3181752024
  0
LINE
  5
229
100
AcDbEntity
  8
0
100
AcDbLine
 62
7
  6
CONTINUOUS
 10
11.4535683383
 20
6.2834700334
 11
11.4535683383
 21
6.2683637328
  0
LINE
  5
22A
100
AcDbEntity
  8
0
100
AcDbLine
 62
7
  6
CONTINUOUS
 10
11.4675552138
 20
5.4433506016
 11
11.4675552138
 21
5.1958632282
  0
LINE
  5
22B
100
AcDbEntity
  8
0
100
AcDbLine
 62
7
  6
CONTINUOUS
 10
12.1986543256
 20
12.0601173824
 11
12.2298183383
 21
12.1942409815
  0
LINE
  5
22C
100
AcDbEntity
  8
0
100
AcDbLine
 62
7
  6
CONTINUOUS
 10
9.8953691763
 20
12.3773984034
 11
9.8623183383
 21
12.5072409815
  0
LINE
  5
22D
100
AcDbEntity
  8
0
100
AcDbLine
 62
7
  6
CONTINUOUS
 10
11.4998183383
 20
6.2370506854
 11
11.4998183383
 21
6.009271898
  0
LINE
  5
22E
100
AcDbEntity
  8
0
100
AcDbLine
 62
7
  6
CONTINUOUS
 10
11.5473183383
 20
10.1672409815
 11
11.5473183383
 21
9.6542409815
  0
LINE
  5
22F
100
AcDbEntity
  8
0
100
AcDbLine
 62
7
  6
CONTINUOUS
 10
11.5473183383
 20
8.9681876752
 11
11.5473183383
 21
5.9210567282
  0
LINE
  5
230
100
AcDbEntity
  8
0
100
AcDbLine
 62
7
  6
CONTINUOUS
 10
11.6223183383
 20
5.7208627351
 11
11.6223183383
 21
5.0561823608
  0
LINE
  5
231
100
AcDbEntity
  8
0
100
AcDbLine
 62
7
  6
CONTINUOUS
 10
11.7348183383
 20
11.5624592972
 11
11.7348183383
 21
11.7160178899
  0
LINE
  5
232
100
AcDbEntity
  8
0
100
AcDbLine
 62
7
  6
CONTINUOUS
 10
10.6410685839
 20
6.411998299
 11
10.6434792633
 21
6.4129805811
  0
LINE
  5
233
100
AcDbEntity
  8
0
100
AcDbLine
 62
9
  6
CONTINUOUS
 10
10.4090192031
 20
9.4740309352
 11
10.4090213208
 21
9.4740279979
  0
LINE
  5
234
100
AcDbEntity
  8
0
100
AcDbLine
 62
7
  6
CONTINUOUS
 10
10.4090192031
 20
9.4740309352
 11
10.3794326772
 21
9.5150678242
  0
LINE
  5
235
100
AcDbEntity
  8
0
100
AcDbLine
 62
7
  6
CONTINUOUS
 10
12.0973183383
 20
11.6960151177
 11
12.0973183383
 21
11.9184696508
  0
LINE
  5
236
100
AcDbEntity
  8
0
100
AcDbLine
 62
7
  6
CONTINUOUS
 10
11.5773183393
 20
9.0542409797
 11
11.5854593544
 21
9.0401403279
  0
LINE
  5
237
100
AcDbEntity
  8
0
100
AcDbLine
 62
7
  6
CONTINUOUS
 10
12.6673183383
 20
4.5851550294
 11
12.6673183383
 21
4.5611215783
  0
LINE
  5
238
100
AcDbEntity
  8
0
100
AcDbLine
 62
9
  6
CONTINUOUS
 10
11.4535683383
 20
8.7572409815
 11
10.6410683383
 21
8.7572409815
  0
LINE
  5
239
100
AcDbEntity
  8
0
100
AcDbLine
 62
7
  6
CONTINUOUS
 10
11.5020494336
 20
8.8942409815
 11
11.4535683383
 21
8.8942409815
  0
LINE
  5
23A
100
AcDbEntity
  8
0
100
AcDbLine
 62
7
  6
CONTINUOUS
 10
10.6410683383
 20
8.8942409815
 11
10.592587243
 21
8.8942409815
  0
LINE
  5
23B
100
AcDbEntity
  8
0
100
AcDbLine
 62
9
  6
CONTINUOUS
 10
11.5179436326
 20
8.9084040057
 11
11.4535683383
 21
8.9084040057
  0
LINE
  5
23C
100
AcDbEntity
  8
0
100
AcDbLine
 62
9
  6
CONTINUOUS
 10
10.6410683383
 20
8.9084040057
 11
10.5766930439
 21
8.9084040057
  0
LINE
  5
23D
100
AcDbEntity
  8
0
100
AcDbLine
 62
9
  6
CONTINUOUS
 10
10.6410683383
 20
8.9849353506
 11
10.5248286155
 21
8.9849353506
  0
LINE
  5
23E
100
AcDbEntity
  8
0
100
AcDbLine
 62
9
  6
CONTINUOUS
 10
11.4535683383
 20
8.9849353506
 11
11.5698080611
 21
8.9849353506
  0
LINE
  5
23F
100
AcDbEntity
  8
0
100
AcDbLine
 62
9
  6
CONTINUOUS
 10
10.6410683383
 20
9.0401403279
 11
10.5091773221
 21
9.0401403279
  0
LINE
  5
240
100
AcDbEntity
  8
0
100
AcDbLine
 62
9
  6
CONTINUOUS
 10
11.4535683383
 20
9.0401403279
 11
11.5854593544
 21
9.0401403279
  0
LINE
  5
241
100
AcDbEntity
  8
0
100
AcDbLine
 62
7
  6
CONTINUOUS
 10
11.5773183393
 20
9.0542409797
 11
11.4535683383
 21
9.0542409798
  0
LINE
  5
242
100
AcDbEntity
  8
0
100
AcDbLine
 62
7
  6
CONTINUOUS
 10
10.6410683383
 20
9.0542409797
 11
10.5173183372
 21
9.0542409797
  0
LINE
  5
243
100
AcDbEntity
  8
0
100
AcDbLine
 62
9
  6
CONTINUOUS
 10
11.6250770344
 20
9.1027111022
 11
11.4535683383
 21
9.1027111049
  0
LINE
  5
244
100
AcDbEntity
  8
0
100
AcDbLine
 62
9
  6
CONTINUOUS
 10
10.6410683383
 20
9.1027111022
 11
10.4695596421
 21
9.1027111022
  0
LINE
  5
245
100
AcDbEntity
  8
0
100
AcDbLine
 62
7
  6
CONTINUOUS
 10
11.6856174734
 20
9.2344510278
 11
11.7152039994
 21
9.1934141388
  0
LINE
  5
246
100
AcDbEntity
  8
0
100
AcDbLine
 62
7
  6
CONTINUOUS
 10
12.9523183383
 20
4.4277726261
 11
12.9523183383
 21
4.2983375589
  0
LINE
  5
247
100
AcDbEntity
  8
0
100
AcDbLine
 62
7
  6
CONTINUOUS
 10
11.4675552138
 20
5.4433506016
 11
11.1770814628
 21
5.3247651893
  0
LINE
  5
248
100
AcDbEntity
  8
0
100
AcDbLine
 62
7
  6
CONTINUOUS
 10
10.6325959853
 20
9.1582409815
 11
10.6410683383
 21
9.1582409815
  0
LINE
  5
249
100
AcDbEntity
  8
0
100
AcDbLine
 62
7
  6
CONTINUOUS
 10
11.4535683383
 20
9.1582409815
 11
11.4620406912
 21
9.1582409815
  0
LINE
  5
24A
100
AcDbEntity
  8
0
100
AcDbLine
 62
7
  6
CONTINUOUS
 10
11.4675552138
 20
5.1958632282
 11
11.1770814628
 21
5.0772778159
  0
LINE
  5
24B
100
AcDbEntity
  8
0
100
AcDbLine
 62
7
  6
CONTINUOUS
 10
10.6325959853
 20
9.5502409815
 11
10.6410683383
 21
9.5502409815
  0
LINE
  5
24C
100
AcDbEntity
  8
0
100
AcDbLine
 62
7
  6
CONTINUOUS
 10
11.4535683383
 20
9.5502409815
 11
11.4620406912
 21
9.5502409815
  0
LINE
  5
24D
100
AcDbEntity
  8
0
100
AcDbLine
 62
9
  6
CONTINUOUS
 10
11.6268749975
 20
9.6005072622
 11
11.4535683383
 21
9.6005072622
  0
LINE
  5
24E
100
AcDbEntity
  8
0
100
AcDbLine
 62
9
  6
CONTINUOUS
 10
10.6410683383
 20
9.6005072622
 11
10.4677616791
 21
9.6005072622
  0
LINE
  5
24F
100
AcDbEntity
  8
0
100
AcDbLine
 62
7
  6
CONTINUOUS
 10
11.5520238011
 20
9.6542409815
 11
11.4535683383
 21
9.6542409815
  0
LINE
  5
250
100
AcDbEntity
  8
0
100
AcDbLine
 62
7
  6
CONTINUOUS
 10
10.6410683383
 20
9.6542409815
 11
10.5426128755
 21
9.6542409815
  0
LINE
  5
251
100
AcDbEntity
  8
0
100
AcDbLine
 62
7
  6
CONTINUOUS
 10
11.5710083748
 20
10.1672409815
 11
11.4535683383
 21
10.1672409815
  0
LINE
  5
252
100
AcDbEntity
  8
0
100
AcDbLine
 62
7
  6
CONTINUOUS
 10
10.6410683383
 20
10.1672409815
 11
10.5236283018
 21
10.1672409815
  0
LINE
  5
253
100
AcDbEntity
  8
0
100
AcDbLine
 62
9
  6
CONTINUOUS
 10
11.6209905365
 20
10.2185764618
 11
11.4535683383
 21
10.2185764618
  0
LINE
  5
254
100
AcDbEntity
  8
0
100
AcDbLine
 62
9
  6
CONTINUOUS
 10
10.6410683383
 20
10.2185764618
 11
10.4736461401
 21
10.2185764618
  0
LINE
  5
255
100
AcDbEntity
  8
0
100
AcDbLine
 62
7
  6
CONTINUOUS
 10
11.6823183383
 20
10.3972409815
 11
11.4535683383
 21
10.3972409815
  0
LINE
  5
256
100
AcDbEntity
  8
0
100
AcDbLine
 62
7
  6
CONTINUOUS
 10
10.4123183383
 20
10.3972409815
 11
10.6410683383
 21
10.3972409815
  0
LINE
  5
257
100
AcDbEntity
  8
0
100
AcDbLine
 62
7
  6
CONTINUOUS
 10
11.6823183383
 20
10.5572409815
 11
11.5361356074
 21
10.5572409815
  0
LINE
  5
258
100
AcDbEntity
  8
0
100
AcDbLine
 62
7
  6
CONTINUOUS
 10
10.4123183383
 20
10.5572409815
 11
10.5585010691
 21
10.5572409815
  0
LINE
  5
259
100
AcDbEntity
  8
0
100
AcDbLine
 62
7
  6
CONTINUOUS
 10
11.5373183383
 20
10.5752409815
 11
11.4535683383
 21
10.5752409815
  0
LINE
  5
25A
100
AcDbEntity
  8
0
100
AcDbLine
 62
7
  6
CONTINUOUS
 10
10.5573183383
 20
10.5752409815
 11
10.6410683383
 21
10.5752409815
  0
LINE
  5
25B
100
AcDbEntity
  8
0
100
AcDbLine
 62
7
  6
CONTINUOUS
 10
11.5373183383
 20
10.6952409815
 11
11.4535683383
 21
10.6952409815
  0
LINE
  5
25C
100
AcDbEntity
  8
0
100
AcDbLine
 62
7
  6
CONTINUOUS
 10
10.5573183383
 20
10.6952409815
 11
10.6410683383
 21
10.6952409815
  0
LINE
  5
25D
100
AcDbEntity
  8
0
100
AcDbLine
 62
7
  6
CONTINUOUS
 10
14.2973183383
 20
12.3677777211
 11
14.2973183383
 21
12.5072409815
  0
LINE
  5
25E
100
AcDbEntity
  8
0
100
AcDbLine
 62
9
  6
CONTINUOUS
 10
11.8457082414
 20
11.2404274418
 11
11.5519104563
 21
11.2404274418
  0
LINE
  5
25F
100
AcDbEntity
  8
0
100
AcDbLine
 62
9
  6
CONTINUOUS
 10
10.2489284351
 20
11.2404274418
 11
10.5427262203
 21
11.2404274418
  0
LINE
  5
260
100
AcDbEntity
  8
0
100
AcDbLine
 62
7
  6
CONTINUOUS
 10
11.7138183383
 20
11.5592550452
 11
11.4535683383
 21
11.5592550452
  0
LINE
  5
261
100
AcDbEntity
  8
0
100
AcDbLine
 62
7
  6
CONTINUOUS
 10
10.3808183383
 20
11.5592550452
 11
10.6410683383
 21
11.5592550452
  0
LINE
  5
262
100
AcDbEntity
  8
0
100
AcDbLine
 62
7
  6
CONTINUOUS
 10
10.0823183383
 20
11.6672409815
 11
10.3598183383
 21
11.6672409815
  0
LINE
  5
263
100
AcDbEntity
  8
0
100
AcDbLine
 62
7
  6
CONTINUOUS
 10
11.7348183383
 20
11.6672409815
 11
12.0123183383
 21
11.6672409815
  0
LINE
  5
264
100
AcDbEntity
  8
0
100
AcDbLine
 62
7
  6
CONTINUOUS
 10
11.7123173267
 20
11.7192409815
 11
11.4535683383
 21
11.7192409815
  0
LINE
  5
265
100
AcDbEntity
  8
0
100
AcDbLine
 62
7
  6
CONTINUOUS
 10
10.3823193499
 20
11.7192409815
 11
10.6410683383
 21
11.7192409815
  0
LINE
  5
266
100
AcDbEntity
  8
0
100
AcDbLine
 62
9
  6
CONTINUOUS
 10
11.8761955266
 20
11.8114629189
 11
11.4535683383
 21
11.8114629189
  0
LINE
  5
267
100
AcDbEntity
  8
0
100
AcDbLine
 62
9
  6
CONTINUOUS
 10
10.6410683383
 20
11.8114629189
 11
10.21844115
 21
11.8114629189
  0
LINE
  5
268
100
AcDbEntity
  8
0
100
AcDbLine
 62
9
  6
CONTINUOUS
 10
10.001960599
 20
11.9218823079
 11
10.1206924353
 21
11.9218823079
  0
LINE
  5
269
100
AcDbEntity
  8
0
100
AcDbLine
 62
9
  6
CONTINUOUS
 10
11.9739442413
 20
11.9218823079
 11
12.0926760776
 21
11.9218823079
  0
LINE
  5
26A
100
AcDbEntity
  8
0
100
AcDbLine
 62
7
  6
CONTINUOUS
 10
12.0973183383
 20
11.9184839588
 11
12.0926760776
 21
11.9218823079
  0
LINE
  5
26B
100
AcDbEntity
  8
0
100
AcDbLine
 62
9
  6
CONTINUOUS
 10
9.99813404
 20
11.956737459
 11
10.0730484949
 21
11.956737459
  0
LINE
  5
26C
100
AcDbEntity
  8
0
100
AcDbLine
 62
9
  6
CONTINUOUS
 10
12.0215881817
 20
11.956737459
 11
12.0965026366
 21
11.956737459
  0
LINE
  5
26D
100
AcDbEntity
  8
0
100
AcDbLine
 62
9
  6
CONTINUOUS
 10
12.1564388561
 20
12.0164763899
 11
11.4535683383
 21
12.0164763899
  0
LINE
  5
26E
100
AcDbEntity
  8
0
100
AcDbLine
 62
9
  6
CONTINUOUS
 10
10.6410683383
 20
12.0164763899
 11
9.9381978205
 21
12.0164763899
  0
LINE
  5
26F
100
AcDbEntity
  8
0
100
AcDbLine
 62
7
  6
CONTINUOUS
 10
11.6937276619
 20
12.0272409815
 11
10.4009090147
 21
12.0272409815
  0
LINE
  5
270
100
AcDbEntity
  8
0
100
AcDbLine
 62
9
  6
CONTINUOUS
 10
12.1986543256
 20
12.0601173824
 11
11.8093206357
 21
12.0601173824
  0
LINE
  5
271
100
AcDbEntity
  8
0
100
AcDbLine
 62
9
  6
CONTINUOUS
 10
10.2853160409
 20
12.0601173824
 11
9.895982351
 21
12.0601173824
  0
LINE
  5
272
100
AcDbEntity
  8
0
100
AcDbLine
 62
9
  6
CONTINUOUS
 10
9.8853909572
 20
12.1057005964
 11
9.8691229246
 21
12.1057005964
  0
LINE
  5
273
100
AcDbEntity
  8
0
100
AcDbLine
 62
9
  6
CONTINUOUS
 10
12.2092457194
 20
12.1057005964
 11
12.225513752
 21
12.1057005964
  0
LINE
  5
274
100
AcDbEntity
  8
0
100
AcDbLine
 62
9
  6
CONTINUOUS
 10
11.8793569786
 20
12.1291649447
 11
10.2152796979
 21
12.1291649447
  0
LINE
  5
275
100
AcDbEntity
  8
0
100
AcDbLine
 62
7
  6
CONTINUOUS
 10
14.130161828
 20
12.1942409815
 11
11.929411619
 21
12.1942409815
  0
LINE
  5
276
100
AcDbEntity
  8
0
100
AcDbLine
 62
7
  6
CONTINUOUS
 10
10.1652250576
 20
12.1942409815
 11
7.9644748485
 21
12.1942409815
  0
LINE
  5
277
100
AcDbEntity
  8
0
100
AcDbLine
 62
9
  6
CONTINUOUS
 10
14.1895364896
 20
12.2361779912
 11
11.9722608932
 21
12.2361779912
  0
LINE
  5
278
100
AcDbEntity
  8
0
100
AcDbLine
 62
9
  6
CONTINUOUS
 10
10.1223757834
 20
12.2361779912
 11
7.9051001869
 21
12.2361779912
  0
LINE
  5
279
100
AcDbEntity
  8
0
100
AcDbLine
 62
9
  6
CONTINUOUS
 10
14.2588700226
 20
12.3097586312
 11
12.0886649597
 21
12.3097586312
  0
LINE
  5
27A
100
AcDbEntity
  8
0
100
AcDbLine
 62
9
  6
CONTINUOUS
 10
10.0059717168
 20
12.3097586312
 11
7.8357666539
 21
12.3097586312
  0
LINE
  5
27B
100
AcDbEntity
  8
0
100
AcDbLine
 62
9
  6
CONTINUOUS
 10
12.1570376241
 20
12.3343486426
 11
9.9375990524
 21
12.3343486426
  0
LINE
  5
27C
100
AcDbEntity
  8
0
100
AcDbLine
 62
9
  6
CONTINUOUS
 10
14.2973183383
 20
12.3677777211
 11
12.1958150769
 21
12.3677777211
  0
LINE
  5
27D
100
AcDbEntity
  8
0
100
AcDbLine
 62
9
  6
CONTINUOUS
 10
9.8988215997
 20
12.3677777211
 11
7.7973183383
 21
12.3677777211
  0
LINE
  5
27E
100
AcDbEntity
  8
0
100
AcDbLine
 62
9
  6
CONTINUOUS
 10
12.1992675002
 20
12.3773984034
 11
9.8953691763
 21
12.3773984034
  0
LINE
  5
27F
100
AcDbEntity
  8
0
100
AcDbLine
 62
7
  6
CONTINUOUS
 10
7.7973192759
 20
12.5072409815
 11
14.2973174007
 21
12.5072409815
  0
ARC
  5
280
100
AcDbEntity
  8
0
100
AcDbCircle
 62
9
  6
CONTINUOUS
 10
11.0473119721
 20
5.6970423481
 40
2.3027444852
100
AcDbArc
 50
264.6690262689
 51
275.3331943304
  0
ARC
  5
281
100
AcDbEntity
  8
0
100
AcDbCircle
 62
7
  6
CONTINUOUS
 10
10.9477282037
 20
3.8493020538
 40
1.8731122562
100
AcDbArc
 50
112.0766801313
 51
112.207630115
  0
ARC
  5
282
100
AcDbEntity
  8
0
100
AcDbCircle
 62
7
  6
CONTINUOUS
 10
9.9753471743
 20
3.997769967
 40
1.0779629374
100
AcDbArc
 50
176.7935553249
 51
188.3559694589
  0
ARC
  5
283
100
AcDbEntity
  8
0
100
AcDbCircle
 62
9
  6
CONTINUOUS
 10
10.237426949
 20
4.5851539682
 40
0.8101085696
100
AcDbArc
 50
179.999924943
 51
181.6008109692
  0
ARC
  5
284
100
AcDbEntity
  8
0
100
AcDbCircle
 62
7
  6
CONTINUOUS
 10
11.0472785485
 20
5.5539609153
 40
0.4890467239
100
AcDbArc
 50
28.6909635716
 51
34.8974031699
  0
ARC
  5
285
100
AcDbEntity
  8
0
100
AcDbCircle
 62
7
  6
CONTINUOUS
 10
10.8180665382
 20
5.6712318541
 40
0.233253007
100
AcDbArc
 50
171.3689481225
 51
175.6175450066
  0
ARC
  5
286
100
AcDbEntity
  8
0
100
AcDbCircle
 62
7
  6
CONTINUOUS
 10
10.8459307413
 20
6.4425220765
 40
0.2048624056
100
AcDbArc
 50
180.009598126
 51
188.5342584315
  0
ARC
  5
287
100
AcDbEntity
  8
0
100
AcDbCircle
 62
7
  6
CONTINUOUS
 10
10.8377653393
 20
6.3435073114
 40
0.1967333932
100
AcDbArc
 50
189.9364682677
 51
190.552815334
  0
ARC
  5
288
100
AcDbEntity
  8
0
100
AcDbCircle
 62
7
  6
CONTINUOUS
 10
10.8375253867
 20
6.3932628873
 40
0.1964896154
100
AcDbArc
 50
189.5237523641
 51
190.5542040041
  0
ARC
  5
289
100
AcDbEntity
  8
0
100
AcDbCircle
 62
7
  6
CONTINUOUS
 10
10.8345504346
 20
6.2932861989
 40
0.1934820749
100
AcDbArc
 50
180.0161390624
 51
190.3251931583
  0
ARC
  5
28A
100
AcDbEntity
  8
0
100
AcDbCircle
 62
7
  6
CONTINUOUS
 10
10.8344476895
 20
6.3430076203
 40
0.1933793011
100
AcDbArc
 50
180.0142065702
 51
189.9602557032
  0
ARC
  5
28B
100
AcDbEntity
  8
0
100
AcDbCircle
 62
7
  6
CONTINUOUS
 10
10.8343358933
 20
6.3927999732
 40
0.1932675035
100
AcDbArc
 50
180.0124463143
 51
189.5448568048
  0
ARC
  5
28C
100
AcDbEntity
  8
0
100
AcDbCircle
 62
7
  6
CONTINUOUS
 10
10.8333595992
 20
6.2578901727
 40
0.1922912274
100
AcDbArc
 50
174.3558483252
 51
179.9956066505
  0
ARC
  5
28D
100
AcDbEntity
  8
0
100
AcDbCircle
 62
7
  6
CONTINUOUS
 10
10.833237986
 20
6.3604227866
 40
0.1921695919
100
AcDbArc
 50
180.0028634305
 51
185.1785555365
  0
ARC
  5
28E
100
AcDbEntity
  8
0
100
AcDbCircle
 62
7
  6
CONTINUOUS
 10
10.833160361
 20
6.3092011197
 40
0.1920919668
100
AcDbArc
 50
180.0020599509
 51
184.7392566201
  0
ARC
  5
28F
100
AcDbEntity
  8
0
100
AcDbCircle
 62
7
  6
CONTINUOUS
 10
10.8330549308
 20
6.3091922952
 40
0.1919865365
100
AcDbArc
 50
174.9542484293
 51
179.9994275199
  0
ARC
  5
290
100
AcDbEntity
  8
0
100
AcDbCircle
 62
7
  6
CONTINUOUS
 10
10.8330427286
 20
6.3604115192
 40
0.1919743343
100
AcDbArc
 50
175.1673925985
 51
179.9995035191
  0
ARC
  5
291
100
AcDbEntity
  8
0
100
AcDbCircle
 62
7
  6
CONTINUOUS
 10
10.8330267799
 20
6.4116877067
 40
0.1919584473
100
AcDbArc
 50
175.5310407033
 51
179.9072943328
  0
ARC
  5
292
100
AcDbEntity
  8
0
100
AcDbCircle
 62
7
  6
CONTINUOUS
 10
10.8329501358
 20
6.2579048266
 40
0.1918817635
100
AcDbArc
 50
179.9999729025
 51
184.2869086401
  0
ARC
  5
293
100
AcDbEntity
  8
0
100
AcDbCircle
 62
7
  6
CONTINUOUS
 10
10.8231552139
 20
6.4118263916
 40
0.1820919006
100
AcDbArc
 50
185.991377837
 51
186.9260513758
  0
ARC
  5
294
100
AcDbEntity
  8
0
100
AcDbCircle
 62
7
  6
CONTINUOUS
 10
10.8220844396
 20
6.4117222211
 40
0.1810161024
100
AcDbArc
 50
180.0068201748
 51
185.9939621461
  0
ARC
  5
295
100
AcDbEntity
  8
0
100
AcDbCircle
 62
7
  6
CONTINUOUS
 10
7.7868835557
 20
12.1942409815
 40
0.1254347826
100
AcDbArc
 50
19.5319940446
 51
67.0635891141
  0
ARC
  5
296
100
AcDbEntity
  8
0
100
AcDbCircle
 62
7
  6
CONTINUOUS
 10
7.8603183383
 20
12.3677777211
 40
0.063
100
AcDbArc
 50
180.0
 51
247.0635891141
  0
ARC
  5
297
100
AcDbEntity
  8
0
100
AcDbCircle
 62
7
  6
CONTINUOUS
 10
7.9644748485
 20
12.2572409815
 40
0.063
100
AcDbArc
 50
199.5319940446
 51
270.0
  0
ARC
  5
298
100
AcDbEntity
  8
0
100
AcDbCircle
 62
7
  6
CONTINUOUS
 10
10.8973183383
 20
9.3542409815
 40
0.77
100
AcDbArc
 50
11.4528120736
 51
18.6524229102
  0
ARC
  5
299
100
AcDbEntity
  8
0
100
AcDbCircle
 62
7
  6
CONTINUOUS
 10
10.8973183383
 20
9.3542409815
 40
0.77
100
AcDbArc
 50
340.9336918347
 51
348.5422991071
  0
ARC
  5
29A
100
AcDbEntity
  8
0
100
AcDbCircle
 62
7
  6
CONTINUOUS
 10
10.1563637995
 20
9.3542409815
 40
0.275
100
AcDbArc
 50
35.7906483847
 51
324.2093491955
  0
ARC
  5
29B
100
AcDbEntity
  8
0
100
AcDbCircle
 62
7
  6
CONTINUOUS
 10
10.2037424667
 20
10.2257880556
 40
0.27
100
AcDbArc
 50
358.4694702404
 51
39.4207881863
  0
ARC
  5
29C
100
AcDbEntity
  8
0
100
AcDbCircle
 62
7
  6
CONTINUOUS
 10
10.7572783343
 20
10.5792409815
 40
0.2
100
AcDbArc
 50
181.1459919984
 51
234.4492043277
  0
ARC
  5
29D
100
AcDbEntity
  8
0
100
AcDbCircle
 62
7
  6
CONTINUOUS
 10
10.6884138838
 20
9.334290259
 40
0.1998081819
100
AcDbArc
 50
208.5564682228
 51
210.5531475054
  0
ARC
  5
29E
100
AcDbEntity
  8
0
100
AcDbCircle
 62
7
  6
CONTINUOUS
 10
10.6873454061
 20
9.3747977686
 40
0.1985799529
100
AcDbArc
 50
149.3234143823
 51
151.4117852955
  0
ARC
  5
29F
100
AcDbEntity
  8
0
100
AcDbCircle
 62
9
  6
CONTINUOUS
 10
10.678028587
 20
9.3779863424
 40
0.1886250652
100
AcDbArc
 50
148.7486862159
 51
150.7251209148
  0
ARC
  5
2A0
100
AcDbEntity
  8
0
100
AcDbCircle
 62
9
  6
CONTINUOUS
 10
10.6772878118
 20
9.330062709
 40
0.1877672144
100
AcDbArc
 50
209.2512421191
 51
211.1230687672
  0
ARC
  5
2A1
100
AcDbEntity
  8
0
100
AcDbCircle
 62
7
  6
CONTINUOUS
 10
10.3530579282
 20
9.2642415834
 40
0.106000602
100
AcDbArc
 50
268.0220520177
 51
269.9995986543
  0
ARC
  5
2A2
100
AcDbEntity
  8
0
100
AcDbCircle
 62
7
  6
CONTINUOUS
 10
10.3530579192
 20
9.4442405744
 40
0.1060004071
100
AcDbArc
 50
90.0003964895
 51
91.970238022
  0
ARC
  5
2A3
100
AcDbEntity
  8
0
100
AcDbCircle
 62
7
  6
CONTINUOUS
 10
10.6515043853
 20
9.4549716733
 40
0.1042776294
100
AcDbArc
 50
96.0531784984
 51
102.3347273254
  0
ARC
  5
2A4
100
AcDbEntity
  8
0
100
AcDbCircle
 62
7
  6
CONTINUOUS
 10
10.6515043851
 20
9.2535102887
 40
0.1042776285
100
AcDbArc
 50
257.6652726632
 51
263.946825985
  0
ARC
  5
2A5
100
AcDbEntity
  8
0
100
AcDbCircle
 62
7
  6
CONTINUOUS
 10
10.6285226334
 20
9.2532173401
 40
0.1039762706
100
AcDbArc
 50
270.0222311246
 51
276.9319510576
  0
ARC
  5
2A6
100
AcDbEntity
  8
0
100
AcDbCircle
 62
7
  6
CONTINUOUS
 10
10.6285509603
 20
9.4557308231
 40
0.1035100632
100
AcDbArc
 50
83.0524692647
 51
89.9933484905
  0
ARC
  5
2A7
100
AcDbEntity
  8
0
100
AcDbCircle
 62
7
  6
CONTINUOUS
 10
10.4773543084
 20
8.8969229073
 40
0.1
100
AcDbArc
 50
6.592723027
 51
61.6573772921
  0
ARC
  5
2A8
100
AcDbEntity
  8
0
100
AcDbCircle
 62
9
  6
CONTINUOUS
 10
10.632586426
 20
9.2564875245
 40
0.0982465435
100
AcDbArc
 50
270.0055748409
 51
274.9617353769
  0
ARC
  5
2A9
100
AcDbEntity
  8
0
100
AcDbCircle
 62
9
  6
CONTINUOUS
 10
10.6325930098
 20
9.4521462248
 40
0.0980947567
100
AcDbArc
 50
85.0344277715
 51
89.9982620122
  0
ARC
  5
2AA
100
AcDbEntity
  8
0
100
AcDbCircle
 62
9
  6
CONTINUOUS
 10
10.6168470334
 20
9.2623000493
 40
0.0947370371
100
AcDbArc
 50
270.0480454675
 51
284.8407558139
  0
ARC
  5
2AB
100
AcDbEntity
  8
0
100
AcDbCircle
 62
9
  6
CONTINUOUS
 10
10.6168470334
 20
9.4461819142
 40
0.0947370365
100
AcDbArc
 50
75.1592440812
 51
89.9519545685
  0
ARC
  5
2AC
100
AcDbEntity
  8
0
100
AcDbCircle
 62
7
  6
CONTINUOUS
 10
10.4123183383
 20
10.4772409815
 40
0.08
100
AcDbArc
 50
90.0
 51
270.0
  0
ARC
  5
2AD
100
AcDbEntity
  8
0
100
AcDbCircle
 62
7
  6
CONTINUOUS
 10
10.5442257941
 20
9.1285174145
 40
0.079
100
AcDbArc
 50
199.0663081681
 51
250.0865226333
  0
ARC
  5
2AE
100
AcDbEntity
  8
0
100
AcDbCircle
 62
7
  6
CONTINUOUS
 10
10.5426122974
 20
9.5752409815
 40
0.079
100
AcDbArc
 50
90.0
 51
161.3475770898
  0
ARC
  5
2AF
100
AcDbEntity
  8
0
100
AcDbCircle
 62
7
  6
CONTINUOUS
 10
10.5573183383
 20
10.6352409815
 40
0.06
100
AcDbArc
 50
226.8
 51
270.0
  0
ARC
  5
2B0
100
AcDbEntity
  8
0
100
AcDbCircle
 62
7
  6
CONTINUOUS
 10
10.5573183383
 20
10.6352409815
 40
0.06
100
AcDbArc
 50
90.0
 51
133.2
  0
ARC
  5
2B1
100
AcDbEntity
  8
0
100
AcDbCircle
 62
7
  6
CONTINUOUS
 10
10.5236283018
 20
10.2172409815
 40
0.05
100
AcDbArc
 50
178.4694702404
 51
270.0
  0
ARC
  5
2B2
100
AcDbEntity
  8
0
100
AcDbCircle
 62
7
  6
CONTINUOUS
 10
10.6773183383
 20
8.8971222559
 40
0.05
100
AcDbArc
 50
183.3100931996
 51
223.4746807787
  0
ARC
  5
2B3
100
AcDbEntity
  8
0
100
AcDbCircle
 62
7
  6
CONTINUOUS
 10
10.5438183383
 20
9.0201403279
 40
0.04
100
AcDbArc
 50
150.0
 51
241.6573772921
  0
ARC
  5
2B4
100
AcDbEntity
  8
0
100
AcDbCircle
 62
7
  6
CONTINUOUS
 10
10.5925872416
 20
8.9102409815
 40
0.016
100
AcDbArc
 50
186.592723027
 51
270.0
  0
ARC
  5
2B5
100
AcDbEntity
  8
0
100
AcDbCircle
 62
7
  6
CONTINUOUS
 10
9.5603063999
 20
10.9416069586
 40
1.027
100
AcDbArc
 50
346.1200123407
 51
36.9709495039
  0
ARC
  5
2B6
100
AcDbEntity
  8
0
100
AcDbCircle
 62
7
  6
CONTINUOUS
 10
9.7193399744
 20
10.7526405393
 40
0.72
100
AcDbArc
 50
344.2531060064
 51
42.6471747379
  0
ARC
  5
2B7
100
AcDbEntity
  8
0
100
AcDbCircle
 62
7
  6
CONTINUOUS
 10
10.7123183383
 20
11.6672409815
 40
0.63
100
AcDbArc
 50
180.0
 51
222.6471747379
  0
ARC
  5
2B8
100
AcDbEntity
  8
0
100
AcDbCircle
 62
7
  6
CONTINUOUS
 10
9.8102714178
 20
11.871544501
 40
0.48
100
AcDbArc
 50
32.4599034873
 51
74.6172464651
  0
ARC
  5
2B9
100
AcDbEntity
  8
0
100
AcDbCircle
 62
7
  6
CONTINUOUS
 10
9.8141006969
 20
11.5527955687
 40
0.48
100
AcDbArc
 50
32.6081295413
 51
75.0168080473
  0
ARC
  5
2BA
100
AcDbEntity
  8
0
100
AcDbCircle
 62
7
  6
CONTINUOUS
 10
9.4330413965
 20
11.9946470018
 40
0.45
100
AcDbArc
 50
14.2873915283
 51
26.3463296402
  0
ARC
  5
2BB
100
AcDbEntity
  8
0
100
AcDbCircle
 62
7
  6
CONTINUOUS
 10
10.0823183383
 20
12.1599934649
 40
0.22
100
AcDbArc
 50
194.2873915283
 51
247.5017073649
  0
ARC
  5
2BC
100
AcDbEntity
  8
0
100
AcDbCircle
 62
7
  6
CONTINUOUS
 10
10.400908493
 20
12.2472409815
 40
0.22
100
AcDbArc
 50
212.4599034873
 51
270.0
  0
ARC
  5
2BD
100
AcDbEntity
  8
0
100
AcDbCircle
 62
7
  6
CONTINUOUS
 10
10.3869163387
 20
11.9192409815
 40
0.2
100
AcDbArc
 50
212.6081295413
 51
270.0
  0
ARC
  5
2BE
100
AcDbEntity
  8
0
100
AcDbCircle
 62
7
  6
CONTINUOUS
 10
10.0823183383
 20
11.8072409815
 40
0.14
100
AcDbArc
 50
232.6168015821
 51
270.0
  0
ARC
  5
2BF
100
AcDbEntity
  8
0
100
AcDbCircle
 62
7
  6
CONTINUOUS
 10
10.3823183383
 20
11.6392409815
 40
0.08
100
AcDbArc
 50
90.0
 51
106.3348227807
  0
ARC
  5
2C0
100
AcDbEntity
  8
0
100
AcDbCircle
 62
7
  6
CONTINUOUS
 10
10.3823183383
 20
11.6392409815
 40
0.08
100
AcDbArc
 50
253.6651772193
 51
268.9256411771
  0
ARC
  5
2C1
100
AcDbEntity
  8
0
100
AcDbCircle
 62
7
  6
CONTINUOUS
 10
9.9535150068
 20
12.3921991603
 40
0.06
100
AcDbArc
 50
194.281095736
 51
254.6172464651
  0
ARC
  5
2C2
100
AcDbEntity
  8
0
100
AcDbCircle
 62
7
  6
CONTINUOUS
 10
9.9534514253
 20
12.0734704908
 40
0.059
100
AcDbArc
 50
193.080738792
 51
255.0168080473
  0
ARC
  5
2C3
100
AcDbEntity
  8
0
100
AcDbCircle
 62
7
  6
CONTINUOUS
 10
9.990480922
 20
11.9382596403
 40
0.02
100
AcDbArc
 50
305.0285017519
 51
67.5017073649
  0
ARC
  5
2C4
100
AcDbEntity
  8
0
100
AcDbCircle
 62
9
  6
CONTINUOUS
 10
11.0608226995
 20
5.675750094
 40
2.5142245632
100
AcDbArc
 50
278.9558965502
 51
280.9089920332
  0
ARC
  5
2C5
100
AcDbEntity
  8
0
100
AcDbCircle
 62
9
  6
CONTINUOUS
 10
11.170924765
 20
5.2806513433
 40
1.797148678
100
AcDbArc
 50
292.1832901155
 51
295.641608901
  0
ARC
  5
2C6
100
AcDbEntity
  8
0
100
AcDbCircle
 62
7
  6
CONTINUOUS
 10
12.119294681
 20
3.9977695224
 40
1.0779577543
100
AcDbArc
 50
351.6440544798
 51
3.2064837354
  0
ARC
  5
2C7
100
AcDbEntity
  8
0
100
AcDbCircle
 62
7
  6
CONTINUOUS
 10
11.0761547832
 20
5.9457171631
 40
0.5620113138
100
AcDbArc
 50
291.1910826387
 51
292.2069104658
  0
ARC
  5
2C8
100
AcDbEntity
  8
0
100
AcDbCircle
 62
7
  6
CONTINUOUS
 10
11.0783346624
 20
5.9140217703
 40
0.52981766
100
AcDbArc
 50
292.2054844149
 51
293.284233737
  0
ARC
  5
2C9
100
AcDbEntity
  8
0
100
AcDbCircle
 62
7
  6
CONTINUOUS
 10
11.0473545705
 20
5.5539630513
 40
0.4890425777
100
AcDbArc
 50
145.1006008907
 51
151.309055855
  0
ARC
  5
2CA
100
AcDbEntity
  8
0
100
AcDbCircle
 62
7
  6
CONTINUOUS
 10
11.2760837413
 20
5.6711763781
 40
0.2337422218
100
AcDbArc
 50
4.3869031146
 51
8.6266037609
  0
ARC
  5
2CB
100
AcDbEntity
  8
0
100
AcDbCircle
 62
7
  6
CONTINUOUS
 10
11.234799791
 20
6.3186561553
 40
0.2187983559
100
AcDbArc
 50
350.0106592255
 51
350.8330818864
  0
ARC
  5
2CC
100
AcDbEntity
  8
0
100
AcDbCircle
 62
7
  6
CONTINUOUS
 10
11.2379573076
 20
6.3182155197
 40
0.2156109784
100
AcDbArc
 50
350.8150065389
 51
359.9892862238
  0
ARC
  5
2CD
100
AcDbEntity
  8
0
100
AcDbCircle
 62
7
  6
CONTINUOUS
 10
11.2380042067
 20
6.367899888
 40
0.2155640783
100
AcDbArc
 50
351.2478005816
 51
359.9908291927
  0
ARC
  5
2CE
100
AcDbEntity
  8
0
100
AcDbCircle
 62
7
  6
CONTINUOUS
 10
11.2381251392
 20
6.4176570867
 40
0.215443145
100
AcDbArc
 50
351.6395840077
 51
359.9920994793
  0
ARC
  5
2CF
100
AcDbEntity
  8
0
100
AcDbCircle
 62
7
  6
CONTINUOUS
 10
11.2383364423
 20
6.2834632309
 40
0.21523184
100
AcDbArc
 50
0.0018108379
 51
4.6316180532
  0
ARC
  5
2D0
100
AcDbEntity
  8
0
100
AcDbCircle
 62
7
  6
CONTINUOUS
 10
11.2384410529
 20
6.3347915097
 40
0.2151272294
100
AcDbArc
 50
0.0014983561
 51
4.4141666105
  0
ARC
  5
2D1
100
AcDbEntity
  8
0
100
AcDbCircle
 62
7
  6
CONTINUOUS
 10
11.2384996721
 20
6.3860541602
 40
0.2150686101
100
AcDbArc
 50
355.1773753842
 51
4.2140586324
  0
ARC
  5
2D2
100
AcDbEntity
  8
0
100
AcDbCircle
 62
7
  6
CONTINUOUS
 10
11.2385143195
 20
6.2834709425
 40
0.2150539627
100
AcDbArc
 50
355.9910276924
 51
359.9997577933
  0
ARC
  5
2D3
100
AcDbEntity
  8
0
100
AcDbCircle
 62
7
  6
CONTINUOUS
 10
11.2385550253
 20
6.3347983925
 40
0.2150132569
100
AcDbArc
 50
355.5898733079
 51
359.9996650486
  0
ARC
  5
2D4
100
AcDbEntity
  8
0
100
AcDbCircle
 62
7
  6
CONTINUOUS
 10
11.1973183383
 20
9.3542409815
 40
0.77
100
AcDbArc
 50
161.3475770898
 51
168.5403046766
  0
ARC
  5
2D5
100
AcDbEntity
  8
0
100
AcDbCircle
 62
7
  6
CONTINUOUS
 10
11.1973183383
 20
9.3542409815
 40
0.77
100
AcDbArc
 50
191.4677421787
 51
199.0663081681
  0
ARC
  5
2D6
100
AcDbEntity
  8
0
100
AcDbCircle
 62
7
  6
CONTINUOUS
 10
11.9382728824
 20
9.3542409809
 40
0.2750000002
100
AcDbArc
 50
215.7906268101
 51
144.2093801371
  0
ARC
  5
2D7
100
AcDbEntity
  8
0
100
AcDbCircle
 62
7
  6
CONTINUOUS
 10
11.8908942099
 20
10.2257880556
 40
0.27
100
AcDbArc
 50
140.5792118137
 51
181.5305297596
  0
ARC
  5
2D8
100
AcDbEntity
  8
0
100
AcDbCircle
 62
7
  6
CONTINUOUS
 10
11.3373583423
 20
10.5792409815
 40
0.2
100
AcDbArc
 50
305.5507956723
 51
358.8540080016
  0
ARC
  5
2D9
100
AcDbEntity
  8
0
100
AcDbCircle
 62
7
  6
CONTINUOUS
 10
11.4064937508
 20
9.3743439512
 40
0.1994973918
100
AcDbArc
 50
28.5973387212
 51
30.7211333857
  0
ARC
  5
2DA
100
AcDbEntity
  8
0
100
AcDbCircle
 62
7
  6
CONTINUOUS
 10
11.4074730213
 20
9.3335803584
 40
0.1983706624
100
AcDbArc
 50
329.2540144302
 51
331.398603799
  0
ARC
  5
2DB
100
AcDbEntity
  8
0
100
AcDbCircle
 62
9
  6
CONTINUOUS
 10
11.4166339691
 20
9.330481229
 40
0.1885954565
100
AcDbArc
 50
328.7139856777
 51
330.7358431771
  0
ARC
  5
2DC
100
AcDbEntity
  8
0
100
AcDbCircle
 62
9
  6
CONTINUOUS
 10
11.4176011338
 20
9.3785651772
 40
0.1874758153
100
AcDbArc
 50
29.241411944
 51
31.2712914907
  0
ARC
  5
2DD
100
AcDbEntity
  8
0
100
AcDbCircle
 62
7
  6
CONTINUOUS
 10
11.4430524567
 20
9.2539932168
 40
0.1047664664
100
AcDbArc
 50
276.3635143811
 51
282.3210648807
  0
ARC
  5
2DE
100
AcDbEntity
  8
0
100
AcDbCircle
 62
7
  6
CONTINUOUS
 10
11.4430527856
 20
9.4544904311
 40
0.1047647501
100
AcDbArc
 50
77.6789142306
 51
83.6462041935
  0
ARC
  5
2DF
100
AcDbEntity
  8
0
100
AcDbCircle
 62
7
  6
CONTINUOUS
 10
11.4661233832
 20
9.4551436823
 40
0.104097311
100
AcDbArc
 50
90.0273353021
 51
96.9292756121
  0
ARC
  5
2E0
100
AcDbEntity
  8
0
100
AcDbCircle
 62
7
  6
CONTINUOUS
 10
11.4660897318
 20
9.252784132
 40
0.1035431518
100
AcDbArc
 50
263.0521922347
 51
269.9911394344
  0
ARC
  5
2E1
100
AcDbEntity
  8
0
100
AcDbCircle
 62
7
  6
CONTINUOUS
 10
11.6172823682
 20
8.8969229073
 40
0.1
100
AcDbArc
 50
118.3426227079
 51
173.407276973
  0
ARC
  5
2E2
100
AcDbEntity
  8
0
100
AcDbCircle
 62
9
  6
CONTINUOUS
 10
11.4620481195
 20
9.4520067213
 40
0.0982342605
100
AcDbArc
 50
90.0043326138
 51
94.9611126006
  0
ARC
  5
2E3
100
AcDbEntity
  8
0
100
AcDbCircle
 62
9
  6
CONTINUOUS
 10
11.4620428353
 20
9.2563533704
 40
0.098112389
100
AcDbArc
 50
265.035806869
 51
269.9987478812
  0
ARC
  5
2E4
100
AcDbEntity
  8
0
100
AcDbCircle
 62
7
  6
CONTINUOUS
 10
11.6823183383
 20
10.4772409815
 40
0.08
100
AcDbArc
 50
270.0
 51
90.0
  0
ARC
  5
2E5
100
AcDbEntity
  8
0
100
AcDbCircle
 62
7
  6
CONTINUOUS
 10
11.5504108825
 20
9.1285174145
 40
0.079
100
AcDbArc
 50
289.9134773481
 51
340.9336918347
  0
ARC
  5
2E6
100
AcDbEntity
  8
0
100
AcDbCircle
 62
7
  6
CONTINUOUS
 10
11.5520243792
 20
9.5752409815
 40
0.079
100
AcDbArc
 50
18.6524229102
 51
90.0
  0
ARC
  5
2E7
100
AcDbEntity
  8
0
100
AcDbCircle
 62
7
  6
CONTINUOUS
 10
11.5373183383
 20
10.6352409815
 40
0.06
100
AcDbArc
 50
270.0
 51
313.2
  0
ARC
  5
2E8
100
AcDbEntity
  8
0
100
AcDbCircle
 62
7
  6
CONTINUOUS
 10
11.5373183383
 20
10.6352409815
 40
0.06
100
AcDbArc
 50
46.8
 51
90.0
  0
ARC
  5
2E9
100
AcDbEntity
  8
0
100
AcDbCircle
 62
7
  6
CONTINUOUS
 10
11.5710083748
 20
10.2172409815
 40
0.05
100
AcDbArc
 50
270.0
 51
1.5305297596
  0
ARC
  5
2EA
100
AcDbEntity
  8
0
100
AcDbCircle
 62
7
  6
CONTINUOUS
 10
11.4173183383
 20
8.8971222559
 40
0.05
100
AcDbArc
 50
316.5253192213
 51
356.6899068004
  0
ARC
  5
2EB
100
AcDbEntity
  8
0
100
AcDbCircle
 62
7
  6
CONTINUOUS
 10
11.5508183383
 20
9.0201403279
 40
0.04
100
AcDbArc
 50
298.3426227079
 51
30.0
  0
ARC
  5
2EC
100
AcDbEntity
  8
0
100
AcDbCircle
 62
7
  6
CONTINUOUS
 10
11.502049435
 20
8.9102409815
 40
0.016
100
AcDbArc
 50
270.0
 51
353.407276973
  0
ARC
  5
2ED
100
AcDbEntity
  8
0
100
AcDbCircle
 62
7
  6
CONTINUOUS
 10
12.5343302767
 20
10.9416069586
 40
1.027
100
AcDbArc
 50
143.0290504961
 51
193.8799876593
  0
ARC
  5
2EE
100
AcDbEntity
  8
0
100
AcDbCircle
 62
7
  6
CONTINUOUS
 10
12.3752967022
 20
10.7526405393
 40
0.72
100
AcDbArc
 50
137.3528252621
 51
195.7468939936
  0
ARC
  5
2EF
100
AcDbEntity
  8
0
100
AcDbCircle
 62
7
  6
CONTINUOUS
 10
11.3823183383
 20
11.6672409815
 40
0.63
100
AcDbArc
 50
317.3528252621
 51
360.0
  0
ARC
  5
2F0
100
AcDbEntity
  8
0
100
AcDbCircle
 62
7
  6
CONTINUOUS
 10
12.2843652587
 20
11.871544501
 40
0.48
100
AcDbArc
 50
105.3827535349
 51
147.5400965127
  0
ARC
  5
2F1
100
AcDbEntity
  8
0
100
AcDbCircle
 62
7
  6
CONTINUOUS
 10
12.2805359796
 20
11.5527955687
 40
0.48
100
AcDbArc
 50
104.9831919527
 51
147.3918704587
  0
ARC
  5
2F2
100
AcDbEntity
  8
0
100
AcDbCircle
 62
7
  6
CONTINUOUS
 10
12.6615952801
 20
11.9946470018
 40
0.45
100
AcDbArc
 50
153.6536703598
 51
165.7126084717
  0
ARC
  5
2F3
100
AcDbEntity
  8
0
100
AcDbCircle
 62
7
  6
CONTINUOUS
 10
12.0123183383
 20
12.1599934649
 40
0.22
100
AcDbArc
 50
292.4982926351
 51
345.7126084717
  0
ARC
  5
2F4
100
AcDbEntity
  8
0
100
AcDbCircle
 62
7
  6
CONTINUOUS
 10
11.6937281836
 20
12.2472409815
 40
0.22
100
AcDbArc
 50
270.0
 51
327.5400965127
  0
ARC
  5
2F5
100
AcDbEntity
  8
0
100
AcDbCircle
 62
7
  6
CONTINUOUS
 10
11.7077203378
 20
11.9192409815
 40
0.2
100
AcDbArc
 50
270.0
 51
327.3918704587
  0
ARC
  5
2F6
100
AcDbEntity
  8
0
100
AcDbCircle
 62
7
  6
CONTINUOUS
 10
12.0123183383
 20
11.8072409815
 40
0.14
100
AcDbArc
 50
270.0
 51
307.3831984179
  0
ARC
  5
2F7
100
AcDbEntity
  8
0
100
AcDbCircle
 62
7
  6
CONTINUOUS
 10
11.7123183383
 20
11.6392409815
 40
0.08
100
AcDbArc
 50
73.6651772193
 51
90.0
  0
ARC
  5
2F8
100
AcDbEntity
  8
0
100
AcDbCircle
 62
7
  6
CONTINUOUS
 10
11.7123183383
 20
11.6392409815
 40
0.08
100
AcDbArc
 50
271.0743588229
 51
286.3348227807
  0
ARC
  5
2F9
100
AcDbEntity
  8
0
100
AcDbCircle
 62
7
  6
CONTINUOUS
 10
12.1411216698
 20
12.3921991603
 40
0.06
100
AcDbArc
 50
285.3827535349
 51
345.718904264
  0
ARC
  5
2FA
100
AcDbEntity
  8
0
100
AcDbCircle
 62
7
  6
CONTINUOUS
 10
12.1411852513
 20
12.0734704908
 40
0.059
100
AcDbArc
 50
284.9831919527
 51
346.919261208
  0
ARC
  5
2FB
100
AcDbEntity
  8
0
100
AcDbCircle
 62
7
  6
CONTINUOUS
 10
12.1041557546
 20
11.9382596403
 40
0.02
100
AcDbArc
 50
112.4982926351
 51
234.9714982481
  0
ARC
  5
2FC
100
AcDbEntity
  8
0
100
AcDbCircle
 62
7
  6
CONTINUOUS
 10
14.3077531209
 20
12.1942409815
 40
0.1254347826
100
AcDbArc
 50
112.9364108859
 51
160.4680059554
  0
ARC
  5
2FD
100
AcDbEntity
  8
0
100
AcDbCircle
 62
7
  6
CONTINUOUS
 10
14.2343183383
 20
12.3677777211
 40
0.063
100
AcDbArc
 50
292.9364108859
 51
360.0
  0
ARC
  5
2FE
100
AcDbEntity
  8
0
100
AcDbCircle
 62
7
  6
CONTINUOUS
 10
14.130161828
 20
12.2572409815
 40
0.063
100
AcDbArc
 50
270.0
 51
340.4680059554
  0
SPLINE
  5
2FF
100
AcDbEntity
  8
0
100
AcDbSpline
 62
7
  6
CONTINUOUS
 70
0
 71
3
 72
26
 73
22
 74
0
 42
0.0000001
 43
0.0000001
 44
0.0000000001
 40
0.0
 40
0.0
 40
0.0
 40
0.0
 40
0.025323934
 40
0.0507139192
 40
0.0762348989
 40
0.1019495512
 40
0.1279173807
 40
0.1541938184
 40
0.1808294734
 40
0.2078697357
 40
0.2632916049
 40
0.320731184
 40
0.3803366153
 40
0.4421635388
 40
0.5061830841
 40
0.5722912726
 40
0.6403194983
 40
0.7100445064
 40
0.7811985597
 40
0.8534793186
 40
1.0
 40
1.0
 40
1.0
 40
1.0
 10
10.6410683455
 20
6.2434921018
 30
0.0
 10
10.6410683221
 20
6.2389203531
 30
0.0
 10
10.641395795
 20
6.2297615843
 30
0.0
 10
10.6428668929
 20
6.2160666152
 30
0.0
 10
10.6453148624
 20
6.2024399103
 30
0.0
 10
10.6487331933
 20
6.1889165523
 30
0.0
 10
10.6531133527
 20
6.1755300984
 30
0.0
 10
10.6584444364
 20
6.162314215
 30
0.0
 10
10.6647131936
 20
6.1493011928
 30
0.0
 10
10.6743780211
 20
6.1321272828
 30
0.0
 10
10.688800352
 20
6.1113125648
 30
0.0
 10
10.7094028089
 20
6.0878853878
 30
0.0
 10
10.733243342
 20
6.0660187615
 30
0.0
 10
10.7600880476
 20
6.0459263101
 30
0.0
 10
10.7896786441
 20
6.0278012892
 30
0.0
 10
10.8217313912
 20
6.0118204303
 30
0.0
 10
10.8559402643
 20
5.9981407489
 30
0.0
 10
10.8919774846
 20
5.9868984704
 30
0.0
 10
10.9295031864
 20
5.9782065292
 30
0.0
 10
10.981249309
 20
5.970104247
 30
0.0
 10
11.0208718711
 20
5.968152351
 30
0.0
 10
11.0473183383
 20
5.9686677121
 30
0.0
  0
SPLINE
  5
300
100
AcDbEntity
  8
0
100
AcDbSpline
 62
7
  6
CONTINUOUS
 70
0
 71
3
 72
14
 73
10
 74
0
 42
0.0000001
 43
0.0000001
 44
0.0000000001
 40
0.0
 40
0.0
 40
0.0
 40
0.0
 40
0.1195384159
 40
0.2401500924
 40
0.3621110672
 40
0.4856753805
 40
0.6110683656
 40
0.7384955258
 40
1.0
 40
1.0
 40
1.0
 40
1.0
 10
10.6442015459
 20
6.2586074749
 30
0.0
 10
10.6450408234
 20
6.2539889336
 30
0.0
 10
10.6470596836
 20
6.2447674945
 30
0.0
 10
10.6510719259
 20
6.231114119
 30
0.0
 10
10.6560690374
 20
6.2176204729
 30
0.0
 10
10.662038233
 20
6.2043226374
 30
0.0
 10
10.6689644014
 20
6.1912532665
 30
0.0
 10
10.6795389824
 20
6.1740343449
 30
0.0
 10
10.6887329741
 20
6.1617788938
 30
0.0
 10
10.6953467171
 20
6.1539231792
 30
0.0
  0
SPLINE
  5
301
100
AcDbEntity
  8
0
100
AcDbSpline
 62
7
  6
CONTINUOUS
 70
0
 71
3
 72
25
 73
21
 74
0
 42
0.0000001
 43
0.0000001
 44
0.0000000001
 40
0.0
 40
0.0
 40
0.0
 40
0.0
 40
0.0252027139
 40
0.0506084736
 40
0.0762652461
 40
0.1022175031
 40
0.1551450711
 40
0.2096900725
 40
0.2660545641
 40
0.3243669749
 40
0.3542819741
 40
0.3846997949
 40
0.4470139
 40
0.5112566023
 40
0.5773077616
 40
0.6450022696
 40
0.7141371197
 40
0.7844783381
 40
0.8557678631
 40
1.0
 40
1.0
 40
1.0
 40
1.0
 10
10.6443593954
 20
6.3074772009
 30
0.0
 10
10.6451378082
 20
6.303298707
 30
0.0
 10
10.6469731712
 20
6.2949562693
 30
0.0
 10
10.6505319933
 20
6.2825881124
 30
0.0
 10
10.6548996146
 20
6.2703468721
 30
0.0
 10
10.6618316487
 20
6.2541270682
 30
0.0
 10
10.6725304789
 20
6.2342677545
 30
0.0
 10
10.6883289032
 20
6.2115334761
 30
0.0
 10
10.7070390224
 20
6.1899176199
 30
0.0
 10
10.7247777009
 20
6.1731267716
 30
0.0
 10
10.740228688
 20
6.1604043172
 30
0.0
 10
10.756776634
 20
6.1479843287
 30
0.0
 10
10.778978292
 20
6.1335012032
 30
0.0
 10
10.8075732954
 20
6.1180215393
 30
0.0
 10
10.8381065735
 20
6.1044289158
 30
0.0
 10
10.8703303092
 20
6.092838267
 30
0.0
 10
10.9039838369
 20
6.0833476949
 30
0.0
 10
10.9387986294
 20
6.0760386032
 30
0.0
 10
10.9865541736
 20
6.0692639215
 30
0.0
 10
11.022998547
 20
6.0676699418
 30
0.0
 10
11.0473183383
 20
6.0681446871
 30
0.0
  0
SPLINE
  5
302
100
AcDbEntity
  8
0
100
AcDbSpline
 62
7
  6
CONTINUOUS
 70
0
 71
3
 72
21
 73
17
 74
0
 42
0.0000001
 43
0.0000001
 44
0.0000000001
 40
0.0
 40
0.0
 40
0.0
 40
0.0
 40
0.0443242732
 40
0.0943326048
 40
0.1500719953
 40
0.2114553391
 40
0.278094574
 40
0.3492396712
 40
0.4999999934
 40
0.6507603169
 40
0.7219054228
 40
0.7885446631
 40
0.8499280001
 40
0.9056673919
 40
0.9556757263
 40
1.0
 40
1.0
 40
1.0
 40
1.0
 10
10.6329394135
 20
10.5905196219
 30
0.0
 10
10.6327081913
 20
10.5918254414
 30
0.0
 10
10.6322644736
 20
10.5946131986
 30
0.0
 10
10.6316827146
 20
10.5990658027
 30
0.0
 10
10.6311566285
 20
10.60403889
 30
0.0
 10
10.630698708
 20
10.6095181387
 30
0.0
 10
10.6303223064
 20
10.6154655037
 30
0.0
 10
10.6299401831
 20
10.6240904082
 30
0.0
 10
10.6297509176
 20
10.6352409809
 30
0.0
 10
10.6299401831
 20
10.6463915539
 30
0.0
 10
10.6303223064
 20
10.6550164588
 30
0.0
 10
10.630698708
 20
10.6609638241
 30
0.0
 10
10.6311566285
 20
10.6664430728
 30
0.0
 10
10.6316827146
 20
10.67141616
 30
0.0
 10
10.6322644736
 20
10.6758687642
 30
0.0
 10
10.6327081913
 20
10.6786565216
 30
0.0
 10
10.6329394135
 20
10.679962341
 30
0.0
  0
SPLINE
  5
303
100
AcDbEntity
  8
0
100
AcDbSpline
 62
7
  6
CONTINUOUS
 70
0
 71
3
 72
23
 73
19
 74
0
 42
0.0000001
 43
0.0000001
 44
0.0000000001
 40
0.0
 40
0.0
 40
0.0
 40
0.0
 40
0.0451925087
 40
0.0957467309
 40
0.15174432
 40
0.2131322977
 40
0.2795592401
 40
0.3503178025
 40
0.4242956682
 40
0.4999999935
 40
0.5757043175
 40
0.6496821857
 40
0.7204407567
 40
0.7868677045
 40
0.8482556754
 40
0.9042532658
 40
0.9548074908
 40
1.0
 40
1.0
 40
1.0
 40
1.0
 10
10.6049865061
 20
10.5905196219
 30
0.0
 10
10.6045745528
 20
10.5918183307
 30
0.0
 10
10.6037819106
 20
10.594595575
 30
0.0
 10
10.6027383002
 20
10.5990512502
 30
0.0
 10
10.6017948036
 20
10.6040271212
 30
0.0
 10
10.6009737087
 20
10.6095088704
 30
0.0
 10
10.6002989498
 20
10.6154585924
 30
0.0
 10
10.5997947035
 20
10.6218059693
 30
0.0
 10
10.5994821931
 20
10.6284456656
 30
0.0
 10
10.599376244
 20
10.6352409808
 30
0.0
 10
10.5994821931
 20
10.6420362962
 30
0.0
 10
10.5997947034
 20
10.6486759928
 30
0.0
 10
10.6002989498
 20
10.6550233701
 30
0.0
 10
10.6009737087
 20
10.6609730924
 30
0.0
 10
10.6017948035
 20
10.6664548416
 30
0.0
 10
10.6027383001
 20
10.6714307125
 30
0.0
 10
10.6037819106
 20
10.6758863878
 30
0.0
 10
10.6045745528
 20
10.6786636322
 30
0.0
 10
10.6049865061
 20
10.679962341
 30
0.0
  0
SPLINE
  5
304
100
AcDbEntity
  8
0
100
AcDbSpline
 62
7
  6
CONTINUOUS
 70
0
 71
3
 72
23
 73
19
 74
0
 42
0.0000001
 43
0.0000001
 44
0.0000000001
 40
0.0
 40
0.0
 40
0.0
 40
0.0
 40
0.0464507973
 40
0.0978073222
 40
0.1541917854
 40
0.2155952918
 40
0.2817170422
 40
0.3519111951
 40
0.4251404529
 40
0.4999999935
 40
0.5748595329
 40
0.6480887933
 40
0.7182829547
 40
0.7844047104
 40
0.84580821
 40
0.9021926745
 40
0.9535492021
 40
1.0
 40
1.0
 40
1.0
 40
1.0
 10
10.5805951922
 20
10.5905196219
 30
0.0
 10
10.5800088304
 20
10.5918089533
 30
0.0
 10
10.578877038
 20
10.5945712631
 30
0.0
 10
10.5773780953
 20
10.5990305061
 30
0.0
 10
10.5760232884
 20
10.6040099033
 30
0.0
 10
10.5748445044
 20
10.6094950553
 30
0.0
 10
10.5738759337
 20
10.6154481631
 30
0.0
 10
10.573152186
 20
10.6217989595
 30
0.0
 10
10.5727036596
 20
10.6284421373
 30
0.0
 10
10.5725516008
 20
10.6352409808
 30
0.0
 10
10.5727036596
 20
10.6420398245
 30
0.0
 10
10.5731521859
 20
10.6486830025
 30
0.0
 10
10.5738759337
 20
10.6550337995
 30
0.0
 10
10.5748445043
 20
10.6609869075
 30
0.0
 10
10.5760232884
 20
10.6664720595
 30
0.0
 10
10.5773780952
 20
10.6714514566
 30
0.0
 10
10.5788770379
 20
10.6759106997
 30
0.0
 10
10.5800088304
 20
10.6786730096
 30
0.0
 10
10.5805951922
 20
10.679962341
 30
0.0
  0
SPLINE
  5
305
100
AcDbEntity
  8
0
100
AcDbSpline
 62
7
  6
CONTINUOUS
 70
0
 71
3
 72
23
 73
19
 74
0
 42
0.0000001
 43
0.0000001
 44
0.0000000001
 40
0.0
 40
0.0
 40
0.0
 40
0.0
 40
0.0479860219
 40
0.1003380632
 40
0.1572135423
 40
0.2186487585
 40
0.2844004305
 40
0.3538969712
 40
0.426194613
 40
0.4999999936
 40
0.573805373
 40
0.6461030172
 40
0.7155995665
 40
0.7813512436
 40
0.8427864531
 40
0.8996619335
 40
0.9520139775
 40
1.0
 40
1.0
 40
1.0
 40
1.0
 10
10.5599618673
 20
10.5905196219
 30
0.0
 10
10.5592088255
 20
10.5917987922
 30
0.0
 10
10.5577510067
 20
10.5945434725
 30
0.0
 10
10.5558070575
 20
10.5990057689
 30
0.0
 10
10.5540502897
 20
10.6039886618
 30
0.0
 10
10.5525219962
 20
10.6094775803
 30
0.0
 10
10.5512663666
 20
10.6154347255
 30
0.0
 10
10.5503281795
 20
10.6217898149
 30
0.0
 10
10.5497467795
 20
10.6284375008
 30
0.0
 10
10.5495496769
 20
10.6352409808
 30
0.0
 10
10.5497467795
 20
10.6420444609
 30
0.0
 10
10.5503281794
 20
10.6486921472
 30
0.0
 10
10.5512663666
 20
10.655047237
 30
0.0
 10
10.5525219961
 20
10.6610043825
 30
0.0
 10
10.5540502897
 20
10.6664933009
 30
0.0
 10
10.5558070574
 20
10.6714761938
 30
0.0
 10
10.5577510066
 20
10.6759384904
 30
0.0
 10
10.5592088255
 20
10.6786831708
 30
0.0
 10
10.5599618673
 20
10.679962341
 30
0.0
  0
SPLINE
  5
306
100
AcDbEntity
  8
0
100
AcDbSpline
 62
7
  6
CONTINUOUS
 70
0
 71
3
 72
21
 73
17
 74
0
 42
0.0000001
 43
0.0000001
 44
0.0000000001
 40
0.0
 40
0.0
 40
0.0
 40
0.0
 40
0.1030800655
 40
0.160533671
 40
0.2220326642
 40
0.2873913784
 40
0.3561187456
 40
0.4273766228
 40
0.5000000092
 40
0.5726233831
 40
0.6438812545
 40
0.7126086233
 40
0.7779673374
 40
0.8394663263
 40
0.8969199327
 40
1.0
 40
1.0
 40
1.0
 40
1.0
 10
10.543252668
 20
10.5905196219
 30
0.0
 10
10.5413625263
 20
10.5931526036
 30
0.0
 10
10.5388145643
 20
10.5975481071
 30
0.0
 10
10.5360532319
 20
10.6039643098
 30
0.0
 10
10.5341860785
 20
10.6094576587
 30
0.0
 10
10.5326525183
 20
10.6154188594
 30
0.0
 10
10.5315065533
 20
10.6217789024
 30
0.0
 10
10.5307964237
 20
10.6284319065
 30
0.0
 10
10.5305556727
 20
10.6352409819
 30
0.0
 10
10.5307964238
 20
10.6420500572
 30
0.0
 10
10.5315065533
 20
10.6487030608
 30
0.0
 10
10.5326525183
 20
10.6550631036
 30
0.0
 10
10.5341860785
 20
10.6610243043
 30
0.0
 10
10.5360532319
 20
10.6665176531
 30
0.0
 10
10.5388145642
 20
10.6729338557
 30
0.0
 10
10.5413625263
 20
10.6773293593
 30
0.0
 10
10.543252668
 20
10.679962341
 30
0.0
  0
SPLINE
  5
307
100
AcDbEntity
  8
0
100
AcDbSpline
 62
7
  6
CONTINUOUS
 70
0
 71
3
 72
19
 73
15
 74
0
 42
0.0000001
 43
0.0000001
 44
0.0000000001
 40
0.0
 40
0.0
 40
0.0
 40
0.0
 40
0.1060342144
 40
0.1641175213
 40
0.2257063526
 40
0.358470982
 40
0.4286304899
 40
0.4999999938
 40
0.5713694965
 40
0.6415290067
 40
0.7742936494
 40
0.8358824741
 40
0.8939657823
 40
1.0
 40
1.0
 40
1.0
 40
1.0
 10
10.5306021344
 20
10.5905196219
 30
0.0
 10
10.5284175737
 20
10.5931163737
 30
0.0
 10
10.5254341513
 20
10.5974863654
 30
0.0
 10
10.5221761736
 20
10.6039398482
 30
0.0
 10
10.5191803218
 20
10.6114528017
 30
0.0
 10
10.5170966561
 20
10.6197077775
 30
0.0
 10
10.5160052629
 20
10.6284250576
 30
0.0
 10
10.5157224851
 20
10.6352409808
 30
0.0
 10
10.5160052627
 20
10.6420569041
 30
0.0
 10
10.5170966559
 20
10.6507741847
 30
0.0
 10
10.5191803216
 20
10.6590291608
 30
0.0
 10
10.5221761736
 20
10.6665421145
 30
0.0
 10
10.5254341512
 20
10.6729955974
 30
0.0
 10
10.5284175737
 20
10.6773655892
 30
0.0
 10
10.5306021344
 20
10.679962341
 30
0.0
  0
SPLINE
  5
308
100
AcDbEntity
  8
0
100
AcDbSpline
 62
7
  6
CONTINUOUS
 70
0
 71
3
 72
17
 73
13
 74
0
 42
0.0000001
 43
0.0000001
 44
0.0000000001
 40
0.0
 40
0.0
 40
0.0
 40
0.0
 40
0.0532277454
 40
0.1091224624
 40
0.2294317615
 40
0.3609937261
 40
0.4999999939
 40
0.6390062627
 40
0.7705682404
 40
0.8908775342
 40
0.9467722539
 40
1.0
 40
1.0
 40
1.0
 40
1.0
 10
10.5221121268
 20
10.5905196219
 30
0.0
 10
10.5209122175
 20
10.5917722829
 30
0.0
 10
10.5185773133
 20
10.5944634572
 30
0.0
 10
10.5142372148
 20
10.6005633613
 30
0.0
 10
10.5096568495
 20
10.6095621511
 30
0.0
 10
10.5061052293
 20
10.6218724469
 30
0.0
 10
10.504852555
 20
10.6352409809
 30
0.0
 10
10.5061052291
 20
10.6486095154
 30
0.0
 10
10.5096568493
 20
10.6609198115
 30
0.0
 10
10.5142372148
 20
10.6699186015
 30
0.0
 10
10.5185773131
 20
10.6760185056
 30
0.0
 10
10.5209122175
 20
10.6787096801
 30
0.0
 10
10.5221121268
 20
10.679962341
 30
0.0
  0
SPLINE
  5
309
100
AcDbEntity
  8
0
100
AcDbSpline
 62
7
  6
CONTINUOUS
 70
0
 71
3
 72
21
 73
17
 74
0
 42
0.0000001
 43
0.0000001
 44
0.0000000001
 40
0.0
 40
0.0
 40
0.0
 40
0.0
 40
0.0548588467
 40
0.1118774226
 40
0.171215222
 40
0.2329970654
 40
0.2971681201
 40
0.3634660542
 40
0.4999999941
 40
0.6365339349
 40
0.7028318771
 40
0.7670029365
 40
0.8287847733
 40
0.888122574
 40
0.9451411526
 40
1.0
 40
1.0
 40
1.0
 40
1.0
 10
10.5178510056
 20
10.5905196219
 30
0.0
 10
10.5165216396
 20
10.59176575
 30
0.0
 10
10.5139333445
 20
10.5944415923
 30
0.0
 10
10.510393997
 20
10.5989040898
 30
0.0
 10
10.5071929848
 20
10.603892265
 30
0.0
 10
10.5044065006
 20
10.609391476
 30
0.0
 10
10.5021158176
 20
10.6153646576
 30
0.0
 10
10.4998115274
 20
10.623942435
 30
0.0
 10
10.4986253264
 20
10.6352409809
 30
0.0
 10
10.4998115271
 20
10.6465395271
 30
0.0
 10
10.5021158175
 20
10.6551173049
 30
0.0
 10
10.5044065004
 20
10.6610904869
 30
0.0
 10
10.5071929848
 20
10.6665896978
 30
0.0
 10
10.5103939969
 20
10.6715778729
 30
0.0
 10
10.5139333443
 20
10.6760403706
 30
0.0
 10
10.5165216396
 20
10.6787162129
 30
0.0
 10
10.5178510056
 20
10.679962341
 30
0.0
  0
SPLINE
  5
30A
100
AcDbEntity
  8
0
100
AcDbSpline
 62
7
  6
CONTINUOUS
 70
0
 71
3
 72
25
 73
21
 74
0
 42
0.0000001
 43
0.0000001
 44
0.0000000001
 40
0.0
 40
0.0
 40
0.0
 40
0.0
 40
0.0615503558
 40
0.0923345703
 40
0.1231233092
 40
0.1847011675
 40
0.2463119006
 40
0.2771418953
 40
0.3079878081
 40
0.3697283328
 40
0.4315785683
 40
0.4935764573
 40
0.5557654763
 40
0.6181915243
 40
0.6809017594
 40
0.7439400013
 40
0.8073451476
 40
0.8711459221
 40
0.9353638535
 40
1.0
 40
1.0
 40
1.0
 40
1.0
 10
11.4998183383
 20
6.009271898
 30
0.0
 10
11.4998183383
 20
6.0001591755
 30
0.0
 10
11.4992337378
 20
5.9864793742
 30
0.0
 10
11.497292766
 20
5.9683503079
 30
0.0
 10
11.494583668
 20
5.9503147453
 30
0.0
 10
11.4897669893
 20
5.9280032504
 30
0.0
 10
11.4830984395
 20
5.9061680434
 30
0.0
 10
11.4766960595
 20
5.8890700029
 30
0.0
 10
11.4695932902
 20
5.8722300378
 30
0.0
 10
11.4594325765
 20
5.8517170622
 30
0.0
 10
11.4453126909
 20
5.8281137776
 30
0.0
 10
11.4293768026
 20
5.8056157272
 30
0.0
 10
11.4117459985
 20
5.784311173
 30
0.0
 10
11.3925409198
 20
5.7642696736
 30
0.0
 10
11.3718802885
 20
5.7455466584
 30
0.0
 10
11.3498795668
 20
5.7281854236
 30
0.0
 10
11.3266507933
 20
5.7122207629
 30
0.0
 10
11.3023024692
 20
5.6976800443
 30
0.0
 10
11.2769426046
 20
5.6845878153
 30
0.0
 10
11.259485372
 20
5.6768621726
 30
0.0
 10
11.2506256592
 20
5.67324521
 30
0.0
  0
SPLINE
  5
30B
100
AcDbEntity
  8
0
100
AcDbSpline
 62
7
  6
CONTINUOUS
 70
0
 71
3
 72
28
 73
24
 74
0
 42
0.0000001
 43
0.0000001
 44
0.0000000001
 40
0.0
 40
0.0
 40
0.0
 40
0.0
 40
0.0654536815
 40
0.1307410568
 40
0.1957108025
 40
0.2602368479
 40
0.3242278449
 40
0.3876321282
 40
0.4504429343
 40
0.5126914364
 40
0.5744430094
 40
0.6357846517
 40
0.6968101475
 40
0.7272455418
 40
0.7576359753
 40
0.7879906629
 40
0.8183176731
 40
0.8486234972
 40
0.8789137583
 40
0.9091933736
 40
0.9394663468
 40
0.9697328588
 40
1.0
 40
1.0
 40
1.0
 40
1.0
 10
11.0468036088
 20
5.6342423901
 30
0.0
 10
11.0325813822
 20
5.6342554134
 30
0.0
 10
11.0041621549
 20
5.6353597045
 30
0.0
 10
10.9618785386
 20
5.6402463252
 30
0.0
 10
10.9202920814
 20
5.6483429505
 30
0.0
 10
10.8797438755
 20
5.6596191539
 30
0.0
 10
10.8405622307
 20
5.6740355001
 30
0.0
 10
10.803068937
 20
5.6915450178
 30
0.0
 10
10.7675825353
 20
5.7120925808
 30
0.0
 10
10.7344247002
 20
5.7356108438
 30
0.0
 10
10.7039266151
 20
5.7620129434
 30
0.0
 10
10.6764361597
 20
5.791174396
 30
0.0
 10
10.6563070635
 20
5.8176688219
 30
0.0
 10
10.6420896656
 20
5.8400182184
 30
0.0
 10
10.6324094954
 20
5.8573174899
 30
0.0
 10
10.623748893
 20
5.8751226487
 30
0.0
 10
10.616148639
 20
5.8933861893
 30
0.0
 10
10.6096466389
 20
5.9120543705
 30
0.0
 10
10.6042768018
 20
5.9310687309
 30
0.0
 10
10.600068356
 20
5.9503662547
 30
0.0
 10
10.597045162
 20
5.9698797417
 30
0.0
 10
10.5952238084
 20
5.9895384649
 30
0.0
 10
10.5948183383
 20
6.0026952424
 30
0.0
 10
10.5948183383
 20
6.009271898
 30
0.0
  0
SPLINE
  5
30C
100
AcDbEntity
  8
0
100
AcDbSpline
 62
7
  6
CONTINUOUS
 70
0
 71
3
 72
13
 73
9
 74
0
 42
0.0000001
 43
0.0000001
 44
0.0000000001
 40
0.0
 40
0.0
 40
0.0
 40
0.0
 40
0.1277883026
 40
0.2553021817
 40
0.4454476714
 40
0.633487583
 40
0.8185879455
 40
1.0
 40
1.0
 40
1.0
 40
1.0
 10
11.0474842211
 20
5.6342421902
 30
0.0
 10
11.056144099
 20
5.6342447172
 30
0.0
 10
11.0734480137
 20
5.6346496843
 30
0.0
 10
11.1035708131
 20
5.6367526224
 30
0.0
 10
11.1375908435
 20
5.641125739
 30
0.0
 10
11.1750428472
 20
5.6486751522
 30
0.0
 10
11.2112744227
 20
5.658776258
 30
0.0
 10
11.2346545106
 20
5.6672463738
 30
0.0
 10
11.2460363757
 20
5.6718930008
 30
0.0
  0
SPLINE
  5
30D
100
AcDbEntity
  8
0
100
AcDbSpline
 62
7
  6
CONTINUOUS
 70
0
 71
3
 72
11
 73
7
 74
0
 42
0.0000001
 43
0.0000001
 44
0.0000000001
 40
0.0
 40
0.0
 40
0.0
 40
0.0
 40
0.2470583892
 40
0.4965262933
 40
0.7477870513
 40
1.0
 40
1.0
 40
1.0
 40
1.0
 10
11.2506256592
 20
5.67324521
 30
0.0
 10
11.2347625072
 20
5.6667691053
 30
0.0
 10
11.2021828688
 20
5.6554038941
 30
0.0
 10
11.1516908625
 20
5.6432284158
 30
0.0
 10
11.0999145659
 20
5.6358875342
 30
0.0
 10
11.0649758654
 20
5.6342473479
 30
0.0
 10
11.0474842211
 20
5.634242179
 30
0.0
  0
SPLINE
  5
30E
100
AcDbEntity
  8
0
100
AcDbSpline
 62
7
  6
CONTINUOUS
 70
0
 71
3
 72
15
 73
11
 74
0
 42
0.0000001
 43
0.0000001
 44
0.0000000001
 40
0.0
 40
0.0
 40
0.0
 40
0.0
 40
0.1211615122
 40
0.2427131108
 40
0.3650361109
 40
0.4884948475
 40
0.6134292388
 40
0.7401487539
 40
0.8689273403
 40
1.0
 40
1.0
 40
1.0
 40
1.0
 10
11.4998182951
 20
6.2370506854
 30
0.0
 10
11.499818325
 20
6.2431194144
 30
0.0
 10
11.4993281973
 20
6.2552820527
 30
0.0
 10
11.4971267586
 20
6.2734516136
 30
0.0
 10
11.4934658717
 20
6.2915024646
 30
0.0
 10
11.4883582881
 20
6.3093738563
 30
0.0
 10
11.4818214982
 20
6.3270077821
 30
0.0
 10
11.4738772188
 20
6.3443469296
 30
0.0
 10
11.4645527709
 20
6.3613342166
 30
0.0
 10
11.4575013327
 20
6.3722882987
 30
0.0
 10
11.4537653763
 20
6.3776868103
 30
0.0
  0
SPLINE
  5
30F
100
AcDbEntity
  8
0
100
AcDbSpline
 62
7
  6
CONTINUOUS
 70
0
 71
3
 72
15
 73
11
 74
0
 42
0.0000001
 43
0.0000001
 44
0.0000000001
 40
0.0
 40
0.0
 40
0.0
 40
0.0
 40
0.1211081747
 40
0.2426122749
 40
0.3648990685
 40
0.4883378984
 40
0.6132731728
 40
0.7400176567
 40
0.8688476832
 40
1.0
 40
1.0
 40
1.0
 40
1.0
 10
10.5948183815
 20
6.2370506854
 30
0.0
 10
10.5948184116
 20
6.2431659564
 30
0.0
 10
10.5953159255
 20
6.2554222688
 30
0.0
 10
10.5975515243
 20
6.2737305713
 30
0.0
 10
10.6012686865
 20
6.2919173983
 30
0.0
 10
10.6064544675
 20
6.3099206095
 30
0.0
 10
10.6130910757
 20
6.327680771
 30
0.0
 10
10.6211558402
 20
6.3451393492
 30
0.0
 10
10.6306204974
 20
6.3622380944
 30
0.0
 10
10.637776575
 20
6.3732584284
 30
0.0
 10
10.6415675334
 20
6.3786884728
 30
0.0
  0
SPLINE
  5
310
100
AcDbEntity
  8
0
100
AcDbSpline
 62
7
  6
CONTINUOUS
 70
0
 71
3
 72
21
 73
17
 74
0
 42
0.0000001
 43
0.0000001
 44
0.0000000001
 40
0.0
 40
0.0
 40
0.0
 40
0.0
 40
0.0548557241
 40
0.1118721121
 40
0.1712087044
 40
0.232990322
 40
0.2971620756
 40
0.3634615045
 40
0.4999999933
 40
0.6365384847
 40
0.7028379217
 40
0.7670096799
 40
0.8287912909
 40
0.8881278845
 40
0.9451442752
 40
1.0
 40
1.0
 40
1.0
 40
1.0
 10
11.5767815167
 20
10.679962341
 30
0.0
 10
11.5781106412
 20
10.6787162014
 30
0.0
 10
11.580698464
 20
10.6760403316
 30
0.0
 10
11.5842371319
 20
10.6715778305
 30
0.0
 10
11.5874375274
 20
10.666589654
 30
0.0
 10
11.590223473
 20
10.661090445
 30
0.0
 10
11.5925137118
 20
10.6551172693
 30
0.0
 10
11.5948175619
 20
10.6465394716
 30
0.0
 10
11.5960035188
 20
10.6352409821
 30
0.0
 10
11.5948175622
 20
10.6239424922
 30
0.0
 10
11.5925137118
 20
10.615364694
 30
0.0
 10
11.5902234731
 20
10.6093915181
 30
0.0
 10
11.5874375275
 20
10.6038923091
 30
0.0
 10
11.584237132
 20
10.5989041327
 30
0.0
 10
11.5806984642
 20
10.5944416314
 30
0.0
 10
11.5781106412
 20
10.5917657616
 30
0.0
 10
11.5767815167
 20
10.5905196219
 30
0.0
  0
SPLINE
  5
311
100
AcDbEntity
  8
0
100
AcDbSpline
 62
7
  6
CONTINUOUS
 70
0
 71
3
 72
17
 73
13
 74
0
 42
0.0000001
 43
0.0000001
 44
0.0000000001
 40
0.0
 40
0.0
 40
0.0
 40
0.0
 40
0.0532244078
 40
0.1091168166
 40
0.2294246887
 40
0.3609890175
 40
0.4999999931
 40
0.6390109715
 40
0.7705753132
 40
0.89088318
 40
0.9467755915
 40
1.0
 40
1.0
 40
1.0
 40
1.0
 10
11.5725121285
 20
10.679962341
 30
0.0
 10
11.5737117761
 20
10.6787096662
 30
0.0
 10
11.5760461672
 20
10.6760184608
 30
0.0
 10
11.5803853083
 20
10.6699184899
 30
0.0
 10
11.5849646156
 20
10.6609196384
 30
0.0
 10
11.5885153723
 20
10.6486094117
 30
0.0
 10
11.5897677394
 20
10.6352409821
 30
0.0
 10
11.5885153725
 20
10.621872552
 30
0.0
 10
11.5849646159
 20
10.6095623248
 30
0.0
 10
11.5803853083
 20
10.6005634731
 30
0.0
 10
11.5760461673
 20
10.5944635022
 30
0.0
 10
11.5737117761
 20
10.5917722967
 30
0.0
 10
11.5725121285
 20
10.5905196219
 30
0.0
  0
SPLINE
  5
312
100
AcDbEntity
  8
0
100
AcDbSpline
 62
7
  6
CONTINUOUS
 70
0
 71
3
 72
19
 73
15
 74
0
 42
0.0000001
 43
0.0000001
 44
0.0000000001
 40
0.0
 40
0.0
 40
0.0
 40
0.0
 40
0.1060284773
 40
0.1641105537
 40
0.2256992131
 40
0.358466292
 40
0.4286279889
 40
0.499999993
 40
0.571371997
 40
0.6415336969
 40
0.7743007889
 40
0.8358894417
 40
0.8939715194
 40
1.0
 40
1.0
 40
1.0
 40
1.0
 10
11.5640139539
 20
10.679962341
 30
0.0
 10
11.5661979635
 20
10.6773655231
 30
0.0
 10
11.5691805647
 20
10.6729954798
 30
0.0
 10
11.572437596
 20
10.6665420667
 30
0.0
 10
11.5754326284
 20
10.659029063
 30
0.0
 10
11.5775156894
 20
10.6507741227
 30
0.0
 10
11.5786067721
 20
10.6420568922
 30
0.0
 10
11.57888947
 20
10.6352409821
 30
0.0
 10
11.5786067722
 20
10.628425072
 30
0.0
 10
11.5775156896
 20
10.619707841
 30
0.0
 10
11.5754326286
 20
10.6114529004
 30
0.0
 10
11.5724375961
 20
10.6039398964
 30
0.0
 10
11.5691805649
 20
10.5974864834
 30
0.0
 10
11.5661979635
 20
10.5931164399
 30
0.0
 10
11.5640139539
 20
10.5905196219
 30
0.0
  0
SPLINE
  5
313
100
AcDbEntity
  8
0
100
AcDbSpline
 62
7
  6
CONTINUOUS
 70
0
 71
3
 72
21
 73
17
 74
0
 42
0.0000001
 43
0.0000001
 44
0.0000000001
 40
0.0
 40
0.0
 40
0.0
 40
0.0
 40
0.1030744443
 40
0.1605268858
 40
0.2220257393
 40
0.2873852564
 40
0.3561141993
 40
0.4273742001
 40
0.5000000026
 40
0.5726258032
 40
0.6438858026
 40
0.7126147444
 40
0.7779742605
 40
0.8394731142
 40
0.8969255558
 40
1.0
 40
1.0
 40
1.0
 40
1.0
 10
11.5513554191
 20
10.679962341
 30
0.0
 10
11.5532449668
 20
10.6773292849
 30
0.0
 10
11.5557920575
 20
10.672933735
 30
0.0
 10
11.5585524072
 20
10.6665176062
 30
0.0
 10
11.5604189149
 20
10.6610242644
 30
0.0
 10
11.5619519446
 20
10.6550630721
 30
0.0
 10
11.5630975135
 20
10.6487030388
 30
0.0
 10
11.5638073974
 20
10.6420500454
 30
0.0
 10
11.5640480653
 20
10.6352409813
 30
0.0
 10
11.5638073974
 20
10.6284319172
 30
0.0
 10
11.5630975134
 20
10.621778924
 30
0.0
 10
11.5619519446
 20
10.6154188908
 30
0.0
 10
11.5604189148
 20
10.6094576986
 30
0.0
 10
11.5585524072
 20
10.6039643568
 30
0.0
 10
11.5557920575
 20
10.5975482279
 30
0.0
 10
11.5532449668
 20
10.593152678
 30
0.0
 10
11.5513554191
 20
10.5905196219
 30
0.0
  0
SPLINE
  5
314
100
AcDbEntity
  8
0
100
AcDbSpline
 62
7
  6
CONTINUOUS
 70
0
 71
3
 72
23
 73
19
 74
0
 42
0.0000001
 43
0.0000001
 44
0.0000000001
 40
0.0
 40
0.0
 40
0.0
 40
0.0
 40
0.0479828435
 40
0.1003328055
 40
0.1572072466
 40
0.2186423824
 40
0.2843948178
 40
0.353892813
 40
0.4261924037
 40
0.4999999927
 40
0.5738075817
 40
0.6461071757
 40
0.7156051793
 40
0.7813576197
 40
0.8427927488
 40
0.8996671912
 40
0.9520171559
 40
1.0
 40
1.0
 40
1.0
 40
1.0
 10
11.5346384488
 20
10.679962341
 30
0.0
 10
11.5353911746
 20
10.678683151
 30
0.0
 10
11.536848374
 20
10.675938435
 30
0.0
 10
11.5387914706
 20
10.6714761435
 30
0.0
 10
11.5405474681
 20
10.6664932569
 30
0.0
 10
11.5420750918
 20
10.6610043458
 30
0.0
 10
11.5433301713
 20
10.6550472088
 30
0.0
 10
11.5442679473
 20
10.6486921284
 30
0.0
 10
11.5448490927
 20
10.6420444521
 30
0.0
 10
11.545046109
 20
10.6352409821
 30
0.0
 10
11.5448490927
 20
10.628437512
 30
0.0
 10
11.5442679475
 20
10.6217898354
 30
0.0
 10
11.5433301713
 20
10.6154347546
 30
0.0
 10
11.5420750919
 20
10.6094776173
 30
0.0
 10
11.5405474682
 20
10.6039887062
 30
0.0
 10
11.5387914707
 20
10.5990058197
 30
0.0
 10
11.536848374
 20
10.594543528
 30
0.0
 10
11.5353911746
 20
10.5917988119
 30
0.0
 10
11.5346384488
 20
10.5905196219
 30
0.0
  0
SPLINE
  5
315
100
AcDbEntity
  8
0
100
AcDbSpline
 62
7
  6
CONTINUOUS
 70
0
 71
3
 72
23
 73
19
 74
0
 42
0.0000001
 43
0.0000001
 44
0.0000000001
 40
0.0
 40
0.0
 40
0.0
 40
0.0
 40
0.046448044
 40
0.0978027997
 40
0.1541864009
 40
0.215589863
 40
0.2817122798
 40
0.3519076753
 40
0.4251385855
 40
0.4999999926
 40
0.5748613997
 40
0.6480923132
 40
0.7182877172
 40
0.7844101391
 40
0.8458135945
 40
0.902197197
 40
0.9535519555
 40
1.0
 40
1.0
 40
1.0
 40
1.0
 10
11.5139976457
 20
10.679962341
 30
0.0
 10
11.5145836756
 20
10.6786729902
 30
0.0
 10
11.5157148203
 20
10.6759106482
 30
0.0
 10
11.5172128864
 20
10.6714514119
 30
0.0
 10
11.5185669015
 20
10.6664720218
 30
0.0
 10
11.519744997
 20
10.6609868769
 30
0.0
 10
11.5207130023
 20
10.6550337765
 30
0.0
 10
11.5214363276
 20
10.6486829876
 30
0.0
 10
11.5218845922
 20
10.6420398177
 30
0.0
 10
11.5220365623
 20
10.6352409821
 30
0.0
 10
11.5218845922
 20
10.6284421465
 30
0.0
 10
11.5214363277
 20
10.6217989762
 30
0.0
 10
11.5207130023
 20
10.6154481869
 30
0.0
 10
11.5197449971
 20
10.6094950862
 30
0.0
 10
11.5185669015
 20
10.6040099413
 30
0.0
 10
11.5172128864
 20
10.5990305513
 30
0.0
 10
11.5157148204
 20
10.5945713149
 30
0.0
 10
11.5145836756
 20
10.5918089728
 30
0.0
 10
11.5139976457
 20
10.5905196219
 30
0.0
  0
SPLINE
  5
316
100
AcDbEntity
  8
0
100
AcDbSpline
 62
7
  6
CONTINUOUS
 70
0
 71
3
 72
23
 73
19
 74
0
 42
0.0000001
 43
0.0000001
 44
0.0000000001
 40
0.0
 40
0.0
 40
0.0
 40
0.0
 40
0.0451904073
 40
0.0957433003
 40
0.1517402551
 40
0.2131282145
 40
0.2795556681
 40
0.3503151676
 40
0.4242942717
 40
0.4999999926
 40
0.5757057133
 40
0.6496848208
 40
0.7204443289
 40
0.7868717876
 40
0.8482597403
 40
0.9042566964
 40
0.9548095922
 40
1.0
 40
1.0
 40
1.0
 40
1.0
 10
11.4895992065
 20
10.679962341
 30
0.0
 10
11.490010814
 20
10.6786636157
 30
0.0
 10
11.4908027859
 20
10.6758863461
 30
0.0
 10
11.4918455036
 20
10.6714306777
 30
0.0
 10
11.4927881935
 20
10.6664548132
 30
0.0
 10
11.4936085867
 20
10.6609730698
 30
0.0
 10
11.4942827691
 20
10.6550233535
 30
0.0
 10
11.4947865848
 20
10.6486759823
 30
0.0
 10
11.4950988282
 20
10.6420362917
 30
0.0
 10
11.4952046869
 20
10.6352409821
 30
0.0
 10
11.4950988283
 20
10.6284456725
 30
0.0
 10
11.4947865849
 20
10.6218059815
 30
0.0
 10
11.4942827691
 20
10.6154586098
 30
0.0
 10
11.4936085867
 20
10.6095088933
 30
0.0
 10
11.4927881935
 20
10.60402715
 30
0.0
 10
11.4918455036
 20
10.5990512855
 30
0.0
 10
11.490802786
 20
10.5945956169
 30
0.0
 10
11.490010814
 20
10.5918183473
 30
0.0
 10
11.4895992065
 20
10.5905196219
 30
0.0
  0
SPLINE
  5
317
100
AcDbEntity
  8
0
100
AcDbSpline
 62
7
  6
CONTINUOUS
 70
0
 71
3
 72
21
 73
17
 74
0
 42
0.0000001
 43
0.0000001
 44
0.0000000001
 40
0.0
 40
0.0
 40
0.0
 40
0.0
 40
0.0443230257
 40
0.0943305763
 40
0.1500695985
 40
0.2114529354
 40
0.2780924719
 40
0.3492381174
 40
0.4999999925
 40
0.6507618709
 40
0.7219075251
 40
0.7885470668
 40
0.8499303969
 40
0.9056694204
 40
0.9556769738
 40
1.0
 40
1.0
 40
1.0
 40
1.0
 10
11.4616395842
 20
10.679962341
 30
0.0
 10
11.4618704502
 20
10.678656511
 30
0.0
 10
11.4623134825
 20
10.6758687385
 30
0.0
 10
11.4628943393
 20
10.6714161392
 30
0.0
 10
11.4634196098
 20
10.6664430562
 30
0.0
 10
11.4638768205
 20
10.6609638111
 30
0.0
 10
11.4642526387
 20
10.6550164495
 30
0.0
 10
11.4646341701
 20
10.6463915414
 30
0.0
 10
11.4648231419
 20
10.635240982
 30
0.0
 10
11.4646341702
 20
10.6240904225
 30
0.0
 10
11.4642526387
 20
10.6154655138
 30
0.0
 10
11.4638768205
 20
10.609518152
 30
0.0
 10
11.4634196098
 20
10.604038907
 30
0.0
 10
11.4628943393
 20
10.599065824
 30
0.0
 10
11.4623134825
 20
10.5946132245
 30
0.0
 10
11.4618704502
 20
10.591825452
 30
0.0
 10
11.4616395842
 20
10.5905196219
 30
0.0
  0
SPLINE
  5
318
100
AcDbEntity
  8
0
100
AcDbSpline
 62
7
  6
CONTINUOUS
 70
0
 71
3
 72
21
 73
17
 74
0
 42
0.0000001
 43
0.0000001
 44
0.0000000001
 40
0.0
 40
0.0
 40
0.0
 40
0.0
 40
0.0554312148
 40
0.1110880321
 40
0.1671896965
 40
0.2239431172
 40
0.2815377411
 40
0.3401414715
 40
0.3998975498
 40
0.4609228936
 40
0.5233071806
 40
0.58711286
 40
0.7190393707
 40
0.7872246345
 40
0.8568278075
 40
1.0
 40
1.0
 40
1.0
 40
1.0
 10
11.5098183383
 20
5.7067205995
 30
0.0
 10
11.5098183383
 20
5.6997409571
 30
0.0
 10
11.5091835268
 20
5.6857450569
 30
0.0
 10
11.5063331066
 20
5.6648599839
 30
0.0
 10
11.5015964784
 20
5.6441484522
 30
0.0
 10
11.4949944427
 20
5.6236989385
 30
0.0
 10
11.4865556534
 20
5.6035954514
 30
0.0
 10
11.4763163747
 20
5.5839208654
 30
0.0
 10
11.4643201635
 20
5.5647554699
 30
0.0
 10
11.450617808
 20
5.5461774624
 30
0.0
 10
11.4352655362
 20
5.528261255
 30
0.0
 10
11.412434139
 20
5.5051011874
 30
0.0
 10
11.3867534541
 20
5.4838408055
 30
0.0
 10
11.3587329084
 20
5.4646266091
 30
0.0
 10
11.3284237605
 20
5.4463496338
 30
0.0
 10
11.3043269808
 20
5.4344813957
 30
0.0
 10
11.2877677453
 20
5.4273550089
 30
0.0
  0
SPLINE
  5
319
100
AcDbEntity
  8
0
100
AcDbSpline
 62
7
  6
CONTINUOUS
 70
0
 71
3
 72
21
 73
17
 74
0
 42
0.0000001
 43
0.0000001
 44
0.0000000001
 40
0.0
 40
0.0
 40
0.0
 40
0.0
 40
0.0552266317
 40
0.1106882439
 40
0.16661287
 40
0.2232151743
 40
0.2806908359
 40
0.3392122553
 40
0.3989253796
 40
0.4599478627
 40
0.5223683293
 40
0.5862464221
 40
0.7184063054
 40
0.7867418665
 40
0.8565069269
 40
1.0
 40
1.0
 40
1.0
 40
1.0
 10
11.6223182974
 20
5.0561823608
 30
0.0
 10
11.6223182626
 20
5.0473088594
 30
0.0
 10
11.6214928994
 20
5.0295131907
 30
0.0
 10
11.6177868192
 20
5.0029644101
 30
0.0
 10
11.6116291413
 20
4.9766465514
 30
0.0
 10
11.6030481872
 20
4.9506772393
 30
0.0
 10
11.5920830682
 20
4.9251680058
 30
0.0
 10
11.5787831623
 20
4.9002287207
 30
0.0
 10
11.5632075648
 20
4.8759657556
 30
0.0
 10
11.5454251734
 20
4.8524825329
 30
0.0
 10
11.5255122952
 20
4.8298773594
 30
0.0
 10
11.4959102578
 20
4.8007133602
 30
0.0
 10
11.4626550744
 20
4.7740584286
 30
0.0
 10
11.4264195943
 20
4.7500950958
 30
0.0
 10
11.3872555258
 20
4.7273975256
 30
0.0
 10
11.3561637241
 20
4.7127824275
 30
0.0
 10
11.3348183383
 20
4.7040682103
 30
0.0
  0
SPLINE
  5
31A
100
AcDbEntity
  8
0
100
AcDbSpline
 62
7
  6
CONTINUOUS
 70
0
 71
3
 72
21
 73
17
 74
0
 42
0.0000001
 43
0.0000001
 44
0.0000000001
 40
0.0
 40
0.0
 40
0.0
 40
0.0
 40
0.0587064708
 40
0.1175159265
 40
0.1765300844
 40
0.235848191
 40
0.2955658136
 40
0.3557739795
 40
0.4165578762
 40
0.4779965538
 40
0.5401618485
 40
0.6031182766
 40
0.66692219
 40
0.7316222716
 40
0.8638283235
 40
1.0
 40
1.0
 40
1.0
 40
1.0
 10
10.4723183724
 20
5.7208627351
 30
0.0
 10
10.4723184
 20
5.7265478278
 30
0.0
 10
10.4726562182
 20
5.737930869
 30
0.0
 10
10.4741754902
 20
5.7549677817
 30
0.0
 10
10.476704253
 20
5.7719447472
 30
0.0
 10
10.4802383666
 20
5.7888307722
 30
0.0
 10
10.4847709003
 20
5.8055962623
 30
0.0
 10
10.4902942027
 20
5.8222113369
 30
0.0
 10
10.4967977549
 20
5.8386468559
 30
0.0
 10
10.5042703557
 20
5.8548736305
 30
0.0
 10
10.5126982099
 20
5.8708633179
 30
0.0
 10
10.5220664951
 20
5.8865875763
 30
0.0
 10
10.5323585418
 20
5.9020192216
 30
0.0
 10
10.5473945094
 20
5.9223114829
 30
0.0
 10
10.568461065
 20
5.9468025143
 30
0.0
 10
10.5871524314
 20
5.9649152053
 30
0.0
 10
10.5970000947
 20
5.9736852893
 30
0.0
  0
SPLINE
  5
31B
100
AcDbEntity
  8
0
100
AcDbSpline
 62
7
  6
CONTINUOUS
 70
0
 71
3
 72
24
 73
20
 74
0
 42
0.0000001
 43
0.0000001
 44
0.0000000001
 40
0.0
 40
0.0
 40
0.0
 40
0.0
 40
0.1416009702
 40
0.2118407034
 40
0.2813086672
 40
0.3497481272
 40
0.4169277306
 40
0.4826484492
 40
0.5467503942
 40
0.6091195548
 40
0.6696945724
 40
0.728473085
 40
0.7855169414
 40
0.8409561123
 40
0.8949891553
 40
0.9215702347
 40
0.9479040208
 40
0.9740323899
 40
1.0
 40
1.0
 40
1.0
 40
1.0
 10
11.0473183383
 20
6.1179319901
 30
0.0
 10
11.0720542733
 20
6.1184139747
 30
0.0
 10
11.109075212
 20
6.121523214
 30
0.0
 10
11.1574351711
 20
6.1304400383
 30
0.0
 10
11.192707301
 20
6.1394221955
 30
0.0
 10
11.22676744
 20
6.150646023
 30
0.0
 10
11.2593358384
 20
6.1640257125
 30
0.0
 10
11.2901406366
 20
6.1794572253
 30
0.0
 10
11.3189256085
 20
6.1968201688
 30
0.0
 10
11.3454506441
 20
6.2159785574
 30
0.0
 10
11.3694938148
 20
6.2367821484
 30
0.0
 10
11.3908526354
 20
6.2590671283
 30
0.0
 10
11.4093457546
 20
6.2826584039
 30
0.0
 10
11.4248127437
 20
6.3073658102
 30
0.0
 10
11.4351260229
 20
6.3288469374
 30
0.0
 10
11.4416984374
 20
6.3463488228
 30
0.0
 10
11.4457756384
 20
6.359552975
 30
0.0
 10
11.4490168011
 20
6.372875762
 30
0.0
 10
11.4506201907
 20
6.3818427261
 30
0.0
 10
11.4512787746
 20
6.3863317538
 30
0.0
  0
SPLINE
  5
31C
100
AcDbEntity
  8
0
100
AcDbSpline
 62
7
  6
CONTINUOUS
 70
0
 71
3
 72
42
 73
38
 74
0
 42
0.0000001
 43
0.0000001
 44
0.0000000001
 40
0.0
 40
0.0
 40
0.0
 40
0.0
 40
0.0125788777
 40
0.0252170024
 40
0.0379246827
 40
0.0507113557
 40
0.0635858463
 40
0.0765564164
 40
0.0896306506
 40
0.1028154495
 40
0.1295358626
 40
0.1567639179
 40
0.1845297399
 40
0.2128532071
 40
0.2417449002
 40
0.2712070799
 40
0.3012345713
 40
0.3318154863
 40
0.3629317661
 40
0.3945595878
 40
0.4266696945
 40
0.4592276956
 40
0.4921943864
 40
0.5255261117
 40
0.559175194
 40
0.5930904226
 40
0.6272176005
 40
0.6615001374
 40
0.6958796806
 40
0.7302967759
 40
0.7646915428
 40
0.7990043544
 40
0.8331765144
 40
0.8671509228
 40
0.9008727032
 40
0.9342898978
 40
1.0
 40
1.0
 40
1.0
 40
1.0
 10
8.9090526961
 20
3.8411505215
 30
0.0
 10
8.9113898765
 20
3.825197076
 30
0.0
 10
8.9167664078
 20
3.7933120276
 30
0.0
 10
8.9268949925
 20
3.7457523711
 30
0.0
 10
8.9390973901
 20
3.6984062309
 30
0.0
 10
8.9533628968
 20
3.6513241682
 30
0.0
 10
8.9696790206
 20
3.6045559705
 30
0.0
 10
8.9880299331
 20
3.5581520207
 30
0.0
 10
9.0083975984
 20
3.512161431
 30
0.0
 10
9.0383445735
 20
3.4511950583
 30
0.0
 10
9.080801947
 20
3.3762397278
 30
0.0
 10
9.1391818398
 20
3.2891646985
 30
0.0
 10
9.2049622597
 20
3.2049163613
 30
0.0
 10
9.2778448383
 20
3.1238486985
 30
0.0
 10
9.3575054446
 20
3.0462877361
 30
0.0
 10
9.4435961816
 20
2.9725366441
 30
0.0
 10
9.5357505955
 20
2.902873519
 30
0.0
 10
9.6335868355
 20
2.8375524526
 30
0.0
 10
9.736710132
 20
2.7768046303
 30
0.0
 10
9.84471426
 20
2.7208398627
 30
0.0
 10
9.9571822782
 20
2.6698478968
 30
0.0
 10
10.0736868778
 20
2.6239994785
 30
0.0
 10
10.193790575
 20
2.5834470142
 30
0.0
 10
10.3170459814
 20
2.5483248556
 30
0.0
 10
10.4429963123
 20
2.5187493764
 30
0.0
 10
10.5711761428
 20
2.4948187633
 30
0.0
 10
10.701112459
 20
2.4766126959
 30
0.0
 10
10.8323259756
 20
2.4641919939
 30
0.0
 10
10.9643326834
 20
2.4575982221
 30
0.0
 10
11.0966455628
 20
2.4568534699
 30
0.0
 10
11.2287764783
 20
2.4619602458
 30
0.0
 10
11.3602377952
 20
2.4729013759
 30
0.0
 10
11.4905451445
 20
2.4896404145
 30
0.0
 10
11.6192157427
 20
2.5121207742
 30
0.0
 10
11.7457827467
 20
2.5402699954
 30
0.0
 10
11.9101383988
 20
2.584970003
 30
0.0
 10
12.0303199308
 20
2.6270346548
 30
0.0
 10
12.1082998154
 20
2.6588697683
 30
0.0
  0
SPLINE
  5
31D
100
AcDbEntity
  8
0
100
AcDbSpline
 62
7
  6
CONTINUOUS
 70
0
 71
3
 72
26
 73
22
 74
0
 42
0.0000001
 43
0.0000001
 44
0.0000000001
 40
0.0
 40
0.0
 40
0.0
 40
0.0
 40
0.140319671
 40
0.2089580899
 40
0.2764956035
 40
0.3428915034
 40
0.4081162265
 40
0.4721524739
 40
0.5037269744
 40
0.5350041069
 40
0.5966663006
 40
0.6571741923
 40
0.6870133877
 40
0.7165827478
 40
0.7749387327
 40
0.8323380829
 40
0.8888887271
 40
0.9168908013
 40
0.9447304212
 40
0.9724266061
 40
1.0
 40
1.0
 40
1.0
 40
1.0
 10
12.1082998168
 20
2.6588697688
 30
0.0
 10
12.1807194048
 20
2.6884349776
 30
0.0
 10
12.2865917841
 20
2.7376179442
 30
0.0
 10
12.4210019864
 20
2.8131614681
 30
0.0
 10
12.5164296173
 20
2.8736492232
 30
0.0
 10
12.6068444283
 20
2.9381767714
 30
0.0
 10
12.6919133683
 20
3.0065338322
 30
0.0
 10
12.7583929178
 20
3.0667828323
 30
0.0
 10
12.808543592
 20
3.1166800415
 30
0.0
 10
12.8561867727
 20
3.1671716196
 30
0.0
 10
12.9118772274
 20
3.2321850361
 30
0.0
 10
12.962610677
 20
3.3001466072
 30
0.0
 10
12.9997389448
 20
3.3557510581
 30
0.0
 10
13.0342384997
 20
3.4116172816
 30
0.0
 10
13.0730580706
 20
3.4828137486
 30
0.0
 10
13.1126363519
 20
3.5704307152
 30
0.0
 10
13.1395797618
 20
3.6449294784
 30
0.0
 10
13.1573415921
 20
3.7050272619
 30
0.0
 10
13.1687447885
 20
3.750192
 30
0.0
 10
13.178261999
 20
3.7955459278
 30
0.0
 10
13.1833560338
 20
3.825942649
 30
0.0
 10
13.1855840877
 20
3.8411512781
 30
0.0
  0
SPLINE
  5
31E
100
AcDbEntity
  8
0
100
AcDbSpline
 62
7
  6
CONTINUOUS
 70
0
 71
3
 72
29
 73
25
 74
0
 42
0.0000001
 43
0.0000001
 44
0.0000000001
 40
0.0
 40
0.0
 40
0.0
 40
0.0
 40
0.0277605309
 40
0.0555501839
 40
0.0833944724
 40
0.1113213811
 40
0.1393578261
 40
0.1675295214
 40
0.1958615083
 40
0.2243778046
 40
0.253101174
 40
0.2820530761
 40
0.3407087298
 40
0.4004997226
 40
0.461541758
 40
0.5239233426
 40
0.5877055457
 40
0.6201381028
 40
0.652931384
 40
0.7195912341
 40
0.7876775746
 40
0.8571513177
 40
0.9279515439
 40
1.0
 40
1.0
 40
1.0
 40
1.0
 10
9.4273183383
 20
4.5851550294
 30
0.0
 10
9.4273183383
 20
4.5977880358
 30
0.0
 10
9.4279030255
 20
4.6230711858
 30
0.0
 10
9.430531773
 20
4.6609432469
 30
0.0
 10
9.4349097071
 20
4.6987301355
 30
0.0
 10
9.4410310626
 20
4.7363874548
 30
0.0
 10
9.4488879351
 20
4.773873418
 30
0.0
 10
9.4584709829
 20
4.8111457943
 30
0.0
 10
9.4697680157
 20
4.8481631194
 30
0.0
 10
9.4827653451
 20
4.8848841994
 30
0.0
 10
9.4974476237
 20
4.9212693909
 30
0.0
 10
9.5193383392
 20
4.9694847714
 30
0.0
 10
9.5509085911
 20
5.028762162
 30
0.0
 10
9.5950399589
 20
5.0975920726
 30
0.0
 10
9.6453843081
 20
5.1641533914
 30
0.0
 10
9.7017102876
 20
5.2281647628
 30
0.0
 10
9.7531424022
 20
5.2788852563
 30
0.0
 10
9.7969731563
 20
5.3179559553
 30
0.0
 10
9.8430761152
 20
5.3563975088
 30
0.0
 10
9.9039837494
 20
5.4023499319
 30
0.0
 10
9.9815297529
 20
5.453668791
 30
0.0
 10
10.0636038919
 20
5.501257501
 30
0.0
 10
10.1498517649
 20
5.5449186296
 30
0.0
 10
10.2094040491
 20
5.5710749518
 30
0.0
 10
10.2397590488
 20
5.5834673285
 30
0.0
  0
SPLINE
  5
31F
100
AcDbEntity
  8
0
100
AcDbSpline
 62
7
  6
CONTINUOUS
 70
0
 71
3
 72
9
 73
5
 74
0
 42
0.0000001
 43
0.0000001
 44
0.0000000001
 40
0.0
 40
0.0
 40
0.0
 40
0.0
 40
0.2469242933
 40
1.0
 40
1.0
 40
1.0
 40
1.0
 10
10.2437243437
 20
5.5850808673
 30
0.0
 10
10.2621076287
 20
5.5925368399
 30
0.0
 10
10.3370321071
 20
5.6215502455
 30
0.0
 10
10.4137591816
 20
5.6458781307
 30
0.0
 10
10.4721756928
 20
5.6616250195
 30
0.0
  0
SPLINE
  5
320
100
AcDbEntity
  8
0
100
AcDbSpline
 62
7
  6
CONTINUOUS
 70
0
 71
3
 72
29
 73
25
 74
0
 42
0.0000001
 43
0.0000001
 44
0.0000000001
 40
0.0
 40
0.0
 40
0.0
 40
0.0
 40
0.0728195494
 40
0.1445078611
 40
0.2149167283
 40
0.283920145
 40
0.3514177027
 40
0.4173380465
 40
0.4816421146
 40
0.5443261866
 40
0.605424565
 40
0.6650114712
 40
0.694280002
 40
0.723217298
 40
0.7518440607
 40
0.7801833983
 40
0.8082607221
 40
0.8361035815
 40
0.8637414979
 40
0.8912058296
 40
0.9185292763
 40
0.9457458218
 40
0.9728914435
 40
1.0
 40
1.0
 40
1.0
 40
1.0
 10
11.6225300187
 20
5.661606401
 30
0.0
 10
11.6602726914
 20
5.6514310901
 30
0.0
 10
11.7346192705
 20
5.62911316
 30
0.0
 10
11.843043839
 20
5.5894989657
 30
0.0
 10
11.9469946448
 20
5.5441954542
 30
0.0
 10
12.0458825588
 20
5.4934505946
 30
0.0
 10
12.1391520145
 20
5.4375391486
 30
0.0
 10
12.2262762756
 20
5.3767633373
 30
0.0
 10
12.3067608549
 20
5.3114510514
 30
0.0
 10
12.3801458916
 20
5.2419523818
 30
0.0
 10
12.4460030708
 20
5.1686471386
 30
0.0
 10
12.4945844728
 20
5.1043219214
 30
0.0
 10
12.5292108638
 20
5.0513911755
 30
0.0
 10
12.5529228409
 20
5.011240315
 30
0.0
 10
12.5744913571
 20
4.9704621235
 30
0.0
 10
12.5938835103
 20
4.9291136264
 30
0.0
 10
12.6110688836
 20
4.8872543245
 30
0.0
 10
12.6260201787
 20
4.8449446328
 30
0.0
 10
12.6387131344
 20
4.802246203
 30
0.0
 10
12.6491271852
 20
4.7592219188
 30
0.0
 10
12.6572451887
 20
4.7159358234
 30
0.0
 10
12.6630535416
 20
4.6724517605
 30
0.0
 10
12.6665422904
 20
4.6288372627
 30
0.0
 10
12.6673183383
 20
4.5997071626
 30
0.0
 10
12.6673183383
 20
4.5851550294
 30
0.0
  0
SPLINE
  5
321
100
AcDbEntity
  8
0
100
AcDbSpline
 62
7
  6
CONTINUOUS
 70
0
 71
3
 72
30
 73
26
 74
0
 42
0.0000001
 43
0.0000001
 44
0.0000000001
 40
0.0
 40
0.0
 40
0.0
 40
0.0
 40
0.0280965774
 40
0.0562177629
 40
0.0843872458
 40
0.1126291422
 40
0.1409669825
 40
0.1694236813
 40
0.1980215459
 40
0.2267821184
 40
0.2557259951
 40
0.2848727843
 40
0.3438353945
 40
0.4038161534
 40
0.4342296098
 40
0.4649373959
 40
0.5272652744
 40
0.5908745047
 40
0.6231773585
 40
0.6558131899
 40
0.7220784794
 40
0.7896707742
 40
0.8585594253
 40
0.9286923418
 40
1.0
 40
1.0
 40
1.0
 40
1.0
 10
9.1423183383
 20
4.4277726261
 30
0.0
 10
9.1423183383
 20
4.4429742255
 30
0.0
 10
9.1430194211
 20
4.4733953856
 30
0.0
 10
9.1461716926
 20
4.5189593253
 30
0.0
 10
9.1514199279
 20
4.5644096938
 30
0.0
 10
9.1587558651
 20
4.60968844
 30
0.0
 10
9.1681676376
 20
4.6547402734
 30
0.0
 10
9.1796409273
 20
4.6995102744
 30
0.0
 10
9.1931582621
 20
4.743944977
 30
0.0
 10
9.2086991891
 20
4.787992096
 30
0.0
 10
9.2262418644
 20
4.8316015898
 30
0.0
 10
9.2523637334
 20
4.8893125804
 30
0.0
 10
9.2899836465
 20
4.960166121
 30
0.0
 10
9.3335584032
 20
5.0283250498
 30
0.0
 10
9.3719890027
 20
5.0814097992
 30
0.0
 10
9.41318562
 20
5.1340015804
 30
0.0
 10
9.4691450663
 20
5.197759442
 30
0.0
 10
9.5300855084
 20
5.2579967631
 30
0.0
 10
9.5819628403
 20
5.304338434
 30
0.0
 10
9.6364481103
 20
5.3498600402
 30
0.0
 10
9.7083631026
 20
5.4042172357
 30
0.0
 10
9.7998519462
 20
5.4648568045
 30
0.0
 10
9.8965856509
 20
5.521013015
 30
0.0
 10
9.9981496321
 20
5.5724687354
 30
0.0
 10
10.0682520562
 20
5.603268492
 30
0.0
 10
10.1039710028
 20
5.6178506909
 30
0.0
  0
SPLINE
  5
322
100
AcDbEntity
  8
0
100
AcDbSpline
 62
7
  6
CONTINUOUS
 70
0
 71
3
 72
10
 73
6
 74
0
 42
0.0000001
 43
0.0000001
 44
0.0000000001
 40
0.0
 40
0.0
 40
0.0
 40
0.0
 40
0.2461176643
 40
0.620379657
 40
1.0
 40
1.0
 40
1.0
 40
1.0
 10
10.1039710028
 20
5.6178506909
 30
0.0
 10
10.1333518206
 20
5.6298453595
 30
0.0
 10
10.2080743121
 20
5.6584755717
 30
0.0
 10
10.3308222701
 20
5.6982274843
 30
0.0
 10
10.4250214396
 20
5.7224975004
 30
0.0
 10
10.4727623328
 20
5.7333055201
 30
0.0
  0
SPLINE
  5
323
100
AcDbEntity
  8
0
100
AcDbSpline
 62
7
  6
CONTINUOUS
 70
0
 71
3
 72
30
 73
26
 74
0
 42
0.0000001
 43
0.0000001
 44
0.0000000001
 40
0.0
 40
0.0
 40
0.0
 40
0.0
 40
0.0722211493
 40
0.143436705
 40
0.213483738
 40
0.2822226014
 40
0.3495408633
 40
0.4153570661
 40
0.4796241867
 40
0.5423327455
 40
0.6035130945
 40
0.6335583265
 40
0.6632519096
 40
0.6926092686
 40
0.7216483079
 40
0.7503893408
 40
0.7788549877
 40
0.8070700223
 40
0.8350611713
 40
0.862856955
 40
0.8904874824
 40
0.9179841796
 40
0.9453794738
 40
0.9727069001
 40
1.0
 40
1.0
 40
1.0
 40
1.0
 10
11.622102997
 20
5.7332537196
 30
0.0
 10
11.6692882363
 20
5.7225668025
 30
0.0
 10
11.7624071964
 20
5.6985996552
 30
0.0
 10
11.8985855033
 20
5.6546448433
 30
0.0
 10
12.0296027649
 20
5.6031504926
 30
0.0
 10
12.154660042
 20
5.5444060573
 30
0.0
 10
12.2730012034
 20
5.478736497
 30
0.0
 10
12.3839048793
 20
5.406502845
 30
0.0
 10
12.4866903373
 20
5.3280969724
 30
0.0
 10
12.5807104343
 20
5.2439504484
 30
0.0
 10
12.6516920596
 20
5.1689600724
 30
0.0
 10
12.7033894739
 20
5.1065702675
 30
0.0
 10
12.7393812296
 20
5.0589318556
 30
0.0
 10
12.772756687
 20
5.0102404123
 30
0.0
 10
12.8034568257
 20
4.9605666946
 30
0.0
 10
12.8314246847
 20
4.9099854898
 30
0.0
 10
12.8566069606
 20
4.8585743501
 30
0.0
 10
12.8789539486
 20
4.8064141076
 30
0.0
 10
12.8984203086
 20
4.7535889518
 30
0.0
 10
12.9149652796
 20
4.7001863251
 30
0.0
 10
12.9285531427
 20
4.646296713
 30
0.0
 10
12.9391536723
 20
4.5920137357
 30
0.0
 10
12.9467430738
 20
4.5374327104
 30
0.0
 10
12.9513037875
 20
4.4826539535
 30
0.0
 10
12.9523183383
 20
4.4460560428
 30
0.0
 10
12.9523183383
 20
4.4277726261
 30
0.0
  0
SPLINE
  5
324
100
AcDbEntity
  8
0
100
AcDbSpline
 62
7
  6
CONTINUOUS
 70
0
 71
3
 72
21
 73
17
 74
0
 42
0.0000001
 43
0.0000001
 44
0.0000000001
 40
0.0
 40
0.0
 40
0.0
 40
0.0
 40
0.060140307
 40
0.1203922145
 40
0.1808027677
 40
0.2414199615
 40
0.3022901991
 40
0.363458359
 40
0.4249678871
 40
0.48686046
 40
0.5491756711
 40
0.611950954
 40
0.6752213793
 40
0.7390194663
 40
0.8682925972
 40
1.0
 40
1.0
 40
1.0
 40
1.0
 10
8.8990731305
 20
4.0580644672
 30
0.0
 10
8.900003054
 20
4.0746291079
 30
0.0
 10
8.9026038815
 20
4.1077523381
 30
0.0
 10
8.9087122779
 20
4.1572699966
 30
0.0
 10
8.9170219412
 20
4.2066004334
 30
0.0
 10
8.9275208254
 20
4.2556856968
 30
0.0
 10
8.9401936977
 20
4.3044708983
 30
0.0
 10
8.9550230316
 20
4.3529016168
 30
0.0
 10
8.9719884351
 20
4.4009249077
 30
0.0
 10
8.9910669083
 20
4.4484892918
 30
0.0
 10
9.0122336793
 20
4.4955446318
 30
0.0
 10
9.0354613496
 20
4.5420422255
 30
0.0
 10
9.0607212482
 20
4.5879355694
 30
0.0
 10
9.0972256748
 20
4.6485193022
 30
0.0
 10
9.1478740119
 20
4.7225337925
 30
0.0
 10
9.1928428006
 20
4.7788496294
 30
0.0
 10
9.216492575
 20
4.8064327272
 30
0.0
  0
SPLINE
  5
325
100
AcDbEntity
  8
0
100
AcDbSpline
 62
7
  6
CONTINUOUS
 70
0
 71
3
 72
20
 73
16
 74
0
 42
0.0000001
 43
0.0000001
 44
0.0000000001
 40
0.0
 40
0.0
 40
0.0
 40
0.0
 40
0.1317015209
 40
0.2609717841
 40
0.388016042
 40
0.4507923992
 40
0.5131093085
 40
0.5750041853
 40
0.636516572
 40
0.6976880758
 40
0.7585620994
 40
0.8191833963
 40
0.879598386
 40
0.9398549941
 40
1.0
 40
1.0
 40
1.0
 40
1.0
 10
12.8786399838
 20
4.8058540695
 30
0.0
 10
12.9022528267
 20
4.7782866672
 30
0.0
 10
12.9471525782
 20
4.7220023185
 30
0.0
 10
13.0075617923
 20
4.6336461036
 30
0.0
 10
13.0515345756
 20
4.5573703212
 30
0.0
 10
13.0825750875
 20
4.4951801642
 30
0.0
 10
13.1037086363
 20
4.448161198
 30
0.0
 10
13.1227568761
 20
4.4006350062
 30
0.0
 10
13.1396955857
 20
4.3526508198
 30
0.0
 10
13.1545019334
 20
4.3042602695
 30
0.0
 10
13.1671553406
 20
4.2555160389
 30
0.0
 10
13.1776385273
 20
4.2064724712
 30
0.0
 10
13.1859362706
 20
4.1571842829
 30
0.0
 10
13.1920364721
 20
4.1077092944
 30
0.0
 10
13.1946344286
 20
4.0746147503
 30
0.0
 10
13.1955635461
 20
4.0580644672
 30
0.0
  0
SPLINE
  5
326
100
AcDbEntity
  8
0
100
AcDbSpline
 62
7
  6
CONTINUOUS
 70
0
 71
3
 72
25
 73
21
 74
0
 42
0.0000001
 43
0.0000001
 44
0.0000000001
 40
0.0
 40
0.0
 40
0.0
 40
0.0
 40
0.0252024247
 40
0.0506079676
 40
0.0762645915
 40
0.1022167613
 40
0.1551443138
 40
0.2096894701
 40
0.2660542305
 40
0.3243669766
 40
0.3542821565
 40
0.384700156
 40
0.4470146023
 40
0.5112576035
 40
0.5773089831
 40
0.645003616
 40
0.7141384763
 40
0.7844795746
 40
0.8557688391
 40
1.0
 40
1.0
 40
1.0
 40
1.0
 10
10.6443599696
 20
6.357272741
 30
0.0
 10
10.6451384445
 20
6.3530943029
 30
0.0
 10
10.6469739278
 20
6.3447519685
 30
0.0
 10
10.6505329103
 20
6.3323839565
 30
0.0
 10
10.6549006763
 20
6.3201428324
 30
0.0
 10
10.6618328911
 20
6.3039231287
 30
0.0
 10
10.6725319086
 20
6.2840638788
 30
0.0
 10
10.6883304804
 20
6.261329583
 30
0.0
 10
10.7070406873
 20
6.2397135924
 30
0.0
 10
10.7247793906
 20
6.2229225388
 30
0.0
 10
10.7402303763
 20
6.2101998603
 30
0.0
 10
10.7567783026
 20
6.197779607
 30
0.0
 10
10.7789799005
 20
6.183296082
 30
0.0
 10
10.8075747927
 20
6.1678158291
 30
0.0
 10
10.8381079215
 20
6.1542225079
 30
0.0
 10
10.8703314748
 20
6.1426310562
 30
0.0
 10
10.9039847926
 20
6.1331395783
 30
0.0
 10
10.9387993533
 20
6.1258294821
 30
0.0
 10
10.9865545172
 20
6.1190533364
 30
0.0
 10
11.0229986645
 20
6.1174581165
 30
0.0
 10
11.0473183383
 20
6.1179319901
 30
0.0
  0
SPLINE
  5
327
100
AcDbEntity
  8
0
100
AcDbSpline
 62
7
  6
CONTINUOUS
 70
0
 71
3
 72
19
 73
15
 74
0
 42
0.0000001
 43
0.0000001
 44
0.0000000001
 40
0.0
 40
0.0
 40
0.0
 40
0.0
 40
0.0548825371
 40
0.1102846394
 40
0.1663745906
 40
0.2233050192
 40
0.2812109411
 40
0.3402067151
 40
0.4003854116
 40
0.4618182534
 40
0.5885624231
 40
0.7206562421
 40
0.8579412005
 40
1.0
 40
1.0
 40
1.0
 40
1.0
 10
10.643336714
 20
6.412120344
 30
0.0
 10
10.644194592
 20
6.4063941625
 30
0.0
 10
10.6464024308
 20
6.3949544418
 30
0.0
 10
10.6511401997
 20
6.378034331
 30
0.0
 10
10.6572987689
 20
6.3613470025
 30
0.0
 10
10.6648548102
 20
6.3449541496
 30
0.0
 10
10.6737802784
 20
6.3289139414
 30
0.0
 10
10.684042235
 20
6.3132837915
 30
0.0
 10
10.6956035494
 20
6.2981185478
 30
0.0
 10
10.7128701982
 20
6.2783890069
 30
0.0
 10
10.7375769939
 20
6.2551994444
 30
0.0
 10
10.7712988452
 20
6.2303662496
 30
0.0
 10
10.808924584
 20
6.2085663696
 30
0.0
 10
10.8358464006
 20
6.1964404556
 30
0.0
 10
10.8497861108
 20
6.1909359888
 30
0.0
  0
SPLINE
  5
328
100
AcDbEntity
  8
0
100
AcDbSpline
 62
7
  6
CONTINUOUS
 70
0
 71
3
 72
18
 73
14
 74
0
 42
0.0000001
 43
0.0000001
 44
0.0000000001
 40
0.0
 40
0.0
 40
0.0
 40
0.0
 40
0.0596475572
 40
0.1193531127
 40
0.1792073026
 40
0.2392722335
 40
0.2996190277
 40
0.3603201345
 40
0.4829971173
 40
0.607914085
 40
0.7355266236
 40
0.8661651759
 40
1.0
 40
1.0
 40
1.0
 40
1.0
 10
10.6325959853
 20
9.5502409815
 30
0.0
 10
10.6297310812
 20
9.5502409815
 30
0.0
 10
10.6239961198
 20
9.5500236137
 30
0.0
 10
10.6154363821
 20
9.5490479612
 30
0.0
 10
10.6069536978
 20
9.5474300473
 30
0.0
 10
10.5985847625
 20
9.5451806189
 30
0.0
 10
10.5903631678
 20
9.5423147382
 30
0.0
 10
10.5796042252
 20
9.537680675
 30
0.0
 10
10.5666480628
 20
9.5304086426
 30
0.0
 10
10.5521862483
 20
9.5195772949
 30
0.0
 10
10.5388849979
 20
9.5067949629
 30
0.0
 10
10.5268592361
 20
9.4922551882
 30
0.0
 10
10.5198344247
 20
9.4816400191
 30
0.0
 10
10.5165545655
 20
9.4761115706
 30
0.0
  0
SPLINE
  5
329
100
AcDbEntity
  8
0
100
AcDbSpline
 62
7
  6
CONTINUOUS
 70
0
 71
3
 72
18
 73
14
 74
0
 42
0.0000001
 43
0.0000001
 44
0.0000000001
 40
0.0
 40
0.0
 40
0.0
 40
0.0
 40
0.1338680197
 40
0.2645307534
 40
0.3921564813
 40
0.5170751857
 40
0.6397433955
 40
0.700437063
 40
0.7607745948
 40
0.8208288372
 40
0.8806714463
 40
0.9403650823
 40
1.0
 40
1.0
 40
1.0
 40
1.0
 10
10.5163474699
 20
9.2327202891
 30
0.0
 10
10.5196258972
 20
9.2271680797
 30
0.0
 10
10.526650614
 20
9.2165064525
 30
0.0
 10
10.5386851947
 20
9.2019004411
 30
0.0
 10
10.5520035316
 20
9.1890579587
 30
0.0
 10
10.5664901978
 20
9.178174091
 30
0.0
 10
10.5794733762
 20
9.1708656497
 30
0.0
 10
10.590256856
 20
9.1662081032
 30
0.0
 10
10.598497972
 20
9.1633275742
 30
0.0
 10
10.6068875473
 20
9.1610665453
 30
0.0
 10
10.6153917733
 20
9.1594402318
 30
0.0
 10
10.6239736587
 20
9.1584594896
 30
0.0
 10
10.6297236145
 20
9.1582409815
 30
0.0
 10
10.6325959853
 20
9.1582409815
 30
0.0
  0
SPLINE
  5
32A
100
AcDbEntity
  8
0
100
AcDbSpline
 62
7
  6
CONTINUOUS
 70
0
 71
3
 72
12
 73
8
 74
0
 42
0.0000001
 43
0.0000001
 44
0.0000000001
 40
0.0
 40
0.0
 40
0.0
 40
0.0
 40
0.2218534114
 40
0.3425563075
 40
0.4681673371
 40
0.7296767498
 40
1.0
 40
1.0
 40
1.0
 40
1.0
 10
10.4689968395
 20
9.4693260759
 30
0.0
 10
10.4705253553
 20
9.4687777795
 30
0.0
 10
10.4729257001
 20
9.4680389836
 30
0.0
 10
10.476258437
 20
9.4672387917
 30
0.0
 10
10.4799070598
 20
9.4665230208
 30
0.0
 10
10.4846860839
 20
9.4659084072
 30
0.0
 10
10.4885807969
 20
9.4657409815
 30
0.0
 10
10.4905594584
 20
9.4657409815
 30
0.0
  0
SPLINE
  5
32B
100
AcDbEntity
  8
0
100
AcDbSpline
 62
7
  6
CONTINUOUS
 70
0
 71
3
 72
12
 73
8
 74
0
 42
0.0000001
 43
0.0000001
 44
0.0000000001
 40
0.0
 40
0.0
 40
0.0
 40
0.0
 40
0.270553212
 40
0.5319516103
 40
0.6574703902
 40
0.7781375606
 40
1.0
 40
1.0
 40
1.0
 40
1.0
 10
10.4905594584
 20
9.2427409815
 30
0.0
 10
10.4885776234
 20
9.2427409815
 30
0.0
 10
10.4846791743
 20
9.2425722365
 30
0.0
 10
10.4798962483
 20
9.2419580421
 30
0.0
 10
10.4762468389
 20
9.241240595
 30
0.0
 10
10.472913088
 20
9.2404375375
 30
0.0
 10
10.47051057
 20
9.2397000147
 30
0.0
 10
10.4689811349
 20
9.2391504665
 30
0.0
  0
SPLINE
  5
32C
100
AcDbEntity
  8
0
100
AcDbSpline
 62
7
  6
CONTINUOUS
 70
0
 71
3
 72
39
 73
35
 74
0
 42
0.0000001
 43
0.0000001
 44
0.0000000001
 40
0.0
 40
0.0
 40
0.0
 40
0.0
 40
0.0270215216
 40
0.0542061462
 40
0.0817113617
 40
0.1096842232
 40
0.1382541947
 40
0.1675268196
 40
0.1975784109
 40
0.228452581
 40
0.2601590763
 40
0.2926742818
 40
0.3259436403
 40
0.3598851139
 40
0.394393109
 40
0.4293428345
 40
0.4645950685
 40
0.5000009658
 40
0.5354068369
 40
0.5706589984
 40
0.6056086254
 40
0.6401164855
 40
0.6740577873
 40
0.7073269574
 40
0.73984194
 40
0.7715482215
 40
0.802422241
 40
0.8324736911
 40
0.8617461811
 40
0.8903160327
 40
0.9182887904
 40
0.9457939235
 40
0.972978493
 40
1.0
 40
1.0
 40
1.0
 40
1.0
 10
10.3530571856
 20
9.1582409815
 30
0.0
 10
10.3578875496
 20
9.1582409815
 30
0.0
 10
10.3675902997
 20
9.1589067443
 30
0.0
 10
10.3819338056
 20
9.1618807186
 30
0.0
 10
10.3959203161
 20
9.1667774665
 30
0.0
 10
10.4093916233
 20
9.1735160976
 30
0.0
 10
10.4222160855
 20
9.1819975652
 30
0.0
 10
10.4342809367
 20
9.1921117203
 30
0.0
 10
10.4454898279
 20
9.2037415619
 30
0.0
 10
10.4557582749
 20
9.2167646564
 30
0.0
 10
10.4650107744
 20
9.2310528127
 30
0.0
 10
10.4731791809
 20
9.246471185
 30
0.0
 10
10.4802023298
 20
9.2628774977
 30
0.0
 10
10.4860264172
 20
9.2801217915
 30
0.0
 10
10.4906057627
 20
9.2980467193
 30
0.0
 10
10.4939036916
 20
9.3164883756
 30
0.0
 10
10.4958933575
 20
9.3352775824
 30
0.0
 10
10.4965583895
 20
9.354241495
 30
0.0
 10
10.4958932855
 20
9.3732053921
 30
0.0
 10
10.4939035527
 20
9.3919945563
 30
0.0
 10
10.4906055645
 20
9.4104361463
 30
0.0
 10
10.4860261733
 20
9.4283609876
 30
0.0
 10
10.4802020544
 20
9.4456051771
 30
0.0
 10
10.4731788934
 20
9.4620113709
 30
0.0
 10
10.4650104944
 20
9.4774296205
 30
0.0
 10
10.4557580151
 20
9.4917176644
 30
0.0
 10
10.4454895938
 20
9.5047406637
 30
0.0
 10
10.4342807334
 20
9.5163704286
 30
0.0
 10
10.4222159192
 20
9.5264845172
 30
0.0
 10
10.4093915
 20
9.5349659329
 30
0.0
 10
10.3959202361
 20
9.5417045273
 30
0.0
 10
10.3819337642
 20
9.5466012536
 30
0.0
 10
10.3675902847
 20
9.5495752202
 30
0.0
 10
10.357887547
 20
9.5502409815
 30
0.0
 10
10.3530571856
 20
9.5502409815
 30
0.0
  0
SPLINE
  5
32D
100
AcDbEntity
  8
0
100
AcDbSpline
 62
7
  6
CONTINUOUS
 70
0
 71
3
 72
32
 73
28
 74
0
 42
0.0000001
 43
0.0000001
 44
0.0000000001
 40
0.0
 40
0.0
 40
0.0
 40
0.0
 40
0.0056426569
 40
0.0102642259
 40
0.0138811348
 40
0.0165094158
 40
0.0188622517
 40
0.0202690554
 40
0.0252839413
 40
0.0337581227
 40
0.0455481165
 40
0.0605037015
 40
0.0784674751
 40
0.0992861828
 40
0.1228114995
 40
0.1488950288
 40
0.1773859744
 40
0.208136658
 40
0.2410033566
 40
0.2758476272
 40
0.3509347607
 40
0.4323718347
 40
0.5191555942
 40
0.610252252
 40
0.7046389664
 40
0.8014551584
 40
1.0
 40
1.0
 40
1.0
 40
1.0
 10
10.5204161439
 20
9.2352164942
 30
0.0
 10
10.5204608918
 20
9.2351752022
 30
0.0
 10
10.5205434438
 20
9.2350999087
 30
0.0
 10
10.5206524757
 20
9.2350023189
 30
0.0
 10
10.5207477717
 20
9.2349198018
 30
0.0
 10
10.5208009576
 20
9.2348733822
 30
0.0
 10
10.5209011429
 20
9.2347922049
 30
0.0
 10
10.520791784
 20
9.2348776153
 30
0.0
 10
10.5206891326
 20
9.2349520371
 30
0.0
 10
10.5204510971
 20
9.2351223039
 30
0.0
 10
10.5201427555
 20
9.2353292882
 30
0.0
 10
10.5197339705
 20
9.235591804
 30
0.0
 10
10.5192397734
 20
9.2358930032
 30
0.0
 10
10.5186575421
 20
9.2362301464
 30
0.0
 10
10.5179910768
 20
9.2365952353
 30
0.0
 10
10.5172425224
 20
9.2369826571
 30
0.0
 10
10.5164152592
 20
9.2373869968
 30
0.0
 10
10.5155124022
 20
9.2378028124
 30
0.0
 10
10.514537138
 20
9.2382246274
 30
0.0
 10
10.5131086011
 20
9.2388025751
 30
0.0
 10
10.5111672883
 20
9.2395088896
 30
0.0
 10
10.5086602768
 20
9.2402918226
 30
0.0
 10
10.5059516583
 20
9.2409984092
 30
0.0
 10
10.5030769998
 20
9.2416097754
 30
0.0
 10
10.5000701046
 20
9.2421052734
 30
0.0
 10
10.495891714
 20
9.2425923945
 30
0.0
 10
10.492701904
 20
9.2427409815
 30
0.0
 10
10.4905594584
 20
9.2427409815
 30
0.0
  0
SPLINE
  5
32E
100
AcDbEntity
  8
0
100
AcDbSpline
 62
7
  6
CONTINUOUS
 70
0
 71
3
 72
19
 73
15
 74
0
 42
0.0000001
 43
0.0000001
 44
0.0000000001
 40
0.0
 40
0.0
 40
0.0
 40
0.0
 40
0.1741665884
 40
0.3431221667
 40
0.5036695857
 40
0.6510750287
 40
0.7181856365
 40
0.7800126687
 40
0.8358764786
 40
0.8850717629
 40
0.9268581575
 40
0.9604565115
 40
0.9850906248
 40
1.0
 40
1.0
 40
1.0
 40
1.0
 10
10.4905594584
 20
9.4657409815
 30
0.0
 10
10.492395142
 20
9.4657409815
 30
0.0
 10
10.4960131185
 20
9.4658863143
 30
0.0
 10
10.5012900098
 20
9.4665133202
 30
0.0
 10
10.5062225109
 20
9.4675072488
 30
0.0
 10
10.5100306372
 20
9.4685847896
 30
0.0
 10
10.512778648
 20
9.4695521752
 30
0.0
 10
10.5145893984
 20
9.4702711862
 30
0.0
 10
10.5161979611
 20
9.4709839853
 30
0.0
 10
10.5175867365
 20
9.4716681264
 30
0.0
 10
10.5187414545
 20
9.4722938739
 30
0.0
 10
10.519648405
 20
9.4728318041
 30
0.0
 10
10.5202951835
 20
9.4732516044
 30
0.0
 10
10.520636652
 20
9.4734907726
 30
0.0
 10
10.5207630386
 20
9.4735841539
 30
0.0
  0
SPLINE
  5
32F
100
AcDbEntity
  8
0
100
AcDbSpline
 62
7
  6
CONTINUOUS
 70
0
 71
3
 72
18
 73
14
 74
0
 42
0.0000001
 43
0.0000001
 44
0.0000000001
 40
0.0
 40
0.0
 40
0.0
 40
0.0
 40
0.0596543353
 40
0.1193679469
 40
0.1792292059
 40
0.2393000958
 40
0.2996522239
 40
0.3603580415
 40
0.483040017
 40
0.6079559234
 40
0.7355607166
 40
0.8661850044
 40
1.0
 40
1.0
 40
1.0
 40
1.0
 10
11.4620406912
 20
9.1582409815
 30
0.0
 10
11.4649012161
 20
9.1582409815
 30
0.0
 10
11.470627466
 20
9.1584576752
 30
0.0
 10
11.4791743342
 20
9.1594303951
 30
0.0
 10
11.4876445257
 20
9.161043393
 30
0.0
 10
11.4960014216
 20
9.1632861094
 30
0.0
 10
11.5042116168
 20
9.1661435172
 30
0.0
 10
11.5149562936
 20
9.1707638376
 30
0.0
 10
11.5278966642
 20
9.1780147659
 30
0.0
 10
11.5423439277
 20
9.1888155634
 30
0.0
 10
11.555635141
 20
9.2015628935
 30
0.0
 10
11.5676556978
 20
9.2160640677
 30
0.0
 10
11.5746804641
 20
9.2266521791
 30
0.0
 10
11.5779611464
 20
9.2321667553
 30
0.0
  0
SPLINE
  5
330
100
AcDbEntity
  8
0
100
AcDbSpline
 62
7
  6
CONTINUOUS
 70
0
 71
3
 72
18
 73
14
 74
0
 42
0.0000001
 43
0.0000001
 44
0.0000000001
 40
0.0
 40
0.0
 40
0.0
 40
0.0
 40
0.1338203368
 40
0.2644483804
 40
0.3920550912
 40
0.5169710394
 40
0.6396514509
 40
0.7003560206
 40
0.7607067014
 40
0.8207759785
 40
0.8806354621
 40
0.940347372
 40
1.0
 40
1.0
 40
1.0
 40
1.0
 10
11.5779944568
 20
9.4762591963
 30
0.0
 10
11.574713996
 20
9.4817775807
 30
0.0
 10
11.5676892268
 20
9.4923731278
 30
0.0
 10
11.5556672435
 20
9.5068848986
 30
0.0
 10
11.5423732922
 20
9.5196418414
 30
0.0
 10
11.5279220565
 20
9.5304510344
 30
0.0
 10
11.5149773678
 20
9.5377077826
 30
0.0
 10
11.5042287665
 20
9.5423318726
 30
0.0
 10
11.496015436
 20
9.545191629
 30
0.0
 10
11.4876552197
 20
9.5474362057
 30
0.0
 10
11.4791815575
 20
9.5490505662
 30
0.0
 10
11.4706311079
 20
9.5500240985
 30
0.0
 10
11.4649024287
 20
9.5502409815
 30
0.0
 10
11.4620406912
 20
9.5502409815
 30
0.0
  0
SPLINE
  5
331
100
AcDbEntity
  8
0
100
AcDbSpline
 62
7
  6
CONTINUOUS
 70
0
 71
3
 72
36
 73
32
 74
0
 42
0.0000001
 43
0.0000001
 44
0.0000000001
 40
0.0
 40
0.0
 40
0.0
 40
0.0
 40
0.0018550745
 40
0.0026057281
 40
0.0044334591
 40
0.007306326
 40
0.0111932168
 40
0.0160638997
 40
0.0218880103
 40
0.0286325229
 40
0.0362643385
 40
0.0540602658
 40
0.0750250265
 40
0.0989098536
 40
0.1254677419
 40
0.1544605079
 40
0.1856589562
 40
0.2188393886
 40
0.2537839486
 40
0.2902828231
 40
0.3281359356
 40
0.3671472508
 40
0.4071243557
 40
0.4478804852
 40
0.5309992752
 40
0.615087624
 40
0.6987426671
 40
0.7805467469
 40
0.859053707
 40
0.9327379424
 40
1.0
 40
1.0
 40
1.0
 40
1.0
 10
11.5738394159
 20
9.4736045613
 30
0.0
 10
11.5738138884
 20
9.4736261779
 30
0.0
 10
11.5737285605
 20
9.4736951987
 30
0.0
 10
11.5738177691
 20
9.4736253862
 30
0.0
 10
11.5738836833
 20
9.4735767426
 30
0.0
 10
11.5740156361
 20
9.4734802657
 30
0.0
 10
11.5741843935
 20
9.4733619436
 30
0.0
 10
11.5744030345
 20
9.4732134365
 30
0.0
 10
11.5746658349
 20
9.4730415854
 30
0.0
 10
11.5749739812
 20
9.4728470315
 30
0.0
 10
11.5754694152
 20
9.4725453045
 30
0.0
 10
11.5761947791
 20
9.472128182
 30
0.0
 10
11.5771923567
 20
9.4715978133
 30
0.0
 10
11.5783486808
 20
9.4710308529
 30
0.0
 10
11.5796546542
 20
9.4704419262
 30
0.0
 10
11.5811014633
 20
9.4698465077
 30
0.0
 10
11.5826791007
 20
9.4692576182
 30
0.0
 10
11.5843766983
 20
9.4686858653
 30
0.0
 10
11.5861836245
 20
9.4681423212
 30
0.0
 10
11.5880892311
 20
9.467638119
 30
0.0
 10
11.5900818082
 20
9.4671802367
 30
0.0
 10
11.5921497571
 20
9.4667752497
 30
0.0
 10
11.594281568
 20
9.4664297268
 30
0.0
 10
11.5972127198
 20
9.4660550461
 30
0.0
 10
11.6009541786
 20
9.4657627659
 30
0.0
 10
11.6054805375
 20
9.4657055522
 30
0.0
 10
11.6099771364
 20
9.4659457619
 30
0.0
 10
11.6143488316
 20
9.4664642288
 30
0.0
 10
11.6184995315
 20
9.4672391404
 30
0.0
 10
11.622337435
 20
9.468214257
 30
0.0
 10
11.6247555841
 20
9.4690035714
 30
0.0
 10
11.6258951242
 20
9.4694188697
 30
0.0
  0
SPLINE
  5
332
100
AcDbEntity
  8
0
100
AcDbSpline
 62
7
  6
CONTINUOUS
 70
0
 71
3
 72
25
 73
21
 74
0
 42
0.0000001
 43
0.0000001
 44
0.0000000001
 40
0.0
 40
0.0
 40
0.0
 40
0.0
 40
0.0270715832
 40
0.0541634611
 40
0.0813180438
 40
0.1085767472
 40
0.1359807771
 40
0.1635694186
 40
0.2194229683
 40
0.2764444593
 40
0.33486267
 40
0.3948467986
 40
0.4564978199
 40
0.519845979
 40
0.5848505274
 40
0.6514050903
 40
0.7193445973
 40
0.7884537742
 40
0.8584763657
 40
1.0
 40
1.0
 40
1.0
 40
1.0
 10
11.7453932226
 20
9.5501723201
 30
0.0
 10
11.7429407821
 20
9.5502605491
 30
0.0
 10
11.7380262167
 20
9.5502668262
 30
0.0
 10
11.7306663219
 20
9.5497637737
 30
0.0
 10
11.7233416393
 20
9.5487511648
 30
0.0
 10
11.7160761425
 20
9.5472332375
 30
0.0
 10
11.7088917833
 20
9.5452172048
 30
0.0
 10
11.6994132375
 20
9.5418635925
 30
0.0
 10
11.6878489635
 20
9.5364450188
 30
0.0
 10
11.6746798963
 20
9.5281496294
 30
0.0
 10
11.6622748747
 20
9.5181458905
 30
0.0
 10
11.6507395731
 20
9.5065561541
 30
0.0
 10
11.6401637897
 20
9.4935080978
 30
0.0
 10
11.6306280915
 20
9.4791355042
 30
0.0
 10
11.6222048068
 20
9.4635791178
 30
0.0
 10
11.6149588925
 20
9.4469873386
 30
0.0
 10
11.6089475787
 20
9.4295174597
 30
0.0
 10
11.6042191621
 20
9.4113319095
 30
0.0
 10
11.5996632315
 20
9.3862858058
 30
0.0
 10
11.5983002703
 20
9.3670700368
 30
0.0
 10
11.5983002703
 20
9.3542409815
 30
0.0
  0
SPLINE
  5
333
100
AcDbEntity
  8
0
100
AcDbSpline
 62
7
  6
CONTINUOUS
 70
0
 71
3
 72
21
 73
17
 74
0
 42
0.0000001
 43
0.0000001
 44
0.0000000001
 40
0.0
 40
0.0
 40
0.0
 40
0.0
 40
0.1349080837
 40
0.2879305588
 40
0.4485818385
 40
0.5287038908
 40
0.6070108321
 40
0.6822339413
 40
0.7530351224
 40
0.8180162511
 40
0.8756767406
 40
0.9244239543
 40
0.9625709093
 40
0.9883595042
 40
0.9960625642
 40
1.0
 40
1.0
 40
1.0
 40
1.0
 10
11.6258230026
 20
9.2390896443
 30
0.0
 10
11.6235453092
 20
9.2399157149
 30
0.0
 10
11.6185599309
 20
9.2413481445
 30
0.0
 10
11.6105834993
 20
9.2426081543
 30
0.0
 10
11.6034945411
 20
9.2428435265
 30
0.0
 10
11.5977716233
 20
9.2424960806
 30
0.0
 10
11.5936039798
 20
9.2419823479
 30
0.0
 10
11.5896422289
 20
9.2412360891
 30
0.0
 10
11.585965773
 20
9.2403069603
 30
0.0
 10
11.5826565955
 20
9.239241799
 30
0.0
 10
11.5797876882
 20
9.2381210826
 30
0.0
 10
11.577432613
 20
9.2370245707
 30
0.0
 10
11.5756519576
 20
9.2360604287
 30
0.0
 10
11.5745591302
 20
9.2353796787
 30
0.0
 10
11.5740066939
 20
9.2349965612
 30
0.0
 10
11.573838463
 20
9.2348723788
 30
0.0
 10
11.5737825675
 20
9.2348290642
 30
0.0
  0
SPLINE
  5
334
100
AcDbEntity
  8
0
100
AcDbSpline
 62
7
  6
CONTINUOUS
 70
0
 71
3
 72
22
 73
18
 74
0
 42
0.0000001
 43
0.0000001
 44
0.0000000001
 40
0.0
 40
0.0
 40
0.0
 40
0.0
 40
0.1415281712
 40
0.2115536408
 40
0.2806665053
 40
0.348610641
 40
0.4151710158
 40
0.4801824117
 40
0.5435385208
 40
0.6051985202
 40
0.6651920562
 40
0.7236197753
 40
0.7806503227
 40
0.8365119664
 40
0.8914808812
 40
0.945866899
 40
1.0
 40
1.0
 40
1.0
 40
1.0
 10
11.5983002703
 20
9.3542409815
 30
0.0
 10
11.5983002703
 20
9.3414184007
 30
0.0
 10
11.5996618612
 20
9.3222123137
 30
0.0
 10
11.6042131949
 20
9.2971782565
 30
0.0
 10
11.6089368848
 20
9.2790008712
 30
0.0
 10
11.6149422502
 20
9.2615381016
 30
0.0
 10
11.622181079
 20
9.2449521498
 30
0.0
 10
11.6305962506
 20
9.2294000795
 30
0.0
 10
11.6401229489
 20
9.2150300751
 30
0.0
 10
11.6506889421
 20
9.2019826953
 30
0.0
 10
11.6622139804
 20
9.1903915179
 30
0.0
 10
11.6746079074
 20
9.1803841768
 30
0.0
 10
11.6877672189
 20
9.1720824311
 30
0.0
 10
11.70157011
 20
9.1656002144
 30
0.0
 10
11.7158739137
 20
9.16103849
 30
0.0
 10
11.730507881
 20
9.1584765963
 30
0.0
 10
11.7403713511
 20
9.1581346004
 30
0.0
 10
11.7452728855
 20
9.1583053655
 30
0.0
  0
SPLINE
  5
335
100
AcDbEntity
  8
0
100
AcDbSpline
 62
7
  6
CONTINUOUS
 70
0
 71
3
 72
19
 73
15
 74
0
 42
0.0000001
 43
0.0000001
 44
0.0000000001
 40
0.0
 40
0.0
 40
0.0
 40
0.0
 40
0.1361693836
 40
0.2683762963
 40
0.3330786093
 40
0.3968859844
 40
0.5219751112
 40
0.6441662469
 40
0.7043828399
 40
0.7641097756
 40
0.8234377918
 40
0.8824623763
 40
0.9412826011
 40
1.0
 40
1.0
 40
1.0
 40
1.0
 10
11.4978609471
 20
5.973485281
 30
0.0
 10
11.5076917642
 20
5.9647188717
 30
0.0
 10
11.5263508803
 20
5.94661504
 30
0.0
 10
11.5473797042
 20
5.9221397026
 30
0.0
 10
11.5623887195
 20
5.9018613301
 30
0.0
 10
11.5759947735
 20
5.881439482
 30
0.0
 10
11.5907639431
 20
5.8551559111
 30
0.0
 10
11.6025040563
 20
5.8277565577
 30
0.0
 10
11.6098887572
 20
5.8055181575
 30
0.0
 10
11.6144132814
 20
5.7887675843
 30
0.0
 10
11.6179405185
 20
5.771897078
 30
0.0
 10
11.6204647508
 20
5.754935867
 30
0.0
 10
11.6219810202
 20
5.7379148616
 30
0.0
 10
11.6223183317
 20
5.7265425043
 30
0.0
 10
11.6223183042
 20
5.7208627351
 30
0.0
  0
SPLINE
  5
336
100
AcDbEntity
  8
0
100
AcDbSpline
 62
7
  6
CONTINUOUS
 70
0
 71
3
 72
35
 73
31
 74
0
 42
0.0000001
 43
0.0000001
 44
0.0000000001
 40
0.0
 40
0.0
 40
0.0
 40
0.0
 40
0.0667176644
 40
0.1007491132
 40
0.1351402801
 40
0.2047095938
 40
0.2397643529
 40
0.2748942188
 40
0.3450599589
 40
0.3799653394
 40
0.4146486663
 40
0.483051134
 40
0.5166608146
 40
0.5497904947
 40
0.58238814
 40
0.6144084728
 40
0.6458138709
 40
0.676575301
 40
0.7066732559
 40
0.7360986296
 40
0.7648536282
 40
0.7929524659
 40
0.8204220089
 40
0.8473021419
 40
0.8736458143
 40
0.8995187378
 40
0.9249985
 40
0.9501732109
 40
0.9751394943
 40
1.0
 40
1.0
 40
1.0
 40
1.0
 10
11.3348183383
 20
4.7040682103
 30
0.0
 10
11.3127711879
 20
4.6950674988
 30
0.0
 10
11.2787204984
 20
4.6832493467
 30
0.0
 10
11.2320911376
 20
4.6708542242
 30
0.0
 10
11.1839141199
 20
4.6605316537
 30
0.0
 10
11.1346883295
 20
4.6536381951
 30
0.0
 10
11.0849118214
 20
4.6501753117
 30
0.0
 10
11.0348152097
 20
4.6490168746
 30
0.0
 10
10.984741193
 20
4.6513276833
 30
0.0
 10
10.935179024
 20
4.6571075381
 30
0.0
 10
10.8865663834
 20
4.6651136123
 30
0.0
 10
10.8390212566
 20
4.6764744969
 30
0.0
 10
10.7930644508
 20
4.6911811518
 30
0.0
 10
10.7598770783
 20
4.7037094088
 30
0.0
 10
10.727917404
 20
4.7177448573
 30
0.0
 10
10.6973205333
 20
4.7332284543
 30
0.0
 10
10.6682174134
 20
4.750094554
 30
0.0
 10
10.6407322792
 20
4.7682718798
 30
0.0
 10
10.6149827027
 20
4.7876836515
 30
0.0
 10
10.591078982
 20
4.8082479372
 30
0.0
 10
10.5691237699
 20
4.8298779509
 30
0.0
 10
10.5492117013
 20
4.8524824033
 30
0.0
 10
10.5314290746
 20
4.8759657976
 30
0.0
 10
10.5158534962
 20
4.9002287004
 30
0.0
 10
10.5025535582
 20
4.9251679963
 30
0.0
 10
10.4915884601
 20
4.950677234
 30
0.0
 10
10.4830075576
 20
4.9766465604
 30
0.0
 10
10.4768498981
 20
5.0029644193
 30
0.0
 10
10.4731438502
 20
5.0295131942
 30
0.0
 10
10.4723183442
 20
5.0473088602
 30
0.0
 10
10.4723183791
 20
5.0561823608
 30
0.0
  0
SPLINE
  5
337
100
AcDbEntity
  8
0
100
AcDbSpline
 62
7
  6
CONTINUOUS
 70
0
 71
3
 72
31
 73
27
 74
0
 42
0.0000001
 43
0.0000001
 44
0.0000000001
 40
0.0
 40
0.0
 40
0.0
 40
0.0
 40
0.0667240216
 40
0.1007584923
 40
0.1351529054
 40
0.2047287181
 40
0.2749010157
 40
0.3450733123
 40
0.4146491584
 40
0.4830580044
 40
0.5166708272
 40
0.5498036148
 40
0.6144034231
 40
0.6458117474
 40
0.6765760532
 40
0.7360739828
 40
0.7648316575
 40
0.7929331198
 40
0.8204052338
 40
0.8472878744
 40
0.8736340153
 40
0.8995093432
 40
0.9249914854
 40
0.9501685501
 40
0.9751371661
 40
1.0
 40
1.0
 40
1.0
 40
1.0
 10
11.2785683383
 20
5.423498348
 30
0.0
 10
11.2608347278
 20
5.4162586318
 30
0.0
 10
11.2334460559
 20
5.4067527122
 30
0.0
 10
11.195940051
 20
5.3967827836
 30
0.0
 10
11.1571880826
 20
5.388479688
 30
0.0
 10
11.1076002868
 20
5.3815354834
 30
0.0
 10
11.0473189371
 20
5.3787538479
 30
0.0
 10
10.9870339996
 20
5.3815358145
 30
0.0
 10
10.9277710299
 20
5.3898347652
 30
0.0
 10
10.8797763358
 20
5.4013030796
 30
0.0
 10
10.8428088095
 20
5.4131330258
 30
0.0
 10
10.807521882
 20
5.4264537968
 30
0.0
 10
10.7738919098
 20
5.4422627959
 30
0.0
 10
10.7423888808
 20
5.4605200091
 30
0.0
 10
10.7132432508
 20
5.4797948017
 30
0.0
 10
10.6864943771
 20
5.5012346491
 30
0.0
 10
10.6626841052
 20
5.5246926849
 30
0.0
 10
10.6466672223
 20
5.5428751056
 30
0.0
 10
10.632363969
 20
5.5617637679
 30
0.0
 10
10.6198357293
 20
5.5812796145
 30
0.0
 10
10.6091379716
 20
5.6013394746
 30
0.0
 10
10.6003182456
 20
5.6218577879
 30
0.0
 10
10.5934162208
 20
5.6427461559
 30
0.0
 10
10.5884633026
 20
5.6639148631
 30
0.0
 10
10.585482297
 20
5.6852693097
 30
0.0
 10
10.5848183383
 20
5.6995832169
 30
0.0
 10
10.5848183383
 20
5.7067205995
 30
0.0
  0
LINE
  5
338
100
AcDbEntity
  8
0
100
AcDbLine
 62
7
  6
CONTINUOUS
 10
11.0468034287
 20
5.6342424039
 11
11.0472652536
 21
5.634242169
  0
SPLINE
  5
339
100
AcDbEntity
  8
0
100
AcDbSpline
 62
7
  6
CONTINUOUS
 70
0
 71
3
 72
18
 73
14
 74
0
 42
0.0000001
 43
0.0000001
 44
0.0000000001
 40
0.0
 40
0.0
 40
0.0
 40
0.0
 40
0.0536646645
 40
0.1086771422
 40
0.1650613339
 40
0.2228258139
 40
0.3423484229
 40
0.4040643308
 40
0.4669726706
 40
0.5959545949
 40
0.7284801215
 40
0.8635330919
 40
1.0
 40
1.0
 40
1.0
 40
1.0
 10
10.6953467171
 20
6.1539231792
 30
0.0
 10
10.6998293661
 20
6.1486013989
 30
0.0
 10
10.7093207895
 20
6.1381661133
 30
0.0
 10
10.724829027
 20
6.1233936679
 30
0.0
 10
10.7417180909
 20
6.1093728443
 30
0.0
 10
10.766251388
 20
6.0915661645
 30
0.0
 10
10.7930047172
 20
6.0757541903
 30
0.0
 10
10.8215282295
 20
6.061998524
 30
0.0
 10
10.8518987007
 20
6.0493539577
 30
0.0
 10
10.8919750788
 20
6.0363148619
 30
0.0
 10
10.9422873019
 20
6.0253300612
 30
0.0
 10
10.9943754382
 20
6.0190734694
 30
0.0
 10
11.0296275209
 20
6.0181394096
 30
0.0
 10
11.0473183383
 20
6.018485709
 30
0.0
  0
SPLINE
  5
33A
100
AcDbEntity
  8
0
100
AcDbSpline
 62
7
  6
CONTINUOUS
 70
0
 71
3
 72
13
 73
9
 74
0
 42
0.0000001
 43
0.0000001
 44
0.0000000001
 40
0.0
 40
0.0
 40
0.0
 40
0.0
 40
0.2570960815
 40
0.3848622589
 40
0.5115327155
 40
0.6367268637
 40
0.7600943015
 40
1.0
 40
1.0
 40
1.0
 40
1.0
 10
11.0473183383
 20
5.9686677121
 30
0.0
 10
11.0692918968
 20
5.9690959098
 30
0.0
 10
11.1021913304
 20
5.9716227522
 30
0.0
 10
11.1453507074
 20
5.9787589322
 30
0.0
 10
11.1770199838
 20
5.9859377706
 30
0.0
 10
11.2078386576
 20
5.9949116893
 30
0.0
 10
11.2471428238
 20
6.0090578993
 30
0.0
 10
11.2753376558
 20
6.0223630839
 30
0.0
 10
11.2932147454
 20
6.0324127958
 30
0.0
  0
SPLINE
  5
33B
100
AcDbEntity
  8
0
100
AcDbSpline
 62
7
  6
CONTINUOUS
 70
0
 71
3
 72
19
 73
15
 74
0
 42
0.0000001
 43
0.0000001
 44
0.0000000001
 40
0.0
 40
0.0
 40
0.0
 40
0.0
 40
0.1403553928
 40
0.2758361172
 40
0.4063274588
 40
0.5319870664
 40
0.5931702132
 40
0.6533407816
 40
0.7126021951
 40
0.7710751753
 40
0.8288962267
 40
0.8862154956
 40
0.9431939087
 40
1.0
 40
1.0
 40
1.0
 40
1.0
 10
11.2932147454
 20
6.0324127958
 30
0.0
 10
11.3054118815
 20
6.0392694881
 30
0.0
 10
11.3287461651
 20
6.0539249624
 30
0.0
 10
11.3606354059
 20
6.0790325694
 30
0.0
 10
11.3884157383
 20
6.1065933827
 30
0.0
 10
11.4080070221
 20
6.131555993
 30
0.0
 10
11.4211852444
 20
6.1523778667
 30
0.0
 10
11.4297463164
 20
6.1682357571
 30
0.0
 10
11.4370405632
 20
6.1844190132
 30
0.0
 10
11.4430433468
 20
6.200876203
 30
0.0
 10
11.4477339137
 20
6.2175537584
 30
0.0
 10
11.4510961943
 20
6.2343978449
 30
0.0
 10
11.4531182329
 20
6.2513521249
 30
0.0
 10
11.4535682822
 20
6.2627006254
 30
0.0
 10
11.4535682822
 20
6.2683637328
 30
0.0
  0
SPLINE
  5
33C
100
AcDbEntity
  8
0
100
AcDbSpline
 62
7
  6
CONTINUOUS
 70
0
 71
3
 72
22
 73
18
 74
0
 42
0.0000001
 43
0.0000001
 44
0.0000000001
 40
0.0
 40
0.0
 40
0.0
 40
0.0
 40
0.1412686529
 40
0.2113614685
 40
0.2807069308
 40
0.3490549957
 40
0.4161795446
 40
0.4818849006
 40
0.5460121492
 40
0.608445636
 40
0.6691191783
 40
0.7280222936
 40
0.7852051618
 40
0.8407826372
 40
0.8949352676
 40
0.9479073279
 40
1.0
 40
1.0
 40
1.0
 40
1.0
 10
11.0473183383
 20
6.018485709
 30
0.0
 10
11.0717002555
 20
6.0189629874
 30
0.0
 10
11.1081930833
 20
6.0219970611
 30
0.0
 10
11.1558904604
 20
6.030677311
 30
0.0
 10
11.190707917
 20
6.0394190639
 30
0.0
 10
11.2243639903
 20
6.0503424194
 30
0.0
 10
11.2565900837
 20
6.0633663026
 30
0.0
 10
11.2871248343
 20
6.0783923592
 30
0.0
 10
11.3157215008
 20
6.0953067032
 30
0.0
 10
11.3421483837
 20
6.11398062
 30
0.0
 10
11.3661907863
 20
6.134271746
 30
0.0
 10
11.3876522923
 20
6.1560249874
 30
0.0
 10
11.4063560619
 20
6.1790736917
 30
0.0
 10
11.4221457859
 20
6.2032397247
 30
0.0
 10
11.4348873688
 20
6.2283365005
 30
0.0
 10
11.4444689342
 20
6.2541607517
 30
0.0
 10
11.4487213164
 20
6.2718460978
 30
0.0
 10
11.4502811729
 20
6.2807023067
 30
0.0
  0
SPLINE
  5
33D
100
AcDbEntity
  8
0
100
AcDbSpline
 62
7
  6
CONTINUOUS
 70
0
 71
3
 72
24
 73
20
 74
0
 42
0.0000001
 43
0.0000001
 44
0.0000000001
 40
0.0
 40
0.0
 40
0.0
 40
0.0
 40
0.1415172335
 40
0.2117199145
 40
0.2811568633
 40
0.3495729789
 40
0.4167381872
 40
0.4824542832
 40
0.5465616116
 40
0.6089457733
 40
0.6695442207
 40
0.7283526261
 40
0.7854299873
 40
0.840902595
 40
0.8949646269
 40
0.9215568844
 40
0.9478989003
 40
0.9740319147
 40
1.0
 40
1.0
 40
1.0
 40
1.0
 10
11.0473183383
 20
6.0681446871
 30
0.0
 10
11.0719702932
 20
6.0686259165
 30
0.0
 10
11.1088659632
 20
6.071717958
 30
0.0
 10
11.1570687513
 20
6.0805796117
 30
0.0
 10
11.1922331723
 20
6.0895055264
 30
0.0
 10
11.2261977346
 20
6.1006589312
 30
0.0
 10
11.2586853618
 20
6.1139551491
 30
0.0
 10
11.2894267066
 20
6.1292914988
 30
0.0
 10
11.3181678127
 20
6.1465491464
 30
0.0
 10
11.3446705749
 20
6.1655938426
 30
0.0
 10
11.3687147946
 20
6.1862772421
 30
0.0
 10
11.3900994111
 20
6.2084375783
 30
0.0
 10
11.4086441988
 20
6.2319019256
 30
0.0
 10
11.4241894966
 20
6.2564824813
 30
0.0
 10
11.4345914924
 20
6.2778600604
 30
0.0
 10
11.4412484579
 20
6.2952827625
 30
0.0
 10
11.4453951901
 20
6.3084289083
 30
0.0
 10
11.4487123267
 20
6.3216956621
 30
0.0
 10
11.450370991
 20
6.3306274252
 30
0.0
 10
11.4510581858
 20
6.3350993719
 30
0.0
  0
SPLINE
  5
33E
100
AcDbEntity
  8
0
100
AcDbSpline
 62
7
  6
CONTINUOUS
 70
0
 71
3
 72
11
 73
7
 74
0
 42
0.0000001
 43
0.0000001
 44
0.0000000001
 40
0.0
 40
0.0
 40
0.0
 40
0.0
 40
0.2552143923
 40
0.506573257
 40
0.7546287304
 40
1.0
 40
1.0
 40
1.0
 40
1.0
 10
11.4966621919
 20
9.5448440936
 30
0.0
 10
11.4941687528
 20
9.5462403427
 30
0.0
 10
11.4891216493
 20
9.5488413684
 30
0.0
 10
11.4813448146
 20
9.5521648427
 30
0.0
 10
11.4734472456
 20
9.5548675628
 30
0.0
 10
11.4680928565
 20
9.5562561982
 30
0.0
 10
11.4654085294
 20
9.5568421461
 30
0.0
  0
SPLINE
  5
33F
100
AcDbEntity
  8
0
100
AcDbSpline
 62
7
  6
CONTINUOUS
 70
0
 71
3
 72
11
 73
7
 74
0
 42
0.0000001
 43
0.0000001
 44
0.0000000001
 40
0.0
 40
0.0
 40
0.0
 40
0.0
 40
0.2552134599
 40
0.5065721011
 40
0.754627935
 40
1.0
 40
1.0
 40
1.0
 40
1.0
 10
11.4966581588
 20
9.1636356109
 30
0.0
 10
11.4941650196
 20
9.1622396519
 30
0.0
 10
11.4891185361
 20
9.1596391588
 30
0.0
 10
11.4813426991
 20
9.1563163366
 30
0.0
 10
11.473446167
 20
9.1536141054
 30
0.0
 10
11.4680924961
 20
9.152225686
 30
0.0
 10
11.4654085294
 20
9.1516398168
 30
0.0
  0
SPLINE
  5
340
100
AcDbEntity
  8
0
100
AcDbSpline
 62
9
  6
CONTINUOUS
 70
0
 71
3
 72
21
 73
17
 74
0
 42
0.0000001
 43
0.0000001
 44
0.0000000001
 40
0.0
 40
0.0
 40
0.0
 40
0.0
 40
0.1419120358
 40
0.2122279442
 40
0.2817577433
 40
0.4174365231
 40
0.4832548866
 40
0.5474776445
 40
0.609984903
 40
0.6707007867
 40
0.7295991988
 40
0.7867101221
 40
0.8421231043
 40
0.8959897145
 40
0.9485243717
 40
1.0
 40
1.0
 40
1.0
 40
1.0
 10
11.6229784036
 20
9.3542409815
 30
0.0
 10
11.6229784036
 20
9.3437457876
 30
0.0
 10
11.6239433523
 20
9.3280270312
 30
0.0
 10
11.6271676883
 20
9.307429599
 30
0.0
 10
11.6315974132
 20
9.2875295711
 30
0.0
 10
11.6378525208
 20
9.2684092764
 30
0.0
 10
11.6459180588
 20
9.2504740119
 30
0.0
 10
11.6527067714
 20
9.2379402091
 30
0.0
 10
11.6602430527
 20
9.2262876195
 30
0.0
 10
11.6684714023
 20
9.2156039429
 30
0.0
 10
11.6773308493
 20
9.2059710962
 30
0.0
 10
11.6867554378
 20
9.1974627425
 30
0.0
 10
11.6966749723
 20
9.1901449804
 30
0.0
 10
11.707016159
 20
9.1840757935
 30
0.0
 10
11.7176985982
 20
9.179304491
 30
0.0
 10
11.7250581032
 20
9.1769949087
 30
0.0
 10
11.7287526674
 20
9.1760768791
 30
0.0
  0
SPLINE
  5
341
100
AcDbEntity
  8
0
100
AcDbSpline
 62
9
  6
CONTINUOUS
 70
0
 71
3
 72
21
 73
17
 74
0
 42
0.0000001
 43
0.0000001
 44
0.0000000001
 40
0.0
 40
0.0
 40
0.0
 40
0.0
 40
0.1419193614
 40
0.2122385335
 40
0.2817711146
 40
0.4174534295
 40
0.4832724294
 40
0.5474949901
 40
0.6100012319
 40
0.6707153519
 40
0.7296113808
 40
0.7867194944
 40
0.8421295063
 40
0.8959933112
 40
0.9485256988
 40
1.0
 40
1.0
 40
1.0
 40
1.0
 10
11.6229784036
 20
9.3542409815
 30
0.0
 10
11.6229784036
 20
9.3647392022
 30
0.0
 10
11.6239439066
 20
9.3804624786
 30
0.0
 10
11.6271701006
 20
9.4010656247
 30
0.0
 10
11.6316023282
 20
9.4209707731
 30
0.0
 10
11.6378609341
 20
9.4400955312
 30
0.0
 10
11.6459309337
 20
9.4580342289
 30
0.0
 10
11.652723296
 20
9.470569857
 30
0.0
 10
11.6602635384
 20
9.4822235497
 30
0.0
 10
11.6684960972
 20
9.4929075496
 30
0.0
 10
11.6773599388
 20
9.5025398867
 30
0.0
 10
11.6867890382
 20
9.5110468552
 30
0.0
 10
11.6967131229
 20
9.5183623284
 30
0.0
 10
11.7070588219
 20
9.5244283026
 30
0.0
 10
11.7177456536
 20
9.5291954532
 30
0.0
 10
11.7251078913
 20
9.531501596
 30
0.0
 10
11.7288037458
 20
9.5324177607
 30
0.0
  0
SPLINE
  5
342
100
AcDbEntity
  8
0
100
AcDbSpline
 62
7
  6
CONTINUOUS
 70
0
 71
3
 72
22
 73
18
 74
0
 42
0.0000001
 43
0.0000001
 44
0.0000000001
 40
0.0
 40
0.0
 40
0.0
 40
0.0
 40
0.1432550106
 40
0.2141647928
 40
0.2841943073
 40
0.3530748883
 40
0.4205693323
 40
0.4864738896
 40
0.5506250151
 40
0.6129073557
 40
0.6732610693
 40
0.7316891613
 40
0.7882632739
 40
0.8431278772
 40
0.8965017653
 40
0.948675065
 40
1.0
 40
1.0
 40
1.0
 40
1.0
 10
11.6171821352
 20
9.3542409815
 30
0.0
 10
11.6171821352
 20
9.3426727838
 30
0.0
 10
11.6183032454
 20
9.3253491799
 30
0.0
 10
11.6220499687
 20
9.3026958338
 30
0.0
 10
11.6259387555
 20
9.2861899992
 30
0.0
 10
11.6308828995
 20
9.2702582148
 30
0.0
 10
11.636841114
 20
9.2550331288
 30
0.0
 10
11.6437637583
 20
9.2406431848
 30
0.0
 10
11.6515935412
 20
9.2272094342
 30
0.0
 10
11.6602658698
 20
9.2148453044
 30
0.0
 10
11.6697092473
 20
9.2036554348
 30
0.0
 10
11.6798458355
 20
9.1937350331
 30
0.0
 10
11.6905922235
 20
9.18516947
 30
0.0
 10
11.7018593731
 20
9.1780338898
 30
0.0
 10
11.7135539135
 20
9.1723921812
 30
0.0
 10
11.7255738295
 20
9.1682966579
 30
0.0
 10
11.7337876888
 20
9.1666124533
 30
0.0
 10
11.7378933422
 20
9.1660454868
 30
0.0
  0
SPLINE
  5
343
100
AcDbEntity
  8
0
100
AcDbSpline
 62
7
  6
CONTINUOUS
 70
0
 71
3
 72
22
 73
18
 74
0
 42
0.0000001
 43
0.0000001
 44
0.0000000001
 40
0.0
 40
0.0
 40
0.0
 40
0.0
 40
0.1432622031
 40
0.2141751483
 40
0.2842072955
 40
0.3530898375
 40
0.4205854653
 40
0.4864903586
 40
0.550640955
 40
0.612921942
 40
0.6732735806
 40
0.7316990555
 40
0.788270267
 40
0.8431320186
 40
0.8965034976
 40
0.9486752681
 40
1.0
 40
1.0
 40
1.0
 40
1.0
 10
11.6171821352
 20
9.3542409815
 30
0.0
 10
11.6171821352
 20
9.3658124322
 30
0.0
 10
11.6183038733
 20
9.3831408928
 30
0.0
 10
11.6220527009
 20
9.4058003379
 30
0.0
 10
11.6259436465
 20
9.4223103415
 30
0.0
 10
11.6308905034
 20
9.4382458168
 30
0.0
 10
11.6368519404
 20
9.4534740105
 30
0.0
 10
11.6437782626
 20
9.4678663802
 30
0.0
 10
11.6516121164
 20
9.4813017864
 30
0.0
 10
11.6602888387
 20
9.4936667239
 30
0.0
 10
11.6697368603
 20
9.5048564843
 30
0.0
 10
11.6798782609
 20
9.5147758048
 30
0.0
 10
11.6906295435
 20
9.5233392719
 30
0.0
 10
11.7019015762
 20
9.5304717139
 30
0.0
 10
11.7136008943
 20
9.5361092212
 30
0.0
 10
11.7256253757
 20
9.5401994825
 30
0.0
 10
11.733841961
 20
9.5418794347
 30
0.0
 10
11.7379488774
 20
9.5424441287
 30
0.0
  0
SPLINE
  5
344
100
AcDbEntity
  8
0
100
AcDbSpline
 62
9
  6
CONTINUOUS
 70
0
 71
3
 72
13
 73
9
 74
0
 42
0.0000001
 43
0.0000001
 44
0.0000000001
 40
0.0
 40
0.0
 40
0.0
 40
0.0
 40
0.2618230863
 40
0.391213992
 40
0.5187368078
 40
0.6438374849
 40
0.7660355768
 40
1.0
 40
1.0
 40
1.0
 40
1.0
 10
11.6674507505
 20
9.3542409815
 30
0.0
 10
11.6674507505
 20
9.3393761811
 30
0.0
 10
11.6690035079
 20
9.3171213315
 30
0.0
 10
11.6741951482
 20
9.2881133768
 30
0.0
 10
11.6795732571
 20
9.2670807386
 30
0.0
 10
11.6864000503
 20
9.2469001237
 30
0.0
 10
11.6971780066
 20
9.2217752737
 30
0.0
 10
11.7074358264
 20
9.2041890045
 30
0.0
 10
11.7152040159
 20
9.1934141626
 30
0.0
  0
SPLINE
  5
345
100
AcDbEntity
  8
0
100
AcDbSpline
 62
9
  6
CONTINUOUS
 70
0
 71
3
 72
13
 73
9
 74
0
 42
0.0000001
 43
0.0000001
 44
0.0000000001
 40
0.0
 40
0.0
 40
0.0
 40
0.0
 40
0.2618248564
 40
0.3912136006
 40
0.5187369386
 40
0.6438378539
 40
0.7660356666
 40
1.0
 40
1.0
 40
1.0
 40
1.0
 10
11.6500490361
 20
9.3542409815
 30
0.0
 10
11.6500490361
 20
9.3431690396
 30
0.0
 10
11.6512055719
 20
9.3265927947
 30
0.0
 10
11.6550725817
 20
9.3049865804
 30
0.0
 10
11.6590782998
 20
9.289320713
 30
0.0
 10
11.6641631301
 20
9.2742893865
 30
0.0
 10
11.672191162
 20
9.2555755546
 30
0.0
 10
11.6798312862
 20
9.2424764598
 30
0.0
 10
11.6856175157
 20
9.2344510888
 30
0.0
  0
SPLINE
  5
346
100
AcDbEntity
  8
0
100
AcDbSpline
 62
9
  6
CONTINUOUS
 70
0
 71
3
 72
13
 73
9
 74
0
 42
0.0000001
 43
0.0000001
 44
0.0000000001
 40
0.0
 40
0.0
 40
0.0
 40
0.0
 40
0.2618230863
 40
0.391213992
 40
0.5187368078
 40
0.6438374849
 40
0.7660355768
 40
1.0
 40
1.0
 40
1.0
 40
1.0
 10
11.6674507505
 20
9.3542409815
 30
0.0
 10
11.6674507505
 20
9.3691057819
 30
0.0
 10
11.6690035079
 20
9.3913606314
 30
0.0
 10
11.6741951482
 20
9.4203685862
 30
0.0
 10
11.6795732571
 20
9.4414012243
 30
0.0
 10
11.6864000503
 20
9.4615818392
 30
0.0
 10
11.6971780066
 20
9.4867066892
 30
0.0
 10
11.7074358264
 20
9.5042929584
 30
0.0
 10
11.7152040159
 20
9.5150678003
 30
0.0
  0
SPLINE
  5
347
100
AcDbEntity
  8
0
100
AcDbSpline
 62
9
  6
CONTINUOUS
 70
0
 71
3
 72
13
 73
9
 74
0
 42
0.0000001
 43
0.0000001
 44
0.0000000001
 40
0.0
 40
0.0
 40
0.0
 40
0.0
 40
0.2618248564
 40
0.3912136006
 40
0.5187369386
 40
0.6438378539
 40
0.7660356666
 40
1.0
 40
1.0
 40
1.0
 40
1.0
 10
11.6500490361
 20
9.3542409815
 30
0.0
 10
11.6500490361
 20
9.3653129233
 30
0.0
 10
11.6512055719
 20
9.3818891682
 30
0.0
 10
11.6550725817
 20
9.4034953825
 30
0.0
 10
11.6590782998
 20
9.41916125
 30
0.0
 10
11.6641631301
 20
9.4341925764
 30
0.0
 10
11.672191162
 20
9.4529064083
 30
0.0
 10
11.6798312862
 20
9.4660055032
 30
0.0
 10
11.6856175157
 20
9.4740308742
 30
0.0
  0
SPLINE
  5
348
100
AcDbEntity
  8
0
100
AcDbSpline
 62
9
  6
CONTINUOUS
 70
0
 71
3
 72
21
 73
17
 74
0
 42
0.0000001
 43
0.0000001
 44
0.0000000001
 40
0.0
 40
0.0
 40
0.0
 40
0.0
 40
0.058428242
 40
0.1164153189
 40
0.1742010409
 40
0.2320310615
 40
0.2901495389
 40
0.3487925421
 40
0.408180647
 40
0.4685142256
 40
0.5299684922
 40
0.5926906579
 40
0.7222922176
 40
0.7894036722
 40
0.8580733903
 40
1.0
 40
1.0
 40
1.0
 40
1.0
 10
11.453524337
 20
9.5377585585
 30
0.0
 10
11.4563351782
 20
9.538499435
 30
0.0
 10
11.4620048125
 20
9.5397272017
 30
0.0
 10
11.4706186539
 20
9.5407825372
 30
0.0
 10
11.4792641595
 20
9.541039302
 30
0.0
 10
11.4879026807
 20
9.5404950531
 30
0.0
 10
11.4964967105
 20
9.5391532215
 30
0.0
 10
11.5050086514
 20
9.5370193801
 30
0.0
 10
11.5134017188
 20
9.5341036262
 30
0.0
 10
11.521639632
 20
9.5304191908
 30
0.0
 10
11.5296875601
 20
9.5259819565
 30
0.0
 10
11.5402303838
 20
9.5190158783
 30
0.0
 10
11.5501428345
 20
9.5106630383
 30
0.0
 10
11.5593074102
 20
9.5011488615
 30
0.0
 10
11.5682124512
 20
9.4905745674
 30
0.0
 10
11.5741746707
 20
9.4819170786
 30
0.0
 10
11.5778402812
 20
9.4758821693
 30
0.0
  0
SPLINE
  5
349
100
AcDbEntity
  8
0
100
AcDbSpline
 62
9
  6
CONTINUOUS
 70
0
 71
3
 72
21
 73
17
 74
0
 42
0.0000001
 43
0.0000001
 44
0.0000000001
 40
0.0
 40
0.0
 40
0.0
 40
0.0
 40
0.1419174856
 40
0.210583219
 40
0.2776912744
 40
0.4072882845
 40
0.4700094178
 40
0.5314635355
 40
0.5917978458
 40
0.6511875098
 40
0.7098328173
 40
0.7679542219
 40
0.8257876437
 40
0.8835770719
 40
0.9415679798
 40
1.0
 40
1.0
 40
1.0
 40
1.0
 10
11.5778049338
 20
9.2325416232
 30
0.0
 10
11.5741390035
 20
9.226511204
 30
0.0
 10
11.568176751
 20
9.2178603603
 30
0.0
 10
11.5592726269
 20
9.2072946078
 30
0.0
 10
11.5501094375
 20
9.1977882812
 30
0.0
 10
11.5401991952
 20
9.1894427178
 30
0.0
 10
11.5296593764
 20
9.1824830646
 30
0.0
 10
11.5216139253
 20
9.178050069
 30
0.0
 10
11.5133787526
 20
9.1743693325
 30
0.0
 10
11.5049886462
 20
9.1714567177
 30
0.0
 10
11.4964798494
 20
9.169325422
 30
0.0
 10
11.4878891021
 20
9.1679855306
 30
0.0
 10
11.4792539588
 20
9.1674425964
 30
0.0
 10
11.4706118813
 20
9.1677000463
 30
0.0
 10
11.4620014718
 20
9.1687554328
 30
0.0
 10
11.4563340791
 20
9.1699828177
 30
0.0
 10
11.453524337
 20
9.1707234045
 30
0.0
  0
SPLINE
  5
34A
100
AcDbEntity
  8
0
100
AcDbSpline
 62
9
  6
CONTINUOUS
 70
0
 71
3
 72
35
 73
31
 74
0
 42
0.0000001
 43
0.0000001
 44
0.0000000001
 40
0.0
 40
0.0
 40
0.0
 40
0.0
 40
0.0257390473
 40
0.0520107659
 40
0.0789495648
 40
0.1066613828
 40
0.1352220131
 40
0.1646755855
 40
0.1950363752
 40
0.2262913764
 40
0.2584026088
 40
0.2913098164
 40
0.3591407765
 40
0.3938994792
 40
0.429052029
 40
0.4999918431
 40
0.5709320943
 40
0.6060851817
 40
0.6408446228
 40
0.7086775996
 40
0.7415860398
 40
0.7736986183
 40
0.8049550455
 40
0.8353173043
 40
0.8647723455
 40
0.8933343968
 40
0.9210475396
 40
0.9479875151
 40
0.9742602153
 40
1.0
 40
1.0
 40
1.0
 40
1.0
 10
10.3660877796
 20
9.5323542324
 30
0.0
 10
10.3697768079
 20
9.531428777
 30
0.0
 10
10.3771249395
 20
9.5291059259
 30
0.0
 10
10.3877891928
 20
9.5243183967
 30
0.0
 10
10.3981118516
 20
9.5182368047
 30
0.0
 10
10.4080129718
 20
9.5109107484
 30
0.0
 10
10.4174192753
 20
9.5023976547
 30
0.0
 10
10.4262607345
 20
9.4927634183
 30
0.0
 10
10.434472255
 20
9.4820820589
 30
0.0
 10
10.441992799
 20
9.4704349253
 30
0.0
 10
10.4487667411
 20
9.4579092831
 30
0.0
 10
10.4568147449
 20
9.439989207
 30
0.0
 10
10.4630563449
 20
9.4208879336
 30
0.0
 10
10.4674765763
 20
9.4010099951
 30
0.0
 10
10.4706943685
 20
9.3804342862
 30
0.0
 10
10.4723017863
 20
9.354253747
 30
0.0
 10
10.4706969731
 20
9.3280729704
 30
0.0
 10
10.4674812459
 20
9.3074966834
 30
0.0
 10
10.4630629888
 20
9.2876178078
 30
0.0
 10
10.4568232881
 20
9.268515301
 30
0.0
 10
10.4487770988
 20
9.2505936678
 30
0.0
 10
10.4420044109
 20
9.2380666766
 30
0.0
 10
10.4344850342
 20
9.2264180459
 30
0.0
 10
10.4262745875
 20
9.2157350507
 30
0.0
 10
10.4174340993
 20
9.2060990527
 30
0.0
 10
10.408028656
 20
9.1975840851
 30
0.0
 10
10.3981282806
 20
9.1902560533
 30
0.0
 10
10.3878062438
 20
9.1841723981
 30
0.0
 10
10.3771424816
 20
9.1793827374
 30
0.0
 10
10.3697945551
 20
9.1770584013
 30
0.0
 10
10.3661056009
 20
9.1761322032
 30
0.0
  0
SPLINE
  5
34B
100
AcDbEntity
  8
0
100
AcDbSpline
 62
7
  6
CONTINUOUS
 70
0
 71
3
 72
39
 73
35
 74
0
 42
0.0000001
 43
0.0000001
 44
0.0000000001
 40
0.0
 40
0.0
 40
0.0
 40
0.0
 40
0.0256627089
 40
0.0517468304
 40
0.0784326073
 40
0.1058635547
 40
0.1341492428
 40
0.1633618958
 40
0.1935372267
 40
0.2246767203
 40
0.2567504304
 40
0.2897006245
 40
0.3234456312
 40
0.3578834397
 40
0.3928951808
 40
0.4283487134
 40
0.4641021779
 40
0.5000072218
 40
0.5359121603
 40
0.5716653104
 40
0.6071183263
 40
0.6421293601
 40
0.6765662865
 40
0.710310257
 40
0.7432592863
 40
0.7753317343
 40
0.8064699046
 40
0.8366438915
 40
0.8658552252
 40
0.8941396686
 40
0.9215694984
 40
0.9482543337
 40
0.9743377366
 40
1.0
 40
1.0
 40
1.0
 40
1.0
 10
10.3567617261
 20
9.5424338479
 30
0.0
 10
10.3608674672
 20
9.541866158
 30
0.0
 10
10.369080982
 20
9.5401805523
 30
0.0
 10
10.3810999281
 20
9.5360825538
 30
0.0
 10
10.3927932635
 20
9.5304392113
 30
0.0
 10
10.4040591701
 20
9.5233019587
 30
0.0
 10
10.4148042292
 20
9.514735033
 30
0.0
 10
10.4249394606
 20
9.5048135248
 30
0.0
 10
10.4343814457
 20
9.4936227812
 30
0.0
 10
10.4430523856
 20
9.4812580264
 30
0.0
 10
10.4508807823
 20
9.4678238901
 30
0.0
 10
10.4578020963
 20
9.4534337664
 30
0.0
 10
10.4637589938
 20
9.4382087957
 30
0.0
 10
10.4687019041
 20
9.4222770376
 30
0.0
 10
10.4725895633
 20
9.4057725303
 30
0.0
 10
10.4753896993
 20
9.3888342205
 30
0.0
 10
10.4770789456
 20
9.3716046706
 30
0.0
 10
10.4776431287
 20
9.354228912
 30
0.0
 10
10.4770773797
 20
9.336853255
 30
0.0
 10
10.4753865799
 20
9.3196240092
 30
0.0
 10
10.4725849165
 20
9.3026862033
 30
0.0
 10
10.4686957691
 20
9.2861823952
 30
0.0
 10
10.4637514222
 20
9.2702515258
 30
0.0
 10
10.4577931502
 20
9.2550276261
 30
0.0
 10
10.450870536
 20
9.2406387467
 30
0.0
 10
10.4430409241
 20
9.2272060174
 30
0.0
 10
10.4343688642
 20
9.2148428204
 30
0.0
 10
10.4249258618
 20
9.2036537738
 30
0.0
 10
10.4147897251
 20
9.1937340885
 30
0.0
 10
10.4040438804
 20
9.1851690969
 30
0.0
 10
10.3927773156
 20
9.1780338741
 30
0.0
 10
10.381083456
 20
9.1723926428
 30
0.0
 10
10.3690641252
 20
9.168296818
 30
0.0
 10
10.3608504938
 20
9.1666127108
 30
0.0
 10
10.3567447224
 20
9.1660457655
 30
0.0
  0
SPLINE
  5
34C
100
AcDbEntity
  8
0
100
AcDbSpline
 62
7
  6
CONTINUOUS
 70
0
 71
3
 72
15
 73
11
 74
0
 42
0.0000001
 43
0.0000001
 44
0.0000000001
 40
0.0
 40
0.0
 40
0.0
 40
0.0
 40
0.124995402
 40
0.249999131
 40
0.3749984477
 40
0.4999999875
 40
0.6250015271
 40
0.750000844
 40
0.8750045816
 40
1.0
 40
1.0
 40
1.0
 40
1.0
 10
10.6409033933
 20
10.6547293133
 30
0.0
 10
10.6401874191
 20
10.6532109961
 30
0.0
 10
10.6389089808
 20
10.6500987186
 30
0.0
 10
10.637502115
 20
10.6452530181
 30
0.0
 10
10.636641611
 20
10.640279902
 30
0.0
 10
10.6363513471
 20
10.6352410027
 30
0.0
 10
10.636641606
 20
10.630202103
 30
0.0
 10
10.6375021056
 20
10.6252289861
 30
0.0
 10
10.6389089668
 20
10.6203832839
 30
0.0
 10
10.6401874027
 20
10.617271005
 30
0.0
 10
10.6409033757
 20
10.615752687
 30
0.0
  0
SPLINE
  5
34D
100
AcDbEntity
  8
0
100
AcDbSpline
 62
7
  6
CONTINUOUS
 70
0
 71
3
 72
21
 73
17
 74
0
 42
0.0000001
 43
0.0000001
 44
0.0000000001
 40
0.0
 40
0.0
 40
0.0
 40
0.0
 40
0.1246708866
 40
0.1871282302
 40
0.2496321757
 40
0.3121777841
 40
0.374759418
 40
0.4373711926
 40
0.4999999939
 40
0.562628795
 40
0.625240572
 40
0.6878222136
 40
0.750367826
 40
0.812871765
 40
0.8753291098
 40
1.0
 40
1.0
 40
1.0
 40
1.0
 10
10.6329394135
 20
10.679962341
 30
0.0
 10
10.629095447
 20
10.6775158131
 30
0.0
 10
10.6236220116
 20
10.6733223219
 30
0.0
 10
10.6173307299
 20
10.6666943675
 30
0.0
 10
10.6132082379
 20
10.661197987
 30
0.0
 10
10.6098118035
 20
10.6552177169
 30
0.0
 10
10.607266105
 20
10.6488207367
 30
0.0
 10
10.6056844666
 20
10.6421140533
 30
0.0
 10
10.6051474392
 20
10.6352409822
 30
0.0
 10
10.6056844663
 20
10.6283679109
 30
0.0
 10
10.6072661046
 20
10.6216612271
 30
0.0
 10
10.6098118034
 20
10.6152642465
 30
0.0
 10
10.6132082376
 20
10.609283976
 30
0.0
 10
10.6173307298
 20
10.6037875957
 30
0.0
 10
10.6236220114
 20
10.5971596413
 30
0.0
 10
10.6290954469
 20
10.59296615
 30
0.0
 10
10.6329394135
 20
10.5905196219
 30
0.0
  0
SPLINE
  5
34E
100
AcDbEntity
  8
0
100
AcDbSpline
 62
9
  6
CONTINUOUS
 70
0
 71
3
 72
16
 73
12
 74
0
 42
0.0000001
 43
0.0000001
 44
0.0000000001
 40
0.0
 40
0.0
 40
0.0
 40
0.0
 40
0.1139225965
 40
0.2291562385
 40
0.3468909366
 40
0.468151085
 40
0.5937079489
 40
0.7240721608
 40
0.7911684645
 40
0.8595369071
 40
1.0
 40
1.0
 40
1.0
 40
1.0
 10
10.6169264752
 20
9.1675630455
 30
0.0
 10
10.6121700179
 20
9.1675630455
 30
0.0
 10
10.6025866366
 20
9.168299543
 30
0.0
 10
10.5884295896
 20
9.1715908851
 30
0.0
 10
10.5746198393
 20
9.177025689
 30
0.0
 10
10.5613251772
 20
9.1845303442
 30
0.0
 10
10.5486983117
 20
9.1940088531
 30
0.0
 10
10.5389428757
 20
9.2033679756
 30
0.0
 10
10.5315959332
 20
9.2116930699
 30
0.0
 10
10.5244464553
 20
9.2207321305
 30
0.0
 10
10.5195794968
 20
9.2279896889
 30
0.0
 10
10.5165479894
 20
9.2330099588
 30
0.0
  0
SPLINE
  5
34F
100
AcDbEntity
  8
0
100
AcDbSpline
 62
9
  6
CONTINUOUS
 70
0
 71
3
 72
16
 73
12
 74
0
 42
0.0000001
 43
0.0000001
 44
0.0000000001
 40
0.0
 40
0.0
 40
0.0
 40
0.0
 40
0.140410936
 40
0.2087568312
 40
0.2758339299
 40
0.4061717887
 40
0.5317204353
 40
0.6529913155
 40
0.7707539648
 40
0.8860290031
 40
1.0
 40
1.0
 40
1.0
 40
1.0
 10
10.5167730235
 20
9.4758436796
 30
0.0
 10
10.51980466
 20
9.4808375884
 30
0.0
 10
10.524669498
 20
9.4880562825
 30
0.0
 10
10.5318113207
 20
9.497045467
 30
0.0
 10
10.5391482035
 20
9.5053243151
 30
0.0
 10
10.548886353
 20
9.5146303817
 30
0.0
 10
10.5614848432
 20
9.5240536284
 30
0.0
 10
10.574745165
 20
9.531513669
 30
0.0
 10
10.5885158725
 20
9.5369156831
 30
0.0
 10
10.6026306424
 20
9.5401869418
 30
0.0
 10
10.612184479
 20
9.5409189174
 30
0.0
 10
10.6169264752
 20
9.5409189174
 30
0.0
  0
SPLINE
  5
350
100
AcDbEntity
  8
0
100
AcDbSpline
 62
7
  6
CONTINUOUS
 70
0
 71
3
 72
21
 73
17
 74
0
 42
0.0000001
 43
0.0000001
 44
0.0000000001
 40
0.0
 40
0.0
 40
0.0
 40
0.0
 40
0.1241227956
 40
0.18644043
 40
0.2489055927
 40
0.3115149504
 40
0.3742547199
 40
0.4370984193
 40
0.4999999938
 40
0.5629015682
 40
0.62574527
 40
0.6884850473
 40
0.7510944089
 40
0.8135595653
 40
0.8758772009
 40
1.0
 40
1.0
 40
1.0
 40
1.0
 10
10.6049865061
 20
10.679962341
 30
0.0
 10
10.6011921124
 20
10.6775127554
 30
0.0
 10
10.5957924823
 20
10.6733142738
 30
0.0
 10
10.5895948001
 20
10.6666901192
 30
0.0
 10
10.5855310285
 20
10.6611932481
 30
0.0
 10
10.5821834387
 20
10.6552130039
 30
0.0
 10
10.5796747511
 20
10.6488168274
 30
0.0
 10
10.5781163527
 20
10.6421118065
 30
0.0
 10
10.5775872683
 20
10.6352409822
 30
0.0
 10
10.5781163524
 20
10.6283701577
 30
0.0
 10
10.5796747507
 20
10.6216651364
 30
0.0
 10
10.5821834387
 20
10.6152689595
 30
0.0
 10
10.5855310283
 20
10.6092887149
 30
0.0
 10
10.5895948
 20
10.603791844
 30
0.0
 10
10.5957924821
 20
10.5971676894
 30
0.0
 10
10.6011921123
 20
10.5929692076
 30
0.0
 10
10.6049865061
 20
10.5905196219
 30
0.0
  0
SPLINE
  5
351
100
AcDbEntity
  8
0
100
AcDbSpline
 62
7
  6
CONTINUOUS
 70
0
 71
3
 72
23
 73
19
 74
0
 42
0.0000001
 43
0.0000001
 44
0.0000000001
 40
0.0
 40
0.0
 40
0.0
 40
0.0
 40
0.0615488094
 40
0.1233694277
 40
0.1854507234
 40
0.2478383476
 40
0.3105308181
 40
0.3735009967
 40
0.4366898659
 40
0.4999999938
 40
0.5633101215
 40
0.6264989932
 40
0.6894691795
 40
0.752161654
 40
0.8145492718
 40
0.8766305688
 40
0.9384511898
 40
1.0
 40
1.0
 40
1.0
 40
1.0
 10
10.5805951922
 20
10.679962341
 30
0.0
 10
10.5787386529
 20
10.678736355
 30
0.0
 10
10.5751239015
 20
10.6761121774
 30
0.0
 10
10.5700958302
 20
10.6716622082
 30
0.0
 10
10.565541987
 20
10.6666830225
 30
0.0
 10
10.5615706219
 20
10.6611859247
 30
0.0
 10
10.5582991224
 20
10.6552056527
 30
0.0
 10
10.5558482327
 20
10.6488108044
 30
0.0
 10
10.5543260509
 20
10.6421083563
 30
0.0
 10
10.553809346
 20
10.6352409822
 30
0.0
 10
10.5543260506
 20
10.6283736079
 30
0.0
 10
10.5558482324
 20
10.6216711594
 30
0.0
 10
10.5582991223
 20
10.6152763106
 30
0.0
 10
10.5615706217
 20
10.6092960383
 30
0.0
 10
10.5655419869
 20
10.6037989407
 30
0.0
 10
10.57009583
 20
10.598819755
 30
0.0
 10
10.5751239014
 20
10.5943697856
 30
0.0
 10
10.5787386529
 20
10.5917456079
 30
0.0
 10
10.5805951922
 20
10.5905196219
 30
0.0
  0
SPLINE
  5
352
100
AcDbEntity
  8
0
100
AcDbSpline
 62
7
  6
CONTINUOUS
 70
0
 71
3
 72
23
 73
19
 74
0
 42
0.0000001
 43
0.0000001
 44
0.0000000001
 40
0.0
 40
0.0
 40
0.0
 40
0.0
 40
0.0608713733
 40
0.1221942202
 40
0.1839800683
 40
0.2462892437
 40
0.3091214631
 40
0.3724303018
 40
0.4361120636
 40
0.4999999937
 40
0.5638879236
 40
0.627569688
 40
0.6908785345
 40
0.753710758
 40
0.8160199269
 40
0.8778057763
 40
0.9391286259
 40
1.0
 40
1.0
 40
1.0
 40
1.0
 10
10.5599618673
 20
10.679962341
 30
0.0
 10
10.5581603398
 20
10.6787346905
 30
0.0
 10
10.5546523001
 20
10.67610594
 30
0.0
 10
10.5497796793
 20
10.6716543942
 30
0.0
 10
10.5453671956
 20
10.6666737893
 30
0.0
 10
10.5415198851
 20
10.6611758502
 30
0.0
 10
10.5383514352
 20
10.6551958345
 30
0.0
 10
10.5359784933
 20
10.6488028036
 30
0.0
 10
10.5345051527
 20
10.6421038132
 30
0.0
 10
10.5340051173
 20
10.6352409822
 30
0.0
 10
10.5345051525
 20
10.628378151
 30
0.0
 10
10.535978493
 20
10.6216791602
 30
0.0
 10
10.5383514352
 20
10.6152861288
 30
0.0
 10
10.5415198849
 20
10.6093061128
 30
0.0
 10
10.5453671955
 20
10.6038081739
 30
0.0
 10
10.5497796791
 20
10.598827569
 30
0.0
 10
10.5546523
 20
10.594376023
 30
0.0
 10
10.5581603398
 20
10.5917472724
 30
0.0
 10
10.5599618673
 20
10.5905196219
 30
0.0
  0
SPLINE
  5
353
100
AcDbEntity
  8
0
100
AcDbSpline
 62
7
  6
CONTINUOUS
 70
0
 71
3
 72
23
 73
19
 74
0
 42
0.0000001
 43
0.0000001
 44
0.0000000001
 40
0.0
 40
0.0
 40
0.0
 40
0.0
 40
0.0600119054
 40
0.1207065585
 40
0.1821227239
 40
0.2443372919
 40
0.3073493417
 40
0.3710863361
 40
0.4353876183
 40
0.5000000023
 40
0.5646123845
 40
0.6289136657
 40
0.6926506591
 40
0.755662708
 40
0.8178772761
 40
0.8792934415
 40
0.9399880947
 40
1.0
 40
1.0
 40
1.0
 40
1.0
 10
10.543252668
 20
10.679962341
 30
0.0
 10
10.5415200585
 20
10.6787324758
 30
0.0
 10
10.5381458229
 20
10.6760977279
 30
0.0
 10
10.533467995
 20
10.6716442557
 30
0.0
 10
10.5292326376
 20
10.6666619996
 30
0.0
 10
10.5255407055
 20
10.6611631963
 30
0.0
 10
10.522501211
 20
10.6551836933
 30
0.0
 10
10.5202256799
 20
10.6487930387
 30
0.0
 10
10.5188132877
 20
10.6420983169
 30
0.0
 10
10.5183340335
 20
10.6352409813
 30
0.0
 10
10.5188132877
 20
10.6283836458
 30
0.0
 10
10.52022568
 20
10.6216889241
 30
0.0
 10
10.522501211
 20
10.6152982696
 30
0.0
 10
10.5255407055
 20
10.6093187666
 30
0.0
 10
10.5292326376
 20
10.6038199633
 30
0.0
 10
10.533467995
 20
10.5988377072
 30
0.0
 10
10.5381458229
 20
10.5943842351
 30
0.0
 10
10.5415200585
 20
10.5917494871
 30
0.0
 10
10.543252668
 20
10.5905196219
 30
0.0
  0
SPLINE
  5
354
100
AcDbEntity
  8
0
100
AcDbSpline
 62
7
  6
CONTINUOUS
 70
0
 71
3
 72
23
 73
19
 74
0
 42
0.0000001
 43
0.0000001
 44
0.0000000001
 40
0.0
 40
0.0
 40
0.0
 40
0.0
 40
0.0589716959
 40
0.1189111525
 40
0.1798876775
 40
0.2419950838
 40
0.3052283671
 40
0.3694811212
 40
0.4345235197
 40
0.4999999936
 40
0.5654764672
 40
0.6305188684
 40
0.6947716305
 40
0.7580049179
 40
0.8201123177
 40
0.881088844
 40
0.9410283033
 40
1.0
 40
1.0
 40
1.0
 40
1.0
 10
10.5306021344
 20
10.679962341
 30
0.0
 10
10.5289518346
 20
10.6787296306
 30
0.0
 10
10.5257375867
 20
10.6760873217
 30
0.0
 10
10.5212924261
 20
10.6716316467
 30
0.0
 10
10.5172686032
 20
10.6666476272
 30
0.0
 10
10.5137621271
 20
10.6611480774
 30
0.0
 10
10.5108763776
 20
10.6551694582
 30
0.0
 10
10.5087168039
 20
10.6487817677
 30
0.0
 10
10.5073768462
 20
10.6420920397
 30
0.0
 10
10.5069222638
 20
10.6352409822
 30
0.0
 10
10.507376846
 20
10.6283899245
 30
0.0
 10
10.5087168035
 20
10.6217001961
 30
0.0
 10
10.5108763776
 20
10.6153125051
 30
0.0
 10
10.5137621269
 20
10.6093338856
 30
0.0
 10
10.5172686032
 20
10.6038343359
 30
0.0
 10
10.5212924259
 20
10.5988503165
 30
0.0
 10
10.5257375866
 20
10.5943946413
 30
0.0
 10
10.5289518345
 20
10.5917523324
 30
0.0
 10
10.5306021344
 20
10.5905196219
 30
0.0
  0
SPLINE
  5
355
100
AcDbEntity
  8
0
100
AcDbSpline
 62
7
  6
CONTINUOUS
 70
0
 71
3
 72
23
 73
19
 74
0
 42
0.0000001
 43
0.0000001
 44
0.0000000001
 40
0.0
 40
0.0
 40
0.0
 40
0.0
 40
0.0577550073
 40
0.11681845
 40
0.1772916654
 40
0.2392837232
 40
0.3027804628
 40
0.3676329068
 40
0.4335301555
 40
0.4999999935
 40
0.5664698313
 40
0.6323670828
 40
0.6972195347
 40
0.7607162785
 40
0.8227083298
 40
0.8831815466
 40
0.942244992
 40
1.0
 40
1.0
 40
1.0
 40
1.0
 10
10.5221121268
 20
10.679962341
 30
0.0
 10
10.5205569333
 20
10.6787260536
 30
0.0
 10
10.5175278147
 20
10.6760744665
 30
0.0
 10
10.5133514351
 20
10.6716164269
 30
0.0
 10
10.5095719119
 20
10.6666306954
 30
0.0
 10
10.5062794492
 20
10.661130688
 30
0.0
 10
10.5035708856
 20
10.6551534387
 30
0.0
 10
10.5015447185
 20
10.6487693062
 30
0.0
 10
10.5002879565
 20
10.642085179
 30
0.0
 10
10.4998616813
 20
10.6352409822
 30
0.0
 10
10.5002879563
 20
10.6283967852
 30
0.0
 10
10.5015447182
 20
10.6217126576
 30
0.0
 10
10.5035708856
 20
10.6153285247
 30
0.0
 10
10.506279449
 20
10.609351275
 30
0.0
 10
10.5095719118
 20
10.6038512677
 30
0.0
 10
10.5133514349
 20
10.5988655363
 30
0.0
 10
10.5175278146
 20
10.5944074965
 30
0.0
 10
10.5205569332
 20
10.5917559094
 30
0.0
 10
10.5221121268
 20
10.5905196219
 30
0.0
  0
SPLINE
  5
356
100
AcDbEntity
  8
0
100
AcDbSpline
 62
7
  6
CONTINUOUS
 70
0
 71
3
 72
23
 73
19
 74
0
 42
0.0000001
 43
0.0000001
 44
0.0000000001
 40
0.0
 40
0.0
 40
0.0
 40
0.0
 40
0.0563710372
 40
0.114447941
 40
0.1743631335
 40
0.2362368923
 40
0.3000389914
 40
0.3655685381
 40
0.4324225022
 40
0.4999999934
 40
0.5675774844
 40
0.6344314513
 40
0.699961006
 40
0.7637631095
 40
0.8256368618
 40
0.8855520555
 40
0.943628962
 40
1.0
 40
1.0
 40
1.0
 40
1.0
 10
10.5178510056
 20
10.679962341
 30
0.0
 10
10.5164030597
 20
10.6787216239
 30
0.0
 10
10.5135830713
 20
10.6760588915
 30
0.0
 10
10.50970953
 20
10.6715984953
 30
0.0
 10
10.5062051305
 20
10.6666113084
 30
0.0
 10
10.5031534426
 20
10.6611113142
 30
0.0
 10
10.5006439248
 20
10.65513602
 30
0.0
 10
10.4987673584
 20
10.6487560155
 30
0.0
 10
10.4976037395
 20
10.6420779527
 30
0.0
 10
10.4972091246
 20
10.6352409822
 30
0.0
 10
10.4976037393
 20
10.6284040115
 30
0.0
 10
10.4987673581
 20
10.6217259483
 30
0.0
 10
10.5006439248
 20
10.6153459433
 30
0.0
 10
10.5031534424
 20
10.6093706488
 30
0.0
 10
10.5062051304
 20
10.6038706548
 30
0.0
 10
10.5097095298
 20
10.5988834679
 30
0.0
 10
10.5135830712
 20
10.5944230715
 30
0.0
 10
10.5164030597
 20
10.5917603391
 30
0.0
 10
10.5178510056
 20
10.5905196219
 30
0.0
  0
SPLINE
  5
357
100
AcDbEntity
  8
0
100
AcDbSpline
 62
7
  6
CONTINUOUS
 70
0
 71
3
 72
56
 73
52
 74
0
 42
0.0000001
 43
0.0000001
 44
0.0000000001
 40
0.0
 40
0.0
 40
0.0
 40
0.0
 40
0.060829693
 40
0.121693263
 40
0.1521510224
 40
0.1826354933
 40
0.2131584826
 40
0.2437379912
 40
0.2743999322
 40
0.2897747984
 40
0.3051872869
 40
0.3206449334
 40
0.3361595864
 40
0.3517438061
 40
0.3674167526
 40
0.3832002703
 40
0.3991254598
 40
0.4152320298
 40
0.4315682582
 40
0.4481903785
 40
0.4566319756
 40
0.4651599882
 40
0.4737755622
 40
0.482466328
 40
0.491216491
 40
0.4999978471
 40
0.5087797039
 40
0.5175292462
 40
0.5262207387
 40
0.5348352848
 40
0.5433640812
 40
0.5518044847
 40
0.5684265579
 40
0.5766310331
 40
0.584769052
 40
0.6008754054
 40
0.6168001222
 40
0.6325838743
 40
0.6482565656
 40
0.6638408356
 40
0.6793553916
 40
0.6948130538
 40
0.7102254226
 40
0.7256003784
 40
0.7562622622
 40
0.7868416488
 40
0.8173646543
 40
0.8478491446
 40
0.8783068177
 40
0.9391703976
 40
1.0
 40
1.0
 40
1.0
 40
1.0
 10
10.6410676934
 20
11.5636798072
 30
0.0
 10
10.6323236659
 20
11.5640462437
 30
0.0
 10
10.614838199
 20
11.5649789396
 30
0.0
 10
10.5930204795
 20
11.5668299567
 30
0.0
 10
10.5756158671
 20
11.5688898862
 30
0.0
 10
10.5625914877
 20
11.5707821613
 30
0.0
 10
10.5496153365
 20
11.5730882764
 30
0.0
 10
10.5367100338
 20
11.5758898389
 30
0.0
 10
10.526051236
 20
11.5787208174
 30
0.0
 10
10.5176091997
 20
11.5813501087
 30
0.0
 10
10.5113205308
 20
11.5835264956
 30
0.0
 10
10.5050939096
 20
11.5859317
 30
0.0
 10
10.4989438303
 20
11.5885904398
 30
0.0
 10
10.4928921052
 20
11.5915388385
 30
0.0
 10
10.4869649366
 20
11.5948128105
 30
0.0
 10
10.4812018333
 20
11.59846261
 30
0.0
 10
10.4756550023
 20
11.6025425947
 30
0.0
 10
10.4704017664
 20
11.6071210468
 30
0.0
 10
10.4655571589
 20
11.6122733955
 30
0.0
 10
10.4620168619
 20
11.6170879508
 30
0.0
 10
10.459594216
 20
11.6212747699
 30
0.0
 10
10.4580123736
 20
11.6246035166
 30
0.0
 10
10.4567172003
 20
11.6280929645
 30
0.0
 10
10.4557519456
 20
11.6317216512
 30
0.0
 10
10.4551541993
 20
11.635453539
 30
0.0
 10
10.4549525878
 20
11.6392410849
 30
0.0
 10
10.4551539274
 20
11.643028598
 30
0.0
 10
10.455752357
 20
11.6467604412
 30
0.0
 10
10.4567168784
 20
11.6503891898
 30
0.0
 10
10.4580126675
 20
11.6538784843
 30
0.0
 10
10.4595941001
 20
11.6572072248
 30
0.0
 10
10.4620167656
 20
11.6613937364
 30
0.0
 10
10.4648617626
 20
11.6652637722
 30
0.0
 10
10.4680083199
 20
11.6688144029
 30
0.0
 10
10.4712912996
 20
11.6721365773
 30
0.0
 10
10.4756551291
 20
11.6759389486
 30
0.0
 10
10.4812012187
 20
11.6800193734
 30
0.0
 10
10.4869646334
 20
11.6836687033
 30
0.0
 10
10.4928915979
 20
11.6869429906
 30
0.0
 10
10.4989433564
 20
11.6898912496
 30
0.0
 10
10.5050933898
 20
11.692550074
 30
0.0
 10
10.511320008
 20
11.6949552064
 30
0.0
 10
10.5176086102
 20
11.6971317801
 30
0.0
 10
10.5260507101
 20
11.6997608335
 30
0.0
 10
10.5367094616
 20
11.7025919025
 30
0.0
 10
10.5496147046
 20
11.7053936437
 30
0.0
 10
10.562590848
 20
11.7076997481
 30
0.0
 10
10.5756152406
 20
11.7095918662
 30
0.0
 10
10.5930198071
 20
11.711652111
 30
0.0
 10
10.6148375235
 20
11.7135029181
 30
0.0
 10
10.6323229666
 20
11.7144358185
 30
0.0
 10
10.6410669846
 20
11.7148021683
 30
0.0
  0
SPLINE
  5
358
100
AcDbEntity
  8
0
100
AcDbSpline
 62
7
  6
CONTINUOUS
 70
0
 71
3
 72
15
 73
11
 74
0
 42
0.0000001
 43
0.0000001
 44
0.0000000001
 40
0.0
 40
0.0
 40
0.0
 40
0.0
 40
0.1194655294
 40
0.2397615215
 40
0.3613065808
 40
0.4844909335
 40
0.6096664531
 40
0.7371399484
 40
0.8671877716
 40
1.0
 40
1.0
 40
1.0
 40
1.0
 10
10.6416052116
 20
6.2435614958
 30
0.0
 10
10.6420161658
 20
6.2380755925
 30
0.0
 10
10.6433139843
 20
6.2270953984
 30
0.0
 10
10.6466635716
 20
6.2107791883
 30
0.0
 10
10.6514080281
 20
6.1946334762
 30
0.0
 10
10.657529796
 20
6.17871824
 30
0.0
 10
10.6650065311
 20
6.1630905241
 30
0.0
 10
10.6738114082
 20
6.1478056797
 30
0.0
 10
10.6839123122
 20
6.1329197824
 30
0.0
 10
10.6914055231
 20
6.1233990527
 30
0.0
 10
10.6953467171
 20
6.1187224149
 30
0.0
  0
SPLINE
  5
359
100
AcDbEntity
  8
0
100
AcDbSpline
 62
7
  6
CONTINUOUS
 70
0
 71
3
 72
21
 73
17
 74
0
 42
0.0000001
 43
0.0000001
 44
0.0000000001
 40
0.0
 40
0.0
 40
0.0
 40
0.0
 40
0.1452382559
 40
0.215760321
 40
0.2847775589
 40
0.4180547003
 40
0.4823363468
 40
0.5450382965
 40
0.6061993985
 40
0.6658846446
 40
0.7241858434
 40
0.7812219507
 40
0.837138859
 40
0.8921083199
 40
0.9463234917
 40
1.0
 40
1.0
 40
1.0
 40
1.0
 10
10.8497861108
 20
6.1783070617
 30
0.0
 10
10.8355234617
 20
6.1832527564
 30
0.0
 10
10.8146671034
 20
6.1916330721
 30
0.0
 10
10.7881591886
 20
6.2048296389
 30
0.0
 10
10.7634967188
 20
6.2188446216
 30
0.0
 10
10.7405867139
 20
6.2345681104
 30
0.0
 10
10.7198221782
 20
6.251929644
 30
0.0
 10
10.7056637117
 20
6.265440815
 30
0.0
 10
10.6927904054
 20
6.2795416373
 30
0.0
 10
10.6812505368
 20
6.2941764989
 30
0.0
 10
10.6710885808
 20
6.3092869698
 30
0.0
 10
10.6623439071
 20
6.3248129286
 30
0.0
 10
10.6550508735
 20
6.3406922109
 30
0.0
 10
10.6492384579
 20
6.3568614531
 30
0.0
 10
10.6449299441
 20
6.3732534772
 30
0.0
 10
10.6430648578
 20
6.3843299275
 30
0.0
 10
10.6423921079
 20
6.3898682542
 30
0.0
  0
SPLINE
  5
35A
100
AcDbEntity
  8
0
100
AcDbSpline
 62
9
  6
CONTINUOUS
 70
0
 71
3
 72
26
 73
22
 74
0
 42
0.0000001
 43
0.0000001
 44
0.0000000001
 40
0.0
 40
0.0
 40
0.0
 40
0.0
 40
0.1448462972
 40
0.216451104
 40
0.2870439555
 40
0.3563280016
 40
0.4240405767
 40
0.4899631095
 40
0.5539305502
 40
0.6158410754
 40
0.6756655595
 40
0.7334562061
 40
0.7893532077
 40
0.8166731934
 40
0.8436141373
 40
0.8702186305
 40
0.8965343226
 40
0.9226131944
 40
0.9485109746
 40
0.9742863535
 40
1.0
 40
1.0
 40
1.0
 40
1.0
 10
11.0473183383
 20
6.7022118986
 30
0.0
 10
11.0208359096
 20
6.7022118986
 30
0.0
 10
10.9811853891
 20
6.7049453776
 30
0.0
 10
10.9294750379
 20
6.7140822695
 30
0.0
 10
10.891948539
 20
6.7235521875
 30
0.0
 10
10.8559105107
 20
6.7355727976
 30
0.0
 10
10.8217009097
 20
6.7500313242
 30
0.0
 10
10.7896477762
 20
6.7667916049
 30
0.0
 10
10.7600574238
 20
6.7856966277
 30
0.0
 10
10.7332139145
 20
6.8065694867
 30
0.0
 10
10.7093758298
 20
6.8292165547
 30
0.0
 10
10.6887772173
 20
6.8534237181
 30
0.0
 10
10.6743675266
 20
6.8748802698
 30
0.0
 10
10.6647095961
 20
6.8925663209
 30
0.0
 10
10.6584413977
 20
6.9059677881
 30
0.0
 10
10.6531112749
 20
6.9195721454
 30
0.0
 10
10.6487317007
 20
6.9333467766
 30
0.0
 10
10.6453139842
 20
6.9472582183
 30
0.0
 10
10.6428666142
 20
6.9612728829
 30
0.0
 10
10.6413955821
 20
6.9753557038
 30
0.0
 10
10.6410683934
 20
6.9847727705
 30
0.0
 10
10.6410683934
 20
6.9894740285
 30
0.0
  0
SPLINE
  5
35B
100
AcDbEntity
  8
0
100
AcDbSpline
 62
7
  6
CONTINUOUS
 70
0
 71
3
 72
21
 73
17
 74
0
 42
0.0000001
 43
0.0000001
 44
0.0000000001
 40
0.0
 40
0.0
 40
0.0
 40
0.0
 40
0.1178434319
 40
0.1787500965
 40
0.240758349
 40
0.3036948208
 40
0.3673712201
 40
0.4315881987
 40
0.4961391388
 40
0.560813263
 40
0.6253994498
 40
0.6896896363
 40
0.7534820765
 40
0.816585119
 40
0.878820701
 40
1.0
 40
1.0
 40
1.0
 40
1.0
 10
10.8139235994
 20
6.0657317883
 30
0.0
 10
10.830399179
 20
6.0570515591
 30
0.0
 10
10.8563795623
 20
6.0456790991
 30
0.0
 10
10.8925462774
 20
6.0338230643
 30
0.0
 10
10.9209904386
 20
6.0264264197
 30
0.0
 10
10.9502558345
 20
6.0206804193
 30
0.0
 10
10.980155533
 20
6.0166250832
 30
0.0
 10
11.0104939211
 20
6.0142912414
 30
0.0
 10
11.0410737339
 20
6.0136981242
 30
0.0
 10
11.0716958267
 20
6.014853802
 30
0.0
 10
11.1021607857
 20
6.0177549653
 30
0.0
 10
11.1322705303
 20
6.022387118
 30
0.0
 10
11.1618281819
 20
6.0287240916
 30
0.0
 10
11.1906447321
 20
6.0367304629
 30
0.0
 10
11.2274822349
 20
6.0494474027
 30
0.0
 10
11.2539697842
 20
6.0614864975
 30
0.0
 10
11.2708060326
 20
6.0706102794
 30
0.0
  0
SPLINE
  5
35C
100
AcDbEntity
  8
0
100
AcDbSpline
 62
9
  6
CONTINUOUS
 70
0
 71
3
 72
9
 73
5
 74
0
 42
0.0000001
 43
0.0000001
 44
0.0000000001
 40
0.0
 40
0.0
 40
0.0
 40
0.0
 40
0.2468290489
 40
1.0
 40
1.0
 40
1.0
 40
1.0
 10
10.2451611418
 20
5.5814021058
 30
0.0
 10
10.2634087039
 20
5.5888516418
 30
0.0
 10
10.3378136641
 20
5.6178543871
 30
0.0
 10
10.4140266923
 20
5.6421878971
 30
0.0
 10
10.4720656943
 20
5.6579516412
 30
0.0
  0
SPLINE
  5
35D
100
AcDbEntity
  8
0
100
AcDbSpline
 62
9
  6
CONTINUOUS
 70
0
 71
3
 72
36
 73
32
 74
0
 42
0.0000001
 43
0.0000001
 44
0.0000000001
 40
0.0
 40
0.0
 40
0.0
 40
0.0
 40
0.0751526225
 40
0.1121282537
 40
0.1486522612
 40
0.2202097974
 40
0.2552095744
 40
0.2896583829
 40
0.3235424466
 40
0.3568531195
 40
0.4217255479
 40
0.4533204773
 40
0.4843651976
 40
0.5148812335
 40
0.5448967058
 40
0.5744463274
 40
0.6035712811
 40
0.6323189416
 40
0.6607424371
 40
0.6889000444
 40
0.7168544124
 40
0.7446716282
 40
0.7724201491
 40
0.8001696329
 40
0.8279897202
 40
0.8559488178
 40
0.8841129341
 40
0.9125446122
 40
0.9413019949
 40
0.9704380557
 40
1.0
 40
1.0
 40
1.0
 40
1.0
 10
11.6225221457
 20
5.6579649354
 30
0.0
 10
11.6721458095
 20
5.6444882799
 30
0.0
 10
11.7454748801
 20
5.6215888657
 30
0.0
 10
11.8406076625
 20
5.5855435391
 30
0.0
 10
11.9319428311
 20
5.5466479706
 30
0.0
 10
12.019604108
 20
5.5027437525
 30
0.0
 10
12.1028409166
 20
5.4539081119
 30
0.0
 10
12.1621620408
 20
5.4153925105
 30
0.0
 10
12.2186807021
 20
5.3748173388
 30
0.0
 10
12.2894722413
 20
5.318616771
 30
0.0
 10
12.354860741
 20
5.2582569487
 30
0.0
 10
12.4139755911
 20
5.1940420065
 30
0.0
 10
12.4544912829
 20
5.1447904471
 30
0.0
 10
12.4914631427
 20
5.0941582385
 30
0.0
 10
12.5247987175
 20
5.0422704109
 30
0.0
 10
12.5544120975
 20
4.9892575406
 30
0.0
 10
12.5802272274
 20
4.9352527806
 30
0.0
 10
12.6021773277
 20
4.8803922769
 30
0.0
 10
12.6202053297
 20
4.8248146912
 30
0.0
 10
12.6342640826
 20
4.76866094
 30
0.0
 10
12.6443166163
 20
4.7120738217
 30
0.0
 10
12.6503363515
 20
4.6551976124
 30
0.0
 10
12.6523073879
 20
4.5981776131
 30
0.0
 10
12.6502245292
 20
4.541159629
 30
0.0
 10
12.6440933055
 20
4.4842894508
 30
0.0
 10
12.6339299465
 20
4.4277123574
 30
0.0
 10
12.6197612208
 20
4.3715725468
 30
0.0
 10
12.6016244235
 20
4.3160129684
 30
0.0
 10
12.5795666317
 20
4.2611738072
 30
0.0
 10
12.5536467002
 20
4.207196206
 30
0.0
 10
12.5339847604
 20
4.1721404003
 30
0.0
 10
12.523555904
 20
4.1548092747
 30
0.0
  0
SPLINE
  5
35E
100
AcDbEntity
  8
0
100
AcDbSpline
 62
9
  6
CONTINUOUS
 70
0
 71
3
 72
15
 73
11
 74
0
 42
0.0000001
 43
0.0000001
 44
0.0000000001
 40
0.0
 40
0.0
 40
0.0
 40
0.0
 40
0.1145830462
 40
0.2319479788
 40
0.3522778646
 40
0.4756843529
 40
0.6022105124
 40
0.731834864
 40
0.8644768698
 40
1.0
 40
1.0
 40
1.0
 40
1.0
 10
12.523555904
 20
4.1548092747
 30
0.0
 10
12.5084218378
 20
4.1296588275
 30
0.0
 10
12.4755130008
 20
4.0800824271
 30
0.0
 10
12.4194350472
 20
4.0092575361
 30
0.0
 10
12.356361897
 20
3.94146265
 30
0.0
 10
12.2866240326
 20
3.8770462688
 30
0.0
 10
12.2105786099
 20
3.8163295466
 30
0.0
 10
12.1286138658
 20
3.7596171385
 30
0.0
 10
12.0411522808
 20
3.7071960665
 30
0.0
 10
11.9800944033
 20
3.6756049145
 30
0.0
 10
11.9488003148
 20
3.6605732916
 30
0.0
  0
LINE
  5
35F
100
AcDbEntity
  8
0
100
AcDbLine
 62
9
  6
CONTINUOUS
 10
11.9488003148
 20
3.6605732916
 11
11.9486238844
 21
3.6604885581
  0
SPLINE
  5
360
100
AcDbEntity
  8
0
100
AcDbSpline
 62
9
  6
CONTINUOUS
 70
0
 71
3
 72
28
 73
24
 74
0
 42
0.0000001
 43
0.0000001
 44
0.0000000001
 40
0.0
 40
0.0
 40
0.0
 40
0.0
 40
0.0724006469
 40
0.1435185051
 40
0.2132710093
 40
0.281593077
 40
0.3484415896
 40
0.4137963001
 40
0.4776620799
 40
0.5400705089
 40
0.6010812455
 40
0.6607828632
 40
0.7192929956
 40
0.7481522552
 40
0.7767706587
 40
0.8051705508
 40
0.8333757345
 40
0.8614113707
 40
0.8893037829
 40
0.9170803495
 40
0.9447692645
 40
0.9723993863
 40
1.0
 40
1.0
 40
1.0
 40
1.0
 10
11.8573183383
 20
3.5690782324
 30
0.0
 10
11.8876674832
 20
3.581468219
 30
0.0
 10
11.9471976361
 20
3.6076113008
 30
0.0
 10
12.0333987633
 20
3.651233868
 30
0.0
 10
12.1153941118
 20
3.6987524442
 30
0.0
 10
12.1928303101
 20
3.7499651216
 30
0.0
 10
12.2653769716
 20
3.8046556836
 30
0.0
 10
12.3327231353
 20
3.8625932711
 30
0.0
 10
12.3945796484
 20
3.9235334956
 30
0.0
 10
12.4506797008
 20
3.9872188953
 30
0.0
 10
12.5007805783
 20
4.0533814542
 30
0.0
 10
12.5446620893
 20
4.1217372543
 30
0.0
 10
12.5760345815
 20
4.1805670458
 30
0.0
 10
12.5977737138
 20
4.2283865555
 30
0.0
 10
12.6123450141
 20
4.2644492441
 30
0.0
 10
12.6252393363
 20
4.3008305867
 30
0.0
 10
12.6364429887
 20
4.337492228
 30
0.0
 10
12.6459439122
 20
4.3743945388
 30
0.0
 10
12.6537313856
 20
4.4114980154
 30
0.0
 10
12.6597973978
 20
4.4487625488
 30
0.0
 10
12.6641347628
 20
4.486148404
 30
0.0
 10
12.6667393073
 20
4.5236141875
 30
0.0
 10
12.6673182744
 20
4.5486248552
 30
0.0
 10
12.6673182971
 20
4.5611215783
 30
0.0
  0
SPLINE
  5
361
100
AcDbEntity
  8
0
100
AcDbSpline
 62
9
  6
CONTINUOUS
 70
0
 71
3
 72
34
 73
30
 74
0
 42
0.0000001
 43
0.0000001
 44
0.0000000001
 40
0.0
 40
0.0
 40
0.0
 40
0.0
 40
0.0739909677
 40
0.1103411878
 40
0.1462334295
 40
0.2165713685
 40
0.2849323283
 40
0.3512847618
 40
0.4156560948
 40
0.4471341362
 40
0.4781566027
 40
0.5087453058
 40
0.5389262494
 40
0.5687295621
 40
0.5981893772
 40
0.6273436064
 40
0.6562336411
 40
0.6849039843
 40
0.7134018103
 40
0.7417764341
 40
0.7700787239
 40
0.7983604714
 40
0.8266737328
 40
0.8550701598
 40
0.8836003449
 40
0.9123131992
 40
0.9412553706
 40
0.9704707413
 40
1.0
 40
1.0
 40
1.0
 40
1.0
 10
12.0484360611
 20
2.874667227
 30
0.0
 10
12.0975026337
 20
2.8946985714
 30
0.0
 10
12.1696883191
 20
2.9270956878
 30
0.0
 10
12.2627762438
 20
2.975154438
 30
0.0
 10
12.3517360398
 20
3.025356412
 30
0.0
 10
12.4570942382
 20
3.0929789955
 30
0.0
 10
12.5740418381
 20
3.1821092043
 30
0.0
 10
12.6797969965
 20
3.2780343588
 30
0.0
 10
12.7585416456
 20
3.3637141765
 30
0.0
 10
12.8150151246
 20
3.4349513624
 30
0.0
 10
12.853805839
 20
3.4892199997
 30
0.0
 10
12.889268403
 20
3.5446196257
 30
0.0
 10
12.921337759
 20
3.6010496803
 30
0.0
 10
12.9499535183
 20
3.6584061381
 30
0.0
 10
12.9750621446
 20
3.7165833834
 30
0.0
 10
12.9966163942
 20
3.7754740332
 30
0.0
 10
13.0145755241
 20
3.834969233
 30
0.0
 10
13.0289053564
 20
3.8949588053
 30
0.0
 10
13.0395787354
 20
3.9553313936
 30
0.0
 10
13.0465753696
 20
4.0159747818
 30
0.0
 10
13.0498818675
 20
4.0767761261
 30
0.0
 10
13.0494917699
 20
4.1376221904
 30
0.0
 10
13.0454059199
 20
4.1983996235
 30
0.0
 10
13.0376321986
 20
4.2589952461
 30
0.0
 10
13.0261854073
 20
4.3192963662
 30
0.0
 10
13.0110873042
 20
4.3791907505
 30
0.0
 10
12.9923664007
 20
4.4385678969
 30
0.0
 10
12.9700592669
 20
4.4973156402
 30
0.0
 10
12.9529212473
 20
4.5357727989
 30
0.0
 10
12.9437862187
 20
4.5548494935
 30
0.0
  0
SPLINE
  5
362
100
AcDbEntity
  8
0
100
AcDbSpline
 62
9
  6
CONTINUOUS
 70
0
 71
3
 72
27
 73
23
 74
0
 42
0.0000001
 43
0.0000001
 44
0.0000000001
 40
0.0
 40
0.0
 40
0.0
 40
0.0
 40
0.0623877498
 40
0.0940580227
 40
0.1260057864
 40
0.1906011855
 40
0.2559270682
 40
0.3217101849
 40
0.3876671629
 40
0.4535108307
 40
0.5189564843
 40
0.5837282229
 40
0.647565306
 40
0.7102287346
 40
0.7715079006
 40
0.8015779912
 40
0.8312397064
 40
0.8892671243
 40
0.9176252071
 40
0.9455336865
 40
0.9729911143
 40
1.0
 40
1.0
 40
1.0
 40
1.0
 10
11.8494755348
 20
3.6165262808
 30
0.0
 10
11.8057494369
 20
3.5986751761
 30
0.0
 10
11.7387692845
 20
3.5742636095
 30
0.0
 10
11.6475025018
 20
3.5464733824
 30
0.0
 10
11.5536870475
 20
3.5215076563
 30
0.0
 10
11.4336739831
 20
3.4962337133
 30
0.0
 10
11.2868541901
 20
3.4755939057
 30
0.0
 10
11.1379562367
 20
3.4647058746
 30
0.0
 10
10.9882741926
 20
3.4636640829
 30
0.0
 10
10.8391033152
 20
3.4724772222
 30
0.0
 10
10.6917357964
 20
3.4910697276
 30
0.0
 10
10.5474480749
 20
3.5192813256
 30
0.0
 10
10.4074879702
 20
3.5568707732
 30
0.0
 10
10.2730722306
 20
3.6035130141
 30
0.0
 10
10.1659646157
 20
3.6498899837
 30
0.0
 10
10.0841757599
 20
3.691205497
 30
0.0
 10
10.0062711509
 20
3.73457985
 30
0.0
 10
9.9321842961
 20
3.7820299791
 30
0.0
 10
9.8625621376
 20
3.8334419456
 30
0.0
 10
9.8133173729
 20
3.8733824181
 30
0.0
 10
9.7667620437
 20
3.9149055803
 30
0.0
 10
9.7373416737
 20
3.9438231365
 30
0.0
 10
9.7231259946
 20
3.9585193474
 30
0.0
  0
SPLINE
  5
363
100
AcDbEntity
  8
0
100
AcDbSpline
 62
9
  6
CONTINUOUS
 70
0
 71
3
 72
37
 73
33
 74
0
 42
0.0000001
 43
0.0000001
 44
0.0000000001
 40
0.0
 40
0.0
 40
0.0
 40
0.0
 40
0.0322239579
 40
0.0638732349
 40
0.0949714535
 40
0.1255494995
 40
0.1556455028
 40
0.1853046743
 40
0.2145789737
 40
0.243526582
 40
0.272211178
 40
0.3007010203
 40
0.3290678514
 40
0.3573856564
 40
0.3857293238
 40
0.4141732648
 40
0.4427900547
 40
0.471649156
 40
0.5008157728
 40
0.5303498753
 40
0.5603054161
 40
0.5907297413
 40
0.6216631989
 40
0.6531389265
 40
0.6851827902
 40
0.717813453
 40
0.7848523153
 40
0.8192863294
 40
0.8543141967
 40
0.8899225686
 40
0.9260921393
 40
1.0
 40
1.0
 40
1.0
 40
1.0
 10
9.7231259946
 20
3.9585193474
 30
0.0
 10
9.7077284059
 20
3.97443742
 30
0.0
 10
9.6780634883
 20
4.0068323727
 30
0.0
 10
9.6367860163
 20
4.0574396291
 30
0.0
 10
9.5992401118
 20
4.1094903812
 30
0.0
 10
9.5655283198
 20
4.1628457544
 30
0.0
 10
9.535741103
 20
4.2173655552
 30
0.0
 10
9.5099593436
 20
4.2729055509
 30
0.0
 10
9.4882532609
 20
4.3293185246
 30
0.0
 10
9.4706823598
 20
4.3864544293
 30
0.0
 10
9.4572950845
 20
4.4441608038
 30
0.0
 10
9.4481285492
 20
4.5022831812
 30
0.0
 10
9.4432082843
 20
4.5606655746
 30
0.0
 10
9.4425480537
 20
4.6191510166
 30
0.0
 10
9.4461497192
 20
4.6775821395
 30
0.0
 10
9.4540031851
 20
4.7358017872
 30
0.0
 10
9.4660865493
 20
4.7936536092
 30
0.0
 10
9.4823662592
 20
4.8509826134
 30
0.0
 10
9.5027973489
 20
4.9076356689
 30
0.0
 10
9.5273237078
 20
4.9634619442
 30
0.0
 10
9.5558783985
 20
5.0183132962
 30
0.0
 10
9.588383855
 20
5.072044577
 30
0.0
 10
9.6247523995
 20
5.1245141348
 30
0.0
 10
9.6648857528
 20
5.1755833488
 30
0.0
 10
9.708678442
 20
5.2251196953
 30
0.0
 10
9.7723500588
 20
5.2895164834
 30
0.0
 10
9.8424158699
 20
5.3496992577
 30
0.0
 10
9.9179478161
 20
5.4053818794
 30
0.0
 10
9.9780994699
 20
5.4453886989
 30
0.0
 10
10.041076832
 20
5.4831515449
 30
0.0
 10
10.1292116243
 20
5.5307143261
 30
0.0
 10
10.1981343967
 20
5.5622035175
 30
0.0
 10
10.2451611418
 20
5.5814021058
 30
0.0
  0
SPLINE
  5
364
100
AcDbEntity
  8
0
100
AcDbSpline
 62
9
  6
CONTINUOUS
 70
0
 71
3
 72
45
 73
41
 74
0
 42
0.0000001
 43
0.0000001
 44
0.0000000001
 40
0.0
 40
0.0
 40
0.0
 40
0.0
 40
0.0665639064
 40
0.1005122133
 40
0.134817266
 40
0.1694137916
 40
0.2042332019
 40
0.2392045452
 40
0.2742552468
 40
0.3093118978
 40
0.3443010264
 40
0.3791498711
 40
0.4137871584
 40
0.448143886
 40
0.4821541168
 40
0.5157557855
 40
0.5488915217
 40
0.5815094903
 40
0.6135642506
 40
0.6450176317
 40
0.6758396195
 40
0.7060092446
 40
0.7355154557
 40
0.7643579507
 40
0.778535511
 40
0.7925523549
 40
0.8201131344
 40
0.8470805766
 40
0.8603591272
 40
0.8735086042
 40
0.8865370346
 40
0.8994531582
 40
0.9122664448
 40
0.9249870136
 40
0.9376256094
 40
0.9501935314
 40
0.9627025664
 40
0.9751649235
 40
0.9875931379
 40
1.0
 40
1.0
 40
1.0
 40
1.0
 10
11.8573183383
 20
3.5931116836
 30
0.0
 10
11.7958327049
 20
3.5680102789
 30
0.0
 10
11.7008966698
 20
3.5350031841
 30
0.0
 10
11.5709132831
 20
3.5002776563
 30
0.0
 10
11.4705694258
 20
3.4785997609
 30
0.0
 10
11.3684603028
 20
3.461558622
 30
0.0
 10
11.2650062119
 20
3.449223233
 30
0.0
 10
11.1606417918
 20
3.441645559
 30
0.0
 10
11.0558031552
 20
3.438857056
 30
0.0
 10
10.9509290478
 20
3.4408693931
 30
0.0
 10
10.8464581945
 20
3.4476741713
 30
0.0
 10
10.7428276697
 20
3.4592430224
 30
0.0
 10
10.6404709997
 20
3.4755277165
 30
0.0
 10
10.5398163546
 20
3.4964603764
 30
0.0
 10
10.4412847497
 20
3.5219537929
 30
0.0
 10
10.3452882887
 20
3.5519018162
 30
0.0
 10
10.252228452
 20
3.5861798316
 30
0.0
 10
10.162494436
 20
3.6246453241
 30
0.0
 10
10.0764615832
 20
3.667138495
 30
0.0
 10
9.994489802
 20
3.7134830416
 30
0.0
 10
9.9169223961
 20
3.7634866631
 30
0.0
 10
9.8440838289
 20
3.8169428324
 30
0.0
 10
9.7762817951
 20
3.8736282015
 30
0.0
 10
9.7239122612
 20
3.9236512195
 30
0.0
 10
9.6848631718
 20
3.9650606849
 30
0.0
 10
9.6481496303
 20
4.0068662709
 30
0.0
 10
9.6058244913
 20
4.0606674596
 30
0.0
 10
9.5681029808
 20
4.116915151
 30
0.0
 10
9.5411135546
 20
4.1628602408
 30
0.0
 10
9.5225543446
 20
4.1975900852
 30
0.0
 10
9.505595689
 20
4.2327276488
 30
0.0
 10
9.4902556639
 20
4.2682367999
 30
0.0
 10
9.4765502453
 20
4.3040799069
 30
0.0
 10
9.4644943333
 20
4.3402194717
 30
0.0
 10
9.4541005611
 20
4.376617369
 30
0.0
 10
9.4453801014
 20
4.4132353287
 30
0.0
 10
9.4383423491
 20
4.4500346957
 30
0.0
 10
9.4329946024
 20
4.4869769027
 30
0.0
 10
9.429342979
 20
4.5240219922
 30
0.0
 10
9.4280408764
 20
4.5487764314
 30
0.0
 10
9.4276740954
 20
4.5611495584
 30
0.0
  0
LINE
  5
365
100
AcDbEntity
  8
0
100
AcDbLine
 62
9
  6
CONTINUOUS
 10
9.4276740954
 20
4.5611495584
 11
9.4276345489
 21
4.5625229475
  0
SPLINE
  5
366
100
AcDbEntity
  8
0
100
AcDbSpline
 62
9
  6
CONTINUOUS
 70
0
 71
3
 72
13
 73
9
 74
0
 42
0.0000001
 43
0.0000001
 44
0.0000000001
 40
0.0
 40
0.0
 40
0.0
 40
0.0
 40
0.2434769294
 40
0.367204394
 40
0.492070986
 40
0.6179365318
 40
0.7446554535
 40
1.0
 40
1.0
 40
1.0
 40
1.0
 10
11.9998183383
 20
3.2612031361
 30
0.0
 10
11.9436026917
 20
3.2382531945
 30
0.0
 10
11.8573447618
 20
3.2071223601
 30
0.0
 10
11.7396732038
 20
3.1722337424
 30
0.0
 10
11.6491678639
 20
3.1491230831
 30
0.0
 10
11.5571299886
 20
3.1292728644
 30
0.0
 10
11.4323832637
 20
3.1071662361
 30
0.0
 10
11.3376820267
 20
3.0957069026
 30
0.0
 10
11.2742304575
 20
3.0903243329
 30
0.0
  0
SPLINE
  5
367
100
AcDbEntity
  8
0
100
AcDbSpline
 62
9
  6
CONTINUOUS
 70
0
 71
3
 72
37
 73
33
 74
0
 42
0.0000001
 43
0.0000001
 44
0.0000000001
 40
0.0
 40
0.0
 40
0.0
 40
0.0
 40
0.0717637607
 40
0.1076965053
 40
0.1435922177
 40
0.215061119
 40
0.2505495646
 40
0.2858067399
 40
0.3207873831
 40
0.3554482723
 40
0.3897485962
 40
0.4236503296
 40
0.4571186167
 40
0.4901221605
 40
0.522633619
 40
0.5546300057
 40
0.5860930931
 40
0.6170098125
 40
0.6473726478
 40
0.677180012
 40
0.7064365964
 40
0.7351536779
 40
0.7633493648
 40
0.7910487608
 40
0.8182840204
 40
0.8450942705
 40
0.8715253706
 40
0.8976294898
 40
0.9234644859
 40
0.9490930798
 40
0.9745818397
 40
1.0
 40
1.0
 40
1.0
 40
1.0
 10
11.2742304575
 20
3.0903243329
 30
0.0
 10
11.2074959927
 20
3.0846632765
 30
0.0
 10
11.1069749625
 20
3.079936458
 30
0.0
 10
10.9729489719
 20
3.0811348185
 30
0.0
 10
10.8393333468
 20
3.0873245655
 30
0.0
 10
10.7065624594
 20
3.1009662626
 30
0.0
 10
10.5755008477
 20
3.1220570676
 30
0.0
 10
10.4787342128
 20
3.1414775005
 30
0.0
 10
10.3835519104
 20
3.1644808374
 30
0.0
 10
10.2902164437
 20
3.191003641
 30
0.0
 10
10.1989881663
 20
3.2209722357
 30
0.0
 10
10.1101207702
 20
3.2543035512
 30
0.0
 10
10.0238615909
 20
3.2909051985
 30
0.0
 10
9.9404506655
 20
3.3306757818
 30
0.0
 10
9.8601201504
 20
3.373505182
 30
0.0
 10
9.7830936755
 20
3.4192748696
 30
0.0
 10
9.7095857541
 20
3.4678582445
 30
0.0
 10
9.6398012215
 20
3.5191209924
 30
0.0
 10
9.5739347051
 20
3.5729214514
 30
0.0
 10
9.51217013
 20
3.6291109892
 30
0.0
 10
9.4546802562
 20
3.6875343839
 30
0.0
 10
9.4016262464
 20
3.7480302055
 30
0.0
 10
9.3531572591
 20
3.8104311911
 30
0.0
 10
9.3094100587
 20
3.8745646168
 30
0.0
 10
9.2705086337
 20
3.9402526592
 30
0.0
 10
9.2365638134
 20
4.0073127742
 30
0.0
 10
9.2076728729
 20
4.0755580306
 30
0.0
 10
9.1839191279
 20
4.1447976917
 30
0.0
 10
9.165371509
 20
4.2148370548
 30
0.0
 10
9.1520841692
 20
4.2854802769
 30
0.0
 10
9.1440960537
 20
4.3565225543
 30
0.0
 10
9.1423184187
 20
4.4040509094
 30
0.0
 10
9.14231838
 20
4.4277726261
 30
0.0
  0
SPLINE
  5
368
100
AcDbEntity
  8
0
100
AcDbSpline
 62
9
  6
CONTINUOUS
 70
0
 71
3
 72
37
 73
33
 74
0
 42
0.0000001
 43
0.0000001
 44
0.0000000001
 40
0.0
 40
0.0
 40
0.0
 40
0.0
 40
0.0740862573
 40
0.1103991764
 40
0.1461909996
 40
0.2161271255
 40
0.2502671345
 40
0.2838426422
 40
0.3168550539
 40
0.3493111875
 40
0.3812234921
 40
0.412610217
 40
0.4434955208
 40
0.4739095008
 40
0.5038881286
 40
0.5334730742
 40
0.5627113977
 40
0.5916551048
 40
0.6203605622
 40
0.6488877733
 40
0.6772995305
 40
0.7056604644
 40
0.7340360233
 40
0.7624914193
 40
0.7910905854
 40
0.8198951815
 40
0.848963686
 40
0.8783506009
 40
0.9081057883
 40
0.9382739458
 40
0.9688942279
 40
1.0
 40
1.0
 40
1.0
 40
1.0
 10
12.0978596418
 20
2.7610013494
 30
0.0
 10
12.1554542498
 20
2.7845142497
 30
0.0
 10
12.2399913279
 20
2.8228668517
 30
0.0
 10
12.348464977
 20
2.8803918542
 30
0.0
 10
12.4514166447
 20
2.9406636331
 30
0.0
 10
12.5488946414
 20
3.006507562
 30
0.0
 10
12.6399631307
 20
3.0777408295
 30
0.0
 10
12.7040501251
 20
3.1329902993
 30
0.0
 10
12.764310741
 20
3.1903573785
 30
0.0
 10
12.8206072649
 20
3.2497119848
 30
0.0
 10
12.8728083787
 20
3.3109175376
 30
0.0
 10
12.9207926555
 20
3.3738336324
 30
0.0
 10
12.9644479864
 20
3.4383156756
 30
0.0
 10
13.003672062
 20
3.5042153152
 30
0.0
 10
13.0383725739
 20
3.5713806671
 30
0.0
 10
13.0684675436
 20
3.639656578
 30
0.0
 10
13.0938855354
 20
3.7088849477
 30
0.0
 10
13.1145659178
 20
3.7789050447
 30
0.0
 10
13.1304591221
 20
3.8495538604
 30
0.0
 10
13.1415268841
 20
3.9206665075
 30
0.0
 10
13.147742454
 20
3.9920766663
 30
0.0
 10
13.1490907571
 20
4.0636170722
 30
0.0
 10
13.1455685515
 20
4.1351200397
 30
0.0
 10
13.1371843887
 20
4.2064180098
 30
0.0
 10
13.1239585579
 20
4.2773440783
 30
0.0
 10
13.105922956
 20
4.3477325099
 30
0.0
 10
13.0831209174
 20
4.4174191897
 30
0.0
 10
13.0556069344
 20
4.4862421193
 30
0.0
 10
13.0234466118
 20
4.5540415193
 30
0.0
 10
12.9867156842
 20
4.6206612331
 30
0.0
 10
12.9455026344
 20
4.6859450585
 30
0.0
 10
12.915345155
 20
4.7281387349
 30
0.0
 10
12.8995771728
 20
4.7489612996
 30
0.0
  0
SPLINE
  5
369
100
AcDbEntity
  8
0
100
AcDbSpline
 62
9
  6
CONTINUOUS
 70
0
 71
3
 72
52
 73
48
 74
0
 42
0.0000001
 43
0.0000001
 44
0.0000000001
 40
0.0
 40
0.0
 40
0.0
 40
0.0
 40
0.0141200817
 40
0.0280531752
 40
0.0418094815
 40
0.0554007709
 40
0.068840352
 40
0.0821429955
 40
0.0953248347
 40
0.108403249
 40
0.1213967205
 40
0.1343246526
 40
0.1472071736
 40
0.1600649242
 40
0.1729188271
 40
0.1857898486
 40
0.1986987603
 40
0.2116659039
 40
0.2247109725
 40
0.2378528081
 40
0.251109213
 40
0.264496792
 40
0.2780308284
 40
0.2917251775
 40
0.3055921781
 40
0.3196426104
 40
0.3338856704
 40
0.3483289509
 40
0.3778316485
 40
0.40818763
 40
0.439402505
 40
0.4714599501
 40
0.5043237265
 40
0.5379399151
 40
0.5722391218
 40
0.6071386956
 40
0.6425448952
 40
0.6783549779
 40
0.7144592702
 40
0.7507431539
 40
0.78708905
 40
0.8233783628
 40
0.8594934213
 40
0.8953194366
 40
0.9307464603
 40
0.9656712352
 40
1.0
 40
1.0
 40
1.0
 40
1.0
 10
9.1958849107
 20
4.7500502772
 30
0.0
 10
9.1825934374
 20
4.7325331387
 30
0.0
 10
9.1569896992
 20
4.6971119979
 30
0.0
 10
9.1214103023
 20
4.6425547088
 30
0.0
 10
9.0889755678
 20
4.5870200106
 30
0.0
 10
9.0597403902
 20
4.5305998569
 30
0.0
 10
9.0337528899
 20
4.4733860106
 30
0.0
 10
9.0110562941
 20
4.4154721278
 30
0.0
 10
8.9916885333
 20
4.3569529663
 30
0.0
 10
8.9756821159
 20
4.2979244838
 30
0.0
 10
8.9630637326
 20
4.2384836835
 30
0.0
 10
8.9538545933
 20
4.1787283303
 30
0.0
 10
8.9480703829
 20
4.1187568178
 30
0.0
 10
8.9457208007
 20
4.0586680252
 30
0.0
 10
8.9468096997
 20
3.9985610553
 30
0.0
 10
8.951335306
 20
3.9385350393
 30
0.0
 10
8.9592901202
 20
3.878688972
 30
0.0
 10
8.9706605578
 20
3.8191214412
 30
0.0
 10
8.9854274529
 20
3.7599304609
 30
0.0
 10
9.0035661487
 20
3.7012133419
 30
0.0
 10
9.0250462548
 20
3.6430664448
 30
0.0
 10
9.0498317637
 20
3.585584985
 30
0.0
 10
9.0778814448
 20
3.5288629795
 30
0.0
 10
9.1091488415
 20
3.4729931592
 30
0.0
 10
9.1435821105
 20
3.4180665192
 30
0.0
 10
9.181124074
 20
3.364172769
 30
0.0
 10
9.2217139202
 20
3.3113986824
 30
0.0
 10
9.2802137524
 20
3.2421602818
 30
0.0
 10
9.3607844829
 20
3.1588892307
 30
0.0
 10
9.4677491806
 20
3.0655243366
 30
0.0
 10
9.5849879371
 20
2.9785920209
 30
0.0
 10
9.7117298544
 20
2.8986546538
 30
0.0
 10
9.8471507291
 20
2.8262216688
 30
0.0
 10
9.990369687
 20
2.7617582534
 30
0.0
 10
10.1404561838
 20
2.7056782771
 30
0.0
 10
10.296435242
 20
2.6583426556
 30
0.0
 10
10.4572936818
 20
2.6200566396
 30
0.0
 10
10.6219864055
 20
2.5910670086
 30
0.0
 10
10.7894433572
 20
2.5715613914
 30
0.0
 10
10.9585762675
 20
2.5616654588
 30
0.0
 10
11.1282859588
 20
2.5614435827
 30
0.0
 10
11.2974693764
 20
2.5708968796
 30
0.0
 10
11.465027154
 20
2.5899644733
 30
0.0
 10
11.629869765
 20
2.6185228115
 30
0.0
 10
11.7909282608
 20
2.6563882615
 30
0.0
 10
11.9471480805
 20
2.703313084
 30
0.0
 10
12.0483657241
 20
2.7407955422
 30
0.0
 10
12.0978596418
 20
2.7610013494
 30
0.0
  0
SPLINE
  5
36A
100
AcDbEntity
  8
0
100
AcDbSpline
 62
7
  6
CONTINUOUS
 70
0
 71
3
 72
42
 73
38
 74
0
 42
0.0000001
 43
0.0000001
 44
0.0000000001
 40
0.0
 40
0.0
 40
0.0
 40
0.0
 40
0.032768127
 40
0.06599013
 40
0.0996149987
 40
0.1335867671
 40
0.1678462048
 40
0.2023310534
 40
0.236976841
 40
0.2717175074
 40
0.3064860703
 40
0.3412152766
 40
0.3758382546
 40
0.4102891683
 40
0.4445038752
 40
0.478420591
 40
0.5119805644
 40
0.5451287632
 40
0.5778145749
 40
0.6099925211
 40
0.6416229877
 40
0.6726729674
 40
0.7031168096
 40
0.7329369671
 40
0.7621247278
 40
0.7906809085
 40
0.818616479
 40
0.8459530768
 40
0.872723358
 40
0.898971123
 40
0.924751149
 40
0.9374884328
 40
0.9501340706
 40
0.9626976895
 40
0.9751894216
 40
0.9876198642
 40
1.0
 40
1.0
 40
1.0
 40
1.0
 10
12.122286909
 20
2.6812019778
 30
0.0
 10
12.0833840665
 20
2.6653199588
 30
0.0
 10
12.0042167119
 20
2.6353144787
 30
0.0
 10
11.8826573946
 20
2.5959083079
 30
0.0
 10
11.7578716509
 20
2.5619184988
 30
0.0
 10
11.6303445575
 20
2.5334774119
 30
0.0
 10
11.5005673584
 20
2.5106938382
 30
0.0
 10
11.369041025
 20
2.4936555584
 30
0.0
 10
11.2362730661
 20
2.4824280574
 30
0.0
 10
11.1027758714
 20
2.4770545541
 30
0.0
 10
10.9690646444
 20
2.4775557256
 30
0.0
 10
10.8356554263
 20
2.4839296548
 30
0.0
 10
10.7030630842
 20
2.4961518087
 30
0.0
 10
10.5717993137
 20
2.5141751576
 30
0.0
 10
10.4423706553
 20
2.537930372
 30
0.0
 10
10.3152765344
 20
2.5673261082
 30
0.0
 10
10.1910073344
 20
2.6022493849
 30
0.0
 10
10.0700425108
 20
2.6425660492
 30
0.0
 10
9.9528487585
 20
2.6881213295
 30
0.0
 10
9.8398782388
 20
2.7387404709
 30
0.0
 10
9.7315668815
 20
2.7942294537
 30
0.0
 10
9.6283327578
 20
2.8543757619
 30
0.0
 10
9.5305745584
 20
2.918949242
 30
0.0
 10
9.4386701799
 20
2.9877030054
 30
0.0
 10
9.3529754064
 20
3.0603743677
 30
0.0
 10
9.2738227197
 20
3.1366857493
 30
0.0
 10
9.2015201389
 20
3.2163457617
 30
0.0
 10
9.1363503853
 20
3.299049555
 30
0.0
 10
9.0785692075
 20
3.384481683
 30
0.0
 10
9.0284069068
 20
3.4723096655
 30
0.0
 10
8.9929737211
 20
3.5475302792
 30
0.0
 10
8.9686971896
 20
3.6084984991
 30
0.0
 10
8.952572869
 20
3.6544251804
 30
0.0
 10
8.9384774317
 20
3.7006849705
 30
0.0
 10
8.9264243967
 20
3.7472341533
 30
0.0
 10
8.9164255675
 20
3.7940260326
 30
0.0
 10
8.9111264575
 20
3.8254092151
 30
0.0
 10
8.9088252191
 20
3.8411170822
 30
0.0
  0
SPLINE
  5
36B
100
AcDbEntity
  8
0
100
AcDbSpline
 62
7
  6
CONTINUOUS
 70
0
 71
3
 72
15
 73
11
 74
0
 42
0.0000001
 43
0.0000001
 44
0.0000000001
 40
0.0
 40
0.0
 40
0.0
 40
0.0
 40
0.1291879672
 40
0.2567698328
 40
0.3829294285
 40
0.5078695836
 40
0.6318089349
 40
0.7549802317
 40
0.8776269282
 40
1.0
 40
1.0
 40
1.0
 40
1.0
 10
11.4762810295
 20
5.788744983
 30
0.0
 10
11.4787948219
 20
5.7841517265
 30
0.0
 10
11.4835326415
 20
5.7748777997
 30
0.0
 10
11.4897734158
 20
5.7606576516
 30
0.0
 10
11.4950879663
 20
5.7462485113
 30
0.0
 10
11.499465116
 20
5.7316814195
 30
0.0
 10
11.5028949548
 20
5.716986763
 30
0.0
 10
11.5053704791
 20
5.7021954726
 30
0.0
 10
11.5068859657
 20
5.6873395432
 30
0.0
 10
11.5072543998
 20
5.6774072456
 30
0.0
 10
11.5072777089
 20
5.6724473765
 30
0.0
  0
SPLINE
  5
36C
100
AcDbEntity
  8
0
100
AcDbSpline
 62
9
  6
CONTINUOUS
 70
0
 71
3
 72
15
 73
11
 74
0
 42
0.0000001
 43
0.0000001
 44
0.0000000001
 40
0.0
 40
0.0
 40
0.0
 40
0.0
 40
0.1338111475
 40
0.2653122834
 40
0.3943566184
 40
0.5208275417
 40
0.6446458511
 40
0.7657713532
 40
0.8842066806
 40
1.0
 40
1.0
 40
1.0
 40
1.0
 10
11.8632509719
 20
3.5488927861
 30
0.0
 10
11.8931026403
 20
3.5610796787
 30
0.0
 10
11.951684672
 20
3.5867633504
 30
0.0
 10
12.0365951389
 20
3.6295241549
 30
0.0
 10
12.1174834682
 20
3.6760339839
 30
0.0
 10
12.1940174609
 20
3.7261044184
 30
0.0
 10
12.2658856335
 20
3.7795335055
 30
0.0
 10
12.3327954996
 20
3.8361074136
 30
0.0
 10
12.3944696186
 20
3.8955938937
 30
0.0
 10
12.4323523787
 20
3.9375059353
 30
0.0
 10
12.4503000973
 20
3.958869301
 30
0.0
  0
SPLINE
  5
36D
100
AcDbEntity
  8
0
100
AcDbSpline
 62
9
  6
CONTINUOUS
 70
0
 71
3
 72
23
 73
19
 74
0
 42
0.0000001
 43
0.0000001
 44
0.0000000001
 40
0.0
 40
0.0
 40
0.0
 40
0.0
 40
0.0673753418
 40
0.1336567302
 40
0.1989041689
 40
0.2631903956
 40
0.3266006062
 40
0.3892318896
 40
0.4511923648
 40
0.5126000233
 40
0.573581267
 40
0.6342691667
 40
0.6948014755
 40
0.7553184577
 40
0.8159606257
 40
0.8768664679
 40
0.9381702552
 40
1.0
 40
1.0
 40
1.0
 40
1.0
 10
12.4503000973
 20
3.958869301
 30
0.0
 10
12.4635925507
 20
3.9746914538
 30
0.0
 10
12.4891252507
 20
4.0067940605
 30
0.0
 10
12.5243883497
 20
4.0566144624
 30
0.0
 10
12.556215486
 20
4.1075874017
 30
0.0
 10
12.5845298566
 20
4.1595928969
 30
0.0
 10
12.6092645873
 20
4.2125105547
 30
0.0
 10
12.6303605812
 20
4.2662169719
 30
0.0
 10
12.647767277
 20
4.3205867499
 30
0.0
 10
12.6614427088
 20
4.3754925531
 30
0.0
 10
12.6713537299
 20
4.4308054637
 30
0.0
 10
12.6774762242
 20
4.4863953006
 30
0.0
 10
12.6797953362
 20
4.5421309803
 30
0.0
 10
12.6783054065
 20
4.5978810318
 30
0.0
 10
12.6730101417
 20
4.653513678
 30
0.0
 10
12.663922157
 20
4.7088984952
 30
0.0
 10
12.651064508
 20
4.7639021588
 30
0.0
 10
12.6400520783
 20
4.8000603952
 30
0.0
 10
12.6339458709
 20
4.8180142332
 30
0.0
  0
SPLINE
  5
36E
100
AcDbEntity
  8
0
100
AcDbSpline
 62
9
  6
CONTINUOUS
 70
0
 71
3
 72
10
 73
6
 74
0
 42
0.0000001
 43
0.0000001
 44
0.0000000001
 40
0.0
 40
0.0
 40
0.0
 40
0.0
 40
0.2459077447
 40
0.6201311797
 40
1.0
 40
1.0
 40
1.0
 40
1.0
 10
10.1170657142
 20
5.6155428207
 30
0.0
 10
10.1453574203
 20
5.6270928613
 30
0.0
 10
10.2173301348
 20
5.6547040528
 30
0.0
 10
10.3355704933
 20
5.6931849951
 30
0.0
 10
10.4263160533
 20
5.7168205041
 30
0.0
 10
10.4723227392
 20
5.7273920773
 30
0.0
  0
SPLINE
  5
36F
100
AcDbEntity
  8
0
100
AcDbSpline
 62
9
  6
CONTINUOUS
 70
0
 71
3
 72
51
 73
47
 74
0
 42
0.0000001
 43
0.0000001
 44
0.0000000001
 40
0.0
 40
0.0
 40
0.0
 40
0.0
 40
0.0371959283
 40
0.0738924586
 40
0.1100128458
 40
0.145488847
 40
0.1802621609
 40
0.2142858843
 40
0.2475259915
 40
0.2799628103
 40
0.311592442
 40
0.3424280356
 40
0.3725008476
 40
0.3872695087
 40
0.4018678664
 40
0.4163051465
 40
0.4305917324
 40
0.4447391473
 40
0.45875997
 40
0.4726677992
 40
0.4864771587
 40
0.5002033906
 40
0.5138625633
 40
0.5274713248
 40
0.5410467715
 40
0.554606302
 40
0.5681674562
 40
0.5817477585
 40
0.5953645631
 40
0.609034897
 40
0.6227753074
 40
0.6366017397
 40
0.6505293946
 40
0.6645726261
 40
0.6787448573
 40
0.6930584717
 40
0.7075247834
 40
0.7369481678
 40
0.7670896881
 40
0.7979976594
 40
0.8297016306
 40
0.8622131276
 40
0.8955267273
 40
0.9296214375
 40
0.9644616541
 40
1.0
 40
1.0
 40
1.0
 40
1.0
 10
11.6224617062
 20
5.7273581115
 30
0.0
 10
11.6646641693
 20
5.7176579258
 30
0.0
 10
11.7480092595
 20
5.6961567731
 30
0.0
 10
11.8701480173
 20
5.657407963
 30
0.0
 10
11.9880452015
 20
5.6125501869
 30
0.0
 10
12.1010880182
 20
5.5618141435
 30
0.0
 10
12.2086945055
 20
5.5054590468
 30
0.0
 10
12.3103088892
 20
5.4437727684
 30
0.0
 10
12.405406242
 20
5.3770697086
 30
0.0
 10
12.493494037
 20
5.3056899453
 30
0.0
 10
12.5741159475
 20
5.2299955011
 30
0.0
 10
12.6468485904
 20
5.150376331
 30
0.0
 10
12.7008996551
 20
5.0806625838
 30
0.0
 10
12.7397274172
 20
5.0233616857
 30
0.0
 10
12.7664843911
 20
4.9799287723
 30
0.0
 10
12.7910136812
 20
4.935841351
 30
0.0
 10
12.8132836469
 20
4.8911556376
 30
0.0
 10
12.8332652137
 20
4.8459298718
 30
0.0
 10
12.8509318088
 20
4.8002224793
 30
0.0
 10
12.8662603201
 20
4.7540928948
 30
0.0
 10
12.8792306061
 20
4.7076010758
 30
0.0
 10
12.8898251672
 20
4.660807425
 30
0.0
 10
12.8980303626
 20
4.6137729836
 30
0.0
 10
12.9038350535
 20
4.5665590045
 30
0.0
 10
12.9072314932
 20
4.5192270978
 30
0.0
 10
12.9082154625
 20
4.4718390502
 30
0.0
 10
12.9067852325
 20
4.4244567214
 30
0.0
 10
12.9029430248
 20
4.3771419742
 30
0.0
 10
12.8966939081
 20
4.3299565427
 30
0.0
 10
12.8880459341
 20
4.2829620266
 30
0.0
 10
12.8770109779
 20
4.2362196006
 30
0.0
 10
12.8636033223
 20
4.1897901972
 30
0.0
 10
12.8478408201
 20
4.1437342137
 30
0.0
 10
12.8297444019
 20
4.0981113508
 30
0.0
 10
12.8093377185
 20
4.0529812
 30
0.0
 10
12.7866472993
 20
4.0084012464
 30
0.0
 10
12.7532047086
 20
3.9494476713
 30
0.0
 10
12.7057112482
 20
3.8773865328
 30
0.0
 10
12.6404675758
 20
3.7945530091
 30
0.0
 10
12.5669868571
 20
3.7152764757
 30
0.0
 10
12.4856571489
 20
3.6399660373
 30
0.0
 10
12.3969013746
 20
3.5690034656
 30
0.0
 10
12.3011805802
 20
3.5027504401
 30
0.0
 10
12.1989890355
 20
3.4415440229
 30
0.0
 10
12.0908594345
 20
3.3856978873
 30
0.0
 10
12.0158750777
 20
3.3525361493
 30
0.0
 10
11.9775709624
 20
3.3368985597
 30
0.0
  0
SPLINE
  5
370
100
AcDbEntity
  8
0
100
AcDbSpline
 62
9
  6
CONTINUOUS
 70
0
 71
3
 72
24
 73
20
 74
0
 42
0.0000001
 43
0.0000001
 44
0.0000000001
 40
0.0
 40
0.0
 40
0.0
 40
0.0
 40
0.0618219467
 40
0.1231200095
 40
0.1840220441
 40
0.2446621163
 40
0.3051784783
 40
0.3657113815
 40
0.4264008083
 40
0.487384219
 40
0.5487943974
 40
0.6107574706
 40
0.6733911597
 40
0.7368033308
 40
0.8010908488
 40
0.8663387309
 40
0.899349391
 40
0.9326262725
 40
1.0
 40
1.0
 40
1.0
 40
1.0
 10
9.4604416414
 20
4.8172805927
 30
0.0
 10
9.4543577196
 20
4.7993408977
 30
0.0
 10
9.4433881142
 20
4.7632118673
 30
0.0
 10
9.4305882836
 20
4.7082558121
 30
0.0
 10
9.4215511579
 20
4.6529208426
 30
0.0
 10
9.416299647
 20
4.5973399148
 30
0.0
 10
9.4148463096
 20
4.5416430789
 30
0.0
 10
9.4171946923
 20
4.4859617425
 30
0.0
 10
9.4233390381
 20
4.430426991
 30
0.0
 10
9.4332644129
 20
4.3751695073
 30
0.0
 10
9.4469467686
 20
4.3203190892
 30
0.0
 10
9.4643531133
 20
4.266004285
 30
0.0
 10
9.4854414896
 20
4.2123521079
 30
0.0
 10
9.5101615463
 20
4.1594873672
 30
0.0
 10
9.5384537848
 20
4.1075338922
 30
0.0
 10
9.5648505302
 20
4.0652610981
 30
0.0
 10
9.5876550124
 20
4.0320225594
 30
0.0
 10
9.6117771812
 20
3.9989189545
 30
0.0
 10
9.6309858545
 20
3.9747640489
 30
0.0
 10
9.6442636589
 20
3.9589560934
 30
0.0
  0
SPLINE
  5
371
100
AcDbEntity
  8
0
100
AcDbSpline
 62
9
  6
CONTINUOUS
 70
0
 71
3
 72
15
 73
11
 74
0
 42
0.0000001
 43
0.0000001
 44
0.0000000001
 40
0.0
 40
0.0
 40
0.0
 40
0.0
 40
0.1160103708
 40
0.2345941242
 40
0.3557988107
 40
0.4796298189
 40
0.6060529399
 40
0.7349972261
 40
0.8663580109
 40
1.0
 40
1.0
 40
1.0
 40
1.0
 10
9.6442636589
 20
3.9589560934
 30
0.0
 10
9.6617117883
 20
3.9381831369
 30
0.0
 10
9.6984863496
 20
3.8974073806
 30
0.0
 10
9.7582443275
 20
3.839434994
 30
0.0
 10
9.8229697688
 20
3.7842047728
 30
0.0
 10
9.8924087109
 20
3.7319312572
 30
0.0
 10
9.9662937734
 20
3.6828125973
 30
0.0
 10
10.0443405121
 20
3.6370361115
 30
0.0
 10
10.1262455306
 20
3.5947776372
 30
0.0
 10
10.1827546789
 20
3.5692643736
 30
0.0
 10
10.2115510937
 20
3.5571225461
 30
0.0
  0
SPLINE
  5
372
100
AcDbEntity
  8
0
100
AcDbSpline
 62
9
  6
CONTINUOUS
 70
0
 71
3
 72
13
 73
9
 74
0
 42
0.0000001
 43
0.0000001
 44
0.0000000001
 40
0.0
 40
0.0
 40
0.0
 40
0.0
 40
0.2432158378
 40
0.3668779491
 40
0.4917222083
 40
0.6176097718
 40
0.7443945968
 40
1.0
 40
1.0
 40
1.0
 40
1.0
 10
10.2115510937
 20
3.5571225461
 30
0.0
 10
10.2595634909
 20
3.5368784203
 30
0.0
 10
10.3333042155
 20
3.509351509
 30
0.0
 10
10.4340051058
 20
3.4783613886
 30
0.0
 10
10.5115400498
 20
3.4577403462
 30
0.0
 10
10.5904526582
 20
3.4399275009
 30
0.0
 10
10.6975101458
 20
3.4199299942
 30
0.0
 10
10.7788445291
 20
3.4093582539
 30
0.0
 10
10.8333667523
 20
3.4042595779
 30
0.0
  0
SPLINE
  5
373
100
AcDbEntity
  8
0
100
AcDbSpline
 62
9
  6
CONTINUOUS
 70
0
 71
3
 72
13
 73
9
 74
0
 42
0.0000001
 43
0.0000001
 44
0.0000000001
 40
0.0
 40
0.0
 40
0.0
 40
0.0
 40
0.2553101934
 40
0.3819962847
 40
0.5078323122
 40
0.6326821416
 40
0.7564138655
 40
1.0
 40
1.0
 40
1.0
 40
1.0
 10
11.2613461582
 20
3.4042667406
 30
0.0
 10
11.3139800336
 20
3.4091906184
 30
0.0
 10
11.3925134168
 20
3.4193015948
 30
0.0
 10
11.4959519425
 20
3.4382825053
 30
0.0
 10
11.5722664553
 20
3.455145562
 30
0.0
 10
11.6473230436
 20
3.4746311573
 30
0.0
 10
11.7449552277
 20
3.5038876309
 30
0.0
 10
11.8165561777
 20
3.5298297163
 30
0.0
 10
11.8632509719
 20
3.5488927861
 30
0.0
  0
SPLINE
  5
374
100
AcDbEntity
  8
0
100
AcDbSpline
 62
9
  6
CONTINUOUS
 70
0
 71
3
 72
11
 73
7
 74
0
 42
0.0000001
 43
0.0000001
 44
0.0000000001
 40
0.0
 40
0.0
 40
0.0
 40
0.0
 40
0.2451722518
 40
0.4938432057
 40
0.7456026559
 40
1.0
 40
1.0
 40
1.0
 40
1.0
 10
11.9775709624
 20
3.3368985597
 30
0.0
 10
11.9427380962
 20
3.3226781016
 30
0.0
 10
11.8718126106
 20
3.2958674524
 30
0.0
 10
11.7628385162
 20
3.2608426813
 30
0.0
 10
11.6509104066
 20
3.2308423925
 30
0.0
 10
11.5749723717
 20
3.2143491524
 30
0.0
 10
11.5366385663
 20
3.2069600229
 30
0.0
  0
SPLINE
  5
375
100
AcDbEntity
  8
0
100
AcDbSpline
 62
9
  6
CONTINUOUS
 70
0
 71
3
 72
10
 73
6
 74
0
 42
0.0000001
 43
0.0000001
 44
0.0000000001
 40
0.0
 40
0.0
 40
0.0
 40
0.0
 40
0.2486995808
 40
0.6237230016
 40
1.0
 40
1.0
 40
1.0
 40
1.0
 10
11.4522224594
 20
3.1921777914
 30
0.0
 10
11.4183331289
 20
3.1868345785
 30
0.0
 10
11.3330616466
 20
3.1751558068
 30
0.0
 10
11.195542704
 20
3.1632861542
 30
0.0
 10
11.0918675066
 20
3.1605099148
 30
0.0
 10
11.0399605087
 20
3.1606551031
 30
0.0
  0
SPLINE
  5
376
100
AcDbEntity
  8
0
100
AcDbSpline
 62
9
  6
CONTINUOUS
 70
0
 71
3
 72
56
 73
52
 74
0
 42
0.0000001
 43
0.0000001
 44
0.0000000001
 40
0.0
 40
0.0
 40
0.0
 40
0.0
 40
0.0373578786
 40
0.0745855035
 40
0.1115608367
 40
0.1481661327
 40
0.1842900627
 40
0.2198298878
 40
0.2546937096
 40
0.2888027286
 40
0.3220936329
 40
0.338420243
 40
0.3545269266
 40
0.3704111817
 40
0.3860719243
 40
0.4015095522
 40
0.4167259893
 40
0.4317247523
 40
0.4465110096
 40
0.4610915947
 40
0.4754750273
 40
0.4896715366
 40
0.5036930293
 40
0.5175530425
 40
0.5312666923
 40
0.5448505788
 40
0.5583226517
 40
0.5717020643
 40
0.5850089993
 40
0.5982644544
 40
0.6114900153
 40
0.6247076156
 40
0.6379392817
 40
0.6512068774
 40
0.6645318495
 40
0.6779349884
 40
0.6914362114
 40
0.7050543598
 40
0.7188070183
 40
0.7327103832
 40
0.7467791481
 40
0.761026402
 40
0.775463582
 40
0.7901004485
 40
0.8049450582
 40
0.8352739955
 40
0.8664894984
 40
0.8985975018
 40
0.9315806691
 40
0.9654003791
 40
1.0
 40
1.0
 40
1.0
 40
1.0
 10
11.0399605087
 20
3.1606551031
 30
0.0
 10
10.9893394278
 20
3.1607966947
 30
0.0
 10
10.8882574391
 20
3.163995265
 30
0.0
 10
10.7376131594
 20
3.1775188007
 30
0.0
 10
10.5890187586
 20
3.199675982
 30
0.0
 10
10.443466743
 20
3.2303204799
 30
0.0
 10
10.3019207722
 20
3.2692503397
 30
0.0
 10
10.1653205727
 20
3.3162092696
 30
0.0
 10
10.0345705466
 20
3.3708890774
 30
0.0
 10
9.9105429626
 20
3.4329281934
 30
0.0
 10
9.8128332095
 20
3.4908018672
 30
0.0
 10
9.7388696522
 20
3.5404412218
 30
0.0
 10
9.6859312143
 20
3.5789944277
 30
0.0
 10
9.6352615862
 20
3.6190449379
 30
0.0
 10
9.5869444886
 20
3.6605268305
 30
0.0
 10
9.5410607312
 20
3.7033710754
 30
0.0
 10
9.4976870125
 20
3.7475067288
 30
0.0
 10
9.4568959912
 20
3.7928606312
 30
0.0
 10
9.4187558661
 20
3.8393574163
 30
0.0
 10
9.3833306405
 20
3.8869199234
 30
0.0
 10
9.350680022
 20
3.9354692594
 30
0.0
 10
9.3208588902
 20
3.9849246258
 30
0.0
 10
9.2939175383
 20
4.0352037011
 30
0.0
 10
9.2699017403
 20
4.086222791
 30
0.0
 10
9.24885226
 20
4.13789674
 30
0.0
 10
9.2308047989
 20
4.1901391326
 30
0.0
 10
9.215790276
 20
4.2428625514
 30
0.0
 10
9.2038345433
 20
4.2959786083
 30
0.0
 10
9.1949579352
 20
4.3493980479
 30
0.0
 10
9.189175733
 20
4.4030310549
 30
0.0
 10
9.1864981152
 20
4.45678736
 30
0.0
 10
9.1869295512
 20
4.5105763957
 30
0.0
 10
9.1904692087
 20
4.5643075604
 30
0.0
 10
9.1971111547
 20
4.6178903543
 30
0.0
 10
9.2068439413
 20
4.6712345839
 30
0.0
 10
9.2196506532
 20
4.7242506057
 30
0.0
 10
9.2355093965
 20
4.7768494125
 30
0.0
 10
9.2543931652
 20
4.8289427884
 30
0.0
 10
9.2762695315
 20
4.8804436247
 30
0.0
 10
9.3011012737
 20
4.9312659075
 30
0.0
 10
9.3288464199
 20
4.9813247632
 30
0.0
 10
9.3594579734
 20
5.0305369254
 30
0.0
 10
9.3928839666
 20
5.0788203441
 30
0.0
 10
9.4290691351
 20
5.1260956072
 30
0.0
 10
9.481279066
 20
5.1881148972
 30
0.0
 10
9.553281893
 20
5.2626821802
 30
0.0
 10
9.6489847318
 20
5.3462333368
 30
0.0
 10
9.7539737825
 20
5.4239652854
 30
0.0
 10
9.8675456853
 20
5.4953654948
 30
0.0
 10
9.9889396419
 20
5.5599667152
 30
0.0
 10
10.0736598054
 20
5.5978224326
 30
0.0
 10
10.1170657142
 20
5.6155428207
 30
0.0
  0
SPLINE
  5
377
100
AcDbEntity
  8
0
100
AcDbSpline
 62
9
  6
CONTINUOUS
 70
0
 71
3
 72
28
 73
24
 74
0
 42
0.0000001
 43
0.0000001
 44
0.0000000001
 40
0.0
 40
0.0
 40
0.0
 40
0.0
 40
0.0251805018
 40
0.0504416358
 40
0.0758622355
 40
0.1015176242
 40
0.1274781311
 40
0.1538078116
 40
0.1805633849
 40
0.2077935874
 40
0.2355387597
 40
0.2638305645
 40
0.3221116912
 40
0.3827509861
 40
0.4457093991
 40
0.510839378
 40
0.5779014414
 40
0.6465809625
 40
0.7165047541
 40
0.7872567936
 40
0.8583936443
 40
0.9294585962
 40
1.0
 40
1.0
 40
1.0
 40
1.0
 10
10.5948183883
 20
6.009271898
 30
0.0
 10
10.5948183856
 20
6.0032196718
 30
0.0
 10
10.5953057497
 20
5.9910902403
 30
0.0
 10
10.5974952838
 20
5.9729698873
 30
0.0
 10
10.6011363055
 20
5.9549672649
 30
0.0
 10
10.6062162218
 20
5.9371426303
 30
0.0
 10
10.6127178712
 20
5.9195534855
 30
0.0
 10
10.6206195654
 20
5.9022569412
 30
0.0
 10
10.6298948592
 20
5.8853086105
 30
0.0
 10
10.6405128893
 20
5.8687629898
 30
0.0
 10
10.652439424
 20
5.8526725726
 30
0.0
 10
10.670205563
 20
5.8316911233
 30
0.0
 10
10.6955762783
 20
5.806893637
 30
0.0
 10
10.7301997898
 20
5.7800662633
 30
0.0
 10
10.7688647128
 20
5.7561930193
 30
0.0
 10
10.8110735295
 20
5.7355730923
 30
0.0
 10
10.8562895914
 20
5.7184615268
 30
0.0
 10
10.9039372691
 20
5.7050720477
 30
0.0
 10
10.9534105777
 20
5.6955727408
 30
0.0
 10
11.0040794291
 20
5.6900827283
 30
0.0
 10
11.0552997531
 20
5.6886715872
 30
0.0
 10
11.1064149661
 20
5.6913561332
 30
0.0
 10
11.1401935356
 20
5.6958818867
 30
0.0
 10
11.1568904109
 20
5.6988284967
 30
0.0
  0
SPLINE
  5
378
100
AcDbEntity
  8
0
100
AcDbSpline
 62
7
  6
CONTINUOUS
 70
0
 71
3
 72
28
 73
24
 74
0
 42
0.0000001
 43
0.0000001
 44
0.0000000001
 40
0.0
 40
0.0
 40
0.0
 40
0.0
 40
0.027440355
 40
0.0549852195
 40
0.0826565543
 40
0.1104755736
 40
0.1384626523
 40
0.1666372215
 40
0.2236109357
 40
0.2815411574
 40
0.3109061577
 40
0.340551385
 40
0.4007165201
 40
0.4621184694
 40
0.4933041286
 40
0.5248166161
 40
0.5888264917
 40
0.6541673222
 40
0.7208319198
 40
0.7887955835
 40
0.8580176132
 40
0.9284419765
 40
1.0
 40
1.0
 40
1.0
 40
1.0
 10
13.1858116048
 20
3.8411178318
 30
0.0
 10
13.1836298391
 20
3.8262256008
 30
0.0
 10
13.1786403584
 20
3.7964712335
 30
0.0
 10
13.1693128673
 20
3.7520912449
 30
0.0
 10
13.1581375726
 20
3.7079251904
 30
0.0
 10
13.1451246058
 20
3.6640128004
 30
0.0
 10
13.1302850891
 20
3.6203914402
 30
0.0
 10
13.1080015476
 20
3.5624605681
 30
0.0
 10
13.0755675784
 20
3.4909065666
 30
0.0
 10
13.037540257
 20
3.4214240716
 30
0.0
 10
13.0037392118
 20
3.3668965239
 30
0.0
 10
12.9673363697
 20
3.3125875429
 30
0.0
 10
12.9175545118
 20
3.2461607305
 30
0.0
 10
12.8628842036
 20
3.1825854413
 30
0.0
 10
12.8160692271
 20
3.1331571188
 30
0.0
 10
12.7667033644
 20
3.084221631
 30
0.0
 10
12.7011738524
 20
3.025047269
 30
0.0
 10
12.6172075566
 20
2.9578024902
 30
0.0
 10
12.5277904373
 20
2.8941803149
 30
0.0
 10
12.4332356912
 20
2.8344016119
 30
0.0
 10
12.3338705574
 20
2.7786714373
 30
0.0
 10
12.2300432927
 20
2.7271830041
 30
0.0
 10
12.1586253564
 20
2.6960370868
 30
0.0
 10
12.122286909
 20
2.6812019778
 30
0.0
  0
SPLINE
  5
379
100
AcDbEntity
  8
0
100
AcDbSpline
 62
9
  6
CONTINUOUS
 70
0
 71
3
 72
51
 73
47
 74
0
 42
0.0000001
 43
0.0000001
 44
0.0000000001
 40
0.0
 40
0.0
 40
0.0
 40
0.0
 40
0.0133189901
 40
0.0265119503
 40
0.0395929287
 40
0.0525769945
 40
0.0654801106
 40
0.0783190052
 40
0.0911110338
 40
0.1038740093
 40
0.1166260313
 40
0.1293853101
 40
0.1421699844
 40
0.1549979402
 40
0.1678866344
 40
0.1808529394
 40
0.1939129871
 40
0.2070820291
 40
0.2203743359
 40
0.2338030894
 40
0.2473802981
 40
0.2611167595
 40
0.2890973611
 40
0.3178130108
 40
0.3324627857
 40
0.3473096317
 40
0.3623554282
 40
0.3776008585
 40
0.4086826975
 40
0.4405440053
 40
0.4731522351
 40
0.5064605284
 40
0.5404094069
 40
0.5749284722
 40
0.6099380383
 40
0.6453507333
 40
0.6810730812
 40
0.7170070264
 40
0.7530514358
 40
0.7891035918
 40
0.825060665
 40
0.8608211913
 40
0.8962865577
 40
0.9313625253
 40
0.9659604699
 40
1.0
 40
1.0
 40
1.0
 40
1.0
 10
9.1500203599
 20
4.5531121923
 30
0.0
 10
9.1420003156
 20
4.5362922554
 30
0.0
 10
9.1268416884
 20
4.5024199917
 30
0.0
 10
9.1067362389
 20
4.4507808051
 30
0.0
 10
9.0894056357
 20
4.3986369208
 30
0.0
 10
9.0748755976
 20
4.3460647593
 30
0.0
 10
9.063167253
 20
4.2931393624
 30
0.0
 10
9.0542980274
 20
4.2399368927
 30
0.0
 10
9.0482806385
 20
4.1865339404
 30
0.0
 10
9.0451240271
 20
4.1330073996
 30
0.0
 10
9.0448330345
 20
4.079434407
 30
0.0
 10
9.0474077896
 20
4.0258921853
 30
0.0
 10
9.0528446234
 20
3.9724578842
 30
0.0
 10
9.0611357093
 20
3.919208509
 30
0.0
 10
9.0722685782
 20
3.8662206619
 30
0.0
 10
9.0862270476
 20
3.8135705513
 30
0.0
 10
9.1029908276
 20
3.7613338442
 30
0.0
 10
9.1225351556
 20
3.7095853981
 30
0.0
 10
9.1448317671
 20
3.6583993216
 30
0.0
 10
9.1698481644
 20
3.6078491475
 30
0.0
 10
9.1975485598
 20
3.558006053
 30
0.0
 10
9.2382513306
 20
3.4921914341
 30
0.0
 10
9.2957948929
 20
3.4120255934
 30
0.0
 10
9.3608761231
 20
3.3361788767
 30
0.0
 10
9.4176010047
 20
3.2777140996
 30
0.0
 10
9.4627603116
 20
3.2347460715
 30
0.0
 10
9.5101819807
 20
3.1930177373
 30
0.0
 10
9.5767595185
 20
3.1387667712
 30
0.0
 10
9.6653613953
 20
3.0744326351
 30
0.0
 10
9.7788579278
 20
3.0036045952
 30
0.0
 10
9.8995740057
 20
2.9390438986
 30
0.0
 10
10.0268182386
 20
2.8811168919
 30
0.0
 10
10.159867851
 20
2.830148743
 30
0.0
 10
10.2979658646
 20
2.7864272885
 30
0.0
 10
10.440326976
 20
2.7501994234
 30
0.0
 10
10.586141406
 20
2.7216697983
 30
0.0
 10
10.734579735
 20
2.700999925
 30
0.0
 10
10.8847974865
 20
2.6883069221
 30
0.0
 10
11.0359399596
 20
2.6836624973
 30
0.0
 10
11.1871471866
 20
2.6870930351
 30
0.0
 10
11.3375587605
 20
2.6985792106
 30
0.0
 10
11.4863190343
 20
2.718055838
 30
0.0
 10
11.6325812348
 20
2.7454124652
 30
0.0
 10
11.775514828
 20
2.7804952166
 30
0.0
 10
11.9143006953
 20
2.8231026539
 30
0.0
 10
12.0043452229
 20
2.8566672177
 30
0.0
 10
12.0484360611
 20
2.874667227
 30
0.0
  0
SPLINE
  5
37A
100
AcDbEntity
  8
0
100
AcDbSpline
 62
9
  6
CONTINUOUS
 70
0
 71
3
 72
25
 73
21
 74
0
 42
0.0000001
 43
0.0000001
 44
0.0000000001
 40
0.0
 40
0.0
 40
0.0
 40
0.0
 40
0.0282675409
 40
0.0565574792
 40
0.084892091
 40
0.1132934036
 40
0.1417830797
 40
0.1703823026
 40
0.2279804847
 40
0.28625487
 40
0.3453477287
 40
0.4053853696
 40
0.466476563
 40
0.528711557
 40
0.5921616264
 40
0.6568790728
 40
0.7228975883
 40
0.7902328982
 40
0.8588836075
 40
1.0
 40
1.0
 40
1.0
 40
1.0
 10
9.14231838
 20
4.2983375589
 30
0.0
 10
9.1423184006
 20
4.2856894575
 30
0.0
 10
9.1428226136
 20
4.2603803361
 30
0.0
 10
9.1450910831
 20
4.2224542632
 30
0.0
 10
9.1488696553
 20
4.1845880014
 30
0.0
 10
9.1541554741
 20
4.1468127132
 30
0.0
 10
9.1609443279
 20
4.1091575938
 30
0.0
 10
9.1720171654
 20
4.0590395564
 30
0.0
 10
9.1896346525
 20
3.9967714092
 30
0.0
 10
9.2166277757
 20
3.9232090539
 30
0.0
 10
9.2494361807
 20
3.8508501139
 30
0.0
 10
9.2879515493
 20
3.7799276837
 30
0.0
 10
9.3320483812
 20
3.7106653851
 30
0.0
 10
9.38158378
 20
3.6432819826
 30
0.0
 10
9.4363981126
 20
3.5779895581
 30
0.0
 10
9.4963159161
 20
3.5149931266
 30
0.0
 10
9.5611447612
 20
3.4544911686
 30
0.0
 10
9.6306822662
 20
3.3966708264
 30
0.0
 10
9.7302683576
 20
3.3227352726
 30
0.0
 10
9.8100485347
 20
3.2728800305
 30
0.0
 10
9.8651496442
 20
3.2420463712
 30
0.0
  0
SPLINE
  5
37B
100
AcDbEntity
  8
0
100
AcDbSpline
 62
9
  6
CONTINUOUS
 70
0
 71
3
 72
23
 73
19
 74
0
 42
0.0000001
 43
0.0000001
 44
0.0000000001
 40
0.0
 40
0.0
 40
0.0
 40
0.0
 40
0.0584999507
 40
0.1182126263
 40
0.1790307128
 40
0.240828731
 40
0.3034657828
 40
0.3667882808
 40
0.4306325811
 40
0.4948275477
 40
0.5591971024
 40
0.6235627306
 40
0.6877459718
 40
0.7515709128
 40
0.8148666956
 40
0.8774701169
 40
0.9392276395
 40
1.0
 40
1.0
 40
1.0
 40
1.0
 10
9.8651496442
 20
3.2420463712
 30
0.0
 10
9.9026812213
 20
3.2210443284
 30
0.0
 10
9.9799427126
 20
3.1810958881
 30
0.0
 10
10.1004767416
 20
3.1280305693
 30
0.0
 10
10.2262548207
 20
3.0814560709
 30
0.0
 10
10.356574638
 20
3.0416318654
 30
0.0
 10
10.4907170391
 20
3.0087756157
 30
0.0
 10
10.6279394167
 20
2.9830683204
 30
0.0
 10
10.7674826823
 20
2.9646515622
 30
0.0
 10
10.908574602
 20
2.9536266963
 30
0.0
 10
11.050434371
 20
2.9500543974
 30
0.0
 10
11.1922769031
 20
2.9539544884
 30
0.0
 10
11.3333171575
 20
2.9653054457
 30
0.0
 10
11.4727747433
 20
2.9840446639
 30
0.0
 10
11.609877551
 20
3.0100688168
 30
0.0
 10
11.743868338
 20
3.0432354431
 30
0.0
 10
11.874000252
 20
3.0833593137
 30
0.0
 10
11.9584537739
 20
3.1148810562
 30
0.0
 10
11.9998183383
 20
3.1317680689
 30
0.0
  0
SPLINE
  5
37C
100
AcDbEntity
  8
0
100
AcDbSpline
 62
9
  6
CONTINUOUS
 70
0
 71
3
 72
42
 73
38
 74
0
 42
0.0000001
 43
0.0000001
 44
0.0000000001
 40
0.0
 40
0.0
 40
0.0
 40
0.0
 40
0.0124258905
 40
0.0248650666
 40
0.0373307121
 40
0.0498358162
 40
0.0623930789
 40
0.0750148151
 40
0.100492447
 40
0.1263631987
 40
0.1394735266
 40
0.1527102454
 40
0.1795881195
 40
0.2070553619
 40
0.2351518492
 40
0.2639044403
 40
0.293327355
 40
0.3234227801
 40
0.3541816285
 40
0.3855843914
 40
0.4176020424
 40
0.4501969636
 40
0.4833238724
 40
0.5169307372
 40
0.5509596763
 40
0.5853478378
 40
0.6200282603
 40
0.6549307168
 40
0.6899825435
 40
0.7251094586
 40
0.7602363733
 40
0.7952881996
 40
0.8301906545
 40
0.864871082
 40
0.8992592272
 40
0.933288225
 40
1.0
 40
1.0
 40
1.0
 40
1.0
 10
9.4273183795
 20
4.5611215783
 30
0.0
 10
9.4273183567
 20
4.5486248559
 30
0.0
 10
9.4278974397
 20
4.5236141896
 30
0.0
 10
9.4305018295
 20
4.486148404
 30
0.0
 10
9.4348393988
 20
4.4487625393
 30
0.0
 10
9.4409051292
 20
4.4114980927
 30
0.0
 10
9.4486930497
 20
4.3743941949
 30
0.0
 10
9.461398181
 20
4.3250435092
 30
0.0
 10
9.4816094686
 20
4.2638715893
 30
0.0
 10
9.5072436873
 20
4.2042388785
 30
0.0
 10
9.5309697634
 20
4.1573742335
 30
0.0
 10
9.5570987218
 20
4.110641165
 30
0.0
 10
9.5938571637
 20
4.0533794018
 30
0.0
 10
9.6439567234
 20
3.9872194836
 30
0.0
 10
9.7000571204
 20
3.9235333431
 30
0.0
 10
9.7619135093
 20
3.8625933089
 30
0.0
 10
9.8292596939
 20
3.8046556563
 30
0.0
 10
9.9018063074
 20
3.7499650964
 30
0.0
 10
9.9792426318
 20
3.6987524133
 30
0.0
 10
10.0612375257
 20
3.6512339654
 30
0.0
 10
10.1474407367
 20
3.6076106624
 30
0.0
 10
10.2374842671
 20
3.5680671424
 30
0.0
 10
10.3309838532
 20
3.5327709416
 30
0.0
 10
10.4275405375
 20
3.5018717415
 30
0.0
 10
10.526742326
 20
3.4755006854
 30
0.0
 10
10.6281659189
 20
3.4537697785
 30
0.0
 10
10.7313785033
 20
3.436771374
 30
0.0
 10
10.8359395945
 20
3.4245777471
 30
0.0
 10
10.9414029234
 20
3.4172407674
 30
0.0
 10
11.0473183321
 20
3.4147916424
 30
0.0
 10
11.1532337688
 20
3.4172407949
 30
0.0
 10
11.258697007
 20
3.4245777617
 30
0.0
 10
11.3632584193
 20
3.4367714756
 30
0.0
 10
11.4664698209
 20
3.4537695192
 30
0.0
 10
11.5678977792
 20
3.4755017061
 30
0.0
 10
11.6992678056
 20
3.5104233334
 30
0.0
 10
11.7952031652
 20
3.5437198192
 30
0.0
 10
11.8573183383
 20
3.5690782324
 30
0.0
  0
SPLINE
  5
37D
100
AcDbEntity
  8
0
100
AcDbSpline
 62
9
  6
CONTINUOUS
 70
0
 71
3
 72
22
 73
18
 74
0
 42
0.0000001
 43
0.0000001
 44
0.0000000001
 40
0.0
 40
0.0
 40
0.0
 40
0.0
 40
0.056548967
 40
0.1132764586
 40
0.1703570786
 40
0.2279577973
 40
0.2862346276
 40
0.3453298252
 40
0.4053696895
 40
0.4664629862
 40
0.5286999639
 40
0.5921519026
 40
0.6568711134
 40
0.7228913034
 40
0.7902282107
 40
0.8588804769
 40
1.0
 40
1.0
 40
1.0
 40
1.0
 10
12.9523182965
 20
4.2983375589
 30
0.0
 10
12.9523183377
 20
4.2730388072
 30
0.0
 10
12.9502955121
 20
4.2223383616
 30
0.0
 10
12.9412081356
 20
4.1465917701
 30
0.0
 10
12.9260965265
 20
4.0713301508
 30
0.0
 10
12.9050114487
 20
3.9968019481
 30
0.0
 10
12.8780232158
 20
3.923244254
 30
0.0
 10
12.845221184
 20
3.85089222
 30
0.0
 10
12.8067131225
 20
3.7799755702
 30
0.0
 10
12.762624622
 20
3.7107187699
 30
0.0
 10
12.7130984861
 20
3.643340276
 30
0.0
 10
12.6582942977
 20
3.5780521828
 30
0.0
 10
12.598387451
 20
3.5150594327
 30
0.0
 10
12.5335703034
 20
3.4545604646
 30
0.0
 10
12.4640451591
 20
3.3967423672
 30
0.0
 10
12.3644764792
 20
3.3228087779
 30
0.0
 10
12.284709782
 20
3.2729537454
 30
0.0
 10
12.2296178077
 20
3.2421196169
 30
0.0
  0
SPLINE
  5
37E
100
AcDbEntity
  8
0
100
AcDbSpline
 62
9
  6
CONTINUOUS
 70
0
 71
3
 72
9
 73
5
 74
0
 42
0.0000001
 43
0.0000001
 44
0.0000000001
 40
0.0
 40
0.0
 40
0.0
 40
0.0
 40
0.2462366076
 40
1.0
 40
1.0
 40
1.0
 40
1.0
 10
12.2296178077
 20
3.2421196169
 30
0.0
 10
12.2113527896
 20
3.2318969679
 30
0.0
 10
12.1365127653
 20
3.1915741796
 30
0.0
 10
12.0591384986
 20
3.1559854229
 30
0.0
 10
11.9998183383
 20
3.1317680689
 30
0.0
  0
SPLINE
  5
37F
100
AcDbEntity
  8
0
100
AcDbSpline
 62
9
  6
CONTINUOUS
 70
0
 71
3
 72
29
 73
25
 74
0
 42
0.0000001
 43
0.0000001
 44
0.0000000001
 40
0.0
 40
0.0
 40
0.0
 40
0.0
 40
0.0276002701
 40
0.0552300495
 40
0.0829186234
 40
0.1106948407
 40
0.1385869141
 40
0.1666221949
 40
0.1948270359
 40
0.2232265719
 40
0.2518446202
 40
0.2807035276
 40
0.3098240543
 40
0.3392253361
 40
0.3989262105
 40
0.459936184
 40
0.5223438336
 40
0.5862088208
 40
0.6515627258
 40
0.7184104107
 40
0.7867316391
 40
0.8564832799
 40
0.927600217
 40
1.0
 40
1.0
 40
1.0
 40
1.0
 10
12.9523182965
 20
4.4277726261
 30
0.0
 10
12.9523183205
 20
4.4130774062
 30
0.0
 10
12.9516373525
 20
4.3836667184
 30
0.0
 10
12.9485748051
 20
4.3396097164
 30
0.0
 10
12.9434741325
 20
4.2956467522
 30
0.0
 10
12.9363412414
 20
4.2518263706
 30
0.0
 10
12.9271834676
 20
4.2081954941
 30
0.0
 10
12.9160113177
 20
4.1648010397
 30
0.0
 10
12.9028365152
 20
4.121689744
 30
0.0
 10
12.8876737283
 20
4.078907842
 30
0.0
 10
12.8705392888
 20
4.0365012247
 30
0.0
 10
12.8514518357
 20
3.9945155971
 30
0.0
 10
12.8304318167
 20
3.9529951156
 30
0.0
 10
12.7997062792
 20
3.8980413588
 30
0.0
 10
12.7564810088
 20
3.8307053179
 30
0.0
 10
12.6975676902
 20
3.7529062861
 30
0.0
 10
12.6315977812
 20
3.678016053
 30
0.0
 10
12.5588592261
 20
3.606355111
 30
0.0
 10
12.4796650788
 20
3.5382247421
 30
0.0
 10
12.3943555732
 20
3.4739127189
 30
0.0
 10
12.3032963249
 20
3.4136904076
 30
0.0
 10
12.2068758818
 20
3.3578120946
 30
0.0
 10
12.1055097496
 20
3.3065151748
 30
0.0
 10
12.0355067014
 20
3.2757728493
 30
0.0
 10
11.9998183383
 20
3.2612031361
 30
0.0
  0
SPLINE
  5
380
100
AcDbEntity
  8
0
100
AcDbSpline
 62
9
  6
CONTINUOUS
 70
0
 71
3
 72
28
 73
24
 74
0
 42
0.0000001
 43
0.0000001
 44
0.0000000001
 40
0.0
 40
0.0
 40
0.0
 40
0.0
 40
0.0276006137
 40
0.0552307355
 40
0.0829196505
 40
0.1106962171
 40
0.1385886293
 40
0.1666242655
 40
0.1948294492
 40
0.2232293413
 40
0.2518477448
 40
0.2807070044
 40
0.3392171368
 40
0.3989187545
 40
0.4599294911
 40
0.5223379201
 40
0.5862036999
 40
0.6515584104
 40
0.718406923
 40
0.7867289907
 40
0.8564814949
 40
0.9275993531
 40
1.0
 40
1.0
 40
1.0
 40
1.0
 10
12.6673182971
 20
4.5851550294
 30
0.0
 10
12.6673182744
 20
4.5726583063
 30
0.0
 10
12.6667393073
 20
4.5476476386
 30
0.0
 10
12.6641347628
 20
4.5101818551
 30
0.0
 10
12.6597973978
 20
4.472796
 30
0.0
 10
12.6537313856
 20
4.4355314665
 30
0.0
 10
12.6459439122
 20
4.39842799
 30
0.0
 10
12.6364429887
 20
4.3615256791
 30
0.0
 10
12.6252393363
 20
4.3248640379
 30
0.0
 10
12.6123450141
 20
4.2884826952
 30
0.0
 10
12.5977737138
 20
4.2524200067
 30
0.0
 10
12.5760345815
 20
4.204600497
 30
0.0
 10
12.5446620893
 20
4.1457707055
 30
0.0
 10
12.5007805783
 20
4.0774149054
 30
0.0
 10
12.4506797008
 20
4.0112523464
 30
0.0
 10
12.3945796484
 20
3.9475669468
 30
0.0
 10
12.3327231353
 20
3.8866267222
 30
0.0
 10
12.2653769716
 20
3.8286891347
 30
0.0
 10
12.1928303101
 20
3.7739985727
 30
0.0
 10
12.1153941118
 20
3.7227858954
 30
0.0
 10
12.0333987633
 20
3.6752673192
 30
0.0
 10
11.9471976361
 20
3.631644752
 30
0.0
 10
11.8876674832
 20
3.6055016701
 30
0.0
 10
11.8573183383
 20
3.5931116836
 30
0.0
  0
SPLINE
  5
381
100
AcDbEntity
  8
0
100
AcDbSpline
 62
7
  6
CONTINUOUS
 70
0
 71
3
 72
23
 73
19
 74
0
 42
0.0000001
 43
0.0000001
 44
0.0000000001
 40
0.0
 40
0.0
 40
0.0
 40
0.0
 40
0.0563738812
 40
0.1144528012
 40
0.1743691245
 40
0.2362431126
 40
0.300044578
 40
0.3655727388
 40
0.4324247544
 40
0.4999999942
 40
0.5675752327
 40
0.6344272504
 40
0.6999554193
 40
0.7637568893
 40
0.8256308708
 40
0.8855471954
 40
0.943626118
 40
1.0
 40
1.0
 40
1.0
 40
1.0
 10
11.5767815167
 20
10.5905196219
 30
0.0
 10
11.5782296825
 20
10.5917603295
 30
0.0
 10
11.5810501
 20
10.5944230383
 30
0.0
 10
11.5849242618
 20
10.5988834301
 30
0.0
 10
11.5884292247
 20
10.6038706146
 30
0.0
 10
11.5914814054
 20
10.6093706094
 30
0.0
 10
11.5939913303
 20
10.615345908
 30
0.0
 10
11.5958682024
 20
10.621725921
 30
0.0
 10
11.5970320115
 20
10.628403996
 30
0.0
 10
11.597426691
 20
10.6352409808
 30
0.0
 10
11.5970320117
 20
10.6420779657
 30
0.0
 10
11.5958682027
 20
10.6487560411
 30
0.0
 10
11.5939913303
 20
10.6551360545
 30
0.0
 10
11.5914814056
 20
10.6611113535
 30
0.0
 10
11.5884292248
 20
10.6666113481
 30
0.0
 10
11.5849242619
 20
10.6715985326
 30
0.0
 10
11.5810501001
 20
10.6760589245
 30
0.0
 10
11.5782296825
 20
10.6787216334
 30
0.0
 10
11.5767815167
 20
10.679962341
 30
0.0
  0
SPLINE
  5
382
100
AcDbEntity
  8
0
100
AcDbSpline
 62
7
  6
CONTINUOUS
 70
0
 71
3
 72
15
 73
11
 74
0
 42
0.0000001
 43
0.0000001
 44
0.0000000001
 40
0.0
 40
0.0
 40
0.0
 40
0.0
 40
0.1135423846
 40
0.2302294019
 40
0.350221678
 40
0.4735972638
 40
0.6003593073
 40
0.730439289
 40
0.8637154469
 40
1.0
 40
1.0
 40
1.0
 40
1.0
 10
10.6975903547
 20
6.2962786902
 30
0.0
 10
10.7016709354
 20
6.2901163426
 30
0.0
 10
10.7105288886
 20
6.277998594
 30
0.0
 10
10.7255379584
 20
6.2608057229
 30
0.0
 10
10.74235566
 20
6.244445919
 30
0.0
 10
10.7608819045
 20
6.2290078307
 30
0.0
 10
10.7810108052
 20
6.2145718315
 30
0.0
 10
10.80262945
 20
6.2012123658
 30
0.0
 10
10.8256171936
 20
6.1889987222
 30
0.0
 10
10.8416047321
 20
6.1817370629
 30
0.0
 10
10.8497861108
 20
6.1783070617
 30
0.0
  0
SPLINE
  5
383
100
AcDbEntity
  8
0
100
AcDbSpline
 62
7
  6
CONTINUOUS
 70
0
 71
3
 72
21
 73
17
 74
0
 42
0.0000001
 43
0.0000001
 44
0.0000000001
 40
0.0
 40
0.0
 40
0.0
 40
0.0
 40
0.1157391674
 40
0.1761441672
 40
0.2379802607
 40
0.3010338238
 40
0.3650645392
 40
0.4298123711
 40
0.4950034833
 40
0.5603569724
 40
0.6255907378
 40
0.6904276455
 40
0.7546018737
 40
0.8178647405
 40
0.8799914505
 40
1.0
 40
1.0
 40
1.0
 40
1.0
 10
10.7818257114
 20
6.182179456
 30
0.0
 10
10.7994132641
 20
6.1706743281
 30
0.0
 10
10.8278040752
 20
6.1555373028
 30
0.0
 10
10.8680284926
 20
6.1396855562
 30
0.0
 10
10.900189209
 20
6.1296837229
 30
0.0
 10
10.9336129963
 20
6.1218403957
 30
0.0
 10
10.9680186396
 20
6.1162257872
 30
0.0
 10
11.0031086824
 20
6.1128948762
 30
0.0
 10
11.038581914
 20
6.1118821814
 30
0.0
 10
11.0741332636
 20
6.113202731
 30
0.0
 10
11.1094570606
 20
6.1168514762
 30
0.0
 10
11.1442501469
 20
6.122803794
 30
0.0
 10
11.1782120891
 20
6.1310144671
 30
0.0
 10
11.2110567892
 20
6.1414226103
 30
0.0
 10
11.2524762527
 20
6.1579157887
 30
0.0
 10
11.2818134803
 20
6.1735741546
 30
0.0
 10
11.300095007
 20
6.1854342921
 30
0.0
  0
SPLINE
  5
384
100
AcDbEntity
  8
0
100
AcDbSpline
 62
7
  6
CONTINUOUS
 70
0
 71
3
 72
23
 73
19
 74
0
 42
0.0000001
 43
0.0000001
 44
0.0000000001
 40
0.0
 40
0.0
 40
0.0
 40
0.0
 40
0.0577575393
 40
0.1168227967
 40
0.1772970473
 40
0.2392893341
 40
0.3027855202
 40
0.3676367201
 40
0.4335322036
 40
0.4999999943
 40
0.5664677837
 40
0.6323632693
 40
0.6972144772
 40
0.7607106677
 40
0.822702948
 40
0.8831771998
 40
0.9422424599
 40
1.0
 40
1.0
 40
1.0
 40
1.0
 10
11.5725121285
 20
10.5905196219
 30
0.0
 10
11.574067519
 20
10.5917559016
 30
0.0
 10
11.5770970211
 20
10.5944074688
 30
0.0
 10
11.5812739572
 20
10.5988655039
 30
0.0
 10
11.585053986
 20
10.6038512321
 30
0.0
 10
11.5883468913
 20
10.6093512391
 30
0.0
 10
11.5910558212
 20
10.6153284916
 30
0.0
 10
11.5930822639
 20
10.6217126316
 30
0.0
 10
11.5943391975
 20
10.6283967701
 30
0.0
 10
11.5947655311
 20
10.6352409808
 30
0.0
 10
11.5943391977
 20
10.6420851916
 30
0.0
 10
11.5930822642
 20
10.6487693305
 30
0.0
 10
11.5910558212
 20
10.6551534709
 30
0.0
 10
11.5883468915
 20
10.6611307238
 30
0.0
 10
11.5850539861
 20
10.6666307306
 30
0.0
 10
11.5812739574
 20
10.6716164588
 30
0.0
 10
11.5770970213
 20
10.676074494
 30
0.0
 10
11.574067519
 20
10.6787260613
 30
0.0
 10
11.5725121285
 20
10.679962341
 30
0.0
  0
SPLINE
  5
385
100
AcDbEntity
  8
0
100
AcDbSpline
 62
7
  6
CONTINUOUS
 70
0
 71
3
 72
21
 73
17
 74
0
 42
0.0000001
 43
0.0000001
 44
0.0000000001
 40
0.0
 40
0.0
 40
0.0
 40
0.0
 40
0.116800531
 40
0.1775137678
 40
0.2395180215
 40
0.3026113053
 40
0.3665707322
 40
0.4311574098
 40
0.4961220298
 40
0.5612099611
 40
0.6261660108
 40
0.69073995
 40
0.7546910683
 40
0.8177935339
 40
0.8798416864
 40
1.0
 40
1.0
 40
1.0
 40
1.0
 10
10.7958289881
 20
6.1245771637
 30
0.0
 10
10.8131895935
 20
6.1142435876
 30
0.0
 10
10.8409198647
 20
6.100698052
 30
0.0
 10
10.8798938922
 20
6.0865902195
 30
0.0
 10
10.9108278491
 20
6.0777644196
 30
0.0
 10
10.9428269173
 20
6.0709122344
 30
0.0
 10
10.9756460523
 20
6.0660900967
 30
0.0
 10
11.0090274243
 20
6.0633414788
 30
0.0
 10
11.0427105293
 20
6.0626930286
 30
0.0
 10
11.0764320648
 20
6.0641553074
 30
0.0
 10
11.1099284966
 20
6.0677223699
 30
0.0
 10
11.1429384849
 20
6.0733721553
 30
0.0
 10
11.1752029685
 20
6.0810657041
 30
0.0
 10
11.2064747354
 20
6.0907510648
 30
0.0
 10
11.246072006
 20
6.1060524785
 30
0.0
 10
11.2742482764
 20
6.1205135667
 30
0.0
 10
11.2919220847
 20
6.1314504583
 30
0.0
  0
SPLINE
  5
386
100
AcDbEntity
  8
0
100
AcDbSpline
 62
7
  6
CONTINUOUS
 70
0
 71
3
 72
23
 73
19
 74
0
 42
0.0000001
 43
0.0000001
 44
0.0000000001
 40
0.0
 40
0.0
 40
0.0
 40
0.0
 40
0.0589738917
 40
0.1189149365
 40
0.1798923806
 40
0.2420000049
 40
0.3052328168
 40
0.3694844849
 40
0.4345253293
 40
0.4999999943
 40
0.5654746581
 40
0.6305155045
 40
0.6947671805
 40
0.7579999969
 40
0.8201076146
 40
0.88108506
 40
0.9410261075
 40
1.0
 40
1.0
 40
1.0
 40
1.0
 10
11.5640139539
 20
10.5905196219
 30
0.0
 10
11.5656644264
 20
10.5917523262
 30
0.0
 10
11.5688790101
 20
10.5943946187
 30
0.0
 10
11.5733246588
 20
10.5988502892
 30
0.0
 10
11.5773489253
 20
10.6038343053
 30
0.0
 10
11.5808557903
 20
10.6093338538
 30
0.0
 10
11.5837418619
 20
10.6153124752
 30
0.0
 10
11.5859016785
 20
10.6217001721
 30
0.0
 10
11.5872417877
 20
10.6283899104
 30
0.0
 10
11.5876964216
 20
10.6352409808
 30
0.0
 10
11.5872417879
 20
10.6420920513
 30
0.0
 10
11.5859016788
 20
10.64878179
 30
0.0
 10
11.5837418619
 20
10.6551694874
 30
0.0
 10
11.5808557905
 20
10.661148109
 30
0.0
 10
11.5773489254
 20
10.6666476575
 30
0.0
 10
11.573324659
 20
10.6716316735
 30
0.0
 10
11.5688790103
 20
10.6760873442
 30
0.0
 10
11.5656644265
 20
10.6787296367
 30
0.0
 10
11.5640139539
 20
10.679962341
 30
0.0
  0
SPLINE
  5
387
100
AcDbEntity
  8
0
100
AcDbSpline
 62
7
  6
CONTINUOUS
 70
0
 71
3
 72
23
 73
19
 74
0
 42
0.0000001
 43
0.0000001
 44
0.0000000001
 40
0.0
 40
0.0
 40
0.0
 40
0.0
 40
0.0600137534
 40
0.1207097527
 40
0.1821267088
 40
0.2443414866
 40
0.3073531452
 40
0.3710892144
 40
0.4353891717
 40
0.5000000081
 40
0.5646108335
 40
0.6289107857
 40
0.6926468564
 40
0.7556585148
 40
0.8178732885
 40
0.8792902453
 40
0.9399862463
 40
1.0
 40
1.0
 40
1.0
 40
1.0
 10
11.5513554191
 20
10.5905196219
 30
0.0
 10
11.5530881758
 20
10.5917494822
 30
0.0
 10
11.5564626973
 20
10.5943842171
 30
0.0
 10
11.5611409413
 20
10.5988376853
 30
0.0
 10
11.5653766774
 20
10.6038199384
 30
0.0
 10
11.5690689411
 20
10.6093187407
 30
0.0
 10
11.5721087112
 20
10.615298245
 30
0.0
 10
11.5743844495
 20
10.6216889047
 30
0.0
 10
11.5757969715
 20
10.6283836352
 30
0.0
 10
11.5762762698
 20
10.6352409819
 30
0.0
 10
11.5757969714
 20
10.6420983285
 30
0.0
 10
11.5743844494
 20
10.6487930585
 30
0.0
 10
11.5721087111
 20
10.655183718
 30
0.0
 10
11.5690689412
 20
10.6611632223
 30
0.0
 10
11.5653766775
 20
10.6666620245
 30
0.0
 10
11.5611409414
 20
10.6716442775
 30
0.0
 10
11.5564626974
 20
10.6760977458
 30
0.0
 10
11.5530881758
 20
10.6787324807
 30
0.0
 10
11.5513554191
 20
10.679962341
 30
0.0
  0
SPLINE
  5
388
100
AcDbEntity
  8
0
100
AcDbSpline
 62
7
  6
CONTINUOUS
 70
0
 71
3
 72
23
 73
19
 74
0
 42
0.0000001
 43
0.0000001
 44
0.0000000001
 40
0.0
 40
0.0
 40
0.0
 40
0.0
 40
0.0608728672
 40
0.1221968092
 40
0.183983305
 40
0.2462926497
 40
0.3091245586
 40
0.3724326515
 40
0.4361133312
 40
0.4999999945
 40
0.5638866565
 40
0.6275673382
 40
0.6908754388
 40
0.753707352
 40
0.8160166902
 40
0.8778031872
 40
0.939127132
 40
1.0
 40
1.0
 40
1.0
 40
1.0
 10
11.5346384488
 20
10.5905196219
 30
0.0
 10
11.5364400969
 20
10.5917472687
 30
0.0
 10
11.5399483706
 20
10.594376009
 30
0.0
 10
11.5448213323
 20
10.5988275514
 30
0.0
 10
11.549234126
 20
10.6038081532
 30
0.0
 10
11.5530817085
 20
10.6093060906
 30
0.0
 10
11.5562503842
 20
10.615286107
 30
0.0
 10
11.5586234968
 20
10.621679142
 30
0.0
 10
11.5600969443
 20
10.6283781399
 30
0.0
 10
11.5605970161
 20
10.6352409808
 30
0.0
 10
11.5600969445
 20
10.6421038218
 30
0.0
 10
11.5586234971
 20
10.6488028201
 30
0.0
 10
11.5562503842
 20
10.6551958555
 30
0.0
 10
11.5530817087
 20
10.6611758723
 30
0.0
 10
11.5492341261
 20
10.6666738095
 30
0.0
 10
11.5448213325
 20
10.6716544113
 30
0.0
 10
11.5399483708
 20
10.6761059539
 30
0.0
 10
11.5364400969
 20
10.6787346942
 30
0.0
 10
11.5346384488
 20
10.679962341
 30
0.0
  0
SPLINE
  5
389
100
AcDbEntity
  8
0
100
AcDbSpline
 62
9
  6
CONTINUOUS
 70
0
 71
3
 72
26
 73
22
 74
0
 42
0.0000001
 43
0.0000001
 44
0.0000000001
 40
0.0
 40
0.0
 40
0.0
 40
0.0
 40
0.0257136465
 40
0.0514890254
 40
0.0773868056
 40
0.1034656774
 40
0.1297813695
 40
0.1563858627
 40
0.1833268066
 40
0.2106467923
 40
0.2665437939
 40
0.3243344405
 40
0.3841589246
 40
0.4460694498
 40
0.5100368905
 40
0.5759594233
 40
0.6436719984
 40
0.7129560445
 40
0.783548896
 40
0.8551537028
 40
1.0
 40
1.0
 40
1.0
 40
1.0
 10
11.4535682832
 20
6.9894740285
 30
0.0
 10
11.4535682832
 20
6.9847727705
 30
0.0
 10
11.4532410945
 20
6.9753557038
 30
0.0
 10
11.4517700623
 20
6.9612728829
 30
0.0
 10
11.4493226923
 20
6.9472582183
 30
0.0
 10
11.4459049759
 20
6.9333467766
 30
0.0
 10
11.4415254017
 20
6.9195721454
 30
0.0
 10
11.4361952789
 20
6.9059677881
 30
0.0
 10
11.4299270804
 20
6.8925663209
 30
0.0
 10
11.42026915
 20
6.8748802698
 30
0.0
 10
11.4058594593
 20
6.8534237181
 30
0.0
 10
11.3852608467
 20
6.8292165547
 30
0.0
 10
11.3614227621
 20
6.8065694867
 30
0.0
 10
11.3345792528
 20
6.7856966277
 30
0.0
 10
11.3049889004
 20
6.7667916049
 30
0.0
 10
11.2729357669
 20
6.7500313242
 30
0.0
 10
11.2387261659
 20
6.7355727976
 30
0.0
 10
11.2026881376
 20
6.7235521875
 30
0.0
 10
11.1651616386
 20
6.7140822695
 30
0.0
 10
11.1134512875
 20
6.7049453776
 30
0.0
 10
11.073800767
 20
6.7022118986
 30
0.0
 10
11.0473183383
 20
6.7022118986
 30
0.0
  0
SPLINE
  5
38A
100
AcDbEntity
  8
0
100
AcDbSpline
 62
7
  6
CONTINUOUS
 70
0
 71
3
 72
23
 73
19
 74
0
 42
0.0000001
 43
0.0000001
 44
0.0000000001
 40
0.0
 40
0.0
 40
0.0
 40
0.0
 40
0.0615499493
 40
0.1233714071
 40
0.185453203
 40
0.2478409622
 40
0.3105331988
 40
0.3735028064
 40
0.4366908433
 40
0.4999999945
 40
0.5633091446
 40
0.6264971833
 40
0.6894667987
 40
0.7521590395
 40
0.8145467922
 40
0.8766285894
 40
0.9384500499
 40
1.0
 40
1.0
 40
1.0
 40
1.0
 10
11.5139976457
 20
10.5905196219
 30
0.0
 10
11.5158542781
 20
10.5917456052
 30
0.0
 10
11.5194692101
 20
10.5943697752
 30
0.0
 10
11.5244975445
 20
10.5988197418
 30
0.0
 10
11.529051627
 20
10.603798925
 30
0.0
 10
11.5330232021
 20
10.6092960212
 30
0.0
 10
11.5362948762
 20
10.6152762935
 30
0.0
 10
11.5387458979
 20
10.6216711448
 30
0.0
 10
11.5402681626
 20
10.6283735988
 30
0.0
 10
11.5407848957
 20
10.6352409808
 30
0.0
 10
11.5402681628
 20
10.6421083629
 30
0.0
 10
11.5387458983
 20
10.6488108173
 30
0.0
 10
11.5362948762
 20
10.655205669
 30
0.0
 10
11.5330232023
 20
10.6611859417
 30
0.0
 10
11.5290516271
 20
10.6666830377
 30
0.0
 10
11.5244975447
 20
10.6716622209
 30
0.0
 10
11.5194692102
 20
10.6761121877
 30
0.0
 10
11.5158542781
 20
10.6787363577
 30
0.0
 10
11.5139976457
 20
10.679962341
 30
0.0
  0
SPLINE
  5
38B
100
AcDbEntity
  8
0
100
AcDbSpline
 62
7
  6
CONTINUOUS
 70
0
 71
3
 72
21
 73
17
 74
0
 42
0.0000001
 43
0.0000001
 44
0.0000000001
 40
0.0
 40
0.0
 40
0.0
 40
0.0
 40
0.1241241657
 40
0.1864421485
 40
0.2489074074
 40
0.3115166048
 40
0.374255979
 40
0.4370990998
 40
0.4999999946
 40
0.5629008881
 40
0.6257440108
 40
0.6884833927
 40
0.7510925943
 40
0.8135578468
 40
0.8758758308
 40
1.0
 40
1.0
 40
1.0
 40
1.0
 10
11.4895992065
 20
10.5905196219
 30
0.0
 10
11.4933937238
 20
10.5929691998
 30
0.0
 10
11.498793538
 20
10.5971676689
 30
0.0
 10
11.5049914535
 20
10.6037918331
 30
0.0
 10
11.5090553715
 20
10.609288703
 30
0.0
 10
11.512403083
 20
10.6152689473
 30
0.0
 10
11.5149118629
 20
10.6216651258
 30
0.0
 10
11.5164703192
 20
10.6283701509
 30
0.0
 10
11.5169994234
 20
10.6352409808
 30
0.0
 10
11.5164703195
 20
10.6421118109
 30
0.0
 10
11.5149118633
 20
10.6488168363
 30
0.0
 10
11.512403083
 20
10.6552130152
 30
0.0
 10
11.5090553717
 20
10.6611932599
 30
0.0
 10
11.5049914536
 20
10.6666901296
 30
0.0
 10
11.4987935382
 20
10.6733142938
 30
0.0
 10
11.4933937239
 20
10.6775127631
 30
0.0
 10
11.4895992065
 20
10.679962341
 30
0.0
  0
SPLINE
  5
38C
100
AcDbEntity
  8
0
100
AcDbSpline
 62
7
  6
CONTINUOUS
 70
0
 71
3
 72
21
 73
17
 74
0
 42
0.0000001
 43
0.0000001
 44
0.0000000001
 40
0.0
 40
0.0
 40
0.0
 40
0.0
 40
0.124671647
 40
0.1871291848
 40
0.2496331846
 40
0.3121787047
 40
0.3747601189
 40
0.4373715717
 40
0.4999999946
 40
0.5626284163
 40
0.6252398709
 40
0.6878212929
 40
0.7503668171
 40
0.8128708104
 40
0.8753283495
 40
1.0
 40
1.0
 40
1.0
 40
1.0
 10
11.4616395842
 20
10.5905196219
 30
0.0
 10
11.4654836197
 20
10.5929661457
 30
0.0
 10
11.4709571577
 20
10.59715963
 30
0.0
 10
11.4772485696
 20
10.6037875896
 30
0.0
 10
11.4813711433
 20
10.6092839694
 30
0.0
 10
11.4847676457
 20
10.6152642395
 30
0.0
 10
11.4873133957
 20
10.6216612207
 30
0.0
 10
11.4888950664
 20
10.6283679066
 30
0.0
 10
11.4894321049
 20
10.6352409808
 30
0.0
 10
11.4888950667
 20
10.6421140552
 30
0.0
 10
11.487313396
 20
10.6488207414
 30
0.0
 10
11.4847676457
 20
10.655217723
 30
0.0
 10
11.4813711436
 20
10.6611979935
 30
0.0
 10
11.4772485697
 20
10.6666943732
 30
0.0
 10
11.4709571579
 20
10.6733223328
 30
0.0
 10
11.4654836198
 20
10.6775158172
 30
0.0
 10
11.4616395842
 20
10.679962341
 30
0.0
  0
SPLINE
  5
38D
100
AcDbEntity
  8
0
100
AcDbSpline
 62
7
  6
CONTINUOUS
 70
0
 71
3
 72
15
 73
11
 74
0
 42
0.0000001
 43
0.0000001
 44
0.0000000001
 40
0.0
 40
0.0
 40
0.0
 40
0.0
 40
0.1249953474
 40
0.2499989814
 40
0.3749984223
 40
0.4999999899
 40
0.6250015557
 40
0.7500009944
 40
0.8750046363
 40
1.0
 40
1.0
 40
1.0
 40
1.0
 10
11.453733468
 20
10.6158889545
 30
0.0
 10
11.4544395152
 20
10.6173980897
 30
0.0
 10
11.455699854
 20
10.6204905395
 30
0.0
 10
11.4570863597
 20
10.6253027833
 30
0.0
 10
11.457934117
 20
10.6302397124
 30
0.0
 10
11.4582200725
 20
10.6352409595
 30
0.0
 10
11.4579341221
 20
10.6402422069
 30
0.0
 10
11.4570863694
 20
10.6451791368
 30
0.0
 10
11.4556998685
 20
10.6499913823
 30
0.0
 10
11.4544395321
 20
10.6530838335
 30
0.0
 10
11.4537334861
 20
10.6545929695
 30
0.0
  0
SPLINE
  5
38E
100
AcDbEntity
  8
0
100
AcDbSpline
 62
7
  6
CONTINUOUS
 70
0
 71
3
 72
11
 73
7
 74
0
 42
0.0000001
 43
0.0000001
 44
0.0000000001
 40
0.0
 40
0.0
 40
0.0
 40
0.0
 40
0.2451154195
 40
0.4928994654
 40
0.7442583843
 40
1.0
 40
1.0
 40
1.0
 40
1.0
 10
10.5874550763
 20
5.7062364094
 30
0.0
 10
10.5885431437
 20
5.7134106292
 30
0.0
 10
10.5914013904
 20
5.7277440396
 30
0.0
 10
10.59765838
 20
5.7488990612
 30
0.0
 10
10.6058736725
 20
5.769710896
 30
0.0
 10
10.6125691336
 20
5.783170132
 30
0.0
 10
10.6162149623
 20
5.7898052991
 30
0.0
  0
SPLINE
  5
38F
100
AcDbEntity
  8
0
100
AcDbSpline
 62
7
  6
CONTINUOUS
 70
0
 71
3
 72
9
 73
5
 74
0
 42
0.0000001
 43
0.0000001
 44
0.0000000001
 40
0.0
 40
0.0
 40
0.0
 40
0.0
 40
0.4938668607
 40
1.0
 40
1.0
 40
1.0
 40
1.0
 10
10.6162149623
 20
5.7898052991
 30
0.0
 10
10.620445249
 20
5.7975041411
 30
0.0
 10
10.6297542543
 20
5.812694179
 30
0.0
 10
10.6403804963
 20
5.8269894352
 30
0.0
 10
10.6460491792
 20
5.8339833172
 30
0.0
  0
SPLINE
  5
390
100
AcDbEntity
  8
0
100
AcDbSpline
 62
7
  6
CONTINUOUS
 70
0
 71
3
 72
15
 73
11
 74
0
 42
0.0000001
 43
0.0000001
 44
0.0000000001
 40
0.0
 40
0.0
 40
0.0
 40
0.0
 40
0.1209761901
 40
0.2423626149
 40
0.3645598826
 40
0.4879498474
 40
0.6128873582
 40
0.7396936352
 40
0.8686511441
 40
1.0
 40
1.0
 40
1.0
 40
1.0
 10
10.5848183383
 20
5.7067205995
 30
0.0
 10
10.5848183383
 20
5.7130878453
 30
0.0
 10
10.5853462672
 20
5.7258501666
 30
0.0
 10
10.587717572
 20
5.7449113129
 30
0.0
 10
10.5916600623
 20
5.763841147
 30
0.0
 10
10.5971595883
 20
5.7825724747
 30
0.0
 10
10.604196373
 20
5.8010411578
 30
0.0
 10
10.6127453997
 20
5.8191840757
 30
0.0
 10
10.6227757215
 20
5.8369383956
 30
0.0
 10
10.6303552645
 20
5.8483670966
 30
0.0
 10
10.6343697058
 20
5.8539952713
 30
0.0
  0
SPLINE
  5
391
100
AcDbEntity
  8
0
100
AcDbSpline
 62
7
  6
CONTINUOUS
 70
0
 71
3
 72
19
 73
15
 74
0
 42
0.0000001
 43
0.0000001
 44
0.0000000001
 40
0.0
 40
0.0
 40
0.0
 40
0.0
 40
0.0579658395
 40
0.1160590309
 40
0.1744049347
 40
0.233125152
 40
0.2923356587
 40
0.3521453471
 40
0.4126546984
 40
0.4739546286
 40
0.5991876227
 40
0.7284133781
 40
0.8619634608
 40
1.0
 40
1.0
 40
1.0
 40
1.0
 10
11.6223183042
 20
5.7208627351
 30
0.0
 10
11.6223182733
 20
5.7144981967
 30
0.0
 10
11.6218946833
 20
5.7017510943
 30
0.0
 10
11.6199900814
 20
5.6826833747
 30
0.0
 10
11.6168209644
 20
5.6636999673
 30
0.0
 10
11.6123941707
 20
5.6448443464
 30
0.0
 10
11.606720061
 20
5.6261580568
 30
0.0
 10
11.5998117042
 20
5.6076827444
 30
0.0
 10
11.5916840927
 20
5.5894588168
 30
0.0
 10
11.5791608285
 20
5.5653826112
 30
0.0
 10
11.5604631851
 20
5.5360891097
 30
0.0
 10
11.5336783913
 20
5.5028581194
 30
0.0
 10
11.5026274372
 20
5.4715718966
 30
0.0
 10
11.4796385337
 20
5.4524994927
 30
0.0
 10
11.4675552138
 20
5.4433506016
 30
0.0
  0
SPLINE
  5
392
100
AcDbEntity
  8
0
100
AcDbSpline
 62
7
  6
CONTINUOUS
 70
0
 71
3
 72
43
 73
39
 74
0
 42
0.0000001
 43
0.0000001
 44
0.0000000001
 40
0.0
 40
0.0
 40
0.0
 40
0.0
 40
0.0305224433
 40
0.0611811176
 40
0.0920194382
 40
0.1231076265
 40
0.1545435161
 40
0.1864684309
 40
0.2026867142
 40
0.2191044592
 40
0.2357529916
 40
0.2526434805
 40
0.2697658442
 40
0.2870699025
 40
0.3044562245
 40
0.3217993059
 40
0.3389887641
 40
0.3559585685
 40
0.3726850087
 40
0.38917469
 40
0.405455984
 40
0.4215527173
 40
0.4374964457
 40
0.4533084314
 40
0.4690123586
 40
0.4846228678
 40
0.5001566665
 40
0.5156241218
 40
0.5463958535
 40
0.5770032459
 40
0.6074895977
 40
0.6378846215
 40
0.6984766012
 40
0.7589075454
 40
0.8192435871
 40
0.8795236369
 40
0.939771402
 40
1.0
 40
1.0
 40
1.0
 40
1.0
 10
11.5759196088
 20
11.6974562905
 30
0.0
 10
11.5788986487
 20
11.6964949029
 30
0.0
 10
11.5848292468
 20
11.6944376446
 30
0.0
 10
11.5935802392
 20
11.690891906
 30
0.0
 10
11.6021542817
 20
11.6867957109
 30
0.0
 10
11.6104779704
 20
11.6820415163
 30
0.0
 10
11.6184340312
 20
11.6764896662
 30
0.0
 10
11.6245709588
 20
11.6710698416
 30
0.0
 10
11.6290250452
 20
11.6661620194
 30
0.0
 10
11.6320947994
 20
11.6621374931
 30
0.0
 10
11.6347944779
 20
11.6577719863
 30
0.0
 10
11.6370192067
 20
11.6530628875
 30
0.0
 10
11.6386513684
 20
11.6480427827
 30
0.0
 10
11.6395738404
 20
11.6427904434
 30
0.0
 10
11.6397058481
 20
11.6374352079
 30
0.0
 10
11.6390351391
 20
11.6321331557
 30
0.0
 10
11.6376230217
 20
11.6270258993
 30
0.0
 10
11.6355783576
 20
11.6222096647
 30
0.0
 10
11.6330209846
 20
11.6177311284
 30
0.0
 10
11.630062365
 20
11.613596603
 30
0.0
 10
11.6267898466
 20
11.6097931471
 30
0.0
 10
11.6232738593
 20
11.6062945003
 30
0.0
 10
11.6195651486
 20
11.6030753576
 30
0.0
 10
11.6157045053
 20
11.6001069385
 30
0.0
 10
11.6117203169
 20
11.5973673561
 30
0.0
 10
11.6076373364
 20
11.5948317744
 30
0.0
 10
11.6034716814
 20
11.5924839616
 30
0.0
 10
11.5978380642
 20
11.589583241
 30
0.0
 10
11.5906489919
 20
11.5863393261
 30
0.0
 10
11.5818507254
 20
11.5829581945
 30
0.0
 10
11.5729366891
 20
11.5800188922
 30
0.0
 10
11.5609515196
 20
11.5766087835
 30
0.0
 10
11.5457991973
 20
11.5731570425
 30
0.0
 10
11.5274616089
 20
11.5700073621
 30
0.0
 10
11.5090422767
 20
11.5676298578
 30
0.0
 10
11.4905757324
 20
11.5658556508
 30
0.0
 10
11.4720817732
 20
11.5645556652
 30
0.0
 10
11.4597405987
 20
11.5639384247
 30
0.0
 10
11.4535690789
 20
11.5636798065
 30
0.0
  0
SPLINE
  5
393
100
AcDbEntity
  8
0
100
AcDbSpline
 62
9
  6
CONTINUOUS
 70
0
 71
3
 72
21
 73
17
 74
0
 42
0.0000001
 43
0.0000001
 44
0.0000000001
 40
0.0
 40
0.0
 40
0.0
 40
0.0
 40
0.1169635747
 40
0.1780526567
 40
0.2405928711
 40
0.3043431807
 40
0.3690295534
 40
0.4343533728
 40
0.4999998775
 40
0.5656463866
 40
0.6309702191
 40
0.6956566133
 40
0.7594069523
 40
0.821947203
 40
0.8830363274
 40
1.0
 40
1.0
 40
1.0
 40
1.0
 10
10.4090213028
 20
9.4740279721
 30
0.0
 10
10.4148069794
 20
9.4660025128
 30
0.0
 10
10.4224469453
 20
9.4529037859
 30
0.0
 10
10.4304742791
 20
9.4341903389
 30
0.0
 10
10.4355588411
 20
9.4191591972
 30
0.0
 10
10.4395644482
 20
9.4034948496
 30
0.0
 10
10.4424539697
 20
9.3873473704
 30
0.0
 10
10.4441988517
 20
9.3708757846
 30
0.0
 10
10.4447823897
 20
9.3542412081
 30
0.0
 10
10.4441988834
 20
9.3376066294
 30
0.0
 10
10.4424540328
 20
9.3211350369
 30
0.0
 10
10.4395645421
 20
9.3049875468
 30
0.0
 10
10.435558965
 20
9.2893231839
 30
0.0
 10
10.4304744316
 20
9.2742920229
 30
0.0
 10
10.4224471332
 20
9.2555785445
 30
0.0
 10
10.4148071927
 20
9.2424797894
 30
0.0
 10
10.4090215318
 20
9.2344543085
 30
0.0
  0
SPLINE
  5
394
100
AcDbEntity
  8
0
100
AcDbSpline
 62
9
  6
CONTINUOUS
 70
0
 71
3
 72
21
 73
17
 74
0
 42
0.0000001
 43
0.0000001
 44
0.0000000001
 40
0.0
 40
0.0
 40
0.0
 40
0.0
 40
0.1169630703
 40
0.1780520264
 40
0.2405922966
 40
0.3043427653
 40
0.3690292911
 40
0.4343532765
 40
0.5
 40
0.5656467235
 40
0.6309707089
 40
0.6956572347
 40
0.7594077034
 40
0.8219479736
 40
0.8830369297
 40
1.0
 40
1.0
 40
1.0
 40
1.0
 10
10.3794326348
 20
9.515067763
 30
0.0
 10
10.3872010472
 20
9.5042930871
 30
0.0
 10
10.3974585201
 20
9.4867065543
 30
0.0
 10
10.4082366595
 20
9.4615819375
 30
0.0
 10
10.4150634716
 20
9.4414009637
 30
0.0
 10
10.4204415521
 20
9.4203697724
 30
0.0
 10
10.4243211275
 20
9.3986898973
 30
0.0
 10
10.4266639475
 20
9.3765748665
 30
0.0
 10
10.427447444
 20
9.3542409815
 30
0.0
 10
10.4266639475
 20
9.3319070964
 30
0.0
 10
10.4243211275
 20
9.3097920656
 30
0.0
 10
10.4204415521
 20
9.2881121905
 30
0.0
 10
10.4150634716
 20
9.2670809992
 30
0.0
 10
10.4082366595
 20
9.2469000255
 30
0.0
 10
10.3974585201
 20
9.2217754087
 30
0.0
 10
10.3872010472
 20
9.2041888758
 30
0.0
 10
10.3794326348
 20
9.1934141999
 30
0.0
  0
SPLINE
  5
395
100
AcDbEntity
  8
0
100
AcDbSpline
 62
7
  6
CONTINUOUS
 70
0
 71
3
 72
19
 73
15
 74
0
 42
0.0000001
 43
0.0000001
 44
0.0000000001
 40
0.0
 40
0.0
 40
0.0
 40
0.0
 40
0.0566483761
 40
0.1132899482
 40
0.1701105434
 40
0.2273269749
 40
0.2851521877
 40
0.343777149
 40
0.4033740486
 40
0.464095076
 40
0.5893213913
 40
0.72025371
 40
0.8571820534
 40
1.0
 40
1.0
 40
1.0
 40
1.0
 10
11.4660737193
 20
9.5592409815
 30
0.0
 10
11.4690088178
 20
9.5592409815
 30
0.0
 10
11.4748818343
 20
9.5589878193
 30
0.0
 10
11.4836322171
 20
9.5578476623
 30
0.0
 10
11.4922807608
 20
9.5559497032
 30
0.0
 10
11.5007940505
 20
9.5533029348
 30
0.0
 10
11.5091419158
 20
9.5499169277
 30
0.0
 10
11.5172954973
 20
9.5458061588
 30
0.0
 10
11.5252262107
 20
9.5409850874
 30
0.0
 10
11.5355716498
 20
9.5335626605
 30
0.0
 10
11.5478159529
 20
9.5225358411
 30
0.0
 10
11.5610408716
 20
9.5069774636
 30
0.0
 10
11.572800013
 20
9.4891891913
 30
0.0
 10
11.5794405392
 20
9.4762709263
 30
0.0
 10
11.5824972004
 20
9.4695319825
 30
0.0
  0
SPLINE
  5
396
100
AcDbEntity
  8
0
100
AcDbSpline
 62
7
  6
CONTINUOUS
 70
0
 71
3
 72
19
 73
15
 74
0
 42
0.0000001
 43
0.0000001
 44
0.0000000001
 40
0.0
 40
0.0
 40
0.0
 40
0.0
 40
0.0566559203
 40
0.1132831247
 40
0.1700981172
 40
0.2273145412
 40
0.2851379848
 40
0.3437605477
 40
0.4033560194
 40
0.4640768381
 40
0.5893043163
 40
0.7202406117
 40
0.8571749728
 40
1.0
 40
1.0
 40
1.0
 40
1.0
 10
10.6285629768
 20
9.1492410773
 30
0.0
 10
10.6256264481
 20
9.1492410773
 30
0.0
 10
10.6197516581
 20
9.149493763
 30
0.0
 10
10.6109989753
 20
9.1506355429
 30
0.0
 10
10.6023484104
 20
9.152534036
 30
0.0
 10
10.5938327964
 20
9.1551827017
 30
0.0
 10
10.5854823412
 20
9.15857025
 30
0.0
 10
10.5773269088
 20
9.1626839086
 30
0.0
 10
10.5693940984
 20
9.1675074405
 30
0.0
 10
10.5590464267
 20
9.1749344771
 30
0.0
 10
10.5467995662
 20
9.1859675538
 30
0.0
 10
10.5335728911
 20
9.2015347229
 30
0.0
 10
10.5218130529
 20
9.2193326637
 30
0.0
 10
10.5151730767
 20
9.2322577596
 30
0.0
 10
10.5121167294
 20
9.2390001254
 30
0.0
  0
SPLINE
  5
397
100
AcDbEntity
  8
0
100
AcDbSpline
 62
7
  6
CONTINUOUS
 70
0
 71
3
 72
11
 73
7
 74
0
 42
0.0000001
 43
0.0000001
 44
0.0000000001
 40
0.0
 40
0.0
 40
0.0
 40
0.0
 40
0.2453592755
 40
0.4934093058
 40
0.7447715399
 40
1.0
 40
1.0
 40
1.0
 40
1.0
 10
10.6292283332
 20
9.1516397762
 30
0.0
 10
10.6265385631
 20
9.1522269072
 30
0.0
 10
10.6211733286
 20
9.1536187959
 30
0.0
 10
10.613260101
 20
9.1563288888
 30
0.0
 10
10.6054681992
 20
9.1596622016
 30
0.0
 10
10.6004117337
 20
9.162271265
 30
0.0
 10
10.5979137655
 20
9.1636718925
 30
0.0
  0
SPLINE
  5
398
100
AcDbEntity
  8
0
100
AcDbSpline
 62
7
  6
CONTINUOUS
 70
0
 71
3
 72
11
 73
7
 74
0
 42
0.0000001
 43
0.0000001
 44
0.0000000001
 40
0.0
 40
0.0
 40
0.0
 40
0.0
 40
0.245356643
 40
0.4934054794
 40
0.7447684533
 40
1.0
 40
1.0
 40
1.0
 40
1.0
 10
10.6292283332
 20
9.5568421867
 30
0.0
 10
10.626537371
 20
9.5562547955
 30
0.0
 10
10.6211697613
 20
9.5548621918
 30
0.0
 10
10.6132531049
 20
9.55215048
 30
0.0
 10
10.6054579041
 20
9.5488150075
 30
0.0
 10
10.6003993892
 20
9.5462041802
 30
0.0
 10
10.5979004297
 20
9.5448025919
 30
0.0
  0
SPLINE
  5
399
100
AcDbEntity
  8
0
100
AcDbSpline
 62
7
  6
CONTINUOUS
 70
0
 71
3
 72
28
 73
24
 74
0
 42
0.0000001
 43
0.0000001
 44
0.0000000001
 40
0.0
 40
0.0
 40
0.0
 40
0.0
 40
0.0260004619
 40
0.052120988
 40
0.0784114165
 40
0.1049190939
 40
0.131688221
 40
0.158759487
 40
0.1861694188
 40
0.2139503231
 40
0.2421297401
 40
0.2707306462
 40
0.2997712378
 40
0.3292649479
 40
0.3896253555
 40
0.4518475127
 40
0.5158818037
 40
0.5816188373
 40
0.6488972712
 40
0.7175112552
 40
0.7872182726
 40
0.8577470262
 40
1.0
 40
1.0
 40
1.0
 40
1.0
 10
11.4528068833
 20
6.367973057
 30
0.0
 10
11.4524153412
 20
6.3633292365
 30
0.0
 10
11.4513286405
 20
6.3540428261
 30
0.0
 10
11.4488007559
 20
6.3402084111
 30
0.0
 10
11.4453782816
 20
6.3264735995
 30
0.0
 10
11.4410687646
 20
6.3128692004
 30
0.0
 10
11.4358825401
 20
6.2994244163
 30
0.0
 10
11.429830935
 20
6.2861686591
 30
0.0
 10
11.4229282058
 20
6.2731303329
 30
0.0
 10
11.4151895731
 20
6.2603377942
 30
0.0
 10
11.406632799
 20
6.2478183688
 30
0.0
 10
11.3972770444
 20
6.2355991135
 30
0.0
 10
11.3871430473
 20
6.2237059394
 30
0.0
 10
11.3725134424
 20
6.2081998618
 30
0.0
 10
11.3523577257
 20
6.1897819076
 30
0.0
 10
11.325662933
 20
6.1695558823
 30
0.0
 10
11.2965071911
 20
6.1511985143
 30
0.0
 10
11.2651506362
 20
6.1348639172
 30
0.0
 10
11.2318698595
 20
6.120686708
 30
0.0
 10
11.1969600227
 20
6.1087839128
 30
0.0
 10
11.1607255553
 20
6.0992520141
 30
0.0
 10
11.1109581378
 20
6.0897833778
 30
0.0
 10
11.0728104799
 20
6.0864813854
 30
0.0
 10
11.0473183383
 20
6.0859692496
 30
0.0
  0
SPLINE
  5
39A
100
AcDbEntity
  8
0
100
AcDbSpline
 62
7
  6
CONTINUOUS
 70
0
 71
3
 72
28
 73
24
 74
0
 42
0.0000001
 43
0.0000001
 44
0.0000000001
 40
0.0
 40
0.0
 40
0.0
 40
0.0
 40
0.0260134657
 40
0.0521369049
 40
0.0784213533
 40
0.1049153815
 40
0.13166453
 40
0.1587107793
 40
0.1860919828
 40
0.2138417211
 40
0.2419887213
 40
0.2705571033
 40
0.2995660343
 40
0.3290299108
 40
0.3893387029
 40
0.4515244885
 40
0.5155407344
 40
0.5812794467
 40
0.6485791774
 40
0.7172326723
 40
0.7869949652
 40
0.8575914647
 40
1.0
 40
1.0
 40
1.0
 40
1.0
 10
11.4530420698
 20
6.2684359419
 30
0.0
 10
11.4527143578
 20
6.2637582125
 30
0.0
 10
11.4517512132
 20
6.2544016066
 30
0.0
 10
11.4493948898
 20
6.2404536803
 30
0.0
 10
11.4461300933
 20
6.2266005696
 30
0.0
 10
11.4419644821
 20
6.2128736976
 30
0.0
 10
11.4369079165
 20
6.1993030457
 30
0.0
 10
11.430971779
 20
6.1859186547
 30
0.0
 10
11.4241702017
 20
6.1727496419
 30
0.0
 10
11.4165183449
 20
6.1598250818
 30
0.0
 10
11.4080341654
 20
6.1471728854
 30
0.0
 10
11.3987367486
 20
6.1348209129
 30
0.0
 10
11.388647194
 20
6.1227955633
 30
0.0
 10
11.3740579623
 20
6.1071129246
 30
0.0
 10
11.3539173188
 20
6.0884786661
 30
0.0
 10
11.3271908751
 20
6.0680093608
 30
0.0
 10
11.2979561647
 20
6.0494259092
 30
0.0
 10
11.2664776344
 20
6.0328864731
 30
0.0
 10
11.2330367581
 20
6.0185292231
 30
0.0
 10
11.1979341644
 20
6.0064743225
 30
0.0
 10
11.1614801301
 20
5.9968208715
 30
0.0
 10
11.1113900261
 20
5.9872330459
 30
0.0
 10
11.072983809
 20
5.9838942564
 30
0.0
 10
11.0473183383
 20
5.9833809463
 30
0.0
  0
SPLINE
  5
39B
100
AcDbEntity
  8
0
100
AcDbSpline
 62
7
  6
CONTINUOUS
 70
0
 71
3
 72
28
 73
24
 74
0
 42
0.0000001
 43
0.0000001
 44
0.0000000001
 40
0.0
 40
0.0
 40
0.0
 40
0.0
 40
0.0707273023
 40
0.1419117703
 40
0.2131081181
 40
0.2838685121
 40
0.353759558
 40
0.4223762691
 40
0.4893568476
 40
0.5543980475
 40
0.6172710887
 40
0.6778378617
 40
0.7360670529
 40
0.7643420713
 40
0.7920772464
 40
0.819304385
 40
0.8460636535
 40
0.8724034402
 40
0.8983799017
 40
0.9240562374
 40
0.9495017211
 40
0.9747904754
 40
1.0
 40
1.0
 40
1.0
 40
1.0
 10
11.1770814628
 20
5.3247651893
 30
0.0
 10
11.1559872781
 20
5.3213099201
 30
0.0
 10
11.1133597179
 20
5.3161076277
 30
0.0
 10
11.0489455058
 20
5.3134246369
 30
0.0
 10
10.9845066825
 20
5.3158508989
 30
0.0
 10
10.9208540826
 20
5.3233571628
 30
0.0
 10
10.8587819347
 20
5.3358505481
 30
0.0
 10
10.7990661564
 20
5.3531767754
 30
0.0
 10
10.7424523277
 20
5.3751227398
 30
0.0
 10
10.68964795
 20
5.4014192142
 30
0.0
 10
10.6413120338
 20
5.4317467675
 30
0.0
 10
10.5980556302
 20
5.4657326686
 30
0.0
 10
10.56637909
 20
5.4970787266
 30
0.0
 10
10.5442048934
 20
5.5235683351
 30
0.0
 10
10.5293205394
 20
5.543871594
 30
0.0
 10
10.5160713337
 20
5.5647375002
 30
0.0
 10
10.5044994369
 20
5.5861012239
 30
0.0
 10
10.4946426513
 20
5.607895295
 30
0.0
 10
10.4865330308
 20
5.6300508064
 30
0.0
 10
10.4801973074
 20
5.652497253
 30
0.0
 10
10.4756566428
 20
5.6751635888
 30
0.0
 10
10.4729262082
 20
5.6979753042
 30
0.0
 10
10.4723183355
 20
5.7132438783
 30
0.0
 10
10.4723183724
 20
5.7208627351
 30
0.0
  0
SPLINE
  5
39C
100
AcDbEntity
  8
0
100
AcDbSpline
 62
7
  6
CONTINUOUS
 70
0
 71
3
 72
31
 73
27
 74
0
 42
0.0000001
 43
0.0000001
 44
0.0000000001
 40
0.0
 40
0.0
 40
0.0
 40
0.0
 40
0.0616592528
 40
0.0918103548
 40
0.121551138
 40
0.1509264317
 40
0.1799861115
 40
0.2087847409
 40
0.2373807326
 40
0.2658356764
 40
0.2942133779
 40
0.3225788484
 40
0.3509973262
 40
0.3795332149
 40
0.408248996
 40
0.4372043974
 40
0.4664555118
 40
0.496054009
 40
0.5260467197
 40
0.58734871
 40
0.6506519717
 40
0.7161247643
 40
0.7838433364
 40
0.8537984373
 40
0.9259015807
 40
1.0
 40
1.0
 40
1.0
 40
1.0
 10
11.4732568267
 20
5.8811478726
 30
0.0
 10
11.4803937723
 20
5.8716651408
 30
0.0
 10
11.4902609747
 20
5.8569421089
 30
0.0
 10
11.5015015489
 20
5.8364109701
 30
0.0
 10
11.5088252026
 20
5.8208545861
 30
0.0
 10
11.5150841505
 20
5.8050664567
 30
0.0
 10
11.5202639725
 20
5.7890820077
 30
0.0
 10
11.5243525443
 20
5.7729386786
 30
0.0
 10
11.5273397141
 20
5.7566737996
 30
0.0
 10
11.5292185488
 20
5.7403253416
 30
0.0
 10
11.5299845143
 20
5.7239314195
 30
0.0
 10
11.5296355088
 20
5.7075303337
 30
0.0
 10
11.5281727955
 20
5.691160377
 30
0.0
 10
11.5255994542
 20
5.6748597965
 30
0.0
 10
11.5219220081
 20
5.6586665628
 30
0.0
 10
11.5171491662
 20
5.6426183011
 30
0.0
 10
11.5112922604
 20
5.626752452
 30
0.0
 10
11.5043651661
 20
5.6111050776
 30
0.0
 10
11.4936485925
 20
5.590435877
 30
0.0
 10
11.4775805867
 20
5.5653013804
 30
0.0
 10
11.4544892319
 20
5.5368318371
 30
0.0
 10
11.4276622379
 20
5.5100774001
 30
0.0
 10
11.3973523813
 20
5.4852804786
 30
0.0
 10
11.3638388876
 20
5.462661269
 30
0.0
 10
11.3274327703
 20
5.4424230927
 30
0.0
 10
11.3017730326
 20
5.4307838287
 30
0.0
 10
11.2885683383
 20
5.4253930349
 30
0.0
  0
SPLINE
  5
39D
100
AcDbEntity
  8
0
100
AcDbSpline
 62
7
  6
CONTINUOUS
 70
0
 71
3
 72
39
 73
35
 74
0
 42
0.0000001
 43
0.0000001
 44
0.0000000001
 40
0.0
 40
0.0
 40
0.0
 40
0.0
 40
0.0695855359
 40
0.1051506008
 40
0.1410849818
 40
0.1772796826
 40
0.2136211581
 40
0.2499935929
 40
0.2862806285
 40
0.3223673045
 40
0.3581419044
 40
0.393497858
 40
0.4283357062
 40
0.4625650325
 40
0.4961065606
 40
0.5288941752
 40
0.5608771126
 40
0.5920220648
 40
0.607278265
 40
0.6223216064
 40
0.6517709457
 40
0.6804074034
 40
0.7082864065
 40
0.7354881184
 40
0.7621167748
 40
0.7882985123
 40
0.8141776823
 40
0.8399115617
 40
0.8656638002
 40
0.8915972558
 40
0.9178668313
 40
0.9446132302
 40
0.971957956
 40
1.0
 40
1.0
 40
1.0
 40
1.0
 10
11.2793103302
 20
5.4217090138
 30
0.0
 10
11.2563531415
 20
5.4128076132
 30
0.0
 10
11.2207451424
 20
5.4015946817
 30
0.0
 10
11.1719666632
 20
5.3908887785
 30
0.0
 10
11.1343083924
 20
5.3849045543
 30
0.0
 10
11.0960987181
 20
5.3810661648
 30
0.0
 10
11.0575773048
 20
5.3793969714
 30
0.0
 10
11.0189907253
 20
5.3799078137
 30
0.0
 10
10.9805846411
 20
5.3825953873
 30
0.0
 10
10.9426039134
 20
5.387442665
 30
0.0
 10
10.9052905716
 20
5.3944189145
 30
0.0
 10
10.868882381
 20
5.4034799505
 30
0.0
 10
10.8336113117
 20
5.4145684211
 30
0.0
 10
10.7997020305
 20
5.4276142669
 30
0.0
 10
10.7673706572
 20
5.4425350784
 30
0.0
 10
10.7368229056
 20
5.4592371184
 30
0.0
 10
10.7082547751
 20
5.4776144211
 30
0.0
 10
10.686095579
 20
5.4943453668
 30
0.0
 10
10.6695553785
 20
5.5084649287
 30
0.0
 10
10.6540450995
 20
5.5228390471
 30
0.0
 10
10.6361773922
 20
5.5416039628
 30
0.0
 10
10.6172119895
 20
5.5654390019
 30
0.0
 10
10.6009961048
 20
5.590284384
 30
0.0
 10
10.5876386829
 20
5.615982039
 30
0.0
 10
10.5772302302
 20
5.6423680417
 30
0.0
 10
10.5698429905
 20
5.6692718343
 30
0.0
 10
10.5655292249
 20
5.6965174399
 30
0.0
 10
10.564319955
 20
5.7239248059
 30
0.0
 10
10.566223941
 20
5.7513118013
 30
0.0
 10
10.571227424
 20
5.7784966133
 30
0.0
 10
10.5792944114
 20
5.80529977
 30
0.0
 10
10.5903685458
 20
5.8315470776
 30
0.0
 10
10.6043715025
 20
5.8570667876
 30
0.0
 10
10.6154516337
 20
5.8732745424
 30
0.0
 10
10.6214201019
 20
5.881201343
 30
0.0
  0
SPLINE
  5
39E
100
AcDbEntity
  8
0
100
AcDbSpline
 62
7
  6
CONTINUOUS
 70
0
 71
3
 72
10
 73
6
 74
0
 42
0.0000001
 43
0.0000001
 44
0.0000000001
 40
0.0
 40
0.0
 40
0.0
 40
0.0
 40
0.2446842429
 40
0.6188665633
 40
1.0
 40
1.0
 40
1.0
 40
1.0
 10
11.3348183383
 20
5.1212612112
 30
0.0
 10
11.322430141
 20
5.1162037508
 30
0.0
 10
11.290706017
 20
5.1043545766
 30
0.0
 10
11.2381652936
 20
5.088955144
 30
0.0
 10
11.1976499832
 20
5.0806469803
 30
0.0
 10
11.1770814628
 20
5.0772778159
 30
0.0
  0
SPLINE
  5
39F
100
AcDbEntity
  8
0
100
AcDbSpline
 62
7
  6
CONTINUOUS
 70
0
 71
3
 72
10
 73
6
 74
0
 42
0.0000001
 43
0.0000001
 44
0.0000000001
 40
0.0
 40
0.0
 40
0.0
 40
0.0
 40
0.4887327762
 40
0.7417546144
 40
1.0
 40
1.0
 40
1.0
 40
1.0
 10
11.4675552138
 20
5.1958632282
 30
0.0
 10
11.4477321833
 20
5.1808542117
 30
0.0
 10
11.4159396623
 20
5.1602418959
 30
0.0
 10
11.3707811858
 20
5.1367750715
 30
0.0
 10
11.3469818878
 20
5.1262269595
 30
0.0
 10
11.3348183383
 20
5.1212612112
 30
0.0
  0
SPLINE
  5
3A0
100
AcDbEntity
  8
0
100
AcDbSpline
 62
7
  6
CONTINUOUS
 70
0
 71
3
 72
9
 73
5
 74
0
 42
0.0000001
 43
0.0000001
 44
0.0000000001
 40
0.0
 40
0.0
 40
0.0
 40
0.0
 40
0.5061293569
 40
1.0
 40
1.0
 40
1.0
 40
1.0
 10
11.4486073374
 20
5.8339588371
 30
0.0
 10
11.45427195
 20
5.8269685792
 30
0.0
 10
11.4648908125
 20
5.8126809637
 30
0.0
 10
11.4741938908
 20
5.7974996582
 30
0.0
 10
11.4784217143
 20
5.7898052991
 30
0.0
  0
SPLINE
  5
3A1
100
AcDbEntity
  8
0
100
AcDbSpline
 62
7
  6
CONTINUOUS
 70
0
 71
3
 72
11
 73
7
 74
0
 42
0.0000001
 43
0.0000001
 44
0.0000000001
 40
0.0
 40
0.0
 40
0.0
 40
0.0
 40
0.2557416153
 40
0.5071005344
 40
0.7548845804
 40
1.0
 40
1.0
 40
1.0
 40
1.0
 10
11.4784217143
 20
5.7898052991
 30
0.0
 10
11.482067543
 20
5.783170132
 30
0.0
 10
11.4887630041
 20
5.769710896
 30
0.0
 10
11.4969782966
 20
5.7488990613
 30
0.0
 10
11.5032352862
 20
5.7277440396
 30
0.0
 10
11.5060935328
 20
5.7134106292
 30
0.0
 10
11.5071816003
 20
5.7062364094
 30
0.0
  0
SPLINE
  5
3A2
100
AcDbEntity
  8
0
100
AcDbSpline
 62
7
  6
CONTINUOUS
 70
0
 71
3
 72
15
 73
11
 74
0
 42
0.0000001
 43
0.0000001
 44
0.0000000001
 40
0.0
 40
0.0
 40
0.0
 40
0.0
 40
0.131343065
 40
0.2602968122
 40
0.3871012586
 40
0.5120386985
 40
0.6354301048
 40
0.757630013
 40
0.8790199106
 40
1.0
 40
1.0
 40
1.0
 40
1.0
 10
11.4603193736
 20
5.8539217803
 30
0.0
 10
11.46432968
 20
5.8482958816
 30
0.0
 10
11.471901371
 20
5.8368719898
 30
0.0
 10
11.4819211341
 20
5.8191257897
 30
0.0
 10
11.4904610923
 20
5.8009916132
 30
0.0
 10
11.4974903659
 20
5.7825321966
 30
0.0
 10
11.5029839922
 20
5.7638105609
 30
0.0
 10
11.5069222361
 20
5.7448907417
 30
0.0
 10
11.5092909803
 20
5.725839825
 30
0.0
 10
11.5098183383
 20
5.7130844131
 30
0.0
 10
11.5098183383
 20
5.7067205995
 30
0.0
  0
SPLINE
  5
3A3
100
AcDbEntity
  8
0
100
AcDbSpline
 62
7
  6
CONTINUOUS
 70
0
 71
3
 72
15
 73
11
 74
0
 42
0.0000001
 43
0.0000001
 44
0.0000000001
 40
0.0
 40
0.0
 40
0.0
 40
0.0
 40
0.1223759621
 40
0.2450227498
 40
0.3681923255
 40
0.4921293161
 40
0.617067128
 40
0.743225752
 40
0.870808362
 40
1.0
 40
1.0
 40
1.0
 40
1.0
 10
10.5873580455
 20
5.672226867
 30
0.0
 10
10.5873766823
 20
5.6771958638
 30
0.0
 10
10.5877366791
 20
5.6871466518
 30
0.0
 10
10.5892435963
 20
5.7020307489
 30
0.0
 10
10.5917137112
 20
5.7168503809
 30
0.0
 10
10.5951422473
 20
5.7315731989
 30
0.0
 10
10.5995211667
 20
5.7461683448
 30
0.0
 10
10.6048415003
 20
5.760604953
 30
0.0
 10
10.6110911245
 20
5.7748521461
 30
0.0
 10
10.615837286
 20
5.7841432402
 30
0.0
 10
10.6183556575
 20
5.7887449802
 30
0.0
  0
SPLINE
  5
3A4
100
AcDbEntity
  8
0
100
AcDbSpline
 62
9
  6
CONTINUOUS
 70
0
 71
3
 72
26
 73
22
 74
0
 42
0.0000001
 43
0.0000001
 44
0.0000000001
 40
0.0
 40
0.0
 40
0.0
 40
0.0
 40
0.0656125029
 40
0.1327931169
 40
0.2011122223
 40
0.2700930669
 40
0.339234986
 40
0.4080313502
 40
0.4759883349
 40
0.5426438497
 40
0.6075869973
 40
0.6704783139
 40
0.7310705008
 40
0.7892300553
 40
0.8449578335
 40
0.8719679575
 40
0.8984410677
 40
0.9244217074
 40
0.9499643595
 40
0.9751329676
 40
1.0
 40
1.0
 40
1.0
 40
1.0
 10
11.2201279562
 20
5.5869480864
 30
0.0
 10
11.2078620973
 20
5.5819405705
 30
0.0
 10
11.1825200978
 20
5.5730322481
 30
0.0
 10
11.143077196
 20
5.5631525742
 30
0.0
 10
11.1022398257
 20
5.5567068033
 30
0.0
 10
11.0606055379
 20
5.5537895219
 30
0.0
 10
11.0187779495
 20
5.5544418154
 30
0.0
 10
10.9773650624
 20
5.5586547626
 30
0.0
 10
10.9369682581
 20
5.5663676446
 30
0.0
 10
10.898174043
 20
5.5774700773
 30
0.0
 10
10.8615453484
 20
5.591803937
 30
0.0
 10
10.8276138668
 20
5.6091652077
 30
0.0
 10
10.7968721219
 20
5.6293105812
 30
0.0
 10
10.7697724455
 20
5.6519533075
 30
0.0
 10
10.7503500216
 20
5.6728680173
 30
0.0
 10
10.7370988331
 20
5.6905146822
 30
0.0
 10
10.7284006919
 20
5.7040156687
 30
0.0
 10
10.7208749992
 20
5.7178675622
 30
0.0
 10
10.7145498763
 20
5.7320205503
 30
0.0
 10
10.709450037
 20
5.7464209748
 30
0.0
 10
10.7068663381
 20
5.7562025923
 30
0.0
 10
10.705789682
 20
5.7611070188
 30
0.0
  0
SPLINE
  5
3A5
100
AcDbEntity
  8
0
100
AcDbSpline
 62
7
  6
CONTINUOUS
 70
0
 71
3
 72
31
 73
27
 74
0
 42
0.0000001
 43
0.0000001
 44
0.0000000001
 40
0.0
 40
0.0
 40
0.0
 40
0.0
 40
0.0667240908
 40
0.1007584781
 40
0.1351529009
 40
0.2047287171
 40
0.2749010117
 40
0.3450733166
 40
0.4146491549
 40
0.4830580088
 40
0.5166708366
 40
0.5498036022
 40
0.6144034283
 40
0.6458117609
 40
0.676576064
 40
0.7360739637
 40
0.764831663
 40
0.7929331386
 40
0.8204052414
 40
0.8472878712
 40
0.873634
 40
0.8995093399
 40
0.9249914967
 40
0.9501685545
 40
0.9751371699
 40
1.0
 40
1.0
 40
1.0
 40
1.0
 10
11.2735683383
 20
5.9599521582
 30
0.0
 10
11.2562181393
 20
5.9528689691
 30
0.0
 10
11.2294216588
 20
5.9435685825
 30
0.0
 10
11.1927265936
 20
5.933814231
 30
0.0
 10
11.15481253
 20
5.9256906405
 30
0.0
 10
11.1062968925
 20
5.9188966335
 30
0.0
 10
11.0473189259
 20
5.9161750952
 30
0.0
 10
10.988337443
 20
5.9188969081
 30
0.0
 10
10.9303558454
 20
5.9270164859
 30
0.0
 10
10.883398851
 20
5.9382367432
 30
0.0
 10
10.8472306343
 20
5.9498109409
 30
0.0
 10
10.8127066932
 20
5.9628437617
 30
0.0
 10
10.7798038347
 20
5.9783108922
 30
0.0
 10
10.7489819174
 20
5.9961733108
 30
0.0
 10
10.7204664976
 20
6.0150313946
 30
0.0
 10
10.694296026
 20
6.0360077245
 30
0.0
 10
10.671000512
 20
6.0589585004
 30
0.0
 10
10.6553298984
 20
6.0767477632
 30
0.0
 10
10.6413359418
 20
6.0952280493
 30
0.0
 10
10.6290786421
 20
6.1143219574
 30
0.0
 10
10.6186121956
 20
6.133948089
 30
0.0
 10
10.6099831006
 20
6.1540227381
 30
0.0
 10
10.6032302618
 20
6.1744594578
 30
0.0
 10
10.5983844722
 20
6.1951704778
 30
0.0
 10
10.5954680052
 20
6.2160632109
 30
0.0
 10
10.5948183471
 20
6.2300676257
 30
0.0
 10
10.5948183815
 20
6.2370506854
 30
0.0
  0
SPLINE
  5
3A6
100
AcDbEntity
  8
0
100
AcDbSpline
 62
9
  6
CONTINUOUS
 70
0
 71
3
 72
18
 73
14
 74
0
 42
0.0000001
 43
0.0000001
 44
0.0000000001
 40
0.0
 40
0.0
 40
0.0
 40
0.0
 40
0.1411355767
 40
0.2777804077
 40
0.4095809942
 40
0.5363889116
 40
0.658304077
 40
0.7175635784
 40
0.7757621216
 40
0.8329900021
 40
0.889354461
 40
0.9449785827
 40
1.0
 40
1.0
 40
1.0
 40
1.0
 10
11.2201279562
 20
5.5869480864
 30
0.0
 10
11.2310989811
 20
5.5914269886
 30
0.0
 10
11.2523156385
 20
5.6012071619
 30
0.0
 10
11.282076782
 20
5.6185444433
 30
0.0
 10
11.3089471479
 20
5.6381287185
 30
0.0
 10
11.3325868981
 20
5.6597218743
 30
0.0
 10
11.3495118553
 20
5.6793703604
 30
0.0
 10
11.3610856386
 20
5.6958171787
 30
0.0
 10
11.3687093481
 20
5.7083609655
 30
0.0
 10
11.3753319482
 20
5.7211880365
 30
0.0
 10
11.3809326996
 20
5.7342592441
 30
0.0
 10
11.3854928843
 20
5.7475326866
 30
0.0
 10
11.3878409796
 20
5.7565321886
 30
0.0
 10
11.3888331714
 20
5.761044105
 30
0.0
  0
SPLINE
  5
3A7
100
AcDbEntity
  8
0
100
AcDbSpline
 62
7
  6
CONTINUOUS
 70
0
 71
3
 72
21
 73
17
 74
0
 42
0.0000001
 43
0.0000001
 44
0.0000000001
 40
0.0
 40
0.0
 40
0.0
 40
0.0
 40
0.1434934773
 40
0.2132580234
 40
0.2815937145
 40
0.4137535613
 40
0.4776316462
 40
0.5400521012
 40
0.6010746384
 40
0.6607877724
 40
0.719309177
 40
0.7767848291
 40
0.8333871173
 40
0.8893117533
 40
0.944773377
 40
1.0
 40
1.0
 40
1.0
 40
1.0
 10
11.2735683383
 20
5.9599521582
 30
0.0
 10
11.2903662758
 20
5.9668098875
 30
0.0
 10
11.3148341658
 20
5.9783113186
 30
0.0
 10
11.3456545604
 20
5.996173362
 30
0.0
 10
11.3741703051
 20
6.0150313689
 30
0.0
 10
11.4003406638
 20
6.0360076962
 30
0.0
 10
11.4236361443
 20
6.0589585184
 30
0.0
 10
11.4393067305
 20
6.0767477956
 30
0.0
 10
11.4533007499
 20
6.0952280401
 30
0.0
 10
11.4655580892
 20
6.114321934
 30
0.0
 10
11.4760244939
 20
6.1339480882
 30
0.0
 10
11.4846535326
 20
6.1540227531
 30
0.0
 10
11.4914063679
 20
6.1744594696
 30
0.0
 10
11.4962522289
 20
6.1951704711
 30
0.0
 10
11.4991687694
 20
6.2160632084
 30
0.0
 10
11.4998182607
 20
6.2300676268
 30
0.0
 10
11.4998182951
 20
6.2370506854
 30
0.0
  0
SPLINE
  5
3A8
100
AcDbEntity
  8
0
100
AcDbSpline
 62
9
  6
CONTINUOUS
 70
0
 71
3
 72
19
 73
15
 74
0
 42
0.0000001
 43
0.0000001
 44
0.0000000001
 40
0.0
 40
0.0
 40
0.0
 40
0.0
 40
0.1384143884
 40
0.2722444132
 40
0.4016331869
 40
0.526903131
 40
0.5881757565
 40
0.6486285068
 40
0.7083546206
 40
0.767457788
 40
0.8260506391
 40
0.8842536068
 40
0.9421931935
 40
1.0
 40
1.0
 40
1.0
 40
1.0
 10
11.3727462656
 20
5.7869512803
 30
0.0
 10
11.3826423218
 20
5.7941940927
 30
0.0
 10
11.4014795054
 20
5.8093265474
 30
0.0
 10
11.4269553678
 20
5.8342546448
 30
0.0
 10
11.4489508736
 20
5.8608147143
 30
0.0
 10
11.4643209684
 20
5.8842906908
 30
0.0
 10
11.4746190647
 20
5.9036126866
 30
0.0
 10
11.481302567
 20
5.9182457156
 30
0.0
 10
11.486984617
 20
5.9330902259
 30
0.0
 10
11.4916524827
 20
5.9481122041
 30
0.0
 10
11.4952945864
 20
5.9632767433
 30
0.0
 10
11.4979023856
 20
5.9785488039
 30
0.0
 10
11.4994696859
 20
5.993891864
 30
0.0
 10
11.4998182859
 20
6.0041502752
 30
0.0
 10
11.4998182882
 20
6.009271898
 30
0.0
  0
SPLINE
  5
3A9
100
AcDbEntity
  8
0
100
AcDbSpline
 62
7
  6
CONTINUOUS
 70
0
 71
3
 72
27
 73
23
 74
0
 42
0.0000001
 43
0.0000001
 44
0.0000000001
 40
0.0
 40
0.0
 40
0.0
 40
0.0
 40
0.150041355
 40
0.2231609427
 40
0.2948306809
 40
0.3648951089
 40
0.4331728859
 40
0.4994495168
 40
0.5634880304
 40
0.6250361381
 40
0.6838510502
 40
0.7397723637
 40
0.7666767765
 40
0.7929186656
 40
0.8185820906
 40
0.8438037457
 40
0.8687788572
 40
0.8937615096
 40
0.9190569298
 40
0.9449915793
 40
0.9718880065
 40
1.0
 40
1.0
 40
1.0
 40
1.0
 10
11.2648183383
 20
5.6868820766
 30
0.0
 10
11.2590515228
 20
5.684527784
 30
0.0
 10
11.25034905
 20
5.6813183981
 30
0.0
 10
11.2386371624
 20
5.6777545293
 30
0.0
 10
11.230001049
 20
5.6755123144
 30
0.0
 10
11.2214685441
 20
5.6737051888
 30
0.0
 10
11.2130758398
 20
5.6723669686
 30
0.0
 10
11.2048675278
 20
5.671540894
 30
0.0
 10
11.1968997423
 20
5.6712787701
 30
0.0
 10
11.189242853
 20
5.6716437605
 30
0.0
 10
11.1819892314
 20
5.6727117188
 30
0.0
 10
11.1763005547
 20
5.6742848063
 30
0.0
 10
11.1721081625
 20
5.6760084367
 30
0.0
 10
11.1692017749
 20
5.6775217971
 30
0.0
 10
11.1665214071
 20
5.6792844823
 30
0.0
 10
11.1640976399
 20
5.6813070608
 30
0.0
 10
11.1619646589
 20
5.6835976554
 30
0.0
 10
11.1601578994
 20
5.6861586514
 30
0.0
 10
11.1587127941
 20
5.6889854135
 30
0.0
 10
11.157660408
 20
5.6920649502
 30
0.0
 10
11.1570246479
 20
5.6953746949
 30
0.0
 10
11.1568904109
 20
5.6976614449
 30
0.0
 10
11.1568904109
 20
5.6988284967
 30
0.0
  0
SPLINE
  5
3AA
100
AcDbEntity
  8
0
100
AcDbSpline
 62
7
  6
CONTINUOUS
 70
0
 71
3
 72
24
 73
20
 74
0
 42
0.0000001
 43
0.0000001
 44
0.0000000001
 40
0.0
 40
0.0
 40
0.0
 40
0.0
 40
0.0491206211
 40
0.0755393887
 40
0.1031169436
 40
0.131750395
 40
0.1613165448
 40
0.1916821062
 40
0.2227177512
 40
0.2863141939
 40
0.3513096321
 40
0.4170923311
 40
0.4832211905
 40
0.5493817345
 40
0.6153509612
 40
0.6809648272
 40
0.7460974195
 40
0.8745221176
 40
1.0
 40
1.0
 40
1.0
 40
1.0
 10
11.3727462656
 20
5.7869512803
 30
0.0
 10
11.3727462656
 20
5.7844415926
 30
0.0
 10
11.372259303
 20
5.7805736075
 30
0.0
 10
11.3708806125
 20
5.7754862419
 30
0.0
 10
11.3694373478
 20
5.7715131612
 30
0.0
 10
11.3676397325
 20
5.7675127154
 30
0.0
 10
11.3655196266
 20
5.7635118621
 30
0.0
 10
11.3631095361
 20
5.7595351462
 30
0.0
 10
11.3595229627
 20
5.7542481891
 30
0.0
 10
11.3544831058
 20
5.7478226299
 30
0.0
 10
11.3477839783
 20
5.7404816239
 30
0.0
 10
11.3405441034
 20
5.7334877887
 30
0.0
 10
11.3328905164
 20
5.7268602539
 30
0.0
 10
11.3249200083
 20
5.7206033325
 30
0.0
 10
11.3167068749
 20
5.7147145957
 30
0.0
 10
11.3083086079
 20
5.709188576
 30
0.0
 10
11.2969792715
 20
5.7023288591
 30
0.0
 10
11.2825936637
 20
5.6946348548
 30
0.0
 10
11.2707537332
 20
5.6893051914
 30
0.0
 10
11.2648183383
 20
5.6868820766
 30
0.0
  0
SPLINE
  5
3AB
100
AcDbEntity
  8
0
100
AcDbSpline
 62
7
  6
CONTINUOUS
 70
0
 71
3
 72
18
 73
14
 74
0
 42
0.0000001
 43
0.0000001
 44
0.0000000001
 40
0.0
 40
0.0
 40
0.0
 40
0.0
 40
0.1364726604
 40
0.2715271832
 40
0.4040511962
 40
0.5330297627
 40
0.5959361692
 40
0.657650199
 40
0.7771699462
 40
0.8349339127
 40
0.8913184823
 40
0.9463324639
 40
1.0
 40
1.0
 40
1.0
 40
1.0
 10
11.0473183383
 20
5.9833809463
 30
0.0
 10
11.0296279827
 20
5.9830271387
 30
0.0
 10
10.9943766315
 20
5.9839468878
 30
0.0
 10
10.9422885385
 20
5.9901843964
 30
0.0
 10
10.8919762238
 20
6.0011526718
 30
0.0
 10
10.8518995774
 20
6.0141801984
 30
0.0
 10
10.8215289682
 20
6.0268169303
 30
0.0
 10
10.7930052741
 20
6.0405658909
 30
0.0
 10
10.7662516963
 20
6.0563726193
 30
0.0
 10
10.7417183305
 20
6.0741754808
 30
0.0
 10
10.7248291102
 20
6.0881943621
 30
0.0
 10
10.7093207195
 20
6.1029657028
 30
0.0
 10
10.6998293377
 20
6.1134006683
 30
0.0
 10
10.6953467171
 20
6.1187224149
 30
0.0
  0
SPLINE
  5
3AC
100
AcDbEntity
  8
0
100
AcDbSpline
 62
7
  6
CONTINUOUS
 70
0
 71
3
 72
26
 73
22
 74
0
 42
0.0000001
 43
0.0000001
 44
0.0000000001
 40
0.0
 40
0.0
 40
0.0
 40
0.0
 40
0.1455766275
 40
0.2174508988
 40
0.2882766788
 40
0.3577715191
 40
0.4256824056
 40
0.4917943142
 40
0.5559388766
 40
0.6180028247
 40
0.6779371799
 40
0.7357655088
 40
0.7915914356
 40
0.8188208723
 40
0.8456276952
 40
0.872049005
 40
0.8981268188
 40
0.9239080034
 40
0.9494436031
 40
0.9747883683
 40
1.0
 40
1.0
 40
1.0
 40
1.0
 10
11.0473183383
 20
6.0347392549
 30
0.0
 10
11.0218217954
 20
6.0342279424
 30
0.0
 10
10.9836179112
 20
6.0359944772
 30
0.0
 10
10.933645903
 20
6.0434613147
 30
0.0
 10
10.8973199793
 20
6.0515005627
 30
0.0
 10
10.8623299927
 20
6.0619227268
 30
0.0
 10
10.8289826701
 20
6.0746299015
 30
0.0
 10
10.7975749917
 20
6.0895038343
 30
0.0
 10
10.7683856083
 20
6.1064079964
 30
0.0
 10
10.7416743953
 20
6.1251883765
 30
0.0
 10
10.7176795594
 20
6.1456761865
 30
0.0
 10
10.6966187105
 20
6.1676847296
 30
0.0
 10
10.6815445002
 20
6.1872976471
 30
0.0
 10
10.6711890808
 20
6.2035308234
 30
0.0
 10
10.6643272305
 20
6.2158521961
 30
0.0
 10
10.6583227513
 20
6.2283900626
 30
0.0
 10
10.6531896064
 20
6.2411161147
 30
0.0
 10
10.6489392829
 20
6.254000563
 30
0.0
 10
10.6455819799
 20
6.2670139115
 30
0.0
 10
10.6431253665
 20
6.2801249999
 30
0.0
 10
10.6420899436
 20
6.2889288178
 30
0.0
 10
10.6417251543
 20
6.2933302235
 30
0.0
  0
SPLINE
  5
3AD
100
AcDbEntity
  8
0
100
AcDbSpline
 62
7
  6
CONTINUOUS
 70
0
 71
3
 72
25
 73
21
 74
0
 42
0.0000001
 43
0.0000001
 44
0.0000000001
 40
0.0
 40
0.0
 40
0.0
 40
0.0
 40
0.1454856073
 40
0.2173205172
 40
0.2881142225
 40
0.3575861279
 40
0.4254846314
 40
0.4915955706
 40
0.5557507355
 40
0.6178361995
 40
0.677801379
 40
0.7356671702
 40
0.791533435
 40
0.8455840168
 40
0.8720218869
 40
0.8981135776
 40
0.923905186
 40
0.9494469554
 40
0.974792901
 40
1.0
 40
1.0
 40
1.0
 40
1.0
 10
11.0473183383
 20
6.0859692496
 30
0.0
 10
11.0219100396
 20
6.0854587982
 30
0.0
 10
10.9838379799
 20
6.0872092461
 30
0.0
 10
10.9340313551
 20
6.0946194005
 30
0.0
 10
10.8978177451
 20
6.1026001093
 30
0.0
 10
10.8629264347
 20
6.1129484802
 30
0.0
 10
10.8296611779
 20
6.125567928
 30
0.0
 10
10.7983161651
 20
6.1403418066
 30
0.0
 10
10.7691676043
 20
6.157135315
 30
0.0
 10
10.7424730436
 20
6.1757967271
 30
0.0
 10
10.7184693721
 20
6.196158434
 30
0.0
 10
10.6973708362
 20
6.2180396346
 30
0.0
 10
10.6793698363
 20
6.2412423868
 30
0.0
 10
10.6669944536
 20
6.261665839
 30
0.0
 10
10.658852293
 20
6.2784198039
 30
0.0
 10
10.6536531136
 20
6.291084877
 30
0.0
 10
10.6493297405
 20
6.3039098123
 30
0.0
 10
10.6458922669
 20
6.3168658982
 30
0.0
 10
10.6433484055
 20
6.3299221875
 30
0.0
 10
10.6422500647
 20
6.3386923737
 30
0.0
 10
10.6418527822
 20
6.3430775904
 30
0.0
  0
SPLINE
  5
3AE
100
AcDbEntity
  8
0
100
AcDbSpline
 62
7
  6
CONTINUOUS
 70
0
 71
3
 72
19
 73
15
 74
0
 42
0.0000001
 43
0.0000001
 44
0.0000000001
 40
0.0
 40
0.0
 40
0.0
 40
0.0
 40
0.1428268148
 40
0.2797626992
 40
0.4107000073
 40
0.5359278263
 40
0.5966485464
 40
0.6562437406
 40
0.7148658588
 40
0.7726887105
 40
0.8299044213
 40
0.8867186101
 40
0.9433449561
 40
1.0
 40
1.0
 40
1.0
 40
1.0
 10
10.51210976
 20
9.4694664615
 30
0.0
 10
10.515165973
 20
9.4762098715
 30
0.0
 10
10.5218058025
 20
9.4891370101
 30
0.0
 10
10.533565798
 20
9.5069378931
 30
0.0
 10
10.5467929889
 20
9.5225077333
 30
0.0
 10
10.5590405784
 20
9.5335427793
 30
0.0
 10
10.5693889839
 20
9.5409711622
 30
0.0
 10
10.5773223915
 20
9.5457955708
 30
0.0
 10
10.585478479
 20
9.5499099826
 30
0.0
 10
10.5938296392
 20
9.5532981562
 30
0.0
 10
10.6023460009
 20
9.5559473129
 30
0.0
 10
10.6109973475
 20
9.5578461598
 30
0.0
 10
10.6197508371
 20
9.5589881527
 30
0.0
 10
10.625626175
 20
9.5592408856
 30
0.0
 10
10.6285629768
 20
9.5592408856
 30
0.0
  0
SPLINE
  5
3AF
100
AcDbEntity
  8
0
100
AcDbSpline
 62
7
  6
CONTINUOUS
 70
0
 71
3
 72
25
 73
21
 74
0
 42
0.0000001
 43
0.0000001
 44
0.0000000001
 40
0.0
 40
0.0
 40
0.0
 40
0.0
 40
0.1202806608
 40
0.1805625646
 40
0.2409639141
 40
0.3015100649
 40
0.3622365991
 40
0.4231855663
 40
0.4844153935
 40
0.5460016109
 40
0.6080444658
 40
0.6706804739
 40
0.734092678
 40
0.7985164787
 40
0.8312119909
 40
0.8642647415
 40
0.8976930517
 40
0.9314927501
 40
0.9656242452
 40
1.0
 40
1.0
 40
1.0
 40
1.0
 10
10.3597936634
 20
11.7109625602
 30
0.0
 10
10.3529841632
 20
11.7124229933
 30
0.0
 10
10.3428057612
 20
11.7148329536
 30
0.0
 10
10.3293613332
 20
11.7185669755
 30
0.0
 10
10.3193327967
 20
11.7216609827
 30
0.0
 10
10.309382881
 20
11.7250801815
 30
0.0
 10
10.2995302468
 20
11.7288613794
 30
0.0
 10
10.2898011412
 20
11.7330529509
 30
0.0
 10
10.2802292437
 20
11.7377094284
 30
0.0
 10
10.2708619665
 20
11.7429002612
 30
0.0
 10
10.26176636
 20
11.7487106011
 30
0.0
 10
10.2530392895
 20
11.7552459277
 30
0.0
 10
10.244828376
 20
11.7626338861
 30
0.0
 10
10.2386313259
 20
11.7695976602
 30
0.0
 10
10.2342263808
 20
11.7757210934
 30
0.0
 10
10.2312420681
 20
11.7806348629
 30
0.0
 10
10.228667404
 20
11.7858481583
 30
0.0
 10
10.2265845341
 20
11.7913458405
 30
0.0
 10
10.2250794676
 20
11.7970867675
 30
0.0
 10
10.224512673
 20
11.8010234418
 30
0.0
 10
10.2243459171
 20
11.8030068284
 30
0.0
  0
SPLINE
  5
3B0
100
AcDbEntity
  8
0
100
AcDbSpline
 62
7
  6
CONTINUOUS
 70
0
 71
3
 72
28
 73
24
 74
0
 42
0.0000001
 43
0.0000001
 44
0.0000000001
 40
0.0
 40
0.0
 40
0.0
 40
0.0
 40
0.0260050882
 40
0.0521252109
 40
0.078410831
 40
0.1049099272
 40
0.1316673942
 40
0.1587245933
 40
0.186118726
 40
0.2138827515
 40
0.2420448123
 40
0.2706284703
 40
0.299652414
 40
0.3291305624
 40
0.389464391
 40
0.4516682936
 40
0.51569416
 40
0.5814332545
 40
0.6487241158
 40
0.7173601116
 40
0.7870974112
 40
0.8576629671
 40
1.0
 40
1.0
 40
1.0
 40
1.0
 10
11.4529316661
 20
6.3182648943
 30
0.0
 10
11.4525724045
 20
6.3136042813
 30
0.0
 10
11.4515481844
 20
6.3042830777
 30
0.0
 10
11.4491070178
 20
6.2903923333
 30
0.0
 10
11.4457642217
 20
6.2765987653
 30
0.0
 10
11.4415273896
 20
6.2629334939
 30
0.0
 10
11.4364066361
 20
6.2494261078
 30
0.0
 10
11.4304132941
 20
6.2361063432
 30
0.0
 10
11.4235615846
 20
6.2230029509
 30
0.0
 10
11.4158666766
 20
6.2101446615
 30
0.0
 10
11.4073464498
 20
6.1975590838
 30
0.0
 10
11.3980200177
 20
6.1852736851
 30
0.0
 10
11.3879083065
 20
6.173314617
 30
0.0
 10
11.3732988125
 20
6.1577204487
 30
0.0
 10
11.3531503128
 20
6.1391945523
 30
0.0
 10
11.3264390785
 20
6.1188471378
 30
0.0
 10
11.2972429554
 20
6.1003769194
 30
0.0
 10
11.2658242668
 20
6.0839400366
 30
0.0
 10
11.2324620778
 20
6.0696728818
 30
0.0
 10
11.1974543191
 20
6.0576940468
 30
0.0
 10
11.1611083824
 20
6.0481013157
 30
0.0
 10
11.1111771846
 20
6.0385728981
 30
0.0
 10
11.0728984117
 20
6.0352522425
 30
0.0
 10
11.0473183383
 20
6.0347392549
 30
0.0
  0
SPLINE
  5
3B1
100
AcDbEntity
  8
0
100
AcDbSpline
 62
7
  6
CONTINUOUS
 70
0
 71
3
 72
19
 73
15
 74
0
 42
0.0000001
 43
0.0000001
 44
0.0000000001
 40
0.0
 40
0.0
 40
0.0
 40
0.0
 40
0.142814879
 40
0.2797406326
 40
0.4106711626
 40
0.5358967982
 40
0.5966179578
 40
0.6562153045
 40
0.7148410305
 40
0.7726673143
 40
0.8298850113
 40
0.8867069411
 40
0.9433499665
 40
1.0
 40
1.0
 40
1.0
 40
1.0
 10
11.5824835903
 20
9.2389199826
 30
0.0
 10
11.5794266607
 20
9.2321830554
 30
0.0
 10
11.5727858257
 20
9.219268741
 30
0.0
 10
11.561026956
 20
9.2014861721
 30
0.0
 10
11.5478030138
 20
9.185932994
 30
0.0
 10
11.5355601163
 20
9.1749100284
 30
0.0
 10
11.5252161112
 20
9.1674902409
 30
0.0
 10
11.5172865679
 20
9.162670899
 30
0.0
 10
11.5091342763
 20
9.1585616097
 30
0.0
 10
11.5007877961
 20
9.1551768433
 30
0.0
 10
11.4922759867
 20
9.1525310432
 30
0.0
 10
11.4836289971
 20
9.1506337862
 30
0.0
 10
11.4748802155
 20
9.1494940461
 30
0.0
 10
11.4690082822
 20
9.1492409815
 30
0.0
 10
11.4660737193
 20
9.1492409815
 30
0.0
  0
SPLINE
  5
3B2
100
AcDbEntity
  8
0
100
AcDbSpline
 62
7
  6
CONTINUOUS
 70
0
 71
3
 72
24
 73
20
 74
0
 42
0.0000001
 43
0.0000001
 44
0.0000000001
 40
0.0
 40
0.0
 40
0.0
 40
0.0
 40
0.0343750796
 40
0.0685058394
 40
0.102305046
 40
0.1357321267
 40
0.2014292275
 40
0.2658532058
 40
0.3292675893
 40
0.3919068878
 40
0.4539537073
 40
0.5155440695
 40
0.5767781493
 40
0.6377321842
 40
0.6984636527
 40
0.7590148862
 40
0.8194215154
 40
0.8797086304
 40
1.0
 40
1.0
 40
1.0
 40
1.0
 10
11.8702866431
 20
11.802958824
 30
0.0
 10
11.8701178547
 20
11.800976295
 30
0.0
 10
11.8695480054
 20
11.7970414667
 30
0.0
 10
11.8680386059
 20
11.7913038279
 30
0.0
 10
11.8659523325
 20
11.785809443
 30
0.0
 10
11.8625365978
 20
11.7789045001
 30
0.0
 10
11.8572543525
 20
11.7709968464
 30
0.0
 10
11.8497858528
 20
11.7626119031
 30
0.0
 10
11.8415744804
 20
11.755227095
 30
0.0
 10
11.8328486575
 20
11.7486957482
 30
0.0
 10
11.8237544222
 20
11.742888357
 30
0.0
 10
11.8143889298
 20
11.7377000576
 30
0.0
 10
11.804819139
 20
11.7330453332
 30
0.0
 10
11.7950920527
 20
11.728855657
 30
0.0
 10
11.7852416215
 20
11.7250758318
 30
0.0
 10
11.7752939873
 20
11.7216577436
 30
0.0
 10
11.7652677201
 20
11.718564852
 30
0.0
 10
11.7518264399
 20
11.7148317897
 30
0.0
 10
11.7416503907
 20
11.7124225922
 30
0.0
 10
11.7348424972
 20
11.7109624614
 30
0.0
  0
SPLINE
  5
3B3
100
AcDbEntity
  8
0
100
AcDbSpline
 62
7
  6
CONTINUOUS
 70
0
 71
3
 72
14
 73
10
 74
0
 42
0.0000001
 43
0.0000001
 44
0.0000000001
 40
0.0
 40
0.0
 40
0.0
 40
0.0
 40
0.1246449214
 40
0.2493238504
 40
0.3740525577
 40
0.4988505434
 40
0.6237677182
 40
0.748873026
 40
1.0
 40
1.0
 40
1.0
 40
1.0
 10
11.45357395
 20
11.7148031977
 30
0.0
 10
11.4587174804
 20
11.7145878611
 30
0.0
 10
11.469003182
 20
11.7140862569
 30
0.0
 10
11.48442032
 20
11.713083544
 30
0.0
 10
11.4998218574
 20
11.7117797068
 30
0.0
 10
11.5151967773
 20
11.710098106
 30
0.0
 10
11.5305342271
 20
11.7079684693
 30
0.0
 10
11.5509166079
 20
11.7043669346
 30
0.0
 10
11.5660489301
 20
11.7006417292
 30
0.0
 10
11.5759196088
 20
11.6974562905
 30
0.0
  0
ELLIPSE
  5
3B4
100
AcDbEntity
  8
0
100
AcDbEllipse
 62
7
  6
CONTINUOUS
 10
11.0473183383
 20
5.8410708879
 30
0.0
 11
0.4522967215
 21
0.1611958191
 31
0.0
 40
0.084133201
 41
4.9269927592
 42
5.4850315861
  0
ENDSEC
  0
SECTION
  2
OBJECTS
  0
DICTIONARY
  5
C
100
AcDbDictionary
280
0
281
1
  3
ACAD_GROUP
350
D
  3
ACAD_MLINESTYLE
350
17
  3
ACAD_LAYOUT
350
1A
  3
ACAD_PLOTSETTINGS
350
19
  3
ACAD_PLOTSTYLENAME
350
E
  0
DICTIONARY
  5
D
102
{ACAD_REACTORS
330
C
102
}
100
AcDbDictionary
280
0
281
1
  0
ACDBDICTIONARYWDFLT
  5
E
102
{ACAD_REACTORS
330
C
102
}
100
AcDbDictionary
281
1
  3
Normal
350
F
100
AcDbDictionaryWithDefault
340
F
  0
DICTIONARY
  5
17
102
{ACAD_REACTORS
330
C
102
}
100
AcDbDictionary
280
0
281
1
  3
Standard
350
18
  0
DICTIONARY
  5
19
102
{ACAD_REACTORS
330
C
102
}
100
AcDbDictionary
281
1
  0
DICTIONARY
  5
1A
102
{ACAD_REACTORS
330
C
102
}
100
AcDbDictionary
281
1
  3
Model
350
3B5
  3
Layout1
350
3B6
  0
ACDBPLACEHOLDER
  5
F
102
{ACAD_REACTORS
330
E
102
}
  0
MLINESTYLE
  5
18
102
{ACAD_REACTORS
330
17
102
}
100
AcDbMlineStyle
  2
STANDARD
 70
0
  3

 62
256
 51
90.0
 52
90.0
 71
2
 49
0.5
 62
256
  6
BYLAYER
 49
-0.5
 62
256
  6
BYLAYER
  0
LAYOUT
  5
3B5
102
{ACAD_REACTORS
330
1A
102
}
100
AcDbPlotSettings
  1

  2
none_device
  4
ANSI_C_(22.00_x_17.00_Inches)
  6

 40
0.0
 41
0.0
 42
0.0
 43
0.0
 44
558.8
 45
431.8
 46
0.0
 47
0.0
 48
0.0
 49
0.0
140
0.0
141
0.0
142
1.0
143
1.0
 70
1024
 72
0
 73
0
 74
0
  7

 75
0
147
1.0
148
0.0
149
0.0
100
AcDbLayout
  1
Model
 70
0
 71
0
 10
0.0
 20
0.0
 11
22.0
 21
17.0
 12
0.0
 22
0.0
 32
0.0
 14
0.0
 24
0.0
 34
0.0
 15
0.0
 25
0.0
 35
0.0
146
0.0
 13
0.0
 23
0.0
 33
0.0
 16
1.0
 26
0.0
 36
0.0
 17
0.0
 27
1.0
 37
0.0
 76
0
330
205
345
0
346
0
  0
LAYOUT
  5
3B6
102
{ACAD_REACTORS
330
1A
102
}
100
AcDbPlotSettings
  1

  2
none_device
  4
ANSI_C_(22.00_x_17.00_Inches)
  6

 40
0.0
 41
0.0
 42
0.0
 43
0.0
 44
558.8
 45
431.8
 46
0.0
 47
0.0
 48
0.0
 49
0.0
140
0.0
141
0.0
142
1.0
143
1.0
 70
0
 72
0
 73
0
 74
0
  7

 75
0
147
1.0
148
0.0
149
0.0
100
AcDbLayout
  1
Layout1
 70
0
 71
1
 10
0.0
 20
0.0
 11
22.0
 21
17.0
 12
0.0
 22
0.0
 32
0.0
 14
0.0
 24
0.0
 34
0.0
 15
0.0
 25
0.0
 35
0.0
146
0.0
 13
0.0
 23
0.0
 33
0.0
 16
1.0
 26
0.0
 36
0.0
 17
0.0
 27
1.0
 37
0.0
 76
0
330
206
345
0
346
0
  0
ENDSEC
  0
EOF
