999
DXF file: 3-1763tr_RIGHT.dxf
999
Pro/ENGINEER 2013150 by Parametric Technology Corporation
  0
SECTION
  2
HEADER
  9
$ACADVER
  1
AC1021
  9
$DWGCODEPAGE
  3
ANSI_1252
  9
$EXTMAX
 10
11.0
 20
8.5
 30
0.0
  9
$EXTMIN
 10
0.0
 20
0.0
 30
0.0
  9
$LIMMIN
 10
0.0
 20
0.0
  9
$LIMMAX
 10
11.0
 20
8.5
  9
$VIEWCTR
 10
5.5
 20
4.25
  9
$VIEWSIZE
 40
8.5
  9
$CLAYER
  8
0
  9
$LTSCALE
 40
0.605
  9
$CELTYPE
  6
BYLAYER
  9
$DIMSCALE
 40
1.0
  9
$DIMASZ
 40
0.1
  9
$DIMEXO
 40
0.0625
  9
$DIMDLI
 40
0.418
  9
$DIMEXE
 40
0.125
  9
$DIMCEN
 40
0.099
  9
$DIMLFAC
 40
1.0
  9
$DIMBLK
  1
_FILLED
  9
$DIMTXT
 40
0.08
  9
$DIMTOL
 70
1
  9
$DIMLIM
 70
0
  9
$DIMTFAC
 40
1.0
  9
$DIMTP
 40
0.001
  9
$DIMTM
 40
0.001
  9
$DIMGAP
 40
0.09
  9
$DIMDSEP
 70
46
  9
$PDMODE
 70
3
  9
$PDSIZE
 40
0.06
  9
$HANDSEED
  5
347
  9
$TILEMODE
 70
1
  9
$MEASUREMENT
 70
0
  9
$INSUNITS
 70
1
  0
ENDSEC
  0
SECTION
  2
CLASSES
  0
CLASS
  1
ACDBDICTIONARYWDFLT
  2
AcDbDictionaryWithDefault
  3
AutoCAD 2000
 90
0
 91
1
280
0
281
0
  0
CLASS
  1
ACDBPLACEHOLDER
  2
AcDbPlaceHolder
  3
AutoCAD 2000
 90
0
 91
1
280
0
281
0
  0
CLASS
  1
LAYOUT
  2
AcDbLayout
  3
AutoCAD 2000
 90
0
 91
0
280
0
281
0
  0
ENDSEC
  0
SECTION
  2
TABLES
  0
TABLE
  2
VPORT
  5
8
100
AcDbSymbolTable
 70
2
  0
VPORT
  5
1F4
100
AcDbSymbolTableRecord
100
AcDbViewportTableRecord
  2
*ACTIVE
 70
0
 10
0.0
 20
0.0
 11
1.0
 21
1.0
 12
5.5
 22
4.25
 13
0.0
 23
0.0
 14
1.0
 24
1.0
 15
0.0
 25
0.0
 16
0.0
 26
0.0
 36
1.0
 17
0.0
 27
0.0
 37
0.0
 40
8.5
 41
1.2941176471
 42
50.0
 43
0.0
 44
0.0
 50
0.0
 51
0.0
 71
0
 72
100
 73
1
 74
1
 75
0
 76
0
 77
0
 78
0
  0
ENDTAB
  0
TABLE
  2
LTYPE
  5
5
100
AcDbSymbolTable
 70
6
  0
LTYPE
  5
14
100
AcDbSymbolTableRecord
100
AcDbLinetypeTableRecord
  2
BYBLOCK
 70
0
  3

 72
65
 73
0
 40
0.0
  0
LTYPE
  5
15
100
AcDbSymbolTableRecord
100
AcDbLinetypeTableRecord
  2
BYLAYER
 70
0
  3

 72
65
 73
0
 40
0.0
  0
LTYPE
  5
16
100
AcDbSymbolTableRecord
100
AcDbLinetypeTableRecord
  2
CONTINUOUS
 70
64
  3
Solid line
 72
65
 73
0
 40
0.0
  0
LTYPE
  5
1F5
100
AcDbSymbolTableRecord
100
AcDbLinetypeTableRecord
  2
CENTER
 70
64
  3
____ _ ____ _ ____ _ ____ _ ____ _ ____ _ ____
 72
65
 73
4
 40
0.6
 49
0.375
 74
0
 49
-0.075
 74
0
 49
0.075
 74
0
 49
-0.075
 74
0
  0
LTYPE
  5
1F6
100
AcDbSymbolTableRecord
100
AcDbLinetypeTableRecord
  2
HIDDEN
 70
64
  3
- - - - - - - - - - - - - - - - - - - -
 72
65
 73
2
 40
0.2
 49
0.1
 74
0
 49
-0.1
 74
0
  0
LTYPE
  5
1F7
100
AcDbSymbolTableRecord
100
AcDbLinetypeTableRecord
  2
PHANTOM
 70
64
  3
_____ _ _ _____ _ _ _____ _ _ _____
 72
65
 73
6
 40
0.8
 49
0.45
 74
0
 49
-0.05
 74
0
 49
0.1
 74
0
 49
-0.05
 74
0
 49
0.1
 74
0
 49
-0.05
 74
0
  0
LTYPE
  5
1F8
100
AcDbSymbolTableRecord
100
AcDbLinetypeTableRecord
  2
DOT
 70
64
  3
. . . . . . . . . . . . . . . . . . . .
 72
65
 73
2
 40
0.2
 49
0.1
 74
0
 49
-0.1
 74
0
  0
LTYPE
  5
1F9
100
AcDbSymbolTableRecord
100
AcDbLinetypeTableRecord
  2
DASHED
 70
64
  3
- - - - - - - - - - - - - - - - - - - -
 72
65
 73
2
 40
0.2
 49
0.1
 74
0
 49
-0.1
 74
0
  0
ENDTAB
  0
TABLE
  2
LAYER
  5
2
100
AcDbSymbolTable
 70
36
  0
LAYER
  5
10
100
AcDbSymbolTableRecord
100
AcDbLayerTableRecord
  2
0
 70
0
 62
7
  6
CONTINUOUS
370
-3
390
F
  0
LAYER
  5
1FA
100
AcDbSymbolTableRecord
100
AcDbLayerTableRecord
  2
DEFAULT_1
 70
0
 62
7
  6
CENTER
370
-3
390
F
  0
LAYER
  5
1FB
100
AcDbSymbolTableRecord
100
AcDbLayerTableRecord
  2
DEFAULT_2
 70
0
 62
8
  6
HIDDEN
370
-3
390
F
  0
LAYER
  5
1FC
100
AcDbSymbolTableRecord
100
AcDbLayerTableRecord
  2
DEFAULT_3
 70
0
 62
7
  6
PHANTOM
370
-3
390
F
  0
LAYER
  5
1FD
100
AcDbSymbolTableRecord
100
AcDbLayerTableRecord
  2
ALL_ASSEMBLY_MEMBERS
 70
0
 62
7
  6
CONTINUOUS
370
-3
390
F
  0
LAYER
  5
1FE
100
AcDbSymbolTableRecord
100
AcDbLayerTableRecord
  2
ALL_FEATURES
 70
0
 62
7
  6
CONTINUOUS
370
-3
390
F
  0
LAYER
  5
1FF
100
AcDbSymbolTableRecord
100
AcDbLayerTableRecord
  2
AXES_FEATURES
 70
0
 62
7
  6
CONTINUOUS
370
-3
390
F
  0
LAYER
  5
200
100
AcDbSymbolTableRecord
100
AcDbLayerTableRecord
  2
CHAMFER_FEATURES
 70
0
 62
7
  6
CONTINUOUS
370
-3
390
F
  0
LAYER
  5
201
100
AcDbSymbolTableRecord
100
AcDbLayerTableRecord
  2
COORDINATE_SYSTEMS
 70
0
 62
7
  6
CONTINUOUS
370
-3
390
F
  0
LAYER
  5
202
100
AcDbSymbolTableRecord
100
AcDbLayerTableRecord
  2
CURVE2
 70
0
 62
7
  6
CONTINUOUS
370
-3
390
F
  0
LAYER
  5
203
100
AcDbSymbolTableRecord
100
AcDbLayerTableRecord
  2
CUT_FEATURES
 70
0
 62
7
  6
CONTINUOUS
370
-3
390
F
  0
LAYER
  5
204
100
AcDbSymbolTableRecord
100
AcDbLayerTableRecord
  2
DATUM_CURVES
 70
0
 62
7
  6
CONTINUOUS
370
-3
390
F
  0
LAYER
  5
205
100
AcDbSymbolTableRecord
100
AcDbLayerTableRecord
  2
DATUM_PLANES
 70
0
 62
7
  6
CONTINUOUS
370
-3
390
F
  0
LAYER
  5
206
100
AcDbSymbolTableRecord
100
AcDbLayerTableRecord
  2
DATUM_POINTS
 70
0
 62
7
  6
CONTINUOUS
370
-3
390
F
  0
LAYER
  5
207
100
AcDbSymbolTableRecord
100
AcDbLayerTableRecord
  2
DEFAULT_COORDINATE_SYSTEM
 70
0
 62
7
  6
CONTINUOUS
370
-3
390
F
  0
LAYER
  5
208
100
AcDbSymbolTableRecord
100
AcDbLayerTableRecord
  2
DEFAULT_DATUM_AXES
 70
0
 62
7
  6
CONTINUOUS
370
-3
390
F
  0
LAYER
  5
209
100
AcDbSymbolTableRecord
100
AcDbLayerTableRecord
  2
DEFAULT_DATUM_CURVES
 70
0
 62
7
  6
CONTINUOUS
370
-3
390
F
  0
LAYER
  5
20A
100
AcDbSymbolTableRecord
100
AcDbLayerTableRecord
  2
DEFAULT_DATUM_PLANES
 70
0
 62
7
  6
CONTINUOUS
370
-3
390
F
  0
LAYER
  5
20B
100
AcDbSymbolTableRecord
100
AcDbLayerTableRecord
  2
DEFAULT_SURFACES
 70
0
 62
7
  6
CONTINUOUS
370
-3
390
F
  0
LAYER
  5
20C
100
AcDbSymbolTableRecord
100
AcDbLayerTableRecord
  2
DIMENSIONS
 70
0
 62
7
  6
CONTINUOUS
370
-3
390
F
  0
LAYER
  5
20D
100
AcDbSymbolTableRecord
100
AcDbLayerTableRecord
  2
HOLE_FEATURES
 70
0
 62
7
  6
CONTINUOUS
370
-3
390
F
  0
LAYER
  5
20E
100
AcDbSymbolTableRecord
100
AcDbLayerTableRecord
  2
IMPORT_FEATURE
 70
0
 62
7
  6
CONTINUOUS
370
-3
390
F
  0
LAYER
  5
20F
100
AcDbSymbolTableRecord
100
AcDbLayerTableRecord
  2
INTFCLR_1
 70
0
 62
7
  6
CONTINUOUS
370
-3
390
F
  0
LAYER
  5
210
100
AcDbSymbolTableRecord
100
AcDbLayerTableRecord
  2
NOTES
 70
0
 62
7
  6
CONTINUOUS
370
-3
390
F
  0
LAYER
  5
211
100
AcDbSymbolTableRecord
100
AcDbLayerTableRecord
  2
PART_REFERENCE_DIMENSIONS
 70
0
 62
7
  6
CONTINUOUS
370
-3
390
F
  0
LAYER
  5
212
100
AcDbSymbolTableRecord
100
AcDbLayerTableRecord
  2
PLATED_SURFACE_AREA
 70
0
 62
7
  6
CONTINUOUS
370
-3
390
F
  0
LAYER
  5
213
100
AcDbSymbolTableRecord
100
AcDbLayerTableRecord
  2
POINTS
 70
0
 62
7
  6
CONTINUOUS
370
-3
390
F
  0
LAYER
  5
214
100
AcDbSymbolTableRecord
100
AcDbLayerTableRecord
  2
PROTRUSION
 70
0
 62
7
  6
CONTINUOUS
370
-3
390
F
  0
LAYER
  5
215
100
AcDbSymbolTableRecord
100
AcDbLayerTableRecord
  2
PROTRUSION_FEATURES
 70
0
 62
7
  6
CONTINUOUS
370
-3
390
F
  0
LAYER
  5
216
100
AcDbSymbolTableRecord
100
AcDbLayerTableRecord
  2
QUILT
 70
0
 62
7
  6
CONTINUOUS
370
-3
390
F
  0
LAYER
  5
217
100
AcDbSymbolTableRecord
100
AcDbLayerTableRecord
  2
QUILTS
 70
0
 62
7
  6
CONTINUOUS
370
-3
390
F
  0
LAYER
  5
218
100
AcDbSymbolTableRecord
100
AcDbLayerTableRecord
  2
REFERENCE_DIMENSIONS
 70
0
 62
7
  6
CONTINUOUS
370
-3
390
F
  0
LAYER
  5
219
100
AcDbSymbolTableRecord
100
AcDbLayerTableRecord
  2
ROUND_FEATURES
 70
0
 62
7
  6
CONTINUOUS
370
-3
390
F
  0
LAYER
  5
21A
100
AcDbSymbolTableRecord
100
AcDbLayerTableRecord
  2
SHELL_FEATURES
 70
0
 62
7
  6
CONTINUOUS
370
-3
390
F
  0
LAYER
  5
21B
100
AcDbSymbolTableRecord
100
AcDbLayerTableRecord
  2
SIZE_REF
 70
0
 62
7
  6
CONTINUOUS
370
-3
390
F
  0
LAYER
  5
21C
100
AcDbSymbolTableRecord
100
AcDbLayerTableRecord
  2
SURFACE_FEATURES
 70
0
 62
7
  6
CONTINUOUS
370
-3
390
F
  0
LAYER
  5
21D
100
AcDbSymbolTableRecord
100
AcDbLayerTableRecord
  2
WETTED_SURFACES
 70
0
 62
7
  6
CONTINUOUS
370
-3
390
F
  0
LAYER
  5
21E
100
AcDbSymbolTableRecord
100
AcDbLayerTableRecord
  2
XSEC_DATUMS
 70
0
 62
7
  6
CONTINUOUS
370
-3
390
F
  0
ENDTAB
  0
TABLE
  2
STYLE
  5
3
100
AcDbSymbolTable
 70
1
  0
STYLE
  5
11
100
AcDbSymbolTableRecord
100
AcDbTextStyleTableRecord
  2
STANDARD
 70
0
 40
0.0
 41
0.8
 50
0.0
 71
0
 42
0.2
  3
txt
  4

  0
STYLE
  5
21F
100
AcDbSymbolTableRecord
100
AcDbTextStyleTableRecord
  2
TEXTSTYLE_1
 70
0
 40
0.0
 41
0.8
 50
0.0
 71
0
 42
0.2
  3
gdt
  4

  0
ENDTAB
  0
TABLE
  2
VIEW
  5
6
100
AcDbSymbolTable
 70
0
  0
ENDTAB
  0
TABLE
  2
UCS
  5
7
100
AcDbSymbolTable
 70
0
  0
ENDTAB
  0
TABLE
  2
APPID
  5
9
100
AcDbSymbolTable
 70
1
  0
APPID
  5
220
100
AcDbSymbolTableRecord
100
AcDbRegAppTableRecord
  2
ACAD
 70
0
  0
ENDTAB
  0
TABLE
  2
BLOCK_RECORD
  5
1
100
AcDbSymbolTable
 70
0
  0
BLOCK_RECORD
  5
221
100
AcDbSymbolTableRecord
100
AcDbBlockTableRecord
  2
*Model_Space
  0
BLOCK_RECORD
  5
222
100
AcDbSymbolTableRecord
100
AcDbBlockTableRecord
  2
*Paper_Space
  0
ENDTAB
  0
TABLE
  2
DIMSTYLE
  5
A
100
AcDbSymbolTable
 70
1
100
AcDbDimStyleTable
 71
0
  0
DIMSTYLE
105
223
100
AcDbSymbolTableRecord
100
AcDbDimStyleTableRecord
  2
STANDARD
 70
0
  3

  4

 40
1.0
 41
0.1
 42
0.0625
 43
0.38
 44
0.125
 45
0.0
 46
0.0
 47
0.001
 48
0.001
140
0.08
141
0.09
142
0.0
143
25.4
144
1.0
145
0.0
146
1.0
147
0.09
 71
1.0
 72
0.0
 73
1
 74
1
 75
0
 76
0
 77
0
 78
4
170
0
171
2
172
0
173
0
174
0
175
0
176
0
177
0
178
0
270
2
271
3
272
3
273
2
274
2
275
0
280
0
281
0
282
0
283
1
284
4
285
0
286
0
287
3
288
0
340
11
278
46
  0
ENDTAB
  0
ENDSEC
  0
SECTION
  2
BLOCKS
  0
BLOCK
  5
20
100
AcDbEntity
  8
0
100
AcDbBlockBegin
  2
*Model_Space
 70
0
 10
0.0
 20
0.0
 30
0.0
  3
*Model_Space
  1

  0
ENDBLK
  5
21
100
AcDbEntity
  8
0
100
AcDbBlockEnd
  0
BLOCK
  5
1C
100
AcDbEntity
  8
0
100
AcDbBlockBegin
  2
*Paper_Space
 70
0
 10
0.0
 20
0.0
 30
0.0
  3
*Paper_Space
  1

  0
ENDBLK
  5
1D
100
AcDbEntity
  8
0
100
AcDbBlockEnd
  0
ENDSEC
  0
SECTION
  2
ENTITIES
  0
LINE
  5
224
100
AcDbEntity
  8
0
100
AcDbLine
 62
7
  6
CONTINUOUS
 10
0.0
 20
0.0
 11
0.0
 21
8.5
  0
LINE
  5
225
100
AcDbEntity
  8
0
100
AcDbLine
 62
7
  6
CONTINUOUS
 10
0.0
 20
0.0
 11
11.0
 21
0.0
  0
LINE
  5
226
100
AcDbEntity
  8
0
100
AcDbLine
 62
7
  6
CONTINUOUS
 10
0.0
 20
8.5
 11
11.0
 21
8.5
  0
LINE
  5
227
100
AcDbEntity
  8
0
100
AcDbLine
 62
7
  6
CONTINUOUS
 10
11.0
 20
0.0
 11
11.0
 21
8.5
  0
LINE
  5
228
100
AcDbEntity
  8
ALL_FEATURES
100
AcDbLine
 62
7
  6
CONTINUOUS
 10
5.8117442343
 20
1.2585842432
 11
5.8679942343
 21
1.2585842432
  0
LINE
  5
229
100
AcDbEntity
  8
0
100
AcDbLine
 62
7
  6
CONTINUOUS
 10
5.8679942343
 20
1.2624075845
 11
5.9429942343
 21
1.2624075845
  0
LINE
  5
22A
100
AcDbEntity
  8
0
100
AcDbLine
 62
7
  6
CONTINUOUS
 10
5.6291015801
 20
1.7230942861
 11
5.6673868885
 21
1.72209175
  0
LINE
  5
22B
100
AcDbEntity
  8
ALL_FEATURES
100
AcDbLine
 62
7
  6
CONTINUOUS
 10
3.4226083488
 20
1.9696763259
 11
3.4657179863
 21
1.9081093832
  0
LINE
  5
22C
100
AcDbEntity
  8
ALL_FEATURES
100
AcDbLine
 62
7
  6
CONTINUOUS
 10
3.6883032307
 20
5.8624421604
 11
3.7314128682
 21
5.9240091032
  0
LINE
  5
22D
100
AcDbEntity
  8
ALL_FEATURES
100
AcDbLine
 62
9
  6
CONTINUOUS
 10
3.127817768
 20
1.9081093832
 11
3.4657179863
 21
1.9081093832
  0
LINE
  5
22E
100
AcDbEntity
  8
ALL_FEATURES
100
AcDbLine
 62
9
  6
CONTINUOUS
 10
3.1709274054
 20
1.9696763259
 11
3.4226083488
 21
1.9696763259
  0
LINE
  5
22F
100
AcDbEntity
  8
ALL_FEATURES
100
AcDbLine
 62
7
  6
CONTINUOUS
 10
3.1549497099
 20
1.9885592432
 11
3.4385860444
 21
1.9885592432
  0
LINE
  5
230
100
AcDbEntity
  8
ALL_FEATURES
100
AcDbLine
 62
9
  6
CONTINUOUS
 10
3.1535799072
 20
2.0072066121
 11
3.4399558471
 21
2.0072066121
  0
LINE
  5
231
100
AcDbEntity
  8
ALL_FEATURES
100
AcDbLine
 62
9
  6
CONTINUOUS
 10
2.9185342327
 20
2.4449208503
 11
2.9185342327
 21
3.024697636
  0
LINE
  5
232
100
AcDbEntity
  8
0
100
AcDbLine
 62
7
  6
CONTINUOUS
 10
2.9517678771
 20
2.3937609207
 11
2.9517678771
 21
3.0758575657
  0
LINE
  5
233
100
AcDbEntity
  8
0
100
AcDbLine
 62
7
  6
CONTINUOUS
 10
5.4514843918
 20
2.1145592432
 11
4.4066550476
 21
2.1145592432
  0
LINE
  5
234
100
AcDbEntity
  8
ALL_FEATURES
100
AcDbLine
 62
7
  6
CONTINUOUS
 10
4.4066550476
 20
2.1145592432
 11
5.4514843918
 21
2.1145592432
  0
LINE
  5
235
100
AcDbEntity
  8
0
100
AcDbLine
 62
7
  6
CONTINUOUS
 10
5.4662481713
 20
2.114730503
 11
5.6144942343
 21
2.114730503
  0
LINE
  5
236
100
AcDbEntity
  8
0
100
AcDbLine
 62
7
  6
CONTINUOUS
 10
4.3158764506
 20
2.1667506003
 11
4.3054288448
 21
2.1689893729
  0
LINE
  5
237
100
AcDbEntity
  8
0
100
AcDbLine
 62
9
  6
CONTINUOUS
 10
2.9623901453
 20
2.3818402724
 11
2.9623901453
 21
3.0877782139
  0
LINE
  5
238
100
AcDbEntity
  8
ALL_FEATURES
100
AcDbLine
 62
9
  6
CONTINUOUS
 10
3.019788654
 20
3.1266765353
 11
3.019788654
 21
2.3429419511
  0
LINE
  5
239
100
AcDbEntity
  8
ALL_FEATURES
100
AcDbLine
 62
9
  6
CONTINUOUS
 10
3.0611923869
 20
3.1384150053
 11
3.0611923869
 21
2.3312034811
  0
LINE
  5
23A
100
AcDbEntity
  8
ALL_FEATURES
100
AcDbLine
 62
7
  6
CONTINUOUS
 10
3.0717678771
 20
2.3373092432
 11
3.0717678771
 21
3.1323092432
  0
LINE
  5
23B
100
AcDbEntity
  8
ALL_FEATURES
100
AcDbLine
 62
9
  6
CONTINUOUS
 10
3.1081204698
 20
2.3014902203
 11
3.1081204872
 21
2.6514717946
  0
LINE
  5
23C
100
AcDbEntity
  8
ALL_FEATURES
100
AcDbLine
 62
9
  6
CONTINUOUS
 10
3.1081204872
 20
2.8181466917
 11
3.1081204698
 21
3.168128266
  0
LINE
  5
23D
100
AcDbEntity
  8
ALL_FEATURES
100
AcDbLine
 62
9
  6
CONTINUOUS
 10
3.156759426
 20
2.278309735
 11
3.4367763283
 21
2.278309735
  0
LINE
  5
23E
100
AcDbEntity
  8
ALL_FEATURES
100
AcDbLine
 62
9
  6
CONTINUOUS
 10
3.2287134769
 20
2.2949297582
 11
3.3648095656
 21
2.2949297586
  0
LINE
  5
23F
100
AcDbEntity
  8
ALL_FEATURES
100
AcDbLine
 62
9
  6
CONTINUOUS
 10
3.1842291146
 20
4.8074208503
 11
3.1842291146
 21
5.387197636
  0
LINE
  5
240
100
AcDbEntity
  8
0
100
AcDbLine
 62
7
  6
CONTINUOUS
 10
3.217462759
 20
4.7562609207
 11
3.217462759
 21
5.4383575657
  0
LINE
  5
241
100
AcDbEntity
  8
0
100
AcDbLine
 62
9
  6
CONTINUOUS
 10
3.2280850272
 20
4.7443402724
 11
3.2280850272
 21
5.4502782139
  0
LINE
  5
242
100
AcDbEntity
  8
ALL_FEATURES
100
AcDbLine
 62
9
  6
CONTINUOUS
 10
3.2854835358
 20
5.4891765353
 11
3.2854835358
 21
4.7054419511
  0
LINE
  5
243
100
AcDbEntity
  8
DEFAULT_1
100
AcDbLine
 62
7
  6
CENTER
 10
3.2967678771
 20
3.1739442553
 11
3.2967678771
 21
2.9411044218
  0
LINE
  5
244
100
AcDbEntity
  8
DEFAULT_1
100
AcDbLine
 62
7
  6
CENTER
 10
3.2967678771
 20
2.528514058
 11
3.2967678771
 21
2.295674231
  0
LINE
  5
245
100
AcDbEntity
  8
ALL_FEATURES
100
AcDbLine
 62
9
  6
CONTINUOUS
 10
3.3268872688
 20
5.5009150053
 11
3.3268872688
 21
4.6937034811
  0
LINE
  5
246
100
AcDbEntity
  8
ALL_FEATURES
100
AcDbLine
 62
7
  6
CONTINUOUS
 10
3.337462759
 20
4.6998092432
 11
3.337462759
 21
5.4948092432
  0
LINE
  5
247
100
AcDbEntity
  8
ALL_FEATURES
100
AcDbLine
 62
9
  6
CONTINUOUS
 10
3.3738153517
 20
4.6639902203
 11
3.3738153691
 21
5.0139717946
  0
LINE
  5
248
100
AcDbEntity
  8
ALL_FEATURES
100
AcDbLine
 62
9
  6
CONTINUOUS
 10
3.3738153691
 20
5.1806466917
 11
3.3738153517
 21
5.530628266
  0
LINE
  5
249
100
AcDbEntity
  8
ALL_FEATURES
100
AcDbLine
 62
7
  6
CONTINUOUS
 10
3.337462759
 20
4.6998092432
 11
3.3268872688
 21
4.6937034811
  0
LINE
  5
24A
100
AcDbEntity
  8
ALL_FEATURES
100
AcDbLine
 62
7
  6
CONTINUOUS
 10
3.9342678771
 20
2.5004342432
 11
3.6102678771
 21
2.5004342432
  0
LINE
  5
24B
100
AcDbEntity
  8
0
100
AcDbLine
 62
7
  6
CONTINUOUS
 10
3.9844843918
 20
2.5960592432
 11
3.9469843918
 21
2.5960592432
  0
LINE
  5
24C
100
AcDbEntity
  8
0
100
AcDbLine
 62
7
  6
CONTINUOUS
 10
3.9469843918
 20
2.6211842432
 11
3.9342678771
 21
2.6211842432
  0
LINE
  5
24D
100
AcDbEntity
  8
ALL_FEATURES
100
AcDbLine
 62
7
  6
CONTINUOUS
 10
3.0717678771
 20
3.1323092432
 11
3.0611923869
 21
3.1384150053
  0
LINE
  5
24E
100
AcDbEntity
  8
0
100
AcDbLine
 62
7
  6
CONTINUOUS
 10
4.3480199834
 20
2.1427946278
 11
4.3416286797
 21
2.1508082616
  0
LINE
  5
24F
100
AcDbEntity
  8
ALL_FEATURES
100
AcDbLine
 62
7
  6
CONTINUOUS
 10
3.1709274054
 20
3.4999421604
 11
3.127817768
 21
3.5615091032
  0
LINE
  5
250
100
AcDbEntity
  8
ALL_FEATURES
100
AcDbLine
 62
9
  6
CONTINUOUS
 10
3.4814675877
 20
2.3001417488
 11
3.4814675878
 21
2.6431226812
  0
LINE
  5
251
100
AcDbEntity
  8
ALL_FEATURES
100
AcDbLine
 62
9
  6
CONTINUOUS
 10
3.4814675877
 20
2.8264958054
 11
3.4814675877
 21
3.1694767376
  0
LINE
  5
252
100
AcDbEntity
  8
ALL_FEATURES
100
AcDbLine
 62
7
  6
CONTINUOUS
 10
3.5217678771
 20
2.3562797125
 11
3.5217678771
 21
3.1133387739
  0
LINE
  5
253
100
AcDbEntity
  8
DEFAULT_1
100
AcDbLine
 62
7
  6
CENTER
 10
3.562462759
 20
5.5364442553
 11
3.562462759
 21
5.3036044218
  0
LINE
  5
254
100
AcDbEntity
  8
DEFAULT_1
100
AcDbLine
 62
7
  6
CENTER
 10
3.562462759
 20
4.891014058
 11
3.562462759
 21
4.658174231
  0
LINE
  5
255
100
AcDbEntity
  8
ALL_FEATURES
100
AcDbLine
 62
7
  6
CONTINUOUS
 10
3.4366222873
 20
4.3321763259
 11
3.3935126499
 21
4.2706093832
  0
LINE
  5
256
100
AcDbEntity
  8
0
100
AcDbLine
 62
7
  6
CONTINUOUS
 10
3.9469843918
 20
2.8484342432
 11
3.9342678771
 21
2.8484342432
  0
LINE
  5
257
100
AcDbEntity
  8
0
100
AcDbLine
 62
7
  6
CONTINUOUS
 10
3.9844843918
 20
2.8735592432
 11
3.9469843918
 21
2.8735592432
  0
LINE
  5
258
100
AcDbEntity
  8
ALL_FEATURES
100
AcDbLine
 62
9
  6
CONTINUOUS
 10
3.6102678771
 20
2.9691842432
 11
3.6102678771
 21
2.5004342432
  0
LINE
  5
259
100
AcDbEntity
  8
ALL_FEATURES
100
AcDbLine
 62
9
  6
CONTINUOUS
 10
3.7471624696
 20
4.6626417488
 11
3.7471624697
 21
5.0056226812
  0
LINE
  5
25A
100
AcDbEntity
  8
ALL_FEATURES
100
AcDbLine
 62
9
  6
CONTINUOUS
 10
3.7471624696
 20
5.1889958054
 11
3.7471624696
 21
5.5319767376
  0
LINE
  5
25B
100
AcDbEntity
  8
ALL_FEATURES
100
AcDbLine
 62
7
  6
CONTINUOUS
 10
3.787462759
 20
4.7187797125
 11
3.787462759
 21
5.4758387739
  0
LINE
  5
25C
100
AcDbEntity
  8
ALL_FEATURES
100
AcDbLine
 62
7
  6
CONTINUOUS
 10
3.9342678771
 20
2.9691842432
 11
3.6102678771
 21
2.9691842432
  0
LINE
  5
25D
100
AcDbEntity
  8
ALL_FEATURES
100
AcDbLine
 62
9
  6
CONTINUOUS
 10
3.875962759
 20
5.3316842432
 11
3.875962759
 21
4.8629342432
  0
LINE
  5
25E
100
AcDbEntity
  8
ALL_FEATURES
100
AcDbLine
 62
7
  6
CONTINUOUS
 10
3.9342678771
 20
2.5004342432
 11
3.9342678771
 21
2.9691842432
  0
LINE
  5
25F
100
AcDbEntity
  8
0
100
AcDbLine
 62
7
  6
CONTINUOUS
 10
3.9469843918
 20
2.5960592432
 11
3.9469843918
 21
2.8735592432
  0
LINE
  5
260
100
AcDbEntity
  8
ALL_FEATURES
100
AcDbLine
 62
7
  6
CONTINUOUS
 10
3.9844843918
 20
2.9973092432
 11
3.9844843918
 21
2.4723092432
  0
LINE
  5
261
100
AcDbEntity
  8
0
100
AcDbLine
 62
9
  6
CONTINUOUS
 10
3.9940283114
 20
2.4409666707
 11
3.9940283114
 21
3.0286518157
  0
LINE
  5
262
100
AcDbEntity
  8
0
100
AcDbLine
 62
9
  6
CONTINUOUS
 10
4.009840981
 20
2.4276401176
 11
4.009840981
 21
3.0419783688
  0
LINE
  5
263
100
AcDbEntity
  8
ALL_FEATURES
100
AcDbLine
 62
7
  6
CONTINUOUS
 10
3.4226083488
 20
3.4999421604
 11
3.4657179863
 21
3.5615091032
  0
LINE
  5
264
100
AcDbEntity
  8
ALL_FEATURES
100
AcDbLine
 62
9
  6
CONTINUOUS
 10
3.3648094314
 20
3.1746887281
 11
3.2287170595
 21
3.1746887278
  0
LINE
  5
265
100
AcDbEntity
  8
ALL_FEATURES
100
AcDbLine
 62
9
  6
CONTINUOUS
 10
3.4367763283
 20
3.1913087513
 11
3.156759426
 21
3.1913087513
  0
LINE
  5
266
100
AcDbEntity
  8
ALL_FEATURES
100
AcDbLine
 62
7
  6
CONTINUOUS
 10
4.199962759
 20
4.8629342432
 11
4.199962759
 21
5.3316842432
  0
LINE
  5
267
100
AcDbEntity
  8
0
100
AcDbLine
 62
7
  6
CONTINUOUS
 10
4.2126792737
 20
5.2360592432
 11
4.2126792737
 21
4.9585592432
  0
LINE
  5
268
100
AcDbEntity
  8
0
100
AcDbLine
 62
7
  6
CONTINUOUS
 10
4.3158764506
 20
3.3028678861
 11
4.3054288448
 21
3.3006291134
  0
LINE
  5
269
100
AcDbEntity
  8
0
100
AcDbLine
 62
7
  6
CONTINUOUS
 10
5.6144942343
 20
3.3544923988
 11
5.5123585761
 21
3.3544923988
  0
LINE
  5
26A
100
AcDbEntity
  8
0
100
AcDbLine
 62
7
  6
CONTINUOUS
 10
5.4662481713
 20
3.3548879833
 11
5.4898628979
 21
3.3548879833
  0
LINE
  5
26B
100
AcDbEntity
  8
0
100
AcDbLine
 62
7
  6
CONTINUOUS
 10
4.5192343918
 20
3.3550592432
 11
4.4066550476
 21
3.3550592432
  0
LINE
  5
26C
100
AcDbEntity
  8
ALL_FEATURES
100
AcDbLine
 62
7
  6
CONTINUOUS
 10
4.4066550476
 20
3.3550592432
 11
4.5192343918
 21
3.3550592432
  0
LINE
  5
26D
100
AcDbEntity
  8
0
100
AcDbLine
 62
7
  6
CONTINUOUS
 10
4.8237343918
 20
3.3550592432
 11
5.4514843918
 21
3.3550592432
  0
LINE
  5
26E
100
AcDbEntity
  8
ALL_FEATURES
100
AcDbLine
 62
7
  6
CONTINUOUS
 10
4.8237343918
 20
3.3550592432
 11
5.4514843918
 21
3.3550592432
  0
LINE
  5
26F
100
AcDbEntity
  8
0
100
AcDbLine
 62
9
  6
CONTINUOUS
 10
4.5271093918
 20
3.4525592432
 11
4.8158593918
 21
3.4525592432
  0
LINE
  5
270
100
AcDbEntity
  8
0
100
AcDbLine
 62
7
  6
CONTINUOUS
 10
4.534610996
 20
3.4600592432
 11
4.8083577876
 21
3.4600592432
  0
LINE
  5
271
100
AcDbEntity
  8
ALL_FEATURES
100
AcDbLine
 62
9
  6
CONTINUOUS
 10
3.1535799072
 20
3.4624118742
 11
3.4399558471
 21
3.4624118742
  0
LINE
  5
272
100
AcDbEntity
  8
ALL_FEATURES
100
AcDbLine
 62
7
  6
CONTINUOUS
 10
3.1549497099
 20
3.4810592432
 11
3.4385860444
 21
3.4810592432
  0
LINE
  5
273
100
AcDbEntity
  8
ALL_FEATURES
100
AcDbLine
 62
9
  6
CONTINUOUS
 10
3.1709274054
 20
3.4999421604
 11
3.4226083488
 21
3.4999421604
  0
LINE
  5
274
100
AcDbEntity
  8
ALL_FEATURES
100
AcDbLine
 62
7
  6
CONTINUOUS
 10
3.6883032307
 20
4.3321763259
 11
3.7314128682
 21
4.2706093832
  0
LINE
  5
275
100
AcDbEntity
  8
0
100
AcDbLine
 62
7
  6
CONTINUOUS
 10
4.2501792737
 20
4.85495109
 11
4.2501792737
 21
5.3396673964
  0
LINE
  5
276
100
AcDbEntity
  8
0
100
AcDbLine
 62
9
  6
CONTINUOUS
 10
4.2661772629
 20
3.272199069
 11
4.2661772629
 21
2.1974194173
  0
LINE
  5
277
100
AcDbEntity
  8
0
100
AcDbLine
 62
9
  6
CONTINUOUS
 10
4.268346151
 20
4.8273834058
 11
4.268346151
 21
5.3672350805
  0
LINE
  5
278
100
AcDbEntity
  8
0
100
AcDbLine
 62
9
  6
CONTINUOUS
 10
4.3054288448
 20
3.3006291134
 11
4.3054288448
 21
2.168989373
  0
LINE
  5
279
100
AcDbEntity
  8
0
100
AcDbLine
 62
9
  6
CONTINUOUS
 10
4.3158764506
 20
2.1667506003
 11
4.3158764506
 21
3.3028678861
  0
LINE
  5
27A
100
AcDbEntity
  8
0
100
AcDbLine
 62
9
  6
CONTINUOUS
 10
4.3416286797
 20
2.1508082616
 11
4.3416286797
 21
3.3188102247
  0
LINE
  5
27B
100
AcDbEntity
  8
0
100
AcDbLine
 62
9
  6
CONTINUOUS
 10
4.3480199834
 20
2.1427946278
 11
4.3480199834
 21
3.3268238585
  0
LINE
  5
27C
100
AcDbEntity
  8
0
100
AcDbLine
 62
9
  6
CONTINUOUS
 10
4.4066550476
 20
3.3550592432
 11
4.4066550476
 21
2.1145592432
  0
LINE
  5
27D
100
AcDbEntity
  8
0
100
AcDbLine
 62
7
  6
CONTINUOUS
 10
5.6291015801
 20
3.7453242003
 11
5.6673868885
 21
3.7463267364
  0
LINE
  5
27E
100
AcDbEntity
  8
ALL_FEATURES
100
AcDbLine
 62
9
  6
CONTINUOUS
 10
3.127817768
 20
3.5615091032
 11
3.4657179863
 21
3.5615091032
  0
LINE
  5
27F
100
AcDbEntity
  8
0
100
AcDbLine
 62
9
  6
CONTINUOUS
 10
4.5007448494
 20
5.5522214473
 11
4.5007448494
 21
4.6423970391
  0
LINE
  5
280
100
AcDbEntity
  8
0
100
AcDbLine
 62
7
  6
CONTINUOUS
 10
4.5271093918
 20
3.3531772788
 11
4.5271093918
 21
3.4525592432
  0
LINE
  5
281
100
AcDbEntity
  8
0
100
AcDbLine
 62
9
  6
CONTINUOUS
 10
4.5612728888
 20
5.5829342432
 11
4.5612728888
 21
4.6116842432
  0
LINE
  5
282
100
AcDbEntity
  8
ALL_FEATURES
100
AcDbLine
 62
7
  6
CONTINUOUS
 10
3.1709274054
 20
1.9696763259
 11
3.127817768
 21
1.9081093832
  0
LINE
  5
283
100
AcDbEntity
  8
0
100
AcDbLine
 62
7
  6
CONTINUOUS
 10
4.6979942343
 20
4.5897317432
 11
4.6979942343
 21
5.6048807861
  0
LINE
  5
284
100
AcDbEntity
  8
0
100
AcDbLine
 62
9
  6
CONTINUOUS
 10
4.8104942343
 20
4.4772317432
 11
4.8104942343
 21
5.7173867432
  0
LINE
  5
285
100
AcDbEntity
  8
0
100
AcDbLine
 62
7
  6
CONTINUOUS
 10
4.8158593918
 20
3.3531772768
 11
4.8158593918
 21
3.4525592432
  0
LINE
  5
286
100
AcDbEntity
  8
0
100
AcDbLine
 62
7
  6
CONTINUOUS
 10
4.3480199834
 20
3.3268238585
 11
4.3416286797
 21
3.3188102247
  0
LINE
  5
287
100
AcDbEntity
  8
ALL_FEATURES
100
AcDbLine
 62
7
  6
CONTINUOUS
 10
3.4366222873
 20
5.8624421604
 11
3.3935126499
 21
5.9240091032
  0
LINE
  5
288
100
AcDbEntity
  8
ALL_FEATURES
100
AcDbLine
 62
9
  6
CONTINUOUS
 10
3.3935126499
 20
4.2706093832
 11
3.7314128682
 21
4.2706093832
  0
LINE
  5
289
100
AcDbEntity
  8
ALL_FEATURES
100
AcDbLine
 62
9
  6
CONTINUOUS
 10
3.4366222873
 20
4.3321763259
 11
3.6883032307
 21
4.3321763259
  0
LINE
  5
28A
100
AcDbEntity
  8
ALL_FEATURES
100
AcDbLine
 62
7
  6
CONTINUOUS
 10
3.4206445917
 20
4.3510592432
 11
3.7042809263
 21
4.3510592432
  0
LINE
  5
28B
100
AcDbEntity
  8
ALL_FEATURES
100
AcDbLine
 62
7
  6
CONTINUOUS
 10
3.0717678771
 20
2.3373092432
 11
3.0611923869
 21
2.3312034811
  0
LINE
  5
28C
100
AcDbEntity
  8
ALL_FEATURES
100
AcDbLine
 62
9
  6
CONTINUOUS
 10
3.4192747891
 20
4.3697066121
 11
3.7056507289
 21
4.3697066121
  0
LINE
  5
28D
100
AcDbEntity
  8
0
100
AcDbLine
 62
7
  6
CONTINUOUS
 10
5.6819942343
 20
4.4772317432
 11
4.8104942343
 21
4.4772317432
  0
LINE
  5
28E
100
AcDbEntity
  8
0
100
AcDbLine
 62
7
  6
CONTINUOUS
 10
5.4514843918
 20
3.3550592432
 11
5.4514843918
 21
2.1145592432
  0
LINE
  5
28F
100
AcDbEntity
  8
0
100
AcDbLine
 62
9
  6
CONTINUOUS
 10
5.4662481713
 20
2.1147305184
 11
5.4662481713
 21
3.3548879833
  0
LINE
  5
290
100
AcDbEntity
  8
ALL_FEATURES
100
AcDbLine
 62
7
  6
CONTINUOUS
 10
4.5612728888
 20
4.6116842432
 11
4.6979942343
 21
4.6116842432
  0
LINE
  5
291
100
AcDbEntity
  8
ALL_FEATURES
100
AcDbLine
 62
9
  6
CONTINUOUS
 10
3.4224543079
 20
4.640809735
 11
3.7024712102
 21
4.640809735
  0
LINE
  5
292
100
AcDbEntity
  8
ALL_FEATURES
100
AcDbLine
 62
9
  6
CONTINUOUS
 10
3.4944083588
 20
4.6574297582
 11
3.6305044475
 21
4.6574297586
  0
LINE
  5
293
100
AcDbEntity
  8
ALL_FEATURES
100
AcDbLine
 62
7
  6
CONTINUOUS
 10
3.337462759
 20
5.4948092432
 11
3.3268872688
 21
5.5009150053
  0
LINE
  5
294
100
AcDbEntity
  8
ALL_FEATURES
100
AcDbLine
 62
7
  6
CONTINUOUS
 10
5.6144942343
 20
1.7380891459
 11
5.6144942343
 21
3.7303293404
  0
LINE
  5
295
100
AcDbEntity
  8
ALL_FEATURES
100
AcDbLine
 62
9
  6
CONTINUOUS
 10
5.6291015801
 20
1.7230942861
 11
5.6291015801
 21
3.7453242003
  0
LINE
  5
296
100
AcDbEntity
  8
ALL_FEATURES
100
AcDbLine
 62
9
  6
CONTINUOUS
 10
5.6673868885
 20
1.72209175
 11
5.6673868885
 21
3.7463267364
  0
LINE
  5
297
100
AcDbEntity
  8
ALL_FEATURES
100
AcDbLine
 62
7
  6
CONTINUOUS
 10
5.6819942343
 20
6.3408092115
 11
5.6819942343
 21
1.4913092432
  0
LINE
  5
298
100
AcDbEntity
  8
ALL_FEATURES
100
AcDbLine
 62
9
  6
CONTINUOUS
 10
5.6935043762
 20
1.4559718174
 11
5.6935043762
 21
6.376146669
  0
LINE
  5
299
100
AcDbEntity
  8
ALL_FEATURES
100
AcDbLine
 62
7
  6
CONTINUOUS
 10
4.199962759
 20
4.8629342432
 11
3.875962759
 21
4.8629342432
  0
LINE
  5
29A
100
AcDbEntity
  8
0
100
AcDbLine
 62
7
  6
CONTINUOUS
 10
4.2501792737
 20
4.9585592432
 11
4.2126792737
 21
4.9585592432
  0
LINE
  5
29B
100
AcDbEntity
  8
0
100
AcDbLine
 62
7
  6
CONTINUOUS
 10
4.2126792737
 20
4.9836842432
 11
4.199962759
 21
4.9836842432
  0
LINE
  5
29C
100
AcDbEntity
  8
ALL_FEATURES
100
AcDbLine
 62
9
  6
CONTINUOUS
 10
5.7523131997
 20
1.310340935
 11
5.7523131997
 21
6.5217775513
  0
LINE
  5
29D
100
AcDbEntity
  8
ALL_FEATURES
100
AcDbLine
 62
9
  6
CONTINUOUS
 10
5.8117442343
 20
1.2585842432
 11
5.8117442343
 21
6.5735342432
  0
LINE
  5
29E
100
AcDbEntity
  8
0
100
AcDbLine
 62
7
  6
CONTINUOUS
 10
5.8679942343
 20
1.2624075845
 11
5.8679942343
 21
1.2585843774
  0
LINE
  5
29F
100
AcDbEntity
  8
0
100
AcDbLine
 62
7
  6
CONTINUOUS
 10
4.2126792737
 20
5.2109342432
 11
4.199962759
 21
5.2109342432
  0
LINE
  5
2A0
100
AcDbEntity
  8
ALL_FEATURES
100
AcDbLine
 62
7
  6
CONTINUOUS
 10
5.9429942343
 20
6.5735342432
 11
5.9429942343
 21
3.9160592432
  0
LINE
  5
2A1
100
AcDbEntity
  8
0
100
AcDbLine
 62
7
  6
CONTINUOUS
 10
5.9429942343
 20
1.2624075845
 11
5.9429942343
 21
3.9160592432
  0
LINE
  5
2A2
100
AcDbEntity
  8
0
100
AcDbLine
 62
7
  6
CONTINUOUS
 10
4.2501792737
 20
5.2360592432
 11
4.2126792737
 21
5.2360592432
  0
LINE
  5
2A3
100
AcDbEntity
  8
ALL_FEATURES
100
AcDbLine
 62
7
  6
CONTINUOUS
 10
4.199962759
 20
5.3316842432
 11
3.875962759
 21
5.3316842432
  0
LINE
  5
2A4
100
AcDbEntity
  8
ALL_FEATURES
100
AcDbLine
 62
9
  6
CONTINUOUS
 10
3.6305043133
 20
5.5371887281
 11
3.4944119414
 21
5.5371887278
  0
LINE
  5
2A5
100
AcDbEntity
  8
ALL_FEATURES
100
AcDbLine
 62
9
  6
CONTINUOUS
 10
3.7024712102
 20
5.5538087513
 11
3.4224543079
 21
5.5538087513
  0
LINE
  5
2A6
100
AcDbEntity
  8
ALL_FEATURES
100
AcDbLine
 62
7
  6
CONTINUOUS
 10
4.5612728888
 20
5.5829342432
 11
4.6979942343
 21
5.5829342432
  0
LINE
  5
2A7
100
AcDbEntity
  8
0
100
AcDbLine
 62
7
  6
CONTINUOUS
 10
5.6819942343
 20
5.7173867432
 11
4.8104942343
 21
5.7173867432
  0
LINE
  5
2A8
100
AcDbEntity
  8
ALL_FEATURES
100
AcDbLine
 62
9
  6
CONTINUOUS
 10
3.4192747891
 20
5.8249118742
 11
3.7056507289
 21
5.8249118742
  0
LINE
  5
2A9
100
AcDbEntity
  8
ALL_FEATURES
100
AcDbLine
 62
7
  6
CONTINUOUS
 10
3.4206445917
 20
5.8435592432
 11
3.7042809263
 21
5.8435592432
  0
LINE
  5
2AA
100
AcDbEntity
  8
ALL_FEATURES
100
AcDbLine
 62
9
  6
CONTINUOUS
 10
3.4366222873
 20
5.8624421604
 11
3.6883032307
 21
5.8624421604
  0
LINE
  5
2AB
100
AcDbEntity
  8
ALL_FEATURES
100
AcDbLine
 62
9
  6
CONTINUOUS
 10
3.3935126499
 20
5.9240091032
 11
3.7314128682
 21
5.9240091032
  0
LINE
  5
2AC
100
AcDbEntity
  8
ALL_FEATURES
100
AcDbLine
 62
7
  6
CONTINUOUS
 10
5.8117442343
 20
6.5735342432
 11
5.9429942343
 21
6.5735342432
  0
ARC
  5
2AD
100
AcDbEntity
  8
ALL_FEATURES
100
AcDbCircle
 62
7
  6
CONTINUOUS
 10
3.0256428771
 20
2.1442772739
 40
0.1875
100
AcDbArc
 50
313.0260516848
 51
45.630071095
  0
ARC
  5
2AE
100
AcDbEntity
  8
ALL_FEATURES
100
AcDbCircle
 62
7
  6
CONTINUOUS
 10
3.1610975809
 20
1.9765592432
 40
0.012
100
AcDbArc
 50
325.0
 51
90.0
  0
ARC
  5
2AF
100
AcDbEntity
  8
ALL_FEATURES
100
AcDbCircle
 62
7
  6
CONTINUOUS
 10
3.1617678771
 20
1.9984340898
 40
0.012
100
AcDbArc
 50
133.0260516848
 51
235.3765489003
  0
ARC
  5
2B0
100
AcDbEntity
  8
ALL_FEATURES
100
AcDbCircle
 62
7
  6
CONTINUOUS
 10
2.9537793215
 20
2.3073362208
 40
0.075
100
AcDbArc
 50
28.3426227079
 51
83.407276973
  0
ARC
  5
2B1
100
AcDbEntity
  8
0
100
AcDbCircle
 62
7
  6
CONTINUOUS
 10
2.9537793215
 20
2.3073362208
 40
0.075
100
AcDbArc
 50
28.3426227079
 51
83.407276973
  0
ARC
  5
2B2
100
AcDbEntity
  8
ALL_FEATURES
100
AcDbCircle
 62
7
  6
CONTINUOUS
 10
3.1274752022
 20
2.3574898349
 40
0.05925
100
AcDbArc
 50
199.9134769108
 51
250.9336937345
  0
ARC
  5
2B3
100
AcDbEntity
  8
ALL_FEATURES
100
AcDbCircle
 62
7
  6
CONTINUOUS
 10
2.9539288329
 20
2.4573092432
 40
0.0375
100
AcDbArc
 50
199.2904540361
 51
266.6957145819
  0
ARC
  5
2B4
100
AcDbEntity
  8
ALL_FEATURES
100
AcDbCircle
 62
7
  6
CONTINUOUS
 10
3.0461923869
 20
2.3571842432
 40
0.03
100
AcDbArc
 50
208.3426227079
 51
300.0
  0
ARC
  5
2B5
100
AcDbEntity
  8
ALL_FEATURES
100
AcDbCircle
 62
7
  6
CONTINUOUS
 10
3.1730178771
 20
2.2949297611
 40
0.02325
100
AcDbArc
 50
189.3952308393
 51
225.6300742714
  0
ARC
  5
2B6
100
AcDbEntity
  8
0
100
AcDbCircle
 62
7
  6
CONTINUOUS
 10
2.9637678771
 20
2.3937609207
 40
0.012
100
AcDbArc
 50
180.0
 51
263.407276973
  0
ARC
  5
2B7
100
AcDbEntity
  8
ALL_FEATURES
100
AcDbCircle
 62
7
  6
CONTINUOUS
 10
3.2967678771
 20
1.7898092432
 40
0.20625
100
AcDbArc
 50
145.0
 51
35.0
  0
ARC
  5
2B8
100
AcDbEntity
  8
ALL_FEATURES
100
AcDbCircle
 62
7
  6
CONTINUOUS
 10
3.5678928771
 20
2.1442772739
 40
0.1875
100
AcDbArc
 50
134.369928905
 51
226.9739483152
  0
ARC
  5
2B9
100
AcDbEntity
  8
ALL_FEATURES
100
AcDbCircle
 62
7
  6
CONTINUOUS
 10
3.4324381734
 20
1.9765592432
 40
0.012
100
AcDbArc
 50
90.0
 51
215.0
  0
ARC
  5
2BA
100
AcDbEntity
  8
ALL_FEATURES
100
AcDbCircle
 62
7
  6
CONTINUOUS
 10
3.4317678771
 20
1.9984340898
 40
0.012
100
AcDbArc
 50
304.6234510997
 51
46.9739483152
  0
ARC
  5
2BB
100
AcDbEntity
  8
ALL_FEATURES
100
AcDbCircle
 62
7
  6
CONTINUOUS
 10
3.2967678771
 20
2.6223092432
 40
0.5775
100
AcDbArc
 50
71.3475770898
 51
74.5597237208
  0
ARC
  5
2BC
100
AcDbEntity
  8
ALL_FEATURES
100
AcDbCircle
 62
7
  6
CONTINUOUS
 10
3.2967678771
 20
2.6223092432
 40
0.5775
100
AcDbArc
 50
105.4402762792
 51
109.0663079419
  0
ARC
  5
2BD
100
AcDbEntity
  8
0
100
AcDbCircle
 62
7
  6
CONTINUOUS
 10
3.2967678771
 20
2.6223092432
 40
0.5775
100
AcDbArc
 50
71.3475770898
 51
74.5597237208
  0
ARC
  5
2BE
100
AcDbEntity
  8
0
100
AcDbCircle
 62
7
  6
CONTINUOUS
 10
3.2967678771
 20
2.6223092432
 40
0.5775
100
AcDbArc
 50
105.4402762792
 51
109.0663079419
  0
ARC
  5
2BF
100
AcDbEntity
  8
ALL_FEATURES
100
AcDbCircle
 62
7
  6
CONTINUOUS
 10
3.6102678771
 20
2.4119342432
 40
0.0885
100
AcDbArc
 50
90.0
 51
179.9999999999
  0
ARC
  5
2C0
100
AcDbEntity
  8
ALL_FEATURES
100
AcDbCircle
 62
7
  6
CONTINUOUS
 10
3.4625178771
 20
2.3562797125
 40
0.05925
100
AcDbArc
 50
288.6524229102
 51
360.0
  0
ARC
  5
2C1
100
AcDbEntity
  8
ALL_FEATURES
100
AcDbCircle
 62
7
  6
CONTINUOUS
 10
3.4205178771
 20
2.2949297611
 40
0.02325
100
AcDbArc
 50
314.3699257286
 51
350.6042777221
  0
ARC
  5
2C2
100
AcDbEntity
  8
ALL_FEATURES
100
AcDbCircle
 62
7
  6
CONTINUOUS
 10
2.9537793215
 20
3.1622822656
 40
0.075
100
AcDbArc
 50
276.592723027
 51
331.6573772921
  0
ARC
  5
2C3
100
AcDbEntity
  8
0
100
AcDbCircle
 62
7
  6
CONTINUOUS
 10
2.9537793215
 20
3.1622822656
 40
0.075
100
AcDbArc
 50
276.592723027
 51
331.6573772921
  0
ARC
  5
2C4
100
AcDbEntity
  8
ALL_FEATURES
100
AcDbCircle
 62
7
  6
CONTINUOUS
 10
3.1274752021
 20
3.1121286514
 40
0.05925
100
AcDbArc
 50
109.0663062448
 51
160.0865230762
  0
ARC
  5
2C5
100
AcDbEntity
  8
ALL_FEATURES
100
AcDbCircle
 62
7
  6
CONTINUOUS
 10
2.9539288329
 20
3.0123092432
 40
0.0375
100
AcDbArc
 50
93.3042854181
 51
160.7095459639
  0
ARC
  5
2C6
100
AcDbEntity
  8
ALL_FEATURES
100
AcDbCircle
 62
7
  6
CONTINUOUS
 10
3.0461923869
 20
3.1124342432
 40
0.03
100
AcDbArc
 50
60.0
 51
151.6573772921
  0
ARC
  5
2C7
100
AcDbEntity
  8
ALL_FEATURES
100
AcDbCircle
 62
7
  6
CONTINUOUS
 10
3.1730178771
 20
3.1746887253
 40
0.02325
100
AcDbArc
 50
134.3699257286
 51
170.6047691607
  0
ARC
  5
2C8
100
AcDbEntity
  8
0
100
AcDbCircle
 62
7
  6
CONTINUOUS
 10
2.9637678771
 20
3.0758575657
 40
0.012
100
AcDbArc
 50
96.592723027
 51
180.0
  0
ARC
  5
2C9
100
AcDbEntity
  8
ALL_FEATURES
100
AcDbCircle
 62
7
  6
CONTINUOUS
 10
3.0256428771
 20
3.3253412124
 40
0.1875
100
AcDbArc
 50
314.369928905
 51
46.9739483152
  0
ARC
  5
2CA
100
AcDbEntity
  8
ALL_FEATURES
100
AcDbCircle
 62
7
  6
CONTINUOUS
 10
3.1610975809
 20
3.4930592432
 40
0.012
100
AcDbArc
 50
270.0
 51
35.0
  0
ARC
  5
2CB
100
AcDbEntity
  8
ALL_FEATURES
100
AcDbCircle
 62
7
  6
CONTINUOUS
 10
3.1617678771
 20
3.4711843966
 40
0.012
100
AcDbArc
 50
124.6234510997
 51
226.9739483152
  0
ARC
  5
2CC
100
AcDbEntity
  8
ALL_FEATURES
100
AcDbCircle
 62
7
  6
CONTINUOUS
 10
3.2967678771
 20
2.8473092432
 40
0.5775
100
AcDbArc
 50
285.4402762792
 51
288.6524229102
  0
ARC
  5
2CD
100
AcDbEntity
  8
ALL_FEATURES
100
AcDbCircle
 62
7
  6
CONTINUOUS
 10
3.2967678771
 20
2.8473092432
 40
0.5775
100
AcDbArc
 50
250.9336920581
 51
254.5597237208
  0
CIRCLE
  5
2CE
100
AcDbEntity
  8
ALL_FEATURES
100
AcDbCircle
 62
7
  6
CONTINUOUS
 10
3.2967678771
 20
2.7348092432
 40
0.20625
  0
ARC
  5
2CF
100
AcDbEntity
  8
ALL_FEATURES
100
AcDbCircle
 62
7
  6
CONTINUOUS
 10
3.6102678771
 20
3.0576842432
 40
0.0885
100
AcDbArc
 50
180.0
 51
270.0
  0
ARC
  5
2D0
100
AcDbEntity
  8
ALL_FEATURES
100
AcDbCircle
 62
7
  6
CONTINUOUS
 10
3.4625178771
 20
3.1133387739
 40
0.05925
100
AcDbArc
 50
0.0
 51
71.3475770898
  0
ARC
  5
2D1
100
AcDbEntity
  8
ALL_FEATURES
100
AcDbCircle
 62
7
  6
CONTINUOUS
 10
3.4205178771
 20
3.1746887253
 40
0.02325
100
AcDbArc
 50
9.3957222779
 51
45.6300742714
  0
ARC
  5
2D2
100
AcDbEntity
  8
ALL_FEATURES
100
AcDbCircle
 62
7
  6
CONTINUOUS
 10
3.2967678771
 20
3.6798092432
 40
0.20625
100
AcDbArc
 50
325.0
 51
215.0
  0
ARC
  5
2D3
100
AcDbEntity
  8
ALL_FEATURES
100
AcDbCircle
 62
7
  6
CONTINUOUS
 10
3.5678928771
 20
3.3253412124
 40
0.1875
100
AcDbArc
 50
133.0260516848
 51
225.630071095
  0
ARC
  5
2D4
100
AcDbEntity
  8
ALL_FEATURES
100
AcDbCircle
 62
7
  6
CONTINUOUS
 10
3.4324381734
 20
3.4930592432
 40
0.012
100
AcDbArc
 50
145.0
 51
270.0
  0
ARC
  5
2D5
100
AcDbEntity
  8
ALL_FEATURES
100
AcDbCircle
 62
7
  6
CONTINUOUS
 10
3.4317678771
 20
3.4711843966
 40
0.012
100
AcDbArc
 50
313.0260516848
 51
55.3765489003
  0
ARC
  5
2D6
100
AcDbEntity
  8
0
100
AcDbCircle
 62
7
  6
CONTINUOUS
 10
3.7796857788
 20
1.9135592432
 40
0.56325
100
AcDbArc
 50
30.2628931686
 51
65.8818266345
  0
ARC
  5
2D7
100
AcDbEntity
  8
0
100
AcDbCircle
 62
7
  6
CONTINUOUS
 10
4.3180005905
 20
2.2276575177
 40
0.06
100
AcDbArc
 50
210.2628924365
 51
257.9052426455
  0
ARC
  5
2D8
100
AcDbEntity
  8
0
100
AcDbCircle
 62
7
  6
CONTINUOUS
 10
4.0407214148
 20
2.4723092432
 40
0.0562370231
100
AcDbArc
 50
180.0
 51
213.871340548
  0
ARC
  5
2D9
100
AcDbEntity
  8
ALL_FEATURES
100
AcDbCircle
 62
7
  6
CONTINUOUS
 10
4.0407214148
 20
2.4723092432
 40
0.0562370231
100
AcDbArc
 50
180.0
 51
213.871340548
  0
ARC
  5
2DA
100
AcDbEntity
  8
0
100
AcDbCircle
 62
7
  6
CONTINUOUS
 10
4.3064476419
 20
2.1227494916
 40
0.045
100
AcDbArc
 50
38.5742443677
 51
77.9052432775
  0
ARC
  5
2DB
100
AcDbEntity
  8
0
100
AcDbCircle
 62
7
  6
CONTINUOUS
 10
4.0251642301
 20
2.4618665406
 40
0.0375
100
AcDbArc
 50
213.8713405478
 51
245.8818266345
  0
ARC
  5
2DC
100
AcDbEntity
  8
ALL_FEATURES
100
AcDbCircle
 62
7
  6
CONTINUOUS
 10
3.7467678771
 20
2.7348092432
 40
0.8775
100
AcDbArc
 50
160.7095459639
 51
199.2904540361
  0
ARC
  5
2DD
100
AcDbEntity
  8
0
100
AcDbCircle
 62
7
  6
CONTINUOUS
 10
3.7796857788
 20
3.5560592432
 40
0.56325
100
AcDbArc
 50
294.1181733655
 51
329.7371068314
  0
ARC
  5
2DE
100
AcDbEntity
  8
0
100
AcDbCircle
 62
7
  6
CONTINUOUS
 10
4.3180005905
 20
3.2419609687
 40
0.06
100
AcDbArc
 50
102.0947573545
 51
149.7371075635
  0
ARC
  5
2DF
100
AcDbEntity
  8
0
100
AcDbCircle
 62
7
  6
CONTINUOUS
 10
4.0407214148
 20
2.9973092432
 40
0.0562370231
100
AcDbArc
 50
146.128659452
 51
180.0
  0
ARC
  5
2E0
100
AcDbEntity
  8
ALL_FEATURES
100
AcDbCircle
 62
7
  6
CONTINUOUS
 10
4.0407214148
 20
2.9973092432
 40
0.0562370231
100
AcDbArc
 50
146.128659452
 51
180.0
  0
ARC
  5
2E1
100
AcDbEntity
  8
0
100
AcDbCircle
 62
7
  6
CONTINUOUS
 10
4.3064476419
 20
3.3468689948
 40
0.045
100
AcDbArc
 50
282.0947567225
 51
321.4257556323
  0
ARC
  5
2E2
100
AcDbEntity
  8
0
100
AcDbCircle
 62
7
  6
CONTINUOUS
 10
4.0251642301
 20
3.0077519457
 40
0.0375
100
AcDbArc
 50
114.1181733657
 51
146.1286594522
  0
ARC
  5
2E3
100
AcDbEntity
  8
ALL_FEATURES
100
AcDbCircle
 62
7
  6
CONTINUOUS
 10
3.291337759
 20
4.5067772739
 40
0.1875
100
AcDbArc
 50
313.0260516848
 51
45.630071095
  0
ARC
  5
2E4
100
AcDbEntity
  8
ALL_FEATURES
100
AcDbCircle
 62
7
  6
CONTINUOUS
 10
3.4267924628
 20
4.3390592432
 40
0.012
100
AcDbArc
 50
325.0
 51
90.0
  0
ARC
  5
2E5
100
AcDbEntity
  8
ALL_FEATURES
100
AcDbCircle
 62
7
  6
CONTINUOUS
 10
3.427462759
 20
4.3609340898
 40
0.012
100
AcDbArc
 50
133.0260516848
 51
235.3765489003
  0
ARC
  5
2E6
100
AcDbEntity
  8
ALL_FEATURES
100
AcDbCircle
 62
7
  6
CONTINUOUS
 10
3.2194742034
 20
4.6698362208
 40
0.075
100
AcDbArc
 50
28.3426227079
 51
83.407276973
  0
ARC
  5
2E7
100
AcDbEntity
  8
0
100
AcDbCircle
 62
7
  6
CONTINUOUS
 10
3.2194742034
 20
4.6698362208
 40
0.075
100
AcDbArc
 50
28.3426227079
 51
83.407276973
  0
ARC
  5
2E8
100
AcDbEntity
  8
ALL_FEATURES
100
AcDbCircle
 62
7
  6
CONTINUOUS
 10
3.3931700841
 20
4.7199898349
 40
0.05925
100
AcDbArc
 50
199.9134769108
 51
250.9336937345
  0
ARC
  5
2E9
100
AcDbEntity
  8
ALL_FEATURES
100
AcDbCircle
 62
7
  6
CONTINUOUS
 10
3.2196237148
 20
4.8198092432
 40
0.0375
100
AcDbArc
 50
199.2904540361
 51
266.6957145819
  0
ARC
  5
2EA
100
AcDbEntity
  8
ALL_FEATURES
100
AcDbCircle
 62
7
  6
CONTINUOUS
 10
3.3118872688
 20
4.7196842432
 40
0.03
100
AcDbArc
 50
208.3426227079
 51
300.0
  0
ARC
  5
2EB
100
AcDbEntity
  8
ALL_FEATURES
100
AcDbCircle
 62
7
  6
CONTINUOUS
 10
3.438712759
 20
4.6574297611
 40
0.02325
100
AcDbArc
 50
189.3952308393
 51
225.6300742714
  0
ARC
  5
2EC
100
AcDbEntity
  8
0
100
AcDbCircle
 62
7
  6
CONTINUOUS
 10
3.229462759
 20
4.7562609207
 40
0.012
100
AcDbArc
 50
180.0
 51
263.407276973
  0
ARC
  5
2ED
100
AcDbEntity
  8
ALL_FEATURES
100
AcDbCircle
 62
7
  6
CONTINUOUS
 10
3.562462759
 20
4.1523092432
 40
0.20625
100
AcDbArc
 50
145.0
 51
35.0
  0
ARC
  5
2EE
100
AcDbEntity
  8
ALL_FEATURES
100
AcDbCircle
 62
7
  6
CONTINUOUS
 10
3.6981330553
 20
4.3390592432
 40
0.012
100
AcDbArc
 50
90.0
 51
215.0
  0
ARC
  5
2EF
100
AcDbEntity
  8
ALL_FEATURES
100
AcDbCircle
 62
7
  6
CONTINUOUS
 10
3.697462759
 20
4.3609340898
 40
0.012
100
AcDbArc
 50
304.6234510997
 51
46.9739483152
  0
ARC
  5
2F0
100
AcDbEntity
  8
ALL_FEATURES
100
AcDbCircle
 62
7
  6
CONTINUOUS
 10
3.562462759
 20
4.9848092432
 40
0.5775
100
AcDbArc
 50
71.3475770898
 51
74.5597237208
  0
ARC
  5
2F1
100
AcDbEntity
  8
ALL_FEATURES
100
AcDbCircle
 62
7
  6
CONTINUOUS
 10
3.562462759
 20
4.9848092432
 40
0.5775
100
AcDbArc
 50
105.4402762792
 51
109.0663079419
  0
ARC
  5
2F2
100
AcDbEntity
  8
0
100
AcDbCircle
 62
7
  6
CONTINUOUS
 10
3.562462759
 20
4.9848092432
 40
0.5775
100
AcDbArc
 50
71.3475770898
 51
74.5597237208
  0
ARC
  5
2F3
100
AcDbEntity
  8
0
100
AcDbCircle
 62
7
  6
CONTINUOUS
 10
3.562462759
 20
4.9848092432
 40
0.5775
100
AcDbArc
 50
105.4402762792
 51
109.0663079419
  0
ARC
  5
2F4
100
AcDbEntity
  8
ALL_FEATURES
100
AcDbCircle
 62
7
  6
CONTINUOUS
 10
3.728212759
 20
4.7187797125
 40
0.05925
100
AcDbArc
 50
288.6524229102
 51
360.0
  0
ARC
  5
2F5
100
AcDbEntity
  8
ALL_FEATURES
100
AcDbCircle
 62
7
  6
CONTINUOUS
 10
3.686212759
 20
4.6574297611
 40
0.02325
100
AcDbArc
 50
314.3699257286
 51
350.6042777221
  0
ARC
  5
2F6
100
AcDbEntity
  8
ALL_FEATURES
100
AcDbCircle
 62
7
  6
CONTINUOUS
 10
3.2194742034
 20
5.5247822656
 40
0.075
100
AcDbArc
 50
276.592723027
 51
331.6573772921
  0
ARC
  5
2F7
100
AcDbEntity
  8
0
100
AcDbCircle
 62
7
  6
CONTINUOUS
 10
3.2194742034
 20
5.5247822656
 40
0.075
100
AcDbArc
 50
276.592723027
 51
331.6573772921
  0
ARC
  5
2F8
100
AcDbEntity
  8
ALL_FEATURES
100
AcDbCircle
 62
7
  6
CONTINUOUS
 10
3.393170084
 20
5.4746286514
 40
0.05925
100
AcDbArc
 50
109.0663062448
 51
160.0865230762
  0
ARC
  5
2F9
100
AcDbEntity
  8
ALL_FEATURES
100
AcDbCircle
 62
7
  6
CONTINUOUS
 10
3.2196237148
 20
5.3748092432
 40
0.0375
100
AcDbArc
 50
93.3042854181
 51
160.7095459639
  0
ARC
  5
2FA
100
AcDbEntity
  8
ALL_FEATURES
100
AcDbCircle
 62
7
  6
CONTINUOUS
 10
3.3118872688
 20
5.4749342432
 40
0.03
100
AcDbArc
 50
60.0
 51
151.6573772921
  0
ARC
  5
2FB
100
AcDbEntity
  8
ALL_FEATURES
100
AcDbCircle
 62
7
  6
CONTINUOUS
 10
3.438712759
 20
5.5371887253
 40
0.02325
100
AcDbArc
 50
134.3699257286
 51
170.6047691607
  0
ARC
  5
2FC
100
AcDbEntity
  8
0
100
AcDbCircle
 62
7
  6
CONTINUOUS
 10
3.229462759
 20
5.4383575657
 40
0.012
100
AcDbArc
 50
96.592723027
 51
180.0
  0
ARC
  5
2FD
100
AcDbEntity
  8
ALL_FEATURES
100
AcDbCircle
 62
7
  6
CONTINUOUS
 10
3.291337759
 20
5.6878412124
 40
0.1875
100
AcDbArc
 50
314.369928905
 51
46.9739483152
  0
ARC
  5
2FE
100
AcDbEntity
  8
ALL_FEATURES
100
AcDbCircle
 62
7
  6
CONTINUOUS
 10
3.4267924628
 20
5.8555592432
 40
0.012
100
AcDbArc
 50
270.0
 51
35.0
  0
ARC
  5
2FF
100
AcDbEntity
  8
ALL_FEATURES
100
AcDbCircle
 62
7
  6
CONTINUOUS
 10
3.427462759
 20
5.8336843966
 40
0.012
100
AcDbArc
 50
124.6234510997
 51
226.9739483152
  0
ARC
  5
300
100
AcDbEntity
  8
ALL_FEATURES
100
AcDbCircle
 62
7
  6
CONTINUOUS
 10
3.562462759
 20
5.2098092432
 40
0.5775
100
AcDbArc
 50
285.4402762792
 51
288.6524229102
  0
ARC
  5
301
100
AcDbEntity
  8
ALL_FEATURES
100
AcDbCircle
 62
7
  6
CONTINUOUS
 10
3.562462759
 20
5.2098092432
 40
0.5775
100
AcDbArc
 50
250.9336920581
 51
254.5597237208
  0
CIRCLE
  5
302
100
AcDbEntity
  8
ALL_FEATURES
100
AcDbCircle
 62
7
  6
CONTINUOUS
 10
3.562462759
 20
5.0973092432
 40
0.20625
  0
ARC
  5
303
100
AcDbEntity
  8
ALL_FEATURES
100
AcDbCircle
 62
7
  6
CONTINUOUS
 10
3.728212759
 20
5.4758387739
 40
0.05925
100
AcDbArc
 50
0.0
 51
71.3475770898
  0
ARC
  5
304
100
AcDbEntity
  8
ALL_FEATURES
100
AcDbCircle
 62
7
  6
CONTINUOUS
 10
3.686212759
 20
5.5371887253
 40
0.02325
100
AcDbArc
 50
9.3957222779
 51
45.6300742714
  0
ARC
  5
305
100
AcDbEntity
  8
ALL_FEATURES
100
AcDbCircle
 62
7
  6
CONTINUOUS
 10
3.562462759
 20
6.0423092432
 40
0.20625
100
AcDbArc
 50
325.0
 51
215.0
  0
ARC
  5
306
100
AcDbEntity
  8
ALL_FEATURES
100
AcDbCircle
 62
7
  6
CONTINUOUS
 10
3.6981330553
 20
5.8555592432
 40
0.012
100
AcDbArc
 50
145.0
 51
270.0
  0
ARC
  5
307
100
AcDbEntity
  8
ALL_FEATURES
100
AcDbCircle
 62
7
  6
CONTINUOUS
 10
3.697462759
 20
5.8336843966
 40
0.012
100
AcDbArc
 50
313.0260516848
 51
55.3765489003
  0
ARC
  5
308
100
AcDbEntity
  8
0
100
AcDbCircle
 62
7
  6
CONTINUOUS
 10
4.0461792737
 20
4.3098001361
 40
0.56325
100
AcDbArc
 50
36.1922176694
 51
66.7691079294
  0
ARC
  5
309
100
AcDbEntity
  8
ALL_FEATURES
100
AcDbCircle
 62
7
  6
CONTINUOUS
 10
3.833587759
 20
4.5067772739
 40
0.1875
100
AcDbArc
 50
134.369928905
 51
226.9739483152
  0
ARC
  5
30A
100
AcDbEntity
  8
ALL_FEATURES
100
AcDbCircle
 62
7
  6
CONTINUOUS
 10
3.875962759
 20
4.7744342432
 40
0.0885
100
AcDbArc
 50
90.0
 51
179.9999999999
  0
ARC
  5
30B
100
AcDbEntity
  8
0
100
AcDbCircle
 62
7
  6
CONTINUOUS
 10
4.2801792737
 20
4.85495109
 40
0.03
100
AcDbArc
 50
180.0
 51
246.7691079294
  0
ARC
  5
30C
100
AcDbEntity
  8
ALL_FEATURES
100
AcDbCircle
 62
7
  6
CONTINUOUS
 10
4.012462759
 20
5.0973092432
 40
0.8775
100
AcDbArc
 50
160.7095459639
 51
199.2904540361
  0
ARC
  5
30D
100
AcDbEntity
  8
0
100
AcDbCircle
 62
7
  6
CONTINUOUS
 10
4.0461792737
 20
5.8848183502
 40
0.56325
100
AcDbArc
 50
293.2308920706
 51
323.8077823306
  0
ARC
  5
30E
100
AcDbEntity
  8
ALL_FEATURES
100
AcDbCircle
 62
7
  6
CONTINUOUS
 10
3.833587759
 20
5.6878412124
 40
0.1875
100
AcDbArc
 50
133.0260516848
 51
225.630071095
  0
ARC
  5
30F
100
AcDbEntity
  8
ALL_FEATURES
100
AcDbCircle
 62
7
  6
CONTINUOUS
 10
3.875962759
 20
5.4201842432
 40
0.0885
100
AcDbArc
 50
180.0
 51
270.0
  0
ARC
  5
310
100
AcDbEntity
  8
0
100
AcDbCircle
 62
7
  6
CONTINUOUS
 10
4.2801792737
 20
5.3396673964
 40
0.03
100
AcDbArc
 50
113.2308920706
 51
180.0
  0
ARC
  5
311
100
AcDbEntity
  8
ALL_FEATURES
100
AcDbCircle
 62
7
  6
CONTINUOUS
 10
5.4328713889
 20
1.2660331538
 40
0.3225
100
AcDbArc
 50
7.8967562426
 51
36.083035471
  0
ARC
  5
312
100
AcDbEntity
  8
0
100
AcDbCircle
 62
7
  6
CONTINUOUS
 10
4.4066550476
 20
3.2800592432
 40
0.075
100
AcDbArc
 50
90.0
 51
141.425757077
  0
ARC
  5
313
100
AcDbEntity
  8
0
100
AcDbCircle
 62
7
  6
CONTINUOUS
 10
4.4066550476
 20
2.1895592432
 40
0.075
100
AcDbArc
 50
218.574242923
 51
270.0
  0
ARC
  5
314
100
AcDbEntity
  8
ALL_FEATURES
100
AcDbCircle
 62
7
  6
CONTINUOUS
 10
5.7419942343
 20
1.4913092432
 40
0.06
100
AcDbArc
 50
180.0
 51
216.083035471
  0
ARC
  5
315
100
AcDbEntity
  8
ALL_FEATURES
100
AcDbCircle
 62
7
  6
CONTINUOUS
 10
5.8117442343
 20
1.3185842432
 40
0.06
100
AcDbArc
 50
187.8967562426
 51
270.0
  0
ARC
  5
316
100
AcDbEntity
  8
ALL_FEATURES
100
AcDbCircle
 62
7
  6
CONTINUOUS
 10
5.6294942343
 20
1.7380891459
 40
0.015
100
AcDbArc
 50
179.9999999837
 51
268.4999999996
  0
ARC
  5
317
100
AcDbEntity
  8
ALL_FEATURES
100
AcDbCircle
 62
7
  6
CONTINUOUS
 10
5.6294942343
 20
3.7303293404
 40
0.015
100
AcDbArc
 50
91.5000000004
 51
180.0000000163
  0
ARC
  5
318
100
AcDbEntity
  8
ALL_FEATURES
100
AcDbCircle
 62
7
  6
CONTINUOUS
 10
5.6669942343
 20
3.7613215962
 40
0.015
100
AcDbArc
 50
271.4999999996
 51
359.9999999835
  0
ARC
  5
319
100
AcDbEntity
  8
ALL_FEATURES
100
AcDbCircle
 62
7
  6
CONTINUOUS
 10
5.6669942343
 20
1.7070968901
 40
0.015
100
AcDbArc
 50
0.0000000165
 51
88.5000000004
  0
ARC
  5
31A
100
AcDbEntity
  8
0
100
AcDbCircle
 62
7
  6
CONTINUOUS
 10
5.4662481713
 20
2.1294942826
 40
0.0147637795
100
AcDbArc
 50
180.0000000785
 51
270.0
  0
ARC
  5
31B
100
AcDbEntity
  8
0
100
AcDbCircle
 62
7
  6
CONTINUOUS
 10
5.4662481713
 20
3.3401242038
 40
0.0147637795
100
AcDbArc
 50
90.0
 51
179.9999999215
  0
ARC
  5
31C
100
AcDbEntity
  8
0
100
AcDbCircle
 62
7
  6
CONTINUOUS
 10
4.5346093918
 20
3.4525592432
 40
0.0075
100
AcDbArc
 50
90.0
 51
180.0
  0
ARC
  5
31D
100
AcDbEntity
  8
0
100
AcDbCircle
 62
7
  6
CONTINUOUS
 10
4.8083593918
 20
3.4525592432
 40
0.0075
100
AcDbArc
 50
0.0
 51
90.0
  0
ARC
  5
31E
100
AcDbEntity
  8
ALL_FEATURES
100
AcDbCircle
 62
7
  6
CONTINUOUS
 10
4.6584745919
 20
4.0273229137
 40
0.6922774635
100
AcDbArc
 50
283.1438899821
 51
283.5220984936
  0
ARC
  5
31F
100
AcDbEntity
  8
ALL_FEATURES
100
AcDbCircle
 62
7
  6
CONTINUOUS
 10
4.6827484646
 20
4.0199762688
 40
0.6847263134
100
AcDbArc
 50
256.4545824201
 51
256.8585504424
  0
ARC
  5
320
100
AcDbEntity
  8
0
100
AcDbCircle
 62
7
  6
CONTINUOUS
 10
5.5123721328
 20
3.9963305013
 40
0.6418381027
100
AcDbArc
 50
269.5423336096
 51
269.998789793
  0
ARC
  5
321
100
AcDbEntity
  8
0
100
AcDbCircle
 62
7
  6
CONTINUOUS
 10
5.5123683248
 20
3.9944127244
 40
0.6399203786
100
AcDbArc
 50
267.9857487083
 51
269.5413029854
  0
ARC
  5
322
100
AcDbEntity
  8
ALL_FEATURES
100
AcDbCircle
 62
7
  6
CONTINUOUS
 10
5.4328713889
 20
6.5660853325
 40
0.3225
100
AcDbArc
 50
323.916964529
 51
352.1032437574
  0
ARC
  5
323
100
AcDbEntity
  8
0
100
AcDbCircle
 62
7
  6
CONTINUOUS
 10
4.5612728888
 20
4.6866842432
 40
0.075
100
AcDbArc
 50
216.1922176693
 51
270.0
  0
ARC
  5
324
100
AcDbEntity
  8
0
100
AcDbCircle
 62
7
  6
CONTINUOUS
 10
4.5612728888
 20
5.5079342432
 40
0.075
100
AcDbArc
 50
90.0
 51
143.8077823307
  0
ARC
  5
325
100
AcDbEntity
  8
ALL_FEATURES
100
AcDbCircle
 62
7
  6
CONTINUOUS
 10
5.7419942343
 20
6.3408092432
 40
0.06
100
AcDbArc
 50
143.916964529
 51
180.0
  0
ARC
  5
326
100
AcDbEntity
  8
ALL_FEATURES
100
AcDbCircle
 62
7
  6
CONTINUOUS
 10
5.8117442343
 20
6.5135342432
 40
0.06
100
AcDbArc
 50
90.0
 51
172.1032437574
  0
LINE
  5
327
100
AcDbEntity
  8
0
100
AcDbLine
 62
7
  6
CONTINUOUS
 10
5.4898727209
 20
3.354887887
 11
5.4919347814
 21
3.3548186771
  0
LINE
  5
328
100
AcDbEntity
  8
ALL_FEATURES
100
AcDbLine
 62
7
  6
CONTINUOUS
 10
3.408712759
 20
4.6531520888
 11
3.4111051246
 21
4.6533180872
  0
LINE
  5
329
100
AcDbEntity
  8
ALL_FEATURES
100
AcDbLine
 62
7
  6
CONTINUOUS
 10
3.4111051246
 20
4.6533180872
 11
3.4157453842
 21
4.6536323216
  0
SPLINE
  5
32A
100
AcDbEntity
  8
ALL_FEATURES
100
AcDbSpline
 62
7
  6
CONTINUOUS
 70
0
 71
3
 72
10
 73
6
 74
0
 42
0.0000001
 43
0.0000001
 44
0.0000000001
 40
0.0
 40
0.0
 40
0.0
 40
0.0
 40
0.3797844102
 40
0.6736605145
 40
1.0
 40
1.0
 40
1.0
 40
1.0
 10
3.4157453842
 20
4.6536323216
 30
0.0
 10
3.4342910607
 20
4.6548670945
 30
0.0
 10
3.4672177817
 20
4.6566265634
 30
0.0
 10
3.5161369795
 20
4.6581405741
 30
0.0
 10
3.5464916293
 20
4.6584630999
 30
0.0
 10
3.562462759
 20
4.6584630999
 30
0.0
  0
LINE
  5
32B
100
AcDbEntity
  8
0
100
AcDbLine
 62
7
  6
CONTINUOUS
 10
3.716212759
 20
5.5414663975
 11
3.7138900055
 21
5.5413051906
  0
LINE
  5
32C
100
AcDbEntity
  8
0
100
AcDbLine
 62
7
  6
CONTINUOUS
 10
3.7138900055
 20
5.5413051906
 11
3.7091852951
 21
5.5409865128
  0
SPLINE
  5
32D
100
AcDbEntity
  8
0
100
AcDbSpline
 62
7
  6
CONTINUOUS
 70
0
 71
3
 72
10
 73
6
 74
0
 42
0.0000001
 43
0.0000001
 44
0.0000000001
 40
0.0
 40
0.0
 40
0.0
 40
0.0
 40
0.3797551036
 40
0.6736386541
 40
1.0
 40
1.0
 40
1.0
 40
1.0
 10
3.7091852951
 20
5.5409865128
 30
0.0
 10
3.6906403991
 20
5.5397517518
 30
0.0
 10
3.657713593
 20
5.5379921659
 30
0.0
 10
3.608792675
 20
5.5364779797
 30
0.0
 10
3.5784355213
 20
5.5361553865
 30
0.0
 10
3.562462759
 20
5.5361553865
 30
0.0
  0
SPLINE
  5
32E
100
AcDbEntity
  8
ALL_FEATURES
100
AcDbSpline
 62
7
  6
CONTINUOUS
 70
0
 71
3
 72
10
 73
6
 74
0
 42
0.0000001
 43
0.0000001
 44
0.0000000001
 40
0.0
 40
0.0
 40
0.0
 40
0.0
 40
0.3263610986
 40
0.6202446462
 40
1.0
 40
1.0
 40
1.0
 40
1.0
 10
3.562462759
 20
4.6584630999
 30
0.0
 10
3.5784355068
 20
4.6584630999
 30
0.0
 10
3.6087926437
 20
4.6581405072
 30
0.0
 10
3.6577135544
 20
4.6566263225
 30
0.0
 10
3.6906403676
 20
4.6548667358
 30
0.0
 10
3.7091852731
 20
4.6536319752
 30
0.0
  0
LINE
  5
32F
100
AcDbEntity
  8
ALL_FEATURES
100
AcDbLine
 62
7
  6
CONTINUOUS
 10
3.7091852731
 20
4.6536319752
 11
3.7138900986
 21
4.6533132894
  0
LINE
  5
330
100
AcDbEntity
  8
ALL_FEATURES
100
AcDbLine
 62
7
  6
CONTINUOUS
 10
3.7138900986
 20
4.6533132894
 11
3.716212759
 21
4.6531520888
  0
SPLINE
  5
331
100
AcDbEntity
  8
0
100
AcDbSpline
 62
7
  6
CONTINUOUS
 70
0
 71
3
 72
10
 73
6
 74
0
 42
0.0000001
 43
0.0000001
 44
0.0000000001
 40
0.0
 40
0.0
 40
0.0
 40
0.0
 40
0.3263416437
 40
0.620219453
 40
1.0
 40
1.0
 40
1.0
 40
1.0
 10
3.562462759
 20
5.5361553865
 30
0.0
 10
3.5464914681
 20
5.5361553865
 30
0.0
 10
3.5161365237
 20
5.5364779199
 30
0.0
 10
3.467217156
 20
5.5379919485
 30
0.0
 10
3.4342904269
 20
5.5397514325
 30
0.0
 10
3.4157448747
 20
5.5409861987
 30
0.0
  0
LINE
  5
332
100
AcDbEntity
  8
0
100
AcDbLine
 62
7
  6
CONTINUOUS
 10
3.4157448747
 20
5.5409861987
 11
3.4111042643
 21
5.5413004584
  0
LINE
  5
333
100
AcDbEntity
  8
0
100
AcDbLine
 62
7
  6
CONTINUOUS
 10
3.4111042643
 20
5.5413004584
 11
3.408712759
 21
5.5414663975
  0
LINE
  5
334
100
AcDbEntity
  8
ALL_FEATURES
100
AcDbLine
 62
7
  6
CONTINUOUS
 10
3.1430178771
 20
2.2906520888
 11
3.1454102427
 21
2.2908180872
  0
LINE
  5
335
100
AcDbEntity
  8
ALL_FEATURES
100
AcDbLine
 62
7
  6
CONTINUOUS
 10
3.1454102427
 20
2.2908180872
 11
3.1500505023
 21
2.2911323216
  0
SPLINE
  5
336
100
AcDbEntity
  8
ALL_FEATURES
100
AcDbSpline
 62
7
  6
CONTINUOUS
 70
0
 71
3
 72
10
 73
6
 74
0
 42
0.0000001
 43
0.0000001
 44
0.0000000001
 40
0.0
 40
0.0
 40
0.0
 40
0.0
 40
0.3797844102
 40
0.6736605145
 40
1.0
 40
1.0
 40
1.0
 40
1.0
 10
3.1500505023
 20
2.2911323216
 30
0.0
 10
3.1685961788
 20
2.2923670945
 30
0.0
 10
3.2015228998
 20
2.2941265634
 30
0.0
 10
3.2504420976
 20
2.2956405741
 30
0.0
 10
3.2807967474
 20
2.2959630999
 30
0.0
 10
3.2967678771
 20
2.2959630999
 30
0.0
  0
LINE
  5
337
100
AcDbEntity
  8
0
100
AcDbLine
 62
7
  6
CONTINUOUS
 10
3.4505178771
 20
3.1789663975
 11
3.4481951236
 21
3.1788051906
  0
LINE
  5
338
100
AcDbEntity
  8
0
100
AcDbLine
 62
7
  6
CONTINUOUS
 10
3.4481951236
 20
3.1788051906
 11
3.4434904132
 21
3.1784865128
  0
SPLINE
  5
339
100
AcDbEntity
  8
0
100
AcDbSpline
 62
7
  6
CONTINUOUS
 70
0
 71
3
 72
10
 73
6
 74
0
 42
0.0000001
 43
0.0000001
 44
0.0000000001
 40
0.0
 40
0.0
 40
0.0
 40
0.0
 40
0.3797551036
 40
0.6736386541
 40
1.0
 40
1.0
 40
1.0
 40
1.0
 10
3.4434904132
 20
3.1784865128
 30
0.0
 10
3.4249455172
 20
3.1772517518
 30
0.0
 10
3.3920187111
 20
3.1754921659
 30
0.0
 10
3.3430977931
 20
3.1739779797
 30
0.0
 10
3.3127406394
 20
3.1736553865
 30
0.0
 10
3.2967678771
 20
3.1736553865
 30
0.0
  0
SPLINE
  5
33A
100
AcDbEntity
  8
ALL_FEATURES
100
AcDbSpline
 62
7
  6
CONTINUOUS
 70
0
 71
3
 72
10
 73
6
 74
0
 42
0.0000001
 43
0.0000001
 44
0.0000000001
 40
0.0
 40
0.0
 40
0.0
 40
0.0
 40
0.3263610986
 40
0.6202446462
 40
1.0
 40
1.0
 40
1.0
 40
1.0
 10
3.2967678771
 20
2.2959630999
 30
0.0
 10
3.3127406249
 20
2.2959630999
 30
0.0
 10
3.3430977618
 20
2.2956405072
 30
0.0
 10
3.3920186725
 20
2.2941263225
 30
0.0
 10
3.4249454857
 20
2.2923667358
 30
0.0
 10
3.4434903913
 20
2.2911319752
 30
0.0
  0
LINE
  5
33B
100
AcDbEntity
  8
ALL_FEATURES
100
AcDbLine
 62
7
  6
CONTINUOUS
 10
3.4434903913
 20
2.2911319752
 11
3.4481952167
 21
2.2908132894
  0
LINE
  5
33C
100
AcDbEntity
  8
ALL_FEATURES
100
AcDbLine
 62
7
  6
CONTINUOUS
 10
3.4481952167
 20
2.2908132894
 11
3.4505178771
 21
2.2906520888
  0
SPLINE
  5
33D
100
AcDbEntity
  8
0
100
AcDbSpline
 62
7
  6
CONTINUOUS
 70
0
 71
3
 72
10
 73
6
 74
0
 42
0.0000001
 43
0.0000001
 44
0.0000000001
 40
0.0
 40
0.0
 40
0.0
 40
0.0
 40
0.3263416437
 40
0.620219453
 40
1.0
 40
1.0
 40
1.0
 40
1.0
 10
3.2967678771
 20
3.1736553865
 30
0.0
 10
3.2807965863
 20
3.1736553865
 30
0.0
 10
3.2504416418
 20
3.1739779199
 30
0.0
 10
3.2015222741
 20
3.1754919485
 30
0.0
 10
3.168595545
 20
3.1772514325
 30
0.0
 10
3.1500499928
 20
3.1784861987
 30
0.0
  0
LINE
  5
33E
100
AcDbEntity
  8
0
100
AcDbLine
 62
7
  6
CONTINUOUS
 10
3.1500499928
 20
3.1784861987
 11
3.1454093824
 21
3.1788004584
  0
LINE
  5
33F
100
AcDbEntity
  8
0
100
AcDbLine
 62
7
  6
CONTINUOUS
 10
3.1454093824
 20
3.1788004584
 11
3.1430178771
 21
3.1789663975
  0
SPLINE
  5
340
100
AcDbEntity
  8
0
100
AcDbSpline
 62
7
  6
CONTINUOUS
 70
0
 71
3
 72
35
 73
31
 74
0
 42
0.0000001
 43
0.0000001
 44
0.0000000001
 40
0.0
 40
0.0
 40
0.0
 40
0.0
 40
0.0198798482
 40
0.0389061
 40
0.0572349263
 40
0.0750085906
 40
0.1093037191
 40
0.1423092093
 40
0.1743589853
 40
0.2056530689
 40
0.2363464043
 40
0.2665723801
 40
0.3259971954
 40
0.3844687642
 40
0.4423690724
 40
0.5
 40
0.5576309276
 40
0.6155312358
 40
0.6740028046
 40
0.7334276199
 40
0.7636535957
 40
0.7943469311
 40
0.8256410147
 40
0.8576907907
 40
0.8906962809
 40
0.9249914094
 40
0.9427650737
 40
0.9610939
 40
0.9801201518
 40
1.0
 40
1.0
 40
1.0
 40
1.0
 10
4.8104942343
 20
4.4772317432
 30
0.0
 10
4.8093502264
 20
4.4772317432
 30
0.0
 10
4.8071109119
 20
4.477286749
 30
0.0
 10
4.8038249466
 20
4.4775278708
 30
0.0
 10
4.8006738263
 20
4.4779040679
 30
0.0
 10
4.7966735624
 20
4.478548949
 30
0.0
 10
4.7918834206
 20
4.4795796511
 30
0.0
 10
4.7863797694
 20
4.481139625
 30
0.0
 10
4.7811343131
 20
4.4829441059
 30
0.0
 10
4.7761143123
 20
4.4849711279
 30
0.0
 10
4.7712952862
 20
4.4871977129
 30
0.0
 10
4.7651434557
 20
4.4903818721
 30
0.0
 10
4.7578122817
 20
4.4947489759
 30
0.0
 10
4.7495315599
 20
4.5005753749
 30
0.0
 10
4.7417608101
 20
4.5069031363
 30
0.0
 10
4.7344786745
 20
4.5137161834
 30
0.0
 10
4.7276656275
 20
4.520998319
 30
0.0
 10
4.721337866
 20
4.5287690687
 30
0.0
 10
4.715511467
 20
4.5370497905
 30
0.0
 10
4.7111443632
 20
4.5443809645
 30
0.0
 10
4.707960204
 20
4.550532795
 30
0.0
 10
4.705733619
 20
4.5553518212
 30
0.0
 10
4.703706597
 20
4.560371822
 30
0.0
 10
4.7019021161
 20
4.5656172783
 30
0.0
 10
4.7003421422
 20
4.5711209295
 30
0.0
 10
4.6993114402
 20
4.5759110712
 30
0.0
 10
4.698666559
 20
4.5799113352
 30
0.0
 10
4.6982903619
 20
4.5830624554
 30
0.0
 10
4.6980492401
 20
4.5863484208
 30
0.0
 10
4.6979942343
 20
4.5885877353
 30
0.0
 10
4.6979942343
 20
4.5897317432
 30
0.0
  0
SPLINE
  5
341
100
AcDbEntity
  8
0
100
AcDbSpline
 62
7
  6
CONTINUOUS
 70
0
 71
3
 72
35
 73
31
 74
0
 42
0.0000001
 43
0.0000001
 44
0.0000000001
 40
0.0
 40
0.0
 40
0.0
 40
0.0
 40
0.0198798482
 40
0.0389061
 40
0.0572349263
 40
0.0750085906
 40
0.1093037191
 40
0.1423092093
 40
0.1743589853
 40
0.2056530689
 40
0.2363464043
 40
0.2665723801
 40
0.3259971954
 40
0.3844687642
 40
0.4423690724
 40
0.5
 40
0.5576309276
 40
0.6155312358
 40
0.6740028046
 40
0.7334276199
 40
0.7636535957
 40
0.7943469311
 40
0.8256410147
 40
0.8576907907
 40
0.8906962809
 40
0.9249914094
 40
0.9427650737
 40
0.9610939
 40
0.9801201518
 40
1.0
 40
1.0
 40
1.0
 40
1.0
 10
4.8104942343
 20
5.7173867432
 30
0.0
 10
4.8093502264
 20
5.7173867432
 30
0.0
 10
4.8071109119
 20
5.7173317374
 30
0.0
 10
4.8038249466
 20
5.7170906155
 30
0.0
 10
4.8006738263
 20
5.7167144185
 30
0.0
 10
4.7966735624
 20
5.7160695373
 30
0.0
 10
4.7918834206
 20
5.7150388353
 30
0.0
 10
4.7863797694
 20
5.7134788613
 30
0.0
 10
4.7811343131
 20
5.7116743804
 30
0.0
 10
4.7761143123
 20
5.7096473585
 30
0.0
 10
4.7712952862
 20
5.7074207735
 30
0.0
 10
4.7651434557
 20
5.7042366143
 30
0.0
 10
4.7578122817
 20
5.6998695105
 30
0.0
 10
4.7495315599
 20
5.6940431115
 30
0.0
 10
4.7417608101
 20
5.68771535
 30
0.0
 10
4.7344786745
 20
5.680902303
 30
0.0
 10
4.7276656275
 20
5.6736201674
 30
0.0
 10
4.721337866
 20
5.6658494176
 30
0.0
 10
4.715511467
 20
5.6575686958
 30
0.0
 10
4.7111443632
 20
5.6502375218
 30
0.0
 10
4.707960204
 20
5.6440856913
 30
0.0
 10
4.705733619
 20
5.6392666652
 30
0.0
 10
4.703706597
 20
5.6342466643
 30
0.0
 10
4.7019021161
 20
5.6290012081
 30
0.0
 10
4.7003421422
 20
5.6234975569
 30
0.0
 10
4.6993114402
 20
5.6187074151
 30
0.0
 10
4.698666559
 20
5.6147071512
 30
0.0
 10
4.6982903619
 20
5.6115560309
 30
0.0
 10
4.6980492401
 20
5.6082700656
 30
0.0
 10
4.6979942343
 20
5.6060307511
 30
0.0
 10
4.6979942343
 20
5.6048867432
 30
0.0
  0
LINE
  5
342
100
AcDbEntity
  8
ALL_FEATURES
100
AcDbLine
 62
7
  6
CONTINUOUS
 10
4.8237343918
 20
3.3550592432
 11
4.8203431723
 21
3.3542355129
  0
SPLINE
  5
343
100
AcDbEntity
  8
ALL_FEATURES
100
AcDbSpline
 62
7
  6
CONTINUOUS
 70
0
 71
3
 72
23
 73
19
 74
0
 42
0.0000001
 43
0.0000001
 44
0.0000000001
 40
0.0
 40
0.0
 40
0.0
 40
0.0
 40
0.0764409523
 40
0.193155345
 40
0.2631756764
 40
0.3004158095
 40
0.3388604638
 40
0.4184343366
 40
0.4590925504
 40
0.5000002522
 40
0.5409080643
 40
0.5815664853
 40
0.661140583
 40
0.6995852282
 40
0.7368252982
 40
0.8068453101
 40
0.9235593177
 40
1.0
 40
1.0
 40
1.0
 40
1.0
 10
4.815896639
 20
3.353181693
 30
0.0
 10
4.8086643341
 20
3.351493193
 30
0.0
 10
4.790321754
 20
3.3475124543
 30
0.0
 10
4.7651176458
 20
3.3431304185
 30
0.0
 10
4.7435358701
 20
3.3403174477
 30
0.0
 10
4.7294563606
 20
3.3388378824
 30
0.0
 10
4.7144279039
 20
3.3375315953
 30
0.0
 10
4.6990334496
 20
3.3366256137
 30
0.0
 10
4.6833836285
 20
3.3361625019
 30
0.0
 10
4.6714841974
 20
3.3360429582
 30
0.0
 10
4.6595847467
 20
3.3361625268
 30
0.0
 10
4.6439348723
 20
3.3366256212
 30
0.0
 10
4.6285403783
 20
3.337531633
 30
0.0
 10
4.6135119076
 20
3.3388379294
 30
0.0
 10
4.5994324377
 20
3.3403175085
 30
0.0
 10
4.5778507374
 20
3.3431304795
 30
0.0
 10
4.5526467259
 20
3.3475125186
 30
0.0
 10
4.5343042085
 20
3.3514932452
 30
0.0
 10
4.5270719297
 20
3.3531817422
 30
0.0
  0
LINE
  5
344
100
AcDbEntity
  8
ALL_FEATURES
100
AcDbLine
 62
7
  6
CONTINUOUS
 10
4.5223745552
 20
3.354295915
 11
4.5192343918
 21
3.3550592432
  0
ENDSEC
  0
SECTION
  2
OBJECTS
  0
DICTIONARY
  5
C
100
AcDbDictionary
280
0
281
1
  3
ACAD_GROUP
350
D
  3
ACAD_MLINESTYLE
350
17
  3
ACAD_LAYOUT
350
1A
  3
ACAD_PLOTSETTINGS
350
19
  3
ACAD_PLOTSTYLENAME
350
E
  0
DICTIONARY
  5
D
102
{ACAD_REACTORS
330
C
102
}
100
AcDbDictionary
280
0
281
1
  0
ACDBDICTIONARYWDFLT
  5
E
102
{ACAD_REACTORS
330
C
102
}
100
AcDbDictionary
281
1
  3
Normal
350
F
100
AcDbDictionaryWithDefault
340
F
  0
DICTIONARY
  5
17
102
{ACAD_REACTORS
330
C
102
}
100
AcDbDictionary
280
0
281
1
  3
Standard
350
18
  0
DICTIONARY
  5
19
102
{ACAD_REACTORS
330
C
102
}
100
AcDbDictionary
281
1
  0
DICTIONARY
  5
1A
102
{ACAD_REACTORS
330
C
102
}
100
AcDbDictionary
281
1
  3
Model
350
345
  3
Layout1
350
346
  0
ACDBPLACEHOLDER
  5
F
102
{ACAD_REACTORS
330
E
102
}
  0
MLINESTYLE
  5
18
102
{ACAD_REACTORS
330
17
102
}
100
AcDbMlineStyle
  2
STANDARD
 70
0
  3

 62
256
 51
90.0
 52
90.0
 71
2
 49
0.5
 62
256
  6
BYLAYER
 49
-0.5
 62
256
  6
BYLAYER
  0
LAYOUT
  5
345
102
{ACAD_REACTORS
330
1A
102
}
100
AcDbPlotSettings
  1

  2
none_device
  4
ANSI_A_(11.00_x_8.50_Inches)
  6

 40
0.0
 41
0.0
 42
0.0
 43
0.0
 44
279.4
 45
215.9
 46
0.0
 47
0.0
 48
0.0
 49
0.0
140
0.0
141
0.0
142
1.0
143
1.0
 70
1024
 72
0
 73
0
 74
0
  7

 75
0
147
1.0
148
0.0
149
0.0
100
AcDbLayout
  1
Model
 70
0
 71
0
 10
0.0
 20
0.0
 11
11.0
 21
8.5
 12
0.0
 22
0.0
 32
0.0
 14
0.0
 24
0.0
 34
0.0
 15
0.0
 25
0.0
 35
0.0
146
0.0
 13
0.0
 23
0.0
 33
0.0
 16
1.0
 26
0.0
 36
0.0
 17
0.0
 27
1.0
 37
0.0
 76
0
330
221
345
0
346
0
  0
LAYOUT
  5
346
102
{ACAD_REACTORS
330
1A
102
}
100
AcDbPlotSettings
  1

  2
none_device
  4
ANSI_A_(11.00_x_8.50_Inches)
  6

 40
0.0
 41
0.0
 42
0.0
 43
0.0
 44
279.4
 45
215.9
 46
0.0
 47
0.0
 48
0.0
 49
0.0
140
0.0
141
0.0
142
1.0
143
1.0
 70
0
 72
0
 73
0
 74
0
  7

 75
0
147
1.0
148
0.0
149
0.0
100
AcDbLayout
  1
Layout1
 70
0
 71
1
 10
0.0
 20
0.0
 11
11.0
 21
8.5
 12
0.0
 22
0.0
 32
0.0
 14
0.0
 24
0.0
 34
0.0
 15
0.0
 25
0.0
 35
0.0
146
0.0
 13
0.0
 23
0.0
 33
0.0
 16
1.0
 26
0.0
 36
0.0
 17
0.0
 27
1.0
 37
0.0
 76
0
330
222
345
0
346
0
  0
ENDSEC
  0
EOF
