999
DXF file: 3-1764tr_TOP.dxf
999
Pro/ENGINEER 2018400 by Parametric Technology Corporation
  0
SECTION
  2
HEADER
  9
$ACADVER
  1
AC1027
  9
$DWGCODEPAGE
  3
ANSI_1252
  9
$EXTMAX
 10
11.0
 20
8.5
 30
0.0
  9
$EXTMIN
 10
0.0
 20
0.0
 30
0.0
  9
$LIMMIN
 10
0.0
 20
0.0
  9
$LIMMAX
 10
11.0
 20
8.5
  9
$VIEWCTR
 10
5.5
 20
4.25
  9
$VIEWSIZE
 40
8.5
  9
$CLAYER
  8
0
  9
$LTSCALE
 40
0.605
  9
$CELTYPE
  6
BYLAYER
  9
$DIMSCALE
 40
1.0
  9
$DIMASZ
 40
0.1
  9
$DIMEXO
 40
0.0625
  9
$DIMDLI
 40
0.418
  9
$DIMEXE
 40
0.125
  9
$DIMCEN
 40
0.099
  9
$DIMLFAC
 40
1.0
  9
$DIMBLK
  1
_FILLED
  9
$DIMALT
 70
1
  9
$DIMALTD
 70
2
  9
$DIMALTTD
 70
2
  9
$DIMALTF
 40
25.4
  9
$DIMTXT
 40
0.08
  9
$DIMTOL
 70
1
  9
$DIMLIM
 70
0
  9
$DIMTFAC
 40
1.0
  9
$DIMTP
 40
0.001
  9
$DIMTM
 40
0.001
  9
$DIMGAP
 40
0.09
  9
$DIMDSEP
 70
46
  9
$AUNITS
 70
0
  9
$PDMODE
 70
3
  9
$PDSIZE
 40
0.3125
  9
$HANDSEED
  5
318
  9
$TILEMODE
 70
1
  9
$MEASUREMENT
 70
0
  9
$INSUNITS
 70
1
  0
ENDSEC
  0
SECTION
  2
CLASSES
  0
CLASS
  1
ACDBDICTIONARYWDFLT
  2
AcDbDictionaryWithDefault
  3
AutoCAD 2000
 90
0
 91
1
280
0
281
0
  0
CLASS
  1
ACDBPLACEHOLDER
  2
AcDbPlaceHolder
  3
AutoCAD 2000
 90
0
 91
1
280
0
281
0
  0
CLASS
  1
LAYOUT
  2
AcDbLayout
  3
AutoCAD 2000
 90
0
 91
0
280
0
281
0
  0
ENDSEC
  0
SECTION
  2
TABLES
  0
TABLE
  2
VPORT
  5
8
100
AcDbSymbolTable
 70
2
  0
VPORT
  5
1F4
100
AcDbSymbolTableRecord
100
AcDbViewportTableRecord
  2
*ACTIVE
 70
0
 10
0.0
 20
0.0
 11
1.0
 21
1.0
 12
5.5
 22
4.25
 13
0.0
 23
0.0
 14
1.0
 24
1.0
 15
0.0
 25
0.0
 16
0.0
 26
0.0
 36
1.0
 17
0.0
 27
0.0
 37
0.0
 40
8.5
 41
1.2941176471
 42
50.0
 43
0.0
 44
0.0
 50
0.0
 51
0.0
 71
0
 72
100
 73
1
 74
1
 75
0
 76
0
 77
0
 78
0
  0
ENDTAB
  0
TABLE
  2
LTYPE
  5
5
100
AcDbSymbolTable
 70
6
  0
LTYPE
  5
14
100
AcDbSymbolTableRecord
100
AcDbLinetypeTableRecord
  2
BYBLOCK
 70
0
  3

 72
65
 73
0
 40
0.0
  0
LTYPE
  5
15
100
AcDbSymbolTableRecord
100
AcDbLinetypeTableRecord
  2
BYLAYER
 70
0
  3

 72
65
 73
0
 40
0.0
  0
LTYPE
  5
16
100
AcDbSymbolTableRecord
100
AcDbLinetypeTableRecord
  2
CONTINUOUS
 70
64
  3
Solid line
 72
65
 73
0
 40
0.0
  0
LTYPE
  5
1F5
100
AcDbSymbolTableRecord
100
AcDbLinetypeTableRecord
  2
CENTER
 70
64
  3
____ _ ____ _ ____ _ ____ _ ____ _ ____ _ ____
 72
65
 73
4
 40
0.6
 49
0.375
 74
0
 49
-0.075
 74
0
 49
0.075
 74
0
 49
-0.075
 74
0
  0
LTYPE
  5
1F6
100
AcDbSymbolTableRecord
100
AcDbLinetypeTableRecord
  2
HIDDEN
 70
64
  3
- - - - - - - - - - - - - - - - - - - -
 72
65
 73
2
 40
0.2
 49
0.1
 74
0
 49
-0.1
 74
0
  0
LTYPE
  5
1F7
100
AcDbSymbolTableRecord
100
AcDbLinetypeTableRecord
  2
PHANTOM
 70
64
  3
_____ _ _ _____ _ _ _____ _ _ _____
 72
65
 73
6
 40
0.8
 49
0.45
 74
0
 49
-0.05
 74
0
 49
0.1
 74
0
 49
-0.05
 74
0
 49
0.1
 74
0
 49
-0.05
 74
0
  0
LTYPE
  5
1F8
100
AcDbSymbolTableRecord
100
AcDbLinetypeTableRecord
  2
DOT
 70
64
  3
. . . . . . . . . . . . . . . . . . . .
 72
65
 73
2
 40
0.2
 49
0.1
 74
0
 49
-0.1
 74
0
  0
LTYPE
  5
1F9
100
AcDbSymbolTableRecord
100
AcDbLinetypeTableRecord
  2
DASHED
 70
64
  3
- - - - - - - - - - - - - - - - - - - -
 72
65
 73
2
 40
0.2
 49
0.1
 74
0
 49
-0.1
 74
0
  0
ENDTAB
  0
TABLE
  2
LAYER
  5
2
100
AcDbSymbolTable
 70
36
  0
LAYER
  5
10
100
AcDbSymbolTableRecord
100
AcDbLayerTableRecord
  2
0
 70
0
 62
7
  6
CONTINUOUS
370
-3
390
F
  0
LAYER
  5
1FA
100
AcDbSymbolTableRecord
100
AcDbLayerTableRecord
  2
DEFAULT_1
 70
0
 62
7
  6
CENTER
370
-3
390
F
  0
LAYER
  5
1FB
100
AcDbSymbolTableRecord
100
AcDbLayerTableRecord
  2
DEFAULT_2
 70
0
 62
8
  6
HIDDEN
370
-3
390
F
  0
LAYER
  5
1FC
100
AcDbSymbolTableRecord
100
AcDbLayerTableRecord
  2
DEFAULT_3
 70
0
 62
7
  6
PHANTOM
370
-3
390
F
  0
LAYER
  5
1FD
100
AcDbSymbolTableRecord
100
AcDbLayerTableRecord
  2
2-265_ASSY_PLANES
 70
0
 62
7
  6
CONTINUOUS
370
-3
390
F
  0
LAYER
  5
1FE
100
AcDbSymbolTableRecord
100
AcDbLayerTableRecord
  2
ALL_ASSEMBLY_MEMBERS
 70
0
 62
7
  6
CONTINUOUS
370
-3
390
F
  0
LAYER
  5
1FF
100
AcDbSymbolTableRecord
100
AcDbLayerTableRecord
  2
ALL_FEATURES
 70
0
 62
7
  6
CONTINUOUS
370
-3
390
F
  0
LAYER
  5
200
100
AcDbSymbolTableRecord
100
AcDbLayerTableRecord
  2
AXES_FEATURES
 70
0
 62
7
  6
CONTINUOUS
370
-3
390
F
  0
LAYER
  5
201
100
AcDbSymbolTableRecord
100
AcDbLayerTableRecord
  2
CHAMFER_FEATURES
 70
0
 62
7
  6
CONTINUOUS
370
-3
390
F
  0
LAYER
  5
202
100
AcDbSymbolTableRecord
100
AcDbLayerTableRecord
  2
COORDINATE_SYSTEMS
 70
0
 62
7
  6
CONTINUOUS
370
-3
390
F
  0
LAYER
  5
203
100
AcDbSymbolTableRecord
100
AcDbLayerTableRecord
  2
CURVE2
 70
0
 62
7
  6
CONTINUOUS
370
-3
390
F
  0
LAYER
  5
204
100
AcDbSymbolTableRecord
100
AcDbLayerTableRecord
  2
CUT_FEATURES
 70
0
 62
7
  6
CONTINUOUS
370
-3
390
F
  0
LAYER
  5
205
100
AcDbSymbolTableRecord
100
AcDbLayerTableRecord
  2
DATUM_CURVES
 70
0
 62
7
  6
CONTINUOUS
370
-3
390
F
  0
LAYER
  5
206
100
AcDbSymbolTableRecord
100
AcDbLayerTableRecord
  2
DATUM_PLANES
 70
0
 62
7
  6
CONTINUOUS
370
-3
390
F
  0
LAYER
  5
207
100
AcDbSymbolTableRecord
100
AcDbLayerTableRecord
  2
DATUM_POINTS
 70
0
 62
7
  6
CONTINUOUS
370
-3
390
F
  0
LAYER
  5
208
100
AcDbSymbolTableRecord
100
AcDbLayerTableRecord
  2
DEFAULT_COORDINATE_SYSTEM
 70
0
 62
7
  6
CONTINUOUS
370
-3
390
F
  0
LAYER
  5
209
100
AcDbSymbolTableRecord
100
AcDbLayerTableRecord
  2
DEFAULT_DATUM_AXES
 70
0
 62
7
  6
CONTINUOUS
370
-3
390
F
  0
LAYER
  5
20A
100
AcDbSymbolTableRecord
100
AcDbLayerTableRecord
  2
DEFAULT_DATUM_CURVES
 70
0
 62
7
  6
CONTINUOUS
370
-3
390
F
  0
LAYER
  5
20B
100
AcDbSymbolTableRecord
100
AcDbLayerTableRecord
  2
DEFAULT_DATUM_PLANES
 70
0
 62
7
  6
CONTINUOUS
370
-3
390
F
  0
LAYER
  5
20C
100
AcDbSymbolTableRecord
100
AcDbLayerTableRecord
  2
DEFAULT_SURFACES
 70
0
 62
7
  6
CONTINUOUS
370
-3
390
F
  0
LAYER
  5
20D
100
AcDbSymbolTableRecord
100
AcDbLayerTableRecord
  2
DIMENSIONS
 70
0
 62
7
  6
CONTINUOUS
370
-3
390
F
  0
LAYER
  5
20E
100
AcDbSymbolTableRecord
100
AcDbLayerTableRecord
  2
HOLE_FEATURES
 70
0
 62
7
  6
CONTINUOUS
370
-3
390
F
  0
LAYER
  5
20F
100
AcDbSymbolTableRecord
100
AcDbLayerTableRecord
  2
NOTES
 70
0
 62
7
  6
CONTINUOUS
370
-3
390
F
  0
LAYER
  5
210
100
AcDbSymbolTableRecord
100
AcDbLayerTableRecord
  2
PART_REFERENCE_DIMENSIONS
 70
0
 62
7
  6
CONTINUOUS
370
-3
390
F
  0
LAYER
  5
211
100
AcDbSymbolTableRecord
100
AcDbLayerTableRecord
  2
PLATED_SURFACE_AREA
 70
0
 62
7
  6
CONTINUOUS
370
-3
390
F
  0
LAYER
  5
212
100
AcDbSymbolTableRecord
100
AcDbLayerTableRecord
  2
POINTS
 70
0
 62
7
  6
CONTINUOUS
370
-3
390
F
  0
LAYER
  5
213
100
AcDbSymbolTableRecord
100
AcDbLayerTableRecord
  2
PROTRUSION
 70
0
 62
7
  6
CONTINUOUS
370
-3
390
F
  0
LAYER
  5
214
100
AcDbSymbolTableRecord
100
AcDbLayerTableRecord
  2
PROTRUSION_FEATURES
 70
0
 62
7
  6
CONTINUOUS
370
-3
390
F
  0
LAYER
  5
215
100
AcDbSymbolTableRecord
100
AcDbLayerTableRecord
  2
QUILT
 70
0
 62
7
  6
CONTINUOUS
370
-3
390
F
  0
LAYER
  5
216
100
AcDbSymbolTableRecord
100
AcDbLayerTableRecord
  2
QUILTS
 70
0
 62
7
  6
CONTINUOUS
370
-3
390
F
  0
LAYER
  5
217
100
AcDbSymbolTableRecord
100
AcDbLayerTableRecord
  2
REFERENCE_DIMENSIONS
 70
0
 62
7
  6
CONTINUOUS
370
-3
390
F
  0
LAYER
  5
218
100
AcDbSymbolTableRecord
100
AcDbLayerTableRecord
  2
ROUND_FEATURES
 70
0
 62
7
  6
CONTINUOUS
370
-3
390
F
  0
LAYER
  5
219
100
AcDbSymbolTableRecord
100
AcDbLayerTableRecord
  2
SHELL_FEATURES
 70
0
 62
7
  6
CONTINUOUS
370
-3
390
F
  0
LAYER
  5
21A
100
AcDbSymbolTableRecord
100
AcDbLayerTableRecord
  2
SURFACE_FEATURES
 70
0
 62
7
  6
CONTINUOUS
370
-3
390
F
  0
LAYER
  5
21B
100
AcDbSymbolTableRecord
100
AcDbLayerTableRecord
  2
WETTED_SURFACES
 70
0
 62
7
  6
CONTINUOUS
370
-3
390
F
  0
LAYER
  5
21C
100
AcDbSymbolTableRecord
100
AcDbLayerTableRecord
  2
XSEC_DATUMS
 70
0
 62
7
  6
CONTINUOUS
370
-3
390
F
  0
ENDTAB
  0
TABLE
  2
STYLE
  5
3
100
AcDbSymbolTable
 70
1
  0
STYLE
  5
11
100
AcDbSymbolTableRecord
100
AcDbTextStyleTableRecord
  2
STANDARD
 70
0
 40
0.0
 41
0.8
 50
0.0
 71
0
 42
0.2
  3
txt
  4

  0
STYLE
  5
21D
100
AcDbSymbolTableRecord
100
AcDbTextStyleTableRecord
  2
TEXTSTYLE_1
 70
0
 40
0.0
 41
0.8
 50
0.0
 71
0
 42
0.2
  3
gdt
  4

  0
ENDTAB
  0
TABLE
  2
VIEW
  5
6
100
AcDbSymbolTable
 70
0
  0
ENDTAB
  0
TABLE
  2
UCS
  5
7
100
AcDbSymbolTable
 70
0
  0
ENDTAB
  0
TABLE
  2
APPID
  5
9
100
AcDbSymbolTable
 70
1
  0
APPID
  5
21E
100
AcDbSymbolTableRecord
100
AcDbRegAppTableRecord
  2
ACAD
 70
0
  0
ENDTAB
  0
TABLE
  2
BLOCK_RECORD
  5
1
100
AcDbSymbolTable
 70
0
  0
BLOCK_RECORD
  5
21F
100
AcDbSymbolTableRecord
100
AcDbBlockTableRecord
  2
*Model_Space
  0
BLOCK_RECORD
  5
220
100
AcDbSymbolTableRecord
100
AcDbBlockTableRecord
  2
*Paper_Space
  0
BLOCK_RECORD
  5
221
100
AcDbSymbolTableRecord
100
AcDbBlockTableRecord
  2
_FILLED
  0
ENDTAB
  0
TABLE
  2
DIMSTYLE
  5
A
100
AcDbSymbolTable
 70
1
100
AcDbDimStyleTable
 71
0
  0
DIMSTYLE
105
222
100
AcDbSymbolTableRecord
100
AcDbDimStyleTableRecord
  2
STANDARD
 70
0
  3

  4

 40
1.0
 41
0.1
 42
0.0625
 43
0.38
 44
0.125
 45
0.0
 46
0.0
 47
0.001
 48
0.001
140
0.08
141
0.09
142
0.0
143
25.4
144
1.0
145
0.0
146
1.0
147
0.09
 71
1.0
 72
0.0
 73
1
 74
1
 75
0
 76
0
 77
0
 78
4
 79
1
170
1
171
2
172
0
173
0
174
0
175
0
176
0
177
0
178
0
270
2
179
3
271
3
272
3
273
2
274
2
275
0
280
0
281
0
282
0
283
1
284
4
285
0
286
0
287
3
288
0
340
11
278
46
341
221
342
221
343
221
344
221
  0
ENDTAB
  0
ENDSEC
  0
SECTION
  2
BLOCKS
  0
BLOCK
  5
20
100
AcDbEntity
  8
0
100
AcDbBlockBegin
  2
*Model_Space
 70
0
 10
0.0
 20
0.0
 30
0.0
  3
*Model_Space
  1

  0
ENDBLK
  5
21
100
AcDbEntity
  8
0
100
AcDbBlockEnd
  0
BLOCK
  5
1C
100
AcDbEntity
  8
0
100
AcDbBlockBegin
  2
*Paper_Space
 70
0
 10
0.0
 20
0.0
 30
0.0
  3
*Paper_Space
  1

  0
ENDBLK
  5
1D
100
AcDbEntity
  8
0
100
AcDbBlockEnd
  0
BLOCK
  5
223
100
AcDbEntity
  8
0
100
AcDbBlockBegin
  2
_FILLED
 70
64
 10
0.0
 20
0.0
  3
_FILLED
  1

  0
SOLID
  5
224
100
AcDbEntity
  8
0
  6
BYBLOCK
 62
0
100
AcDbTrace
 10
0.0
 20
0.0
 11
-1.0
 21
0.2
 12
-1.0
 22
-0.2
 13
-1.0
 23
-0.2
  0
ENDBLK
  5
225
100
AcDbEntity
  8
0
  6
BYBLOCK
 62
0
100
AcDbBlockEnd
  0
ENDSEC
  0
SECTION
  2
ENTITIES
  0
MTEXT
  5
226
100
AcDbEntity
  8
0
100
AcDbMText
 62
2
  6
CONTINUOUS
  7
STANDARD
 71
3
 72
1
 10
5.1195263975
 20
3.6600094207
 30
0.0
 11
1.0
 21
0.0
 31
0.0
 73
2
 44
0.9
  1
SCALE  .500
 40
0.08
 41
0.704
  0
LINE
  5
227
100
AcDbEntity
  8
0
100
AcDbLine
 62
7
  6
CONTINUOUS
 10
0.0
 20
0.0
 11
0.0
 21
8.5
  0
LINE
  5
228
100
AcDbEntity
  8
0
100
AcDbLine
 62
7
  6
CONTINUOUS
 10
0.0
 20
0.0
 11
11.0
 21
0.0
  0
LINE
  5
229
100
AcDbEntity
  8
0
100
AcDbLine
 62
7
  6
CONTINUOUS
 10
0.0
 20
8.5
 11
11.0
 21
8.5
  0
LINE
  5
22A
100
AcDbEntity
  8
0
100
AcDbLine
 62
7
  6
CONTINUOUS
 10
11.0
 20
0.0
 11
11.0
 21
8.5
  0
LINE
  5
22B
100
AcDbEntity
  8
ALL_ASSEMBLY_MEMBERS
100
AcDbLine
 62
7
  6
CONTINUOUS
 10
3.4945263975
 20
5.8296518063
 11
3.4945263975
 21
5.8993834364
  0
LINE
  5
22C
100
AcDbEntity
  8
ALL_FEATURES
100
AcDbLine
 62
7
  6
CONTINUOUS
 10
4.9262674689
 20
3.7878536578
 11
5.3127853261
 21
3.7878536578
  0
LINE
  5
22D
100
AcDbEntity
  8
0
100
AcDbLine
 62
7
  6
CONTINUOUS
 10
5.3468720124
 20
3.8100094207
 11
4.8921608492
 21
3.8100094207
  0
LINE
  5
22E
100
AcDbEntity
  8
0
100
AcDbLine
 62
7
  6
CONTINUOUS
 10
5.3548390444
 20
3.8170909301
 11
4.8842137507
 21
3.8170909301
  0
LINE
  5
22F
100
AcDbEntity
  8
ALL_FEATURES
100
AcDbLine
 62
7
  6
CONTINUOUS
 10
4.8582815361
 20
3.8553566052
 11
5.3807712589
 21
3.8553566052
  0
LINE
  5
230
100
AcDbEntity
  8
ALL_ASSEMBLY_MEMBERS
100
AcDbLine
 62
7
  6
CONTINUOUS
 10
4.1220263975
 20
5.7078214198
 11
4.1220263975
 21
5.7428834364
  0
LINE
  5
231
100
AcDbEntity
  8
ALL_FEATURES
100
AcDbLine
 62
7
  6
CONTINUOUS
 10
4.8504558894
 20
3.8829590939
 11
5.3885969056
 21
3.8829590939
  0
LINE
  5
232
100
AcDbEntity
  8
ALL_FEATURES
100
AcDbLine
 62
7
  6
CONTINUOUS
 10
5.384526398
 20
3.8900094199
 11
4.8545263971
 21
3.8900094199
  0
LINE
  5
233
100
AcDbEntity
  8
ALL_FEATURES
100
AcDbLine
 62
7
  6
CONTINUOUS
 10
5.4084057634
 20
3.9142445327
 11
4.8306470316
 21
3.9142445327
  0
LINE
  5
234
100
AcDbEntity
  8
ALL_FEATURES
100
AcDbLine
 62
7
  6
CONTINUOUS
 10
4.912165221
 20
3.9420094207
 11
4.9215364988
 21
3.9420094207
  0
LINE
  5
235
100
AcDbEntity
  8
ALL_FEATURES
100
AcDbLine
 62
7
  6
CONTINUOUS
 10
5.3175162962
 20
3.9420094207
 11
5.326887574
 21
3.9420094207
  0
LINE
  5
236
100
AcDbEntity
  8
ALL_FEATURES
100
AcDbLine
 62
7
  6
CONTINUOUS
 10
5.3176515516
 20
3.942889537
 11
5.3175002022
 21
3.9429127962
  0
LINE
  5
237
100
AcDbEntity
  8
ALL_FEATURES
100
AcDbLine
 62
7
  6
CONTINUOUS
 10
5.317651026
 20
3.9428840112
 11
5.3175002161
 21
3.9429129396
  0
LINE
  5
238
100
AcDbEntity
  8
DEFAULT_1
100
AcDbLine
 62
7
  6
CENTER
 10
4.9803600511
 20
4.0400094207
 11
5.2601895416
 21
4.0400094207
  0
LINE
  5
239
100
AcDbEntity
  8
ALL_FEATURES
100
AcDbLine
 62
7
  6
CONTINUOUS
 10
4.912165221
 20
4.1380094207
 11
4.9215364988
 21
4.1380094207
  0
LINE
  5
23A
100
AcDbEntity
  8
ALL_FEATURES
100
AcDbLine
 62
7
  6
CONTINUOUS
 10
5.3175162962
 20
4.1380094207
 11
5.326887574
 21
4.1380094207
  0
LINE
  5
23B
100
AcDbEntity
  8
ALL_FEATURES
100
AcDbLine
 62
7
  6
CONTINUOUS
 10
5.409304727
 20
4.1631425615
 11
4.8297480681
 21
4.1631425615
  0
LINE
  5
23C
100
AcDbEntity
  8
ALL_FEATURES
100
AcDbLine
 62
7
  6
CONTINUOUS
 10
5.3718770157
 20
4.1900094207
 11
4.8671757793
 21
4.1900094207
  0
LINE
  5
23D
100
AcDbEntity
  8
ALL_FEATURES
100
AcDbLine
 62
7
  6
CONTINUOUS
 10
4.9632763975
 20
4.2490094207
 11
5.2757763975
 21
4.2490094207
  0
LINE
  5
23E
100
AcDbEntity
  8
ALL_FEATURES
100
AcDbLine
 62
7
  6
CONTINUOUS
 10
4.8003768299
 20
4.0999043975
 11
4.785583567
 21
4.1204228421
  0
LINE
  5
23F
100
AcDbEntity
  8
ALL_FEATURES
100
AcDbLine
 62
7
  6
CONTINUOUS
 10
4.8535587789
 20
3.9803721005
 11
4.8535118122
 21
3.9804521649
  0
LINE
  5
240
100
AcDbEntity
  8
ALL_FEATURES
100
AcDbLine
 62
7
  6
CONTINUOUS
 10
4.8535590728
 20
3.9803724459
 11
4.8535128984
 21
3.980453438
  0
LINE
  5
241
100
AcDbEntity
  8
ALL_ASSEMBLY_MEMBERS
100
AcDbLine
 62
7
  6
CONTINUOUS
 10
4.6270263975
 20
5.4408834364
 11
4.6270263975
 21
5.5863834364
  0
LINE
  5
242
100
AcDbEntity
  8
ALL_ASSEMBLY_MEMBERS
100
AcDbLine
 62
7
  6
CONTINUOUS
 10
4.6345263975
 20
4.7978906547
 11
4.6345263975
 21
5.4220094207
  0
LINE
  5
243
100
AcDbEntity
  8
ALL_FEATURES
100
AcDbLine
 62
7
  6
CONTINUOUS
 10
4.9632779363
 20
4.4650094207
 11
5.2757748587
 21
4.4650094207
  0
LINE
  5
244
100
AcDbEntity
  8
ALL_ASSEMBLY_MEMBERS
100
AcDbLine
 62
7
  6
CONTINUOUS
 10
4.9445263975
 20
4.4750094207
 11
5.2945263975
 21
4.4750094207
  0
LINE
  5
245
100
AcDbEntity
  8
ALL_ASSEMBLY_MEMBERS
100
AcDbLine
 62
7
  6
CONTINUOUS
 10
4.9132763975
 20
4.4974057657
 11
5.3257763975
 21
4.4974057657
  0
LINE
  5
246
100
AcDbEntity
  8
ALL_ASSEMBLY_MEMBERS
100
AcDbLine
 62
7
  6
CONTINUOUS
 10
4.7961972597
 20
4.6003662517
 11
5.4428555353
 21
4.6003662517
  0
LINE
  5
247
100
AcDbEntity
  8
ALL_FEATURES
100
AcDbLine
 62
7
  6
CONTINUOUS
 10
5.4386759651
 20
3.9801144438
 11
5.4534692281
 21
3.9595959993
  0
LINE
  5
248
100
AcDbEntity
  8
ALL_FEATURES
100
AcDbLine
 62
7
  6
CONTINUOUS
 10
5.384526398
 20
3.8900094199
 11
5.3885969056
 21
3.8829590939
  0
LINE
  5
249
100
AcDbEntity
  8
ALL_FEATURES
100
AcDbLine
 62
7
  6
CONTINUOUS
 10
4.9632763975
 20
4.4650094207
 11
4.9632763975
 21
4.2490094207
  0
LINE
  5
24A
100
AcDbEntity
  8
ALL_ASSEMBLY_MEMBERS
100
AcDbLine
 62
7
  6
CONTINUOUS
 10
5.027651834
 20
4.4750094207
 11
5.027651834
 21
4.4650094207
  0
LINE
  5
24B
100
AcDbEntity
  8
ALL_ASSEMBLY_MEMBERS
100
AcDbLine
 62
7
  6
CONTINUOUS
 10
5.0305359369
 20
4.4750094207
 11
5.0305359369
 21
4.4650094207
  0
LINE
  5
24C
100
AcDbEntity
  8
ALL_ASSEMBLY_MEMBERS
100
AcDbLine
 62
7
  6
CONTINUOUS
 10
5.0387548006
 20
4.4750094207
 11
5.0387548006
 21
4.4650094207
  0
LINE
  5
24D
100
AcDbEntity
  8
ALL_ASSEMBLY_MEMBERS
100
AcDbLine
 62
7
  6
CONTINUOUS
 10
5.0469680307
 20
4.4750094207
 11
5.0469680307
 21
4.4650094207
  0
LINE
  5
24E
100
AcDbEntity
  8
ALL_ASSEMBLY_MEMBERS
100
AcDbLine
 62
7
  6
CONTINUOUS
 10
5.0584185603
 20
4.4650094207
 11
5.0584185603
 21
4.4750094207
  0
LINE
  5
24F
100
AcDbEntity
  8
ALL_ASSEMBLY_MEMBERS
100
AcDbLine
 62
7
  6
CONTINUOUS
 10
5.0621545107
 20
4.4750094207
 11
5.0621545107
 21
4.4650094207
  0
LINE
  5
250
100
AcDbEntity
  8
ALL_ASSEMBLY_MEMBERS
100
AcDbLine
 62
7
  6
CONTINUOUS
 10
5.0744464781
 20
4.4750094207
 11
5.0744464781
 21
4.4650094207
  0
LINE
  5
251
100
AcDbEntity
  8
ALL_ASSEMBLY_MEMBERS
100
AcDbLine
 62
7
  6
CONTINUOUS
 10
5.083851254
 20
4.4650094207
 11
5.083851254
 21
4.4750094207
  0
LINE
  5
252
100
AcDbEntity
  8
ALL_ASSEMBLY_MEMBERS
100
AcDbLine
 62
7
  6
CONTINUOUS
 10
5.0900263975
 20
4.9549296244
 11
5.0900263975
 21
4.9604576308
  0
LINE
  5
253
100
AcDbEntity
  8
ALL_ASSEMBLY_MEMBERS
100
AcDbLine
 62
7
  6
CONTINUOUS
 10
5.0927412528
 20
4.4650094207
 11
5.0927412528
 21
4.4750094207
  0
LINE
  5
254
100
AcDbEntity
  8
ALL_ASSEMBLY_MEMBERS
100
AcDbLine
 62
7
  6
CONTINUOUS
 10
5.0942885704
 20
4.4750094207
 11
5.0942885704
 21
4.4650094207
  0
LINE
  5
255
100
AcDbEntity
  8
ALL_ASSEMBLY_MEMBERS
100
AcDbLine
 62
7
  6
CONTINUOUS
 10
5.1087879345
 20
4.4750094207
 11
5.1087879345
 21
4.4650094207
  0
LINE
  5
256
100
AcDbEntity
  8
ALL_ASSEMBLY_MEMBERS
100
AcDbLine
 62
7
  6
CONTINUOUS
 10
5.1095269129
 20
5.5758834364
 11
5.1095269129
 21
5.4958834364
  0
LINE
  5
257
100
AcDbEntity
  8
ALL_ASSEMBLY_MEMBERS
100
AcDbLine
 62
7
  6
CONTINUOUS
 10
5.1147151648
 20
4.4650094207
 11
5.1147151648
 21
4.4750094207
  0
LINE
  5
258
100
AcDbEntity
  8
ALL_ASSEMBLY_MEMBERS
100
AcDbLine
 62
7
  6
CONTINUOUS
 10
5.1243376302
 20
4.4650094207
 11
5.1243376302
 21
4.4750094207
  0
LINE
  5
259
100
AcDbEntity
  8
ALL_ASSEMBLY_MEMBERS
100
AcDbLine
 62
7
  6
CONTINUOUS
 10
5.1295258822
 20
5.5758834364
 11
5.1295258822
 21
5.4958834364
  0
LINE
  5
25A
100
AcDbEntity
  8
ALL_ASSEMBLY_MEMBERS
100
AcDbLine
 62
7
  6
CONTINUOUS
 10
5.1302648605
 20
4.4750094207
 11
5.1302648605
 21
4.4650094207
  0
LINE
  5
25B
100
AcDbEntity
  8
ALL_ASSEMBLY_MEMBERS
100
AcDbLine
 62
7
  6
CONTINUOUS
 10
4.6345263975
 20
4.7978906547
 11
5.6045263975
 21
4.7978906547
  0
LINE
  5
25C
100
AcDbEntity
  8
ALL_ASSEMBLY_MEMBERS
100
AcDbLine
 62
7
  6
CONTINUOUS
 10
5.1447642247
 20
4.4750094207
 11
5.1447642247
 21
4.4650094207
  0
LINE
  5
25D
100
AcDbEntity
  8
ALL_ASSEMBLY_MEMBERS
100
AcDbLine
 62
7
  6
CONTINUOUS
 10
5.1463115423
 20
4.4650094207
 11
5.1463115423
 21
4.4750094207
  0
LINE
  5
25E
100
AcDbEntity
  8
ALL_ASSEMBLY_MEMBERS
100
AcDbLine
 62
7
  6
CONTINUOUS
 10
5.1490263975
 20
4.9549296244
 11
5.1490263975
 21
4.9604576308
  0
LINE
  5
25F
100
AcDbEntity
  8
ALL_ASSEMBLY_MEMBERS
100
AcDbLine
 62
7
  6
CONTINUOUS
 10
5.1552015411
 20
4.4650094207
 11
5.1552015411
 21
4.4750094207
  0
LINE
  5
260
100
AcDbEntity
  8
ALL_ASSEMBLY_MEMBERS
100
AcDbLine
 62
7
  6
CONTINUOUS
 10
5.164606317
 20
4.4750094207
 11
5.164606317
 21
4.4650094207
  0
LINE
  5
261
100
AcDbEntity
  8
ALL_ASSEMBLY_MEMBERS
100
AcDbLine
 62
7
  6
CONTINUOUS
 10
5.1768982844
 20
4.4750094207
 11
5.1768982844
 21
4.4650094207
  0
LINE
  5
262
100
AcDbEntity
  8
ALL_ASSEMBLY_MEMBERS
100
AcDbLine
 62
7
  6
CONTINUOUS
 10
5.1806342347
 20
4.4650094207
 11
5.1806342347
 21
4.4750094207
  0
LINE
  5
263
100
AcDbEntity
  8
ALL_ASSEMBLY_MEMBERS
100
AcDbLine
 62
7
  6
CONTINUOUS
 10
5.1920847644
 20
4.4750094207
 11
5.1920847644
 21
4.4650094207
  0
LINE
  5
264
100
AcDbEntity
  8
ALL_ASSEMBLY_MEMBERS
100
AcDbLine
 62
7
  6
CONTINUOUS
 10
5.2002979944
 20
4.4750094207
 11
5.2002979944
 21
4.4650094207
  0
LINE
  5
265
100
AcDbEntity
  8
ALL_ASSEMBLY_MEMBERS
100
AcDbLine
 62
7
  6
CONTINUOUS
 10
5.2085168581
 20
4.4750094207
 11
5.2085168581
 21
4.4650094207
  0
LINE
  5
266
100
AcDbEntity
  8
ALL_ASSEMBLY_MEMBERS
100
AcDbLine
 62
7
  6
CONTINUOUS
 10
5.211400961
 20
4.4750094207
 11
5.211400961
 21
4.4650094207
  0
LINE
  5
267
100
AcDbEntity
  8
ALL_ASSEMBLY_MEMBERS
100
AcDbLine
 62
7
  6
CONTINUOUS
 10
5.1460426635
 20
4.9617594207
 11
5.1251668901
 21
4.9617594207
  0
LINE
  5
268
100
AcDbEntity
  8
ALL_ASSEMBLY_MEMBERS
100
AcDbLine
 62
7
  6
CONTINUOUS
 10
5.1138862104
 20
4.9617594207
 11
5.0930101316
 21
4.9617594207
  0
LINE
  5
269
100
AcDbEntity
  8
ALL_FEATURES
100
AcDbLine
 62
7
  6
CONTINUOUS
 10
5.2757763975
 20
4.4650094207
 11
5.2757763975
 21
4.2490094207
  0
LINE
  5
26A
100
AcDbEntity
  8
ALL_FEATURES
100
AcDbLine
 62
7
  6
CONTINUOUS
 10
5.2688092722
 20
4.0448154337
 11
5.2688111902
 21
4.0448677637
  0
LINE
  5
26B
100
AcDbEntity
  8
ALL_FEATURES
100
AcDbLine
 62
7
  6
CONTINUOUS
 10
5.2688092606
 20
4.0448154346
 11
5.2688116863
 21
4.0448677272
  0
LINE
  5
26C
100
AcDbEntity
  8
ALL_FEATURES
100
AcDbLine
 62
7
  6
CONTINUOUS
 10
4.8545263971
 20
3.8900094199
 11
4.8504558894
 21
3.8829590939
  0
LINE
  5
26D
100
AcDbEntity
  8
ALL_FEATURES
100
AcDbLine
 62
7
  6
CONTINUOUS
 10
4.8003768299
 20
3.9801144438
 11
4.785583567
 21
3.9595959993
  0
LINE
  5
26E
100
AcDbEntity
  8
ALL_ASSEMBLY_MEMBERS
100
AcDbLine
 62
7
  6
CONTINUOUS
 10
5.6045263975
 20
4.7978906547
 11
5.6045263975
 21
5.4220094207
  0
LINE
  5
26F
100
AcDbEntity
  8
ALL_ASSEMBLY_MEMBERS
100
AcDbLine
 62
7
  6
CONTINUOUS
 10
5.6120263975
 20
5.4408834364
 11
5.6120263975
 21
5.5863834364
  0
LINE
  5
270
100
AcDbEntity
  8
ALL_ASSEMBLY_MEMBERS
100
AcDbLine
 62
7
  6
CONTINUOUS
 10
4.6345303481
 20
5.4220094207
 11
5.6045224469
 21
5.4220094207
  0
LINE
  5
271
100
AcDbEntity
  8
ALL_ASSEMBLY_MEMBERS
100
AcDbLine
 62
7
  6
CONTINUOUS
 10
4.6270263975
 20
5.4408834364
 11
5.6120263975
 21
5.4408834364
  0
LINE
  5
272
100
AcDbEntity
  8
ALL_ASSEMBLY_MEMBERS
100
AcDbLine
 62
7
  6
CONTINUOUS
 10
5.1295258822
 20
5.4958834364
 11
5.1095269129
 21
5.4958834364
  0
LINE
  5
273
100
AcDbEntity
  8
ALL_ASSEMBLY_MEMBERS
100
AcDbLine
 62
7
  6
CONTINUOUS
 10
5.1095269129
 20
5.5758834364
 11
5.1295258822
 21
5.5758834364
  0
LINE
  5
274
100
AcDbEntity
  8
ALL_ASSEMBLY_MEMBERS
100
AcDbLine
 62
7
  6
CONTINUOUS
 10
5.9273319298
 20
5.5863834364
 11
4.3117208652
 21
5.5863834364
  0
LINE
  5
275
100
AcDbEntity
  8
ALL_FEATURES
100
AcDbLine
 62
7
  6
CONTINUOUS
 10
5.4386759651
 20
4.0999043975
 11
5.4534692281
 21
4.1204228421
  0
LINE
  5
276
100
AcDbEntity
  8
ALL_ASSEMBLY_MEMBERS
100
AcDbLine
 62
7
  6
CONTINUOUS
 10
5.9509157543
 20
5.5970015482
 11
4.2881370407
 21
5.5970015482
  0
LINE
  5
277
100
AcDbEntity
  8
ALL_ASSEMBLY_MEMBERS
100
AcDbLine
 62
7
  6
CONTINUOUS
 10
6.0914081762
 20
5.6768754236
 11
4.1476446188
 21
5.6768754236
  0
LINE
  5
278
100
AcDbEntity
  8
ALL_ASSEMBLY_MEMBERS
100
AcDbLine
 62
7
  6
CONTINUOUS
 10
6.1170263975
 20
5.7078214198
 11
4.1220263975
 21
5.7078214198
  0
LINE
  5
279
100
AcDbEntity
  8
ALL_ASSEMBLY_MEMBERS
100
AcDbLine
 62
7
  6
CONTINUOUS
 10
3.5781046526
 20
5.7428834364
 11
6.6609481424
 21
5.7428834364
  0
LINE
  5
27A
100
AcDbEntity
  8
ALL_ASSEMBLY_MEMBERS
100
AcDbLine
 62
7
  6
CONTINUOUS
 10
6.6906354731
 20
5.7638519411
 11
3.5484173219
 21
5.7638519411
  0
LINE
  5
27B
100
AcDbEntity
  8
ALL_ASSEMBLY_MEMBERS
100
AcDbLine
 62
7
  6
CONTINUOUS
 10
6.7253022394
 20
5.8006422612
 11
3.5137505557
 21
5.8006422612
  0
LINE
  5
27C
100
AcDbEntity
  8
ALL_ASSEMBLY_MEMBERS
100
AcDbLine
 62
7
  6
CONTINUOUS
 10
6.7445263975
 20
5.8296518063
 11
3.4945263975
 21
5.8296518063
  0
LINE
  5
27D
100
AcDbEntity
  8
ALL_ASSEMBLY_MEMBERS
100
AcDbLine
 62
7
  6
CONTINUOUS
 10
6.1170263975
 20
5.7078214198
 11
6.1170263975
 21
5.7428834364
  0
LINE
  5
27E
100
AcDbEntity
  8
ALL_ASSEMBLY_MEMBERS
100
AcDbLine
 62
7
  6
CONTINUOUS
 10
3.4945263975
 20
5.8993834364
 11
6.7445263975
 21
5.8993834364
  0
LINE
  5
27F
100
AcDbEntity
  8
ALL_ASSEMBLY_MEMBERS
100
AcDbLine
 62
7
  6
CONTINUOUS
 10
6.7445263975
 20
5.8296518063
 11
6.7445263975
 21
5.8993834364
  0
ARC
  5
280
100
AcDbEntity
  8
ALL_FEATURES
100
AcDbCircle
 62
7
  6
CONTINUOUS
 10
5.0445263975
 20
4.0400094207
 40
0.385
100
AcDbArc
 50
11.4659094098
 51
18.6524229102
  0
ARC
  5
281
100
AcDbEntity
  8
ALL_FEATURES
100
AcDbCircle
 62
7
  6
CONTINUOUS
 10
5.0445263975
 20
4.0400094207
 40
0.385
100
AcDbArc
 50
340.9336920581
 51
348.5307585706
  0
ARC
  5
282
100
AcDbEntity
  8
ALL_ASSEMBLY_MEMBERS
100
AcDbCircle
 62
7
  6
CONTINUOUS
 10
4.8360263975
 20
4.7978906547
 40
0.2015
100
AcDbArc
 50
180.0
 51
258.599656637
  0
ARC
  5
283
100
AcDbEntity
  8
ALL_ASSEMBLY_MEMBERS
100
AcDbCircle
 62
7
  6
CONTINUOUS
 10
4.7653123824
 20
4.4471990657
 40
0.15625
100
AcDbArc
 50
18.7429459175
 51
78.599656637
  0
ARC
  5
284
100
AcDbEntity
  8
ALL_FEATURES
100
AcDbCircle
 62
7
  6
CONTINUOUS
 10
4.6740491254
 20
4.0400094207
 40
0.1375
100
AcDbArc
 50
35.7906197352
 51
324.2093802648
  0
ARC
  5
285
100
AcDbEntity
  8
ALL_FEATURES
100
AcDbCircle
 62
7
  6
CONTINUOUS
 10
4.8389163713
 20
4.0400094025
 40
0.1314149548
100
AcDbArc
 50
352.5872016428
 51
7.7079765182
  0
ARC
  5
286
100
AcDbEntity
  8
ALL_FEATURES
100
AcDbCircle
 62
7
  6
CONTINUOUS
 10
4.845687427
 20
4.0409450059
 40
0.1245791785
100
AcDbArc
 50
7.6992437917
 51
13.9466292767
  0
ARC
  5
287
100
AcDbEntity
  8
0
100
AcDbCircle
 62
7
  6
CONTINUOUS
 10
4.9533222808
 20
4.0283483485
 40
0.1113262656
100
AcDbArc
 50
204.3588146293
 51
205.6293118898
  0
ARC
  5
288
100
AcDbEntity
  8
0
100
AcDbCircle
 62
7
  6
CONTINUOUS
 10
4.9532275722
 20
4.051711163
 40
0.1112232137
100
AcDbArc
 50
153.768917745
 51
155.6339799476
  0
ARC
  5
289
100
AcDbEntity
  8
ALL_FEATURES
100
AcDbCircle
 62
7
  6
CONTINUOUS
 10
4.9405376991
 20
4.0302889042
 40
0.1004329347
100
AcDbArc
 50
208.5530815527
 51
209.8436466907
  0
ARC
  5
28A
100
AcDbEntity
  8
ALL_FEATURES
100
AcDbCircle
 62
7
  6
CONTINUOUS
 10
4.939689622
 20
4.0502053785
 40
0.099460762
100
AcDbArc
 50
149.4643152206
 51
151.4630364549
  0
ARC
  5
28B
100
AcDbEntity
  8
ALL_FEATURES
100
AcDbCircle
 62
7
  6
CONTINUOUS
 10
4.9352959948
 20
4.0283711195
 40
0.0947886002
100
AcDbArc
 50
209.1399214621
 51
210.3668729739
  0
ARC
  5
28C
100
AcDbEntity
  8
ALL_FEATURES
100
AcDbCircle
 62
7
  6
CONTINUOUS
 10
4.9350891878
 20
4.0517630701
 40
0.0945518247
100
AcDbArc
 50
148.8474324979
 51
150.871892276
  0
ARC
  5
28D
100
AcDbEntity
  8
ALL_FEATURES
100
AcDbCircle
 62
7
  6
CONTINUOUS
 10
4.9042763975
 20
4.2490094207
 40
0.059
100
AcDbArc
 50
270.0
 51
360.0
  0
ARC
  5
28E
100
AcDbEntity
  8
ALL_FEATURES
100
AcDbCircle
 62
7
  6
CONTINUOUS
 10
4.7723964469
 20
4.0851043861
 40
0.0529050346
100
AcDbArc
 50
90.0006776199
 51
92.0220225078
  0
ARC
  5
28F
100
AcDbEntity
  8
ALL_FEATURES
100
AcDbCircle
 62
7
  6
CONTINUOUS
 10
4.7723964536
 20
3.9949127407
 40
0.05290332
100
AcDbArc
 50
267.9766857168
 51
269.9993150525
  0
ARC
  5
290
100
AcDbEntity
  8
0
100
AcDbCircle
 62
7
  6
CONTINUOUS
 10
4.9217381839
 20
4.089721855
 40
0.0528018806
100
AcDbArc
 50
100.5511555744
 51
102.3586196432
  0
ARC
  5
291
100
AcDbEntity
  8
0
100
AcDbCircle
 62
7
  6
CONTINUOUS
 10
4.9217381839
 20
3.9902969864
 40
0.0528018806
100
AcDbArc
 50
257.6413808982
 51
259.4488444259
  0
ARC
  5
292
100
AcDbEntity
  8
0
100
AcDbCircle
 62
7
  6
CONTINUOUS
 10
4.9216186484
 20
3.989615609
 40
0.0521101361
100
AcDbArc
 50
259.4408675585
 51
263.6828584298
  0
ARC
  5
293
100
AcDbEntity
  8
0
100
AcDbCircle
 62
7
  6
CONTINUOUS
 10
4.9216186434
 20
4.0904032645
 40
0.0521101036
100
AcDbArc
 50
96.3168411445
 51
100.5591335752
  0
ARC
  5
294
100
AcDbEntity
  8
ALL_FEATURES
100
AcDbCircle
 62
7
  6
CONTINUOUS
 10
4.9119882085
 20
4.0876411626
 40
0.0503810617
100
AcDbArc
 50
78.7239619449
 51
79.2543895132
  0
ARC
  5
295
100
AcDbEntity
  8
ALL_FEATURES
100
AcDbCircle
 62
7
  6
CONTINUOUS
 10
4.8345443826
 20
3.8113503836
 40
0.05
100
AcDbArc
 50
6.592723027
 51
61.6573772921
  0
ARC
  5
296
100
AcDbEntity
  8
ALL_FEATURES
100
AcDbCircle
 62
7
  6
CONTINUOUS
 10
4.9121455988
 20
3.9914569272
 40
0.0494475104
100
AcDbArc
 50
270.0227366431
 51
281.6827205715
  0
ARC
  5
297
100
AcDbEntity
  8
ALL_FEATURES
100
AcDbCircle
 62
7
  6
CONTINUOUS
 10
4.9121497196
 20
4.0886280803
 40
0.0493813428
100
AcDbArc
 50
79.2249991246
 51
89.9820141536
  0
ARC
  5
298
100
AcDbEntity
  8
ALL_FEATURES
100
AcDbCircle
 62
7
  6
CONTINUOUS
 10
4.8679801253
 20
3.9271476374
 40
0.0395
100
AcDbArc
 50
199.0663081335
 51
250.0865228652
  0
ARC
  5
299
100
AcDbEntity
  8
ALL_FEATURES
100
AcDbCircle
 62
7
  6
CONTINUOUS
 10
4.8671733771
 20
4.1505094207
 40
0.0395
100
AcDbArc
 50
90.0
 51
161.3475770898
  0
ARC
  5
29A
100
AcDbEntity
  8
ALL_ASSEMBLY_MEMBERS
100
AcDbCircle
 62
7
  6
CONTINUOUS
 10
4.9445263975
 20
4.5080094207
 40
0.033
100
AcDbArc
 50
198.7429459175
 51
270.0
  0
ARC
  5
29B
100
AcDbEntity
  8
ALL_FEATURES
100
AcDbCircle
 62
7
  6
CONTINUOUS
 10
4.9345263975
 20
3.8114500579
 40
0.025
100
AcDbArc
 50
183.3042854181
 51
250.7095459639
  0
ARC
  5
29C
100
AcDbEntity
  8
ALL_FEATURES
100
AcDbCircle
 62
7
  6
CONTINUOUS
 10
4.8677763975
 20
3.8729590939
 40
0.02
100
AcDbArc
 50
150.0
 51
241.6573772921
  0
ARC
  5
29D
100
AcDbEntity
  8
0
100
AcDbCircle
 62
7
  6
CONTINUOUS
 10
4.8921608492
 20
3.8180094207
 40
0.008
100
AcDbArc
 50
186.592723027
 51
270.0
  0
ARC
  5
29E
100
AcDbEntity
  8
ALL_ASSEMBLY_MEMBERS
100
AcDbCircle
 62
7
  6
CONTINUOUS
 10
4.1009638333
 20
5.4312722797
 40
0.25
100
AcDbArc
 50
41.5227268247
 51
79.2383881257
  0
ARC
  5
29F
100
AcDbEntity
  8
ALL_ASSEMBLY_MEMBERS
100
AcDbCircle
 62
7
  6
CONTINUOUS
 10
3.4893090062
 20
5.7428834364
 40
0.0627173913
100
AcDbArc
 50
19.5319940446
 51
67.0635891141
  0
ARC
  5
2A0
100
AcDbEntity
  8
ALL_ASSEMBLY_MEMBERS
100
AcDbCircle
 62
7
  6
CONTINUOUS
 10
4.1535263975
 20
5.7078214198
 40
0.0315
100
AcDbArc
 50
180.0
 51
259.2383881257
  0
ARC
  5
2A1
100
AcDbEntity
  8
ALL_ASSEMBLY_MEMBERS
100
AcDbCircle
 62
7
  6
CONTINUOUS
 10
4.3117208645
 20
5.6178834364
 40
0.0315
100
AcDbArc
 50
221.5227268247
 51
270.0
  0
ARC
  5
2A2
100
AcDbEntity
  8
ALL_ASSEMBLY_MEMBERS
100
AcDbCircle
 62
7
  6
CONTINUOUS
 10
3.5260263975
 20
5.8296518063
 40
0.0315
100
AcDbArc
 50
180.0
 51
247.0635891141
  0
ARC
  5
2A3
100
AcDbEntity
  8
ALL_ASSEMBLY_MEMBERS
100
AcDbCircle
 62
7
  6
CONTINUOUS
 10
3.5781046526
 20
5.7743834364
 40
0.0315
100
AcDbArc
 50
199.5319940446
 51
270.0
  0
ARC
  5
2A4
100
AcDbEntity
  8
ALL_ASSEMBLY_MEMBERS
100
AcDbCircle
 62
7
  6
CONTINUOUS
 10
5.119525782
 20
5.5758837008
 40
0.0100001002
100
AcDbArc
 50
359.9984851749
 51
59.7253861888
  0
ARC
  5
2A5
100
AcDbEntity
  8
ALL_ASSEMBLY_MEMBERS
100
AcDbCircle
 62
7
  6
CONTINUOUS
 10
5.1194831003
 20
5.5759511808
 40
0.0099197084
100
AcDbArc
 50
119.231423787
 51
123.5278987006
  0
ARC
  5
2A6
100
AcDbEntity
  8
ALL_FEATURES
100
AcDbCircle
 62
7
  6
CONTINUOUS
 10
5.1195263975
 20
4.3400094207
 40
0.585
100
AcDbArc
 50
250.7095459639
 51
289.2904540361
  0
ARC
  5
2A7
100
AcDbEntity
  8
ALL_FEATURES
100
AcDbCircle
 62
7
  6
CONTINUOUS
 10
5.1945263975
 20
4.0400094207
 40
0.385
100
AcDbArc
 50
161.3475770898
 51
168.5340463523
  0
ARC
  5
2A8
100
AcDbEntity
  8
ALL_FEATURES
100
AcDbCircle
 62
7
  6
CONTINUOUS
 10
5.1945263975
 20
4.0400094207
 40
0.385
100
AcDbArc
 50
191.4691483637
 51
199.0663079419
  0
ARC
  5
2A9
100
AcDbEntity
  8
ALL_ASSEMBLY_MEMBERS
100
AcDbCircle
 62
7
  6
CONTINUOUS
 10
5.4030263975
 20
4.7978906547
 40
0.2015
100
AcDbArc
 50
281.400343363
 51
360.0
  0
ARC
  5
2AA
100
AcDbEntity
  8
ALL_ASSEMBLY_MEMBERS
100
AcDbCircle
 62
7
  6
CONTINUOUS
 10
5.4737404127
 20
4.4471990657
 40
0.15625
100
AcDbArc
 50
101.400343363
 51
161.2570540825
  0
ARC
  5
2AB
100
AcDbEntity
  8
ALL_FEATURES
100
AcDbCircle
 62
7
  6
CONTINUOUS
 10
5.5650036697
 20
4.0400094207
 40
0.1375
100
AcDbArc
 50
215.7906197352
 51
144.2093802648
  0
ARC
  5
2AC
100
AcDbEntity
  8
ALL_FEATURES
100
AcDbCircle
 62
7
  6
CONTINUOUS
 10
5.3894913632
 20
4.0400154414
 40
0.135569355
100
AcDbArc
 50
180.0025445439
 51
184.3545258439
  0
ARC
  5
2AD
100
AcDbEntity
  8
ALL_FEATURES
100
AcDbCircle
 62
7
  6
CONTINUOUS
 10
5.4006868363
 20
4.0400095087
 40
0.1319651245
100
AcDbArc
 50
180.0000381946
 51
180.8393184958
  0
ARC
  5
2AE
100
AcDbEntity
  8
ALL_FEATURES
100
AcDbCircle
 62
7
  6
CONTINUOUS
 10
5.4006554938
 20
4.0400095342
 40
0.131933782
100
AcDbArc
 50
177.9124475463
 51
180.0000493021
  0
ARC
  5
2AF
100
AcDbEntity
  8
ALL_FEATURES
100
AcDbCircle
 62
7
  6
CONTINUOUS
 10
5.4001123508
 20
4.0400306815
 40
0.1313902285
100
AcDbArc
 50
175.5755052493
 51
177.890200509
  0
ARC
  5
2B0
100
AcDbEntity
  8
ALL_FEATURES
100
AcDbCircle
 62
7
  6
CONTINUOUS
 10
5.3996205519
 20
4.0399662161
 40
0.1308983232
100
AcDbArc
 50
180.827207596
 51
186.4694684843
  0
ARC
  5
2B1
100
AcDbEntity
  8
ALL_FEATURES
100
AcDbCircle
 62
7
  6
CONTINUOUS
 10
5.3992864402
 20
4.0400905633
 40
0.1305621597
100
AcDbArc
 50
174.3078199902
 51
175.5737447259
  0
ARC
  5
2B2
100
AcDbEntity
  8
ALL_FEATURES
100
AcDbCircle
 62
7
  6
CONTINUOUS
 10
5.3985959688
 20
4.0401576685
 40
0.1298684372
100
AcDbArc
 50
173.6956290659
 51
174.307065843
  0
ARC
  5
2B3
100
AcDbEntity
  8
ALL_FEATURES
100
AcDbCircle
 62
7
  6
CONTINUOUS
 10
5.397700731
 20
4.0402583773
 40
0.1289675544
100
AcDbArc
 50
171.7732017354
 51
173.6964258793
  0
ARC
  5
2B4
100
AcDbEntity
  8
ALL_FEATURES
100
AcDbCircle
 62
7
  6
CONTINUOUS
 10
5.2993706395
 20
4.0298100737
 40
0.099452618
100
AcDbArc
 50
329.4550480771
 51
331.4572636159
  0
ARC
  5
2B5
100
AcDbEntity
  8
ALL_FEATURES
100
AcDbCircle
 62
7
  6
CONTINUOUS
 10
5.3040516474
 20
4.0282099734
 40
0.0944527321
100
AcDbArc
 50
328.8632832908
 51
330.8770869661
  0
ARC
  5
2B6
100
AcDbEntity
  8
ALL_FEATURES
100
AcDbCircle
 62
7
  6
CONTINUOUS
 10
5.3047632402
 20
4.0522244364
 40
0.0936288352
100
AcDbArc
 50
29.1244034718
 51
31.339337996
  0
ARC
  5
2B7
100
AcDbEntity
  8
ALL_FEATURES
100
AcDbCircle
 62
7
  6
CONTINUOUS
 10
5.3624100607
 20
4.0264100061
 40
0.0909687998
100
AcDbArc
 50
211.6471930042
 51
212.3727779747
  0
ARC
  5
2B8
100
AcDbEntity
  8
ALL_FEATURES
100
AcDbCircle
 62
7
  6
CONTINUOUS
 10
5.3617426851
 20
4.0259872491
 40
0.0901787911
100
AcDbArc
 50
212.3729538842
 51
212.7509626115
  0
ARC
  5
2B9
100
AcDbEntity
  8
ALL_FEATURES
100
AcDbCircle
 62
7
  6
CONTINUOUS
 10
5.3347763975
 20
4.2490094207
 40
0.059
100
AcDbArc
 50
180.0
 51
270.0
  0
ARC
  5
2BA
100
AcDbEntity
  8
ALL_FEATURES
100
AcDbCircle
 62
7
  6
CONTINUOUS
 10
5.3172999615
 20
4.0896495575
 40
0.0528756383
100
AcDbArc
 50
77.6422779738
 51
79.4475838105
  0
ARC
  5
2BB
100
AcDbEntity
  8
ALL_FEATURES
100
AcDbCircle
 62
7
  6
CONTINUOUS
 10
5.3172999615
 20
3.9903692839
 40
0.0528756383
100
AcDbArc
 50
280.5524161895
 51
282.3577220262
  0
ARC
  5
2BC
100
AcDbEntity
  8
ALL_FEATURES
100
AcDbCircle
 62
7
  6
CONTINUOUS
 10
5.3174132161
 20
3.9897561649
 40
0.0522521476
100
AcDbArc
 50
276.3668663628
 51
280.5534515646
  0
ARC
  5
2BD
100
AcDbEntity
  8
ALL_FEATURES
100
AcDbCircle
 62
7
  6
CONTINUOUS
 10
5.317413219
 20
4.090262693
 40
0.0522521309
100
AcDbArc
 50
79.4465481631
 51
83.6333388295
  0
ARC
  5
2BE
100
AcDbEntity
  8
ALL_FEATURES
100
AcDbCircle
 62
7
  6
CONTINUOUS
 10
5.3270735477
 20
4.0876070809
 40
0.0504161024
100
AcDbArc
 50
100.7634985594
 51
101.3543347826
  0
ARC
  5
2BF
100
AcDbEntity
  8
ALL_FEATURES
100
AcDbCircle
 62
7
  6
CONTINUOUS
 10
5.4045084125
 20
3.8113503836
 40
0.05
100
AcDbArc
 50
118.3426227079
 51
173.407276973
  0
ARC
  5
2C0
100
AcDbEntity
  8
ALL_FEATURES
100
AcDbCircle
 62
7
  6
CONTINUOUS
 10
5.3268998311
 20
4.0886568205
 40
0.0493523954
100
AcDbArc
 50
90.014229689
 51
100.7929685497
  0
ARC
  5
2C1
100
AcDbEntity
  8
ALL_FEATURES
100
AcDbCircle
 62
7
  6
CONTINUOUS
 10
5.3268994718
 20
3.9913575902
 40
0.0493479646
100
AcDbArc
 50
259.1981568418
 51
269.9861861252
  0
ARC
  5
2C2
100
AcDbEntity
  8
ALL_FEATURES
100
AcDbCircle
 62
7
  6
CONTINUOUS
 10
5.3710726697
 20
3.9271476374
 40
0.0395
100
AcDbArc
 50
289.9134771506
 51
340.9336918641
  0
ARC
  5
2C3
100
AcDbEntity
  8
ALL_FEATURES
100
AcDbCircle
 62
7
  6
CONTINUOUS
 10
5.371879418
 20
4.1505094207
 40
0.0395
100
AcDbArc
 50
18.6524229102
 51
90.0
  0
ARC
  5
2C4
100
AcDbEntity
  8
ALL_ASSEMBLY_MEMBERS
100
AcDbCircle
 62
7
  6
CONTINUOUS
 10
5.2945263975
 20
4.5080094207
 40
0.033
100
AcDbArc
 50
270.0
 51
341.2570540825
  0
ARC
  5
2C5
100
AcDbEntity
  8
ALL_FEATURES
100
AcDbCircle
 62
7
  6
CONTINUOUS
 10
5.3045263975
 20
3.8114500579
 40
0.025
100
AcDbArc
 50
289.2904540361
 51
356.6957145819
  0
ARC
  5
2C6
100
AcDbEntity
  8
ALL_FEATURES
100
AcDbCircle
 62
7
  6
CONTINUOUS
 10
5.3712763975
 20
3.8729590939
 40
0.02
100
AcDbArc
 50
298.3426227079
 51
30.0
  0
ARC
  5
2C7
100
AcDbEntity
  8
0
100
AcDbCircle
 62
7
  6
CONTINUOUS
 10
5.3468919459
 20
3.8180094207
 40
0.008
100
AcDbArc
 50
270.0
 51
353.407276973
  0
ARC
  5
2C8
100
AcDbEntity
  8
ALL_ASSEMBLY_MEMBERS
100
AcDbCircle
 62
7
  6
CONTINUOUS
 10
6.1380889617
 20
5.4312722797
 40
0.25
100
AcDbArc
 50
100.7616118743
 51
138.4772731753
  0
CIRCLE
  5
2C9
100
AcDbEntity
  8
ALL_ASSEMBLY_MEMBERS
100
AcDbCircle
 62
7
  6
CONTINUOUS
 10
5.1195263975
 20
4.8970094207
 40
0.07
  0
CIRCLE
  5
2CA
100
AcDbEntity
  8
ALL_ASSEMBLY_MEMBERS
100
AcDbCircle
 62
7
  6
CONTINUOUS
 10
5.1195263975
 20
4.8970094207
 40
0.065
  0
ARC
  5
2CB
100
AcDbEntity
  8
ALL_ASSEMBLY_MEMBERS
100
AcDbCircle
 62
7
  6
CONTINUOUS
 10
6.7497437888
 20
5.7428834364
 40
0.0627173913
100
AcDbArc
 50
112.9364108859
 51
160.4680059554
  0
CIRCLE
  5
2CC
100
AcDbEntity
  8
ALL_ASSEMBLY_MEMBERS
100
AcDbCircle
 62
7
  6
CONTINUOUS
 10
5.1195263975
 20
4.8970094207
 40
0.0445454545
  0
ARC
  5
2CD
100
AcDbEntity
  8
ALL_ASSEMBLY_MEMBERS
100
AcDbCircle
 62
7
  6
CONTINUOUS
 10
6.0855263975
 20
5.7078214198
 40
0.0315
100
AcDbArc
 50
280.7616118743
 51
360.0
  0
ARC
  5
2CE
100
AcDbEntity
  8
ALL_ASSEMBLY_MEMBERS
100
AcDbCircle
 62
7
  6
CONTINUOUS
 10
5.9273319305
 20
5.6178834364
 40
0.0315
100
AcDbArc
 50
270.0
 51
318.4772731753
  0
ARC
  5
2CF
100
AcDbEntity
  8
ALL_ASSEMBLY_MEMBERS
100
AcDbCircle
 62
7
  6
CONTINUOUS
 10
6.7130263975
 20
5.8296518063
 40
0.0315
100
AcDbArc
 50
292.9364108859
 51
360.0
  0
ARC
  5
2D0
100
AcDbEntity
  8
ALL_ASSEMBLY_MEMBERS
100
AcDbCircle
 62
7
  6
CONTINUOUS
 10
6.6609481424
 20
5.7743834364
 40
0.0315
100
AcDbArc
 50
270.0
 51
340.4680059554
  0
ARC
  5
2D1
100
AcDbEntity
  8
ALL_ASSEMBLY_MEMBERS
100
AcDbCircle
 62
7
  6
CONTINUOUS
 10
5.1196305321
 20
5.575604547
 40
0.0102966484
100
AcDbArc
 50
105.7413711925
 51
110.3228026237
  0
ARC
  5
2D2
100
AcDbEntity
  8
ALL_ASSEMBLY_MEMBERS
100
AcDbCircle
 62
7
  6
CONTINUOUS
 10
5.1195466237
 20
5.5758239682
 40
0.0100617442
100
AcDbArc
 50
110.308690392
 51
119.193334302
  0
ARC
  5
2D3
100
AcDbEntity
  8
ALL_ASSEMBLY_MEMBERS
100
AcDbCircle
 62
7
  6
CONTINUOUS
 10
5.1195278745
 20
5.5758833231
 40
0.010000984
100
AcDbArc
 50
123.5270039403
 51
179.9993507779
  0
ARC
  5
2D4
100
AcDbEntity
  8
ALL_ASSEMBLY_MEMBERS
100
AcDbCircle
 62
7
  6
CONTINUOUS
 10
5.1195743263
 20
5.5759677232
 40
0.0099032145
100
AcDbArc
 50
59.7305405743
 51
64.0236491447
  0
SPLINE
  5
2D5
100
AcDbEntity
  8
ALL_FEATURES
100
AcDbSpline
 62
7
  6
CONTINUOUS
 70
0
 71
3
 72
11
 73
7
 74
0
 42
0.0000001
 43
0.0000001
 44
0.0000000001
 40
0.0
 40
0.0
 40
0.0
 40
0.0
 40
0.2480553303
 40
0.4970310924
 40
0.7474928648
 40
1.0
 40
1.0
 40
1.0
 40
1.0
 10
4.9215364988
 20
3.9420094207
 30
0.0
 10
4.9227790529
 20
3.9420094207
 30
0.0
 10
4.9252697888
 20
3.9421047207
 30
0.0
 10
4.9289931673
 20
3.9425314044
 30
0.0
 10
4.9326959193
 20
3.943240451
 30
0.0
 10
4.9351309195
 20
3.9438977175
 30
0.0
 10
4.9363393091
 20
3.9442714155
 30
0.0
  0
SPLINE
  5
2D6
100
AcDbEntity
  8
ALL_FEATURES
100
AcDbSpline
 62
7
  6
CONTINUOUS
 70
0
 71
3
 72
11
 73
7
 74
0
 42
0.0000001
 43
0.0000001
 44
0.0000000001
 40
0.0
 40
0.0
 40
0.0
 40
0.0
 40
0.2525071847
 40
0.502968965
 40
0.7519447065
 40
1.0
 40
1.0
 40
1.0
 40
1.0
 10
4.9363394698
 20
4.1357473762
 30
0.0
 10
4.9351310677
 20
4.1361210824
 30
0.0
 10
4.9326960418
 20
4.1367783632
 30
0.0
 10
4.9289932495
 20
4.1374874254
 30
0.0
 10
4.9252698301
 20
4.1379141186
 30
0.0
 10
4.9227790666
 20
4.1380094207
 30
0.0
 10
4.9215364988
 20
4.1380094207
 30
0.0
  0
SPLINE
  5
2D7
100
AcDbEntity
  8
ALL_FEATURES
100
AcDbSpline
 62
7
  6
CONTINUOUS
 70
0
 71
3
 72
18
 73
14
 74
0
 42
0.0000001
 43
0.0000001
 44
0.0000000001
 40
0.0
 40
0.0
 40
0.0
 40
0.0
 40
0.059670732
 40
0.1193569148
 40
0.1791696894
 40
0.2392102357
 40
0.3601828236
 40
0.4828524533
 40
0.5450346997
 40
0.6078360499
 40
0.7354647856
 40
0.8661288082
 40
1.0
 40
1.0
 40
1.0
 40
1.0
 10
4.912165221
 20
4.1380094207
 30
0.0
 10
4.9107274835
 20
4.1380094207
 30
0.0
 10
4.9078504395
 20
4.1378997287
 30
0.0
 10
4.9035575513
 20
4.1374089132
 30
0.0
 10
4.8993044902
 20
4.1365953144
 30
0.0
 10
4.8936979497
 20
4.1350825424
 30
0.0
 10
4.8868588754
 20
4.1324061784
 30
0.0
 10
4.8804186924
 20
4.1287769263
 30
0.0
 10
4.8755289903
 20
4.1253508416
 30
0.0
 10
4.8707737783
 20
4.1215458069
 30
0.0
 10
4.8651914362
 20
4.116160189
 30
0.0
 10
4.8591742038
 20
4.108851734
 30
0.0
 10
4.8556617403
 20
4.103517038
 30
0.0
 10
4.8540227857
 20
4.1007388954
 30
0.0
  0
SPLINE
  5
2D8
100
AcDbEntity
  8
ALL_FEATURES
100
AcDbSpline
 62
7
  6
CONTINUOUS
 70
0
 71
3
 72
20
 73
16
 74
0
 42
0.0000001
 43
0.0000001
 44
0.0000000001
 40
0.0
 40
0.0
 40
0.0
 40
0.0
 40
0.1340490227
 40
0.2648372005
 40
0.3290815473
 40
0.3925844727
 40
0.4553910339
 40
0.517561609
 40
0.6401626311
 40
0.7008137262
 40
0.7610962767
 40
0.8210687554
 40
0.8808078767
 40
0.9404145648
 40
1.0
 40
1.0
 40
1.0
 40
1.0
 10
4.8534235156
 20
3.9803099746
 30
0.0
 10
4.8550576513
 20
3.9774620181
 30
0.0
 10
4.8585681714
 20
3.9719912131
 30
0.0
 10
4.8636349009
 20
3.965699124
 30
0.0
 10
4.8680231056
 20
3.9611287392
 30
0.0
 10
4.8714534259
 20
3.9579592134
 30
0.0
 10
4.8750345701
 20
3.9550402186
 30
0.0
 10
4.8799742193
 20
3.9515171267
 30
0.0
 10
4.8852097662
 20
3.9485170412
 30
0.0
 10
4.8906757423
 20
3.9461177414
 30
0.0
 10
4.8948552474
 20
3.9446330743
 30
0.0
 10
4.8991112506
 20
3.9434666878
 30
0.0
 10
4.9034272265
 20
3.9426283219
 30
0.0
 10
4.9077848871
 20
3.942122491
 30
0.0
 10
4.9107056974
 20
3.9420094207
 30
0.0
 10
4.912165221
 20
3.9420094207
 30
0.0
  0
SPLINE
  5
2D9
100
AcDbEntity
  8
ALL_FEATURES
100
AcDbSpline
 62
7
  6
CONTINUOUS
 70
0
 71
3
 72
39
 73
35
 74
0
 42
0.0000001
 43
0.0000001
 44
0.0000000001
 40
0.0
 40
0.0
 40
0.0
 40
0.0
 40
0.0272117338
 40
0.049311968
 40
0.058484327
 40
0.0664241735
 40
0.0731453085
 40
0.0786608754
 40
0.0829850132
 40
0.0861410757
 40
0.0881555626
 40
0.089054557
 40
0.0905015769
 40
0.0927975986
 40
0.0961097307
 40
0.1004144505
 40
0.1056888139
 40
0.1119104836
 40
0.1190577579
 40
0.1360378678
 40
0.156429262
 40
0.1800289759
 40
0.2066395404
 40
0.2360697795
 40
0.2681356131
 40
0.3026593081
 40
0.33945674
 40
0.419115795
 40
0.5056426688
 40
0.5976216763
 40
0.6938816407
 40
0.79356981
 40
0.8958721995
 40
1.0
 40
1.0
 40
1.0
 40
1.0
 10
4.8552001302
 20
3.9813871136
 30
0.0
 10
4.8553067349
 20
3.9812703379
 30
0.0
 10
4.8555023495
 20
3.9810609264
 30
0.0
 10
4.8557405803
 20
3.980818499
 30
0.0
 10
4.8559035095
 20
3.9806592568
 30
0.0
 10
4.8560038226
 20
3.9805636719
 30
0.0
 10
4.856089527
 20
3.9804839734
 30
0.0
 10
4.8561612291
 20
3.9804189323
 30
0.0
 10
4.8562165171
 20
3.9803697183
 30
0.0
 10
4.8562608694
 20
3.9803313106
 30
0.0
 10
4.8562824582
 20
3.9803126464
 30
0.0
 10
4.8563116157
 20
3.9802885042
 30
0.0
 10
4.856272845
 20
3.9803187559
 30
0.0
 10
4.856248903
 20
3.9803364754
 30
0.0
 10
4.8561985525
 20
3.9803737576
 30
0.0
 10
4.8561392404
 20
3.9804161529
 30
0.0
 10
4.8560633458
 20
3.9804691061
 30
0.0
 10
4.8559738285
 20
3.9805296791
 30
0.0
 10
4.8558263224
 20
3.9806265265
 30
0.0
 10
4.8556069421
 20
3.9807635477
 30
0.0
 10
4.8553016984
 20
3.9809435051
 30
0.0
 10
4.8549431603
 20
3.9811429461
 30
0.0
 10
4.8545331956
 20
3.9813577152
 30
0.0
 10
4.8540737052
 20
3.9815836031
 30
0.0
 10
4.8535666049
 20
3.9818164527
 30
0.0
 10
4.8530138433
 20
3.9820519137
 30
0.0
 10
4.8521977649
 20
3.9823741032
 30
0.0
 10
4.8510840586
 20
3.982764078
 30
0.0
 10
4.849644749
 20
3.9831890001
 30
0.0
 10
4.8480912947
 20
3.9835608538
 30
0.0
 10
4.8464448504
 20
3.9838622991
 30
0.0
 10
4.8447256808
 20
3.984086896
 30
0.0
 10
4.8429517298
 20
3.9842271046
 30
0.0
 10
4.8417520063
 20
3.9842594207
 30
0.0
 10
4.8411469575
 20
3.9842594207
 30
0.0
  0
SPLINE
  5
2DA
100
AcDbEntity
  8
ALL_FEATURES
100
AcDbSpline
 62
7
  6
CONTINUOUS
 70
0
 71
3
 72
18
 73
14
 74
0
 42
0.0000001
 43
0.0000001
 44
0.0000000001
 40
0.0
 40
0.0
 40
0.0
 40
0.0
 40
0.1662291351
 40
0.3273516122
 40
0.4051957737
 40
0.4807722301
 40
0.5537351637
 40
0.623620411
 40
0.7518231499
 40
0.8605656841
 40
0.9449293168
 40
0.9764533211
 40
1.0
 40
1.0
 40
1.0
 40
1.0
 10
4.8411469575
 20
4.0957594207
 30
0.0
 10
4.8420090573
 20
4.0957594207
 30
0.0
 10
4.8437073763
 20
4.0958247003
 30
0.0
 10
4.8457976522
 20
4.0960588396
 30
0.0
 10
4.8474066371
 20
4.0963295895
 30
0.0
 10
4.8485567034
 20
4.0965672247
 30
0.0
 10
4.8496566557
 20
4.0968392675
 30
0.0
 10
4.8510076592
 20
4.0972286153
 30
0.0
 10
4.8525128898
 20
4.0977491521
 30
0.0
 10
4.854047119
 20
4.0984033914
 30
0.0
 10
4.8550809418
 20
4.0989431449
 30
0.0
 10
4.8557020337
 20
4.0993137203
 30
0.0
 10
4.8559422905
 20
4.0994682863
 30
0.0
 10
4.8560435437
 20
4.099536555
 30
0.0
  0
SPLINE
  5
2DB
100
AcDbEntity
  8
ALL_FEATURES
100
AcDbSpline
 62
7
  6
CONTINUOUS
 70
0
 71
3
 72
45
 73
41
 74
0
 42
0.0000001
 43
0.0000001
 44
0.0000000001
 40
0.0
 40
0.0
 40
0.0
 40
0.0
 40
0.0135108578
 40
0.0270385559
 40
0.0406054212
 40
0.0542329222
 40
0.0817368845
 40
0.0956631968
 40
0.1097221468
 40
0.1382902854
 40
0.1675603697
 40
0.1976093881
 40
0.2284807196
 40
0.2601840791
 40
0.2926965515
 40
0.3259628263
 40
0.3599013018
 40
0.3944060981
 40
0.4293526875
 40
0.4646016428
 40
0.5000041634
 40
0.5354065684
 40
0.5706553528
 40
0.6056015392
 40
0.6401059225
 40
0.6740437185
 40
0.7073093468
 40
0.7398210258
 40
0.77152362
 40
0.8023941004
 40
0.8324423398
 40
0.86171167
 40
0.8902791677
 40
0.9043378005
 40
0.9182637801
 40
0.9457673419
 40
0.9593948171
 40
0.9729617264
 40
0.9864893958
 40
1.0
 40
1.0
 40
1.0
 40
1.0
 10
4.7723958212
 20
3.9420094207
 30
0.0
 10
4.7736035266
 20
3.9420094207
 30
0.0
 10
4.7760212599
 20
3.9420924107
 30
0.0
 10
4.7796344373
 20
3.9424640131
 30
0.0
 10
4.7832248495
 20
3.943080792
 30
0.0
 10
4.787979976
 20
3.9442307902
 30
0.0
 10
4.7926404312
 20
3.945862789
 30
0.0
 10
4.7971479578
 20
3.9479384523
 30
0.0
 10
4.8016024194
 20
3.9503347542
 30
0.0
 10
4.8069765015
 20
3.9538884386
 30
0.0
 10
4.8130082636
 20
3.9589457155
 30
0.0
 10
4.8186130188
 20
3.9647604951
 30
0.0
 10
4.8237468176
 20
3.9712722936
 30
0.0
 10
4.8283732308
 20
3.9784162267
 30
0.0
 10
4.8324571112
 20
3.9861255489
 30
0.0
 10
4.8359687386
 20
3.9943286644
 30
0.0
 10
4.8388806811
 20
4.0029508207
 30
0.0
 10
4.8411701543
 20
4.0119133005
 30
0.0
 10
4.8428192858
 20
4.021134066
 30
0.0
 10
4.8438137082
 20
4.0305286586
 30
0.0
 10
4.8441465758
 20
4.040010531
 30
0.0
 10
4.843813532
 20
4.0494923789
 30
0.0
 10
4.8428190301
 20
4.0588869037
 30
0.0
 10
4.8411696675
 20
4.0681075361
 30
0.0
 10
4.8388801926
 20
4.0770698784
 30
0.0
 10
4.8359680554
 20
4.0856918044
 30
0.0
 10
4.8324564749
 20
4.093894733
 30
0.0
 10
4.8283724963
 20
4.101603781
 30
0.0
 10
4.8237461583
 20
4.108747503
 30
0.0
 10
4.8186123879
 20
4.1152590533
 30
0.0
 10
4.8130077238
 20
4.1210736206
 30
0.0
 10
4.8069760765
 20
4.1261307328
 30
0.0
 10
4.8016020844
 20
4.1296842745
 30
0.0
 10
4.7971477168
 20
4.1320805053
 30
0.0
 10
4.7926402806
 20
4.1341561412
 30
0.0
 10
4.7879798767
 20
4.1357880833
 30
0.0
 10
4.783224781
 20
4.1369380614
 30
0.0
 10
4.7796343681
 20
4.1375548306
 30
0.0
 10
4.7760212119
 20
4.137926429
 30
0.0
 10
4.773603504
 20
4.1380094207
 30
0.0
 10
4.7723958212
 20
4.1380094207
 30
0.0
  0
SPLINE
  5
2DC
100
AcDbEntity
  8
ALL_FEATURES
100
AcDbSpline
 62
7
  6
CONTINUOUS
 70
0
 71
3
 72
13
 73
9
 74
0
 42
0.0000001
 43
0.0000001
 44
0.0000000001
 40
0.0
 40
0.0
 40
0.0
 40
0.0
 40
0.2713759394
 40
0.5324754804
 40
0.6574339044
 40
0.7776752622
 40
0.8922692156
 40
1.0
 40
1.0
 40
1.0
 40
1.0
 10
4.8411469575
 20
3.9842594207
 30
0.0
 10
4.8401612271
 20
3.9842594207
 30
0.0
 10
4.8382262061
 20
3.9841744992
 30
0.0
 10
4.8358546107
 20
3.9838714821
 30
0.0
 10
4.8340484105
 20
3.9835228017
 30
0.0
 10
4.8327768654
 20
3.9832189582
 30
0.0
 10
4.8315801637
 20
3.9828767243
 30
0.0
 10
4.8308133201
 20
3.9826226924
 30
0.0
 10
4.8304445422
 20
3.9824918092
 30
0.0
  0
SPLINE
  5
2DD
100
AcDbEntity
  8
ALL_FEATURES
100
AcDbSpline
 62
7
  6
CONTINUOUS
 70
0
 71
3
 72
14
 73
10
 74
0
 42
0.0000001
 43
0.0000001
 44
0.0000000001
 40
0.0
 40
0.0
 40
0.0
 40
0.0
 40
0.1077950011
 40
0.2225025545
 40
0.3428959677
 40
0.467942251
 40
0.5968911283
 40
0.7290260587
 40
1.0
 40
1.0
 40
1.0
 40
1.0
 10
4.8304513309
 20
4.0975236489
 30
0.0
 10
4.8308202174
 20
4.0973931096
 30
0.0
 10
4.8315874708
 20
4.0971398691
 30
0.0
 10
4.8327848348
 20
4.0967984932
 30
0.0
 10
4.834056705
 20
4.0964941005
 30
0.0
 10
4.8353915318
 20
4.0962364256
 30
0.0
 10
4.8367782273
 20
4.096029001
 30
0.0
 10
4.838699001
 20
4.09582327
 30
0.0
 10
4.8401633051
 20
4.0957594207
 30
0.0
 10
4.8411469575
 20
4.0957594207
 30
0.0
  0
SPLINE
  5
2DE
100
AcDbEntity
  8
ALL_FEATURES
100
AcDbSpline
 62
7
  6
CONTINUOUS
 70
0
 71
3
 72
19
 73
15
 74
0
 42
0.0000001
 43
0.0000001
 44
0.0000000001
 40
0.0
 40
0.0
 40
0.0
 40
0.0
 40
0.1169997193
 40
0.1473654263
 40
0.1781204123
 40
0.2406801544
 40
0.3690703479
 40
0.5
 40
0.6309296521
 40
0.7593198456
 40
0.8218795877
 40
0.8526345737
 40
0.8830002807
 40
1.0
 40
1.0
 40
1.0
 40
1.0
 10
4.8003767735
 20
3.9801145252
 30
0.0
 10
4.8032696391
 20
3.9841273923
 30
0.0
 10
4.8064319859
 20
3.9895486067
 30
0.0
 10
4.8095468153
 20
3.9964047461
 30
0.0
 10
4.8115160475
 20
4.0012511008
 30
0.0
 10
4.8145218911
 20
4.0101390994
 30
0.0
 10
4.8173951659
 20
4.0234964622
 30
0.0
 10
4.8185474663
 20
4.0400094207
 30
0.0
 10
4.8173951659
 20
4.0565223792
 30
0.0
 10
4.8145218911
 20
4.069879742
 30
0.0
 10
4.8115160475
 20
4.0787677406
 30
0.0
 10
4.8095468153
 20
4.0836140953
 30
0.0
 10
4.8064319859
 20
4.0904702347
 30
0.0
 10
4.8032696391
 20
4.095891449
 30
0.0
 10
4.8003767735
 20
4.0999043162
 30
0.0
  0
SPLINE
  5
2DF
100
AcDbEntity
  8
ALL_FEATURES
100
AcDbSpline
 62
7
  6
CONTINUOUS
 70
0
 71
3
 72
39
 73
35
 74
0
 42
0.0000001
 43
0.0000001
 44
0.0000000001
 40
0.0
 40
0.0
 40
0.0
 40
0.0
 40
0.0256688756
 40
0.0517541731
 40
0.0784367164
 40
0.1058672998
 40
0.1341524353
 40
0.1633637512
 40
0.1935367293
 40
0.2246732905
 40
0.2567431688
 40
0.2896888552
 40
0.3234288151
 40
0.3578609919
 40
0.3928669415
 40
0.4283145912
 40
0.4640624591
 40
0.4999622459
 40
0.5358625817
 40
0.5716120948
 40
0.6070624397
 40
0.6420720884
 40
0.6765088692
 40
0.7102542482
 40
0.7432060131
 40
0.7752824921
 40
0.8064259643
 40
0.8366059752
 40
0.8658241791
 40
0.8941158243
 40
0.9215522687
 40
0.9482397529
 40
0.9743287512
 40
1.0
 40
1.0
 40
1.0
 40
1.0
 10
4.7742851331
 20
3.945918583
 30
0.0
 10
4.7763371793
 20
3.9462039991
 30
0.0
 10
4.78044185
 20
3.9470487659
 30
0.0
 10
4.7864470179
 20
3.9491010576
 30
0.0
 10
4.7922887529
 20
3.9519244812
 30
0.0
 10
4.7979166903
 20
3.9554937271
 30
0.0
 10
4.8032849787
 20
3.9597763329
 30
0.0
 10
4.8083482328
 20
3.9647356737
 30
0.0
 10
4.8130653103
 20
3.9703285351
 30
0.0
 10
4.8173973911
 20
3.9765074902
 30
0.0
 10
4.8213086151
 20
3.9832204475
 30
0.0
 10
4.8247671635
 20
3.9904106227
 30
0.0
 10
4.8277436639
 20
3.9980178868
 30
0.0
 10
4.8302144731
 20
4.0059779371
 30
0.0
 10
4.8321577314
 20
4.0142242617
 30
0.0
 10
4.8335587742
 20
4.0226872242
 30
0.0
 10
4.8344042138
 20
4.0312959427
 30
0.0
 10
4.8346888124
 20
4.0399778729
 30
0.0
 10
4.834408304
 20
4.0486600687
 30
0.0
 10
4.8335669248
 20
4.0572695809
 30
0.0
 10
4.832169866
 20
4.065733858
 30
0.0
 10
4.8302305025
 20
4.0739820093
 30
0.0
 10
4.8277634394
 20
4.0819443779
 30
0.0
 10
4.8247905384
 20
4.089554441
 30
0.0
 10
4.8213353764
 20
4.0967478596
 30
0.0
 10
4.8174273382
 20
4.1034644955
 30
0.0
 10
4.8130981752
 20
4.1096475117
 30
0.0
 10
4.8083837659
 20
4.1152448116
 30
0.0
 10
4.8033228696
 20
4.1202089015
 30
0.0
 10
4.7979566438
 20
4.1244965683
 30
0.0
 10
4.7923304196
 20
4.1280711037
 30
0.0
 10
4.7864900649
 20
4.1309000474
 30
0.0
 10
4.7804859069
 20
4.1329580125
 30
0.0
 10
4.7763815471
 20
4.1338066977
 30
0.0
 10
4.7743295784
 20
4.1340940554
 30
0.0
  0
SPLINE
  5
2E0
100
AcDbEntity
  8
ALL_FEATURES
100
AcDbSpline
 62
7
  6
CONTINUOUS
 70
0
 71
3
 72
33
 73
29
 74
0
 42
0.0000001
 43
0.0000001
 44
0.0000000001
 40
0.0
 40
0.0
 40
0.0
 40
0.0
 40
0.0257417072
 40
0.0520042408
 40
0.0789330547
 40
0.1066363021
 40
0.1351886505
 40
0.1646347173
 40
0.1949899594
 40
0.226242247
 40
0.2912186765
 40
0.3248479664
 40
0.3591019321
 40
0.4289997269
 40
0.4999671055
 40
0.5709362533
 40
0.6408392192
 40
0.6750969197
 40
0.7087306206
 40
0.7737174987
 40
0.804975546
 40
0.8353367299
 40
0.8647887174
 40
0.8933468037
 40
0.9210553891
 40
0.9479889643
 40
0.9742554118
 40
1.0
 40
1.0
 40
1.0
 40
1.0
 10
4.7787376465
 20
3.9509097249
 30
0.0
 10
4.7805867402
 20
3.9513658919
 30
0.0
 10
4.7842696575
 20
3.9525158029
 30
0.0
 10
4.7896160816
 20
3.9548948195
 30
0.0
 10
4.7947913681
 20
3.9579245123
 30
0.0
 10
4.7997569357
 20
3.9615784568
 30
0.0
 10
4.8044747429
 20
3.9658294835
 30
0.0
 10
4.8089100094
 20
3.9706434893
 30
0.0
 10
4.8130297829
 20
3.9759842544
 30
0.0
 10
4.8181256754
 20
3.9838518905
 30
0.0
 10
4.8223826862
 20
3.9925119181
 30
0.0
 10
4.8257795922
 20
4.0017416975
 30
0.0
 10
4.8286463119
 20
4.0115316556
 30
0.0
 10
4.8310523361
 20
4.0243016661
 30
0.0
 10
4.832018938
 20
4.0399836519
 30
0.0
 10
4.831058623
 20
4.0556664046
 30
0.0
 10
4.8286577549
 20
4.0684381797
 30
0.0
 10
4.825795012
 20
4.0782303247
 30
0.0
 10
4.8224018046
 20
4.0874629286
 30
0.0
 10
4.8181482884
 20
4.0961263512
 30
0.0
 10
4.8130556122
 20
4.1039980147
 30
0.0
 10
4.808938015
 20
4.1093420982
 30
0.0
 10
4.8045046988
 20
4.1141596622
 30
0.0
 10
4.7997886376
 20
4.1184144945
 30
0.0
 10
4.7948245606
 20
4.1220724291
 30
0.0
 10
4.7896505286
 20
4.1251063011
 30
0.0
 10
4.7843050951
 20
4.1274896294
 30
0.0
 10
4.780622595
 20
4.1286425463
 30
0.0
 10
4.7787736537
 20
4.1291002186
 30
0.0
  0
SPLINE
  5
2E1
100
AcDbEntity
  8
ALL_FEATURES
100
AcDbSpline
 62
7
  6
CONTINUOUS
 70
0
 71
3
 72
19
 73
15
 74
0
 42
0.0000001
 43
0.0000001
 44
0.0000000001
 40
0.0
 40
0.0
 40
0.0
 40
0.0
 40
0.0567514144
 40
0.113681133
 40
0.1709466249
 40
0.2287112709
 40
0.287124685
 40
0.3463233434
 40
0.4064295478
 40
0.467550961
 40
0.593118707
 40
0.723607556
 40
0.8592481185
 40
1.0
 40
1.0
 40
1.0
 40
1.0
 10
4.904330466
 20
3.9466704527
 30
0.0
 10
4.903123911
 20
3.9466704527
 30
0.0
 10
4.900705968
 20
3.9467643675
 30
0.0
 10
4.8970927017
 20
3.9471862363
 30
0.0
 10
4.893501088
 20
3.9478879324
 30
0.0
 10
4.8899425076
 20
3.9488673569
 30
0.0
 10
4.8864275329
 20
3.9501212109
 30
0.0
 10
4.8829670147
 20
3.951645935
 30
0.0
 10
4.8795710968
 20
3.9534365494
 30
0.0
 10
4.8751041588
 20
3.9561956684
 30
0.0
 10
4.8697313027
 20
3.9603035025
 30
0.0
 10
4.8637670753
 20
3.9661419482
 30
0.0
 10
4.8582952029
 20
3.9728631031
 30
0.0
 10
4.8550741648
 20
3.9777917382
 30
0.0
 10
4.8535587789
 20
3.9803721005
 30
0.0
  0
SPLINE
  5
2E2
100
AcDbEntity
  8
ALL_FEATURES
100
AcDbSpline
 62
7
  6
CONTINUOUS
 70
0
 71
3
 72
20
 73
16
 74
0
 42
0.0000001
 43
0.0000001
 44
0.0000000001
 40
0.0
 40
0.0
 40
0.0
 40
0.0
 40
0.1404601434
 40
0.2088229176
 40
0.2759088856
 40
0.4062420652
 40
0.5317566431
 40
0.5928908839
 40
0.6530365599
 40
0.7122987558
 40
0.770798074
 40
0.8286680088
 40
0.8860534099
 40
0.9431116174
 40
1.0
 40
1.0
 40
1.0
 40
1.0
 10
4.8541724154
 20
4.1006764986
 30
0.0
 10
4.8556887409
 20
4.1031839691
 30
0.0
 10
4.8581230472
 20
4.1068085296
 30
0.0
 10
4.8616979562
 20
4.1113225748
 30
0.0
 10
4.8653711892
 20
4.1154792646
 30
0.0
 10
4.8702468054
 20
4.1201512768
 30
0.0
 10
4.8755530919
 20
4.1241292936
 30
0.0
 10
4.8799586235
 20
4.1268002045
 30
0.0
 10
4.8833058476
 20
4.1285337839
 30
0.0
 10
4.8867147398
 20
4.1300093908
 30
0.0
 10
4.8901753822
 20
4.1312228911
 30
0.0
 10
4.8936776196
 20
4.1321704862
 30
0.0
 10
4.8972112347
 20
4.1328494053
 30
0.0
 10
4.9007654909
 20
4.1332575501
 30
0.0
 10
4.9031436527
 20
4.1333483887
 30
0.0
 10
4.904330466
 20
4.1333483887
 30
0.0
  0
SPLINE
  5
2E3
100
AcDbEntity
  8
ALL_FEATURES
100
AcDbSpline
 62
7
  6
CONTINUOUS
 70
0
 71
3
 72
36
 73
32
 74
0
 42
0.0000001
 43
0.0000001
 44
0.0000000001
 40
0.0
 40
0.0
 40
0.0
 40
0.0
 40
0.0256709619
 40
0.0518296644
 40
0.0786286976
 40
0.1061917637
 40
0.1346098326
 40
0.1639395243
 40
0.1789589671
 40
0.194212332
 40
0.2254045443
 40
0.2574886872
 40
0.2904055769
 40
0.3240755283
 40
0.3584003651
 40
0.42851349
 40
0.4997600232
 40
0.571020997
 40
0.6411763059
 40
0.675531188
 40
0.7092359102
 40
0.7421911605
 40
0.7743161273
 40
0.8055504561
 40
0.8358585011
 40
0.8652309613
 40
0.8936903037
 40
0.9212917979
 40
0.9481244305
 40
0.9743099956
 40
1.0
 40
1.0
 40
1.0
 40
1.0
 10
4.9218395208
 20
4.1370496945
 30
0.0
 10
4.9238939757
 20
4.1366400715
 30
0.0
 10
4.9279943331
 20
4.1355526766
 30
0.0
 10
4.9339673082
 20
4.1331701966
 30
0.0
 10
4.9397630698
 20
4.1300444369
 30
0.0
 10
4.9453345318
 20
4.1262020102
 30
0.0
 10
4.9506380553
 20
4.1216745651
 30
0.0
 10
4.9547682797
 20
4.1173950503
 30
0.0
 10
4.9579027672
 20
4.1136741472
 30
0.0
 10
4.9609637006
 20
4.1096986967
 30
0.0
 10
4.9645428324
 20
4.1043731528
 30
0.0
 10
4.9683878215
 20
4.0975204822
 30
0.0
 10
4.971785516
 20
4.0902121821
 30
0.0
 10
4.9747093265
 20
4.0825061058
 30
0.0
 10
4.9779669132
 20
4.0717089523
 30
0.0
 10
4.9807089162
 20
4.0575910302
 30
0.0
 10
4.9818266478
 20
4.0402310193
 30
0.0
 10
4.9807641553
 20
4.0228641116
 30
0.0
 10
4.9780673797
 20
4.0087303716
 30
0.0
 10
4.9748447376
 20
3.9979136585
 30
0.0
 10
4.9719457535
 20
3.9901892177
 30
0.0
 10
4.9685717813
 20
3.9828598052
 30
0.0
 10
4.9647491715
 20
3.9759830529
 30
0.0
 10
4.9605074104
 20
3.9696138204
 30
0.0
 10
4.9558802699
 20
3.9638022596
 30
0.0
 10
4.9509031468
 20
3.9585952211
 30
0.0
 10
4.9456151477
 20
3.9540341209
 30
0.0
 10
4.9400573454
 20
3.9501559937
 30
0.0
 10
4.934272813
 20
3.9469927496
 30
0.0
 10
4.9283085652
 20
3.9445713509
 30
0.0
 10
4.9242116143
 20
3.9434569564
 30
0.0
 10
4.9221583226
 20
3.9430337752
 30
0.0
  0
SPLINE
  5
2E4
100
AcDbEntity
  8
ALL_FEATURES
100
AcDbSpline
 62
7
  6
CONTINUOUS
 70
0
 71
3
 72
21
 73
17
 74
0
 42
0.0000001
 43
0.0000001
 44
0.0000000001
 40
0.0
 40
0.0
 40
0.0
 40
0.0
 40
0.0536546471
 40
0.1076296359
 40
0.1622256649
 40
0.2177220119
 40
0.2743622353
 40
0.3323514574
 40
0.3918501666
 40
0.4529738701
 40
0.5157904594
 40
0.5803242325
 40
0.7143450136
 40
0.7837699113
 40
0.8546317048
 40
1.0
 40
1.0
 40
1.0
 40
1.0
 10
4.904330466
 20
4.1333483887
 30
0.0
 10
4.9060253035
 20
4.1333483887
 30
0.0
 10
4.9094279741
 20
4.1331625413
 30
0.0
 10
4.9144936296
 20
4.1323288662
 30
0.0
 10
4.9194981416
 20
4.1309452898
 30
0.0
 10
4.9244104256
 20
4.1290208304
 30
0.0
 10
4.9292013498
 20
4.1265676234
 30
0.0
 10
4.9338423584
 20
4.1236007358
 30
0.0
 10
4.9383065056
 20
4.1201385743
 30
0.0
 10
4.942567407
 20
4.1162017613
 30
0.0
 10
4.9466006557
 20
4.111813764
 30
0.0
 10
4.9517055477
 20
4.1053166951
 30
0.0
 10
4.9561822942
 20
4.0980937068
 30
0.0
 10
4.9600037059
 20
4.0903123492
 30
0.0
 10
4.963459363
 20
4.0819717898
 30
0.0
 10
4.9654861534
 20
4.0754270376
 30
0.0
 10
4.9665940929
 20
4.0709708261
 30
0.0
  0
SPLINE
  5
2E5
100
AcDbEntity
  8
ALL_FEATURES
100
AcDbSpline
 62
7
  6
CONTINUOUS
 70
0
 71
3
 72
22
 73
18
 74
0
 42
0.0000001
 43
0.0000001
 44
0.0000000001
 40
0.0
 40
0.0
 40
0.0
 40
0.0
 40
0.1457754748
 40
0.2171925369
 40
0.2872986986
 40
0.3558981505
 40
0.4228298029
 40
0.4879716988
 40
0.5512482132
 40
0.6126328641
 40
0.6721595973
 40
0.7299237212
 40
0.7860852653
 40
0.8408676698
 40
0.8945531913
 40
0.9474736317
 40
1.0
 40
1.0
 40
1.0
 40
1.0
 10
4.9692329637
 20
4.0230546312
 30
0.0
 10
4.9685469222
 20
4.0178017355
 30
0.0
 10
4.9670401589
 20
4.010025173
 30
0.0
 10
4.964056531
 20
4.0000143929
 30
0.0
 10
4.9613847554
 20
3.9928542951
 30
0.0
 10
4.9582848092
 20
3.986047765
 30
0.0
 10
4.9547793289
 20
3.97964515
 30
0.0
 10
4.9508941251
 20
3.9736946722
 30
0.0
 10
4.9466583192
 20
3.9682406654
 30
0.0
 10
4.9421025878
 20
3.9633246316
 30
0.0
 10
4.9372609386
 20
3.958983362
 30
0.0
 10
4.9321687354
 20
3.9552501344
 30
0.0
 10
4.9268635618
 20
3.9521538176
 30
0.0
 10
4.9213850281
 20
3.9497188167
 30
0.0
 10
4.9157742144
 20
3.9479649004
 30
0.0
 10
4.910075339
 20
3.9469065855
 30
0.0
 10
4.9062392832
 20
3.9466704527
 30
0.0
 10
4.904330466
 20
3.9466704527
 30
0.0
  0
SPLINE
  5
2E6
100
AcDbEntity
  8
ALL_FEATURES
100
AcDbSpline
 62
7
  6
CONTINUOUS
 70
0
 71
3
 72
25
 73
21
 74
0
 42
0.0000001
 43
0.0000001
 44
0.0000000001
 40
0.0
 40
0.0
 40
0.0
 40
0.0
 40
0.0576243491
 40
0.1170481843
 40
0.1781213781
 40
0.2092227007
 40
0.2406578981
 40
0.3043920894
 40
0.3690623402
 40
0.4343698138
 40
0.5
 40
0.5656301862
 40
0.6309376598
 40
0.6956079106
 40
0.7593421019
 40
0.7907772993
 40
0.8218786219
 40
0.8829518157
 40
0.9423756509
 40
1.0
 40
1.0
 40
1.0
 40
1.0
 10
4.7855834271
 20
3.959596201
 30
0.0
 10
4.7874974898
 20
3.9622510937
 30
0.0
 10
4.7911295269
 20
3.9678325246
 30
0.0
 10
4.7958824886
 20
3.9767763215
 30
0.0
 10
4.7992820025
 20
3.9846985371
 30
0.0
 10
4.8016648993
 20
3.9913040733
 30
0.0
 10
4.8038365224
 20
3.998140943
 30
0.0
 10
4.806087891
 20
4.006945384
 30
0.0
 10
4.808027857
 20
4.0177848906
 30
0.0
 10
4.8091989029
 20
4.0288425262
 30
0.0
 10
4.8095911576
 20
4.0400094207
 30
0.0
 10
4.8091989029
 20
4.0511763152
 30
0.0
 10
4.808027857
 20
4.0622339507
 30
0.0
 10
4.806087891
 20
4.0730734574
 30
0.0
 10
4.8038365224
 20
4.0818778984
 30
0.0
 10
4.8016648993
 20
4.0887147681
 30
0.0
 10
4.7992820025
 20
4.0953203043
 30
0.0
 10
4.7958824886
 20
4.1032425199
 30
0.0
 10
4.7911295269
 20
4.1121863168
 30
0.0
 10
4.7874974898
 20
4.1177677477
 30
0.0
 10
4.7855834271
 20
4.1204226404
 30
0.0
  0
SPLINE
  5
2E7
100
AcDbEntity
  8
ALL_FEATURES
100
AcDbSpline
 62
7
  6
CONTINUOUS
 70
0
 71
3
 72
18
 73
14
 74
0
 42
0.0000001
 43
0.0000001
 44
0.0000000001
 40
0.0
 40
0.0
 40
0.0
 40
0.0
 40
0.0596697824
 40
0.119357651
 40
0.1791727972
 40
0.2392147358
 40
0.3601861266
 40
0.4828543503
 40
0.5450357803
 40
0.6078365305
 40
0.7354657551
 40
0.866130385
 40
1.0
 40
1.0
 40
1.0
 40
1.0
 10
5.326887574
 20
3.9420094207
 30
0.0
 10
5.3283249864
 20
3.9420094207
 30
0.0
 10
5.3312014426
 20
3.9421190776
 30
0.0
 10
5.3354935131
 20
3.9426096962
 30
0.0
 10
5.3397458379
 20
3.9434229878
 30
0.0
 10
5.3453513483
 20
3.9449351263
 30
0.0
 10
5.352189123
 20
3.9476104759
 30
0.0
 10
5.3586282193
 20
3.9512383003
 30
0.0
 10
5.3635172217
 20
3.9546630785
 30
0.0
 10
5.3682718515
 20
3.9584667531
 30
0.0
 10
5.3738537751
 20
3.9638504683
 30
0.0
 10
5.3798707139
 20
3.9711565724
 30
0.0
 10
5.3833832478
 20
3.9764895792
 30
0.0
 10
5.3850222875
 20
3.9792668404
 30
0.0
  0
SPLINE
  5
2E8
100
AcDbEntity
  8
ALL_FEATURES
100
AcDbSpline
 62
7
  6
CONTINUOUS
 70
0
 71
3
 72
11
 73
7
 74
0
 42
0.0000001
 43
0.0000001
 44
0.0000000001
 40
0.0
 40
0.0
 40
0.0
 40
0.0
 40
0.2524738001
 40
0.5028403057
 40
0.7517813107
 40
1.0
 40
1.0
 40
1.0
 40
1.0
 10
5.3026575241
 20
3.9442889464
 30
0.0
 10
5.3038700328
 20
3.9439124327
 30
0.0
 10
5.3063132068
 20
3.9432501173
 30
0.0
 10
5.3100290379
 20
3.9425353717
 30
0.0
 10
5.313766957
 20
3.9421053306
 30
0.0
 10
5.3162680721
 20
3.9420094207
 30
0.0
 10
5.3175162962
 20
3.9420094207
 30
0.0
  0
SPLINE
  5
2E9
100
AcDbEntity
  8
ALL_FEATURES
100
AcDbSpline
 62
7
  6
CONTINUOUS
 70
0
 71
3
 72
11
 73
7
 74
0
 42
0.0000001
 43
0.0000001
 44
0.0000000001
 40
0.0
 40
0.0
 40
0.0
 40
0.0
 40
0.2524695577
 40
0.5028354156
 40
0.7517782371
 40
1.0
 40
1.0
 40
1.0
 40
1.0
 10
5.3026704492
 20
4.1357339067
 30
0.0
 10
5.3038819476
 20
4.1361097639
 30
0.0
 10
5.3063230554
 20
4.1367709171
 30
0.0
 10
5.3100356531
 20
4.1374844002
 30
0.0
 10
5.3137702799
 20
4.1379136808
 30
0.0
 10
5.3162691756
 20
4.1380094207
 30
0.0
 10
5.3175162962
 20
4.1380094207
 30
0.0
  0
SPLINE
  5
2EA
100
AcDbEntity
  8
ALL_FEATURES
100
AcDbSpline
 62
7
  6
CONTINUOUS
 70
0
 71
3
 72
22
 73
18
 74
0
 42
0.0000001
 43
0.0000001
 44
0.0000000001
 40
0.0
 40
0.0
 40
0.0
 40
0.0
 40
0.0676411571
 40
0.1344463504
 40
0.2004120926
 40
0.2655482976
 40
0.3933787739
 40
0.4562075373
 40
0.518367224
 40
0.5799199858
 40
0.6409327861
 40
0.7014907302
 40
0.7616627391
 40
0.8215092505
 40
0.8811092721
 40
0.9405674135
 40
1.0
 40
1.0
 40
1.0
 40
1.0
 10
5.3867360871
 20
4.097728258
 30
0.0
 10
5.385919708
 20
4.0992287007
 30
0.0
 10
5.3842212505
 20
4.1021706206
 30
0.0
 10
5.3814622473
 20
4.1064162003
 30
0.0
 10
5.3785129188
 20
4.1104544799
 30
0.0
 10
5.3743630914
 20
4.1155109239
 30
0.0
 10
5.3698308347
 20
4.1201406138
 30
0.0
 10
5.364948392
 20
4.1242599534
 30
0.0
 10
5.3611536606
 20
4.1270574354
 30
0.0
 10
5.3572166494
 20
4.1295664897
 30
0.0
 10
5.3531490483
 20
4.1317747975
 30
0.0
 10
5.348963702
 20
4.1336682487
 30
0.0
 10
5.3446770063
 20
4.1352360645
 30
0.0
 10
5.3403071251
 20
4.1364686407
 30
0.0
 10
5.3358722411
 20
4.1373549886
 30
0.0
 10
5.3313921625
 20
4.1378898316
 30
0.0
 10
5.3283884388
 20
4.1380094207
 30
0.0
 10
5.326887574
 20
4.1380094207
 30
0.0
  0
SPLINE
  5
2EB
100
AcDbEntity
  8
ALL_FEATURES
100
AcDbSpline
 62
7
  6
CONTINUOUS
 70
0
 71
3
 72
26
 73
22
 74
0
 42
0.0000001
 43
0.0000001
 44
0.0000000001
 40
0.0
 40
0.0
 40
0.0
 40
0.0
 40
0.0709361275
 40
0.1416038494
 40
0.2116194582
 40
0.2807156171
 40
0.3486496687
 40
0.4151987665
 40
0.4801974965
 40
0.5435396359
 40
0.6051860803
 40
0.6651659623
 40
0.6945709164
 40
0.7236041401
 40
0.7806224442
 40
0.808690969
 40
0.8365020279
 40
0.891460508
 40
0.9458404772
 40
0.9729308415
 40
1.0
 40
1.0
 40
1.0
 40
1.0
 10
5.3950173635
 20
4.0400094207
 30
0.0
 10
5.3950173635
 20
4.0367945362
 30
0.0
 10
5.3952467592
 20
4.0303745942
 30
0.0
 10
5.3962729788
 20
4.0208309472
 30
0.0
 10
5.3979758048
 20
4.0114684684
 30
0.0
 10
5.4003391892
 20
4.0023782831
 30
0.0
 10
5.4033434675
 20
3.9936446747
 30
0.0
 10
5.4069651791
 20
3.9853499842
 30
0.0
 10
5.4111749586
 20
3.9775725692
 30
0.0
 10
5.4159413784
 20
3.9703870034
 30
0.0
 10
5.4212266526
 20
3.9638632098
 30
0.0
 10
5.4260644728
 20
3.959001266
 30
0.0
 10
5.4301515956
 20
3.9555190483
 30
0.0
 10
5.4343213642
 20
3.9523544451
 30
0.0
 10
5.4387092971
 20
3.9495887398
 30
0.0
 10
5.4432759074
 20
3.9472745751
 30
0.0
 10
5.4478946339
 20
3.94529209
 30
0.0
 10
5.4538354951
 20
3.9433995823
 30
0.0
 10
5.459947589
 20
3.9423354569
 30
0.0
 10
5.4648581757
 20
3.9419972584
 30
0.0
 10
5.4673151839
 20
3.9419993367
 30
0.0
 10
5.468541201
 20
3.9420430697
 30
0.0
  0
SPLINE
  5
2EC
100
AcDbEntity
  8
ALL_FEATURES
100
AcDbSpline
 62
7
  6
CONTINUOUS
 70
0
 71
3
 72
23
 73
19
 74
0
 42
0.0000001
 43
0.0000001
 44
0.0000000001
 40
0.0
 40
0.0
 40
0.0
 40
0.0
 40
0.0618976863
 40
0.1289845603
 40
0.2001110382
 40
0.2741549112
 40
0.3119358934
 40
0.3500476928
 40
0.4267514878
 40
0.5032508775
 40
0.5785105954
 40
0.7210841498
 40
0.7862285258
 40
0.845673591
 40
0.8981748262
 40
0.9423727173
 40
0.9768037363
 40
1.0
 40
1.0
 40
1.0
 40
1.0
 10
5.4085980913
 20
3.9824978441
 30
0.0
 10
5.4080834967
 20
3.9826808673
 30
0.0
 10
5.4069991647
 20
3.9830293604
 30
0.0
 10
5.4052872632
 20
3.9834661263
 30
0.0
 10
5.4034481226
 20
3.9838253252
 30
0.0
 10
5.401847679
 20
3.984044087
 30
0.0
 10
5.400530005
 20
3.9841647931
 30
0.0
 10
5.3991858083
 20
3.9842463241
 30
0.0
 10
5.3974968938
 20
3.9842738065
 30
0.0
 10
5.3954815272
 20
3.9841917027
 30
0.0
 10
5.3928957152
 20
3.9839372892
 30
0.0
 10
5.3904358091
 20
3.9834700147
 30
0.0
 10
5.3881654305
 20
3.9828320558
 30
0.0
 10
5.3866873133
 20
3.9823219955
 30
0.0
 10
5.3854142177
 20
3.9817930895
 30
0.0
 10
5.3843717229
 20
3.9812897771
 30
0.0
 10
5.383584897
 20
3.9808548937
 30
0.0
 10
5.3831557201
 20
3.9805814927
 30
0.0
 10
5.3829871247
 20
3.9804654357
 30
0.0
  0
SPLINE
  5
2ED
100
AcDbEntity
  8
ALL_FEATURES
100
AcDbSpline
 62
7
  6
CONTINUOUS
 70
0
 71
3
 72
44
 73
40
 74
0
 42
0.0000001
 43
0.0000001
 44
0.0000000001
 40
0.0
 40
0.0
 40
0.0
 40
0.0
 40
0.0005533916
 40
0.0008314054
 40
0.000868141
 40
0.000899154
 40
0.0009974475
 40
0.0011626655
 40
0.0016924003
 40
0.0024854454
 40
0.0035389446
 40
0.0048496603
 40
0.0064134377
 40
0.0082260264
 40
0.0125807624
 40
0.0178805434
 40
0.024092597
 40
0.0311847734
 40
0.03912559
 40
0.0478842773
 40
0.057430828
 40
0.0787708372
 40
0.1029183174
 40
0.1296404802
 40
0.1587067888
 40
0.1898927025
 40
0.2229811175
 40
0.2577640403
 40
0.2940465489
 40
0.370349269
 40
0.4504136249
 40
0.4914122234
 40
0.5328230924
 40
0.6162072258
 40
0.6992290771
 40
0.780527574
 40
0.8587411364
 40
0.9324146845
 40
1.0
 40
1.0
 40
1.0
 40
1.0
 10
5.3827666743
 20
4.0997086061
 30
0.0
 10
5.3827628608
 20
4.099711749
 30
0.0
 10
5.3827561275
 20
4.0997171742
 30
0.0
 10
5.3827521356
 20
4.0997204962
 30
0.0
 10
5.382748188
 20
4.0997234892
 30
0.0
 10
5.3827499275
 20
4.099722006
 30
0.0
 10
5.382751516
 20
4.0997207701
 30
0.0
 10
5.382757457
 20
4.0997160346
 30
0.0
 10
5.3827676498
 20
4.099708197
 30
0.0
 10
5.3827847357
 20
4.0996952392
 30
0.0
 10
5.382807315
 20
4.0996785082
 30
0.0
 10
5.3828357113
 20
4.099657859
 30
0.0
 10
5.3828697594
 20
4.0996335365
 30
0.0
 10
5.382926253
 20
4.0995938458
 30
0.0
 10
5.3830107401
 20
4.0995359873
 30
0.0
 10
5.383128798
 20
4.0994576381
 30
0.0
 10
5.3832685546
 20
4.0993678108
 30
0.0
 10
5.383429659
 20
4.0992676149
 30
0.0
 10
5.3836117595
 20
4.0991581635
 30
0.0
 10
5.3838145054
 20
4.0990405683
 30
0.0
 10
5.3841235632
 20
4.0988678706
 30
0.0
 10
5.3845587014
 20
4.0986392377
 30
0.0
 10
5.3851396329
 20
4.0983591368
 30
0.0
 10
5.3857922843
 20
4.0980697643
 30
0.0
 10
5.3865119067
 20
4.0977772882
 30
0.0
 10
5.3872936713
 20
4.0974877835
 30
0.0
 10
5.3881327347
 20
4.0972072597
 30
0.0
 10
5.3890243875
 20
4.0969420699
 30
0.0
 10
5.390297795
 20
4.0966093111
 30
0.0
 10
5.3919825344
 20
4.0962553293
 30
0.0
 10
5.3937277738
 20
4.0960009211
 30
0.0
 10
5.3951721522
 20
4.0958614745
 30
0.0
 10
5.3966500142
 20
4.0957691975
 30
0.0
 10
5.3985069605
 20
4.095743965
 30
0.0
 10
5.400717659
 20
4.0958520172
 30
0.0
 10
5.4028712998
 20
4.0960956263
 30
0.0
 10
5.4049214309
 20
4.0964687732
 30
0.0
 10
5.4068249671
 20
4.0969399704
 30
0.0
 10
5.4080292198
 20
4.0973188637
 30
0.0
 10
5.4085981755
 20
4.0975201758
 30
0.0
  0
SPLINE
  5
2EE
100
AcDbEntity
  8
ALL_FEATURES
100
AcDbSpline
 62
7
  6
CONTINUOUS
 70
0
 71
3
 72
26
 73
22
 74
0
 42
0.0000001
 43
0.0000001
 44
0.0000000001
 40
0.0
 40
0.0
 40
0.0
 40
0.0
 40
0.0270680406
 40
0.054157816
 40
0.0813112519
 40
0.1085683037
 40
0.1635269286
 40
0.1913381248
 40
0.2194066402
 40
0.2764260167
 40
0.3348418115
 40
0.394822833
 40
0.4564700968
 40
0.519812714
 40
0.5848114986
 40
0.6513601877
 40
0.7192931799
 40
0.7883877643
 40
0.858401454
 40
0.9290667365
 40
1.0
 40
1.0
 40
1.0
 40
1.0
 10
5.4685255284
 20
4.137976397
 30
0.0
 10
5.4672996791
 20
4.1380197404
 30
0.0
 10
5.4648431047
 20
4.1380209552
 30
0.0
 10
5.4611644327
 20
4.1377665495
 30
0.0
 10
5.4575031999
 20
4.1372581014
 30
0.0
 10
5.4526493063
 20
4.136241601
 30
0.0
 10
5.4478820799
 20
4.1347221601
 30
0.0
 10
5.443264606
 20
4.1327390285
 30
0.0
 10
5.4386987577
 20
4.130423885
 30
0.0
 10
5.4331832472
 20
4.1269465755
 30
0.0
 10
5.4269848958
 20
4.1219436003
 30
0.0
 10
5.4212202443
 20
4.1161483531
 30
0.0
 10
5.4159359051
 20
4.1096243408
 30
0.0
 10
5.4111707203
 20
4.1024391131
 30
0.0
 10
5.4069619576
 20
4.0946621869
 30
0.0
 10
5.4033412028
 20
4.0863682138
 30
0.0
 10
5.4003377016
 20
4.0776355272
 30
0.0
 10
5.3979749713
 20
4.0685464231
 30
0.0
 10
5.3962726175
 20
4.0591851662
 30
0.0
 10
5.3952466938
 20
4.0496428486
 30
0.0
 10
5.3950173635
 20
4.0432238325
 30
0.0
 10
5.3950173635
 20
4.0400094207
 30
0.0
  0
SPLINE
  5
2EF
100
AcDbEntity
  8
ALL_FEATURES
100
AcDbSpline
 62
7
  6
CONTINUOUS
 70
0
 71
3
 72
24
 73
20
 74
0
 42
0.0000001
 43
0.0000001
 44
0.0000000001
 40
0.0
 40
0.0
 40
0.0
 40
0.0
 40
0.071086608
 40
0.1419690317
 40
0.2122968149
 40
0.2818144785
 40
0.3503047724
 40
0.4175546414
 40
0.4833646284
 40
0.547576743
 40
0.6100708811
 40
0.6406552823
 40
0.6707867476
 40
0.7296704246
 40
0.7867657635
 40
0.8421631096
 40
0.8960145251
 40
0.9485359183
 40
1.0
 40
1.0
 40
1.0
 40
1.0
 10
5.4073564302
 20
4.0400094207
 30
0.0
 10
5.4073564302
 20
4.0426398738
 30
0.0
 10
5.407519207
 20
4.0478946438
 30
0.0
 10
5.4082462046
 20
4.0557214923
 30
0.0
 10
5.4094538465
 20
4.0634304078
 30
0.0
 10
5.4111310546
 20
4.0709603811
 30
0.0
 10
5.4132664251
 20
4.0782551343
 30
0.0
 10
5.4158423455
 20
4.0852605162
 30
0.0
 10
5.4188411399
 20
4.0919228719
 30
0.0
 10
5.4222392346
 20
4.0981914515
 30
0.0
 10
5.425405958
 20
4.1030830206
 30
0.0
 10
5.4281176192
 20
4.1067496649
 30
0.0
 10
5.4308980053
 20
4.110194242
 30
0.0
 10
5.4345656639
 20
4.1141773144
 30
0.0
 10
5.4392831005
 20
4.1184295888
 30
0.0
 10
5.4442478605
 20
4.1220861502
 30
0.0
 10
5.4494237567
 20
4.1251166892
 30
0.0
 10
5.4547696686
 20
4.127498271
 30
0.0
 10
5.4584526985
 20
4.1286485697
 30
0.0
 10
5.4603014075
 20
4.1291055462
 30
0.0
  0
SPLINE
  5
2F0
100
AcDbEntity
  8
ALL_FEATURES
100
AcDbSpline
 62
7
  6
CONTINUOUS
 70
0
 71
3
 72
26
 73
22
 74
0
 42
0.0000001
 43
0.0000001
 44
0.0000000001
 40
0.0
 40
0.0
 40
0.0
 40
0.0
 40
0.0717725106
 40
0.1432970064
 40
0.2141974913
 40
0.2842038226
 40
0.3530700677
 40
0.4205544361
 40
0.4864485921
 40
0.550590743
 40
0.6128665732
 40
0.6732152419
 40
0.7316399486
 40
0.7601595078
 40
0.7882302477
 40
0.8430924342
 40
0.8964626604
 40
0.9226888786
 40
0.9486563319
 40
0.9744103422
 40
1.0
 40
1.0
 40
1.0
 40
1.0
 10
5.404458296
 20
4.0400094207
 30
0.0
 10
5.404458296
 20
4.0371123411
 30
0.0
 10
5.4046469204
 20
4.0313264496
 30
0.0
 10
5.4054901108
 20
4.0227157086
 30
0.0
 10
5.4068897593
 20
4.0142494283
 30
0.0
 10
5.4088321019
 20
4.006001017
 30
0.0
 10
5.4113018673
 20
3.9980387774
 30
0.0
 10
5.4142775652
 20
3.9904289593
 30
0.0
 10
5.4177357228
 20
3.9832362925
 30
0.0
 10
5.4216467343
 20
3.97652098
 30
0.0
 10
5.4259789033
 20
3.9703396594
 30
0.0
 10
5.4306959686
 20
3.9647447849
 30
0.0
 10
5.4349504664
 20
3.9605766859
 30
0.0
 10
5.4385075486
 20
3.9575903745
 30
0.0
 10
5.4421017258
 20
3.9548817768
 30
0.0
 10
5.4467574284
 20
3.9519278295
 30
0.0
 10
5.4516562556
 20
3.9495599555
 30
0.0
 10
5.4556476759
 20
3.9480617803
 30
0.0
 10
5.4586578895
 20
3.947139003
 30
0.0
 10
5.4616950765
 20
3.9464135798
 30
0.0
 10
5.4637391308
 20
3.9460614621
 30
0.0
 10
5.4647621862
 20
3.9459190478
 30
0.0
  0
SPLINE
  5
2F1
100
AcDbEntity
  8
ALL_FEATURES
100
AcDbSpline
 62
7
  6
CONTINUOUS
 70
0
 71
3
 72
26
 73
22
 74
0
 42
0.0000001
 43
0.0000001
 44
0.0000000001
 40
0.0
 40
0.0
 40
0.0
 40
0.0
 40
0.0717737599
 40
0.1432994379
 40
0.2142009769
 40
0.2842081908
 40
0.3530750963
 40
0.4205598595
 40
0.4864541276
 40
0.5505960991
 40
0.612871475
 40
0.6732194441
 40
0.7316432725
 40
0.7601623507
 40
0.7882326002
 40
0.8430938269
 40
0.8964632393
 40
0.9226891564
 40
0.9486563996
 40
0.9744103109
 40
1.0
 40
1.0
 40
1.0
 40
1.0
 10
5.404458296
 20
4.0400094207
 30
0.0
 10
5.404458296
 20
4.0429067757
 30
0.0
 10
5.404646956
 20
4.048693215
 30
0.0
 10
5.405490306
 20
4.057304758
 30
0.0
 10
5.4068902177
 20
4.0657717992
 30
0.0
 10
5.4088329229
 20
4.0740209102
 30
0.0
 10
5.411303143
 20
4.0819837701
 30
0.0
 10
5.4142793825
 20
4.0895941101
 30
0.0
 10
5.4177381564
 20
4.0967871851
 30
0.0
 10
5.4216498521
 20
4.1035027757
 30
0.0
 10
5.4259827576
 20
4.1096842335
 30
0.0
 10
5.4307006036
 20
4.1152790894
 30
0.0
 10
5.4349557817
 20
4.1194470408
 30
0.0
 10
5.4385134142
 20
4.1224331424
 30
0.0
 10
5.4421081313
 20
4.1251414755
 30
0.0
 10
5.4467645121
 20
4.1280949897
 30
0.0
 10
5.4516640075
 20
4.130462269
 30
0.0
 10
5.4556559359
 20
4.1319598817
 30
0.0
 10
5.4586665217
 20
4.1328821971
 30
0.0
 10
5.4617040679
 20
4.133607114
 30
0.0
 10
5.4637483463
 20
4.1339588657
 30
0.0
 10
5.4647715103
 20
4.1341010906
 30
0.0
  0
SPLINE
  5
2F2
100
AcDbEntity
  8
ALL_FEATURES
100
AcDbSpline
 62
7
  6
CONTINUOUS
 70
0
 71
3
 72
13
 73
9
 74
0
 42
0.0000001
 43
0.0000001
 44
0.0000000001
 40
0.0
 40
0.0
 40
0.0
 40
0.0
 40
0.1277358854
 40
0.2552160596
 40
0.4453290145
 40
0.6333708253
 40
0.8185104722
 40
1.0
 40
1.0
 40
1.0
 40
1.0
 10
5.2575911094
 20
4.0400094207
 30
0.0
 10
5.2575911094
 20
4.0421384182
 30
0.0
 10
5.2576891202
 20
4.0463928531
 30
0.0
 10
5.2582024774
 20
4.053799738
 30
0.0
 10
5.2592723102
 20
4.0621664688
 30
0.0
 10
5.2611209054
 20
4.071379416
 30
0.0
 10
5.2635959107
 20
4.0802950592
 30
0.0
 10
5.2656718849
 20
4.0860499549
 30
0.0
 10
5.266811024
 20
4.088852186
 30
0.0
  0
SPLINE
  5
2F3
100
AcDbEntity
  8
ALL_FEATURES
100
AcDbSpline
 62
7
  6
CONTINUOUS
 70
0
 71
3
 72
19
 73
15
 74
0
 42
0.0000001
 43
0.0000001
 44
0.0000000001
 40
0.0
 40
0.0
 40
0.0
 40
0.0
 40
0.141343504
 40
0.2781403849
 40
0.4100100632
 40
0.4740645834
 40
0.5368523164
 40
0.6586707986
 40
0.7178645027
 40
0.7759896911
 40
0.8331441919
 40
0.889441566
 40
0.9450112287
 40
1.0
 40
1.0
 40
1.0
 40
1.0
 10
5.266811024
 20
4.088852186
 30
0.0
 10
5.2680977571
 20
4.0920174917
 30
0.0
 10
5.2709124899
 20
4.0981367584
 30
0.0
 10
5.2759162862
 20
4.1067104548
 30
0.0
 10
5.2806809541
 20
4.1132122122
 30
0.0
 10
5.2847965443
 20
4.1179257002
 30
0.0
 10
5.2890099009
 20
4.1222165436
 30
0.0
 10
5.2935180625
 20
4.1260422417
 30
0.0
 10
5.2982798215
 20
4.1293264594
 30
0.0
 10
5.3019111904
 20
4.1314788474
 30
0.0
 10
5.3056235524
 20
4.1333366186
 30
0.0
 10
5.3094052046
 20
4.1348940147
 30
0.0
 10
5.3132439032
 20
4.1361447541
 30
0.0
 10
5.3158445413
 20
4.1367747552
 30
0.0
 10
5.3171478274
 20
4.1370364594
 30
0.0
  0
SPLINE
  5
2F4
100
AcDbEntity
  8
ALL_FEATURES
100
AcDbSpline
 62
7
  6
CONTINUOUS
 70
0
 71
3
 72
34
 73
30
 74
0
 42
0.0000001
 43
0.0000001
 44
0.0000000001
 40
0.0
 40
0.0
 40
0.0
 40
0.0
 40
0.075195884
 40
0.1486755165
 40
0.2198613771
 40
0.2883016691
 40
0.3214124982
 40
0.3537445079
 40
0.3852969448
 40
0.4160826274
 40
0.4461326684
 40
0.475493946
 40
0.504230847
 40
0.5324250666
 40
0.5601727428
 40
0.5875851859
 40
0.6147833212
 40
0.6418957186
 40
0.6690529685
 40
0.696384911
 40
0.7240151744
 40
0.7520585813
 40
0.7806161115
 40
0.8097737447
 40
0.8396015844
 40
0.8701512063
 40
0.9014589403
 40
0.9335425963
 40
1.0
 40
1.0
 40
1.0
 40
1.0
 10
5.2700603285
 20
4.0587125838
 30
0.0
 10
5.2706686641
 20
4.0629187597
 30
0.0
 10
5.272285953
 20
4.0711819317
 30
0.0
 10
5.2759312289
 20
4.0830852175
 30
0.0
 10
5.2807077753
 20
4.0941694043
 30
0.0
 10
5.2856141196
 20
4.1026414787
 30
0.0
 10
5.2900284962
 20
4.1087931668
 30
0.0
 10
5.293521336
 20
4.1130242223
 30
0.0
 10
5.2972141889
 20
4.1169025824
 30
0.0
 10
5.3010905072
 20
4.1204086702
 30
0.0
 10
5.3051311486
 20
4.1235257336
 30
0.0
 10
5.309316907
 20
4.1262383274
 30
0.0
 10
5.3136279514
 20
4.128532214
 30
0.0
 10
5.3180428083
 20
4.1303969983
 30
0.0
 10
5.3225406224
 20
4.1318215354
 30
0.0
 10
5.3270987673
 20
4.1327999002
 30
0.0
 10
5.3316950325
 20
4.1333258946
 30
0.0
 10
5.3363063604
 20
4.1333970452
 30
0.0
 10
5.3409098446
 20
4.1330135183
 30
0.0
 10
5.345482328
 20
4.1321760673
 30
0.0
 10
5.3500014865
 20
4.1308907619
 30
0.0
 10
5.3544446317
 20
4.1291627171
 30
0.0
 10
5.3587904348
 20
4.1270020726
 30
0.0
 10
5.36301764
 20
4.1244193213
 30
0.0
 10
5.3671056156
 20
4.1214272627
 30
0.0
 10
5.3710353211
 20
4.1180416334
 30
0.0
 10
5.3747873273
 20
4.1142778281
 30
0.0
 10
5.3795848724
 20
4.1087182758
 30
0.0
 10
5.3827780634
 20
4.1041292546
 30
0.0
 10
5.3847318098
 20
4.1009213217
 30
0.0
  0
SPLINE
  5
2F5
100
AcDbEntity
  8
ALL_FEATURES
100
AcDbSpline
 62
7
  6
CONTINUOUS
 70
0
 71
3
 72
32
 73
28
 74
0
 42
0.0000001
 43
0.0000001
 44
0.0000000001
 40
0.0
 40
0.0
 40
0.0
 40
0.0
 40
0.0704061892
 40
0.1383315462
 40
0.2037711356
 40
0.2356032284
 40
0.2668668935
 40
0.2975948959
 40
0.3278293482
 40
0.357620037
 40
0.3870229581
 40
0.4161018607
 40
0.4449265406
 40
0.4735707766
 40
0.5021123301
 40
0.5306306508
 40
0.5592053049
 40
0.5879154534
 40
0.6168372374
 40
0.6460428651
 40
0.6756000872
 40
0.7359693446
 40
0.7983805697
 40
0.8304557483
 40
0.8631336099
 40
0.9303217699
 40
1.0
 40
1.0
 40
1.0
 40
1.0
 10
5.3848971317
 20
3.9793701713
 30
0.0
 10
5.3834079937
 20
3.9769060211
 30
0.0
 10
5.3802542214
 20
3.9721968798
 30
0.0
 10
5.3749290244
 20
3.9657689634
 30
0.0
 10
5.3700653669
 20
3.9610570494
 30
0.0
 10
5.3659764336
 20
3.9577498252
 30
0.0
 10
5.3628493477
 20
3.9555222715
 30
0.0
 10
5.3596425435
 20
3.9535323014
 30
0.0
 10
5.3563650378
 20
3.9517854307
 30
0.0
 10
5.3530263025
 20
3.9502861776
 30
0.0
 10
5.3496354546
 20
3.9490394326
 30
0.0
 10
5.3462020946
 20
3.9480489682
 30
0.0
 10
5.3427361216
 20
3.9473169838
 30
0.0
 10
5.3392472213
 20
3.9468461195
 30
0.0
 10
5.3357453664
 20
3.9466381093
 30
0.0
 10
5.3322406131
 20
3.9466927503
 30
0.0
 10
5.3287429189
 20
3.9470102288
 30
0.0
 10
5.3252623753
 20
3.9475901616
 30
0.0
 10
5.3218088079
 20
3.9484299733
 30
0.0
 10
5.3183918323
 20
3.9495274827
 30
0.0
 10
5.3138673478
 20
3.9513430766
 30
0.0
 10
5.3083398998
 20
3.9542599508
 30
0.0
 10
5.3031552345
 20
3.9579258733
 30
0.0
 10
5.2991926373
 20
3.9612971582
 30
0.0
 10
5.2952916182
 20
3.9650286402
 30
0.0
 10
5.2906949001
 20
3.9702381142
 30
0.0
 10
5.2874411208
 20
3.9748051327
 30
0.0
 10
5.2858996232
 20
3.977201551
 30
0.0
  0
SPLINE
  5
2F6
100
AcDbEntity
  8
ALL_FEATURES
100
AcDbSpline
 62
7
  6
CONTINUOUS
 70
0
 71
3
 72
9
 73
5
 74
0
 42
0.0000001
 43
0.0000001
 44
0.0000000001
 40
0.0
 40
0.0
 40
0.0
 40
0.0
 40
0.245675067
 40
1.0
 40
1.0
 40
1.0
 40
1.0
 10
5.2849687716
 20
3.9786798346
 30
0.0
 10
5.2843848883
 20
3.9796271314
 30
0.0
 10
5.2820786376
 20
3.9835261366
 30
0.0
 10
5.2800514437
 20
3.9875888866
 30
0.0
 10
5.2786760413
 20
3.9907165386
 30
0.0
  0
SPLINE
  5
2F7
100
AcDbEntity
  8
ALL_FEATURES
100
AcDbSpline
 62
7
  6
CONTINUOUS
 70
0
 71
3
 72
11
 73
7
 74
0
 42
0.0000001
 43
0.0000001
 44
0.0000000001
 40
0.0
 40
0.0
 40
0.0
 40
0.0
 40
0.2430589952
 40
0.4289196558
 40
0.6173622883
 40
1.0
 40
1.0
 40
1.0
 40
1.0
 10
5.2786760413
 20
3.9907165386
 30
0.0
 10
5.2775081342
 20
3.9933723484
 30
0.0
 10
5.2756397013
 20
3.9981461855
 30
0.0
 10
5.2734237823
 20
4.0051780986
 30
0.0
 10
5.2711984705
 20
4.0139385795
 30
0.0
 10
5.2700708646
 20
4.0206792085
 30
0.0
 10
5.2695557842
 20
4.0252174114
 30
0.0
  0
SPLINE
  5
2F8
100
AcDbEntity
  8
ALL_FEATURES
100
AcDbSpline
 62
7
  6
CONTINUOUS
 70
0
 71
3
 72
18
 73
14
 74
0
 42
0.0000001
 43
0.0000001
 44
0.0000000001
 40
0.0
 40
0.0
 40
0.0
 40
0.0
 40
0.053303894
 40
0.1073318539
 40
0.1622949784
 40
0.2183730843
 40
0.3343450048
 40
0.3945312252
 40
0.4562268655
 40
0.5841071876
 40
0.7178371585
 40
0.8567831846
 40
1.0
 40
1.0
 40
1.0
 40
1.0
 10
5.3175002161
 20
3.9429129396
 30
0.0
 10
5.3158837539
 20
3.9432255649
 30
0.0
 10
5.312657672
 20
3.9440152616
 30
0.0
 10
5.3079179768
 20
3.9456687303
 30
0.0
 10
5.30327329
 20
3.9477894895
 30
0.0
 10
5.2971725764
 20
3.9512609039
 30
0.0
 10
5.2914186757
 20
3.9556078246
 30
0.0
 10
5.2861006613
 20
3.9606833577
 30
0.0
 10
5.280923062
 20
3.9664110594
 30
0.0
 10
5.2750330986
 20
3.9745157887
 30
0.0
 10
5.2690767627
 20
3.9853938149
 30
0.0
 10
5.2642559126
 20
3.9973292914
 30
0.0
 10
5.2618879055
 20
4.0057367219
 30
0.0
 10
5.26090855
 20
4.0100505352
 30
0.0
  0
SPLINE
  5
2F9
100
AcDbEntity
  8
ALL_FEATURES
100
AcDbSpline
 62
7
  6
CONTINUOUS
 70
0
 71
3
 72
9
 73
5
 74
0
 42
0.0000001
 43
0.0000001
 44
0.0000000001
 40
0.0
 40
0.0
 40
0.0
 40
0.0
 40
0.2476026912
 40
1.0
 40
1.0
 40
1.0
 40
1.0
 10
5.26090855
 20
4.0100505352
 30
0.0
 10
5.2603571334
 20
4.0124793859
 30
0.0
 10
5.2584141903
 20
4.022351589
 30
0.0
 10
5.2575911094
 20
4.0324409884
 30
0.0
 10
5.2575911094
 20
4.0400094207
 30
0.0
  0
SPLINE
  5
2FA
100
AcDbEntity
  8
ALL_FEATURES
100
AcDbSpline
 62
7
  6
CONTINUOUS
 70
0
 71
3
 72
16
 73
12
 74
0
 42
0.0000001
 43
0.0000001
 44
0.0000000001
 40
0.0
 40
0.0
 40
0.0
 40
0.0
 40
0.1312187653
 40
0.2618835617
 40
0.3912234985
 40
0.5186811587
 40
0.5815518756
 40
0.6437564268
 40
0.7659046909
 40
0.8847515667
 40
1.0
 40
1.0
 40
1.0
 40
1.0
 10
5.4295926036
 20
4.0400094207
 30
0.0
 10
5.4295926036
 20
4.0362829559
 30
0.0
 10
5.4298543092
 20
4.0288431502
 30
0.0
 10
5.4310245658
 20
4.0177856648
 30
0.0
 10
5.4329648013
 20
4.0069449508
 30
0.0
 10
5.4352163976
 20
3.9981409259
 30
0.0
 10
5.4373879211
 20
3.9913042768
 30
0.0
 10
5.4397707722
 20
3.9846986019
 30
0.0
 10
5.4431702623
 20
3.9767762797
 30
0.0
 10
5.4479233007
 20
3.9678324975
 30
0.0
 10
5.4515553125
 20
3.9622510888
 30
0.0
 10
5.4534693671
 20
3.9595961999
 30
0.0
  0
SPLINE
  5
2FB
100
AcDbEntity
  8
ALL_FEATURES
100
AcDbSpline
 62
7
  6
CONTINUOUS
 70
0
 71
3
 72
14
 73
10
 74
0
 42
0.0000001
 43
0.0000001
 44
0.0000000001
 40
0.0
 40
0.0
 40
0.0
 40
0.0
 40
0.1312414412
 40
0.2619475486
 40
0.3913264007
 40
0.518812979
 40
0.6438938366
 40
0.7660750153
 40
1.0
 40
1.0
 40
1.0
 40
1.0
 10
5.4208917464
 20
4.0400094207
 30
0.0
 10
5.4208917464
 20
4.0372340297
 30
0.0
 10
5.4210868267
 20
4.0316926183
 30
0.0
 10
5.4219582232
 20
4.0234565474
 30
0.0
 10
5.4234036072
 20
4.0153814834
 30
0.0
 10
5.4254064906
 20
4.0075492913
 30
0.0
 10
5.4279490171
 20
4.0000337943
 30
0.0
 10
5.4319627064
 20
3.9906767587
 30
0.0
 10
5.4357828422
 20
3.9841271544
 30
0.0
 10
5.4386760623
 20
3.980114584
 30
0.0
  0
SPLINE
  5
2FC
100
AcDbEntity
  8
ALL_FEATURES
100
AcDbSpline
 62
7
  6
CONTINUOUS
 70
0
 71
3
 72
16
 73
12
 74
0
 42
0.0000001
 43
0.0000001
 44
0.0000000001
 40
0.0
 40
0.0
 40
0.0
 40
0.0
 40
0.1312187653
 40
0.2618835617
 40
0.3912234985
 40
0.5186811587
 40
0.5815518756
 40
0.6437564268
 40
0.7659046909
 40
0.8847515667
 40
1.0
 40
1.0
 40
1.0
 40
1.0
 10
5.4295926036
 20
4.0400094207
 30
0.0
 10
5.4295926036
 20
4.0437358855
 30
0.0
 10
5.4298543092
 20
4.0511756912
 30
0.0
 10
5.4310245658
 20
4.0622331765
 30
0.0
 10
5.4329648013
 20
4.0730738906
 30
0.0
 10
5.4352163976
 20
4.0818779155
 30
0.0
 10
5.4373879211
 20
4.0887145646
 30
0.0
 10
5.4397707722
 20
4.0953202395
 30
0.0
 10
5.4431702623
 20
4.1032425617
 30
0.0
 10
5.4479233007
 20
4.1121863439
 30
0.0
 10
5.4515553125
 20
4.1177677526
 30
0.0
 10
5.4534693671
 20
4.1204226415
 30
0.0
  0
SPLINE
  5
2FD
100
AcDbEntity
  8
ALL_FEATURES
100
AcDbSpline
 62
7
  6
CONTINUOUS
 70
0
 71
3
 72
14
 73
10
 74
0
 42
0.0000001
 43
0.0000001
 44
0.0000000001
 40
0.0
 40
0.0
 40
0.0
 40
0.0
 40
0.1312414412
 40
0.2619475486
 40
0.3913264007
 40
0.518812979
 40
0.6438938366
 40
0.7660750153
 40
1.0
 40
1.0
 40
1.0
 40
1.0
 10
5.4208917464
 20
4.0400094207
 30
0.0
 10
5.4208917464
 20
4.0427848117
 30
0.0
 10
5.4210868267
 20
4.0483262231
 30
0.0
 10
5.4219582232
 20
4.056562294
 30
0.0
 10
5.4234036072
 20
4.064637358
 30
0.0
 10
5.4254064906
 20
4.0724695501
 30
0.0
 10
5.4279490171
 20
4.0799850471
 30
0.0
 10
5.4319627064
 20
4.0893420827
 30
0.0
 10
5.4357828422
 20
4.095891687
 30
0.0
 10
5.4386760623
 20
4.0999042574
 30
0.0
  0
SPLINE
  5
2FE
100
AcDbEntity
  8
ALL_FEATURES
100
AcDbSpline
 62
7
  6
CONTINUOUS
 70
0
 71
3
 72
24
 73
20
 74
0
 42
0.0000001
 43
0.0000001
 44
0.0000000001
 40
0.0
 40
0.0
 40
0.0
 40
0.0
 40
0.0710849877
 40
0.141965867
 40
0.212292262
 40
0.2818087398
 40
0.350298106
 40
0.4175473612
 40
0.4833570823
 40
0.547569285
 40
0.6100638647
 40
0.6406486052
 40
0.6707804848
 40
0.729665192
 40
0.7867617366
 40
0.8421603633
 40
0.8960129823
 40
0.9485353525
 40
1.0
 40
1.0
 40
1.0
 40
1.0
 10
5.4073564302
 20
4.0400094207
 30
0.0
 10
5.4073564302
 20
4.037379295
 30
0.0
 10
5.4075191667
 20
4.0321251767
 30
0.0
 10
5.4082459843
 20
4.0242992845
 30
0.0
 10
5.4094533282
 20
4.0165912809
 30
0.0
 10
5.4111301264
 20
4.0090621541
 30
0.0
 10
5.4132649796
 20
4.0017681615
 30
0.0
 10
5.4158402854
 20
3.9947634353
 30
0.0
 10
5.4188383734
 20
3.9881016106
 30
0.0
 10
5.4222356859
 20
3.981833423
 30
0.0
 10
5.4254016895
 20
3.9769420584
 30
0.0
 10
5.4281127487
 20
3.9732754911
 30
0.0
 10
5.4308925341
 20
3.9698309232
 30
0.0
 10
5.4345594147
 20
3.9658477534
 30
0.0
 10
5.4392758848
 20
3.9615951828
 30
0.0
 10
5.4442396659
 20
3.9579381266
 30
0.0
 10
5.4494145946
 20
3.9549068982
 30
0.0
 10
5.4547595626
 20
3.9525244224
 30
0.0
 10
5.4584420064
 20
3.9513733844
 30
0.0
 10
5.4602904387
 20
3.950916008
 30
0.0
  0
SPLINE
  5
2FF
100
AcDbEntity
  8
0
100
AcDbSpline
 62
7
  6
CONTINUOUS
 70
0
 71
3
 72
20
 73
16
 74
0
 42
0.0000001
 43
0.0000001
 44
0.0000000001
 40
0.0
 40
0.0
 40
0.0
 40
0.0
 40
0.0685914559
 40
0.1370823738
 40
0.2728069115
 40
0.405871717
 40
0.5351673301
 40
0.5981156403
 40
0.6597745579
 40
0.7200645386
 40
0.7789323309
 40
0.8363448493
 40
0.8923018734
 40
0.9468324787
 40
1.0
 40
1.0
 40
1.0
 40
1.0
 10
4.9851307867
 20
4.0400094207
 30
0.0
 10
4.9851307867
 20
4.037436595
 30
0.0
 10
4.9849836671
 20
4.0322933471
 30
0.0
 10
4.9841110442
 20
4.0220936411
 30
0.0
 10
4.9819523946
 20
4.0095963553
 30
0.0
 10
4.9777001952
 20
3.9952479465
 30
0.0
 10
4.9728264844
 20
3.9840227788
 30
0.0
 10
4.9681983649
 20
3.9756925184
 30
0.0
 10
4.9644315537
 20
3.9698626474
 30
0.0
 10
4.9603613741
 20
3.9644303869
 30
0.0
 10
4.9560153691
 20
3.9594247315
 30
0.0
 10
4.9514195242
 20
3.9548750948
 30
0.0
 10
4.9466028965
 20
3.9508068531
 30
0.0
 10
4.9415960953
 20
3.9472431213
 30
0.0
 10
4.9381078697
 20
3.9451930001
 30
0.0
 10
4.9363438167
 20
3.9442627951
 30
0.0
  0
SPLINE
  5
300
100
AcDbEntity
  8
0
100
AcDbSpline
 62
7
  6
CONTINUOUS
 70
0
 71
3
 72
11
 73
7
 74
0
 42
0.0000001
 43
0.0000001
 44
0.0000000001
 40
0.0
 40
0.0
 40
0.0
 40
0.0
 40
0.2583476289
 40
0.51014961
 40
0.7568087272
 40
1.0
 40
1.0
 40
1.0
 40
1.0
 10
4.9363438167
 20
3.9442627951
 30
0.0
 10
4.9342639515
 20
3.9431660587
 30
0.0
 10
4.9300347177
 20
3.9412217352
 30
0.0
 10
4.9234681242
 20
3.9390899277
 30
0.0
 10
4.9168255161
 20
3.9377993125
 30
0.0
 10
4.9123621366
 20
3.9375096992
 30
0.0
 10
4.9101487674
 20
3.9375096991
 30
0.0
  0
SPLINE
  5
301
100
AcDbEntity
  8
ALL_FEATURES
100
AcDbSpline
 62
7
  6
CONTINUOUS
 70
0
 71
3
 72
10
 73
6
 74
0
 42
0.0000001
 43
0.0000001
 44
0.0000000001
 40
0.0
 40
0.0
 40
0.0
 40
0.0
 40
0.2519179282
 40
0.5032569022
 40
1.0
 40
1.0
 40
1.0
 40
1.0
 10
5.2539220083
 20
4.0400094207
 30
0.0
 10
5.2539220083
 20
4.0429156625
 30
0.0
 10
5.254109471
 20
4.0487236575
 30
0.0
 10
5.2552201224
 20
4.0602112242
 30
0.0
 10
5.256884852
 20
4.0687130536
 30
0.0
 10
5.2583619919
 20
4.0742500656
 30
0.0
  0
SPLINE
  5
302
100
AcDbEntity
  8
ALL_FEATURES
100
AcDbSpline
 62
7
  6
CONTINUOUS
 70
0
 71
3
 72
15
 73
11
 74
0
 42
0.0000001
 43
0.0000001
 44
0.0000000001
 40
0.0
 40
0.0
 40
0.0
 40
0.0
 40
0.1375711125
 40
0.2723540713
 40
0.4037991339
 40
0.5314609216
 40
0.6550135976
 40
0.7742670269
 40
0.889204218
 40
1.0
 40
1.0
 40
1.0
 40
1.0
 10
5.2583619919
 20
4.0742500656
 30
0.0
 10
5.2592823584
 20
4.0777000304
 30
0.0
 10
5.2613934427
 20
4.0844570719
 30
0.0
 10
5.2653829317
 20
4.0941627955
 30
0.0
 10
5.2701169839
 20
4.1032406652
 30
0.0
 10
5.2755318043
 20
4.111585263
 30
0.0
 10
5.2815562722
 20
4.1191011555
 30
0.0
 10
5.2881148002
 20
4.1257007058
 30
0.0
 10
5.295121933
 20
4.131306439
 30
0.0
 10
5.3001249205
 20
4.1343910641
 30
0.0
 10
5.302667559
 20
4.135734378
 30
0.0
  0
SPLINE
  5
303
100
AcDbEntity
  8
ALL_FEATURES
100
AcDbSpline
 62
7
  6
CONTINUOUS
 70
0
 71
3
 72
11
 73
7
 74
0
 42
0.0000001
 43
0.0000001
 44
0.0000000001
 40
0.0
 40
0.0
 40
0.0
 40
0.0
 40
0.2583401669
 40
0.5101667819
 40
0.7569055748
 40
1.0
 40
1.0
 40
1.0
 40
1.0
 10
5.302667559
 20
4.135734378
 30
0.0
 10
5.3047500604
 20
4.1368345946
 30
0.0
 10
5.3089856849
 20
4.1387844313
 30
0.0
 10
5.315562965
 20
4.1409248059
 30
0.0
 10
5.3222171003
 20
4.1422173602
 30
0.0
 10
5.326687814
 20
4.1425094207
 30
0.0
 10
5.328904088
 20
4.1425094207
 30
0.0
  0
SPLINE
  5
304
100
AcDbEntity
  8
0
100
AcDbSpline
 62
7
  6
CONTINUOUS
 70
0
 71
3
 72
11
 73
7
 74
0
 42
0.0000001
 43
0.0000001
 44
0.0000000001
 40
0.0
 40
0.0
 40
0.0
 40
0.0
 40
0.2431912036
 40
0.4898503271
 40
0.7416523453
 40
1.0
 40
1.0
 40
1.0
 40
1.0
 10
4.9101487674
 20
4.1425091426
 30
0.0
 10
4.9123621499
 20
4.1425091426
 30
0.0
 10
4.9168255571
 20
4.1422195251
 30
0.0
 10
4.9234682059
 20
4.1409288944
 30
0.0
 10
4.9300348378
 20
4.1387970609
 30
0.0
 10
4.9342640943
 20
4.1368527148
 30
0.0
 10
4.9363439702
 20
4.135755966
 30
0.0
  0
SPLINE
  5
305
100
AcDbEntity
  8
0
100
AcDbSpline
 62
7
  6
CONTINUOUS
 70
0
 71
3
 72
20
 73
16
 74
0
 42
0.0000001
 43
0.0000001
 44
0.0000000001
 40
0.0
 40
0.0
 40
0.0
 40
0.0
 40
0.0531674809
 40
0.1076980494
 40
0.1636550194
 40
0.2210674674
 40
0.279935158
 40
0.340225035
 40
0.4018838693
 40
0.4648321101
 40
0.5941276732
 40
0.7271922819
 40
0.8629171723
 40
0.9314084224
 40
1.0
 40
1.0
 40
1.0
 40
1.0
 10
4.9363439702
 20
4.135755966
 30
0.0
 10
4.9381080167
 20
4.1348257587
 30
0.0
 10
4.9415962293
 20
4.1327756333
 30
0.0
 10
4.9466030101
 20
4.129211898
 30
0.0
 10
4.9514196204
 20
4.1251436601
 30
0.0
 10
4.9560154432
 20
4.1205940274
 30
0.0
 10
4.9603614318
 20
4.1155883851
 30
0.0
 10
4.964431593
 20
4.1101561372
 30
0.0
 10
4.9681983885
 20
4.1043262805
 30
0.0
 10
4.9728264988
 20
4.0959960404
 30
0.0
 10
4.9777001886
 20
4.0847708973
 30
0.0
 10
4.9819523954
 20
4.0704225108
 30
0.0
 10
4.984111034
 20
4.0579252238
 30
0.0
 10
4.9849836618
 20
4.047725504
 30
0.0
 10
4.9851307867
 20
4.042582247
 30
0.0
 10
4.9851307867
 20
4.0400094207
 30
0.0
  0
SPLINE
  5
306
100
AcDbEntity
  8
ALL_FEATURES
100
AcDbSpline
 62
7
  6
CONTINUOUS
 70
0
 71
3
 72
11
 73
7
 74
0
 42
0.0000001
 43
0.0000001
 44
0.0000000001
 40
0.0
 40
0.0
 40
0.0
 40
0.0
 40
0.2430871857
 40
0.4898256955
 40
0.7416556431
 40
1.0
 40
1.0
 40
1.0
 40
1.0
 10
5.328904088
 20
3.9375094207
 30
0.0
 10
5.326686753
 20
3.9375094207
 30
0.0
 10
5.3222138328
 20
3.9378018006
 30
0.0
 10
5.315556448
 20
3.9390955796
 30
0.0
 10
5.3089760644
 20
3.9412380482
 30
0.0
 10
5.3047385914
 20
3.9431897239
 30
0.0
 10
5.3026552322
 20
3.9442909629
 30
0.0
  0
SPLINE
  5
307
100
AcDbEntity
  8
ALL_FEATURES
100
AcDbSpline
 62
7
  6
CONTINUOUS
 70
0
 71
3
 72
17
 73
13
 74
0
 42
0.0000001
 43
0.0000001
 44
0.0000000001
 40
0.0
 40
0.0
 40
0.0
 40
0.0
 40
0.1083802092
 40
0.1645518742
 40
0.2220651792
 40
0.341048894
 40
0.4651902441
 40
0.5939761364
 40
0.6599116825
 40
0.7267093939
 40
0.8623578226
 40
1.0
 40
1.0
 40
1.0
 40
1.0
 10
5.3026552322
 20
3.9442909629
 30
0.0
 10
5.2993923938
 20
3.9460156606
 30
0.0
 10
5.2946531496
 20
3.9490635359
 30
0.0
 10
5.2887942465
 20
3.9538509286
 30
0.0
 10
5.2830365186
 20
3.9593032508
 30
0.0
 10
5.2763693065
 20
3.9671168655
 30
0.0
 10
5.2694397693
 20
3.9777544284
 30
0.0
 10
5.264636292
 20
3.9875222956
 30
0.0
 10
5.2613970021
 20
3.9958217086
 30
0.0
 10
5.2585513734
 20
4.0045110076
 30
0.0
 10
5.2558595396
 20
4.0157987415
 30
0.0
 10
5.2546692749
 20
4.0250484421
 30
0.0
 10
5.2543133525
 20
4.0297219763
 30
0.0
  0
SPLINE
  5
308
100
AcDbEntity
  8
ALL_FEATURES
100
AcDbSpline
 62
7
  6
CONTINUOUS
 70
0
 71
3
 72
19
 73
15
 74
0
 42
0.0000001
 43
0.0000001
 44
0.0000000001
 40
0.0
 40
0.0
 40
0.0
 40
0.0
 40
0.0566156569
 40
0.1132516488
 40
0.170084815
 40
0.2273037206
 40
0.2851202089
 40
0.3437355153
 40
0.4639647141
 40
0.5892008248
 40
0.720148722
 40
0.7879013335
 40
0.8571550268
 40
1.0
 40
1.0
 40
1.0
 40
1.0
 10
5.328904088
 20
4.1425094207
 30
0.0
 10
5.3303726129
 20
4.1425094207
 30
0.0
 10
5.3333117797
 20
4.1423823002
 30
0.0
 10
5.3376916171
 20
4.1418108154
 30
0.0
 10
5.3420215233
 20
4.1408605348
 30
0.0
 10
5.3462830607
 20
4.1395337168
 30
0.0
 10
5.350461322
 20
4.137837161
 30
0.0
 10
5.3559464252
 20
4.1350681833
 30
0.0
 10
5.3625401395
 20
4.1306781569
 30
0.0
 10
5.369812455
 20
4.1241182463
 30
0.0
 10
5.3752656551
 20
4.1176939953
 30
0.0
 10
5.3792735386
 20
4.1120117483
 30
0.0
 10
5.3831122905
 20
4.105847217
 30
0.0
 10
5.3856290112
 20
4.1009400837
 30
0.0
 10
5.3871566615
 20
4.0975644845
 30
0.0
  0
SPLINE
  5
309
100
AcDbEntity
  8
ALL_FEATURES
100
AcDbSpline
 62
7
  6
CONTINUOUS
 70
0
 71
3
 72
19
 73
15
 74
0
 42
0.0000001
 43
0.0000001
 44
0.0000000001
 40
0.0
 40
0.0
 40
0.0
 40
0.0
 40
0.1428438102
 40
0.2120967815
 40
0.2798485783
 40
0.410794599
 40
0.5360293918
 40
0.6562585665
 40
0.7148744004
 40
0.7726920728
 40
0.8299125933
 40
0.8867473229
 40
0.9433841581
 40
1.0
 40
1.0
 40
1.0
 40
1.0
 10
5.3871556322
 20
3.9824520981
 30
0.0
 10
5.385627975
 20
3.9790766649
 30
0.0
 10
5.3831112454
 20
3.9741697891
 30
0.0
 10
5.3792725335
 20
3.9680055889
 30
0.0
 10
5.3752647361
 20
3.9623236617
 30
0.0
 10
5.3698116679
 20
3.9558997844
 30
0.0
 10
5.3625395275
 20
3.9493402826
 30
0.0
 10
5.3559460467
 20
3.9449503987
 30
0.0
 10
5.3504610372
 20
3.9421815721
 30
0.0
 10
5.3462828296
 20
3.9404850405
 30
0.0
 10
5.3420213123
 20
3.9391582511
 30
0.0
 10
5.3376914335
 20
3.9382080214
 30
0.0
 10
5.3333116707
 20
3.9376365422
 30
0.0
 10
5.3303725709
 20
3.9375094207
 30
0.0
 10
5.328904088
 20
3.9375094207
 30
0.0
  0
SPLINE
  5
30A
100
AcDbEntity
  8
0
100
AcDbSpline
 62
7
  6
CONTINUOUS
 70
0
 71
3
 72
21
 73
17
 74
0
 42
0.0000001
 43
0.0000001
 44
0.0000000001
 40
0.0
 40
0.0
 40
0.0
 40
0.0
 40
0.0569003741
 40
0.1137669393
 40
0.1708062211
 40
0.2282218655
 40
0.286208974
 40
0.3449527548
 40
0.4046212879
 40
0.4653637013
 40
0.5273079761
 40
0.5905548583
 40
0.6551827566
 40
0.7212473149
 40
0.8577188729
 40
1.0
 40
1.0
 40
1.0
 40
1.0
 10
4.9101487674
 20
3.9375096991
 30
0.0
 10
4.9087198594
 20
3.9375096991
 30
0.0
 10
4.9058614092
 20
3.9376291743
 30
0.0
 10
4.9016013316
 20
3.9381696242
 30
0.0
 10
4.8973889175
 20
3.9390691665
 30
0.0
 10
4.8932389139
 20
3.940323203
 30
0.0
 10
4.8891656169
 20
3.9419280442
 30
0.0
 10
4.8851829801
 20
3.9438780279
 30
0.0
 10
4.881303417
 20
3.9461647555
 30
0.0
 10
4.8775396874
 20
3.9487806382
 30
0.0
 10
4.8739040289
 20
3.9517165921
 30
0.0
 10
4.870406866
 20
3.9549610182
 30
0.0
 10
4.8670590637
 20
3.9585029709
 30
0.0
 10
4.8627629758
 20
3.9636611248
 30
0.0
 10
4.8578316196
 20
3.9708033569
 30
0.0
 10
4.8544948361
 20
3.9769730541
 30
0.0
 10
4.8529492552
 20
3.9801944997
 30
0.0
  0
SPLINE
  5
30B
100
AcDbEntity
  8
0
100
AcDbSpline
 62
7
  6
CONTINUOUS
 70
0
 71
3
 72
10
 73
6
 74
0
 42
0.0000001
 43
0.0000001
 44
0.0000000001
 40
0.0
 40
0.0
 40
0.0
 40
0.0
 40
0.2455325413
 40
0.4937106237
 40
1.0
 40
1.0
 40
1.0
 40
1.0
 10
4.9104370034
 20
3.9387186778
 30
0.0
 10
4.9091165001
 20
3.9390079637
 30
0.0
 10
4.9064822842
 20
3.9396916788
 30
0.0
 10
4.9012684015
 20
3.9414706999
 30
0.0
 10
4.8974914602
 20
3.9432437843
 30
0.0
 10
4.8950542454
 20
3.9445965251
 30
0.0
  0
SPLINE
  5
30C
100
AcDbEntity
  8
0
100
AcDbSpline
 62
7
  6
CONTINUOUS
 70
0
 71
3
 72
21
 73
17
 74
0
 42
0.0000001
 43
0.0000001
 44
0.0000000001
 40
0.0
 40
0.0
 40
0.0
 40
0.0
 40
0.1420175182
 40
0.2782722996
 40
0.3442554321
 40
0.408824193
 40
0.4720365841
 40
0.533971647
 40
0.5947304954
 40
0.654440486
 40
0.7132486573
 40
0.7713203724
 40
0.8288370931
 40
0.885989558
 40
0.9429767102
 40
1.0
 40
1.0
 40
1.0
 40
1.0
 10
4.8534582668
 20
4.1008709937
 30
0.0
 10
4.8550107544
 20
4.1040204918
 30
0.0
 10
4.8583534525
 20
4.1100497859
 30
0.0
 10
4.8632701782
 20
4.1170215977
 30
0.0
 10
4.8675418569
 20
4.1220532609
 30
0.0
 10
4.8708663477
 20
4.1255074164
 30
0.0
 10
4.8743347358
 20
4.1286704954
 30
0.0
 10
4.8779367036
 20
4.1315319299
 30
0.0
 10
4.8816621701
 20
4.1340806333
 30
0.0
 10
4.8854991788
 20
4.1363082259
 30
0.0
 10
4.8894355375
 20
4.1382073725
 30
0.0
 10
4.8934592824
 20
4.139770027
 30
0.0
 10
4.8975569187
 20
4.1409910102
 30
0.0
 10
4.9017147426
 20
4.1418667476
 30
0.0
 10
4.9059185783
 20
4.1423928325
 30
0.0
 10
4.9087388811
 20
4.1425091426
 30
0.0
 10
4.9101487674
 20
4.1425091426
 30
0.0
  0
SPLINE
  5
30D
100
AcDbEntity
  8
0
100
AcDbSpline
 62
7
  6
CONTINUOUS
 70
0
 71
3
 72
10
 73
6
 74
0
 42
0.0000001
 43
0.0000001
 44
0.0000000001
 40
0.0
 40
0.0
 40
0.0
 40
0.0
 40
0.2455377822
 40
0.4937181587
 40
1.0
 40
1.0
 40
1.0
 40
1.0
 10
4.9104370029
 20
4.1413001635
 30
0.0
 10
4.9091177242
 20
4.1410111459
 30
0.0
 10
4.9064859487
 20
4.1403281644
 30
0.0
 10
4.9012768351
 20
4.1385513703
 30
0.0
 10
4.8975031774
 20
4.1367807488
 30
0.0
 10
4.8950679677
 20
4.1354299303
 30
0.0
  0
SPLINE
  5
30E
100
AcDbEntity
  8
ALL_FEATURES
100
AcDbSpline
 62
7
  6
CONTINUOUS
 70
0
 71
3
 72
10
 73
6
 74
0
 42
0.0000001
 43
0.0000001
 44
0.0000000001
 40
0.0
 40
0.0
 40
0.0
 40
0.0
 40
0.5062854666
 40
0.7544647469
 40
1.0
 40
1.0
 40
1.0
 40
1.0
 10
5.3439915794
 20
4.1354261844
 30
0.0
 10
5.3415554328
 20
4.136777921
 30
0.0
 10
5.3377802394
 20
4.1385497229
 30
0.0
 10
5.3325688919
 20
4.1403275965
 30
0.0
 10
5.3299359725
 20
4.1410109396
 30
0.0
 10
5.3286161196
 20
4.1413000917
 30
0.0
  0
SPLINE
  5
30F
100
AcDbEntity
  8
ALL_FEATURES
100
AcDbSpline
 62
7
  6
CONTINUOUS
 70
0
 71
3
 72
10
 73
6
 74
0
 42
0.0000001
 43
0.0000001
 44
0.0000000001
 40
0.0
 40
0.0
 40
0.0
 40
0.0
 40
0.5062904874
 40
0.7544682391
 40
1.0
 40
1.0
 40
1.0
 40
1.0
 10
5.3440007219
 20
3.9445977309
 30
0.0
 10
5.3415632396
 20
3.9432447132
 30
0.0
 10
5.3377858586
 20
3.94147127
 30
0.0
 10
5.3325713336
 20
3.9396919125
 30
0.0
 10
5.3299367884
 20
3.9390080806
 30
0.0
 10
5.3286161196
 20
3.9387187496
 30
0.0
  0
SPLINE
  5
310
100
AcDbEntity
  8
ALL_ASSEMBLY_MEMBERS
100
AcDbSpline
 62
7
  6
CONTINUOUS
 70
0
 71
3
 72
9
 73
5
 74
0
 42
0.0000001
 43
0.0000001
 44
0.0000000001
 40
0.0
 40
0.0
 40
0.0
 40
0.0
 40
0.4999657991
 40
1.0
 40
1.0
 40
1.0
 40
1.0
 10
5.1239119355
 20
5.5848704646
 30
0.0
 10
5.1232321054
 20
5.5852016221
 30
0.0
 10
5.1217925103
 20
5.585708311
 30
0.0
 10
5.120276465
 20
5.5858931573
 30
0.0
 10
5.1195201642
 20
5.5858931573
 30
0.0
  0
LINE
  5
311
100
AcDbEntity
  8
ALL_ASSEMBLY_MEMBERS
100
AcDbLine
 62
7
  6
CONTINUOUS
 10
5.1195201642
 20
5.5858931573
 11
5.1168370977
 21
5.5855150309
  0
SPLINE
  5
312
100
AcDbEntity
  8
ALL_ASSEMBLY_MEMBERS
100
AcDbSpline
 62
7
  6
CONTINUOUS
 70
0
 71
3
 72
19
 73
15
 74
0
 42
0.0000001
 43
0.0000001
 44
0.0000000001
 40
0.0
 40
0.0
 40
0.0
 40
0.0
 40
0.1248897374
 40
0.1874284864
 40
0.2499423405
 40
0.3748263175
 40
0.4996987803
 40
0.5622219563
 40
0.6247539668
 40
0.6872683074
 40
0.7497784126
 40
0.8123512284
 40
0.8750150897
 40
1.0
 40
1.0
 40
1.0
 40
1.0
 10
5.1095269129
 20
5.4958834364
 30
0.0
 10
5.1095269129
 20
5.4952303893
 30
0.0
 10
5.1096237783
 20
5.4942468082
 30
0.0
 10
5.1099416208
 20
5.4929775539
 30
0.0
 10
5.110382145
 20
5.4917450846
 30
0.0
 10
5.1111564147
 20
5.490294843
 30
0.0
 10
5.1121991373
 20
5.4890236827
 30
0.0
 10
5.1131682553
 20
5.4881443173
 30
0.0
 10
5.1139569007
 20
5.4875584641
 30
0.0
 10
5.1147992339
 20
5.4870530424
 30
0.0
 10
5.1156876341
 20
5.486633481
 30
0.0
 10
5.1166132572
 20
5.4863014533
 30
0.0
 10
5.117882233
 20
5.4859778935
 30
0.0
 10
5.1188666765
 20
5.4858737186
 30
0.0
 10
5.1195202212
 20
5.4858737186
 30
0.0
  0
SPLINE
  5
313
100
AcDbEntity
  8
ALL_ASSEMBLY_MEMBERS
100
AcDbSpline
 62
7
  6
CONTINUOUS
 70
0
 71
3
 72
19
 73
15
 74
0
 42
0.0000001
 43
0.0000001
 44
0.0000000001
 40
0.0
 40
0.0
 40
0.0
 40
0.0
 40
0.1249225465
 40
0.1875115499
 40
0.2500366903
 40
0.3125439719
 40
0.3750791332
 40
0.4376254688
 40
0.5001629066
 40
0.625079081
 40
0.7499938268
 40
0.8125248195
 40
0.8750850005
 40
1.0
 40
1.0
 40
1.0
 40
1.0
 10
5.1195202212
 20
5.4858737186
 30
0.0
 10
5.1201739427
 20
5.4858737186
 30
0.0
 10
5.1211582751
 20
5.4859779423
 30
0.0
 10
5.1224279787
 20
5.4862985805
 30
0.0
 10
5.1233545166
 20
5.4866284454
 30
0.0
 10
5.1242438747
 20
5.4870474674
 30
0.0
 10
5.1250873286
 20
5.4875527998
 30
0.0
 10
5.1258773829
 20
5.488138452
 30
0.0
 10
5.1268482877
 20
5.4890179203
 30
0.0
 10
5.127893056
 20
5.4902896716
 30
0.0
 10
5.128668907
 20
5.4917410756
 30
0.0
 10
5.1291103548
 20
5.4929746768
 30
0.0
 10
5.1294287734
 20
5.4942451727
 30
0.0
 10
5.1295258822
 20
5.4952297545
 30
0.0
 10
5.1295258822
 20
5.4958834364
 30
0.0
  0
SPLINE
  5
314
100
AcDbEntity
  8
ALL_ASSEMBLY_MEMBERS
100
AcDbSpline
 62
7
  6
CONTINUOUS
 70
0
 71
3
 72
23
 73
19
 74
0
 42
0.0000001
 43
0.0000001
 44
0.0000000001
 40
0.0
 40
0.0
 40
0.0
 40
0.0
 40
0.0625893885
 40
0.1251102677
 40
0.1875527483
 40
0.2499535194
 40
0.3123714707
 40
0.3748505065
 40
0.4374003327
 40
0.4999978173
 40
0.5625954682
 40
0.6251454571
 40
0.687624559
 40
0.7500419219
 40
0.812442246
 40
0.87488467
 40
0.9374076316
 40
1.0
 40
1.0
 40
1.0
 40
1.0
 10
5.1195263975
 20
4.9845094207
 30
0.0
 10
5.1250313108
 20
4.9845094207
 30
0.0
 10
5.1360739455
 20
4.9832707696
 30
0.0
 10
5.1517821423
 20
4.9778411016
 30
0.0
 10
5.1659716939
 20
4.9692258516
 30
0.0
 10
5.1781141677
 20
4.9579394365
 30
0.0
 10
5.1878583676
 20
4.9445352079
 30
0.0
 10
5.1949683217
 20
4.9295595414
 30
0.0
 10
5.1992924691
 20
4.9135438939
 30
0.0
 10
5.200743506
 20
4.8970099885
 30
0.0
 10
5.1992926688
 20
4.8804760509
 30
0.0
 10
5.1949687024
 20
4.8644603174
 30
0.0
 10
5.1878589344
 20
4.8494845994
 30
0.0
 10
5.1781149708
 20
4.8360803051
 30
0.0
 10
5.1659727254
 20
4.8247937962
 30
0.0
 10
5.151783227
 20
4.8161781803
 30
0.0
 10
5.1360746456
 20
4.8107482494
 30
0.0
 10
5.1250315729
 20
4.8095094207
 30
0.0
 10
5.1195263975
 20
4.8095094207
 30
0.0
  0
SPLINE
  5
315
100
AcDbEntity
  8
ALL_ASSEMBLY_MEMBERS
100
AcDbSpline
 62
7
  6
CONTINUOUS
 70
0
 71
3
 72
23
 73
19
 74
0
 42
0.0000001
 43
0.0000001
 44
0.0000000001
 40
0.0
 40
0.0
 40
0.0
 40
0.0
 40
0.0625891238
 40
0.1251098796
 40
0.1875524243
 40
0.2499532748
 40
0.3123713047
 40
0.3748503828
 40
0.4374002619
 40
0.4999978006
 40
0.5625955056
 40
0.6251455464
 40
0.6876246919
 40
0.7500421338
 40
0.812442537
 40
0.8748850255
 40
0.9374078717
 40
1.0
 40
1.0
 40
1.0
 40
1.0
 10
5.1195263975
 20
4.8095094207
 30
0.0
 10
5.1140215075
 20
4.8095094207
 30
0.0
 10
5.1029789064
 20
4.8107480571
 30
0.0
 10
5.0872707336
 20
4.8161777064
 30
0.0
 10
5.0730811679
 20
4.8247929363
 30
0.0
 10
5.0609386703
 20
4.8360793556
 30
0.0
 10
5.0511944507
 20
4.8494835921
 30
0.0
 10
5.0440844839
 20
4.8644592698
 30
0.0
 10
5.0397603283
 20
4.8804749289
 30
0.0
 10
5.0383092882
 20
4.8970088486
 30
0.0
 10
5.0397601271
 20
4.9135428005
 30
0.0
 10
5.0440841
 20
4.929558546
 30
0.0
 10
5.0511938795
 20
4.944534276
 30
0.0
 10
5.0609378614
 20
4.9579385792
 30
0.0
 10
5.0730801295
 20
4.9692250937
 30
0.0
 10
5.0872696416
 20
4.9778406915
 30
0.0
 10
5.1029782011
 20
4.9832706064
 30
0.0
 10
5.1140212432
 20
4.9845094207
 30
0.0
 10
5.1195263975
 20
4.9845094207
 30
0.0
  0
ENDSEC
  0
SECTION
  2
OBJECTS
  0
DICTIONARY
  5
C
100
AcDbDictionary
280
0
281
1
  3
ACAD_GROUP
350
D
  3
ACAD_MLINESTYLE
350
17
  3
ACAD_LAYOUT
350
1A
  3
ACAD_PLOTSETTINGS
350
19
  3
ACAD_PLOTSTYLENAME
350
E
  0
DICTIONARY
  5
D
102
{ACAD_REACTORS
330
C
102
}
100
AcDbDictionary
280
0
281
1
  0
ACDBDICTIONARYWDFLT
  5
E
102
{ACAD_REACTORS
330
C
102
}
100
AcDbDictionary
281
1
  3
Normal
350
F
100
AcDbDictionaryWithDefault
340
F
  0
DICTIONARY
  5
17
102
{ACAD_REACTORS
330
C
102
}
100
AcDbDictionary
280
0
281
1
  3
Standard
350
18
  0
DICTIONARY
  5
19
102
{ACAD_REACTORS
330
C
102
}
100
AcDbDictionary
281
1
  0
DICTIONARY
  5
1A
102
{ACAD_REACTORS
330
C
102
}
100
AcDbDictionary
281
1
  3
Model
350
316
  3
Layout1
350
317
  0
ACDBPLACEHOLDER
  5
F
102
{ACAD_REACTORS
330
E
102
}
  0
MLINESTYLE
  5
18
102
{ACAD_REACTORS
330
17
102
}
100
AcDbMlineStyle
  2
STANDARD
 70
0
  3

 62
256
 51
90.0
 52
90.0
 71
2
 49
0.5
 62
256
  6
BYLAYER
 49
-0.5
 62
256
  6
BYLAYER
  0
LAYOUT
  5
316
102
{ACAD_REACTORS
330
1A
102
}
100
AcDbPlotSettings
  1

  2
none_device
  4
ANSI_A_(11.00_x_8.50_Inches)
  6

 40
0.0
 41
0.0
 42
0.0
 43
0.0
 44
279.4
 45
215.9
 46
0.0
 47
0.0
 48
0.0
 49
0.0
140
0.0
141
0.0
142
1.0
143
1.0
 70
1024
 72
0
 73
0
 74
0
  7

 75
0
147
1.0
148
0.0
149
0.0
100
AcDbLayout
  1
Model
 70
0
 71
0
 10
0.0
 20
0.0
 11
11.0
 21
8.5
 12
0.0
 22
0.0
 32
0.0
 14
0.0
 24
0.0
 34
0.0
 15
0.0
 25
0.0
 35
0.0
146
0.0
 13
0.0
 23
0.0
 33
0.0
 16
1.0
 26
0.0
 36
0.0
 17
0.0
 27
1.0
 37
0.0
 76
0
330
21F
345
0
346
0
  0
LAYOUT
  5
317
102
{ACAD_REACTORS
330
1A
102
}
100
AcDbPlotSettings
  1

  2
none_device
  4
ANSI_A_(11.00_x_8.50_Inches)
  6

 40
0.0
 41
0.0
 42
0.0
 43
0.0
 44
279.4
 45
215.9
 46
0.0
 47
0.0
 48
0.0
 49
0.0
140
0.0
141
0.0
142
1.0
143
1.0
 70
0
 72
0
 73
0
 74
0
  7

 75
0
147
1.0
148
0.0
149
0.0
100
AcDbLayout
  1
Layout1
 70
0
 71
1
 10
0.0
 20
0.0
 11
11.0
 21
8.5
 12
0.0
 22
0.0
 32
0.0
 14
0.0
 24
0.0
 34
0.0
 15
0.0
 25
0.0
 35
0.0
146
0.0
 13
0.0
 23
0.0
 33
0.0
 16
1.0
 26
0.0
 36
0.0
 17
0.0
 27
1.0
 37
0.0
 76
0
330
220
345
0
346
0
  0
ENDSEC
  0
EOF
