999
DXF file: E:\BT Custom\CADOUTPUT\_TOP.dxf
999
Pro/ENGINEER 2018400 by Parametric Technology Corporation
  0
SECTION
  2
HEADER
  9
$ACADVER
  1
AC1018
  9
$DWGCODEPAGE
  3
ANSI_1252
  9
$EXTMAX
 10
22.0
 20
17.0
 30
0.0
  9
$EXTMIN
 10
0.0
 20
0.0
 30
0.0
  9
$LIMMIN
 10
0.0
 20
0.0
  9
$LIMMAX
 10
22.0
 20
17.0
  9
$VIEWCTR
 10
11.0
 20
8.5
  9
$VIEWSIZE
 40
17.0
  9
$CLAYER
  8
0
  9
$LTSCALE
 40
1.21
  9
$CELTYPE
  6
BYLAYER
  9
$DIMSCALE
 40
1.0
  9
$DIMASZ
 40
0.1
  9
$DIMEXO
 40
0.0625
  9
$DIMDLI
 40
0.836
  9
$DIMEXE
 40
0.125
  9
$DIMCEN
 40
0.198
  9
$DIMLFAC
 40
1.0
  9
$DIMBLK
  1
_FILLED
  9
$DIMALT
 70
1
  9
$DIMALTD
 70
2
  9
$DIMALTTD
 70
2
  9
$DIMALTF
 40
25.4
  9
$DIMTXT
 40
0.08
  9
$DIMTOL
 70
1
  9
$DIMLIM
 70
0
  9
$DIMTFAC
 40
1.0
  9
$DIMTP
 40
0.001
  9
$DIMTM
 40
0.001
  9
$DIMGAP
 40
0.09
  9
$DIMDSEP
 70
46
  9
$AUNITS
 70
0
  9
$PDMODE
 70
3
  9
$PDSIZE
 40
0.06
  9
$HANDSEED
  5
381
  9
$TILEMODE
 70
1
  9
$MEASUREMENT
 70
0
  9
$INSUNITS
 70
1
  0
ENDSEC
  0
SECTION
  2
CLASSES
  0
CLASS
  1
ACDBDICTIONARYWDFLT
  2
AcDbDictionaryWithDefault
  3
AutoCAD 2000
 90
0
 91
1
280
0
281
0
  0
CLASS
  1
ACDBPLACEHOLDER
  2
AcDbPlaceHolder
  3
AutoCAD 2000
 90
0
 91
1
280
0
281
0
  0
CLASS
  1
LAYOUT
  2
AcDbLayout
  3
AutoCAD 2000
 90
0
 91
0
280
0
281
0
  0
ENDSEC
  0
SECTION
  2
TABLES
  0
TABLE
  2
VPORT
  5
8
100
AcDbSymbolTable
 70
2
  0
VPORT
  5
1F4
100
AcDbSymbolTableRecord
100
AcDbViewportTableRecord
  2
*ACTIVE
 70
0
 10
0.0
 20
0.0
 11
1.0
 21
1.0
 12
11.0
 22
8.5
 13
0.0
 23
0.0
 14
1.0
 24
1.0
 15
0.0
 25
0.0
 16
0.0
 26
0.0
 36
1.0
 17
0.0
 27
0.0
 37
0.0
 40
17.0
 41
1.2941176471
 42
50.0
 43
0.0
 44
0.0
 50
0.0
 51
0.0
 71
0
 72
100
 73
1
 74
1
 75
0
 76
0
 77
0
 78
0
  0
ENDTAB
  0
TABLE
  2
LTYPE
  5
5
100
AcDbSymbolTable
 70
6
  0
LTYPE
  5
14
100
AcDbSymbolTableRecord
100
AcDbLinetypeTableRecord
  2
BYBLOCK
 70
0
  3

 72
65
 73
0
 40
0.0
  0
LTYPE
  5
15
100
AcDbSymbolTableRecord
100
AcDbLinetypeTableRecord
  2
BYLAYER
 70
0
  3

 72
65
 73
0
 40
0.0
  0
LTYPE
  5
16
100
AcDbSymbolTableRecord
100
AcDbLinetypeTableRecord
  2
CONTINUOUS
 70
64
  3
Solid line
 72
65
 73
0
 40
0.0
  0
LTYPE
  5
1F5
100
AcDbSymbolTableRecord
100
AcDbLinetypeTableRecord
  2
CENTER
 70
64
  3
____ _ ____ _ ____ _ ____ _ ____ _ ____ _ ____
 72
65
 73
4
 40
0.6
 49
0.375
 74
0
 49
-0.075
 74
0
 49
0.075
 74
0
 49
-0.075
 74
0
  0
LTYPE
  5
1F6
100
AcDbSymbolTableRecord
100
AcDbLinetypeTableRecord
  2
HIDDEN
 70
64
  3
- - - - - - - - - - - - - - - - - - - -
 72
65
 73
2
 40
0.2
 49
0.1
 74
0
 49
-0.1
 74
0
  0
LTYPE
  5
1F7
100
AcDbSymbolTableRecord
100
AcDbLinetypeTableRecord
  2
PHANTOM
 70
64
  3
_____ _ _ _____ _ _ _____ _ _ _____
 72
65
 73
6
 40
0.8
 49
0.45
 74
0
 49
-0.05
 74
0
 49
0.1
 74
0
 49
-0.05
 74
0
 49
0.1
 74
0
 49
-0.05
 74
0
  0
LTYPE
  5
1F8
100
AcDbSymbolTableRecord
100
AcDbLinetypeTableRecord
  2
DOT
 70
64
  3
. . . . . . . . . . . . . . . . . . . .
 72
65
 73
2
 40
0.2
 49
0.1
 74
0
 49
-0.1
 74
0
  0
LTYPE
  5
1F9
100
AcDbSymbolTableRecord
100
AcDbLinetypeTableRecord
  2
DASHED
 70
64
  3
- - - - - - - - - - - - - - - - - - - -
 72
65
 73
2
 40
0.2
 49
0.1
 74
0
 49
-0.1
 74
0
  0
ENDTAB
  0
TABLE
  2
LAYER
  5
2
100
AcDbSymbolTable
 70
36
  0
LAYER
  5
10
100
AcDbSymbolTableRecord
100
AcDbLayerTableRecord
  2
0
 70
0
 62
7
  6
CONTINUOUS
370
-3
390
F
  0
LAYER
  5
1FA
100
AcDbSymbolTableRecord
100
AcDbLayerTableRecord
  2
DEFAULT_1
 70
0
 62
7
  6
CENTER
370
-3
390
F
  0
LAYER
  5
1FB
100
AcDbSymbolTableRecord
100
AcDbLayerTableRecord
  2
DEFAULT_2
 70
0
 62
8
  6
HIDDEN
370
-3
390
F
  0
LAYER
  5
1FC
100
AcDbSymbolTableRecord
100
AcDbLayerTableRecord
  2
DEFAULT_3
 70
0
 62
7
  6
PHANTOM
370
-3
390
F
  0
LAYER
  5
1FD
100
AcDbSymbolTableRecord
100
AcDbLayerTableRecord
  2
ALL_FEATURES
 70
0
 62
7
  6
CONTINUOUS
370
-3
390
F
  0
LAYER
  5
1FE
100
AcDbSymbolTableRecord
100
AcDbLayerTableRecord
  2
AXES_FEATURES
 70
0
 62
7
  6
CONTINUOUS
370
-3
390
F
  0
LAYER
  5
1FF
100
AcDbSymbolTableRecord
100
AcDbLayerTableRecord
  2
DEFAULT_COORDINATE_SYSTEM
 70
0
 62
7
  6
CONTINUOUS
370
-3
390
F
  0
LAYER
  5
200
100
AcDbSymbolTableRecord
100
AcDbLayerTableRecord
  2
DEFAULT_DATUM_AXES
 70
0
 62
7
  6
CONTINUOUS
370
-3
390
F
  0
LAYER
  5
201
100
AcDbSymbolTableRecord
100
AcDbLayerTableRecord
  2
DEFAULT_DATUM_PLANES
 70
0
 62
7
  6
CONTINUOUS
370
-3
390
F
  0
LAYER
  5
202
100
AcDbSymbolTableRecord
100
AcDbLayerTableRecord
  2
DIMENSIONS
 70
0
 62
7
  6
CONTINUOUS
370
-3
390
F
  0
ENDTAB
  0
TABLE
  2
STYLE
  5
3
100
AcDbSymbolTable
 70
1
  0
STYLE
  5
11
100
AcDbSymbolTableRecord
100
AcDbTextStyleTableRecord
  2
STANDARD
 70
0
 40
0.0
 41
0.8
 50
0.0
 71
0
 42
0.2
  3
txt
  4

  0
STYLE
  5
203
100
AcDbSymbolTableRecord
100
AcDbTextStyleTableRecord
  2
TEXTSTYLE_1
 70
0
 40
0.0
 41
0.8
 50
0.0
 71
0
 42
0.2
  3
gdt
  4

  0
ENDTAB
  0
TABLE
  2
VIEW
  5
6
100
AcDbSymbolTable
 70
0
  0
ENDTAB
  0
TABLE
  2
UCS
  5
7
100
AcDbSymbolTable
 70
0
  0
ENDTAB
  0
TABLE
  2
APPID
  5
9
100
AcDbSymbolTable
 70
1
  0
APPID
  5
204
100
AcDbSymbolTableRecord
100
AcDbRegAppTableRecord
  2
ACAD
 70
0
  0
ENDTAB
  0
TABLE
  2
BLOCK_RECORD
  5
1
100
AcDbSymbolTable
 70
0
  0
BLOCK_RECORD
  5
205
100
AcDbSymbolTableRecord
100
AcDbBlockTableRecord
  2
*Model_Space
  0
BLOCK_RECORD
  5
206
100
AcDbSymbolTableRecord
100
AcDbBlockTableRecord
  2
*Paper_Space
  0
BLOCK_RECORD
  5
207
100
AcDbSymbolTableRecord
100
AcDbBlockTableRecord
  2
_FILLED
  0
ENDTAB
  0
TABLE
  2
DIMSTYLE
  5
A
100
AcDbSymbolTable
 70
1
100
AcDbDimStyleTable
 71
0
  0
DIMSTYLE
105
208
100
AcDbSymbolTableRecord
100
AcDbDimStyleTableRecord
  2
STANDARD
 70
0
  3

  4

 40
1.0
 41
0.1
 42
0.0625
 43
0.38
 44
0.125
 45
0.0
 46
0.0
 47
0.001
 48
0.001
140
0.08
141
0.09
142
0.0
143
25.4
144
1.0
145
0.0
146
1.0
147
0.09
 71
1.0
 72
0.0
 73
1
 74
1
 75
0
 76
0
 77
0
 78
4
 79
1
170
1
171
2
172
0
173
0
174
0
175
0
176
0
177
0
178
0
270
2
179
3
271
3
272
3
273
2
274
2
275
0
280
0
281
0
282
0
283
1
284
4
285
0
286
0
287
3
288
0
340
11
278
46
341
207
342
207
343
207
344
207
  0
ENDTAB
  0
ENDSEC
  0
SECTION
  2
BLOCKS
  0
BLOCK
  5
20
100
AcDbEntity
  8
0
100
AcDbBlockBegin
  2
*Model_Space
 70
0
 10
0.0
 20
0.0
 30
0.0
  3
*Model_Space
  1

  0
ENDBLK
  5
21
100
AcDbEntity
  8
0
100
AcDbBlockEnd
  0
BLOCK
  5
1C
100
AcDbEntity
  8
0
100
AcDbBlockBegin
  2
*Paper_Space
 70
0
 10
0.0
 20
0.0
 30
0.0
  3
*Paper_Space
  1

  0
ENDBLK
  5
1D
100
AcDbEntity
  8
0
100
AcDbBlockEnd
  0
BLOCK
  5
209
100
AcDbEntity
  8
0
100
AcDbBlockBegin
  2
_FILLED
 70
64
 10
0.0
 20
0.0
  3
_FILLED
  1

  0
SOLID
  5
20A
100
AcDbEntity
  8
0
  6
BYBLOCK
 62
0
100
AcDbTrace
 10
0.0
 20
0.0
 11
-1.0
 21
0.2
 12
-1.0
 22
-0.2
 13
-1.0
 23
-0.2
  0
ENDBLK
  5
20B
100
AcDbEntity
  8
0
  6
BYBLOCK
 62
0
100
AcDbBlockEnd
  0
ENDSEC
  0
SECTION
  2
ENTITIES
  0
LINE
  5
20C
100
AcDbEntity
  8
0
100
AcDbLine
 62
7
  6
CONTINUOUS
 10
9.1423183383
 20
4.4277726261
 11
9.1423183383
 21
4.2983375589
  0
LINE
  5
20D
100
AcDbEntity
  8
0
100
AcDbLine
 62
7
  6
CONTINUOUS
 10
9.4273183383
 20
4.5851550294
 11
9.4273183383
 21
4.5611215783
  0
LINE
  5
20E
100
AcDbEntity
  8
0
100
AcDbLine
 62
7
  6
CONTINUOUS
 10
11.0463785112
 20
5.6342429401
 11
11.0483363447
 21
5.6342430763
  0
LINE
  5
20F
100
AcDbEntity
  8
0
100
AcDbLine
 62
7
  6
CONTINUOUS
 10
10.5173183372
 20
9.0542409797
 11
10.5091773221
 21
9.0401403279
  0
LINE
  5
210
100
AcDbEntity
  8
0
100
AcDbLine
 62
7
  6
CONTINUOUS
 10
10.4090192031
 20
9.2344510278
 11
10.3794326772
 21
9.1934141388
  0
LINE
  5
211
100
AcDbEntity
  8
0
100
AcDbLine
 62
7
  6
CONTINUOUS
 10
10.3598183383
 20
11.71600808
 11
10.3598183383
 21
11.5624663121
  0
LINE
  5
212
100
AcDbEntity
  8
0
100
AcDbLine
 62
7
  6
CONTINUOUS
 10
10.4723183383
 20
5.7208627351
 11
10.4723183383
 21
5.0561823608
  0
LINE
  5
213
100
AcDbEntity
  8
0
100
AcDbLine
 62
7
  6
CONTINUOUS
 10
10.5948183383
 20
6.2370506854
 11
10.5948183383
 21
6.009271898
  0
LINE
  5
214
100
AcDbEntity
  8
0
100
AcDbLine
 62
7
  6
CONTINUOUS
 10
10.6410683383
 20
12.0272409815
 11
10.6410683383
 21
6.4425903724
  0
LINE
  5
215
100
AcDbEntity
  8
0
100
AcDbLine
 62
7
  6
CONTINUOUS
 10
10.6410683383
 20
6.3603111206
 11
10.6410683383
 21
6.3430617337
  0
LINE
  5
216
100
AcDbEntity
  8
0
100
AcDbLine
 62
7
  6
CONTINUOUS
 10
10.6410683383
 20
6.3090921514
 11
10.6410683383
 21
6.2933337611
  0
LINE
  5
217
100
AcDbEntity
  8
0
100
AcDbLine
 62
7
  6
CONTINUOUS
 10
10.6410683383
 20
6.2578028553
 11
10.6410683383
 21
6.2435941639
  0
LINE
  5
218
100
AcDbEntity
  8
0
100
AcDbLine
 62
7
  6
CONTINUOUS
 10
10.6410685839
 20
6.411896237
 11
10.6410683383
 21
6.392860052
  0
LINE
  5
219
100
AcDbEntity
  8
0
100
AcDbLine
 62
7
  6
CONTINUOUS
 10
11.6856174734
 20
9.4740309352
 11
11.7152039994
 21
9.5150678242
  0
LINE
  5
21A
100
AcDbEntity
  8
0
100
AcDbLine
 62
7
  6
CONTINUOUS
 10
12.1992675002
 20
12.3773984034
 11
12.2323183383
 21
12.5072409815
  0
LINE
  5
21B
100
AcDbEntity
  8
0
100
AcDbLine
 62
7
  6
CONTINUOUS
 10
9.895982351
 20
12.0601173824
 11
9.8648183383
 21
12.1942409815
  0
LINE
  5
21C
100
AcDbEntity
  8
0
100
AcDbLine
 62
7
  6
CONTINUOUS
 10
11.1568904109
 20
5.8382189364
 11
11.1568904109
 21
5.6988284967
  0
LINE
  5
21D
100
AcDbEntity
  8
0
100
AcDbLine
 62
7
  6
CONTINUOUS
 10
11.1770814628
 20
5.3247651893
 11
11.1770814628
 21
5.0772778159
  0
LINE
  5
21E
100
AcDbEntity
  8
0
100
AcDbLine
 62
7
  6
CONTINUOUS
 10
11.3727462656
 20
5.92634172
 11
11.3727462656
 21
5.7869512803
  0
LINE
  5
21F
100
AcDbEntity
  8
0
100
AcDbLine
 62
7
  6
CONTINUOUS
 10
11.4535683383
 20
6.3859503799
 11
11.4535683383
 21
6.3679674467
  0
LINE
  5
220
100
AcDbEntity
  8
0
100
AcDbLine
 62
7
  6
CONTINUOUS
 10
11.4535683383
 20
6.3346950735
 11
11.4535683383
 21
6.3182772645
  0
LINE
  5
221
100
AcDbEntity
  8
0
100
AcDbLine
 62
7
  6
CONTINUOUS
 10
11.4535683383
 20
6.2833679713
 11
11.4535683383
 21
6.2684657949
  0
LINE
  5
222
100
AcDbEntity
  8
0
100
AcDbLine
 62
7
  6
CONTINUOUS
 10
11.4675552138
 20
5.4433506016
 11
11.4675552138
 21
5.1958632282
  0
LINE
  5
223
100
AcDbEntity
  8
0
100
AcDbLine
 62
7
  6
CONTINUOUS
 10
11.4998183383
 20
6.2370506854
 11
11.4998183383
 21
6.009271898
  0
LINE
  5
224
100
AcDbEntity
  8
0
100
AcDbLine
 62
7
  6
CONTINUOUS
 10
11.4535683383
 20
12.0272409815
 11
11.4535680927
 21
6.4422745175
  0
LINE
  5
225
100
AcDbEntity
  8
0
100
AcDbLine
 62
7
  6
CONTINUOUS
 10
12.1986543256
 20
12.0601173824
 11
12.2298183383
 21
12.1942409815
  0
LINE
  5
226
100
AcDbEntity
  8
0
100
AcDbLine
 62
7
  6
CONTINUOUS
 10
9.8953691763
 20
12.3773984034
 11
9.8623183383
 21
12.5072409815
  0
LINE
  5
227
100
AcDbEntity
  8
0
100
AcDbLine
 62
7
  6
CONTINUOUS
 10
11.6223183383
 20
5.7208627351
 11
11.6223183383
 21
5.0561823608
  0
LINE
  5
228
100
AcDbEntity
  8
0
100
AcDbLine
 62
7
  6
CONTINUOUS
 10
11.7348183383
 20
11.5624663121
 11
11.7348183383
 21
11.71600808
  0
LINE
  5
229
100
AcDbEntity
  8
0
100
AcDbLine
 62
9
  6
CONTINUOUS
 10
10.6410685839
 20
6.411896237
 11
10.6432648802
 21
6.4127911641
  0
LINE
  5
22A
100
AcDbEntity
  8
0
100
AcDbLine
 62
7
  6
CONTINUOUS
 10
10.4090192031
 20
9.4740309352
 11
10.3794326772
 21
9.5150678242
  0
LINE
  5
22B
100
AcDbEntity
  8
0
100
AcDbLine
 62
7
  6
CONTINUOUS
 10
11.5773183393
 20
9.0542409797
 11
11.5854593544
 21
9.0401403279
  0
LINE
  5
22C
100
AcDbEntity
  8
0
100
AcDbLine
 62
7
  6
CONTINUOUS
 10
12.6673183383
 20
4.5851550294
 11
12.6673183383
 21
4.5611215783
  0
LINE
  5
22D
100
AcDbEntity
  8
0
100
AcDbLine
 62
9
  6
CONTINUOUS
 10
11.4535683383
 20
8.7572409815
 11
10.6410683383
 21
8.7572409815
  0
LINE
  5
22E
100
AcDbEntity
  8
0
100
AcDbLine
 62
7
  6
CONTINUOUS
 10
11.5020489404
 20
8.8942409815
 11
11.4535683383
 21
8.8942409815
  0
LINE
  5
22F
100
AcDbEntity
  8
0
100
AcDbLine
 62
7
  6
CONTINUOUS
 10
10.6410683383
 20
8.8942409815
 11
10.5925877361
 21
8.8942409815
  0
LINE
  5
230
100
AcDbEntity
  8
0
100
AcDbLine
 62
9
  6
CONTINUOUS
 10
11.5179436326
 20
8.9084040057
 11
11.4535683383
 21
8.9084040057
  0
LINE
  5
231
100
AcDbEntity
  8
0
100
AcDbLine
 62
9
  6
CONTINUOUS
 10
10.6410683383
 20
8.9084040057
 11
10.5766930439
 21
8.9084040057
  0
LINE
  5
232
100
AcDbEntity
  8
0
100
AcDbLine
 62
9
  6
CONTINUOUS
 10
10.6410683383
 20
8.9849353506
 11
10.5248286155
 21
8.9849353506
  0
LINE
  5
233
100
AcDbEntity
  8
0
100
AcDbLine
 62
9
  6
CONTINUOUS
 10
11.4535683383
 20
8.9849353506
 11
11.5698080611
 21
8.9849353506
  0
LINE
  5
234
100
AcDbEntity
  8
0
100
AcDbLine
 62
9
  6
CONTINUOUS
 10
10.6410683383
 20
9.0401403279
 11
10.5091773221
 21
9.0401403279
  0
LINE
  5
235
100
AcDbEntity
  8
0
100
AcDbLine
 62
9
  6
CONTINUOUS
 10
11.4535683383
 20
9.0401403279
 11
11.5854593544
 21
9.0401403279
  0
LINE
  5
236
100
AcDbEntity
  8
0
100
AcDbLine
 62
7
  6
CONTINUOUS
 10
11.5773183393
 20
9.0542409797
 11
11.4535683383
 21
9.0542409797
  0
LINE
  5
237
100
AcDbEntity
  8
0
100
AcDbLine
 62
7
  6
CONTINUOUS
 10
10.6410683383
 20
9.0542409797
 11
10.5173183372
 21
9.0542409797
  0
LINE
  5
238
100
AcDbEntity
  8
0
100
AcDbLine
 62
9
  6
CONTINUOUS
 10
11.6250770344
 20
9.1027111022
 11
11.4535683383
 21
9.1027111048
  0
LINE
  5
239
100
AcDbEntity
  8
0
100
AcDbLine
 62
9
  6
CONTINUOUS
 10
10.6410683383
 20
9.1027111022
 11
10.4695596421
 21
9.1027111022
  0
LINE
  5
23A
100
AcDbEntity
  8
0
100
AcDbLine
 62
7
  6
CONTINUOUS
 10
11.6856174734
 20
9.2344510278
 11
11.7152039994
 21
9.1934141388
  0
LINE
  5
23B
100
AcDbEntity
  8
0
100
AcDbLine
 62
7
  6
CONTINUOUS
 10
12.9523183383
 20
4.4277726261
 11
12.9523183383
 21
4.2983375589
  0
LINE
  5
23C
100
AcDbEntity
  8
0
100
AcDbLine
 62
7
  6
CONTINUOUS
 10
11.4675552138
 20
5.4433506016
 11
11.1770814628
 21
5.3247651893
  0
LINE
  5
23D
100
AcDbEntity
  8
0
100
AcDbLine
 62
7
  6
CONTINUOUS
 10
10.6325959853
 20
9.1582409815
 11
10.6410683383
 21
9.1582409815
  0
LINE
  5
23E
100
AcDbEntity
  8
0
100
AcDbLine
 62
7
  6
CONTINUOUS
 10
11.4535683383
 20
9.1582409815
 11
11.4620406912
 21
9.1582409815
  0
LINE
  5
23F
100
AcDbEntity
  8
0
100
AcDbLine
 62
7
  6
CONTINUOUS
 10
11.4675552138
 20
5.1958632282
 11
11.1770814628
 21
5.0772778159
  0
LINE
  5
240
100
AcDbEntity
  8
0
100
AcDbLine
 62
7
  6
CONTINUOUS
 10
10.6325959853
 20
9.5502409815
 11
10.6410683383
 21
9.5502409815
  0
LINE
  5
241
100
AcDbEntity
  8
0
100
AcDbLine
 62
7
  6
CONTINUOUS
 10
11.4535683383
 20
9.5502409815
 11
11.4620406912
 21
9.5502409815
  0
LINE
  5
242
100
AcDbEntity
  8
0
100
AcDbLine
 62
9
  6
CONTINUOUS
 10
11.6268749975
 20
9.6005072622
 11
11.4535683383
 21
9.6005072622
  0
LINE
  5
243
100
AcDbEntity
  8
0
100
AcDbLine
 62
9
  6
CONTINUOUS
 10
10.6410683383
 20
9.6005072622
 11
10.4677616791
 21
9.6005072622
  0
LINE
  5
244
100
AcDbEntity
  8
0
100
AcDbLine
 62
7
  6
CONTINUOUS
 10
11.5520241143
 20
9.6542409815
 11
11.4535683383
 21
9.6542409815
  0
LINE
  5
245
100
AcDbEntity
  8
0
100
AcDbLine
 62
7
  6
CONTINUOUS
 10
10.6410683383
 20
9.6542409815
 11
10.5426125622
 21
9.6542409815
  0
LINE
  5
246
100
AcDbEntity
  8
0
100
AcDbLine
 62
7
  6
CONTINUOUS
 10
11.5373183383
 20
10.5752409815
 11
11.4535683383
 21
10.5752409815
  0
LINE
  5
247
100
AcDbEntity
  8
0
100
AcDbLine
 62
7
  6
CONTINUOUS
 10
10.5573183383
 20
10.5752409815
 11
10.6410683383
 21
10.5752409815
  0
LINE
  5
248
100
AcDbEntity
  8
0
100
AcDbLine
 62
7
  6
CONTINUOUS
 10
11.5373183383
 20
10.6952409815
 11
11.4535683383
 21
10.6952409815
  0
LINE
  5
249
100
AcDbEntity
  8
0
100
AcDbLine
 62
7
  6
CONTINUOUS
 10
10.5573183383
 20
10.6952409815
 11
10.6410683383
 21
10.6952409815
  0
LINE
  5
24A
100
AcDbEntity
  8
0
100
AcDbLine
 62
7
  6
CONTINUOUS
 10
11.7138183383
 20
11.5592550452
 11
11.4535683383
 21
11.5592550452
  0
LINE
  5
24B
100
AcDbEntity
  8
0
100
AcDbLine
 62
7
  6
CONTINUOUS
 10
10.3808183383
 20
11.5592550452
 11
10.6410683383
 21
11.5592550452
  0
LINE
  5
24C
100
AcDbEntity
  8
0
100
AcDbLine
 62
7
  6
CONTINUOUS
 10
11.7123183383
 20
11.7192409815
 11
11.4535683383
 21
11.7192409815
  0
LINE
  5
24D
100
AcDbEntity
  8
0
100
AcDbLine
 62
7
  6
CONTINUOUS
 10
10.3823183383
 20
11.7192409815
 11
10.6410683383
 21
11.7192409815
  0
LINE
  5
24E
100
AcDbEntity
  8
0
100
AcDbLine
 62
9
  6
CONTINUOUS
 10
11.8761955266
 20
11.8114629189
 11
11.4535683383
 21
11.8114629189
  0
LINE
  5
24F
100
AcDbEntity
  8
0
100
AcDbLine
 62
9
  6
CONTINUOUS
 10
10.6410683383
 20
11.8114629189
 11
10.21844115
 21
11.8114629189
  0
LINE
  5
250
100
AcDbEntity
  8
0
100
AcDbLine
 62
9
  6
CONTINUOUS
 10
12.1564388561
 20
12.0164763899
 11
11.4535683383
 21
12.0164763899
  0
LINE
  5
251
100
AcDbEntity
  8
0
100
AcDbLine
 62
9
  6
CONTINUOUS
 10
10.6410683383
 20
12.0164763899
 11
9.9381978205
 21
12.0164763899
  0
LINE
  5
252
100
AcDbEntity
  8
0
100
AcDbLine
 62
7
  6
CONTINUOUS
 10
11.6937254046
 20
12.0272409815
 11
10.400911272
 21
12.0272409815
  0
LINE
  5
253
100
AcDbEntity
  8
0
100
AcDbLine
 62
9
  6
CONTINUOUS
 10
12.1986543256
 20
12.0601173824
 11
11.8093206357
 21
12.0601173824
  0
LINE
  5
254
100
AcDbEntity
  8
0
100
AcDbLine
 62
9
  6
CONTINUOUS
 10
10.2853160409
 20
12.0601173824
 11
9.895982351
 21
12.0601173824
  0
LINE
  5
255
100
AcDbEntity
  8
0
100
AcDbLine
 62
9
  6
CONTINUOUS
 10
11.8793569786
 20
12.1291649447
 11
10.2152796979
 21
12.1291649447
  0
LINE
  5
256
100
AcDbEntity
  8
0
100
AcDbLine
 62
7
  6
CONTINUOUS
 10
14.1714838145
 20
12.1942409815
 11
11.9292053046
 21
12.1942409815
  0
LINE
  5
257
100
AcDbEntity
  8
0
100
AcDbLine
 62
7
  6
CONTINUOUS
 10
10.165431372
 20
12.1942409815
 11
7.9231528621
 21
12.1942409815
  0
LINE
  5
258
100
AcDbEntity
  8
0
100
AcDbLine
 62
9
  6
CONTINUOUS
 10
7.8854607948
 20
12.2067602122
 11
10.1532695821
 21
12.2067602122
  0
LINE
  5
259
100
AcDbEntity
  8
0
100
AcDbLine
 62
9
  6
CONTINUOUS
 10
11.9413670945
 20
12.2067602122
 11
14.2091758818
 21
12.2067602122
  0
LINE
  5
25A
100
AcDbEntity
  8
0
100
AcDbLine
 62
9
  6
CONTINUOUS
 10
12.1570376241
 20
12.3343486426
 11
9.9375990524
 21
12.3343486426
  0
LINE
  5
25B
100
AcDbEntity
  8
0
100
AcDbLine
 62
9
  6
CONTINUOUS
 10
12.1992675002
 20
12.3773984034
 11
9.8953691763
 21
12.3773984034
  0
LINE
  5
25C
100
AcDbEntity
  8
0
100
AcDbLine
 62
7
  6
CONTINUOUS
 10
7.7348183383
 20
12.5072409815
 11
14.3598183383
 21
12.5072409815
  0
ARC
  5
25D
100
AcDbEntity
  8
0
100
AcDbCircle
 62
9
  6
CONTINUOUS
 10
11.0473123384
 20
5.6970383945
 40
2.3027405306
100
AcDbArc
 50
264.6656470913
 51
275.3317757452
  0
ARC
  5
25E
100
AcDbEntity
  8
0
100
AcDbCircle
 62
7
  6
CONTINUOUS
 10
10.9476877668
 20
3.8494010924
 40
1.8730052805
100
AcDbArc
 50
112.0765756898
 51
112.2076299845
  0
ARC
  5
25F
100
AcDbEntity
  8
0
100
AcDbCircle
 62
7
  6
CONTINUOUS
 10
9.9753460253
 20
3.9977699802
 40
1.0779617772
100
AcDbArc
 50
176.7935526078
 51
188.3555954285
  0
ARC
  5
260
100
AcDbEntity
  8
0
100
AcDbCircle
 62
9
  6
CONTINUOUS
 10
10.2374456904
 20
4.5851533675
 40
0.8101272855
100
AcDbArc
 50
179.99988246
 51
181.6994848599
  0
ARC
  5
261
100
AcDbEntity
  8
0
100
AcDbCircle
 62
7
  6
CONTINUOUS
 10
11.0472647341
 20
5.5539523684
 40
0.4890629454
100
AcDbArc
 50
28.6910649612
 51
34.9067885354
  0
ARC
  5
262
100
AcDbEntity
  8
0
100
AcDbCircle
 62
7
  6
CONTINUOUS
 10
10.8180305106
 20
5.6712371904
 40
0.2332166217
100
AcDbArc
 50
171.3231227923
 51
176.0695190632
  0
ARC
  5
263
100
AcDbEntity
  8
0
100
AcDbCircle
 62
7
  6
CONTINUOUS
 10
10.8452556038
 20
6.4426282896
 40
0.2041872686
100
AcDbArc
 50
180.0106397276
 51
188.384397073
  0
ARC
  5
264
100
AcDbEntity
  8
0
100
AcDbCircle
 62
7
  6
CONTINUOUS
 10
10.8345811887
 20
6.2933909347
 40
0.1935128587
100
AcDbArc
 50
180.0169281192
 51
190.3643475306
  0
ARC
  5
265
100
AcDbEntity
  8
0
100
AcDbCircle
 62
7
  6
CONTINUOUS
 10
10.8344197146
 20
6.3431072529
 40
0.1933512327
100
AcDbArc
 50
180.0134887149
 51
189.9806992681
  0
ARC
  5
266
100
AcDbEntity
  8
0
100
AcDbCircle
 62
7
  6
CONTINUOUS
 10
10.8343075814
 20
6.3928999899
 40
0.1932391159
100
AcDbArc
 50
180.0118416552
 51
189.54606489
  0
ARC
  5
267
100
AcDbEntity
  8
0
100
AcDbCircle
 62
7
  6
CONTINUOUS
 10
10.8333383057
 20
6.2577896114
 40
0.1922698816
100
AcDbArc
 50
174.2572785334
 51
179.9960533713
  0
ARC
  5
268
100
AcDbEntity
  8
0
100
AcDbCircle
 62
7
  6
CONTINUOUS
 10
10.8332270443
 20
6.3603190755
 40
0.1921585573
100
AcDbArc
 50
180.0023718895
 51
185.1113208311
  0
ARC
  5
269
100
AcDbEntity
  8
0
100
AcDbCircle
 62
7
  6
CONTINUOUS
 10
10.8331529512
 20
6.3090976042
 40
0.192084464
100
AcDbArc
 50
180.0016265023
 51
184.5190683981
  0
ARC
  5
26A
100
AcDbEntity
  8
0
100
AcDbCircle
 62
7
  6
CONTINUOUS
 10
10.8330825462
 20
6.3090903294
 40
0.192014059
100
AcDbArc
 50
174.9264224552
 51
179.9994563255
  0
ARC
  5
26B
100
AcDbEntity
  8
0
100
AcDbCircle
 62
7
  6
CONTINUOUS
 10
10.8330770966
 20
6.3603094619
 40
0.1920086095
100
AcDbArc
 50
175.0836206225
 51
179.9995050254
  0
ARC
  5
26C
100
AcDbEntity
  8
0
100
AcDbCircle
 62
7
  6
CONTINUOUS
 10
10.832993362
 20
6.257803361
 40
0.1919249374
100
AcDbArc
 50
180.0001509868
 51
184.2213335785
  0
ARC
  5
26D
100
AcDbEntity
  8
0
100
AcDbCircle
 62
7
  6
CONTINUOUS
 10
10.8329921681
 20
6.4115848704
 40
0.1919238368
100
AcDbArc
 50
175.4495235807
 51
179.9070464787
  0
ARC
  5
26E
100
AcDbEntity
  8
0
100
AcDbCircle
 62
7
  6
CONTINUOUS
 10
8.1098183383
 20
12.5072409815
 40
0.375
100
AcDbArc
 50
180.0
 51
233.2527042231
  0
ARC
  5
26F
100
AcDbEntity
  8
0
100
AcDbCircle
 62
7
  6
CONTINUOUS
 10
7.9231528621
 20
12.2572409815
 40
0.063
100
AcDbArc
 50
233.2527042231
 51
270.0
  0
ARC
  5
270
100
AcDbEntity
  8
0
100
AcDbCircle
 62
7
  6
CONTINUOUS
 10
10.8973183383
 20
9.3542409815
 40
0.77
100
AcDbArc
 50
11.4390866746
 51
18.6524229102
  0
ARC
  5
271
100
AcDbEntity
  8
0
100
AcDbCircle
 62
7
  6
CONTINUOUS
 10
10.8973183383
 20
9.3542409815
 40
0.77
100
AcDbArc
 50
340.9336918347
 51
348.5521786466
  0
ARC
  5
272
100
AcDbEntity
  8
0
100
AcDbCircle
 62
7
  6
CONTINUOUS
 10
10.1563637983
 20
9.3542409815
 40
0.275
100
AcDbArc
 50
35.7906483847
 51
324.2093789999
  0
ARC
  5
273
100
AcDbEntity
  8
0
100
AcDbCircle
 62
7
  6
CONTINUOUS
 10
10.7572783343
 20
10.5792409815
 40
0.2
100
AcDbArc
 50
181.1459919984
 51
234.4288071621
  0
ARC
  5
274
100
AcDbEntity
  8
0
100
AcDbCircle
 62
7
  6
CONTINUOUS
 10
10.6885539131
 20
9.3343647467
 40
0.1999667493
100
AcDbArc
 50
208.6382103189
 51
210.3365502925
  0
ARC
  5
275
100
AcDbEntity
  8
0
100
AcDbCircle
 62
7
  6
CONTINUOUS
 10
10.687122236
 20
9.374925819
 40
0.1983226877
100
AcDbArc
 50
149.250660828
 51
151.379318904
  0
ARC
  5
276
100
AcDbEntity
  8
0
100
AcDbCircle
 62
9
  6
CONTINUOUS
 10
10.67804457
 20
9.3779716776
 40
0.188646266
100
AcDbArc
 50
148.6620988681
 51
150.8178461101
  0
ARC
  5
277
100
AcDbEntity
  8
0
100
AcDbCircle
 62
9
  6
CONTINUOUS
 10
10.6775435452
 20
9.3302153088
 40
0.1880650108
100
AcDbArc
 50
209.1710804832
 51
211.0299932754
  0
ARC
  5
278
100
AcDbEntity
  8
0
100
AcDbCircle
 62
7
  6
CONTINUOUS
 10
10.3530580596
 20
9.264241651
 40
0.1060006695
100
AcDbArc
 50
267.9089500474
 51
269.9995276136
  0
ARC
  5
279
100
AcDbEntity
  8
0
100
AcDbCircle
 62
7
  6
CONTINUOUS
 10
10.3530579373
 20
9.4442481057
 40
0.1059928757
100
AcDbArc
 50
90.000406331
 51
91.9636155206
  0
ARC
  5
27A
100
AcDbEntity
  8
0
100
AcDbCircle
 62
7
  6
CONTINUOUS
 10
10.6515178747
 20
9.2535886239
 40
0.1043570497
100
AcDbArc
 50
257.7599305151
 51
263.8040345175
  0
ARC
  5
27B
100
AcDbEntity
  8
0
100
AcDbCircle
 62
7
  6
CONTINUOUS
 10
10.6515178743
 20
9.4548933415
 40
0.1043570472
100
AcDbArc
 50
96.1959543333
 51
102.2400695479
  0
ARC
  5
27C
100
AcDbEntity
  8
0
100
AcDbCircle
 62
7
  6
CONTINUOUS
 10
10.6285182559
 20
9.2532822634
 40
0.1040412915
100
AcDbArc
 50
270.0246171434
 51
276.9288698726
  0
ARC
  5
27D
100
AcDbEntity
  8
0
100
AcDbCircle
 62
7
  6
CONTINUOUS
 10
10.6285489747
 20
9.4557053153
 40
0.1035356671
100
AcDbArc
 50
83.054250868
 51
89.9922621746
  0
ARC
  5
27E
100
AcDbEntity
  8
0
100
AcDbCircle
 62
7
  6
CONTINUOUS
 10
10.4773543084
 20
8.8969229073
 40
0.1
100
AcDbArc
 50
6.592723027
 51
61.6573772921
  0
ARC
  5
27F
100
AcDbEntity
  8
0
100
AcDbCircle
 62
9
  6
CONTINUOUS
 10
10.6325876281
 20
9.256494112
 40
0.0982531309
100
AcDbArc
 50
270.0048735075
 51
274.9577336158
  0
ARC
  5
280
100
AcDbEntity
  8
0
100
AcDbCircle
 62
9
  6
CONTINUOUS
 10
10.6325934093
 20
9.4521212622
 40
0.0981197193
100
AcDbArc
 50
85.0388971246
 51
89.998495753
  0
ARC
  5
281
100
AcDbEntity
  8
0
100
AcDbCircle
 62
9
  6
CONTINUOUS
 10
10.6168492471
 20
9.2622822346
 40
0.0947192206
100
AcDbArc
 50
270.0467154105
 51
284.8263258349
  0
ARC
  5
282
100
AcDbEntity
  8
0
100
AcDbCircle
 62
9
  6
CONTINUOUS
 10
10.6168492471
 20
9.4461997285
 40
0.0947192204
100
AcDbArc
 50
75.1736742096
 51
89.9532846016
  0
ARC
  5
283
100
AcDbEntity
  8
0
100
AcDbCircle
 62
7
  6
CONTINUOUS
 10
10.5442257941
 20
9.1285174145
 40
0.079
100
AcDbArc
 50
199.0663081681
 51
250.0865226333
  0
ARC
  5
284
100
AcDbEntity
  8
0
100
AcDbCircle
 62
7
  6
CONTINUOUS
 10
10.5426122974
 20
9.5752409815
 40
0.079
100
AcDbArc
 50
90.0
 51
161.3475770898
  0
ARC
  5
285
100
AcDbEntity
  8
0
100
AcDbCircle
 62
7
  6
CONTINUOUS
 10
10.5573183383
 20
10.6352409815
 40
0.06
100
AcDbArc
 50
228.5625850245
 51
270.0
  0
ARC
  5
286
100
AcDbEntity
  8
0
100
AcDbCircle
 62
7
  6
CONTINUOUS
 10
10.5573183383
 20
10.6352409815
 40
0.06
100
AcDbArc
 50
90.0
 51
131.4374149755
  0
ARC
  5
287
100
AcDbEntity
  8
0
100
AcDbCircle
 62
7
  6
CONTINUOUS
 10
10.6773183383
 20
8.8971222559
 40
0.05
100
AcDbArc
 50
183.3120669446
 51
223.3889477582
  0
ARC
  5
288
100
AcDbEntity
  8
0
100
AcDbCircle
 62
7
  6
CONTINUOUS
 10
10.5438183383
 20
9.0201403279
 40
0.04
100
AcDbArc
 50
150.0
 51
241.6573772921
  0
ARC
  5
289
100
AcDbEntity
  8
0
100
AcDbCircle
 62
7
  6
CONTINUOUS
 10
10.5925872416
 20
8.9102409815
 40
0.016
100
AcDbArc
 50
186.592723027
 51
270.0
  0
ARC
  5
28A
100
AcDbEntity
  8
0
100
AcDbCircle
 62
7
  6
CONTINUOUS
 10
9.5603063999
 20
10.9416069586
 40
1.027
100
AcDbArc
 50
346.1200123407
 51
36.9709495039
  0
ARC
  5
28B
100
AcDbEntity
  8
0
100
AcDbCircle
 62
7
  6
CONTINUOUS
 10
9.8141006969
 20
11.5527955687
 40
0.48
100
AcDbArc
 50
32.6081295413
 51
75.0168080473
  0
ARC
  5
28C
100
AcDbEntity
  8
0
100
AcDbCircle
 62
7
  6
CONTINUOUS
 10
9.8102714178
 20
11.871544501
 40
0.48
100
AcDbArc
 50
32.4599034873
 51
74.6172464651
  0
ARC
  5
28D
100
AcDbEntity
  8
0
100
AcDbCircle
 62
7
  6
CONTINUOUS
 10
10.400908493
 20
12.2472409815
 40
0.22
100
AcDbArc
 50
212.4599034873
 51
270.0
  0
ARC
  5
28E
100
AcDbEntity
  8
0
100
AcDbCircle
 62
7
  6
CONTINUOUS
 10
10.3869163387
 20
11.9192409815
 40
0.2
100
AcDbArc
 50
212.6081295413
 51
270.0
  0
ARC
  5
28F
100
AcDbEntity
  8
0
100
AcDbCircle
 62
7
  6
CONTINUOUS
 10
10.3823183383
 20
11.6392409815
 40
0.08
100
AcDbArc
 50
90.0
 51
106.3348227807
  0
ARC
  5
290
100
AcDbEntity
  8
0
100
AcDbCircle
 62
7
  6
CONTINUOUS
 10
10.3823183383
 20
11.6392409815
 40
0.08
100
AcDbArc
 50
253.6651772193
 51
268.9256411771
  0
ARC
  5
291
100
AcDbEntity
  8
0
100
AcDbCircle
 62
7
  6
CONTINUOUS
 10
9.9535150068
 20
12.3921991603
 40
0.06
100
AcDbArc
 50
194.281095736
 51
254.6172464651
  0
ARC
  5
292
100
AcDbEntity
  8
0
100
AcDbCircle
 62
7
  6
CONTINUOUS
 10
9.9534514253
 20
12.0734704908
 40
0.059
100
AcDbArc
 50
193.080738792
 51
255.0168080473
  0
ARC
  5
293
100
AcDbEntity
  8
0
100
AcDbCircle
 62
9
  6
CONTINUOUS
 10
11.0608337898
 20
5.6757006158
 40
2.5141739196
100
AcDbArc
 50
278.9575167143
 51
280.9079995398
  0
ARC
  5
294
100
AcDbEntity
  8
0
100
AcDbCircle
 62
9
  6
CONTINUOUS
 10
11.1708457273
 20
5.2808301892
 40
1.7973441282
100
AcDbArc
 50
292.1834705569
 51
295.6391699131
  0
ARC
  5
295
100
AcDbEntity
  8
0
100
AcDbCircle
 62
7
  6
CONTINUOUS
 10
12.1192908414
 20
3.997769594
 40
1.077961571
100
AcDbArc
 50
351.6443461968
 51
3.2064685385
  0
ARC
  5
296
100
AcDbEntity
  8
0
100
AcDbCircle
 62
7
  6
CONTINUOUS
 10
11.0761942147
 20
5.9456207671
 40
0.5619071647
100
AcDbArc
 50
291.1914367942
 51
292.2069029689
  0
ARC
  5
297
100
AcDbEntity
  8
0
100
AcDbCircle
 62
7
  6
CONTINUOUS
 10
11.0783739907
 20
5.9139246372
 40
0.5297128675
100
AcDbArc
 50
292.2055166439
 51
293.2847730046
  0
ARC
  5
298
100
AcDbEntity
  8
0
100
AcDbCircle
 62
7
  6
CONTINUOUS
 10
11.0473546817
 20
5.5539629844
 40
0.4890427073
100
AcDbArc
 50
145.1044821318
 51
151.3090552304
  0
ARC
  5
299
100
AcDbEntity
  8
0
100
AcDbCircle
 62
7
  6
CONTINUOUS
 10
11.275881552
 20
5.6711489638
 40
0.2339461887
100
AcDbArc
 50
4.836633025
 51
8.6361871071
  0
ARC
  5
29A
100
AcDbEntity
  8
0
100
AcDbCircle
 62
7
  6
CONTINUOUS
 10
11.2379907242
 20
6.3183149294
 40
0.2155774683
100
AcDbArc
 50
350.7929191576
 51
359.9899894848
  0
ARC
  5
29B
100
AcDbEntity
  8
0
100
AcDbCircle
 62
7
  6
CONTINUOUS
 10
11.238039789
 20
6.3679992449
 40
0.2155284027
100
AcDbArc
 50
351.2235614241
 51
359.9915468271
  0
ARC
  5
29C
100
AcDbEntity
  8
0
100
AcDbCircle
 62
7
  6
CONTINUOUS
 10
11.2380636427
 20
6.2833928469
 40
0.2155052169
100
AcDbArc
 50
355.7358880462
 51
356.0333385549
  0
ARC
  5
29D
100
AcDbEntity
  8
0
100
AcDbCircle
 62
7
  6
CONTINUOUS
 10
11.2380705633
 20
6.3859349254
 40
0.2154976265
100
AcDbArc
 50
0.0041090053
 51
7.1840606387
  0
ARC
  5
29E
100
AcDbEntity
  8
0
100
AcDbCircle
 62
7
  6
CONTINUOUS
 10
11.2383219891
 20
6.2833619684
 40
0.2152462002
100
AcDbArc
 50
0.0015978954
 51
4.6573955546
  0
ARC
  5
29F
100
AcDbEntity
  8
0
100
AcDbCircle
 62
7
  6
CONTINUOUS
 10
11.2384162814
 20
6.3346899099
 40
0.2151519081
100
AcDbArc
 50
0.0013750705
 51
4.4399185969
  0
ARC
  5
2A0
100
AcDbEntity
  8
0
100
AcDbCircle
 62
7
  6
CONTINUOUS
 10
11.238476065
 20
6.3859518921
 40
0.2150921243
100
AcDbArc
 50
355.2371730725
 51
359.999597184
  0
ARC
  5
2A1
100
AcDbEntity
  8
0
100
AcDbCircle
 62
7
  6
CONTINUOUS
 10
11.2384772385
 20
6.283368833
 40
0.2150909507
100
AcDbArc
 50
356.0320986935
 51
359.9997704722
  0
ARC
  5
2A2
100
AcDbEntity
  8
0
100
AcDbCircle
 62
7
  6
CONTINUOUS
 10
11.2385289076
 20
6.3346961471
 40
0.2150392818
100
AcDbArc
 50
355.7355545172
 51
359.9997139369
  0
ARC
  5
2A3
100
AcDbEntity
  8
0
100
AcDbCircle
 62
7
  6
CONTINUOUS
 10
11.1973183383
 20
9.3542409815
 40
0.77
100
AcDbArc
 50
161.3475770898
 51
168.5612510291
  0
ARC
  5
2A4
100
AcDbEntity
  8
0
100
AcDbCircle
 62
7
  6
CONTINUOUS
 10
11.1973183383
 20
9.3542409815
 40
0.77
100
AcDbArc
 50
191.4426759195
 51
199.0663081681
  0
ARC
  5
2A5
100
AcDbEntity
  8
0
100
AcDbCircle
 62
7
  6
CONTINUOUS
 10
11.9382728784
 20
9.3542409686
 40
0.2750000042
100
AcDbArc
 50
215.7906373679
 51
144.209377584
  0
ARC
  5
2A6
100
AcDbEntity
  8
0
100
AcDbCircle
 62
7
  6
CONTINUOUS
 10
11.3373583423
 20
10.5792409815
 40
0.2
100
AcDbArc
 50
305.5711928379
 51
358.8540080016
  0
ARC
  5
2A7
100
AcDbEntity
  8
0
100
AcDbCircle
 62
7
  6
CONTINUOUS
 10
11.4063982776
 20
9.3742906888
 40
0.1996066998
100
AcDbArc
 50
28.616133476
 51
30.6699375122
  0
ARC
  5
2A8
100
AcDbEntity
  8
0
100
AcDbCircle
 62
7
  6
CONTINUOUS
 10
11.407265261
 20
9.3336979418
 40
0.1986093504
100
AcDbArc
 50
329.3439712324
 51
331.4028387066
  0
ARC
  5
2A9
100
AcDbEntity
  8
0
100
AcDbCircle
 62
7
  6
CONTINUOUS
 10
11.4430501885
 20
9.2540106653
 40
0.1047840461
100
AcDbArc
 50
276.2304023708
 51
282.2278088209
  0
ARC
  5
2AA
100
AcDbEntity
  8
0
100
AcDbCircle
 62
7
  6
CONTINUOUS
 10
11.443050404
 20
9.4544724067
 40
0.1047829166
100
AcDbArc
 50
77.7721779111
 51
83.7760949719
  0
ARC
  5
2AB
100
AcDbEntity
  8
0
100
AcDbCircle
 62
7
  6
CONTINUOUS
 10
11.4661204731
 20
9.4551694789
 40
0.1040715131
100
AcDbArc
 50
90.0257399725
 51
96.9280292757
  0
ARC
  5
2AC
100
AcDbEntity
  8
0
100
AcDbCircle
 62
7
  6
CONTINUOUS
 10
11.4660887556
 20
9.2527902707
 40
0.1035492903
100
AcDbArc
 50
263.0545203139
 51
269.9916801505
  0
ARC
  5
2AD
100
AcDbEntity
  8
0
100
AcDbCircle
 62
7
  6
CONTINUOUS
 10
11.6172823682
 20
8.8969229073
 40
0.1
100
AcDbArc
 50
118.3426227079
 51
173.407276973
  0
ARC
  5
2AE
100
AcDbEntity
  8
0
100
AcDbCircle
 62
9
  6
CONTINUOUS
 10
11.4620442893
 20
9.4520536835
 40
0.0981872441
100
AcDbArc
 50
90.0020996166
 51
94.9545595784
  0
ARC
  5
2AF
100
AcDbEntity
  8
0
100
AcDbCircle
 62
9
  6
CONTINUOUS
 10
11.4620415309
 20
9.2563645492
 40
0.0981235138
100
AcDbArc
 50
265.04383122
 51
269.9995096796
  0
ARC
  5
2B0
100
AcDbEntity
  8
0
100
AcDbCircle
 62
7
  6
CONTINUOUS
 10
11.5504108825
 20
9.1285174145
 40
0.079
100
AcDbArc
 50
289.9134773481
 51
340.9336918347
  0
ARC
  5
2B1
100
AcDbEntity
  8
0
100
AcDbCircle
 62
7
  6
CONTINUOUS
 10
11.5520243792
 20
9.5752409815
 40
0.079
100
AcDbArc
 50
18.6524229102
 51
90.0
  0
ARC
  5
2B2
100
AcDbEntity
  8
0
100
AcDbCircle
 62
7
  6
CONTINUOUS
 10
11.5373183383
 20
10.6352409815
 40
0.06
100
AcDbArc
 50
270.0
 51
311.4345134793
  0
ARC
  5
2B3
100
AcDbEntity
  8
0
100
AcDbCircle
 62
7
  6
CONTINUOUS
 10
11.5373183383
 20
10.6352409815
 40
0.06
100
AcDbArc
 50
48.5654865207
 51
90.0
  0
ARC
  5
2B4
100
AcDbEntity
  8
0
100
AcDbCircle
 62
7
  6
CONTINUOUS
 10
11.4173183383
 20
8.8971222559
 40
0.05
100
AcDbArc
 50
316.6110522418
 51
356.6879330554
  0
ARC
  5
2B5
100
AcDbEntity
  8
0
100
AcDbCircle
 62
7
  6
CONTINUOUS
 10
11.5508183383
 20
9.0201403279
 40
0.04
100
AcDbArc
 50
298.3426227079
 51
30.0
  0
ARC
  5
2B6
100
AcDbEntity
  8
0
100
AcDbCircle
 62
7
  6
CONTINUOUS
 10
11.502049435
 20
8.9102409815
 40
0.016
100
AcDbArc
 50
270.0
 51
353.407276973
  0
ARC
  5
2B7
100
AcDbEntity
  8
0
100
AcDbCircle
 62
7
  6
CONTINUOUS
 10
12.5343302767
 20
10.9416069586
 40
1.027
100
AcDbArc
 50
143.0290504961
 51
193.8799876593
  0
ARC
  5
2B8
100
AcDbEntity
  8
0
100
AcDbCircle
 62
7
  6
CONTINUOUS
 10
12.2805359796
 20
11.5527955687
 40
0.48
100
AcDbArc
 50
104.9831919527
 51
147.3918704587
  0
ARC
  5
2B9
100
AcDbEntity
  8
0
100
AcDbCircle
 62
7
  6
CONTINUOUS
 10
12.2843652587
 20
11.871544501
 40
0.48
100
AcDbArc
 50
105.3827535349
 51
147.5400965127
  0
ARC
  5
2BA
100
AcDbEntity
  8
0
100
AcDbCircle
 62
7
  6
CONTINUOUS
 10
11.6937281836
 20
12.2472409815
 40
0.22
100
AcDbArc
 50
270.0
 51
327.5400965127
  0
ARC
  5
2BB
100
AcDbEntity
  8
0
100
AcDbCircle
 62
7
  6
CONTINUOUS
 10
11.7077203378
 20
11.9192409815
 40
0.2
100
AcDbArc
 50
270.0
 51
327.3918704587
  0
ARC
  5
2BC
100
AcDbEntity
  8
0
100
AcDbCircle
 62
7
  6
CONTINUOUS
 10
11.7123183383
 20
11.6392409815
 40
0.08
100
AcDbArc
 50
73.6651772193
 51
90.0
  0
ARC
  5
2BD
100
AcDbEntity
  8
0
100
AcDbCircle
 62
7
  6
CONTINUOUS
 10
11.7123183383
 20
11.6392409815
 40
0.08
100
AcDbArc
 50
271.0743588229
 51
286.3348227807
  0
ARC
  5
2BE
100
AcDbEntity
  8
0
100
AcDbCircle
 62
7
  6
CONTINUOUS
 10
12.1411216698
 20
12.3921991603
 40
0.06
100
AcDbArc
 50
285.3827535349
 51
345.718904264
  0
ARC
  5
2BF
100
AcDbEntity
  8
0
100
AcDbCircle
 62
7
  6
CONTINUOUS
 10
12.1411852513
 20
12.0734704908
 40
0.059
100
AcDbArc
 50
284.9831919527
 51
346.919261208
  0
ARC
  5
2C0
100
AcDbEntity
  8
0
100
AcDbCircle
 62
7
  6
CONTINUOUS
 10
13.9848183383
 20
12.5072409815
 40
0.375
100
AcDbArc
 50
306.7472957769
 51
360.0
  0
ARC
  5
2C1
100
AcDbEntity
  8
0
100
AcDbCircle
 62
7
  6
CONTINUOUS
 10
14.1714838145
 20
12.2572409815
 40
0.063
100
AcDbArc
 50
270.0
 51
306.7472957769
  0
SPLINE
  5
2C2
100
AcDbEntity
  8
0
100
AcDbSpline
 62
7
  6
CONTINUOUS
 70
0
 71
3
 72
27
 73
23
 74
0
 42
0.0000001
 43
0.0000001
 44
0.0000000001
 40
0.0
 40
0.0
 40
0.0
 40
0.0
 40
0.0253216761
 40
0.0507094042
 40
0.0762281063
 40
0.101940465
 40
0.1279059802
 40
0.1541800752
 40
0.1808133632
 40
0.2078512149
 40
0.263268164
 40
0.3207026304
 40
0.3803027188
 40
0.4421241178
 40
0.5061379313
 40
0.5722402445
 40
0.6402623941
 40
0.7099811188
 40
0.7811290416
 40
0.8534026545
 40
0.9264756573
 40
1.0
 40
1.0
 40
1.0
 40
1.0
 10
10.6410683475
 20
6.2435941639
 30
0.0
 10
10.6410683111
 20
6.2390224158
 30
0.0
 10
10.6413959215
 20
6.2298636536
 30
0.0
 10
10.6428668651
 20
6.2161686697
 30
0.0
 10
10.6453149733
 20
6.2025419907
 30
0.0
 10
10.6487331603
 20
6.1890185989
 30
0.0
 10
10.6531134684
 20
6.1756321948
 30
0.0
 10
10.6584444229
 20
6.1624162619
 30
0.0
 10
10.6647132665
 20
6.1494032789
 30
0.0
 10
10.6743780516
 20
6.1322293449
 30
0.0
 10
10.6888004513
 20
6.1114146667
 30
0.0
 10
10.7094029061
 20
6.0879874995
 30
0.0
 10
10.7332434196
 20
6.0661208675
 30
0.0
 10
10.7600881005
 20
6.0460284052
 30
0.0
 10
10.7896786819
 20
6.0279033954
 30
0.0
 10
10.8217314724
 20
6.0119225379
 30
0.0
 10
10.8559401506
 20
5.9982429053
 30
0.0
 10
10.8919780876
 20
5.9870004581
 30
0.0
 10
10.9295009163
 20
5.9783088946
 30
0.0
 10
10.9681510684
 20
5.9722575239
 30
0.0
 10
11.0075564761
 20
5.9689115887
 30
0.0
 10
11.0340462718
 20
5.968511142
 30
0.0
 10
11.0473183383
 20
5.9687697742
 30
0.0
  0
SPLINE
  5
2C3
100
AcDbEntity
  8
0
100
AcDbSpline
 62
7
  6
CONTINUOUS
 70
0
 71
3
 72
13
 73
9
 74
0
 42
0.0000001
 43
0.0000001
 44
0.0000000001
 40
0.0
 40
0.0
 40
0.0
 40
0.0
 40
0.1195549538
 40
0.2401852622
 40
0.3621655285
 40
0.4857442798
 40
0.7384756097
 40
1.0
 40
1.0
 40
1.0
 40
1.0
 10
10.6442257614
 20
6.2585766013
 30
0.0
 10
10.6450672736
 20
6.2539638798
 30
0.0
 10
10.647089825
 20
6.2447541515
 30
0.0
 10
10.6511047314
 20
6.231118306
 30
0.0
 10
10.6561028061
 20
6.2176421004
 30
0.0
 10
10.6641164797
 20
6.1998043715
 30
0.0
 10
10.6766034197
 20
6.1780460695
 30
0.0
 10
10.6887408879
 20
6.161871556
 30
0.0
 10
10.6953467171
 20
6.1540252413
 30
0.0
  0
SPLINE
  5
2C4
100
AcDbEntity
  8
0
100
AcDbSpline
 62
7
  6
CONTINUOUS
 70
0
 71
3
 72
27
 73
23
 74
0
 42
0.0000001
 43
0.0000001
 44
0.0000000001
 40
0.0
 40
0.0
 40
0.0
 40
0.0
 40
0.0251975666
 40
0.0505916964
 40
0.0762311452
 40
0.1021615716
 40
0.1550353833
 40
0.1820723819
 40
0.2095411773
 40
0.2658462358
 40
0.3241055147
 40
0.3539977699
 40
0.384396029
 40
0.4466811015
 40
0.5109100754
 40
0.5769632929
 40
0.6446753353
 40
0.7138415891
 40
0.7842271472
 40
0.8555681993
 40
0.9275931282
 40
1.0
 40
1.0
 40
1.0
 40
1.0
 10
10.6439946222
 20
6.3095963087
 30
0.0
 10
10.6447323384
 20
6.3053934505
 30
0.0
 10
10.6464889547
 20
6.2970007185
 30
0.0
 10
10.649940647
 20
6.2845528184
 30
0.0
 10
10.6542097625
 20
6.2722287394
 30
0.0
 10
10.6610224602
 20
6.2558968208
 30
0.0
 10
10.6694210242
 20
6.2400066961
 30
0.0
 10
10.6792565735
 20
6.2247037045
 30
0.0
 10
10.6902636921
 20
6.2094946571
 30
0.0
 10
10.7059269821
 20
6.1911796042
 30
0.0
 10
10.7236365604
 20
6.1742453926
 30
0.0
 10
10.7390815082
 20
6.1614105683
 30
0.0
 10
10.7556368562
 20
6.1488780119
 30
0.0
 10
10.7778694381
 20
6.1342600122
 30
0.0
 10
10.8065304895
 20
6.118633313
 30
0.0
 10
10.8371578551
 20
6.1049083497
 30
0.0
 10
10.869500221
 20
6.0932024989
 30
0.0
 10
10.9032942904
 20
6.0836153723
 30
0.0
 10
10.9382638613
 20
6.0762308695
 30
0.0
 10
10.9741249287
 20
6.0711135708
 30
0.0
 10
11.0105819628
 20
6.068312302
 30
0.0
 10
11.0350588467
 20
6.0680074323
 30
0.0
 10
11.0473183383
 20
6.0682467492
 30
0.0
  0
SPLINE
  5
2C5
100
AcDbEntity
  8
0
100
AcDbSpline
 62
7
  6
CONTINUOUS
 70
0
 71
3
 72
38
 73
34
 74
0
 42
0.0000001
 43
0.0000001
 44
0.0000000001
 40
0.0
 40
0.0
 40
0.0
 40
0.0
 40
0.0623719932
 40
0.0945173898
 40
0.1272392075
 40
0.1604848839
 40
0.1941928285
 40
0.2282957036
 40
0.2627200405
 40
0.2973876529
 40
0.3322167027
 40
0.4019988746
 40
0.4368015645
 40
0.4714239454
 40
0.5057821836
 40
0.5397953835
 40
0.6064595643
 40
0.638997094
 40
0.6709166649
 40
0.7021685447
 40
0.7327131426
 40
0.7625217972
 40
0.791578432
 40
0.8198808512
 40
0.8474414789
 40
0.8742888798
 40
0.8874615632
 40
0.900474308
 40
0.9260475079
 40
0.9510932753
 40
0.9634508286
 40
0.9757130557
 40
1.0
 40
1.0
 40
1.0
 40
1.0
 10
11.3370159599
 20
6.2101922612
 30
0.0
 10
11.3233870047
 20
6.2000108389
 30
0.0
 10
11.3016656557
 20
6.1859588556
 30
0.0
 10
11.2709404856
 20
6.1697976878
 30
0.0
 10
11.2465554542
 20
6.1587354483
 30
0.0
 10
11.2211918483
 20
6.1489105169
 30
0.0
 10
11.1949717656
 20
6.1403674619
 30
0.0
 10
11.1680250928
 20
6.1331457569
 30
0.0
 10
11.1404846502
 20
6.1272773298
 30
0.0
 10
11.1124846518
 20
6.1227887288
 30
0.0
 10
11.0747084207
 20
6.1186674886
 30
0.0
 10
11.0366297942
 20
6.1173735306
 30
0.0
 10
10.9986802453
 20
6.1189131423
 30
0.0
 10
10.9704767633
 20
6.1214736281
 30
0.0
 10
10.9426514063
 20
6.1254263769
 30
0.0
 10
10.906489084
 20
6.1324733401
 30
0.0
 10
10.871393875
 20
6.1422032388
 30
0.0
 10
10.8378351123
 20
6.1546096866
 30
0.0
 10
10.8138951115
 20
6.165057198
 30
0.0
 10
10.7911049623
 20
6.1766667314
 30
0.0
 10
10.7695754497
 20
6.1893788196
 30
0.0
 10
10.749413208
 20
6.2031293703
 30
0.0
 10
10.7307176919
 20
6.2178487056
 30
0.0
 10
10.7135809011
 20
6.2334625315
 30
0.0
 10
10.6980891827
 20
6.2498920995
 30
0.0
 10
10.686540105
 20
6.2642872617
 30
0.0
 10
10.6782195831
 20
6.2761241839
 30
0.0
 10
10.6706036084
 20
6.2880153248
 30
0.0
 10
10.6622124537
 20
6.3032358919
 30
0.0
 10
10.6553293008
 20
6.3190029992
 30
0.0
 10
10.6508173147
 20
6.3317811134
 30
0.0
 10
10.6469908246
 20
6.344563675
 30
0.0
 10
10.6448404677
 20
6.3543201385
 30
0.0
 10
10.6437443274
 20
6.3608531163
 30
0.0
  0
SPLINE
  5
2C6
100
AcDbEntity
  8
0
100
AcDbSpline
 62
7
  6
CONTINUOUS
 70
0
 71
3
 72
17
 73
13
 74
0
 42
0.0000001
 43
0.0000001
 44
0.0000000001
 40
0.0
 40
0.0
 40
0.0
 40
0.0
 40
0.0578853433
 40
0.1160731344
 40
0.1746499804
 40
0.2336981146
 40
0.3534660588
 40
0.475960079
 40
0.6016089851
 40
0.7307170625
 40
0.8634963568
 40
1.0
 40
1.0
 40
1.0
 40
1.0
 10
11.4443977011
 20
6.3808800944
 30
0.0
 10
11.4438782398
 20
6.3769219338
 30
0.0
 10
11.442607726
 20
6.3690130837
 30
0.0
 10
11.4400224233
 20
6.3572427847
 30
0.0
 10
11.4367592319
 20
6.3455582378
 30
0.0
 10
11.431488497
 20
6.3300505984
 30
0.0
 10
11.4231991493
 20
6.3109484796
 30
0.0
 10
11.4107155515
 20
6.288810131
 30
0.0
 10
11.3957408398
 20
6.2674850614
 30
0.0
 10
11.3783850509
 20
6.2471118505
 30
0.0
 10
11.3587731968
 20
6.2278236196
 30
0.0
 10
11.3444797657
 20
6.215929528
 30
0.0
 10
11.3370159599
 20
6.2101922612
 30
0.0
  0
SPLINE
  5
2C7
100
AcDbEntity
  8
0
100
AcDbSpline
 62
7
  6
CONTINUOUS
 70
0
 71
3
 72
11
 73
7
 74
0
 42
0.0000001
 43
0.0000001
 44
0.0000000001
 40
0.0
 40
0.0
 40
0.0
 40
0.0
 40
0.2455498072
 40
0.4929603748
 40
0.7439194701
 40
1.0
 40
1.0
 40
1.0
 40
1.0
 10
11.4535680927
 20
6.4422745175
 30
0.0
 10
11.4535551935
 20
6.4339791117
 30
0.0
 10
11.4525043914
 20
6.4173094387
 30
0.0
 10
11.4478743884
 20
6.3925480071
 30
0.0
 10
11.4402279561
 20
6.3681749255
 30
0.0
 10
11.4332414475
 20
6.3524888655
 30
0.0
 10
11.4292982294
 20
6.3447886142
 30
0.0
  0
SPLINE
  5
2C8
100
AcDbEntity
  8
0
100
AcDbSpline
 62
7
  6
CONTINUOUS
 70
0
 71
3
 72
21
 73
17
 74
0
 42
0.0000001
 43
0.0000001
 44
0.0000000001
 40
0.0
 40
0.0
 40
0.0
 40
0.0
 40
0.052506306
 40
0.1063139631
 40
0.1615459165
 40
0.2182841215
 40
0.3363265513
 40
0.3976861264
 40
0.4605033515
 40
0.52468648
 40
0.5901186463
 40
0.656660665
 40
0.7241557788
 40
0.7924314967
 40
0.8613002448
 40
1.0
 40
1.0
 40
1.0
 40
1.0
 10
11.4292982294
 20
6.3447886142
 30
0.0
 10
11.425733668
 20
6.3378277975
 30
0.0
 10
11.4178206331
 20
6.3240794564
 30
0.0
 10
11.4039242575
 20
6.3043996373
 30
0.0
 10
11.3879459732
 20
6.2855335534
 30
0.0
 10
11.3636847457
 20
6.2613014958
 30
0.0
 10
11.3358846881
 20
6.2394992918
 30
0.0
 10
11.3053038796
 20
6.2203250814
 30
0.0
 10
11.2805624383
 20
6.2070507667
 30
0.0
 10
11.2544665941
 20
6.195153448
 30
0.0
 10
11.2271652265
 20
6.1846994739
 30
0.0
 10
11.1988178666
 20
6.175749387
 30
0.0
 10
11.1695895878
 20
6.1683548769
 30
0.0
 10
11.1396486619
 20
6.1625588639
 30
0.0
 10
11.0989280214
 20
6.1569945855
 30
0.0
 10
11.0679766418
 20
6.1553282425
 30
0.0
 10
11.0473183383
 20
6.1553282425
 30
0.0
  0
SPLINE
  5
2C9
100
AcDbEntity
  8
0
100
AcDbSpline
 62
7
  6
CONTINUOUS
 70
0
 71
3
 72
23
 73
19
 74
0
 42
0.0000001
 43
0.0000001
 44
0.0000000001
 40
0.0
 40
0.0
 40
0.0
 40
0.0
 40
0.1430943383
 40
0.2139357209
 40
0.2839060698
 40
0.3527420477
 40
0.4202091029
 40
0.4861042572
 40
0.5502646761
 40
0.6125741133
 40
0.6729707398
 40
0.7314535104
 40
0.788088623
 40
0.8430134944
 40
0.8964388747
 40
0.948644668
 40
0.9744073174
 40
1.0
 40
1.0
 40
1.0
 40
1.0
 10
11.0473183383
 20
6.1553282425
 30
0.0
 10
11.0226156415
 20
6.1553282425
 30
0.0
 10
10.9856217485
 20
6.1577079386
 30
0.0
 10
10.9372348542
 20
6.1656602373
 30
0.0
 10
10.9019661256
 20
6.1739157205
 30
0.0
 10
10.867908914
 20
6.18441258
 30
0.0
 10
10.8353430377
 20
6.1970644411
 30
0.0
 10
10.8045401045
 20
6.2117675346
 30
0.0
 10
10.7757561448
 20
6.2284014166
 30
0.0
 10
10.7492310332
 20
6.2468303077
 30
0.0
 10
10.7251864789
 20
6.2669040468
 30
0.0
 10
10.7038246032
 20
6.2884594152
 30
0.0
 10
10.6853270223
 20
6.3113207958
 30
0.0
 10
10.6698530766
 20
6.3353021838
 30
0.0
 10
10.6575402408
 20
6.3602027354
 30
0.0
 10
10.6499708524
 20
6.3816517734
 30
0.0
 10
10.6456283617
 20
6.3990040248
 30
0.0
 10
10.6440227757
 20
6.4077305287
 30
0.0
 10
10.6433633353
 20
6.4120991603
 30
0.0
  0
LINE
  5
2CA
100
AcDbEntity
  8
0
100
AcDbLine
 62
7
  6
CONTINUOUS
 10
10.6433633353
 20
6.4120991603
 11
10.6432506728
 21
6.4128550044
  0
SPLINE
  5
2CB
100
AcDbEntity
  8
0
100
AcDbSpline
 62
7
  6
CONTINUOUS
 70
0
 71
3
 72
19
 73
15
 74
0
 42
0.0000001
 43
0.0000001
 44
0.0000000001
 40
0.0
 40
0.0
 40
0.0
 40
0.0
 40
0.0596529222
 40
0.1193604078
 40
0.1792168978
 40
0.2392851019
 40
0.2996336055
 40
0.3603345551
 40
0.4214605541
 40
0.4830785912
 40
0.6079865665
 40
0.7355820723
 40
0.8661953039
 40
1.0
 40
1.0
 40
1.0
 40
1.0
 10
10.6325959853
 20
9.5502409815
 30
0.0
 10
10.6297355518
 20
9.5502409815
 30
0.0
 10
10.6240097163
 20
9.5500242657
 30
0.0
 10
10.6154634794
 20
9.5490517893
 30
0.0
 10
10.6069940347
 20
9.5474388382
 30
0.0
 10
10.5986375787
 20
9.5451965737
 30
0.0
 10
10.5904281062
 20
9.5423397108
 30
0.0
 10
10.5823965552
 20
9.5388859038
 30
0.0
 10
10.5745699038
 20
9.534855274
 30
0.0
 10
10.5643970859
 20
9.528714118
 30
0.0
 10
10.552296394
 20
9.5196699268
 30
0.0
 10
10.5390073545
 20
9.5069250331
 30
0.0
 10
10.526986612
 20
9.4924255212
 30
0.0
 10
10.5199620008
 20
9.4818387876
 30
0.0
 10
10.5166812771
 20
9.4763248722
 30
0.0
  0
SPLINE
  5
2CC
100
AcDbEntity
  8
0
100
AcDbSpline
 62
7
  6
CONTINUOUS
 70
0
 71
3
 72
19
 73
15
 74
0
 42
0.0000001
 43
0.0000001
 44
0.0000000001
 40
0.0
 40
0.0
 40
0.0
 40
0.0
 40
0.1339203552
 40
0.2646179851
 40
0.3922591787
 40
0.5171728392
 40
0.5787802907
 40
0.6398873149
 40
0.7005622244
 40
0.7608785835
 40
0.8209096566
 40
0.880725881
 40
0.9403912124
 40
1.0
 40
1.0
 40
1.0
 40
1.0
 10
10.5159679058
 20
9.2333658807
 30
0.0
 10
10.5192435127
 20
9.2277698164
 30
0.0
 10
10.5262677243
 20
9.2170226138
 30
0.0
 10
10.5383186478
 20
9.2022941892
 30
0.0
 10
10.5516664603
 20
9.1893415443
 30
0.0
 10
10.5638398483
 20
9.1801446952
 30
0.0
 10
10.5740829824
 20
9.1738981366
 30
0.0
 10
10.5819672295
 20
9.1697977127
 30
0.0
 10
10.5900615313
 20
9.1662834007
 30
0.0
 10
10.5983383376
 20
9.1633759969
 30
0.0
 10
10.60676598
 20
9.1610936388
 30
0.0
 10
10.6153096978
 20
9.1594516944
 30
0.0
 10
10.623932287
 20
9.1584616294
 30
0.0
 10
10.6297098038
 20
9.1582409815
 30
0.0
 10
10.6325959853
 20
9.1582409815
 30
0.0
  0
SPLINE
  5
2CD
100
AcDbEntity
  8
0
100
AcDbSpline
 62
7
  6
CONTINUOUS
 70
0
 71
3
 72
12
 73
8
 74
0
 42
0.0000001
 43
0.0000001
 44
0.0000000001
 40
0.0
 40
0.0
 40
0.0
 40
0.0
 40
0.2210068169
 40
0.3415790477
 40
0.4671948823
 40
0.7290241089
 40
1.0
 40
1.0
 40
1.0
 40
1.0
 10
10.4687684935
 20
9.4694086008
 30
0.0
 10
10.4703053797
 20
9.4688491226
 30
0.0
 10
10.4727226272
 20
9.4680952249
 30
0.0
 10
10.4760825706
 20
9.467277078
 30
0.0
 10
10.4797709897
 20
9.4665432247
 30
0.0
 10
10.4846091416
 20
9.4659130485
 30
0.0
 10
10.4885541106
 20
9.4657409815
 30
0.0
 10
10.4905594584
 20
9.4657409815
 30
0.0
  0
SPLINE
  5
2CE
100
AcDbEntity
  8
0
100
AcDbSpline
 62
7
  6
CONTINUOUS
 70
0
 71
3
 72
11
 73
7
 74
0
 42
0.0000001
 43
0.0000001
 44
0.0000000001
 40
0.0
 40
0.0
 40
0.0
 40
0.0
 40
0.2709770439
 40
0.5325836601
 40
0.7786430962
 40
1.0
 40
1.0
 40
1.0
 40
1.0
 10
10.4905594584
 20
9.2427409815
 30
0.0
 10
10.4885611414
 20
9.2427409815
 30
0.0
 10
10.4846316051
 20
9.242569549
 30
0.0
 10
10.4789301675
 20
9.2418308885
 30
0.0
 10
10.4736729792
 20
9.2406762643
 30
0.0
 10
10.4703751357
 20
9.2396561582
 30
0.0
 10
10.468840483
 20
9.2390997855
 30
0.0
  0
SPLINE
  5
2CF
100
AcDbEntity
  8
0
100
AcDbSpline
 62
7
  6
CONTINUOUS
 70
0
 71
3
 72
39
 73
35
 74
0
 42
0.0000001
 43
0.0000001
 44
0.0000000001
 40
0.0
 40
0.0
 40
0.0
 40
0.0
 40
0.0270216159
 40
0.0542063242
 40
0.0817117333
 40
0.1096846812
 40
0.1382548092
 40
0.1675274783
 40
0.1975790039
 40
0.2284530365
 40
0.2601594961
 40
0.2926746877
 40
0.3259440593
 40
0.3598855475
 40
0.3943935552
 40
0.4293432848
 40
0.4645955091
 40
0.5000013965
 40
0.5354072602
 40
0.5706594134
 40
0.6056090252
 40
0.6401168761
 40
0.6740581578
 40
0.7073272986
 40
0.7398422297
 40
0.7715484268
 40
0.8024221774
 40
0.8324734351
 40
0.8617458526
 40
0.8903157544
 40
0.9182885179
 40
0.9457937805
 40
0.9729784026
 40
1.0
 40
1.0
 40
1.0
 40
1.0
 10
10.3530571856
 20
9.1582409815
 30
0.0
 10
10.3578875667
 20
9.1582409815
 30
0.0
 10
10.3675903506
 20
9.1589067356
 30
0.0
 10
10.3819339187
 20
9.1618807428
 30
0.0
 10
10.3959204919
 20
9.1667775122
 30
0.0
 10
10.4093918558
 20
9.1735162087
 30
0.0
 10
10.4222163427
 20
9.1819977336
 30
0.0
 10
10.4342811893
 20
9.1921119336
 30
0.0
 10
10.4454900331
 20
9.203741782
 30
0.0
 10
10.4557584357
 20
9.2167648578
 30
0.0
 10
10.4650108934
 20
9.2310530025
 30
0.0
 10
10.4731792795
 20
9.2464713793
 30
0.0
 10
10.4802024075
 20
9.2628777046
 30
0.0
 10
10.4860264797
 20
9.2801220121
 30
0.0
 10
10.4906058053
 20
9.298046952
 30
0.0
 10
10.4939037172
 20
9.3164886136
 30
0.0
 10
10.4958933652
 20
9.3352778205
 30
0.0
 10
10.4965583817
 20
9.3542417298
 30
0.0
 10
10.4958932631
 20
9.3732056229
 30
0.0
 10
10.4939035178
 20
9.3919947812
 30
0.0
 10
10.4906055176
 20
9.4104363642
 30
0.0
 10
10.4860261177
 20
9.4283611961
 30
0.0
 10
10.4802019882
 20
9.4456053721
 30
0.0
 10
10.4731788248
 20
9.4620115464
 30
0.0
 10
10.4650104264
 20
9.4774297638
 30
0.0
 10
10.4557579798
 20
9.4917177437
 30
0.0
 10
10.4454896131
 20
9.5047406624
 30
0.0
 10
10.4342808262
 20
9.5163703659
 30
0.0
 10
10.4222160519
 20
9.5264844435
 30
0.0
 10
10.4093916445
 20
9.5349658726
 30
0.0
 10
10.3959203596
 20
9.5417045028
 30
0.0
 10
10.3819338533
 20
9.5466012358
 30
0.0
 10
10.3675903285
 20
9.549575229
 30
0.0
 10
10.3578875634
 20
9.5502409815
 30
0.0
 10
10.3530571856
 20
9.5502409815
 30
0.0
  0
SPLINE
  5
2D0
100
AcDbEntity
  8
0
100
AcDbSpline
 62
7
  6
CONTINUOUS
 70
0
 71
3
 72
32
 73
28
 74
0
 42
0.0000001
 43
0.0000001
 44
0.0000000001
 40
0.0
 40
0.0
 40
0.0
 40
0.0
 40
0.0149256196
 40
0.020744985
 40
0.0254903493
 40
0.0291774183
 40
0.03182151
 40
0.0340543323
 40
0.0357593323
 40
0.0380388467
 40
0.0412440516
 40
0.0503561741
 40
0.0629335197
 40
0.0788041941
 40
0.0978011626
 40
0.1197631669
 40
0.1445283676
 40
0.1719306567
 40
0.2018073736
 40
0.2683526812
 40
0.3429706561
 40
0.4245257962
 40
0.5119163736
 40
0.6040099223
 40
0.699687802
 40
0.7980115004
 40
1.0
 40
1.0
 40
1.0
 40
1.0
 10
10.5200467683
 20
9.2355661708
 30
0.0
 10
10.5201642319
 20
9.2354523097
 30
0.0
 10
10.5203284926
 20
9.2352961402
 30
0.0
 10
10.5205359835
 20
9.2351065865
 30
0.0
 10
10.520649869
 20
9.2350046526
 30
0.0
 10
10.5207482008
 20
9.234919482
 30
0.0
 10
10.520802913
 20
9.2348718303
 30
0.0
 10
10.5209036371
 20
9.2347898873
 30
0.0
 10
10.5208177576
 20
9.2348574093
 30
0.0
 10
10.5207659195
 20
9.2348957113
 30
0.0
 10
10.5206304191
 20
9.2349955749
 30
0.0
 10
10.5204118553
 20
9.2351484819
 30
0.0
 10
10.5200672014
 20
9.2353789655
 30
0.0
 10
10.5196290511
 20
9.2356570752
 30
0.0
 10
10.5190952153
 20
9.2359788687
 30
0.0
 10
10.5184693875
 20
9.2363355002
 30
0.0
 10
10.517753757
 20
9.2367204779
 30
0.0
 10
10.5169518969
 20
9.2371276432
 30
0.0
 10
10.5157274622
 20
9.237713294
 30
0.0
 10
10.514006191
 20
9.2384580517
 30
0.0
 10
10.5117212283
 20
9.2393195626
 30
0.0
 10
10.5091802431
 20
9.2401415482
 30
0.0
 10
10.5064169286
 20
9.2408874829
 30
0.0
 10
10.5034704486
 20
9.2415358535
 30
0.0
 10
10.5003779729
 20
9.2420629537
 30
0.0
 10
10.4960678058
 20
9.2425823384
 30
0.0
 10
10.4927733382
 20
9.2427409815
 30
0.0
 10
10.4905594584
 20
9.2427409815
 30
0.0
  0
SPLINE
  5
2D1
100
AcDbEntity
  8
0
100
AcDbSpline
 62
7
  6
CONTINUOUS
 70
0
 71
3
 72
19
 73
15
 74
0
 42
0.0000001
 43
0.0000001
 44
0.0000000001
 40
0.0
 40
0.0
 40
0.0
 40
0.0
 40
0.1773838489
 40
0.3492310025
 40
0.5121432077
 40
0.6610612831
 40
0.7284962017
 40
0.7902986527
 40
0.8457402918
 40
0.894065447
 40
0.9344826657
 40
0.9661581367
 40
0.988264621
 40
1.0
 40
1.0
 40
1.0
 40
1.0
 10
10.4905594584
 20
9.4657409815
 30
0.0
 10
10.4924341125
 20
9.4657409815
 30
0.0
 10
10.4961265354
 20
9.465892462
 30
0.0
 10
10.501505372
 20
9.4665450962
 30
0.0
 10
10.5065173182
 20
9.4675770795
 30
0.0
 10
10.5103724296
 20
9.4686917021
 30
0.0
 10
10.5131388659
 20
9.4696880647
 30
0.0
 10
10.5149475209
 20
9.4704230209
 30
0.0
 10
10.5165414262
 20
9.4711461777
 30
0.0
 10
10.5179021252
 20
9.4718330097
 30
0.0
 10
10.5190149167
 20
9.4724511087
 30
0.0
 10
10.5198658453
 20
9.4729684057
 30
0.0
 10
10.5204422483
 20
9.4733523413
 30
0.0
 10
10.5207329683
 20
9.4735608286
 30
0.0
 10
10.520831784
 20
9.4736357773
 30
0.0
  0
SPLINE
  5
2D2
100
AcDbEntity
  8
0
100
AcDbSpline
 62
7
  6
CONTINUOUS
 70
0
 71
3
 72
19
 73
15
 74
0
 42
0.0000001
 43
0.0000001
 44
0.0000000001
 40
0.0
 40
0.0
 40
0.0
 40
0.0
 40
0.0596418641
 40
0.1193404986
 40
0.1791882553
 40
0.2392474835
 40
0.299588588
 40
0.3602839289
 40
0.4214054761
 40
0.4830210953
 40
0.6079296687
 40
0.7355357228
 40
0.8661691947
 40
1.0
 40
1.0
 40
1.0
 40
1.0
 10
11.4620406912
 20
9.1582409815
 30
0.0
 10
11.4649069095
 20
9.1582409815
 30
0.0
 10
11.4706444427
 20
9.1584585587
 30
0.0
 10
11.4792079793
 20
9.1594350585
 30
0.0
 10
11.4876943091
 20
9.1610544541
 30
0.0
 10
11.4960668692
 20
9.1633058735
 30
0.0
 10
11.5042916179
 20
9.1661740897
 30
0.0
 10
11.5123374155
 20
9.169641573
 30
0.0
 10
11.5201771372
 20
9.1736880088
 30
0.0
 10
11.530365948
 20
9.1798528937
 30
0.0
 10
11.5424831621
 20
9.1889316042
 30
0.0
 10
11.5557856889
 20
9.2017234801
 30
0.0
 10
11.5678134297
 20
9.2162748465
 30
0.0
 10
11.5748381392
 20
9.2268979089
 30
0.0
 10
11.5781177294
 20
9.2324304341
 30
0.0
  0
SPLINE
  5
2D3
100
AcDbEntity
  8
0
100
AcDbSpline
 62
7
  6
CONTINUOUS
 70
0
 71
3
 72
19
 73
15
 74
0
 42
0.0000001
 43
0.0000001
 44
0.0000000001
 40
0.0
 40
0.0
 40
0.0
 40
0.0
 40
0.1338252318
 40
0.2644545017
 40
0.3920580907
 40
0.516966103
 40
0.5785821046
 40
0.6397044725
 40
0.7004010136
 40
0.7607436939
 40
0.8208048048
 40
0.8806545981
 40
0.9403556482
 40
1.0
 40
1.0
 40
1.0
 40
1.0
 10
11.5780839981
 20
9.4761084081
 30
0.0
 10
11.5748041811
 20
9.4816370608
 30
0.0
 10
11.5677794792
 20
9.4922525532
 30
0.0
 10
11.5557532097
 20
9.5067931234
 30
0.0
 10
11.5424535076
 20
9.519575201
 30
0.0
 10
11.5303397678
 20
9.528646718
 30
0.0
 10
11.5201543058
 20
9.5348066444
 30
0.0
 10
11.5123173179
 20
9.5388498027
 30
0.0
 10
11.5042744876
 20
9.5423144494
 30
0.0
 10
11.4960529125
 20
9.5451803063
 30
0.0
 10
11.4876836945
 20
9.5474298461
 30
0.0
 10
11.4792008377
 20
9.5490479088
 30
0.0
 10
11.4706408523
 20
9.5500235784
 30
0.0
 10
11.4649057154
 20
9.5502409815
 30
0.0
 10
11.4620406912
 20
9.5502409815
 30
0.0
  0
SPLINE
  5
2D4
100
AcDbEntity
  8
0
100
AcDbSpline
 62
7
  6
CONTINUOUS
 70
0
 71
3
 72
35
 73
31
 74
0
 42
0.0000001
 43
0.0000001
 44
0.0000000001
 40
0.0
 40
0.0
 40
0.0
 40
0.0
 40
0.0006847245
 40
0.0010895944
 40
0.0025571899
 40
0.0050562723
 40
0.0085552551
 40
0.0130232864
 40
0.0184302938
 40
0.0247470309
 40
0.031944006
 40
0.0399895422
 40
0.0488520419
 40
0.0585004853
 40
0.0800335944
 40
0.1043535224
 40
0.1312270323
 40
0.1604249333
 40
0.1917256809
 40
0.2249172773
 40
0.2961482763
 40
0.3725442075
 40
0.4526287383
 40
0.534984567
 40
0.6182457653
 40
0.7010602604
 40
0.7820731661
 40
0.8598838792
 40
0.9330398162
 40
1.0
 40
1.0
 40
1.0
 40
1.0
 10
11.573790392
 20
9.4736456801
 30
0.0
 10
11.5737809213
 20
9.4736535069
 30
0.0
 10
11.5737481767
 20
9.4736798012
 30
0.0
 10
11.5738024166
 20
9.4736370164
 30
0.0
 10
11.5738509687
 20
9.4736011442
 30
0.0
 10
11.5739672872
 20
9.4735151782
 30
0.0
 10
11.5741166956
 20
9.4734093745
 30
0.0
 10
11.5743158508
 20
9.4732722251
 30
0.0
 10
11.5745573227
 20
9.4731118133
 30
0.0
 10
11.5748433065
 20
9.4729284145
 30
0.0
 10
11.5751723662
 20
9.4727251213
 30
0.0
 10
11.5755439635
 20
9.4725036958
 30
0.0
 10
11.5759571516
 20
9.4722663053
 30
0.0
 10
11.5765858076
 20
9.4719182926
 30
0.0
 10
11.5774689679
 20
9.471457636
 30
0.0
 10
11.5786455514
 20
9.4708926799
 30
0.0
 10
11.5799655039
 20
9.4703102509
 30
0.0
 10
11.581419493
 20
9.4697232219
 30
0.0
 10
11.582998315
 20
9.4691448013
 30
0.0
 10
11.5853118357
 20
9.4683830647
 30
0.0
 10
11.5884417072
 20
9.4675189346
 30
0.0
 10
11.5924454002
 20
9.4666893592
 30
0.0
 10
11.5966919291
 20
9.4660908969
 30
0.0
 10
11.6010911482
 20
9.4657572821
 30
0.0
 10
11.6055516631
 20
9.4657104571
 30
0.0
 10
11.6099821903
 20
9.4659451829
 30
0.0
 10
11.614290411
 20
9.466459575
 30
0.0
 10
11.6183870537
 20
9.467213384
 30
0.0
 10
11.6221807161
 20
9.4681723822
 30
0.0
 10
11.624575847
 20
9.4689434199
 30
0.0
 10
11.6257064275
 20
9.4693500835
 30
0.0
  0
SPLINE
  5
2D5
100
AcDbEntity
  8
0
100
AcDbSpline
 62
7
  6
CONTINUOUS
 70
0
 71
3
 72
24
 73
20
 74
0
 42
0.0000001
 43
0.0000001
 44
0.0000000001
 40
0.0
 40
0.0
 40
0.0
 40
0.0
 40
0.0270754678
 40
0.0541701947
 40
0.0813267242
 40
0.1085865001
 40
0.1635485852
 40
0.2193995973
 40
0.2764172801
 40
0.3348313347
 40
0.394811377
 40
0.4564593893
 40
0.5198059983
 40
0.5848110089
 40
0.6513681426
 40
0.7193122379
 40
0.7884279615
 40
0.8584580958
 40
1.0
 40
1.0
 40
1.0
 40
1.0
 10
11.7455756798
 20
9.5501655778
 30
0.0
 10
11.7431214734
 20
9.5502580915
 30
0.0
 10
11.7382031518
 20
9.550272716
 30
0.0
 10
11.7308369894
 20
9.5497814214
 30
0.0
 10
11.7235052977
 20
9.5487794423
 30
0.0
 10
11.7137840896
 20
9.5467641872
 30
0.0
 10
11.7018041759
 20
9.5429746446
 30
0.0
 10
11.6879751797
 20
9.5365142415
 30
0.0
 10
11.6747881001
 20
9.528227774
 30
0.0
 10
11.6623671967
 20
9.5182296868
 30
0.0
 10
11.650816117
 20
9.5066420997
 30
0.0
 10
11.640225637
 20
9.4935930864
 30
0.0
 10
11.6306763299
 20
9.4792166547
 30
0.0
 10
11.6222407987
 20
9.4636538255
 30
0.0
 10
11.6149841666
 20
9.4470532894
 30
0.0
 10
11.6089638185
 20
9.4295726668
 30
0.0
 10
11.6042282536
 20
9.4113747684
 30
0.0
 10
11.5996652913
 20
9.386310378
 30
0.0
 10
11.5983002703
 20
9.3670799017
 30
0.0
 10
11.5983002703
 20
9.3542409815
 30
0.0
  0
SPLINE
  5
2D6
100
AcDbEntity
  8
0
100
AcDbSpline
 62
7
  6
CONTINUOUS
 70
0
 71
3
 72
22
 73
18
 74
0
 42
0.0000001
 43
0.0000001
 44
0.0000000001
 40
0.0
 40
0.0
 40
0.0
 40
0.0
 40
0.0642424138
 40
0.1341149067
 40
0.2082769405
 40
0.2854727039
 40
0.4440658806
 40
0.5231949275
 40
0.6006259998
 40
0.6751468603
 40
0.7455034185
 40
0.8103717975
 40
0.8683354975
 40
0.9179047744
 40
0.9574812532
 40
0.9854161864
 40
1.0
 40
1.0
 40
1.0
 40
1.0
 10
11.6255314689
 20
9.2391949686
 30
0.0
 10
11.6244520388
 20
9.2395793655
 30
0.0
 10
11.6221717219
 20
9.2403078219
 30
0.0
 10
11.6185694544
 20
9.2412243144
 30
0.0
 10
11.6146894014
 20
9.2419567653
 30
0.0
 10
11.6092024662
 20
9.2426527828
 30
0.0
 10
11.6035715665
 20
9.242837871
 30
0.0
 10
11.5979572249
 20
9.2425131953
 30
0.0
 10
11.5938627265
 20
9.2420178338
 30
0.0
 10
11.5899596019
 20
9.2413058375
 30
0.0
 10
11.586325955
 20
9.2404057681
 30
0.0
 10
11.5830358345
 20
9.2393749101
 30
0.0
 10
11.5801612719
 20
9.2382774168
 30
0.0
 10
11.5777706777
 20
9.2371921008
 30
0.0
 10
11.5759229006
 20
9.2362161747
 30
0.0
 10
11.5746715
 20
9.2354546022
 30
0.0
 10
11.5740447073
 20
9.2350266822
 30
0.0
 10
11.5738368678
 20
9.2348702724
 30
0.0
  0
SPLINE
  5
2D7
100
AcDbEntity
  8
0
100
AcDbSpline
 62
7
  6
CONTINUOUS
 70
0
 71
3
 72
22
 73
18
 74
0
 42
0.0000001
 43
0.0000001
 44
0.0000000001
 40
0.0
 40
0.0
 40
0.0
 40
0.0
 40
0.1415398273
 40
0.2115697556
 40
0.2806863361
 40
0.3486326314
 40
0.4151934631
 40
0.4802036973
 40
0.5435569537
 40
0.6052127475
 40
0.6652013076
 40
0.7236240542
 40
0.7806499941
 40
0.8365081127
 40
0.8914754828
 40
0.9458626519
 40
1.0
 40
1.0
 40
1.0
 40
1.0
 10
11.5983002703
 20
9.3542409815
 30
0.0
 10
11.5983002703
 20
9.3414103217
 30
0.0
 10
11.5996635424
 20
9.322192197
 30
0.0
 10
11.6042206344
 20
9.2971431735
 30
0.0
 10
11.6089501673
 20
9.2789556834
 30
0.0
 10
11.6149629206
 20
9.2614841223
 30
0.0
 10
11.6222105131
 20
9.244891003
 30
0.0
 10
11.6306356957
 20
9.229333663
 30
0.0
 10
11.640173498
 20
9.2149605347
 30
0.0
 10
11.6507515012
 20
9.2019123895
 30
0.0
 10
11.6622893017
 20
9.1903230069
 30
0.0
 10
11.6746965022
 20
9.1803202147
 30
0.0
 10
11.6878693151
 20
9.1720259925
 30
0.0
 10
11.7016855423
 20
9.1655544114
 30
0.0
 10
11.7160020966
 20
9.1610065284
 30
0.0
 10
11.7306477179
 20
9.1584615925
 30
0.0
 10
11.7405175892
 20
9.158132927
 30
0.0
 10
11.7454219482
 20
9.1583106755
 30
0.0
  0
SPLINE
  5
2D8
100
AcDbEntity
  8
0
100
AcDbSpline
 62
7
  6
CONTINUOUS
 70
0
 71
3
 72
22
 73
18
 74
0
 42
0.0000001
 43
0.0000001
 44
0.0000000001
 40
0.0
 40
0.0
 40
0.0
 40
0.0
 40
0.0615560036
 40
0.1231198216
 40
0.1847032936
 40
0.246319119
 40
0.3079875169
 40
0.3697332204
 40
0.4315886628
 40
0.4935920461
 40
0.5557861967
 40
0.6182178267
 40
0.6809332797
 40
0.7439765634
 40
0.8073871825
 40
0.8711928483
 40
1.0
 40
1.0
 40
1.0
 40
1.0
 10
11.4998183383
 20
6.009271898
 30
0.0
 10
11.4998183383
 20
6.0001591113
 30
0.0
 10
11.499039148
 20
5.9819228174
 30
0.0
 10
11.4955458653
 20
5.9547716884
 30
0.0
 10
11.4897668665
 20
5.9280031273
 30
0.0
 10
11.4817640835
 20
5.9017984975
 30
0.0
 10
11.471619882
 20
5.8763212476
 30
0.0
 10
11.4594326803
 20
5.8517174677
 30
0.0
 10
11.4453124666
 20
5.8281135212
 30
0.0
 10
11.4293766784
 20
5.8056156215
 30
0.0
 10
11.411745813
 20
5.7843109669
 30
0.0
 10
11.3925407562
 20
5.7642694871
 30
0.0
 10
11.3718800333
 20
5.7455464435
 30
0.0
 10
11.3498796755
 20
5.7281854232
 30
0.0
 10
11.3266496424
 20
5.7122202545
 30
0.0
 10
11.2940939777
 20
5.692777125
 30
0.0
 10
11.268279832
 20
5.6804524959
 30
0.0
 10
11.2506256592
 20
5.67324521
 30
0.0
  0
SPLINE
  5
2D9
100
AcDbEntity
  8
0
100
AcDbSpline
 62
7
  6
CONTINUOUS
 70
0
 71
3
 72
29
 73
25
 74
0
 42
0.0000001
 43
0.0000001
 44
0.0000000001
 40
0.0
 40
0.0
 40
0.0
 40
0.0
 40
0.0654533296
 40
0.1307389728
 40
0.1957058829
 40
0.2602285233
 40
0.3242158096
 40
0.3876165733
 40
0.4504243694
 40
0.5126704262
 40
0.5744201214
 40
0.6357607631
 40
0.6663177888
 40
0.6968082953
 40
0.7272434765
 40
0.7576339954
 40
0.7879889599
 40
0.818316137
 40
0.8486220827
 40
0.878912408
 40
0.9091923858
 40
0.9394657865
 40
0.9697319695
 40
1.0
 40
1.0
 40
1.0
 40
1.0
 10
11.046378511
 20
5.6342429629
 30
0.0
 10
11.032165325
 20
5.6342667213
 30
0.0
 10
11.0037652886
 20
5.6353910954
 30
0.0
 10
10.9615127672
 20
5.6403037094
 30
0.0
 10
10.9199595322
 20
5.64842214
 30
0.0
 10
10.8794459913
 20
5.6597159168
 30
0.0
 10
10.8402997595
 20
5.6741455713
 30
0.0
 10
10.8028419322
 20
5.6916642326
 30
0.0
 10
10.767390628
 20
5.7122165924
 30
0.0
 10
10.7342663439
 20
5.7357362082
 30
0.0
 10
10.7038019817
 20
5.7621328795
 30
0.0
 10
10.6808813917
 20
5.7864688346
 30
0.0
 10
10.6642507172
 20
5.807212707
 30
0.0
 10
10.6526764016
 20
5.8233707874
 30
0.0
 10
10.642032807
 20
5.8401135967
 30
0.0
 10
10.6323642452
 20
5.8574046312
 30
0.0
 10
10.623713906
 20
5.8752011527
 30
0.0
 10
10.6161225198
 20
5.8934549873
 30
0.0
 10
10.6096284883
 20
5.9121128509
 30
0.0
 10
10.6042652519
 20
5.9311162561
 30
0.0
 10
10.6000618428
 20
5.9504023333
 30
0.0
 10
10.5970424667
 20
5.9699039242
 30
0.0
 10
10.5952233138
 20
5.9895505719
 30
0.0
 10
10.5948183383
 20
6.0026991881
 30
0.0
 10
10.5948183383
 20
6.009271898
 30
0.0
  0
SPLINE
  5
2DA
100
AcDbEntity
  8
0
100
AcDbSpline
 62
7
  6
CONTINUOUS
 70
0
 71
3
 72
13
 73
9
 74
0
 42
0.0000001
 43
0.0000001
 44
0.0000000001
 40
0.0
 40
0.0
 40
0.0
 40
0.0
 40
0.127795814
 40
0.255310517
 40
0.4454500055
 40
0.6334813489
 40
0.8185800692
 40
1.0
 40
1.0
 40
1.0
 40
1.0
 10
11.0483363449
 20
5.6342431351
 30
0.0
 10
11.0569604388
 20
5.6342587491
 30
0.0
 10
11.0741917791
 20
5.6346864128
 30
0.0
 10
11.1041858637
 20
5.6368176675
 30
0.0
 10
11.1380578085
 20
5.6412065746
 30
0.0
 10
11.1753460329
 20
5.6487516913
 30
0.0
 10
11.2114207666
 20
5.6588271124
 30
0.0
 10
11.2347016984
 20
5.6672656382
 30
0.0
 10
11.2460363757
 20
5.6718930008
 30
0.0
  0
SPLINE
  5
2DB
100
AcDbEntity
  8
0
100
AcDbSpline
 62
7
  6
CONTINUOUS
 70
0
 71
3
 72
11
 73
7
 74
0
 42
0.0000001
 43
0.0000001
 44
0.0000000001
 40
0.0
 40
0.0
 40
0.0
 40
0.0
 40
0.2470634912
 40
0.4965271273
 40
0.747783925
 40
1.0
 40
1.0
 40
1.0
 40
1.0
 10
11.2506256592
 20
5.67324521
 30
0.0
 10
11.2348270767
 20
5.6667954657
 30
0.0
 10
11.2023835851
 20
5.6554700277
 30
0.0
 10
11.1521061509
 20
5.6433146556
 30
0.0
 10
11.1005496653
 20
5.635954201
 30
0.0
 10
11.0657566195
 20
5.634274652
 30
0.0
 10
11.048336345
 20
5.6342430996
 30
0.0
  0
SPLINE
  5
2DC
100
AcDbEntity
  8
0
100
AcDbSpline
 62
7
  6
CONTINUOUS
 70
0
 71
3
 72
15
 73
11
 74
0
 42
0.0000001
 43
0.0000001
 44
0.0000000001
 40
0.0
 40
0.0
 40
0.0
 40
0.0
 40
0.1211714329
 40
0.2427318975
 40
0.3650615908
 40
0.488524066
 40
0.6134583476
 40
0.7401730862
 40
0.868942178
 40
1.0
 40
1.0
 40
1.0
 40
1.0
 10
11.4998182706
 20
6.2370506853
 30
0.0
 10
11.4998182289
 20
6.2431107235
 30
0.0
 10
11.4993297688
 20
6.255255885
 30
0.0
 10
11.4971343063
 20
6.2733994991
 30
0.0
 10
11.4934840991
 20
6.2914249852
 30
0.0
 10
11.4883910729
 20
6.309271771
 30
0.0
 10
11.4818726555
 20
6.3268820258
 30
0.0
 10
11.4739509647
 20
6.3441989228
 30
0.0
 10
11.4646525046
 20
6.3611653089
 30
0.0
 10
11.45762053
 20
6.3721069812
 30
0.0
 10
11.4538948029
 20
6.3774995807
 30
0.0
  0
SPLINE
  5
2DD
100
AcDbEntity
  8
0
100
AcDbSpline
 62
7
  6
CONTINUOUS
 70
0
 71
3
 72
15
 73
11
 74
0
 42
0.0000001
 43
0.0000001
 44
0.0000000001
 40
0.0
 40
0.0
 40
0.0
 40
0.0
 40
0.1211216338
 40
0.242637721
 40
0.3649336811
 40
0.488377468
 40
0.6133125365
 40
0.7400506956
 40
0.8688676647
 40
1.0
 40
1.0
 40
1.0
 40
1.0
 10
10.5948184059
 20
6.2370506854
 30
0.0
 10
10.5948183639
 20
6.2431542182
 30
0.0
 10
10.5953141546
 20
6.2553868993
 30
0.0
 10
10.5975409288
 20
6.2736602342
 30
0.0
 10
10.6012440107
 20
6.2918127446
 30
0.0
 10
10.6064099114
 20
6.3097827485
 30
0.0
 10
10.613021331
 20
6.3275110768
 30
0.0
 10
10.6210556499
 20
6.3449395455
 30
0.0
 10
10.6304847264
 20
6.3620103033
 30
0.0
 10
10.6376144961
 20
6.3730138764
 30
0.0
 10
10.6413915413
 20
6.3784360032
 30
0.0
  0
SPLINE
  5
2DE
100
AcDbEntity
  8
0
100
AcDbSpline
 62
7
  6
CONTINUOUS
 70
0
 71
3
 72
21
 73
17
 74
0
 42
0.0000001
 43
0.0000001
 44
0.0000000001
 40
0.0
 40
0.0
 40
0.0
 40
0.0
 40
0.0554311744
 40
0.1110879663
 40
0.1671896131
 40
0.2239429936
 40
0.2815375388
 40
0.3401411948
 40
0.3998972052
 40
0.460922401
 40
0.5233065873
 40
0.5871122363
 40
0.7190383434
 40
0.7872237117
 40
0.8568254904
 40
1.0
 40
1.0
 40
1.0
 40
1.0
 10
11.5098182691
 20
5.7067205995
 30
0.0
 10
11.5098183172
 20
5.6997410127
 30
0.0
 10
11.5091834279
 20
5.6857452269
 30
0.0
 10
11.5063332537
 20
5.6648602881
 30
0.0
 10
11.5015965954
 20
5.6441489234
 30
0.0
 10
11.4949945774
 20
5.6236995923
 30
0.0
 10
11.4865560033
 20
5.6035962147
 30
0.0
 10
11.4763168886
 20
5.5839217515
 30
0.0
 10
11.4643207986
 20
5.5647565187
 30
0.0
 10
11.4506187101
 20
5.546178575
 30
0.0
 10
11.4352666589
 20
5.5282624429
 30
0.0
 10
11.4124354603
 20
5.5051026133
 30
0.0
 10
11.386755292
 20
5.4838420515
 30
0.0
 10
11.3587351073
 20
5.4646281362
 30
0.0
 10
11.3284262625
 20
5.4463509085
 30
0.0
 10
11.3043295473
 20
5.4344827075
 30
0.0
 10
11.2877702294
 20
5.4273561043
 30
0.0
  0
SPLINE
  5
2DF
100
AcDbEntity
  8
0
100
AcDbSpline
 62
7
  6
CONTINUOUS
 70
0
 71
3
 72
21
 73
17
 74
0
 42
0.0000001
 43
0.0000001
 44
0.0000000001
 40
0.0
 40
0.0
 40
0.0
 40
0.0
 40
0.055226632
 40
0.110688246
 40
0.1666128653
 40
0.2232151402
 40
0.2806908217
 40
0.3392122606
 40
0.3989253718
 40
0.4599478424
 40
0.5223683413
 40
0.5862464879
 40
0.7184063194
 40
0.7867419891
 40
0.856506202
 40
1.0
 40
1.0
 40
1.0
 40
1.0
 10
11.6223183383
 20
5.0561823608
 30
0.0
 10
11.6223183386
 20
5.0473088597
 30
0.0
 10
11.6214928456
 20
5.0295131928
 30
0.0
 10
11.6177867183
 20
5.0029644276
 30
0.0
 10
11.6116290941
 20
4.9766465655
 30
0.0
 10
11.6030482409
 20
4.9506772217
 30
0.0
 10
11.5920830634
 20
4.9251680093
 30
0.0
 10
11.5787831221
 20
4.9002287424
 30
0.0
 10
11.5632075543
 20
4.8759657628
 30
0.0
 10
11.5454252015
 20
4.8524825085
 30
0.0
 10
11.5255122494
 20
4.829877383
 30
0.0
 10
11.4959101737
 20
4.8007134257
 30
0.0
 10
11.4626550936
 20
4.7740583351
 30
0.0
 10
11.4264196532
 20
4.7500951715
 30
0.0
 10
11.3872556205
 20
4.7273975542
 30
0.0
 10
11.356163831
 20
4.7127824712
 30
0.0
 10
11.3348183383
 20
4.7040682103
 30
0.0
  0
SPLINE
  5
2E0
100
AcDbEntity
  8
0
100
AcDbSpline
 62
7
  6
CONTINUOUS
 70
0
 71
3
 72
20
 73
16
 74
0
 42
0.0000001
 43
0.0000001
 44
0.0000000001
 40
0.0
 40
0.0
 40
0.0
 40
0.0
 40
0.0587112502
 40
0.1175254226
 40
0.1765441412
 40
0.2358666137
 40
0.2955883419
 40
0.3558002579
 40
0.4165876072
 40
0.4780293223
 40
0.6031130252
 40
0.6669186608
 40
0.7316203186
 40
0.8638265113
 40
1.0
 40
1.0
 40
1.0
 40
1.0
 10
10.4723184266
 20
5.7208627351
 30
0.0
 10
10.4723184367
 20
5.72654565
 30
0.0
 10
10.4726559001
 20
5.7379243271
 30
0.0
 10
10.4741741409
 20
5.7549547158
 30
0.0
 10
10.4767008794
 20
5.7719252516
 30
0.0
 10
10.4802323341
 20
5.7888049234
 30
0.0
 10
10.4847614273
 20
5.8055642373
 30
0.0
 10
10.49028043
 20
5.8221731936
 30
0.0
 10
10.4967793779
 20
5.8386032635
 30
0.0
 10
10.5067926073
 20
5.8603571389
 30
0.0
 10
10.5186929978
 20
5.881524617
 30
0.0
 10
10.5323131469
 20
5.901954273
 30
0.0
 10
10.5473383084
 20
5.9222413436
 30
0.0
 10
10.5683893271
 20
5.9467258293
 30
0.0
 10
10.5870675832
 20
5.9648350962
 30
0.0
 10
10.5969085851
 20
5.9736037145
 30
0.0
  0
SPLINE
  5
2E1
100
AcDbEntity
  8
0
100
AcDbSpline
 62
7
  6
CONTINUOUS
 70
0
 71
3
 72
21
 73
17
 74
0
 42
0.0000001
 43
0.0000001
 44
0.0000000001
 40
0.0
 40
0.0
 40
0.0
 40
0.0
 40
0.1361610651
 40
0.2683588962
 40
0.3330563847
 40
0.3968586566
 40
0.4598142355
 40
0.5219795752
 40
0.5834191542
 40
0.6442047125
 40
0.7044152566
 40
0.7641358887
 40
0.8234575408
 40
0.882475583
 40
0.9412892218
 40
1.0
 40
1.0
 40
1.0
 40
1.0
 10
11.4978049596
 20
5.9735352214
 30
0.0
 10
11.5076400168
 20
5.9647679165
 30
0.0
 10
11.5263071211
 20
5.9466618772
 30
0.0
 10
11.5473454138
 20
5.9221824109
 30
0.0
 10
11.5623610288
 20
5.9019009768
 30
0.0
 10
11.5726390641
 20
5.8864778931
 30
0.0
 10
11.581994577
 20
5.8707628464
 30
0.0
 10
11.5904107908
 20
5.8547828818
 30
0.0
 10
11.5978731091
 20
5.8385663697
 30
0.0
 10
11.6043675773
 20
5.8221415073
 30
0.0
 10
11.6098832488
 20
5.8055375081
 30
0.0
 10
11.6144093565
 20
5.7887833618
 30
0.0
 10
11.6179386356
 20
5.7719089835
 30
0.0
 10
11.6204637058
 20
5.7549438136
 30
0.0
 10
11.621980998
 20
5.7379188635
 30
0.0
 10
11.62231826
 20
5.7265438325
 30
0.0
 10
11.62231825
 20
5.7208627351
 30
0.0
  0
SPLINE
  5
2E2
100
AcDbEntity
  8
0
100
AcDbSpline
 62
7
  6
CONTINUOUS
 70
0
 71
3
 72
35
 73
31
 74
0
 42
0.0000001
 43
0.0000001
 44
0.0000000001
 40
0.0
 40
0.0
 40
0.0
 40
0.0
 40
0.0667180107
 40
0.1007490542
 40
0.1351402516
 40
0.2047095846
 40
0.2397643587
 40
0.27489422
 40
0.3450599578
 40
0.3799653422
 40
0.414648676
 40
0.4830511237
 40
0.5166608099
 40
0.5497905017
 40
0.5823881479
 40
0.61440847
 40
0.6458138662
 40
0.6765753053
 40
0.7066732484
 40
0.7360986157
 40
0.7648536208
 40
0.7929524808
 40
0.820422017
 40
0.8473021275
 40
0.8736458025
 40
0.8995187368
 40
0.9249984962
 40
0.9501731999
 40
0.9751394861
 40
1.0
 40
1.0
 40
1.0
 40
1.0
 10
11.3348183383
 20
4.7040682103
 30
0.0
 10
11.312771074
 20
4.6950674523
 30
0.0
 10
11.2787204041
 20
4.6832493027
 30
0.0
 10
11.2320910436
 20
4.6708542315
 30
0.0
 10
11.1839141719
 20
4.6605315844
 30
0.0
 10
11.1346883344
 20
4.653638286
 30
0.0
 10
11.0849118242
 20
4.6501753494
 30
0.0
 10
11.0348152105
 20
4.6490168264
 30
0.0
 10
10.9847411994
 20
4.6513277321
 30
0.0
 10
10.9351790257
 20
4.6571075404
 30
0.0
 10
10.8865663777
 20
4.6651135605
 30
0.0
 10
10.839021291
 20
4.6764745926
 30
0.0
 10
10.7930644673
 20
4.6911811735
 30
0.0
 10
10.7598770601
 20
4.7037093594
 30
0.0
 10
10.7279174054
 20
4.7177448558
 30
0.0
 10
10.6973205596
 20
4.7332284888
 30
0.0
 10
10.6682174328
 20
4.7500945695
 30
0.0
 10
10.6407322733
 20
4.7682718551
 30
0.0
 10
10.6149827406
 20
4.7876836801
 30
0.0
 10
10.5910790395
 20
4.8082479781
 30
0.0
 10
10.5691237809
 20
4.8298779521
 30
0.0
 10
10.5492116448
 20
4.8524823577
 30
0.0
 10
10.531429081
 20
4.875965799
 30
0.0
 10
10.5158535667
 20
4.9002287285
 30
0.0
 10
10.5025536132
 20
4.9251680082
 30
0.0
 10
10.4915884372
 20
4.9506772176
 30
0.0
 10
10.4830075835
 20
4.976646563
 30
0.0
 10
10.4768499584
 20
5.0029644226
 30
0.0
 10
10.4731438321
 20
5.0295131883
 30
0.0
 10
10.4723183386
 20
5.0473088575
 30
0.0
 10
10.4723183383
 20
5.0561823608
 30
0.0
  0
SPLINE
  5
2E3
100
AcDbEntity
  8
0
100
AcDbSpline
 62
7
  6
CONTINUOUS
 70
0
 71
3
 72
31
 73
27
 74
0
 42
0.0000001
 43
0.0000001
 44
0.0000000001
 40
0.0
 40
0.0
 40
0.0
 40
0.0
 40
0.0667244029
 40
0.1007584984
 40
0.1351528236
 40
0.2047287073
 40
0.2749010311
 40
0.3450733199
 40
0.4146491623
 40
0.4830580188
 40
0.5166708309
 40
0.549803608
 40
0.6144034316
 40
0.6458117463
 40
0.6765760634
 40
0.7360739626
 40
0.7648316572
 40
0.7929331431
 40
0.8204052339
 40
0.8472878625
 40
0.8736340139
 40
0.8995093468
 40
0.9249914808
 40
0.9501685503
 40
0.9751371743
 40
1.0
 40
1.0
 40
1.0
 40
1.0
 10
11.2785683383
 20
5.423498348
 30
0.0
 10
11.2608346271
 20
5.4162585907
 30
0.0
 10
11.2334459471
 20
5.406752696
 30
0.0
 10
11.195939979
 20
5.3967827236
 30
0.0
 10
11.1571881025
 20
5.3884797409
 30
0.0
 10
11.1076003124
 20
5.3815355128
 30
0.0
 10
11.0473189407
 20
5.3787538671
 30
0.0
 10
10.9870339933
 20
5.3815357817
 30
0.0
 10
10.9277710522
 20
5.389834869
 30
0.0
 10
10.879776312
 20
5.4013029904
 30
0.0
 10
10.8428088352
 20
5.4131330841
 30
0.0
 10
10.8075219126
 20
5.4264538475
 30
0.0
 10
10.7738918989
 20
5.4422627646
 30
0.0
 10
10.7423889109
 20
5.4605200529
 30
0.0
 10
10.7132432338
 20
5.4797947585
 30
0.0
 10
10.6864944466
 20
5.5012347162
 30
0.0
 10
10.6626841316
 20
5.5246927033
 30
0.0
 10
10.6466671569
 20
5.5428750538
 30
0.0
 10
10.6323639917
 20
5.5617637824
 30
0.0
 10
10.6198358172
 20
5.5812796558
 30
0.0
 10
10.6091379744
 20
5.6013394691
 30
0.0
 10
10.6003182311
 20
5.6218577805
 30
0.0
 10
10.5934162744
 20
5.6427461707
 30
0.0
 10
10.5884633175
 20
5.6639148627
 30
0.0
 10
10.5854822135
 20
5.685269307
 30
0.0
 10
10.5848184566
 20
5.6995832196
 30
0.0
 10
10.5848184074
 20
5.7067205995
 30
0.0
  0
SPLINE
  5
2E4
100
AcDbEntity
  8
0
100
AcDbSpline
 62
7
  6
CONTINUOUS
 70
0
 71
3
 72
18
 73
14
 74
0
 42
0.0000001
 43
0.0000001
 44
0.0000000001
 40
0.0
 40
0.0
 40
0.0
 40
0.0
 40
0.141161723
 40
0.2778232264
 40
0.4096307326
 40
0.5364354525
 40
0.658339937
 40
0.7175922441
 40
0.775783233
 40
0.8330036124
 40
0.8893615608
 40
0.9449808369
 40
1.0
 40
1.0
 40
1.0
 40
1.0
 10
11.2201279562
 20
5.5869480864
 30
0.0
 10
11.2311174182
 20
5.5914345155
 30
0.0
 10
11.2523684775
 20
5.6012324354
 30
0.0
 10
11.2821735966
 20
5.6186052435
 30
0.0
 10
11.3090769615
 20
5.6382319944
 30
0.0
 10
11.3327370973
 20
5.6598733464
 30
0.0
 10
11.349667889
 20
5.6795660811
 30
0.0
 10
11.3612382214
 20
5.6960495297
 30
0.0
 10
11.3688556672
 20
5.7086206649
 30
0.0
 10
11.3754678589
 20
5.7214754009
 30
0.0
 10
11.3810545004
 20
5.7345741008
 30
0.0
 10
11.3855964004
 20
5.7478748356
 30
0.0
 10
11.3879296998
 20
5.7568919785
 30
0.0
 10
11.3889138017
 20
5.7614125407
 30
0.0
  0
SPLINE
  5
2E5
100
AcDbEntity
  8
0
100
AcDbSpline
 62
7
  6
CONTINUOUS
 70
0
 71
3
 72
41
 73
37
 74
0
 42
0.0000001
 43
0.0000001
 44
0.0000000001
 40
0.0
 40
0.0
 40
0.0
 40
0.0
 40
0.0125790251
 40
0.0252172367
 40
0.0379249425
 40
0.0507116793
 40
0.0635862485
 40
0.0765568724
 40
0.102810869
 40
0.1295314165
 40
0.1567596049
 40
0.1845255589
 40
0.2128491593
 40
0.2417409874
 40
0.2712033044
 40
0.3012309364
 40
0.3318119956
 40
0.3629284234
 40
0.394556397
 40
0.4266666599
 40
0.4592248212
 40
0.4921916753
 40
0.5255235678
 40
0.5591728215
 40
0.5930882255
 40
0.6272155819
 40
0.6614982996
 40
0.6958780255
 40
0.7302953051
 40
0.7646902567
 40
0.7990032532
 40
0.8331755966
 40
0.8671501922
 40
0.9008721498
 40
0.9342895314
 40
1.0
 40
1.0
 40
1.0
 40
1.0
 10
8.9090516785
 20
3.8411577011
 30
0.0
 10
8.911388775
 20
3.8252041059
 30
0.0
 10
8.9167650799
 20
3.7933188199
 30
0.0
 10
8.9268934516
 20
3.7457589491
 30
0.0
 10
8.939095633
 20
3.6984126495
 30
0.0
 10
8.953360743
 20
3.6513305566
 30
0.0
 10
8.9696770432
 20
3.604561756
 30
0.0
 10
8.9942404163
 20
3.5424456488
 30
0.0
 10
9.0300802606
 20
3.4657830629
 30
0.0
 10
9.080797679
 20
3.3762475415
 30
0.0
 10
9.1391786993
 20
3.2891688411
 30
0.0
 10
9.2049584756
 20
3.2049210065
 30
0.0
 10
9.2778409531
 20
3.1238526963
 30
0.0
 10
9.3575013864
 20
3.046291432
 30
0.0
 10
9.4435920405
 20
2.9725399723
 30
0.0
 10
9.5357463879
 20
2.902876499
 30
0.0
 10
9.6335825994
 20
2.8375550829
 30
0.0
 10
9.7367059128
 20
2.7768069412
 30
0.0
 10
9.8447100993
 20
2.7208418824
 30
0.0
 10
9.9571782097
 20
2.6698496474
 30
0.0
 10
10.073682923
 20
2.6240009622
 30
0.0
 10
10.1937867509
 20
2.5834482204
 30
0.0
 10
10.3170423152
 20
2.5483258031
 30
0.0
 10
10.442992833
 20
2.5187500949
 30
0.0
 10
10.5711728767
 20
2.494819286
 30
0.0
 10
10.7011094264
 20
2.4766130504
 30
0.0
 10
10.8323231907
 20
2.4641921863
 30
0.0
 10
10.9643301602
 20
2.4575982746
 30
0.0
 10
11.0966433121
 20
2.4568534193
 30
0.0
 10
11.2287745064
 20
2.4619601294
 30
0.0
 10
11.3602361026
 20
2.4729012263
 30
0.0
 10
11.4905437384
 20
2.4896402353
 30
0.0
 10
11.6192146181
 20
2.512120571
 30
0.0
 10
11.7457819129
 20
2.5402697797
 30
0.0
 10
11.9101379431
 20
2.5849698367
 30
0.0
 10
12.0303197505
 20
2.6270345888
 30
0.0
 10
12.1082998162
 20
2.6588697688
 30
0.0
  0
SPLINE
  5
2E6
100
AcDbEntity
  8
0
100
AcDbSpline
 62
7
  6
CONTINUOUS
 70
0
 71
3
 72
26
 73
22
 74
0
 42
0.0000001
 43
0.0000001
 44
0.0000000001
 40
0.0
 40
0.0
 40
0.0
 40
0.0
 40
0.14031971
 40
0.20895811
 40
0.2764956155
 40
0.3428915093
 40
0.408116225
 40
0.4721524651
 40
0.5037269575
 40
0.5350040884
 40
0.5966662733
 40
0.6571741594
 40
0.6870133403
 40
0.7165827065
 40
0.7749386787
 40
0.8323380053
 40
0.8888886442
 40
0.9168907088
 40
0.9447302618
 40
0.9724264866
 40
1.0
 40
1.0
 40
1.0
 40
1.0
 10
12.1082998182
 20
2.6588697694
 30
0.0
 10
12.1807196422
 20
2.6884350788
 30
0.0
 10
12.2865923509
 20
2.7376181978
 30
0.0
 10
12.421002929
 20
2.8131620117
 30
0.0
 10
12.516430795
 20
2.8736499965
 30
0.0
 10
12.6068458017
 20
2.9381778213
 30
0.0
 10
12.6919149338
 20
3.0065351553
 30
0.0
 10
12.758394499
 20
3.0667845109
 30
0.0
 10
12.8085454157
 20
3.1166817658
 30
0.0
 10
12.8561884816
 20
3.1671737271
 30
0.0
 10
12.911879064
 20
3.2321873482
 30
0.0
 10
12.9626125848
 20
3.3001491757
 30
0.0
 10
12.9997407097
 20
3.3557539517
 30
0.0
 10
13.034240374
 20
3.4116203246
 30
0.0
 10
13.0730597899
 20
3.4828171401
 30
0.0
 10
13.1126379244
 20
3.5704344637
 30
0.0
 10
13.1395810816
 20
3.6449335483
 30
0.0
 10
13.1573427695
 20
3.7050315225
 30
0.0
 10
13.1687457929
 20
3.7501964271
 30
0.0
 10
13.1782629027
 20
3.7955505713
 30
0.0
 10
13.1833567918
 20
3.8259475014
 30
0.0
 10
13.1855847935
 20
3.841156252
 30
0.0
  0
SPLINE
  5
2E7
100
AcDbEntity
  8
0
100
AcDbSpline
 62
7
  6
CONTINUOUS
 70
0
 71
3
 72
30
 73
26
 74
0
 42
0.0000001
 43
0.0000001
 44
0.0000000001
 40
0.0
 40
0.0
 40
0.0
 40
0.0
 40
0.0277600834
 40
0.0555495644
 40
0.0833936234
 40
0.1113201641
 40
0.1393562907
 40
0.1675277004
 40
0.1958593791
 40
0.2243753581
 40
0.2530984149
 40
0.2820500043
 40
0.3407050148
 40
0.4004953508
 40
0.4308590474
 40
0.4615476591
 40
0.5239285653
 40
0.5877100764
 40
0.6201422695
 40
0.6529352005
 40
0.7195943215
 40
0.7876798982
 40
0.8571528885
 40
0.9279523671
 40
1.0
 40
1.0
 40
1.0
 40
1.0
 10
9.4273183383
 20
4.5851550294
 30
0.0
 10
9.4273183383
 20
4.5977879704
 30
0.0
 10
9.4279030656
 20
4.6230711133
 30
0.0
 10
9.430531744
 20
4.6609432083
 30
0.0
 10
9.434909735
 20
4.698730157
 30
0.0
 10
9.4410310438
 20
4.7363874843
 30
0.0
 10
9.4488879735
 20
4.7738734122
 30
0.0
 10
9.4584709938
 20
4.8111458001
 30
0.0
 10
9.46976798
 20
4.8481631485
 30
0.0
 10
9.4827654276
 20
4.8848841944
 30
0.0
 10
9.4974475398
 20
4.9212694125
 30
0.0
 10
9.5193385484
 20
4.9694848784
 30
0.0
 10
9.5509077644
 20
5.0287610693
 30
0.0
 10
9.587499506
 20
5.0858310492
 30
0.0
 10
9.6198116752
 20
5.1303433871
 30
0.0
 10
9.6545140662
 20
5.1745284508
 30
0.0
 10
9.701711273
 20
5.2281660897
 30
0.0
 10
9.7531423327
 20
5.2788850548
 30
0.0
 10
9.7969731623
 20
5.3179560381
 30
0.0
 10
9.8430761693
 20
5.35639744
 30
0.0
 10
9.9039837703
 20
5.4023499428
 30
0.0
 10
9.9815297639
 20
5.4536687949
 30
0.0
 10
10.0636039056
 20
5.5012575184
 30
0.0
 10
10.1498517826
 20
5.5449186379
 30
0.0
 10
10.2094040638
 20
5.5710749578
 30
0.0
 10
10.2397590488
 20
5.5834673285
 30
0.0
  0
SPLINE
  5
2E8
100
AcDbEntity
  8
0
100
AcDbSpline
 62
7
  6
CONTINUOUS
 70
0
 71
3
 72
9
 73
5
 74
0
 42
0.0000001
 43
0.0000001
 44
0.0000000001
 40
0.0
 40
0.0
 40
0.0
 40
0.0
 40
0.2469240183
 40
1.0
 40
1.0
 40
1.0
 40
1.0
 10
10.2437272772
 20
5.5850820568
 30
0.0
 10
10.2621032562
 20
5.5925350272
 30
0.0
 10
10.3369978635
 20
5.6215372135
 30
0.0
 10
10.4136936529
 20
5.6458576458
 30
0.0
 10
10.4720862901
 20
5.6616008894
 30
0.0
  0
SPLINE
  5
2E9
100
AcDbEntity
  8
0
100
AcDbSpline
 62
7
  6
CONTINUOUS
 70
0
 71
3
 72
29
 73
25
 74
0
 42
0.0000001
 43
0.0000001
 44
0.0000000001
 40
0.0
 40
0.0
 40
0.0
 40
0.0
 40
0.0728196331
 40
0.1445080639
 40
0.2149170712
 40
0.283920636
 40
0.3514183442
 40
0.4173388108
 40
0.4816429738
 40
0.544327121
 40
0.6054255258
 40
0.6650124045
 40
0.6942809139
 40
0.7232181688
 40
0.7518448795
 40
0.7801841599
 40
0.8082614141
 40
0.8361041846
 40
0.863742021
 40
0.8912062754
 40
0.9185295616
 40
0.9457460224
 40
0.9728916877
 40
1.0
 40
1.0
 40
1.0
 40
1.0
 10
11.6224862501
 20
5.6616182105
 30
0.0
 10
11.6602302565
 20
5.6514434487
 30
0.0
 10
11.7345795009
 20
5.6291264136
 30
0.0
 10
11.843008119
 20
5.5895133023
 30
0.0
 10
11.94696296
 20
5.5442105098
 30
0.0
 10
12.0458548416
 20
5.4934660152
 30
0.0
 10
12.1391281906
 20
5.4375546691
 30
0.0
 10
12.226256137
 20
5.3767785629
 30
0.0
 10
12.3067441761
 20
5.3114656619
 30
0.0
 10
12.3801325282
 20
5.2419662059
 30
0.0
 10
12.4459927327
 20
5.1686598822
 30
0.0
 10
12.4945762169
 20
5.1043334153
 30
0.0
 10
12.5292043854
 20
5.0514017629
 30
0.0
 10
12.5529173889
 20
5.0112500517
 30
0.0
 10
12.5744868752
 20
4.9704710002
 30
0.0
 10
12.5938800743
 20
4.9291216779
 30
0.0
 10
12.6110661482
 20
4.8872614095
 30
0.0
 10
12.6260181696
 20
4.8449507744
 30
0.0
 10
12.6387118129
 20
4.8022513757
 30
0.0
 10
12.6491262477
 20
4.7592260778
 30
0.0
 10
12.6572447152
 20
4.7159389861
 30
0.0
 10
12.6630533588
 20
4.6724538222
 30
0.0
 10
12.6665422075
 20
4.6288382514
 30
0.0
 10
12.6673183383
 20
4.599707441
 30
0.0
 10
12.6673183383
 20
4.5851550294
 30
0.0
  0
SPLINE
  5
2EA
100
AcDbEntity
  8
0
100
AcDbSpline
 62
7
  6
CONTINUOUS
 70
0
 71
3
 72
30
 73
26
 74
0
 42
0.0000001
 43
0.0000001
 44
0.0000000001
 40
0.0
 40
0.0
 40
0.0
 40
0.0
 40
0.0280965484
 40
0.0562177728
 40
0.08438727
 40
0.1126291538
 40
0.1409670044
 40
0.1694237033
 40
0.1980215761
 40
0.2267821481
 40
0.2557260241
 40
0.2848728248
 40
0.3438354351
 40
0.4038161918
 40
0.4342296537
 40
0.4649374374
 40
0.5272653125
 40
0.5908745351
 40
0.6231773946
 40
0.6558132208
 40
0.7220785154
 40
0.7896707864
 40
0.8585594563
 40
0.9286923537
 40
1.0
 40
1.0
 40
1.0
 40
1.0
 10
9.1423183383
 20
4.4277726261
 30
0.0
 10
9.1423183383
 20
4.4429742098
 30
0.0
 10
9.1430194555
 20
4.4733953738
 30
0.0
 10
9.14617167
 20
4.5189593303
 30
0.0
 10
9.1514199548
 20
4.5644097163
 30
0.0
 10
9.1587558907
 20
4.609688467
 30
0.0
 10
9.1681675989
 20
4.6547403148
 30
0.0
 10
9.1796410104
 20
4.6995102939
 30
0.0
 10
9.1931582257
 20
4.7439450363
 30
0.0
 10
9.2086992337
 20
4.787992133
 30
0.0
 10
9.2262419156
 20
4.8316016277
 30
0.0
 10
9.2523636995
 20
4.8893126631
 30
0.0
 10
9.289983655
 20
4.9601661954
 30
0.0
 10
9.3335585134
 20
5.028325052
 30
0.0
 10
9.3719889841
 20
5.0814098965
 30
0.0
 10
9.4131857396
 20
5.134001571
 30
0.0
 10
9.4691450901
 20
5.197759496
 30
0.0
 10
9.5300855049
 20
5.2579968511
 30
0.0
 10
9.5819629108
 20
5.3043384312
 30
0.0
 10
9.6364481286
 20
5.349860104
 30
0.0
 10
9.708363167
 20
5.40421722
 30
0.0
 10
9.7998519837
 20
5.4648568243
 30
0.0
 10
9.8965856805
 20
5.5210130245
 30
0.0
 10
9.9981496508
 20
5.5724687504
 30
0.0
 10
10.0682520622
 20
5.6032684945
 30
0.0
 10
10.1039710028
 20
5.6178506909
 30
0.0
  0
SPLINE
  5
2EB
100
AcDbEntity
  8
0
100
AcDbSpline
 62
7
  6
CONTINUOUS
 70
0
 71
3
 72
10
 73
6
 74
0
 42
0.0000001
 43
0.0000001
 44
0.0000000001
 40
0.0
 40
0.0
 40
0.0
 40
0.0
 40
0.4949230789
 40
0.7463402822
 40
1.0
 40
1.0
 40
1.0
 40
1.0
 10
10.1039710028
 20
5.6178506909
 30
0.0
 10
10.1630094883
 20
5.6419530517
 30
0.0
 10
10.2536782617
 20
5.6744400106
 30
0.0
 10
10.3774267996
 20
5.7103949514
 30
0.0
 10
10.4406223511
 20
5.7260256688
 30
0.0
 10
10.4724979399
 20
5.7332456223
 30
0.0
  0
SPLINE
  5
2EC
100
AcDbEntity
  8
0
100
AcDbSpline
 62
7
  6
CONTINUOUS
 70
0
 71
3
 72
30
 73
26
 74
0
 42
0.0000001
 43
0.0000001
 44
0.0000000001
 40
0.0
 40
0.0
 40
0.0
 40
0.0
 40
0.0722211075
 40
0.1434366164
 40
0.2134835784
 40
0.2822223658
 40
0.3495405591
 40
0.4153566882
 40
0.4796237566
 40
0.542332278
 40
0.6035126085
 40
0.6335578408
 40
0.6632514326
 40
0.6926088041
 40
0.7216478577
 40
0.7503889174
 40
0.7788545997
 40
0.8070696597
 40
0.8350608495
 40
0.8628566857
 40
0.8904872657
 40
0.9179840031
 40
0.9453793466
 40
0.9727068855
 40
1.0
 40
1.0
 40
1.0
 40
1.0
 10
11.6221283092
 20
5.7332479963
 30
0.0
 10
11.6693127941
 20
5.7225607036
 30
0.0
 10
11.7624302368
 20
5.6985928934
 30
0.0
 10
11.8986062771
 20
5.6546374267
 30
0.0
 10
12.0296212227
 20
5.6031425033
 30
0.0
 10
12.154676196
 20
5.5443977107
 30
0.0
 10
12.2730151707
 20
5.4787281127
 30
0.0
 10
12.3839166486
 20
5.4064944559
 30
0.0
 10
12.4867000806
 20
5.3280888688
 30
0.0
 10
12.5807182937
 20
5.2439427879
 30
0.0
 10
12.6516984027
 20
5.1689528715
 30
0.0
 10
12.7033948054
 20
5.1065635947
 30
0.0
 10
12.7393857361
 20
5.0589255066
 30
0.0
 10
12.772760483
 20
5.0102344754
 30
0.0
 10
12.8034600643
 20
4.9605612574
 30
0.0
 10
12.8314272862
 20
4.9099804914
 30
0.0
 10
12.8566089297
 20
4.858569803
 30
0.0
 10
12.8789555463
 20
4.8064101271
 30
0.0
 10
12.8984215193
 20
4.7535855157
 30
0.0
 10
12.9149660299
 20
4.7001833999
 30
0.0
 10
12.9285535982
 20
4.6462943574
 30
0.0
 10
12.939154012
 20
4.5920119874
 30
0.0
 10
12.9467431788
 20
4.5374315093
 30
0.0
 10
12.9513037648
 20
4.4826533385
 30
0.0
 10
12.9523183383
 20
4.4460558165
 30
0.0
 10
12.9523183383
 20
4.4277726261
 30
0.0
  0
SPLINE
  5
2ED
100
AcDbEntity
  8
0
100
AcDbSpline
 62
7
  6
CONTINUOUS
 70
0
 71
3
 72
21
 73
17
 74
0
 42
0.0000001
 43
0.0000001
 44
0.0000000001
 40
0.0
 40
0.0
 40
0.0
 40
0.0
 40
0.0601455404
 40
0.1204028526
 40
0.1808183342
 40
0.2414398247
 40
0.3023138544
 40
0.3634850869
 40
0.4249968828
 40
0.4868907562
 40
0.5492062997
 40
0.6119808221
 40
0.6752493299
 40
0.7390443208
 40
0.8683075654
 40
1.0
 40
1.0
 40
1.0
 40
1.0
 10
8.8990731305
 20
4.0580644672
 30
0.0
 10
8.9000017228
 20
4.0746053955
 30
0.0
 10
8.9025978526
 20
4.1076812924
 30
0.0
 10
8.90869266
 20
4.1571285734
 30
0.0
 10
8.9169827452
 20
4.2063893221
 30
0.0
 10
8.9274556612
 20
4.2554058181
 30
0.0
 10
8.9400964921
 20
4.3041234046
 30
0.0
 10
8.9548879196
 20
4.3524878807
 30
0.0
 10
8.9718091618
 20
4.4004466507
 30
0.0
 10
8.9908381182
 20
4.4479481691
 30
0.0
 10
9.0119493286
 20
4.4949428103
 30
0.0
 10
9.0351161194
 20
4.5413818322
 30
0.0
 10
9.0603097631
 20
4.5872189828
 30
0.0
 10
9.0967179847
 20
4.6477304457
 30
0.0
 10
9.1472332585
 20
4.7216613926
 30
0.0
 10
9.1920858171
 20
4.7779210345
 30
0.0
 10
9.2156747877
 20
4.8054781481
 30
0.0
  0
SPLINE
  5
2EE
100
AcDbEntity
  8
0
100
AcDbSpline
 62
7
  6
CONTINUOUS
 70
0
 71
3
 72
20
 73
16
 74
0
 42
0.0000001
 43
0.0000001
 44
0.0000000001
 40
0.0
 40
0.0
 40
0.0
 40
0.0
 40
0.1316941465
 40
0.2609595388
 40
0.3880013539
 40
0.4507773292
 40
0.5130944059
 40
0.574989914
 40
0.6365034198
 40
0.6976764359
 40
0.7585523222
 40
0.8191757316
 40
0.8795931511
 40
0.9398524233
 40
1.0
 40
1.0
 40
1.0
 40
1.0
 10
12.8790425715
 20
4.8053838584
 30
0.0
 10
12.9026255438
 20
4.7778293167
 30
0.0
 10
12.9474680157
 20
4.7215726157
 30
0.0
 10
13.0077992781
 20
4.6332651697
 30
0.0
 10
13.0517147644
 20
4.5570349992
 30
0.0
 10
13.0827151024
 20
4.4948837688
 30
0.0
 10
13.1038212305
 20
4.447894673
 30
0.0
 10
13.1228451523
 20
4.4003994692
 30
0.0
 10
13.1397620968
 20
4.3524470525
 30
0.0
 10
13.1545497799
 20
4.3040891273
 30
0.0
 10
13.1671874286
 20
4.2553782026
 30
0.0
 10
13.1776578179
 20
4.2063685004
 30
0.0
 10
13.1859459327
 20
4.1571146333
 30
0.0
 10
13.1920394383
 20
4.1076743033
 30
0.0
 10
13.1946350842
 20
4.0746030709
 30
0.0
 10
13.1955635461
 20
4.0580644672
 30
0.0
  0
SPLINE
  5
2EF
100
AcDbEntity
  8
0
100
AcDbSpline
 62
7
  6
CONTINUOUS
 70
0
 71
3
 72
18
 73
14
 74
0
 42
0.0000001
 43
0.0000001
 44
0.0000000001
 40
0.0
 40
0.0
 40
0.0
 40
0.0
 40
0.1086113398
 40
0.1649966838
 40
0.2227617645
 40
0.3422880751
 40
0.4040055699
 40
0.4669155791
 40
0.5309291344
 40
0.5959435717
 40
0.7284733774
 40
0.8635281378
 40
1.0
 40
1.0
 40
1.0
 40
1.0
 10
10.6953467171
 20
6.1540252413
 30
0.0
 10
10.7044188554
 20
6.1432548404
 30
0.0
 10
10.7194840733
 20
6.127931744
 30
0.0
 10
10.7417170067
 20
6.1094758739
 30
0.0
 10
10.7662522706
 20
6.0916677711
 30
0.0
 10
10.7930047117
 20
6.0758562554
 30
0.0
 10
10.821528019
 20
6.0621008293
 30
0.0
 10
10.8441193438
 20
6.0526946725
 30
0.0
 10
10.8675784461
 20
6.0443553378
 30
0.0
 10
10.9000842968
 20
6.0346466041
 30
0.0
 10
10.942289613
 20
6.0254317745
 30
0.0
 10
10.9943746648
 20
6.0191756081
 30
0.0
 10
11.0296273605
 20
6.0182414685
 30
0.0
 10
11.0473183383
 20
6.0185877711
 30
0.0
  0
SPLINE
  5
2F0
100
AcDbEntity
  8
0
100
AcDbSpline
 62
7
  6
CONTINUOUS
 70
0
 71
3
 72
13
 73
9
 74
0
 42
0.0000001
 43
0.0000001
 44
0.0000000001
 40
0.0
 40
0.0
 40
0.0
 40
0.0
 40
0.2570822722
 40
0.384838062
 40
0.5115056505
 40
0.6366998193
 40
0.7600711093
 40
1.0
 40
1.0
 40
1.0
 40
1.0
 10
11.0473183383
 20
5.9687697742
 30
0.0
 10
11.0692665664
 20
5.9691974783
 30
0.0
 10
11.1021277305
 20
5.9717191296
 30
0.0
 10
11.1452385153
 20
5.9788399804
 30
0.0
 10
11.1768736244
 20
5.9860027467
 30
0.0
 10
11.2076613121
 20
5.994957
 30
0.0
 10
11.2469300832
 20
6.009072652
 30
0.0
 10
11.2751029652
 20
6.0223486244
 30
0.0
 10
11.2929686834
 20
6.0323765983
 30
0.0
  0
LINE
  5
2F1
100
AcDbEntity
  8
0
100
AcDbLine
 62
7
  6
CONTINUOUS
 10
11.2929686834
 20
6.0323765983
 11
11.2931592685
 21
6.0324836369
  0
SPLINE
  5
2F2
100
AcDbEntity
  8
0
100
AcDbSpline
 62
7
  6
CONTINUOUS
 70
0
 71
3
 72
19
 73
15
 74
0
 42
0.0000001
 43
0.0000001
 44
0.0000000001
 40
0.0
 40
0.0
 40
0.0
 40
0.0
 40
0.1403582969
 40
0.275841479
 40
0.4063344406
 40
0.5319945685
 40
0.5931776507
 40
0.6533477713
 40
0.7126085148
 40
0.771080498
 40
0.8289005136
 40
0.8862183919
 40
0.9431953887
 40
1.0
 40
1.0
 40
1.0
 40
1.0
 10
11.2931592685
 20
6.0324836369
 30
0.0
 10
11.3053602415
 20
6.0393401638
 30
0.0
 10
11.3287020492
 20
6.0539956885
 30
0.0
 10
11.3606020215
 20
6.0791047623
 30
0.0
 10
11.3883919809
 20
6.1066683725
 30
0.0
 10
11.4079901899
 20
6.1316344059
 30
0.0
 10
11.4211732914
 20
6.1524593989
 30
0.0
 10
11.4297374265
 20
6.1683198568
 30
0.0
 10
11.4370344495
 20
6.1845057807
 30
0.0
 10
11.4430392294
 20
6.2009659152
 30
0.0
 10
11.447731904
 20
6.2176463614
 30
0.0
 10
11.4510950079
 20
6.2344936203
 30
0.0
 10
11.4531182069
 20
6.2514509882
 30
0.0
 10
11.4535681892
 20
6.2628016313
 30
0.0
 10
11.4535681893
 20
6.2684657949
 30
0.0
  0
SPLINE
  5
2F3
100
AcDbEntity
  8
0
100
AcDbSpline
 62
7
  6
CONTINUOUS
 70
0
 71
3
 72
25
 73
21
 74
0
 42
0.0000001
 43
0.0000001
 44
0.0000000001
 40
0.0
 40
0.0
 40
0.0
 40
0.0
 40
0.0708453962
 40
0.1414942697
 40
0.2116514449
 40
0.2810519385
 40
0.3494392069
 40
0.4165855115
 40
0.4822931927
 40
0.5464028771
 40
0.6087996002
 40
0.6694195398
 40
0.7282560367
 40
0.7853648508
 40
0.840868072
 40
0.8949548757
 40
0.9215555511
 40
0.9479024388
 40
0.9740361625
 40
1.0
 40
1.0
 40
1.0
 40
1.0
 10
11.0473183383
 20
6.0185877711
 30
0.0
 10
11.0596193469
 20
6.0188285645
 30
0.0
 10
11.0841791323
 20
6.0200981044
 30
0.0
 10
11.1207128152
 20
6.0243551455
 30
0.0
 10
11.1566470501
 20
6.0309377058
 30
0.0
 10
11.1916844359
 20
6.0397966329
 30
0.0
 10
11.2255390036
 20
6.0508669636
 30
0.0
 10
11.257932839
 20
6.0640643114
 30
0.0
 10
11.2886004446
 20
6.0792880228
 30
0.0
 10
11.3172902096
 20
6.0964209177
 30
0.0
 10
11.3437664538
 20
6.1153307419
 30
0.0
 10
11.3678109581
 20
6.1358713508
 30
0.0
 10
11.3892243519
 20
6.1578833465
 30
0.0
 10
11.4078276295
 20
6.1811963717
 30
0.0
 10
11.4234620476
 20
6.2056253556
 30
0.0
 10
11.433965036
 20
6.2268789723
 30
0.0
 10
11.4407189254
 20
6.244206333
 30
0.0
 10
11.4449447248
 20
6.2572826866
 30
0.0
 10
11.4483492679
 20
6.2704815744
 30
0.0
 10
11.4500708439
 20
6.2793706882
 30
0.0
 10
11.4507908
 20
6.2838218488
 30
0.0
  0
SPLINE
  5
2F4
100
AcDbEntity
  8
0
100
AcDbSpline
 62
7
  6
CONTINUOUS
 70
0
 71
3
 72
25
 73
21
 74
0
 42
0.0000001
 43
0.0000001
 44
0.0000000001
 40
0.0
 40
0.0
 40
0.0
 40
0.0
 40
0.0708881041
 40
0.1415774463
 40
0.2117709684
 40
0.2812015793
 40
0.3496111267
 40
0.4167706006
 40
0.4824815561
 40
0.5465844381
 40
0.6089647842
 40
0.6695600921
 40
0.7283658727
 40
0.785440973
 40
0.8409114277
 40
0.8949710799
 40
0.9215620078
 40
0.9479025281
 40
0.9740338767
 40
1.0
 40
1.0
 40
1.0
 40
1.0
 10
11.0473183383
 20
6.0682467492
 30
0.0
 10
11.0596657008
 20
6.0684877814
 30
0.0
 10
11.0843177062
 20
6.069763927
 30
0.0
 10
11.1209863914
 20
6.0740491243
 30
0.0
 10
11.1570488445
 20
6.080677598
 30
0.0
 10
11.1922043932
 20
6.0895994725
 30
0.0
 10
11.2261639322
 20
6.1007487605
 30
0.0
 10
11.2586466096
 20
6.1140398029
 30
0.0
 10
11.2893842044
 20
6.1293704399
 30
0.0
 10
11.3181226244
 20
6.1466217834
 30
0.0
 10
11.3446240014
 20
6.1656596569
 30
0.0
 10
11.3686682325
 20
6.1863358201
 30
0.0
 10
11.3900543935
 20
6.2084886159
 30
0.0
 10
11.4086022626
 20
6.2319452949
 30
0.0
 10
11.4241522406
 20
6.2565181918
 30
0.0
 10
11.4345593116
 20
6.2778895963
 30
0.0
 10
11.4412214799
 20
6.2953074462
 30
0.0
 10
11.4453720318
 20
6.3084501816
 30
0.0
 10
11.4486941023
 20
6.3217134415
 30
0.0
 10
11.4503557054
 20
6.3306431391
 30
0.0
 10
11.4510446148
 20
6.3351140419
 30
0.0
  0
SPLINE
  5
2F5
100
AcDbEntity
  8
0
100
AcDbSpline
 62
7
  6
CONTINUOUS
 70
0
 71
3
 72
21
 73
17
 74
0
 42
0.0000001
 43
0.0000001
 44
0.0000000001
 40
0.0
 40
0.0
 40
0.0
 40
0.0
 40
0.0443307928
 40
0.0943346663
 40
0.1500781033
 40
0.2114612889
 40
0.2780993574
 40
0.3492449449
 40
0.4999999945
 40
0.650755048
 40
0.7219006401
 40
0.7885387098
 40
0.8499218953
 40
0.9056653327
 40
0.9556692059
 40
1.0
 40
1.0
 40
1.0
 40
1.0
 10
11.4616395842
 20
10.679962341
 30
0.0
 10
11.4618704906
 20
10.6786562821
 30
0.0
 10
11.4623135404
 20
10.6758683884
 30
0.0
 10
11.4628944174
 20
10.6714155349
 30
0.0
 10
11.4634196466
 20
10.6664424299
 30
0.0
 10
11.4638768853
 20
10.6609631035
 30
0.0
 10
11.4642526882
 20
10.6550157908
 30
0.0
 10
11.4646341901
 20
10.6463911313
 30
0.0
 10
11.4648231072
 20
10.6352409818
 30
0.0
 10
11.4646341902
 20
10.6240908322
 30
0.0
 10
11.4642526882
 20
10.6154661725
 30
0.0
 10
11.4638768853
 20
10.6095188596
 30
0.0
 10
11.4634196466
 20
10.6040395332
 30
0.0
 10
11.4628944174
 20
10.5990664282
 30
0.0
 10
11.4623135404
 20
10.5946135746
 30
0.0
 10
11.4618704906
 20
10.5918256809
 30
0.0
 10
11.4616395842
 20
10.5905196219
 30
0.0
  0
SPLINE
  5
2F6
100
AcDbEntity
  8
0
100
AcDbSpline
 62
7
  6
CONTINUOUS
 70
0
 71
3
 72
23
 73
19
 74
0
 42
0.0000001
 43
0.0000001
 44
0.0000000001
 40
0.0
 40
0.0
 40
0.0
 40
0.0
 40
0.045198306
 40
0.0957474303
 40
0.1517487495
 40
0.2131365628
 40
0.2795625427
 40
0.3503219668
 40
0.4242988128
 40
0.4999999945
 40
0.5757011779
 40
0.6496780261
 40
0.7204374549
 40
0.7868634359
 40
0.8482512491
 40
0.9042525687
 40
0.9548016926
 40
1.0
 40
1.0
 40
1.0
 40
1.0
 10
11.4895992065
 20
10.679962341
 30
0.0
 10
11.4900108859
 20
10.6786633886
 30
0.0
 10
11.4908028894
 20
10.6758859981
 30
0.0
 10
11.4918456436
 20
10.6714300746
 30
0.0
 10
11.4927882603
 20
10.6664541826
 30
0.0
 10
11.4936087026
 20
10.6609723637
 30
0.0
 10
11.4942828576
 20
10.6550226947
 30
0.0
 10
11.4947866418
 20
10.648675436
 30
0.0
 10
11.4950988221
 20
10.6420359497
 30
0.0
 10
11.4952046572
 20
10.6352409819
 30
0.0
 10
11.4950988221
 20
10.6284460141
 30
0.0
 10
11.4947866419
 20
10.6218065275
 30
0.0
 10
11.4942828576
 20
10.6154592685
 30
0.0
 10
11.4936087027
 20
10.6095095994
 30
0.0
 10
11.4927882603
 20
10.6040277804
 30
0.0
 10
11.4918456436
 20
10.5990518884
 30
0.0
 10
11.4908028894
 20
10.5945959649
 30
0.0
 10
11.4900108859
 20
10.5918185743
 30
0.0
 10
11.4895992065
 20
10.5905196219
 30
0.0
  0
SPLINE
  5
2F7
100
AcDbEntity
  8
0
100
AcDbSpline
 62
7
  6
CONTINUOUS
 70
0
 71
3
 72
21
 73
17
 74
0
 42
0.0000001
 43
0.0000001
 44
0.0000000001
 40
0.0
 40
0.0
 40
0.0
 40
0.0
 40
0.0443320404
 40
0.0943366949
 40
0.1500805001
 40
0.2114636926
 40
0.2781014596
 40
0.3492464988
 40
0.4999999949
 40
0.650753494
 40
0.7218985378
 40
0.7885363061
 40
0.8499194985
 40
0.9056633041
 40
0.9556679582
 40
1.0
 40
1.0
 40
1.0
 40
1.0
 10
10.6329394135
 20
10.5905196219
 30
0.0
 10
10.6327081508
 20
10.5918256702
 30
0.0
 10
10.6322644156
 20
10.5946135487
 30
0.0
 10
10.6316826364
 20
10.5990664071
 30
0.0
 10
10.6311565916
 20
10.6040395163
 30
0.0
 10
10.6306986431
 20
10.6095188463
 30
0.0
 10
10.6303222568
 20
10.6154661624
 30
0.0
 10
10.6299401631
 20
10.6240908182
 30
0.0
 10
10.6297509524
 20
10.6352409811
 30
0.0
 10
10.6299401631
 20
10.6463911441
 30
0.0
 10
10.6303222568
 20
10.6550158002
 30
0.0
 10
10.6306986431
 20
10.6609631164
 30
0.0
 10
10.6311565916
 20
10.6664424466
 30
0.0
 10
10.6316826364
 20
10.6714155558
 30
0.0
 10
10.6322644156
 20
10.6758684141
 30
0.0
 10
10.6327081508
 20
10.6786562927
 30
0.0
 10
10.6329394135
 20
10.679962341
 30
0.0
  0
SPLINE
  5
2F8
100
AcDbEntity
  8
0
100
AcDbSpline
 62
7
  6
CONTINUOUS
 70
0
 71
3
 72
23
 73
19
 74
0
 42
0.0000001
 43
0.0000001
 44
0.0000000001
 40
0.0
 40
0.0
 40
0.0
 40
0.0
 40
0.0452004077
 40
0.095750861
 40
0.1517528144
 40
0.2131406459
 40
0.2795661148
 40
0.3503246018
 40
0.4243002091
 40
0.499999995
 40
0.575699782
 40
0.649675391
 40
0.7204338827
 40
0.7868593528
 40
0.8482471842
 40
0.904249138
 40
0.954799591
 40
1.0
 40
1.0
 40
1.0
 40
1.0
 10
10.6049865061
 20
10.5905196219
 30
0.0
 10
10.6045744808
 20
10.5918185578
 30
0.0
 10
10.6037818071
 20
10.594595923
 30
0.0
 10
10.60273816
 20
10.5990518533
 30
0.0
 10
10.6017947367
 20
10.6040277517
 30
0.0
 10
10.6009735926
 20
10.6095095766
 30
0.0
 10
10.6002988613
 20
10.6154592512
 30
0.0
 10
10.5997946464
 20
10.6218065155
 30
0.0
 10
10.5994821993
 20
10.6284460076
 30
0.0
 10
10.5993762737
 20
10.6352409811
 30
0.0
 10
10.5994821992
 20
10.6420359546
 30
0.0
 10
10.5997946463
 20
10.6486754468
 30
0.0
 10
10.6002988613
 20
10.6550227114
 30
0.0
 10
10.6009735926
 20
10.6609723862
 30
0.0
 10
10.6017947367
 20
10.6664542111
 30
0.0
 10
10.60273816
 20
10.6714301095
 30
0.0
 10
10.6037818071
 20
10.6758860399
 30
0.0
 10
10.6045744808
 20
10.6786634052
 30
0.0
 10
10.6049865061
 20
10.679962341
 30
0.0
  0
SPLINE
  5
2F9
100
AcDbEntity
  8
0
100
AcDbSpline
 62
7
  6
CONTINUOUS
 70
0
 71
3
 72
23
 73
19
 74
0
 42
0.0000001
 43
0.0000001
 44
0.0000000001
 40
0.0
 40
0.0
 40
0.0
 40
0.0
 40
0.0464588878
 40
0.0978115103
 40
0.1542002647
 40
0.2156036323
 40
0.2817239
 40
0.3519179515
 40
0.4251449483
 40
0.499999995
 40
0.5748550429
 40
0.6480820414
 40
0.7182760974
 40
0.7843963664
 40
0.8457997339
 40
0.9021884887
 40
0.9535411109
 40
1.0
 40
1.0
 40
1.0
 40
1.0
 10
10.5805951922
 20
10.5905196219
 30
0.0
 10
10.5800087282
 20
10.5918091779
 30
0.0
 10
10.5788768905
 20
10.5945716081
 30
0.0
 10
10.5773778945
 20
10.5990311072
 30
0.0
 10
10.5760231908
 20
10.60401054
 30
0.0
 10
10.5748443386
 20
10.6094957593
 30
0.0
 10
10.5738758066
 20
10.6154488219
 30
0.0
 10
10.573152104
 20
10.6217995058
 30
0.0
 10
10.5727036683
 20
10.6284424805
 30
0.0
 10
10.5725516434
 20
10.6352409811
 30
0.0
 10
10.5727036683
 20
10.6420394816
 30
0.0
 10
10.573152104
 20
10.6486824565
 30
0.0
 10
10.5738758065
 20
10.6550331407
 30
0.0
 10
10.5748443385
 20
10.6609862035
 30
0.0
 10
10.5760231908
 20
10.6664714229
 30
0.0
 10
10.5773778945
 20
10.6714508556
 30
0.0
 10
10.5788768905
 20
10.6759103548
 30
0.0
 10
10.5800087282
 20
10.678672785
 30
0.0
 10
10.5805951922
 20
10.679962341
 30
0.0
  0
SPLINE
  5
2FA
100
AcDbEntity
  8
0
100
AcDbSpline
 62
7
  6
CONTINUOUS
 70
0
 71
3
 72
23
 73
19
 74
0
 42
0.0000001
 43
0.0000001
 44
0.0000000001
 40
0.0
 40
0.0
 40
0.0
 40
0.0
 40
0.0479943471
 40
0.1003423228
 40
0.1572220044
 40
0.2186570911
 40
0.2844072687
 40
0.3539036748
 40
0.4261990515
 40
0.4999999951
 40
0.5738009398
 40
0.6460963181
 40
0.7155927287
 40
0.7813429076
 40
0.8427779942
 40
0.8996576762
 40
0.9520056516
 40
1.0
 40
1.0
 40
1.0
 40
1.0
 10
10.5599618673
 20
10.5905196219
 30
0.0
 10
10.5592086948
 20
10.5917990142
 30
0.0
 10
10.5577508173
 20
10.5945438138
 30
0.0
 10
10.555806798
 20
10.5990063675
 30
0.0
 10
10.5540501608
 20
10.603989306
 30
0.0
 10
10.5525217826
 20
10.6094782817
 30
0.0
 10
10.5512662018
 20
10.6154353844
 30
0.0
 10
10.5503280734
 20
10.6217903612
 30
0.0
 10
10.5497467906
 20
10.6284378458
 30
0.0
 10
10.5495497322
 20
10.6352409811
 30
0.0
 10
10.5497467905
 20
10.6420441164
 30
0.0
 10
10.5503280733
 20
10.6486916012
 30
0.0
 10
10.5512662018
 20
10.6550465782
 30
0.0
 10
10.5525217825
 20
10.6610036811
 30
0.0
 10
10.5540501608
 20
10.6664926568
 30
0.0
 10
10.5558067979
 20
10.6714755954
 30
0.0
 10
10.5577508173
 20
10.675938149
 30
0.0
 10
10.5592086948
 20
10.6786829487
 30
0.0
 10
10.5599618673
 20
10.679962341
 30
0.0
  0
SPLINE
  5
2FB
100
AcDbEntity
  8
0
100
AcDbSpline
 62
7
  6
CONTINUOUS
 70
0
 71
3
 72
21
 73
17
 74
0
 42
0.0000001
 43
0.0000001
 44
0.0000000001
 40
0.0
 40
0.0
 40
0.0
 40
0.0
 40
0.1030843874
 40
0.1605421016
 40
0.2220409819
 40
0.2873981887
 40
0.3561253843
 40
0.427380992
 40
0.5000000036
 40
0.5726190123
 40
0.6438746164
 40
0.7126018114
 40
0.7779590175
 40
0.8394578977
 40
0.8969156119
 40
1.0
 40
1.0
 40
1.0
 40
1.0
 10
10.543252668
 20
10.5905196219
 30
0.0
 10
10.5413624469
 20
10.5931527142
 30
0.0
 10
10.5388143106
 20
10.5975484356
 30
0.0
 10
10.5360530713
 20
10.6039649624
 30
0.0
 10
10.5341858193
 20
10.6094583572
 30
0.0
 10
10.532652317
 20
10.6154195184
 30
0.0
 10
10.5315064238
 20
10.6217794487
 30
0.0
 10
10.530796437
 20
10.6284322531
 30
0.0
 10
10.5305557402
 20
10.6352409817
 30
0.0
 10
10.530796437
 20
10.6420497102
 30
0.0
 10
10.5315064238
 20
10.6487025144
 30
0.0
 10
10.532652317
 20
10.6550624445
 30
0.0
 10
10.5341858193
 20
10.6610236057
 30
0.0
 10
10.5360530713
 20
10.6665170005
 30
0.0
 10
10.5388143105
 20
10.6729335273
 30
0.0
 10
10.5413624469
 20
10.6773292487
 30
0.0
 10
10.543252668
 20
10.679962341
 30
0.0
  0
SPLINE
  5
2FC
100
AcDbEntity
  8
0
100
AcDbSpline
 62
7
  6
CONTINUOUS
 70
0
 71
3
 72
19
 73
15
 74
0
 42
0.0000001
 43
0.0000001
 44
0.0000000001
 40
0.0
 40
0.0
 40
0.0
 40
0.0
 40
0.1060386226
 40
0.1641259415
 40
0.2257146703
 40
0.358477556
 40
0.4286347912
 40
0.4999999953
 40
0.5713652005
 40
0.6415224371
 40
0.7742853284
 40
0.8358740571
 40
0.8939613763
 40
1.0
 40
1.0
 40
1.0
 40
1.0
 10
10.5306021344
 20
10.5905196219
 30
0.0
 10
10.5284174828
 20
10.5931164818
 30
0.0
 10
10.5254338604
 20
10.5974866795
 30
0.0
 10
10.5221759796
 20
10.6039405087
 30
0.0
 10
10.5191800017
 20
10.6114534803
 30
0.0
 10
10.5170964646
 20
10.6197083714
 30
0.0
 10
10.5160052759
 20
10.6284254061
 30
0.0
 10
10.5157225654
 20
10.6352409811
 30
0.0
 10
10.5160052758
 20
10.6420565561
 30
0.0
 10
10.5170964644
 20
10.6507735911
 30
0.0
 10
10.5191800016
 20
10.6590284824
 30
0.0
 10
10.5221759796
 20
10.6665414541
 30
0.0
 10
10.5254338603
 20
10.6729952834
 30
0.0
 10
10.5284174828
 20
10.6773654811
 30
0.0
 10
10.5306021344
 20
10.679962341
 30
0.0
  0
SPLINE
  5
2FD
100
AcDbEntity
  8
0
100
AcDbSpline
 62
7
  6
CONTINUOUS
 70
0
 71
3
 72
17
 73
13
 74
0
 42
0.0000001
 43
0.0000001
 44
0.0000000001
 40
0.0
 40
0.0
 40
0.0
 40
0.0
 40
0.0532368708
 40
0.1091269543
 40
0.2294401136
 40
0.3610002352
 40
0.4999999953
 40
0.638999758
 40
0.770559885
 40
0.8908730446
 40
0.9467631277
 40
1.0
 40
1.0
 40
1.0
 40
1.0
 10
10.5221121268
 20
10.5905196219
 30
0.0
 10
10.5209120114
 20
10.5917724981
 30
0.0
 10
10.5185770058
 20
10.5944637839
 30
0.0
 10
10.5142368495
 20
10.6005639836
 30
0.0
 10
10.5096565852
 20
10.6095627257
 30
0.0
 10
10.506105056
 20
10.6218729157
 30
0.0
 10
10.5048527489
 20
10.6352409811
 30
0.0
 10
10.5061050558
 20
10.6486090467
 30
0.0
 10
10.509656585
 20
10.6609192369
 30
0.0
 10
10.5142368494
 20
10.6699179792
 30
0.0
 10
10.5185770058
 20
10.676018179
 30
0.0
 10
10.5209120113
 20
10.6787094649
 30
0.0
 10
10.5221121268
 20
10.679962341
 30
0.0
  0
SPLINE
  5
2FE
100
AcDbEntity
  8
0
100
AcDbSpline
 62
7
  6
CONTINUOUS
 70
0
 71
3
 72
21
 73
17
 74
0
 42
0.0000001
 43
0.0000001
 44
0.0000000001
 40
0.0
 40
0.0
 40
0.0
 40
0.0
 40
0.0548682292
 40
0.1118820013
 40
0.1712236119
 40
0.2330053632
 40
0.2971748554
 40
0.3634724816
 40
0.4999999954
 40
0.6365275118
 40
0.7028251422
 40
0.7669946355
 40
0.8287763868
 40
0.8881179975
 40
0.9451317693
 40
1.0
 40
1.0
 40
1.0
 40
1.0
 10
10.5178510056
 20
10.5905196219
 30
0.0
 10
10.5165214119
 20
10.5917659635
 30
0.0
 10
10.5139330124
 20
10.5944419199
 30
0.0
 10
10.5103935312
 20
10.5989046749
 30
0.0
 10
10.5071927305
 20
10.6038929416
 30
0.0
 10
10.5044061217
 20
10.609392166
 30
0.0
 10
10.5021155159
 20
10.6153653149
 30
0.0
 10
10.4998114014
 20
10.6239428613
 30
0.0
 10
10.4986255385
 20
10.6352409811
 30
0.0
 10
10.4998114013
 20
10.6465391011
 30
0.0
 10
10.5021155158
 20
10.6551166477
 30
0.0
 10
10.5044061216
 20
10.6610897968
 30
0.0
 10
10.5071927305
 20
10.6665890212
 30
0.0
 10
10.5103935311
 20
10.6715772879
 30
0.0
 10
10.5139330124
 20
10.6760400429
 30
0.0
 10
10.5165214118
 20
10.6787159994
 30
0.0
 10
10.5178510056
 20
10.679962341
 30
0.0
  0
SPLINE
  5
2FF
100
AcDbEntity
  8
0
100
AcDbSpline
 62
7
  6
CONTINUOUS
 70
0
 71
3
 72
23
 73
19
 74
0
 42
0.0000001
 43
0.0000001
 44
0.0000000001
 40
0.0
 40
0.0
 40
0.0
 40
0.0
 40
0.046456134
 40
0.0978069876
 40
0.1541948803
 40
0.2155982036
 40
0.2817191377
 40
0.3519144317
 40
0.425143081
 40
0.4999999946
 40
0.5748569098
 40
0.6480855613
 40
0.7182808599
 40
0.7844017951
 40
0.8458051183
 40
0.9021930114
 40
0.9535438646
 40
1.0
 40
1.0
 40
1.0
 40
1.0
 10
11.5139976457
 20
10.679962341
 30
0.0
 10
11.5145837777
 20
10.6786727656
 30
0.0
 10
11.5157149677
 20
10.6759103032
 30
0.0
 10
11.517213087
 20
10.6714508108
 30
0.0
 10
11.518566999
 20
10.6664713851
 30
0.0
 10
11.5197451627
 20
10.6609861729
 30
0.0
 10
11.5207131293
 20
10.6550331176
 30
0.0
 10
11.5214364094
 20
10.6486824413
 30
0.0
 10
11.5218845835
 20
10.6420394744
 30
0.0
 10
11.5220365197
 20
10.6352409819
 30
0.0
 10
11.5218845835
 20
10.6284424893
 30
0.0
 10
11.5214364095
 20
10.6217995222
 30
0.0
 10
11.5207131293
 20
10.6154488457
 30
0.0
 10
11.5197451628
 20
10.6094957902
 30
0.0
 10
11.518566999
 20
10.6040105779
 30
0.0
 10
11.517213087
 20
10.5990311523
 30
0.0
 10
11.5157149677
 20
10.5945716598
 30
0.0
 10
11.5145837777
 20
10.5918091974
 30
0.0
 10
11.5139976457
 20
10.5905196219
 30
0.0
  0
SPLINE
  5
300
100
AcDbEntity
  8
0
100
AcDbSpline
 62
7
  6
CONTINUOUS
 70
0
 71
3
 72
23
 73
19
 74
0
 42
0.0000001
 43
0.0000001
 44
0.0000000001
 40
0.0
 40
0.0
 40
0.0
 40
0.0
 40
0.0479911683
 40
0.1003370649
 40
0.1572157088
 40
0.218650715
 40
0.284401656
 40
0.3538995166
 40
0.4261968424
 40
0.4999999946
 40
0.5738031485
 40
0.6461004765
 40
0.7155983416
 40
0.7813492837
 40
0.8427842898
 40
0.899662934
 40
0.9520088304
 40
1.0
 40
1.0
 40
1.0
 40
1.0
 10
11.5346384488
 20
10.679962341
 30
0.0
 10
11.5353913052
 20
10.678682929
 30
0.0
 10
11.5368485633
 20
10.6759380936
 30
0.0
 10
11.53879173
 20
10.6714755449
 30
0.0
 10
11.540547597
 20
10.6664926128
 30
0.0
 10
11.5420753053
 20
10.6610036444
 30
0.0
 10
11.543330336
 20
10.6550465499
 30
0.0
 10
11.5442680534
 20
10.6486915821
 30
0.0
 10
11.5448490816
 20
10.6420441072
 30
0.0
 10
11.5450460537
 20
10.6352409819
 30
0.0
 10
11.5448490817
 20
10.6284378566
 30
0.0
 10
11.5442680535
 20
10.6217903814
 30
0.0
 10
11.543330336
 20
10.6154354134
 30
0.0
 10
11.5420753054
 20
10.6094783187
 30
0.0
 10
11.540547597
 20
10.6039893503
 30
0.0
 10
11.53879173
 20
10.5990064181
 30
0.0
 10
11.5368485633
 20
10.5945438694
 30
0.0
 10
11.5353913053
 20
10.591799034
 30
0.0
 10
11.5346384488
 20
10.5905196219
 30
0.0
  0
SPLINE
  5
301
100
AcDbEntity
  8
0
100
AcDbSpline
 62
7
  6
CONTINUOUS
 70
0
 71
3
 72
21
 73
17
 74
0
 42
0.0000001
 43
0.0000001
 44
0.0000000001
 40
0.0
 40
0.0
 40
0.0
 40
0.0
 40
0.1030787648
 40
0.1605353158
 40
0.2220340669
 40
0.2873920732
 40
0.3561208399
 40
0.4273785718
 40
0.5000000013
 40
0.5726214303
 40
0.6438791614
 40
0.7126079271
 40
0.7779659331
 40
0.8394646842
 40
0.8969212352
 40
1.0
 40
1.0
 40
1.0
 40
1.0
 10
11.5513554191
 20
10.679962341
 30
0.0
 10
11.5532450461
 20
10.6773291744
 30
0.0
 10
11.5557923111
 20
10.6729334065
 30
0.0
 10
11.5585525678
 20
10.6665169533
 30
0.0
 10
11.560419174
 20
10.6610235653
 30
0.0
 10
11.561952146
 20
10.6550624125
 30
0.0
 10
11.563097643
 20
10.6487024921
 30
0.0
 10
11.5638073842
 20
10.6420496985
 30
0.0
 10
11.5640479977
 20
10.6352409814
 30
0.0
 10
11.5638073842
 20
10.6284322642
 30
0.0
 10
11.5630976429
 20
10.6217794708
 30
0.0
 10
11.561952146
 20
10.6154195503
 30
0.0
 10
11.560419174
 20
10.6094583976
 30
0.0
 10
11.5585525679
 20
10.6039650096
 30
0.0
 10
11.5557923111
 20
10.5975485564
 30
0.0
 10
11.5532450461
 20
10.5931527886
 30
0.0
 10
11.5513554191
 20
10.5905196219
 30
0.0
  0
SPLINE
  5
302
100
AcDbEntity
  8
0
100
AcDbSpline
 62
7
  6
CONTINUOUS
 70
0
 71
3
 72
19
 73
15
 74
0
 42
0.0000001
 43
0.0000001
 44
0.0000000001
 40
0.0
 40
0.0
 40
0.0
 40
0.0
 40
0.1060328853
 40
0.1641189739
 40
0.2257075308
 40
0.358472866
 40
0.4286322903
 40
0.4999999948
 40
0.571367701
 40
0.6415271273
 40
0.7742924679
 40
0.8358810247
 40
0.8939671136
 40
1.0
 40
1.0
 40
1.0
 40
1.0
 10
11.5640139539
 20
10.679962341
 30
0.0
 10
11.5661980544
 20
10.677365415
 30
0.0
 10
11.5691808556
 20
10.6729951656
 30
0.0
 10
11.57243779
 20
10.6665414062
 30
0.0
 10
11.5754329484
 20
10.6590283844
 30
0.0
 10
11.5775158809
 20
10.6507735289
 30
0.0
 10
11.578606759
 20
10.6420565437
 30
0.0
 10
11.5788893897
 20
10.6352409819
 30
0.0
 10
11.5786067591
 20
10.62842542
 30
0.0
 10
11.577515881
 20
10.6197084346
 30
0.0
 10
11.5754329485
 20
10.6114535788
 30
0.0
 10
11.57243779
 20
10.6039405568
 30
0.0
 10
11.5691808556
 20
10.5974867974
 30
0.0
 10
11.5661980544
 20
10.593116548
 30
0.0
 10
11.5640139539
 20
10.5905196219
 30
0.0
  0
SPLINE
  5
303
100
AcDbEntity
  8
0
100
AcDbSpline
 62
7
  6
CONTINUOUS
 70
0
 71
3
 72
17
 73
13
 74
0
 42
0.0000001
 43
0.0000001
 44
0.0000000001
 40
0.0
 40
0.0
 40
0.0
 40
0.0
 40
0.0532335327
 40
0.1091213084
 40
0.2294330409
 40
0.3609955266
 40
0.4999999949
 40
0.6390044667
 40
0.7705669577
 40
0.8908786905
 40
0.9467664659
 40
1.0
 40
1.0
 40
1.0
 40
1.0
 10
11.5725121285
 20
10.679962341
 30
0.0
 10
11.5737119821
 20
10.678709451
 30
0.0
 10
11.5760464746
 20
10.6760181341
 30
0.0
 10
11.5803856735
 20
10.6699178677
 30
0.0
 10
11.5849648799
 20
10.6609190638
 30
0.0
 10
11.5885155456
 20
10.6486089428
 30
0.0
 10
11.5897675455
 20
10.6352409819
 30
0.0
 10
11.5885155458
 20
10.6218730207
 30
0.0
 10
11.58496488
 20
10.6095628994
 30
0.0
 10
11.5803856736
 20
10.6005640954
 30
0.0
 10
11.5760464746
 20
10.5944638289
 30
0.0
 10
11.5737119822
 20
10.5917725119
 30
0.0
 10
11.5725121285
 20
10.5905196219
 30
0.0
  0
SPLINE
  5
304
100
AcDbEntity
  8
0
100
AcDbSpline
 62
7
  6
CONTINUOUS
 70
0
 71
3
 72
21
 73
17
 74
0
 42
0.0000001
 43
0.0000001
 44
0.0000000001
 40
0.0
 40
0.0
 40
0.0
 40
0.0
 40
0.0548651062
 40
0.1118766906
 40
0.1712170943
 40
0.2329986199
 40
0.2971688108
 40
0.3634679318
 40
0.499999995
 40
0.6365320616
 40
0.7028311868
 40
0.7670013788
 40
0.8287829044
 40
0.8881233082
 40
0.9451348923
 40
1.0
 40
1.0
 40
1.0
 40
1.0
 10
11.5767815167
 20
10.679962341
 30
0.0
 10
11.5781108689
 20
10.6787159879
 30
0.0
 10
11.580698796
 20
10.676040004
 30
0.0
 10
11.5842375976
 20
10.6715772453
 30
0.0
 10
11.5874377816
 20
10.6665889774
 30
0.0
 10
11.5902238518
 20
10.661089755
 30
0.0
 10
11.5925140134
 20
10.655116612
 30
0.0
 10
11.5948176878
 20
10.6465390453
 30
0.0
 10
11.5960033068
 20
10.6352409819
 30
0.0
 10
11.5948176879
 20
10.6239429182
 30
0.0
 10
11.5925140135
 20
10.6153653513
 30
0.0
 10
11.5902238519
 20
10.6093922081
 30
0.0
 10
11.5874377817
 20
10.6038929856
 30
0.0
 10
11.5842375977
 20
10.5989047177
 30
0.0
 10
11.580698796
 20
10.5944419591
 30
0.0
 10
11.578110869
 20
10.5917659751
 30
0.0
 10
11.5767815167
 20
10.5905196219
 30
0.0
  0
SPLINE
  5
305
100
AcDbEntity
  8
0
100
AcDbSpline
 62
9
  6
CONTINUOUS
 70
0
 71
3
 72
26
 73
22
 74
0
 42
0.0000001
 43
0.0000001
 44
0.0000000001
 40
0.0
 40
0.0
 40
0.0
 40
0.0
 40
0.0623893458
 40
0.0940602708
 40
0.1260087447
 40
0.1906057717
 40
0.2559332616
 40
0.3217179505
 40
0.3876764497
 40
0.4535215461
 40
0.5189685052
 40
0.5837413897
 40
0.6475794575
 40
0.7102436551
 40
0.7715234091
 40
0.8015937075
 40
0.8312555889
 40
0.8892831916
 40
0.9176413094
 40
0.9455497864
 40
1.0
 40
1.0
 40
1.0
 40
1.0
 10
11.8494755348
 20
3.6165262808
 30
0.0
 10
11.8057471975
 20
3.5986742618
 30
0.0
 10
11.7387636654
 20
3.5742616381
 30
0.0
 10
11.6474922994
 20
3.5464703693
 30
0.0
 10
11.5536720592
 20
3.5215041431
 30
0.0
 10
11.4336528111
 20
3.4962297627
 30
0.0
 10
11.286825376
 20
3.4755907705
 30
0.0
 10
11.1379199011
 20
3.4647041887
 30
0.0
 10
10.9882305604
 20
3.4636651129
 30
0.0
 10
10.8390528186
 20
3.4724817507
 30
0.0
 10
10.6916790305
 20
3.4910786153
 30
0.0
 10
10.5473858796
 20
3.5192956863
 30
0.0
 10
10.4074211985
 20
3.5568909673
 30
0.0
 10
10.2730021508
 20
3.6035402324
 30
0.0
 10
10.1658925592
 20
3.6499232666
 30
0.0
 10
10.084103002
 20
3.6912440968
 30
0.0
 10
10.0061980117
 20
3.7346238152
 30
0.0
 10
9.9321127103
 20
3.7820785337
 30
0.0
 10
9.8624894071
 20
3.8334984177
 30
0.0
 10
9.7973790379
 20
3.886312706
 30
0.0
 10
9.7517175317
 20
3.9289565562
 30
0.0
 10
9.723060243
 20
3.958587374
 30
0.0
  0
SPLINE
  5
306
100
AcDbEntity
  8
0
100
AcDbSpline
 62
9
  6
CONTINUOUS
 70
0
 71
3
 72
38
 73
34
 74
0
 42
0.0000001
 43
0.0000001
 44
0.0000000001
 40
0.0
 40
0.0
 40
0.0
 40
0.0
 40
0.032223106
 40
0.0481195103
 40
0.063874935
 40
0.094972398
 40
0.1255497581
 40
0.1556451571
 40
0.1853038056
 40
0.2145776564
 40
0.2435248976
 40
0.2722092113
 40
0.3006988526
 40
0.3290655571
 40
0.3573833054
 40
0.3857269801
 40
0.4141709853
 40
0.4427878916
 40
0.4716471528
 40
0.500813957
 40
0.5303482626
 40
0.5603040177
 40
0.590728568
 40
0.6216622453
 40
0.653138176
 40
0.6851822272
 40
0.7178130685
 40
0.7848522114
 40
0.8192862848
 40
0.8543142339
 40
0.8899226732
 40
0.9260920319
 40
1.0
 40
1.0
 40
1.0
 40
1.0
 10
9.723060243
 20
3.958587374
 30
0.0
 10
9.7076650123
 20
3.9745056027
 30
0.0
 10
9.6853177245
 20
3.9989131138
 30
0.0
 10
9.6570945072
 20
4.0325411589
 30
0.0
 10
9.6303417836
 20
4.066370501
 30
0.0
 10
9.5991942817
 20
4.109558322
 30
0.0
 10
9.5654892881
 20
4.1629123557
 30
0.0
 10
9.5357080698
 20
4.2174311993
 30
0.0
 10
9.5099321318
 20
4.2729697827
 30
0.0
 10
9.4882316621
 20
4.3293811887
 30
0.0
 10
9.4706660642
 20
4.3865152684
 30
0.0
 10
9.4572837124
 20
4.4442195955
 30
0.0
 10
9.4481217274
 20
4.5023397309
 30
0.0
 10
9.4432057794
 20
4.5607197217
 30
0.0
 10
9.4425495095
 20
4.6192025943
 30
0.0
 10
9.4461546466
 20
4.6776310119
 30
0.0
 10
9.4540111254
 20
4.735847858
 30
0.0
 10
9.4660971799
 20
4.7936967879
 30
0.0
 10
9.4823792921
 20
4.8510228025
 30
0.0
 10
9.5028123366
 20
4.9076728256
 30
0.0
 10
9.5273401816
 20
4.9634960631
 30
0.0
 10
9.5558959303
 20
5.0183443935
 30
0.0
 10
9.588402138
 20
5.0720726248
 30
0.0
 10
9.6247710242
 20
5.1245391779
 30
0.0
 10
9.6649042919
 20
5.1756054738
 30
0.0
 10
9.7086965087
 20
5.2251390038
 30
0.0
 10
9.7723671027
 20
5.2895320118
 30
0.0
 10
9.8424311964
 20
5.3497112622
 30
0.0
 10
9.9179607389
 20
5.4053909039
 30
0.0
 10
9.9781103199
 20
5.4453955523
 30
0.0
 10
10.0410852771
 20
5.4831562479
 30
0.0
 10
10.1292164977
 20
5.53071662
 30
0.0
 10
10.1981363277
 20
5.5622043058
 30
0.0
 10
10.2451611418
 20
5.5814021058
 30
0.0
  0
SPLINE
  5
307
100
AcDbEntity
  8
0
100
AcDbSpline
 62
9
  6
CONTINUOUS
 70
0
 71
3
 72
43
 73
39
 74
0
 42
0.0000001
 43
0.0000001
 44
0.0000000001
 40
0.0
 40
0.0
 40
0.0
 40
0.0
 40
0.0665554183
 40
0.1004989283
 40
0.1347991681
 40
0.1693907859
 40
0.2042053566
 40
0.2391720158
 40
0.2742183003
 40
0.3092709041
 40
0.3442564564
 40
0.3791022911
 40
0.4137372218
 40
0.4480923232
 40
0.4821017224
 40
0.5157034036
 40
0.5488400291
 40
0.5814597768
 40
0.6135171977
 40
0.6449740881
 40
0.6758003746
 40
0.7059749999
 40
0.7354867936
 40
0.7643353014
 40
0.7785159705
 40
0.7925359524
 40
0.8201030151
 40
0.8470765181
 40
0.8603579182
 40
0.8735100969
 40
0.8994537467
 40
0.9249853327
 40
0.937625265
 40
0.9501941471
 40
0.9627037247
 40
0.97516618
 40
0.9875940165
 40
1.0
 40
1.0
 40
1.0
 40
1.0
 10
11.8573183383
 20
3.5931116836
 30
0.0
 10
11.7958723803
 20
3.5680264763
 30
0.0
 10
11.7009994545
 20
3.5350376346
 30
0.0
 10
11.5711035473
 20
3.5003246723
 30
0.0
 10
11.4708281903
 20
3.4786502818
 30
0.0
 10
11.3687886107
 20
3.4616065931
 30
0.0
 10
11.2654044435
 20
3.4492624385
 30
0.0
 10
11.1611094275
 20
3.4416697999
 30
0.0
 10
11.0563388499
 20
3.4388601333
 30
0.0
 10
10.9515306095
 20
3.4408451871
 30
0.0
 10
10.8471225994
 20
3.44761668
 30
0.0
 10
10.7435510737
 20
3.4591464144
 30
0.0
 10
10.6412487593
 20
3.475386381
 30
0.0
 10
10.5406430546
 20
3.4962689808
 30
0.0
 10
10.4421542365
 20
3.5217073264
 30
0.0
 10
10.3461937076
 20
3.5515956332
 30
0.0
 10
10.2531622894
 20
3.5858096929
 30
0.0
 10
10.163448566
 20
3.6242074353
 30
0.0
 10
10.0774273178
 20
3.6666295423
 30
0.0
 10
9.9954579452
 20
3.7129002248
 30
0.0
 10
9.917883299
 20
3.7628277255
 30
0.0
 10
9.8450274552
 20
3.8162060889
 30
0.0
 10
9.7771977621
 20
3.8728125592
 30
0.0
 10
9.7247963612
 20
3.9227688862
 30
0.0
 10
9.6857160756
 20
3.9641251536
 30
0.0
 10
9.648967993
 20
4.0058785994
 30
0.0
 10
9.6065930373
 20
4.0596149951
 30
0.0
 10
9.5688119647
 20
4.1157980785
 30
0.0
 10
9.5417691773
 20
4.1616939573
 30
0.0
 10
9.5170819364
 20
4.207735874
 30
0.0
 10
9.4901335752
 20
4.266364657
 30
0.0
 10
9.4684390226
 20
4.3265983501
 30
0.0
 10
9.4544622489
 20
4.3752425711
 30
0.0
 10
9.4456832883
 20
4.4118298875
 30
0.0
 10
9.4385851891
 20
4.4485993758
 30
0.0
 10
9.4331742923
 20
4.4855131252
 30
0.0
 10
9.4294574539
 20
4.5225311659
 30
0.0
 10
9.4281101208
 20
4.5472690595
 30
0.0
 10
9.4277204332
 20
4.5596341966
 30
0.0
  0
LINE
  5
308
100
AcDbEntity
  8
0
100
AcDbLine
 62
9
  6
CONTINUOUS
 10
9.4277204332
 20
4.5596341966
 11
9.4276747582
 21
4.5611272142
  0
SPLINE
  5
309
100
AcDbEntity
  8
0
100
AcDbSpline
 62
9
  6
CONTINUOUS
 70
0
 71
3
 72
46
 73
42
 74
0
 42
0.0000001
 43
0.0000001
 44
0.0000000001
 40
0.0
 40
0.0
 40
0.0
 40
0.0
 40
0.0331256792
 40
0.0667312224
 40
0.1007588902
 40
0.135145738
 40
0.1698248458
 40
0.204725975
 40
0.2397764694
 40
0.274902049
 40
0.3100276285
 40
0.3450781222
 40
0.3799792516
 40
0.414658356
 40
0.4490452105
 40
0.4830728561
 40
0.5166784428
 40
0.5498040911
 40
0.5823977712
 40
0.6144142027
 40
0.6458157698
 40
0.6765734481
 40
0.7066677295
 40
0.7214648011
 40
0.7360935325
 40
0.7648450311
 40
0.7929404503
 40
0.8204066477
 40
0.8472834986
 40
0.8605197192
 40
0.8736295429
 40
0.8866215919
 40
0.8995052023
 40
0.9122904473
 40
0.9249880344
 40
0.9376092943
 40
0.9501660773
 40
0.962670707
 40
0.9751358784
 40
0.987574581
 40
1.0
 40
1.0
 40
1.0
 40
1.0
 10
11.9998183383
 20
3.2612031361
 30
0.0
 10
11.9635475937
 20
3.2463956667
 30
0.0
 10
11.8896726453
 20
3.2185075784
 30
0.0
 10
11.7761316642
 20
3.1821734721
 30
0.0
 10
11.6594770506
 20
3.1511627731
 30
0.0
 10
11.5402105782
 20
3.1256089383
 30
0.0
 10
11.4188401757
 20
3.1056200628
 30
0.0
 10
11.295884085
 20
3.0912812838
 30
0.0
 10
11.1718670215
 20
3.0826535374
 30
0.0
 10
11.0473183404
 20
3.079773542
 30
0.0
 10
10.9227696591
 20
3.0826535452
 30
0.0
 10
10.7987526003
 20
3.0912812957
 30
0.0
 10
10.6757965017
 20
3.10562009
 30
0.0
 10
10.5544261461
 20
3.1256089439
 30
0.0
 10
10.4351595109
 20
3.1511628719
 30
0.0
 10
10.3185055557
 20
3.1821732765
 30
0.0
 10
10.204962048
 20
3.2185084523
 30
0.0
 10
10.0950134772
 20
3.260014172
 30
0.0
 10
9.9891289375
 20
3.3065144611
 30
0.0
 10
9.8877604737
 20
3.3578121536
 30
0.0
 10
9.7913401584
 20
3.4136906751
 30
0.0
 10
9.7002822466
 20
3.4739117681
 30
0.0
 10
9.6287888365
 20
3.5278086924
 30
0.0
 10
9.5746968238
 20
3.5728730683
 30
0.0
 10
9.5233074804
 20
3.6186407096
 30
0.0
 10
9.4630380002
 20
3.678016951
 30
0.0
 10
9.3970692991
 20
3.7529060887
 30
0.0
 10
9.3381556319
 20
3.8307053842
 30
0.0
 10
9.2949304593
 20
3.898041374
 30
0.0
 10
9.2642048406
 20
3.9529951013
 30
0.0
 10
9.2431849048
 20
3.9945156232
 30
0.0
 10
9.2240973312
 20
4.0365011953
 30
0.0
 10
9.2069630586
 20
4.0789078808
 30
0.0
 10
9.1918000528
 20
4.1216897029
 30
0.0
 10
9.1786255198
 20
4.1648010828
 30
0.0
 10
9.1674530719
 20
4.208195457
 30
0.0
 10
9.1582956049
 20
4.2518264005
 30
0.0
 10
9.1511624282
 20
4.2956467322
 30
0.0
 10
9.1460619959
 20
4.3396097261
 30
0.0
 10
9.1429992453
 20
4.3836667131
 30
0.0
 10
9.1423184384
 20
4.4130774053
 30
0.0
 10
9.1423184046
 20
4.4277726261
 30
0.0
  0
SPLINE
  5
30A
100
AcDbEntity
  8
0
100
AcDbSpline
 62
9
  6
CONTINUOUS
 70
0
 71
3
 72
37
 73
33
 74
0
 42
0.0000001
 43
0.0000001
 44
0.0000000001
 40
0.0
 40
0.0
 40
0.0
 40
0.0
 40
0.074087377
 40
0.1104011614
 40
0.1461945408
 40
0.2161351313
 40
0.2502780635
 40
0.2838569362
 40
0.3168731203
 40
0.349333381
 40
0.381250116
 40
0.412641502
 40
0.4435315991
 40
0.4739503962
 40
0.50393376
 40
0.5335232366
 40
0.5627657455
 40
0.5917131453
 40
0.6204216654
 40
0.648951174
 40
0.677364331
 40
0.7057256441
 40
0.7341004553
 40
0.7625538886
 40
0.7911498116
 40
0.8199498444
 40
0.8490124451
 40
0.8783921128
 40
0.9081387359
 40
0.93829707
 40
0.968906344
 40
1.0
 40
1.0
 40
1.0
 40
1.0
 10
12.0978596418
 20
2.7610013494
 30
0.0
 10
12.1554103934
 20
2.7844963454
 30
0.0
 10
12.2398842808
 20
2.8228172924
 30
0.0
 10
12.3482808256
 20
2.8802904062
 30
0.0
 10
12.4511644966
 20
2.9405063178
 30
0.0
 10
12.548583876
 20
3.0062866603
 30
0.0
 10
12.6396054574
 20
3.0774486962
 30
0.0
 10
12.7036645908
 20
3.1326426758
 30
0.0
 10
12.7639041135
 20
3.189951815
 30
0.0
 10
12.8201865502
 20
3.2492463778
 30
0.0
 10
12.8723809173
 20
3.3103900465
 30
0.0
 10
12.9203660119
 20
3.3732427767
 30
0.0
 10
12.9640298282
 20
3.4376603941
 30
0.0
 10
13.0032701284
 20
3.503494958
 30
0.0
 10
13.0379948821
 20
3.5705948777
 30
0.0
 10
13.0681222018
 20
3.638805411
 30
0.0
 10
13.0935806267
 20
3.7079688888
 30
0.0
 10
13.1143093618
 20
3.7779250265
 30
0.0
 10
13.1302589532
 20
3.8485111662
 30
0.0
 10
13.1413911373
 20
3.919562828
 30
0.0
 10
13.1476790472
 20
3.9909141143
 30
0.0
 10
13.149107304
 20
4.0623981718
 30
0.0
 10
13.1456725471
 20
4.1338476954
 30
0.0
 10
13.1373831945
 20
4.2050955215
 30
0.0
 10
13.1242592558
 20
4.2759751339
 30
0.0
 10
13.1063321819
 20
4.3463211303
 30
0.0
 10
13.0836449955
 20
4.4159697243
 30
0.0
 10
13.0562519969
 20
4.4847592935
 30
0.0
 10
13.0242184267
 20
4.5525304008
 30
0.0
 10
12.9876194825
 20
4.619127149
 30
0.0
 10
12.9465431197
 20
4.6843935626
 30
0.0
 10
12.9164785162
 20
4.7265801919
 30
0.0
 10
12.9007576084
 20
4.7474001785
 30
0.0
  0
SPLINE
  5
30B
100
AcDbEntity
  8
0
100
AcDbSpline
 62
9
  6
CONTINUOUS
 70
0
 71
3
 72
52
 73
48
 74
0
 42
0.0000001
 43
0.0000001
 44
0.0000000001
 40
0.0
 40
0.0
 40
0.0
 40
0.0
 40
0.0141175037
 40
0.0280481768
 40
0.0418022239
 40
0.0553914373
 40
0.0688291416
 40
0.0821301046
 40
0.0953104761
 40
0.1083876456
 40
0.1213800895
 40
0.1343072166
 40
0.1471891552
 40
0.1600465393
 40
0.1729002855
 40
0.1857713518
 40
0.1986804972
 40
0.2116480491
 40
0.2246936912
 40
0.2378362434
 40
0.2510934885
 40
0.2644820255
 40
0.2780171101
 40
0.2917125756
 40
0.3055807578
 40
0.3196324088
 40
0.3338767096
 40
0.3483212435
 40
0.3778264195
 40
0.4081847578
 40
0.4394018027
 40
0.4714611491
 40
0.5043265298
 40
0.5379440034
 40
0.5722441607
 40
0.607144354
 40
0.642550859
 40
0.6783609631
 40
0.7144650172
 40
0.7507484477
 40
0.787093719
 40
0.8233822824
 40
0.8594965172
 40
0.8953216758
 40
0.9307479098
 40
0.9656718399
 40
1.0
 40
1.0
 40
1.0
 40
1.0
 10
9.1953924847
 20
4.749400884
 30
0.0
 10
9.1821157817
 20
4.731882394
 30
0.0
 10
9.1565415627
 20
4.6964589288
 30
0.0
 10
9.1210062271
 20
4.6418999652
 30
0.0
 10
9.0886152437
 20
4.5863648883
 30
0.0
 10
9.0594231173
 20
4.5299458172
 30
0.0
 10
9.0334777329
 20
4.4727345191
 30
0.0
 10
9.01082278
 20
4.4148243773
 30
0.0
 10
8.9914956816
 20
4.3563103059
 30
0.0
 10
8.9755286971
 20
4.2972882272
 30
0.0
 10
8.9629490605
 20
4.2378549443
 30
0.0
 10
8.9537774236
 20
4.1781083068
 30
0.0
 10
8.9480293916
 20
4.1181466199
 30
0.0
 10
8.9457149655
 20
4.0580686897
 30
0.0
 10
8.9468375259
 20
3.997973583
 30
0.0
 10
8.9513955354
 20
3.9379603659
 30
0.0
 10
8.9593813664
 20
3.8781279905
 30
0.0
 10
8.9707811281
 20
3.8185749202
 30
0.0
 10
8.9855761197
 20
3.7593992081
 30
0.0
 10
9.0037413252
 20
3.7006980551
 30
0.0
 10
9.0252460863
 20
3.6425676399
 30
0.0
 10
9.0500549847
 20
3.5851033469
 30
0.0
 10
9.0781263724
 20
3.5283989941
 30
0.0
 10
9.1094135998
 20
3.4725471201
 30
0.0
 10
9.1438653192
 20
3.4176389482
 30
0.0
 10
9.1814239735
 20
3.3637639027
 30
0.0
 10
9.2220287993
 20
3.3110087146
 30
0.0
 10
9.2805465943
 20
3.2417960748
 30
0.0
 10
9.3611353214
 20
3.1585575308
 30
0.0
 10
9.4681150299
 20
3.0652310499
 30
0.0
 10
9.5853626672
 20
2.9783368027
 30
0.0
 10
9.7121072067
 20
2.8984361763
 30
0.0
 10
9.8475250089
 20
2.8260385586
 30
0.0
 10
9.9907355131
 20
2.7616086788
 30
0.0
 10
10.1408085545
 20
2.7055599754
 30
0.0
 10
10.296769599
 20
2.6582530001
 30
0.0
 10
10.4576059926
 20
2.6199926973
 30
0.0
 10
10.6222732231
 20
2.5910258881
 30
0.0
 10
10.78970172
 20
2.5715394345
 30
0.0
 10
10.9588038752
 20
2.5616592918
 30
0.0
 10
11.1284811106
 20
2.5614495177
 30
0.0
 10
11.2976310025
 20
2.5709112635
 30
0.0
 10
11.4651548242
 20
2.5899833916
 30
0.0
 10
11.6299637566
 20
2.618542545
 30
0.0
 10
11.7909892114
 20
2.6564053617
 30
0.0
 10
11.9471776322
 20
2.703323598
 30
0.0
 10
12.0483752252
 20
2.740799421
 30
0.0
 10
12.0978596418
 20
2.7610013494
 30
0.0
  0
SPLINE
  5
30C
100
AcDbEntity
  8
0
100
AcDbSpline
 62
7
  6
CONTINUOUS
 70
0
 71
3
 72
43
 73
39
 74
0
 42
0.0000001
 43
0.0000001
 44
0.0000000001
 40
0.0
 40
0.0
 40
0.0
 40
0.0
 40
0.0327678681
 40
0.0659898706
 40
0.099614522
 40
0.1335861547
 40
0.1678454305
 40
0.2023301232
 40
0.2369757516
 40
0.2717162576
 40
0.3064846584
 40
0.3412137012
 40
0.3758365147
 40
0.4102872629
 40
0.444501803
 40
0.4784183506
 40
0.5119781541
 40
0.5451261816
 40
0.5778118206
 40
0.6099895937
 40
0.6416198878
 40
0.672669696
 40
0.7031133673
 40
0.7329333545
 40
0.7621209455
 40
0.7906769573
 40
0.8186123606
 40
0.8459487939
 40
0.8727189144
 40
0.8989665239
 40
0.9119136356
 40
0.9247515609
 40
0.9374887725
 40
0.9501343392
 40
0.9626978875
 40
0.9751895527
 40
0.9876199276
 40
1.0
 40
1.0
 40
1.0
 40
1.0
 10
12.122286909
 20
2.6812019778
 30
0.0
 10
12.0833841002
 20
2.6653199726
 30
0.0
 10
12.0042164868
 20
2.6353144376
 30
0.0
 10
11.8826569229
 20
2.5959080922
 30
0.0
 10
11.7578707122
 20
2.5619182591
 30
0.0
 10
11.6303433669
 20
2.5334771167
 30
0.0
 10
11.5005658126
 20
2.5106935649
 30
0.0
 10
11.369039151
 20
2.4936553208
 30
0.0
 10
11.2362708566
 20
2.4824278989
 30
0.0
 10
11.1027733354
 20
2.4770545011
 30
0.0
 10
10.9690617916
 20
2.4775558029
 30
0.0
 10
10.8356522692
 20
2.4839298754
 30
0.0
 10
10.7030596371
 20
2.4961521919
 30
0.0
 10
10.5717955948
 20
2.5141757293
 30
0.0
 10
10.4423666878
 20
2.5379311617
 30
0.0
 10
10.3152723469
 20
2.5673271464
 30
0.0
 10
10.1910029602
 20
2.6022507007
 30
0.0
 10
10.0700379869
 20
2.6425676684
 30
0.0
 10
9.9528441228
 20
2.6881232722
 30
0.0
 10
9.8398735282
 20
2.7387427506
 30
0.0
 10
9.7315621282
 20
2.7942320725
 30
0.0
 10
9.6283279959
 20
2.8543787245
 30
0.0
 10
9.5305698305
 20
2.9189525561
 30
0.0
 10
9.4386655312
 20
2.9877066884
 30
0.0
 10
9.3529709012
 20
3.0603784045
 30
0.0
 10
9.2738183771
 20
3.1366902358
 30
0.0
 10
9.2015161522
 20
3.2163503777
 30
0.0
 10
9.1363463172
 20
3.2990554618
 30
0.0
 10
9.0785668831
 20
3.3844846596
 30
0.0
 10
9.0365699789
 20
3.4580195235
 30
0.0
 10
9.0069628019
 20
3.5178315451
 30
0.0
 10
8.9868310446
 20
3.5629574561
 30
0.0
 10
8.9686945582
 20
3.608505264
 30
0.0
 10
8.9525708089
 20
3.6544316478
 30
0.0
 10
8.938475542
 20
3.7006917129
 30
0.0
 10
8.9264227833
 20
3.7472410068
 30
0.0
 10
8.9164242566
 20
3.7940330464
 30
0.0
 10
8.9111253583
 20
3.8254163174
 30
0.0
 10
8.9088241812
 20
3.8411242242
 30
0.0
  0
SPLINE
  5
30D
100
AcDbEntity
  8
0
100
AcDbSpline
 62
7
  6
CONTINUOUS
 70
0
 71
3
 72
15
 73
11
 74
0
 42
0.0000001
 43
0.0000001
 44
0.0000000001
 40
0.0
 40
0.0
 40
0.0
 40
0.0
 40
0.1292050291
 40
0.2567907788
 40
0.3829451264
 40
0.5078745115
 40
0.6318022602
 40
0.7549656283
 40
0.8776129153
 40
1.0
 40
1.0
 40
1.0
 40
1.0
 10
11.4762809769
 20
5.7887449686
 30
0.0
 10
11.4788168303
 20
5.7841114153
 30
0.0
 10
11.4835938387
 20
5.7747553573
 30
0.0
 10
11.4898773985
 20
5.7604065815
 30
0.0
 10
11.4952185591
 20
5.7458661668
 30
0.0
 10
11.499604874
 20
5.7311656133
 30
0.0
 10
11.5030272343
 20
5.7163364515
 30
0.0
 10
11.5054775748
 20
5.7014102234
 30
0.0
 10
11.5069509939
 20
5.6864199467
 30
0.0
 10
11.5072795138
 20
5.6763995765
 30
0.0
 10
11.5072802218
 20
5.6713962235
 30
0.0
  0
SPLINE
  5
30E
100
AcDbEntity
  8
0
100
AcDbSpline
 62
9
  6
CONTINUOUS
 70
0
 71
3
 72
28
 73
24
 74
0
 42
0.0000001
 43
0.0000001
 44
0.0000000001
 40
0.0
 40
0.0
 40
0.0
 40
0.0
 40
0.0251805063
 40
0.0504416456
 40
0.0758622282
 40
0.1015176282
 40
0.1274781472
 40
0.1538077971
 40
0.180563393
 40
0.207793594
 40
0.2355387577
 40
0.2638305721
 40
0.3221117067
 40
0.3827509648
 40
0.4457093894
 40
0.5108393932
 40
0.5779014431
 40
0.6465809636
 40
0.7165047493
 40
0.787256741
 40
0.8583938191
 40
0.9294584146
 40
1.0
 40
1.0
 40
1.0
 40
1.0
 10
10.5948184043
 20
6.009271898
 30
0.0
 10
10.5948184474
 20
6.0032196709
 30
0.0
 10
10.5953056463
 20
5.9910902291
 30
0.0
 10
10.5974954417
 20
5.9729699082
 30
0.0
 10
10.6011362463
 20
5.9549672507
 30
0.0
 10
10.606216207
 20
5.9371426163
 30
0.0
 10
10.612718002
 20
5.9195535363
 30
0.0
 10
10.6206194855
 20
5.9022568954
 30
0.0
 10
10.6298949057
 20
5.8853086312
 30
0.0
 10
10.6405129244
 20
5.8687630068
 30
0.0
 10
10.6524394202
 20
5.8526725594
 30
0.0
 10
10.6702056091
 20
5.8316911489
 30
0.0
 10
10.6955763332
 20
5.8068936904
 30
0.0
 10
10.7301997555
 20
5.7800662096
 30
0.0
 10
10.7688647147
 20
5.7561930152
 30
0.0
 10
10.8110735633
 20
5.7355731558
 30
0.0
 10
10.856289602
 20
5.7184615269
 30
0.0
 10
10.9039372818
 20
5.7050720808
 30
0.0
 10
10.9534105589
 20
5.6955726935
 30
0.0
 10
11.0040794619
 20
5.6900827387
 30
0.0
 10
11.0552997386
 20
5.6886716991
 30
0.0
 10
11.1064149704
 20
5.6913560809
 30
0.0
 10
11.1401934933
 20
5.6958818792
 30
0.0
 10
11.1568904109
 20
5.6988284967
 30
0.0
  0
SPLINE
  5
30F
100
AcDbEntity
  8
0
100
AcDbSpline
 62
7
  6
CONTINUOUS
 70
0
 71
3
 72
11
 73
7
 74
0
 42
0.0000001
 43
0.0000001
 44
0.0000000001
 40
0.0
 40
0.0
 40
0.0
 40
0.0
 40
0.2451221076
 40
0.4929114473
 40
0.7442695499
 40
1.0
 40
1.0
 40
1.0
 40
1.0
 10
10.587483088
 20
5.7064206891
 30
0.0
 10
10.5885740355
 20
5.7135762885
 30
0.0
 10
10.5914349941
 20
5.7278720673
 30
0.0
 10
10.597685233
 20
5.7489716351
 30
0.0
 10
10.6058836874
 20
5.7697295162
 30
0.0
 10
10.6125618771
 20
5.7831547796
 30
0.0
 10
10.6161975291
 20
5.7897735272
 30
0.0
  0
SPLINE
  5
310
100
AcDbEntity
  8
0
100
AcDbSpline
 62
7
  6
CONTINUOUS
 70
0
 71
3
 72
9
 73
5
 74
0
 42
0.0000001
 43
0.0000001
 44
0.0000000001
 40
0.0
 40
0.0
 40
0.0
 40
0.0
 40
0.493871299
 40
1.0
 40
1.0
 40
1.0
 40
1.0
 10
10.6161975291
 20
5.7897735272
 30
0.0
 10
10.6204242477
 20
5.7974683188
 30
0.0
 10
10.6297253229
 20
5.8126504633
 30
0.0
 10
10.6403421784
 20
5.8269391595
 30
0.0
 10
10.646005906
 20
5.8339299023
 30
0.0
  0
SPLINE
  5
311
100
AcDbEntity
  8
0
100
AcDbSpline
 62
7
  6
CONTINUOUS
 70
0
 71
3
 72
15
 73
11
 74
0
 42
0.0000001
 43
0.0000001
 44
0.0000000001
 40
0.0
 40
0.0
 40
0.0
 40
0.0
 40
0.1209715246
 40
0.2423538672
 40
0.3645480703
 40
0.4879362178
 40
0.6128738003
 40
0.7396823327
 40
0.8686442247
 40
1.0
 40
1.0
 40
1.0
 40
1.0
 10
10.5848184074
 20
5.7067205995
 30
0.0
 10
10.5848183635
 20
5.7130919106
 30
0.0
 10
10.5853470165
 20
5.7258624158
 30
0.0
 10
10.5877211734
 20
5.7449357139
 30
0.0
 10
10.5916689321
 20
5.7638773703
 30
0.0
 10
10.5971753542
 20
5.7826201998
 30
0.0
 10
10.6042209805
 20
5.8010998933
 30
0.0
 10
10.6127808792
 20
5.8192531089
 30
0.0
 10
10.6228236189
 20
5.8370171092
 30
0.0
 10
10.630412541
 20
5.8484514612
 30
0.0
 10
10.6344318749
 20
5.8540823425
 30
0.0
  0
SPLINE
  5
312
100
AcDbEntity
  8
0
100
AcDbSpline
 62
9
  6
CONTINUOUS
 70
0
 71
3
 72
15
 73
11
 74
0
 42
0.0000001
 43
0.0000001
 44
0.0000000001
 40
0.0
 40
0.0
 40
0.0
 40
0.0
 40
0.1338113122
 40
0.2653140622
 40
0.3943583024
 40
0.520829519
 40
0.6446476362
 40
0.7657727729
 40
0.8842074843
 40
1.0
 40
1.0
 40
1.0
 40
1.0
 10
11.8632509719
 20
3.5488927861
 30
0.0
 10
11.8931049059
 20
3.5610806037
 30
0.0
 10
11.9516916331
 20
3.5867665364
 30
0.0
 10
12.0366085929
 20
3.6295311533
 30
0.0
 10
12.1175027615
 20
3.6760456983
 30
0.0
 10
12.1940416829
 20
3.7261210905
 30
0.0
 10
12.2659139628
 20
3.779555774
 30
0.0
 10
12.3328270036
 20
3.8361356382
 30
0.0
 10
12.3945033238
 20
3.8956284533
 30
0.0
 10
12.4323868662
 20
3.9375450262
 30
0.0
 10
12.4503348173
 20
3.9589106644
 30
0.0
  0
SPLINE
  5
313
100
AcDbEntity
  8
0
100
AcDbSpline
 62
9
  6
CONTINUOUS
 70
0
 71
3
 72
23
 73
19
 74
0
 42
0.0000001
 43
0.0000001
 44
0.0000000001
 40
0.0
 40
0.0
 40
0.0
 40
0.0
 40
0.0673742766
 40
0.1336519952
 40
0.1988934882
 40
0.2631719758
 40
0.3265732392
 40
0.389194987
 40
0.4511460177
 40
0.5125451085
 40
0.5735194727
 40
0.6342029804
 40
0.6947341722
 40
0.7552540696
 40
0.8159038772
 40
0.8768226928
 40
0.9381452719
 40
1.0
 40
1.0
 40
1.0
 40
1.0
 10
12.4503348173
 20
3.9589106644
 30
0.0
 10
12.4636598897
 20
3.9747731253
 30
0.0
 10
12.4892524844
 20
4.0069587143
 30
0.0
 10
12.5245897038
 20
4.0569116293
 30
0.0
 10
12.5564728514
 20
4.108022389
 30
0.0
 10
12.5848247148
 20
4.1601699786
 30
0.0
 10
12.6095781213
 20
4.213233008
 30
0.0
 10
12.6306735136
 20
4.2670871613
 30
0.0
 10
12.6480598277
 20
4.3216061111
 30
0.0
 10
12.6616951567
 20
4.3766614202
 30
0.0
 10
12.6715463886
 20
4.4321231489
 30
0.0
 10
12.6775892601
 20
4.4878601281
 30
0.0
 10
12.6798089159
 20
4.5437402357
 30
0.0
 10
12.6782001333
 20
4.5996309636
 30
0.0
 10
12.6727668995
 20
4.6553995421
 30
0.0
 10
12.6635220229
 20
4.7109145298
 30
0.0
 10
12.6504891934
 20
4.7660415989
 30
0.0
 10
12.6393496401
 20
4.8022749414
 30
0.0
 10
12.6331770535
 20
4.8202648156
 30
0.0
  0
SPLINE
  5
314
100
AcDbEntity
  8
0
100
AcDbSpline
 62
7
  6
CONTINUOUS
 70
0
 71
3
 72
20
 73
16
 74
0
 42
0.0000001
 43
0.0000001
 44
0.0000000001
 40
0.0
 40
0.0
 40
0.0
 40
0.0
 40
0.057962908
 40
0.1160531709
 40
0.174396111
 40
0.2331133757
 40
0.2923208438
 40
0.35212755
 40
0.4126338213
 40
0.4739307137
 40
0.5360986934
 40
0.5992078232
 40
0.7284270674
 40
0.8619708281
 40
1.0
 40
1.0
 40
1.0
 40
1.0
 10
11.62231825
 20
5.7208627351
 30
0.0
 10
11.6223182387
 20
5.7144981968
 30
0.0
 10
11.621894735
 20
5.7017510876
 30
0.0
 10
11.619990003
 20
5.6826833825
 30
0.0
 10
11.6168210132
 20
5.6636999533
 30
0.0
 10
11.6123940639
 20
5.6448443682
 30
0.0
 10
11.6067201637
 20
5.6261580403
 30
0.0
 10
11.5998115218
 20
5.6076827249
 30
0.0
 10
11.5916843571
 20
5.5894590348
 30
0.0
 10
11.5823567644
 20
5.5715275094
 30
0.0
 10
11.5718495385
 20
5.5539270098
 30
0.0
 10
11.5561785371
 20
5.5307749032
 30
0.0
 10
11.5336771207
 20
5.5028558908
 30
0.0
 10
11.5026277883
 20
5.4715725281
 30
0.0
 10
11.4796384997
 20
5.452499467
 30
0.0
 10
11.4675552138
 20
5.4433506016
 30
0.0
  0
SPLINE
  5
315
100
AcDbEntity
  8
0
100
AcDbSpline
 62
9
  6
CONTINUOUS
 70
0
 71
3
 72
10
 73
6
 74
0
 42
0.0000001
 43
0.0000001
 44
0.0000000001
 40
0.0
 40
0.0
 40
0.0
 40
0.0
 40
0.2459052635
 40
0.6201315029
 40
1.0
 40
1.0
 40
1.0
 40
1.0
 10
10.1170657142
 20
5.6155428207
 30
0.0
 10
10.1453576136
 20
5.6270929403
 30
0.0
 10
10.2173316316
 20
5.654704488
 30
0.0
 10
10.33557397
 20
5.6931861381
 30
0.0
 10
10.4263214154
 20
5.7168219677
 30
0.0
 10
10.4723288883
 20
5.727393504
 30
0.0
  0
SPLINE
  5
316
100
AcDbEntity
  8
0
100
AcDbSpline
 62
9
  6
CONTINUOUS
 70
0
 71
3
 72
41
 73
37
 74
0
 42
0.0000001
 43
0.0000001
 44
0.0000000001
 40
0.0
 40
0.0
 40
0.0
 40
0.0
 40
0.0376238781
 40
0.0747913056
 40
0.1114362715
 40
0.1474991939
 40
0.1829279401
 40
0.2176788675
 40
0.2517178779
 40
0.285021473
 40
0.3175777897
 40
0.3335777742
 40
0.3493923544
 40
0.3804698801
 40
0.410843609
 40
0.4257823294
 40
0.4405625482
 40
0.4696729404
 40
0.4982530449
 40
0.5263888178
 40
0.5541782252
 40
0.5817290426
 40
0.6091560447
 40
0.6365777191
 40
0.6641127149
 40
0.6918762778
 40
0.7199769318
 40
0.7485136194
 40
0.7775734429
 40
0.807230065
 40
0.8375427503
 40
0.8685559762
 40
0.900299512
 40
0.9327888586
 40
0.9660259409
 40
1.0
 40
1.0
 40
1.0
 40
1.0
 10
11.6223416357
 20
5.7273857176
 30
0.0
 10
11.6610428196
 20
5.7184924413
 30
0.0
 10
11.7375592533
 20
5.6989364127
 30
0.0
 10
11.8499568855
 20
5.6641329598
 30
0.0
 10
11.9588763275
 20
5.6241672085
 30
0.0
 10
12.0638417096
 20
5.579212297
 30
0.0
 10
12.1643988258
 20
5.5294615143
 30
0.0
 10
12.260111038
 20
5.4751290907
 30
0.0
 10
12.3505636643
 20
5.4164478562
 30
0.0
 10
12.4353612055
 20
5.3536719398
 30
0.0
 10
12.5013910513
 20
5.2978446204
 30
0.0
 10
12.5509757591
 20
5.251381808
 30
0.0
 10
12.5978204895
 20
5.2043365377
 30
0.0
 10
12.6522780133
 20
5.1435339879
 30
0.0
 10
12.7015146022
 20
5.0795834752
 30
0.0
 10
12.7372055924
 20
5.0271363955
 30
0.0
 10
12.7700811635
 20
4.9744468625
 30
0.0
 10
12.8066167046
 20
4.9071409021
 30
0.0
 10
12.8430125335
 20
4.8240702009
 30
0.0
 10
12.8715809312
 20
4.739454902
 30
0.0
 10
12.8921878213
 20
4.6536698571
 30
0.0
 10
12.9047372361
 20
4.5670939212
 30
0.0
 10
12.9091698088
 20
4.4801124771
 30
0.0
 10
12.9054645488
 20
4.3931136436
 30
0.0
 10
12.8936390253
 20
4.3064857379
 30
0.0
 10
12.873749097
 20
4.2206143156
 30
0.0
 10
12.8458879383
 20
4.1358795867
 30
0.0
 10
12.810184654
 20
4.0526542516
 30
0.0
 10
12.7668027104
 20
3.9713018403
 30
0.0
 10
12.7159383824
 20
3.8921754521
 30
0.0
 10
12.6578193723
 20
3.8156167803
 30
0.0
 10
12.5927034382
 20
3.7419551586
 30
0.0
 10
12.520877671
 20
3.67150695
 30
0.0
 10
12.4426557033
 20
3.6045735631
 30
0.0
 10
12.3583829836
 20
3.5414444962
 30
0.0
 10
12.2990389009
 20
3.5024870389
 30
0.0
 10
12.2684977299
 20
3.4836984901
 30
0.0
  0
SPLINE
  5
317
100
AcDbEntity
  8
0
100
AcDbSpline
 62
9
  6
CONTINUOUS
 70
0
 71
3
 72
10
 73
6
 74
0
 42
0.0000001
 43
0.0000001
 44
0.0000000001
 40
0.0
 40
0.0
 40
0.0
 40
0.0
 40
0.493114341
 40
0.7449399461
 40
1.0
 40
1.0
 40
1.0
 40
1.0
 10
12.2684977299
 20
3.4836984901
 30
0.0
 10
12.22283347
 20
3.455606405
 30
0.0
 10
12.1519422414
 20
3.4161758317
 30
0.0
 10
12.0538729379
 20
3.3691987759
 30
0.0
 10
12.0032450049
 20
3.3473799437
 30
0.0
 10
11.9775709624
 20
3.3368985597
 30
0.0
  0
SPLINE
  5
318
100
AcDbEntity
  8
0
100
AcDbSpline
 62
9
  6
CONTINUOUS
 70
0
 71
3
 72
24
 73
20
 74
0
 42
0.0000001
 43
0.0000001
 44
0.0000000001
 40
0.0
 40
0.0
 40
0.0
 40
0.0
 40
0.0619585838
 40
0.1233591197
 40
0.1843315727
 40
0.2450127642
 40
0.3055442913
 40
0.3660702416
 40
0.4267347943
 40
0.4876798344
 40
0.5490426326
 40
0.6109537311
 40
0.6735351053
 40
0.7368985848
 40
0.8011445432
 40
0.8663610422
 40
0.8993607559
 40
0.9326301416
 40
1.0
 40
1.0
 40
1.0
 40
1.0
 10
9.4647154153
 20
4.829584607
 30
0.0
 10
9.45826486
 20
4.811444445
 30
0.0
 10
9.4465912206
 20
4.7748983336
 30
0.0
 10
9.4328244658
 20
4.7192560054
 30
0.0
 10
9.4229223659
 20
4.6631972591
 30
0.0
 10
9.4169108551
 20
4.6068605537
 30
0.0
 10
9.4148048053
 20
4.5503815139
 30
0.0
 10
9.416609337
 20
4.4938972464
 30
0.0
 10
9.4223199017
 20
4.4375445671
 30
0.0
 10
9.4319224291
 20
4.3814599752
 30
0.0
 10
9.4453928492
 20
4.3257790615
 30
0.0
 10
9.46269748
 20
4.2706360557
 30
0.0
 10
9.4837934646
 20
4.2161636484
 30
0.0
 10
9.5086291761
 20
4.1624923199
 30
0.0
 10
9.5371428875
 20
4.10975135
 30
0.0
 10
9.5638079219
 20
4.0668470203
 30
0.0
 10
9.5868759885
 20
4.0331184115
 30
0.0
 10
9.6112993432
 20
3.9995278123
 30
0.0
 10
9.6307668625
 20
3.9750262838
 30
0.0
 10
9.6442304666
 20
3.9589956505
 30
0.0
  0
SPLINE
  5
319
100
AcDbEntity
  8
0
100
AcDbSpline
 62
9
  6
CONTINUOUS
 70
0
 71
3
 72
15
 73
11
 74
0
 42
0.0000001
 43
0.0000001
 44
0.0000000001
 40
0.0
 40
0.0
 40
0.0
 40
0.0
 40
0.1160099823
 40
0.2345934135
 40
0.3557978732
 40
0.4796287734
 40
0.6060519236
 40
0.7349963889
 40
0.8663575112
 40
1.0
 40
1.0
 40
1.0
 40
1.0
 10
9.6442304666
 20
3.9589956505
 30
0.0
 10
9.6616779994
 20
3.9382214953
 30
0.0
 10
9.6984515987
 20
3.8974433824
 30
0.0
 10
9.758208565
 20
3.8394675063
 30
0.0
 10
9.8229334701
 20
3.784233863
 30
0.0
 10
9.8923723196
 20
3.7319570053
 30
0.0
 10
9.9662577216
 20
3.682835113
 30
0.0
 10
10.0443052096
 20
3.6370555222
 30
0.0
 10
10.1262113751
 20
3.5947941158
 30
0.0
 10
10.1827214749
 20
3.5692790029
 30
0.0
 10
10.2115184384
 20
3.5571363231
 30
0.0
  0
SPLINE
  5
31A
100
AcDbEntity
  8
0
100
AcDbSpline
 62
9
  6
CONTINUOUS
 70
0
 71
3
 72
13
 73
9
 74
0
 42
0.0000001
 43
0.0000001
 44
0.0000000001
 40
0.0
 40
0.0
 40
0.0
 40
0.0
 40
0.243216008
 40
0.3668780278
 40
0.4917221459
 40
0.6176095943
 40
0.7443943692
 40
1.0
 40
1.0
 40
1.0
 40
1.0
 10
10.2115184384
 20
3.5571363231
 30
0.0
 10
10.2595230583
 20
3.5368944413
 30
0.0
 10
10.3332516626
 20
3.5093699811
 30
0.0
 10
10.4339359294
 20
3.4783814149
 30
0.0
 10
10.5114579938
 20
3.4577606328
 30
0.0
 10
10.590357549
 20
3.4399472069
 30
0.0
 10
10.6973975372
 20
3.4199479026
 30
0.0
 10
10.7787187314
 20
3.4093731821
 30
0.0
 10
10.8332322632
 20
3.4042721818
 30
0.0
  0
SPLINE
  5
31B
100
AcDbEntity
  8
0
100
AcDbSpline
 62
9
  6
CONTINUOUS
 70
0
 71
3
 72
13
 73
9
 74
0
 42
0.0000001
 43
0.0000001
 44
0.0000000001
 40
0.0
 40
0.0
 40
0.0
 40
0.0
 40
0.2553103171
 40
0.3819963973
 40
0.5078327178
 40
0.6326825385
 40
0.7564135112
 40
1.0
 40
1.0
 40
1.0
 40
1.0
 10
11.2612893916
 20
3.4042614098
 30
0.0
 10
11.3139282408
 20
3.4091844668
 30
0.0
 10
11.3924690804
 20
3.4192946993
 30
0.0
 10
11.4959175227
 20
3.4382755004
 30
0.0
 10
11.5722393563
 20
3.4551389389
 30
0.0
 10
11.6473029605
 20
3.4746254526
 30
0.0
 10
11.7449442701
 20
3.5038837631
 30
0.0
 10
11.8165518257
 20
3.5298279396
 30
0.0
 10
11.8632509719
 20
3.5488927861
 30
0.0
  0
SPLINE
  5
31C
100
AcDbEntity
  8
0
100
AcDbSpline
 62
9
  6
CONTINUOUS
 70
0
 71
3
 72
11
 73
7
 74
0
 42
0.0000001
 43
0.0000001
 44
0.0000000001
 40
0.0
 40
0.0
 40
0.0
 40
0.0
 40
0.2451709882
 40
0.4938432234
 40
0.745602235
 40
1.0
 40
1.0
 40
1.0
 40
1.0
 10
11.9775709624
 20
3.3368985597
 30
0.0
 10
11.9427350967
 20
3.3226768771
 30
0.0
 10
11.8718030542
 20
3.2958639804
 30
0.0
 10
11.7628188681
 20
3.2608366536
 30
0.0
 10
11.6508800072
 20
3.23083484
 30
0.0
 10
11.5749347913
 20
3.2143412458
 30
0.0
 10
11.536597308
 20
3.2069520315
 30
0.0
  0
SPLINE
  5
31D
100
AcDbEntity
  8
0
100
AcDbSpline
 62
9
  6
CONTINUOUS
 70
0
 71
3
 72
10
 73
6
 74
0
 42
0.0000001
 43
0.0000001
 44
0.0000000001
 40
0.0
 40
0.0
 40
0.0
 40
0.0
 40
0.2486991404
 40
0.6237225397
 40
1.0
 40
1.0
 40
1.0
 40
1.0
 10
11.4522958927
 20
3.1921894079
 30
0.0
 10
11.4184002898
 20
3.1868441077
 30
0.0
 10
11.333112771
 20
3.1751611215
 30
0.0
 10
11.195567617
 20
3.1632869205
 30
0.0
 10
11.0918724473
 20
3.1605097915
 30
0.0
 10
11.0399554281
 20
3.1606551181
 30
0.0
  0
SPLINE
  5
31E
100
AcDbEntity
  8
0
100
AcDbSpline
 62
9
  6
CONTINUOUS
 70
0
 71
3
 72
16
 73
12
 74
0
 42
0.0000001
 43
0.0000001
 44
0.0000000001
 40
0.0
 40
0.0
 40
0.0
 40
0.0
 40
0.1301348033
 40
0.2597333061
 40
0.3882928066
 40
0.5153316364
 40
0.640399702
 40
0.7630891579
 40
0.8234388945
 40
0.8830662109
 40
1.0
 40
1.0
 40
1.0
 40
1.0
 10
11.0399554281
 20
3.1606551181
 30
0.0
 10
10.9848082073
 20
3.1608094867
 30
0.0
 10
10.874719049
 20
3.1645769162
 30
0.0
 10
10.7108455298
 20
3.1805753651
 30
0.0
 10
10.5496132998
 20
3.2067918348
 30
0.0
 10
10.392298051
 20
3.2430221753
 30
0.0
 10
10.2401399
 20
3.28898134
 30
0.0
 10
10.1179557267
 20
3.3353485898
 30
0.0
 10
10.0239238816
 20
3.3770328076
 30
0.0
 10
9.933698719
 20
3.4210991271
 30
0.0
 10
9.8683450503
 20
3.457733775
 30
0.0
 10
9.8261389431
 20
3.4836984873
 30
0.0
  0
SPLINE
  5
31F
100
AcDbEntity
  8
0
100
AcDbSpline
 62
9
  6
CONTINUOUS
 70
0
 71
3
 72
41
 73
37
 74
0
 42
0.0000001
 43
0.0000001
 44
0.0000000001
 40
0.0
 40
0.0
 40
0.0
 40
0.0
 40
0.0687494328
 40
0.1021124973
 40
0.1185376746
 40
0.1347915563
 40
0.1667876986
 40
0.1981241314
 40
0.2288310276
 40
0.2589496059
 40
0.288532083
 40
0.3176413219
 40
0.3463501241
 40
0.3747401291
 40
0.4029003123
 40
0.4309251111
 40
0.4589122513
 40
0.4869603832
 40
0.5151666618
 40
0.5436244166
 40
0.5724210406
 40
0.6016362003
 40
0.6313404277
 40
0.6463977176
 40
0.6615990053
 40
0.6924517807
 40
0.7239422391
 40
0.7399377074
 40
0.7561020315
 40
0.7889398068
 40
0.8224660981
 40
0.8566775007
 40
0.8915615764
 40
0.9270969361
 40
0.9632554102
 40
1.0
 40
1.0
 40
1.0
 40
1.0
 10
9.8261389431
 20
3.4836984873
 30
0.0
 10
9.7716114751
 20
3.5172431594
 30
0.0
 10
9.6931293469
 20
3.5713885933
 30
0.0
 10
9.6080687356
 20
3.6418188368
 30
0.0
 10
9.5625254735
 20
3.683160412
 30
0.0
 10
9.5191959477
 20
3.7250003974
 30
0.0
 10
9.4683209663
 20
3.778966588
 30
0.0
 10
9.4125210583
 20
3.8465391621
 30
0.0
 10
9.3624870584
 20
3.9163524729
 30
0.0
 10
9.3184004148
 20
3.9881605818
 30
0.0
 10
9.280420396
 20
4.061711609
 30
0.0
 10
9.2486857759
 20
4.1367460563
 30
0.0
 10
9.2233134291
 20
4.2129980649
 30
0.0
 10
9.2043976469
 20
4.2901960416
 30
0.0
 10
9.1920092908
 20
4.368063679
 30
0.0
 10
9.186195077
 20
4.4463211302
 30
0.0
 10
9.1869770221
 20
4.5246864088
 30
0.0
 10
9.1943521516
 20
4.6028769098
 30
0.0
 10
9.2082925774
 20
4.6806110581
 30
0.0
 10
9.2287457047
 20
4.7576095788
 30
0.0
 10
9.2556353922
 20
4.8335977609
 30
0.0
 10
9.2888605995
 20
4.9083031068
 30
0.0
 10
9.321582506
 20
4.9690009163
 30
0.0
 10
9.3507336016
 20
5.0166365455
 30
0.0
 10
9.3821691757
 20
5.0640859337
 30
0.0
 10
9.4252305856
 20
5.1221278467
 30
0.0
 10
9.4726003133
 20
5.1776783528
 30
0.0
 10
9.5132057004
 20
5.2208673303
 30
0.0
 10
9.5560534079
 20
5.2636285492
 30
0.0
 10
9.6129783985
 20
5.3153351843
 30
0.0
 10
9.6859825493
 20
5.374085039
 30
0.0
 10
9.7637838588
 20
5.4296605378
 30
0.0
 10
9.8461056495
 20
5.4818655198
 30
0.0
 10
9.9326590408
 20
5.5305189854
 30
0.0
 10
10.0231358589
 20
5.5754488126
 30
0.0
 10
10.0853873448
 20
5.6026101806
 30
0.0
 10
10.1170657142
 20
5.6155428207
 30
0.0
  0
SPLINE
  5
320
100
AcDbEntity
  8
0
100
AcDbSpline
 62
7
  6
CONTINUOUS
 70
0
 71
3
 72
29
 73
25
 74
0
 42
0.0000001
 43
0.0000001
 44
0.0000000001
 40
0.0
 40
0.0
 40
0.0
 40
0.0
 40
0.0260076767
 40
0.0521284734
 40
0.0784130854
 40
0.1049096812
 40
0.1316633356
 40
0.1587156518
 40
0.1861039891
 40
0.2138616517
 40
0.2420168356
 40
0.2705934363
 40
0.2996101582
 40
0.3290811989
 40
0.3894015552
 40
0.4515937519
 40
0.5156103529
 40
0.5813429126
 40
0.6486300669
 40
0.7172648468
 40
0.7870039693
 40
0.8575712966
 40
0.9286761718
 40
1.0
 40
1.0
 40
1.0
 40
1.0
 10
11.45297232
 20
6.2673691481
 30
0.0
 10
11.4526243321
 20
6.2627019498
 30
0.0
 10
11.4516216258
 20
6.2533672099
 30
0.0
 10
11.4492110119
 20
6.2394546224
 30
0.0
 10
11.4458957598
 20
6.2256385084
 30
0.0
 10
11.4416844558
 20
6.2119498942
 30
0.0
 10
11.4365865319
 20
6.1984186549
 30
0.0
 10
11.4306135186
 20
6.1850746227
 30
0.0
 10
11.4237798126
 20
6.1719465311
 30
0.0
 10
11.4161000413
 20
6.1590635615
 30
0.0
 10
11.4075928635
 20
6.1464529431
 30
0.0
 10
11.3982765613
 20
6.1341428752
 30
0.0
 10
11.3881728786
 20
6.1221590211
 30
0.0
 10
11.3735705041
 20
6.1065321404
 30
0.0
 10
11.3534249059
 20
6.0879660551
 30
0.0
 10
11.3267081803
 20
6.0675736116
 30
0.0
 10
11.2974982274
 20
6.0490617314
 30
0.0
 10
11.2660580473
 20
6.0325872631
 30
0.0
 10
11.2326678615
 20
6.0182873709
 30
0.0
 10
11.1976254612
 20
6.0062808182
 30
0.0
 10
11.1612435443
 20
5.9966669923
 30
0.0
 10
11.1238453422
 20
5.9895230081
 30
0.0
 10
11.0857671715
 20
5.984906439
 30
0.0
 10
11.0601506922
 20
5.9835355317
 30
0.0
 10
11.0473183383
 20
5.9832788842
 30
0.0
  0
SPLINE
  5
321
100
AcDbEntity
  8
0
100
AcDbSpline
 62
7
  6
CONTINUOUS
 70
0
 71
3
 72
30
 73
26
 74
0
 42
0.0000001
 43
0.0000001
 44
0.0000000001
 40
0.0
 40
0.0
 40
0.0
 40
0.0
 40
0.0707243999
 40
0.1419053289
 40
0.2130987218
 40
0.2838559509
 40
0.353743895
 40
0.4223575695
 40
0.4893352036
 40
0.5221220109
 40
0.5543920027
 40
0.6172622451
 40
0.6778263605
 40
0.7072417139
 40
0.7360787404
 40
0.7643525014
 40
0.7920864471
 40
0.8193123959
 40
0.8460704608
 40
0.8724090862
 40
0.8983844079
 40
0.924059595
 40
0.9495039573
 40
0.9747915948
 40
1.0
 40
1.0
 40
1.0
 40
1.0
 10
11.1770814628
 20
5.3247651893
 30
0.0
 10
11.1559872107
 20
5.3213099091
 30
0.0
 10
11.1133596996
 20
5.3161075631
 30
0.0
 10
11.0489454851
 20
5.3134247915
 30
0.0
 10
10.9845066829
 20
5.3158508388
 30
0.0
 10
10.9208542001
 20
5.3233571162
 30
0.0
 10
10.8587814902
 20
5.3358507704
 30
0.0
 10
10.7990678391
 20
5.35317615
 30
0.0
 10
10.7515483162
 20
5.3715967605
 30
0.0
 10
10.7154241149
 20
5.3885834026
 30
0.0
 10
10.6812477532
 20
5.4066899124
 30
0.0
 10
10.6413134688
 20
5.4317450681
 30
0.0
 10
10.6049088743
 20
5.4603495845
 30
0.0
 10
10.57868122
 20
5.4849047546
 30
0.0
 10
10.560675392
 20
5.5038926392
 30
0.0
 10
10.5442046186
 20
5.5235686602
 30
0.0
 10
10.52932065
 20
5.5438715313
 30
0.0
 10
10.5160712577
 20
5.5647374852
 30
0.0
 10
10.5044995513
 20
5.5861012714
 30
0.0
 10
10.4946426546
 20
5.607895292
 30
0.0
 10
10.4865329483
 20
5.6300507789
 30
0.0
 10
10.4801974472
 20
5.6524972875
 30
0.0
 10
10.4756566425
 20
5.6751635849
 30
0.0
 10
10.4729261401
 20
5.6979753027
 30
0.0
 10
10.4723184131
 20
5.7132438796
 30
0.0
 10
10.4723184266
 20
5.7208627351
 30
0.0
  0
SPLINE
  5
322
100
AcDbEntity
  8
0
100
AcDbSpline
 62
7
  6
CONTINUOUS
 70
0
 71
3
 72
31
 73
27
 74
0
 42
0.0000001
 43
0.0000001
 44
0.0000000001
 40
0.0
 40
0.0
 40
0.0
 40
0.0
 40
0.0616671113
 40
0.1215374878
 40
0.1509152145
 40
0.1799769485
 40
0.2087771447
 40
0.2373742821
 40
0.2658299326
 40
0.2942079172
 40
0.3225733205
 40
0.3509913886
 40
0.3795265544
 40
0.4082413704
 40
0.4371955833
 40
0.4664453633
 40
0.4960423977
 40
0.5260335996
 40
0.5564602947
 40
0.587358384
 40
0.6506587135
 40
0.7161289877
 40
0.7838455312
 40
0.8537992826
 40
0.9259019452
 40
1.0
 40
1.0
 40
1.0
 40
1.0
 10
11.4731664169
 20
5.8812679253
 30
0.0
 10
11.4803105203
 20
5.8717848549
 30
0.0
 10
11.4933806631
 20
5.8523049115
 30
0.0
 10
11.5066353495
 20
5.8263621901
 30
0.0
 10
11.5150438148
 20
5.8051780188
 30
0.0
 10
11.5202329252
 20
5.7891904705
 30
0.0
 10
11.5243294939
 20
5.7730438627
 30
0.0
 10
11.5273246952
 20
5.7567754311
 30
0.0
 10
11.5292106922
 20
5.7404231013
 30
0.0
 10
11.5299833478
 20
5.7240250737
 30
0.0
 10
11.5296405836
 20
5.7076196476
 30
0.0
 10
11.5281832413
 20
5.69124518
 30
0.0
 10
11.5256150186
 20
5.6749398836
 30
0.0
 10
11.5219417412
 20
5.658741861
 30
0.0
 10
11.517172739
 20
5.6426886696
 30
0.0
 10
11.5113187712
 20
5.626817792
 30
0.0
 10
11.5043944676
 20
5.6111656508
 30
0.0
 10
11.496415546
 20
5.5957688602
 30
0.0
 10
11.4874011868
 20
5.580662053
 30
0.0
 10
11.4739232848
 20
5.5607969816
 30
0.0
 10
11.4545206062
 20
5.5368653986
 30
0.0
 10
11.4276922764
 20
5.5101043675
 30
0.0
 10
11.3973771978
 20
5.4852984074
 30
0.0
 10
11.3638570548
 20
5.4626720313
 30
0.0
 10
11.3274424804
 20
5.4424276432
 30
0.0
 10
11.3017763756
 20
5.4307851935
 30
0.0
 10
11.2885683383
 20
5.4253930349
 30
0.0
  0
SPLINE
  5
323
100
AcDbEntity
  8
0
100
AcDbSpline
 62
7
  6
CONTINUOUS
 70
0
 71
3
 72
39
 73
35
 74
0
 42
0.0000001
 43
0.0000001
 44
0.0000000001
 40
0.0
 40
0.0
 40
0.0
 40
0.0
 40
0.0695858774
 40
0.1051507448
 40
0.1410851374
 40
0.177279749
 40
0.2136212033
 40
0.2499936012
 40
0.286280617
 40
0.3223672908
 40
0.3581418972
 40
0.393497866
 40
0.4283357355
 40
0.4625650848
 40
0.4961066212
 40
0.5288942592
 40
0.5608772136
 40
0.5920221798
 40
0.6072784154
 40
0.6223217492
 40
0.651771107
 40
0.6804075806
 40
0.7082865908
 40
0.7354883023
 40
0.7621169406
 40
0.7882986641
 40
0.8141778147
 40
0.8399116641
 40
0.8656638824
 40
0.8915973109
 40
0.9178668629
 40
0.9446132439
 40
0.9719579629
 40
1.0
 40
1.0
 40
1.0
 40
1.0
 10
11.2793153523
 20
5.4217109798
 30
0.0
 10
11.2563579813
 20
5.412809335
 30
0.0
 10
11.2207498794
 20
5.4015958637
 30
0.0
 10
11.1719711273
 20
5.3908896297
 30
0.0
 10
11.1343127891
 20
5.3849051003
 30
0.0
 10
11.0961029549
 20
5.381066497
 30
0.0
 10
11.0575813896
 20
5.3793970605
 30
0.0
 10
11.0189946191
 20
5.3799076911
 30
0.0
 10
10.9805883261
 20
5.382595055
 30
0.0
 10
10.9426073638
 20
5.3874421399
 30
0.0
 10
10.905293767
 20
5.3944182162
 30
0.0
 10
10.8688853083
 20
5.4034791062
 30
0.0
 10
10.8336139675
 20
5.4145674734
 30
0.0
 10
10.7997044242
 20
5.4276132543
 30
0.0
 10
10.7673727917
 20
5.4425340263
 30
0.0
 10
10.7368247935
 20
5.4592360525
 30
0.0
 10
10.7082563928
 20
5.4776133283
 30
0.0
 10
10.6860970358
 20
5.4943443474
 30
0.0
 10
10.6695565601
 20
5.5084637987
 30
0.0
 10
10.6540462246
 20
5.5228380555
 30
0.0
 10
10.6361782711
 20
5.5416029422
 30
0.0
 10
10.6172126617
 20
5.5654380581
 30
0.0
 10
10.6009965849
 20
5.5902835215
 30
0.0
 10
10.5876390266
 20
5.6159812849
 30
0.0
 10
10.5772304716
 20
5.6423674054
 30
0.0
 10
10.5698431577
 20
5.6692713204
 30
0.0
 10
10.565529333
 20
5.6965170498
 30
0.0
 10
10.5643200202
 20
5.7239245423
 30
0.0
 10
10.5662239761
 20
5.751311666
 30
0.0
 10
10.5712274503
 20
5.7784966109
 30
0.0
 10
10.5792944549
 20
5.8052999023
 30
0.0
 10
10.5903686649
 20
5.8315473294
 30
0.0
 10
10.604371692
 20
5.8570671843
 30
0.0
 10
10.6154520445
 20
5.8732749066
 30
0.0
 10
10.6214204817
 20
5.8812017968
 30
0.0
  0
SPLINE
  5
324
100
AcDbEntity
  8
0
100
AcDbSpline
 62
7
  6
CONTINUOUS
 70
0
 71
3
 72
15
 73
11
 74
0
 42
0.0000001
 43
0.0000001
 44
0.0000000001
 40
0.0
 40
0.0
 40
0.0
 40
0.0
 40
0.119467259
 40
0.2397610266
 40
0.3613024914
 40
0.4844836429
 40
0.6096540712
 40
0.7371279517
 40
0.8671853882
 40
1.0
 40
1.0
 40
1.0
 40
1.0
 10
10.6415890904
 20
6.2436758559
 30
0.0
 10
10.6419945099
 20
6.238180803
 30
0.0
 10
10.6432829287
 20
6.2271819957
 30
0.0
 10
10.6466229519
 20
6.2108372744
 30
0.0
 10
10.6513625671
 20
6.1946629622
 30
0.0
 10
10.6574846158
 20
6.1787196798
 30
0.0
 10
10.6649657072
 20
6.1630642511
 30
0.0
 10
10.6737798852
 20
6.1477524678
 30
0.0
 10
10.6838945728
 20
6.1328410557
 30
0.0
 10
10.6913992664
 20
6.1233044148
 30
0.0
 10
10.6953467171
 20
6.1186203528
 30
0.0
  0
SPLINE
  5
325
100
AcDbEntity
  8
0
100
AcDbSpline
 62
7
  6
CONTINUOUS
 70
0
 71
3
 72
10
 73
6
 74
0
 42
0.0000001
 43
0.0000001
 44
0.0000000001
 40
0.0
 40
0.0
 40
0.0
 40
0.0
 40
0.2446842429
 40
0.6188665633
 40
1.0
 40
1.0
 40
1.0
 40
1.0
 10
11.3348183383
 20
5.1212612112
 30
0.0
 10
11.322430141
 20
5.1162037508
 30
0.0
 10
11.290706017
 20
5.1043545766
 30
0.0
 10
11.2381652936
 20
5.088955144
 30
0.0
 10
11.1976499832
 20
5.0806469803
 30
0.0
 10
11.1770814628
 20
5.0772778159
 30
0.0
  0
SPLINE
  5
326
100
AcDbEntity
  8
0
100
AcDbSpline
 62
7
  6
CONTINUOUS
 70
0
 71
3
 72
10
 73
6
 74
0
 42
0.0000001
 43
0.0000001
 44
0.0000000001
 40
0.0
 40
0.0
 40
0.0
 40
0.0
 40
0.4887327762
 40
0.7417546144
 40
1.0
 40
1.0
 40
1.0
 40
1.0
 10
11.4675552138
 20
5.1958632282
 30
0.0
 10
11.4477321833
 20
5.1808542117
 30
0.0
 10
11.4159396623
 20
5.1602418959
 30
0.0
 10
11.3707811858
 20
5.1367750715
 30
0.0
 10
11.3469818878
 20
5.1262269595
 30
0.0
 10
11.3348183383
 20
5.1212612112
 30
0.0
  0
SPLINE
  5
327
100
AcDbEntity
  8
0
100
AcDbSpline
 62
7
  6
CONTINUOUS
 70
0
 71
3
 72
9
 73
5
 74
0
 42
0.0000001
 43
0.0000001
 44
0.0000000001
 40
0.0
 40
0.0
 40
0.0
 40
0.0
 40
0.5061559396
 40
1.0
 40
1.0
 40
1.0
 40
1.0
 10
11.4484466485
 20
5.8341570412
 30
0.0
 10
11.4541402743
 20
5.8271423033
 30
0.0
 10
11.4648120605
 20
5.8128030458
 30
0.0
 10
11.4741580158
 20
5.7975623225
 30
0.0
 10
11.4784039949
 20
5.7898374929
 30
0.0
  0
SPLINE
  5
328
100
AcDbEntity
  8
0
100
AcDbSpline
 62
7
  6
CONTINUOUS
 70
0
 71
3
 72
11
 73
7
 74
0
 42
0.0000001
 43
0.0000001
 44
0.0000000001
 40
0.0
 40
0.0
 40
0.0
 40
0.0
 40
0.2557430199
 40
0.5071027716
 40
0.7548864391
 40
1.0
 40
1.0
 40
1.0
 40
1.0
 10
11.4784039949
 20
5.7898374929
 30
0.0
 10
11.4820505456
 20
5.7832032204
 30
0.0
 10
11.488747338
 20
5.7697456376
 30
0.0
 10
11.4969653961
 20
5.7489363674
 30
0.0
 10
11.5032253639
 20
5.727783727
 30
0.0
 10
11.5060859461
 20
5.713451797
 30
0.0
 10
11.5071751979
 20
5.7062782758
 30
0.0
  0
SPLINE
  5
329
100
AcDbEntity
  8
0
100
AcDbSpline
 62
7
  6
CONTINUOUS
 70
0
 71
3
 72
15
 73
11
 74
0
 42
0.0000001
 43
0.0000001
 44
0.0000000001
 40
0.0
 40
0.0
 40
0.0
 40
0.0
 40
0.131351827
 40
0.2603113777
 40
0.3871184784
 40
0.5120560338
 40
0.6354452511
 40
0.7576411586
 40
0.879025845
 40
1.0
 40
1.0
 40
1.0
 40
1.0
 10
11.4602401536
 20
5.8540327696
 30
0.0
 10
11.4642567574
 20
5.8484034683
 30
0.0
 10
11.4718402289
 20
5.8369722497
 30
0.0
 10
11.4818760981
 20
5.8192138709
 30
0.0
 10
11.4904296092
 20
5.8010664171
 30
0.0
 10
11.4974703115
 20
5.7825930454
 30
0.0
 10
11.5029728235
 20
5.7638567559
 30
0.0
 10
11.5069174336
 20
5.744921806
 30
0.0
 10
11.5092902393
 20
5.725855453
 30
0.0
 10
11.5098182252
 20
5.7130895955
 30
0.0
 10
11.5098182691
 20
5.7067205995
 30
0.0
  0
SPLINE
  5
32A
100
AcDbEntity
  8
0
100
AcDbSpline
 62
7
  6
CONTINUOUS
 70
0
 71
3
 72
19
 73
15
 74
0
 42
0.0000001
 43
0.0000001
 44
0.0000000001
 40
0.0
 40
0.0
 40
0.0
 40
0.0
 40
0.0566416108
 40
0.1132657109
 40
0.1700709669
 40
0.2272789568
 40
0.2850965587
 40
0.3437143931
 40
0.4033070298
 40
0.4640270204
 40
0.5892586256
 40
0.7202060412
 40
0.857156474
 40
1.0
 40
1.0
 40
1.0
 40
1.0
 10
11.4660737193
 20
9.5592409815
 30
0.0
 10
11.4690131198
 20
9.5592409815
 30
0.0
 10
11.4748942169
 20
9.5589873852
 30
0.0
 10
11.4836562064
 20
9.5578437197
 30
0.0
 10
11.4923158738
 20
9.5559408385
 30
0.0
 10
11.5008399703
 20
9.5532866508
 30
0.0
 10
11.5091984496
 20
9.5498919471
 30
0.0
 10
11.5173614016
 20
9.5457697397
 30
0.0
 10
11.5253009474
 20
9.5409361035
 30
0.0
 10
11.5356570347
 20
9.533493845
 30
0.0
 10
11.5479120491
 20
9.522438263
 30
0.0
 10
11.5611444663
 20
9.5068407978
 30
0.0
 10
11.5729059382
 20
9.489009587
 30
0.0
 10
11.5795442145
 20
9.4760614702
 30
0.0
 10
11.5825989679
 20
9.4693073268
 30
0.0
  0
SPLINE
  5
32B
100
AcDbEntity
  8
0
100
AcDbSpline
 62
7
  6
CONTINUOUS
 70
0
 71
3
 72
15
 73
11
 74
0
 42
0.0000001
 43
0.0000001
 44
0.0000000001
 40
0.0
 40
0.0
 40
0.0
 40
0.0
 40
0.122364243
 40
0.24501078
 40
0.3681873212
 40
0.4921343784
 40
0.6170813298
 40
0.7432444116
 40
0.8708232342
 40
1.0
 40
1.0
 40
1.0
 40
1.0
 10
10.58736328
 20
5.6731391517
 30
0.0
 10
10.5874012748
 20
5.6780703688
 30
0.0
 10
10.5877954333
 20
5.6879446591
 30
0.0
 10
10.5893382856
 20
5.7027121208
 30
0.0
 10
10.5918296447
 20
5.7174146619
 30
0.0
 10
10.5952643833
 20
5.7320207298
 30
0.0
 10
10.5996348285
 20
5.7465001438
 30
0.0
 10
10.6049320747
 20
5.7608227619
 30
0.0
 10
10.6111441575
 20
5.7749584757
 30
0.0
 10
10.6158564702
 20
5.7841781998
 30
0.0
 10
10.618355701
 20
5.7887449683
 30
0.0
  0
SPLINE
  5
32C
100
AcDbEntity
  8
0
100
AcDbSpline
 62
9
  6
CONTINUOUS
 70
0
 71
3
 72
26
 73
22
 74
0
 42
0.0000001
 43
0.0000001
 44
0.0000000001
 40
0.0
 40
0.0
 40
0.0
 40
0.0
 40
0.0656123632
 40
0.1327923243
 40
0.2011112956
 40
0.2700917479
 40
0.3392333757
 40
0.4080295093
 40
0.4759863402
 40
0.5426418139
 40
0.6075850297
 40
0.6704764633
 40
0.7310689201
 40
0.789228836
 40
0.8449569891
 40
0.8719672884
 40
0.8984405879
 40
0.9244214031
 40
0.9499641655
 40
0.9751329039
 40
1.0
 40
1.0
 40
1.0
 40
1.0
 10
11.2201279562
 20
5.5869480864
 30
0.0
 10
11.2078623266
 20
5.5819406641
 30
0.0
 10
11.1825209216
 20
5.573032473
 30
0.0
 10
11.1430788498
 20
5.563153038
 30
0.0
 10
11.1022424418
 20
5.5567071467
 30
0.0
 10
11.06060903
 20
5.5537895787
 30
0.0
 10
11.0187823171
 20
5.5544416238
 30
0.0
 10
10.9773702136
 20
5.5586540592
 30
0.0
 10
10.9369740733
 20
5.5663663211
 30
0.0
 10
10.8981803688
 20
5.5774679888
 30
0.0
 10
10.8615519762
 20
5.5918009148
 30
0.0
 10
10.8276206908
 20
5.6091613762
 30
0.0
 10
10.7968788248
 20
5.6293057086
 30
0.0
 10
10.7697787529
 20
5.6519473571
 30
0.0
 10
10.7503558026
 20
5.6728611807
 30
0.0
 10
10.7371041173
 20
5.6905072
 30
0.0
 10
10.7284054609
 20
5.7040076616
 30
0.0
 10
10.7208791681
 20
5.7178590484
 30
0.0
 10
10.714553608
 20
5.7320116413
 30
0.0
 10
10.7094528186
 20
5.7464115315
 30
0.0
 10
10.7068688526
 20
5.7561929432
 30
0.0
 10
10.7057918498
 20
5.7610972216
 30
0.0
  0
SPLINE
  5
32D
100
AcDbEntity
  8
0
100
AcDbSpline
 62
7
  6
CONTINUOUS
 70
0
 71
3
 72
31
 73
27
 74
0
 42
0.0000001
 43
0.0000001
 44
0.0000000001
 40
0.0
 40
0.0
 40
0.0
 40
0.0
 40
0.0667244026
 40
0.100758498
 40
0.1351528233
 40
0.2047287071
 40
0.2749010309
 40
0.3450733197
 40
0.4146491621
 40
0.4830580186
 40
0.5166708308
 40
0.5498036079
 40
0.6144034315
 40
0.6458117462
 40
0.6765760633
 40
0.7360739625
 40
0.7648316571
 40
0.7929331431
 40
0.8204052338
 40
0.8472878625
 40
0.8736340139
 40
0.8995093467
 40
0.9249914808
 40
0.9501685503
 40
0.9751371743
 40
1.0
 40
1.0
 40
1.0
 40
1.0
 10
11.2735683383
 20
5.9599521582
 30
0.0
 10
11.2562180588
 20
5.9528689363
 30
0.0
 10
11.2294215666
 20
5.9435685744
 30
0.0
 10
11.1927265385
 20
5.9338141691
 30
0.0
 10
11.1548125403
 20
5.9256907102
 30
0.0
 10
11.1062969186
 20
5.9188966276
 30
0.0
 10
11.0473189278
 20
5.9161751256
 30
0.0
 10
10.9883374388
 20
5.9188968907
 30
0.0
 10
10.9303558586
 20
5.9270165382
 30
0.0
 10
10.8833988425
 20
5.9382367002
 30
0.0
 10
10.8472306624
 20
5.9498110081
 30
0.0
 10
10.8127067003
 20
5.962843755
 30
0.0
 10
10.779803822
 20
5.9783108577
 30
0.0
 10
10.7489819797
 20
5.9961733938
 30
0.0
 10
10.7204664794
 20
6.015031349
 30
0.0
 10
10.6942960443
 20
6.0360077401
 30
0.0
 10
10.6710005469
 20
6.0589585274
 30
0.0
 10
10.6553298851
 20
6.076747746
 30
0.0
 10
10.6413359776
 20
6.0952280697
 30
0.0
 10
10.6290786825
 20
6.1143219783
 30
0.0
 10
10.6186121444
 20
6.1339480659
 30
0.0
 10
10.6099830983
 20
6.1540227382
 30
0.0
 10
10.6032303731
 20
6.1744594875
 30
0.0
 10
10.5983845072
 20
6.195170478
 30
0.0
 10
10.5954678594
 20
6.2160632046
 30
0.0
 10
10.5948184541
 20
6.2300676272
 30
0.0
 10
10.5948184059
 20
6.2370506854
 30
0.0
  0
SPLINE
  5
32E
100
AcDbEntity
  8
0
100
AcDbSpline
 62
7
  6
CONTINUOUS
 70
0
 71
3
 72
21
 73
17
 74
0
 42
0.0000001
 43
0.0000001
 44
0.0000000001
 40
0.0
 40
0.0
 40
0.0
 40
0.0
 40
0.1434941346
 40
0.2132581056
 40
0.281593531
 40
0.4137535234
 40
0.4776316869
 40
0.5400521254
 40
0.601074602
 40
0.660787771
 40
0.7193091925
 40
0.7767848287
 40
0.8333871249
 40
0.8893117624
 40
0.9447733732
 40
1.0
 40
1.0
 40
1.0
 40
1.0
 10
11.2735683383
 20
5.9599521582
 30
0.0
 10
11.290366352
 20
5.9668099186
 30
0.0
 10
11.3148342356
 20
5.9783113801
 30
0.0
 10
11.3456546433
 20
5.9961733535
 30
0.0
 10
11.3741702522
 20
6.0150314086
 30
0.0
 10
11.4003405949
 20
6.0360077252
 30
0.0
 10
11.4236362007
 20
6.0589584603
 30
0.0
 10
11.4393067071
 20
6.0767478116
 30
0.0
 10
11.4533006735
 20
6.0952280823
 30
0.0
 10
11.4655580973
 20
6.1143219188
 30
0.0
 10
11.4760245011
 20
6.1339480819
 30
0.0
 10
11.4846534867
 20
6.1540227684
 30
0.0
 10
11.4914063706
 20
6.1744594632
 30
0.0
 10
11.4962522599
 20
6.1951704656
 30
0.0
 10
11.4991686239
 20
6.2160632156
 30
0.0
 10
11.4998183187
 20
6.2300676266
 30
0.0
 10
11.4998182706
 20
6.2370506853
 30
0.0
  0
SPLINE
  5
32F
100
AcDbEntity
  8
0
100
AcDbSpline
 62
9
  6
CONTINUOUS
 70
0
 71
3
 72
19
 73
15
 74
0
 42
0.0000001
 43
0.0000001
 44
0.0000000001
 40
0.0
 40
0.0
 40
0.0
 40
0.0
 40
0.138413763
 40
0.2722446105
 40
0.4016332426
 40
0.5269031456
 40
0.5881757532
 40
0.6486285128
 40
0.7083546569
 40
0.7674577878
 40
0.8260506546
 40
0.8842536151
 40
0.9421932053
 40
1.0
 40
1.0
 40
1.0
 40
1.0
 10
11.3727462656
 20
5.7869512803
 30
0.0
 10
11.382642277
 20
5.7941940599
 30
0.0
 10
11.4014794622
 20
5.8093265362
 30
0.0
 10
11.4269553879
 20
5.8342545769
 30
0.0
 10
11.4489509062
 20
5.8608147122
 30
0.0
 10
11.4643209773
 20
5.8842906824
 30
0.0
 10
11.4746190374
 20
5.903612693
 30
0.0
 10
11.4813025235
 20
5.9182457292
 30
0.0
 10
11.486984635
 20
5.9330902175
 30
0.0
 10
11.4916524276
 20
5.9481122193
 30
0.0
 10
11.4952945828
 20
5.9632767414
 30
0.0
 10
11.4979023741
 20
5.9785488073
 30
0.0
 10
11.4994696293
 20
5.9938918668
 30
0.0
 10
11.4998183087
 20
6.0041502763
 30
0.0
 10
11.4998182723
 20
6.009271898
 30
0.0
  0
SPLINE
  5
330
100
AcDbEntity
  8
0
100
AcDbSpline
 62
7
  6
CONTINUOUS
 70
0
 71
3
 72
27
 73
23
 74
0
 42
0.0000001
 43
0.0000001
 44
0.0000000001
 40
0.0
 40
0.0
 40
0.0
 40
0.0
 40
0.150030886
 40
0.2231519191
 40
0.2948146918
 40
0.3648785902
 40
0.4331517139
 40
0.4994287874
 40
0.5634678633
 40
0.6250140261
 40
0.6838311948
 40
0.7397551926
 40
0.7666598649
 40
0.7929041476
 40
0.8185681336
 40
0.843792343
 40
0.86876807
 40
0.8937540953
 40
0.919049226
 40
0.944986358
 40
0.9718890346
 40
1.0
 40
1.0
 40
1.0
 40
1.0
 10
11.2648183383
 20
5.6868820766
 30
0.0
 10
11.2590519255
 20
5.6845279484
 30
0.0
 10
11.2503497343
 20
5.6813189425
 30
0.0
 10
11.2386386713
 20
5.6777546076
 30
0.0
 10
11.2300026648
 20
5.675513013
 30
0.0
 10
11.2214708203
 20
5.6737051948
 30
0.0
 10
11.2130782187
 20
5.672367558
 30
0.0
 10
11.2048701333
 20
5.6715409133
 30
0.0
 10
11.1969023753
 20
5.6712785829
 30
0.0
 10
11.1892454654
 20
5.6716436381
 30
0.0
 10
11.1819916538
 20
5.6727111243
 30
0.0
 10
11.1763027069
 20
5.6742840507
 30
0.0
 10
11.1721100119
 20
5.6760075396
 30
0.0
 10
11.1692034842
 20
5.6775208983
 30
0.0
 10
11.1665226842
 20
5.6792833631
 30
0.0
 10
11.1640988909
 20
5.6813061362
 30
0.0
 10
11.1619652952
 20
5.6835965388
 30
0.0
 10
11.1601586903
 20
5.6861578452
 30
0.0
 10
11.1587130903
 20
5.6889845807
 30
0.0
 10
11.1576604124
 20
5.6920644306
 30
0.0
 10
11.1570249615
 20
5.6953745484
 30
0.0
 10
11.1568904109
 20
5.6976614877
 30
0.0
 10
11.1568904109
 20
5.6988284967
 30
0.0
  0
SPLINE
  5
331
100
AcDbEntity
  8
0
100
AcDbSpline
 62
7
  6
CONTINUOUS
 70
0
 71
3
 72
22
 73
18
 74
0
 42
0.0000001
 43
0.0000001
 44
0.0000000001
 40
0.0
 40
0.0
 40
0.0
 40
0.0
 40
0.0491279778
 40
0.0755511274
 40
0.1031306669
 40
0.1317692654
 40
0.1613379018
 40
0.2227252919
 40
0.2863274247
 40
0.3513279842
 40
0.4171147217
 40
0.4832440104
 40
0.5494071415
 40
0.6153779733
 40
0.7461007991
 40
0.8745254699
 40
1.0
 40
1.0
 40
1.0
 40
1.0
 10
11.3727462656
 20
5.7869512803
 30
0.0
 10
11.3727462656
 20
5.784441326
 30
0.0
 10
11.372259226
 20
5.7805729096
 30
0.0
 10
11.3708802923
 20
5.7754851063
 30
0.0
 10
11.3694365803
 20
5.7715117814
 30
0.0
 10
11.3676390475
 20
5.7675109055
 30
0.0
 10
11.364775699
 20
5.7621091767
 30
0.0
 10
11.3604779135
 20
5.755466187
 30
0.0
 10
11.3544814828
 20
5.7478205141
 30
0.0
 10
11.347781439
 20
5.7404789556
 30
0.0
 10
11.3405414248
 20
5.7334854598
 30
0.0
 10
11.3328879046
 20
5.7268579405
 30
0.0
 10
11.3249173991
 20
5.7206011886
 30
0.0
 10
11.3140002584
 20
5.7127746966
 30
0.0
 10
11.2999329823
 20
5.7039091877
 30
0.0
 10
11.2825930815
 20
5.6946345137
 30
0.0
 10
11.2707533162
 20
5.6893050211
 30
0.0
 10
11.2648183383
 20
5.6868820766
 30
0.0
  0
SPLINE
  5
332
100
AcDbEntity
  8
0
100
AcDbSpline
 62
7
  6
CONTINUOUS
 70
0
 71
3
 72
19
 73
15
 74
0
 42
0.0000001
 43
0.0000001
 44
0.0000000001
 40
0.0
 40
0.0
 40
0.0
 40
0.0
 40
0.0566516394
 40
0.1132749266
 40
0.1700862048
 40
0.2272993236
 40
0.2851200673
 40
0.3437406228
 40
0.4033349606
 40
0.4640554065
 40
0.5892848289
 40
0.720226004
 40
0.8571672684
 40
1.0
 40
1.0
 40
1.0
 40
1.0
 10
10.6285629573
 20
9.1492409815
 30
0.0
 10
10.6256251326
 20
9.1492409815
 30
0.0
 10
10.6197477441
 20
9.1494941428
 30
0.0
 10
10.6109911711
 20
9.1506366398
 30
0.0
 10
10.6023368994
 20
9.152537023
 30
0.0
 10
10.5938176748
 20
9.1551879181
 30
0.0
 10
10.5854638794
 20
9.1585785435
 30
0.0
 10
10.577305262
 20
9.1626957144
 30
0.0
 10
10.5693696575
 20
9.1675235505
 30
0.0
 10
10.5590183852
 20
9.174956907
 30
0.0
 10
10.5467681263
 20
9.1859995065
 30
0.0
 10
10.5335390149
 20
9.2015794123
 30
0.0
 10
10.521778481
 20
9.2193913384
 30
0.0
 10
10.5151391769
 20
9.2323260891
 30
0.0
 10
10.5120835217
 20
9.2390734082
 30
0.0
  0
LINE
  5
333
100
AcDbEntity
  8
0
100
AcDbLine
 62
7
  6
CONTINUOUS
 10
10.6293933145
 20
9.1516038326
 11
10.6292598163
 21
9.151632838
  0
SPLINE
  5
334
100
AcDbEntity
  8
0
100
AcDbSpline
 62
7
  6
CONTINUOUS
 70
0
 71
3
 72
11
 73
7
 74
0
 42
0.0000001
 43
0.0000001
 44
0.0000000001
 40
0.0
 40
0.0
 40
0.0
 40
0.0
 40
0.2453586371
 40
0.4934078745
 40
0.7447697356
 40
1.0
 40
1.0
 40
1.0
 40
1.0
 10
10.6292598163
 20
9.151632838
 30
0.0
 10
10.6265681943
 20
9.1522194675
 30
0.0
 10
10.6211992865
 20
9.1536108875
 30
0.0
 10
10.6132805372
 20
9.1563208357
 30
0.0
 10
10.6054832056
 20
9.1596548979
 30
0.0
 10
10.6004233214
 20
9.1622650902
 30
0.0
 10
10.5979236498
 20
9.1636663574
 30
0.0
  0
SPLINE
  5
335
100
AcDbEntity
  8
0
100
AcDbSpline
 62
7
  6
CONTINUOUS
 70
0
 71
3
 72
21
 73
17
 74
0
 42
0.0000001
 43
0.0000001
 44
0.0000000001
 40
0.0
 40
0.0
 40
0.0
 40
0.0
 40
0.1181815617
 40
0.1792109819
 40
0.2413107362
 40
0.304307971
 40
0.3680159744
 40
0.4322373861
 40
0.4967681269
 40
0.5614006747
 40
0.6259271997
 40
0.6901432905
 40
0.7538511039
 40
0.8168627447
 40
0.8790038331
 40
1.0
 40
1.0
 40
1.0
 40
1.0
 10
10.8179041557
 20
6.0638823506
 30
0.0
 10
10.8343983586
 20
6.0554261256
 30
0.0
 10
10.8603594838
 20
6.0443710438
 30
0.0
 10
10.8964393223
 20
6.0328947225
 30
0.0
 10
10.9247696448
 20
6.0257712976
 30
0.0
 10
10.9538847623
 20
6.020278372
 30
0.0
 10
10.9836014805
 20
6.0164540524
 30
0.0
 10
11.0137282773
 20
6.0143272822
 30
0.0
 10
11.0440721486
 20
6.0139153548
 30
0.0
 10
11.0744384452
 20
6.0152250519
 30
0.0
 10
11.1046323436
 20
6.0182524353
 30
0.0
 10
11.134460443
 20
6.0229821917
 30
0.0
 10
11.1637306561
 20
6.0293876974
 30
0.0
 10
11.1922585962
 20
6.0374337434
 30
0.0
 10
11.2287195764
 20
6.0501660466
 30
0.0
 10
11.2549312775
 20
6.062175173
 30
0.0
 10
11.2715920843
 20
6.0712605224
 30
0.0
  0
LINE
  5
336
100
AcDbEntity
  8
0
100
AcDbLine
 62
7
  6
CONTINUOUS
 10
10.6293933145
 20
9.5568781303
 11
10.6292598163
 21
9.5568491249
  0
SPLINE
  5
337
100
AcDbEntity
  8
0
100
AcDbSpline
 62
7
  6
CONTINUOUS
 70
0
 71
3
 72
11
 73
7
 74
0
 42
0.0000001
 43
0.0000001
 44
0.0000000001
 40
0.0
 40
0.0
 40
0.0
 40
0.0
 40
0.2453564044
 40
0.4934046282
 40
0.7447671174
 40
1.0
 40
1.0
 40
1.0
 40
1.0
 10
10.6292598163
 20
9.5568491249
 30
0.0
 10
10.626567183
 20
9.556262275
 30
0.0
 10
10.6211962599
 20
9.5548702488
 30
0.0
 10
10.6132746014
 20
9.5521589277
 30
0.0
 10
10.6054744709
 20
9.5488230332
 30
0.0
 10
10.600412848
 20
9.5462113444
 30
0.0
 10
10.5979123353
 20
9.544809262
 30
0.0
  0
LINE
  5
338
100
AcDbEntity
  8
0
100
AcDbLine
 62
7
  6
CONTINUOUS
 10
11.4529728465
 20
6.3187058442
 11
11.4529477585
 21
6.3183727516
  0
SPLINE
  5
339
100
AcDbEntity
  8
0
100
AcDbSpline
 62
7
  6
CONTINUOUS
 70
0
 71
3
 72
29
 73
25
 74
0
 42
0.0000001
 43
0.0000001
 44
0.0000000001
 40
0.0
 40
0.0
 40
0.0
 40
0.0
 40
0.0260037615
 40
0.0521218317
 40
0.0784048057
 40
0.1049007288
 40
0.1316545633
 40
0.1587077775
 40
0.1860976075
 40
0.2138572242
 40
0.2420147003
 40
0.2705938211
 40
0.299613175
 40
0.3290868721
 40
0.3894122839
 40
0.4516086815
 40
0.515628239
 40
0.5813622733
 40
0.6486493389
 40
0.7172825059
 40
0.7870186418
 40
0.8575818258
 40
0.9286817185
 40
1.0
 40
1.0
 40
1.0
 40
1.0
 10
11.4529477585
 20
6.3183727516
 30
0.0
 10
11.4525929203
 20
6.3137098336
 30
0.0
 10
11.4515769573
 20
6.3043838952
 30
0.0
 10
11.4491479556
 20
6.2904853735
 30
0.0
 10
11.445815749
 20
6.2766838136
 30
0.0
 10
11.4415890163
 20
6.2630101433
 30
0.0
 10
11.4364771335
 20
6.2494941862
 30
0.0
 10
11.4304917205
 20
6.2361656676
 30
0.0
 10
11.4236471192
 20
6.2230532703
 30
0.0
 10
11.4159580011
 20
6.2101860806
 30
0.0
 10
11.407443001
 20
6.1975912583
 30
0.0
 10
11.3981203846
 20
6.1852969358
 30
0.0
 10
11.3880119013
 20
6.1733286818
 30
0.0
 10
11.3734050641
 20
6.1577225331
 30
0.0
 10
11.353257708
 20
6.1391817073
 30
0.0
 10
11.3265442928
 20
6.1188175773
 30
0.0
 10
11.297342742
 20
6.1003318171
 30
0.0
 10
11.2659155916
 20
6.0838808153
 30
0.0
 10
11.2325425445
 20
6.0696013228
 30
0.0
 10
11.19752081
 20
6.0576117354
 30
0.0
 10
11.161162454
 20
6.0480111289
 30
0.0
 10
11.1237900298
 20
6.0408763574
 30
0.0
 10
11.0857391414
 20
6.0362648041
 30
0.0
 10
11.0601413197
 20
6.0348943473
 30
0.0
 10
11.0473183383
 20
6.0346371928
 30
0.0
  0
SPLINE
  5
33A
100
AcDbEntity
  8
0
100
AcDbSpline
 62
7
  6
CONTINUOUS
 70
0
 71
3
 72
25
 73
21
 74
0
 42
0.0000001
 43
0.0000001
 44
0.0000000001
 40
0.0
 40
0.0
 40
0.0
 40
0.0
 40
0.054975519
 40
0.1104564953
 40
0.166609181
 40
0.2235847985
 40
0.2815169541
 40
0.3108829331
 40
0.3405291517
 40
0.4006962968
 40
0.4621002997
 40
0.4932869975
 40
0.5248005488
 40
0.5888125701
 40
0.65415561
 40
0.7208224219
 40
0.7887884829
 40
0.8580126014
 40
0.9284398801
 40
1.0
 40
1.0
 40
1.0
 40
1.0
 10
13.1858123469
 20
3.8411227777
 30
0.0
 10
13.1814416244
 20
3.8112877433
 30
0.0
 10
13.1701685037
 20
3.7516795588
 30
0.0
 10
13.1459149634
 20
3.663476179
 30
0.0
 10
13.1143427956
 20
3.5764485383
 30
0.0
 10
13.075569953
 20
3.4909120215
 30
0.0
 10
13.0375420315
 20
3.4214270403
 30
0.0
 10
13.0037411265
 20
3.3668995441
 30
0.0
 10
12.9673382889
 20
3.3125902515
 30
0.0
 10
12.9175564564
 20
3.2461631695
 30
0.0
 10
12.8628860784
 20
3.1825876194
 30
0.0
 10
12.8160711201
 20
3.1331590098
 30
0.0
 10
12.7667051193
 20
3.0842233712
 30
0.0
 10
12.7011755257
 20
3.0250486958
 30
0.0
 10
12.6172090376
 20
2.9578036535
 30
0.0
 10
12.5277916907
 20
2.8941811321
 30
0.0
 10
12.4332367264
 20
2.8344023006
 30
0.0
 10
12.3338711837
 20
2.7786716779
 30
0.0
 10
12.2300435521
 20
2.7271831919
 30
0.0
 10
12.158625309
 20
2.6960370674
 30
0.0
 10
12.122286909
 20
2.6812019778
 30
0.0
  0
SPLINE
  5
33B
100
AcDbEntity
  8
0
100
AcDbSpline
 62
7
  6
CONTINUOUS
 70
0
 71
3
 72
27
 73
23
 74
0
 42
0.0000001
 43
0.0000001
 44
0.0000000001
 40
0.0
 40
0.0
 40
0.0
 40
0.0
 40
0.0260003365
 40
0.0521199751
 40
0.0784089347
 40
0.1049145752
 40
0.1587253387
 40
0.2138872811
 40
0.2420633075
 40
0.2706609172
 40
0.2996981581
 40
0.329188736
 40
0.3895434132
 40
0.4517609087
 40
0.5157919078
 40
0.5815270502
 40
0.6488050162
 40
0.7174196224
 40
0.7871290485
 40
0.8576590449
 40
0.9287214582
 40
1.0
 40
1.0
 40
1.0
 40
1.0
 10
11.4528254631
 20
6.3680925116
 30
0.0
 10
11.4524385304
 20
6.3634462419
 30
0.0
 10
11.4513604745
 20
6.3541547876
 30
0.0
 10
11.4488454368
 20
6.3403121855
 30
0.0
 10
11.4454337592
 20
6.3265686355
 30
0.0
 10
11.4396745712
 20
6.3083294344
 30
0.0
 10
11.4302216538
 20
6.285881199
 30
0.0
 10
11.4180556498
 20
6.2644432647
 30
0.0
 10
11.4067355905
 20
6.2478580203
 30
0.0
 10
11.3973835724
 20
6.2356289921
 30
0.0
 10
11.3872530025
 20
6.2237261874
 30
0.0
 10
11.3726260307
 20
6.2082074949
 30
0.0
 10
11.3524714554
 20
6.1897737892
 30
0.0
 10
11.3257742527
 20
6.1695301477
 30
0.0
 10
11.2966127072
 20
6.1511564014
 30
0.0
 10
11.2652471562
 20
6.1348069395
 30
0.0
 10
11.2319548574
 20
6.1206167412
 30
0.0
 10
11.1970302775
 20
6.108702643
 30
0.0
 10
11.160782508
 20
6.0991624267
 30
0.0
 10
11.1235309148
 20
6.0920718929
 30
0.0
 10
11.0856077629
 20
6.0874877033
 30
0.0
 10
11.0600973538
 20
6.0861239173
 30
0.0
 10
11.0473183383
 20
6.0858671876
 30
0.0
  0
SPLINE
  5
33C
100
AcDbEntity
  8
0
100
AcDbSpline
 62
9
  6
CONTINUOUS
 70
0
 71
3
 72
52
 73
48
 74
0
 42
0.0000001
 43
0.0000001
 44
0.0000000001
 40
0.0
 40
0.0
 40
0.0
 40
0.0
 40
0.0133200171
 40
0.026513893
 40
0.0395956883
 40
0.0525804529
 40
0.0654841561
 40
0.0783235262
 40
0.0911159146
 40
0.1038791394
 40
0.1166313017
 40
0.1293906156
 40
0.1421752261
 40
0.155003022
 40
0.1678914699
 40
0.1808574514
 40
0.1939170961
 40
0.2070856798
 40
0.2203774685
 40
0.2338056538
 40
0.2473822651
 40
0.2611180894
 40
0.2890973673
 40
0.3178116647
 40
0.3324607686
 40
0.3473069649
 40
0.3623521168
 40
0.3775969365
 40
0.3930409679
 40
0.4086826558
 40
0.440542954
 40
0.4731503281
 40
0.5064579264
 40
0.5404062819
 40
0.574924992
 40
0.6099343645
 40
0.6453470223
 40
0.6810694698
 40
0.7170036316
 40
0.7530483572
 40
0.789100907
 40
0.825058428
 40
0.8608194343
 40
0.8962852666
 40
0.9313617477
 40
0.9659600828
 40
1.0
 40
1.0
 40
1.0
 40
1.0
 10
9.1501838932
 20
4.5534550072
 30
0.0
 10
9.1421570147
 20
4.5366347672
 30
0.0
 10
9.1269845179
 20
4.5027618519
 30
0.0
 10
9.1068589882
 20
4.4511206652
 30
0.0
 10
9.089508132
 20
4.3989744031
 30
0.0
 10
9.0749587979
 20
4.3463991145
 30
0.0
 10
9.0632313859
 20
4.2934701187
 30
0.0
 10
9.0543435362
 20
4.2402635105
 30
0.0
 10
9.0483083008
 20
4.186855879
 30
0.0
 10
9.0451341294
 20
4.1333241933
 30
0.0
 10
9.044826422
 20
4.0797455793
 30
0.0
 10
9.0473848349
 20
4.0261972891
 30
0.0
 10
9.0528062146
 20
3.9727565198
 30
0.0
 10
9.0610823342
 20
3.9195002732
 30
0.0
 10
9.0722008564
 20
3.8665051616
 30
0.0
 10
9.0861460273
 20
3.8138475509
 30
0.0
 10
9.102896701
 20
3.7616028734
 30
0.0
 10
9.1224290939
 20
3.709846324
 30
0.0
 10
9.1447143495
 20
3.6586518446
 30
0.0
 10
9.1697199605
 20
3.6080929414
 30
0.0
 10
9.1974106759
 20
3.5582411168
 30
0.0
 10
9.2381010278
 20
3.4924143348
 30
0.0
 10
9.2956313612
 20
3.4122330342
 30
0.0
 10
9.3607019966
 20
3.3363707502
 30
0.0
 10
9.4174196862
 20
3.2778934199
 30
0.0
 10
9.462574667
 20
3.2349159893
 30
0.0
 10
9.5099919715
 20
3.1931784174
 30
0.0
 10
9.5596048393
 20
3.152739431
 30
0.0
 10
9.6113426551
 20
3.1136562578
 30
0.0
 10
9.6834961381
 20
3.0631222298
 30
0.0
 10
9.7786624388
 20
3.0037169711
 30
0.0
 10
9.8993767925
 20
2.9391411796
 30
0.0
 10
10.0266258959
 20
2.8811970007
 30
0.0
 10
10.15968157
 20
2.8302135493
 30
0.0
 10
10.2977880604
 20
2.786477691
 30
0.0
 10
10.4401594597
 20
2.7502367097
 30
0.0
 10
10.5859859202
 20
2.7216955151
 30
0.0
 10
10.7344377026
 20
2.7010155811
 30
0.0
 10
10.884670076
 20
2.688313984
 30
0.0
 10
11.035828095
 20
2.6836626758
 30
0.0
 10
11.1870515172
 20
2.6870880349
 30
0.0
 10
11.3374796743
 20
2.6985706894
 30
0.0
 10
11.4862565945
 20
2.7180456587
 30
0.0
 10
11.6325353327
 20
2.7454023198
 30
0.0
 10
11.7754849763
 20
2.7804867279
 30
0.0
 10
11.9142862553
 20
2.8230974048
 30
0.0
 10
12.0043405121
 20
2.8566652946
 30
0.0
 10
12.0484360611
 20
2.874667227
 30
0.0
  0
SPLINE
  5
33D
100
AcDbEntity
  8
0
100
AcDbSpline
 62
9
  6
CONTINUOUS
 70
0
 71
3
 72
23
 73
19
 74
0
 42
0.0000001
 43
0.0000001
 44
0.0000000001
 40
0.0
 40
0.0
 40
0.0
 40
0.0
 40
0.0282686835
 40
0.0565597578
 40
0.1132868338
 40
0.1703670188
 40
0.2279672744
 40
0.2862436035
 40
0.3453382527
 40
0.4053775149
 40
0.4664701522
 40
0.5287064128
 40
0.5921575792
 40
0.6568759682
 40
0.7228952909
 40
0.7902312898
 40
0.8588825914
 40
1.0
 40
1.0
 40
1.0
 40
1.0
 10
9.1423184046
 20
4.2983375589
 30
0.0
 10
9.1423184337
 20
4.285691024
 30
0.0
 10
9.1428226171
 20
4.2603846598
 30
0.0
 10
9.145848327
 20
4.2097836465
 30
0.0
 10
9.1534279057
 20
4.1465933177
 30
0.0
 10
9.1685387043
 20
4.0713368215
 30
0.0
 10
9.1896226883
 20
3.9968096734
 30
0.0
 10
9.2166095283
 20
3.923254052
 30
0.0
 10
9.2494098614
 20
3.8509036978
 30
0.0
 10
9.2879159216
 20
3.7799886922
 30
0.0
 10
9.3320021308
 20
3.7107333765
 30
0.0
 10
9.3815257063
 20
3.6433562191
 30
0.0
 10
9.4363270932
 20
3.5780692937
 30
0.0
 10
9.4962309313
 20
3.5150775399
 30
0.0
 10
9.5610448956
 20
3.4545793963
 30
0.0
 10
9.6305666807
 20
3.3967619326
 30
0.0
 10
9.7301305738
 20
3.3228289446
 30
0.0
 10
9.8098934932
 20
3.272973937
 30
0.0
 10
9.8649829323
 20
3.2421397322
 30
0.0
  0
SPLINE
  5
33E
100
AcDbEntity
  8
0
100
AcDbSpline
 62
9
  6
CONTINUOUS
 70
0
 71
3
 72
23
 73
19
 74
0
 42
0.0000001
 43
0.0000001
 44
0.0000000001
 40
0.0
 40
0.0
 40
0.0
 40
0.0
 40
0.0584985244
 40
0.1182100351
 40
0.1790272218
 40
0.2408245975
 40
0.3034612633
 40
0.3667836099
 40
0.4306279629
 40
0.4948231633
 40
0.5591931039
 40
0.6235592359
 40
0.6877430605
 40
0.7515686356
 40
0.8148650249
 40
0.8774691354
 40
0.9392271613
 40
1.0
 40
1.0
 40
1.0
 40
1.0
 10
9.8649829323
 20
3.2421397322
 30
0.0
 10
9.9025147895
 20
3.2211327118
 30
0.0
 10
9.9797775893
 20
3.1811745096
 30
0.0
 10
10.1003153237
 20
3.1280956218
 30
0.0
 10
10.2260989799
 20
3.0815084186
 30
0.0
 10
10.3564260628
 20
3.0416724048
 30
0.0
 10
10.4905772966
 20
3.0088055182
 30
0.0
 10
10.6278098614
 20
2.98308881
 30
0.0
 10
10.7673644404
 20
2.9646637747
 30
0.0
 10
10.9084686164
 20
2.9536319287
 30
0.0
 10
11.0503413758
 20
2.9500540708
 30
0.0
 10
11.1921974097
 20
2.9539499589
 30
0.0
 10
11.3332514634
 20
2.9652981297
 30
0.0
 10
11.4727228791
 20
2.9840360792
 30
0.0
 10
11.6098394282
 20
3.0100603022
 30
0.0
 10
11.7438435526
 20
3.0432283471
 30
0.0
 10
11.8739882635
 20
3.0833549488
 30
0.0
 10
11.9584498667
 20
3.1148794611
 30
0.0
 10
11.9998183383
 20
3.1317680689
 30
0.0
  0
SPLINE
  5
33F
100
AcDbEntity
  8
0
100
AcDbSpline
 62
9
  6
CONTINUOUS
 70
0
 71
3
 72
45
 73
41
 74
0
 42
0.0000001
 43
0.0000001
 44
0.0000000001
 40
0.0
 40
0.0
 40
0.0
 40
0.0
 40
0.0124254675
 40
0.0248642212
 40
0.0373294412
 40
0.0498341224
 40
0.0623909543
 40
0.0750122662
 40
0.0877099028
 40
0.1004952004
 40
0.1133788611
 40
0.1263709635
 40
0.1394808383
 40
0.1527171133
 40
0.1795940718
 40
0.207060379
 40
0.2351559105
 40
0.2639075241
 40
0.2933294386
 40
0.3234238403
 40
0.3541816417
 40
0.3855833344
 40
0.4175998939
 40
0.4501937044
 40
0.4833194852
 40
0.5169252064
 40
0.5509529883
 40
0.5853399805
 40
0.6200192237
 40
0.654920493
 40
0.6899711273
 40
0.7250968476
 40
0.7602225682
 40
0.7952732026
 40
0.830174474
 40
0.8648537145
 40
0.8992407192
 40
0.9332684747
 40
0.9668742535
 40
1.0
 40
1.0
 40
1.0
 40
1.0
 10
9.4273184049
 20
4.5611215783
 30
0.0
 10
9.4273183723
 20
4.5486248564
 30
0.0
 10
9.4278974023
 20
4.5236141885
 30
0.0
 10
9.4305019316
 20
4.4861484074
 30
0.0
 10
9.4348392933
 20
4.4487625503
 30
0.0
 10
9.440905324
 20
4.4114980219
 30
0.0
 10
9.4486927505
 20
4.3743945356
 30
0.0
 10
9.4581937569
 20
4.3374922417
 30
0.0
 10
9.4693972683
 20
4.3008305858
 30
0.0
 10
9.4822918217
 20
4.2644492057
 30
0.0
 10
9.4968626698
 20
4.228386814
 30
0.0
 10
9.5130946507
 20
4.1926825632
 30
0.0
 10
9.5309698456
 20
4.1573737563
 30
0.0
 10
9.5570987391
 20
4.1106414761
 30
0.0
 10
9.5938572028
 20
4.0533793096
 30
0.0
 10
9.6439567485
 20
3.9872195223
 30
0.0
 10
9.7000571502
 20
3.923533349
 30
0.0
 10
9.7619135457
 20
3.862593332
 30
0.0
 10
9.8292597396
 20
3.8046556863
 30
0.0
 10
9.9018063592
 20
3.7499651368
 30
0.0
 10
9.9792426816
 20
3.6987524573
 30
0.0
 10
10.0612375639
 20
3.6512340026
 30
0.0
 10
10.147440761
 20
3.6076106885
 30
0.0
 10
10.2374842792
 20
3.5680671573
 30
0.0
 10
10.3309838573
 20
3.5327709483
 30
0.0
 10
10.4275405381
 20
3.5018717449
 30
0.0
 10
10.5267423264
 20
3.4755006912
 30
0.0
 10
10.6281659207
 20
3.4537697913
 30
0.0
 10
10.731378506
 20
3.4367713951
 30
0.0
 10
10.8359395973
 20
3.424577774
 30
0.0
 10
10.9414029226
 20
3.4172407887
 30
0.0
 10
11.0473183368
 20
3.4147916509
 30
0.0
 10
11.15323375
 20
3.4172407814
 30
0.0
 10
11.258697082
 20
3.424577759
 30
0.0
 10
11.3632581611
 20
3.4367713725
 30
0.0
 10
11.4664708048
 20
3.4537697724
 30
0.0
 10
11.5678942191
 20
3.4755006144
 30
0.0
 10
11.6670966496
 20
3.5018718888
 30
0.0
 10
11.7636511556
 20
3.5327702322
 30
0.0
 10
11.8264739866
 20
3.5564860786
 30
0.0
 10
11.8573183383
 20
3.5690782324
 30
0.0
  0
SPLINE
  5
340
100
AcDbEntity
  8
0
100
AcDbSpline
 62
9
  6
CONTINUOUS
 70
0
 71
3
 72
22
 73
18
 74
0
 42
0.0000001
 43
0.0000001
 44
0.0000000001
 40
0.0
 40
0.0
 40
0.0
 40
0.0
 40
0.0565490842
 40
0.1132766876
 40
0.1703574091
 40
0.2279582156
 40
0.2862351178
 40
0.3453303712
 40
0.405370273
 40
0.4664635839
 40
0.5287005494
 40
0.5921524484
 40
0.6568715953
 40
0.7228916961
 40
0.790228507
 40
0.8588806525
 40
1.0
 40
1.0
 40
1.0
 40
1.0
 10
12.952318272
 20
4.2983375589
 30
0.0
 10
12.9523183303
 20
4.2730391755
 30
0.0
 10
12.9502955174
 20
4.2223394721
 30
0.0
 10
12.9412084248
 20
4.1465939797
 30
0.0
 10
12.9260972743
 20
4.0713334348
 30
0.0
 10
12.9050128411
 20
3.9968062694
 30
0.0
 10
12.8780254142
 20
3.9232495662
 30
0.0
 10
12.8452243207
 20
3.8508984772
 30
0.0
 10
12.806717327
 20
3.7799827213
 30
0.0
 10
12.7626300424
 20
3.7107267463
 30
0.0
 10
12.7131052738
 20
3.6433489961
 30
0.0
 10
12.6583026017
 20
3.5780615504
 30
0.0
 10
12.5983974063
 20
3.5150693462
 30
0.0
 10
12.5335820323
 20
3.4545708029
 30
0.0
 10
12.4640587483
 20
3.3967530386
 30
0.0
 10
12.3644926852
 20
3.3228196686
 30
0.0
 10
12.2847278433
 20
3.272964894
 30
0.0
 10
12.2296372914
 20
3.2421305348
 30
0.0
  0
SPLINE
  5
341
100
AcDbEntity
  8
0
100
AcDbSpline
 62
9
  6
CONTINUOUS
 70
0
 71
3
 72
9
 73
5
 74
0
 42
0.0000001
 43
0.0000001
 44
0.0000000001
 40
0.0
 40
0.0
 40
0.0
 40
0.0
 40
0.2462343763
 40
1.0
 40
1.0
 40
1.0
 40
1.0
 10
12.2296372914
 20
3.2421305348
 30
0.0
 10
12.2113709856
 20
3.2319068246
 30
0.0
 10
12.1365247534
 20
3.1915798675
 30
0.0
 10
12.0591438649
 20
3.1559876137
 30
0.0
 10
11.9998183383
 20
3.1317680689
 30
0.0
  0
SPLINE
  5
342
100
AcDbEntity
  8
0
100
AcDbSpline
 62
9
  6
CONTINUOUS
 70
0
 71
3
 72
28
 73
24
 74
0
 42
0.0000001
 43
0.0000001
 44
0.0000000001
 40
0.0
 40
0.0
 40
0.0
 40
0.0
 40
0.0276006114
 40
0.0552307346
 40
0.0829196489
 40
0.1106962149
 40
0.1385886281
 40
0.1666242626
 40
0.1948294472
 40
0.2232293389
 40
0.251847741
 40
0.2807070035
 40
0.3392171366
 40
0.3989187526
 40
0.4599294856
 40
0.5223379106
 40
0.5862036875
 40
0.6515583976
 40
0.7184069072
 40
0.7867289991
 40
0.8564814272
 40
0.9275995089
 40
1.0
 40
1.0
 40
1.0
 40
1.0
 10
12.952318272
 20
4.4277726261
 30
0.0
 10
12.9523183058
 20
4.4130774066
 30
0.0
 10
12.9516373833
 20
4.3836667156
 30
0.0
 10
12.9485747164
 20
4.3396097256
 30
0.0
 10
12.9434742038
 20
4.2956467399
 30
0.0
 10
12.9363411245
 20
4.2518263927
 30
0.0
 10
12.9271835357
 20
4.2081954733
 30
0.0
 10
12.9160112354
 20
4.1648010691
 30
0.0
 10
12.9028365183
 20
4.1216897099
 30
0.0
 10
12.8876737711
 20
4.0789079403
 30
0.0
 10
12.8705390116
 20
4.0365008842
 30
0.0
 10
12.8449753646
 20
3.9802686988
 30
0.0
 10
12.8080836447
 20
3.9110892184
 30
0.0
 10
12.7564822414
 20
3.8307078616
 30
0.0
 10
12.6975673417
 20
3.7529055842
 30
0.0
 10
12.6315978558
 20
3.6780162612
 30
0.0
 10
12.5588591942
 20
3.6063550604
 30
0.0
 10
12.4796651016
 20
3.538224746
 30
0.0
 10
12.3943555975
 20
3.4739126821
 30
0.0
 10
12.3032963723
 20
3.4136904093
 30
0.0
 10
12.2068758529
 20
3.3578120096
 30
0.0
 10
12.1055096809
 20
3.3065151732
 30
0.0
 10
12.0355066078
 20
3.2757728112
 30
0.0
 10
11.9998183383
 20
3.2612031361
 30
0.0
  0
SPLINE
  5
343
100
AcDbEntity
  8
0
100
AcDbSpline
 62
9
  6
CONTINUOUS
 70
0
 71
3
 72
28
 73
24
 74
0
 42
0.0000001
 43
0.0000001
 44
0.0000000001
 40
0.0
 40
0.0
 40
0.0
 40
0.0
 40
0.0276006143
 40
0.0552307345
 40
0.0829196516
 40
0.1106962146
 40
0.1385886308
 40
0.1666242621
 40
0.1948294499
 40
0.2232293382
 40
0.2518477437
 40
0.2807070025
 40
0.3392171354
 40
0.3989187512
 40
0.459929484
 40
0.5223379094
 40
0.5862036848
 40
0.6515583997
 40
0.718406895
 40
0.7867290291
 40
0.8564813487
 40
0.9275996544
 40
1.0
 40
1.0
 40
1.0
 40
1.0
 10
12.6673182717
 20
4.5851550294
 30
0.0
 10
12.6673182391
 20
4.5726583061
 30
0.0
 10
12.6667392878
 20
4.5476476395
 30
0.0
 10
12.6641347638
 20
4.5101818527
 30
0.0
 10
12.6597973426
 20
4.4727960067
 30
0.0
 10
12.6537314035
 20
4.43553146
 30
0.0
 10
12.6459438568
 20
4.398428001
 30
0.0
 10
12.6364429966
 20
4.3615256732
 30
0.0
 10
12.6252393041
 20
4.3248640456
 30
0.0
 10
12.6123449976
 20
4.2884826975
 30
0.0
 10
12.597773706
 20
4.2524200061
 30
0.0
 10
12.576034544
 20
4.2046005093
 30
0.0
 10
12.5446620586
 20
4.1457707168
 30
0.0
 10
12.5007805514
 20
4.0774149173
 30
0.0
 10
12.450679693
 20
4.01125235
 30
0.0
 10
12.394579658
 20
3.9475669427
 30
0.0
 10
12.3327231602
 20
3.8866267049
 30
0.0
 10
12.2653770021
 20
3.8286891241
 30
0.0
 10
12.1928303361
 20
3.7739985266
 30
0.0
 10
12.1153941577
 20
3.7227859332
 30
0.0
 10
12.0333987201
 20
3.675267213
 30
0.0
 10
11.9471975511
 20
3.6316447649
 30
0.0
 10
11.8876673568
 20
3.6055016185
 30
0.0
 10
11.8573183383
 20
3.5931116836
 30
0.0
  0
SPLINE
  5
344
100
AcDbEntity
  8
0
100
AcDbSpline
 62
7
  6
CONTINUOUS
 70
0
 71
3
 72
23
 73
19
 74
0
 42
0.0000001
 43
0.0000001
 44
0.0000000001
 40
0.0
 40
0.0
 40
0.0
 40
0.0
 40
0.1174362463
 40
0.1478486788
 40
0.1786276511
 40
0.2411705399
 40
0.3048466149
 40
0.3693975428
 40
0.434543368
 40
0.499990419
 40
0.565437807
 40
0.6305846493
 40
0.6951372411
 40
0.7588155942
 40
0.8213613201
 40
0.8521418914
 40
0.882556039
 40
1.0
 40
1.0
 40
1.0
 40
1.0
 10
10.7805166961
 20
6.2257432897
 30
0.0
 10
10.798702154
 20
6.2133043687
 30
0.0
 10
10.8230950961
 20
6.1997170533
 30
0.0
 10
10.8538159815
 20
6.1863304581
 30
0.0
 10
10.8754480747
 20
6.1778884724
 30
0.0
 10
10.9034833871
 20
6.168760167
 30
0.0
 10
10.9382620323
 20
6.1601812
 30
0.0
 10
10.9740403874
 20
6.1539961563
 30
0.0
 10
11.0104898209
 20
6.1502613762
 30
0.0
 10
11.0472766945
 20
6.149010793
 30
0.0
 10
11.0840639498
 20
6.1502557421
 30
0.0
 10
11.1205145227
 20
6.153984939
 30
0.0
 10
11.1562947676
 20
6.1601644976
 30
0.0
 10
11.1910760333
 20
6.1687381336
 30
0.0
 10
11.2191140787
 20
6.1778621022
 30
0.0
 10
11.2407487051
 20
6.1863007657
 30
0.0
 10
11.271473885
 20
6.1996826877
 30
0.0
 10
11.2958708869
 20
6.2132662749
 30
0.0
 10
11.3140600686
 20
6.2257023146
 30
0.0
  0
SPLINE
  5
345
100
AcDbEntity
  8
0
100
AcDbSpline
 62
7
  6
CONTINUOUS
 70
0
 71
3
 72
22
 73
18
 74
0
 42
0.0000001
 43
0.0000001
 44
0.0000000001
 40
0.0
 40
0.0
 40
0.0
 40
0.0
 40
0.0571883258
 40
0.1161105678
 40
0.1766239828
 40
0.2385461544
 40
0.3016621543
 40
0.3657310617
 40
0.4304929197
 40
0.495674762
 40
0.5609969625
 40
0.626179316
 40
0.6909467978
 40
0.7550361516
 40
0.8182015193
 40
0.880221164
 40
1.0
 40
1.0
 40
1.0
 40
1.0
 10
10.784512993
 20
6.1806777073
 30
0.0
 10
10.7932266608
 20
6.1750830498
 30
0.0
 10
10.8114251651
 20
6.1644968587
 30
0.0
 10
10.8403127534
 20
6.1507012455
 30
0.0
 10
10.8709756093
 20
6.1388596529
 30
0.0
 10
10.9031487662
 20
6.1290799161
 30
0.0
 10
10.9365579364
 20
6.1214505902
 30
0.0
 10
10.970917228
 20
6.116042639
 30
0.0
 10
11.0059328651
 20
6.1129081244
 30
0.0
 10
11.0413053919
 20
6.1120798784
 30
0.0
 10
11.0767323754
 20
6.11357124
 30
0.0
 10
11.1119107888
 20
6.1173757492
 30
0.0
 10
11.146540328
 20
6.1234676586
 30
0.0
 10
11.180323524
 20
6.1318007686
 30
0.0
 10
11.2129773664
 20
6.1423133898
 30
0.0
 10
11.2541309907
 20
6.1589189724
 30
0.0
 10
11.2832597479
 20
6.1746373036
 30
0.0
 10
11.3013997359
 20
6.1865254016
 30
0.0
  0
SPLINE
  5
346
100
AcDbEntity
  8
0
100
AcDbSpline
 62
7
  6
CONTINUOUS
 70
0
 71
3
 72
22
 73
18
 74
0
 42
0.0000001
 43
0.0000001
 44
0.0000000001
 40
0.0
 40
0.0
 40
0.0
 40
0.0
 40
0.0579819654
 40
0.1174859695
 40
0.1783695629
 40
0.2404619464
 40
0.3035688619
 40
0.3674779023
 40
0.4319631004
 40
0.4967894225
 40
0.5617174576
 40
0.6265076893
 40
0.6909252238
 40
0.7547440773
 40
0.81775144
 40
0.8797528661
 40
1.0
 40
1.0
 40
1.0
 40
1.0
 10
10.8039145288
 20
6.1201279453
 30
0.0
 10
10.8124124365
 20
6.1153503605
 30
0.0
 10
10.8300148798
 20
6.1063377855
 30
0.0
 10
10.8576557042
 20
6.0946403308
 30
0.0
 10
10.8866963423
 20
6.0846668975
 30
0.0
 10
10.9169209713
 20
6.0764963767
 30
0.0
 10
10.9481076863
 20
6.070192882
 30
0.0
 10
10.9800267918
 20
6.0658074716
 30
0.0
 10
11.0124434326
 20
6.0633771825
 30
0.0
 10
11.0451190238
 20
6.0629249813
 30
0.0
 10
11.0778130768
 20
6.0644591725
 30
0.0
 10
11.1102849363
 20
6.0679733016
 30
0.0
 10
11.1422960376
 20
6.0734468126
 30
0.0
 10
11.1736097745
 20
6.0808442413
 30
0.0
 10
11.2040000666
 20
6.0901186503
 30
0.0
 10
11.2425744143
 20
6.1047438099
 30
0.0
 10
11.2700973549
 20
6.1185274114
 30
0.0
 10
11.2874263523
 20
6.1289421284
 30
0.0
  0
SPLINE
  5
347
100
AcDbEntity
  8
0
100
AcDbSpline
 62
9
  6
CONTINUOUS
 70
0
 71
3
 72
21
 73
17
 74
0
 42
0.0000001
 43
0.0000001
 44
0.0000000001
 40
0.0
 40
0.0
 40
0.0
 40
0.0
 40
0.1169630636
 40
0.1780520437
 40
0.2405923194
 40
0.3043427618
 40
0.3690292592
 40
0.4343532474
 40
0.5
 40
0.5656467526
 40
0.6309707408
 40
0.6956572382
 40
0.7594076806
 40
0.8219479563
 40
0.8830369364
 40
1.0
 40
1.0
 40
1.0
 40
1.0
 10
10.4090191789
 20
9.4740309002
 30
0.0
 10
10.414805281
 20
9.4660054336
 30
0.0
 10
10.4224455954
 20
9.4529064204
 30
0.0
 10
10.4304735066
 20
9.4341926101
 30
0.0
 10
10.4355583623
 20
9.4191610489
 30
0.0
 10
10.4395641619
 20
9.4034962197
 30
0.0
 10
10.4424538495
 20
9.3873482325
 30
0.0
 10
10.4441988997
 20
9.3708761162
 30
0.0
 10
10.4447824898
 20
9.3542409815
 30
0.0
 10
10.4441988997
 20
9.3376058467
 30
0.0
 10
10.4424538495
 20
9.3211337304
 30
0.0
 10
10.4395641619
 20
9.3049857433
 30
0.0
 10
10.4355583623
 20
9.289320914
 30
0.0
 10
10.4304735066
 20
9.2742893528
 30
0.0
 10
10.4224455954
 20
9.2555755426
 30
0.0
 10
10.414805281
 20
9.2424765294
 30
0.0
 10
10.4090191789
 20
9.2344510628
 30
0.0
  0
SPLINE
  5
348
100
AcDbEntity
  8
0
100
AcDbSpline
 62
7
  6
CONTINUOUS
 70
0
 71
3
 72
36
 73
32
 74
0
 42
0.0000001
 43
0.0000001
 44
0.0000000001
 40
0.0
 40
0.0
 40
0.0
 40
0.0
 40
0.0248258931
 40
0.0497903575
 40
0.0750152058
 40
0.1006244413
 40
0.1267236785
 40
0.1534026522
 40
0.1807338864
 40
0.2087707402
 40
0.2375478576
 40
0.2670819429
 40
0.297372465
 40
0.3284029394
 40
0.3601426216
 40
0.3925477786
 40
0.4255630903
 40
0.4591234359
 40
0.493155201
 40
0.5275775779
 40
0.5972199438
 40
0.6322799959
 40
0.6673646124
 40
0.737201613
 40
0.7717911989
 40
0.806033845
 40
0.8398456174
 40
0.8731494691
 40
0.9058751898
 40
0.9379614244
 40
1.0
 40
1.0
 40
1.0
 40
1.0
 10
10.6410683387
 20
6.4115803821
 30
0.0
 10
10.6410683594
 20
6.4045016765
 30
0.0
 10
10.6418133221
 20
6.3902937166
 30
0.0
 10
10.6451532754
 20
6.3691299597
 30
0.0
 10
10.6506989451
 20
6.3482020507
 30
0.0
 10
10.6584158723
 20
6.3276303902
 30
0.0
 10
10.6682592703
 20
6.3075266101
 30
0.0
 10
10.6801722446
 20
6.2880008098
 30
0.0
 10
10.6940874044
 20
6.269158818
 30
0.0
 10
10.7099268002
 20
6.251102083
 30
0.0
 10
10.727602325
 20
6.2339272228
 30
0.0
 10
10.7470169973
 20
6.2177264873
 30
0.0
 10
10.7680645901
 20
6.2025867794
 30
0.0
 10
10.7906299972
 20
6.1885888809
 30
0.0
 10
10.8145905178
 20
6.1758080923
 30
0.0
 10
10.8398159456
 20
6.1643133962
 30
0.0
 10
10.866169065
 20
6.1541662261
 30
0.0
 10
10.8935063898
 20
6.1454214054
 30
0.0
 10
10.9216808322
 20
6.1381262555
 30
0.0
 10
10.9602978599
 20
6.1303562814
 30
0.0
 10
10.99978022
 20
6.1256830614
 30
0.0
 10
11.0396215094
 20
6.1241088665
 30
0.0
 10
11.0795462879
 20
6.1246158804
 30
0.0
 10
11.1192491934
 20
6.1282333925
 30
0.0
 10
11.1582270983
 20
6.1349593258
 30
0.0
 10
11.1867711839
 20
6.141495058
 30
0.0
 10
11.2145564384
 20
6.1495016427
 30
0.0
 10
11.2414323969
 20
6.1589353887
 30
0.0
 10
11.2672555176
 20
6.1697470129
 30
0.0
 10
11.2997148308
 20
6.1857333954
 30
0.0
 10
11.3226553891
 20
6.1998633918
 30
0.0
 10
11.3370159599
 20
6.2101922612
 30
0.0
  0
SPLINE
  5
349
100
AcDbEntity
  8
0
100
AcDbSpline
 62
9
  6
CONTINUOUS
 70
0
 71
3
 72
27
 73
23
 74
0
 42
0.0000001
 43
0.0000001
 44
0.0000000001
 40
0.0
 40
0.0
 40
0.0
 40
0.0
 40
0.025711378
 40
0.0514844836
 40
0.0773799776
 40
0.1034565512
 40
0.1297699196
 40
0.1563720644
 40
0.1833106395
 40
0.2106281895
 40
0.2665202477
 40
0.3243058053
 40
0.3841250423
 40
0.4460301419
 40
0.5099919671
 40
0.5759086721
 40
0.6436152865
 40
0.7128930577
 40
0.7834800857
 40
0.8550773881
 40
0.9273658817
 40
1.0
 40
1.0
 40
1.0
 40
1.0
 10
11.4535681922
 20
6.8126973332
 30
0.0
 10
11.4535681922
 20
6.8079960757
 30
0.0
 10
11.4532411831
 20
6.7985789994
 30
0.0
 10
11.4517698869
 20
6.7844962086
 30
0.0
 10
11.4493227636
 20
6.7704815035
 30
0.0
 10
11.4459048263
 20
6.7565701151
 30
0.0
 10
11.4415254218
 20
6.7427954359
 30
0.0
 10
11.4361951925
 20
6.7291911163
 30
0.0
 10
11.4299270242
 20
6.7157896449
 30
0.0
 10
11.42026915
 20
6.6981035704
 30
0.0
 10
11.4058594908
 20
6.6766470057
 30
0.0
 10
11.385260886
 20
6.6524398315
 30
0.0
 10
11.3614227688
 20
6.6297927818
 30
0.0
 10
11.3345792124
 20
6.6089199559
 30
0.0
 10
11.3049888366
 20
6.5900149827
 30
0.0
 10
11.27293565
 20
6.573254701
 30
0.0
 10
11.2387262657
 20
6.558796228
 30
0.0
 10
11.2026874995
 20
6.5467754022
 30
0.0
 10
11.165163946
 20
6.5373060101
 30
0.0
 10
11.1265130879
 20
6.5304769278
 30
0.0
 10
11.0871072839
 20
6.5263537851
 30
0.0
 10
11.0605992947
 20
6.5254352034
 30
0.0
 10
11.0473183383
 20
6.5254352034
 30
0.0
  0
SPLINE
  5
34A
100
AcDbEntity
  8
0
100
AcDbSpline
 62
7
  6
CONTINUOUS
 70
0
 71
3
 72
18
 73
14
 74
0
 42
0.0000001
 43
0.0000001
 44
0.0000000001
 40
0.0
 40
0.0
 40
0.0
 40
0.0
 40
0.1364776167
 40
0.2715339317
 40
0.4040622259
 40
0.4690751559
 40
0.5330869053
 40
0.5959949821
 40
0.6577106
 40
0.7772340507
 40
0.834998619
 40
0.8913843416
 40
1.0
 40
1.0
 40
1.0
 40
1.0
 10
11.0473183383
 20
5.9832788842
 30
0.0
 10
11.0296278223
 20
5.9829250734
 30
0.0
 10
10.9943758575
 20
5.9838449024
 30
0.0
 10
10.9422908521
 20
5.9900819853
 30
0.0
 10
10.9000852833
 20
5.9992829924
 30
0.0
 10
10.867579295
 20
6.0089820232
 30
0.0
 10
10.8441201523
 20
6.0173147962
 30
0.0
 10
10.8215287575
 20
6.0267151114
 30
0.0
 10
10.7930052688
 20
6.0404638318
 30
0.0
 10
10.7662525791
 20
6.0562701012
 30
0.0
 10
10.7417172458
 20
6.0740743871
 30
0.0
 10
10.7194838719
 20
6.0925278906
 30
0.0
 10
10.704418673
 20
6.1078501685
 30
0.0
 10
10.6953467171
 20
6.1186203528
 30
0.0
  0
SPLINE
  5
34B
100
AcDbEntity
  8
0
100
AcDbSpline
 62
7
  6
CONTINUOUS
 70
0
 71
3
 72
29
 73
25
 74
0
 42
0.0000001
 43
0.0000001
 44
0.0000000001
 40
0.0
 40
0.0
 40
0.0
 40
0.0
 40
0.0730380607
 40
0.1456556607
 40
0.2175253919
 40
0.2883477447
 40
0.3578373038
 40
0.425741778
 40
0.4918458053
 40
0.5559810718
 40
0.6180343481
 40
0.6779569793
 40
0.7071333486
 40
0.7357926032
 40
0.7639505285
 40
0.791627874
 40
0.8188512597
 40
0.8456521763
 40
0.8720679558
 40
0.8981406674
 40
0.9239173097
 40
0.9494490362
 40
0.9747906449
 40
1.0
 40
1.0
 40
1.0
 40
1.0
 10
11.0473183383
 20
6.0346371928
 30
0.0
 10
11.0345195796
 20
6.0343805241
 30
0.0
 10
11.0089703372
 20
6.0347208784
 30
0.0
 10
10.9709405109
 20
6.0377851593
 30
0.0
 10
10.9335884102
 20
6.0433694818
 30
0.0
 10
10.8972490187
 20
6.0514165001
 30
0.0
 10
10.8622441735
 20
6.0618493097
 30
0.0
 10
10.8288852193
 20
6.0745688991
 30
0.0
 10
10.7974685832
 20
6.0894570362
 30
0.0
 10
10.7682730972
 20
6.1063772679
 30
0.0
 10
10.7415605619
 20
6.1251737412
 30
0.0
 10
10.7213861232
 20
6.1424160569
 30
0.0
 10
10.7067580411
 20
6.1569875393
 30
0.0
 10
10.6966451394
 20
6.1681730847
 30
0.0
 10
10.6873168276
 20
6.1796847196
 30
0.0
 10
10.6787948377
 20
6.1914969975
 30
0.0
 10
10.6710974815
 20
6.2035818482
 30
0.0
 10
10.66424338
 20
6.2159122249
 30
0.0
 10
10.6582473088
 20
6.228459118
 30
0.0
 10
10.6531236164
 20
6.2411939145
 30
0.0
 10
10.6488840584
 20
6.2540869597
 30
0.0
 10
10.6455380443
 20
6.2671084569
 30
0.0
 10
10.6430943881
 20
6.2802274746
 30
0.0
 10
10.6420677919
 20
6.2890360791
 30
0.0
 10
10.6417077153
 20
6.2934398094
 30
0.0
  0
LINE
  5
34C
100
AcDbEntity
  8
0
100
AcDbLine
 62
7
  6
CONTINUOUS
 10
10.6417077153
 20
6.2934398094
 11
10.6416656457
 21
6.2939631019
  0
SPLINE
  5
34D
100
AcDbEntity
  8
0
100
AcDbSpline
 62
7
  6
CONTINUOUS
 70
0
 71
3
 72
27
 73
23
 74
0
 42
0.0000001
 43
0.0000001
 44
0.0000000001
 40
0.0
 40
0.0
 40
0.0
 40
0.0
 40
0.072992626
 40
0.1455676035
 40
0.2173996522
 40
0.2881915743
 40
0.3576597308
 40
0.4255532458
 40
0.4916575901
 40
0.5558046112
 40
0.617880412
 40
0.6778347484
 40
0.7356888737
 40
0.7915432877
 40
0.8187866399
 40
0.8456063571
 40
0.8720390033
 40
0.8981259307
 40
0.9239133164
 40
0.9494515883
 40
0.9747947529
 40
1.0
 40
1.0
 40
1.0
 40
1.0
 10
11.0473183383
 20
6.0858671876
 30
0.0
 10
11.0345637541
 20
6.0856109486
 30
0.0
 10
11.0091023335
 20
6.0859463169
 30
0.0
 10
10.9712010962
 20
6.0889856623
 30
0.0
 10
10.9339706295
 20
6.0945281021
 30
0.0
 10
10.8977425668
 20
6.1025170303
 30
0.0
 10
10.8628355317
 20
6.1128766239
 30
0.0
 10
10.8295579205
 20
6.1255091553
 30
0.0
 10
10.7982032815
 20
6.140298094
 30
0.0
 10
10.7690484535
 20
6.1571083348
 30
0.0
 10
10.7423514107
 20
6.175787622
 30
0.0
 10
10.7183488089
 20
6.1961689604
 30
0.0
 10
10.6972568937
 20
6.2180676393
 30
0.0
 10
10.6821363203
 20
6.2375871088
 30
0.0
 10
10.6717305939
 20
6.253746702
 30
0.0
 10
10.6648252931
 20
6.2660140426
 30
0.0
 10
10.6587711779
 20
6.2784987913
 30
0.0
 10
10.6535819811
 20
6.2911728683
 30
0.0
 10
10.6492699485
 20
6.3040070315
 30
0.0
 10
10.6458442328
 20
6.3169717316
 30
0.0
 10
10.6433140256
 20
6.3300364798
 30
0.0
 10
10.6422249654
 20
6.3388117635
 30
0.0
 10
10.641832609
 20
6.3431994585
 30
0.0
  0
SPLINE
  5
34E
100
AcDbEntity
  8
0
100
AcDbSpline
 62
9
  6
CONTINUOUS
 70
0
 71
3
 72
27
 73
23
 74
0
 42
0.0000001
 43
0.0000001
 44
0.0000000001
 40
0.0
 40
0.0
 40
0.0
 40
0.0
 40
0.0726341183
 40
0.1449226119
 40
0.2165199143
 40
0.2871069423
 40
0.3563847135
 40
0.4240913279
 40
0.4900080329
 40
0.5539698581
 40
0.6158749577
 40
0.6756941947
 40
0.7334797523
 40
0.7893718105
 40
0.8166893605
 40
0.8436279356
 40
0.8702300804
 40
0.8965434488
 40
0.9226200224
 40
0.9485155164
 40
0.974288622
 40
1.0
 40
1.0
 40
1.0
 40
1.0
 10
11.0473183383
 20
6.5254352034
 30
0.0
 10
11.0340373819
 20
6.5254352034
 30
0.0
 10
11.0075293927
 20
6.5263537851
 30
0.0
 10
10.9681235887
 20
6.5304769278
 30
0.0
 10
10.9294727306
 20
6.5373060101
 30
0.0
 10
10.8919491771
 20
6.5467754022
 30
0.0
 10
10.8559104109
 20
6.558796228
 30
0.0
 10
10.8217010265
 20
6.573254701
 30
0.0
 10
10.78964784
 20
6.5900149827
 30
0.0
 10
10.7600574641
 20
6.6089199559
 30
0.0
 10
10.7332139077
 20
6.6297927818
 30
0.0
 10
10.7093757906
 20
6.6524398315
 30
0.0
 10
10.6887771858
 20
6.6766470057
 30
0.0
 10
10.6743675266
 20
6.6981035704
 30
0.0
 10
10.6647096523
 20
6.7157896449
 30
0.0
 10
10.6584414841
 20
6.7291911163
 30
0.0
 10
10.6531112548
 20
6.7427954359
 30
0.0
 10
10.6487318502
 20
6.7565701151
 30
0.0
 10
10.6453139129
 20
6.7704815035
 30
0.0
 10
10.6428667897
 20
6.7844962086
 30
0.0
 10
10.6413954935
 20
6.7985789994
 30
0.0
 10
10.6410684844
 20
6.8079960757
 30
0.0
 10
10.6410684844
 20
6.8126973332
 30
0.0
  0
SPLINE
  5
34F
100
AcDbEntity
  8
0
100
AcDbSpline
 62
9
  6
CONTINUOUS
 70
0
 71
3
 72
21
 73
17
 74
0
 42
0.0000001
 43
0.0000001
 44
0.0000000001
 40
0.0
 40
0.0
 40
0.0
 40
0.0
 40
0.1169630828
 40
0.1780520705
 40
0.2405923501
 40
0.3043427917
 40
0.3690292832
 40
0.4343532608
 40
0.5
 40
0.5656467392
 40
0.6309707168
 40
0.6956572083
 40
0.7594076499
 40
0.8219479295
 40
0.8830369172
 40
1.0
 40
1.0
 40
1.0
 40
1.0
 10
10.3794326738
 20
9.5150678193
 30
0.0
 10
10.3872010468
 20
9.5042931083
 30
0.0
 10
10.3974586033
 20
9.4867066168
 30
0.0
 10
10.40823669
 20
9.4615819566
 30
0.0
 10
10.4150634718
 20
9.441400966
 30
0.0
 10
10.4204415483
 20
9.4203697739
 30
0.0
 10
10.4243211604
 20
9.3986899073
 30
0.0
 10
10.4266640144
 20
9.376574876
 30
0.0
 10
10.427447525
 20
9.3542409815
 30
0.0
 10
10.4266640144
 20
9.331907087
 30
0.0
 10
10.4243211604
 20
9.3097920557
 30
0.0
 10
10.4204415483
 20
9.2881121891
 30
0.0
 10
10.4150634718
 20
9.267080997
 30
0.0
 10
10.40823669
 20
9.2469000063
 30
0.0
 10
10.3974586033
 20
9.2217753462
 30
0.0
 10
10.3872010468
 20
9.2041888546
 30
0.0
 10
10.3794326738
 20
9.1934141437
 30
0.0
  0
SPLINE
  5
350
100
AcDbEntity
  8
0
100
AcDbSpline
 62
9
  6
CONTINUOUS
 70
0
 71
3
 72
16
 73
12
 74
0
 42
0.0000001
 43
0.0000001
 44
0.0000000001
 40
0.0
 40
0.0
 40
0.0
 40
0.0
 40
0.1138919193
 40
0.2290917198
 40
0.3468091885
 40
0.4680610285
 40
0.5936239512
 40
0.7240065765
 40
0.7911162838
 40
0.8595005415
 40
1.0
 40
1.0
 40
1.0
 40
1.0
 10
10.6169264752
 20
9.1675630455
 30
0.0
 10
10.6121597752
 20
9.1675630455
 30
0.0
 10
10.6025557846
 20
9.16830257
 30
0.0
 10
10.5883692397
 20
9.1716082876
 30
0.0
 10
10.5745322342
 20
9.1770657282
 30
0.0
 10
10.5612136057
 20
9.1846018359
 30
0.0
 10
10.5485669269
 20
9.1941189732
 30
0.0
 10
10.5387994895
 20
9.2035153064
 30
0.0
 10
10.5314455783
 20
9.2118727922
 30
0.0
 10
10.5242908166
 20
9.2209467834
 30
0.0
 10
10.5194225385
 20
9.2282316149
 30
0.0
 10
10.5163910943
 20
9.233270294
 30
0.0
  0
SPLINE
  5
351
100
AcDbEntity
  8
0
100
AcDbSpline
 62
9
  6
CONTINUOUS
 70
0
 71
3
 72
16
 73
12
 74
0
 42
0.0000001
 43
0.0000001
 44
0.0000000001
 40
0.0
 40
0.0
 40
0.0
 40
0.0
 40
0.1403771034
 40
0.2087085118
 40
0.2757731351
 40
0.4060939448
 40
0.5316376045
 40
0.6529145784
 40
0.770697721
 40
0.8859944239
 40
1.0
 40
1.0
 40
1.0
 40
1.0
 10
10.5169189679
 20
9.4760836242
 30
0.0
 10
10.5199506979
 20
9.4810604731
 30
0.0
 10
10.524814045
 20
9.4882541071
 30
0.0
 10
10.5319508195
 20
9.4972111176
 30
0.0
 10
10.5392811631
 20
9.5054600888
 30
0.0
 10
10.5490080379
 20
9.5147319671
 30
0.0
 10
10.5615881591
 20
9.5241194544
 30
0.0
 10
10.5748262325
 20
9.5315509014
 30
0.0
 10
10.588571649
 20
9.5369314025
 30
0.0
 10
10.6026590168
 20
9.5401900071
 30
0.0
 10
10.6121936955
 20
9.5409189174
 30
0.0
 10
10.6169264752
 20
9.5409189174
 30
0.0
  0
SPLINE
  5
352
100
AcDbEntity
  8
0
100
AcDbSpline
 62
7
  6
CONTINUOUS
 70
0
 71
3
 72
39
 73
35
 74
0
 42
0.0000001
 43
0.0000001
 44
0.0000000001
 40
0.0
 40
0.0
 40
0.0
 40
0.0
 40
0.0256612596
 40
0.0517442123
 40
0.0784264548
 40
0.1058533321
 40
0.13413507
 40
0.1633444183
 40
0.1935175734
 40
0.2246561937
 40
0.2567305293
 40
0.2896829908
 40
0.3234317459
 40
0.3578745787
 40
0.3928923956
 40
0.4283528176
 40
0.4641136393
 40
0.5000260716
 40
0.5359381223
 40
0.5716978068
 40
0.6071563609
 40
0.6421716202
 40
0.6766112637
 40
0.7103562732
 40
0.7433045259
 40
0.7753743009
 40
0.8065081392
 40
0.8366764395
 40
0.8658810257
 40
0.8941582733
 40
0.9215811182
 40
0.9482599735
 40
0.9743403435
 40
1.0
 40
1.0
 40
1.0
 40
1.0
 10
10.3565688296
 20
9.5424604419
 30
0.0
 10
10.3606791469
 20
9.541900536
 30
0.0
 10
10.3689029162
 20
9.5402294544
 30
0.0
 10
10.3809390043
 20
9.5361493096
 30
0.0
 10
10.3926501995
 20
9.5305192795
 30
0.0
 10
10.4039341938
 20
9.5233916285
 30
0.0
 10
10.4146972935
 20
9.5148304063
 30
0.0
 10
10.4248500233
 20
9.5049107006
 30
0.0
 10
10.434308665
 20
9.4937181272
 30
0.0
 10
10.4429952003
 20
9.4813482152
 30
0.0
 10
10.4508378966
 20
9.4679058717
 30
0.0
 10
10.4577718165
 20
9.4535047099
 30
0.0
 10
10.4637393798
 20
9.4382662404
 30
0.0
 10
10.4686909006
 20
9.4223189743
 30
0.0
 10
10.4725850626
 20
9.4057973874
 30
0.0
 10
10.4753893126
 20
9.3888408204
 30
0.0
 10
10.4770801726
 20
9.3715923145
 30
0.0
 10
10.4776434813
 20
9.3541973969
 30
0.0
 10
10.4770745101
 20
9.3368028472
 30
0.0
 10
10.4753780352
 20
9.3195554416
 30
0.0
 10
10.472568265
 20
9.3026006979
 30
0.0
 10
10.4686687233
 20
9.2860816417
 30
0.0
 10
10.4637120082
 20
9.2701375922
 30
0.0
 10
10.4577394791
 20
9.2549029979
 30
0.0
 10
10.4508008621
 20
9.2405063377
 30
0.0
 10
10.4429537754
 20
9.2270690848
 30
0.0
 10
10.4342631922
 20
9.2147048108
 30
0.0
 10
10.4248008778
 20
9.2035183775
 30
0.0
 10
10.4146448805
 20
9.1936052655
 30
0.0
 10
10.4038789464
 20
9.1850510398
 30
0.0
 10
10.3925925778
 20
9.1779307329
 30
0.0
 10
10.3808794943
 20
9.1723083403
 30
0.0
 10
10.3688420263
 20
9.1682360563
 30
0.0
 10
10.3606178445
 20
9.1665703882
 30
0.0
 10
10.3565074226
 20
9.1660131764
 30
0.0
  0
SPLINE
  5
353
100
AcDbEntity
  8
0
100
AcDbSpline
 62
9
  6
CONTINUOUS
 70
0
 71
3
 72
35
 73
31
 74
0
 42
0.0000001
 43
0.0000001
 44
0.0000000001
 40
0.0
 40
0.0
 40
0.0
 40
0.0
 40
0.0257397511
 40
0.0520106489
 40
0.0789479743
 40
0.1066589801
 40
0.1352194303
 40
0.1646738772
 40
0.195036961
 40
0.2262956357
 40
0.258411851
 40
0.2913254324
 40
0.3249570309
 40
0.3592110535
 40
0.4291044661
 40
0.500061242
 40
0.5710147311
 40
0.6408985329
 40
0.6751456091
 40
0.708769013
 40
0.7416733313
 40
0.7737794286
 40
0.805027382
 40
0.8353794292
 40
0.8648228466
 40
0.8933726279
 40
0.9210736981
 40
0.9480022044
 40
0.9742657716
 40
1.0
 40
1.0
 40
1.0
 40
1.0
 10
10.3659448717
 20
9.5323899585
 30
0.0
 10
10.3696392189
 20
9.5314693193
 30
0.0
 10
10.3769982585
 20
9.5291546825
 30
0.0
 10
10.3876793464
 20
9.5243758913
 30
0.0
 10
10.3980186899
 20
9.518299235
 30
0.0
 10
10.4079360833
 20
9.5109745
 30
0.0
 10
10.4173579774
 20
9.5024592483
 30
0.0
 10
10.4262141907
 20
9.4928197232
 30
0.0
 10
10.4344390771
 20
9.4821299686
 30
0.0
 10
10.4419715699
 20
9.4704715338
 30
0.0
 10
10.4487556733
 20
9.4579329211
 30
0.0
 10
10.4547407418
 20
9.4446093148
 30
0.0
 10
10.4598822601
 20
9.4306009496
 30
0.0
 10
10.4655980481
 20
9.4110257703
 30
0.0
 10
10.4703899373
 20
9.3854935814
 30
0.0
 10
10.4723031046
 20
9.3541451089
 30
0.0
 10
10.4703665606
 20
9.3227994883
 30
0.0
 10
10.4655555103
 20
9.2972738523
 30
0.0
 10
10.4598249088
 20
9.2777068094
 30
0.0
 10
10.4546728774
 20
9.2637061445
 30
0.0
 10
10.4486778039
 20
9.2503914986
 30
0.0
 10
10.4418842745
 20
9.2378630406
 30
0.0
 10
10.4343430053
 20
9.2262158793
 30
0.0
 10
10.4261100563
 20
9.2155384341
 30
0.0
 10
10.4172465535
 20
9.205912165
 30
0.0
 10
10.4078181984
 20
9.197411021
 30
0.0
 10
10.3978952219
 20
9.1901011475
 30
0.0
 10
10.3875512198
 20
9.1840400067
 30
0.0
 10
10.3768664495
 20
9.1792772709
 30
0.0
 10
10.369505887
 20
9.1769737972
 30
0.0
 10
10.3658109935
 20
9.1760587454
 30
0.0
  0
SPLINE
  5
354
100
AcDbEntity
  8
0
100
AcDbSpline
 62
9
  6
CONTINUOUS
 70
0
 71
3
 72
21
 73
17
 74
0
 42
0.0000001
 43
0.0000001
 44
0.0000000001
 40
0.0
 40
0.0
 40
0.0
 40
0.0
 40
0.1428079735
 40
0.2118684762
 40
0.2793160085
 40
0.4093753568
 40
0.4722057678
 40
0.5336806879
 40
0.5939475029
 40
0.6531858162
 40
0.7116039206
 40
0.7694342261
 40
0.8269273793
 40
0.884344631
 40
0.9419496306
 40
1.0
 40
1.0
 40
1.0
 40
1.0
 10
11.5812740753
 20
9.2384926253
 30
0.0
 10
11.5776503889
 20
9.2320081058
 30
0.0
 10
11.5717059463
 20
9.2226838249
 30
0.0
 10
11.5627269692
 20
9.2112500502
 30
0.0
 10
11.553438869
 20
9.2009443278
 30
0.0
 10
11.5433189026
 20
9.191855633
 30
0.0
 10
11.532486809
 20
9.1842372235
 30
0.0
 10
11.5241980943
 20
9.1793693887
 30
0.0
 10
11.5156922768
 20
9.1753079659
 30
0.0
 10
11.507008157
 20
9.1720718496
 30
0.0
 10
11.4981861556
 20
9.1696770417
 30
0.0
 10
11.4892674543
 20
9.1681355889
 30
0.0
 10
11.4802941804
 20
9.1674549583
 30
0.0
 10
11.471308455
 20
9.1676386685
 30
0.0
 10
11.462353815
 20
9.1686857986
 30
0.0
 10
11.4564614435
 20
9.16994971
 30
0.0
 10
11.4535414756
 20
9.1707188227
 30
0.0
  0
SPLINE
  5
355
100
AcDbEntity
  8
0
100
AcDbSpline
 62
9
  6
CONTINUOUS
 70
0
 71
3
 72
21
 73
17
 74
0
 42
0.0000001
 43
0.0000001
 44
0.0000000001
 40
0.0
 40
0.0
 40
0.0
 40
0.0
 40
0.0580550915
 40
0.1156648689
 40
0.1730867243
 40
0.230584077
 40
0.2884179635
 40
0.3468388444
 40
0.4060789837
 40
0.4663465777
 40
0.5278211826
 40
0.5906501861
 40
0.7207037526
 40
0.7881470929
 40
0.8572027679
 40
1.0
 40
1.0
 40
1.0
 40
1.0
 10
11.4535414756
 20
9.5377631403
 30
0.0
 10
11.4564600698
 20
9.5385318911
 30
0.0
 10
11.462349637
 20
9.5397953352
 30
0.0
 10
11.4712999826
 20
9.5408425762
 30
0.0
 10
11.4802814231
 20
9.5410272199
 30
0.0
 10
11.4892504847
 20
9.5403483435
 30
0.0
 10
11.4981651066
 20
9.5388094515
 30
0.0
 10
11.5069832207
 20
9.5364179905
 30
0.0
 10
11.5156637028
 20
9.5331859813
 30
0.0
 10
11.5241661862
 20
9.5291293877
 30
0.0
 10
11.532451921
 20
9.5242670632
 30
0.0
 10
11.5432804631
 20
9.5166569965
 30
0.0
 10
11.5533979384
 20
9.5075776913
 30
0.0
 10
11.5626846385
 20
9.4972820522
 30
0.0
 10
11.5716628681
 20
9.485859202
 30
0.0
 10
11.5776076934
 20
9.4765433791
 30
0.0
 10
11.581232021
 20
9.4700645534
 30
0.0
  0
SPLINE
  5
356
100
AcDbEntity
  8
0
100
AcDbSpline
 62
9
  6
CONTINUOUS
 70
0
 71
3
 72
13
 73
9
 74
0
 42
0.0000001
 43
0.0000001
 44
0.0000000001
 40
0.0
 40
0.0
 40
0.0
 40
0.0
 40
0.2618213614
 40
0.3912147622
 40
0.5187367838
 40
0.6438376764
 40
0.7660356421
 40
1.0
 40
1.0
 40
1.0
 40
1.0
 10
11.6500490361
 20
9.3542409815
 30
0.0
 10
11.6500490361
 20
9.3653127775
 30
0.0
 10
11.6512056371
 20
9.3818890577
 30
0.0
 10
11.6550724141
 20
9.4034953152
 30
0.0
 10
11.6590783341
 20
9.4191612837
 30
0.0
 10
11.6641631673
 20
9.4341925501
 30
0.0
 10
11.6721910821
 20
9.4529064554
 30
0.0
 10
11.6798313956
 20
9.4660054339
 30
0.0
 10
11.6856174977
 20
9.4740309002
 30
0.0
  0
SPLINE
  5
357
100
AcDbEntity
  8
0
100
AcDbSpline
 62
9
  6
CONTINUOUS
 70
0
 71
3
 72
13
 73
9
 74
0
 42
0.0000001
 43
0.0000001
 44
0.0000000001
 40
0.0
 40
0.0
 40
0.0
 40
0.0
 40
0.2618206985
 40
0.391214951
 40
0.5187366308
 40
0.6438376519
 40
0.7660355944
 40
1.0
 40
1.0
 40
1.0
 40
1.0
 10
11.6674507505
 20
9.3542409815
 30
0.0
 10
11.6674507505
 20
9.3691056488
 30
0.0
 10
11.6690036072
 20
9.3913605352
 30
0.0
 10
11.6741949635
 20
9.42036854
 30
0.0
 10
11.679573249
 20
9.4414012876
 30
0.0
 10
11.6863999749
 20
9.4615818748
 30
0.0
 10
11.69717808
 20
9.4867066629
 30
0.0
 10
11.7074356296
 20
9.5042931083
 30
0.0
 10
11.7152040028
 20
9.5150678192
 30
0.0
  0
SPLINE
  5
358
100
AcDbEntity
  8
0
100
AcDbSpline
 62
9
  6
CONTINUOUS
 70
0
 71
3
 72
9
 73
5
 74
0
 42
0.0000001
 43
0.0000001
 44
0.0000000001
 40
0.0
 40
0.0
 40
0.0
 40
0.0
 40
0.2468257084
 40
1.0
 40
1.0
 40
1.0
 40
1.0
 10
10.2451611418
 20
5.5814021058
 30
0.0
 10
10.2634054361
 20
5.5888503077
 30
0.0
 10
10.33779805
 20
5.6178483083
 30
0.0
 10
10.413998018
 20
5.6421790337
 30
0.0
 10
10.4720274032
 20
5.6579412163
 30
0.0
  0
SPLINE
  5
359
100
AcDbEntity
  8
0
100
AcDbSpline
 62
9
  6
CONTINUOUS
 70
0
 71
3
 72
40
 73
36
 74
0
 42
0.0000001
 43
0.0000001
 44
0.0000000001
 40
0.0
 40
0.0
 40
0.0
 40
0.0
 40
0.0751711045
 40
0.1120696221
 40
0.1484469619
 40
0.1842662561
 40
0.2194961448
 40
0.2541113456
 40
0.2880932223
 40
0.3214303478
 40
0.3541190554
 40
0.386163944
 40
0.4175783179
 40
0.4483845431
 40
0.4786142813
 40
0.5083085605
 40
0.5375176424
 40
0.5663006417
 40
0.5947248509
 40
0.6228647664
 40
0.6508008132
 40
0.6786177935
 40
0.7064031173
 40
0.7342448946
 40
0.762229989
 40
0.7904421399
 40
0.8189602472
 40
0.8478568932
 40
0.862470202
 40
0.8772018359
 40
0.9070423771
 40
0.9374308868
 40
0.9528450051
 40
0.9684097413
 40
1.0
 40
1.0
 40
1.0
 40
1.0
 10
11.6225980074
 20
5.657944309
 30
0.0
 10
11.6782459712
 20
5.6428291391
 30
0.0
 10
11.7603266981
 20
5.6167840101
 30
0.0
 10
11.8663353405
 20
5.5751201236
 30
0.0
 10
11.942769612
 20
5.5409613389
 30
0.0
 10
12.0163636816
 20
5.5038125809
 30
0.0
 10
12.086887561
 20
5.4637896892
 30
0.0
 10
12.1541167786
 20
5.4210189443
 30
0.0
 10
12.2178382442
 20
5.3756347974
 30
0.0
 10
12.2778495036
 20
5.3277799219
 30
0.0
 10
12.3339597315
 20
5.277604716
 30
0.0
 10
12.3859901802
 20
5.2252668768
 30
0.0
 10
12.4337746573
 20
5.1709309095
 30
0.0
 10
12.4771599911
 20
5.1147677189
 30
0.0
 10
12.5160064792
 20
5.0569541951
 30
0.0
 10
12.5501883279
 20
4.9976728052
 30
0.0
 10
12.579594131
 20
4.9371112011
 30
0.0
 10
12.6041274348
 20
4.8754618216
 30
0.0
 10
12.6237071372
 20
4.8129213557
 30
0.0
 10
12.6382680103
 20
4.7496902022
 30
0.0
 10
12.6477611953
 20
4.6859718053
 30
0.0
 10
12.6521546438
 20
4.6219718631
 30
0.0
 10
12.6514334311
 20
4.5578974425
 30
0.0
 10
12.6456000201
 20
4.493955936
 30
0.0
 10
12.6346742447
 20
4.4303542411
 30
0.0
 10
12.6186926865
 20
4.3672970241
 30
0.0
 10
12.5977097599
 20
4.3049887809
 30
0.0
 10
12.5761914547
 20
4.2540391716
 30
0.0
 10
12.5565976085
 20
4.2138785188
 30
0.0
 10
12.5352408251
 20
4.173803934
 30
0.0
 10
12.505522008
 20
4.124518739
 30
0.0
 10
12.4722295068
 20
4.076938404
 30
0.0
 10
12.4433871388
 20
4.0397243911
 30
0.0
 10
12.4127791552
 20
4.0027451338
 30
0.0
 10
12.3883997396
 20
3.9759810481
 30
0.0
 10
12.3715523365
 20
3.9585624466
 30
0.0
  0
SPLINE
  5
35A
100
AcDbEntity
  8
0
100
AcDbSpline
 62
9
  6
CONTINUOUS
 70
0
 71
3
 72
13
 73
9
 74
0
 42
0.0000001
 43
0.0000001
 44
0.0000000001
 40
0.0
 40
0.0
 40
0.0
 40
0.0
 40
0.1181979824
 40
0.2383631978
 40
0.3605066143
 40
0.4846216864
 40
0.7386022346
 40
1.0
 40
1.0
 40
1.0
 40
1.0
 10
12.3715523365
 20
3.9585624466
 30
0.0
 10
12.3573065973
 20
3.9438337165
 30
0.0
 10
12.327821805
 20
3.9148531266
 30
0.0
 10
12.2811592308
 20
3.8732436018
 30
0.0
 10
12.2317964855
 20
3.8332241817
 30
0.0
 10
12.1619981554
 20
3.7817141736
 30
0.0
 10
12.068495191
 20
3.7218839997
 30
0.0
 10
11.9894116416
 20
3.6800726313
 30
0.0
 10
11.9485604501
 20
3.6604580945
 30
0.0
  0
SPLINE
  5
35B
100
AcDbEntity
  8
0
100
AcDbSpline
 62
9
  6
CONTINUOUS
 70
0
 71
3
 72
13
 73
9
 74
0
 42
0.0000001
 43
0.0000001
 44
0.0000000001
 40
0.0
 40
0.0
 40
0.0
 40
0.0
 40
0.2618213614
 40
0.3912147622
 40
0.5187367838
 40
0.6438376764
 40
0.7660356421
 40
1.0
 40
1.0
 40
1.0
 40
1.0
 10
11.6500490361
 20
9.3542409815
 30
0.0
 10
11.6500490361
 20
9.3431691854
 30
0.0
 10
11.6512056371
 20
9.3265929053
 30
0.0
 10
11.6550724141
 20
9.3049866477
 30
0.0
 10
11.6590783341
 20
9.2893206793
 30
0.0
 10
11.6641631673
 20
9.2742894129
 30
0.0
 10
11.6721910821
 20
9.2555755075
 30
0.0
 10
11.6798313956
 20
9.2424765291
 30
0.0
 10
11.6856174977
 20
9.2344510628
 30
0.0
  0
SPLINE
  5
35C
100
AcDbEntity
  8
0
100
AcDbSpline
 62
9
  6
CONTINUOUS
 70
0
 71
3
 72
13
 73
9
 74
0
 42
0.0000001
 43
0.0000001
 44
0.0000000001
 40
0.0
 40
0.0
 40
0.0
 40
0.0
 40
0.2618206985
 40
0.391214951
 40
0.5187366308
 40
0.6438376519
 40
0.7660355944
 40
1.0
 40
1.0
 40
1.0
 40
1.0
 10
11.6674507505
 20
9.3542409815
 30
0.0
 10
11.6674507505
 20
9.3393763142
 30
0.0
 10
11.6690036072
 20
9.3171214277
 30
0.0
 10
11.6741949635
 20
9.2881134229
 30
0.0
 10
11.679573249
 20
9.2670806753
 30
0.0
 10
11.6863999749
 20
9.2469000882
 30
0.0
 10
11.69717808
 20
9.2217753
 30
0.0
 10
11.7074356296
 20
9.2041888546
 30
0.0
 10
11.7152040028
 20
9.1934141437
 30
0.0
  0
SPLINE
  5
35D
100
AcDbEntity
  8
0
100
AcDbSpline
 62
7
  6
CONTINUOUS
 70
0
 71
3
 72
22
 73
18
 74
0
 42
0.0000001
 43
0.0000001
 44
0.0000000001
 40
0.0
 40
0.0
 40
0.0
 40
0.0
 40
0.1432600392
 40
0.2141750986
 40
0.2842066235
 40
0.3530888998
 40
0.4205846754
 40
0.4864895111
 40
0.550640077
 40
0.6129211092
 40
0.6732729412
 40
0.7316986401
 40
0.7882699189
 40
0.8431317469
 40
0.8965033877
 40
0.9486752617
 40
1.0
 40
1.0
 40
1.0
 40
1.0
 10
11.6171821352
 20
9.3542409815
 30
0.0
 10
11.6171821352
 20
9.3658121243
 30
0.0
 10
11.6183038764
 20
9.3831403704
 30
0.0
 10
11.6220524503
 20
9.4057995384
 30
0.0
 10
11.6259434638
 20
9.4223094284
 30
0.0
 10
11.6308901432
 20
9.4382446896
 30
0.0
 10
11.6368513368
 20
9.4534727625
 30
0.0
 10
11.6437775021
 20
9.4678650116
 30
0.0
 10
11.6516112038
 20
9.4813002935
 30
0.0
 10
11.6602876858
 20
9.4936652029
 30
0.0
 10
11.6697354106
 20
9.504855041
 30
0.0
 10
11.6798765701
 20
9.5147744356
 30
0.0
 10
11.6906276619
 20
9.5233379355
 30
0.0
 10
11.7018994597
 20
9.5304705003
 30
0.0
 10
11.7135985017
 20
9.5361082791
 30
0.0
 10
11.7256227499
 20
9.5401988942
 30
0.0
 10
11.7338392373
 20
9.5418788334
 30
0.0
 10
11.7379460776
 20
9.5424437344
 30
0.0
  0
SPLINE
  5
35E
100
AcDbEntity
  8
0
100
AcDbSpline
 62
7
  6
CONTINUOUS
 70
0
 71
3
 72
22
 73
18
 74
0
 42
0.0000001
 43
0.0000001
 44
0.0000000001
 40
0.0
 40
0.0
 40
0.0
 40
0.0
 40
0.1432542334
 40
0.2141667388
 40
0.2841961401
 40
0.3530768327
 40
0.4205716534
 40
0.4864762176
 40
0.5506272106
 40
0.6129093369
 40
0.6732628442
 40
0.7316906547
 40
0.7882642745
 40
0.8431284051
 40
0.8965019909
 40
0.9486750987
 40
1.0
 40
1.0
 40
1.0
 40
1.0
 10
11.6171821352
 20
9.3542409815
 30
0.0
 10
11.6171821352
 20
9.3426724646
 30
0.0
 10
11.6183033694
 20
9.3253481391
 30
0.0
 10
11.6220502451
 20
9.3026938943
 30
0.0
 10
11.6259395157
 20
9.2861873696
 30
0.0
 10
11.6308840049
 20
9.2702550877
 30
0.0
 10
11.6368425971
 20
9.2550295233
 30
0.0
 10
11.6437657938
 20
9.2406392326
 30
0.0
 10
11.6515962095
 20
9.227205287
 30
0.0
 10
11.6602691438
 20
9.2148410288
 30
0.0
 10
11.66971312
 20
9.2036511025
 30
0.0
 10
11.6798503952
 20
9.1937308358
 30
0.0
 10
11.6905975366
 20
9.1851656447
 30
0.0
 10
11.7018653917
 20
9.1780305452
 30
0.0
 10
11.713560577
 20
9.1723893746
 30
0.0
 10
11.7255811403
 20
9.1682945133
 30
0.0
 10
11.733795427
 20
9.1666111402
 30
0.0
 10
11.7379012479
 20
9.1660444057
 30
0.0
  0
SPLINE
  5
35F
100
AcDbEntity
  8
0
100
AcDbSpline
 62
9
  6
CONTINUOUS
 70
0
 71
3
 72
21
 73
17
 74
0
 42
0.0000001
 43
0.0000001
 44
0.0000000001
 40
0.0
 40
0.0
 40
0.0
 40
0.0
 40
0.1419263574
 40
0.2122510203
 40
0.2817872394
 40
0.4174732846
 40
0.4832929154
 40
0.5475152786
 40
0.6100202777
 40
0.6707322115
 40
0.7296256055
 40
0.7867305218
 40
0.8421369484
 40
0.8959975083
 40
0.9485273013
 40
1.0
 40
1.0
 40
1.0
 40
1.0
 10
11.6229784036
 20
9.3542409815
 30
0.0
 10
11.6229784036
 20
9.3647425978
 30
0.0
 10
11.6239445096
 20
9.3804711315
 30
0.0
 10
11.6271729441
 20
9.4010809287
 30
0.0
 10
11.6316079695
 20
9.4209921615
 30
0.0
 10
11.637870657
 20
9.4401220867
 30
0.0
 10
11.6459458867
 20
9.4580646916
 30
0.0
 10
11.6527423859
 20
9.4706024698
 30
0.0
 10
11.6602872677
 20
9.4822573964
 30
0.0
 10
11.6685247771
 20
9.4929416963
 30
0.0
 10
11.6773935829
 20
9.5025735553
 30
0.0
 10
11.6868278957
 20
9.5110789473
 30
0.0
 10
11.6967573485
 20
9.518391619
 30
0.0
 10
11.7071082176
 20
9.5244539262
 30
0.0
 10
11.7178001091
 20
9.5292163501
 30
0.0
 10
11.7251655556
 20
9.5315183383
 30
0.0
 10
11.7288628897
 20
9.5324323765
 30
0.0
  0
SPLINE
  5
360
100
AcDbEntity
  8
0
100
AcDbSpline
 62
9
  6
CONTINUOUS
 70
0
 71
3
 72
21
 73
17
 74
0
 42
0.0000001
 43
0.0000001
 44
0.0000000001
 40
0.0
 40
0.0
 40
0.0
 40
0.0
 40
0.1419139207
 40
0.2122330364
 40
0.2817645399
 40
0.4174445814
 40
0.4832631353
 40
0.5474858351
 40
0.609992561
 40
0.6707074942
 40
0.729604939
 40
0.7867146239
 40
0.8421260917
 40
0.8959914153
 40
0.9485250565
 40
1.0
 40
1.0
 40
1.0
 40
1.0
 10
11.6229784036
 20
9.3542409815
 30
0.0
 10
11.6229784036
 20
9.343744505
 30
0.0
 10
11.6239435678
 20
9.3280236477
 30
0.0
 10
11.6271688474
 20
9.3074235537
 30
0.0
 10
11.6315996193
 20
9.2875210154
 30
0.0
 10
11.637856368
 20
9.2683986694
 30
0.0
 10
11.6459240173
 20
9.250461892
 30
0.0
 10
11.652714318
 20
9.2379272119
 30
0.0
 10
11.6602524736
 20
9.226274157
 30
0.0
 10
11.6684828318
 20
9.2155904014
 30
0.0
 10
11.6773441732
 20
9.2059576724
 30
0.0
 10
11.6867708274
 20
9.1974499268
 30
0.0
 10
11.6966925534
 20
9.1901333645
 30
0.0
 10
11.7070357578
 20
9.1840655923
 30
0.0
 10
11.7177201926
 20
9.1792961172
 30
0.0
 10
11.7250809983
 20
9.1769882792
 30
0.0
 10
11.7287761426
 20
9.1760710752
 30
0.0
  0
SPLINE
  5
361
100
AcDbEntity
  8
0
100
AcDbSpline
 62
7
  6
CONTINUOUS
 70
0
 71
3
 72
11
 73
7
 74
0
 42
0.0000001
 43
0.0000001
 44
0.0000000001
 40
0.0
 40
0.0
 40
0.0
 40
0.0
 40
0.2552291834
 40
0.5065907852
 40
0.754640441
 40
1.0
 40
1.0
 40
1.0
 40
1.0
 10
11.4967083549
 20
9.1636637386
 30
0.0
 10
11.4942090306
 20
9.1622628078
 30
0.0
 10
11.4891498644
 20
9.1596532334
 30
0.0
 10
11.4813536884
 20
9.1563199276
 30
0.0
 10
11.4734361405
 20
9.1536105462
 30
0.0
 10
11.4680680646
 20
9.1522193765
 30
0.0
 10
11.4653768603
 20
9.151632838
 30
0.0
  0
LINE
  5
362
100
AcDbEntity
  8
0
100
AcDbLine
 62
7
  6
CONTINUOUS
 10
11.4653768603
 20
9.151632838
 11
11.465243362
 21
9.1516038326
  0
SPLINE
  5
363
100
AcDbEntity
  8
0
100
AcDbSpline
 62
7
  6
CONTINUOUS
 70
0
 71
3
 72
11
 73
7
 74
0
 42
0.0000001
 43
0.0000001
 44
0.0000000001
 40
0.0
 40
0.0
 40
0.0
 40
0.0
 40
0.2552285086
 40
0.5065899485
 40
0.7546398656
 40
1.0
 40
1.0
 40
1.0
 40
1.0
 10
11.4967054383
 20
9.5448198591
 30
0.0
 10
11.4942063308
 20
9.5462205798
 30
0.0
 10
11.4891476128
 20
9.5488297687
 30
0.0
 10
11.4813521584
 20
9.5521626022
 30
0.0
 10
11.4734353603
 20
9.5548716298
 30
0.0
 10
11.4680678039
 20
9.5562626433
 30
0.0
 10
11.4653768603
 20
9.5568491249
 30
0.0
  0
LINE
  5
364
100
AcDbEntity
  8
0
100
AcDbLine
 62
7
  6
CONTINUOUS
 10
11.4653768603
 20
9.5568491249
 11
11.465243362
 21
9.5568781303
  0
SPLINE
  5
365
100
AcDbEntity
  8
0
100
AcDbSpline
 62
7
  6
CONTINUOUS
 70
0
 71
3
 72
19
 73
15
 74
0
 42
0.0000001
 43
0.0000001
 44
0.0000000001
 40
0.0
 40
0.0
 40
0.0
 40
0.0
 40
0.1428326669
 40
0.2797738627
 40
0.4107150761
 40
0.5359445413
 40
0.5966651054
 40
0.6562594217
 40
0.7148799539
 40
0.7727011598
 40
0.8299135276
 40
0.8867236841
 40
0.9433529774
 40
1.0
 40
1.0
 40
1.0
 40
1.0
 10
11.5825555317
 20
9.2390786571
 30
0.0
 10
11.5794999319
 20
9.2323310157
 30
0.0
 10
11.572860715
 20
9.2193956238
 30
0.0
 10
11.5611001896
 20
9.2015827508
 30
0.0
 10
11.5478709581
 20
9.186001953
 30
0.0
 10
11.5356204791
 20
9.1749586678
 30
0.0
 10
11.5252689615
 20
9.1675248309
 30
0.0
 10
11.5173331472
 20
9.1626966723
 30
0.0
 10
11.5091742846
 20
9.1585791843
 30
0.0
 10
11.5008202143
 20
9.1551883891
 30
0.0
 10
11.4923007927
 20
9.1525372792
 30
0.0
 10
11.4836460192
 20
9.1506366145
 30
0.0
 10
11.474889081
 20
9.1494942796
 30
0.0
 10
11.4690114133
 20
9.1492409815
 30
0.0
 10
11.4660737193
 20
9.1492409815
 30
0.0
  0
SPLINE
  5
366
100
AcDbEntity
  8
0
100
AcDbSpline
 62
7
  6
CONTINUOUS
 70
0
 71
3
 72
19
 73
15
 74
0
 42
0.0000001
 43
0.0000001
 44
0.0000000001
 40
0.0
 40
0.0
 40
0.0
 40
0.0
 40
0.1428362307
 40
0.2797804775
 40
0.4107236373
 40
0.5359537282
 40
0.5966739817
 40
0.6562677767
 40
0.7148874617
 40
0.7727070461
 40
0.8299187675
 40
0.8867284714
 40
0.943350077
 40
1.0
 40
1.0
 40
1.0
 40
1.0
 10
10.5120698765
 20
9.4693784184
 30
0.0
 10
10.5151252676
 20
9.4761277837
 30
0.0
 10
10.5217642822
 20
9.4890665374
 30
0.0
 10
10.5335251221
 20
9.5068842295
 30
0.0
 10
10.5467552423
 20
9.5224693702
 30
0.0
 10
10.5590069286
 20
9.5335158296
 30
0.0
 10
10.5693596373
 20
9.540951826
 30
0.0
 10
10.5772964119
 20
9.5457813801
 30
0.0
 10
10.5854563124
 20
9.5499000277
 30
0.0
 10
10.5938114891
 20
9.5532918784
 30
0.0
 10
10.6023321783
 20
9.5559437365
 30
0.0
 10
10.6109879816
 20
9.5578448129
 30
0.0
 10
10.6197461355
 20
9.5589877277
 30
0.0
 10
10.6256245975
 20
9.5592409815
 30
0.0
 10
10.6285629573
 20
9.5592409815
 30
0.0
  0
SPLINE
  5
367
100
AcDbEntity
  8
0
100
AcDbSpline
 62
7
  6
CONTINUOUS
 70
0
 71
3
 72
39
 73
35
 74
0
 42
0.0000001
 43
0.0000001
 44
0.0000000001
 40
0.0
 40
0.0
 40
0.0
 40
0.0
 40
0.0305268837
 40
0.0611892797
 40
0.0920315724
 40
0.1231229683
 40
0.1545609341
 40
0.1864866742
 40
0.2027025232
 40
0.219120128
 40
0.235764314
 40
0.2526500054
 40
0.2697673879
 40
0.2870648285
 40
0.3044440934
 40
0.3217811957
 40
0.3389660643
 40
0.3559312521
 40
0.3726547093
 40
0.3891439481
 40
0.4214972713
 40
0.4532406203
 40
0.4845494841
 40
0.5155486431
 40
0.546324152
 40
0.5769362209
 40
0.6074271763
 40
0.6378266239
 40
0.6984280745
 40
0.758868622
 40
0.8192143502
 40
0.8795041279
 40
0.9397616297
 40
1.0
 40
1.0
 40
1.0
 40
1.0
 10
11.5759196088
 20
11.6974562905
 30
0.0
 10
11.5788989234
 20
11.6964948142
 30
0.0
 10
11.5848299645
 20
11.694437293
 30
0.0
 10
11.5935816206
 20
11.6908912276
 30
0.0
 10
11.6021562636
 20
11.686794867
 30
0.0
 10
11.6104802082
 20
11.6820401908
 30
0.0
 10
11.6184360195
 20
11.676487848
 30
0.0
 10
11.6245728026
 20
11.6710683745
 30
0.0
 10
11.6290258455
 20
11.6661603557
 30
0.0
 10
11.6320954928
 20
11.6621369724
 30
0.0
 10
11.6347939773
 20
11.6577721701
 30
0.0
 10
11.6370185721
 20
11.6530649513
 30
0.0
 10
11.638650285
 20
11.6480467462
 30
0.0
 10
11.639572879
 20
11.6427967062
 30
0.0
 10
11.6397061251
 20
11.6374438417
 30
0.0
 10
11.6390373658
 20
11.6321436744
 30
0.0
 10
11.6376273328
 20
11.6270377186
 30
0.0
 10
11.6355844402
 20
11.6222224698
 30
0.0
 10
11.633029343
 20
11.6177436985
 30
0.0
 10
11.6291117602
 20
11.6122672924
 30
0.0
 10
11.6234310236
 20
11.6062130694
 30
0.0
 10
11.6158188029
 20
11.6000330135
 30
0.0
 10
11.6077218891
 20
11.5947654458
 30
0.0
 10
11.5993035392
 20
11.5902458107
 30
0.0
 10
11.5906627475
 20
11.5863446052
 30
0.0
 10
11.5818635639
 20
11.5829628224
 30
0.0
 10
11.5729488834
 20
11.5800228126
 30
0.0
 10
11.5609627883
 20
11.5766113596
 30
0.0
 10
11.5458089855
 20
11.5731589582
 30
0.0
 10
11.5274695472
 20
11.5700084779
 30
0.0
 10
11.5090482679
 20
11.5676305033
 30
0.0
 10
11.4905797427
 20
11.5658559795
 30
0.0
 10
11.4720837821
 20
11.5645557739
 30
0.0
 10
11.4597412669
 20
11.5639384538
 30
0.0
 10
11.4535690744
 20
11.5636798065
 30
0.0
  0
SPLINE
  5
368
100
AcDbEntity
  8
0
100
AcDbSpline
 62
7
  6
CONTINUOUS
 70
0
 71
3
 72
15
 73
11
 74
0
 42
0.0000001
 43
0.0000001
 44
0.0000000001
 40
0.0
 40
0.0
 40
0.0
 40
0.0
 40
0.125000157
 40
0.2500008673
 40
0.3750013707
 40
0.4999999923
 40
0.6249986151
 40
0.7499991207
 40
0.8749998343
 40
1.0
 40
1.0
 40
1.0
 40
1.0
 10
11.4536657527
 20
10.6157445791
 30
0.0
 10
11.454382299
 20
10.6172635185
 30
0.0
 10
11.4556617442
 20
10.6203770183
 30
0.0
 10
11.4570699785
 20
10.6252246831
 30
0.0
 10
11.4579313528
 20
10.6301998881
 30
0.0
 10
11.4582212935
 20
10.6352409743
 30
0.0
 10
11.4579313544
 20
10.6402820606
 30
0.0
 10
11.4570699817
 20
10.6452572659
 30
0.0
 10
11.455661749
 20
10.6501049313
 30
0.0
 10
11.4543823045
 20
10.6532184316
 30
0.0
 10
11.4536657585
 20
10.6547373713
 30
0.0
  0
SPLINE
  5
369
100
AcDbEntity
  8
0
100
AcDbSpline
 62
7
  6
CONTINUOUS
 70
0
 71
3
 72
21
 73
17
 74
0
 42
0.0000001
 43
0.0000001
 44
0.0000000001
 40
0.0
 40
0.0
 40
0.0
 40
0.0
 40
0.1246765918
 40
0.1871375565
 40
0.2496415285
 40
0.3121854132
 40
0.3747663099
 40
0.4373754048
 40
0.4999999959
 40
0.5626245878
 40
0.6252336839
 40
0.6878145846
 40
0.7503584701
 40
0.8128624421
 40
0.875323407
 40
1.0
 40
1.0
 40
1.0
 40
1.0
 10
11.4616395842
 20
10.5905196219
 30
0.0
 10
11.465483773
 20
10.5929662433
 30
0.0
 10
11.470957635
 20
10.5971598534
 30
0.0
 10
11.4772489755
 20
10.6037882989
 30
0.0
 10
11.4813716897
 20
10.6092846471
 30
0.0
 10
11.4847680898
 20
10.6152648942
 30
0.0
 10
11.4873136826
 20
10.6216617668
 30
0.0
 10
11.4888950434
 20
10.6283682756
 30
0.0
 10
11.4894319549
 20
10.635240981
 30
0.0
 10
11.4888950435
 20
10.6421136865
 30
0.0
 10
11.4873136828
 20
10.6488201956
 30
0.0
 10
11.4847680899
 20
10.6552170684
 30
0.0
 10
11.4813716898
 20
10.6611973158
 30
0.0
 10
11.4772489755
 20
10.6666936639
 30
0.0
 10
11.4709576351
 20
10.6733221095
 30
0.0
 10
11.465483773
 20
10.6775157196
 30
0.0
 10
11.4616395842
 20
10.679962341
 30
0.0
  0
SPLINE
  5
36A
100
AcDbEntity
  8
0
100
AcDbSpline
 62
7
  6
CONTINUOUS
 70
0
 71
3
 72
15
 73
11
 74
0
 42
0.0000001
 43
0.0000001
 44
0.0000000001
 40
0.0
 40
0.0
 40
0.0
 40
0.0
 40
0.1250002897
 40
0.2500010735
 40
0.3750014596
 40
0.499999991
 40
0.6249985243
 40
0.749998914
 40
0.8749997016
 40
1.0
 40
1.0
 40
1.0
 40
1.0
 10
10.6409739308
 20
10.6548785066
 30
0.0
 10
10.6402470255
 20
10.6533500944
 30
0.0
 10
10.638948715
 20
10.6502161035
 30
0.0
 10
10.6375191868
 20
10.6453338213
 30
0.0
 10
10.6366445168
 20
10.6403211137
 30
0.0
 10
10.6363500553
 20
10.6352409878
 30
0.0
 10
10.6366445154
 20
10.6301608618
 30
0.0
 10
10.637519184
 20
10.6251481539
 30
0.0
 10
10.6389487108
 20
10.620265871
 30
0.0
 10
10.6402470207
 20
10.6171318796
 30
0.0
 10
10.6409739256
 20
10.6156034672
 30
0.0
  0
SPLINE
  5
36B
100
AcDbEntity
  8
0
100
AcDbSpline
 62
7
  6
CONTINUOUS
 70
0
 71
3
 72
21
 73
17
 74
0
 42
0.0000001
 43
0.0000001
 44
0.0000000001
 40
0.0
 40
0.0
 40
0.0
 40
0.0
 40
0.1246758314
 40
0.1871366019
 40
0.2496405196
 40
0.3121844925
 40
0.3747656088
 40
0.4373750257
 40
0.4999999955
 40
0.5626249666
 40
0.6252343851
 40
0.6878155053
 40
0.750359479
 40
0.8128633967
 40
0.8753241673
 40
1.0
 40
1.0
 40
1.0
 40
1.0
 10
10.6329394135
 20
10.679962341
 30
0.0
 10
10.6290952937
 20
10.6775157155
 30
0.0
 10
10.6236215343
 20
10.6733220984
 30
0.0
 10
10.617330324
 20
10.6666936582
 30
0.0
 10
10.6132076915
 20
10.6611973093
 30
0.0
 10
10.6098113594
 20
10.6552170621
 30
0.0
 10
10.607265818
 20
10.6488201907
 30
0.0
 10
10.6056844896
 20
10.6421136842
 30
0.0
 10
10.6051475892
 20
10.6352409819
 30
0.0
 10
10.6056844895
 20
10.6283682796
 30
0.0
 10
10.6072658178
 20
10.6216617728
 30
0.0
 10
10.6098113593
 20
10.6152649011
 30
0.0
 10
10.6132076914
 20
10.6092846538
 30
0.0
 10
10.617330324
 20
10.6037883049
 30
0.0
 10
10.6236215341
 20
10.5971598645
 30
0.0
 10
10.6290952936
 20
10.5929662475
 30
0.0
 10
10.6329394135
 20
10.5905196219
 30
0.0
  0
SPLINE
  5
36C
100
AcDbEntity
  8
0
100
AcDbSpline
 62
7
  6
CONTINUOUS
 70
0
 71
3
 72
21
 73
17
 74
0
 42
0.0000001
 43
0.0000001
 44
0.0000000001
 40
0.0
 40
0.0
 40
0.0
 40
0.0
 40
0.1241277239
 40
0.1864488008
 40
0.2489139336
 40
0.3115216596
 40
0.3742609217
 40
0.437102267
 40
0.4999999954
 40
0.5628977252
 40
0.6257390722
 40
0.6884783383
 40
0.751086065
 40
0.8135511978
 40
0.8758722748
 40
1.0
 40
1.0
 40
1.0
 40
1.0
 10
10.6049865061
 20
10.679962341
 30
0.0
 10
10.6011919609
 20
10.6775126576
 30
0.0
 10
10.5957920099
 20
10.6733140478
 30
0.0
 10
10.5895944012
 20
10.6666894111
 30
0.0
 10
10.5855304895
 20
10.6611925699
 30
0.0
 10
10.582183001
 20
10.6552123489
 30
0.0
 10
10.5796744684
 20
10.6488162813
 30
0.0
 10
10.5781163756
 20
10.6421114382
 30
0.0
 10
10.5775874161
 20
10.6352409819
 30
0.0
 10
10.5781163755
 20
10.6283705256
 30
0.0
 10
10.5796744681
 20
10.6216656822
 30
0.0
 10
10.5821830009
 20
10.6152696143
 30
0.0
 10
10.5855304893
 20
10.6092893931
 30
0.0
 10
10.5895944011
 20
10.603792552
 30
0.0
 10
10.5957920097
 20
10.5971679151
 30
0.0
 10
10.6011919609
 20
10.5929693053
 30
0.0
 10
10.6049865061
 20
10.5905196219
 30
0.0
  0
SPLINE
  5
36D
100
AcDbEntity
  8
0
100
AcDbSpline
 62
7
  6
CONTINUOUS
 70
0
 71
3
 72
23
 73
19
 74
0
 42
0.0000001
 43
0.0000001
 44
0.0000000001
 40
0.0
 40
0.0
 40
0.0
 40
0.0
 40
0.0615592471
 40
0.1233743554
 40
0.1854591133
 40
0.2478466993
 40
0.3105375403
 40
0.3735072229
 40
0.4366937399
 40
0.4999999954
 40
0.5633062524
 40
0.6264927709
 40
0.6894624575
 40
0.7521532993
 40
0.8145408854
 40
0.8766256433
 40
0.9384407513
 40
1.0
 40
1.0
 40
1.0
 40
1.0
 10
10.5805951922
 20
10.679962341
 30
0.0
 10
10.5787383375
 20
10.6787361468
 30
0.0
 10
10.5751234427
 20
10.6761118596
 30
0.0
 10
10.5700951777
 20
10.6716616384
 30
0.0
 10
10.5655415997
 20
10.6666823162
 30
0.0
 10
10.561570094
 20
10.6611852459
 30
0.0
 10
10.5582986945
 20
10.6552049975
 30
0.0
 10
10.5558479565
 20
10.6488102582
 30
0.0
 10
10.5543260736
 20
10.6421079891
 30
0.0
 10
10.5538094904
 20
10.6352409819
 30
0.0
 10
10.5543260734
 20
10.6283739746
 30
0.0
 10
10.5558479562
 20
10.6216717053
 30
0.0
 10
10.5582986944
 20
10.6152769658
 30
0.0
 10
10.5615700938
 20
10.6092967172
 30
0.0
 10
10.5655415996
 20
10.6037996469
 30
0.0
 10
10.5700951775
 20
10.5988203247
 30
0.0
 10
10.5751234426
 20
10.5943701034
 30
0.0
 10
10.5787383375
 20
10.5917458162
 30
0.0
 10
10.5805951922
 20
10.5905196219
 30
0.0
  0
SPLINE
  5
36E
100
AcDbEntity
  8
0
100
AcDbSpline
 62
9
  6
CONTINUOUS
 70
0
 71
3
 72
28
 73
24
 74
0
 42
0.0000001
 43
0.0000001
 44
0.0000000001
 40
0.0
 40
0.0
 40
0.0
 40
0.0
 40
0.0724003456
 40
0.1435186513
 40
0.2132709709
 40
0.281593105
 40
0.3484416003
 40
0.4137963152
 40
0.4776620906
 40
0.540070516
 40
0.6010812488
 40
0.6607828646
 40
0.7192929975
 40
0.7481522563
 40
0.7767706618
 40
0.8051705501
 40
0.8333757379
 40
0.8614113692
 40
0.8893037854
 40
0.9170803484
 40
0.9447692655
 40
0.9723993857
 40
1.0
 40
1.0
 40
1.0
 40
1.0
 10
11.8573183383
 20
3.5690782324
 30
0.0
 10
11.8876673568
 20
3.5814681674
 30
0.0
 10
11.9471975511
 20
3.6076113137
 30
0.0
 10
12.0333987201
 20
3.6512337618
 30
0.0
 10
12.1153941577
 20
3.698752482
 30
0.0
 10
12.1928303361
 20
3.7499650754
 30
0.0
 10
12.2653770021
 20
3.804655673
 30
0.0
 10
12.3327231602
 20
3.8625932537
 30
0.0
 10
12.394579658
 20
3.9235334916
 30
0.0
 10
12.450679693
 20
3.9872188989
 30
0.0
 10
12.5007805514
 20
4.0533814661
 30
0.0
 10
12.5446620586
 20
4.1217372656
 30
0.0
 10
12.576034544
 20
4.1805670581
 30
0.0
 10
12.597773706
 20
4.2283865549
 30
0.0
 10
12.6123449976
 20
4.2644492463
 30
0.0
 10
12.6252393041
 20
4.3008305945
 30
0.0
 10
12.6364429966
 20
4.3374922221
 30
0.0
 10
12.6459438568
 20
4.3743945498
 30
0.0
 10
12.6537314035
 20
4.4114980088
 30
0.0
 10
12.6597973426
 20
4.4487625555
 30
0.0
 10
12.6641347638
 20
4.4861484015
 30
0.0
 10
12.6667392878
 20
4.5236141884
 30
0.0
 10
12.6673182391
 20
4.548624855
 30
0.0
 10
12.6673182717
 20
4.5611215783
 30
0.0
  0
SPLINE
  5
36F
100
AcDbEntity
  8
0
100
AcDbSpline
 62
7
  6
CONTINUOUS
 70
0
 71
3
 72
23
 73
19
 74
0
 42
0.0000001
 43
0.0000001
 44
0.0000000001
 40
0.0
 40
0.0
 40
0.0
 40
0.0
 40
0.0608817041
 40
0.1221991129
 40
0.1839884574
 40
0.2462975897
 40
0.3091281877
 40
0.3724365518
 40
0.4361159686
 40
0.4999999954
 40
0.5638840236
 40
0.627563442
 40
0.6908718101
 40
0.7537024089
 40
0.8160115412
 40
0.8778008858
 40
0.9391182943
 40
1.0
 40
1.0
 40
1.0
 40
1.0
 10
10.5599618673
 20
10.679962341
 30
0.0
 10
10.5581600336
 20
10.6787344818
 30
0.0
 10
10.5546518544
 20
10.6761056214
 30
0.0
 10
10.5497790461
 20
10.6716538228
 30
0.0
 10
10.5453668227
 20
10.6666730859
 30
0.0
 10
10.5415193725
 20
10.6611751703
 30
0.0
 10
10.5383510207
 20
10.6551951788
 30
0.0
 10
10.5359782258
 20
10.6488022573
 30
0.0
 10
10.5345051751
 20
10.6421034476
 30
0.0
 10
10.5340052571
 20
10.6352409819
 30
0.0
 10
10.534505175
 20
10.6283785162
 30
0.0
 10
10.5359782256
 20
10.6216797062
 30
0.0
 10
10.5383510206
 20
10.6152867844
 30
0.0
 10
10.5415193724
 20
10.6093067928
 30
0.0
 10
10.5453668227
 20
10.6038088772
 30
0.0
 10
10.5497790459
 20
10.5988281402
 30
0.0
 10
10.5546518543
 20
10.5943763416
 30
0.0
 10
10.5581600335
 20
10.5917474812
 30
0.0
 10
10.5599618673
 20
10.5905196219
 30
0.0
  0
SPLINE
  5
370
100
AcDbEntity
  8
0
100
AcDbSpline
 62
7
  6
CONTINUOUS
 70
0
 71
3
 72
23
 73
19
 74
0
 42
0.0000001
 43
0.0000001
 44
0.0000000001
 40
0.0
 40
0.0
 40
0.0
 40
0.0
 40
0.0600221026
 40
0.1207114053
 40
0.1821311117
 40
0.2443456435
 40
0.3073560774
 40
0.3710926173
 40
0.4353915621
 40
0.5000000012
 40
0.5646084398
 40
0.6289073839
 40
0.692643923
 40
0.7556543565
 40
0.8178688883
 40
0.8792885947
 40
0.9399778974
 40
1.0
 40
1.0
 40
1.0
 40
1.0
 10
10.543252668
 20
10.679962341
 30
0.0
 10
10.5415197637
 20
10.6787322665
 30
0.0
 10
10.5381453937
 20
10.6760974081
 30
0.0
 10
10.5334673859
 20
10.6716436824
 30
0.0
 10
10.5292322824
 20
10.6666612997
 30
0.0
 10
10.5255402121
 20
10.6611625143
 30
0.0
 10
10.5225008127
 20
10.6551830365
 30
0.0
 10
10.5202254233
 20
10.648792492
 30
0.0
 10
10.5188133097
 20
10.6420979532
 30
0.0
 10
10.5183341675
 20
10.6352409814
 30
0.0
 10
10.5188133097
 20
10.6283840096
 30
0.0
 10
10.5202254234
 20
10.6216894709
 30
0.0
 10
10.5225008127
 20
10.6152989264
 30
0.0
 10
10.5255402121
 20
10.6093194487
 30
0.0
 10
10.5292322824
 20
10.6038206633
 30
0.0
 10
10.5334673859
 20
10.5988382806
 30
0.0
 10
10.5381453937
 20
10.5943845549
 30
0.0
 10
10.5415197637
 20
10.5917496964
 30
0.0
 10
10.543252668
 20
10.5905196219
 30
0.0
  0
SPLINE
  5
371
100
AcDbEntity
  8
0
100
AcDbSpline
 62
7
  6
CONTINUOUS
 70
0
 71
3
 72
23
 73
19
 74
0
 42
0.0000001
 43
0.0000001
 44
0.0000000001
 40
0.0
 40
0.0
 40
0.0
 40
0.0
 40
0.0589817277
 40
0.1189159481
 40
0.1798960674
 40
0.242003417
 40
0.3052351009
 40
0.3694874382
 40
0.4345275099
 40
0.4999999953
 40
0.5654724821
 40
0.6305125555
 40
0.6947648968
 40
0.7579965816
 40
0.8201039312
 40
0.8810840507
 40
0.9410182707
 40
1.0
 40
1.0
 40
1.0
 40
1.0
 10
10.5306021344
 20
10.679962341
 30
0.0
 10
10.5289515534
 20
10.6787294205
 30
0.0
 10
10.5257371772
 20
10.6760870006
 30
0.0
 10
10.5212918461
 20
10.6716310709
 30
0.0
 10
10.5172682695
 20
10.666646932
 30
0.0
 10
10.5137616569
 20
10.6611473944
 30
0.0
 10
10.5108759998
 20
10.6551688016
 30
0.0
 10
10.5087165604
 20
10.6487812212
 30
0.0
 10
10.5073768675
 20
10.6420916781
 30
0.0
 10
10.506922391
 20
10.6352409819
 30
0.0
 10
10.5073768674
 20
10.6283902857
 30
0.0
 10
10.5087165602
 20
10.6217007423
 30
0.0
 10
10.5108759997
 20
10.6153131617
 30
0.0
 10
10.5137616568
 20
10.6093345686
 30
0.0
 10
10.5172682695
 20
10.6038350311
 30
0.0
 10
10.5212918459
 20
10.5988508921
 30
0.0
 10
10.5257371771
 20
10.5943949625
 30
0.0
 10
10.5289515534
 20
10.5917525424
 30
0.0
 10
10.5306021344
 20
10.5905196219
 30
0.0
  0
SPLINE
  5
372
100
AcDbEntity
  8
0
100
AcDbSpline
 62
7
  6
CONTINUOUS
 70
0
 71
3
 72
23
 73
19
 74
0
 42
0.0000001
 43
0.0000001
 44
0.0000000001
 40
0.0
 40
0.0
 40
0.0
 40
0.0
 40
0.0577648481
 40
0.116823184
 40
0.1773000579
 40
0.2392920504
 40
0.3027872042
 40
0.3676392667
 40
0.433534199
 40
0.4999999952
 40
0.5664657929
 40
0.6323607269
 40
0.6972127935
 40
0.7607079482
 40
0.8226999407
 40
0.8831768148
 40
0.9422351503
 40
1.0
 40
1.0
 40
1.0
 40
1.0
 10
10.5221121268
 20
10.679962341
 30
0.0
 10
10.5205566679
 20
10.6787258426
 30
0.0
 10
10.517527428
 20
10.6760741436
 30
0.0
 10
10.5133508887
 20
10.6716158482
 30
0.0
 10
10.5095716023
 20
10.6666300056
 30
0.0
 10
10.5062790059
 20
10.661130003
 30
0.0
 10
10.5035705308
 20
10.6551527815
 30
0.0
 10
10.50154449
 20
10.6487687596
 30
0.0
 10
10.500287977
 20
10.6420848198
 30
0.0
 10
10.4998618007
 20
10.6352409819
 30
0.0
 10
10.500287977
 20
10.628397144
 30
0.0
 10
10.5015444898
 20
10.6217132039
 30
0.0
 10
10.5035705307
 20
10.6153291818
 30
0.0
 10
10.5062790058
 20
10.6093519601
 30
0.0
 10
10.5095716022
 20
10.6038519575
 30
0.0
 10
10.5133508886
 20
10.5988661148
 30
0.0
 10
10.517527428
 20
10.5944078194
 30
0.0
 10
10.5205566679
 20
10.5917561203
 30
0.0
 10
10.5221121268
 20
10.5905196219
 30
0.0
  0
SPLINE
  5
373
100
AcDbEntity
  8
0
100
AcDbSpline
 62
7
  6
CONTINUOUS
 70
0
 71
3
 72
23
 73
19
 74
0
 42
0.0000001
 43
0.0000001
 44
0.0000000001
 40
0.0
 40
0.0
 40
0.0
 40
0.0
 40
0.0563806614
 40
0.1144526058
 40
0.1743715308
 40
0.2362452147
 40
0.3000457428
 40
0.3655749471
 40
0.4324266052
 40
0.4999999951
 40
0.5675733865
 40
0.6344250465
 40
0.6999542549
 40
0.7637547839
 40
0.8256284678
 40
0.8855473931
 40
0.9436193371
 40
1.0
 40
1.0
 40
1.0
 40
1.0
 10
10.5178510056
 20
10.679962341
 30
0.0
 10
10.5164028122
 20
10.6787214118
 30
0.0
 10
10.5135827105
 20
10.6760585664
 30
0.0
 10
10.5097090217
 20
10.6715979135
 30
0.0
 10
10.5062048476
 20
10.6666106247
 30
0.0
 10
10.5031530296
 20
10.661110627
 30
0.0
 10
10.5006435958
 20
10.6551353624
 30
0.0
 10
10.4987671467
 20
10.648755469
 30
0.0
 10
10.497603759
 20
10.6420775959
 30
0.0
 10
10.4972092351
 20
10.6352409819
 30
0.0
 10
10.4976037589
 20
10.6284043679
 30
0.0
 10
10.4987671466
 20
10.6217264945
 30
0.0
 10
10.5006435958
 20
10.6153466009
 30
0.0
 10
10.5031530295
 20
10.6093713361
 30
0.0
 10
10.5062048475
 20
10.6038713384
 30
0.0
 10
10.5097090216
 20
10.5988840495
 30
0.0
 10
10.5135827105
 20
10.5944233966
 30
0.0
 10
10.5164028121
 20
10.5917605512
 30
0.0
 10
10.5178510056
 20
10.5905196219
 30
0.0
  0
SPLINE
  5
374
100
AcDbEntity
  8
0
100
AcDbSpline
 62
7
  6
CONTINUOUS
 70
0
 71
3
 72
21
 73
17
 74
0
 42
0.0000001
 43
0.0000001
 44
0.0000000001
 40
0.0
 40
0.0
 40
0.0
 40
0.0
 40
0.124129094
 40
0.1864505194
 40
0.2489157482
 40
0.3115233141
 40
0.3742621808
 40
0.4371029475
 40
0.4999999958
 40
0.5628970451
 40
0.6257378129
 40
0.6884766836
 40
0.7510842504
 40
0.8135494793
 40
0.8758709047
 40
1.0
 40
1.0
 40
1.0
 40
1.0
 10
11.4895992065
 20
10.5905196219
 30
0.0
 10
11.4933938753
 20
10.5929692976
 30
0.0
 10
11.4987940105
 20
10.5971678949
 30
0.0
 10
11.5049918525
 20
10.6037925412
 30
0.0
 10
11.5090559106
 20
10.6092893812
 30
0.0
 10
11.5124035208
 20
10.6152696023
 30
0.0
 10
11.5149121457
 20
10.6216656719
 30
0.0
 10
11.5164702963
 20
10.6283705192
 30
0.0
 10
11.5169992756
 20
10.635240981
 30
0.0
 10
11.5164702964
 20
10.642111443
 30
0.0
 10
11.5149121459
 20
10.6488162905
 30
0.0
 10
11.5124035209
 20
10.6552123603
 30
0.0
 10
11.5090559107
 20
10.6611925816
 30
0.0
 10
11.5049918525
 20
10.6666894216
 30
0.0
 10
11.4987940106
 20
10.673314068
 30
0.0
 10
11.4933938753
 20
10.6775126653
 30
0.0
 10
11.4895992065
 20
10.679962341
 30
0.0
  0
SPLINE
  5
375
100
AcDbEntity
  8
0
100
AcDbSpline
 62
7
  6
CONTINUOUS
 70
0
 71
3
 72
23
 73
19
 74
0
 42
0.0000001
 43
0.0000001
 44
0.0000000001
 40
0.0
 40
0.0
 40
0.0
 40
0.0
 40
0.0615603872
 40
0.1233763349
 40
0.1854615929
 40
0.2478493139
 40
0.3105399211
 40
0.3735090328
 40
0.4366947172
 40
0.4999999958
 40
0.5633052754
 40
0.626490961
 40
0.6894600767
 40
0.7521506847
 40
0.8145384058
 40
0.8766236638
 40
0.9384396112
 40
1.0
 40
1.0
 40
1.0
 40
1.0
 10
11.5139976457
 20
10.5905196219
 30
0.0
 10
11.5158545935
 20
10.5917458134
 30
0.0
 10
11.5194696689
 20
10.594370093
 30
0.0
 10
11.5244981971
 20
10.5988203116
 30
0.0
 10
11.5290520144
 20
10.6037996313
 30
0.0
 10
11.5330237301
 20
10.6092967001
 30
0.0
 10
11.536295304
 20
10.6152769488
 30
0.0
 10
11.5387461742
 20
10.621671691
 30
0.0
 10
11.5402681399
 20
10.628373966
 30
0.0
 10
11.5407847513
 20
10.635240981
 30
0.0
 10
11.54026814
 20
10.6421079961
 30
0.0
 10
11.5387461744
 20
10.6488102714
 30
0.0
 10
11.5362953042
 20
10.6552050138
 30
0.0
 10
11.5330237302
 20
10.6611852628
 30
0.0
 10
11.5290520144
 20
10.6666823315
 30
0.0
 10
11.5244981972
 20
10.6716616513
 30
0.0
 10
11.519469669
 20
10.6761118699
 30
0.0
 10
11.5158545935
 20
10.6787361495
 30
0.0
 10
11.5139976457
 20
10.679962341
 30
0.0
  0
SPLINE
  5
376
100
AcDbEntity
  8
0
100
AcDbSpline
 62
7
  6
CONTINUOUS
 70
0
 71
3
 72
23
 73
19
 74
0
 42
0.0000001
 43
0.0000001
 44
0.0000000001
 40
0.0
 40
0.0
 40
0.0
 40
0.0
 40
0.0608831982
 40
0.1222017021
 40
0.1839916941
 40
0.2463009957
 40
0.3091312834
 40
0.3724389016
 40
0.4361172361
 40
0.4999999958
 40
0.5638827564
 40
0.6275610921
 40
0.6908687143
 40
0.753699003
 40
0.8160083045
 40
0.8777982966
 40
0.9391168002
 40
1.0
 40
1.0
 40
1.0
 40
1.0
 10
11.5346384488
 20
10.5905196219
 30
0.0
 10
11.5364404032
 20
10.5917474774
 30
0.0
 10
11.5399488164
 20
10.5943763276
 30
0.0
 10
11.5448219656
 20
10.5988281227
 30
0.0
 10
11.5492344989
 20
10.6038088567
 30
0.0
 10
11.5530822211
 20
10.6093067705
 30
0.0
 10
11.5562507987
 20
10.6152867627
 30
0.0
 10
11.5586237643
 20
10.6216796883
 30
0.0
 10
11.5600969219
 20
10.6283785055
 30
0.0
 10
11.5605968764
 20
10.635240981
 30
0.0
 10
11.560096922
 20
10.6421034566
 30
0.0
 10
11.5586237645
 20
10.6488022741
 30
0.0
 10
11.5562507988
 20
10.6551951999
 30
0.0
 10
11.5530822212
 20
10.6611751923
 30
0.0
 10
11.5492344989
 20
10.6666731061
 30
0.0
 10
11.5448219658
 20
10.6716538401
 30
0.0
 10
11.5399488165
 20
10.6761056353
 30
0.0
 10
11.5364404032
 20
10.6787344855
 30
0.0
 10
11.5346384488
 20
10.679962341
 30
0.0
  0
SPLINE
  5
377
100
AcDbEntity
  8
0
100
AcDbSpline
 62
7
  6
CONTINUOUS
 70
0
 71
3
 72
23
 73
19
 74
0
 42
0.0000001
 43
0.0000001
 44
0.0000000001
 40
0.0
 40
0.0
 40
0.0
 40
0.0
 40
0.0600239496
 40
0.1207146007
 40
0.1821350971
 40
0.2443498291
 40
0.3073598747
 40
0.3710954939
 40
0.4353931132
 40
0.5000000032
 40
0.5646068906
 40
0.6289045067
 40
0.6926401255
 40
0.7556501704
 40
0.8178649022
 40
0.8792853985
 40
0.9399760496
 40
1.0
 40
1.0
 40
1.0
 40
1.0
 10
11.5513554191
 20
10.5905196219
 30
0.0
 10
11.5530884706
 20
10.5917496915
 30
0.0
 10
11.5564631266
 20
10.5943845369
 30
0.0
 10
11.5611415505
 20
10.5988382586
 30
0.0
 10
11.5653770324
 20
10.6038206382
 30
0.0
 10
11.5690694345
 20
10.6093194222
 30
0.0
 10
11.5721091092
 20
10.6152989013
 30
0.0
 10
11.574384706
 20
10.621689451
 30
0.0
 10
11.5757969495
 20
10.6283839987
 30
0.0
 10
11.5762761357
 20
10.6352409817
 30
0.0
 10
11.5757969494
 20
10.6420979646
 30
0.0
 10
11.5743847059
 20
10.6487925121
 30
0.0
 10
11.5721091091
 20
10.6551830617
 30
0.0
 10
11.5690694345
 20
10.6611625407
 30
0.0
 10
11.5653770325
 20
10.6666613247
 30
0.0
 10
11.5611415505
 20
10.6716437043
 30
0.0
 10
11.5564631266
 20
10.676097426
 30
0.0
 10
11.5530884707
 20
10.6787322714
 30
0.0
 10
11.5513554191
 20
10.679962341
 30
0.0
  0
SPLINE
  5
378
100
AcDbEntity
  8
0
100
AcDbSpline
 62
7
  6
CONTINUOUS
 70
0
 71
3
 72
23
 73
19
 74
0
 42
0.0000001
 43
0.0000001
 44
0.0000000001
 40
0.0
 40
0.0
 40
0.0
 40
0.0
 40
0.0589839239
 40
0.1189197322
 40
0.1799007705
 40
0.242008338
 40
0.3052395508
 40
0.3694908019
 40
0.4345293194
 40
0.4999999957
 40
0.5654706729
 40
0.6305091917
 40
0.6947604469
 40
0.7579916606
 40
0.8200992281
 40
0.8810802666
 40
0.9410160745
 40
1.0
 40
1.0
 40
1.0
 40
1.0
 10
11.5640139539
 20
10.5905196219
 30
0.0
 10
11.5656647076
 20
10.5917525362
 30
0.0
 10
11.5688794197
 20
10.5943949398
 30
0.0
 10
11.5733252389
 20
10.598850865
 30
0.0
 10
11.5773492591
 20
10.6038350005
 30
0.0
 10
11.5808562605
 20
10.6093345368
 30
0.0
 10
11.5837422399
 20
10.6153131318
 30
0.0
 10
11.585901922
 20
10.6217007186
 30
0.0
 10
11.5872417664
 20
10.6283902721
 30
0.0
 10
11.5876962944
 20
10.6352409811
 30
0.0
 10
11.5872417665
 20
10.6420916901
 30
0.0
 10
11.5859019222
 20
10.6487812438
 30
0.0
 10
11.58374224
 20
10.6551688308
 30
0.0
 10
11.5808562606
 20
10.661147426
 30
0.0
 10
11.5773492591
 20
10.6666469623
 30
0.0
 10
11.573325239
 20
10.6716310978
 30
0.0
 10
11.5688794198
 20
10.676087023
 30
0.0
 10
11.5656647077
 20
10.6787294267
 30
0.0
 10
11.5640139539
 20
10.679962341
 30
0.0
  0
SPLINE
  5
379
100
AcDbEntity
  8
0
100
AcDbSpline
 62
7
  6
CONTINUOUS
 70
0
 71
3
 72
23
 73
19
 74
0
 42
0.0000001
 43
0.0000001
 44
0.0000000001
 40
0.0
 40
0.0
 40
0.0
 40
0.0
 40
0.0577673806
 40
0.1168275309
 40
0.1773054398
 40
0.2392976613
 40
0.3027922617
 40
0.3676430801
 40
0.433536247
 40
0.4999999956
 40
0.5664637452
 40
0.6323569134
 40
0.697207736
 40
0.7607023374
 40
0.8226945588
 40
0.8831724679
 40
0.9422326179
 40
1.0
 40
1.0
 40
1.0
 40
1.0
 10
11.5725121285
 20
10.5905196219
 30
0.0
 10
11.5740677844
 20
10.5917561126
 30
0.0
 10
11.5770974079
 20
10.5944077918
 30
0.0
 10
11.5812745036
 20
10.5988660825
 30
0.0
 10
11.5850542956
 20
10.603851922
 30
0.0
 10
11.5883473347
 20
10.6093519241
 30
0.0
 10
11.5910561761
 20
10.6153291488
 30
0.0
 10
11.5930824924
 20
10.6217131782
 30
0.0
 10
11.594339177
 20
10.6283971294
 30
0.0
 10
11.5947654118
 20
10.6352409811
 30
0.0
 10
11.5943391771
 20
10.6420848328
 30
0.0
 10
11.5930824926
 20
10.6487687842
 30
0.0
 10
11.5910561762
 20
10.6551528138
 30
0.0
 10
11.5883473349
 20
10.6611300387
 30
0.0
 10
11.5850542957
 20
10.6666300408
 30
0.0
 10
11.5812745037
 20
10.6716158804
 30
0.0
 10
11.5770974079
 20
10.6760741711
 30
0.0
 10
11.5740677844
 20
10.6787258503
 30
0.0
 10
11.5725121285
 20
10.679962341
 30
0.0
  0
SPLINE
  5
37A
100
AcDbEntity
  8
0
100
AcDbSpline
 62
7
  6
CONTINUOUS
 70
0
 71
3
 72
23
 73
19
 74
0
 42
0.0000001
 43
0.0000001
 44
0.0000000001
 40
0.0
 40
0.0
 40
0.0
 40
0.0
 40
0.0563835058
 40
0.1144574661
 40
0.1743775218
 40
0.2362514349
 40
0.3000513295
 40
0.3655791479
 40
0.4324288573
 40
0.4999999955
 40
0.5675711348
 40
0.6344208456
 40
0.6999486682
 40
0.7637485638
 40
0.8256224769
 40
0.8855425327
 40
0.9436164926
 40
1.0
 40
1.0
 40
1.0
 40
1.0
 10
11.5767815167
 20
10.5905196219
 30
0.0
 10
11.57822993
 20
10.5917605416
 30
0.0
 10
11.5810504608
 20
10.5944233634
 30
0.0
 10
11.5849247701
 20
10.5988840119
 30
0.0
 10
11.5884295077
 20
10.6038712983
 30
0.0
 10
11.5914818185
 20
10.6093712966
 30
0.0
 10
11.5939916593
 20
10.6153465656
 30
0.0
 10
11.5958684141
 20
10.6217264676
 30
0.0
 10
11.597031992
 20
10.6284043528
 30
0.0
 10
11.5974265805
 20
10.6352409811
 30
0.0
 10
11.5970319921
 20
10.6420776094
 30
0.0
 10
11.5958684143
 20
10.6487554948
 30
0.0
 10
11.5939916594
 20
10.655135397
 30
0.0
 10
11.5914818186
 20
10.6611106662
 30
0.0
 10
11.5884295077
 20
10.6666106645
 30
0.0
 10
11.5849247702
 20
10.671597951
 30
0.0
 10
11.5810504609
 20
10.6760585995
 30
0.0
 10
11.5782299301
 20
10.6787214213
 30
0.0
 10
11.5767815167
 20
10.679962341
 30
0.0
  0
SPLINE
  5
37B
100
AcDbEntity
  8
0
100
AcDbSpline
 62
9
  6
CONTINUOUS
 70
0
 71
3
 72
33
 73
29
 74
0
 42
0.0000001
 43
0.0000001
 44
0.0000000001
 40
0.0
 40
0.0
 40
0.0
 40
0.0
 40
0.0739895519
 40
0.1462194493
 40
0.216559555
 40
0.2849245089
 40
0.3512827899
 40
0.4156615012
 40
0.4471436398
 40
0.4781703977
 40
0.508763499
 40
0.5389488254
 40
0.5687564219
 40
0.5982203072
 40
0.6273782444
 40
0.6562715112
 40
0.6849444927
 40
0.7134442213
 40
0.7418198917
 40
0.770122261
 40
0.7984030143
 40
0.8267141153
 40
0.8551071412
 40
0.8836326316
 40
0.9123394466
 40
0.9412742146
 40
0.9704808355
 40
1.0
 40
1.0
 40
1.0
 40
1.0
 10
12.0484360611
 20
2.874667227
 30
0.0
 10
12.0974602857
 20
2.8946812829
 30
0.0
 10
12.1930262323
 20
2.9375679679
 30
0.0
 10
12.3295832212
 20
3.0111546465
 30
0.0
 10
12.4567714803
 20
3.0927574431
 30
0.0
 10
12.5736513261
 20
3.1817896076
 30
0.0
 10
12.6793586502
 20
3.2776049315
 30
0.0
 10
12.7580834655
 20
3.3631860519
 30
0.0
 10
12.8145543028
 20
3.4343416955
 30
0.0
 10
12.8533498571
 20
3.4885488254
 30
0.0
 10
12.8888240255
 20
3.5438861228
 30
0.0
 10
12.9209115116
 20
3.6002535245
 30
0.0
 10
12.9495523899
 20
3.6575470706
 30
0.0
 10
12.9746931898
 20
3.7156614822
 30
0.0
 10
12.9962862424
 20
3.7744898563
 30
0.0
 10
13.0142911258
 20
3.8339234999
 30
0.0
 10
13.028673886
 20
3.8938525158
 30
0.0
 10
13.0394067905
 20
3.9541659853
 30
0.0
 10
13.0464697241
 20
4.0147519234
 30
0.0
 10
13.0498493483
 20
4.0754978024
 30
0.0
 10
13.0495387634
 20
4.1362907067
 30
0.0
 10
13.0455388736
 20
4.1970175694
 30
0.0
 10
13.0378574563
 20
4.2575655374
 30
0.0
 10
13.0265086963
 20
4.3178221321
 30
0.0
 10
13.0115145526
 20
4.3776754546
 30
0.0
 10
12.9929033385
 20
4.4370153264
 30
0.0
 10
12.9707108613
 20
4.4957296767
 30
0.0
 10
12.9536518386
 20
4.5341682936
 30
0.0
 10
12.9445570361
 20
4.5532364216
 30
0.0
  0
SPLINE
  5
37C
100
AcDbEntity
  8
0
100
AcDbSpline
 62
7
  6
CONTINUOUS
 70
0
 71
3
 72
50
 73
46
 74
0
 42
0.0000001
 43
0.0000001
 44
0.0000000001
 40
0.0
 40
0.0
 40
0.0
 40
0.0
 40
0.0608378931
 40
0.1217096035
 40
0.1521713519
 40
0.1826598323
 40
0.2131868194
 40
0.2437700773
 40
0.2744356811
 40
0.3052227516
 40
0.3361920971
 40
0.3674413475
 40
0.3832262539
 40
0.3991522645
 40
0.4152581548
 40
0.4315931636
 40
0.448213153
 40
0.4651647789
 40
0.473776352
 40
0.4824647429
 40
0.4912110105
 40
0.4999889859
 40
0.5087671806
 40
0.5175133909
 40
0.5262014305
 40
0.534813702
 40
0.5517651732
 40
0.5683853612
 40
0.584720866
 40
0.6008269158
 40
0.6167526125
 40
0.6325375924
 40
0.648211628
 40
0.6637974956
 40
0.6793136988
 40
0.694773136
 40
0.7101873562
 40
0.7255640856
 40
0.7562297549
 40
0.7868132037
 40
0.8173402606
 40
0.8478285903
 40
0.878290467
 40
0.9391621575
 40
1.0
 40
1.0
 40
1.0
 40
1.0
 10
10.6410677053
 20
11.5636798072
 30
0.0
 10
10.6323229849
 20
11.5640462772
 30
0.0
 10
10.6148361451
 20
11.56497908
 30
0.0
 10
10.5930167126
 20
11.566830222
 30
0.0
 10
10.5756108044
 20
11.5688906326
 30
0.0
 10
10.5625854346
 20
11.5707831306
 30
0.0
 10
10.5496084263
 20
11.5730895312
 30
0.0
 10
10.5367020681
 20
11.5758917431
 30
0.0
 10
10.5239000058
 20
11.5792931042
 30
0.0
 10
10.5112534592
 20
11.5834271519
 30
0.0
 10
10.4988465068
 20
11.5884702823
 30
0.0
 10
10.4888502503
 20
11.5936196879
 30
0.0
 10
10.4811927837
 20
11.5984683585
 30
0.0
 10
10.475646583
 20
11.602549263
 30
0.0
 10
10.4703948276
 20
11.6071281567
 30
0.0
 10
10.4655510875
 20
11.6122812993
 30
0.0
 10
10.4612857363
 20
11.6180816277
 30
0.0
 10
10.4584321184
 20
11.6234710707
 30
0.0
 10
10.4567159392
 20
11.6280967381
 30
0.0
 10
10.4557512349
 20
11.6317239925
 30
0.0
 10
10.4551544873
 20
11.6354543408
 30
0.0
 10
10.4549519755
 20
11.6392400696
 30
0.0
 10
10.4551540174
 20
11.6430258388
 30
0.0
 10
10.4557509939
 20
11.6467561279
 30
0.0
 10
10.4567154667
 20
11.650383468
 30
0.0
 10
10.4584312035
 20
11.6550093396
 30
0.0
 10
10.4612848114
 20
11.6603989225
 30
0.0
 10
10.4655499549
 20
11.6661994957
 30
0.0
 10
10.4703937809
 20
11.6713527372
 30
0.0
 10
10.4756456471
 20
11.6759316064
 30
0.0
 10
10.4811915241
 20
11.6800127446
 30
0.0
 10
10.4869546372
 20
11.6836626156
 30
0.0
 10
10.4928814108
 20
11.6869377707
 30
0.0
 10
10.4989332633
 20
11.6898864807
 30
0.0
 10
10.5050833612
 20
11.6925460418
 30
0.0
 10
10.5113102499
 20
11.6949515596
 30
0.0
 10
10.5175991143
 20
11.6971286164
 30
0.0
 10
10.5260416197
 20
11.6997583045
 30
0.0
 10
10.53670099
 20
11.7025900688
 30
0.0
 10
10.5496071608
 20
11.7053921895
 30
0.0
 10
10.5625842843
 20
11.7076983848
 30
0.0
 10
10.5756095657
 20
11.7095914233
 30
0.0
 10
10.593015527
 20
11.7116513938
 30
0.0
 10
10.6148349059
 20
11.7135032327
 30
0.0
 10
10.632321773
 20
11.7144353278
 30
0.0
 10
10.6410664675
 20
11.7148022437
 30
0.0
  0
SPLINE
  5
37D
100
AcDbEntity
  8
0
100
AcDbSpline
 62
7
  6
CONTINUOUS
 70
0
 71
3
 72
17
 73
13
 74
0
 42
0.0000001
 43
0.0000001
 44
0.0000000001
 40
0.0
 40
0.0
 40
0.0
 40
0.0
 40
0.2492946759
 40
0.3740103402
 40
0.4988017875
 40
0.5612374626
 40
0.6237103535
 40
0.6862286319
 40
0.7488033235
 40
0.8114539272
 40
0.874200073
 40
1.0
 40
1.0
 40
1.0
 40
1.0
 10
11.4535708292
 20
11.7148023685
 30
0.0
 10
11.4638594702
 20
11.7143701719
 30
0.0
 10
11.4792892561
 20
11.7135199329
 30
0.0
 10
11.4998209578
 20
11.7117773852
 30
0.0
 10
11.5126323539
 20
11.7103805189
 30
0.0
 10
11.5228588019
 20
11.7090330975
 30
0.0
 10
11.5305175321
 20
11.7078972663
 30
0.0
 10
11.5381601182
 20
11.7066214316
 30
0.0
 10
11.5457822745
 20
11.7051880473
 30
0.0
 10
11.5533795286
 20
11.7035804521
 30
0.0
 10
11.5634748176
 20
11.7011798978
 30
0.0
 10
11.5709742831
 20
11.6990522327
 30
0.0
 10
11.5759196088
 20
11.6974562905
 30
0.0
  0
ELLIPSE
  5
37E
100
AcDbEntity
  8
0
100
AcDbEllipse
 62
7
  6
CONTINUOUS
 10
11.0473183383
 20
5.8410708879
 30
0.0
 11
0.4522967215
 21
0.1611958191
 31
0.0
 40
0.084133201
 41
4.9269927592
 42
5.4850315861
  0
ENDSEC
  0
SECTION
  2
OBJECTS
  0
DICTIONARY
  5
C
100
AcDbDictionary
280
0
281
1
  3
ACAD_GROUP
350
D
  3
ACAD_MLINESTYLE
350
17
  3
ACAD_LAYOUT
350
1A
  3
ACAD_PLOTSETTINGS
350
19
  3
ACAD_PLOTSTYLENAME
350
E
  0
DICTIONARY
  5
D
102
{ACAD_REACTORS
330
C
102
}
100
AcDbDictionary
280
0
281
1
  0
ACDBDICTIONARYWDFLT
  5
E
102
{ACAD_REACTORS
330
C
102
}
100
AcDbDictionary
281
1
  3
Normal
350
F
100
AcDbDictionaryWithDefault
340
F
  0
DICTIONARY
  5
17
102
{ACAD_REACTORS
330
C
102
}
100
AcDbDictionary
280
0
281
1
  3
Standard
350
18
  0
DICTIONARY
  5
19
102
{ACAD_REACTORS
330
C
102
}
100
AcDbDictionary
281
1
  0
DICTIONARY
  5
1A
102
{ACAD_REACTORS
330
C
102
}
100
AcDbDictionary
281
1
  3
Model
350
37F
  3
Layout1
350
380
  0
ACDBPLACEHOLDER
  5
F
102
{ACAD_REACTORS
330
E
102
}
  0
MLINESTYLE
  5
18
102
{ACAD_REACTORS
330
17
102
}
100
AcDbMlineStyle
  2
STANDARD
 70
0
  3

 62
256
 51
90.0
 52
90.0
 71
2
 49
0.5
 62
256
  6
BYLAYER
 49
-0.5
 62
256
  6
BYLAYER
  0
LAYOUT
  5
37F
102
{ACAD_REACTORS
330
1A
102
}
100
AcDbPlotSettings
  1

  2
none_device
  4
ANSI_C_(22.00_x_17.00_Inches)
  6

 40
0.0
 41
0.0
 42
0.0
 43
0.0
 44
558.8
 45
431.8
 46
0.0
 47
0.0
 48
0.0
 49
0.0
140
0.0
141
0.0
142
1.0
143
1.0
 70
1024
 72
0
 73
0
 74
0
  7

 75
0
147
1.0
148
0.0
149
0.0
100
AcDbLayout
  1
Model
 70
0
 71
0
 10
0.0
 20
0.0
 11
22.0
 21
17.0
 12
0.0
 22
0.0
 32
0.0
 14
0.0
 24
0.0
 34
0.0
 15
0.0
 25
0.0
 35
0.0
146
0.0
 13
0.0
 23
0.0
 33
0.0
 16
1.0
 26
0.0
 36
0.0
 17
0.0
 27
1.0
 37
0.0
 76
0
330
205
345
0
346
0
  0
LAYOUT
  5
380
102
{ACAD_REACTORS
330
1A
102
}
100
AcDbPlotSettings
  1

  2
none_device
  4
ANSI_C_(22.00_x_17.00_Inches)
  6

 40
0.0
 41
0.0
 42
0.0
 43
0.0
 44
558.8
 45
431.8
 46
0.0
 47
0.0
 48
0.0
 49
0.0
140
0.0
141
0.0
142
1.0
143
1.0
 70
0
 72
0
 73
0
 74
0
  7

 75
0
147
1.0
148
0.0
149
0.0
100
AcDbLayout
  1
Layout1
 70
0
 71
1
 10
0.0
 20
0.0
 11
22.0
 21
17.0
 12
0.0
 22
0.0
 32
0.0
 14
0.0
 24
0.0
 34
0.0
 15
0.0
 25
0.0
 35
0.0
146
0.0
 13
0.0
 23
0.0
 33
0.0
 16
1.0
 26
0.0
 36
0.0
 17
0.0
 27
1.0
 37
0.0
 76
0
330
206
345
0
346
0
  0
ENDSEC
  0
EOF
