999
DXF file: 3-1765_FRONT.dxf
999
Pro/ENGINEER 2018400 by Parametric Technology Corporation
  0
SECTION
  2
HEADER
  9
$ACADVER
  1
AC1027
  9
$DWGCODEPAGE
  3
ANSI_1252
  9
$EXTMAX
 10
11.0
 20
8.5
 30
0.0
  9
$EXTMIN
 10
0.0
 20
0.0
 30
0.0
  9
$LIMMIN
 10
0.0
 20
0.0
  9
$LIMMAX
 10
11.0
 20
8.5
  9
$VIEWCTR
 10
5.5
 20
4.25
  9
$VIEWSIZE
 40
8.5
  9
$CLAYER
  8
0
  9
$LTSCALE
 40
0.605
  9
$CELTYPE
  6
BYLAYER
  9
$DIMSCALE
 40
1.0
  9
$DIMASZ
 40
0.1
  9
$DIMEXO
 40
0.0625
  9
$DIMDLI
 40
0.418
  9
$DIMEXE
 40
0.125
  9
$DIMCEN
 40
0.099
  9
$DIMLFAC
 40
1.0
  9
$DIMBLK
  1
_FILLED
  9
$DIMALT
 70
1
  9
$DIMALTD
 70
2
  9
$DIMALTTD
 70
2
  9
$DIMALTF
 40
25.4
  9
$DIMTXT
 40
0.08
  9
$DIMTOL
 70
1
  9
$DIMLIM
 70
0
  9
$DIMTFAC
 40
1.0
  9
$DIMTP
 40
0.001
  9
$DIMTM
 40
0.001
  9
$DIMGAP
 40
0.09
  9
$DIMDSEP
 70
46
  9
$AUNITS
 70
0
  9
$PDMODE
 70
3
  9
$PDSIZE
 40
0.3125
  9
$HANDSEED
  5
4BE
  9
$TILEMODE
 70
1
  9
$MEASUREMENT
 70
0
  9
$INSUNITS
 70
1
  0
ENDSEC
  0
SECTION
  2
CLASSES
  0
CLASS
  1
ACDBDICTIONARYWDFLT
  2
AcDbDictionaryWithDefault
  3
AutoCAD 2000
 90
0
 91
1
280
0
281
0
  0
CLASS
  1
ACDBPLACEHOLDER
  2
AcDbPlaceHolder
  3
AutoCAD 2000
 90
0
 91
1
280
0
281
0
  0
CLASS
  1
LAYOUT
  2
AcDbLayout
  3
AutoCAD 2000
 90
0
 91
0
280
0
281
0
  0
ENDSEC
  0
SECTION
  2
TABLES
  0
TABLE
  2
VPORT
  5
8
100
AcDbSymbolTable
 70
2
  0
VPORT
  5
1F4
100
AcDbSymbolTableRecord
100
AcDbViewportTableRecord
  2
*ACTIVE
 70
0
 10
0.0
 20
0.0
 11
1.0
 21
1.0
 12
5.5
 22
4.25
 13
0.0
 23
0.0
 14
1.0
 24
1.0
 15
0.0
 25
0.0
 16
0.0
 26
0.0
 36
1.0
 17
0.0
 27
0.0
 37
0.0
 40
8.5
 41
1.2941176471
 42
50.0
 43
0.0
 44
0.0
 50
0.0
 51
0.0
 71
0
 72
100
 73
1
 74
1
 75
0
 76
0
 77
0
 78
0
  0
ENDTAB
  0
TABLE
  2
LTYPE
  5
5
100
AcDbSymbolTable
 70
6
  0
LTYPE
  5
14
100
AcDbSymbolTableRecord
100
AcDbLinetypeTableRecord
  2
BYBLOCK
 70
0
  3

 72
65
 73
0
 40
0.0
  0
LTYPE
  5
15
100
AcDbSymbolTableRecord
100
AcDbLinetypeTableRecord
  2
BYLAYER
 70
0
  3

 72
65
 73
0
 40
0.0
  0
LTYPE
  5
16
100
AcDbSymbolTableRecord
100
AcDbLinetypeTableRecord
  2
CONTINUOUS
 70
64
  3
Solid line
 72
65
 73
0
 40
0.0
  0
LTYPE
  5
1F5
100
AcDbSymbolTableRecord
100
AcDbLinetypeTableRecord
  2
CENTER
 70
64
  3
____ _ ____ _ ____ _ ____ _ ____ _ ____ _ ____
 72
65
 73
4
 40
0.6
 49
0.375
 74
0
 49
-0.075
 74
0
 49
0.075
 74
0
 49
-0.075
 74
0
  0
LTYPE
  5
1F6
100
AcDbSymbolTableRecord
100
AcDbLinetypeTableRecord
  2
HIDDEN
 70
64
  3
- - - - - - - - - - - - - - - - - - - -
 72
65
 73
2
 40
0.2
 49
0.1
 74
0
 49
-0.1
 74
0
  0
LTYPE
  5
1F7
100
AcDbSymbolTableRecord
100
AcDbLinetypeTableRecord
  2
PHANTOM
 70
64
  3
_____ _ _ _____ _ _ _____ _ _ _____
 72
65
 73
6
 40
0.8
 49
0.45
 74
0
 49
-0.05
 74
0
 49
0.1
 74
0
 49
-0.05
 74
0
 49
0.1
 74
0
 49
-0.05
 74
0
  0
LTYPE
  5
1F8
100
AcDbSymbolTableRecord
100
AcDbLinetypeTableRecord
  2
DOT
 70
64
  3
. . . . . . . . . . . . . . . . . . . .
 72
65
 73
2
 40
0.2
 49
0.1
 74
0
 49
-0.1
 74
0
  0
LTYPE
  5
1F9
100
AcDbSymbolTableRecord
100
AcDbLinetypeTableRecord
  2
DASHED
 70
64
  3
- - - - - - - - - - - - - - - - - - - -
 72
65
 73
2
 40
0.2
 49
0.1
 74
0
 49
-0.1
 74
0
  0
ENDTAB
  0
TABLE
  2
LAYER
  5
2
100
AcDbSymbolTable
 70
36
  0
LAYER
  5
10
100
AcDbSymbolTableRecord
100
AcDbLayerTableRecord
  2
0
 70
0
 62
7
  6
CONTINUOUS
370
-3
390
F
  0
LAYER
  5
1FA
100
AcDbSymbolTableRecord
100
AcDbLayerTableRecord
  2
DEFAULT_1
 70
0
 62
7
  6
CENTER
370
-3
390
F
  0
LAYER
  5
1FB
100
AcDbSymbolTableRecord
100
AcDbLayerTableRecord
  2
DEFAULT_2
 70
0
 62
8
  6
HIDDEN
370
-3
390
F
  0
LAYER
  5
1FC
100
AcDbSymbolTableRecord
100
AcDbLayerTableRecord
  2
DEFAULT_3
 70
0
 62
7
  6
PHANTOM
370
-3
390
F
  0
LAYER
  5
1FD
100
AcDbSymbolTableRecord
100
AcDbLayerTableRecord
  2
3-985_ASSY_PLANES
 70
0
 62
7
  6
CONTINUOUS
370
-3
390
F
  0
LAYER
  5
1FE
100
AcDbSymbolTableRecord
100
AcDbLayerTableRecord
  2
ALL_ASSEMBLY_MEMBERS
 70
0
 62
7
  6
CONTINUOUS
370
-3
390
F
  0
LAYER
  5
1FF
100
AcDbSymbolTableRecord
100
AcDbLayerTableRecord
  2
ALL_FEATURES
 70
0
 62
7
  6
CONTINUOUS
370
-3
390
F
  0
LAYER
  5
200
100
AcDbSymbolTableRecord
100
AcDbLayerTableRecord
  2
AXES_FEATURES
 70
0
 62
7
  6
CONTINUOUS
370
-3
390
F
  0
LAYER
  5
201
100
AcDbSymbolTableRecord
100
AcDbLayerTableRecord
  2
CHAMFER_FEATURES
 70
0
 62
7
  6
CONTINUOUS
370
-3
390
F
  0
LAYER
  5
202
100
AcDbSymbolTableRecord
100
AcDbLayerTableRecord
  2
CURVE2
 70
0
 62
7
  6
CONTINUOUS
370
-3
390
F
  0
LAYER
  5
203
100
AcDbSymbolTableRecord
100
AcDbLayerTableRecord
  2
CUT_FEATURES
 70
0
 62
7
  6
CONTINUOUS
370
-3
390
F
  0
LAYER
  5
204
100
AcDbSymbolTableRecord
100
AcDbLayerTableRecord
  2
DATUM_CURVES
 70
0
 62
7
  6
CONTINUOUS
370
-3
390
F
  0
LAYER
  5
205
100
AcDbSymbolTableRecord
100
AcDbLayerTableRecord
  2
DATUM_PLANES
 70
0
 62
7
  6
CONTINUOUS
370
-3
390
F
  0
LAYER
  5
206
100
AcDbSymbolTableRecord
100
AcDbLayerTableRecord
  2
DATUM_POINTS
 70
0
 62
7
  6
CONTINUOUS
370
-3
390
F
  0
LAYER
  5
207
100
AcDbSymbolTableRecord
100
AcDbLayerTableRecord
  2
DEFAULT_COORDINATE_SYSTEM
 70
0
 62
7
  6
CONTINUOUS
370
-3
390
F
  0
LAYER
  5
208
100
AcDbSymbolTableRecord
100
AcDbLayerTableRecord
  2
DEFAULT_DATUM_AXES
 70
0
 62
7
  6
CONTINUOUS
370
-3
390
F
  0
LAYER
  5
209
100
AcDbSymbolTableRecord
100
AcDbLayerTableRecord
  2
DEFAULT_DATUM_PLANES
 70
0
 62
7
  6
CONTINUOUS
370
-3
390
F
  0
LAYER
  5
20A
100
AcDbSymbolTableRecord
100
AcDbLayerTableRecord
  2
DEFAULT_SURFACES
 70
0
 62
7
  6
CONTINUOUS
370
-3
390
F
  0
LAYER
  5
20B
100
AcDbSymbolTableRecord
100
AcDbLayerTableRecord
  2
DIMENSIONS
 70
0
 62
7
  6
CONTINUOUS
370
-3
390
F
  0
LAYER
  5
20C
100
AcDbSymbolTableRecord
100
AcDbLayerTableRecord
  2
HOLE_FEATURES
 70
0
 62
7
  6
CONTINUOUS
370
-3
390
F
  0
LAYER
  5
20D
100
AcDbSymbolTableRecord
100
AcDbLayerTableRecord
  2
NOTES
 70
0
 62
7
  6
CONTINUOUS
370
-3
390
F
  0
LAYER
  5
20E
100
AcDbSymbolTableRecord
100
AcDbLayerTableRecord
  2
PART_REFERENCE_DIMENSIONS
 70
0
 62
7
  6
CONTINUOUS
370
-3
390
F
  0
LAYER
  5
20F
100
AcDbSymbolTableRecord
100
AcDbLayerTableRecord
  2
POINTS
 70
0
 62
7
  6
CONTINUOUS
370
-3
390
F
  0
LAYER
  5
210
100
AcDbSymbolTableRecord
100
AcDbLayerTableRecord
  2
PROTRUSION_FEATURES
 70
0
 62
7
  6
CONTINUOUS
370
-3
390
F
  0
LAYER
  5
211
100
AcDbSymbolTableRecord
100
AcDbLayerTableRecord
  2
QUILT
 70
0
 62
7
  6
CONTINUOUS
370
-3
390
F
  0
LAYER
  5
212
100
AcDbSymbolTableRecord
100
AcDbLayerTableRecord
  2
QUILTS
 70
0
 62
7
  6
CONTINUOUS
370
-3
390
F
  0
LAYER
  5
213
100
AcDbSymbolTableRecord
100
AcDbLayerTableRecord
  2
REFERENCE_DIMENSIONS
 70
0
 62
7
  6
CONTINUOUS
370
-3
390
F
  0
LAYER
  5
214
100
AcDbSymbolTableRecord
100
AcDbLayerTableRecord
  2
ROUND_FEATURES
 70
0
 62
7
  6
CONTINUOUS
370
-3
390
F
  0
LAYER
  5
215
100
AcDbSymbolTableRecord
100
AcDbLayerTableRecord
  2
WETTED_SURFACES
 70
0
 62
7
  6
CONTINUOUS
370
-3
390
F
  0
LAYER
  5
216
100
AcDbSymbolTableRecord
100
AcDbLayerTableRecord
  2
XSEC_DATUMS
 70
0
 62
7
  6
CONTINUOUS
370
-3
390
F
  0
ENDTAB
  0
TABLE
  2
STYLE
  5
3
100
AcDbSymbolTable
 70
1
  0
STYLE
  5
11
100
AcDbSymbolTableRecord
100
AcDbTextStyleTableRecord
  2
STANDARD
 70
0
 40
0.0
 41
0.8
 50
0.0
 71
0
 42
0.2
  3
txt
  4

  0
STYLE
  5
217
100
AcDbSymbolTableRecord
100
AcDbTextStyleTableRecord
  2
TEXTSTYLE_1
 70
0
 40
0.0
 41
0.8
 50
0.0
 71
0
 42
0.2
  3
gdt
  4

  0
ENDTAB
  0
TABLE
  2
VIEW
  5
6
100
AcDbSymbolTable
 70
0
  0
ENDTAB
  0
TABLE
  2
UCS
  5
7
100
AcDbSymbolTable
 70
0
  0
ENDTAB
  0
TABLE
  2
APPID
  5
9
100
AcDbSymbolTable
 70
1
  0
APPID
  5
218
100
AcDbSymbolTableRecord
100
AcDbRegAppTableRecord
  2
ACAD
 70
0
  0
ENDTAB
  0
TABLE
  2
BLOCK_RECORD
  5
1
100
AcDbSymbolTable
 70
0
  0
BLOCK_RECORD
  5
219
100
AcDbSymbolTableRecord
100
AcDbBlockTableRecord
  2
*Model_Space
  0
BLOCK_RECORD
  5
21A
100
AcDbSymbolTableRecord
100
AcDbBlockTableRecord
  2
*Paper_Space
  0
BLOCK_RECORD
  5
21B
100
AcDbSymbolTableRecord
100
AcDbBlockTableRecord
  2
_FILLED
  0
ENDTAB
  0
TABLE
  2
DIMSTYLE
  5
A
100
AcDbSymbolTable
 70
1
100
AcDbDimStyleTable
 71
0
  0
DIMSTYLE
105
21C
100
AcDbSymbolTableRecord
100
AcDbDimStyleTableRecord
  2
STANDARD
 70
0
  3

  4

 40
1.0
 41
0.1
 42
0.0625
 43
0.38
 44
0.125
 45
0.0
 46
0.0
 47
0.001
 48
0.001
140
0.08
141
0.09
142
0.0
143
25.4
144
1.0
145
0.0
146
1.0
147
0.09
 71
1.0
 72
0.0
 73
1
 74
1
 75
0
 76
0
 77
0
 78
4
 79
1
170
1
171
2
172
0
173
0
174
0
175
0
176
0
177
0
178
0
270
2
179
3
271
3
272
3
273
2
274
2
275
0
280
0
281
0
282
0
283
1
284
4
285
0
286
0
287
3
288
0
340
11
278
46
341
21B
342
21B
343
21B
344
21B
  0
ENDTAB
  0
ENDSEC
  0
SECTION
  2
BLOCKS
  0
BLOCK
  5
20
100
AcDbEntity
  8
0
100
AcDbBlockBegin
  2
*Model_Space
 70
0
 10
0.0
 20
0.0
 30
0.0
  3
*Model_Space
  1

  0
ENDBLK
  5
21
100
AcDbEntity
  8
0
100
AcDbBlockEnd
  0
BLOCK
  5
1C
100
AcDbEntity
  8
0
100
AcDbBlockBegin
  2
*Paper_Space
 70
0
 10
0.0
 20
0.0
 30
0.0
  3
*Paper_Space
  1

  0
ENDBLK
  5
1D
100
AcDbEntity
  8
0
100
AcDbBlockEnd
  0
BLOCK
  5
21D
100
AcDbEntity
  8
0
100
AcDbBlockBegin
  2
_FILLED
 70
64
 10
0.0
 20
0.0
  3
_FILLED
  1

  0
SOLID
  5
21E
100
AcDbEntity
  8
0
  6
BYBLOCK
 62
0
100
AcDbTrace
 10
0.0
 20
0.0
 11
-1.0
 21
0.2
 12
-1.0
 22
-0.2
 13
-1.0
 23
-0.2
  0
ENDBLK
  5
21F
100
AcDbEntity
  8
0
  6
BYBLOCK
 62
0
100
AcDbBlockEnd
  0
ENDSEC
  0
SECTION
  2
ENTITIES
  0
MTEXT
  5
220
100
AcDbEntity
  8
0
100
AcDbMText
 62
2
  6
CONTINUOUS
  7
STANDARD
 71
3
 72
1
 10
2.6441420807
 20
1.0269669123
 30
0.0
 11
1.0
 21
0.0
 31
0.0
 73
2
 44
0.9
  1
SCALE  .500
 40
0.08
 41
0.704
  0
LINE
  5
221
100
AcDbEntity
  8
0
100
AcDbLine
 62
7
  6
CONTINUOUS
 10
0.0
 20
0.0
 11
0.0
 21
8.5
  0
LINE
  5
222
100
AcDbEntity
  8
0
100
AcDbLine
 62
7
  6
CONTINUOUS
 10
0.0
 20
0.0
 11
11.0
 21
0.0
  0
LINE
  5
223
100
AcDbEntity
  8
0
100
AcDbLine
 62
7
  6
CONTINUOUS
 10
0.0
 20
8.5
 11
11.0
 21
8.5
  0
LINE
  5
224
100
AcDbEntity
  8
0
100
AcDbLine
 62
7
  6
CONTINUOUS
 10
11.0
 20
0.0
 11
11.0
 21
8.5
  0
LINE
  5
225
100
AcDbEntity
  8
ALL_ASSEMBLY_MEMBERS
100
AcDbLine
 62
7
  6
CONTINUOUS
 10
3.0561313519
 20
6.6564222752
 11
3.2154190423
 21
6.8157099657
  0
LINE
  5
226
100
AcDbEntity
  8
ALL_ASSEMBLY_MEMBERS
100
AcDbLine
 62
7
  6
CONTINUOUS
 10
3.105476365
 20
6.647721418
 11
3.2241198995
 21
6.7663649525
  0
LINE
  5
227
100
AcDbEntity
  8
ALL_ASSEMBLY_MEMBERS
100
AcDbLine
 62
7
  6
CONTINUOUS
 10
3.1068458996
 20
6.6312879675
 11
3.24055335
 21
6.7649954179
  0
LINE
  5
228
100
AcDbEntity
  8
ALL_ASSEMBLY_MEMBERS
100
AcDbLine
 62
7
  6
CONTINUOUS
 10
3.1149906225
 20
6.6218517824
 11
3.2499895352
 21
6.7568506951
  0
LINE
  5
229
100
AcDbEntity
  8
ALL_ASSEMBLY_MEMBERS
100
AcDbLine
 62
7
  6
CONTINUOUS
 10
3.246263575
 20
6.4809041921
 11
3.2461327475
 21
6.4807516799
  0
LINE
  5
22A
100
AcDbEntity
  8
ALL_ASSEMBLY_MEMBERS
100
AcDbLine
 62
7
  6
CONTINUOUS
 10
3.2491184676
 20
6.4841660997
 11
3.2461327475
 21
6.4807516799
  0
LINE
  5
22B
100
AcDbEntity
  8
ALL_ASSEMBLY_MEMBERS
100
AcDbLine
 62
7
  6
CONTINUOUS
 10
3.3762899334
 20
6.6275526178
 11
3.2442886997
 21
6.4955513842
  0
LINE
  5
22C
100
AcDbEntity
  8
ALL_ASSEMBLY_MEMBERS
100
AcDbLine
 62
7
  6
CONTINUOUS
 10
3.3874205364
 20
6.6230137103
 11
3.3830866884
 21
6.6186798637
  0
LINE
  5
22D
100
AcDbEntity
  8
ALL_ASSEMBLY_MEMBERS
100
AcDbLine
 62
7
  6
CONTINUOUS
 10
3.2531614044
 20
6.4887545781
 11
3.2488276073
 21
6.4844207812
  0
LINE
  5
22E
100
AcDbEntity
  8
ALL_ASSEMBLY_MEMBERS
100
AcDbLine
 62
7
  6
CONTINUOUS
 10
3.6635499604
 20
6.6230137101
 11
3.6632761058
 21
6.6227398556
  0
LINE
  5
22F
100
AcDbEntity
  8
ALL_ASSEMBLY_MEMBERS
100
AcDbLine
 62
7
  6
CONTINUOUS
 10
3.2488276074
 20
6.2082913572
 11
3.2491014694
 21
6.2085652191
  0
LINE
  5
230
100
AcDbEntity
  8
ALL_ASSEMBLY_MEMBERS
100
AcDbLine
 62
7
  6
CONTINUOUS
 10
3.3910896376
 20
6.6257085701
 11
3.3873392774
 21
6.6224270831
  0
LINE
  5
231
100
AcDbEntity
  8
ALL_ASSEMBLY_MEMBERS
100
AcDbLine
 62
7
  6
CONTINUOUS
 10
3.3910896376
 20
6.6257085701
 11
3.390937259
 21
6.6255778425
  0
LINE
  5
232
100
AcDbEntity
  8
ALL_ASSEMBLY_MEMBERS
100
AcDbLine
 62
7
  6
CONTINUOUS
 10
3.4778861059
 20
6.7158030014
 11
3.3358777
 21
6.63381441
  0
LINE
  5
233
100
AcDbEntity
  8
ALL_ASSEMBLY_MEMBERS
100
AcDbLine
 62
7
  6
CONTINUOUS
 10
3.8021428895
 20
6.484420781
 11
3.8018690275
 21
6.4841469191
  0
LINE
  5
234
100
AcDbEntity
  8
ALL_ASSEMBLY_MEMBERS
100
AcDbLine
 62
7
  6
CONTINUOUS
 10
3.3874205365
 20
6.0696984281
 11
3.3876943911
 21
6.0699722826
  0
LINE
  5
235
100
AcDbEntity
  8
ALL_ASSEMBLY_MEMBERS
100
AcDbLine
 62
7
  6
CONTINUOUS
 10
3.2154190423
 20
5.8770021725
 11
3.2241198995
 21
5.9263471856
  0
LINE
  5
236
100
AcDbEntity
  8
ALL_ASSEMBLY_MEMBERS
100
AcDbLine
 62
7
  6
CONTINUOUS
 10
3.8047069219
 20
6.211807946
 11
3.8048377494
 21
6.2119604583
  0
LINE
  5
237
100
AcDbEntity
  8
ALL_ASSEMBLY_MEMBERS
100
AcDbLine
 62
7
  6
CONTINUOUS
 10
3.8018520292
 20
6.2085460385
 11
3.8048377494
 21
6.2119604583
  0
LINE
  5
238
100
AcDbEntity
  8
ALL_ASSEMBLY_MEMBERS
100
AcDbLine
 62
7
  6
CONTINUOUS
 10
3.6635499605
 20
6.0696984279
 11
3.6678838085
 21
6.0740322745
  0
LINE
  5
239
100
AcDbEntity
  8
ALL_ASSEMBLY_MEMBERS
100
AcDbLine
 62
7
  6
CONTINUOUS
 10
3.7978090925
 20
6.2039575601
 11
3.8021428896
 21
6.208291357
  0
LINE
  5
23A
100
AcDbEntity
  8
ALL_ASSEMBLY_MEMBERS
100
AcDbLine
 62
7
  6
CONTINUOUS
 10
3.6746805635
 20
6.0651595204
 11
3.8066817972
 21
6.197160754
  0
LINE
  5
23B
100
AcDbEntity
  8
ALL_ASSEMBLY_MEMBERS
100
AcDbLine
 62
7
  6
CONTINUOUS
 10
3.6598808593
 20
6.0670035681
 11
3.6636312195
 21
6.0702850551
  0
LINE
  5
23C
100
AcDbEntity
  8
ALL_ASSEMBLY_MEMBERS
100
AcDbLine
 62
7
  6
CONTINUOUS
 10
3.6598808593
 20
6.0670035681
 11
3.6600332379
 21
6.0671342956
  0
LINE
  5
23D
100
AcDbEntity
  8
ALL_ASSEMBLY_MEMBERS
100
AcDbLine
 62
7
  6
CONTINUOUS
 10
3.573084391
 20
5.9769091368
 11
3.7150927969
 21
6.0588977282
  0
LINE
  5
23E
100
AcDbEntity
  8
ALL_ASSEMBLY_MEMBERS
100
AcDbLine
 62
7
  6
CONTINUOUS
 10
5.3696132939
 20
1.602720554
 11
5.3904246367
 21
1.6063344057
  0
LINE
  5
23F
100
AcDbEntity
  8
ALL_ASSEMBLY_MEMBERS
100
AcDbLine
 62
7
  6
CONTINUOUS
 10
5.6238301315
 20
1.6468648446
 11
5.6285897156
 21
1.6476913377
  0
LINE
  5
240
100
AcDbEntity
  8
ALL_ASSEMBLY_MEMBERS
100
AcDbLine
 62
7
  6
CONTINUOUS
 10
5.3968591406
 20
1.6113809553
 11
5.4605716552
 21
1.6224445174
  0
LINE
  5
241
100
AcDbEntity
  8
ALL_ASSEMBLY_MEMBERS
100
AcDbLine
 62
7
  6
CONTINUOUS
 10
5.5310556959
 20
1.6346839426
 11
5.5947682106
 21
1.6457475047
  0
LINE
  5
242
100
AcDbEntity
  8
ALL_ASSEMBLY_MEMBERS
100
AcDbLine
 62
7
  6
CONTINUOUS
 10
5.5891113563
 20
1.6467298071
 11
5.5253988417
 21
1.6356662451
  0
LINE
  5
243
100
AcDbEntity
  8
ALL_ASSEMBLY_MEMBERS
100
AcDbLine
 62
7
  6
CONTINUOUS
 10
5.4549148009
 20
1.6234268198
 11
5.3912022863
 21
1.6123632578
  0
LINE
  5
244
100
AcDbEntity
  8
ALL_ASSEMBLY_MEMBERS
100
AcDbLine
 62
7
  6
CONTINUOUS
 10
5.5965255016
 20
1.6519464697
 11
5.5955458602
 21
1.6517763567
  0
LINE
  5
245
100
AcDbEntity
  8
ALL_ASSEMBLY_MEMBERS
100
AcDbLine
 62
7
  6
CONTINUOUS
 10
5.3621403654
 20
1.6112459179
 11
5.3413290226
 21
1.6076320661
  0
LINE
  5
246
100
AcDbEntity
  8
ALL_ASSEMBLY_MEMBERS
100
AcDbLine
 62
7
  6
CONTINUOUS
 10
5.3652256515
 20
1.61911414
 11
5.4484700635
 21
1.6251016966
  0
LINE
  5
247
100
AcDbEntity
  8
ALL_ASSEMBLY_MEMBERS
100
AcDbLine
 62
7
  6
CONTINUOUS
 10
5.5405619008
 20
1.6317256258
 11
5.6238063128
 21
1.6377131825
  0
LINE
  5
248
100
AcDbEntity
  8
ALL_ASSEMBLY_MEMBERS
100
AcDbLine
 62
7
  6
CONTINUOUS
 10
5.6207448454
 20
1.6389966225
 11
5.5375004333
 21
1.6330090658
  0
LINE
  5
249
100
AcDbEntity
  8
ALL_ASSEMBLY_MEMBERS
100
AcDbLine
 62
7
  6
CONTINUOUS
 10
5.4454085961
 20
1.6263851366
 11
5.3621641841
 21
1.62039758
  0
LINE
  5
24A
100
AcDbEntity
  8
ALL_ASSEMBLY_MEMBERS
100
AcDbLine
 62
7
  6
CONTINUOUS
 10
5.2985109571
 20
1.6255824177
 11
5.3279426403
 21
1.6255824177
  0
LINE
  5
24B
100
AcDbEntity
  8
ALL_ASSEMBLY_MEMBERS
100
AcDbLine
 62
7
  6
CONTINUOUS
 10
5.6580278566
 20
1.6255824177
 11
5.6874595398
 21
1.6255824177
  0
LINE
  5
24C
100
AcDbEntity
  8
ALL_ASSEMBLY_MEMBERS
100
AcDbLine
 62
7
  6
CONTINUOUS
 10
5.353042403
 20
1.6283607885
 11
5.4431455053
 21
1.6283607885
  0
LINE
  5
24D
100
AcDbEntity
  8
ALL_ASSEMBLY_MEMBERS
100
AcDbLine
 62
7
  6
CONTINUOUS
 10
5.5428249916
 20
1.6283607885
 11
5.6329280939
 21
1.6283607885
  0
LINE
  5
24E
100
AcDbEntity
  8
ALL_ASSEMBLY_MEMBERS
100
AcDbLine
 62
7
  6
CONTINUOUS
 10
5.6329280939
 20
1.6297499739
 11
5.5428249916
 21
1.6297499739
  0
LINE
  5
24F
100
AcDbEntity
  8
ALL_ASSEMBLY_MEMBERS
100
AcDbLine
 62
7
  6
CONTINUOUS
 10
5.4431455053
 20
1.6297499739
 11
5.353042403
 21
1.6297499739
  0
LINE
  5
250
100
AcDbEntity
  8
ALL_ASSEMBLY_MEMBERS
100
AcDbLine
 62
7
  6
CONTINUOUS
 10
5.6825737853
 20
1.6325283448
 11
5.6580278566
 21
1.6325283448
  0
LINE
  5
251
100
AcDbEntity
  8
ALL_ASSEMBLY_MEMBERS
100
AcDbLine
 62
7
  6
CONTINUOUS
 10
5.3279426403
 20
1.6325283448
 11
5.3033967116
 21
1.6325283448
  0
LINE
  5
252
100
AcDbEntity
  8
ALL_ASSEMBLY_MEMBERS
100
AcDbLine
 62
7
  6
CONTINUOUS
 10
5.3621641841
 20
1.6377131825
 11
5.4454085961
 21
1.6317256258
  0
LINE
  5
253
100
AcDbEntity
  8
ALL_ASSEMBLY_MEMBERS
100
AcDbLine
 62
7
  6
CONTINUOUS
 10
5.5375004333
 20
1.6251016966
 11
5.6207448454
 21
1.61911414
  0
LINE
  5
254
100
AcDbEntity
  8
ALL_ASSEMBLY_MEMBERS
100
AcDbLine
 62
7
  6
CONTINUOUS
 10
5.6238063128
 20
1.62039758
 11
5.5405619008
 21
1.6263851366
  0
LINE
  5
255
100
AcDbEntity
  8
ALL_ASSEMBLY_MEMBERS
100
AcDbLine
 62
7
  6
CONTINUOUS
 10
5.4484700635
 20
1.6330090658
 11
5.3652256515
 21
1.6389966225
  0
LINE
  5
256
100
AcDbEntity
  8
ALL_ASSEMBLY_MEMBERS
100
AcDbLine
 62
7
  6
CONTINUOUS
 10
5.3573807813
 20
1.6476913377
 11
5.3621403654
 21
1.6468648446
  0
LINE
  5
257
100
AcDbEntity
  8
ALL_ASSEMBLY_MEMBERS
100
AcDbLine
 62
7
  6
CONTINUOUS
 10
5.5955458602
 20
1.6063344057
 11
5.616357203
 21
1.602720554
  0
LINE
  5
258
100
AcDbEntity
  8
ALL_ASSEMBLY_MEMBERS
100
AcDbLine
 62
7
  6
CONTINUOUS
 10
5.3912022863
 20
1.6457475047
 11
5.4549148009
 21
1.6346839426
  0
LINE
  5
259
100
AcDbEntity
  8
ALL_ASSEMBLY_MEMBERS
100
AcDbLine
 62
7
  6
CONTINUOUS
 10
5.5253988417
 20
1.6224445174
 11
5.5891113563
 21
1.6113809553
  0
LINE
  5
25A
100
AcDbEntity
  8
ALL_ASSEMBLY_MEMBERS
100
AcDbLine
 62
7
  6
CONTINUOUS
 10
5.5947682106
 20
1.6123632578
 11
5.5310556959
 21
1.6234268198
  0
LINE
  5
25B
100
AcDbEntity
  8
ALL_ASSEMBLY_MEMBERS
100
AcDbLine
 62
7
  6
CONTINUOUS
 10
5.4605716552
 20
1.6356662451
 11
5.3968591406
 21
1.6467298071
  0
LINE
  5
25C
100
AcDbEntity
  8
ALL_ASSEMBLY_MEMBERS
100
AcDbLine
 62
7
  6
CONTINUOUS
 10
5.6446414743
 20
1.6076320661
 11
5.6238301315
 21
1.6112459179
  0
LINE
  5
25D
100
AcDbEntity
  8
ALL_ASSEMBLY_MEMBERS
100
AcDbLine
 62
7
  6
CONTINUOUS
 10
5.3904246367
 20
1.6517763567
 11
5.3894449953
 21
1.6519464697
  0
LINE
  5
25E
100
AcDbEntity
  8
ALL_ASSEMBLY_MEMBERS
100
AcDbLine
 62
7
  6
CONTINUOUS
 10
3.1817352484
 20
6.4898600332
 11
3.1817352484
 21
6.2028522919
  0
LINE
  5
25F
100
AcDbEntity
  8
ALL_ASSEMBLY_MEMBERS
100
AcDbLine
 62
7
  6
CONTINUOUS
 10
3.8009809617
 20
5.9358614431
 11
3.9359798744
 21
6.0708603558
  0
LINE
  5
260
100
AcDbEntity
  8
ALL_ASSEMBLY_MEMBERS
100
AcDbLine
 62
7
  6
CONTINUOUS
 10
3.8104171469
 20
5.9277167203
 11
3.9441245973
 21
6.0614241706
  0
LINE
  5
261
100
AcDbEntity
  8
ALL_ASSEMBLY_MEMBERS
100
AcDbLine
 62
7
  6
CONTINUOUS
 10
3.8268505974
 20
5.9263471856
 11
3.9454941319
 21
6.0449907202
  0
LINE
  5
262
100
AcDbEntity
  8
ALL_ASSEMBLY_MEMBERS
100
AcDbLine
 62
7
  6
CONTINUOUS
 10
3.8355514546
 20
5.8770021725
 11
3.994839145
 21
6.036289863
  0
LINE
  5
263
100
AcDbEntity
  8
ALL_ASSEMBLY_MEMBERS
100
AcDbLine
 62
7
  6
CONTINUOUS
 10
5.4357359219
 20
1.6512406024
 11
5.4702168863
 21
1.636785362
  0
LINE
  5
264
100
AcDbEntity
  8
ALL_ASSEMBLY_MEMBERS
100
AcDbLine
 62
7
  6
CONTINUOUS
 10
5.5083625743
 20
1.6207937823
 11
5.5428435388
 21
1.6063385418
  0
LINE
  5
265
100
AcDbEntity
  8
ALL_ASSEMBLY_MEMBERS
100
AcDbLine
 62
7
  6
CONTINUOUS
 10
5.550234575
 20
1.60687016
 11
5.5157536106
 21
1.6213254005
  0
LINE
  5
266
100
AcDbEntity
  8
ALL_ASSEMBLY_MEMBERS
100
AcDbLine
 62
7
  6
CONTINUOUS
 10
5.4776079226
 20
1.6373169802
 11
5.4431269581
 21
1.6517722207
  0
LINE
  5
267
100
AcDbEntity
  8
ALL_ASSEMBLY_MEMBERS
100
AcDbLine
 62
7
  6
CONTINUOUS
 10
3.8355514546
 20
6.8157099657
 11
3.8268505974
 21
6.7663649525
  0
LINE
  5
268
100
AcDbEntity
  8
ALL_ASSEMBLY_MEMBERS
100
AcDbLine
 62
7
  6
CONTINUOUS
 10
5.2546140839
 20
1.971881245
 11
5.2549792464
 21
1.971967725
  0
LINE
  5
269
100
AcDbEntity
  8
ALL_ASSEMBLY_MEMBERS
100
AcDbLine
 62
7
  6
CONTINUOUS
 10
5.2546038847
 20
1.9718825982
 11
5.2549792464
 21
1.971967725
  0
LINE
  5
26A
100
AcDbEntity
  8
ALL_ASSEMBLY_MEMBERS
100
AcDbLine
 62
7
  6
CONTINUOUS
 10
5.0814150341
 20
2.4777584605
 11
5.2429852484
 21
2.3844758537
  0
LINE
  5
26B
100
AcDbEntity
  8
ALL_ASSEMBLY_MEMBERS
100
AcDbLine
 62
7
  6
CONTINUOUS
 10
3.2241198995
 20
6.7663649525
 11
3.2154190423
 21
6.8157099657
  0
LINE
  5
26C
100
AcDbEntity
  8
ALL_ASSEMBLY_MEMBERS
100
AcDbLine
 62
7
  6
CONTINUOUS
 10
3.8692352484
 20
6.202852105
 11
3.8692352484
 21
6.4898598463
  0
LINE
  5
26D
100
AcDbEntity
  8
ALL_ASSEMBLY_MEMBERS
100
AcDbLine
 62
7
  6
CONTINUOUS
 10
5.1641283111
 20
1.9481142858
 11
5.1634168817
 21
1.9490507855
  0
LINE
  5
26E
100
AcDbEntity
  8
ALL_ASSEMBLY_MEMBERS
100
AcDbLine
 62
7
  6
CONTINUOUS
 10
5.8158740222
 20
2.0178023323
 11
5.8157178136
 21
2.0179518615
  0
LINE
  5
26F
100
AcDbEntity
  8
ALL_ASSEMBLY_MEMBERS
100
AcDbLine
 62
7
  6
CONTINUOUS
 10
5.8158823965
 20
2.0177773408
 11
5.8157292508
 21
2.0179344435
  0
LINE
  5
270
100
AcDbEntity
  8
ALL_ASSEMBLY_MEMBERS
100
AcDbLine
 62
7
  6
CONTINUOUS
 10
3.8268505974
 20
5.9263471856
 11
3.8355514546
 21
5.8770021725
  0
LINE
  5
271
100
AcDbEntity
  8
ALL_ASSEMBLY_MEMBERS
100
AcDbLine
 62
7
  6
CONTINUOUS
 10
7.4153861059
 20
6.7158030014
 11
7.2733777
 21
6.63381441
  0
LINE
  5
272
100
AcDbEntity
  8
ALL_ASSEMBLY_MEMBERS
100
AcDbLine
 62
7
  6
CONTINUOUS
 10
4.9679852484
 20
3.0184954905
 11
4.9679852484
 21
2.6742162275
  0
LINE
  5
273
100
AcDbEntity
  8
ALL_ASSEMBLY_MEMBERS
100
AcDbLine
 62
7
  6
CONTINUOUS
 10
6.9936313519
 20
6.6564222752
 11
7.1529190423
 21
6.8157099657
  0
LINE
  5
274
100
AcDbEntity
  8
ALL_ASSEMBLY_MEMBERS
100
AcDbLine
 62
7
  6
CONTINUOUS
 10
7.042976365
 20
6.647721418
 11
7.1616198995
 21
6.7663649525
  0
LINE
  5
275
100
AcDbEntity
  8
ALL_ASSEMBLY_MEMBERS
100
AcDbLine
 62
7
  6
CONTINUOUS
 10
7.0443458996
 20
6.6312879675
 11
7.17805335
 21
6.7649954179
  0
LINE
  5
276
100
AcDbEntity
  8
ALL_ASSEMBLY_MEMBERS
100
AcDbLine
 62
7
  6
CONTINUOUS
 10
7.0524906225
 20
6.6218517824
 11
7.1874895352
 21
6.7568506951
  0
LINE
  5
277
100
AcDbEntity
  8
ALL_ASSEMBLY_MEMBERS
100
AcDbLine
 62
7
  6
CONTINUOUS
 10
7.3285896376
 20
6.6257085701
 11
7.3248392774
 21
6.6224270831
  0
LINE
  5
278
100
AcDbEntity
  8
ALL_ASSEMBLY_MEMBERS
100
AcDbLine
 62
7
  6
CONTINUOUS
 10
7.3285896376
 20
6.6257085701
 11
7.328437259
 21
6.6255778425
  0
LINE
  5
279
100
AcDbEntity
  8
ALL_ASSEMBLY_MEMBERS
100
AcDbLine
 62
7
  6
CONTINUOUS
 10
7.510584391
 20
5.9769091368
 11
7.6525927969
 21
6.0588977282
  0
LINE
  5
27A
100
AcDbEntity
  8
ALL_ASSEMBLY_MEMBERS
100
AcDbLine
 62
7
  6
CONTINUOUS
 10
5.9045554628
 20
3.2149536777
 11
5.6063983792
 21
3.3870947501
  0
LINE
  5
27B
100
AcDbEntity
  8
ALL_ASSEMBLY_MEMBERS
100
AcDbLine
 62
7
  6
CONTINUOUS
 10
3.2154190423
 20
5.8770021725
 11
3.0561313519
 21
6.036289863
  0
LINE
  5
27C
100
AcDbEntity
  8
ALL_ASSEMBLY_MEMBERS
100
AcDbLine
 62
7
  6
CONTINUOUS
 10
5.1929852484
 20
1.9402546312
 11
5.1929852484
 21
1.6423502859
  0
LINE
  5
27D
100
AcDbEntity
  8
ALL_ASSEMBLY_MEMBERS
100
AcDbLine
 62
7
  6
CONTINUOUS
 10
5.2429852484
 20
2.8463560691
 11
5.2429852484
 21
2.130656618
  0
LINE
  5
27E
100
AcDbEntity
  8
ALL_ASSEMBLY_MEMBERS
100
AcDbLine
 62
7
  6
CONTINUOUS
 10
5.2650224376
 20
2.0457180454
 11
5.2650224376
 21
1.9971619296
  0
LINE
  5
27F
100
AcDbEntity
  8
ALL_ASSEMBLY_MEMBERS
100
AcDbLine
 62
7
  6
CONTINUOUS
 10
7.3137899334
 20
6.6275526178
 11
7.1817886997
 21
6.4955513842
  0
LINE
  5
280
100
AcDbEntity
  8
ALL_ASSEMBLY_MEMBERS
100
AcDbLine
 62
7
  6
CONTINUOUS
 10
7.3249205364
 20
6.6230137103
 11
7.3205866884
 21
6.6186798637
  0
LINE
  5
281
100
AcDbEntity
  8
ALL_ASSEMBLY_MEMBERS
100
AcDbLine
 62
7
  6
CONTINUOUS
 10
7.1906614044
 20
6.4887545781
 11
7.1863276073
 21
6.4844207812
  0
LINE
  5
282
100
AcDbEntity
  8
ALL_ASSEMBLY_MEMBERS
100
AcDbLine
 62
7
  6
CONTINUOUS
 10
3.2241198995
 20
5.9263471856
 11
3.105476365
 21
6.0449907202
  0
LINE
  5
283
100
AcDbEntity
  8
ALL_ASSEMBLY_MEMBERS
100
AcDbLine
 62
7
  6
CONTINUOUS
 10
3.24055335
 20
5.9277167203
 11
3.1068458996
 21
6.0614241706
  0
LINE
  5
284
100
AcDbEntity
  8
ALL_ASSEMBLY_MEMBERS
100
AcDbLine
 62
7
  6
CONTINUOUS
 10
3.2499895352
 20
5.9358614431
 11
3.1149906225
 21
6.0708603558
  0
LINE
  5
285
100
AcDbEntity
  8
ALL_ASSEMBLY_MEMBERS
100
AcDbLine
 62
7
  6
CONTINUOUS
 10
3.2442886997
 20
6.1971607548
 11
3.3762899341
 21
6.0651595204
  0
LINE
  5
286
100
AcDbEntity
  8
ALL_ASSEMBLY_MEMBERS
100
AcDbLine
 62
7
  6
CONTINUOUS
 10
3.2461327475
 20
6.2119604583
 11
3.249117881
 21
6.2085465515
  0
LINE
  5
287
100
AcDbEntity
  8
ALL_ASSEMBLY_MEMBERS
100
AcDbLine
 62
7
  6
CONTINUOUS
 10
3.2461327475
 20
6.2119604583
 11
3.2462427538
 21
6.2118334488
  0
LINE
  5
288
100
AcDbEntity
  8
ALL_ASSEMBLY_MEMBERS
100
AcDbLine
 62
7
  6
CONTINUOUS
 10
5.4431455053
 20
1.6297499739
 11
5.4430166994
 21
1.6318976478
  0
LINE
  5
289
100
AcDbEntity
  8
ALL_ASSEMBLY_MEMBERS
100
AcDbLine
 62
7
  6
CONTINUOUS
 10
5.4431455053
 20
1.6297499739
 11
5.4430168603
 21
1.6318976573
  0
LINE
  5
28A
100
AcDbEntity
  8
ALL_ASSEMBLY_MEMBERS
100
AcDbLine
 62
7
  6
CONTINUOUS
 10
5.4484700635
 20
1.6330090658
 11
5.4483397399
 21
1.6358256589
  0
LINE
  5
28B
100
AcDbEntity
  8
ALL_ASSEMBLY_MEMBERS
100
AcDbLine
 62
7
  6
CONTINUOUS
 10
5.5359833134
 20
1.6291147883
 11
5.5359852484
 21
1.6290553812
  0
LINE
  5
28C
100
AcDbEntity
  8
ALL_ASSEMBLY_MEMBERS
100
AcDbLine
 62
7
  6
CONTINUOUS
 10
5.4605716552
 20
1.6356662451
 11
5.4604376727
 21
1.640884963
  0
LINE
  5
28D
100
AcDbEntity
  8
ALL_ASSEMBLY_MEMBERS
100
AcDbLine
 62
7
  6
CONTINUOUS
 10
5.4605716552
 20
1.6356662451
 11
5.4604379099
 21
1.6408849415
  0
LINE
  5
28E
100
AcDbEntity
  8
ALL_ASSEMBLY_MEMBERS
100
AcDbLine
 62
7
  6
CONTINUOUS
 10
5.4886211233
 20
1.6533477227
 11
5.4889852484
 21
1.6377099618
  0
LINE
  5
28F
100
AcDbEntity
  8
ALL_ASSEMBLY_MEMBERS
100
AcDbLine
 62
7
  6
CONTINUOUS
 10
5.4776079226
 20
1.6373169802
 11
5.4775876373
 21
1.6532160666
  0
LINE
  5
290
100
AcDbEntity
  8
ALL_ASSEMBLY_MEMBERS
100
AcDbLine
 62
7
  6
CONTINUOUS
 10
5.4776079226
 20
1.6373169802
 11
5.4775878137
 21
1.6532160197
  0
LINE
  5
291
100
AcDbEntity
  8
ALL_ASSEMBLY_MEMBERS
100
AcDbLine
 62
7
  6
CONTINUOUS
 10
5.2829836731
 20
2.0484655328
 11
5.2829836731
 21
1.999909417
  0
LINE
  5
292
100
AcDbEntity
  8
ALL_ASSEMBLY_MEMBERS
100
AcDbLine
 62
7
  6
CONTINUOUS
 10
5.3020397961
 20
2.0509807988
 11
5.3020397961
 21
2.002424683
  0
LINE
  5
293
100
AcDbEntity
  8
ALL_ASSEMBLY_MEMBERS
100
AcDbLine
 62
7
  6
CONTINUOUS
 10
5.3220914534
 20
2.0532507294
 11
5.3220914534
 21
2.0046946137
  0
LINE
  5
294
100
AcDbEntity
  8
ALL_ASSEMBLY_MEMBERS
100
AcDbLine
 62
7
  6
CONTINUOUS
 10
5.3279426403
 20
1.641635831
 11
5.3279426403
 21
1.6325283448
  0
LINE
  5
295
100
AcDbEntity
  8
ALL_ASSEMBLY_MEMBERS
100
AcDbLine
 62
7
  6
CONTINUOUS
 10
5.3413290226
 20
1.6076320661
 11
5.3413290226
 21
1.6172446073
  0
LINE
  5
296
100
AcDbEntity
  8
ALL_ASSEMBLY_MEMBERS
100
AcDbLine
 62
7
  6
CONTINUOUS
 10
5.3430341015
 20
2.05526349
 11
5.3430341015
 21
2.0067073742
  0
LINE
  5
297
100
AcDbEntity
  8
ALL_ASSEMBLY_MEMBERS
100
AcDbLine
 62
7
  6
CONTINUOUS
 10
5.3647585515
 20
2.0570085865
 11
5.3647585515
 21
2.0084524708
  0
LINE
  5
298
100
AcDbEntity
  8
ALL_ASSEMBLY_MEMBERS
100
AcDbLine
 62
7
  6
CONTINUOUS
 10
5.3871515384
 20
2.0584769206
 11
5.3871515384
 21
2.0099208048
  0
LINE
  5
299
100
AcDbEntity
  8
ALL_ASSEMBLY_MEMBERS
100
AcDbLine
 62
7
  6
CONTINUOUS
 10
5.3904246367
 20
1.652050715
 11
5.3904246367
 21
1.6517763567
  0
LINE
  5
29A
100
AcDbEntity
  8
ALL_ASSEMBLY_MEMBERS
100
AcDbLine
 62
7
  6
CONTINUOUS
 10
5.4100963117
 20
2.0596608367
 11
5.4100963117
 21
2.0111047209
  0
LINE
  5
29B
100
AcDbEntity
  8
ALL_ASSEMBLY_MEMBERS
100
AcDbLine
 62
7
  6
CONTINUOUS
 10
5.4334732439
 20
2.0605541623
 11
5.4334732439
 21
2.0119980465
  0
LINE
  5
29C
100
AcDbEntity
  8
ALL_ASSEMBLY_MEMBERS
100
AcDbLine
 62
7
  6
CONTINUOUS
 10
5.4571604544
 20
2.0611522399
 11
5.4571604544
 21
2.0125961241
  0
LINE
  5
29D
100
AcDbEntity
  8
ALL_ASSEMBLY_MEMBERS
100
AcDbLine
 62
7
  6
CONTINUOUS
 10
5.4729852484
 20
1.6003960331
 11
5.4729852484
 21
1.5952852749
  0
LINE
  5
29E
100
AcDbEntity
  8
ALL_ASSEMBLY_MEMBERS
100
AcDbLine
 62
7
  6
CONTINUOUS
 10
5.4810344451
 20
2.0614519511
 11
5.4810344451
 21
2.0128958353
  0
LINE
  5
29F
100
AcDbEntity
  8
ALL_ASSEMBLY_MEMBERS
100
AcDbLine
 62
7
  6
CONTINUOUS
 10
5.4889852484
 20
1.6533562013
 11
5.4889852484
 21
1.6377099618
  0
LINE
  5
2A0
100
AcDbEntity
  8
ALL_ASSEMBLY_MEMBERS
100
AcDbLine
 62
7
  6
CONTINUOUS
 10
5.4889852484
 20
1.6204008007
 11
5.4889852484
 21
1.6047545611
  0
LINE
  5
2A1
100
AcDbEntity
  8
ALL_ASSEMBLY_MEMBERS
100
AcDbLine
 62
7
  6
CONTINUOUS
 10
5.4969852484
 20
1.6047545611
 11
5.4969852484
 21
1.6204008007
  0
LINE
  5
2A2
100
AcDbEntity
  8
ALL_ASSEMBLY_MEMBERS
100
AcDbLine
 62
7
  6
CONTINUOUS
 10
5.4969852484
 20
1.6377099618
 11
5.4969852484
 21
1.6533562013
  0
LINE
  5
2A3
100
AcDbEntity
  8
ALL_ASSEMBLY_MEMBERS
100
AcDbLine
 62
7
  6
CONTINUOUS
 10
5.5049707438
 20
2.0614517335
 11
5.5049707438
 21
2.0128956177
  0
LINE
  5
2A4
100
AcDbEntity
  8
ALL_ASSEMBLY_MEMBERS
100
AcDbLine
 62
7
  6
CONTINUOUS
 10
5.5129852484
 20
1.5952852749
 11
5.5129852484
 21
1.6003960331
  0
LINE
  5
2A5
100
AcDbEntity
  8
ALL_ASSEMBLY_MEMBERS
100
AcDbLine
 62
7
  6
CONTINUOUS
 10
5.5083826826
 20
1.6532160205
 11
5.5083625743
 21
1.6373169802
  0
LINE
  5
2A6
100
AcDbEntity
  8
ALL_ASSEMBLY_MEMBERS
100
AcDbLine
 62
7
  6
CONTINUOUS
 10
7.183763575
 20
6.4809041921
 11
7.1836327475
 21
6.4807516799
  0
LINE
  5
2A7
100
AcDbEntity
  8
ALL_ASSEMBLY_MEMBERS
100
AcDbLine
 62
7
  6
CONTINUOUS
 10
7.1866184676
 20
6.4841660997
 11
7.1836327475
 21
6.4807516799
  0
LINE
  5
2A8
100
AcDbEntity
  8
ALL_ASSEMBLY_MEMBERS
100
AcDbLine
 62
7
  6
CONTINUOUS
 10
7.6010499604
 20
6.6230137101
 11
7.6007761058
 21
6.6227398556
  0
LINE
  5
2A9
100
AcDbEntity
  8
ALL_ASSEMBLY_MEMBERS
100
AcDbLine
 62
7
  6
CONTINUOUS
 10
7.1863276074
 20
6.2082913572
 11
7.1866014694
 21
6.2085652191
  0
LINE
  5
2AA
100
AcDbEntity
  8
ALL_ASSEMBLY_MEMBERS
100
AcDbLine
 62
7
  6
CONTINUOUS
 10
7.7396428895
 20
6.484420781
 11
7.7393690275
 21
6.4841469191
  0
LINE
  5
2AB
100
AcDbEntity
  8
ALL_ASSEMBLY_MEMBERS
100
AcDbLine
 62
7
  6
CONTINUOUS
 10
7.3249205365
 20
6.0696984281
 11
7.3251943911
 21
6.0699722826
  0
LINE
  5
2AC
100
AcDbEntity
  8
ALL_ASSEMBLY_MEMBERS
100
AcDbLine
 62
7
  6
CONTINUOUS
 10
7.5973808593
 20
6.0670035681
 11
7.6011312195
 21
6.0702850551
  0
LINE
  5
2AD
100
AcDbEntity
  8
ALL_ASSEMBLY_MEMBERS
100
AcDbLine
 62
7
  6
CONTINUOUS
 10
7.5973808593
 20
6.0670035681
 11
7.5975332379
 21
6.0671342956
  0
LINE
  5
2AE
100
AcDbEntity
  8
ALL_ASSEMBLY_MEMBERS
100
AcDbLine
 62
7
  6
CONTINUOUS
 10
3.3905779213
 20
6.0674492733
 11
3.3910896376
 21
6.0670035681
  0
LINE
  5
2AF
100
AcDbEntity
  8
ALL_ASSEMBLY_MEMBERS
100
AcDbLine
 62
7
  6
CONTINUOUS
 10
3.3878583432
 20
6.0698296408
 11
3.3910896376
 21
6.0670035681
  0
LINE
  5
2B0
100
AcDbEntity
  8
ALL_ASSEMBLY_MEMBERS
100
AcDbLine
 62
7
  6
CONTINUOUS
 10
3.2488276074
 20
6.2082913572
 11
3.2531477093
 21
6.2039712535
  0
LINE
  5
2B1
100
AcDbEntity
  8
ALL_ASSEMBLY_MEMBERS
100
AcDbLine
 62
7
  6
CONTINUOUS
 10
3.3830999498
 20
6.0740190129
 11
3.3874205365
 21
6.0696984281
  0
LINE
  5
2B2
100
AcDbEntity
  8
ALL_ASSEMBLY_MEMBERS
100
AcDbLine
 62
7
  6
CONTINUOUS
 10
3.6632759977
 20
6.0699723907
 11
3.6635499604
 21
6.0696984281
  0
LINE
  5
2B3
100
AcDbEntity
  8
ALL_ASSEMBLY_MEMBERS
100
AcDbLine
 62
7
  6
CONTINUOUS
 10
3.2491015778
 20
6.4841468106
 11
3.2488276074
 21
6.484420781
  0
LINE
  5
2B4
100
AcDbEntity
  8
ALL_ASSEMBLY_MEMBERS
100
AcDbLine
 62
7
  6
CONTINUOUS
 10
5.5288445536
 20
2.0611515881
 11
5.5288445536
 21
2.0125954723
  0
LINE
  5
2B5
100
AcDbEntity
  8
ALL_ASSEMBLY_MEMBERS
100
AcDbLine
 62
7
  6
CONTINUOUS
 10
5.5525314033
 20
2.0605530798
 11
5.5525314033
 21
2.011996964
  0
LINE
  5
2B6
100
AcDbEntity
  8
ALL_ASSEMBLY_MEMBERS
100
AcDbLine
 62
7
  6
CONTINUOUS
 10
5.5759077966
 20
2.0596593291
 11
5.5759077966
 21
2.0111032134
  0
LINE
  5
2B7
100
AcDbEntity
  8
ALL_ASSEMBLY_MEMBERS
100
AcDbLine
 62
7
  6
CONTINUOUS
 10
5.5955458602
 20
1.652050715
 11
5.5955458602
 21
1.6517763567
  0
LINE
  5
2B8
100
AcDbEntity
  8
ALL_ASSEMBLY_MEMBERS
100
AcDbLine
 62
7
  6
CONTINUOUS
 10
5.5988518558
 20
2.0584749958
 11
5.5988518558
 21
2.00991888
  0
LINE
  5
2B9
100
AcDbEntity
  8
ALL_ASSEMBLY_MEMBERS
100
AcDbLine
 62
7
  6
CONTINUOUS
 10
5.6212439571
 20
2.0570062545
 11
5.6212439571
 21
2.0084501387
  0
LINE
  5
2BA
100
AcDbEntity
  8
ALL_ASSEMBLY_MEMBERS
100
AcDbLine
 62
7
  6
CONTINUOUS
 10
5.6429673546
 20
2.055260763
 11
5.6429673546
 21
2.0067046472
  0
LINE
  5
2BB
100
AcDbEntity
  8
ALL_ASSEMBLY_MEMBERS
100
AcDbLine
 62
7
  6
CONTINUOUS
 10
5.6446414743
 20
1.6076320661
 11
5.6446414743
 21
1.6172446163
  0
LINE
  5
2BC
100
AcDbEntity
  8
ALL_ASSEMBLY_MEMBERS
100
AcDbLine
 62
7
  6
CONTINUOUS
 10
5.6580278566
 20
1.641635831
 11
5.6580278566
 21
1.6325283448
  0
LINE
  5
2BD
100
AcDbEntity
  8
ALL_ASSEMBLY_MEMBERS
100
AcDbLine
 62
7
  6
CONTINUOUS
 10
5.6639087888
 20
2.0532476216
 11
5.6639087888
 21
2.0046915058
  0
LINE
  5
2BE
100
AcDbEntity
  8
ALL_ASSEMBLY_MEMBERS
100
AcDbLine
 62
7
  6
CONTINUOUS
 10
5.6839590771
 20
2.0509773263
 11
5.6839590771
 21
2.0024212105
  0
LINE
  5
2BF
100
AcDbEntity
  8
ALL_ASSEMBLY_MEMBERS
100
AcDbLine
 62
7
  6
CONTINUOUS
 10
5.7030136831
 20
2.0484617138
 11
5.7030136831
 21
1.999905598
  0
LINE
  5
2C0
100
AcDbEntity
  8
ALL_ASSEMBLY_MEMBERS
100
AcDbLine
 62
7
  6
CONTINUOUS
 10
5.7209732616
 20
2.0457138998
 11
5.7209732616
 21
1.997157784
  0
LINE
  5
2C1
100
AcDbEntity
  8
ALL_ASSEMBLY_MEMBERS
100
AcDbLine
 62
7
  6
CONTINUOUS
 10
5.7429852484
 20
2.8463560691
 11
5.7429852484
 21
2.1306542481
  0
LINE
  5
2C2
100
AcDbEntity
  8
ALL_ASSEMBLY_MEMBERS
100
AcDbLine
 62
7
  6
CONTINUOUS
 10
5.4969852484
 20
1.6377099618
 11
5.4973493729
 21
1.6533477763
  0
LINE
  5
2C3
100
AcDbEntity
  8
ALL_ASSEMBLY_MEMBERS
100
AcDbLine
 62
7
  6
CONTINUOUS
 10
5.5255325866
 20
1.6408849413
 11
5.5253988417
 21
1.6356662451
  0
LINE
  5
2C4
100
AcDbEntity
  8
ALL_ASSEMBLY_MEMBERS
100
AcDbLine
 62
7
  6
CONTINUOUS
 10
5.5255328242
 20
1.6408849629
 11
5.5253988417
 21
1.6356662451
  0
LINE
  5
2C5
100
AcDbEntity
  8
ALL_ASSEMBLY_MEMBERS
100
AcDbLine
 62
7
  6
CONTINUOUS
 10
5.4499852484
 20
1.6290553812
 11
5.4499871835
 21
1.6291147883
  0
LINE
  5
2C6
100
AcDbEntity
  8
ALL_ASSEMBLY_MEMBERS
100
AcDbLine
 62
7
  6
CONTINUOUS
 10
5.5376305682
 20
1.6358256572
 11
5.5375004333
 21
1.6330090658
  0
LINE
  5
2C7
100
AcDbEntity
  8
ALL_ASSEMBLY_MEMBERS
100
AcDbLine
 62
7
  6
CONTINUOUS
 10
5.537630757
 20
1.6358256588
 11
5.5375004333
 21
1.6330090658
  0
LINE
  5
2C8
100
AcDbEntity
  8
ALL_ASSEMBLY_MEMBERS
100
AcDbLine
 62
7
  6
CONTINUOUS
 10
5.5429536364
 20
1.6318976572
 11
5.5428249916
 21
1.6297499739
  0
LINE
  5
2C9
100
AcDbEntity
  8
ALL_ASSEMBLY_MEMBERS
100
AcDbLine
 62
7
  6
CONTINUOUS
 10
5.5429537975
 20
1.6318976478
 11
5.5428249916
 21
1.6297499739
  0
LINE
  5
2CA
100
AcDbEntity
  8
ALL_ASSEMBLY_MEMBERS
100
AcDbLine
 62
7
  6
CONTINUOUS
 10
7.6010499605
 20
6.0696984279
 11
7.6053838085
 21
6.0740322745
  0
LINE
  5
2CB
100
AcDbEntity
  8
ALL_ASSEMBLY_MEMBERS
100
AcDbLine
 62
7
  6
CONTINUOUS
 10
7.7353090925
 20
6.2039575601
 11
7.7396428896
 21
6.208291357
  0
LINE
  5
2CC
100
AcDbEntity
  8
ALL_ASSEMBLY_MEMBERS
100
AcDbLine
 62
7
  6
CONTINUOUS
 10
7.6121805635
 20
6.0651595204
 11
7.7441817972
 21
6.197160754
  0
LINE
  5
2CD
100
AcDbEntity
  8
ALL_ASSEMBLY_MEMBERS
100
AcDbLine
 62
7
  6
CONTINUOUS
 10
3.8018689191
 20
6.2085653276
 11
3.8021428895
 21
6.2082913572
  0
LINE
  5
2CE
100
AcDbEntity
  8
ALL_ASSEMBLY_MEMBERS
100
AcDbLine
 62
7
  6
CONTINUOUS
 10
3.3876944992
 20
6.6227397474
 11
3.3874205365
 21
6.6230137101
  0
LINE
  5
2CF
100
AcDbEntity
  8
ALL_ASSEMBLY_MEMBERS
100
AcDbLine
 62
7
  6
CONTINUOUS
 10
3.8048377494
 20
6.4807516799
 11
3.8018526159
 21
6.4841655866
  0
LINE
  5
2D0
100
AcDbEntity
  8
ALL_ASSEMBLY_MEMBERS
100
AcDbLine
 62
7
  6
CONTINUOUS
 10
3.8048377494
 20
6.4807516799
 11
3.8047277431
 21
6.4808786894
  0
LINE
  5
2D1
100
AcDbEntity
  8
ALL_ASSEMBLY_MEMBERS
100
AcDbLine
 62
7
  6
CONTINUOUS
 10
5.7929852484
 20
1.9402546312
 11
5.7929852484
 21
1.6423502859
  0
LINE
  5
2D2
100
AcDbEntity
  8
ALL_ASSEMBLY_MEMBERS
100
AcDbLine
 62
7
  6
CONTINUOUS
 10
6.0179852484
 20
2.6742166476
 11
6.0179852484
 21
3.0184959107
  0
LINE
  5
2D3
100
AcDbEntity
  8
ALL_ASSEMBLY_MEMBERS
100
AcDbLine
 62
7
  6
CONTINUOUS
 10
7.7422069219
 20
6.211807946
 11
7.7423377494
 21
6.2119604583
  0
LINE
  5
2D4
100
AcDbEntity
  8
ALL_ASSEMBLY_MEMBERS
100
AcDbLine
 62
7
  6
CONTINUOUS
 10
7.7393520292
 20
6.2085460385
 11
7.7423377494
 21
6.2119604583
  0
LINE
  5
2D5
100
AcDbEntity
  8
ALL_ASSEMBLY_MEMBERS
100
AcDbLine
 62
7
  6
CONTINUOUS
 10
7.7384809617
 20
5.9358614431
 11
7.8734798744
 21
6.0708603558
  0
LINE
  5
2D6
100
AcDbEntity
  8
ALL_ASSEMBLY_MEMBERS
100
AcDbLine
 62
7
  6
CONTINUOUS
 10
7.7479171469
 20
5.9277167203
 11
7.8816245973
 21
6.0614241706
  0
LINE
  5
2D7
100
AcDbEntity
  8
ALL_ASSEMBLY_MEMBERS
100
AcDbLine
 62
7
  6
CONTINUOUS
 10
7.7643505974
 20
5.9263471856
 11
7.8829941319
 21
6.0449907202
  0
LINE
  5
2D8
100
AcDbEntity
  8
ALL_ASSEMBLY_MEMBERS
100
AcDbLine
 62
7
  6
CONTINUOUS
 10
7.7730514546
 20
5.8770021725
 11
7.932339145
 21
6.036289863
  0
LINE
  5
2D9
100
AcDbEntity
  8
ALL_ASSEMBLY_MEMBERS
100
AcDbLine
 62
7
  6
CONTINUOUS
 10
3.3358777
 20
6.0588977282
 11
3.477886567
 21
5.9769088706
  0
LINE
  5
2DA
100
AcDbEntity
  8
ALL_ASSEMBLY_MEMBERS
100
AcDbLine
 62
7
  6
CONTINUOUS
 10
3.8021428895
 20
6.484420781
 11
3.7978227876
 21
6.4887408846
  0
LINE
  5
2DB
100
AcDbEntity
  8
ALL_ASSEMBLY_MEMBERS
100
AcDbLine
 62
7
  6
CONTINUOUS
 10
3.6678705471
 20
6.6186931253
 11
3.6635499604
 21
6.6230137101
  0
LINE
  5
2DC
100
AcDbEntity
  8
ALL_ASSEMBLY_MEMBERS
100
AcDbLine
 62
7
  6
CONTINUOUS
 10
3.8066817972
 20
6.4955513834
 11
3.6746805628
 21
6.6275526178
  0
LINE
  5
2DD
100
AcDbEntity
  8
ALL_ASSEMBLY_MEMBERS
100
AcDbLine
 62
7
  6
CONTINUOUS
 10
5.3795543816
 20
3.3870845103
 11
5.0814325049
 21
3.2149637644
  0
LINE
  5
2DE
100
AcDbEntity
  8
ALL_ASSEMBLY_MEMBERS
100
AcDbLine
 62
7
  6
CONTINUOUS
 10
3.6603925756
 20
6.6252628649
 11
3.6598808593
 21
6.6257085701
  0
LINE
  5
2DF
100
AcDbEntity
  8
ALL_ASSEMBLY_MEMBERS
100
AcDbLine
 62
7
  6
CONTINUOUS
 10
3.6631121537
 20
6.6228824973
 11
3.6598808593
 21
6.6257085701
  0
LINE
  5
2E0
100
AcDbEntity
  8
ALL_ASSEMBLY_MEMBERS
100
AcDbLine
 62
7
  6
CONTINUOUS
 10
3.8009809617
 20
6.7568506951
 11
3.9359798744
 21
6.6218517824
  0
LINE
  5
2E1
100
AcDbEntity
  8
ALL_ASSEMBLY_MEMBERS
100
AcDbLine
 62
7
  6
CONTINUOUS
 10
3.8104171469
 20
6.7649954179
 11
3.9441245973
 21
6.6312879675
  0
LINE
  5
2E2
100
AcDbEntity
  8
ALL_ASSEMBLY_MEMBERS
100
AcDbLine
 62
7
  6
CONTINUOUS
 10
3.8268505974
 20
6.7663649525
 11
3.9454941319
 21
6.647721418
  0
LINE
  5
2E3
100
AcDbEntity
  8
ALL_ASSEMBLY_MEMBERS
100
AcDbLine
 62
7
  6
CONTINUOUS
 10
3.8355514546
 20
6.8157099657
 11
3.994839145
 21
6.6564222752
  0
LINE
  5
2E4
100
AcDbEntity
  8
ALL_ASSEMBLY_MEMBERS
100
AcDbLine
 62
7
  6
CONTINUOUS
 10
3.7150927969
 20
6.63381441
 11
3.5730839299
 21
6.7158032676
  0
LINE
  5
2E5
100
AcDbEntity
  8
ALL_ASSEMBLY_MEMBERS
100
AcDbLine
 62
7
  6
CONTINUOUS
 10
7.1529190423
 20
5.8770021725
 11
7.1616198995
 21
5.9263471856
  0
LINE
  5
2E6
100
AcDbEntity
  8
ALL_ASSEMBLY_MEMBERS
100
AcDbLine
 62
7
  6
CONTINUOUS
 10
6.9936313519
 20
6.036289863
 11
7.042976365
 21
6.0449907202
  0
LINE
  5
2E7
100
AcDbEntity
  8
ALL_ASSEMBLY_MEMBERS
100
AcDbLine
 62
7
  6
CONTINUOUS
 10
3.9454941319
 20
6.0449907202
 11
3.994839145
 21
6.036289863
  0
LINE
  5
2E8
100
AcDbEntity
  8
ALL_ASSEMBLY_MEMBERS
100
AcDbLine
 62
7
  6
CONTINUOUS
 10
7.1192352484
 20
6.4898600332
 11
7.1192352484
 21
6.2028522919
  0
LINE
  5
2E9
100
AcDbEntity
  8
ALL_ASSEMBLY_MEMBERS
100
AcDbLine
 62
7
  6
CONTINUOUS
 10
5.8218378091
 20
1.9481083058
 11
5.8225504835
 21
1.9490466242
  0
LINE
  5
2EA
100
AcDbEntity
  8
ALL_ASSEMBLY_MEMBERS
100
AcDbLine
 62
7
  6
CONTINUOUS
 10
5.7429852484
 20
2.3844758537
 11
5.904537992
 21
2.4777483737
  0
LINE
  5
2EB
100
AcDbEntity
  8
ALL_ASSEMBLY_MEMBERS
100
AcDbLine
 62
7
  6
CONTINUOUS
 10
7.7730514546
 20
6.8157099657
 11
7.7643505974
 21
6.7663649525
  0
LINE
  5
2EC
100
AcDbEntity
  8
ALL_ASSEMBLY_MEMBERS
100
AcDbLine
 62
7
  6
CONTINUOUS
 10
5.8130991779
 20
1.9389805582
 11
5.8132063909
 21
1.9390788539
  0
LINE
  5
2ED
100
AcDbEntity
  8
ALL_ASSEMBLY_MEMBERS
100
AcDbLine
 62
7
  6
CONTINUOUS
 10
5.813090285
 20
1.9389685786
 11
5.8131990826
 21
1.9390623006
  0
LINE
  5
2EE
100
AcDbEntity
  8
ALL_ASSEMBLY_MEMBERS
100
AcDbLine
 62
7
  6
CONTINUOUS
 10
7.932339145
 20
6.6564222752
 11
7.8829941319
 21
6.647721418
  0
LINE
  5
2EF
100
AcDbEntity
  8
ALL_ASSEMBLY_MEMBERS
100
AcDbLine
 62
7
  6
CONTINUOUS
 10
3.105476365
 20
6.647721418
 11
3.0561313519
 21
6.6564222752
  0
LINE
  5
2F0
100
AcDbEntity
  8
ALL_ASSEMBLY_MEMBERS
100
AcDbLine
 62
7
  6
CONTINUOUS
 10
3.0561313519
 20
6.036289863
 11
3.105476365
 21
6.0449907202
  0
LINE
  5
2F1
100
AcDbEntity
  8
ALL_ASSEMBLY_MEMBERS
100
AcDbLine
 62
7
  6
CONTINUOUS
 10
7.8829941319
 20
6.0449907202
 11
7.932339145
 21
6.036289863
  0
LINE
  5
2F2
100
AcDbEntity
  8
ALL_ASSEMBLY_MEMBERS
100
AcDbLine
 62
7
  6
CONTINUOUS
 10
7.1616198995
 20
6.7663649525
 11
7.1529190423
 21
6.8157099657
  0
LINE
  5
2F3
100
AcDbEntity
  8
ALL_ASSEMBLY_MEMBERS
100
AcDbLine
 62
7
  6
CONTINUOUS
 10
7.8067352484
 20
6.202852105
 11
7.8067352484
 21
6.4898598463
  0
LINE
  5
2F4
100
AcDbEntity
  8
ALL_ASSEMBLY_MEMBERS
100
AcDbLine
 62
7
  6
CONTINUOUS
 10
5.5428435388
 20
1.6517722207
 11
5.5083625743
 21
1.6373169802
  0
LINE
  5
2F5
100
AcDbEntity
  8
ALL_ASSEMBLY_MEMBERS
100
AcDbLine
 62
7
  6
CONTINUOUS
 10
5.4702168863
 20
1.6213254005
 11
5.4357359219
 21
1.60687016
  0
LINE
  5
2F6
100
AcDbEntity
  8
ALL_ASSEMBLY_MEMBERS
100
AcDbLine
 62
7
  6
CONTINUOUS
 10
5.4431269581
 20
1.6063385418
 11
5.4776079226
 21
1.6207937823
  0
LINE
  5
2F7
100
AcDbEntity
  8
ALL_ASSEMBLY_MEMBERS
100
AcDbLine
 62
7
  6
CONTINUOUS
 10
5.5157536106
 20
1.636785362
 11
5.550234575
 21
1.6512406024
  0
LINE
  5
2F8
100
AcDbEntity
  8
ALL_ASSEMBLY_MEMBERS
100
AcDbLine
 62
7
  6
CONTINUOUS
 10
7.2733777
 20
6.0588977282
 11
7.415386567
 21
5.9769088706
  0
LINE
  5
2F9
100
AcDbEntity
  8
ALL_ASSEMBLY_MEMBERS
100
AcDbLine
 62
7
  6
CONTINUOUS
 10
7.1529190423
 20
5.8770021725
 11
6.9936313519
 21
6.036289863
  0
LINE
  5
2FA
100
AcDbEntity
  8
ALL_ASSEMBLY_MEMBERS
100
AcDbLine
 62
7
  6
CONTINUOUS
 10
7.1616198995
 20
5.9263471856
 11
7.042976365
 21
6.0449907202
  0
LINE
  5
2FB
100
AcDbEntity
  8
ALL_ASSEMBLY_MEMBERS
100
AcDbLine
 62
7
  6
CONTINUOUS
 10
7.17805335
 20
5.9277167203
 11
7.0443458996
 21
6.0614241706
  0
LINE
  5
2FC
100
AcDbEntity
  8
ALL_ASSEMBLY_MEMBERS
100
AcDbLine
 62
7
  6
CONTINUOUS
 10
7.1874895352
 20
5.9358614431
 11
7.0524906225
 21
6.0708603558
  0
LINE
  5
2FD
100
AcDbEntity
  8
ALL_ASSEMBLY_MEMBERS
100
AcDbLine
 62
7
  6
CONTINUOUS
 10
3.994839145
 20
6.6564222752
 11
3.9454941319
 21
6.647721418
  0
LINE
  5
2FE
100
AcDbEntity
  8
ALL_ASSEMBLY_MEMBERS
100
AcDbLine
 62
7
  6
CONTINUOUS
 10
7.042976365
 20
6.647721418
 11
6.9936313519
 21
6.6564222752
  0
LINE
  5
2FF
100
AcDbEntity
  8
ALL_ASSEMBLY_MEMBERS
100
AcDbLine
 62
7
  6
CONTINUOUS
 10
7.3280779213
 20
6.0674492733
 11
7.3285896376
 21
6.0670035681
  0
LINE
  5
300
100
AcDbEntity
  8
ALL_ASSEMBLY_MEMBERS
100
AcDbLine
 62
7
  6
CONTINUOUS
 10
7.3253583432
 20
6.0698296408
 11
7.3285896376
 21
6.0670035681
  0
LINE
  5
301
100
AcDbEntity
  8
ALL_ASSEMBLY_MEMBERS
100
AcDbLine
 62
7
  6
CONTINUOUS
 10
7.1817886997
 20
6.1971607548
 11
7.3137899341
 21
6.0651595204
  0
LINE
  5
302
100
AcDbEntity
  8
ALL_ASSEMBLY_MEMBERS
100
AcDbLine
 62
7
  6
CONTINUOUS
 10
7.1863276074
 20
6.2082913572
 11
7.1906477093
 21
6.2039712535
  0
LINE
  5
303
100
AcDbEntity
  8
ALL_ASSEMBLY_MEMBERS
100
AcDbLine
 62
7
  6
CONTINUOUS
 10
7.3205999498
 20
6.0740190129
 11
7.3249205365
 21
6.0696984281
  0
LINE
  5
304
100
AcDbEntity
  8
ALL_ASSEMBLY_MEMBERS
100
AcDbLine
 62
7
  6
CONTINUOUS
 10
7.1836327475
 20
6.2119604583
 11
7.186617881
 21
6.2085465515
  0
LINE
  5
305
100
AcDbEntity
  8
ALL_ASSEMBLY_MEMBERS
100
AcDbLine
 62
7
  6
CONTINUOUS
 10
7.1836327475
 20
6.2119604583
 11
7.1837427538
 21
6.2118334488
  0
LINE
  5
306
100
AcDbEntity
  8
ALL_ASSEMBLY_MEMBERS
100
AcDbLine
 62
7
  6
CONTINUOUS
 10
7.7643505974
 20
5.9263471856
 11
7.7730514546
 21
5.8770021725
  0
LINE
  5
307
100
AcDbEntity
  8
ALL_ASSEMBLY_MEMBERS
100
AcDbLine
 62
7
  6
CONTINUOUS
 10
7.1866015778
 20
6.4841468106
 11
7.1863276074
 21
6.484420781
  0
LINE
  5
308
100
AcDbEntity
  8
ALL_ASSEMBLY_MEMBERS
100
AcDbLine
 62
7
  6
CONTINUOUS
 10
7.6007759977
 20
6.0699723907
 11
7.6010499604
 21
6.0696984281
  0
LINE
  5
309
100
AcDbEntity
  8
ALL_ASSEMBLY_MEMBERS
100
AcDbLine
 62
7
  6
CONTINUOUS
 10
7.3251944992
 20
6.6227397474
 11
7.3249205365
 21
6.6230137101
  0
LINE
  5
30A
100
AcDbEntity
  8
ALL_ASSEMBLY_MEMBERS
100
AcDbLine
 62
7
  6
CONTINUOUS
 10
7.7393689191
 20
6.2085653276
 11
7.7396428895
 21
6.2082913572
  0
LINE
  5
30B
100
AcDbEntity
  8
ALL_ASSEMBLY_MEMBERS
100
AcDbLine
 62
7
  6
CONTINUOUS
 10
7.6525927969
 20
6.63381441
 11
7.5105839299
 21
6.7158032676
  0
LINE
  5
30C
100
AcDbEntity
  8
ALL_ASSEMBLY_MEMBERS
100
AcDbLine
 62
7
  6
CONTINUOUS
 10
7.5978925756
 20
6.6252628649
 11
7.5973808593
 21
6.6257085701
  0
LINE
  5
30D
100
AcDbEntity
  8
ALL_ASSEMBLY_MEMBERS
100
AcDbLine
 62
7
  6
CONTINUOUS
 10
7.6006121537
 20
6.6228824973
 11
7.5973808593
 21
6.6257085701
  0
LINE
  5
30E
100
AcDbEntity
  8
ALL_ASSEMBLY_MEMBERS
100
AcDbLine
 62
7
  6
CONTINUOUS
 10
7.7396428895
 20
6.484420781
 11
7.7353227876
 21
6.4887408846
  0
LINE
  5
30F
100
AcDbEntity
  8
ALL_ASSEMBLY_MEMBERS
100
AcDbLine
 62
7
  6
CONTINUOUS
 10
7.6053705471
 20
6.6186931253
 11
7.6010499604
 21
6.6230137101
  0
LINE
  5
310
100
AcDbEntity
  8
ALL_ASSEMBLY_MEMBERS
100
AcDbLine
 62
7
  6
CONTINUOUS
 10
7.7441817972
 20
6.4955513834
 11
7.6121805628
 21
6.6275526178
  0
LINE
  5
311
100
AcDbEntity
  8
ALL_ASSEMBLY_MEMBERS
100
AcDbLine
 62
7
  6
CONTINUOUS
 10
7.7423377494
 20
6.4807516799
 11
7.7393526159
 21
6.4841655866
  0
LINE
  5
312
100
AcDbEntity
  8
ALL_ASSEMBLY_MEMBERS
100
AcDbLine
 62
7
  6
CONTINUOUS
 10
7.7423377494
 20
6.4807516799
 11
7.7422277431
 21
6.4808786894
  0
LINE
  5
313
100
AcDbEntity
  8
ALL_ASSEMBLY_MEMBERS
100
AcDbLine
 62
7
  6
CONTINUOUS
 10
7.7384809617
 20
6.7568506951
 11
7.8734798744
 21
6.6218517824
  0
LINE
  5
314
100
AcDbEntity
  8
ALL_ASSEMBLY_MEMBERS
100
AcDbLine
 62
7
  6
CONTINUOUS
 10
7.7479171469
 20
6.7649954179
 11
7.8816245973
 21
6.6312879675
  0
LINE
  5
315
100
AcDbEntity
  8
ALL_ASSEMBLY_MEMBERS
100
AcDbLine
 62
7
  6
CONTINUOUS
 10
7.7643505974
 20
6.7663649525
 11
7.8829941319
 21
6.647721418
  0
LINE
  5
316
100
AcDbEntity
  8
ALL_ASSEMBLY_MEMBERS
100
AcDbLine
 62
7
  6
CONTINUOUS
 10
7.7730514546
 20
6.8157099657
 11
7.932339145
 21
6.6564222752
  0
ARC
  5
317
100
AcDbEntity
  8
ALL_ASSEMBLY_MEMBERS
100
AcDbCircle
 62
7
  6
CONTINUOUS
 10
5.3317529783
 20
1.6300724658
 40
0.3504070674
100
AcDbArc
 50
102.9162657185
 51
105.1851015595
  0
ARC
  5
318
100
AcDbEntity
  8
ALL_ASSEMBLY_MEMBERS
100
AcDbCircle
 62
7
  6
CONTINUOUS
 10
5.2185517484
 20
1.9672501299
 40
0.0700203959
100
AcDbArc
 50
127.572876275
 51
133.7560170332
  0
ARC
  5
319
100
AcDbEntity
  8
ALL_ASSEMBLY_MEMBERS
100
AcDbCircle
 62
7
  6
CONTINUOUS
 10
5.2166250994
 20
1.9693448695
 40
0.0671749587
100
AcDbArc
 50
133.8047168525
 51
134.4435610788
  0
ARC
  5
31A
100
AcDbEntity
  8
ALL_ASSEMBLY_MEMBERS
100
AcDbCircle
 62
7
  6
CONTINUOUS
 10
5.2144877263
 20
1.9714976386
 40
0.0641414101
100
AcDbArc
 50
134.4269687868
 51
138.3842222678
  0
ARC
  5
31B
100
AcDbEntity
  8
ALL_ASSEMBLY_MEMBERS
100
AcDbCircle
 62
7
  6
CONTINUOUS
 10
5.213611304
 20
1.9868679581
 40
0.0628685049
100
AcDbArc
 50
222.0712574663
 51
223.2425674678
  0
ARC
  5
31C
100
AcDbEntity
  8
ALL_ASSEMBLY_MEMBERS
100
AcDbCircle
 62
7
  6
CONTINUOUS
 10
5.2114957812
 20
1.9850124022
 40
0.0600548169
100
AcDbArc
 50
217.9200931682
 51
222.1095282788
  0
ARC
  5
31D
100
AcDbEntity
  8
ALL_ASSEMBLY_MEMBERS
100
AcDbCircle
 62
7
  6
CONTINUOUS
 10
5.2076512823
 20
1.9772452944
 40
0.0552027249
100
AcDbArc
 50
142.7010408391
 51
149.9601740032
  0
ARC
  5
31E
100
AcDbEntity
  8
ALL_ASSEMBLY_MEMBERS
100
AcDbCircle
 62
7
  6
CONTINUOUS
 10
5.2075739947
 20
1.9820724875
 40
0.0551520534
100
AcDbArc
 50
212.7630884709
 51
215.267487854
  0
ARC
  5
31F
100
AcDbEntity
  8
ALL_ASSEMBLY_MEMBERS
100
AcDbCircle
 62
7
  6
CONTINUOUS
 10
5.2060809938
 20
1.9811255867
 40
0.0533841361
100
AcDbArc
 50
209.1051360477
 51
212.7756444412
  0
ARC
  5
320
100
AcDbEntity
  8
ALL_ASSEMBLY_MEMBERS
100
AcDbCircle
 62
7
  6
CONTINUOUS
 10
5.2051855307
 20
1.980623505
 40
0.052357525
100
AcDbArc
 50
202.1754035843
 51
209.1017243618
  0
ARC
  5
321
100
AcDbEntity
  8
ALL_ASSEMBLY_MEMBERS
100
AcDbCircle
 62
7
  6
CONTINUOUS
 10
5.200326448
 20
1.9806477415
 40
0.0477216419
100
AcDbArc
 50
211.9832228948
 51
216.5118859329
  0
ARC
  5
322
100
AcDbEntity
  8
ALL_ASSEMBLY_MEMBERS
100
AcDbCircle
 62
7
  6
CONTINUOUS
 10
5.2011888971
 20
1.977529053
 40
0.047315067
100
AcDbArc
 50
217.0219087997
 51
218.4388225891
  0
ARC
  5
323
100
AcDbEntity
  8
ALL_ASSEMBLY_MEMBERS
100
AcDbCircle
 62
7
  6
CONTINUOUS
 10
5.2009684696
 20
1.9773630952
 40
0.0470391499
100
AcDbArc
 50
216.0351422677
 51
217.0221795609
  0
ARC
  5
324
100
AcDbEntity
  8
ALL_ASSEMBLY_MEMBERS
100
AcDbCircle
 62
7
  6
CONTINUOUS
 10
5.2007850613
 20
1.977229784
 40
0.0468124112
100
AcDbArc
 50
215.2154633328
 51
216.0352558173
  0
ARC
  5
325
100
AcDbEntity
  8
ALL_ASSEMBLY_MEMBERS
100
AcDbCircle
 62
7
  6
CONTINUOUS
 10
5.1977619749
 20
1.9818285854
 40
0.0442934487
100
AcDbArc
 50
151.7600265018
 51
156.7519735985
  0
ARC
  5
326
100
AcDbEntity
  8
ALL_ASSEMBLY_MEMBERS
100
AcDbCircle
 62
7
  6
CONTINUOUS
 10
5.1930392844
 20
1.9792568785
 40
0.0400454202
100
AcDbArc
 50
171.8148333508
 51
182.0662061769
  0
ARC
  5
327
100
AcDbEntity
  8
ALL_ASSEMBLY_MEMBERS
100
AcDbCircle
 62
7
  6
CONTINUOUS
 10
5.1882023505
 20
1.9736994608
 40
0.0340207956
100
AcDbArc
 50
195.3495762955
 51
202.2042470048
  0
ARC
  5
328
100
AcDbEntity
  8
ALL_ASSEMBLY_MEMBERS
100
AcDbCircle
 62
7
  6
CONTINUOUS
 10
5.1838745761
 20
1.9714694167
 40
0.0291376989
100
AcDbArc
 50
211.8157139429
 51
221.2597634263
  0
ARC
  5
329
100
AcDbEntity
  8
ALL_ASSEMBLY_MEMBERS
100
AcDbCircle
 62
7
  6
CONTINUOUS
 10
5.1863945274
 20
1.9661617754
 40
0.0286631292
100
AcDbArc
 50
214.3742228324
 51
215.0760087438
  0
ARC
  5
32A
100
AcDbEntity
  8
ALL_ASSEMBLY_MEMBERS
100
AcDbCircle
 62
7
  6
CONTINUOUS
 10
5.1860435317
 20
1.9659132639
 40
0.0282330675
100
AcDbArc
 50
215.0726089641
 51
216.708791808
  0
ARC
  5
32B
100
AcDbEntity
  8
ALL_ASSEMBLY_MEMBERS
100
AcDbCircle
 62
7
  6
CONTINUOUS
 10
5.3087334835
 20
1.6177038308
 40
0.0153171091
100
AcDbArc
 50
134.9559536933
 51
137.5973676603
  0
ARC
  5
32C
100
AcDbEntity
  8
ALL_ASSEMBLY_MEMBERS
100
AcDbCircle
 62
7
  6
CONTINUOUS
 10
5.2152489023
 20
1.9884676858
 40
0.065157399
100
AcDbArc
 50
223.280764148
 51
229.3318757721
  0
ARC
  5
32D
100
AcDbEntity
  8
ALL_ASSEMBLY_MEMBERS
100
AcDbCircle
 62
7
  6
CONTINUOUS
 10
5.1866910421
 20
1.9893636395
 40
0.0309930147
100
AcDbArc
 50
149.9250060434
 51
154.3476409829
  0
ARC
  5
32E
100
AcDbEntity
  8
ALL_ASSEMBLY_MEMBERS
100
AcDbCircle
 62
7
  6
CONTINUOUS
 10
5.4613001919
 20
1.1295081478
 40
0.5270554301
100
AcDbArc
 50
96.6207420148
 51
97.7282382428
  0
ARC
  5
32F
100
AcDbEntity
  8
ALL_ASSEMBLY_MEMBERS
100
AcDbCircle
 62
7
  6
CONTINUOUS
 10
5.4365571527
 20
1.1616956529
 40
0.49241909
100
AcDbArc
 50
98.7224510084
 51
98.8863748366
  0
ARC
  5
330
100
AcDbEntity
  8
ALL_ASSEMBLY_MEMBERS
100
AcDbCircle
 62
7
  6
CONTINUOUS
 10
5.3590402565
 20
1.510636205
 40
0.4729233282
100
AcDbArc
 50
101.2787028633
 51
102.3765208026
  0
ARC
  5
331
100
AcDbEntity
  8
ALL_ASSEMBLY_MEMBERS
100
AcDbCircle
 62
7
  6
CONTINUOUS
 10
5.3496416043
 20
1.5536401197
 40
0.4289043569
100
AcDbArc
 50
102.3814659224
 51
102.7505843525
  0
ARC
  5
332
100
AcDbEntity
  8
ALL_ASSEMBLY_MEMBERS
100
AcDbCircle
 62
7
  6
CONTINUOUS
 10
5.3456457355
 20
1.5712795823
 40
0.4108179584
100
AcDbArc
 50
102.8036827454
 51
102.9719763951
  0
ARC
  5
333
100
AcDbEntity
  8
ALL_ASSEMBLY_MEMBERS
100
AcDbCircle
 62
7
  6
CONTINUOUS
 10
5.4933133778
 20
1.8915968534
 40
0.2712209094
100
AcDbArc
 50
270.7757112769
 51
273.1807964637
  0
ARC
  5
334
100
AcDbEntity
  8
ALL_ASSEMBLY_MEMBERS
100
AcDbCircle
 62
7
  6
CONTINUOUS
 10
5.4933133787
 20
1.3665139337
 40
0.2712208847
100
AcDbArc
 50
86.8192034269
 51
89.2242888325
  0
ARC
  5
335
100
AcDbEntity
  8
ALL_ASSEMBLY_MEMBERS
100
AcDbCircle
 62
7
  6
CONTINUOUS
 10
5.4926571181
 20
1.3665139364
 40
0.271220882
100
AcDbArc
 50
90.7757111557
 51
93.1807965849
  0
ARC
  5
336
100
AcDbEntity
  8
ALL_ASSEMBLY_MEMBERS
100
AcDbCircle
 62
7
  6
CONTINUOUS
 10
5.4926571178
 20
1.8915968161
 40
0.2712208721
100
AcDbArc
 50
266.8192033709
 51
269.2242888886
  0
ARC
  5
337
100
AcDbEntity
  8
ALL_ASSEMBLY_MEMBERS
100
AcDbCircle
 62
7
  6
CONTINUOUS
 10
5.4929852484
 20
2.7180703669
 40
1.1229632063
100
AcDbArc
 50
268.9795069219
 51
271.0204930781
  0
ARC
  5
338
100
AcDbEntity
  8
ALL_ASSEMBLY_MEMBERS
100
AcDbCircle
 62
7
  6
CONTINUOUS
 10
5.4929852484
 20
2.8463560691
 40
0.685
100
AcDbArc
 50
291.4087698808
 51
248.5912301192
  0
ARC
  5
339
100
AcDbEntity
  8
ALL_ASSEMBLY_MEMBERS
100
AcDbCircle
 62
7
  6
CONTINUOUS
 10
5.4929852484
 20
2.8463560691
 40
0.6713706144
100
AcDbArc
 50
291.8677256268
 51
248.1322800779
  0
ARC
  5
33A
100
AcDbEntity
  8
ALL_ASSEMBLY_MEMBERS
100
AcDbCircle
 62
7
  6
CONTINUOUS
 10
5.4929852484
 20
2.8463560691
 40
0.6613899404
100
AcDbArc
 50
292.2153346718
 51
247.7846712824
  0
ARC
  5
33B
100
AcDbEntity
  8
ALL_ASSEMBLY_MEMBERS
100
AcDbCircle
 62
7
  6
CONTINUOUS
 10
5.4929852484
 20
2.8463560691
 40
0.5890977069
100
AcDbArc
 50
295.1153123221
 51
244.8846876779
  0
ARC
  5
33C
100
AcDbEntity
  8
ALL_ASSEMBLY_MEMBERS
100
AcDbCircle
 62
7
  6
CONTINUOUS
 10
5.4929852484
 20
2.8463560691
 40
0.5525
100
AcDbArc
 50
138.1533121441
 51
161.8466878559
  0
ARC
  5
33D
100
AcDbEntity
  8
ALL_ASSEMBLY_MEMBERS
100
AcDbCircle
 62
7
  6
CONTINUOUS
 10
5.4929852484
 20
2.8463560691
 40
0.5525
100
AcDbArc
 50
198.1533121441
 51
221.8466878559
  0
ARC
  5
33E
100
AcDbEntity
  8
ALL_ASSEMBLY_MEMBERS
100
AcDbCircle
 62
7
  6
CONTINUOUS
 10
5.4929852484
 20
2.8463560691
 40
0.5525
100
AcDbArc
 50
318.1533121441
 51
341.8466878559
  0
ARC
  5
33F
100
AcDbEntity
  8
ALL_ASSEMBLY_MEMBERS
100
AcDbCircle
 62
7
  6
CONTINUOUS
 10
5.4929852484
 20
2.8463560691
 40
0.5525
100
AcDbArc
 50
18.1533121441
 51
41.8466878559
  0
ARC
  5
340
100
AcDbEntity
  8
ALL_ASSEMBLY_MEMBERS
100
AcDbCircle
 62
7
  6
CONTINUOUS
 10
5.4929852484
 20
2.8463560691
 40
0.5525
100
AcDbArc
 50
78.1533121441
 51
101.8466878559
  0
ARC
  5
341
100
AcDbEntity
  8
ALL_ASSEMBLY_MEMBERS
100
AcDbCircle
 62
7
  6
CONTINUOUS
 10
5.4929852484
 20
2.8463560691
 40
0.4825
100
AcDbArc
 50
301.2085462722
 51
238.7914537278
  0
ARC
  5
342
100
AcDbEntity
  8
ALL_ASSEMBLY_MEMBERS
100
AcDbCircle
 62
7
  6
CONTINUOUS
 10
5.4929852484
 20
2.8463560691
 40
0.3991949516
100
AcDbArc
 50
308.7802273771
 51
231.2197726229
  0
ARC
  5
343
100
AcDbEntity
  8
ALL_ASSEMBLY_MEMBERS
100
AcDbCircle
 62
7
  6
CONTINUOUS
 10
5.4929852484
 20
2.8463560691
 40
0.3575
100
AcDbArc
 50
314.3882446657
 51
225.6117553343
  0
ARC
  5
344
100
AcDbEntity
  8
ALL_ASSEMBLY_MEMBERS
100
AcDbCircle
 62
7
  6
CONTINUOUS
 10
5.4929852484
 20
2.8463560691
 40
0.3175
100
AcDbArc
 50
321.9571794448
 51
218.0428205552
  0
ARC
  5
345
100
AcDbEntity
  8
ALL_ASSEMBLY_MEMBERS
100
AcDbCircle
 62
7
  6
CONTINUOUS
 10
5.4929852484
 20
2.8463560691
 40
0.2868450182
100
AcDbArc
 50
330.6635465003
 51
209.3364534994
  0
ARC
  5
346
100
AcDbEntity
  8
ALL_ASSEMBLY_MEMBERS
100
AcDbCircle
 62
7
  6
CONTINUOUS
 10
5.4929852484
 20
2.8463560691
 40
0.2618450142
100
AcDbArc
 50
342.7505996139
 51
197.249115538
  0
ARC
  5
347
100
AcDbEntity
  8
ALL_ASSEMBLY_MEMBERS
100
AcDbCircle
 62
7
  6
CONTINUOUS
 10
5.4929852484
 20
2.8463560691
 40
0.255
100
AcDbArc
 50
348.7464429297
 51
191.2535570703
  0
ARC
  5
348
100
AcDbEntity
  8
ALL_ASSEMBLY_MEMBERS
100
AcDbCircle
 62
7
  6
CONTINUOUS
 10
5.4929852484
 20
2.8463560691
 40
0.25
100
AcDbArc
 50
0.0
 51
180.0
  0
ARC
  5
349
100
AcDbEntity
  8
ALL_ASSEMBLY_MEMBERS
100
AcDbCircle
 62
7
  6
CONTINUOUS
 10
3.0800079763
 20
5.9008787969
 40
0.1375
100
AcDbArc
 50
100.0
 51
350.0
  0
ARC
  5
34A
100
AcDbEntity
  8
ALL_ASSEMBLY_MEMBERS
100
AcDbCircle
 62
7
  6
CONTINUOUS
 10
3.1192962578
 20
6.1957861798
 40
0.125
100
AcDbArc
 50
268.0260516848
 51
0.6300714454
  0
ARC
  5
34B
100
AcDbEntity
  8
ALL_ASSEMBLY_MEMBERS
100
AcDbCircle
 62
7
  6
CONTINUOUS
 10
3.3749153592
 20
5.9401670784
 40
0.125
100
AcDbArc
 50
89.3699285546
 51
181.9739483152
  0
ARC
  5
34C
100
AcDbEntity
  8
ALL_ASSEMBLY_MEMBERS
100
AcDbCircle
 62
7
  6
CONTINUOUS
 10
3.3764603814
 20
6.0806585832
 40
0.0155
100
AcDbArc
 50
269.3699285546
 51
315.0
  0
ARC
  5
34D
100
AcDbEntity
  8
ALL_ASSEMBLY_MEMBERS
100
AcDbCircle
 62
7
  6
CONTINUOUS
 10
3.2597877625
 20
6.1973312021
 40
0.0155
100
AcDbArc
 50
135.0
 51
180.6300714454
  0
ARC
  5
34E
100
AcDbEntity
  8
ALL_ASSEMBLY_MEMBERS
100
AcDbCircle
 62
7
  6
CONTINUOUS
 10
3.2419942824
 20
5.9355858825
 40
0.008
100
AcDbArc
 50
259.6234510997
 51
1.9739483152
  0
ARC
  5
34F
100
AcDbEntity
  8
ALL_ASSEMBLY_MEMBERS
100
AcDbCircle
 62
7
  6
CONTINUOUS
 10
3.1147150618
 20
6.0628651031
 40
0.008
100
AcDbArc
 50
88.0260516848
 51
190.3765489003
  0
ARC
  5
350
100
AcDbEntity
  8
ALL_ASSEMBLY_MEMBERS
100
AcDbCircle
 62
7
  6
CONTINUOUS
 10
3.2319983615
 20
5.9249580002
 40
0.008
100
AcDbArc
 50
45.0
 51
170.0
  0
ARC
  5
351
100
AcDbEntity
  8
ALL_ASSEMBLY_MEMBERS
100
AcDbCircle
 62
7
  6
CONTINUOUS
 10
3.1040871796
 20
6.0528691822
 40
0.008
100
AcDbArc
 50
280.0
 51
45.0
  0
ARC
  5
352
100
AcDbEntity
  8
ALL_ASSEMBLY_MEMBERS
100
AcDbCircle
 62
7
  6
CONTINUOUS
 10
3.0800079763
 20
6.7918333412
 40
0.1375
100
AcDbArc
 50
10.0
 51
260.0
  0
ARC
  5
353
100
AcDbEntity
  8
ALL_ASSEMBLY_MEMBERS
100
AcDbCircle
 62
7
  6
CONTINUOUS
 10
3.3749153592
 20
6.7525450598
 40
0.125
100
AcDbArc
 50
178.0260516848
 51
270.6300714454
  0
ARC
  5
354
100
AcDbEntity
  8
ALL_ASSEMBLY_MEMBERS
100
AcDbCircle
 62
7
  6
CONTINUOUS
 10
3.1192962578
 20
6.4969259584
 40
0.125
100
AcDbArc
 50
359.3699285546
 51
91.9739483152
  0
ARC
  5
355
100
AcDbEntity
  8
ALL_ASSEMBLY_MEMBERS
100
AcDbCircle
 62
7
  6
CONTINUOUS
 10
3.3764603814
 20
6.612053555
 40
0.0155
100
AcDbArc
 50
45.0
 51
90.6300714454
  0
ARC
  5
356
100
AcDbEntity
  8
ALL_ASSEMBLY_MEMBERS
100
AcDbCircle
 62
7
  6
CONTINUOUS
 10
3.2597877625
 20
6.4953809361
 40
0.0155
100
AcDbArc
 50
179.3699285546
 51
225.0
  0
ARC
  5
357
100
AcDbEntity
  8
ALL_ASSEMBLY_MEMBERS
100
AcDbCircle
 62
7
  6
CONTINUOUS
 10
3.2419942824
 20
6.7571262557
 40
0.008
100
AcDbArc
 50
358.0260516848
 51
100.3765489003
  0
ARC
  5
358
100
AcDbEntity
  8
ALL_ASSEMBLY_MEMBERS
100
AcDbCircle
 62
7
  6
CONTINUOUS
 10
3.1147150618
 20
6.6298470351
 40
0.008
100
AcDbArc
 50
169.6234510997
 51
271.9739483152
  0
ARC
  5
359
100
AcDbEntity
  8
ALL_ASSEMBLY_MEMBERS
100
AcDbCircle
 62
7
  6
CONTINUOUS
 10
3.2319983615
 20
6.767754138
 40
0.008
100
AcDbArc
 50
190.0
 51
315.0
  0
ARC
  5
35A
100
AcDbEntity
  8
ALL_ASSEMBLY_MEMBERS
100
AcDbCircle
 62
7
  6
CONTINUOUS
 10
3.1040871796
 20
6.639842956
 40
0.008
100
AcDbArc
 50
315.0
 51
80.0
  0
ARC
  5
35B
100
AcDbEntity
  8
ALL_ASSEMBLY_MEMBERS
100
AcDbCircle
 62
7
  6
CONTINUOUS
 10
3.9709625206
 20
5.9008787969
 40
0.1375
100
AcDbArc
 50
190.0
 51
80.0
  0
ARC
  5
35C
100
AcDbEntity
  8
ALL_ASSEMBLY_MEMBERS
100
AcDbCircle
 62
7
  6
CONTINUOUS
 10
3.9316742391
 20
6.1957861798
 40
0.125
100
AcDbArc
 50
179.3699285546
 51
271.9739483152
  0
ARC
  5
35D
100
AcDbEntity
  8
ALL_ASSEMBLY_MEMBERS
100
AcDbCircle
 62
7
  6
CONTINUOUS
 10
3.6760551377
 20
5.9401670784
 40
0.125
100
AcDbArc
 50
358.0260516848
 51
90.6300714454
  0
ARC
  5
35E
100
AcDbEntity
  8
ALL_ASSEMBLY_MEMBERS
100
AcDbCircle
 62
7
  6
CONTINUOUS
 10
3.7911827344
 20
6.1973312021
 40
0.0155
100
AcDbArc
 50
359.3699285546
 51
45.0
  0
ARC
  5
35F
100
AcDbEntity
  8
ALL_ASSEMBLY_MEMBERS
100
AcDbCircle
 62
7
  6
CONTINUOUS
 10
3.6745101155
 20
6.0806585832
 40
0.0155
100
AcDbArc
 50
225.0
 51
270.6300714454
  0
ARC
  5
360
100
AcDbEntity
  8
ALL_ASSEMBLY_MEMBERS
100
AcDbCircle
 62
7
  6
CONTINUOUS
 10
3.9362554351
 20
6.0628651031
 40
0.008
100
AcDbArc
 50
349.6234510997
 51
91.9739483152
  0
ARC
  5
361
100
AcDbEntity
  8
ALL_ASSEMBLY_MEMBERS
100
AcDbCircle
 62
7
  6
CONTINUOUS
 10
3.8089762145
 20
5.9355858825
 40
0.008
100
AcDbArc
 50
178.0260516848
 51
280.3765489003
  0
ARC
  5
362
100
AcDbEntity
  8
ALL_ASSEMBLY_MEMBERS
100
AcDbCircle
 62
7
  6
CONTINUOUS
 10
3.8189721354
 20
5.9249580002
 40
0.008
100
AcDbArc
 50
10.0
 51
135.0
  0
ARC
  5
363
100
AcDbEntity
  8
ALL_ASSEMBLY_MEMBERS
100
AcDbCircle
 62
7
  6
CONTINUOUS
 10
3.9468833173
 20
6.0528691822
 40
0.008
100
AcDbArc
 50
135.0
 51
260.0
  0
ARC
  5
364
100
AcDbEntity
  8
ALL_ASSEMBLY_MEMBERS
100
AcDbCircle
 62
7
  6
CONTINUOUS
 10
3.5254852484
 20
6.3463560691
 40
0.59125
100
AcDbArc
 50
327.4056610277
 51
32.5933800794
  0
ARC
  5
365
100
AcDbEntity
  8
ALL_ASSEMBLY_MEMBERS
100
AcDbCircle
 62
7
  6
CONTINUOUS
 10
3.5254852484
 20
6.3463560691
 40
0.59125
100
AcDbArc
 50
57.4066199206
 51
122.5943389723
  0
ARC
  5
366
100
AcDbEntity
  8
ALL_ASSEMBLY_MEMBERS
100
AcDbCircle
 62
7
  6
CONTINUOUS
 10
3.5254852484
 20
6.3463560691
 40
0.59125
100
AcDbArc
 50
147.4056610277
 51
212.5933800794
  0
ARC
  5
367
100
AcDbEntity
  8
ALL_ASSEMBLY_MEMBERS
100
AcDbCircle
 62
7
  6
CONTINUOUS
 10
3.5254852484
 20
6.3463560691
 40
0.59125
100
AcDbArc
 50
237.4066199206
 51
302.5943389723
  0
ARC
  5
368
100
AcDbEntity
  8
ALL_ASSEMBLY_MEMBERS
100
AcDbCircle
 62
7
  6
CONTINUOUS
 10
3.5254852484
 20
6.3463560691
 40
0.5756679937
100
AcDbArc
 50
327.0361828802
 51
32.9663744884
  0
ARC
  5
369
100
AcDbEntity
  8
ALL_ASSEMBLY_MEMBERS
100
AcDbCircle
 62
7
  6
CONTINUOUS
 10
3.5254852484
 20
6.3463560691
 40
0.5756679937
100
AcDbArc
 50
57.0314219101
 51
122.9660871358
  0
ARC
  5
36A
100
AcDbEntity
  8
ALL_ASSEMBLY_MEMBERS
100
AcDbCircle
 62
7
  6
CONTINUOUS
 10
3.5254852484
 20
6.3463560691
 40
0.5756679937
100
AcDbArc
 50
147.0361828802
 51
212.9663744884
  0
ARC
  5
36B
100
AcDbEntity
  8
ALL_ASSEMBLY_MEMBERS
100
AcDbCircle
 62
7
  6
CONTINUOUS
 10
3.5254852484
 20
6.3463560691
 40
0.5756679937
100
AcDbArc
 50
237.0314219101
 51
302.9660871358
  0
ARC
  5
36C
100
AcDbEntity
  8
ALL_ASSEMBLY_MEMBERS
100
AcDbCircle
 62
7
  6
CONTINUOUS
 10
3.5254852484
 20
6.3463560691
 40
0.5545602594
100
AcDbArc
 50
326.1858634695
 51
33.814134898
  0
ARC
  5
36D
100
AcDbEntity
  8
ALL_ASSEMBLY_MEMBERS
100
AcDbCircle
 62
7
  6
CONTINUOUS
 10
3.5254852484
 20
6.3463560691
 40
0.5545602594
100
AcDbArc
 50
56.192148555
 51
123.807856353
  0
ARC
  5
36E
100
AcDbEntity
  8
ALL_ASSEMBLY_MEMBERS
100
AcDbCircle
 62
7
  6
CONTINUOUS
 10
3.5254852484
 20
6.3463560691
 40
0.5545602594
100
AcDbArc
 50
146.1858634695
 51
213.814134898
  0
ARC
  5
36F
100
AcDbEntity
  8
ALL_ASSEMBLY_MEMBERS
100
AcDbCircle
 62
7
  6
CONTINUOUS
 10
3.5254852484
 20
6.3463560691
 40
0.5545602594
100
AcDbArc
 50
236.192148555
 51
303.807856353
  0
ARC
  5
370
100
AcDbEntity
  8
ALL_ASSEMBLY_MEMBERS
100
AcDbCircle
 62
7
  6
CONTINUOUS
 10
3.5254852484
 20
6.3463560691
 40
0.4144385942
100
AcDbArc
 50
322.8945956721
 51
37.105404331
  0
ARC
  5
371
100
AcDbEntity
  8
ALL_ASSEMBLY_MEMBERS
100
AcDbCircle
 62
7
  6
CONTINUOUS
 10
3.5254852484
 20
6.3463560691
 40
0.4144385942
100
AcDbArc
 50
52.8947644424
 51
127.1052355586
  0
ARC
  5
372
100
AcDbEntity
  8
ALL_ASSEMBLY_MEMBERS
100
AcDbCircle
 62
7
  6
CONTINUOUS
 10
3.5254852484
 20
6.3463560691
 40
0.4144385942
100
AcDbArc
 50
142.8945956721
 51
217.105404331
  0
ARC
  5
373
100
AcDbEntity
  8
ALL_ASSEMBLY_MEMBERS
100
AcDbCircle
 62
7
  6
CONTINUOUS
 10
3.5254852484
 20
6.3463560691
 40
0.4144385942
100
AcDbArc
 50
232.8947644424
 51
307.1052355586
  0
ARC
  5
374
100
AcDbEntity
  8
ALL_ASSEMBLY_MEMBERS
100
AcDbCircle
 62
7
  6
CONTINUOUS
 10
3.5254852484
 20
6.3463560691
 40
0.3725
100
AcDbArc
 50
144.0310862744
 51
157.3417124253
  0
ARC
  5
375
100
AcDbEntity
  8
ALL_ASSEMBLY_MEMBERS
100
AcDbCircle
 62
7
  6
CONTINUOUS
 10
3.5254852484
 20
6.3463560691
 40
0.3725
100
AcDbArc
 50
202.6582875747
 51
215.968913725
  0
ARC
  5
376
100
AcDbEntity
  8
ALL_ASSEMBLY_MEMBERS
100
AcDbCircle
 62
7
  6
CONTINUOUS
 10
3.5254852484
 20
6.3463560691
 40
0.3725
100
AcDbArc
 50
262.6582875747
 51
277.3417124253
  0
ARC
  5
377
100
AcDbEntity
  8
ALL_ASSEMBLY_MEMBERS
100
AcDbCircle
 62
7
  6
CONTINUOUS
 10
3.5254852484
 20
6.3463560691
 40
0.3725
100
AcDbArc
 50
324.0310862744
 51
337.3417124253
  0
ARC
  5
378
100
AcDbEntity
  8
ALL_ASSEMBLY_MEMBERS
100
AcDbCircle
 62
7
  6
CONTINUOUS
 10
3.5254852484
 20
6.3463560691
 40
0.3725
100
AcDbArc
 50
22.6582875747
 51
35.968913725
  0
ARC
  5
379
100
AcDbEntity
  8
ALL_ASSEMBLY_MEMBERS
100
AcDbCircle
 62
7
  6
CONTINUOUS
 10
3.5254852484
 20
6.3463560691
 40
0.3725
100
AcDbArc
 50
82.6582875747
 51
97.3417124253
  0
ARC
  5
37A
100
AcDbEntity
  8
ALL_ASSEMBLY_MEMBERS
100
AcDbCircle
 62
7
  6
CONTINUOUS
 10
3.5254852484
 20
6.3463560691
 40
0.33325
100
AcDbArc
 50
148.3433045331
 51
211.6566954659
  0
ARC
  5
37B
100
AcDbEntity
  8
ALL_ASSEMBLY_MEMBERS
100
AcDbCircle
 62
7
  6
CONTINUOUS
 10
3.5254852484
 20
6.3463560691
 40
0.33325
100
AcDbArc
 50
58.3356850643
 51
121.6643149368
  0
ARC
  5
37C
100
AcDbEntity
  8
ALL_ASSEMBLY_MEMBERS
100
AcDbCircle
 62
7
  6
CONTINUOUS
 10
3.5254852484
 20
6.3463560691
 40
0.33325
100
AcDbArc
 50
328.3433045331
 51
31.6566954659
  0
ARC
  5
37D
100
AcDbEntity
  8
ALL_ASSEMBLY_MEMBERS
100
AcDbCircle
 62
7
  6
CONTINUOUS
 10
3.5254852484
 20
6.3463560691
 40
0.33325
100
AcDbArc
 50
238.3356850643
 51
301.6643149368
  0
ARC
  5
37E
100
AcDbEntity
  8
ALL_ASSEMBLY_MEMBERS
100
AcDbCircle
 62
7
  6
CONTINUOUS
 10
3.5254852484
 20
6.3463560691
 40
0.31
100
AcDbArc
 50
154.3079388237
 51
205.6920611763
  0
ARC
  5
37F
100
AcDbEntity
  8
ALL_ASSEMBLY_MEMBERS
100
AcDbCircle
 62
7
  6
CONTINUOUS
 10
3.5254852484
 20
6.3463560691
 40
0.31
100
AcDbArc
 50
64.3079388237
 51
115.6920611763
  0
ARC
  5
380
100
AcDbEntity
  8
ALL_ASSEMBLY_MEMBERS
100
AcDbCircle
 62
7
  6
CONTINUOUS
 10
3.5254852484
 20
6.3463560691
 40
0.31
100
AcDbArc
 50
334.3079388237
 51
25.6920611763
  0
ARC
  5
381
100
AcDbEntity
  8
ALL_ASSEMBLY_MEMBERS
100
AcDbCircle
 62
7
  6
CONTINUOUS
 10
3.5254852484
 20
6.3463560691
 40
0.31
100
AcDbArc
 50
244.3079388237
 51
295.6920611763
  0
CIRCLE
  5
382
100
AcDbEntity
  8
ALL_ASSEMBLY_MEMBERS
100
AcDbCircle
 62
7
  6
CONTINUOUS
 10
3.5254852484
 20
6.3463560691
 40
0.2888793674
  0
CIRCLE
  5
383
100
AcDbEntity
  8
ALL_ASSEMBLY_MEMBERS
100
AcDbCircle
 62
7
  6
CONTINUOUS
 10
3.5254852484
 20
6.3463560691
 40
0.27175
  0
CIRCLE
  5
384
100
AcDbEntity
  8
ALL_ASSEMBLY_MEMBERS
100
AcDbCircle
 62
7
  6
CONTINUOUS
 10
3.5254852484
 20
6.3463560691
 40
0.2612448614
  0
CIRCLE
  5
385
100
AcDbEntity
  8
ALL_ASSEMBLY_MEMBERS
100
AcDbCircle
 62
7
  6
CONTINUOUS
 10
3.5254852484
 20
6.3463560691
 40
0.2353126471
  0
CIRCLE
  5
386
100
AcDbEntity
  8
ALL_ASSEMBLY_MEMBERS
100
AcDbCircle
 62
7
  6
CONTINUOUS
 10
3.5254852484
 20
6.3463560691
 40
0.2273655393
  0
CIRCLE
  5
387
100
AcDbEntity
  8
ALL_ASSEMBLY_MEMBERS
100
AcDbCircle
 62
7
  6
CONTINUOUS
 10
3.5254852484
 20
6.3463560691
 40
0.21375
  0
CIRCLE
  5
388
100
AcDbEntity
  8
ALL_ASSEMBLY_MEMBERS
100
AcDbCircle
 62
7
  6
CONTINUOUS
 10
3.5254852484
 20
6.3463560691
 40
0.21
  0
CIRCLE
  5
389
100
AcDbEntity
  8
ALL_ASSEMBLY_MEMBERS
100
AcDbCircle
 62
7
  6
CONTINUOUS
 10
3.5254852484
 20
6.3463560691
 40
0.1932589286
  0
ARC
  5
38A
100
AcDbEntity
  8
ALL_ASSEMBLY_MEMBERS
100
AcDbCircle
 62
7
  6
CONTINUOUS
 10
3.6760551377
 20
6.7525450598
 40
0.125
100
AcDbArc
 50
269.3699285546
 51
1.9739483152
  0
ARC
  5
38B
100
AcDbEntity
  8
ALL_ASSEMBLY_MEMBERS
100
AcDbCircle
 62
7
  6
CONTINUOUS
 10
3.6745101155
 20
6.612053555
 40
0.0155
100
AcDbArc
 50
89.3699285546
 51
135.0
  0
ARC
  5
38C
100
AcDbEntity
  8
ALL_ASSEMBLY_MEMBERS
100
AcDbCircle
 62
7
  6
CONTINUOUS
 10
3.9316742391
 20
6.4969259584
 40
0.125
100
AcDbArc
 50
88.0260516848
 51
180.6300714454
  0
ARC
  5
38D
100
AcDbEntity
  8
ALL_ASSEMBLY_MEMBERS
100
AcDbCircle
 62
7
  6
CONTINUOUS
 10
3.7911827344
 20
6.4953809361
 40
0.0155
100
AcDbArc
 50
315.0
 51
0.6300714454
  0
ARC
  5
38E
100
AcDbEntity
  8
ALL_ASSEMBLY_MEMBERS
100
AcDbCircle
 62
7
  6
CONTINUOUS
 10
3.9709625206
 20
6.7918333412
 40
0.1375
100
AcDbArc
 50
280.0
 51
170.0
  0
ARC
  5
38F
100
AcDbEntity
  8
ALL_ASSEMBLY_MEMBERS
100
AcDbCircle
 62
7
  6
CONTINUOUS
 10
3.8089762145
 20
6.7571262557
 40
0.008
100
AcDbArc
 50
79.6234510997
 51
181.9739483152
  0
ARC
  5
390
100
AcDbEntity
  8
ALL_ASSEMBLY_MEMBERS
100
AcDbCircle
 62
7
  6
CONTINUOUS
 10
3.9362554351
 20
6.6298470351
 40
0.008
100
AcDbArc
 50
268.0260516848
 51
10.3765489003
  0
ARC
  5
391
100
AcDbEntity
  8
ALL_ASSEMBLY_MEMBERS
100
AcDbCircle
 62
7
  6
CONTINUOUS
 10
3.8189721354
 20
6.767754138
 40
0.008
100
AcDbArc
 50
225.0
 51
350.0
  0
ARC
  5
392
100
AcDbEntity
  8
ALL_ASSEMBLY_MEMBERS
100
AcDbCircle
 62
7
  6
CONTINUOUS
 10
3.9468833173
 20
6.639842956
 40
0.008
100
AcDbArc
 50
100.0
 51
225.0
  0
ARC
  5
393
100
AcDbEntity
  8
ALL_ASSEMBLY_MEMBERS
100
AcDbCircle
 62
7
  6
CONTINUOUS
 10
5.6160032073
 20
1.4962807492
 40
0.5677702502
100
AcDbArc
 50
78.5847550557
 51
79.1747705767
  0
ARC
  5
394
100
AcDbEntity
  8
ALL_ASSEMBLY_MEMBERS
100
AcDbCircle
 62
7
  6
CONTINUOUS
 10
5.6230798888
 20
1.5312788858
 40
0.5320638239
100
AcDbArc
 50
78.1536575247
 51
78.5858241289
  0
ARC
  5
395
100
AcDbEntity
  8
ALL_ASSEMBLY_MEMBERS
100
AcDbCircle
 62
7
  6
CONTINUOUS
 10
5.5263893176
 20
1.143164409
 40
0.5132920618
100
AcDbArc
 50
82.2569134041
 51
83.3941028429
  0
ARC
  5
396
100
AcDbEntity
  8
ALL_ASSEMBLY_MEMBERS
100
AcDbCircle
 62
7
  6
CONTINUOUS
 10
5.6275304847
 20
1.55250377
 40
0.5103773416
100
AcDbArc
 50
77.933371109
 51
78.1535000852
  0
ARC
  5
397
100
AcDbEntity
  8
ALL_ASSEMBLY_MEMBERS
100
AcDbCircle
 62
7
  6
CONTINUOUS
 10
5.5497150598
 20
1.1636436247
 40
0.4904478928
100
AcDbArc
 50
81.1132957436
 51
81.2778784113
  0
ARC
  5
398
100
AcDbEntity
  8
ALL_ASSEMBLY_MEMBERS
100
AcDbCircle
 62
7
  6
CONTINUOUS
 10
5.6324182148
 20
1.5361548725
 40
0.4468215368
100
AcDbArc
 50
77.2551708943
 51
78.2942870416
  0
ARC
  5
399
100
AcDbEntity
  8
ALL_ASSEMBLY_MEMBERS
100
AcDbCircle
 62
7
  6
CONTINUOUS
 10
5.6405346787
 20
1.5722063704
 40
0.4098677007
100
AcDbArc
 50
76.961107898
 51
77.2500255623
  0
ARC
  5
39A
100
AcDbEntity
  8
ALL_ASSEMBLY_MEMBERS
100
AcDbCircle
 62
7
  6
CONTINUOUS
 10
5.648338657
 20
1.6055276948
 40
0.3756448305
100
AcDbArc
 50
76.0761729153
 51
76.9740826386
  0
ARC
  5
39B
100
AcDbEntity
  8
ALL_ASSEMBLY_MEMBERS
100
AcDbCircle
 62
7
  6
CONTINUOUS
 10
5.6613666581
 20
1.6575111217
 40
0.3220539376
100
AcDbArc
 50
74.7637129576
 51
76.1004274101
  0
ARC
  5
39C
100
AcDbEntity
  8
ALL_ASSEMBLY_MEMBERS
100
AcDbCircle
 62
7
  6
CONTINUOUS
 10
5.7751497895
 20
1.9844846341
 40
0.0592005582
100
AcDbArc
 50
318.4233465765
 51
322.053392182
  0
ARC
  5
39D
100
AcDbEntity
  8
ALL_ASSEMBLY_MEMBERS
100
AcDbCircle
 62
7
  6
CONTINUOUS
 10
5.7782380589
 20
1.9821172967
 40
0.0553083455
100
AcDbArc
 50
324.7551530012
 51
327.253803799
  0
ARC
  5
39E
100
AcDbEntity
  8
ALL_ASSEMBLY_MEMBERS
100
AcDbCircle
 62
7
  6
CONTINUOUS
 10
5.7788929215
 20
1.9816923788
 40
0.054527711
100
AcDbArc
 50
327.2571246606
 51
330.8921434808
  0
ARC
  5
39F
100
AcDbEntity
  8
ALL_ASSEMBLY_MEMBERS
100
AcDbCircle
 62
7
  6
CONTINUOUS
 10
5.7794990156
 20
1.9813471273
 40
0.0538302142
100
AcDbArc
 50
330.8993924293
 51
331.8639459221
  0
ARC
  5
3A0
100
AcDbEntity
  8
ALL_ASSEMBLY_MEMBERS
100
AcDbCircle
 62
7
  6
CONTINUOUS
 10
5.7838035892
 20
1.9796747405
 40
0.04918236
100
AcDbArc
 50
349.7595232694
 51
357.7769872517
  0
ARC
  5
3A1
100
AcDbEntity
  8
ALL_ASSEMBLY_MEMBERS
100
AcDbCircle
 62
7
  6
CONTINUOUS
 10
5.7856449641
 20
1.9806427198
 40
0.0477199886
100
AcDbArc
 50
323.4851543288
 51
328.0154301427
  0
ARC
  5
3A2
100
AcDbEntity
  8
ALL_ASSEMBLY_MEMBERS
100
AcDbCircle
 62
7
  6
CONTINUOUS
 10
5.7847794846
 20
1.9775240938
 40
0.0473139303
100
AcDbArc
 50
321.5585065616
 51
322.9781760641
  0
ARC
  5
3A3
100
AcDbEntity
  8
ALL_ASSEMBLY_MEMBERS
100
AcDbCircle
 62
7
  6
CONTINUOUS
 10
5.7849963124
 20
1.9773608041
 40
0.0470424937
100
AcDbArc
 50
322.9779511245
 51
323.9321655418
  0
ARC
  5
3A4
100
AcDbEntity
  8
ALL_ASSEMBLY_MEMBERS
100
AcDbCircle
 62
7
  6
CONTINUOUS
 10
5.785177188
 20
1.9772291995
 40
0.046818807
100
AcDbArc
 50
323.9320303611
 51
324.7602602908
  0
ARC
  5
3A5
100
AcDbEntity
  8
ALL_ASSEMBLY_MEMBERS
100
AcDbCircle
 62
7
  6
CONTINUOUS
 10
5.7882036137
 20
1.9818205853
 40
0.0443011204
100
AcDbArc
 50
23.2944410687
 51
28.2234325982
  0
ARC
  5
3A6
100
AcDbEntity
  8
ALL_ASSEMBLY_MEMBERS
100
AcDbCircle
 62
7
  6
CONTINUOUS
 10
5.7929416869
 20
1.9792515895
 40
0.040034699
100
AcDbArc
 50
357.8630910317
 51
8.1446318944
  0
ARC
  5
3A7
100
AcDbEntity
  8
ALL_ASSEMBLY_MEMBERS
100
AcDbCircle
 62
7
  6
CONTINUOUS
 10
5.7977613454
 20
1.9736933454
 40
0.0340247884
100
AcDbArc
 50
337.831806043
 51
344.6178211661
  0
ARC
  5
3A8
100
AcDbEntity
  8
ALL_ASSEMBLY_MEMBERS
100
AcDbCircle
 62
7
  6
CONTINUOUS
 10
5.7992678761
 20
1.9893479267
 40
0.0310109102
100
AcDbArc
 50
25.6371238106
 51
29.9827561223
  0
ARC
  5
3A9
100
AcDbEntity
  8
ALL_ASSEMBLY_MEMBERS
100
AcDbCircle
 62
7
  6
CONTINUOUS
 10
5.8020939151
 20
1.9714615558
 40
0.0291365787
100
AcDbArc
 50
318.7431215564
 51
328.1870704301
  0
ARC
  5
3AA
100
AcDbEntity
  8
ALL_ASSEMBLY_MEMBERS
100
AcDbCircle
 62
7
  6
CONTINUOUS
 10
5.7995776901
 20
1.9661494425
 40
0.0286543689
100
AcDbArc
 50
324.8779893133
 51
325.6291303631
  0
ARC
  5
3AB
100
AcDbEntity
  8
ALL_ASSEMBLY_MEMBERS
100
AcDbCircle
 62
7
  6
CONTINUOUS
 10
5.7999269612
 20
1.9659019149
 40
0.0282262826
100
AcDbArc
 50
323.2990916348
 51
324.8810696346
  0
ARC
  5
3AC
100
AcDbEntity
  8
ALL_ASSEMBLY_MEMBERS
100
AcDbCircle
 62
7
  6
CONTINUOUS
 10
5.6774690212
 20
1.6179257232
 40
0.0149961606
100
AcDbArc
 50
42.3743613416
 51
45.0723173048
  0
ARC
  5
3AD
100
AcDbEntity
  8
ALL_ASSEMBLY_MEMBERS
100
AcDbCircle
 62
7
  6
CONTINUOUS
 10
7.0175079763
 20
5.9008787969
 40
0.1375
100
AcDbArc
 50
100.0
 51
350.0
  0
ARC
  5
3AE
100
AcDbEntity
  8
ALL_ASSEMBLY_MEMBERS
100
AcDbCircle
 62
7
  6
CONTINUOUS
 10
7.0567962578
 20
6.1957861798
 40
0.125
100
AcDbArc
 50
268.0260516848
 51
0.6300714454
  0
ARC
  5
3AF
100
AcDbEntity
  8
ALL_ASSEMBLY_MEMBERS
100
AcDbCircle
 62
7
  6
CONTINUOUS
 10
7.3124153592
 20
5.9401670784
 40
0.125
100
AcDbArc
 50
89.3699285546
 51
181.9739483152
  0
ARC
  5
3B0
100
AcDbEntity
  8
ALL_ASSEMBLY_MEMBERS
100
AcDbCircle
 62
7
  6
CONTINUOUS
 10
7.3139603814
 20
6.0806585832
 40
0.0155
100
AcDbArc
 50
269.3699285546
 51
315.0
  0
ARC
  5
3B1
100
AcDbEntity
  8
ALL_ASSEMBLY_MEMBERS
100
AcDbCircle
 62
7
  6
CONTINUOUS
 10
7.1972877625
 20
6.1973312021
 40
0.0155
100
AcDbArc
 50
135.0
 51
180.6300714454
  0
ARC
  5
3B2
100
AcDbEntity
  8
ALL_ASSEMBLY_MEMBERS
100
AcDbCircle
 62
7
  6
CONTINUOUS
 10
7.1794942824
 20
5.9355858825
 40
0.008
100
AcDbArc
 50
259.6234510997
 51
1.9739483152
  0
ARC
  5
3B3
100
AcDbEntity
  8
ALL_ASSEMBLY_MEMBERS
100
AcDbCircle
 62
7
  6
CONTINUOUS
 10
7.0522150618
 20
6.0628651031
 40
0.008
100
AcDbArc
 50
88.0260516848
 51
190.3765489003
  0
ARC
  5
3B4
100
AcDbEntity
  8
ALL_ASSEMBLY_MEMBERS
100
AcDbCircle
 62
7
  6
CONTINUOUS
 10
7.1694983615
 20
5.9249580002
 40
0.008
100
AcDbArc
 50
45.0
 51
170.0
  0
ARC
  5
3B5
100
AcDbEntity
  8
ALL_ASSEMBLY_MEMBERS
100
AcDbCircle
 62
7
  6
CONTINUOUS
 10
7.0415871796
 20
6.0528691822
 40
0.008
100
AcDbArc
 50
280.0
 51
45.0
  0
ARC
  5
3B6
100
AcDbEntity
  8
ALL_ASSEMBLY_MEMBERS
100
AcDbCircle
 62
7
  6
CONTINUOUS
 10
7.0175079763
 20
6.7918333412
 40
0.1375
100
AcDbArc
 50
10.0
 51
260.0
  0
ARC
  5
3B7
100
AcDbEntity
  8
ALL_ASSEMBLY_MEMBERS
100
AcDbCircle
 62
7
  6
CONTINUOUS
 10
7.3124153592
 20
6.7525450598
 40
0.125
100
AcDbArc
 50
178.0260516848
 51
270.6300714454
  0
ARC
  5
3B8
100
AcDbEntity
  8
ALL_ASSEMBLY_MEMBERS
100
AcDbCircle
 62
7
  6
CONTINUOUS
 10
7.0567962578
 20
6.4969259584
 40
0.125
100
AcDbArc
 50
359.3699285546
 51
91.9739483152
  0
ARC
  5
3B9
100
AcDbEntity
  8
ALL_ASSEMBLY_MEMBERS
100
AcDbCircle
 62
7
  6
CONTINUOUS
 10
7.3139603814
 20
6.612053555
 40
0.0155
100
AcDbArc
 50
45.0
 51
90.6300714454
  0
ARC
  5
3BA
100
AcDbEntity
  8
ALL_ASSEMBLY_MEMBERS
100
AcDbCircle
 62
7
  6
CONTINUOUS
 10
7.1972877625
 20
6.4953809361
 40
0.0155
100
AcDbArc
 50
179.3699285546
 51
225.0
  0
ARC
  5
3BB
100
AcDbEntity
  8
ALL_ASSEMBLY_MEMBERS
100
AcDbCircle
 62
7
  6
CONTINUOUS
 10
7.1794942824
 20
6.7571262557
 40
0.008
100
AcDbArc
 50
358.0260516849
 51
100.3765489003
  0
ARC
  5
3BC
100
AcDbEntity
  8
ALL_ASSEMBLY_MEMBERS
100
AcDbCircle
 62
7
  6
CONTINUOUS
 10
7.0522150618
 20
6.6298470351
 40
0.008
100
AcDbArc
 50
169.6234510997
 51
271.9739483152
  0
ARC
  5
3BD
100
AcDbEntity
  8
ALL_ASSEMBLY_MEMBERS
100
AcDbCircle
 62
7
  6
CONTINUOUS
 10
7.1694983615
 20
6.767754138
 40
0.008
100
AcDbArc
 50
190.0
 51
315.0
  0
ARC
  5
3BE
100
AcDbEntity
  8
ALL_ASSEMBLY_MEMBERS
100
AcDbCircle
 62
7
  6
CONTINUOUS
 10
7.0415871796
 20
6.639842956
 40
0.008
100
AcDbArc
 50
315.0
 51
80.0
  0
ARC
  5
3BF
100
AcDbEntity
  8
ALL_ASSEMBLY_MEMBERS
100
AcDbCircle
 62
7
  6
CONTINUOUS
 10
7.9084625206
 20
5.9008787969
 40
0.1375
100
AcDbArc
 50
190.0
 51
80.0
  0
ARC
  5
3C0
100
AcDbEntity
  8
ALL_ASSEMBLY_MEMBERS
100
AcDbCircle
 62
7
  6
CONTINUOUS
 10
7.8691742391
 20
6.1957861798
 40
0.125
100
AcDbArc
 50
179.3699285546
 51
271.9739483152
  0
ARC
  5
3C1
100
AcDbEntity
  8
ALL_ASSEMBLY_MEMBERS
100
AcDbCircle
 62
7
  6
CONTINUOUS
 10
7.6135551377
 20
5.9401670784
 40
0.125
100
AcDbArc
 50
358.0260516848
 51
90.6300714454
  0
ARC
  5
3C2
100
AcDbEntity
  8
ALL_ASSEMBLY_MEMBERS
100
AcDbCircle
 62
7
  6
CONTINUOUS
 10
7.7286827344
 20
6.1973312021
 40
0.0155
100
AcDbArc
 50
359.3699285546
 51
45.0
  0
ARC
  5
3C3
100
AcDbEntity
  8
ALL_ASSEMBLY_MEMBERS
100
AcDbCircle
 62
7
  6
CONTINUOUS
 10
7.6120101155
 20
6.0806585832
 40
0.0155
100
AcDbArc
 50
225.0
 51
270.6300714454
  0
ARC
  5
3C4
100
AcDbEntity
  8
ALL_ASSEMBLY_MEMBERS
100
AcDbCircle
 62
7
  6
CONTINUOUS
 10
7.8737554351
 20
6.0628651031
 40
0.008
100
AcDbArc
 50
349.6234510997
 51
91.9739483151
  0
ARC
  5
3C5
100
AcDbEntity
  8
ALL_ASSEMBLY_MEMBERS
100
AcDbCircle
 62
7
  6
CONTINUOUS
 10
7.7464762145
 20
5.9355858825
 40
0.008
100
AcDbArc
 50
178.0260516849
 51
280.3765489003
  0
ARC
  5
3C6
100
AcDbEntity
  8
ALL_ASSEMBLY_MEMBERS
100
AcDbCircle
 62
7
  6
CONTINUOUS
 10
7.7564721354
 20
5.9249580002
 40
0.008
100
AcDbArc
 50
10.0
 51
135.0
  0
ARC
  5
3C7
100
AcDbEntity
  8
ALL_ASSEMBLY_MEMBERS
100
AcDbCircle
 62
7
  6
CONTINUOUS
 10
7.8843833173
 20
6.0528691822
 40
0.008
100
AcDbArc
 50
135.0
 51
260.0
  0
ARC
  5
3C8
100
AcDbEntity
  8
ALL_ASSEMBLY_MEMBERS
100
AcDbCircle
 62
7
  6
CONTINUOUS
 10
7.4629852484
 20
6.3463560691
 40
0.59125
100
AcDbArc
 50
327.4056610277
 51
32.5933800794
  0
ARC
  5
3C9
100
AcDbEntity
  8
ALL_ASSEMBLY_MEMBERS
100
AcDbCircle
 62
7
  6
CONTINUOUS
 10
7.4629852484
 20
6.3463560691
 40
0.59125
100
AcDbArc
 50
57.4066199206
 51
122.5943389723
  0
ARC
  5
3CA
100
AcDbEntity
  8
ALL_ASSEMBLY_MEMBERS
100
AcDbCircle
 62
7
  6
CONTINUOUS
 10
7.4629852484
 20
6.3463560691
 40
0.59125
100
AcDbArc
 50
147.4056610277
 51
212.5933800794
  0
ARC
  5
3CB
100
AcDbEntity
  8
ALL_ASSEMBLY_MEMBERS
100
AcDbCircle
 62
7
  6
CONTINUOUS
 10
7.4629852484
 20
6.3463560691
 40
0.59125
100
AcDbArc
 50
237.4066199206
 51
302.5943389723
  0
ARC
  5
3CC
100
AcDbEntity
  8
ALL_ASSEMBLY_MEMBERS
100
AcDbCircle
 62
7
  6
CONTINUOUS
 10
7.4629852484
 20
6.3463560691
 40
0.5756679937
100
AcDbArc
 50
327.0361828802
 51
32.9663744884
  0
ARC
  5
3CD
100
AcDbEntity
  8
ALL_ASSEMBLY_MEMBERS
100
AcDbCircle
 62
7
  6
CONTINUOUS
 10
7.4629852484
 20
6.3463560691
 40
0.5756679937
100
AcDbArc
 50
57.0314219101
 51
122.9660871358
  0
ARC
  5
3CE
100
AcDbEntity
  8
ALL_ASSEMBLY_MEMBERS
100
AcDbCircle
 62
7
  6
CONTINUOUS
 10
7.4629852484
 20
6.3463560691
 40
0.5756679937
100
AcDbArc
 50
147.0361828802
 51
212.9663744884
  0
ARC
  5
3CF
100
AcDbEntity
  8
ALL_ASSEMBLY_MEMBERS
100
AcDbCircle
 62
7
  6
CONTINUOUS
 10
7.4629852484
 20
6.3463560691
 40
0.5756679937
100
AcDbArc
 50
237.0314219101
 51
302.9660871358
  0
ARC
  5
3D0
100
AcDbEntity
  8
ALL_ASSEMBLY_MEMBERS
100
AcDbCircle
 62
7
  6
CONTINUOUS
 10
7.4629852484
 20
6.3463560691
 40
0.5545602594
100
AcDbArc
 50
326.1858634695
 51
33.814134898
  0
ARC
  5
3D1
100
AcDbEntity
  8
ALL_ASSEMBLY_MEMBERS
100
AcDbCircle
 62
7
  6
CONTINUOUS
 10
7.4629852484
 20
6.3463560691
 40
0.5545602594
100
AcDbArc
 50
56.192148555
 51
123.807856353
  0
ARC
  5
3D2
100
AcDbEntity
  8
ALL_ASSEMBLY_MEMBERS
100
AcDbCircle
 62
7
  6
CONTINUOUS
 10
7.4629852484
 20
6.3463560691
 40
0.5545602594
100
AcDbArc
 50
146.1858634695
 51
213.814134898
  0
ARC
  5
3D3
100
AcDbEntity
  8
ALL_ASSEMBLY_MEMBERS
100
AcDbCircle
 62
7
  6
CONTINUOUS
 10
7.4629852484
 20
6.3463560691
 40
0.5545602594
100
AcDbArc
 50
236.192148555
 51
303.807856353
  0
ARC
  5
3D4
100
AcDbEntity
  8
ALL_ASSEMBLY_MEMBERS
100
AcDbCircle
 62
7
  6
CONTINUOUS
 10
7.4629852484
 20
6.3463560691
 40
0.4144385942
100
AcDbArc
 50
322.8945956721
 51
37.105404331
  0
ARC
  5
3D5
100
AcDbEntity
  8
ALL_ASSEMBLY_MEMBERS
100
AcDbCircle
 62
7
  6
CONTINUOUS
 10
7.4629852484
 20
6.3463560691
 40
0.4144385942
100
AcDbArc
 50
52.8947644424
 51
127.1052355586
  0
ARC
  5
3D6
100
AcDbEntity
  8
ALL_ASSEMBLY_MEMBERS
100
AcDbCircle
 62
7
  6
CONTINUOUS
 10
7.4629852484
 20
6.3463560691
 40
0.4144385942
100
AcDbArc
 50
142.8945956721
 51
217.105404331
  0
ARC
  5
3D7
100
AcDbEntity
  8
ALL_ASSEMBLY_MEMBERS
100
AcDbCircle
 62
7
  6
CONTINUOUS
 10
7.4629852484
 20
6.3463560691
 40
0.4144385942
100
AcDbArc
 50
232.8947644424
 51
307.1052355586
  0
ARC
  5
3D8
100
AcDbEntity
  8
ALL_ASSEMBLY_MEMBERS
100
AcDbCircle
 62
7
  6
CONTINUOUS
 10
7.4629852484
 20
6.3463560691
 40
0.3725
100
AcDbArc
 50
144.0310862744
 51
157.3417124253
  0
ARC
  5
3D9
100
AcDbEntity
  8
ALL_ASSEMBLY_MEMBERS
100
AcDbCircle
 62
7
  6
CONTINUOUS
 10
7.4629852484
 20
6.3463560691
 40
0.3725
100
AcDbArc
 50
202.6582875747
 51
215.968913725
  0
ARC
  5
3DA
100
AcDbEntity
  8
ALL_ASSEMBLY_MEMBERS
100
AcDbCircle
 62
7
  6
CONTINUOUS
 10
7.4629852484
 20
6.3463560691
 40
0.3725
100
AcDbArc
 50
262.6582875747
 51
277.3417124253
  0
ARC
  5
3DB
100
AcDbEntity
  8
ALL_ASSEMBLY_MEMBERS
100
AcDbCircle
 62
7
  6
CONTINUOUS
 10
7.4629852484
 20
6.3463560691
 40
0.3725
100
AcDbArc
 50
324.0310862744
 51
337.3417124253
  0
ARC
  5
3DC
100
AcDbEntity
  8
ALL_ASSEMBLY_MEMBERS
100
AcDbCircle
 62
7
  6
CONTINUOUS
 10
7.4629852484
 20
6.3463560691
 40
0.3725
100
AcDbArc
 50
22.6582875747
 51
35.968913725
  0
ARC
  5
3DD
100
AcDbEntity
  8
ALL_ASSEMBLY_MEMBERS
100
AcDbCircle
 62
7
  6
CONTINUOUS
 10
7.4629852484
 20
6.3463560691
 40
0.3725
100
AcDbArc
 50
82.6582875747
 51
97.3417124253
  0
ARC
  5
3DE
100
AcDbEntity
  8
ALL_ASSEMBLY_MEMBERS
100
AcDbCircle
 62
7
  6
CONTINUOUS
 10
7.4629852484
 20
6.3463560691
 40
0.33325
100
AcDbArc
 50
148.3433045331
 51
211.6566954659
  0
ARC
  5
3DF
100
AcDbEntity
  8
ALL_ASSEMBLY_MEMBERS
100
AcDbCircle
 62
7
  6
CONTINUOUS
 10
7.4629852484
 20
6.3463560691
 40
0.33325
100
AcDbArc
 50
58.3356850643
 51
121.6643149368
  0
ARC
  5
3E0
100
AcDbEntity
  8
ALL_ASSEMBLY_MEMBERS
100
AcDbCircle
 62
7
  6
CONTINUOUS
 10
7.4629852484
 20
6.3463560691
 40
0.33325
100
AcDbArc
 50
328.3433045331
 51
31.6566954659
  0
ARC
  5
3E1
100
AcDbEntity
  8
ALL_ASSEMBLY_MEMBERS
100
AcDbCircle
 62
7
  6
CONTINUOUS
 10
7.4629852484
 20
6.3463560691
 40
0.33325
100
AcDbArc
 50
238.3356850643
 51
301.6643149368
  0
ARC
  5
3E2
100
AcDbEntity
  8
ALL_ASSEMBLY_MEMBERS
100
AcDbCircle
 62
7
  6
CONTINUOUS
 10
7.4629852484
 20
6.3463560691
 40
0.31
100
AcDbArc
 50
154.3079388237
 51
205.6920611763
  0
ARC
  5
3E3
100
AcDbEntity
  8
ALL_ASSEMBLY_MEMBERS
100
AcDbCircle
 62
7
  6
CONTINUOUS
 10
7.4629852484
 20
6.3463560691
 40
0.31
100
AcDbArc
 50
64.3079388237
 51
115.6920611763
  0
ARC
  5
3E4
100
AcDbEntity
  8
ALL_ASSEMBLY_MEMBERS
100
AcDbCircle
 62
7
  6
CONTINUOUS
 10
7.4629852484
 20
6.3463560691
 40
0.31
100
AcDbArc
 50
334.3079388237
 51
25.6920611763
  0
ARC
  5
3E5
100
AcDbEntity
  8
ALL_ASSEMBLY_MEMBERS
100
AcDbCircle
 62
7
  6
CONTINUOUS
 10
7.4629852484
 20
6.3463560691
 40
0.31
100
AcDbArc
 50
244.3079388237
 51
295.6920611763
  0
CIRCLE
  5
3E6
100
AcDbEntity
  8
ALL_ASSEMBLY_MEMBERS
100
AcDbCircle
 62
7
  6
CONTINUOUS
 10
7.4629852484
 20
6.3463560691
 40
0.2888793674
  0
CIRCLE
  5
3E7
100
AcDbEntity
  8
ALL_ASSEMBLY_MEMBERS
100
AcDbCircle
 62
7
  6
CONTINUOUS
 10
7.4629852484
 20
6.3463560691
 40
0.27175
  0
CIRCLE
  5
3E8
100
AcDbEntity
  8
ALL_ASSEMBLY_MEMBERS
100
AcDbCircle
 62
7
  6
CONTINUOUS
 10
7.4629852484
 20
6.3463560691
 40
0.2612448614
  0
CIRCLE
  5
3E9
100
AcDbEntity
  8
ALL_ASSEMBLY_MEMBERS
100
AcDbCircle
 62
7
  6
CONTINUOUS
 10
7.4629852484
 20
6.3463560691
 40
0.2353126471
  0
CIRCLE
  5
3EA
100
AcDbEntity
  8
ALL_ASSEMBLY_MEMBERS
100
AcDbCircle
 62
7
  6
CONTINUOUS
 10
7.4629852484
 20
6.3463560691
 40
0.2273655393
  0
CIRCLE
  5
3EB
100
AcDbEntity
  8
ALL_ASSEMBLY_MEMBERS
100
AcDbCircle
 62
7
  6
CONTINUOUS
 10
7.4629852484
 20
6.3463560691
 40
0.21375
  0
CIRCLE
  5
3EC
100
AcDbEntity
  8
ALL_ASSEMBLY_MEMBERS
100
AcDbCircle
 62
7
  6
CONTINUOUS
 10
7.4629852484
 20
6.3463560691
 40
0.21
  0
CIRCLE
  5
3ED
100
AcDbEntity
  8
ALL_ASSEMBLY_MEMBERS
100
AcDbCircle
 62
7
  6
CONTINUOUS
 10
7.4629852484
 20
6.3463560691
 40
0.1932589286
  0
ARC
  5
3EE
100
AcDbEntity
  8
ALL_ASSEMBLY_MEMBERS
100
AcDbCircle
 62
7
  6
CONTINUOUS
 10
7.6135551377
 20
6.7525450598
 40
0.125
100
AcDbArc
 50
269.3699285546
 51
1.9739483152
  0
ARC
  5
3EF
100
AcDbEntity
  8
ALL_ASSEMBLY_MEMBERS
100
AcDbCircle
 62
7
  6
CONTINUOUS
 10
7.6120101155
 20
6.612053555
 40
0.0155
100
AcDbArc
 50
89.3699285546
 51
135.0
  0
ARC
  5
3F0
100
AcDbEntity
  8
ALL_ASSEMBLY_MEMBERS
100
AcDbCircle
 62
7
  6
CONTINUOUS
 10
7.8691742391
 20
6.4969259584
 40
0.125
100
AcDbArc
 50
88.0260516848
 51
180.6300714454
  0
ARC
  5
3F1
100
AcDbEntity
  8
ALL_ASSEMBLY_MEMBERS
100
AcDbCircle
 62
7
  6
CONTINUOUS
 10
7.7286827344
 20
6.4953809361
 40
0.0155
100
AcDbArc
 50
315.0
 51
0.6300714454
  0
ARC
  5
3F2
100
AcDbEntity
  8
ALL_ASSEMBLY_MEMBERS
100
AcDbCircle
 62
7
  6
CONTINUOUS
 10
7.9084625206
 20
6.7918333412
 40
0.1375
100
AcDbArc
 50
280.0
 51
170.0
  0
ARC
  5
3F3
100
AcDbEntity
  8
ALL_ASSEMBLY_MEMBERS
100
AcDbCircle
 62
7
  6
CONTINUOUS
 10
7.7464762145
 20
6.7571262557
 40
0.008
100
AcDbArc
 50
79.6234510997
 51
181.9739483152
  0
ARC
  5
3F4
100
AcDbEntity
  8
ALL_ASSEMBLY_MEMBERS
100
AcDbCircle
 62
7
  6
CONTINUOUS
 10
7.8737554351
 20
6.6298470351
 40
0.008
100
AcDbArc
 50
268.0260516848
 51
10.3765489003
  0
ARC
  5
3F5
100
AcDbEntity
  8
ALL_ASSEMBLY_MEMBERS
100
AcDbCircle
 62
7
  6
CONTINUOUS
 10
7.7564721354
 20
6.767754138
 40
0.008
100
AcDbArc
 50
225.0
 51
350.0
  0
ARC
  5
3F6
100
AcDbEntity
  8
ALL_ASSEMBLY_MEMBERS
100
AcDbCircle
 62
7
  6
CONTINUOUS
 10
7.8843833173
 20
6.639842956
 40
0.008
100
AcDbArc
 50
100.0
 51
225.0
  0
SPLINE
  5
3F7
100
AcDbEntity
  8
ALL_ASSEMBLY_MEMBERS
100
AcDbSpline
 62
7
  6
CONTINUOUS
 70
0
 71
3
 72
12
 73
8
 74
0
 42
0.0000001
 43
0.0000001
 44
0.0000000001
 40
0.0
 40
0.0
 40
0.0
 40
0.0
 40
0.3103237358
 40
0.5776062996
 40
0.696171483
 40
0.8054968204
 40
1.0
 40
1.0
 40
1.0
 40
1.0
 10
5.5405619008
 20
1.6263851366
 30
0.0
 10
5.5408397538
 20
1.6265344155
 30
0.0
 10
5.5413467916
 20
1.6268320483
 30
0.0
 10
5.5419169145
 20
1.6272547061
 30
0.0
 10
5.5422844647
 20
1.6275995404
 30
0.0
 10
5.5425706039
 20
1.6279197785
 30
0.0
 10
5.5427420509
 20
1.6281813343
 30
0.0
 10
5.5428249916
 20
1.6283607885
 30
0.0
  0
SPLINE
  5
3F8
100
AcDbEntity
  8
ALL_ASSEMBLY_MEMBERS
100
AcDbSpline
 62
7
  6
CONTINUOUS
 70
0
 71
3
 72
10
 73
6
 74
0
 42
0.0000001
 43
0.0000001
 44
0.0000000001
 40
0.0
 40
0.0
 40
0.0
 40
0.0
 40
0.2384404643
 40
0.4831553379
 40
1.0
 40
1.0
 40
1.0
 40
1.0
 10
5.2975525364
 20
1.6281647259
 30
0.0
 10
5.29758543
 20
1.6279471087
 30
0.0
 10
5.2976761645
 20
1.6275094133
 30
0.0
 10
5.2979560318
 20
1.6266286041
 30
0.0
 10
5.2982678548
 20
1.6259928972
 30
0.0
 10
5.2985109571
 20
1.6255824177
 30
0.0
  0
SPLINE
  5
3F9
100
AcDbEntity
  8
ALL_ASSEMBLY_MEMBERS
100
AcDbSpline
 62
7
  6
CONTINUOUS
 70
0
 71
3
 72
11
 73
7
 74
0
 42
0.0000001
 43
0.0000001
 44
0.0000000001
 40
0.0
 40
0.0
 40
0.0
 40
0.0
 40
0.2792504866
 40
0.5395059614
 40
0.7799616714
 40
1.0
 40
1.0
 40
1.0
 40
1.0
 10
5.5310556959
 20
1.6234268198
 30
0.0
 10
5.5316633811
 20
1.6235507593
 30
0.0
 10
5.5328348184
 20
1.6238032578
 30
0.0
 10
5.5345182679
 20
1.6242124543
 30
0.0
 10
5.5360617445
 20
1.6246377328
 30
0.0
 10
5.5370376859
 20
1.6249445914
 30
0.0
 10
5.5375004333
 20
1.6251016966
 30
0.0
  0
LINE
  5
3FA
100
AcDbEntity
  8
ALL_ASSEMBLY_MEMBERS
100
AcDbLine
 62
7
  6
CONTINUOUS
 10
5.5157536106
 20
1.6213254005
 11
5.5253988417
 21
1.6224445174
  0
LINE
  5
3FB
100
AcDbEntity
  8
ALL_ASSEMBLY_MEMBERS
100
AcDbLine
 62
7
  6
CONTINUOUS
 10
5.4605716552
 20
1.6224445174
 11
5.4702168863
 21
1.6213254005
  0
SPLINE
  5
3FC
100
AcDbEntity
  8
ALL_ASSEMBLY_MEMBERS
100
AcDbSpline
 62
7
  6
CONTINUOUS
 70
0
 71
3
 72
11
 73
7
 74
0
 42
0.0000001
 43
0.0000001
 44
0.0000000001
 40
0.0
 40
0.0
 40
0.0
 40
0.0
 40
0.2200366743
 40
0.4604910712
 40
0.7207482062
 40
1.0
 40
1.0
 40
1.0
 40
1.0
 10
5.4484700635
 20
1.6251016966
 30
0.0
 10
5.4489328075
 20
1.6249445926
 30
0.0
 10
5.4499087422
 20
1.6246377344
 30
0.0
 10
5.4514522162
 20
1.6242124577
 30
0.0
 10
5.4531356695
 20
1.623803261
 30
0.0
 10
5.454307113
 20
1.6235507599
 30
0.0
 10
5.4549148009
 20
1.6234268198
 30
0.0
  0
SPLINE
  5
3FD
100
AcDbEntity
  8
ALL_ASSEMBLY_MEMBERS
100
AcDbSpline
 62
7
  6
CONTINUOUS
 70
0
 71
3
 72
12
 73
8
 74
0
 42
0.0000001
 43
0.0000001
 44
0.0000000001
 40
0.0
 40
0.0
 40
0.0
 40
0.0
 40
0.1945015374
 40
0.3038258404
 40
0.4223909329
 40
0.6896752745
 40
1.0
 40
1.0
 40
1.0
 40
1.0
 10
5.4431455053
 20
1.6283607885
 30
0.0
 10
5.4432284453
 20
1.6281813358
 30
0.0
 10
5.4433998885
 20
1.627919781
 30
0.0
 10
5.4436860254
 20
1.6275995443
 30
0.0
 10
5.4440535778
 20
1.6272547112
 30
0.0
 10
5.444623703
 20
1.6268320521
 30
0.0
 10
5.4451307421
 20
1.626534416
 30
0.0
 10
5.4454085961
 20
1.6263851366
 30
0.0
  0
SPLINE
  5
3FE
100
AcDbEntity
  8
ALL_ASSEMBLY_MEMBERS
100
AcDbSpline
 62
7
  6
CONTINUOUS
 70
0
 71
3
 72
51
 73
47
 74
0
 42
0.0000001
 43
0.0000001
 44
0.0000000001
 40
0.0
 40
0.0
 40
0.0
 40
0.0
 40
0.0041475589
 40
0.0086418266
 40
0.0137106142
 40
0.0195113359
 40
0.0261451263
 40
0.0336710757
 40
0.0421228985
 40
0.0515188205
 40
0.0618649463
 40
0.0731545029
 40
0.0853749455
 40
0.098510488
 40
0.1274377804
 40
0.1597166298
 40
0.1950868685
 40
0.2332384727
 40
0.2738374869
 40
0.3165142155
 40
0.3608830696
 40
0.406534724
 40
0.4530505495
 40
0.5
 40
0.5469494505
 40
0.593465276
 40
0.6391169304
 40
0.6834857845
 40
0.7261625131
 40
0.7667615273
 40
0.8049131315
 40
0.8402833702
 40
0.8725622196
 40
0.901489512
 40
0.9146250545
 40
0.9268454971
 40
0.9381350537
 40
0.9484811795
 40
0.9578771015
 40
0.9663289243
 40
0.9738548737
 40
0.9804886641
 40
0.9862893858
 40
0.9913581734
 40
0.9958524411
 40
1.0
 40
1.0
 40
1.0
 40
1.0
 10
5.4499866176
 20
1.6291147891
 30
0.0
 10
5.4499923021
 20
1.6292381459
 30
0.0
 10
5.450042122
 20
1.6294944873
 30
0.0
 10
5.4502217221
 20
1.6298649215
 30
0.0
 10
5.4505026497
 20
1.6302290842
 30
0.0
 10
5.4508829638
 20
1.630587708
 30
0.0
 10
5.4513619171
 20
1.6309413611
 30
0.0
 10
5.4519385837
 20
1.631290175
 30
0.0
 10
5.4526120091
 20
1.6316337053
 30
0.0
 10
5.4533810021
 20
1.6319712514
 30
0.0
 10
5.4542440035
 20
1.6323019948
 30
0.0
 10
5.455199009
 20
1.6326252713
 30
0.0
 10
5.4562437935
 20
1.6329403015
 30
0.0
 10
5.4578042517
 20
1.6333618423
 30
0.0
 10
5.459962671
 20
1.6338559744
 30
0.0
 10
5.4627890164
 20
1.6343878994
 30
0.0
 10
5.4659024246
 20
1.6348701817
 30
0.0
 10
5.4692734673
 20
1.6352985222
 30
0.0
 10
5.4728701587
 20
1.6356681564
 30
0.0
 10
5.4766583832
 20
1.6359758559
 30
0.0
 10
5.4806020531
 20
1.6362181891
 30
0.0
 10
5.4846636787
 20
1.6363931586
 30
0.0
 10
5.4888045492
 20
1.6364986836
 30
0.0
 10
5.4929852484
 20
1.6365340922
 30
0.0
 10
5.4971659477
 20
1.6364986836
 30
0.0
 10
5.5013068182
 20
1.6363931586
 30
0.0
 10
5.5053684438
 20
1.6362181891
 30
0.0
 10
5.5093121137
 20
1.6359758559
 30
0.0
 10
5.5131003382
 20
1.6356681564
 30
0.0
 10
5.5166970296
 20
1.6352985222
 30
0.0
 10
5.5200680723
 20
1.6348701817
 30
0.0
 10
5.5231814805
 20
1.6343878994
 30
0.0
 10
5.5260078259
 20
1.6338559744
 30
0.0
 10
5.5281662452
 20
1.6333618423
 30
0.0
 10
5.5297267033
 20
1.6329403015
 30
0.0
 10
5.5307714879
 20
1.6326252713
 30
0.0
 10
5.5317264934
 20
1.6323019948
 30
0.0
 10
5.5325894948
 20
1.6319712514
 30
0.0
 10
5.5333584878
 20
1.6316337053
 30
0.0
 10
5.5340319132
 20
1.631290175
 30
0.0
 10
5.5346085798
 20
1.6309413611
 30
0.0
 10
5.5350875331
 20
1.630587708
 30
0.0
 10
5.5354678472
 20
1.6302290842
 30
0.0
 10
5.5357487748
 20
1.6298649215
 30
0.0
 10
5.5359283749
 20
1.6294944873
 30
0.0
 10
5.5359781948
 20
1.6292381459
 30
0.0
 10
5.5359838793
 20
1.6291147891
 30
0.0
  0
SPLINE
  5
3FF
100
AcDbEntity
  8
ALL_ASSEMBLY_MEMBERS
100
AcDbSpline
 62
7
  6
CONTINUOUS
 70
0
 71
3
 72
10
 73
6
 74
0
 42
0.0000001
 43
0.0000001
 44
0.0000000001
 40
0.0
 40
0.0
 40
0.0
 40
0.0
 40
0.5168446621
 40
0.7615595357
 40
1.0
 40
1.0
 40
1.0
 40
1.0
 10
5.6874595398
 20
1.6255824177
 30
0.0
 10
5.6877026421
 20
1.6259928972
 30
0.0
 10
5.6880144651
 20
1.6266286041
 30
0.0
 10
5.6882943324
 20
1.6275094133
 30
0.0
 10
5.6883850669
 20
1.6279471087
 30
0.0
 10
5.6884179605
 20
1.6281647259
 30
0.0
  0
SPLINE
  5
400
100
AcDbEntity
  8
ALL_ASSEMBLY_MEMBERS
100
AcDbSpline
 62
7
  6
CONTINUOUS
 70
0
 71
3
 72
11
 73
7
 74
0
 42
0.0000001
 43
0.0000001
 44
0.0000000001
 40
0.0
 40
0.0
 40
0.0
 40
0.0
 40
0.2677962103
 40
0.5241309081
 40
0.7683876467
 40
1.0
 40
1.0
 40
1.0
 40
1.0
 10
5.616357203
 20
1.602720554
 30
0.0
 10
5.6188950781
 20
1.6030790602
 30
0.0
 10
5.6238573305
 20
1.6038159343
 30
0.0
 10
5.631114251
 20
1.6050102803
 30
0.0
 10
5.6380088686
 20
1.6062672596
 30
0.0
 10
5.6424735575
 20
1.6071693053
 30
0.0
 10
5.6446414743
 20
1.6076320661
 30
0.0
  0
SPLINE
  5
401
100
AcDbEntity
  8
ALL_ASSEMBLY_MEMBERS
100
AcDbSpline
 62
7
  6
CONTINUOUS
 70
0
 71
3
 72
11
 73
7
 74
0
 42
0.0000001
 43
0.0000001
 44
0.0000000001
 40
0.0
 40
0.0
 40
0.0
 40
0.0
 40
0.2316123533
 40
0.4758690919
 40
0.7322037897
 40
1.0
 40
1.0
 40
1.0
 40
1.0
 10
5.3413290226
 20
1.6076320661
 30
0.0
 10
5.3434969394
 20
1.6071693053
 30
0.0
 10
5.3479616283
 20
1.6062672596
 30
0.0
 10
5.3548562459
 20
1.6050102803
 30
0.0
 10
5.3621131664
 20
1.6038159343
 30
0.0
 10
5.3670754188
 20
1.6030790602
 30
0.0
 10
5.3696132939
 20
1.602720554
 30
0.0
  0
SPLINE
  5
402
100
AcDbEntity
  8
ALL_ASSEMBLY_MEMBERS
100
AcDbSpline
 62
7
  6
CONTINUOUS
 70
0
 71
3
 72
22
 73
18
 74
0
 42
0.0000001
 43
0.0000001
 44
0.0000000001
 40
0.0
 40
0.0
 40
0.0
 40
0.0
 40
0.1820357023
 40
0.2671876124
 40
0.3483030744
 40
0.4253021264
 40
0.498139697
 40
0.5667849286
 40
0.6312158874
 40
0.6914247619
 40
0.7474286187
 40
0.7992667157
 40
0.8470050872
 40
0.8907485973
 40
0.930659665
 40
0.9669692806
 40
1.0
 40
1.0
 40
1.0
 40
1.0
 10
5.6238301315
 20
1.6112459179
 30
0.0
 10
5.6260603528
 20
1.6117399946
 30
0.0
 10
5.6293240661
 20
1.612511295
 30
0.0
 10
5.63354948
 20
1.6136296681
 30
0.0
 10
5.636485163
 20
1.6144673928
 30
0.0
 10
5.6392547144
 20
1.6153218592
 30
0.0
 10
5.6418549276
 20
1.6161919501
 30
0.0
 10
5.6442830537
 20
1.6170766259
 30
0.0
 10
5.6465364839
 20
1.6179748961
 30
0.0
 10
5.6486127636
 20
1.6188858511
 30
0.0
 10
5.6505097483
 20
1.6198084155
 30
0.0
 10
5.6522254898
 20
1.6207415908
 30
0.0
 10
5.6537581619
 20
1.6216844753
 30
0.0
 10
5.6551060293
 20
1.62263633
 30
0.0
 10
5.6562679431
 20
1.6235962637
 30
0.0
 10
5.6572426043
 20
1.6245633198
 30
0.0
 10
5.6577906526
 20
1.6252425121
 30
0.0
 10
5.6580278566
 20
1.6255824177
 30
0.0
  0
SPLINE
  5
403
100
AcDbEntity
  8
ALL_ASSEMBLY_MEMBERS
100
AcDbSpline
 62
7
  6
CONTINUOUS
 70
0
 71
3
 72
15
 73
11
 74
0
 42
0.0000001
 43
0.0000001
 44
0.0000000001
 40
0.0
 40
0.0
 40
0.0
 40
0.0
 40
0.1349212235
 40
0.268222224
 40
0.3992159362
 40
0.5273213831
 40
0.6519892686
 40
0.7726882773
 40
0.8888831931
 40
1.0
 40
1.0
 40
1.0
 40
1.0
 10
5.5129852484
 20
1.6003960331
 30
0.0
 10
5.5167089775
 20
1.6004743909
 30
0.0
 10
5.524110869
 20
1.6006743446
 30
0.0
 10
5.5351231902
 20
1.6011060807
 30
0.0
 10
5.545941333
 20
1.6016667164
 30
0.0
 10
5.5565134253
 20
1.6023531851
 30
0.0
 10
5.5667918013
 20
1.6031625188
 30
0.0
 10
5.5767299842
 20
1.6040907997
 30
0.0
 10
5.5862805546
 20
1.6051339166
 30
0.0
 10
5.5925064623
 20
1.6059207094
 30
0.0
 10
5.5955458602
 20
1.6063344057
 30
0.0
  0
SPLINE
  5
404
100
AcDbEntity
  8
ALL_ASSEMBLY_MEMBERS
100
AcDbSpline
 62
7
  6
CONTINUOUS
 70
0
 71
3
 72
15
 73
11
 74
0
 42
0.0000001
 43
0.0000001
 44
0.0000000001
 40
0.0
 40
0.0
 40
0.0
 40
0.0
 40
0.11111679
 40
0.2273116739
 40
0.3480106664
 40
0.4726785516
 40
0.600784
 40
0.7317777302
 40
0.8650787621
 40
1.0
 40
1.0
 40
1.0
 40
1.0
 10
5.3904246367
 20
1.6063344057
 30
0.0
 10
5.3934640342
 20
1.6059207095
 30
0.0
 10
5.3996899405
 20
1.6051339167
 30
0.0
 10
5.4092405091
 20
1.6040908
 30
0.0
 10
5.4191786907
 20
1.6031625193
 30
0.0
 10
5.4294570663
 20
1.6023531855
 30
0.0
 10
5.4400291591
 20
1.6016667167
 30
0.0
 10
5.4508473033
 20
1.6011060808
 30
0.0
 10
5.4618596262
 20
1.6006743447
 30
0.0
 10
5.469261519
 20
1.6004743909
 30
0.0
 10
5.4729852484
 20
1.6003960331
 30
0.0
  0
SPLINE
  5
405
100
AcDbEntity
  8
ALL_ASSEMBLY_MEMBERS
100
AcDbSpline
 62
7
  6
CONTINUOUS
 70
0
 71
3
 72
22
 73
18
 74
0
 42
0.0000001
 43
0.0000001
 44
0.0000000001
 40
0.0
 40
0.0
 40
0.0
 40
0.0
 40
0.0330307147
 40
0.0693403185
 40
0.1092513721
 40
0.1529948713
 40
0.2007332358
 40
0.2525713267
 40
0.3085751791
 40
0.3687840523
 40
0.4332150101
 40
0.501860241
 40
0.574697816
 40
0.6516968822
 40
0.7328123626
 40
0.8179642864
 40
1.0
 40
1.0
 40
1.0
 40
1.0
 10
5.3279426403
 20
1.6255824177
 30
0.0
 10
5.3281798442
 20
1.6252425122
 30
0.0
 10
5.3287278924
 20
1.62456332
 30
0.0
 10
5.3297025532
 20
1.623596264
 30
0.0
 10
5.3308644666
 20
1.6226363305
 30
0.0
 10
5.3322123337
 20
1.6216844761
 30
0.0
 10
5.3337450056
 20
1.6207415918
 30
0.0
 10
5.3354607468
 20
1.6198084165
 30
0.0
 10
5.3373577313
 20
1.618885852
 30
0.0
 10
5.3394340108
 20
1.617974897
 30
0.0
 10
5.341687441
 20
1.6170766267
 30
0.0
 10
5.3441155671
 20
1.6161919508
 30
0.0
 10
5.3467157805
 20
1.6153218597
 30
0.0
 10
5.3494853323
 20
1.6144673933
 30
0.0
 10
5.3524210159
 20
1.6136296684
 30
0.0
 10
5.3566464304
 20
1.6125112952
 30
0.0
 10
5.3599101439
 20
1.6117399946
 30
0.0
 10
5.3621403654
 20
1.6112459179
 30
0.0
  0
SPLINE
  5
406
100
AcDbEntity
  8
ALL_ASSEMBLY_MEMBERS
100
AcDbSpline
 62
7
  6
CONTINUOUS
 70
0
 71
3
 72
11
 73
7
 74
0
 42
0.0000001
 43
0.0000001
 44
0.0000000001
 40
0.0
 40
0.0
 40
0.0
 40
0.0
 40
0.2552028957
 40
0.508098222
 40
0.756934998
 40
1.0
 40
1.0
 40
1.0
 40
1.0
 10
5.4969852484
 20
1.6533562013
 30
0.0
 10
5.5008891451
 20
1.6533368247
 30
0.0
 10
5.5086614786
 20
1.6532417764
 30
0.0
 10
5.5202368461
 20
1.6529300958
 30
0.0
 10
5.5316206896
 20
1.6524515562
 30
0.0
 10
5.5391333885
 20
1.6520177602
 30
0.0
 10
5.5428435388
 20
1.6517722207
 30
0.0
  0
SPLINE
  5
407
100
AcDbEntity
  8
ALL_ASSEMBLY_MEMBERS
100
AcDbSpline
 62
7
  6
CONTINUOUS
 70
0
 71
3
 72
11
 73
7
 74
0
 42
0.0000001
 43
0.0000001
 44
0.0000000001
 40
0.0
 40
0.0
 40
0.0
 40
0.0
 40
0.243064963
 40
0.4919017022
 40
0.7447970772
 40
1.0
 40
1.0
 40
1.0
 40
1.0
 10
5.4431269581
 20
1.6517722207
 30
0.0
 10
5.4468371078
 20
1.6520177602
 30
0.0
 10
5.4543498055
 20
1.6524515561
 30
0.0
 10
5.4657336486
 20
1.6529300958
 30
0.0
 10
5.4773090168
 20
1.6532417764
 30
0.0
 10
5.4850813514
 20
1.6533368247
 30
0.0
 10
5.4889852484
 20
1.6533562013
 30
0.0
  0
SPLINE
  5
408
100
AcDbEntity
  8
ALL_ASSEMBLY_MEMBERS
100
AcDbSpline
 62
7
  6
CONTINUOUS
 70
0
 71
3
 72
11
 73
7
 74
0
 42
0.0000001
 43
0.0000001
 44
0.0000000001
 40
0.0
 40
0.0
 40
0.0
 40
0.0
 40
0.2290274917
 40
0.4731342215
 40
0.7307074192
 40
1.0
 40
1.0
 40
1.0
 40
1.0
 10
5.3968591406
 20
1.6467298071
 30
0.0
 10
5.3998084222
 20
1.6472134811
 30
0.0
 10
5.4059151417
 20
1.6481285702
 30
0.0
 10
5.4153760752
 20
1.6493228916
 30
0.0
 10
5.4253821704
 20
1.6503763168
 30
0.0
 10
5.4322323965
 20
1.6509679858
 30
0.0
 10
5.4357359219
 20
1.6512406024
 30
0.0
  0
SPLINE
  5
409
100
AcDbEntity
  8
ALL_ASSEMBLY_MEMBERS
100
AcDbSpline
 62
7
  6
CONTINUOUS
 70
0
 71
3
 72
14
 73
10
 74
0
 42
0.0000001
 43
0.0000001
 44
0.0000000001
 40
0.0
 40
0.0
 40
0.0
 40
0.0
 40
0.0995723119
 40
0.2066845607
 40
0.3212140707
 40
0.4430287124
 40
0.5719955268
 40
0.7079668345
 40
1.0
 40
1.0
 40
1.0
 40
1.0
 10
5.3652256515
 20
1.6389966225
 30
0.0
 10
5.3660573852
 20
1.6393189354
 30
0.0
 10
5.3677970236
 20
1.6399542118
 30
0.0
 10
5.3705307973
 20
1.6408536543
 30
0.0
 10
5.3734797082
 20
1.6417327738
 30
0.0
 10
5.3766383775
 20
1.6425897777
 30
0.0
 10
5.3800015419
 20
1.6434233171
 30
0.0
 10
5.3848675609
 20
1.6445276898
 30
0.0
 10
5.3886292887
 20
1.6452744152
 30
0.0
 10
5.3912022863
 20
1.6457475047
 30
0.0
  0
SPLINE
  5
40A
100
AcDbEntity
  8
ALL_ASSEMBLY_MEMBERS
100
AcDbSpline
 62
7
  6
CONTINUOUS
 70
0
 71
3
 72
16
 73
12
 74
0
 42
0.0000001
 43
0.0000001
 44
0.0000000001
 40
0.0
 40
0.0
 40
0.0
 40
0.0
 40
0.0416845584
 40
0.0846863291
 40
0.1763967538
 40
0.2783982227
 40
0.3929389703
 40
0.5215523776
 40
0.665257806
 40
0.8246422987
 40
1.0
 40
1.0
 40
1.0
 40
1.0
 10
5.353042403
 20
1.6297499739
 30
0.0
 10
5.3530706639
 20
1.6299216648
 30
0.0
 10
5.3531490292
 20
1.6302673422
 30
0.0
 10
5.3533917243
 20
1.6309638635
 30
0.0
 10
5.3538644553
 20
1.6318392574
 30
0.0
 10
5.3546632087
 20
1.6328539785
 30
0.0
 10
5.3557019181
 20
1.6338575058
 30
0.0
 10
5.3569786055
 20
1.6348502507
 30
0.0
 10
5.3584918695
 20
1.6358319315
 30
0.0
 10
5.3602392848
 20
1.6368015214
 30
0.0
 10
5.3614980816
 20
1.6374096875
 30
0.0
 10
5.3621641841
 20
1.6377131825
 30
0.0
  0
SPLINE
  5
40B
100
AcDbEntity
  8
ALL_ASSEMBLY_MEMBERS
100
AcDbSpline
 62
7
  6
CONTINUOUS
 70
0
 71
3
 72
16
 73
12
 74
0
 42
0.0000001
 43
0.0000001
 44
0.0000000001
 40
0.0
 40
0.0
 40
0.0
 40
0.0
 40
0.1753577739
 40
0.3347424605
 40
0.4784481262
 40
0.6070614811
 40
0.7216020124
 40
0.8236033209
 40
0.9153136824
 40
0.9583154437
 40
1.0
 40
1.0
 40
1.0
 40
1.0
 10
5.6238063128
 20
1.6377131825
 30
0.0
 10
5.6244724156
 20
1.6374096873
 30
0.0
 10
5.6257312133
 20
1.6368015205
 30
0.0
 10
5.62747863
 20
1.635831929
 30
0.0
 10
5.6289918957
 20
1.6348502478
 30
0.0
 10
5.630268583
 20
1.6338575029
 30
0.0
 10
5.6313072904
 20
1.6328539761
 30
0.0
 10
5.6321060425
 20
1.6318392563
 30
0.0
 10
5.6325787728
 20
1.6309638632
 30
0.0
 10
5.6328214677
 20
1.6302673421
 30
0.0
 10
5.632899833
 20
1.6299216648
 30
0.0
 10
5.6329280939
 20
1.6297499739
 30
0.0
  0
SPLINE
  5
40C
100
AcDbEntity
  8
ALL_ASSEMBLY_MEMBERS
100
AcDbSpline
 62
7
  6
CONTINUOUS
 70
0
 71
3
 72
14
 73
10
 74
0
 42
0.0000001
 43
0.0000001
 44
0.0000000001
 40
0.0
 40
0.0
 40
0.0
 40
0.0
 40
0.2920334773
 40
0.4280049993
 40
0.5569717494
 40
0.6787861643
 40
0.7933155003
 40
0.9004276922
 40
1.0
 40
1.0
 40
1.0
 40
1.0
 10
5.5947682106
 20
1.6457475047
 30
0.0
 10
5.5973412109
 20
1.6452744147
 30
0.0
 10
5.6011029432
 20
1.6445276876
 30
0.0
 10
5.6059689663
 20
1.6434233145
 30
0.0
 10
5.6093321301
 20
1.6425897752
 30
0.0
 10
5.6124907953
 20
1.641732772
 30
0.0
 10
5.6154397022
 20
1.6408536535
 30
0.0
 10
5.6181734739
 20
1.6399542115
 30
0.0
 10
5.6199131117
 20
1.6393189353
 30
0.0
 10
5.6207448454
 20
1.6389966225
 30
0.0
  0
SPLINE
  5
40D
100
AcDbEntity
  8
ALL_ASSEMBLY_MEMBERS
100
AcDbSpline
 62
7
  6
CONTINUOUS
 70
0
 71
3
 72
11
 73
7
 74
0
 42
0.0000001
 43
0.0000001
 44
0.0000000001
 40
0.0
 40
0.0
 40
0.0
 40
0.0
 40
0.269292916
 40
0.5268662248
 40
0.7709725448
 40
1.0
 40
1.0
 40
1.0
 40
1.0
 10
5.550234575
 20
1.6512406024
 30
0.0
 10
5.5537381047
 20
1.6509679855
 30
0.0
 10
5.5605883366
 20
1.6503763152
 30
0.0
 10
5.5705944323
 20
1.6493228908
 30
0.0
 10
5.5800553614
 20
1.6481285691
 30
0.0
 10
5.5861620751
 20
1.6472134811
 30
0.0
 10
5.5891113563
 20
1.6467298071
 30
0.0
  0
SPLINE
  5
40E
100
AcDbEntity
  8
ALL_ASSEMBLY_MEMBERS
100
AcDbSpline
 62
7
  6
CONTINUOUS
 70
0
 71
3
 72
51
 73
47
 74
0
 42
0.0000001
 43
0.0000001
 44
0.0000000001
 40
0.0
 40
0.0
 40
0.0
 40
0.0
 40
0.0041333215
 40
0.0085735106
 40
0.0135629611
 40
0.0192712911
 40
0.0258084817
 40
0.0332393808
 40
0.0416009204
 40
0.0509132502
 40
0.0611842514
 40
0.0724082729
 40
0.0845730558
 40
0.0976629
 40
0.126530042
 40
0.1587897125
 40
0.1941799389
 40
0.2323878575
 40
0.2730757556
 40
0.3158695665
 40
0.3603786903
 40
0.4061884212
 40
0.4528743564
 40
0.5
 40
0.5471256436
 40
0.5938115788
 40
0.6396213097
 40
0.6841304335
 40
0.7269242444
 40
0.7676121425
 40
0.8058200611
 40
0.8412102875
 40
0.873469958
 40
0.9023371
 40
0.9154269442
 40
0.9275917271
 40
0.9388157486
 40
0.9490867498
 40
0.9583990796
 40
0.9667606192
 40
0.9741915183
 40
0.9807287089
 40
0.9864370389
 40
0.9914264894
 40
0.9958666785
 40
1.0
 40
1.0
 40
1.0
 40
1.0
 10
5.5359852484
 20
1.6290553812
 30
0.0
 10
5.5359852484
 20
1.6289321544
 30
0.0
 10
5.5359473483
 20
1.6286753605
 30
0.0
 10
5.535782944
 20
1.6283018522
 30
0.0
 10
5.5355156233
 20
1.6279348967
 30
0.0
 10
5.5351477666
 20
1.627573688
 30
0.0
 10
5.5346801656
 20
1.6272175664
 30
0.0
 10
5.5341137425
 20
1.6268663205
 30
0.0
 10
5.5334494429
 20
1.6265203336
 30
0.0
 10
5.5326884383
 20
1.6261802858
 30
0.0
 10
5.5318322503
 20
1.6258470209
 30
0.0
 10
5.5308828703
 20
1.6255212116
 30
0.0
 10
5.5298425388
 20
1.6252036393
 30
0.0
 10
5.5282858537
 20
1.6247783815
 30
0.0
 10
5.5261292203
 20
1.6242799026
 30
0.0
 10
5.5233016689
 20
1.6237432979
 30
0.0
 10
5.5201829842
 20
1.6232566242
 30
0.0
 10
5.5168029435
 20
1.6228242657
 30
0.0
 10
5.5131939359
 20
1.6224510817
 30
0.0
 10
5.5093905437
 20
1.622140372
 30
0.0
 10
5.5054293652
 20
1.6218956326
 30
0.0
 10
5.5013484421
 20
1.6217189086
 30
0.0
 10
5.4971870644
 20
1.6216123168
 30
0.0
 10
5.4929852484
 20
1.6215765502
 30
0.0
 10
5.4887834325
 20
1.6216123168
 30
0.0
 10
5.4846220548
 20
1.6217189086
 30
0.0
 10
5.4805411317
 20
1.6218956326
 30
0.0
 10
5.4765799532
 20
1.622140372
 30
0.0
 10
5.472776561
 20
1.6224510817
 30
0.0
 10
5.4691675534
 20
1.6228242657
 30
0.0
 10
5.4657875126
 20
1.6232566242
 30
0.0
 10
5.462668828
 20
1.6237432979
 30
0.0
 10
5.4598412766
 20
1.6242799026
 30
0.0
 10
5.4576846432
 20
1.6247783815
 30
0.0
 10
5.4561279581
 20
1.6252036393
 30
0.0
 10
5.4550876266
 20
1.6255212116
 30
0.0
 10
5.4541382466
 20
1.6258470209
 30
0.0
 10
5.4532820586
 20
1.6261802858
 30
0.0
 10
5.452521054
 20
1.6265203336
 30
0.0
 10
5.4518567544
 20
1.6268663205
 30
0.0
 10
5.4512903313
 20
1.6272175664
 30
0.0
 10
5.4508227303
 20
1.627573688
 30
0.0
 10
5.4504548736
 20
1.6279348967
 30
0.0
 10
5.4501875529
 20
1.6283018522
 30
0.0
 10
5.4500231486
 20
1.6286753605
 30
0.0
 10
5.4499852484
 20
1.6289321544
 30
0.0
 10
5.4499852484
 20
1.6290553812
 30
0.0
  0
LINE
  5
40F
100
AcDbEntity
  8
ALL_ASSEMBLY_MEMBERS
100
AcDbLine
 62
7
  6
CONTINUOUS
 10
5.5253988417
 20
1.6356662451
 11
5.5157536106
 21
1.636785362
  0
SPLINE
  5
410
100
AcDbEntity
  8
ALL_ASSEMBLY_MEMBERS
100
AcDbSpline
 62
7
  6
CONTINUOUS
 70
0
 71
3
 72
12
 73
8
 74
0
 42
0.0000001
 43
0.0000001
 44
0.0000000001
 40
0.0
 40
0.0
 40
0.0
 40
0.0
 40
0.310323848
 40
0.5776066094
 40
0.6961717806
 40
0.8054970022
 40
1.0
 40
1.0
 40
1.0
 40
1.0
 10
5.4454085961
 20
1.6317256258
 30
0.0
 10
5.445130743
 20
1.6315763469
 30
0.0
 10
5.4446237051
 20
1.6312787137
 30
0.0
 10
5.4440535819
 20
1.6308560558
 30
0.0
 10
5.4436860314
 20
1.6305112216
 30
0.0
 10
5.4433998925
 20
1.6301909837
 30
0.0
 10
5.4432284459
 20
1.629929428
 30
0.0
 10
5.4431455053
 20
1.6297499739
 30
0.0
  0
SPLINE
  5
411
100
AcDbEntity
  8
ALL_ASSEMBLY_MEMBERS
100
AcDbSpline
 62
7
  6
CONTINUOUS
 70
0
 71
3
 72
16
 73
12
 74
0
 42
0.0000001
 43
0.0000001
 44
0.0000000001
 40
0.0
 40
0.0
 40
0.0
 40
0.0
 40
0.1753577212
 40
0.3347422762
 40
0.4784477979
 40
0.6070612188
 40
0.7216019181
 40
0.823603322
 40
0.9153136918
 40
0.9583154469
 40
1.0
 40
1.0
 40
1.0
 40
1.0
 10
5.3621641841
 20
1.62039758
 30
0.0
 10
5.3614980815
 20
1.620701075
 30
0.0
 10
5.3602392844
 20
1.6213092413
 30
0.0
 10
5.3584918686
 20
1.6222788317
 30
0.0
 10
5.3569786039
 20
1.6232605129
 30
0.0
 10
5.3557019164
 20
1.6242532581
 30
0.0
 10
5.3546632076
 20
1.6252567853
 30
0.0
 10
5.3538644544
 20
1.6262715058
 30
0.0
 10
5.353391724
 20
1.6271468993
 30
0.0
 10
5.3531490291
 20
1.6278434204
 30
0.0
 10
5.3530706639
 20
1.6281890977
 30
0.0
 10
5.353042403
 20
1.6283607885
 30
0.0
  0
SPLINE
  5
412
100
AcDbEntity
  8
ALL_ASSEMBLY_MEMBERS
100
AcDbSpline
 62
7
  6
CONTINUOUS
 70
0
 71
3
 72
14
 73
10
 74
0
 42
0.0000001
 43
0.0000001
 44
0.0000000001
 40
0.0
 40
0.0
 40
0.0
 40
0.0
 40
0.2920332531
 40
0.4280046448
 40
0.5569714772
 40
0.6787860744
 40
0.7933155151
 40
0.9004277097
 40
1.0
 40
1.0
 40
1.0
 40
1.0
 10
5.3912022863
 20
1.6123632578
 30
0.0
 10
5.3886292879
 20
1.6128363474
 30
0.0
 10
5.3848675587
 20
1.6135830733
 30
0.0
 10
5.380001538
 20
1.6146874463
 30
0.0
 10
5.3766383731
 20
1.6155209859
 30
0.0
 10
5.3734797046
 20
1.6163779897
 30
0.0
 10
5.3705307952
 20
1.6172571087
 30
0.0
 10
5.3677970227
 20
1.6181565509
 30
0.0
 10
5.366057385
 20
1.6187918272
 30
0.0
 10
5.3652256515
 20
1.61911414
 30
0.0
  0
SPLINE
  5
413
100
AcDbEntity
  8
ALL_ASSEMBLY_MEMBERS
100
AcDbSpline
 62
7
  6
CONTINUOUS
 70
0
 71
3
 72
11
 73
7
 74
0
 42
0.0000001
 43
0.0000001
 44
0.0000000001
 40
0.0
 40
0.0
 40
0.0
 40
0.0
 40
0.2692926671
 40
0.5268659547
 40
0.770972574
 40
1.0
 40
1.0
 40
1.0
 40
1.0
 10
5.4357359219
 20
1.60687016
 30
0.0
 10
5.4322323954
 20
1.6071427768
 30
0.0
 10
5.425382167
 20
1.6077344461
 30
0.0
 10
5.415376071
 20
1.6087878714
 30
0.0
 10
5.4059151386
 20
1.6099821927
 30
0.0
 10
5.3998084214
 20
1.6108972815
 30
0.0
 10
5.3968591406
 20
1.6113809553
 30
0.0
  0
SPLINE
  5
414
100
AcDbEntity
  8
ALL_ASSEMBLY_MEMBERS
100
AcDbSpline
 62
7
  6
CONTINUOUS
 70
0
 71
3
 72
12
 73
8
 74
0
 42
0.0000001
 43
0.0000001
 44
0.0000000001
 40
0.0
 40
0.0
 40
0.0
 40
0.0
 40
0.1945013944
 40
0.3038256085
 40
0.4223906951
 40
0.6896751908
 40
1.0
 40
1.0
 40
1.0
 40
1.0
 10
5.5428249916
 20
1.6297499739
 30
0.0
 10
5.5427420517
 20
1.6299294265
 30
0.0
 10
5.5425706088
 20
1.6301909813
 30
0.0
 10
5.5422844721
 20
1.6305112179
 30
0.0
 10
5.5419169195
 20
1.6308560508
 30
0.0
 10
5.5413467941
 20
1.63127871
 30
0.0
 10
5.5408397548
 20
1.6315763464
 30
0.0
 10
5.5405619008
 20
1.6317256258
 30
0.0
  0
SPLINE
  5
415
100
AcDbEntity
  8
ALL_ASSEMBLY_MEMBERS
100
AcDbSpline
 62
7
  6
CONTINUOUS
 70
0
 71
3
 72
11
 73
7
 74
0
 42
0.0000001
 43
0.0000001
 44
0.0000000001
 40
0.0
 40
0.0
 40
0.0
 40
0.0
 40
0.2552030028
 40
0.508098444
 40
0.7569350835
 40
1.0
 40
1.0
 40
1.0
 40
1.0
 10
5.4889852484
 20
1.6047545611
 30
0.0
 10
5.4850813502
 20
1.6047739378
 30
0.0
 10
5.4773090133
 20
1.6048689862
 30
0.0
 10
5.4657336445
 20
1.6051806668
 30
0.0
 10
5.4543498026
 20
1.6056592065
 30
0.0
 10
5.446837107
 20
1.6060930024
 30
0.0
 10
5.4431269581
 20
1.6063385418
 30
0.0
  0
SPLINE
  5
416
100
AcDbEntity
  8
ALL_ASSEMBLY_MEMBERS
100
AcDbSpline
 62
7
  6
CONTINUOUS
 70
0
 71
3
 72
11
 73
7
 74
0
 42
0.0000001
 43
0.0000001
 44
0.0000000001
 40
0.0
 40
0.0
 40
0.0
 40
0.0
 40
0.2430650694
 40
0.4919018697
 40
0.7447971174
 40
1.0
 40
1.0
 40
1.0
 40
1.0
 10
5.5428435388
 20
1.6063385418
 30
0.0
 10
5.5391333875
 20
1.6060930022
 30
0.0
 10
5.5316206872
 20
1.6056592063
 30
0.0
 10
5.5202368434
 20
1.6051806665
 30
0.0
 10
5.5086614769
 20
1.604868986
 30
0.0
 10
5.5008891449
 20
1.6047739377
 30
0.0
 10
5.4969852484
 20
1.6047545611
 30
0.0
  0
SPLINE
  5
417
100
AcDbEntity
  8
ALL_ASSEMBLY_MEMBERS
100
AcDbSpline
 62
7
  6
CONTINUOUS
 70
0
 71
3
 72
11
 73
7
 74
0
 42
0.0000001
 43
0.0000001
 44
0.0000000001
 40
0.0
 40
0.0
 40
0.0
 40
0.0
 40
0.2290276166
 40
0.4731343983
 40
0.7307074528
 40
1.0
 40
1.0
 40
1.0
 40
1.0
 10
5.5891113563
 20
1.6113809553
 30
0.0
 10
5.5861620731
 20
1.6108972811
 30
0.0
 10
5.5800553512
 20
1.609982192
 30
0.0
 10
5.5705944173
 20
1.6087878703
 30
0.0
 10
5.5605883237
 20
1.6077344455
 30
0.0
 10
5.5537380999
 20
1.6071427766
 30
0.0
 10
5.550234575
 20
1.60687016
 30
0.0
  0
SPLINE
  5
418
100
AcDbEntity
  8
ALL_ASSEMBLY_MEMBERS
100
AcDbSpline
 62
7
  6
CONTINUOUS
 70
0
 71
3
 72
11
 73
7
 74
0
 42
0.0000001
 43
0.0000001
 44
0.0000000001
 40
0.0
 40
0.0
 40
0.0
 40
0.0
 40
0.2792506813
 40
0.5395063994
 40
0.7799619133
 40
1.0
 40
1.0
 40
1.0
 40
1.0
 10
5.4549148009
 20
1.6346839426
 30
0.0
 10
5.4543071154
 20
1.6345600031
 30
0.0
 10
5.4531356772
 20
1.6343075042
 30
0.0
 10
5.4514522271
 20
1.6338983077
 30
0.0
 10
5.4499087509
 20
1.6334730295
 30
0.0
 10
5.4489328105
 20
1.6331661709
 30
0.0
 10
5.4484700635
 20
1.6330090658
 30
0.0
  0
SPLINE
  5
419
100
AcDbEntity
  8
ALL_ASSEMBLY_MEMBERS
100
AcDbSpline
 62
7
  6
CONTINUOUS
 70
0
 71
3
 72
11
 73
7
 74
0
 42
0.0000001
 43
0.0000001
 44
0.0000000001
 40
0.0
 40
0.0
 40
0.0
 40
0.0
 40
0.2200365584
 40
0.4604908656
 40
0.7207481167
 40
1.0
 40
1.0
 40
1.0
 40
1.0
 10
5.5375004333
 20
1.6330090658
 30
0.0
 10
5.5370376896
 20
1.6331661698
 30
0.0
 10
5.5360617555
 20
1.633473028
 30
0.0
 10
5.5345182816
 20
1.6338983045
 30
0.0
 10
5.532834828
 20
1.6343075013
 30
0.0
 10
5.5316633841
 20
1.6345600025
 30
0.0
 10
5.5310556959
 20
1.6346839426
 30
0.0
  0
SPLINE
  5
41A
100
AcDbEntity
  8
ALL_ASSEMBLY_MEMBERS
100
AcDbSpline
 62
7
  6
CONTINUOUS
 70
0
 71
3
 72
14
 73
10
 74
0
 42
0.0000001
 43
0.0000001
 44
0.0000000001
 40
0.0
 40
0.0
 40
0.0
 40
0.0
 40
0.0995723628
 40
0.2066847114
 40
0.3212142878
 40
0.4430289023
 40
0.5719956328
 40
0.7079668625
 40
1.0
 40
1.0
 40
1.0
 40
1.0
 10
5.6207448454
 20
1.61911414
 30
0.0
 10
5.6199131113
 20
1.6187918269
 30
0.0
 10
5.6181734716
 20
1.6181565502
 30
0.0
 10
5.6154396959
 20
1.6172571073
 30
0.0
 10
5.6124907839
 20
1.6163779872
 30
0.0
 10
5.609332115
 20
1.6155209835
 30
0.0
 10
5.6059689522
 20
1.6146874447
 30
0.0
 10
5.6011029348
 20
1.6135830725
 30
0.0
 10
5.5973412079
 20
1.6128363473
 30
0.0
 10
5.5947682106
 20
1.6123632578
 30
0.0
  0
LINE
  5
41B
100
AcDbEntity
  8
ALL_ASSEMBLY_MEMBERS
100
AcDbLine
 62
7
  6
CONTINUOUS
 10
5.4702168863
 20
1.636785362
 11
5.4605716552
 21
1.6356662451
  0
SPLINE
  5
41C
100
AcDbEntity
  8
ALL_ASSEMBLY_MEMBERS
100
AcDbSpline
 62
7
  6
CONTINUOUS
 70
0
 71
3
 72
16
 73
12
 74
0
 42
0.0000001
 43
0.0000001
 44
0.0000000001
 40
0.0
 40
0.0
 40
0.0
 40
0.0
 40
0.041684572
 40
0.0846863798
 40
0.1763969102
 40
0.2783984352
 40
0.3929391451
 40
0.5215524706
 40
0.6652578246
 40
0.8246422967
 40
1.0
 40
1.0
 40
1.0
 40
1.0
 10
5.6329280939
 20
1.6283607885
 30
0.0
 10
5.632899833
 20
1.6281890976
 30
0.0
 10
5.6328214675
 20
1.6278434201
 30
0.0
 10
5.6325787717
 20
1.6271468983
 30
0.0
 10
5.6321060399
 20
1.626271504
 30
0.0
 10
5.6313072867
 20
1.625256782
 30
0.0
 10
5.6302685774
 20
1.624253255
 30
0.0
 10
5.6289918904
 20
1.623260511
 30
0.0
 10
5.6274786269
 20
1.6222788307
 30
0.0
 10
5.625731212
 20
1.6213092411
 30
0.0
 10
5.6244724153
 20
1.620701075
 30
0.0
 10
5.6238063128
 20
1.62039758
 30
0.0
  0
SPLINE
  5
41D
100
AcDbEntity
  8
ALL_ASSEMBLY_MEMBERS
100
AcDbSpline
 62
7
  6
CONTINUOUS
 70
0
 71
3
 72
22
 73
18
 74
0
 42
0.0000001
 43
0.0000001
 44
0.0000000001
 40
0.0
 40
0.0
 40
0.0
 40
0.0
 40
0.0330307112
 40
0.0693403062
 40
0.1092513484
 40
0.1529948371
 40
0.2007331917
 40
0.2525712707
 40
0.3085751104
 40
0.3687839712
 40
0.4332149142
 40
0.5018601314
 40
0.5746977048
 40
0.6516967927
 40
0.7328123082
 40
0.8179642604
 40
1.0
 40
1.0
 40
1.0
 40
1.0
 10
5.6580278566
 20
1.6325283448
 30
0.0
 10
5.6577906527
 20
1.6328682502
 30
0.0
 10
5.6572426047
 20
1.6335474424
 30
0.0
 10
5.6562679442
 20
1.6345144983
 30
0.0
 10
5.6551060311
 20
1.6354744315
 30
0.0
 10
5.6537581643
 20
1.6364262856
 30
0.0
 10
5.6522254928
 20
1.6373691697
 30
0.0
 10
5.6505097519
 20
1.6383023449
 30
0.0
 10
5.648612768
 20
1.6392249093
 30
0.0
 10
5.6465364889
 20
1.6401358643
 30
0.0
 10
5.6442830593
 20
1.6410341345
 30
0.0
 10
5.6418549336
 20
1.6419188105
 30
0.0
 10
5.6392547201
 20
1.6427889016
 30
0.0
 10
5.6364851676
 20
1.6436433682
 30
0.0
 10
5.633549483
 20
1.6444810934
 30
0.0
 10
5.6293240675
 20
1.645599467
 30
0.0
 10
5.6260603533
 20
1.6463707678
 30
0.0
 10
5.6238301315
 20
1.6468648446
 30
0.0
  0
SPLINE
  5
41E
100
AcDbEntity
  8
ALL_ASSEMBLY_MEMBERS
100
AcDbSpline
 62
7
  6
CONTINUOUS
 70
0
 71
3
 72
21
 73
17
 74
0
 42
0.0000001
 43
0.0000001
 44
0.0000000001
 40
0.0
 40
0.0
 40
0.0
 40
0.0
 40
0.1820664257
 40
0.3483031689
 40
0.425291352
 40
0.498126842
 40
0.5667738455
 40
0.6312100599
 40
0.6914280323
 40
0.7474356611
 40
0.7992689633
 40
0.8470008862
 40
0.8907411935
 40
0.9306511248
 40
0.9669627824
 40
1.0
 40
1.0
 40
1.0
 40
1.0
 10
5.3621403654
 20
1.6468648446
 30
0.0
 10
5.3599097831
 20
1.6463706879
 30
0.0
 10
5.3556555218
 20
1.6453651604
 30
0.0
 10
5.3505060414
 20
1.6439581854
 30
0.0
 10
5.3467158943
 20
1.6427889467
 30
0.0
 10
5.3441158173
 20
1.6419189395
 30
0.0
 10
5.3416876572
 20
1.6410342273
 30
0.0
 10
5.3394340829
 20
1.640135819
 30
0.0
 10
5.337357583
 20
1.6392248418
 30
0.0
 10
5.3354604983
 20
1.6383022817
 30
0.0
 10
5.3337448817
 20
1.6373690978
 30
0.0
 10
5.3322123937
 20
1.636426292
 30
0.0
 10
5.3308645426
 20
1.6354746698
 30
0.0
 10
5.3297026447
 20
1.6345147719
 30
0.0
 10
5.3287279654
 20
1.6335476127
 30
0.0
 10
5.3281798893
 20
1.6328683148
 30
0.0
 10
5.3279426403
 20
1.6325283448
 30
0.0
  0
SPLINE
  5
41F
100
AcDbEntity
  8
ALL_ASSEMBLY_MEMBERS
100
AcDbSpline
 62
7
  6
CONTINUOUS
 70
0
 71
3
 72
13
 73
9
 74
0
 42
0.0000001
 43
0.0000001
 44
0.0000000001
 40
0.0
 40
0.0
 40
0.0
 40
0.0
 40
0.1921221305
 40
0.3395992268
 40
0.5028739323
 40
0.665740174
 40
0.8120350431
 40
1.0
 40
1.0
 40
1.0
 40
1.0
 10
3.6636312195
 20
6.0702850551
 30
0.0
 10
3.6730487226
 20
6.078551944
 30
0.0
 10
3.6895220838
 20
6.0933637885
 30
0.0
 10
3.7134237944
 20
6.1158285871
 30
0.0
 10
3.7354946866
 20
6.1374465287
 30
0.0
 10
3.7570350584
 20
6.1594854021
 30
0.0
 10
3.7792206362
 20
6.1831349565
 30
0.0
 10
3.7937903185
 20
6.1993574847
 30
0.0
 10
3.8018754042
 20
6.2085737751
 30
0.0
  0
SPLINE
  5
420
100
AcDbEntity
  8
ALL_ASSEMBLY_MEMBERS
100
AcDbSpline
 62
7
  6
CONTINUOUS
 70
0
 71
3
 72
10
 73
6
 74
0
 42
0.0000001
 43
0.0000001
 44
0.0000000001
 40
0.0
 40
0.0
 40
0.0
 40
0.0
 40
0.3283457319
 40
0.6233211995
 40
1.0
 40
1.0
 40
1.0
 40
1.0
 10
3.3161075579
 20
6.1369783786
 30
0.0
 10
3.3237141149
 20
6.1293718217
 30
0.0
 10
3.3383140492
 20
6.1150905288
 30
0.0
 10
3.3622060543
 20
6.0926709608
 30
0.0
 10
3.3785803574
 20
6.0779668423
 30
0.0
 10
3.3878583432
 20
6.0698296408
 30
0.0
  0
SPLINE
  5
421
100
AcDbEntity
  8
ALL_ASSEMBLY_MEMBERS
100
AcDbSpline
 62
7
  6
CONTINUOUS
 70
0
 71
3
 72
10
 73
6
 74
0
 42
0.0000001
 43
0.0000001
 44
0.0000000001
 40
0.0
 40
0.0
 40
0.0
 40
0.0
 40
0.3783998701
 40
0.6727602719
 40
1.0
 40
1.0
 40
1.0
 40
1.0
 10
3.8018651048
 20
6.4841500697
 30
0.0
 10
3.7937078675
 20
6.4934481936
 30
0.0
 10
3.7790100687
 20
6.5098099015
 30
0.0
 10
3.7566372646
 20
6.5336441622
 30
0.0
 10
3.7424267306
 20
6.5481699679
 30
0.0
 10
3.734862939
 20
6.5557337596
 30
0.0
  0
SPLINE
  5
422
100
AcDbEntity
  8
ALL_ASSEMBLY_MEMBERS
100
AcDbSpline
 62
7
  6
CONTINUOUS
 70
0
 71
3
 72
13
 73
9
 74
0
 42
0.0000001
 43
0.0000001
 44
0.0000000001
 40
0.0
 40
0.0
 40
0.0
 40
0.0
 40
0.1921221305
 40
0.3395992268
 40
0.5028739323
 40
0.665740174
 40
0.8120350431
 40
1.0
 40
1.0
 40
1.0
 40
1.0
 10
3.3873392774
 20
6.6224270831
 30
0.0
 10
3.3779217743
 20
6.6141601942
 30
0.0
 10
3.3614484131
 20
6.5993483497
 30
0.0
 10
3.3375467025
 20
6.576883551
 30
0.0
 10
3.3154758103
 20
6.5552656095
 30
0.0
 10
3.2939354385
 20
6.5332267361
 30
0.0
 10
3.2717498607
 20
6.5095771817
 30
0.0
 10
3.2571801784
 20
6.4933546535
 30
0.0
 10
3.2490950927
 20
6.4841383631
 30
0.0
  0
SPLINE
  5
423
100
AcDbEntity
  8
ALL_ASSEMBLY_MEMBERS
100
AcDbSpline
 62
7
  6
CONTINUOUS
 70
0
 71
3
 72
10
 73
6
 74
0
 42
0.0000001
 43
0.0000001
 44
0.0000000001
 40
0.0
 40
0.0
 40
0.0
 40
0.0
 40
0.3283457319
 40
0.6233211995
 40
1.0
 40
1.0
 40
1.0
 40
1.0
 10
3.734862939
 20
6.5557337596
 30
0.0
 10
3.727256382
 20
6.5633403165
 30
0.0
 10
3.7126564477
 20
6.5776216094
 30
0.0
 10
3.6887644426
 20
6.6000411774
 30
0.0
 10
3.6723901395
 20
6.6147452959
 30
0.0
 10
3.6631121537
 20
6.6228824973
 30
0.0
  0
SPLINE
  5
424
100
AcDbEntity
  8
ALL_ASSEMBLY_MEMBERS
100
AcDbSpline
 62
7
  6
CONTINUOUS
 70
0
 71
3
 72
10
 73
6
 74
0
 42
0.0000001
 43
0.0000001
 44
0.0000000001
 40
0.0
 40
0.0
 40
0.0
 40
0.0
 40
0.3783998701
 40
0.6727602719
 40
1.0
 40
1.0
 40
1.0
 40
1.0
 10
3.2491053921
 20
6.2085620685
 30
0.0
 10
3.2572626294
 20
6.1992639445
 30
0.0
 10
3.2719604282
 20
6.1829022367
 30
0.0
 10
3.2943332323
 20
6.159067976
 30
0.0
 10
3.3085437663
 20
6.1445421702
 30
0.0
 10
3.3161075579
 20
6.1369783786
 30
0.0
  0
SPLINE
  5
425
100
AcDbEntity
  8
ALL_ASSEMBLY_MEMBERS
100
AcDbSpline
 62
7
  6
CONTINUOUS
 70
0
 71
3
 72
13
 73
9
 74
0
 42
0.0000001
 43
0.0000001
 44
0.0000000001
 40
0.0
 40
0.0
 40
0.0
 40
0.0
 40
0.1921221305
 40
0.3395992268
 40
0.5028739323
 40
0.665740174
 40
0.8120350431
 40
1.0
 40
1.0
 40
1.0
 40
1.0
 10
7.6011312195
 20
6.0702850551
 30
0.0
 10
7.6105487226
 20
6.078551944
 30
0.0
 10
7.6270220838
 20
6.0933637885
 30
0.0
 10
7.6509237944
 20
6.1158285871
 30
0.0
 10
7.6729946866
 20
6.1374465287
 30
0.0
 10
7.6945350584
 20
6.1594854021
 30
0.0
 10
7.7167206362
 20
6.1831349565
 30
0.0
 10
7.7312903185
 20
6.1993574847
 30
0.0
 10
7.7393754042
 20
6.2085737751
 30
0.0
  0
SPLINE
  5
426
100
AcDbEntity
  8
ALL_ASSEMBLY_MEMBERS
100
AcDbSpline
 62
7
  6
CONTINUOUS
 70
0
 71
3
 72
10
 73
6
 74
0
 42
0.0000001
 43
0.0000001
 44
0.0000000001
 40
0.0
 40
0.0
 40
0.0
 40
0.0
 40
0.3283457319
 40
0.6233211995
 40
1.0
 40
1.0
 40
1.0
 40
1.0
 10
7.2536075579
 20
6.1369783786
 30
0.0
 10
7.2612141149
 20
6.1293718217
 30
0.0
 10
7.2758140492
 20
6.1150905288
 30
0.0
 10
7.2997060543
 20
6.0926709608
 30
0.0
 10
7.3160803574
 20
6.0779668423
 30
0.0
 10
7.3253583432
 20
6.0698296408
 30
0.0
  0
SPLINE
  5
427
100
AcDbEntity
  8
ALL_ASSEMBLY_MEMBERS
100
AcDbSpline
 62
7
  6
CONTINUOUS
 70
0
 71
3
 72
10
 73
6
 74
0
 42
0.0000001
 43
0.0000001
 44
0.0000000001
 40
0.0
 40
0.0
 40
0.0
 40
0.0
 40
0.3783998701
 40
0.6727602719
 40
1.0
 40
1.0
 40
1.0
 40
1.0
 10
7.7393651048
 20
6.4841500697
 30
0.0
 10
7.7312078675
 20
6.4934481936
 30
0.0
 10
7.7165100687
 20
6.5098099015
 30
0.0
 10
7.6941372646
 20
6.5336441622
 30
0.0
 10
7.6799267306
 20
6.5481699679
 30
0.0
 10
7.672362939
 20
6.5557337596
 30
0.0
  0
SPLINE
  5
428
100
AcDbEntity
  8
ALL_ASSEMBLY_MEMBERS
100
AcDbSpline
 62
7
  6
CONTINUOUS
 70
0
 71
3
 72
13
 73
9
 74
0
 42
0.0000001
 43
0.0000001
 44
0.0000000001
 40
0.0
 40
0.0
 40
0.0
 40
0.0
 40
0.1921221305
 40
0.3395992268
 40
0.5028739323
 40
0.665740174
 40
0.8120350431
 40
1.0
 40
1.0
 40
1.0
 40
1.0
 10
7.3248392774
 20
6.6224270831
 30
0.0
 10
7.3154217743
 20
6.6141601942
 30
0.0
 10
7.2989484131
 20
6.5993483497
 30
0.0
 10
7.2750467025
 20
6.576883551
 30
0.0
 10
7.2529758103
 20
6.5552656095
 30
0.0
 10
7.2314354385
 20
6.5332267361
 30
0.0
 10
7.2092498607
 20
6.5095771817
 30
0.0
 10
7.1946801784
 20
6.4933546535
 30
0.0
 10
7.1865950927
 20
6.4841383631
 30
0.0
  0
SPLINE
  5
429
100
AcDbEntity
  8
ALL_ASSEMBLY_MEMBERS
100
AcDbSpline
 62
7
  6
CONTINUOUS
 70
0
 71
3
 72
10
 73
6
 74
0
 42
0.0000001
 43
0.0000001
 44
0.0000000001
 40
0.0
 40
0.0
 40
0.0
 40
0.0
 40
0.3283457319
 40
0.6233211995
 40
1.0
 40
1.0
 40
1.0
 40
1.0
 10
7.672362939
 20
6.5557337596
 30
0.0
 10
7.664756382
 20
6.5633403165
 30
0.0
 10
7.6501564477
 20
6.5776216094
 30
0.0
 10
7.6262644426
 20
6.6000411774
 30
0.0
 10
7.6098901395
 20
6.6147452959
 30
0.0
 10
7.6006121537
 20
6.6228824973
 30
0.0
  0
SPLINE
  5
42A
100
AcDbEntity
  8
ALL_ASSEMBLY_MEMBERS
100
AcDbSpline
 62
7
  6
CONTINUOUS
 70
0
 71
3
 72
10
 73
6
 74
0
 42
0.0000001
 43
0.0000001
 44
0.0000000001
 40
0.0
 40
0.0
 40
0.0
 40
0.0
 40
0.3783998701
 40
0.6727602719
 40
1.0
 40
1.0
 40
1.0
 40
1.0
 10
7.1866053921
 20
6.2085620685
 30
0.0
 10
7.1947626294
 20
6.1992639445
 30
0.0
 10
7.2094604282
 20
6.1829022367
 30
0.0
 10
7.2318332323
 20
6.159067976
 30
0.0
 10
7.2460437663
 20
6.1445421702
 30
0.0
 10
7.2536075579
 20
6.1369783786
 30
0.0
  0
SPLINE
  5
42B
100
AcDbEntity
  8
ALL_ASSEMBLY_MEMBERS
100
AcDbSpline
 62
7
  6
CONTINUOUS
 70
0
 71
3
 72
11
 73
7
 74
0
 42
0.0000001
 43
0.0000001
 44
0.0000000001
 40
0.0
 40
0.0
 40
0.0
 40
0.0
 40
0.2324576322
 40
0.4723817291
 40
0.7263813105
 40
1.0
 40
1.0
 40
1.0
 40
1.0
 10
5.6909852484
 20
1.6226541308
 30
0.0
 10
5.6909852484
 20
1.6230186174
 30
0.0
 10
5.6909162062
 20
1.623760953
 30
0.0
 10
5.6906091004
 20
1.624863236
 30
0.0
 10
5.6901011506
 20
1.6259592989
 30
0.0
 10
5.6896494686
 20
1.6266556305
 30
0.0
 10
5.6893956867
 20
1.6270015466
 30
0.0
  0
LINE
  5
42C
100
AcDbEntity
  8
ALL_ASSEMBLY_MEMBERS
100
AcDbLine
 62
7
  6
CONTINUOUS
 10
5.6893956867
 20
1.6270015466
 11
5.6885475399
 21
1.6280327137
  0
SPLINE
  5
42D
100
AcDbEntity
  8
ALL_ASSEMBLY_MEMBERS
100
AcDbSpline
 62
7
  6
CONTINUOUS
 70
0
 71
3
 72
21
 73
17
 74
0
 42
0.0000001
 43
0.0000001
 44
0.0000000001
 40
0.0
 40
0.0
 40
0.0
 40
0.0
 40
0.0318821218
 40
0.0675809937
 40
0.1073120134
 40
0.1512137096
 40
0.1993578108
 40
0.2517674533
 40
0.3084399895
 40
0.3693524003
 40
0.4344509875
 40
0.5036641977
 40
0.5769127874
 40
0.6541069901
 40
0.8198727322
 40
1.0
 40
1.0
 40
1.0
 40
1.0
 10
5.6880595157
 20
1.6285429855
 30
0.0
 10
5.6875612165
 20
1.6290407608
 30
0.0
 10
5.6864363667
 20
1.6300279554
 30
0.0
 10
5.6845098561
 20
1.6314139732
 30
0.0
 10
5.6822552808
 20
1.632784512
 30
0.0
 10
5.6796757772
 20
1.6341373353
 30
0.0
 10
5.676775087
 20
1.6354707146
 30
0.0
 10
5.6735579558
 20
1.6367825892
 30
0.0
 10
5.6700294828
 20
1.6380706255
 30
0.0
 10
5.6661953313
 20
1.6393322737
 30
0.0
 10
5.6620620664
 20
1.640565535
 30
0.0
 10
5.6576368388
 20
1.6417683156
 30
0.0
 10
5.6529270931
 20
1.6429384623
 30
0.0
 10
5.6461153864
 20
1.6444890841
 30
0.0
 10
5.6369472257
 20
1.6463165693
 30
0.0
 10
5.6294115518
 20
1.6475893122
 30
0.0
 10
5.6254800003
 20
1.6482040537
 30
0.0
  0
SPLINE
  5
42E
100
AcDbEntity
  8
ALL_ASSEMBLY_MEMBERS
100
AcDbSpline
 62
7
  6
CONTINUOUS
 70
0
 71
3
 72
23
 73
19
 74
0
 42
0.0000001
 43
0.0000001
 44
0.0000000001
 40
0.0
 40
0.0
 40
0.0
 40
0.0
 40
0.0535184883
 40
0.1105425198
 40
0.1706321614
 40
0.2333225366
 40
0.2981212529
 40
0.3645186326
 40
0.4319897105
 40
0.5
 40
0.5680102895
 40
0.6354813674
 40
0.7018787471
 40
0.7666774634
 40
0.8293678386
 40
0.8894574802
 40
0.9464815117
 40
1.0
 40
1.0
 40
1.0
 40
1.0
 10
5.6240877853
 20
1.6484196898
 30
0.0
 10
5.6194502373
 20
1.6491312078
 30
0.0
 10
5.6098504612
 20
1.6504664986
 30
0.0
 10
5.5949886154
 20
1.6521770748
 30
0.0
 10
5.5792935784
 20
1.6536498739
 30
0.0
 10
5.5628936287
 20
1.6548718904
 30
0.0
 10
5.5459225156
 20
1.6558332148
 30
0.0
 10
5.5285189179
 20
1.6565257095
 30
0.0
 10
5.5108249652
 20
1.6569433981
 30
0.0
 10
5.4929852484
 20
1.6570831912
 30
0.0
 10
5.4751455317
 20
1.6569433981
 30
0.0
 10
5.457451579
 20
1.6565257095
 30
0.0
 10
5.4400479813
 20
1.6558332148
 30
0.0
 10
5.4230768682
 20
1.6548718904
 30
0.0
 10
5.4066769185
 20
1.6536498739
 30
0.0
 10
5.3909818815
 20
1.6521770748
 30
0.0
 10
5.3761200357
 20
1.6504664986
 30
0.0
 10
5.3665202596
 20
1.6491312078
 30
0.0
 10
5.3618827116
 20
1.6484196898
 30
0.0
  0
SPLINE
  5
42F
100
AcDbEntity
  8
ALL_ASSEMBLY_MEMBERS
100
AcDbSpline
 62
7
  6
CONTINUOUS
 70
0
 71
3
 72
21
 73
17
 74
0
 42
0.0000001
 43
0.0000001
 44
0.0000000001
 40
0.0
 40
0.0
 40
0.0
 40
0.0
 40
0.1801272678
 40
0.3458930099
 40
0.4230872126
 40
0.4963358023
 40
0.5655490125
 40
0.6306475997
 40
0.6915600105
 40
0.7482325467
 40
0.8006421892
 40
0.8487862904
 40
0.8926879866
 40
0.9324190063
 40
0.9681178782
 40
1.0
 40
1.0
 40
1.0
 40
1.0
 10
5.3604904965
 20
1.6482040537
 30
0.0
 10
5.3565589451
 20
1.6475893122
 30
0.0
 10
5.3490232712
 20
1.6463165693
 30
0.0
 10
5.3398551105
 20
1.6444890841
 30
0.0
 10
5.3330434038
 20
1.6429384623
 30
0.0
 10
5.3283336581
 20
1.6417683156
 30
0.0
 10
5.3239084305
 20
1.640565535
 30
0.0
 10
5.3197751656
 20
1.6393322737
 30
0.0
 10
5.3159410141
 20
1.6380706255
 30
0.0
 10
5.3124125411
 20
1.6367825892
 30
0.0
 10
5.3091954099
 20
1.6354707146
 30
0.0
 10
5.3062947197
 20
1.6341373353
 30
0.0
 10
5.3037152161
 20
1.632784512
 30
0.0
 10
5.3014606408
 20
1.6314139732
 30
0.0
 10
5.2995341302
 20
1.6300279554
 30
0.0
 10
5.2984092803
 20
1.6290407608
 30
0.0
 10
5.2979109812
 20
1.6285429855
 30
0.0
  0
LINE
  5
430
100
AcDbEntity
  8
ALL_ASSEMBLY_MEMBERS
100
AcDbLine
 62
7
  6
CONTINUOUS
 10
5.297422957
 20
1.6280327137
 11
5.2965748102
 21
1.6270015466
  0
SPLINE
  5
431
100
AcDbEntity
  8
ALL_ASSEMBLY_MEMBERS
100
AcDbSpline
 62
7
  6
CONTINUOUS
 70
0
 71
3
 72
11
 73
7
 74
0
 42
0.0000001
 43
0.0000001
 44
0.0000000001
 40
0.0
 40
0.0
 40
0.0
 40
0.0
 40
0.2736186895
 40
0.5276182709
 40
0.7675423678
 40
1.0
 40
1.0
 40
1.0
 40
1.0
 10
5.2965748102
 20
1.6270015466
 30
0.0
 10
5.2963210283
 20
1.6266556305
 30
0.0
 10
5.2958693463
 20
1.6259592989
 30
0.0
 10
5.2953613965
 20
1.624863236
 30
0.0
 10
5.2950542907
 20
1.623760953
 30
0.0
 10
5.2949852484
 20
1.6230186174
 30
0.0
 10
5.2949852484
 20
1.6226541308
 30
0.0
  0
SPLINE
  5
432
100
AcDbEntity
  8
ALL_ASSEMBLY_MEMBERS
100
AcDbSpline
 62
7
  6
CONTINUOUS
 70
0
 71
3
 72
15
 73
11
 74
0
 42
0.0000001
 43
0.0000001
 44
0.0000000001
 40
0.0
 40
0.0
 40
0.0
 40
0.0
 40
0.121425363
 40
0.255354091
 40
0.3978197318
 40
0.5423810035
 40
0.6808842914
 40
0.8059243256
 40
0.9128810662
 40
1.0
 40
1.0
 40
1.0
 40
1.0
 10
5.7377441766
 20
1.9941920947
 30
0.0
 10
5.7378276564
 20
1.996156313
 30
0.0
 10
5.7379785778
 20
2.0002880788
 30
0.0
 10
5.7381464219
 20
2.0067270754
 30
0.0
 10
5.7382547245
 20
2.0135420053
 30
0.0
 10
5.7382932582
 20
2.0204317638
 30
0.0
 10
5.7382578865
 20
2.0270394102
 30
0.0
 10
5.7381528657
 20
2.0330374217
 30
0.0
 10
5.7379885242
 20
2.0382017684
 30
0.0
 10
5.7378329839
 20
2.041340471
 30
0.0
 10
5.7377441766
 20
2.0427482105
 30
0.0
  0
SPLINE
  5
433
100
AcDbEntity
  8
ALL_ASSEMBLY_MEMBERS
100
AcDbSpline
 62
7
  6
CONTINUOUS
 70
0
 71
3
 72
18
 73
14
 74
0
 42
0.0000001
 43
0.0000001
 44
0.0000000001
 40
0.0
 40
0.0
 40
0.0
 40
0.0
 40
0.1215545288
 40
0.2554025829
 40
0.3976386815
 40
0.4700087959
 40
0.5419121316
 40
0.6801720792
 40
0.805133425
 40
0.8610954618
 40
0.9122925211
 40
0.9585956336
 40
1.0
 40
1.0
 40
1.0
 40
1.0
 10
5.7532389893
 20
1.9910239925
 30
0.0
 10
5.7534551722
 20
1.9929840897
 30
0.0
 10
5.7538463009
 20
1.9971096433
 30
0.0
 10
5.7542816888
 20
2.0035465311
 30
0.0
 10
5.7545145259
 20
2.0091954567
 30
0.0
 10
5.7546131615
 20
2.0138425886
 30
0.0
 10
5.7546462289
 20
2.0184261465
 30
0.0
 10
5.7545706936
 20
2.0238631649
 30
0.0
 10
5.7543360305
 20
2.02903712
 30
0.0
 10
5.7540564846
 20
2.0327926522
 30
0.0
 10
5.7538199405
 20
2.035271224
 30
0.0
 10
5.7535532657
 20
2.0375090542
 30
0.0
 10
5.753347259
 20
2.0389171872
 30
0.0
 10
5.7532389893
 20
2.0395801083
 30
0.0
  0
SPLINE
  5
434
100
AcDbEntity
  8
ALL_ASSEMBLY_MEMBERS
100
AcDbSpline
 62
7
  6
CONTINUOUS
 70
0
 71
3
 72
17
 73
13
 74
0
 42
0.0000001
 43
0.0000001
 44
0.0000000001
 40
0.0
 40
0.0
 40
0.0
 40
0.0
 40
0.1217947992
 40
0.2554966043
 40
0.3973114178
 40
0.5410459274
 40
0.6788599015
 40
0.8036803935
 40
0.8597544154
 40
0.9112147311
 40
0.9579566008
 40
1.0
 40
1.0
 40
1.0
 40
1.0
 10
5.7673769144
 20
1.9876699948
 30
0.0
 10
5.7677240432
 20
1.9896224742
 30
0.0
 10
5.7683529533
 20
1.9937363852
 30
0.0
 10
5.7690541659
 20
2.0001692534
 30
0.0
 10
5.7695066287
 20
2.0069826941
 30
0.0
 10
5.7696676096
 20
2.0138764297
 30
0.0
 10
5.7695194979
 20
2.0204937611
 30
0.0
 10
5.7691413995
 20
2.0256722723
 30
0.0
 10
5.7686917845
 20
2.0294292993
 30
0.0
 10
5.7683108545
 20
2.0319127573
 30
0.0
 10
5.7678813264
 20
2.0341560542
 30
0.0
 10
5.7675504735
 20
2.035563915
 30
0.0
 10
5.7673769144
 20
2.0362261106
 30
0.0
  0
SPLINE
  5
435
100
AcDbEntity
  8
ALL_ASSEMBLY_MEMBERS
100
AcDbSpline
 62
7
  6
CONTINUOUS
 70
0
 71
3
 72
18
 73
14
 74
0
 42
0.0000001
 43
0.0000001
 44
0.0000000001
 40
0.0
 40
0.0
 40
0.0
 40
0.0
 40
0.1221336689
 40
0.2556263414
 40
0.396839773
 40
0.5398107708
 40
0.6769903502
 40
0.7412255917
 40
0.801635406
 40
0.8578698714
 40
0.909703546
 40
0.9570636999
 40
1.0
 40
1.0
 40
1.0
 40
1.0
 10
5.7800842406
 20
1.9841475884
 30
0.0
 10
5.7805595745
 20
1.9860892552
 30
0.0
 10
5.7814223643
 20
1.9901863266
 30
0.0
 10
5.7823866206
 20
1.9966130239
 30
0.0
 10
5.7830088671
 20
2.0034249228
 30
0.0
 10
5.783230086
 20
2.0103220282
 30
0.0
 10
5.7830568781
 20
2.0159607082
 30
0.0
 10
5.7826964091
 20
2.0202317373
 30
0.0
 10
5.7823358221
 20
2.0231709978
 30
0.0
 10
5.7818889174
 20
2.0258929027
 30
0.0
 10
5.7813652325
 20
2.0283833421
 30
0.0
 10
5.780774586
 20
2.0306343944
 30
0.0
 10
5.780321422
 20
2.0320421859
 30
0.0
 10
5.7800842406
 20
2.0327037042
 30
0.0
  0
SPLINE
  5
436
100
AcDbEntity
  8
ALL_ASSEMBLY_MEMBERS
100
AcDbSpline
 62
7
  6
CONTINUOUS
 70
0
 71
3
 72
17
 73
13
 74
0
 42
0.0000001
 43
0.0000001
 44
0.0000000001
 40
0.0
 40
0.0
 40
0.0
 40
0.0
 40
0.1225619482
 40
0.2557995964
 40
0.3962670854
 40
0.5382888767
 40
0.6746848666
 40
0.7990765146
 40
0.8555200652
 40
0.9078271703
 40
0.9559599248
 40
1.0
 40
1.0
 40
1.0
 40
1.0
 10
5.7912947158
 20
1.9804751383
 30
0.0
 10
5.7918946195
 20
1.982403094
 30
0.0
 10
5.7929859491
 20
1.9864782985
 30
0.0
 10
5.7942093182
 20
1.9928964812
 30
0.0
 10
5.7949988275
 20
1.9997059901
 30
0.0
 10
5.7952795339
 20
2.0066081236
 30
0.0
 10
5.7950204064
 20
2.0132463766
 30
0.0
 10
5.7943598584
 20
2.0184395255
 30
0.0
 10
5.7935789399
 20
2.0222018302
 30
0.0
 10
5.7929147597
 20
2.0247011313
 30
0.0
 10
5.7921655834
 20
2.0269618999
 30
0.0
 10
5.7915934555
 20
2.0283700785
 30
0.0
 10
5.7912947158
 20
2.0290312541
 30
0.0
  0
SPLINE
  5
437
100
AcDbEntity
  8
ALL_ASSEMBLY_MEMBERS
100
AcDbSpline
 62
7
  6
CONTINUOUS
 70
0
 71
3
 72
17
 73
13
 74
0
 42
0.0000001
 43
0.0000001
 44
0.0000000001
 40
0.0
 40
0.0
 40
0.0
 40
0.0
 40
0.123058735
 40
0.2559970247
 40
0.3955885526
 40
0.5364970501
 40
0.671979163
 40
0.7961113124
 40
0.8528051614
 40
0.9056675564
 40
0.954696004
 40
1.0
 40
1.0
 40
1.0
 40
1.0
 10
5.8009498918
 20
1.9766717914
 30
0.0
 10
5.8016699944
 20
1.9785836134
 30
0.0
 10
5.8029831615
 20
1.9826323867
 30
0.0
 10
5.8044604818
 20
1.9890394577
 30
0.0
 10
5.8054140387
 20
1.9958457226
 30
0.0
 10
5.8057529295
 20
2.0027534161
 30
0.0
 10
5.805439352
 20
2.0094058873
 30
0.0
 10
5.8046410195
 20
2.0146086754
 30
0.0
 10
5.8037007831
 20
2.018374885
 30
0.0
 10
5.8028991884
 20
2.020884761
 30
0.0
 10
5.8019949352
 20
2.0231570479
 30
0.0
 10
5.80130787
 20
2.0245664559
 30
0.0
 10
5.8009498918
 20
2.0252279071
 30
0.0
  0
SPLINE
  5
438
100
AcDbEntity
  8
ALL_ASSEMBLY_MEMBERS
100
AcDbSpline
 62
7
  6
CONTINUOUS
 70
0
 71
3
 72
16
 73
12
 74
0
 42
0.0000001
 43
0.0000001
 44
0.0000000001
 40
0.0
 40
0.0
 40
0.0
 40
0.0
 40
0.1236160384
 40
0.2562327757
 40
0.3948613243
 40
0.5345443467
 40
0.6690301619
 40
0.7929028671
 40
0.8498889549
 40
0.9033771612
 40
1.0
 40
1.0
 40
1.0
 40
1.0
 10
5.8089994292
 20
1.9727573772
 30
0.0
 10
5.8098347269
 20
1.9746510354
 30
0.0
 10
5.8113617417
 20
1.9786692146
 30
0.0
 10
5.8130865722
 20
1.985062344
 30
0.0
 10
5.8142001638
 20
1.991864286
 30
0.0
 10
5.8145957633
 20
1.9987782048
 30
0.0
 10
5.81422866
 20
2.0054471508
 30
0.0
 10
5.8132958468
 20
2.0106605384
 30
0.0
 10
5.8122015696
 20
2.0144320948
 30
0.0
 10
5.810995427
 20
2.0176847044
 30
0.0
 10
5.8098577792
 20
2.0199422289
 30
0.0
 10
5.8089994292
 20
2.021313493
 30
0.0
  0
SPLINE
  5
439
100
AcDbEntity
  8
ALL_ASSEMBLY_MEMBERS
100
AcDbSpline
 62
7
  6
CONTINUOUS
 70
0
 71
3
 72
19
 73
15
 74
0
 42
0.0000001
 43
0.0000001
 44
0.0000000001
 40
0.0
 40
0.0
 40
0.0
 40
0.0
 40
0.124169343
 40
0.2564030525
 40
0.324769552
 40
0.3940199088
 40
0.4634728772
 40
0.5324203912
 40
0.6001248054
 40
0.6658886877
 40
0.7894726485
 40
0.8467672518
 40
0.900916034
 40
1.0
 40
1.0
 40
1.0
 40
1.0
 10
5.8154013601
 20
1.9687523045
 30
0.0
 10
5.8163463315
 20
1.9706261609
 30
0.0
 10
5.8180780104
 20
1.9746097943
 30
0.0
 10
5.8196976034
 20
1.9798672312
 30
0.0
 10
5.820666362
 20
1.9843262744
 30
0.0
 10
5.8212064835
 20
1.9877862852
 30
0.0
 10
5.8215397504
 20
1.9912822481
 30
0.0
 10
5.8216519917
 20
1.9947661763
 30
0.0
 10
5.8215437616
 20
1.9981883203
 30
0.0
 10
5.821113527
 20
2.0025136743
 30
0.0
 10
5.8202791378
 20
2.0066158572
 30
0.0
 10
5.8190371779
 20
2.0103931557
 30
0.0
 10
5.817659438
 20
2.0136762601
 30
0.0
 10
5.8163667402
 20
2.0159400113
 30
0.0
 10
5.8154013601
 20
2.0173084203
 30
0.0
  0
SPLINE
  5
43A
100
AcDbEntity
  8
ALL_ASSEMBLY_MEMBERS
100
AcDbSpline
 62
7
  6
CONTINUOUS
 70
0
 71
3
 72
16
 73
12
 74
0
 42
0.0000001
 43
0.0000001
 44
0.0000000001
 40
0.0
 40
0.0
 40
0.0
 40
0.0
 40
0.2460057663
 40
0.3767110082
 40
0.4431359816
 40
0.5097335968
 40
0.6416397537
 40
0.7061073044
 40
0.7690188547
 40
0.8889337275
 40
1.0
 40
1.0
 40
1.0
 40
1.0
 10
5.8201223066
 20
1.9646774545
 30
0.0
 10
5.8219145044
 20
1.9678437896
 30
0.0
 10
5.8241612052
 20
1.9729969655
 30
0.0
 10
5.8258347572
 20
1.9793431728
 30
0.0
 10
5.826517662
 20
1.9831856658
 30
0.0
 10
5.8269874646
 20
1.9870770905
 30
0.0
 10
5.8271180405
 20
1.9909751645
 30
0.0
 10
5.8268949013
 20
1.994805525
 30
0.0
 10
5.8264504405
 20
1.998437964
 30
0.0
 10
5.8255127895
 20
2.0026955614
 30
0.0
 10
5.8243216227
 20
2.0059116613
 30
0.0
 10
5.8236363558
 20
2.007404536
 30
0.0
  0
SPLINE
  5
43B
100
AcDbEntity
  8
ALL_ASSEMBLY_MEMBERS
100
AcDbSpline
 62
7
  6
CONTINUOUS
 70
0
 71
3
 72
9
 73
5
 74
0
 42
0.0000001
 43
0.0000001
 44
0.0000000001
 40
0.0
 40
0.0
 40
0.0
 40
0.0
 40
0.5162495299
 40
1.0
 40
1.0
 40
1.0
 40
1.0
 10
5.8236363558
 20
2.007404536
 30
0.0
 10
5.8231469197
 20
2.0084707874
 30
0.0
 10
5.8220854175
 20
2.0104864344
 30
0.0
 10
5.8207980353
 20
2.0123663994
 30
0.0
 10
5.8201223066
 20
2.0132335703
 30
0.0
  0
SPLINE
  5
43C
100
AcDbEntity
  8
ALL_ASSEMBLY_MEMBERS
100
AcDbSpline
 62
7
  6
CONTINUOUS
 70
0
 71
3
 72
41
 73
37
 74
0
 42
0.0000001
 43
0.0000001
 44
0.0000000001
 40
0.0
 40
0.0
 40
0.0
 40
0.0
 40
0.0877426776
 40
0.1746820939
 40
0.2599533589
 40
0.3427870823
 40
0.4224186173
 40
0.4981359212
 40
0.5343221097
 40
0.569295084
 40
0.6029847203
 40
0.6353317924
 40
0.6662860714
 40
0.6958003133
 40
0.7238465025
 40
0.7504112725
 40
0.7754883575
 40
0.7991104556
 40
0.8213362842
 40
0.8422590359
 40
0.8620549942
 40
0.87159787
 40
0.880954089
 40
0.8901749085
 40
0.8993161666
 40
0.9038760012
 40
0.9084390653
 40
0.9176111502
 40
0.9269207535
 40
0.9364765479
 40
0.9463644186
 40
0.9565376282
 40
0.9669461147
 40
0.977587348
 40
0.9885535696
 40
1.0
 40
1.0
 40
1.0
 40
1.0
 10
5.4929852484
 20
1.5737287962
 30
0.0
 10
5.5024213559
 20
1.5737287962
 30
0.0
 10
5.5212075978
 20
1.5738914843
 30
0.0
 10
5.5491556124
 20
1.5746213541
 30
0.0
 10
5.5765587283
 20
1.5758306615
 30
0.0
 10
5.6031499458
 20
1.5775073367
 30
0.0
 10
5.6286779995
 20
1.5796362531
 30
0.0
 10
5.6491641794
 20
1.5818022821
 30
0.0
 10
5.6648381711
 20
1.5837611406
 30
0.0
 10
5.6760075256
 20
1.5853091829
 30
0.0
 10
5.6867453124
 20
1.5869556719
 30
0.0
 10
5.69702991
 20
1.588698156
 30
0.0
 10
5.7068417976
 20
1.5905342375
 30
0.0
 10
5.7161643383
 20
1.5924619666
 30
0.0
 10
5.7249840088
 20
1.5944810468
 30
0.0
 10
5.7332906532
 20
1.5965925046
 30
0.0
 10
5.7410796842
 20
1.5987979374
 30
0.0
 10
5.7483511757
 20
1.6011057673
 30
0.0
 10
5.7551131695
 20
1.6035275206
 30
0.0
 10
5.7613844504
 20
1.6060822389
 30
0.0
 10
5.7662770703
 20
1.6083881467
 30
0.0
 10
5.7699516247
 20
1.6103428045
 30
0.0
 10
5.772568888
 20
1.6118593154
 30
0.0
 10
5.7750850969
 20
1.6134592899
 30
0.0
 10
5.7771036213
 20
1.6148760525
 30
0.0
 10
5.7786688673
 20
1.6160629655
 30
0.0
 10
5.7802054557
 20
1.6172920512
 30
0.0
 10
5.7820720993
 20
1.6189250112
 30
0.0
 10
5.7841993164
 20
1.6210658954
 30
0.0
 10
5.7862013408
 20
1.6234270312
 30
0.0
 10
5.7880518933
 20
1.626024358
 30
0.0
 10
5.7897037366
 20
1.6288601854
 30
0.0
 10
5.7910940383
 20
1.6319236582
 30
0.0
 10
5.7921574719
 20
1.6352069247
 30
0.0
 10
5.7928335136
 20
1.6387058449
 30
0.0
 10
5.7929852484
 20
1.6411193029
 30
0.0
 10
5.7929852484
 20
1.6423502859
 30
0.0
  0
SPLINE
  5
43D
100
AcDbEntity
  8
ALL_ASSEMBLY_MEMBERS
100
AcDbSpline
 62
7
  6
CONTINUOUS
 70
0
 71
3
 72
40
 73
36
 74
0
 42
0.0000001
 43
0.0000001
 44
0.0000000001
 40
0.0
 40
0.0
 40
0.0
 40
0.0
 40
0.0114538393
 40
0.0224185072
 40
0.0330548102
 40
0.0434594469
 40
0.0536314726
 40
0.0635219047
 40
0.0730812449
 40
0.0823916174
 40
0.0915629376
 40
0.1006842436
 40
0.1098255039
 40
0.1190466414
 40
0.1284030076
 40
0.1379455494
 40
0.1577419929
 40
0.1786652373
 40
0.2008907932
 40
0.2245136896
 40
0.2495906265
 40
0.2761556998
 40
0.3042026003
 40
0.3337167043
 40
0.3646709656
 40
0.3970181645
 40
0.4307075574
 40
0.4656804676
 40
0.5018666731
 40
0.5775836509
 40
0.6572147666
 40
0.7400482084
 40
0.8253190252
 40
0.9122575332
 40
1.0
 40
1.0
 40
1.0
 40
1.0
 10
5.1929852484
 20
1.6423502859
 30
0.0
 10
5.1929852484
 20
1.6411185069
 30
0.0
 10
5.1931368398
 20
1.6387044067
 30
0.0
 10
5.1938130453
 20
1.6352053961
 30
0.0
 10
5.194876625
 20
1.6319233496
 30
0.0
 10
5.1962667386
 20
1.6288609836
 30
0.0
 10
5.1979185501
 20
1.6260254532
 30
0.0
 10
5.199769361
 20
1.623427671
 30
0.0
 10
5.2017714324
 20
1.6210656391
 30
0.0
 10
5.2038984198
 20
1.618923926
 30
0.0
 10
5.206134297
 20
1.6169681537
 30
0.0
 10
5.2084657048
 20
1.6151579583
 30
0.0
 10
5.2108858069
 20
1.6134593201
 30
0.0
 10
5.2134020917
 20
1.6118593012
 30
0.0
 10
5.2160192198
 20
1.6103425538
 30
0.0
 10
5.2196938985
 20
1.6083880519
 30
0.0
 10
5.2245865179
 20
1.6060820185
 30
0.0
 10
5.2308577968
 20
1.6035270803
 30
0.0
 10
5.2376200326
 20
1.6011056936
 30
0.0
 10
5.2448915013
 20
1.5987976898
 30
0.0
 10
5.2526806483
 20
1.5965922987
 30
0.0
 10
5.2609873868
 20
1.5944808634
 30
0.0
 10
5.2698071356
 20
1.5924617303
 30
0.0
 10
5.2791297351
 20
1.5905340215
 30
0.0
 10
5.2889416198
 20
1.5886979794
 30
0.0
 10
5.2992261985
 20
1.5869555148
 30
0.0
 10
5.3099639591
 20
1.585309032
 30
0.0
 10
5.3211332779
 20
1.5837610162
 30
0.0
 10
5.3368072212
 20
1.5818021837
 30
0.0
 10
5.3572933103
 20
1.5796361777
 30
0.0
 10
5.3828212369
 20
1.5775072804
 30
0.0
 10
5.4094123141
 20
1.575830638
 30
0.0
 10
5.436815235
 20
1.5746213443
 30
0.0
 10
5.4647630617
 20
1.573891477
 30
0.0
 10
5.4835491702
 20
1.5737287962
 30
0.0
 10
5.4929852484
 20
1.5737287962
 30
0.0
  0
SPLINE
  5
43E
100
AcDbEntity
  8
ALL_ASSEMBLY_MEMBERS
100
AcDbSpline
 62
7
  6
CONTINUOUS
 70
0
 71
3
 72
40
 73
36
 74
0
 42
0.0000001
 43
0.0000001
 44
0.0000000001
 40
0.0
 40
0.0
 40
0.0
 40
0.0
 40
0.0117688226
 40
0.0230213541
 40
0.0339187946
 40
0.044556815
 40
0.0549372237
 40
0.0650160099
 40
0.0747513113
 40
0.08422858
 40
0.0935562079
 40
0.1028226431
 40
0.112097898
 40
0.1214421853
 40
0.1309111999
 40
0.1405562382
 40
0.1605258029
 40
0.1815835281
 40
0.2039087923
 40
0.22759731
 40
0.2527106191
 40
0.2792831573
 40
0.3073108051
 40
0.3367826459
 40
0.3676718747
 40
0.3999326776
 40
0.4335164475
 40
0.4683651298
 40
0.5044099864
 40
0.5797990844
 40
0.6590501445
 40
0.7414613993
 40
0.8262787338
 40
0.9127429569
 40
1.0
 40
1.0
 40
1.0
 40
1.0
 10
5.7739864902
 20
2.0963702398
 30
0.0
 10
5.7739436503
 20
2.097553722
 30
0.0
 10
5.7737169578
 20
2.0998664922
 30
0.0
 10
5.7729603307
 20
2.103203069
 30
0.0
 10
5.7718512077
 20
2.1063181437
 30
0.0
 10
5.7704486226
 20
2.1092136219
 30
0.0
 10
5.7688121327
 20
2.1118861391
 30
0.0
 10
5.7669997426
 20
2.1143292869
 30
0.0
 10
5.7650552588
 20
2.1165484331
 30
0.0
 10
5.763001896
 20
2.1185599054
 30
0.0
 10
5.7608533087
 20
2.120396451
 30
0.0
 10
5.7586212178
 20
2.1220961914
 30
0.0
 10
5.7563103742
 20
2.1236897538
 30
0.0
 10
5.7539136119
 20
2.1251895008
 30
0.0
 10
5.7514263799
 20
2.1266101424
 30
0.0
 10
5.7479437386
 20
2.1284387085
 30
0.0
 10
5.7433191227
 20
2.1305939217
 30
0.0
 10
5.7374051781
 20
2.1329800383
 30
0.0
 10
5.7310436201
 20
2.1352394521
 30
0.0
 10
5.7242158192
 20
2.1373904504
 30
0.0
 10
5.7169134907
 20
2.1394444562
 30
0.0
 10
5.709135797
 20
2.1414096971
 30
0.0
 10
5.7008863298
 20
2.1432879322
 30
0.0
 10
5.6921739822
 20
2.1450804638
 30
0.0
 10
5.6830108535
 20
2.1467872024
 30
0.0
 10
5.673412044
 20
2.1484064493
 30
0.0
 10
5.6633953702
 20
2.1499361147
 30
0.0
 10
5.6529806209
 20
2.1513740359
 30
0.0
 10
5.638373137
 20
2.1531929537
 30
0.0
 10
5.6192888446
 20
2.1552039891
 30
0.0
 10
5.5955154905
 20
2.1571803885
 30
0.0
 10
5.5707603631
 20
2.1587367057
 30
0.0
 10
5.5452553474
 20
2.159859077
 30
0.0
 10
5.5192470052
 20
2.1605364315
 30
0.0
 10
5.5017656332
 20
2.1606874108
 30
0.0
 10
5.4929852485
 20
2.1606874108
 30
0.0
  0
SPLINE
  5
43F
100
AcDbEntity
  8
ALL_ASSEMBLY_MEMBERS
100
AcDbSpline
 62
7
  6
CONTINUOUS
 70
0
 71
3
 72
40
 73
36
 74
0
 42
0.0000001
 43
0.0000001
 44
0.0000000001
 40
0.0
 40
0.0
 40
0.0
 40
0.0
 40
0.0872573567
 40
0.1737224912
 40
0.2585403454
 40
0.34095196
 40
0.4202035018
 40
0.4955929934
 40
0.566485075
 40
0.6000691197
 40
0.6323298751
 40
0.6632191342
 40
0.6926912456
 40
0.72071836
 40
0.7472905414
 40
0.7724040614
 40
0.796091967
 40
0.8184174481
 40
0.8394748867
 40
0.8594439868
 40
0.8690893338
 40
0.8785582643
 40
0.8879023067
 40
0.8971775721
 40
0.9018085112
 40
0.9064454541
 40
0.9157737495
 40
0.9252503715
 40
0.93498266
 40
0.9450594487
 40
0.9554413642
 40
0.9660828309
 40
0.9769837382
 40
0.9882367525
 40
1.0
 40
1.0
 40
1.0
 40
1.0
 10
5.4929852485
 20
2.1606874108
 30
0.0
 10
5.4842048401
 20
2.1606874108
 30
0.0
 10
5.4667233602
 20
2.1605364261
 30
0.0
 10
5.4407148688
 20
2.1598590674
 30
0.0
 10
5.4152096864
 20
2.1587366931
 30
0.0
 10
5.3904544807
 20
2.1571803207
 30
0.0
 10
5.3666809031
 20
2.1552040076
 30
0.0
 10
5.3441093577
 20
2.1528250914
 30
0.0
 10
5.3261597993
 20
2.1504833895
 30
0.0
 10
5.3125576431
 20
2.148406349
 30
0.0
 10
5.3029588146
 20
2.1467870563
 30
0.0
 10
5.2937956748
 20
2.1450802963
 30
0.0
 10
5.2850833656
 20
2.1432877322
 30
0.0
 10
5.2768339607
 20
2.1414095416
 30
0.0
 10
5.2690563433
 20
2.1394443013
 30
0.0
 10
5.2617541202
 20
2.1373902369
 30
0.0
 10
5.2549262967
 20
2.135239385
 30
0.0
 10
5.2485649104
 20
2.1329797068
 30
0.0
 10
5.2426509876
 20
2.1305937192
 30
0.0
 10
5.2380263473
 20
2.1284386494
 30
0.0
 10
5.2345438331
 20
2.1266099138
 30
0.0
 10
5.2320564909
 20
2.1251894555
 30
0.0
 10
5.2296597959
 20
2.1236897355
 30
0.0
 10
5.2277329414
 20
2.1223611211
 30
0.0
 10
5.2262357454
 20
2.1212472312
 30
0.0
 10
5.2247627441
 20
2.1200928832
 30
0.0
 10
5.2229685279
 20
2.1185590488
 30
0.0
 10
5.2209149652
 20
2.1165482748
 30
0.0
 10
5.2189705585
 20
2.1143297907
 30
0.0
 10
5.2171584422
 20
2.111886877
 30
0.0
 10
5.2155219274
 20
2.1092140285
 30
0.0
 10
5.2141191419
 20
2.1063177033
 30
0.0
 10
5.2130100453
 20
2.1032018311
 30
0.0
 10
5.2122535569
 20
2.0998654061
 30
0.0
 10
5.2120268262
 20
2.0975531603
 30
0.0
 10
5.2119840067
 20
2.0963702398
 30
0.0
  0
SPLINE
  5
440
100
AcDbEntity
  8
ALL_ASSEMBLY_MEMBERS
100
AcDbSpline
 62
7
  6
CONTINUOUS
 70
0
 71
3
 72
14
 73
10
 74
0
 42
0.0000001
 43
0.0000001
 44
0.0000000001
 40
0.0
 40
0.0
 40
0.0
 40
0.0
 40
0.1230862726
 40
0.2469593752
 40
0.3715026691
 40
0.496577345
 40
0.6220482412
 40
0.7478163968
 40
1.0
 40
1.0
 40
1.0
 40
1.0
 10
5.1995416199
 20
2.0360700934
 30
0.0
 10
5.2004635079
 20
2.0384344296
 30
0.0
 10
5.2022144825
 20
2.0432173881
 30
0.0
 10
5.2045446985
 20
2.0505159484
 30
0.0
 10
5.2065783351
 20
2.057945308
 30
0.0
 10
5.2083074956
 20
2.0654850845
 30
0.0
 10
5.2097234466
 20
2.0731159055
 30
0.0
 10
5.2111856562
 20
2.083393677
 30
0.0
 10
5.2117959233
 20
2.0911742944
 30
0.0
 10
5.2119840067
 20
2.0963702399
 30
0.0
  0
SPLINE
  5
441
100
AcDbEntity
  8
ALL_ASSEMBLY_MEMBERS
100
AcDbSpline
 62
7
  6
CONTINUOUS
 70
0
 71
3
 72
9
 73
5
 74
0
 42
0.0000001
 43
0.0000001
 44
0.0000000001
 40
0.0
 40
0.0
 40
0.0
 40
0.0
 40
0.5055414711
 40
1.0
 40
1.0
 40
1.0
 40
1.0
 10
5.172787355
 20
1.9390459938
 30
0.0
 10
5.1738543392
 20
1.9381275888
 30
0.0
 10
5.1760212822
 20
1.936375665
 30
0.0
 10
5.1782775935
 20
1.9347414758
 30
0.0
 10
5.1794113033
 20
1.9339600165
 30
0.0
  0
SPLINE
  5
442
100
AcDbEntity
  8
ALL_ASSEMBLY_MEMBERS
100
AcDbSpline
 62
7
  6
CONTINUOUS
 70
0
 71
3
 72
11
 73
7
 74
0
 42
0.0000001
 43
0.0000001
 44
0.0000000001
 40
0.0
 40
0.0
 40
0.0
 40
0.0
 40
0.2512721557
 40
0.5005894181
 40
0.7496516956
 40
1.0
 40
1.0
 40
1.0
 40
1.0
 10
5.1794113033
 20
1.9339600165
 30
0.0
 10
5.1804905594
 20
1.933216092
 30
0.0
 10
5.1826746862
 20
1.9317827816
 30
0.0
 10
5.1860330821
 20
1.9297771401
 30
0.0
 10
5.1894610349
 20
1.9279033037
 30
0.0
 10
5.1917871403
 20
1.9267289409
 30
0.0
 10
5.1929614818
 20
1.9261575147
 30
0.0
  0
SPLINE
  5
443
100
AcDbEntity
  8
ALL_ASSEMBLY_MEMBERS
100
AcDbSpline
 62
7
  6
CONTINUOUS
 70
0
 71
3
 72
11
 73
7
 74
0
 42
0.0000001
 43
0.0000001
 44
0.0000000001
 40
0.0
 40
0.0
 40
0.0
 40
0.0
 40
0.2543680142
 40
0.5067745918
 40
0.7557518307
 40
1.0
 40
1.0
 40
1.0
 40
1.0
 10
5.1537656918
 20
1.9709289715
 30
0.0
 10
5.1540184324
 20
1.9695271754
 30
0.0
 10
5.154666822
 20
1.9667584119
 30
0.0
 10
5.1560406385
 20
1.9627488449
 30
0.0
 10
5.1577622109
 20
1.9589385857
 30
0.0
 10
5.1591244202
 20
1.9565311315
 30
0.0
 10
5.1598487973
 20
1.9553709756
 30
0.0
  0
SPLINE
  5
444
100
AcDbEntity
  8
ALL_ASSEMBLY_MEMBERS
100
AcDbSpline
 62
7
  6
CONTINUOUS
 70
0
 71
3
 72
17
 73
13
 74
0
 42
0.0000001
 43
0.0000001
 44
0.0000000001
 40
0.0
 40
0.0
 40
0.0
 40
0.0
 40
0.1216380876
 40
0.2472180695
 40
0.3110615731
 40
0.3753048969
 40
0.4397432844
 40
0.5041692702
 40
0.5683635829
 40
0.6321534506
 40
0.7580318277
 40
1.0
 40
1.0
 40
1.0
 40
1.0
 10
5.1542500868
 20
1.990724936
 30
0.0
 10
5.1539215407
 20
1.9893003129
 30
0.0
 10
5.1534298953
 20
1.9863615604
 30
0.0
 10
5.1532500911
 20
1.9826186265
 30
0.0
 10
5.1533577554
 20
1.9795703223
 30
0.0
 10
5.1535677069
 20
1.9772645931
 30
0.0
 10
5.1539032421
 20
1.9749668459
 30
0.0
 10
5.1543583085
 20
1.9726903925
 30
0.0
 10
5.1549280226
 20
1.9704479715
 30
0.0
 10
5.1558285868
 20
1.9675312697
 30
0.0
 10
5.1577186195
 20
1.9626931213
 30
0.0
 10
5.1598973401
 20
1.9588100571
 30
0.0
 10
5.161539438
 20
1.9564096833
 30
0.0
  0
SPLINE
  5
445
100
AcDbEntity
  8
ALL_ASSEMBLY_MEMBERS
100
AcDbSpline
 62
7
  6
CONTINUOUS
 70
0
 71
3
 72
9
 73
5
 74
0
 42
0.0000001
 43
0.0000001
 44
0.0000000001
 40
0.0
 40
0.0
 40
0.0
 40
0.0
 40
0.4837464825
 40
1.0
 40
1.0
 40
1.0
 40
1.0
 10
5.1658538057
 20
2.0132395191
 30
0.0
 10
5.1651781688
 20
2.0123723519
 30
0.0
 10
5.1638909645
 20
2.0104923918
 30
0.0
 10
5.1628296266
 20
2.0084767769
 30
0.0
 10
5.1623402649
 20
2.0074105404
 30
0.0
  0
SPLINE
  5
446
100
AcDbEntity
  8
ALL_ASSEMBLY_MEMBERS
100
AcDbSpline
 62
7
  6
CONTINUOUS
 70
0
 71
3
 72
16
 73
12
 74
0
 42
0.0000001
 43
0.0000001
 44
0.0000000001
 40
0.0
 40
0.0
 40
0.0
 40
0.0
 40
0.1110646478
 40
0.2309793265
 40
0.2938911785
 40
0.3583592175
 40
0.4902666342
 40
0.5568648594
 40
0.6232903469
 40
0.7539961214
 40
1.0
 40
1.0
 40
1.0
 40
1.0
 10
5.1623402649
 20
2.0074105404
 30
0.0
 10
5.1616550926
 20
2.0059176655
 30
0.0
 10
5.1604640973
 20
2.0027015678
 30
0.0
 10
5.1595265911
 20
1.9984440067
 30
0.0
 10
5.1590821973
 20
1.9948115856
 30
0.0
 10
5.1588590915
 20
1.9909812292
 30
0.0
 10
5.1589896489
 20
1.9870831591
 30
0.0
 10
5.159459383
 20
1.9831917279
 30
0.0
 10
5.1601421872
 20
1.9793492296
 30
0.0
 10
5.1618154827
 20
1.9730030341
 30
0.0
 10
5.1640618502
 20
1.9678498044
 30
0.0
 10
5.1658538057
 20
1.9646834033
 30
0.0
  0
SPLINE
  5
447
100
AcDbEntity
  8
ALL_ASSEMBLY_MEMBERS
100
AcDbSpline
 62
7
  6
CONTINUOUS
 70
0
 71
3
 72
19
 73
15
 74
0
 42
0.0000001
 43
0.0000001
 44
0.0000000001
 40
0.0
 40
0.0
 40
0.0
 40
0.0
 40
0.0990803152
 40
0.1532280992
 40
0.2105222212
 40
0.3341065625
 40
0.3998711221
 40
0.4675764189
 40
0.5365249127
 40
0.6059788522
 40
0.6752300748
 40
0.7435972494
 40
0.875831498
 40
1.0
 40
1.0
 40
1.0
 40
1.0
 10
5.1705772096
 20
2.0173142832
 30
0.0
 10
5.1696119799
 20
2.0159458718
 30
0.0
 10
5.1683195017
 20
2.0136821303
 30
0.0
 10
5.1669420067
 20
2.0103990714
 30
0.0
 10
5.165700256
 20
2.0066217824
 30
0.0
 10
5.1648660147
 20
2.0025196237
 30
0.0
 10
5.1644358551
 20
1.9981942902
 30
0.0
 10
5.1643276439
 20
1.9947721508
 30
0.0
 10
5.164439866
 20
1.9912882229
 30
0.0
 10
5.1647730758
 20
1.9877922561
 30
0.0
 10
5.1653131046
 20
1.9843322375
 30
0.0
 10
5.1662816954
 20
1.979873187
 30
0.0
 10
5.1679010036
 20
1.9746157391
 30
0.0
 10
5.1696323929
 20
1.9706320535
 30
0.0
 10
5.1705772096
 20
1.9687581674
 30
0.0
  0
SPLINE
  5
448
100
AcDbEntity
  8
ALL_ASSEMBLY_MEMBERS
100
AcDbSpline
 62
7
  6
CONTINUOUS
 70
0
 71
3
 72
16
 73
12
 74
0
 42
0.0000001
 43
0.0000001
 44
0.0000000001
 40
0.0
 40
0.0
 40
0.0
 40
0.0
 40
0.0966193193
 40
0.1501065833
 40
0.2070922276
 40
0.330965321
 40
0.4654526471
 40
0.6051375331
 40
0.7437675486
 40
0.8763847837
 40
1.0
 40
1.0
 40
1.0
 40
1.0
 10
5.1769815557
 20
2.0213192395
 30
0.0
 10
5.1761233655
 20
2.0199479695
 30
0.0
 10
5.1749859476
 20
2.0176904533
 30
0.0
 10
5.1737800574
 20
2.0144378865
 30
0.0
 10
5.1726859991
 20
2.010666338
 30
0.0
 10
5.1717533783
 20
2.0054529669
 30
0.0
 10
5.1713863518
 20
1.998784046
 30
0.0
 10
5.1717818702
 20
1.9918701366
 30
0.0
 10
5.1728952331
 20
1.9850681875
 30
0.0
 10
5.1746197101
 20
1.9786750358
 30
0.0
 10
5.1761464211
 20
1.9746568095
 30
0.0
 10
5.1769815557
 20
1.9727631237
 30
0.0
  0
SPLINE
  5
449
100
AcDbEntity
  8
ALL_ASSEMBLY_MEMBERS
100
AcDbSpline
 62
7
  6
CONTINUOUS
 70
0
 71
3
 72
17
 73
13
 74
0
 42
0.0000001
 43
0.0000001
 44
0.0000000001
 40
0.0
 40
0.0
 40
0.0
 40
0.0
 40
0.0453020712
 40
0.0943291462
 40
0.1471906838
 40
0.2038841407
 40
0.3280166768
 40
0.463500192
 40
0.6044104032
 40
0.7440032782
 40
0.8769420263
 40
1.0
 40
1.0
 40
1.0
 40
1.0
 10
5.1850334537
 20
2.0252335072
 30
0.0
 10
5.1846755596
 20
2.0245720569
 30
0.0
 10
5.1839886578
 20
2.0231626513
 30
0.0
 10
5.1830846266
 20
2.0208903824
 30
0.0
 10
5.1822832285
 20
2.0183805229
 30
0.0
 10
5.1813432193
 20
2.0146143196
 30
0.0
 10
5.1805450845
 20
2.0094115464
 30
0.0
 10
5.1802315853
 20
2.0027590974
 30
0.0
 10
5.1805703928
 20
1.9958514126
 30
0.0
 10
5.1815237145
 20
1.9890451422
 30
0.0
 10
5.1830006709
 20
1.9826380531
 30
0.0
 10
5.1843135218
 20
1.9785892385
 30
0.0
 10
5.1850334537
 20
1.9766773914
 30
0.0
  0
SPLINE
  5
44A
100
AcDbEntity
  8
ALL_ASSEMBLY_MEMBERS
100
AcDbSpline
 62
7
  6
CONTINUOUS
 70
0
 71
3
 72
17
 73
13
 74
0
 42
0.0000001
 43
0.0000001
 44
0.0000000001
 40
0.0
 40
0.0
 40
0.0
 40
0.0
 40
0.0440383476
 40
0.0921698859
 40
0.1444762416
 40
0.2009194581
 40
0.3253114674
 40
0.4617087001
 40
0.6037319993
 40
0.7442006727
 40
0.8774387253
 40
1.0
 40
1.0
 40
1.0
 40
1.0
 10
5.1946909232
 20
2.0290366785
 30
0.0
 10
5.1943922712
 20
2.0283755029
 30
0.0
 10
5.193820313
 20
2.0269673253
 30
0.0
 10
5.1930713643
 20
2.0247065722
 30
0.0
 10
5.1924073857
 20
2.0222072852
 30
0.0
 10
5.1916267018
 20
2.0184449856
 30
0.0
 10
5.1909663555
 20
2.0132518496
 30
0.0
 10
5.1907073076
 20
2.0066136155
 30
0.0
 10
5.1909879287
 20
1.9997114894
 30
0.0
 10
5.1917771976
 20
1.9929019765
 30
0.0
 10
5.1930001944
 20
1.9864837798
 30
0.0
 10
5.1940911972
 20
1.9824085402
 30
0.0
 10
5.1946909232
 20
1.9804805627
 30
0.0
  0
SPLINE
  5
44B
100
AcDbEntity
  8
ALL_ASSEMBLY_MEMBERS
100
AcDbSpline
 62
7
  6
CONTINUOUS
 70
0
 71
3
 72
18
 73
14
 74
0
 42
0.0000001
 43
0.0000001
 44
0.0000000001
 40
0.0
 40
0.0
 40
0.0
 40
0.0
 40
0.0429348378
 40
0.0902939703
 40
0.1421270254
 40
0.1983612198
 40
0.2587710657
 40
0.3230065817
 40
0.4601872102
 40
0.603159472
 40
0.7443738974
 40
0.8778669033
 40
1.0
 40
1.0
 40
1.0
 40
1.0
 10
5.205903613
 20
2.0327089248
 30
0.0
 10
5.2056665225
 20
2.0320474057
 30
0.0
 10
5.2052135336
 20
2.0306396145
 30
0.0
 10
5.2046231192
 20
2.0283885752
 30
0.0
 10
5.2040996398
 20
2.0258981476
 30
0.0
 10
5.2036529104
 20
2.0231762527
 30
0.0
 10
5.2032924648
 20
2.0202370004
 30
0.0
 10
5.2029321365
 20
2.0159659747
 30
0.0
 10
5.202758997
 20
2.0103273021
 30
0.0
 10
5.202980129
 20
2.0034302021
 30
0.0
 10
5.2036021311
 20
1.9966183003
 30
0.0
 10
5.2045660085
 20
1.9901915926
 30
0.0
 10
5.2054284627
 20
1.9860944934
 30
0.0
 10
5.205903613
 20
1.984152809
 30
0.0
  0
SPLINE
  5
44C
100
AcDbEntity
  8
ALL_ASSEMBLY_MEMBERS
100
AcDbSpline
 62
7
  6
CONTINUOUS
 70
0
 71
3
 72
17
 73
13
 74
0
 42
0.0000001
 43
0.0000001
 44
0.0000000001
 40
0.0
 40
0.0
 40
0.0
 40
0.0
 40
0.042042279
 40
0.0887833771
 40
0.1402432276
 40
0.19631705
 40
0.3211377878
 40
0.4589525497
 40
0.6026880057
 40
0.744503562
 40
0.8782056235
 40
1.0
 40
1.0
 40
1.0
 40
1.0
 10
5.2186130635
 20
2.0362311
 30
0.0
 10
5.2184395979
 20
2.0355689034
 30
0.0
 10
5.2181089243
 20
2.0341610422
 30
0.0
 10
5.2176796313
 20
2.0319177549
 30
0.0
 10
5.2172989097
 20
2.0294343056
 30
0.0
 10
5.2168495396
 20
2.0256772813
 30
0.0
 10
5.2164716484
 20
2.0204987781
 30
0.0
 10
5.216323618
 20
2.0138814579
 30
0.0
 10
5.2164845108
 20
2.0069877269
 30
0.0
 10
5.216936726
 20
2.0001742844
 30
0.0
 10
5.2176375549
 20
1.9937414089
 30
0.0
 10
5.2182661227
 20
1.9896274772
 30
0.0
 10
5.2186130635
 20
1.9876749843
 30
0.0
  0
SPLINE
  5
44D
100
AcDbEntity
  8
ALL_ASSEMBLY_MEMBERS
100
AcDbSpline
 62
7
  6
CONTINUOUS
 70
0
 71
3
 72
18
 73
14
 74
0
 42
0.0000001
 43
0.0000001
 44
0.0000000001
 40
0.0
 40
0.0
 40
0.0
 40
0.0
 40
0.041403644
 40
0.0877062627
 40
0.1389030264
 40
0.194864938
 40
0.319826445
 40
0.4580868982
 40
0.5299905362
 40
0.6023609472
 40
0.7445975206
 40
0.8784457396
 40
1.0
 40
1.0
 40
1.0
 40
1.0
 10
5.2327530111
 20
2.0395848406
 30
0.0
 10
5.2326448371
 20
2.0389219186
 30
0.0
 10
5.2324390127
 20
2.0375137853
 30
0.0
 10
5.232172575
 20
2.0352759612
 30
0.0
 10
5.2319362411
 20
2.0327973948
 30
0.0
 10
5.2316569432
 20
2.0290418644
 30
0.0
 10
5.2314224888
 20
2.0238679143
 30
0.0
 10
5.2313470207
 20
2.018430903
 30
0.0
 10
5.2313800587
 20
2.013847346
 30
0.0
 10
5.2314786067
 20
2.0092002142
 30
0.0
 10
5.2317112368
 20
2.0035512894
 30
0.0
 10
5.2321462377
 20
1.9971143971
 30
0.0
 10
5.2325370196
 20
1.9929888306
 30
0.0
 10
5.2327530111
 20
1.9910287248
 30
0.0
  0
SPLINE
  5
44E
100
AcDbEntity
  8
ALL_ASSEMBLY_MEMBERS
100
AcDbSpline
 62
7
  6
CONTINUOUS
 70
0
 71
3
 72
15
 73
11
 74
0
 42
0.0000001
 43
0.0000001
 44
0.0000000001
 40
0.0
 40
0.0
 40
0.0
 40
0.0
 40
0.121425257
 40
0.2553540471
 40
0.3978198713
 40
0.5423813786
 40
0.6808848638
 40
0.80592496
 40
0.9128815388
 40
1.0
 40
1.0
 40
1.0
 40
1.0
 10
5.2482497343
 20
1.9941965453
 30
0.0
 10
5.2481664476
 20
1.996160767
 30
0.0
 10
5.2480158756
 20
2.0002925378
 30
0.0
 10
5.2478484201
 20
2.006731536
 30
0.0
 10
5.2477403683
 20
2.0135464662
 30
0.0
 10
5.2477019238
 20
2.0204362236
 30
0.0
 10
5.2477372136
 20
2.0270438674
 30
0.0
 10
5.2478419911
 20
2.0330418742
 30
0.0
 10
5.248005952
 20
2.0382062148
 30
0.0
 10
5.2481611323
 20
2.0413449186
 30
0.0
 10
5.2482497343
 20
2.0427526611
 30
0.0
  0
SPLINE
  5
44F
100
AcDbEntity
  8
ALL_ASSEMBLY_MEMBERS
100
AcDbSpline
 62
7
  6
CONTINUOUS
 70
0
 71
3
 72
17
 73
13
 74
0
 42
0.0000001
 43
0.0000001
 44
0.0000000001
 40
0.0
 40
0.0
 40
0.0
 40
0.0
 40
0.1127602971
 40
0.2332220818
 40
0.2960307481
 40
0.3602003636
 40
0.4911147557
 40
0.557152707
 40
0.6230483195
 40
0.7529980248
 40
0.8790821849
 40
1.0
 40
1.0
 40
1.0
 40
1.0
 10
5.1587527828
 20
2.0027808161
 30
0.0
 10
5.1580336521
 20
2.0012850297
 30
0.0
 10
5.1567852503
 20
1.9980716012
 30
0.0
 10
5.1558109498
 20
1.993809465
 30
0.0
 10
5.1553643998
 20
1.9901924992
 30
0.0
 10
5.1551577601
 20
1.986399894
 30
0.0
 10
5.1553287294
 20
1.9825477249
 30
0.0
 10
5.1558618006
 20
1.978714035
 30
0.0
 10
5.156621576
 20
1.9749329761
 30
0.0
 10
5.1579657483
 20
1.9703771465
 30
0.0
 10
5.1601246942
 20
1.9652550293
 30
0.0
 10
5.1618916555
 20
1.9620686374
 30
0.0
 10
5.1628359704
 20
1.960560076
 30
0.0
  0
SPLINE
  5
450
100
AcDbEntity
  8
ALL_ASSEMBLY_MEMBERS
100
AcDbSpline
 62
7
  6
CONTINUOUS
 70
0
 71
3
 72
29
 73
25
 74
0
 42
0.0000001
 43
0.0000001
 44
0.0000000001
 40
0.0
 40
0.0
 40
0.0
 40
0.0
 40
0.079746084
 40
0.1590328881
 40
0.2373129173
 40
0.314121919
 40
0.3890068892
 40
0.4615202588
 40
0.5312526326
 40
0.5978287581
 40
0.6609298501
 40
0.720288279
 40
0.7485088616
 40
0.7757320515
 40
0.8271879568
 40
0.8514492008
 40
0.874766675
 40
0.897202945
 40
0.9188288239
 40
0.9397472833
 40
0.9601159404
 40
0.9701487541
 40
0.9801159419
 40
1.0
 40
1.0
 40
1.0
 40
1.0
 10
5.4929852484
 20
2.0717413946
 30
0.0
 10
5.4846071518
 20
2.0717413946
 30
0.0
 10
5.467898966
 20
2.0716225481
 30
0.0
 10
5.4429718268
 20
2.0710896168
 30
0.0
 10
5.4183633935
 20
2.0702042222
 30
0.0
 10
5.3942328861
 20
2.0689721982
 30
0.0
 10
5.3707291827
 20
2.0674007433
 30
0.0
 10
5.3479958272
 20
2.0654982726
 30
0.0
 10
5.3261687313
 20
2.0632749245
 30
0.0
 10
5.3053711111
 20
2.0607408595
 30
0.0
 10
5.2857127079
 20
2.0579061508
 30
0.0
 10
5.2701033896
 20
2.0552570588
 30
0.0
 10
5.2582593339
 20
2.052976783
 30
0.0
 10
5.2472655844
 20
2.0506800056
 30
0.0
 10
5.2367353792
 20
2.0482011432
 30
0.0
 10
5.2266882896
 20
2.0454945006
 30
0.0
 10
5.2196315514
 20
2.0434158077
 30
0.0
 10
5.212895951
 20
2.0412351183
 30
0.0
 10
5.2064655912
 20
2.0389390651
 30
0.0
 10
5.2003188323
 20
2.0365051948
 30
0.0
 10
5.1953886048
 20
2.034318263
 30
0.0
 10
5.1915730032
 20
2.0324657763
 30
0.0
 10
5.1878498449
 20
2.0305427582
 30
0.0
 10
5.1851240555
 20
2.0289866277
 30
0.0
 10
5.1833448189
 20
2.0278919634
 30
0.0
  0
SPLINE
  5
451
100
AcDbEntity
  8
ALL_ASSEMBLY_MEMBERS
100
AcDbSpline
 62
7
  6
CONTINUOUS
 70
0
 71
3
 72
9
 73
5
 74
0
 42
0.0000001
 43
0.0000001
 44
0.0000000001
 40
0.0
 40
0.0
 40
0.0
 40
0.0
 40
0.4960046185
 40
1.0
 40
1.0
 40
1.0
 40
1.0
 10
5.1833448189
 20
2.0278919634
 30
0.0
 10
5.1820648453
 20
2.0271044675
 30
0.0
 10
5.1795210049
 20
2.0254562854
 30
0.0
 10
5.1770646323
 20
2.0236793163
 30
0.0
 10
5.1758554098
 20
2.0227467829
 30
0.0
  0
SPLINE
  5
452
100
AcDbEntity
  8
ALL_ASSEMBLY_MEMBERS
100
AcDbSpline
 62
7
  6
CONTINUOUS
 70
0
 71
3
 72
14
 73
10
 74
0
 42
0.0000001
 43
0.0000001
 44
0.0000000001
 40
0.0
 40
0.0
 40
0.0
 40
0.0
 40
0.2521833141
 40
0.3779508818
 40
0.5034217886
 40
0.6284968161
 40
0.7530404581
 40
0.8769136263
 40
1.0
 40
1.0
 40
1.0
 40
1.0
 10
5.7739864902
 20
2.0963702399
 30
0.0
 10
5.7741745576
 20
2.0911747373
 30
0.0
 10
5.7747847317
 20
2.083394791
 30
0.0
 10
5.7762467317
 20
2.0731178895
 30
0.0
 10
5.7776624802
 20
2.0654877
 30
0.0
 10
5.7793913727
 20
2.0579485149
 30
0.0
 10
5.7814246879
 20
2.0505197228
 30
0.0
 10
5.7837545416
 20
2.0432217123
 30
0.0
 10
5.785505241
 20
2.0384391058
 30
0.0
 10
5.7864269847
 20
2.0360749401
 30
0.0
  0
SPLINE
  5
453
100
AcDbEntity
  8
ALL_ASSEMBLY_MEMBERS
100
AcDbSpline
 62
7
  6
CONTINUOUS
 70
0
 71
3
 72
17
 73
13
 74
0
 42
0.0000001
 43
0.0000001
 44
0.0000000001
 40
0.0
 40
0.0
 40
0.0
 40
0.0
 40
0.11277369
 40
0.2332443514
 40
0.2960551428
 40
0.3602254338
 40
0.4911371146
 40
0.5571722716
 40
0.6230644975
 40
0.7530071936
 40
0.8790855701
 40
1.0
 40
1.0
 40
1.0
 40
1.0
 10
5.8272258358
 20
2.0027654167
 30
0.0
 10
5.8279444734
 20
2.0012695885
 30
0.0
 10
5.8291918933
 20
1.998056265
 30
0.0
 10
5.8301651181
 20
1.9937945283
 30
0.0
 10
5.8306108779
 20
1.990178118
 30
0.0
 10
5.8308167799
 20
1.9863863272
 30
0.0
 10
5.8306452397
 20
1.9825351277
 30
0.0
 10
5.830111766
 20
1.9787025047
 30
0.0
 10
5.8293517108
 20
1.9749225849
 30
0.0
 10
5.8280073934
 20
1.9703681643
 30
0.0
 10
5.8258485527
 20
1.9652476213
 30
0.0
 10
5.8240818244
 20
1.9620621944
 30
0.0
 10
5.8231376552
 20
1.9605540724
 30
0.0
  0
SPLINE
  5
454
100
AcDbEntity
  8
ALL_ASSEMBLY_MEMBERS
100
AcDbSpline
 62
7
  6
CONTINUOUS
 70
0
 71
3
 72
9
 73
5
 74
0
 42
0.0000001
 43
0.0000001
 44
0.0000000001
 40
0.0
 40
0.0
 40
0.0
 40
0.0
 40
0.2554274483
 40
1.0
 40
1.0
 40
1.0
 40
1.0
 10
5.826119854
 20
2.0048632547
 30
0.0
 10
5.8258092516
 20
2.0054010786
 30
0.0
 10
5.8245563836
 20
2.0074852424
 30
0.0
 10
5.8231627877
 20
2.0094841653
 30
0.0
 10
5.822058885
 20
2.0109190987
 30
0.0
  0
SPLINE
  5
455
100
AcDbEntity
  8
ALL_ASSEMBLY_MEMBERS
100
AcDbSpline
 62
7
  6
CONTINUOUS
 70
0
 71
3
 72
9
 73
5
 74
0
 42
0.0000001
 43
0.0000001
 44
0.0000000001
 40
0.0
 40
0.0
 40
0.0
 40
0.0
 40
0.5103065077
 40
1.0
 40
1.0
 40
1.0
 40
1.0
 10
5.822058885
 20
2.0109190987
 30
0.0
 10
5.8210984258
 20
2.0121675739
 30
0.0
 10
5.8191159095
 20
2.0145382235
 30
0.0
 10
5.8169641946
 20
2.0167552895
 30
0.0
 10
5.8158740222
 20
2.0178023323
 30
0.0
  0
LINE
  5
456
100
AcDbEntity
  8
ALL_ASSEMBLY_MEMBERS
100
AcDbLine
 62
7
  6
CONTINUOUS
 10
5.8157178136
 20
2.0179518615
 11
5.8100954055
 21
2.022759416
  0
SPLINE
  5
457
100
AcDbEntity
  8
ALL_ASSEMBLY_MEMBERS
100
AcDbSpline
 62
7
  6
CONTINUOUS
 70
0
 71
3
 72
19
 73
15
 74
0
 42
0.0000001
 43
0.0000001
 44
0.0000000001
 40
0.0
 40
0.0
 40
0.0
 40
0.0
 40
0.0287620964
 40
0.0572144472
 40
0.1134689345
 40
0.2252625296
 40
0.2817548812
 40
0.3390797107
 40
0.3975150264
 40
0.4573207235
 40
0.5817057458
 40
0.7132348865
 40
0.8525848283
 40
1.0
 40
1.0
 40
1.0
 40
1.0
 10
5.8100954055
 20
2.022759416
 30
0.0
 10
5.8094741284
 20
2.023237678
 30
0.0
 10
5.8082237834
 20
2.0241703778
 30
0.0
 10
5.80569431
 20
2.0259511234
 30
0.0
 10
5.8011927813
 20
2.0288586494
 30
0.0
 10
5.7958153172
 20
2.0318002112
 30
0.0
 10
5.7902694964
 20
2.034459771
 30
0.0
 10
5.7859699934
 20
2.0363494182
 30
0.0
 10
5.7815328391
 20
2.0381442806
 30
0.0
 10
5.7753385291
 20
2.0404641719
 30
0.0
 10
5.7671737263
 20
2.0431949522
 30
0.0
 10
5.7568267281
 20
2.0462083376
 30
0.0
 10
5.7457794365
 20
2.0490390654
 30
0.0
 10
5.7381540477
 20
2.05076433
 30
0.0
 10
5.7342243737
 20
2.0516044061
 30
0.0
  0
LINE
  5
458
100
AcDbEntity
  8
ALL_ASSEMBLY_MEMBERS
100
AcDbLine
 62
7
  6
CONTINUOUS
 10
5.7226383144
 20
2.053947326
 11
5.7218028673
 21
2.0541065448
  0
SPLINE
  5
459
100
AcDbEntity
  8
ALL_ASSEMBLY_MEMBERS
100
AcDbSpline
 62
7
  6
CONTINUOUS
 70
0
 71
3
 72
17
 73
13
 74
0
 42
0.0000001
 43
0.0000001
 44
0.0000000001
 40
0.0
 40
0.0
 40
0.0
 40
0.0
 40
0.0505400488
 40
0.1032022743
 40
0.1579219208
 40
0.2146023606
 40
0.3334151361
 40
0.4586660663
 40
0.5892254802
 40
0.7238440497
 40
0.861246216
 40
1.0
 40
1.0
 40
1.0
 40
1.0
 10
5.7218028673
 20
2.0541065448
 30
0.0
 10
5.7179995333
 20
2.0548285793
 30
0.0
 10
5.7102188009
 20
2.0562280882
 30
0.0
 10
5.6982779513
 20
2.0581654373
 30
0.0
 10
5.6858429031
 20
2.0599840341
 30
0.0
 10
5.6683591949
 20
2.0622839684
 30
0.0
 10
5.6454605151
 20
2.0648236591
 30
0.0
 10
5.616871404
 20
2.0673168627
 30
0.0
 10
5.5870277417
 20
2.0692800337
 30
0.0
 10
5.5562215526
 20
2.0706961236
 30
0.0
 10
5.5247669837
 20
2.0715508988
 30
0.0
 10
5.503613503
 20
2.0717413946
 30
0.0
 10
5.4929852484
 20
2.0717413946
 30
0.0
  0
SPLINE
  5
45A
100
AcDbEntity
  8
ALL_ASSEMBLY_MEMBERS
100
AcDbSpline
 62
7
  6
CONTINUOUS
 70
0
 71
3
 72
17
 73
13
 74
0
 42
0.0000001
 43
0.0000001
 44
0.0000000001
 40
0.0
 40
0.0
 40
0.0
 40
0.0
 40
0.1216719587
 40
0.2472702719
 40
0.3111167809
 40
0.3753597781
 40
0.4397951985
 40
0.504215975
 40
0.5684033937
 40
0.63218596
 40
0.7580500287
 40
1.0
 40
1.0
 40
1.0
 40
1.0
 10
5.8317311274
 20
1.990678347
 30
0.0
 10
5.8320577719
 20
1.9892545821
 30
0.0
 10
5.8325458797
 20
1.9863180728
 30
0.0
 10
5.8327221634
 20
1.9825786135
 30
0.0
 10
5.8326122683
 20
1.9795336243
 30
0.0
 10
5.8324009233
 20
1.9772306836
 30
0.0
 10
5.8320643598
 20
1.974935873
 30
0.0
 10
5.8316085957
 20
1.9726624494
 30
0.0
 10
5.8310384912
 20
1.9704230964
 30
0.0
 10
5.8301378307
 20
1.967510434
 30
0.0
 10
5.8282485521
 20
1.9626788885
 30
0.0
 10
5.8260719197
 20
1.9588010166
 30
0.0
 10
5.8244316847
 20
1.9564036561
 30
0.0
  0
SPLINE
  5
45B
100
AcDbEntity
  8
ALL_ASSEMBLY_MEMBERS
100
AcDbSpline
 62
7
  6
CONTINUOUS
 70
0
 71
3
 72
11
 73
7
 74
0
 42
0.0000001
 43
0.0000001
 44
0.0000000001
 40
0.0
 40
0.0
 40
0.0
 40
0.0
 40
0.2543648453
 40
0.5067716463
 40
0.7557504371
 40
1.0
 40
1.0
 40
1.0
 40
1.0
 10
5.8322055341
 20
1.9709330063
 30
0.0
 10
5.8319529851
 20
1.9695303886
 30
0.0
 10
5.8313047827
 20
1.9667599649
 30
0.0
 10
5.8299307071
 20
1.9627479932
 30
0.0
 10
5.8282083999
 20
1.9589354856
 30
0.0
 10
5.8268454296
 20
1.956526669
 30
0.0
 10
5.8261206183
 20
1.955365878
 30
0.0
  0
SPLINE
  5
45C
100
AcDbEntity
  8
ALL_ASSEMBLY_MEMBERS
100
AcDbSpline
 62
7
  6
CONTINUOUS
 70
0
 71
3
 72
9
 73
5
 74
0
 42
0.0000001
 43
0.0000001
 44
0.0000000001
 40
0.0
 40
0.0
 40
0.0
 40
0.0
 40
0.499325746
 40
1.0
 40
1.0
 40
1.0
 40
1.0
 10
5.7929889961
 20
1.9261478378
 30
0.0
 10
5.7953407503
 20
1.9272906172
 30
0.0
 10
5.7999854202
 20
1.9297179148
 30
0.0
 10
5.8044324912
 20
1.9324963148
 30
0.0
 10
5.8065921567
 20
1.9339827582
 30
0.0
  0
SPLINE
  5
45D
100
AcDbEntity
  8
ALL_ASSEMBLY_MEMBERS
100
AcDbSpline
 62
7
  6
CONTINUOUS
 70
0
 71
3
 72
9
 73
5
 74
0
 42
0.0000001
 43
0.0000001
 44
0.0000000001
 40
0.0
 40
0.0
 40
0.0
 40
0.0
 40
0.4946520612
 40
1.0
 40
1.0
 40
1.0
 40
1.0
 10
5.8065921567
 20
1.9339827582
 30
0.0
 10
5.8077050092
 20
1.9347487065
 30
0.0
 10
5.8099190951
 20
1.9363498719
 30
0.0
 10
5.8120436663
 20
1.9380688625
 30
0.0
 10
5.813090285
 20
1.9389685786
 30
0.0
  0
SPLINE
  5
45E
100
AcDbEntity
  8
ALL_ASSEMBLY_MEMBERS
100
AcDbSpline
 62
7
  6
CONTINUOUS
 70
0
 71
3
 72
9
 73
5
 74
0
 42
0.0000001
 43
0.0000001
 44
0.0000000001
 40
0.0
 40
0.0
 40
0.0
 40
0.0
 40
0.4909437331
 40
1.0
 40
1.0
 40
1.0
 40
1.0
 10
5.8131990826
 20
1.9390623006
 30
0.0
 10
5.8142834628
 20
1.9399983722
 30
0.0
 10
5.8164335824
 20
1.9419740118
 30
0.0
 10
5.818450322
 20
1.9440865571
 30
0.0
 10
5.8194358659
 20
1.9451978739
 30
0.0
  0
SPLINE
  5
45F
100
AcDbEntity
  8
ALL_ASSEMBLY_MEMBERS
100
AcDbSpline
 62
7
  6
CONTINUOUS
 70
0
 71
3
 72
21
 73
17
 74
0
 42
0.0000001
 43
0.0000001
 44
0.0000000001
 40
0.0
 40
0.0
 40
0.0
 40
0.0
 40
0.0548160956
 40
0.1109335748
 40
0.1684638387
 40
0.2275090316
 40
0.2881237229
 40
0.3503345892
 40
0.4139699184
 40
0.478814375
 40
0.544530897
 40
0.610741143
 40
0.6770705079
 40
0.7431287919
 40
0.8733799301
 40
1.0
 40
1.0
 40
1.0
 40
1.0
 10
5.5288445536
 20
2.0611515881
 30
0.0
 10
5.5295299813
 20
2.0604647959
 30
0.0
 10
5.5308535682
 20
2.0590097849
 30
0.0
 10
5.5326464026
 20
2.0566214514
 30
0.0
 10
5.5342375542
 20
2.0540054776
 30
0.0
 10
5.5355961087
 20
2.0511727629
 30
0.0
 10
5.5366927579
 20
2.0481401518
 30
0.0
 10
5.5374973501
 20
2.0449334664
 30
0.0
 10
5.5379916108
 20
2.0415887699
 30
0.0
 10
5.5381543948
 20
2.0381496762
 30
0.0
 10
5.5379871754
 20
2.034665385
 30
0.0
 10
5.5374892785
 20
2.0311865621
 30
0.0
 10
5.5366821013
 20
2.0277602854
 30
0.0
 10
5.5352261198
 20
2.0233399993
 30
0.0
 10
5.5327732413
 20
2.0181486261
 30
0.0
 10
5.530223655
 20
2.0143622726
 30
0.0
 10
5.5288445536
 20
2.0125954723
 30
0.0
  0
SPLINE
  5
460
100
AcDbEntity
  8
ALL_ASSEMBLY_MEMBERS
100
AcDbSpline
 62
7
  6
CONTINUOUS
 70
0
 71
3
 72
10
 73
6
 74
0
 42
0.0000001
 43
0.0000001
 44
0.0000000001
 40
0.0
 40
0.0
 40
0.0
 40
0.0
 40
0.2462728329
 40
0.4956044906
 40
1.0
 40
1.0
 40
1.0
 40
1.0
 10
5.8154013601
 20
2.0173084203
 30
0.0
 10
5.8162480984
 20
2.0163339648
 30
0.0
 10
5.8178723745
 20
2.0143012068
 30
0.0
 10
5.8207810891
 20
2.0099359948
 30
0.0
 10
5.8225072424
 20
2.0063443285
 30
0.0
 10
5.8233993273
 20
2.0038553704
 30
0.0
  0
SPLINE
  5
461
100
AcDbEntity
  8
ALL_ASSEMBLY_MEMBERS
100
AcDbSpline
 62
7
  6
CONTINUOUS
 70
0
 71
3
 72
18
 73
14
 74
0
 42
0.0000001
 43
0.0000001
 44
0.0000000001
 40
0.0
 40
0.0
 40
0.0
 40
0.0
 40
0.1321267972
 40
0.1980992494
 40
0.2637940108
 40
0.3290826608
 40
0.3938284784
 40
0.5211676509
 40
0.5837315202
 40
0.6454500192
 40
0.7664239483
 40
0.8844889023
 40
1.0
 40
1.0
 40
1.0
 40
1.0
 10
5.8233993273
 20
2.0038553704
 30
0.0
 10
5.8239665668
 20
2.0022727461
 30
0.0
 10
5.8246597957
 20
1.9998384921
 30
0.0
 10
5.8252360819
 20
1.9965296872
 30
0.0
 10
5.8254851821
 20
1.9940335634
 30
0.0
 10
5.8255475113
 20
1.9915414245
 30
0.0
 10
5.8253844279
 20
1.9882682402
 30
0.0
 10
5.824849387
 20
1.9850570111
 30
0.0
 10
5.8239621945
 20
1.9819780829
 30
0.0
 10
5.8228693905
 20
1.9790521261
 30
0.0
 10
5.8211284039
 20
1.9756267184
 30
0.0
 10
5.8185133082
 20
1.9719332678
 30
0.0
 10
5.8164736006
 20
1.9697575769
 30
0.0
 10
5.8154013601
 20
1.9687523045
 30
0.0
  0
SPLINE
  5
462
100
AcDbEntity
  8
ALL_ASSEMBLY_MEMBERS
100
AcDbSpline
 62
7
  6
CONTINUOUS
 70
0
 71
3
 72
19
 73
15
 74
0
 42
0.0000001
 43
0.0000001
 44
0.0000000001
 40
0.0
 40
0.0
 40
0.0
 40
0.0
 40
0.1251773949
 40
0.2567324783
 40
0.3242619097
 40
0.3924418255
 40
0.4606973679
 40
0.5284417073
 40
0.5950684565
 40
0.6600133688
 40
0.7228644791
 40
0.7832858246
 40
0.8964699676
 40
1.0
 40
1.0
 40
1.0
 40
1.0
 10
5.5288445536
 20
2.0125954723
 30
0.0
 10
5.5277223567
 20
2.0144318024
 30
0.0
 10
5.5256580056
 20
2.0183481482
 30
0.0
 10
5.5237067488
 20
2.023588509
 30
0.0
 10
5.5225431788
 20
2.0280368617
 30
0.0
 10
5.5218958126
 20
2.031486288
 30
0.0
 10
5.5214964129
 20
2.0349769649
 30
0.0
 10
5.5213620299
 20
2.0384613242
 30
0.0
 10
5.5214919747
 20
2.0418890917
 30
0.0
 10
5.5218874463
 20
2.0452118176
 30
0.0
 10
5.5225317051
 20
2.0483869751
 30
0.0
 10
5.5236777893
 20
2.0522914715
 30
0.0
 10
5.525601772
 20
2.056678701
 30
0.0
 10
5.5277074703
 20
2.0597822366
 30
0.0
 10
5.5288445536
 20
2.0611515881
 30
0.0
  0
SPLINE
  5
463
100
AcDbEntity
  8
ALL_ASSEMBLY_MEMBERS
100
AcDbSpline
 62
7
  6
CONTINUOUS
 70
0
 71
3
 72
9
 73
5
 74
0
 42
0.0000001
 43
0.0000001
 44
0.0000000001
 40
0.0
 40
0.0
 40
0.0
 40
0.0
 40
0.2467188645
 40
1.0
 40
1.0
 40
1.0
 40
1.0
 10
5.8201223066
 20
2.0132335703
 30
0.0
 10
5.8205802434
 20
2.0126747276
 30
0.0
 10
5.8223841652
 20
2.0103675763
 30
0.0
 10
5.8239706352
 20
2.007888692
 30
0.0
 10
5.8250137096
 20
2.0059449357
 30
0.0
  0
SPLINE
  5
464
100
AcDbEntity
  8
ALL_ASSEMBLY_MEMBERS
100
AcDbSpline
 62
7
  6
CONTINUOUS
 70
0
 71
3
 72
20
 73
16
 74
0
 42
0.0000001
 43
0.0000001
 44
0.0000000001
 40
0.0
 40
0.0
 40
0.0
 40
0.0
 40
0.1309285815
 40
0.1969434489
 40
0.263098331
 40
0.3291388558
 40
0.3948337359
 40
0.5241634222
 40
0.5875169401
 40
0.6497896654
 40
0.7108777791
 40
0.7708103152
 40
0.8296402915
 40
0.8874088025
 40
1.0
 40
1.0
 40
1.0
 40
1.0
 10
5.8250137096
 20
2.0059449357
 30
0.0
 10
5.8259355648
 20
2.00422707
 30
0.0
 10
5.8271494745
 20
2.0015435921
 30
0.0
 10
5.8283670929
 20
1.9978171497
 30
0.0
 10
5.8290686066
 20
1.9949471711
 30
0.0
 10
5.829544244
 20
1.9920357479
 30
0.0
 10
5.8298560932
 20
1.9881577755
 30
0.0
 10
5.8296884484
 20
1.984291803
 30
0.0
 10
5.8290288343
 20
1.9805493367
 30
0.0
 10
5.8283120726
 20
1.9778592665
 30
0.0
 10
5.8273807865
 20
1.9752900968
 30
0.0
 10
5.8262531974
 20
1.9728574639
 30
0.0
 10
5.8249481225
 20
1.9705718433
 30
0.0
 10
5.8230126633
 20
1.9677576804
 30
0.0
 10
5.8213251989
 20
1.9658452783
 30
0.0
 10
5.8201223066
 20
1.9646774545
 30
0.0
  0
SPLINE
  5
465
100
AcDbEntity
  8
ALL_ASSEMBLY_MEMBERS
100
AcDbSpline
 62
7
  6
CONTINUOUS
 70
0
 71
3
 72
21
 73
17
 74
0
 42
0.0000001
 43
0.0000001
 44
0.0000000001
 40
0.0
 40
0.0
 40
0.0
 40
0.0
 40
0.0560586105
 40
0.1131509002
 40
0.1713684785
 40
0.2308073381
 40
0.2915312236
 40
0.353592437
 40
0.4168639388
 40
0.4811876898
 40
0.5462958896
 40
0.6118811958
 40
0.6776358973
 40
0.7432278375
 40
0.8730265273
 40
1.0
 40
1.0
 40
1.0
 40
1.0
 10
5.5525314033
 20
2.0605530798
 30
0.0
 10
5.5532529902
 20
2.0598591869
 30
0.0
 10
5.5546465201
 20
2.0583913434
 30
0.0
 10
5.5565390342
 20
2.0559806881
 30
0.0
 10
5.5582190332
 20
2.0533446363
 30
0.0
 10
5.5596537835
 20
2.0504943738
 30
0.0
 10
5.560812219
 20
2.0474470801
 30
0.0
 10
5.5616623667
 20
2.0442288695
 30
0.0
 10
5.5621847477
 20
2.0408762967
 30
0.0
 10
5.5623569594
 20
2.0374332634
 30
0.0
 10
5.5621805015
 20
2.0339492968
 30
0.0
 10
5.5616547186
 20
2.0304752185
 30
0.0
 10
5.5608022686
 20
2.0270579629
 30
0.0
 10
5.5592629857
 20
2.0226500248
 30
0.0
 10
5.5566664743
 20
2.0174806748
 30
0.0
 10
5.5539818137
 20
2.0137398787
 30
0.0
 10
5.5525314033
 20
2.011996964
 30
0.0
  0
SPLINE
  5
466
100
AcDbEntity
  8
ALL_ASSEMBLY_MEMBERS
100
AcDbSpline
 62
7
  6
CONTINUOUS
 70
0
 71
3
 72
20
 73
16
 74
0
 42
0.0000001
 43
0.0000001
 44
0.0000000001
 40
0.0
 40
0.0
 40
0.0
 40
0.0
 40
0.1103901114
 40
0.167300514
 40
0.2254390852
 40
0.3454738331
 40
0.4075323731
 40
0.4708483071
 40
0.5352865164
 40
0.6006963394
 40
0.6668476126
 40
0.7334875955
 40
0.8003749867
 40
0.8672543273
 40
1.0
 40
1.0
 40
1.0
 40
1.0
 10
5.8231376552
 20
1.9605540724
 30
0.0
 10
5.8242131056
 20
1.9616444091
 30
0.0
 10
5.8257236598
 20
1.9634212336
 30
0.0
 10
5.8274702858
 20
1.9660184589
 30
0.0
 10
5.829076819
 20
1.9688598831
 30
0.0
 10
5.8303698194
 20
1.9719494206
 30
0.0
 10
5.831307212
 20
1.9752252008
 30
0.0
 10
5.8318330306
 20
1.9778083846
 30
0.0
 10
5.8321629486
 20
1.9804705005
 30
0.0
 10
5.8322881554
 20
1.9831894047
 30
0.0
 10
5.8322101103
 20
1.9859405195
 30
0.0
 10
5.8319274287
 20
1.9886987083
 30
0.0
 10
5.8314462916
 20
1.9914395395
 30
0.0
 10
5.8305580293
 20
1.9950307917
 30
0.0
 10
5.8296216421
 20
1.9976481742
 30
0.0
 10
5.8288935173
 20
1.9993397465
 30
0.0
  0
SPLINE
  5
467
100
AcDbEntity
  8
ALL_ASSEMBLY_MEMBERS
100
AcDbSpline
 62
7
  6
CONTINUOUS
 70
0
 71
3
 72
17
 73
13
 74
0
 42
0.0000001
 43
0.0000001
 44
0.0000000001
 40
0.0
 40
0.0
 40
0.0
 40
0.0
 40
0.2562321202
 40
0.3930453257
 40
0.4620276508
 40
0.5305007963
 40
0.5977819947
 40
0.6632297033
 40
0.7263626419
 40
0.786783613
 40
0.8989648102
 40
1.0
 40
1.0
 40
1.0
 40
1.0
 10
5.5525314033
 20
2.011996964
 30
0.0
 10
5.5504285345
 20
2.0158160327
 30
0.0
 10
5.5479118929
 20
2.0221017726
 30
0.0
 10
5.5463437297
 20
2.029821255
 30
0.0
 10
5.5458621533
 20
2.0344666302
 30
0.0
 10
5.5457401936
 20
2.0379507633
 30
0.0
 10
5.5458578877
 20
2.0413750921
 30
0.0
 10
5.5462163155
 20
2.0446913207
 30
0.0
 10
5.5468002349
 20
2.0478571058
 30
0.0
 10
5.5478363836
 20
2.0517353949
 30
0.0
 10
5.5495693836
 20
2.0560806963
 30
0.0
 10
5.5514901423
 20
2.0591852121
 30
0.0
 10
5.5525314033
 20
2.0605530798
 30
0.0
  0
SPLINE
  5
468
100
AcDbEntity
  8
ALL_ASSEMBLY_MEMBERS
100
AcDbSpline
 62
7
  6
CONTINUOUS
 70
0
 71
3
 72
14
 73
10
 74
0
 42
0.0000001
 43
0.0000001
 44
0.0000000001
 40
0.0
 40
0.0
 40
0.0
 40
0.0
 40
0.2277728687
 40
0.3470380447
 40
0.4701212557
 40
0.5970858734
 40
0.7279831924
 40
0.8624609325
 40
1.0
 40
1.0
 40
1.0
 40
1.0
 10
5.8244316847
 20
1.9564036561
 30
0.0
 10
5.8256494904
 20
1.9577052539
 30
0.0
 10
5.8273303116
 20
1.9598623411
 30
0.0
 10
5.8291865057
 20
1.963042707
 30
0.0
 10
5.8304124783
 20
1.9656646708
 30
0.0
 10
5.8314276808
 20
1.968471873
 30
0.0
 10
5.8322070243
 20
1.9714459537
 30
0.0
 10
5.8327355218
 20
1.9745583202
 30
0.0
 10
5.8329072415
 20
1.9766832568
 30
0.0
 10
5.832948545
 20
1.9777587976
 30
0.0
  0
SPLINE
  5
469
100
AcDbEntity
  8
ALL_ASSEMBLY_MEMBERS
100
AcDbSpline
 62
7
  6
CONTINUOUS
 70
0
 71
3
 72
21
 73
17
 74
0
 42
0.0000001
 43
0.0000001
 44
0.0000000001
 40
0.0
 40
0.0
 40
0.0
 40
0.0
 40
0.1150997048
 40
0.1739782294
 40
0.2338104596
 40
0.2946644091
 40
0.3566122432
 40
0.4195653692
 40
0.4834171384
 40
0.5479636507
 40
0.6129639724
 40
0.678173605
 40
0.7433153575
 40
0.8082350552
 40
0.8727646198
 40
1.0
 40
1.0
 40
1.0
 40
1.0
 10
5.5759077966
 20
2.0596593291
 30
0.0
 10
5.5774248739
 20
2.0582477174
 30
0.0
 10
5.5795330903
 20
2.0558986027
 30
0.0
 10
5.5818601997
 20
2.0523845784
 30
0.0
 10
5.5833638731
 20
2.0495157243
 30
0.0
 10
5.5845779411
 20
2.0464532795
 30
0.0
 10
5.5854692466
 20
2.0432231653
 30
0.0
 10
5.5860170579
 20
2.0398625425
 30
0.0
 10
5.5861978411
 20
2.0364155689
 30
0.0
 10
5.5860130947
 20
2.032932129
 30
0.0
 10
5.5854621452
 20
2.0294631566
 30
0.0
 10
5.5845689413
 20
2.0260556349
 30
0.0
 10
5.5833544983
 20
2.0227510487
 30
0.0
 10
5.5818519717
 20
2.0195809164
 30
0.0
 10
5.5795202396
 20
2.0155863385
 30
0.0
 10
5.5774220121
 20
2.0128221032
 30
0.0
 10
5.5759077966
 20
2.0111032134
 30
0.0
  0
SPLINE
  5
46A
100
AcDbEntity
  8
ALL_ASSEMBLY_MEMBERS
100
AcDbSpline
 62
7
  6
CONTINUOUS
 70
0
 71
3
 72
41
 73
37
 74
0
 42
0.0000001
 43
0.0000001
 44
0.0000000001
 40
0.0
 40
0.0
 40
0.0
 40
0.0
 40
0.0041080371
 40
0.0083131055
 40
0.0126865666
 40
0.0172915933
 40
0.0221820517
 40
0.0274026511
 40
0.0329893235
 40
0.0389701214
 40
0.0453671039
 40
0.0521975794
 40
0.0594750943
 40
0.0672101773
 40
0.0754101577
 40
0.084079689
 40
0.0932218297
 40
0.1028383817
 40
0.1234957007
 40
0.1460452553
 40
0.1704620025
 40
0.1967134852
 40
0.224757087
 40
0.2545399344
 40
0.2860058393
 40
0.319091119
 40
0.3537249221
 40
0.3898345793
 40
0.4273411111
 40
0.4661602711
 40
0.5473886228
 40
0.6327881706
 40
0.7215773887
 40
0.8129358662
 40
0.9060473146
 40
1.0
 40
1.0
 40
1.0
 40
1.0
 10
5.2119840154
 20
2.0963702399
 30
0.0
 10
5.2119984992
 20
2.0967697733
 30
0.0
 10
5.2120854899
 20
2.0975772613
 30
0.0
 10
5.2123857466
 20
2.0987784436
 30
0.0
 10
5.2128552391
 20
2.09997602
 30
0.0
 10
5.2134926525
 20
2.1011688665
 30
0.0
 10
5.2142969189
 20
2.1023566627
 30
0.0
 10
5.2152672757
 20
2.103539053
 30
0.0
 10
5.2164029287
 20
2.1047157674
 30
0.0
 10
5.2177029719
 20
2.1058865799
 30
0.0
 10
5.2191666065
 20
2.1070510748
 30
0.0
 10
5.2207930503
 20
2.1082087577
 30
0.0
 10
5.2225815251
 20
2.1093590698
 30
0.0
 10
5.2245311871
 20
2.1105013311
 30
0.0
 10
5.2266409286
 20
2.111634942
 30
0.0
 10
5.2289094375
 20
2.1127593245
 30
0.0
 10
5.231335345
 20
2.1138738488
 30
0.0
 10
5.2348628193
 20
2.1153820204
 30
0.0
 10
5.2396627686
 20
2.1172279847
 30
0.0
 10
5.2458958946
 20
2.1193440571
 30
0.0
 10
5.2527178471
 20
2.1214060421
 30
0.0
 10
5.2601127164
 20
2.1234084926
 30
0.0
 10
5.2680631983
 20
2.1253464581
 30
0.0
 10
5.2765504256
 20
2.1272155899
 30
0.0
 10
5.2855543528
 20
2.1290109305
 30
0.0
 10
5.2950535795
 20
2.1307281436
 30
0.0
 10
5.3050254614
 20
2.1323633585
 30
0.0
 10
5.3154462778
 20
2.1339122356
 30
0.0
 10
5.3262911727
 20
2.1353711531
 30
0.0
 10
5.3415128904
 20
2.1372198944
 30
0.0
 10
5.3614039462
 20
2.1392669904
 30
0.0
 10
5.3861811481
 20
2.1412814168
 30
0.0
 10
5.4119770766
 20
2.142868967
 30
0.0
 10
5.4385475293
 20
2.1440143252
 30
0.0
 10
5.4656361948
 20
2.144705718
 30
0.0
 10
5.4838417345
 20
2.1448598425
 30
0.0
 10
5.4929852484
 20
2.1448598425
 30
0.0
  0
SPLINE
  5
46B
100
AcDbEntity
  8
ALL_ASSEMBLY_MEMBERS
100
AcDbSpline
 62
7
  6
CONTINUOUS
 70
0
 71
3
 72
9
 73
5
 74
0
 42
0.0000001
 43
0.0000001
 44
0.0000000001
 40
0.0
 40
0.0
 40
0.0
 40
0.0
 40
0.4909252864
 40
1.0
 40
1.0
 40
1.0
 40
1.0
 10
5.826853415
 20
1.9561022791
 30
0.0
 10
5.8273147861
 20
1.9568438173
 30
0.0
 10
5.828189447
 20
1.9583957303
 30
0.0
 10
5.8289290432
 20
1.9600162954
 30
0.0
 10
5.8292710279
 20
1.9608548823
 30
0.0
  0
SPLINE
  5
46C
100
AcDbEntity
  8
ALL_ASSEMBLY_MEMBERS
100
AcDbSpline
 62
7
  6
CONTINUOUS
 70
0
 71
3
 72
18
 73
14
 74
0
 42
0.0000001
 43
0.0000001
 44
0.0000000001
 40
0.0
 40
0.0
 40
0.0
 40
0.0
 40
0.1240305057
 40
0.2563649396
 40
0.3941993046
 40
0.4638239446
 40
0.532944525
 40
0.6008052222
 40
0.6666900503
 40
0.790347654
 40
0.8475628667
 40
0.9015424958
 40
1.0
 40
1.0
 40
1.0
 40
1.0
 10
5.5759077966
 20
2.0111032134
 30
0.0
 10
5.5749898975
 20
2.0129821903
 30
0.0
 10
5.5733088352
 20
2.0169751385
 30
0.0
 10
5.5714037585
 20
2.0233554378
 30
0.0
 10
5.5703815654
 20
2.0290065205
 30
0.0
 10
5.5699522214
 20
2.0336522558
 30
0.0
 10
5.5698432831
 20
2.0371362071
 30
0.0
 10
5.5699482449
 20
2.0405575381
 30
0.0
 10
5.5703653992
 20
2.0448793553
 30
0.0
 10
5.5711739899
 20
2.0489773713
 30
0.0
 10
5.572379405
 20
2.0527530792
 30
0.0
 10
5.5737144277
 20
2.0560283452
 30
0.0
 10
5.5749687621
 20
2.0582904253
 30
0.0
 10
5.5759077966
 20
2.0596593291
 30
0.0
  0
SPLINE
  5
46D
100
AcDbEntity
  8
ALL_ASSEMBLY_MEMBERS
100
AcDbSpline
 62
7
  6
CONTINUOUS
 70
0
 71
3
 72
21
 73
17
 74
0
 42
0.0000001
 43
0.0000001
 44
0.0000000001
 40
0.0
 40
0.0
 40
0.0
 40
0.0
 40
0.117017146
 40
0.1765244768
 40
0.2367459748
 40
0.2977495829
 40
0.3596216866
 40
0.4223055124
 40
0.4857390985
 40
0.5497760269
 40
0.6142361105
 40
0.6789334853
 40
0.7436422177
 40
0.8082473253
 40
0.8726086661
 40
1.0
 40
1.0
 40
1.0
 40
1.0
 10
5.5988518558
 20
2.0584749958
 30
0.0
 10
5.6004238398
 20
2.0570491019
 30
0.0
 10
5.6026130514
 20
2.0546797468
 30
0.0
 10
5.6050383723
 20
2.0511298436
 30
0.0
 10
5.6066027284
 20
2.0482420143
 30
0.0
 10
5.6078661168
 20
2.0451638484
 30
0.0
 10
5.6087938903
 20
2.0419215623
 30
0.0
 10
5.6093642968
 20
2.0385527626
 30
0.0
 10
5.6095527403
 20
2.0351019028
 30
0.0
 10
5.6093606932
 20
2.0316191979
 30
0.0
 10
5.6087874879
 20
2.0281557454
 30
0.0
 10
5.6078581181
 20
2.0247584012
 30
0.0
 10
5.606594569
 20
2.0214684768
 30
0.0
 10
5.6050314225
 20
2.018317039
 30
0.0
 10
5.6026028386
 20
2.0143470754
 30
0.0
 10
5.6004221823
 20
2.0116137091
 30
0.0
 10
5.5988518558
 20
2.00991888
 30
0.0
  0
SPLINE
  5
46E
100
AcDbEntity
  8
ALL_ASSEMBLY_MEMBERS
100
AcDbSpline
 62
7
  6
CONTINUOUS
 70
0
 71
3
 72
17
 73
13
 74
0
 42
0.0000001
 43
0.0000001
 44
0.0000000001
 40
0.0
 40
0.0
 40
0.0
 40
0.0
 40
0.1234645716
 40
0.2561568972
 40
0.3950272608
 40
0.5350200134
 40
0.6697555163
 40
0.7936861688
 40
0.8505919896
 40
0.9039140565
 40
0.9536746438
 40
1.0
 40
1.0
 40
1.0
 40
1.0
 10
5.5988518558
 20
2.00991888
 30
0.0
 10
5.5980450642
 20
2.0118172812
 30
0.0
 10
5.5965710795
 20
2.0158435301
 30
0.0
 10
5.5949078961
 20
2.0222404495
 30
0.0
 10
5.5938341798
 20
2.029043587
 30
0.0
 10
5.5934527116
 20
2.0359559028
 30
0.0
 10
5.5938064141
 20
2.0426204437
 30
0.0
 10
5.5947057737
 20
2.0478312548
 30
0.0
 10
5.595761699
 20
2.0516010093
 30
0.0
 10
5.5966636401
 20
2.0541198092
 30
0.0
 10
5.5976810959
 20
2.0564017696
 30
0.0
 10
5.5984511848
 20
2.0578128209
 30
0.0
 10
5.5988518558
 20
2.0584749958
 30
0.0
  0
SPLINE
  5
46F
100
AcDbEntity
  8
ALL_ASSEMBLY_MEMBERS
100
AcDbSpline
 62
7
  6
CONTINUOUS
 70
0
 71
3
 72
21
 73
17
 74
0
 42
0.0000001
 43
0.0000001
 44
0.0000000001
 40
0.0
 40
0.0
 40
0.0
 40
0.0
 40
0.118772475
 40
0.1788740025
 40
0.2394795086
 40
0.3006531089
 40
0.3624899944
 40
0.4249583493
 40
0.4880335673
 40
0.5516193904
 40
0.6155897667
 40
0.6798120964
 40
0.7441074536
 40
0.808397199
 40
0.8725673243
 40
1.0
 40
1.0
 40
1.0
 40
1.0
 10
5.6212439571
 20
2.0570062545
 30
0.0
 10
5.6228633367
 20
2.0555645443
 30
0.0
 10
5.6251222425
 20
2.0531731107
 30
0.0
 10
5.6276325683
 20
2.0495872238
 30
0.0
 10
5.6292493389
 20
2.0466798011
 30
0.0
 10
5.6305553718
 20
2.0435854915
 30
0.0
 10
5.6315147268
 20
2.0403308037
 30
0.0
 10
5.6321047463
 20
2.0369537637
 30
0.0
 10
5.6322998889
 20
2.0334991122
 30
0.0
 10
5.6321015765
 20
2.0300173793
 30
0.0
 10
5.6315091381
 20
2.0265598186
 30
0.0
 10
5.6305484784
 20
2.023173161
 30
0.0
 10
5.629242438
 20
2.0198985284
 30
0.0
 10
5.6276268489
 20
2.0167665307
 30
0.0
 10
5.6251143225
 20
2.0128230507
 30
0.0
 10
5.6228625302
 20
2.0101209648
 30
0.0
 10
5.6212439571
 20
2.0084501387
 30
0.0
  0
SPLINE
  5
470
100
AcDbEntity
  8
ALL_ASSEMBLY_MEMBERS
100
AcDbSpline
 62
7
  6
CONTINUOUS
 70
0
 71
3
 72
17
 73
13
 74
0
 42
0.0000001
 43
0.0000001
 44
0.0000000001
 40
0.0
 40
0.0
 40
0.0
 40
0.0
 40
0.1229280883
 40
0.2559451925
 40
0.3957676499
 40
0.5369695707
 40
0.6726919091
 40
0.7968909327
 40
0.8535180312
 40
0.9062336988
 40
0.9550266888
 40
1.0
 40
1.0
 40
1.0
 40
1.0
 10
5.6212439571
 20
2.0084501387
 30
0.0
 10
5.6205536733
 20
2.0103662309
 30
0.0
 10
5.6192956638
 20
2.0144220702
 30
0.0
 10
5.6178817363
 20
2.0208321969
 30
0.0
 10
5.616969142
 20
2.0276393739
 30
0.0
 10
5.6166447739
 20
2.0345455951
 30
0.0
 10
5.6169447224
 20
2.0411942709
 30
0.0
 10
5.6177086331
 20
2.0463945073
 30
0.0
 10
5.6186092291
 20
2.050159647
 30
0.0
 10
5.6193765516
 20
2.0526667093
 30
0.0
 10
5.6202421318
 20
2.0549359389
 30
0.0
 10
5.6209006662
 20
2.0563449422
 30
0.0
 10
5.6212439571
 20
2.0570062545
 30
0.0
  0
SPLINE
  5
471
100
AcDbEntity
  8
ALL_ASSEMBLY_MEMBERS
100
AcDbSpline
 62
7
  6
CONTINUOUS
 70
0
 71
3
 72
22
 73
18
 74
0
 42
0.0000001
 43
0.0000001
 44
0.0000000001
 40
0.0
 40
0.0
 40
0.0
 40
0.0
 40
0.1203489376
 40
0.1810015545
 40
0.2419780398
 40
0.303335469
 40
0.3651727052
 40
0.4274759307
 40
0.4902500987
 40
0.5534410498
 40
0.6169694522
 40
0.6807499233
 40
0.7446458588
 40
0.808611961
 40
0.8725586531
 40
0.9363934998
 40
1.0
 40
1.0
 40
1.0
 40
1.0
 10
5.6429673546
 20
2.055260763
 30
0.0
 10
5.6446264188
 20
2.0538018657
 30
0.0
 10
5.6469434604
 20
2.0513866499
 30
0.0
 10
5.6495250647
 20
2.0477647796
 30
0.0
 10
5.6511857047
 20
2.0448372225
 30
0.0
 10
5.6525274662
 20
2.0417264119
 30
0.0
 10
5.6535133269
 20
2.0384591523
 30
0.0
 10
5.6541198532
 20
2.0350738618
 30
0.0
 10
5.6543206877
 20
2.0316155531
 30
0.0
 10
5.6541171833
 20
2.0281350479
 30
0.0
 10
5.6535086463
 20
2.0246837306
 30
0.0
 10
5.6525217705
 20
2.0213082353
 30
0.0
 10
5.6511800447
 20
2.0180493718
 30
0.0
 10
5.6495206652
 20
2.0149376935
 30
0.0
 10
5.6475795654
 20
2.0119955423
 30
0.0
 10
5.6453943383
 20
2.0092394245
 30
0.0
 10
5.6437959505
 20
2.0075273297
 30
0.0
 10
5.6429673546
 20
2.0067046472
 30
0.0
  0
SPLINE
  5
472
100
AcDbEntity
  8
ALL_ASSEMBLY_MEMBERS
100
AcDbSpline
 62
7
  6
CONTINUOUS
 70
0
 71
3
 72
18
 73
14
 74
0
 42
0.0000001
 43
0.0000001
 44
0.0000000001
 40
0.0
 40
0.0
 40
0.0
 40
0.0
 40
0.1224432493
 40
0.2557458239
 40
0.3964106307
 40
0.5386844338
 40
0.675287571
 40
0.7393734331
 40
0.7997690558
 40
0.8561542702
 40
0.9083323021
 40
0.9562562202
 40
1.0
 40
1.0
 40
1.0
 40
1.0
 10
5.6429673546
 20
2.0067046472
 30
0.0
 10
5.6423984357
 20
2.0086362967
 30
0.0
 10
5.6413640757
 20
2.0127174531
 30
0.0
 10
5.640205522
 20
2.0191379887
 30
0.0
 10
5.6394578407
 20
2.0259482696
 30
0.0
 10
5.6391920642
 20
2.0328487383
 30
0.0
 10
5.6394004127
 20
2.0384919212
 30
0.0
 10
5.6398330169
 20
2.0427650492
 30
0.0
 10
5.640266047
 20
2.0457089956
 30
0.0
 10
5.6408027976
 20
2.0484365112
 30
0.0
 10
5.6414318303
 20
2.0509333965
 30
0.0
 10
5.6421413821
 20
2.05319154
 30
0.0
 10
5.6426839065
 20
2.0545995511
 30
0.0
 10
5.6429673546
 20
2.055260763
 30
0.0
  0
SPLINE
  5
473
100
AcDbEntity
  8
ALL_ASSEMBLY_MEMBERS
100
AcDbSpline
 62
7
  6
CONTINUOUS
 70
0
 71
3
 72
22
 73
18
 74
0
 42
0.0000001
 43
0.0000001
 44
0.0000000001
 40
0.0
 40
0.0
 40
0.0
 40
0.0
 40
0.121769493
 40
0.1829412629
 40
0.2442873069
 40
0.3058549527
 40
0.3677419372
 40
0.4299454819
 40
0.4924919796
 40
0.5553607009
 40
0.6185109154
 40
0.6818978016
 40
0.7454219745
 40
0.8090683452
 40
0.8727701456
 40
0.9364501404
 40
1.0
 40
1.0
 40
1.0
 40
1.0
 10
5.6639087888
 20
2.0532476216
 30
0.0
 10
5.6655996474
 20
2.0517703202
 30
0.0
 10
5.6679630447
 20
2.0493297701
 30
0.0
 10
5.6706017795
 20
2.0456720337
 30
0.0
 10
5.6722975158
 20
2.0427238859
 30
0.0
 10
5.6736678922
 20
2.0395962854
 30
0.0
 10
5.6746750245
 20
2.0363163426
 30
0.0
 10
5.6752948462
 20
2.0329228406
 30
0.0
 10
5.6755003256
 20
2.0294610463
 30
0.0
 10
5.6752927303
 20
2.0259820351
 30
0.0
 10
5.6746713342
 20
2.0225373033
 30
0.0
 10
5.6736634456
 20
2.0191733562
 30
0.0
 10
5.6722931426
 20
2.0159307829
 30
0.0
 10
5.6705984975
 20
2.012839687
 30
0.0
 10
5.6686162656
 20
2.0099219238
 30
0.0
 10
5.6663848853
 20
2.0071934858
 30
0.0
 10
5.6647540898
 20
2.0055030328
 30
0.0
 10
5.6639087888
 20
2.0046915058
 30
0.0
  0
SPLINE
  5
474
100
AcDbEntity
  8
ALL_ASSEMBLY_MEMBERS
100
AcDbSpline
 62
7
  6
CONTINUOUS
 70
0
 71
3
 72
9
 73
5
 74
0
 42
0.0000001
 43
0.0000001
 44
0.0000000001
 40
0.0
 40
0.0
 40
0.0
 40
0.0
 40
0.4909593082
 40
1.0
 40
1.0
 40
1.0
 40
1.0
 10
5.1591148707
 20
1.9561083462
 30
0.0
 10
5.1586551265
 20
1.9568471914
 30
0.0
 10
5.1577833681
 20
1.9583932135
 30
0.0
 10
5.157045687
 20
1.9600074462
 30
0.0
 10
5.1567044496
 20
1.9608426819
 30
0.0
  0
SPLINE
  5
475
100
AcDbEntity
  8
ALL_ASSEMBLY_MEMBERS
100
AcDbSpline
 62
7
  6
CONTINUOUS
 70
0
 71
3
 72
14
 73
10
 74
0
 42
0.0000001
 43
0.0000001
 44
0.0000000001
 40
0.0
 40
0.0
 40
0.0
 40
0.0
 40
0.2277439427
 40
0.347003502
 40
0.4700868685
 40
0.5970576723
 40
0.7279657041
 40
0.862453593
 40
1.0
 40
1.0
 40
1.0
 40
1.0
 10
5.161539438
 20
1.9564096833
 30
0.0
 10
5.1603192126
 20
1.9577137576
 30
0.0
 10
5.1586353115
 20
1.9598753633
 30
0.0
 10
5.1567766296
 20
1.9630628026
 30
0.0
 10
5.1555495577
 20
1.9656908879
 30
0.0
 10
5.1545342435
 20
1.9685047765
 30
0.0
 10
5.1537558826
 20
1.971485924
 30
0.0
 10
5.1532294703
 20
1.9746055084
 30
0.0
 10
5.1530599457
 20
1.9767351948
 30
0.0
 10
5.1530199005
 20
1.9778130695
 30
0.0
  0
SPLINE
  5
476
100
AcDbEntity
  8
ALL_ASSEMBLY_MEMBERS
100
AcDbSpline
 62
7
  6
CONTINUOUS
 70
0
 71
3
 72
18
 73
14
 74
0
 42
0.0000001
 43
0.0000001
 44
0.0000000001
 40
0.0
 40
0.0
 40
0.0
 40
0.0
 40
0.1220380413
 40
0.2555882091
 40
0.396968746
 40
0.5401515643
 40
0.6775068696
 40
0.7417882216
 40
0.8022034233
 40
0.8583928671
 40
0.9101225103
 40
0.9573106718
 40
1.0
 40
1.0
 40
1.0
 40
1.0
 10
5.6639087888
 20
2.0046915058
 30
0.0
 10
5.6634654341
 20
2.0066361606
 30
0.0
 10
5.66266109
 20
2.010737933
 30
0.0
 10
5.6617627517
 20
2.017166387
 30
0.0
 10
5.6611830391
 20
2.0239787663
 30
0.0
 10
5.660976939
 20
2.0308749126
 30
0.0
 10
5.6611382497
 20
2.036512285
 30
0.0
 10
5.6614742035
 20
2.0407827227
 30
0.0
 10
5.6618101939
 20
2.0437206005
 30
0.0
 10
5.6622266056
 20
2.0464408304
 30
0.0
 10
5.6627145189
 20
2.0489293162
 30
0.0
 10
5.6632648011
 20
2.0511782
 30
0.0
 10
5.6636874492
 20
2.0525859595
 30
0.0
 10
5.6639087888
 20
2.0532476216
 30
0.0
  0
SPLINE
  5
477
100
AcDbEntity
  8
ALL_ASSEMBLY_MEMBERS
100
AcDbSpline
 62
7
  6
CONTINUOUS
 70
0
 71
3
 72
20
 73
16
 74
0
 42
0.0000001
 43
0.0000001
 44
0.0000000001
 40
0.0
 40
0.0
 40
0.0
 40
0.0
 40
0.110397087
 40
0.1673089053
 40
0.2254473524
 40
0.3454775427
 40
0.4075315812
 40
0.4708425429
 40
0.5352755224
 40
0.6006806461
 40
0.6668286293
 40
0.7334672072
 40
0.8003554624
 40
0.8672387315
 40
1.0
 40
1.0
 40
1.0
 40
1.0
 10
5.1628359704
 20
1.960560076
 30
0.0
 10
5.1617613585
 20
1.961649487
 30
0.0
 10
5.1602518895
 20
1.9634246751
 30
0.0
 10
5.1585062223
 20
1.9660193673
 30
0.0
 10
5.1569003738
 20
1.9688578292
 30
0.0
 10
5.1556074454
 20
1.9719440414
 30
0.0
 10
5.1546694332
 20
1.9752163267
 30
0.0
 10
5.1541428106
 20
1.9777967724
 30
0.0
 10
5.1538116875
 20
1.9804561533
 30
0.0
 10
5.1536849338
 20
1.9831724079
 30
0.0
 10
5.1537611147
 20
1.985921024
 30
0.0
 10
5.1540415983
 20
1.9886769349
 30
0.0
 10
5.1545203435
 20
1.9914157512
 30
0.0
 10
5.1554051741
 20
1.9950047942
 30
0.0
 10
5.1563387448
 20
1.9976208733
 30
0.0
 10
5.1570649413
 20
1.9993117503
 30
0.0
  0
SPLINE
  5
478
100
AcDbEntity
  8
ALL_ASSEMBLY_MEMBERS
100
AcDbSpline
 62
7
  6
CONTINUOUS
 70
0
 71
3
 72
23
 73
19
 74
0
 42
0.0000001
 43
0.0000001
 44
0.0000000001
 40
0.0
 40
0.0
 40
0.0
 40
0.0
 40
0.061525822
 40
0.1231281405
 40
0.1847731313
 40
0.2464733105
 40
0.3082639548
 40
0.3702371675
 40
0.4323943346
 40
0.4947749707
 40
0.5573826697
 40
0.6202066432
 40
0.6832354926
 40
0.7464016448
 40
0.8097169912
 40
0.8731360571
 40
0.9365967391
 40
1.0
 40
1.0
 40
1.0
 40
1.0
 10
5.6839590771
 20
2.0509773263
 30
0.0
 10
5.6848166887
 20
2.0502286689
 30
0.0
 10
5.6864722078
 20
2.048658858
 30
0.0
 10
5.6887391282
 20
2.0460934511
 30
0.0
 10
5.6907530564
 20
2.0433197108
 30
0.0
 10
5.6924746965
 20
2.0403508716
 30
0.0
 10
5.6938664829
 20
2.0372061938
 30
0.0
 10
5.6948895099
 20
2.0339135337
 30
0.0
 10
5.6955193347
 20
2.0305119004
 30
0.0
 10
5.6957283763
 20
2.0270468245
 30
0.0
 10
5.6955178153
 20
2.0235695837
 30
0.0
 10
5.6948868747
 20
2.0201317526
 30
0.0
 10
5.6938633161
 20
2.0167797004
 30
0.0
 10
5.6924716605
 20
2.0135537804
 30
0.0
 10
5.6907506492
 20
2.0104836579
 30
0.0
 10
5.6887376637
 20
2.0075907036
 30
0.0
 10
5.6864717854
 20
2.004890398
 30
0.0
 10
5.6848168181
 20
2.003221564
 30
0.0
 10
5.6839590771
 20
2.0024212105
 30
0.0
  0
SPLINE
  5
479
100
AcDbEntity
  8
ALL_ASSEMBLY_MEMBERS
100
AcDbSpline
 62
7
  6
CONTINUOUS
 70
0
 71
3
 72
20
 73
16
 74
0
 42
0.0000001
 43
0.0000001
 44
0.0000000001
 40
0.0
 40
0.0
 40
0.0
 40
0.0
 40
0.112594552
 40
0.1703642503
 40
0.2291950656
 40
0.2891280921
 40
0.3502163589
 40
0.4124889269
 40
0.475842021
 40
0.605170271
 40
0.6708642931
 40
0.7369039571
 40
0.8030580416
 40
0.8690722339
 40
1.0
 40
1.0
 40
1.0
 40
1.0
 10
5.1658538057
 20
1.9646834033
 30
0.0
 10
5.1646508298
 20
1.9658512422
 30
0.0
 10
5.1629632417
 20
1.9677636677
 30
0.0
 10
5.1610276301
 20
1.9705778744
 30
0.0
 10
5.1597224562
 20
1.9728635192
 30
0.0
 10
5.1585947815
 20
1.9752961735
 30
0.0
 10
5.1576634245
 20
1.9778653613
 30
0.0
 10
5.1569466082
 20
1.9805554464
 30
0.0
 10
5.1562869449
 20
1.9842979215
 30
0.0
 10
5.1561192865
 20
1.9881639037
 30
0.0
 10
5.1564311604
 20
1.9920418757
 30
0.0
 10
5.1569068346
 20
1.9949532922
 30
0.0
 10
5.1576084023
 20
1.9978232598
 30
0.0
 10
5.1588261158
 20
2.0015496866
 30
0.0
 10
5.1600401179
 20
2.0042331399
 30
0.0
 10
5.16096204
 20
2.0059509832
 30
0.0
  0
SPLINE
  5
47A
100
AcDbEntity
  8
ALL_ASSEMBLY_MEMBERS
100
AcDbSpline
 62
7
  6
CONTINUOUS
 70
0
 71
3
 72
9
 73
5
 74
0
 42
0.0000001
 43
0.0000001
 44
0.0000000001
 40
0.0
 40
0.0
 40
0.0
 40
0.0
 40
0.2533132704
 40
1.0
 40
1.0
 40
1.0
 40
1.0
 10
5.16096204
 20
2.0059509832
 30
0.0
 10
5.1613128485
 20
2.0066046546
 30
0.0
 10
5.1627643338
 20
2.0091490321
 30
0.0
 10
5.1644677199
 20
2.011548163
 30
0.0
 10
5.1658538057
 20
2.0132395191
 30
0.0
  0
SPLINE
  5
47B
100
AcDbEntity
  8
ALL_ASSEMBLY_MEMBERS
100
AcDbSpline
 62
7
  6
CONTINUOUS
 70
0
 71
3
 72
17
 73
13
 74
0
 42
0.0000001
 43
0.0000001
 44
0.0000000001
 40
0.0
 40
0.0
 40
0.0
 40
0.0
 40
0.1217244991
 40
0.2554692005
 40
0.3974075671
 40
0.5412990836
 40
0.6792437255
 40
0.8041052675
 40
0.8601463498
 40
0.911529498
 40
0.9581430444
 40
1.0
 40
1.0
 40
1.0
 40
1.0
 10
5.6839590771
 20
2.0024212105
 30
0.0
 10
5.6836447005
 20
2.004375924
 30
0.0
 10
5.6830753559
 20
2.0084932677
 30
0.0
 10
5.6824408652
 20
2.0149273461
 30
0.0
 10
5.6820314585
 20
2.0217410888
 30
0.0
 10
5.6818857871
 20
2.0286340652
 30
0.0
 10
5.6820197746
 20
2.0352495354
 30
0.0
 10
5.6823618518
 20
2.0404267143
 30
0.0
 10
5.6827688497
 20
2.044183296
 30
0.0
 10
5.6831135466
 20
2.0466653199
 30
0.0
 10
5.6835022004
 20
2.0489070169
 30
0.0
 10
5.6838018199
 20
2.0503149398
 30
0.0
 10
5.6839590771
 20
2.0509773263
 30
0.0
  0
SPLINE
  5
47C
100
AcDbEntity
  8
ALL_ASSEMBLY_MEMBERS
100
AcDbSpline
 62
7
  6
CONTINUOUS
 70
0
 71
3
 72
19
 73
15
 74
0
 42
0.0000001
 43
0.0000001
 44
0.0000000001
 40
0.0
 40
0.0
 40
0.0
 40
0.0
 40
0.1154968934
 40
0.2335497092
 40
0.3545140897
 40
0.416229342
 40
0.4787903701
 40
0.5421392024
 40
0.6062181793
 40
0.6709604939
 40
0.7362443302
 40
0.8019326857
 40
0.8678970574
 40
1.0
 40
1.0
 40
1.0
 40
1.0
 10
5.1705772096
 20
1.9687581674
 30
0.0
 10
5.1695036013
 20
1.9697646769
 30
0.0
 10
5.167461413
 20
1.9719432538
 30
0.0
 10
5.1648438169
 20
1.9756420274
 30
0.0
 10
5.16310201
 20
1.9790727386
 30
0.0
 10
5.1620094732
 20
1.9820029894
 30
0.0
 10
5.1613485791
 20
1.9843030607
 30
0.0
 10
5.1608593008
 20
1.9866762755
 30
0.0
 10
5.1605509108
 20
1.9891078437
 30
0.0
 10
5.1604299
 20
1.99158052
 30
0.0
 10
5.1604949417
 20
1.994075683
 30
0.0
 10
5.1607471642
 20
1.996574766
 30
0.0
 10
5.161328038
 20
1.999886959
 30
0.0
 10
5.162025172
 20
2.0023233211
 30
0.0
 10
5.1625951495
 20
2.0039071002
 30
0.0
  0
SPLINE
  5
47D
100
AcDbEntity
  8
ALL_ASSEMBLY_MEMBERS
100
AcDbSpline
 62
7
  6
CONTINUOUS
 70
0
 71
3
 72
10
 73
6
 74
0
 42
0.0000001
 43
0.0000001
 44
0.0000000001
 40
0.0
 40
0.0
 40
0.0
 40
0.0
 40
0.5043908074
 40
0.7537208168
 40
1.0
 40
1.0
 40
1.0
 40
1.0
 10
5.1625951495
 20
2.0039071002
 30
0.0
 10
5.1634877116
 20
2.0063872356
 30
0.0
 10
5.1652116984
 20
2.0099660639
 30
0.0
 10
5.1681133891
 20
2.0143165777
 30
0.0
 10
5.1697330106
 20
2.0163428278
 30
0.0
 10
5.1705772096
 20
2.0173142832
 30
0.0
  0
SPLINE
  5
47E
100
AcDbEntity
  8
ALL_ASSEMBLY_MEMBERS
100
AcDbSpline
 62
7
  6
CONTINUOUS
 70
0
 71
3
 72
21
 73
17
 74
0
 42
0.0000001
 43
0.0000001
 44
0.0000000001
 40
0.0
 40
0.0
 40
0.0
 40
0.0
 40
0.1165520748
 40
0.1759051179
 40
0.2360295864
 40
0.2969938145
 40
0.3588811473
 40
0.4216274815
 40
0.4851603322
 40
0.5493195465
 40
0.6139103134
 40
0.6787325658
 40
0.7435479168
 40
0.8082318306
 40
0.8726373428
 40
1.0
 40
1.0
 40
1.0
 40
1.0
 10
5.1769815557
 20
1.9727631237
 30
0.0
 10
5.1754226216
 20
1.9741852913
 30
0.0
 10
5.1732526385
 20
1.9765494017
 30
0.0
 10
5.1708506892
 20
1.9800903086
 30
0.0
 10
5.1693007618
 20
1.9829733264
 30
0.0
 10
5.1680491051
 20
1.9860475143
 30
0.0
 10
5.1671300115
 20
1.9892867292
 30
0.0
 10
5.1665649874
 20
1.9926534736
 30
0.0
 10
5.1663783734
 20
1.9961033676
 30
0.0
 10
5.1665686884
 20
1.999586278
 30
0.0
 10
5.1671366004
 20
2.0030511478
 30
0.0
 10
5.1680573655
 20
2.0064510896
 30
0.0
 10
5.1693092307
 20
2.0097447472
 30
0.0
 10
5.1708579554
 20
2.0129009397
 30
0.0
 10
5.1732634794
 20
2.0168772469
 30
0.0
 10
5.1754245457
 20
2.0196183883
 30
0.0
 10
5.1769815557
 20
2.0213192395
 30
0.0
  0
SPLINE
  5
47F
100
AcDbEntity
  8
ALL_ASSEMBLY_MEMBERS
100
AcDbSpline
 62
7
  6
CONTINUOUS
 70
0
 71
3
 72
23
 73
19
 74
0
 42
0.0000001
 43
0.0000001
 44
0.0000000001
 40
0.0
 40
0.0
 40
0.0
 40
0.0
 40
0.0620963066
 40
0.1242135048
 40
0.1863008277
 40
0.2483546083
 40
0.3103961114
 40
0.3725076125
 40
0.4346879215
 40
0.4969812841
 40
0.5594062027
 40
0.6219727368
 40
0.684695354
 40
0.7475325762
 40
0.8105199417
 40
0.8736318032
 40
0.9368212875
 40
1.0
 40
1.0
 40
1.0
 40
1.0
 10
5.7030136831
 20
2.0484617138
 30
0.0
 10
5.7038794614
 20
2.0477025181
 30
0.0
 10
5.705550568
 20
2.0461126809
 30
0.0
 10
5.707839721
 20
2.0435191453
 30
0.0
 10
5.709873475
 20
2.0407205123
 30
0.0
 10
5.7116121844
 20
2.0377304501
 30
0.0
 10
5.713017931
 20
2.0345686265
 30
0.0
 10
5.7140514185
 20
2.0312632352
 30
0.0
 10
5.7146878799
 20
2.0278536036
 30
0.0
 10
5.7148993759
 20
2.0243854739
 30
0.0
 10
5.7146869891
 20
2.0209102847
 30
0.0
 10
5.7140498778
 20
2.0174796439
 30
0.0
 10
5.7130160879
 20
2.0141397746
 30
0.0
 10
5.7116104293
 20
2.0109307794
 30
0.0
 10
5.7098720977
 20
2.0078819009
 30
0.0
 10
5.7078389006
 20
2.0050140341
 30
0.0
 10
5.7055503569
 20
2.0023421543
 30
0.0
 10
5.703879548
 20
2.0006948105
 30
0.0
 10
5.7030136831
 20
1.999905598
 30
0.0
  0
SPLINE
  5
480
100
AcDbEntity
  8
ALL_ASSEMBLY_MEMBERS
100
AcDbSpline
 62
7
  6
CONTINUOUS
 70
0
 71
3
 72
21
 73
17
 74
0
 42
0.0000001
 43
0.0000001
 44
0.0000000001
 40
0.0
 40
0.0
 40
0.0
 40
0.0
 40
0.1183484995
 40
0.1783046474
 40
0.238814594
 40
0.2999437332
 40
0.3617855457
 40
0.4243026177
 40
0.4874617049
 40
0.5511547235
 40
0.6152427344
 40
0.6795803471
 40
0.7439772921
 40
0.8083461064
 40
0.8725664033
 40
1.0
 40
1.0
 40
1.0
 40
1.0
 10
5.1850334537
 20
1.9766773914
 30
0.0
 10
5.183425224
 20
1.978115007
 30
0.0
 10
5.1811826918
 20
1.9805007475
 30
0.0
 10
5.1786923786
 20
1.9840776212
 30
0.0
 10
5.1770879388
 20
1.9869800847
 30
0.0
 10
5.175791942
 20
1.9900703164
 30
0.0
 10
5.1748400245
 20
1.9933218812
 30
0.0
 10
5.1742546284
 20
1.9966968552
 30
0.0
 10
5.1740610703
 20
2.0001505685
 30
0.0
 10
5.1742579135
 20
2.0036325679
 30
0.0
 10
5.1748458268
 20
2.0070916377
 30
0.0
 10
5.1757991209
 20
2.0104810158
 30
0.0
 10
5.1770951576
 20
2.0137595314
 30
0.0
 10
5.1786984009
 20
2.0168964598
 30
0.0
 10
5.181191154
 20
2.0208467375
 30
0.0
 10
5.1834262132
 20
2.023556682
 30
0.0
 10
5.1850334537
 20
2.0252335072
 30
0.0
  0
SPLINE
  5
481
100
AcDbEntity
  8
ALL_ASSEMBLY_MEMBERS
100
AcDbSpline
 62
7
  6
CONTINUOUS
 70
0
 71
3
 72
18
 73
14
 74
0
 42
0.0000001
 43
0.0000001
 44
0.0000000001
 40
0.0
 40
0.0
 40
0.0
 40
0.0
 40
0.1215113083
 40
0.2553861317
 40
0.3976986882
 40
0.4701164385
 40
0.5420682207
 40
0.6804092001
 40
0.8053965839
 40
0.8613386515
 40
0.9124882736
 40
0.9587119199
 40
1.0
 40
1.0
 40
1.0
 40
1.0
 10
5.7030136831
 20
1.999905598
 30
0.0
 10
5.7028307919
 20
2.001867071
 30
0.0
 10
5.7024999801
 20
2.0059947047
 30
0.0
 10
5.7021318439
 20
2.0124323032
 30
0.0
 10
5.7019349806
 20
2.018081102
 30
0.0
 10
5.7018515722
 20
2.0227282268
 30
0.0
 10
5.7018236095
 20
2.0273116292
 30
0.0
 10
5.7018874671
 20
2.0327475014
 30
0.0
 10
5.7020858669
 20
2.0379206408
 30
0.0
 10
5.7023222917
 20
2.0416759088
 30
0.0
 10
5.7025223017
 20
2.0441535994
 30
0.0
 10
5.7027477808
 20
2.0463904386
 30
0.0
 10
5.7029220567
 20
2.0477986387
 30
0.0
 10
5.7030136831
 20
2.0484617138
 30
0.0
  0
SPLINE
  5
482
100
AcDbEntity
  8
ALL_ASSEMBLY_MEMBERS
100
AcDbSpline
 62
7
  6
CONTINUOUS
 70
0
 71
3
 72
22
 73
18
 74
0
 42
0.0000001
 43
0.0000001
 44
0.0000000001
 40
0.0
 40
0.0
 40
0.0
 40
0.0
 40
0.1199669787
 40
0.1804836373
 40
0.2413663939
 40
0.3026743564
 40
0.364505931
 40
0.4268434485
 40
0.4896852119
 40
0.5529673182
 40
0.616599477
 40
0.6804850911
 40
0.744477429
 40
0.8085231346
 40
0.8725266725
 40
0.9363917628
 40
1.0
 40
1.0
 40
1.0
 40
1.0
 10
5.1946909232
 20
1.9804805627
 30
0.0
 10
5.1930410606
 20
1.9819350369
 30
0.0
 10
5.1907374766
 20
1.9843441469
 30
0.0
 10
5.188172405
 20
1.9879570145
 30
0.0
 10
5.186521933
 20
1.9908794846
 30
0.0
 10
5.185188456
 20
1.9939861341
 30
0.0
 10
5.184208746
 20
1.9972502337
 30
0.0
 10
5.1836060547
 20
2.0006334603
 30
0.0
 10
5.1834065486
 20
2.0040908682
 30
0.0
 10
5.1836088553
 20
2.007571705
 30
0.0
 10
5.1842136628
 20
2.011024619
 30
0.0
 10
5.1851944558
 20
2.0144029445
 30
0.0
 10
5.1865279146
 20
2.0176658188
 30
0.0
 10
5.1881770939
 20
2.0207825748
 30
0.0
 10
5.1901062956
 20
2.0237307492
 30
0.0
 10
5.1922781699
 20
2.0264937074
 30
0.0
 10
5.1938671694
 20
2.0282112117
 30
0.0
 10
5.1946909232
 20
2.0290366785
 30
0.0
  0
SPLINE
  5
483
100
AcDbEntity
  8
ALL_ASSEMBLY_MEMBERS
100
AcDbSpline
 62
7
  6
CONTINUOUS
 70
0
 71
3
 72
22
 73
18
 74
0
 42
0.0000001
 43
0.0000001
 44
0.0000000001
 40
0.0
 40
0.0
 40
0.0
 40
0.0
 40
0.1214296512
 40
0.18247508
 40
0.2437293747
 40
0.3052424937
 40
0.3671129067
 40
0.4293357311
 40
0.4919327442
 40
0.5548757172
 40
0.6181150738
 40
0.6815964717
 40
0.7452117175
 40
0.8089384715
 40
0.8727043611
 40
0.936428365
 40
1.0
 40
1.0
 40
1.0
 40
1.0
 10
5.205903613
 20
1.984152809
 30
0.0
 10
5.2042199646
 20
1.985625397
 30
0.0
 10
5.2018670562
 20
1.9880594688
 30
0.0
 10
5.1992412764
 20
1.9917082452
 30
0.0
 10
5.1975534936
 20
1.9946512017
 30
0.0
 10
5.1961896037
 20
1.9977745753
 30
0.0
 10
5.1951873002
 20
2.0010513353
 30
0.0
 10
5.1945705016
 20
2.0044427858
 30
0.0
 10
5.1943660838
 20
2.0079037227
 30
0.0
 10
5.1945727609
 20
2.0113831309
 30
0.0
 10
5.1951912449
 20
2.01482954
 30
0.0
 10
5.1961943681
 20
2.0181964125
 30
0.0
 10
5.1975581894
 20
2.0214431019
 30
0.0
 10
5.199244833
 20
2.0245393938
 30
0.0
 10
5.2012177343
 20
2.0274633094
 30
0.0
 10
5.2034386457
 20
2.0301987271
 30
0.0
 10
5.2050620964
 20
2.0318946011
 30
0.0
 10
5.205903613
 20
2.0327089248
 30
0.0
  0
SPLINE
  5
484
100
AcDbEntity
  8
ALL_ASSEMBLY_MEMBERS
100
AcDbSpline
 62
7
  6
CONTINUOUS
 70
0
 71
3
 72
23
 73
19
 74
0
 42
0.0000001
 43
0.0000001
 44
0.0000000001
 40
0.0
 40
0.0
 40
0.0
 40
0.0
 40
0.0613678212
 40
0.1228305198
 40
0.1843587783
 40
0.2459691781
 40
0.3077002063
 40
0.3696457805
 40
0.4318068819
 40
0.4942205237
 40
0.5568850863
 40
0.6197831237
 40
0.6828955662
 40
0.7461474042
 40
0.8095440817
 40
0.8730349334
 40
0.9365540652
 40
1.0
 40
1.0
 40
1.0
 40
1.0
 10
5.2186130635
 20
1.9876749843
 30
0.0
 10
5.2177581691
 20
1.9884210475
 30
0.0
 10
5.2161078511
 20
1.9899859439
 30
0.0
 10
5.2138483574
 20
1.9925443717
 30
0.0
 10
5.2118410526
 20
1.9953119323
 30
0.0
 10
5.2101251123
 20
1.9982754956
 30
0.0
 10
5.2087379802
 20
2.0014158997
 30
0.0
 10
5.2077184287
 20
2.0047053694
 30
0.0
 10
5.2070907938
 20
2.0081049786
 30
0.0
 10
5.2068825413
 20
2.0115692531
 30
0.0
 10
5.2070924663
 20
2.0150469635
 30
0.0
 10
5.2077213319
 20
2.0184865504
 30
0.0
 10
5.2087414746
 20
2.0218416099
 30
0.0
 10
5.2101284698
 20
2.0250717283
 30
0.0
 10
5.2118437239
 20
2.0281471318
 30
0.0
 10
5.2138499937
 20
2.031046329
 30
0.0
 10
5.2161083394
 20
2.0337537116
 30
0.0
 10
5.2177580336
 20
2.0354279502
 30
0.0
 10
5.2186130635
 20
2.0362311
 30
0.0
  0
SPLINE
  5
485
100
AcDbEntity
  8
ALL_ASSEMBLY_MEMBERS
100
AcDbSpline
 62
7
  6
CONTINUOUS
 70
0
 71
3
 72
23
 73
19
 74
0
 42
0.0000001
 43
0.0000001
 44
0.0000000001
 40
0.0
 40
0.0
 40
0.0
 40
0.0
 40
0.0619625224
 40
0.1239572048
 40
0.1859373596
 40
0.2479033574
 40
0.3098801392
 40
0.3719528226
 40
0.4341214853
 40
0.4964299752
 40
0.5588939592
 40
0.621519148
 40
0.6843142628
 40
0.7472318431
 40
0.810301824
 40
0.8734937293
 40
0.9367568534
 40
1.0
 40
1.0
 40
1.0
 40
1.0
 10
5.2327530111
 20
1.9910287248
 30
0.0
 10
5.2318888726
 20
1.9917852575
 30
0.0
 10
5.2302208872
 20
1.9933700251
 30
0.0
 10
5.2279361814
 20
1.9959564851
 30
0.0
 10
5.2259063926
 20
1.9987488585
 30
0.0
 10
5.2241710988
 20
2.0017335881
 30
0.0
 10
5.22276815
 20
2.0048911103
 30
0.0
 10
5.221736766
 20
2.008193318
 30
0.0
 10
5.2211016479
 20
2.0116009614
 30
0.0
 10
5.2208906611
 20
2.0150683493
 30
0.0
 10
5.2211026985
 20
2.0185440785
 30
0.0
 10
5.2217385838
 20
2.0219765451
 30
0.0
 10
5.2227703268
 20
2.0253194882
 30
0.0
 10
5.2241731745
 20
2.0285327412
 30
0.0
 10
5.2259080249
 20
2.0315869572
 30
0.0
 10
5.2279371579
 20
2.0344611233
 30
0.0
 10
5.2302211448
 20
2.0371401386
 30
0.0
 10
5.231888773
 20
2.0387928447
 30
0.0
 10
5.2327530111
 20
2.0395848406
 30
0.0
  0
SPLINE
  5
486
100
AcDbEntity
  8
ALL_ASSEMBLY_MEMBERS
100
AcDbSpline
 62
7
  6
CONTINUOUS
 70
0
 71
3
 72
23
 73
19
 74
0
 42
0.0000001
 43
0.0000001
 44
0.0000000001
 40
0.0
 40
0.0
 40
0.0
 40
0.0
 40
0.0624611901
 40
0.1249200043
 40
0.1873141171
 40
0.2496278602
 40
0.3118708548
 40
0.3741154063
 40
0.4363540761
 40
0.498629156
 40
0.5609640457
 40
0.6233782838
 40
0.6859005756
 40
0.7485051061
 40
0.8112428827
 40
0.8741021773
 40
0.9370476835
 40
1.0
 40
1.0
 40
1.0
 40
1.0
 10
5.2482497343
 20
1.9941965453
 30
0.0
 10
5.2473806709
 20
1.9949638003
 30
0.0
 10
5.245703354
 20
1.9965690147
 30
0.0
 10
5.2434053738
 20
1.9991838363
 30
0.0
 10
5.2413637512
 20
2.0020012931
 30
0.0
 10
5.2396182548
 20
2.0050073758
 30
0.0
 10
5.2382069288
 20
2.0081820964
 30
0.0
 10
5.2371692122
 20
2.0114969927
 30
0.0
 10
5.2365300071
 20
2.0149125122
 30
0.0
 10
5.2363174113
 20
2.0183827679
 30
0.0
 10
5.2365304141
 20
2.0218562352
 30
0.0
 10
5.2371699152
 20
2.0252813129
 30
0.0
 10
5.2382077685
 20
2.0286118962
 30
0.0
 10
5.2396190521
 20
2.031808081
 30
0.0
 10
5.2413643743
 20
2.0348409281
 30
0.0
 10
5.2434057418
 20
2.0376898909
 30
0.0
 10
5.2457034439
 20
2.0403403643
 30
0.0
 10
5.2473806294
 20
2.0419717476
 30
0.0
 10
5.2482497343
 20
2.0427526611
 30
0.0
  0
SPLINE
  5
487
100
AcDbEntity
  8
ALL_ASSEMBLY_MEMBERS
100
AcDbSpline
 62
7
  6
CONTINUOUS
 70
0
 71
3
 72
13
 73
9
 74
0
 42
0.0000001
 43
0.0000001
 44
0.0000000001
 40
0.0
 40
0.0
 40
0.0
 40
0.0
 40
0.2553475648
 40
0.5424317988
 40
0.6809625528
 40
0.8060115791
 40
0.9129463783
 40
1.0
 40
1.0
 40
1.0
 40
1.0
 10
5.2650224376
 20
1.9971619296
 30
0.0
 10
5.2651278174
 20
2.0012939829
 30
0.0
 10
5.2652871962
 20
2.0100733254
 30
0.0
 10
5.2653592076
 20
2.0210963486
 30
0.0
 10
5.2653307591
 20
2.0300101486
 30
0.0
 10
5.2652677092
 20
2.0360075291
 30
0.0
 10
5.2651691055
 20
2.041171017
 30
0.0
 10
5.2650757579
 20
2.0443098883
 30
0.0
 10
5.2650224376
 20
2.0457180454
 30
0.0
  0
SPLINE
  5
488
100
AcDbEntity
  8
ALL_ASSEMBLY_MEMBERS
100
AcDbSpline
 62
7
  6
CONTINUOUS
 70
0
 71
3
 72
23
 73
19
 74
0
 42
0.0000001
 43
0.0000001
 44
0.0000000001
 40
0.0
 40
0.0
 40
0.0
 40
0.0
 40
0.0625706213
 40
0.125134581
 40
0.1876259362
 40
0.2500250665
 40
0.3123375281
 40
0.3746318394
 40
0.4368976858
 40
0.4991756773
 40
0.5614896404
 40
0.62386108
 40
0.6863224267
 40
0.7488523066
 40
0.8115064264
 40
0.8742774989
 40
0.9371340943
 40
1.0
 40
1.0
 40
1.0
 40
1.0
 10
5.2650224376
 20
2.0457180454
 30
0.0
 10
5.2641528237
 20
2.0449480889
 30
0.0
 10
5.2624744869
 20
2.0433377092
 30
0.0
 10
5.2601750669
 20
2.0407157946
 30
0.0
 10
5.2581321618
 20
2.0378920674
 30
0.0
 10
5.2563855545
 20
2.0348806533
 30
0.0
 10
5.2549733054
 20
2.0317016491
 30
0.0
 10
5.2539348719
 20
2.0283836092
 30
0.0
 10
5.2532951811
 20
2.0249661582
 30
0.0
 10
5.2530823615
 20
2.0214952289
 30
0.0
 10
5.253295426
 20
2.0180223679
 30
0.0
 10
5.253935295
 20
2.0145991675
 30
0.0
 10
5.2549738103
 20
2.0112716915
 30
0.0
 10
5.2563860338
 20
2.008079776
 30
0.0
 10
5.258132536
 20
2.0050522623
 30
0.0
 10
5.2601752876
 20
2.0022095834
 30
0.0
 10
5.2624745403
 20
1.999566223
 30
0.0
 10
5.2641527985
 20
1.9979401019
 30
0.0
 10
5.2650224376
 20
1.9971619296
 30
0.0
  0
SPLINE
  5
489
100
AcDbEntity
  8
ALL_ASSEMBLY_MEMBERS
100
AcDbSpline
 62
7
  6
CONTINUOUS
 70
0
 71
3
 72
18
 73
14
 74
0
 42
0.0000001
 43
0.0000001
 44
0.0000000001
 40
0.0
 40
0.0
 40
0.0
 40
0.0
 40
0.1215115375
 40
0.2553862176
 40
0.3976983686
 40
0.470115867
 40
0.5420673937
 40
0.6804079458
 40
0.8053951911
 40
0.8613373634
 40
0.9124872361
 40
0.9587113035
 40
1.0
 40
1.0
 40
1.0
 40
1.0
 10
5.2829836731
 20
1.999909417
 30
0.0
 10
5.2831667563
 20
2.0018708827
 30
0.0
 10
5.2834979158
 20
2.0059985055
 30
0.0
 10
5.2838664396
 20
2.0124361002
 30
0.0
 10
5.2840635101
 20
2.0180848996
 30
0.0
 10
5.2841470062
 20
2.0227320244
 30
0.0
 10
5.2841749984
 20
2.0273154277
 30
0.0
 10
5.2841110735
 20
2.032751306
 30
0.0
 10
5.2839124648
 20
2.0379244497
 30
0.0
 10
5.2836757914
 20
2.0416797191
 30
0.0
 10
5.2834755709
 20
2.0441574144
 30
0.0
 10
5.2832498545
 20
2.0463942587
 30
0.0
 10
5.2830753956
 20
2.0478024585
 30
0.0
 10
5.2829836731
 20
2.0484655328
 30
0.0
  0
SPLINE
  5
48A
100
AcDbEntity
  8
ALL_ASSEMBLY_MEMBERS
100
AcDbSpline
 62
7
  6
CONTINUOUS
 70
0
 71
3
 72
23
 73
19
 74
0
 42
0.0000001
 43
0.0000001
 44
0.0000000001
 40
0.0
 40
0.0
 40
0.0
 40
0.0
 40
0.0620955487
 40
0.1242120491
 40
0.1862987585
 40
0.2483520328
 40
0.3103931579
 40
0.372504426
 40
0.4346846559
 40
0.4969780922
 40
0.5594032232
 40
0.6219700856
 40
0.6846931149
 40
0.7475307992
 40
0.8105186452
 40
0.8736309769
 40
0.9368208986
 40
1.0
 40
1.0
 40
1.0
 40
1.0
 10
5.2829836731
 20
2.0484655328
 30
0.0
 10
5.2821179036
 20
2.0477063526
 30
0.0
 10
5.2804468135
 20
2.0461165448
 30
0.0
 10
5.2781576841
 20
2.0435230503
 30
0.0
 10
5.2761239512
 20
2.0407244536
 30
0.0
 10
5.2743852599
 20
2.0377344223
 30
0.0
 10
5.2729795282
 20
2.0345726236
 30
0.0
 10
5.2719460518
 20
2.0312672507
 30
0.0
 10
5.2713095976
 20
2.0278576306
 30
0.0
 10
5.2710981043
 20
2.0243895052
 30
0.0
 10
5.2713104893
 20
2.0209143128
 30
0.0
 10
5.2719475941
 20
2.0174836614
 30
0.0
 10
5.2729813731
 20
2.0141437743
 30
0.0
 10
5.2743870168
 20
2.0109347543
 30
0.0
 10
5.2761253299
 20
2.0078858449
 30
0.0
 10
5.2781585054
 20
2.0050179416
 30
0.0
 10
5.2804470249
 20
2.0023460204
 30
0.0
 10
5.2821178168
 20
2.0006986456
 30
0.0
 10
5.2829836731
 20
1.999909417
 30
0.0
  0
SPLINE
  5
48B
100
AcDbEntity
  8
ALL_ASSEMBLY_MEMBERS
100
AcDbSpline
 62
7
  6
CONTINUOUS
 70
0
 71
3
 72
17
 73
13
 74
0
 42
0.0000001
 43
0.0000001
 44
0.0000000001
 40
0.0
 40
0.0
 40
0.0
 40
0.0
 40
0.1217248858
 40
0.2554693498
 40
0.3974070366
 40
0.5412976916
 40
0.6792416168
 40
0.8041029322
 40
0.8601441942
 40
0.9115277658
 40
0.958142018
 40
1.0
 40
1.0
 40
1.0
 40
1.0
 10
5.3020397961
 20
2.002424683
 30
0.0
 10
5.3023543617
 20
2.0043793843
 30
0.0
 10
5.30292405
 20
2.0084967091
 30
0.0
 10
5.3035589254
 20
2.0149307809
 30
0.0
 10
5.3039685802
 20
2.021744522
 30
0.0
 10
5.30411434
 20
2.0286375025
 30
0.0
 10
5.303980271
 20
2.0352529829
 30
0.0
 10
5.3036379862
 20
2.0404301692
 30
0.0
 10
5.3032307425
 20
2.0441867532
 30
0.0
 10
5.3028858367
 20
2.0466687851
 30
0.0
 10
5.3024969472
 20
2.0489104909
 30
0.0
 10
5.3021971474
 20
2.0503184134
 30
0.0
 10
5.3020397961
 20
2.0509807988
 30
0.0
  0
SPLINE
  5
48C
100
AcDbEntity
  8
ALL_ASSEMBLY_MEMBERS
100
AcDbSpline
 62
7
  6
CONTINUOUS
 70
0
 71
3
 72
23
 73
19
 74
0
 42
0.0000001
 43
0.0000001
 44
0.0000000001
 40
0.0
 40
0.0
 40
0.0
 40
0.0
 40
0.0615249242
 40
0.1231264459
 40
0.184770768
 40
0.2464704294
 40
0.3082607252
 40
0.3702337699
 40
0.4323909481
 40
0.4947717617
 40
0.5573797764
 40
0.6202041677
 40
0.6832334935
 40
0.7464001387
 40
0.8097159578
 40
0.8731354458
 40
0.9365964767
 40
1.0
 40
1.0
 40
1.0
 40
1.0
 10
5.3020397961
 20
2.0509807988
 30
0.0
 10
5.3011821995
 20
2.0502321565
 30
0.0
 10
5.299526709
 20
2.0486623741
 30
0.0
 10
5.2972598295
 20
2.0460970078
 30
0.0
 10
5.2952459377
 20
2.0433233033
 30
0.0
 10
5.293524329
 20
2.0403544947
 30
0.0
 10
5.2921325682
 20
2.0372098417
 30
0.0
 10
5.2911095604
 20
2.0339172001
 30
0.0
 10
5.2904797477
 20
2.0305155784
 30
0.0
 10
5.2902707104
 20
2.0270505072
 30
0.0
 10
5.290481268
 20
2.0235732636
 30
0.0
 10
5.2911121971
 20
2.0201354223
 30
0.0
 10
5.2921357369
 20
2.0167833526
 30
0.0
 10
5.2935273668
 20
2.0135574083
 30
0.0
 10
5.2952483464
 20
2.0104872551
 30
0.0
 10
5.297261295
 20
2.0075942646
 30
0.0
 10
5.2995271318
 20
2.0048939179
 30
0.0
 10
5.30118207
 20
2.0032250527
 30
0.0
 10
5.3020397961
 20
2.002424683
 30
0.0
  0
SPLINE
  5
48D
100
AcDbEntity
  8
ALL_ASSEMBLY_MEMBERS
100
AcDbSpline
 62
7
  6
CONTINUOUS
 70
0
 71
3
 72
18
 73
14
 74
0
 42
0.0000001
 43
0.0000001
 44
0.0000000001
 40
0.0
 40
0.0
 40
0.0
 40
0.0
 40
0.1220385668
 40
0.2555884211
 40
0.3969680209
 40
0.5401496597
 40
0.6775039883
 40
0.7417850769
 40
0.8022002479
 40
0.8583899471
 40
0.9101201734
 40
0.9573092924
 40
1.0
 40
1.0
 40
1.0
 40
1.0
 10
5.3220914534
 20
2.0046946137
 30
0.0
 10
5.3225349928
 20
2.0066392516
 30
0.0
 10
5.3233396744
 20
2.0107409979
 30
0.0
 10
5.3242383929
 20
2.0171694421
 30
0.0
 10
5.324818351
 20
2.0239818189
 30
0.0
 10
5.3250245381
 20
2.0308779706
 30
0.0
 10
5.324863159
 20
2.0365153504
 30
0.0
 10
5.3245270636
 20
2.0407857914
 30
0.0
 10
5.3241909313
 20
2.0437236769
 30
0.0
 10
5.3237743436
 20
2.0464439162
 30
0.0
 10
5.323286224
 20
2.0489324129
 30
0.0
 10
5.3227357089
 20
2.0511813089
 30
0.0
 10
5.3223128846
 20
2.0525890683
 30
0.0
 10
5.3220914534
 20
2.0532507294
 30
0.0
  0
SPLINE
  5
48E
100
AcDbEntity
  8
ALL_ASSEMBLY_MEMBERS
100
AcDbSpline
 62
7
  6
CONTINUOUS
 70
0
 71
3
 72
22
 73
18
 74
0
 42
0.0000001
 43
0.0000001
 44
0.0000000001
 40
0.0
 40
0.0
 40
0.0
 40
0.0
 40
0.121767554
 40
0.1829385993
 40
0.244284114
 40
0.3058514408
 40
0.3677383214
 40
0.4299419666
 40
0.4924887438
 40
0.5553578822
 40
0.6185086022
 40
0.6818960283
 40
0.7454207254
 40
0.8090675631
 40
0.8727697403
 40
0.9364499998
 40
1.0
 40
1.0
 40
1.0
 40
1.0
 10
5.3220914534
 20
2.0532507294
 30
0.0
 10
5.3204006351
 20
2.0517734556
 30
0.0
 10
5.3180372963
 20
2.0493329432
 30
0.0
 10
5.3153986341
 20
2.0456752587
 30
0.0
 10
5.3137029421
 20
2.042727141
 30
0.0
 10
5.312332602
 20
2.0395995651
 30
0.0
 10
5.3113254967
 20
2.0363196406
 30
0.0
 10
5.3107056919
 20
2.0329261506
 30
0.0
 10
5.3105002185
 20
2.0294643612
 30
0.0
 10
5.3107078087
 20
2.0259853477
 30
0.0
 10
5.3113291885
 20
2.0225406061
 30
0.0
 10
5.3123370505
 20
2.019176642
 30
0.0
 10
5.3137073172
 20
2.0159340447
 30
0.0
 10
5.3154019176
 20
2.0128429187
 30
0.0
 10
5.3173840974
 20
2.0099251197
 30
0.0
 10
5.3196154191
 20
2.0071966413
 30
0.0
 10
5.3212461736
 20
2.0055061569
 30
0.0
 10
5.3220914534
 20
2.0046946137
 30
0.0
  0
SPLINE
  5
48F
100
AcDbEntity
  8
ALL_ASSEMBLY_MEMBERS
100
AcDbSpline
 62
7
  6
CONTINUOUS
 70
0
 71
3
 72
18
 73
14
 74
0
 42
0.0000001
 43
0.0000001
 44
0.0000000001
 40
0.0
 40
0.0
 40
0.0
 40
0.0
 40
0.1224438952
 40
0.2557460753
 40
0.3964097403
 40
0.5386820948
 40
0.675284037
 40
0.7393695909
 40
0.7997651865
 40
0.8561507167
 40
0.9083294654
 40
0.9562545533
 40
1.0
 40
1.0
 40
1.0
 40
1.0
 10
5.3430341015
 20
2.0067073742
 30
0.0
 10
5.3436031996
 20
2.0086390029
 30
0.0
 10
5.3446378888
 20
2.0127201259
 30
0.0
 10
5.3457968166
 20
2.0191406482
 30
0.0
 10
5.3465447395
 20
2.0259509255
 30
0.0
 10
5.3468106017
 20
2.0328514012
 30
0.0
 10
5.3466021855
 20
2.0384945935
 30
0.0
 10
5.3461694426
 20
2.0427677258
 30
0.0
 10
5.3457362731
 20
2.0457116821
 30
0.0
 10
5.3451993497
 20
2.0484392094
 30
0.0
 10
5.3445701142
 20
2.0509361082
 30
0.0
 10
5.3438603336
 20
2.0531942665
 30
0.0
 10
5.3433176381
 20
2.0546022785
 30
0.0
 10
5.3430341015
 20
2.05526349
 30
0.0
  0
SPLINE
  5
490
100
AcDbEntity
  8
ALL_ASSEMBLY_MEMBERS
100
AcDbSpline
 62
7
  6
CONTINUOUS
 70
0
 71
3
 72
22
 73
18
 74
0
 42
0.0000001
 43
0.0000001
 44
0.0000000001
 40
0.0
 40
0.0
 40
0.0
 40
0.0
 40
0.1203467549
 40
0.1809985916
 40
0.2419745362
 40
0.3033316757
 40
0.3651688713
 40
0.4274722843
 40
0.4902468308
 40
0.5534382971
 40
0.6169672899
 40
0.6807483626
 40
0.7446448533
 40
0.8086114179
 40
0.8725584446
 40
0.9363934758
 40
1.0
 40
1.0
 40
1.0
 40
1.0
 10
5.3430341015
 20
2.05526349
 30
0.0
 10
5.3413750892
 20
2.0538046186
 30
0.0
 10
5.3390581234
 20
2.0513894384
 30
0.0
 10
5.3364766123
 20
2.0477676203
 30
0.0
 10
5.3348160296
 20
2.0448400927
 30
0.0
 10
5.3334743147
 20
2.0417293063
 30
0.0
 10
5.3324884888
 20
2.0384620649
 30
0.0
 10
5.3318819841
 20
2.0350767864
 30
0.0
 10
5.3316811571
 20
2.031618483
 30
0.0
 10
5.3318846548
 20
2.0281379758
 30
0.0
 10
5.3324931707
 20
2.0246866492
 30
0.0
 10
5.3334800123
 20
2.0213111375
 30
0.0
 10
5.3348216914
 20
2.0180522506
 30
0.0
 10
5.3364810135
 20
2.0149405427
 30
0.0
 10
5.3384220462
 20
2.0119983565
 30
0.0
 10
5.340607198
 20
2.0092421991
 30
0.0
 10
5.3422055329
 20
2.0075300729
 30
0.0
 10
5.3430341015
 20
2.0067073742
 30
0.0
  0
SPLINE
  5
491
100
AcDbEntity
  8
ALL_ASSEMBLY_MEMBERS
100
AcDbSpline
 62
7
  6
CONTINUOUS
 70
0
 71
3
 72
17
 73
13
 74
0
 42
0.0000001
 43
0.0000001
 44
0.0000000001
 40
0.0
 40
0.0
 40
0.0
 40
0.0
 40
0.1229288314
 40
0.2559454864
 40
0.3957666318
 40
0.5369668877
 40
0.6726878624
 40
0.7968865027
 40
0.8535139778
 40
0.9062304775
 40
0.955024806
 40
1.0
 40
1.0
 40
1.0
 40
1.0
 10
5.3647585515
 20
2.0084524708
 30
0.0
 10
5.3654490079
 20
2.0103685387
 30
0.0
 10
5.3667073364
 20
2.0144243381
 30
0.0
 10
5.3681216301
 20
2.0208344477
 30
0.0
 10
5.3690344609
 20
2.0276416196
 30
0.0
 10
5.369358913
 20
2.0345478492
 30
0.0
 10
5.3690588858
 20
2.0411965464
 30
0.0
 10
5.3682947764
 20
2.0463967973
 30
0.0
 10
5.3673939511
 20
2.0501619429
 30
0.0
 10
5.3666264306
 20
2.0526690212
 30
0.0
 10
5.365760627
 20
2.0549382681
 30
0.0
 10
5.3651019274
 20
2.0563472736
 30
0.0
 10
5.3647585515
 20
2.0570085865
 30
0.0
  0
SPLINE
  5
492
100
AcDbEntity
  8
ALL_ASSEMBLY_MEMBERS
100
AcDbSpline
 62
7
  6
CONTINUOUS
 70
0
 71
3
 72
21
 73
17
 74
0
 42
0.0000001
 43
0.0000001
 44
0.0000000001
 40
0.0
 40
0.0
 40
0.0
 40
0.0
 40
0.1187700487
 40
0.1788707412
 40
0.2394756959
 40
0.3006490354
 40
0.3624859419
 40
0.4249545682
 40
0.4880302595
 40
0.5516166913
 40
0.615587739
 40
0.6798107293
 40
0.7441066718
 40
0.8083968763
 40
0.8725672973
 40
1.0
 40
1.0
 40
1.0
 40
1.0
 10
5.3647585515
 20
2.0570085865
 30
0.0
 10
5.3631392351
 20
2.0555669003
 30
0.0
 10
5.360880422
 20
2.0531755
 30
0.0
 10
5.3583702097
 20
2.0495896653
 30
0.0
 10
5.356753509
 20
2.0466822714
 30
0.0
 10
5.355447533
 20
2.0435879855
 30
0.0
 10
5.3544882201
 20
2.0403333157
 30
0.0
 10
5.3538982269
 20
2.0369562877
 30
0.0
 10
5.3537030932
 20
2.0335016417
 30
0.0
 10
5.3539013973
 20
2.0300199073
 30
0.0
 10
5.3544938101
 20
2.0265623378
 30
0.0
 10
5.355454428
 20
2.0231756643
 30
0.0
 10
5.3567604117
 20
2.019901009
 30
0.0
 10
5.3583759308
 20
2.0167689827
 30
0.0
 10
5.3608883451
 20
2.012825463
 30
0.0
 10
5.3631400426
 20
2.0101233315
 30
0.0
 10
5.3647585515
 20
2.0084524708
 30
0.0
  0
SPLINE
  5
493
100
AcDbEntity
  8
ALL_ASSEMBLY_MEMBERS
100
AcDbSpline
 62
7
  6
CONTINUOUS
 70
0
 71
3
 72
17
 73
13
 74
0
 42
0.0000001
 43
0.0000001
 44
0.0000000001
 40
0.0
 40
0.0
 40
0.0
 40
0.0
 40
0.1234653806
 40
0.2561572122
 40
0.3950261314
 40
0.5350170534
 40
0.6697510691
 40
0.7936813293
 40
0.8505875789
 40
0.9039105678
 40
0.9536726161
 40
1.0
 40
1.0
 40
1.0
 40
1.0
 10
5.3871515384
 20
2.0099208048
 30
0.0
 10
5.3879584952
 20
2.011819179
 30
0.0
 10
5.3894327869
 20
2.0158453821
 30
0.0
 10
5.3910963266
 20
2.0222422802
 30
0.0
 10
5.3921702734
 20
2.029045411
 30
0.0
 10
5.3925518232
 20
2.0359577361
 30
0.0
 10
5.3921980435
 20
2.0426223016
 30
0.0
 10
5.3912984901
 20
2.0478331288
 30
0.0
 10
5.3902423438
 20
2.0516028907
 30
0.0
 10
5.3893402105
 20
2.0541217087
 30
0.0
 10
5.3883225379
 20
2.0564036887
 30
0.0
 10
5.3875522907
 20
2.0578147439
 30
0.0
 10
5.3871515384
 20
2.0584769206
 30
0.0
  0
SPLINE
  5
494
100
AcDbEntity
  8
ALL_ASSEMBLY_MEMBERS
100
AcDbSpline
 62
7
  6
CONTINUOUS
 70
0
 71
3
 72
21
 73
17
 74
0
 42
0.0000001
 43
0.0000001
 44
0.0000000001
 40
0.0
 40
0.0
 40
0.0
 40
0.0
 40
0.1170144809
 40
0.1765209247
 40
0.2367418624
 40
0.2977452393
 40
0.3596174238
 40
0.4223016015
 40
0.4857357509
 40
0.5497733761
 40
0.6142342073
 40
0.6789322989
 40
0.7436416458
 40
0.808247211
 40
0.8726088121
 40
1.0
 40
1.0
 40
1.0
 40
1.0
 10
5.3871515384
 20
2.0584769206
 30
0.0
 10
5.3855796287
 20
2.0570510486
 30
0.0
 10
5.3833905264
 20
2.0546817243
 30
0.0
 10
5.3809653385
 20
2.0511318731
 30
0.0
 10
5.3794010645
 20
2.0482440718
 30
0.0
 10
5.3781377427
 20
2.045165929
 30
0.0
 10
5.3772100186
 20
2.0419236607
 30
0.0
 10
5.3766396428
 20
2.0385548729
 30
0.0
 10
5.3764512097
 20
2.0351040188
 30
0.0
 10
5.376643247
 20
2.0316213126
 30
0.0
 10
5.3772164221
 20
2.0281578519
 30
0.0
 10
5.378145743
 20
2.0247604926
 30
0.0
 10
5.3794092256
 20
2.0214705463
 30
0.0
 10
5.3809722901
 20
2.0183190809
 30
0.0
 10
5.3834007427
 20
2.0143490802
 30
0.0
 10
5.3855812877
 20
2.0116156688
 30
0.0
 10
5.3871515384
 20
2.0099208048
 30
0.0
  0
SPLINE
  5
495
100
AcDbEntity
  8
ALL_ASSEMBLY_MEMBERS
100
AcDbSpline
 62
7
  6
CONTINUOUS
 70
0
 71
3
 72
18
 73
14
 74
0
 42
0.0000001
 43
0.0000001
 44
0.0000000001
 40
0.0
 40
0.0
 40
0.0
 40
0.0
 40
0.1240313464
 40
0.2563652482
 40
0.3941980717
 40
0.4638217526
 40
0.5329413662
 40
0.6008011918
 40
0.6666853488
 40
0.7903425679
 40
0.8475582518
 40
0.9015388668
 40
1.0
 40
1.0
 40
1.0
 40
1.0
 10
5.4100963117
 20
2.0111047209
 30
0.0
 10
5.4110143678
 20
2.0129836687
 30
0.0
 10
5.4126957233
 20
2.0169765659
 30
0.0
 10
5.4146011446
 20
2.0233568394
 30
0.0
 10
5.4156235241
 20
2.0290079205
 30
0.0
 10
5.4160529451
 20
2.0336536545
 30
0.0
 10
5.4161619027
 20
2.0371376063
 30
0.0
 10
5.416056922
 20
2.0405589419
 30
0.0
 10
5.4156396921
 20
2.0448807792
 30
0.0
 10
5.4148309522
 20
2.048978819
 30
0.0
 10
5.4136253255
 20
2.0527545358
 30
0.0
 10
5.4122900557
 20
2.0560298467
 30
0.0
 10
5.4110354991
 20
2.0582919362
 30
0.0
 10
5.4100963117
 20
2.0596608367
 30
0.0
  0
SPLINE
  5
496
100
AcDbEntity
  8
ALL_ASSEMBLY_MEMBERS
100
AcDbSpline
 62
7
  6
CONTINUOUS
 70
0
 71
3
 72
21
 73
17
 74
0
 42
0.0000001
 43
0.0000001
 44
0.0000000001
 40
0.0
 40
0.0
 40
0.0
 40
0.0
 40
0.1150968092
 40
0.1739743986
 40
0.2338060623
 40
0.2946598101
 40
0.3566077825
 40
0.4195613358
 40
0.4834137515
 40
0.5479610417
 40
0.6129621811
 40
0.6781725821
 40
0.7433149767
 40
0.8082351312
 40
0.8727649248
 40
1.0
 40
1.0
 40
1.0
 40
1.0
 10
5.4100963117
 20
2.0596608367
 30
0.0
 10
5.4085793194
 20
2.0582492445
 30
0.0
 10
5.4064712285
 20
2.0559001578
 30
0.0
 10
5.4041442708
 20
2.0523861854
 30
0.0
 10
5.4026406913
 20
2.0495173583
 30
0.0
 10
5.4014266994
 20
2.0464549359
 30
0.0
 10
5.4005354503
 20
2.0432248391
 30
0.0
 10
5.3999876739
 20
2.0398642281
 30
0.0
 10
5.3998069024
 20
2.0364172603
 30
0.0
 10
5.3999916375
 20
2.0329338195
 30
0.0
 10
5.4005425526
 20
2.0294648395
 30
0.0
 10
5.4014357006
 20
2.0260573033
 30
0.0
 10
5.4026500677
 20
2.0227526964
 30
0.0
 10
5.4041525007
 20
2.0195825375
 30
0.0
 10
5.4064840832
 20
2.0155879253
 30
0.0
 10
5.4085821832
 20
2.0128236456
 30
0.0
 10
5.4100963117
 20
2.0111047209
 30
0.0
  0
SPLINE
  5
497
100
AcDbEntity
  8
ALL_ASSEMBLY_MEMBERS
100
AcDbSpline
 62
7
  6
CONTINUOUS
 70
0
 71
3
 72
17
 73
13
 74
0
 42
0.0000001
 43
0.0000001
 44
0.0000000001
 40
0.0
 40
0.0
 40
0.0
 40
0.0
 40
0.2562323211
 40
0.3930439412
 40
0.4620252813
 40
0.5304974371
 40
0.597777749
 40
0.6632247843
 40
0.7263573624
 40
0.7867783756
 40
0.8989610997
 40
1.0
 40
1.0
 40
1.0
 40
1.0
 10
5.4334732439
 20
2.0119980465
 30
0.0
 10
5.4355764044
 20
2.0158170282
 30
0.0
 10
5.4380934404
 20
2.0221027087
 30
0.0
 10
5.4396618541
 20
2.0298222175
 30
0.0
 10
5.4401435043
 20
2.034467591
 30
0.0
 10
5.4402654825
 20
2.0379517245
 30
0.0
 10
5.4401477702
 20
2.0413760581
 30
0.0
 10
5.4397892874
 20
2.0446922958
 30
0.0
 10
5.4392052783
 20
2.047858094
 30
0.0
 10
5.4381689669
 20
2.05173642
 30
0.0
 10
5.4364356845
 20
2.0560817819
 30
0.0
 10
5.4345146484
 20
2.0591862943
 30
0.0
 10
5.4334732439
 20
2.0605541623
 30
0.0
  0
SPLINE
  5
498
100
AcDbEntity
  8
ALL_ASSEMBLY_MEMBERS
100
AcDbSpline
 62
7
  6
CONTINUOUS
 70
0
 71
3
 72
21
 73
17
 74
0
 42
0.0000001
 43
0.0000001
 44
0.0000000001
 40
0.0
 40
0.0
 40
0.0
 40
0.0
 40
0.0560568702
 40
0.113147785
 40
0.1713643851
 40
0.2308026746
 40
0.2915263873
 40
0.3535877924
 40
0.41685979
 40
0.4811842618
 40
0.5462933111
 40
0.6118794962
 40
0.6776350113
 40
0.7432276175
 40
0.8730269765
 40
1.0
 40
1.0
 40
1.0
 40
1.0
 10
5.4334732439
 20
2.0605541623
 30
0.0
 10
5.4327517068
 20
2.0598602802
 30
0.0
 10
5.4313582733
 20
2.0583924564
 30
0.0
 10
5.4294658966
 20
2.0559818343
 30
0.0
 10
5.4277860201
 20
2.0533458123
 30
0.0
 10
5.4263513748
 20
2.0504955758
 30
0.0
 10
5.4251930246
 20
2.0474483037
 30
0.0
 10
5.4243429399
 20
2.0442301102
 30
0.0
 10
5.4238205978
 20
2.0408775489
 30
0.0
 10
5.4236483991
 20
2.0374345214
 30
0.0
 10
5.4238248442
 20
2.0339505543
 30
0.0
 10
5.4243505886
 20
2.0304764688
 30
0.0
 10
5.4252029761
 20
2.0270591997
 30
0.0
 10
5.426742144
 20
2.0226512425
 30
0.0
 10
5.4293384566
 20
2.0174818585
 30
0.0
 10
5.4320229315
 20
2.013740996
 30
0.0
 10
5.4334732439
 20
2.0119980465
 30
0.0
  0
SPLINE
  5
499
100
AcDbEntity
  8
ALL_ASSEMBLY_MEMBERS
100
AcDbSpline
 62
7
  6
CONTINUOUS
 70
0
 71
3
 72
19
 73
15
 74
0
 42
0.0000001
 43
0.0000001
 44
0.0000000001
 40
0.0
 40
0.0
 40
0.0
 40
0.0
 40
0.1251782099
 40
0.2567327081
 40
0.3242614323
 40
0.392440447
 40
0.4606949848
 40
0.5284383194
 40
0.595064174
 40
0.660008414
 40
0.722859174
 40
0.7832805786
 40
0.8964662837
 40
1.0
 40
1.0
 40
1.0
 40
1.0
 10
5.4571604544
 20
2.0125961241
 30
0.0
 10
5.4582827903
 20
2.0144324218
 30
0.0
 10
5.4603474028
 20
2.0183487086
 30
0.0
 10
5.4622989242
 20
2.0235890519
 30
0.0
 10
5.4634626491
 20
2.0280373941
 30
0.0
 10
5.4641101003
 20
2.0314868107
 30
0.0
 10
5.4645095525
 20
2.0349774827
 30
0.0
 10
5.464643953
 20
2.0384618422
 30
0.0
 10
5.4645139908
 20
2.041889615
 30
0.0
 10
5.4641184669
 20
2.0452123506
 30
0.0
 10
5.4634741229
 20
2.0483875222
 30
0.0
 10
5.4623278829
 20
2.0522920575
 30
0.0
 10
5.4604036291
 20
2.056679348
 30
0.0
 10
5.458297672
 20
2.0597828844
 30
0.0
 10
5.4571604544
 20
2.0611522399
 30
0.0
  0
SPLINE
  5
49A
100
AcDbEntity
  8
ALL_ASSEMBLY_MEMBERS
100
AcDbSpline
 62
7
  6
CONTINUOUS
 70
0
 71
3
 72
21
 73
17
 74
0
 42
0.0000001
 43
0.0000001
 44
0.0000000001
 40
0.0
 40
0.0
 40
0.0
 40
0.0
 40
0.054814234
 40
0.1109302619
 40
0.1684595129
 40
0.2275041368
 40
0.2881186851
 40
0.3503297929
 40
0.4139656791
 40
0.4788109213
 40
0.5445283542
 40
0.6107395314
 40
0.6770697484
 40
0.7431287191
 40
0.8733805037
 40
1.0
 40
1.0
 40
1.0
 40
1.0
 10
5.4571604544
 20
2.0611522399
 30
0.0
 10
5.4564750817
 20
2.0604654575
 30
0.0
 10
5.4551516013
 20
2.059010464
 30
0.0
 10
5.4533589184
 20
2.0566221619
 30
0.0
 10
5.4517679018
 20
2.0540062165
 30
0.0
 10
5.4504094632
 20
2.0511735267
 30
0.0
 10
5.4493129077
 20
2.0481409364
 30
0.0
 10
5.4485083847
 20
2.0449342674
 30
0.0
 10
5.4480141666
 20
2.0415895822
 30
0.0
 10
5.4478513969
 20
2.0381504943
 30
0.0
 10
5.4480186022
 20
2.0346662027
 30
0.0
 10
5.4485164567
 20
2.0311873733
 30
0.0
 10
5.4493235652
 20
2.027761084
 30
0.0
 10
5.4507794204
 20
2.023340781
 30
0.0
 10
5.4532320813
 20
2.0181493779
 30
0.0
 10
5.4557814617
 20
2.0143629588
 30
0.0
 10
5.4571604544
 20
2.0125961241
 30
0.0
  0
SPLINE
  5
49B
100
AcDbEntity
  8
ALL_ASSEMBLY_MEMBERS
100
AcDbSpline
 62
7
  6
CONTINUOUS
 70
0
 71
3
 72
19
 73
15
 74
0
 42
0.0000001
 43
0.0000001
 44
0.0000000001
 40
0.0
 40
0.0
 40
0.0
 40
0.0
 40
0.1257225831
 40
0.2568676469
 40
0.3239079196
 40
0.3914660403
 40
0.459029501
 40
0.5260829349
 40
0.5920970752
 40
0.6565851842
 40
0.7192036908
 40
0.7796754602
 40
0.8939492003
 40
1.0
 40
1.0
 40
1.0
 40
1.0
 10
5.4810344451
 20
2.0128958353
 30
0.0
 10
5.4822492705
 20
2.0147094865
 30
0.0
 10
5.4844882576
 20
2.018584034
 30
0.0
 10
5.4866175095
 20
2.0238109118
 30
0.0
 10
5.4878851218
 20
2.0282513456
 30
0.0
 10
5.4885895122
 20
2.0316937296
 30
0.0
 10
5.4890240648
 20
2.03518085
 30
0.0
 10
5.4891701969
 20
2.0386653082
 30
0.0
 10
5.4890285929
 20
2.042096729
 30
0.0
 10
5.4885979703
 20
2.0454264097
 30
0.0
 10
5.4878965022
 20
2.0486116072
 30
0.0
 10
5.4866455588
 20
2.0525434608
 30
0.0
 10
5.4845389474
 20
2.056972944
 30
0.0
 10
5.4822610372
 20
2.0600786088
 30
0.0
 10
5.4810344451
 20
2.0614519511
 30
0.0
  0
SPLINE
  5
49C
100
AcDbEntity
  8
ALL_ASSEMBLY_MEMBERS
100
AcDbSpline
 62
7
  6
CONTINUOUS
 70
0
 71
3
 72
21
 73
17
 74
0
 42
0.0000001
 43
0.0000001
 44
0.0000000001
 40
0.0
 40
0.0
 40
0.0
 40
0.0
 40
0.0534928925
 40
0.1085857706
 40
0.1654070472
 40
0.2240605969
 40
0.2845863877
 40
0.3469797033
 40
0.4110184641
 40
0.4764250294
 40
0.5427888291
 40
0.6096570345
 40
0.6765853817
 40
0.7431232137
 40
0.8738127591
 40
1.0
 40
1.0
 40
1.0
 40
1.0
 10
5.4810344451
 20
2.0614519511
 30
0.0
 10
5.4803887176
 20
2.0607715059
 30
0.0
 10
5.4791420412
 20
2.059327852
 30
0.0
 10
5.477458538
 20
2.0569606307
 30
0.0
 10
5.4759647857
 20
2.054363741
 30
0.0
 10
5.4746896907
 20
2.051547787
 30
0.0
 10
5.4736606436
 20
2.048529265
 30
0.0
 10
5.4729058283
 20
2.0453336955
 30
0.0
 10
5.4724422482
 20
2.0419966427
 30
0.0
 10
5.4722897058
 20
2.0385614479
 30
0.0
 10
5.4724467809
 20
2.0350770001
 30
0.0
 10
5.4729141642
 20
2.0315938238
 30
0.0
 10
5.4736718207
 20
2.0281591491
 30
0.0
 10
5.4750369164
 20
2.0237280305
 30
0.0
 10
5.4773334401
 20
2.0185174405
 30
0.0
 10
5.479734067
 20
2.0146862962
 30
0.0
 10
5.4810344451
 20
2.0128958353
 30
0.0
  0
SPLINE
  5
49D
100
AcDbEntity
  8
ALL_ASSEMBLY_MEMBERS
100
AcDbSpline
 62
7
  6
CONTINUOUS
 70
0
 71
3
 72
23
 73
19
 74
0
 42
0.0000001
 43
0.0000001
 44
0.0000000001
 40
0.0
 40
0.0
 40
0.0
 40
0.0
 40
0.0625712421
 40
0.1251358029
 40
0.1876277175
 40
0.250027343
 40
0.3123402126
 40
0.374634822
 40
0.4369008385
 40
0.499178861
 40
0.5614927163
 40
0.623863918
 40
0.6863249176
 40
0.748854366
 40
0.8115079963
 40
0.874278548
 40
0.937134614
 40
1.0
 40
1.0
 40
1.0
 40
1.0
 10
5.7209732616
 20
2.0457138998
 30
0.0
 10
5.7218428779
 20
2.0449439276
 30
0.0
 10
5.7235212192
 20
2.0433335176
 30
0.0
 10
5.7258206453
 20
2.0407115617
 30
0.0
 10
5.727863556
 20
2.037887798
 30
0.0
 10
5.7296101681
 20
2.0348763528
 30
0.0
 10
5.7310224212
 20
2.0316973237
 30
0.0
 10
5.7320608579
 20
2.0283792655
 30
0.0
 10
5.7327005509
 20
2.0249618033
 30
0.0
 10
5.7329133716
 20
2.0214908701
 30
0.0
 10
5.732700307
 20
2.0180180125
 30
0.0
 10
5.7320604364
 20
2.0145948232
 30
0.0
 10
5.7310219182
 20
2.0112673653
 30
0.0
 10
5.7296096906
 20
2.0080754748
 30
0.0
 10
5.7278631833
 20
2.0050479922
 30
0.0
 10
5.7258204255
 20
2.0022053498
 30
0.0
 10
5.723521166
 20
1.9995620309
 30
0.0
 10
5.721842903
 20
1.9979359404
 30
0.0
 10
5.7209732616
 20
1.997157784
 30
0.0
  0
SPLINE
  5
49E
100
AcDbEntity
  8
ALL_ASSEMBLY_MEMBERS
100
AcDbSpline
 62
7
  6
CONTINUOUS
 70
0
 71
3
 72
13
 73
9
 74
0
 42
0.0000001
 43
0.0000001
 44
0.0000000001
 40
0.0
 40
0.0
 40
0.0
 40
0.0
 40
0.2553475447
 40
0.5424320349
 40
0.6809629021
 40
0.8060119637
 40
0.9129466654
 40
1.0
 40
1.0
 40
1.0
 40
1.0
 10
5.7209732616
 20
1.997157784
 30
0.0
 10
5.7208682885
 20
2.0012898435
 30
0.0
 10
5.720709525
 20
2.0100691907
 30
0.0
 10
5.7206377916
 20
2.0210922088
 30
0.0
 10
5.7206661303
 20
2.0300060069
 30
0.0
 10
5.7207289367
 20
2.0360033847
 30
0.0
 10
5.7208271598
 20
2.0411668689
 30
0.0
 10
5.7209201471
 20
2.0443057409
 30
0.0
 10
5.7209732616
 20
2.0457138998
 30
0.0
  0
SPLINE
  5
49F
100
AcDbEntity
  8
ALL_ASSEMBLY_MEMBERS
100
AcDbSpline
 62
7
  6
CONTINUOUS
 70
0
 71
3
 72
23
 73
19
 74
0
 42
0.0000001
 43
0.0000001
 44
0.0000000001
 40
0.0
 40
0.0
 40
0.0
 40
0.0
 40
0.0629528037
 40
0.1258988167
 40
0.1887586185
 40
0.2514968803
 40
0.314101849
 40
0.376624504
 40
0.4390390033
 40
0.5013740289
 40
0.5636491059
 40
0.6258876289
 40
0.6881318984
 40
0.7503744916
 40
0.812687735
 40
0.8750812742
 40
0.9375394641
 40
1.0
 40
1.0
 40
1.0
 40
1.0
 10
5.7377441766
 20
2.0427482105
 30
0.0
 10
5.7386132775
 20
2.041967281
 30
0.0
 10
5.7402904553
 20
2.040335867
 30
0.0
 10
5.7425881462
 20
2.0376853521
 30
0.0
 10
5.7446295036
 20
2.0348363528
 30
0.0
 10
5.7463748173
 20
2.0318034747
 30
0.0
 10
5.7477860941
 20
2.028607265
 30
0.0
 10
5.7488239425
 20
2.0252766637
 30
0.0
 10
5.7494634408
 20
2.021851575
 30
0.0
 10
5.7496764431
 20
2.0183781042
 30
0.0
 10
5.7494638488
 20
2.0149078524
 30
0.0
 10
5.7488246472
 20
2.0114923442
 30
0.0
 10
5.7477869357
 20
2.0081774662
 30
0.0
 10
5.7463756165
 20
2.0050027707
 30
0.0
 10
5.7446301282
 20
2.001996719
 30
0.0
 10
5.742588515
 20
1.9991792987
 30
0.0
 10
5.7402905454
 20
1.9965645184
 30
0.0
 10
5.7386132359
 20
1.994959334
 30
0.0
 10
5.7377441766
 20
1.9941920947
 30
0.0
  0
SPLINE
  5
4A0
100
AcDbEntity
  8
ALL_ASSEMBLY_MEMBERS
100
AcDbSpline
 62
7
  6
CONTINUOUS
 70
0
 71
3
 72
63
 73
59
 74
0
 42
0.0000001
 43
0.0000001
 44
0.0000000001
 40
0.0
 40
0.0
 40
0.0
 40
0.0
 40
0.0020522737
 40
0.0041447363
 40
0.0063140637
 40
0.0085930151
 40
0.0110097022
 40
0.0135875555
 40
0.0192955448
 40
0.0258311706
 40
0.0332602813
 40
0.0416221921
 40
0.0509355404
 40
0.0612048843
 40
0.0724274468
 40
0.084592605
 40
0.0976823194
 40
0.1116757653
 40
0.1265483851
 40
0.1422699191
 40
0.1588084504
 40
0.1761302541
 40
0.1941969352
 40
0.2324035523
 40
0.2730881319
 40
0.3158805133
 40
0.360386262
 40
0.4061939727
 40
0.4528769454
 40
0.5
 40
0.5471230546
 40
0.5938060273
 40
0.639613738
 40
0.6841194867
 40
0.7269118681
 40
0.7675964477
 40
0.8058030648
 40
0.8238697459
 40
0.8411915496
 40
0.8577300809
 40
0.8734516149
 40
0.8883242347
 40
0.9023176806
 40
0.915407395
 40
0.9275725532
 40
0.9387951157
 40
0.9490644596
 40
0.9583778079
 40
0.9667397187
 40
0.9741688294
 40
0.9807044552
 40
0.9864124445
 40
0.9889902978
 40
0.9914069849
 40
0.9936859363
 40
0.9958552637
 40
0.9979477263
 40
1.0
 40
1.0
 40
1.0
 40
1.0
 10
5.2949852484
 20
1.6226541308
 30
0.0
 10
5.2949852484
 20
1.6223723813
 30
0.0
 10
5.2950260256
 20
1.6218025751
 30
0.0
 10
5.2952083113
 20
1.6209525209
 30
0.0
 10
5.2955110265
 20
1.6201045549
 30
0.0
 10
5.2959332038
 20
1.619259664
 30
0.0
 10
5.2964739927
 20
1.6184181755
 30
0.0
 10
5.2973835813
 20
1.6172618834
 30
0.0
 10
5.298842096
 20
1.615831239
 30
0.0
 10
5.3009944775
 20
1.6141919909
 30
0.0
 10
5.3036024556
 20
1.6125743766
 30
0.0
 10
5.3066615154
 20
1.6109813868
 30
0.0
 10
5.3101659155
 20
1.6094156495
 30
0.0
 10
5.3141080924
 20
1.6078805341
 30
0.0
 10
5.3184795049
 20
1.6063801437
 30
0.0
 10
5.3232701078
 20
1.6049182269
 30
0.0
 10
5.3284685364
 20
1.6034980081
 30
0.0
 10
5.3340625996
 20
1.6021232146
 30
0.0
 10
5.3400390537
 20
1.6007974283
 30
0.0
 10
5.346383506
 20
1.599523559
 30
0.0
 10
5.3530807835
 20
1.5983048419
 30
0.0
 10
5.3601149066
 20
1.5971445171
 30
0.0
 10
5.3701078134
 20
1.5956507569
 30
0.0
 10
5.3833129939
 20
1.5939623092
 30
0.0
 10
5.3999312024
 20
1.5922433007
 30
0.0
 10
5.4174444745
 20
1.5908131854
 30
0.0
 10
5.4356843984
 20
1.5896856846
 30
0.0
 10
5.4544755929
 20
1.5888724095
 30
0.0
 10
5.473637345
 20
1.5883812166
 30
0.0
 10
5.4929852484
 20
1.5882168225
 30
0.0
 10
5.5123331519
 20
1.5883812166
 30
0.0
 10
5.531494904
 20
1.5888724095
 30
0.0
 10
5.5502860985
 20
1.5896856846
 30
0.0
 10
5.5685260224
 20
1.5908131854
 30
0.0
 10
5.5860392945
 20
1.5922433007
 30
0.0
 10
5.602657503
 20
1.5939623092
 30
0.0
 10
5.6158626835
 20
1.5956507569
 30
0.0
 10
5.6258555903
 20
1.5971445171
 30
0.0
 10
5.6328897134
 20
1.5983048419
 30
0.0
 10
5.6395869909
 20
1.599523559
 30
0.0
 10
5.6459314432
 20
1.6007974283
 30
0.0
 10
5.6519078973
 20
1.6021232146
 30
0.0
 10
5.6575019605
 20
1.6034980081
 30
0.0
 10
5.6627003891
 20
1.6049182269
 30
0.0
 10
5.667490992
 20
1.6063801437
 30
0.0
 10
5.6718624045
 20
1.6078805341
 30
0.0
 10
5.6758045814
 20
1.6094156495
 30
0.0
 10
5.6793089815
 20
1.6109813868
 30
0.0
 10
5.6823680413
 20
1.6125743766
 30
0.0
 10
5.6849760194
 20
1.6141919909
 30
0.0
 10
5.6871284009
 20
1.615831239
 30
0.0
 10
5.6885869156
 20
1.6172618834
 30
0.0
 10
5.6894965042
 20
1.6184181755
 30
0.0
 10
5.6900372931
 20
1.619259664
 30
0.0
 10
5.6904594704
 20
1.6201045549
 30
0.0
 10
5.6907621856
 20
1.6209525209
 30
0.0
 10
5.6909444713
 20
1.6218025751
 30
0.0
 10
5.6909852484
 20
1.6223723813
 30
0.0
 10
5.6909852484
 20
1.6226541308
 30
0.0
  0
SPLINE
  5
4A1
100
AcDbEntity
  8
ALL_ASSEMBLY_MEMBERS
100
AcDbSpline
 62
7
  6
CONTINUOUS
 70
0
 71
3
 72
23
 73
19
 74
0
 42
0.0000001
 43
0.0000001
 44
0.0000000001
 40
0.0
 40
0.0
 40
0.0
 40
0.0
 40
0.063243504
 40
0.1265070439
 40
0.1896994062
 40
0.2527698638
 40
0.3156879128
 40
0.3784834557
 40
0.441108996
 40
0.5035732201
 40
0.5658818116
 40
0.6280504185
 40
0.690122885
 40
0.7520992952
 40
0.8140647822
 40
0.8760443089
 40
0.9380382697
 40
1.0
 40
1.0
 40
1.0
 40
1.0
 10
5.7532389893
 20
2.0395801083
 30
0.0
 10
5.7541032172
 20
2.0387880962
 30
0.0
 10
5.7557708254
 20
2.037135359
 30
0.0
 10
5.7580547838
 20
2.0344563024
 30
0.0
 10
5.7600838913
 20
2.0315820998
 30
0.0
 10
5.7618187198
 20
2.028527853
 30
0.0
 10
5.7632215499
 20
2.0253145754
 30
0.0
 10
5.76425328
 20
2.0219716146
 30
0.0
 10
5.7648891576
 20
2.0185391374
 30
0.0
 10
5.7651011927
 20
2.0150634051
 30
0.0
 10
5.7648902091
 20
2.0115960215
 30
0.0
 10
5.7642550995
 20
2.0081883896
 30
0.0
 10
5.7632237286
 20
2.0048862004
 30
0.0
 10
5.7618207973
 20
2.0017287031
 30
0.0
 10
5.7600855251
 20
1.9987440043
 30
0.0
 10
5.7580557612
 20
1.9959516672
 30
0.0
 10
5.7557710833
 20
1.9933652481
 30
0.0
 10
5.7541031175
 20
1.9917805097
 30
0.0
 10
5.7532389893
 20
1.9910239925
 30
0.0
  0
SPLINE
  5
4A2
100
AcDbEntity
  8
ALL_ASSEMBLY_MEMBERS
100
AcDbSpline
 62
7
  6
CONTINUOUS
 70
0
 71
3
 72
40
 73
36
 74
0
 42
0.0000001
 43
0.0000001
 44
0.0000000001
 40
0.0
 40
0.0
 40
0.0
 40
0.0
 40
0.0942303301
 40
0.1876095392
 40
0.27921696
 40
0.368227224
 40
0.4538110296
 40
0.5351791921
 40
0.5740494197
 40
0.6115933782
 40
0.6477259928
 40
0.6823679229
 40
0.7154458514
 40
0.746888358
 40
0.7766318011
 40
0.8046196292
 40
0.8307988334
 40
0.8551274453
 40
0.8775732133
 40
0.8981118613
 40
0.9167372145
 40
0.9253366239
 40
0.9334640118
 40
0.9411245125
 40
0.9483262598
 40
0.9550805218
 40
0.9614017529
 40
0.9673084301
 40
0.9728241088
 40
0.9779788053
 40
0.9828109257
 40
0.9873678308
 40
0.9917062947
 40
0.9958923975
 40
1.0
 40
1.0
 40
1.0
 40
1.0
 10
5.4929852484
 20
1.6944447392
 30
0.0
 10
5.5027858749
 20
1.6944447392
 30
0.0
 10
5.5222990174
 20
1.6942788909
 30
0.0
 10
5.5513314295
 20
1.6935348913
 30
0.0
 10
5.5798039518
 20
1.6923024535
 30
0.0
 10
5.607439765
 20
1.6905943638
 30
0.0
 10
5.6339751063
 20
1.6884272022
 30
0.0
 10
5.6552706002
 20
1.6862249339
 30
0.0
 10
5.6715605176
 20
1.6842361439
 30
0.0
 10
5.6831609132
 20
1.6826670772
 30
0.0
 10
5.6943033895
 20
1.6810013921
 30
0.0
 10
5.7049611642
 20
1.6792430729
 30
0.0
 10
5.7151086782
 20
1.6773968006
 30
0.0
 10
5.7247215459
 20
1.6754667303
 30
0.0
 10
5.7337767541
 20
1.6734576402
 30
0.0
 10
5.7422527344
 20
1.6713748631
 30
0.0
 10
5.7501292364
 20
1.669223069
 30
0.0
 10
5.7573876323
 20
1.667007708
 30
0.0
 10
5.7640111593
 20
1.6647346774
 30
0.0
 10
5.7699841227
 20
1.6624088876
 30
0.0
 10
5.7745222877
 20
1.6603812612
 30
0.0
 10
5.7778068045
 20
1.6587272847
 30
0.0
 10
5.7800328157
 20
1.6575102176
 30
0.0
 10
5.782086284
 20
1.6562839878
 30
0.0
 10
5.7839660808
 20
1.6550492505
 30
0.0
 10
5.7856713237
 20
1.653806718
 30
0.0
 10
5.7872011763
 20
1.6525569764
 30
0.0
 10
5.7885547889
 20
1.65130054
 30
0.0
 10
5.789731288
 20
1.650037823
 30
0.0
 10
5.7907296733
 20
1.6487690313
 30
0.0
 10
5.7915491482
 20
1.6474945006
 30
0.0
 10
5.7921888102
 20
1.6462145986
 30
0.0
 10
5.7926474213
 20
1.6449297504
 30
0.0
 10
5.7929235312
 20
1.643641309
 30
0.0
 10
5.7929852485
 20
1.6427775059
 30
0.0
 10
5.7929852484
 20
1.6423502859
 30
0.0
  0
SPLINE
  5
4A3
100
AcDbEntity
  8
ALL_ASSEMBLY_MEMBERS
100
AcDbSpline
 62
7
  6
CONTINUOUS
 70
0
 71
3
 72
23
 73
19
 74
0
 42
0.0000001
 43
0.0000001
 44
0.0000000001
 40
0.0
 40
0.0
 40
0.0
 40
0.0
 40
0.0634461667
 40
0.1269656267
 40
0.1904568881
 40
0.2538540349
 40
0.3171063727
 40
0.3802193073
 40
0.4431177852
 40
0.5057826909
 40
0.5681965377
 40
0.6303576733
 40
0.6923030953
 40
0.7540337813
 40
0.8156436588
 40
0.8771712338
 40
0.9386331114
 40
1.0
 40
1.0
 40
1.0
 40
1.0
 10
5.7673769144
 20
2.0362261106
 30
0.0
 10
5.7682319277
 20
2.0354229445
 30
0.0
 10
5.7698815899
 20
2.0337486746
 30
0.0
 10
5.7721398898
 20
2.031041251
 30
0.0
 10
5.7741461188
 20
2.0281420178
 30
0.0
 10
5.7758613379
 20
2.0250665838
 30
0.0
 10
5.7772483047
 20
2.0218364412
 30
0.0
 10
5.7782684267
 20
2.0184813643
 30
0.0
 10
5.7788972796
 20
2.0150417672
 30
0.0
 10
5.7791072007
 20
2.0115640541
 30
0.0
 10
5.778898953
 20
2.0080997843
 30
0.0
 10
5.7782713314
 20
2.0047001867
 30
0.0
 10
5.777251801
 20
2.0014107356
 30
0.0
 10
5.7758646973
 20
1.9982703562
 30
0.0
 10
5.7741487916
 20
1.9953068235
 30
0.0
 10
5.7721415271
 20
1.9925392986
 30
0.0
 10
5.7698820786
 20
1.9899809111
 30
0.0
 10
5.7682317922
 20
1.988416043
 30
0.0
 10
5.7673769144
 20
1.9876699948
 30
0.0
  0
SPLINE
  5
4A4
100
AcDbEntity
  8
ALL_ASSEMBLY_MEMBERS
100
AcDbSpline
 62
7
  6
CONTINUOUS
 70
0
 71
3
 72
40
 73
36
 74
0
 42
0.0000001
 43
0.0000001
 44
0.0000000001
 40
0.0
 40
0.0
 40
0.0
 40
0.0
 40
0.0041076025
 40
0.0082937052
 40
0.012632169
 40
0.017189074
 40
0.0220211943
 40
0.0271758909
 40
0.0326915696
 40
0.0385982467
 40
0.0449194775
 40
0.0516737393
 40
0.0588754865
 40
0.0665359873
 40
0.0746633751
 40
0.0832627843
 40
0.1018881368
 40
0.1224267848
 40
0.1448725523
 40
0.1692011634
 40
0.1953803675
 40
0.223368195
 40
0.2531116374
 40
0.2845541437
 40
0.3176320715
 40
0.3522740008
 40
0.3884066149
 40
0.4259505725
 40
0.464820799
 40
0.5461889602
 40
0.6317727657
 40
0.7207830297
 40
0.8123904528
 40
0.9057696678
 40
1.0
 40
1.0
 40
1.0
 40
1.0
 10
5.1929852484
 20
1.6423502859
 30
0.0
 10
5.1929852485
 20
1.6427775059
 30
0.0
 10
5.1930469658
 20
1.643641309
 30
0.0
 10
5.1933230757
 20
1.6449297503
 30
0.0
 10
5.1937816867
 20
1.6462145986
 30
0.0
 10
5.1944213486
 20
1.6474945006
 30
0.0
 10
5.1952408235
 20
1.6487690312
 30
0.0
 10
5.1962392089
 20
1.6500378229
 30
0.0
 10
5.197415708
 20
1.6513005399
 30
0.0
 10
5.1987693206
 20
1.6525569763
 30
0.0
 10
5.200299173
 20
1.6538067179
 30
0.0
 10
5.2020044159
 20
1.6550492504
 30
0.0
 10
5.2038842127
 20
1.6562839877
 30
0.0
 10
5.205937681
 20
1.6575102174
 30
0.0
 10
5.2081636922
 20
1.6587272845
 30
0.0
 10
5.2114482088
 20
1.660381261
 30
0.0
 10
5.2159863737
 20
1.6624088874
 30
0.0
 10
5.221959337
 20
1.6647346772
 30
0.0
 10
5.2285828639
 20
1.6670077078
 30
0.0
 10
5.2358412596
 20
1.6692230688
 30
0.0
 10
5.2437177614
 20
1.6713748628
 30
0.0
 10
5.2521937416
 20
1.6734576399
 30
0.0
 10
5.2612489496
 20
1.6754667301
 30
0.0
 10
5.2708618171
 20
1.6773968003
 30
0.0
 10
5.281009331
 20
1.6792430726
 30
0.0
 10
5.2916671055
 20
1.6810013918
 30
0.0
 10
5.3028095815
 20
1.6826670768
 30
0.0
 10
5.3144099768
 20
1.6842361436
 30
0.0
 10
5.3306998939
 20
1.6862249336
 30
0.0
 10
5.3519953875
 20
1.688427202
 30
0.0
 10
5.3785307287
 20
1.6905943635
 30
0.0
 10
5.4061665421
 20
1.6923024534
 30
0.0
 10
5.4346390652
 20
1.6935348912
 30
0.0
 10
5.4636714785
 20
1.6942788909
 30
0.0
 10
5.4831846217
 20
1.6944447392
 30
0.0
 10
5.4929852484
 20
1.6944447392
 30
0.0
  0
SPLINE
  5
4A5
100
AcDbEntity
  8
ALL_ASSEMBLY_MEMBERS
100
AcDbSpline
 62
7
  6
CONTINUOUS
 70
0
 71
3
 72
23
 73
19
 74
0
 42
0.0000001
 43
0.0000001
 44
0.0000000001
 40
0.0
 40
0.0
 40
0.0
 40
0.0
 40
0.0324175164
 40
0.0661063154
 40
0.1021958563
 40
0.1416022774
 40
0.1850185802
 40
0.2329408655
 40
0.2857213346
 40
0.3436079695
 40
0.4067612795
 40
0.4752774757
 40
0.5492131815
 40
0.628593148
 40
0.7134038982
 40
0.8036100978
 40
0.8991638047
 40
1.0
 40
1.0
 40
1.0
 40
1.0
 10
5.1929852484
 20
1.9402546312
 30
0.0
 10
5.1929852484
 20
1.940873323
 30
0.0
 10
5.1931171239
 20
1.9421384469
 30
0.0
 10
5.1937022803
 20
1.9440105229
 30
0.0
 10
5.1946680137
 20
1.9458676072
 30
0.0
 10
5.1960078968
 20
1.9477078876
 30
0.0
 10
5.1977177149
 20
1.9495323764
 30
0.0
 10
5.1997943906
 20
1.9513417243
 30
0.0
 10
5.2022358271
 20
1.9531354824
 30
0.0
 10
5.2050398747
 20
1.9549122015
 30
0.0
 10
5.208203528
 20
1.9566703604
 30
0.0
 10
5.2117231693
 20
1.9584082191
 30
0.0
 10
5.2155948885
 20
1.9601236628
 30
0.0
 10
5.2198142756
 20
1.9618143712
 30
0.0
 10
5.2243761237
 20
1.9634784521
 30
0.0
 10
5.2292748042
 20
1.9651138424
 30
0.0
 10
5.234504386
 20
1.9667183477
 30
0.0
 10
5.2381112327
 20
1.9677388631
 30
0.0
 10
5.239967968
 20
1.9682449436
 30
0.0
  0
SPLINE
  5
4A6
100
AcDbEntity
  8
ALL_ASSEMBLY_MEMBERS
100
AcDbSpline
 62
7
  6
CONTINUOUS
 70
0
 71
3
 72
18
 73
14
 74
0
 42
0.0000001
 43
0.0000001
 44
0.0000000001
 40
0.0
 40
0.0
 40
0.0
 40
0.0
 40
0.0484947575
 40
0.0995753979
 40
0.1531110414
 40
0.2089623397
 40
0.2669833569
 40
0.3270171775
 40
0.4524723748
 40
0.5839692291
 40
0.7200563647
 40
0.8592582586
 40
1.0
 40
1.0
 40
1.0
 40
1.0
 10
5.2665451405
 20
1.9744261659
 30
0.0
 10
5.2701508692
 20
1.9751466419
 30
0.0
 10
5.2775704397
 20
1.9765475026
 30
0.0
 10
5.2890166939
 20
1.9784896569
 30
0.0
 10
5.3010453246
 20
1.980323531
 30
0.0
 10
5.3136220029
 20
1.9820437808
 30
0.0
 10
5.3267108593
 20
1.9836452076
 30
0.0
 10
5.3450662203
 20
1.985645569
 30
0.0
 10
5.3690066147
 20
1.9878004895
 30
0.0
 10
5.398741844
 20
1.9898155103
 30
0.0
 10
5.4295531143
 20
1.9912721795
 30
0.0
 10
5.4610871976
 20
1.992152857
 30
0.0
 10
5.4823138255
 20
1.9923490845
 30
0.0
 10
5.4929852484
 20
1.9923490845
 30
0.0
  0
SPLINE
  5
4A7
100
AcDbEntity
  8
ALL_ASSEMBLY_MEMBERS
100
AcDbSpline
 62
7
  6
CONTINUOUS
 70
0
 71
3
 72
71
 73
67
 74
0
 42
0.0000001
 43
0.0000001
 44
0.0000000001
 40
0.0
 40
0.0
 40
0.0
 40
0.0
 40
0.0471152644
 40
0.0938049523
 40
0.1396087701
 40
0.184114024
 40
0.2269060342
 40
0.2675902128
 40
0.287025376
 40
0.305797404
 40
0.3238637571
 40
0.3411847658
 40
0.3577237714
 40
0.3734450637
 40
0.3883168231
 40
0.4023107728
 40
0.4154004078
 40
0.4275647447
 40
0.438787657
 40
0.4490570068
 40
0.458369707
 40
0.4667319223
 40
0.4705621822
 40
0.474163065
 40
0.4775402045
 40
0.480700828
 40
0.4836541741
 40
0.4864120203
 40
0.488989375
 40
0.4914054412
 40
0.4936838994
 40
0.4958531368
 40
0.4979461933
 40
0.4999999997
 40
0.502053806
 40
0.5041468625
 40
0.5063160998
 40
0.508594558
 40
0.5110106241
 40
0.5135879788
 40
0.516345825
 40
0.519299171
 40
0.5224597944
 40
0.5258369338
 40
0.5294378165
 40
0.5332680764
 40
0.5416302915
 40
0.5509429915
 40
0.5612123412
 40
0.5724352534
 40
0.58459959
 40
0.597689225
 40
0.6116831746
 40
0.6265549338
 40
0.642276226
 40
0.6588152313
 40
0.6761362398
 40
0.6942025929
 40
0.7129746208
 40
0.7324097839
 40
0.7730939618
 40
0.8158859724
 40
0.8603912281
 40
0.9061950469
 40
0.9528847354
 40
1.0
 40
1.0
 40
1.0
 40
1.0
 10
5.4929852484
 20
1.6712756206
 30
0.0
 10
5.5021324971
 20
1.6712756206
 30
0.0
 10
5.520344755
 20
1.6711208357
 30
0.0
 10
5.547441664
 20
1.6704264335
 30
0.0
 10
5.5740160143
 20
1.6692761483
 30
0.0
 10
5.5998094434
 20
1.6676819384
 30
0.0
 10
5.6245757657
 20
1.6656592556
 30
0.0
 10
5.644451561
 20
1.6636038028
 30
0.0
 10
5.659655485
 20
1.6617475992
 30
0.0
 10
5.6704825225
 20
1.6602831375
 30
0.0
 10
5.6808821686
 20
1.6587284982
 30
0.0
 10
5.6908294262
 20
1.6570874003
 30
0.0
 10
5.7003004401
 20
1.6553642128
 30
0.0
 10
5.709272451
 20
1.6535628136
 30
0.0
 10
5.717723979
 20
1.6516876629
 30
0.0
 10
5.7256348971
 20
1.6497437379
 30
0.0
 10
5.7329862933
 20
1.6477353959
 30
0.0
 10
5.7397608189
 20
1.6456677279
 30
0.0
 10
5.7459427057
 20
1.643546225
 30
0.0
 10
5.7515177093
 20
1.6413755126
 30
0.0
 10
5.7564730827
 20
1.639161058
 30
0.0
 10
5.7601795651
 20
1.6372312366
 30
0.0
 10
5.7628128867
 20
1.6356589444
 30
0.0
 10
5.7645673555
 20
1.6345064928
 30
0.0
 10
5.7661589179
 20
1.6333468031
 30
0.0
 10
5.76758678
 20
1.6321803758
 30
0.0
 10
5.7688501521
 20
1.631007702
 30
0.0
 10
5.7699482181
 20
1.6298291664
 30
0.0
 10
5.7708800446
 20
1.6286449594
 30
0.0
 10
5.7716448879
 20
1.627455402
 30
0.0
 10
5.7722419058
 20
1.626260811
 30
0.0
 10
5.7726699429
 20
1.6250616739
 30
0.0
 10
5.7729276456
 20
1.6238589346
 30
0.0
 10
5.7730137772
 20
1.6226541311
 30
0.0
 10
5.7729276456
 20
1.6214493276
 30
0.0
 10
5.772669943
 20
1.6202465883
 30
0.0
 10
5.772241906
 20
1.6190474512
 30
0.0
 10
5.7716448882
 20
1.6178528602
 30
0.0
 10
5.7708800449
 20
1.6166633028
 30
0.0
 10
5.7699482184
 20
1.6154790958
 30
0.0
 10
5.7688501525
 20
1.6143005602
 30
0.0
 10
5.7675867804
 20
1.6131278864
 30
0.0
 10
5.7661589184
 20
1.6119614591
 30
0.0
 10
5.7645673561
 20
1.6108017694
 30
0.0
 10
5.7628128873
 20
1.6096493178
 30
0.0
 10
5.7601795658
 20
1.6080770257
 30
0.0
 10
5.7564730834
 20
1.6061472042
 30
0.0
 10
5.7515177102
 20
1.6039327495
 30
0.0
 10
5.7459427066
 20
1.6017620372
 30
0.0
 10
5.73976082
 20
1.5996405342
 30
0.0
 10
5.7329862944
 20
1.5975728663
 30
0.0
 10
5.7256348983
 20
1.5955645243
 30
0.0
 10
5.7177239804
 20
1.5936205993
 30
0.0
 10
5.7092724524
 20
1.5917454485
 30
0.0
 10
5.7003004416
 20
1.5899440494
 30
0.0
 10
5.6908294278
 20
1.5882208618
 30
0.0
 10
5.6808821703
 20
1.5865797639
 30
0.0
 10
5.6704825243
 20
1.5850251246
 30
0.0
 10
5.6596554868
 20
1.583560663
 30
0.0
 10
5.644451563
 20
1.5817044594
 30
0.0
 10
5.6245757678
 20
1.5796490063
 30
0.0
 10
5.5998094452
 20
1.5776263236
 30
0.0
 10
5.5740160154
 20
1.5760321142
 30
0.0
 10
5.5474416646
 20
1.574881828
 30
0.0
 10
5.5203447552
 20
1.5741874254
 30
0.0
 10
5.5021324971
 20
1.5740326411
 30
0.0
 10
5.4929852484
 20
1.5740326411
 30
0.0
  0
SPLINE
  5
4A8
100
AcDbEntity
  8
ALL_ASSEMBLY_MEMBERS
100
AcDbSpline
 62
7
  6
CONTINUOUS
 70
0
 71
3
 72
41
 73
37
 74
0
 42
0.0000001
 43
0.0000001
 44
0.0000000001
 40
0.0
 40
0.0
 40
0.0
 40
0.0
 40
0.0939526954
 40
0.1870641725
 40
0.278422661
 40
0.3672118797
 40
0.4526114266
 40
0.5338397717
 40
0.572658927
 40
0.6101654542
 40
0.6462751092
 40
0.6809089084
 40
0.7139941845
 40
0.7454600881
 40
0.775242932
 40
0.8032865308
 40
0.8295380128
 40
0.8539547567
 40
0.8765043087
 40
0.8971616275
 40
0.9067781781
 40
0.9159203172
 40
0.9245898471
 40
0.932789827
 40
0.9405249106
 40
0.9478024251
 40
0.9546328995
 40
0.9610298808
 40
0.9670106779
 40
0.9725973502
 40
0.9778179502
 40
0.9827084083
 40
0.9873134344
 40
0.991686895
 40
0.9958919631
 40
1.0
 40
1.0
 40
1.0
 40
1.0
 10
5.4929852484
 20
2.1448598425
 30
0.0
 10
5.5021287634
 20
2.1448598425
 30
0.0
 10
5.5203343069
 20
2.1447057173
 30
0.0
 10
5.5474229772
 20
2.1440143247
 30
0.0
 10
5.5739934338
 20
2.1428689672
 30
0.0
 10
5.5997893633
 20
2.1412814157
 30
0.0
 10
5.6245665646
 20
2.1392669892
 30
0.0
 10
5.6444576191
 20
2.1372198933
 30
0.0
 10
5.6596793353
 20
2.1353711519
 30
0.0
 10
5.670524229
 20
2.1339122341
 30
0.0
 10
5.6809450444
 20
2.1323633574
 30
0.0
 10
5.6909169254
 20
2.1307281423
 30
0.0
 10
5.7004161511
 20
2.1290109292
 30
0.0
 10
5.7094200776
 20
2.1272155889
 30
0.0
 10
5.7179073041
 20
2.1253464569
 30
0.0
 10
5.7258577852
 20
2.1234084913
 30
0.0
 10
5.733252654
 20
2.1214060412
 30
0.0
 10
5.7400746057
 20
2.1193440561
 30
0.0
 10
5.746307731
 20
2.1172279835
 30
0.0
 10
5.7511076801
 20
2.1153820197
 30
0.0
 10
5.754635154
 20
2.113873848
 30
0.0
 10
5.757061061
 20
2.1127593237
 30
0.0
 10
5.7593295696
 20
2.1116349412
 30
0.0
 10
5.7614393109
 20
2.1105013303
 30
0.0
 10
5.763388973
 20
2.1093590693
 30
0.0
 10
5.7651774477
 20
2.1082087572
 30
0.0
 10
5.7668038912
 20
2.1070510743
 30
0.0
 10
5.7682675254
 20
2.1058865794
 30
0.0
 10
5.7695675683
 20
2.1047157669
 30
0.0
 10
5.7707032214
 20
2.1035390525
 30
0.0
 10
5.7716735785
 20
2.1023566625
 30
0.0
 10
5.7724778449
 20
2.1011688663
 30
0.0
 10
5.773115258
 20
2.0999760198
 30
0.0
 10
5.7735847502
 20
2.0987784434
 30
0.0
 10
5.7738850066
 20
2.0975772612
 30
0.0
 10
5.7739719974
 20
2.0967697732
 30
0.0
 10
5.7739864814
 20
2.0963702398
 30
0.0
  0
SPLINE
  5
4A9
100
AcDbEntity
  8
ALL_ASSEMBLY_MEMBERS
100
AcDbSpline
 62
7
  6
CONTINUOUS
 70
0
 71
3
 72
22
 73
18
 74
0
 42
0.0000001
 43
0.0000001
 44
0.0000000001
 40
0.0
 40
0.0
 40
0.0
 40
0.0
 40
0.063572208
 40
0.1272972547
 40
0.1910637938
 40
0.2547910075
 40
0.3184064231
 40
0.3818879891
 40
0.4451275741
 40
0.5080705051
 40
0.5706673345
 40
0.6328899935
 40
0.6947599542
 40
0.7562724168
 40
0.8175261836
 40
0.8785711432
 40
1.0
 40
1.0
 40
1.0
 40
1.0
 10
5.7800842406
 20
2.0327037042
 30
0.0
 10
5.7809257407
 20
2.0318893584
 30
0.0
 10
5.7825491588
 20
2.0301934314
 30
0.0
 10
5.7847700194
 20
2.0274579472
 30
0.0
 10
5.7867428855
 20
2.0245339855
 30
0.0
 10
5.7884294622
 20
2.0214376547
 30
0.0
 10
5.7897932401
 20
2.0181909551
 30
0.0
 10
5.790796317
 20
2.0148240801
 30
0.0
 10
5.7914147747
 20
2.0113776825
 30
0.0
 10
5.7916214553
 20
2.0078982958
 30
0.0
 10
5.7914170348
 20
2.0044373874
 30
0.0
 10
5.7908002631
 20
2.0010459695
 30
0.0
 10
5.7897980064
 20
1.9977692412
 30
0.0
 10
5.7884341597
 20
1.9946459048
 30
0.0
 10
5.786746444
 20
1.9917029682
 30
0.0
 10
5.7841207127
 20
1.9880542308
 30
0.0
 10
5.7817678626
 20
1.985620164
 30
0.0
 10
5.7800842406
 20
1.9841475884
 30
0.0
  0
SPLINE
  5
4AA
100
AcDbEntity
  8
ALL_ASSEMBLY_MEMBERS
100
AcDbSpline
 62
7
  6
CONTINUOUS
 70
0
 71
3
 72
71
 73
67
 74
0
 42
0.0000001
 43
0.0000001
 44
0.0000000001
 40
0.0
 40
0.0
 40
0.0
 40
0.0
 40
0.0471152644
 40
0.0938049523
 40
0.1396087701
 40
0.184114024
 40
0.2269060342
 40
0.2675902128
 40
0.287025376
 40
0.305797404
 40
0.3238637571
 40
0.3411847658
 40
0.3577237714
 40
0.3734450637
 40
0.3883168231
 40
0.4023107728
 40
0.4154004078
 40
0.4275647447
 40
0.438787657
 40
0.4490570068
 40
0.458369707
 40
0.4667319223
 40
0.4705621822
 40
0.474163065
 40
0.4775402045
 40
0.480700828
 40
0.4836541741
 40
0.4864120203
 40
0.488989375
 40
0.4914054412
 40
0.4936838994
 40
0.4958531368
 40
0.4979461933
 40
0.4999999997
 40
0.502053806
 40
0.5041468625
 40
0.5063160998
 40
0.508594558
 40
0.5110106241
 40
0.5135879788
 40
0.516345825
 40
0.519299171
 40
0.5224597944
 40
0.5258369338
 40
0.5294378165
 40
0.5332680764
 40
0.5416302915
 40
0.5509429915
 40
0.5612123412
 40
0.5724352534
 40
0.58459959
 40
0.597689225
 40
0.6116831746
 40
0.6265549338
 40
0.642276226
 40
0.6588152313
 40
0.6761362398
 40
0.6942025929
 40
0.7129746208
 40
0.7324097839
 40
0.7730939618
 40
0.8158859724
 40
0.8603912281
 40
0.9061950469
 40
0.9528847354
 40
1.0
 40
1.0
 40
1.0
 40
1.0
 10
5.4929852484
 20
1.5740326411
 30
0.0
 10
5.4838379998
 20
1.5740326411
 30
0.0
 10
5.4656257419
 20
1.574187426
 30
0.0
 10
5.4385288329
 20
1.5748818282
 30
0.0
 10
5.4119544826
 20
1.5760321133
 30
0.0
 10
5.3861610535
 20
1.5776263233
 30
0.0
 10
5.3613947312
 20
1.5796490061
 30
0.0
 10
5.3415189359
 20
1.5817044589
 30
0.0
 10
5.3263150119
 20
1.5835606625
 30
0.0
 10
5.3154879743
 20
1.5850251242
 30
0.0
 10
5.3050883283
 20
1.5865797635
 30
0.0
 10
5.2951410707
 20
1.5882208613
 30
0.0
 10
5.2856700568
 20
1.5899440489
 30
0.0
 10
5.2766980459
 20
1.5917454481
 30
0.0
 10
5.2682465179
 20
1.5936205988
 30
0.0
 10
5.2603355998
 20
1.5955645238
 30
0.0
 10
5.2529842036
 20
1.5975728658
 30
0.0
 10
5.246209678
 20
1.5996405337
 30
0.0
 10
5.2400277912
 20
1.6017620366
 30
0.0
 10
5.2344527876
 20
1.6039327491
 30
0.0
 10
5.2294974142
 20
1.6061472037
 30
0.0
 10
5.2257909318
 20
1.6080770251
 30
0.0
 10
5.2231576102
 20
1.6096493173
 30
0.0
 10
5.2214031414
 20
1.6108017689
 30
0.0
 10
5.219811579
 20
1.6119614586
 30
0.0
 10
5.2183837169
 20
1.6131278859
 30
0.0
 10
5.2171203448
 20
1.6143005596
 30
0.0
 10
5.2160222788
 20
1.6154790953
 30
0.0
 10
5.2150904523
 20
1.6166633023
 30
0.0
 10
5.214325609
 20
1.6178528597
 30
0.0
 10
5.2137285911
 20
1.6190474507
 30
0.0
 10
5.213300554
 20
1.6202465878
 30
0.0
 10
5.2130428513
 20
1.6214493271
 30
0.0
 10
5.2129567197
 20
1.6226541306
 30
0.0
 10
5.2130428513
 20
1.6238589341
 30
0.0
 10
5.2133005539
 20
1.6250616733
 30
0.0
 10
5.2137285909
 20
1.6262608104
 30
0.0
 10
5.2143256087
 20
1.6274554014
 30
0.0
 10
5.215090452
 20
1.6286449589
 30
0.0
 10
5.2160222785
 20
1.6298291659
 30
0.0
 10
5.2171203444
 20
1.6310077015
 30
0.0
 10
5.2183837164
 20
1.6321803752
 30
0.0
 10
5.2198115785
 20
1.6333468025
 30
0.0
 10
5.2214031408
 20
1.6345064923
 30
0.0
 10
5.2231576096
 20
1.6356589439
 30
0.0
 10
5.2257909311
 20
1.637231236
 30
0.0
 10
5.2294974135
 20
1.6391610575
 30
0.0
 10
5.2344527867
 20
1.6413755121
 30
0.0
 10
5.2400277903
 20
1.6435462245
 30
0.0
 10
5.2462096769
 20
1.6456677274
 30
0.0
 10
5.2529842024
 20
1.6477353954
 30
0.0
 10
5.2603355986
 20
1.6497437374
 30
0.0
 10
5.2682465165
 20
1.6516876624
 30
0.0
 10
5.2766980445
 20
1.6535628132
 30
0.0
 10
5.2856700553
 20
1.6553642123
 30
0.0
 10
5.2951410691
 20
1.6570873999
 30
0.0
 10
5.3050883266
 20
1.6587284978
 30
0.0
 10
5.3154879726
 20
1.660283137
 30
0.0
 10
5.3263150101
 20
1.6617475987
 30
0.0
 10
5.3415189339
 20
1.6636038023
 30
0.0
 10
5.3613947291
 20
1.6656592554
 30
0.0
 10
5.3861610517
 20
1.6676819381
 30
0.0
 10
5.4119544815
 20
1.6692761475
 30
0.0
 10
5.4385288323
 20
1.6704264337
 30
0.0
 10
5.4656257417
 20
1.6711208362
 30
0.0
 10
5.4838379998
 20
1.6712756206
 30
0.0
 10
5.4929852484
 20
1.6712756206
 30
0.0
  0
SPLINE
  5
4AB
100
AcDbEntity
  8
ALL_ASSEMBLY_MEMBERS
100
AcDbSpline
 62
7
  6
CONTINUOUS
 70
0
 71
3
 72
22
 73
18
 74
0
 42
0.0000001
 43
0.0000001
 44
0.0000000001
 40
0.0
 40
0.0
 40
0.0
 40
0.0
 40
0.0636082334
 40
0.1274734898
 40
0.1914773515
 40
0.2555235168
 40
0.3195164164
 40
0.3834026471
 40
0.4470354177
 40
0.5103180648
 40
0.5731602327
 40
0.6354979597
 40
0.6973295092
 40
0.7586371883
 40
0.8195193998
 40
0.8800352636
 40
1.0
 40
1.0
 40
1.0
 40
1.0
 10
5.7912947158
 20
2.0290312541
 30
0.0
 10
5.7921184408
 20
2.0282057711
 30
0.0
 10
5.7937073845
 20
2.0264882355
 30
0.0
 10
5.7958791794
 20
2.0237252378
 30
0.0
 10
5.7978083104
 20
2.0207770287
 30
0.0
 10
5.799457429
 20
2.0176602434
 30
0.0
 10
5.8007908385
 20
2.0143973459
 30
0.0
 10
5.8017715954
 20
2.0110190042
 30
0.0
 10
5.8023763807
 20
2.007566081
 30
0.0
 10
5.8025786803
 20
2.0040852422
 30
0.0
 10
5.8023791821
 20
2.0006278396
 30
0.0
 10
5.8017765136
 20
1.9972446248
 30
0.0
 10
5.8007968401
 20
1.9939805436
 30
0.0
 10
5.7994634124
 20
1.9908739181
 30
0.0
 10
5.7978130009
 20
1.9879514775
 30
0.0
 10
5.7952480276
 20
1.984338662
 30
0.0
 10
5.7929445237
 20
1.9819295871
 30
0.0
 10
5.7912947158
 20
1.9804751383
 30
0.0
  0
SPLINE
  5
4AC
100
AcDbEntity
  8
ALL_ASSEMBLY_MEMBERS
100
AcDbSpline
 62
7
  6
CONTINUOUS
 70
0
 71
3
 72
21
 73
17
 74
0
 42
0.0000001
 43
0.0000001
 44
0.0000000001
 40
0.0
 40
0.0
 40
0.0
 40
0.0
 40
0.0534948602
 40
0.1085892525
 40
0.1654115667
 40
0.2240656789
 40
0.2845915833
 40
0.3469846131
 40
0.4110227653
 40
0.4764284927
 40
0.5427913332
 40
0.6096585671
 40
0.6765860331
 40
0.743123163
 40
0.8738120819
 40
1.0
 40
1.0
 40
1.0
 40
1.0
 10
5.5049707438
 20
2.0614517335
 30
0.0
 10
5.5056165312
 20
2.0607712796
 30
0.0
 10
5.5068633238
 20
2.0593276104
 30
0.0
 10
5.5085469919
 20
2.0569603595
 30
0.0
 10
5.510040891
 20
2.0543634429
 30
0.0
 10
5.5113161118
 20
2.0515474653
 30
0.0
 10
5.5123452608
 20
2.0485289234
 30
0.0
 10
5.513100151
 20
2.0453333381
 30
0.0
 10
5.5135637773
 20
2.0419962745
 30
0.0
 10
5.5137163351
 20
2.038561074
 30
0.0
 10
5.5135592447
 20
2.0350766264
 30
0.0
 10
5.5130918154
 20
2.0315934561
 30
0.0
 10
5.5123340842
 20
2.028158793
 30
0.0
 10
5.5109688518
 20
2.023727689
 30
0.0
 10
5.5086720932
 20
2.0185171248
 30
0.0
 10
5.506271241
 20
2.0146860446
 30
0.0
 10
5.5049707438
 20
2.0128956177
 30
0.0
  0
SPLINE
  5
4AD
100
AcDbEntity
  8
ALL_ASSEMBLY_MEMBERS
100
AcDbSpline
 62
7
  6
CONTINUOUS
 70
0
 71
3
 72
21
 73
17
 74
0
 42
0.0000001
 43
0.0000001
 44
0.0000000001
 40
0.0
 40
0.0
 40
0.0
 40
0.0
 40
0.1274335806
 40
0.1916541632
 40
0.2560234343
 40
0.3204209709
 40
0.3847592585
 40
0.448847961
 40
0.5125416127
 40
0.5757011981
 40
0.6382185626
 40
0.700060411
 40
0.7611892959
 40
0.821698687
 40
0.8816539858
 40
1.0
 40
1.0
 40
1.0
 40
1.0
 10
5.8009498918
 20
2.0252279071
 30
0.0
 10
5.8025570652
 20
2.0235510472
 30
0.0
 10
5.8047920253
 20
2.0208410572
 30
0.0
 10
5.8072846615
 20
2.0168907405
 30
0.0
 10
5.8088878317
 20
2.0137537837
 30
0.0
 10
5.8101838092
 20
2.0104752457
 30
0.0
 10
5.8111370597
 20
2.007085852
 30
0.0
 10
5.8117249463
 20
2.0036267734
 30
0.0
 10
5.8119217808
 20
2.0001447725
 30
0.0
 10
5.811728232
 20
1.9966910646
 30
0.0
 10
5.8111428633
 20
1.9933161025
 30
0.0
 10
5.8101909897
 20
1.9900645559
 30
0.0
 10
5.8088950524
 20
1.9869743477
 30
0.0
 10
5.8072906856
 20
1.9840719129
 30
0.0
 10
5.8048004907
 20
1.9804950914
 30
0.0
 10
5.8025580554
 20
1.9781093835
 30
0.0
 10
5.8009498918
 20
1.9766717914
 30
0.0
  0
SPLINE
  5
4AE
100
AcDbEntity
  8
ALL_ASSEMBLY_MEMBERS
100
AcDbSpline
 62
7
  6
CONTINUOUS
 70
0
 71
3
 72
23
 73
19
 74
0
 42
0.0000001
 43
0.0000001
 44
0.0000000001
 40
0.0
 40
0.0
 40
0.0
 40
0.0
 40
0.0324175164
 40
0.0661063154
 40
0.1021958563
 40
0.1416022774
 40
0.1850185802
 40
0.2329408655
 40
0.2857213346
 40
0.3436079695
 40
0.4067612795
 40
0.4752774757
 40
0.5492131815
 40
0.628593148
 40
0.7134038982
 40
0.8036100978
 40
0.8991638047
 40
1.0
 40
1.0
 40
1.0
 40
1.0
 10
5.7929852484
 20
1.9402546312
 30
0.0
 10
5.7929852484
 20
1.940873323
 30
0.0
 10
5.792853373
 20
1.9421384469
 30
0.0
 10
5.7922682166
 20
1.9440105229
 30
0.0
 10
5.7913024832
 20
1.9458676072
 30
0.0
 10
5.7899626001
 20
1.9477078876
 30
0.0
 10
5.788252782
 20
1.9495323764
 30
0.0
 10
5.7861761063
 20
1.9513417243
 30
0.0
 10
5.7837346698
 20
1.9531354824
 30
0.0
 10
5.7809306222
 20
1.9549122015
 30
0.0
 10
5.7777669689
 20
1.9566703604
 30
0.0
 10
5.7742473276
 20
1.9584082191
 30
0.0
 10
5.7703756084
 20
1.9601236628
 30
0.0
 10
5.7661562213
 20
1.9618143712
 30
0.0
 10
5.7615943732
 20
1.9634784521
 30
0.0
 10
5.7566956926
 20
1.9651138424
 30
0.0
 10
5.7514661109
 20
1.9667183477
 30
0.0
 10
5.7478592642
 20
1.9677388631
 30
0.0
 10
5.7460025289
 20
1.9682449436
 30
0.0
  0
SPLINE
  5
4AF
100
AcDbEntity
  8
ALL_ASSEMBLY_MEMBERS
100
AcDbSpline
 62
7
  6
CONTINUOUS
 70
0
 71
3
 72
18
 73
14
 74
0
 42
0.0000001
 43
0.0000001
 44
0.0000000001
 40
0.0
 40
0.0
 40
0.0
 40
0.0
 40
0.0478492127
 40
0.0983959423
 40
0.1515079451
 40
0.207040219
 40
0.2648425281
 40
0.3247521641
 40
0.4502145954
 40
0.582010507
 40
0.7186228514
 40
0.8585015525
 40
1.0
 40
1.0
 40
1.0
 40
1.0
 10
5.7230715722
 20
1.9736836768
 30
0.0
 10
5.7194611032
 20
1.9744329807
 30
0.0
 10
5.7120190321
 20
1.9758899042
 30
0.0
 10
5.7005185409
 20
1.9779083485
 30
0.0
 10
5.6883993303
 20
1.979815329
 30
0.0
 10
5.6756974746
 20
1.9816053802
 30
0.0
 10
5.6624508063
 20
1.9832726479
 30
0.0
 10
5.6438269414
 20
1.98535779
 30
0.0
 10
5.6194858378
 20
1.9876044953
 30
0.0
 10
5.5892035053
 20
1.9897055257
 30
0.0
 10
5.5577741935
 20
1.9912251749
 30
0.0
 10
5.5255738782
 20
1.9921442891
 30
0.0
 10
5.5038895412
 20
1.9923490845
 30
0.0
 10
5.4929852484
 20
1.9923490845
 30
0.0
  0
SPLINE
  5
4B0
100
AcDbEntity
  8
ALL_ASSEMBLY_MEMBERS
100
AcDbSpline
 62
7
  6
CONTINUOUS
 70
0
 71
3
 72
19
 73
15
 74
0
 42
0.0000001
 43
0.0000001
 44
0.0000000001
 40
0.0
 40
0.0
 40
0.0
 40
0.0
 40
0.1257218229
 40
0.2568674916
 40
0.323908473
 40
0.3914674911
 40
0.4590319479
 40
0.5260863725
 40
0.5921013872
 40
0.6565901432
 40
0.7192089715
 40
0.7796806547
 40
0.8939528078
 40
1.0
 40
1.0
 40
1.0
 40
1.0
 10
5.5049707438
 20
2.0128956177
 30
0.0
 10
5.5037560476
 20
2.0147093022
 30
0.0
 10
5.5015173044
 20
2.0185839115
 30
0.0
 10
5.4993883031
 20
2.0238108109
 30
0.0
 10
5.498120837
 20
2.0282512573
 30
0.0
 10
5.4974165267
 20
2.031693652
 30
0.0
 10
5.4969820235
 20
2.0351807779
 30
0.0
 10
5.4968359078
 20
2.0386652359
 30
0.0
 10
5.4969774954
 20
2.0420966513
 30
0.0
 10
5.4974080686
 20
2.0454263216
 30
0.0
 10
5.4981094564
 20
2.0486115041
 30
0.0
 10
5.4993602521
 20
2.0525433175
 30
0.0
 10
5.501466606
 20
2.0569727395
 30
0.0
 10
5.5037442766
 20
2.0600783987
 30
0.0
 10
5.5049707438
 20
2.0614517335
 30
0.0
  0
SPLINE
  5
4B1
100
AcDbEntity
  8
ALL_ASSEMBLY_MEMBERS
100
AcDbSpline
 62
7
  6
CONTINUOUS
 70
0
 71
3
 72
21
 73
17
 74
0
 42
0.0000001
 43
0.0000001
 44
0.0000000001
 40
0.0
 40
0.0
 40
0.0
 40
0.0
 40
0.1273624714
 40
0.191768235
 40
0.2564526042
 40
0.3212685757
 40
0.3860915581
 40
0.4506830915
 40
0.5148430254
 40
0.5783764627
 40
0.6411231688
 40
0.7030105969
 40
0.7639746001
 40
0.8240985048
 40
0.8834506477
 40
1.0
 40
1.0
 40
1.0
 40
1.0
 10
5.8089994292
 20
2.021313493
 30
0.0
 10
5.8105563607
 20
2.019612607
 30
0.0
 10
5.8127173114
 20
2.0168714206
 30
0.0
 10
5.8151226995
 20
2.0128950771
 30
0.0
 10
5.8166713392
 20
2.0097388572
 30
0.0
 10
5.8179231355
 20
2.0064451781
 30
0.0
 10
5.81884385
 20
2.0030452213
 30
0.0
 10
5.8194117307
 20
1.9995803433
 30
0.0
 10
5.8196020355
 20
1.9960974317
 30
0.0
 10
5.8194154323
 20
1.9926475434
 30
0.0
 10
5.8188504399
 20
1.9892808108
 30
0.0
 10
5.8179313974
 20
1.9860416137
 30
0.0
 10
5.8166798099
 20
1.9829674487
 30
0.0
 10
5.8151299676
 20
1.9800844587
 30
0.0
 10
5.812728156
 20
1.9765436039
 30
0.0
 10
5.8105582863
 20
1.9741795236
 30
0.0
 10
5.8089994292
 20
1.9727573772
 30
0.0
  0
SPLINE
  5
4B2
100
AcDbEntity
  8
ALL_ASSEMBLY_MEMBERS
100
AcDbSpline
 62
7
  6
CONTINUOUS
 70
0
 71
3
 72
29
 73
25
 74
0
 42
0.0000001
 43
0.0000001
 44
0.0000000001
 40
0.0
 40
0.0
 40
0.0
 40
0.0
 40
0.008274664
 40
0.0171558912
 40
0.0271320321
 40
0.0385443046
 40
0.0516153037
 40
0.0664787661
 40
0.0832050025
 40
0.1018297771
 40
0.1223673553
 40
0.1448157634
 40
0.1691495705
 40
0.1953309472
 40
0.2530574293
 40
0.3175825554
 40
0.3883575958
 40
0.4647826613
 40
0.5461555573
 40
0.631729966
 40
0.720738189
 40
0.8123944598
 40
0.9058242908
 40
1.0
 40
1.0
 40
1.0
 40
1.0
 10
5.7429852484
 20
2.2265922023
 30
0.0
 10
5.7429852484
 20
2.2273093326
 30
0.0
 10
5.7427649957
 20
2.2288031398
 30
0.0
 10
5.7418085967
 20
2.2309751014
 30
0.0
 10
5.7402540289
 20
2.2331076064
 30
0.0
 10
5.7381156754
 20
2.2352066443
 30
0.0
 10
5.7353976178
 20
2.2372769743
 30
0.0
 10
5.732104039
 20
2.2393186887
 30
0.0
 10
5.7282413914
 20
2.2413302819
 30
0.0
 10
5.7238171992
 20
2.2433076013
 30
0.0
 10
5.7188400465
 20
2.2452460175
 30
0.0
 10
5.7133202815
 20
2.247140027
 30
0.0
 10
5.707271122
 20
2.2489858807
 30
0.0
 10
5.6982207076
 20
2.2514579431
 30
0.0
 10
5.6856824806
 20
2.2543574576
 30
0.0
 10
5.6692435344
 20
2.257475471
 30
0.0
 10
5.6511111012
 20
2.260306798
 30
0.0
 10
5.6314593843
 20
2.2628187949
 30
0.0
 10
5.6104775052
 20
2.2649895191
 30
0.0
 10
5.5883669767
 20
2.2667954282
 30
0.0
 10
5.5653357405
 20
2.2682190648
 30
0.0
 10
5.5416020481
 20
2.2692461349
 30
0.0
 10
5.5174063756
 20
2.2698652683
 30
0.0
 10
5.5011470601
 20
2.2700042468
 30
0.0
 10
5.4929852484
 20
2.2700042468
 30
0.0
  0
SPLINE
  5
4B3
100
AcDbEntity
  8
ALL_ASSEMBLY_MEMBERS
100
AcDbSpline
 62
7
  6
CONTINUOUS
 70
0
 71
3
 72
29
 73
25
 74
0
 42
0.0000001
 43
0.0000001
 44
0.0000000001
 40
0.0
 40
0.0
 40
0.0
 40
0.0
 40
0.0941757092
 40
0.1876055402
 40
0.279261811
 40
0.368270034
 40
0.4538444427
 40
0.5352173387
 40
0.6116424042
 40
0.6824174446
 40
0.7469425707
 40
0.8046690528
 40
0.8308504295
 40
0.8551842366
 40
0.8776326447
 40
0.8981702229
 40
0.9167949975
 40
0.9335212339
 40
0.9483846963
 40
0.9614556954
 40
0.9728679679
 40
0.9828441088
 40
0.991725336
 40
1.0
 40
1.0
 40
1.0
 40
1.0
 10
5.4929852484
 20
2.2700042468
 30
0.0
 10
5.4848234368
 20
2.2700042468
 30
0.0
 10
5.4685641213
 20
2.2698652683
 30
0.0
 10
5.4443684488
 20
2.2692461349
 30
0.0
 10
5.4206347564
 20
2.2682190648
 30
0.0
 10
5.3976035202
 20
2.2667954282
 30
0.0
 10
5.3754929917
 20
2.2649895191
 30
0.0
 10
5.3545111126
 20
2.2628187949
 30
0.0
 10
5.3348593957
 20
2.260306798
 30
0.0
 10
5.3167269625
 20
2.257475471
 30
0.0
 10
5.3002880163
 20
2.2543574576
 30
0.0
 10
5.2877497893
 20
2.2514579431
 30
0.0
 10
5.2786993749
 20
2.2489858807
 30
0.0
 10
5.2726502154
 20
2.247140027
 30
0.0
 10
5.2671304504
 20
2.2452460175
 30
0.0
 10
5.2621532976
 20
2.2433076013
 30
0.0
 10
5.2577291055
 20
2.2413302819
 30
0.0
 10
5.2538664579
 20
2.2393186887
 30
0.0
 10
5.2505728791
 20
2.2372769743
 30
0.0
 10
5.2478548215
 20
2.2352066443
 30
0.0
 10
5.245716468
 20
2.2331076064
 30
0.0
 10
5.2441619002
 20
2.2309751014
 30
0.0
 10
5.2432055012
 20
2.2288031398
 30
0.0
 10
5.2429852484
 20
2.2273093326
 30
0.0
 10
5.2429852484
 20
2.2265922023
 30
0.0
  0
ELLIPSE
  5
4B4
100
AcDbEntity
  8
ALL_ASSEMBLY_MEMBERS
100
AcDbEllipse
 62
7
  6
CONTINUOUS
 10
5.4929852484
 20
1.4590464639
 30
0.0
 11
-0.0533992194
 21
5.9727794407
 31
0.0
 40
0.0216676486
 41
1.5422511531
 42
1.5435849118
  0
ELLIPSE
  5
4B5
100
AcDbEntity
  8
ALL_ASSEMBLY_MEMBERS
100
AcDbEllipse
 62
7
  6
CONTINUOUS
 10
5.4929852484
 20
1.4590464639
 30
0.0
 11
-0.0987366869
 21
5.9675269338
 31
0.0
 40
0.0166321059
 41
1.5433832639
 42
1.5448264635
  0
ELLIPSE
  5
4B6
100
AcDbEntity
  8
ALL_ASSEMBLY_MEMBERS
100
AcDbEllipse
 62
7
  6
CONTINUOUS
 10
5.4929852484
 20
1.4590464639
 30
0.0
 11
-0.1291509255
 21
5.959657635
 31
0.0
 40
0.0090671954
 41
1.5439099661
 42
1.5457932308
  0
ELLIPSE
  5
4B7
100
AcDbEntity
  8
ALL_ASSEMBLY_MEMBERS
100
AcDbEllipse
 62
7
  6
CONTINUOUS
 10
5.4929852484
 20
1.4590464639
 30
0.0
 11
-0.1399988328
 21
5.9503617697
 31
0.0
 40
0.0000960725
 41
1.543675476
 42
1.5463043516
  0
ELLIPSE
  5
4B8
100
AcDbEntity
  8
ALL_ASSEMBLY_MEMBERS
100
AcDbEllipse
 62
7
  6
CONTINUOUS
 10
5.4929852484
 20
1.4590464639
 30
0.0
 11
0.1399988328
 21
5.9503617697
 31
0.0
 40
0.0000960725
 41
-1.5463043516
 42
-1.543675476
  0
ELLIPSE
  5
4B9
100
AcDbEntity
  8
ALL_ASSEMBLY_MEMBERS
100
AcDbEllipse
 62
7
  6
CONTINUOUS
 10
5.4929852484
 20
1.4590464639
 30
0.0
 11
0.1291509255
 21
5.959657635
 31
0.0
 40
0.0090671954
 41
-1.5457932308
 42
-1.5439099661
  0
ELLIPSE
  5
4BA
100
AcDbEntity
  8
ALL_ASSEMBLY_MEMBERS
100
AcDbEllipse
 62
7
  6
CONTINUOUS
 10
5.4929852484
 20
1.4590464639
 30
0.0
 11
0.0987366869
 21
5.9675269338
 31
0.0
 40
0.0166321059
 41
-1.5448264635
 42
-1.5433832639
  0
ELLIPSE
  5
4BB
100
AcDbEntity
  8
ALL_ASSEMBLY_MEMBERS
100
AcDbEllipse
 62
7
  6
CONTINUOUS
 10
5.4929852484
 20
1.4590464639
 30
0.0
 11
0.0533992194
 21
5.9727794407
 31
0.0
 40
0.0216676486
 41
-1.5435849118
 42
-1.5422511531
  0
ENDSEC
  0
SECTION
  2
OBJECTS
  0
DICTIONARY
  5
C
100
AcDbDictionary
280
0
281
1
  3
ACAD_GROUP
350
D
  3
ACAD_MLINESTYLE
350
17
  3
ACAD_LAYOUT
350
1A
  3
ACAD_PLOTSETTINGS
350
19
  3
ACAD_PLOTSTYLENAME
350
E
  0
DICTIONARY
  5
D
102
{ACAD_REACTORS
330
C
102
}
100
AcDbDictionary
280
0
281
1
  0
ACDBDICTIONARYWDFLT
  5
E
102
{ACAD_REACTORS
330
C
102
}
100
AcDbDictionary
281
1
  3
Normal
350
F
100
AcDbDictionaryWithDefault
340
F
  0
DICTIONARY
  5
17
102
{ACAD_REACTORS
330
C
102
}
100
AcDbDictionary
280
0
281
1
  3
Standard
350
18
  0
DICTIONARY
  5
19
102
{ACAD_REACTORS
330
C
102
}
100
AcDbDictionary
281
1
  0
DICTIONARY
  5
1A
102
{ACAD_REACTORS
330
C
102
}
100
AcDbDictionary
281
1
  3
Model
350
4BC
  3
Layout1
350
4BD
  0
ACDBPLACEHOLDER
  5
F
102
{ACAD_REACTORS
330
E
102
}
  0
MLINESTYLE
  5
18
102
{ACAD_REACTORS
330
17
102
}
100
AcDbMlineStyle
  2
STANDARD
 70
0
  3

 62
256
 51
90.0
 52
90.0
 71
2
 49
0.5
 62
256
  6
BYLAYER
 49
-0.5
 62
256
  6
BYLAYER
  0
LAYOUT
  5
4BC
102
{ACAD_REACTORS
330
1A
102
}
100
AcDbPlotSettings
  1

  2
none_device
  4
ANSI_A_(11.00_x_8.50_Inches)
  6

 40
0.0
 41
0.0
 42
0.0
 43
0.0
 44
279.4
 45
215.9
 46
0.0
 47
0.0
 48
0.0
 49
0.0
140
0.0
141
0.0
142
1.0
143
1.0
 70
1024
 72
0
 73
0
 74
0
  7

 75
0
147
1.0
148
0.0
149
0.0
100
AcDbLayout
  1
Model
 70
0
 71
0
 10
0.0
 20
0.0
 11
11.0
 21
8.5
 12
0.0
 22
0.0
 32
0.0
 14
0.0
 24
0.0
 34
0.0
 15
0.0
 25
0.0
 35
0.0
146
0.0
 13
0.0
 23
0.0
 33
0.0
 16
1.0
 26
0.0
 36
0.0
 17
0.0
 27
1.0
 37
0.0
 76
0
330
219
345
0
346
0
  0
LAYOUT
  5
4BD
102
{ACAD_REACTORS
330
1A
102
}
100
AcDbPlotSettings
  1

  2
none_device
  4
ANSI_A_(11.00_x_8.50_Inches)
  6

 40
0.0
 41
0.0
 42
0.0
 43
0.0
 44
279.4
 45
215.9
 46
0.0
 47
0.0
 48
0.0
 49
0.0
140
0.0
141
0.0
142
1.0
143
1.0
 70
0
 72
0
 73
0
 74
0
  7

 75
0
147
1.0
148
0.0
149
0.0
100
AcDbLayout
  1
Layout1
 70
0
 71
1
 10
0.0
 20
0.0
 11
11.0
 21
8.5
 12
0.0
 22
0.0
 32
0.0
 14
0.0
 24
0.0
 34
0.0
 15
0.0
 25
0.0
 35
0.0
146
0.0
 13
0.0
 23
0.0
 33
0.0
 16
1.0
 26
0.0
 36
0.0
 17
0.0
 27
1.0
 37
0.0
 76
0
330
21A
345
0
346
0
  0
ENDSEC
  0
EOF
