999
DXF file: 3-1775_FRONT.dxf
999
Pro/ENGINEER 2018400 by Parametric Technology Corporation
  0
SECTION
  2
HEADER
  9
$ACADVER
  1
AC1027
  9
$DWGCODEPAGE
  3
ANSI_1252
  9
$EXTMAX
 10
11.0
 20
8.5
 30
0.0
  9
$EXTMIN
 10
0.0
 20
0.0
 30
0.0
  9
$LIMMIN
 10
0.0
 20
0.0
  9
$LIMMAX
 10
11.0
 20
8.5
  9
$VIEWCTR
 10
5.5
 20
4.25
  9
$VIEWSIZE
 40
8.5
  9
$CLAYER
  8
0
  9
$LTSCALE
 40
0.605
  9
$CELTYPE
  6
BYLAYER
  9
$DIMSCALE
 40
1.0
  9
$DIMASZ
 40
0.1
  9
$DIMEXO
 40
0.0625
  9
$DIMDLI
 40
0.418
  9
$DIMEXE
 40
0.125
  9
$DIMCEN
 40
0.099
  9
$DIMLFAC
 40
1.0
  9
$DIMBLK
  1
_FILLED
  9
$DIMALT
 70
1
  9
$DIMALTD
 70
2
  9
$DIMALTTD
 70
2
  9
$DIMALTF
 40
25.4
  9
$DIMTXT
 40
0.08
  9
$DIMTOL
 70
1
  9
$DIMLIM
 70
0
  9
$DIMTFAC
 40
1.0
  9
$DIMTP
 40
0.001
  9
$DIMTM
 40
0.001
  9
$DIMGAP
 40
0.09
  9
$DIMDSEP
 70
46
  9
$AUNITS
 70
0
  9
$PDMODE
 70
3
  9
$PDSIZE
 40
0.3125
  9
$HANDSEED
  5
41B
  9
$TILEMODE
 70
1
  9
$MEASUREMENT
 70
0
  9
$INSUNITS
 70
1
  0
ENDSEC
  0
SECTION
  2
CLASSES
  0
CLASS
  1
ACDBDICTIONARYWDFLT
  2
AcDbDictionaryWithDefault
  3
AutoCAD 2000
 90
0
 91
1
280
0
281
0
  0
CLASS
  1
ACDBPLACEHOLDER
  2
AcDbPlaceHolder
  3
AutoCAD 2000
 90
0
 91
1
280
0
281
0
  0
CLASS
  1
LAYOUT
  2
AcDbLayout
  3
AutoCAD 2000
 90
0
 91
0
280
0
281
0
  0
ENDSEC
  0
SECTION
  2
TABLES
  0
TABLE
  2
VPORT
  5
8
100
AcDbSymbolTable
 70
2
  0
VPORT
  5
1F4
100
AcDbSymbolTableRecord
100
AcDbViewportTableRecord
  2
*ACTIVE
 70
0
 10
0.0
 20
0.0
 11
1.0
 21
1.0
 12
5.5
 22
4.25
 13
0.0
 23
0.0
 14
1.0
 24
1.0
 15
0.0
 25
0.0
 16
0.0
 26
0.0
 36
1.0
 17
0.0
 27
0.0
 37
0.0
 40
8.5
 41
1.2941176471
 42
50.0
 43
0.0
 44
0.0
 50
0.0
 51
0.0
 71
0
 72
100
 73
1
 74
1
 75
0
 76
0
 77
0
 78
0
  0
ENDTAB
  0
TABLE
  2
LTYPE
  5
5
100
AcDbSymbolTable
 70
6
  0
LTYPE
  5
14
100
AcDbSymbolTableRecord
100
AcDbLinetypeTableRecord
  2
BYBLOCK
 70
0
  3

 72
65
 73
0
 40
0.0
  0
LTYPE
  5
15
100
AcDbSymbolTableRecord
100
AcDbLinetypeTableRecord
  2
BYLAYER
 70
0
  3

 72
65
 73
0
 40
0.0
  0
LTYPE
  5
16
100
AcDbSymbolTableRecord
100
AcDbLinetypeTableRecord
  2
CONTINUOUS
 70
64
  3
Solid line
 72
65
 73
0
 40
0.0
  0
LTYPE
  5
1F5
100
AcDbSymbolTableRecord
100
AcDbLinetypeTableRecord
  2
CENTER
 70
64
  3
____ _ ____ _ ____ _ ____ _ ____ _ ____ _ ____
 72
65
 73
4
 40
0.6
 49
0.375
 74
0
 49
-0.075
 74
0
 49
0.075
 74
0
 49
-0.075
 74
0
  0
LTYPE
  5
1F6
100
AcDbSymbolTableRecord
100
AcDbLinetypeTableRecord
  2
HIDDEN
 70
64
  3
- - - - - - - - - - - - - - - - - - - -
 72
65
 73
2
 40
0.2
 49
0.1
 74
0
 49
-0.1
 74
0
  0
LTYPE
  5
1F7
100
AcDbSymbolTableRecord
100
AcDbLinetypeTableRecord
  2
PHANTOM
 70
64
  3
_____ _ _ _____ _ _ _____ _ _ _____
 72
65
 73
6
 40
0.8
 49
0.45
 74
0
 49
-0.05
 74
0
 49
0.1
 74
0
 49
-0.05
 74
0
 49
0.1
 74
0
 49
-0.05
 74
0
  0
LTYPE
  5
1F8
100
AcDbSymbolTableRecord
100
AcDbLinetypeTableRecord
  2
DOT
 70
64
  3
. . . . . . . . . . . . . . . . . . . .
 72
65
 73
2
 40
0.2
 49
0.1
 74
0
 49
-0.1
 74
0
  0
LTYPE
  5
1F9
100
AcDbSymbolTableRecord
100
AcDbLinetypeTableRecord
  2
DASHED
 70
64
  3
- - - - - - - - - - - - - - - - - - - -
 72
65
 73
2
 40
0.2
 49
0.1
 74
0
 49
-0.1
 74
0
  0
ENDTAB
  0
TABLE
  2
LAYER
  5
2
100
AcDbSymbolTable
 70
36
  0
LAYER
  5
10
100
AcDbSymbolTableRecord
100
AcDbLayerTableRecord
  2
0
 70
0
 62
7
  6
CONTINUOUS
370
-3
390
F
  0
LAYER
  5
1FA
100
AcDbSymbolTableRecord
100
AcDbLayerTableRecord
  2
DEFAULT_1
 70
0
 62
7
  6
CENTER
370
-3
390
F
  0
LAYER
  5
1FB
100
AcDbSymbolTableRecord
100
AcDbLayerTableRecord
  2
DEFAULT_2
 70
0
 62
8
  6
HIDDEN
370
-3
390
F
  0
LAYER
  5
1FC
100
AcDbSymbolTableRecord
100
AcDbLayerTableRecord
  2
DEFAULT_3
 70
0
 62
7
  6
PHANTOM
370
-3
390
F
  0
LAYER
  5
1FD
100
AcDbSymbolTableRecord
100
AcDbLayerTableRecord
  2
3-985_ASSY_PLANES
 70
0
 62
7
  6
CONTINUOUS
370
-3
390
F
  0
LAYER
  5
1FE
100
AcDbSymbolTableRecord
100
AcDbLayerTableRecord
  2
ALL_ASSEMBLY_MEMBERS
 70
0
 62
7
  6
CONTINUOUS
370
-3
390
F
  0
LAYER
  5
1FF
100
AcDbSymbolTableRecord
100
AcDbLayerTableRecord
  2
ALL_FEATURES
 70
0
 62
7
  6
CONTINUOUS
370
-3
390
F
  0
LAYER
  5
200
100
AcDbSymbolTableRecord
100
AcDbLayerTableRecord
  2
AXES_FEATURES
 70
0
 62
7
  6
CONTINUOUS
370
-3
390
F
  0
LAYER
  5
201
100
AcDbSymbolTableRecord
100
AcDbLayerTableRecord
  2
CHAMFER_FEATURES
 70
0
 62
7
  6
CONTINUOUS
370
-3
390
F
  0
LAYER
  5
202
100
AcDbSymbolTableRecord
100
AcDbLayerTableRecord
  2
CURVE2
 70
0
 62
7
  6
CONTINUOUS
370
-3
390
F
  0
LAYER
  5
203
100
AcDbSymbolTableRecord
100
AcDbLayerTableRecord
  2
CUT_FEATURES
 70
0
 62
7
  6
CONTINUOUS
370
-3
390
F
  0
LAYER
  5
204
100
AcDbSymbolTableRecord
100
AcDbLayerTableRecord
  2
DATUM_CURVES
 70
0
 62
7
  6
CONTINUOUS
370
-3
390
F
  0
LAYER
  5
205
100
AcDbSymbolTableRecord
100
AcDbLayerTableRecord
  2
DATUM_PLANES
 70
0
 62
7
  6
CONTINUOUS
370
-3
390
F
  0
LAYER
  5
206
100
AcDbSymbolTableRecord
100
AcDbLayerTableRecord
  2
DATUM_POINTS
 70
0
 62
7
  6
CONTINUOUS
370
-3
390
F
  0
LAYER
  5
207
100
AcDbSymbolTableRecord
100
AcDbLayerTableRecord
  2
DEFAULT_COORDINATE_SYSTEM
 70
0
 62
7
  6
CONTINUOUS
370
-3
390
F
  0
LAYER
  5
208
100
AcDbSymbolTableRecord
100
AcDbLayerTableRecord
  2
DEFAULT_DATUM_AXES
 70
0
 62
7
  6
CONTINUOUS
370
-3
390
F
  0
LAYER
  5
209
100
AcDbSymbolTableRecord
100
AcDbLayerTableRecord
  2
DEFAULT_DATUM_CURVES
 70
0
 62
7
  6
CONTINUOUS
370
-3
390
F
  0
LAYER
  5
20A
100
AcDbSymbolTableRecord
100
AcDbLayerTableRecord
  2
DEFAULT_DATUM_PLANES
 70
0
 62
7
  6
CONTINUOUS
370
-3
390
F
  0
LAYER
  5
20B
100
AcDbSymbolTableRecord
100
AcDbLayerTableRecord
  2
DEFAULT_SURFACES
 70
0
 62
7
  6
CONTINUOUS
370
-3
390
F
  0
LAYER
  5
20C
100
AcDbSymbolTableRecord
100
AcDbLayerTableRecord
  2
DIMENSIONS
 70
0
 62
7
  6
CONTINUOUS
370
-3
390
F
  0
LAYER
  5
20D
100
AcDbSymbolTableRecord
100
AcDbLayerTableRecord
  2
HOLE_FEATURES
 70
0
 62
7
  6
CONTINUOUS
370
-3
390
F
  0
LAYER
  5
20E
100
AcDbSymbolTableRecord
100
AcDbLayerTableRecord
  2
NOTES
 70
0
 62
7
  6
CONTINUOUS
370
-3
390
F
  0
LAYER
  5
20F
100
AcDbSymbolTableRecord
100
AcDbLayerTableRecord
  2
PART_REFERENCE_DIMENSIONS
 70
0
 62
7
  6
CONTINUOUS
370
-3
390
F
  0
LAYER
  5
210
100
AcDbSymbolTableRecord
100
AcDbLayerTableRecord
  2
POINTS
 70
0
 62
7
  6
CONTINUOUS
370
-3
390
F
  0
LAYER
  5
211
100
AcDbSymbolTableRecord
100
AcDbLayerTableRecord
  2
PROTRUSION_FEATURES
 70
0
 62
7
  6
CONTINUOUS
370
-3
390
F
  0
LAYER
  5
212
100
AcDbSymbolTableRecord
100
AcDbLayerTableRecord
  2
QUILTS
 70
0
 62
7
  6
CONTINUOUS
370
-3
390
F
  0
LAYER
  5
213
100
AcDbSymbolTableRecord
100
AcDbLayerTableRecord
  2
REFERENCE_DIMENSIONS
 70
0
 62
7
  6
CONTINUOUS
370
-3
390
F
  0
LAYER
  5
214
100
AcDbSymbolTableRecord
100
AcDbLayerTableRecord
  2
ROUND_FEATURES
 70
0
 62
7
  6
CONTINUOUS
370
-3
390
F
  0
LAYER
  5
215
100
AcDbSymbolTableRecord
100
AcDbLayerTableRecord
  2
SIZE_REF
 70
0
 62
7
  6
CONTINUOUS
370
-3
390
F
  0
LAYER
  5
216
100
AcDbSymbolTableRecord
100
AcDbLayerTableRecord
  2
WETTED_SURFACES
 70
0
 62
7
  6
CONTINUOUS
370
-3
390
F
  0
LAYER
  5
217
100
AcDbSymbolTableRecord
100
AcDbLayerTableRecord
  2
XSEC_DATUMS
 70
0
 62
7
  6
CONTINUOUS
370
-3
390
F
  0
ENDTAB
  0
TABLE
  2
STYLE
  5
3
100
AcDbSymbolTable
 70
1
  0
STYLE
  5
11
100
AcDbSymbolTableRecord
100
AcDbTextStyleTableRecord
  2
STANDARD
 70
0
 40
0.0
 41
0.8
 50
0.0
 71
0
 42
0.2
  3
txt
  4

  0
STYLE
  5
218
100
AcDbSymbolTableRecord
100
AcDbTextStyleTableRecord
  2
TEXTSTYLE_1
 70
0
 40
0.0
 41
0.8
 50
0.0
 71
0
 42
0.2
  3
gdt
  4

  0
ENDTAB
  0
TABLE
  2
VIEW
  5
6
100
AcDbSymbolTable
 70
0
  0
ENDTAB
  0
TABLE
  2
UCS
  5
7
100
AcDbSymbolTable
 70
0
  0
ENDTAB
  0
TABLE
  2
APPID
  5
9
100
AcDbSymbolTable
 70
1
  0
APPID
  5
219
100
AcDbSymbolTableRecord
100
AcDbRegAppTableRecord
  2
ACAD
 70
0
  0
ENDTAB
  0
TABLE
  2
BLOCK_RECORD
  5
1
100
AcDbSymbolTable
 70
0
  0
BLOCK_RECORD
  5
21A
100
AcDbSymbolTableRecord
100
AcDbBlockTableRecord
  2
*Model_Space
  0
BLOCK_RECORD
  5
21B
100
AcDbSymbolTableRecord
100
AcDbBlockTableRecord
  2
*Paper_Space
  0
BLOCK_RECORD
  5
21C
100
AcDbSymbolTableRecord
100
AcDbBlockTableRecord
  2
_FILLED
  0
ENDTAB
  0
TABLE
  2
DIMSTYLE
  5
A
100
AcDbSymbolTable
 70
1
100
AcDbDimStyleTable
 71
0
  0
DIMSTYLE
105
21D
100
AcDbSymbolTableRecord
100
AcDbDimStyleTableRecord
  2
STANDARD
 70
0
  3

  4

 40
1.0
 41
0.1
 42
0.0625
 43
0.38
 44
0.125
 45
0.0
 46
0.0
 47
0.001
 48
0.001
140
0.08
141
0.09
142
0.0
143
25.4
144
1.0
145
0.0
146
1.0
147
0.09
 71
1.0
 72
0.0
 73
1
 74
1
 75
0
 76
0
 77
0
 78
4
 79
1
170
1
171
2
172
0
173
0
174
0
175
0
176
0
177
0
178
0
270
2
179
3
271
3
272
3
273
2
274
2
275
0
280
0
281
0
282
0
283
1
284
4
285
0
286
0
287
3
288
0
340
11
278
46
341
21C
342
21C
343
21C
344
21C
  0
ENDTAB
  0
ENDSEC
  0
SECTION
  2
BLOCKS
  0
BLOCK
  5
20
100
AcDbEntity
  8
0
100
AcDbBlockBegin
  2
*Model_Space
 70
0
 10
0.0
 20
0.0
 30
0.0
  3
*Model_Space
  1

  0
ENDBLK
  5
21
100
AcDbEntity
  8
0
100
AcDbBlockEnd
  0
BLOCK
  5
1C
100
AcDbEntity
  8
0
100
AcDbBlockBegin
  2
*Paper_Space
 70
0
 10
0.0
 20
0.0
 30
0.0
  3
*Paper_Space
  1

  0
ENDBLK
  5
1D
100
AcDbEntity
  8
0
100
AcDbBlockEnd
  0
BLOCK
  5
21E
100
AcDbEntity
  8
0
100
AcDbBlockBegin
  2
_FILLED
 70
64
 10
0.0
 20
0.0
  3
_FILLED
  1

  0
SOLID
  5
21F
100
AcDbEntity
  8
0
  6
BYBLOCK
 62
0
100
AcDbTrace
 10
0.0
 20
0.0
 11
-1.0
 21
0.2
 12
-1.0
 22
-0.2
 13
-1.0
 23
-0.2
  0
ENDBLK
  5
220
100
AcDbEntity
  8
0
  6
BYBLOCK
 62
0
100
AcDbBlockEnd
  0
ENDSEC
  0
SECTION
  2
ENTITIES
  0
MTEXT
  5
221
100
AcDbEntity
  8
0
100
AcDbMText
 62
2
  6
CONTINUOUS
  7
STANDARD
 71
3
 72
1
 10
2.9462150621
 20
1.3175103905
 30
0.0
 11
1.0
 21
0.0
 31
0.0
 73
2
 44
0.9
  1
SCALE  .500
 40
0.08
 41
0.704
  0
LINE
  5
222
100
AcDbEntity
  8
0
100
AcDbLine
 62
7
  6
CONTINUOUS
 10
0.0
 20
0.0
 11
0.0
 21
8.5
  0
LINE
  5
223
100
AcDbEntity
  8
0
100
AcDbLine
 62
7
  6
CONTINUOUS
 10
0.0
 20
0.0
 11
11.0
 21
0.0
  0
LINE
  5
224
100
AcDbEntity
  8
0
100
AcDbLine
 62
7
  6
CONTINUOUS
 10
0.0
 20
8.5
 11
11.0
 21
8.5
  0
LINE
  5
225
100
AcDbEntity
  8
0
100
AcDbLine
 62
7
  6
CONTINUOUS
 10
11.0
 20
0.0
 11
11.0
 21
8.5
  0
LINE
  5
226
100
AcDbEntity
  8
ALL_ASSEMBLY_MEMBERS
100
AcDbLine
 62
7
  6
CONTINUOUS
 10
1.8436917702
 20
6.5776386778
 11
1.8436917702
 21
6.9221386778
  0
LINE
  5
227
100
AcDbEntity
  8
ALL_ASSEMBLY_MEMBERS
100
AcDbLine
 62
7
  6
CONTINUOUS
 10
1.8941917702
 20
6.5776386778
 11
1.8941917702
 21
6.9221386778
  0
LINE
  5
228
100
AcDbEntity
  8
ALL_ASSEMBLY_MEMBERS
100
AcDbLine
 62
7
  6
CONTINUOUS
 10
3.5585926276
 20
7.1193356101
 11
3.3100416591
 21
6.9758346415
  0
LINE
  5
229
100
AcDbEntity
  8
ALL_ASSEMBLY_MEMBERS
100
AcDbLine
 62
7
  6
CONTINUOUS
 10
2.5404249046
 20
6.5776386778
 11
2.5404249046
 21
6.9221386778
  0
LINE
  5
22A
100
AcDbEntity
  8
ALL_ASSEMBLY_MEMBERS
100
AcDbLine
 62
7
  6
CONTINUOUS
 10
3.6537909128
 20
6.3804417455
 11
3.9023418812
 21
6.5239427141
  0
LINE
  5
22B
100
AcDbEntity
  8
ALL_ASSEMBLY_MEMBERS
100
AcDbLine
 62
7
  6
CONTINUOUS
 10
5.4503198156
 20
2.0062531627
 11
5.4711311584
 21
2.0098670144
  0
LINE
  5
22C
100
AcDbEntity
  8
ALL_ASSEMBLY_MEMBERS
100
AcDbLine
 62
7
  6
CONTINUOUS
 10
5.7045366532
 20
2.0503974533
 11
5.7092962374
 21
2.0512239464
  0
LINE
  5
22D
100
AcDbEntity
  8
ALL_ASSEMBLY_MEMBERS
100
AcDbLine
 62
7
  6
CONTINUOUS
 10
5.4775656623
 20
2.014913564
 11
5.5412781769
 21
2.0259771261
  0
LINE
  5
22E
100
AcDbEntity
  8
ALL_ASSEMBLY_MEMBERS
100
AcDbLine
 62
7
  6
CONTINUOUS
 10
5.6117622177
 20
2.0382165513
 11
5.6754747323
 21
2.0492801134
  0
LINE
  5
22F
100
AcDbEntity
  8
ALL_ASSEMBLY_MEMBERS
100
AcDbLine
 62
7
  6
CONTINUOUS
 10
5.6698178781
 20
2.0502624158
 11
5.6061053634
 21
2.0391988538
  0
LINE
  5
230
100
AcDbEntity
  8
ALL_ASSEMBLY_MEMBERS
100
AcDbLine
 62
7
  6
CONTINUOUS
 10
5.5356213227
 20
2.0269594285
 11
5.471908808
 21
2.0158958665
  0
LINE
  5
231
100
AcDbEntity
  8
ALL_ASSEMBLY_MEMBERS
100
AcDbLine
 62
7
  6
CONTINUOUS
 10
5.6772320234
 20
2.0554790784
 11
5.676252382
 21
2.0553089654
  0
LINE
  5
232
100
AcDbEntity
  8
ALL_ASSEMBLY_MEMBERS
100
AcDbLine
 62
7
  6
CONTINUOUS
 10
5.4428468872
 20
2.0147785266
 11
5.4220355444
 21
2.0111646748
  0
LINE
  5
233
100
AcDbEntity
  8
ALL_ASSEMBLY_MEMBERS
100
AcDbLine
 62
7
  6
CONTINUOUS
 10
5.4459321733
 20
2.0226467487
 11
5.5291765853
 21
2.0286343053
  0
LINE
  5
234
100
AcDbEntity
  8
ALL_ASSEMBLY_MEMBERS
100
AcDbLine
 62
7
  6
CONTINUOUS
 10
5.6212684225
 20
2.0352582345
 11
5.7045128346
 21
2.0412457912
  0
LINE
  5
235
100
AcDbEntity
  8
ALL_ASSEMBLY_MEMBERS
100
AcDbLine
 62
7
  6
CONTINUOUS
 10
5.7014513671
 20
2.0425292312
 11
5.6182069551
 21
2.0365416745
  0
LINE
  5
236
100
AcDbEntity
  8
ALL_ASSEMBLY_MEMBERS
100
AcDbLine
 62
7
  6
CONTINUOUS
 10
5.5261151178
 20
2.0299177453
 11
5.4428707058
 21
2.0239301887
  0
LINE
  5
237
100
AcDbEntity
  8
ALL_ASSEMBLY_MEMBERS
100
AcDbLine
 62
7
  6
CONTINUOUS
 10
5.3792174788
 20
2.0291150264
 11
5.4086491621
 21
2.0291150264
  0
LINE
  5
238
100
AcDbEntity
  8
ALL_ASSEMBLY_MEMBERS
100
AcDbLine
 62
7
  6
CONTINUOUS
 10
5.7387343783
 20
2.0291150264
 11
5.7681660615
 21
2.0291150264
  0
LINE
  5
239
100
AcDbEntity
  8
ALL_ASSEMBLY_MEMBERS
100
AcDbLine
 62
7
  6
CONTINUOUS
 10
5.4337489247
 20
2.0318933972
 11
5.523852027
 21
2.0318933972
  0
LINE
  5
23A
100
AcDbEntity
  8
ALL_ASSEMBLY_MEMBERS
100
AcDbLine
 62
7
  6
CONTINUOUS
 10
5.6235315134
 20
2.0318933972
 11
5.7136346157
 21
2.0318933972
  0
LINE
  5
23B
100
AcDbEntity
  8
ALL_ASSEMBLY_MEMBERS
100
AcDbLine
 62
7
  6
CONTINUOUS
 10
5.7136346157
 20
2.0332825826
 11
5.6235315134
 21
2.0332825826
  0
LINE
  5
23C
100
AcDbEntity
  8
ALL_ASSEMBLY_MEMBERS
100
AcDbLine
 62
7
  6
CONTINUOUS
 10
5.523852027
 20
2.0332825826
 11
5.4337489247
 21
2.0332825826
  0
LINE
  5
23D
100
AcDbEntity
  8
ALL_ASSEMBLY_MEMBERS
100
AcDbLine
 62
7
  6
CONTINUOUS
 10
5.763280307
 20
2.0360609535
 11
5.7387343783
 21
2.0360609535
  0
LINE
  5
23E
100
AcDbEntity
  8
ALL_ASSEMBLY_MEMBERS
100
AcDbLine
 62
7
  6
CONTINUOUS
 10
5.4086491621
 20
2.0360609535
 11
5.3841032334
 21
2.0360609535
  0
LINE
  5
23F
100
AcDbEntity
  8
ALL_ASSEMBLY_MEMBERS
100
AcDbLine
 62
7
  6
CONTINUOUS
 10
5.4428707058
 20
2.0412457912
 11
5.5261151178
 21
2.0352582345
  0
LINE
  5
240
100
AcDbEntity
  8
ALL_ASSEMBLY_MEMBERS
100
AcDbLine
 62
7
  6
CONTINUOUS
 10
5.6182069551
 20
2.0286343053
 11
5.7014513671
 21
2.0226467487
  0
LINE
  5
241
100
AcDbEntity
  8
ALL_ASSEMBLY_MEMBERS
100
AcDbLine
 62
7
  6
CONTINUOUS
 10
5.7045128346
 20
2.0239301887
 11
5.6212684225
 21
2.0299177453
  0
LINE
  5
242
100
AcDbEntity
  8
ALL_ASSEMBLY_MEMBERS
100
AcDbLine
 62
7
  6
CONTINUOUS
 10
5.5291765853
 20
2.0365416745
 11
5.4459321733
 21
2.0425292312
  0
LINE
  5
243
100
AcDbEntity
  8
ALL_ASSEMBLY_MEMBERS
100
AcDbLine
 62
7
  6
CONTINUOUS
 10
5.438087303
 20
2.0512239464
 11
5.4428468872
 21
2.0503974533
  0
LINE
  5
244
100
AcDbEntity
  8
ALL_ASSEMBLY_MEMBERS
100
AcDbLine
 62
7
  6
CONTINUOUS
 10
5.676252382
 20
2.0098670144
 11
5.6970637247
 21
2.0062531627
  0
LINE
  5
245
100
AcDbEntity
  8
ALL_ASSEMBLY_MEMBERS
100
AcDbLine
 62
7
  6
CONTINUOUS
 10
5.471908808
 20
2.0492801134
 11
5.5356213227
 21
2.0382165513
  0
LINE
  5
246
100
AcDbEntity
  8
ALL_ASSEMBLY_MEMBERS
100
AcDbLine
 62
7
  6
CONTINUOUS
 10
5.6061053634
 20
2.0259771261
 11
5.6698178781
 21
2.014913564
  0
LINE
  5
247
100
AcDbEntity
  8
ALL_ASSEMBLY_MEMBERS
100
AcDbLine
 62
7
  6
CONTINUOUS
 10
5.6754747323
 20
2.0158958665
 11
5.6117622177
 21
2.0269594285
  0
LINE
  5
248
100
AcDbEntity
  8
ALL_ASSEMBLY_MEMBERS
100
AcDbLine
 62
7
  6
CONTINUOUS
 10
5.5412781769
 20
2.0391988538
 11
5.4775656623
 21
2.0502624158
  0
LINE
  5
249
100
AcDbEntity
  8
ALL_ASSEMBLY_MEMBERS
100
AcDbLine
 62
7
  6
CONTINUOUS
 10
5.725347996
 20
2.0111646748
 11
5.7045366532
 21
2.0147785266
  0
LINE
  5
24A
100
AcDbEntity
  8
ALL_ASSEMBLY_MEMBERS
100
AcDbLine
 62
7
  6
CONTINUOUS
 10
5.4711311584
 20
2.0553089654
 11
5.470151517
 21
2.0554790784
  0
LINE
  5
24B
100
AcDbEntity
  8
ALL_ASSEMBLY_MEMBERS
100
AcDbLine
 62
7
  6
CONTINUOUS
 10
3.1441917702
 20
6.6143886778
 11
3.1441917702
 21
6.8853886778
  0
LINE
  5
24C
100
AcDbEntity
  8
ALL_ASSEMBLY_MEMBERS
100
AcDbLine
 62
7
  6
CONTINUOUS
 10
3.1941917702
 20
6.6145421533
 11
3.1941917702
 21
6.8853886778
  0
LINE
  5
24D
100
AcDbEntity
  8
ALL_ASSEMBLY_MEMBERS
100
AcDbLine
 62
7
  6
CONTINUOUS
 10
3.2624417702
 20
6.8933926419
 11
3.2624417702
 21
6.8523647487
  0
LINE
  5
24E
100
AcDbEntity
  8
ALL_ASSEMBLY_MEMBERS
100
AcDbLine
 62
7
  6
CONTINUOUS
 10
3.2624417702
 20
6.6474126069
 11
3.2624417702
 21
6.6063849006
  0
LINE
  5
24F
100
AcDbEntity
  8
ALL_ASSEMBLY_MEMBERS
100
AcDbLine
 62
7
  6
CONTINUOUS
 10
3.3016297778
 20
6.6518886778
 11
3.3016297778
 21
6.8478886778
  0
LINE
  5
250
100
AcDbEntity
  8
ALL_ASSEMBLY_MEMBERS
100
AcDbLine
 62
7
  6
CONTINUOUS
 10
5.3353206056
 20
2.3754138537
 11
5.3356857681
 21
2.3755003337
  0
LINE
  5
251
100
AcDbEntity
  8
ALL_ASSEMBLY_MEMBERS
100
AcDbLine
 62
7
  6
CONTINUOUS
 10
5.3353104064
 20
2.3754152069
 11
5.3356857681
 21
2.3755003337
  0
LINE
  5
252
100
AcDbEntity
  8
ALL_ASSEMBLY_MEMBERS
100
AcDbLine
 62
7
  6
CONTINUOUS
 10
5.5164424436
 20
2.0547732111
 11
5.5509234081
 21
2.0403179707
  0
LINE
  5
253
100
AcDbEntity
  8
ALL_ASSEMBLY_MEMBERS
100
AcDbLine
 62
7
  6
CONTINUOUS
 10
5.589069096
 20
2.0243263909
 11
5.6235500605
 21
2.0098711505
  0
LINE
  5
254
100
AcDbEntity
  8
ALL_ASSEMBLY_MEMBERS
100
AcDbLine
 62
7
  6
CONTINUOUS
 10
5.6309410968
 20
2.0104027687
 11
5.5964601323
 21
2.0248580092
  0
LINE
  5
255
100
AcDbEntity
  8
ALL_ASSEMBLY_MEMBERS
100
AcDbLine
 62
7
  6
CONTINUOUS
 10
5.5583144443
 20
2.0408495889
 11
5.5238334799
 21
2.0553048294
  0
LINE
  5
256
100
AcDbEntity
  8
ALL_ASSEMBLY_MEMBERS
100
AcDbLine
 62
7
  6
CONTINUOUS
 10
3.9061917702
 20
6.6518886778
 11
3.9061917702
 21
6.8478886778
  0
LINE
  5
257
100
AcDbEntity
  8
ALL_ASSEMBLY_MEMBERS
100
AcDbLine
 62
7
  6
CONTINUOUS
 10
3.9499417702
 20
6.6063847137
 11
3.9499417702
 21
6.6651243553
  0
LINE
  5
258
100
AcDbEntity
  8
ALL_ASSEMBLY_MEMBERS
100
AcDbLine
 62
7
  6
CONTINUOUS
 10
3.9499417702
 20
6.8346530003
 11
3.9499417702
 21
6.893392455
  0
LINE
  5
259
100
AcDbEntity
  8
ALL_ASSEMBLY_MEMBERS
100
AcDbLine
 62
7
  6
CONTINUOUS
 10
3.9751917702
 20
6.6523886778
 11
3.9751917702
 21
6.8473886778
  0
LINE
  5
25A
100
AcDbEntity
  8
ALL_ASSEMBLY_MEMBERS
100
AcDbLine
 62
7
  6
CONTINUOUS
 10
4.0151917702
 20
6.6523886778
 11
4.0151917702
 21
6.8473886778
  0
LINE
  5
25B
100
AcDbEntity
  8
ALL_ASSEMBLY_MEMBERS
100
AcDbLine
 62
7
  6
CONTINUOUS
 10
5.1621215558
 20
2.8812910692
 11
5.3236917702
 21
2.7880084624
  0
LINE
  5
25C
100
AcDbEntity
  8
ALL_ASSEMBLY_MEMBERS
100
AcDbLine
 62
7
  6
CONTINUOUS
 10
5.2448348328
 20
2.3516468945
 11
5.2441234034
 21
2.3525833942
  0
LINE
  5
25D
100
AcDbEntity
  8
ALL_ASSEMBLY_MEMBERS
100
AcDbLine
 62
7
  6
CONTINUOUS
 10
5.896580544
 20
2.421334941
 11
5.8964243353
 21
2.4214844702
  0
LINE
  5
25E
100
AcDbEntity
  8
ALL_ASSEMBLY_MEMBERS
100
AcDbLine
 62
7
  6
CONTINUOUS
 10
5.8965889183
 20
2.4213099495
 11
5.8964357725
 21
2.4214670522
  0
LINE
  5
25F
100
AcDbEntity
  8
ALL_ASSEMBLY_MEMBERS
100
AcDbLine
 62
7
  6
CONTINUOUS
 10
7.4960926276
 20
7.1193356101
 11
7.2475416591
 21
6.9758346415
  0
LINE
  5
260
100
AcDbEntity
  8
ALL_ASSEMBLY_MEMBERS
100
AcDbLine
 62
7
  6
CONTINUOUS
 10
5.9852619846
 20
3.6184862864
 11
5.687104901
 21
3.7906273588
  0
LINE
  5
261
100
AcDbEntity
  8
ALL_ASSEMBLY_MEMBERS
100
AcDbLine
 62
7
  6
CONTINUOUS
 10
5.0486917702
 20
3.4220280992
 11
5.0486917702
 21
3.0777488362
  0
LINE
  5
262
100
AcDbEntity
  8
ALL_ASSEMBLY_MEMBERS
100
AcDbLine
 62
7
  6
CONTINUOUS
 10
5.2736917702
 20
2.3437872399
 11
5.2736917702
 21
2.0458828946
  0
LINE
  5
263
100
AcDbEntity
  8
ALL_ASSEMBLY_MEMBERS
100
AcDbLine
 62
7
  6
CONTINUOUS
 10
7.5912909128
 20
6.3804417455
 11
7.8398418812
 21
6.5239427141
  0
LINE
  5
264
100
AcDbEntity
  8
ALL_ASSEMBLY_MEMBERS
100
AcDbLine
 62
7
  6
CONTINUOUS
 10
5.523852027
 20
2.0332825826
 11
5.5237232211
 21
2.0354302565
  0
LINE
  5
265
100
AcDbEntity
  8
ALL_ASSEMBLY_MEMBERS
100
AcDbLine
 62
7
  6
CONTINUOUS
 10
5.523852027
 20
2.0332825826
 11
5.523723382
 21
2.035430266
  0
LINE
  5
266
100
AcDbEntity
  8
ALL_ASSEMBLY_MEMBERS
100
AcDbLine
 62
7
  6
CONTINUOUS
 10
5.5291765853
 20
2.0365416745
 11
5.5290462616
 21
2.0393582676
  0
LINE
  5
267
100
AcDbEntity
  8
ALL_ASSEMBLY_MEMBERS
100
AcDbLine
 62
7
  6
CONTINUOUS
 10
5.6166898351
 20
2.032647397
 11
5.6166917702
 21
2.0325879899
  0
LINE
  5
268
100
AcDbEntity
  8
ALL_ASSEMBLY_MEMBERS
100
AcDbLine
 62
7
  6
CONTINUOUS
 10
5.5412781769
 20
2.0391988538
 11
5.5411441944
 21
2.0444175717
  0
LINE
  5
269
100
AcDbEntity
  8
ALL_ASSEMBLY_MEMBERS
100
AcDbLine
 62
7
  6
CONTINUOUS
 10
5.5412781769
 20
2.0391988538
 11
5.5411444317
 21
2.0444175502
  0
LINE
  5
26A
100
AcDbEntity
  8
ALL_ASSEMBLY_MEMBERS
100
AcDbLine
 62
7
  6
CONTINUOUS
 10
5.5693276451
 20
2.0568803314
 11
5.5696917702
 21
2.0412425705
  0
LINE
  5
26B
100
AcDbEntity
  8
ALL_ASSEMBLY_MEMBERS
100
AcDbLine
 62
7
  6
CONTINUOUS
 10
5.5583144443
 20
2.0408495889
 11
5.5582941591
 21
2.0567486753
  0
LINE
  5
26C
100
AcDbEntity
  8
ALL_ASSEMBLY_MEMBERS
100
AcDbLine
 62
7
  6
CONTINUOUS
 10
5.5583144443
 20
2.0408495889
 11
5.5582943354
 21
2.0567486284
  0
LINE
  5
26D
100
AcDbEntity
  8
ALL_ASSEMBLY_MEMBERS
100
AcDbLine
 62
7
  6
CONTINUOUS
 10
5.3236917702
 20
3.2498886778
 11
5.3236917702
 21
2.5341892267
  0
LINE
  5
26E
100
AcDbEntity
  8
ALL_ASSEMBLY_MEMBERS
100
AcDbLine
 62
7
  6
CONTINUOUS
 10
5.3457289594
 20
2.4492506541
 11
5.3457289594
 21
2.4006945383
  0
LINE
  5
26F
100
AcDbEntity
  8
ALL_ASSEMBLY_MEMBERS
100
AcDbLine
 62
7
  6
CONTINUOUS
 10
5.3636901949
 20
2.4519981415
 11
5.3636901949
 21
2.4034420257
  0
LINE
  5
270
100
AcDbEntity
  8
ALL_ASSEMBLY_MEMBERS
100
AcDbLine
 62
7
  6
CONTINUOUS
 10
5.3827463179
 20
2.4545134075
 11
5.3827463179
 21
2.4059572917
  0
LINE
  5
271
100
AcDbEntity
  8
ALL_ASSEMBLY_MEMBERS
100
AcDbLine
 62
7
  6
CONTINUOUS
 10
5.4027979752
 20
2.4567833381
 11
5.4027979752
 21
2.4082272224
  0
LINE
  5
272
100
AcDbEntity
  8
ALL_ASSEMBLY_MEMBERS
100
AcDbLine
 62
7
  6
CONTINUOUS
 10
5.4086491621
 20
2.0451684397
 11
5.4086491621
 21
2.0360609535
  0
LINE
  5
273
100
AcDbEntity
  8
ALL_ASSEMBLY_MEMBERS
100
AcDbLine
 62
7
  6
CONTINUOUS
 10
5.4220355444
 20
2.0111646748
 11
5.4220355444
 21
2.020777216
  0
LINE
  5
274
100
AcDbEntity
  8
ALL_ASSEMBLY_MEMBERS
100
AcDbLine
 62
7
  6
CONTINUOUS
 10
5.4237406233
 20
2.4587960987
 11
5.4237406233
 21
2.4102399829
  0
LINE
  5
275
100
AcDbEntity
  8
ALL_ASSEMBLY_MEMBERS
100
AcDbLine
 62
7
  6
CONTINUOUS
 10
5.4454650733
 20
2.4605411952
 11
5.4454650733
 21
2.4119850794
  0
LINE
  5
276
100
AcDbEntity
  8
ALL_ASSEMBLY_MEMBERS
100
AcDbLine
 62
7
  6
CONTINUOUS
 10
5.4678580602
 20
2.4620095293
 11
5.4678580602
 21
2.4134534135
  0
LINE
  5
277
100
AcDbEntity
  8
ALL_ASSEMBLY_MEMBERS
100
AcDbLine
 62
7
  6
CONTINUOUS
 10
5.4711311584
 20
2.0555833237
 11
5.4711311584
 21
2.0553089654
  0
LINE
  5
278
100
AcDbEntity
  8
ALL_ASSEMBLY_MEMBERS
100
AcDbLine
 62
7
  6
CONTINUOUS
 10
5.4908028334
 20
2.4631934454
 11
5.4908028334
 21
2.4146373296
  0
LINE
  5
279
100
AcDbEntity
  8
ALL_ASSEMBLY_MEMBERS
100
AcDbLine
 62
7
  6
CONTINUOUS
 10
5.5141797656
 20
2.464086771
 11
5.5141797656
 21
2.4155306552
  0
LINE
  5
27A
100
AcDbEntity
  8
ALL_ASSEMBLY_MEMBERS
100
AcDbLine
 62
7
  6
CONTINUOUS
 10
5.5378669762
 20
2.4646848486
 11
5.5378669762
 21
2.4161287328
  0
LINE
  5
27B
100
AcDbEntity
  8
ALL_ASSEMBLY_MEMBERS
100
AcDbLine
 62
7
  6
CONTINUOUS
 10
5.5536917702
 20
2.0039286418
 11
5.5536917702
 21
1.9988178836
  0
LINE
  5
27C
100
AcDbEntity
  8
ALL_ASSEMBLY_MEMBERS
100
AcDbLine
 62
7
  6
CONTINUOUS
 10
5.5617409668
 20
2.4649845598
 11
5.5617409668
 21
2.416428444
  0
LINE
  5
27D
100
AcDbEntity
  8
ALL_ASSEMBLY_MEMBERS
100
AcDbLine
 62
7
  6
CONTINUOUS
 10
5.5696917702
 20
2.05688881
 11
5.5696917702
 21
2.0412425705
  0
LINE
  5
27E
100
AcDbEntity
  8
ALL_ASSEMBLY_MEMBERS
100
AcDbLine
 62
7
  6
CONTINUOUS
 10
5.5696917702
 20
2.0239334094
 11
5.5696917702
 21
2.0082871698
  0
LINE
  5
27F
100
AcDbEntity
  8
ALL_ASSEMBLY_MEMBERS
100
AcDbLine
 62
7
  6
CONTINUOUS
 10
5.5776917702
 20
2.0082871698
 11
5.5776917702
 21
2.0239334094
  0
LINE
  5
280
100
AcDbEntity
  8
ALL_ASSEMBLY_MEMBERS
100
AcDbLine
 62
7
  6
CONTINUOUS
 10
5.5776917702
 20
2.0412425705
 11
5.5776917702
 21
2.05688881
  0
LINE
  5
281
100
AcDbEntity
  8
ALL_ASSEMBLY_MEMBERS
100
AcDbLine
 62
7
  6
CONTINUOUS
 10
5.5856772655
 20
2.4649843422
 11
5.5856772655
 21
2.4164282264
  0
LINE
  5
282
100
AcDbEntity
  8
ALL_ASSEMBLY_MEMBERS
100
AcDbLine
 62
7
  6
CONTINUOUS
 10
5.5936917702
 20
1.9988178836
 11
5.5936917702
 21
2.0039286418
  0
LINE
  5
283
100
AcDbEntity
  8
ALL_ASSEMBLY_MEMBERS
100
AcDbLine
 62
7
  6
CONTINUOUS
 10
5.6095510753
 20
2.4646841968
 11
5.6095510753
 21
2.416128081
  0
LINE
  5
284
100
AcDbEntity
  8
ALL_ASSEMBLY_MEMBERS
100
AcDbLine
 62
7
  6
CONTINUOUS
 10
5.5890892044
 20
2.0567486292
 11
5.589069096
 21
2.0408495889
  0
LINE
  5
285
100
AcDbEntity
  8
ALL_ASSEMBLY_MEMBERS
100
AcDbLine
 62
7
  6
CONTINUOUS
 10
5.5306917702
 20
2.0325879899
 11
5.5306937053
 21
2.032647397
  0
LINE
  5
286
100
AcDbEntity
  8
ALL_ASSEMBLY_MEMBERS
100
AcDbLine
 62
7
  6
CONTINUOUS
 10
5.6332379251
 20
2.4640856885
 11
5.6332379251
 21
2.4155295727
  0
LINE
  5
287
100
AcDbEntity
  8
ALL_ASSEMBLY_MEMBERS
100
AcDbLine
 62
7
  6
CONTINUOUS
 10
5.6566143184
 20
2.4631919378
 11
5.6566143184
 21
2.414635822
  0
LINE
  5
288
100
AcDbEntity
  8
ALL_ASSEMBLY_MEMBERS
100
AcDbLine
 62
7
  6
CONTINUOUS
 10
5.676252382
 20
2.0555833237
 11
5.676252382
 21
2.0553089654
  0
LINE
  5
289
100
AcDbEntity
  8
ALL_ASSEMBLY_MEMBERS
100
AcDbLine
 62
7
  6
CONTINUOUS
 10
5.6795583775
 20
2.4620076045
 11
5.6795583775
 21
2.4134514887
  0
LINE
  5
28A
100
AcDbEntity
  8
ALL_ASSEMBLY_MEMBERS
100
AcDbLine
 62
7
  6
CONTINUOUS
 10
5.7019504788
 20
2.4605388632
 11
5.7019504788
 21
2.4119827474
  0
LINE
  5
28B
100
AcDbEntity
  8
ALL_ASSEMBLY_MEMBERS
100
AcDbLine
 62
7
  6
CONTINUOUS
 10
5.7236738763
 20
2.4587933717
 11
5.7236738763
 21
2.4102372559
  0
LINE
  5
28C
100
AcDbEntity
  8
ALL_ASSEMBLY_MEMBERS
100
AcDbLine
 62
7
  6
CONTINUOUS
 10
5.725347996
 20
2.0111646748
 11
5.725347996
 21
2.020777225
  0
LINE
  5
28D
100
AcDbEntity
  8
ALL_ASSEMBLY_MEMBERS
100
AcDbLine
 62
7
  6
CONTINUOUS
 10
5.7387343783
 20
2.0451684397
 11
5.7387343783
 21
2.0360609535
  0
LINE
  5
28E
100
AcDbEntity
  8
ALL_ASSEMBLY_MEMBERS
100
AcDbLine
 62
7
  6
CONTINUOUS
 10
5.7446153105
 20
2.4567802303
 11
5.7446153105
 21
2.4082241145
  0
LINE
  5
28F
100
AcDbEntity
  8
ALL_ASSEMBLY_MEMBERS
100
AcDbLine
 62
7
  6
CONTINUOUS
 10
5.7646655988
 20
2.454509935
 11
5.7646655988
 21
2.4059538192
  0
LINE
  5
290
100
AcDbEntity
  8
ALL_ASSEMBLY_MEMBERS
100
AcDbLine
 62
7
  6
CONTINUOUS
 10
5.7837202048
 20
2.4519943225
 11
5.7837202048
 21
2.4034382067
  0
LINE
  5
291
100
AcDbEntity
  8
ALL_ASSEMBLY_MEMBERS
100
AcDbLine
 62
7
  6
CONTINUOUS
 10
5.8016797833
 20
2.4492465085
 11
5.8016797833
 21
2.4006903927
  0
LINE
  5
292
100
AcDbEntity
  8
ALL_ASSEMBLY_MEMBERS
100
AcDbLine
 62
7
  6
CONTINUOUS
 10
5.8236917702
 20
3.2498886778
 11
5.8236917702
 21
2.5341868568
  0
LINE
  5
293
100
AcDbEntity
  8
ALL_ASSEMBLY_MEMBERS
100
AcDbLine
 62
7
  6
CONTINUOUS
 10
5.8736917702
 20
2.3437872399
 11
5.8736917702
 21
2.0458828946
  0
LINE
  5
294
100
AcDbEntity
  8
ALL_ASSEMBLY_MEMBERS
100
AcDbLine
 62
7
  6
CONTINUOUS
 10
5.5776917702
 20
2.0412425705
 11
5.5780558947
 21
2.056880385
  0
LINE
  5
295
100
AcDbEntity
  8
ALL_ASSEMBLY_MEMBERS
100
AcDbLine
 62
7
  6
CONTINUOUS
 10
5.6062391084
 20
2.04441755
 11
5.6061053634
 21
2.0391988538
  0
LINE
  5
296
100
AcDbEntity
  8
ALL_ASSEMBLY_MEMBERS
100
AcDbLine
 62
7
  6
CONTINUOUS
 10
5.606239346
 20
2.0444175716
 11
5.6061053634
 21
2.0391988538
  0
LINE
  5
297
100
AcDbEntity
  8
ALL_ASSEMBLY_MEMBERS
100
AcDbLine
 62
7
  6
CONTINUOUS
 10
5.6183370899
 20
2.0393582659
 11
5.6182069551
 21
2.0365416745
  0
LINE
  5
298
100
AcDbEntity
  8
ALL_ASSEMBLY_MEMBERS
100
AcDbLine
 62
7
  6
CONTINUOUS
 10
5.6183372787
 20
2.0393582675
 11
5.6182069551
 21
2.0365416745
  0
LINE
  5
299
100
AcDbEntity
  8
ALL_ASSEMBLY_MEMBERS
100
AcDbLine
 62
7
  6
CONTINUOUS
 10
5.6236601582
 20
2.0354302659
 11
5.6235315134
 21
2.0332825826
  0
LINE
  5
29A
100
AcDbEntity
  8
ALL_ASSEMBLY_MEMBERS
100
AcDbLine
 62
7
  6
CONTINUOUS
 10
5.6236603193
 20
2.0354302565
 11
5.6235315134
 21
2.0332825826
  0
LINE
  5
29B
100
AcDbEntity
  8
ALL_ASSEMBLY_MEMBERS
100
AcDbLine
 62
7
  6
CONTINUOUS
 10
6.0986917702
 20
3.0777492563
 11
6.0986917702
 21
3.4220285194
  0
LINE
  5
29C
100
AcDbEntity
  8
ALL_ASSEMBLY_MEMBERS
100
AcDbLine
 62
7
  6
CONTINUOUS
 10
3.3100423414
 20
6.5239423201
 11
3.5585930887
 21
6.3804414793
  0
LINE
  5
29D
100
AcDbEntity
  8
ALL_ASSEMBLY_MEMBERS
100
AcDbLine
 62
7
  6
CONTINUOUS
 10
5.4602609034
 20
3.790617119
 11
5.1621390266
 21
3.6184963731
  0
LINE
  5
29E
100
AcDbEntity
  8
ALL_ASSEMBLY_MEMBERS
100
AcDbLine
 62
7
  6
CONTINUOUS
 10
3.902341199
 20
6.9758350354
 11
3.6537904516
 21
7.1193358763
  0
LINE
  5
29F
100
AcDbEntity
  8
ALL_ASSEMBLY_MEMBERS
100
AcDbLine
 62
7
  6
CONTINUOUS
 10
7.1346917702
 20
6.8473886778
 11
7.1346917702
 21
6.6523886778
  0
LINE
  5
2A0
100
AcDbEntity
  8
ALL_ASSEMBLY_MEMBERS
100
AcDbLine
 62
7
  6
CONTINUOUS
 10
7.1746917702
 20
6.8473886778
 11
7.1746917702
 21
6.6523886778
  0
LINE
  5
2A1
100
AcDbEntity
  8
ALL_ASSEMBLY_MEMBERS
100
AcDbLine
 62
7
  6
CONTINUOUS
 10
7.1999417702
 20
6.8933926419
 11
7.1999417702
 21
6.8346530003
  0
LINE
  5
2A2
100
AcDbEntity
  8
ALL_ASSEMBLY_MEMBERS
100
AcDbLine
 62
7
  6
CONTINUOUS
 10
7.1999417702
 20
6.6651243553
 11
7.1999417702
 21
6.6063849006
  0
LINE
  5
2A3
100
AcDbEntity
  8
ALL_ASSEMBLY_MEMBERS
100
AcDbLine
 62
7
  6
CONTINUOUS
 10
7.2436917702
 20
6.6518886778
 11
7.2436917702
 21
6.8478886778
  0
LINE
  5
2A4
100
AcDbEntity
  8
ALL_ASSEMBLY_MEMBERS
100
AcDbLine
 62
7
  6
CONTINUOUS
 10
5.9025443308
 20
2.3516409145
 11
5.9032570052
 21
2.3525792329
  0
LINE
  5
2A5
100
AcDbEntity
  8
ALL_ASSEMBLY_MEMBERS
100
AcDbLine
 62
7
  6
CONTINUOUS
 10
5.8236917702
 20
2.7880084624
 11
5.9852445138
 21
2.8812809824
  0
LINE
  5
2A6
100
AcDbEntity
  8
ALL_ASSEMBLY_MEMBERS
100
AcDbLine
 62
7
  6
CONTINUOUS
 10
5.8938056996
 20
2.3425131669
 11
5.8939129127
 21
2.3426114626
  0
LINE
  5
2A7
100
AcDbEntity
  8
ALL_ASSEMBLY_MEMBERS
100
AcDbLine
 62
7
  6
CONTINUOUS
 10
5.8937968068
 20
2.3425011873
 11
5.8939056044
 21
2.3425949093
  0
LINE
  5
2A8
100
AcDbEntity
  8
ALL_ASSEMBLY_MEMBERS
100
AcDbLine
 62
7
  6
CONTINUOUS
 10
3.9061917702
 20
6.6518886778
 11
3.8990573165
 21
6.6518886778
  0
LINE
  5
2A9
100
AcDbEntity
  8
ALL_ASSEMBLY_MEMBERS
100
AcDbLine
 62
7
  6
CONTINUOUS
 10
3.3133262348
 20
6.6518886778
 11
3.3016297778
 21
6.6518886778
  0
LINE
  5
2AA
100
AcDbEntity
  8
ALL_ASSEMBLY_MEMBERS
100
AcDbLine
 62
7
  6
CONTINUOUS
 10
7.2436917702
 20
6.6518886778
 11
7.2508262348
 21
6.6518886778
  0
LINE
  5
2AB
100
AcDbEntity
  8
ALL_ASSEMBLY_MEMBERS
100
AcDbLine
 62
7
  6
CONTINUOUS
 10
7.8365573165
 20
6.6518886778
 11
7.8482537625
 21
6.6518886778
  0
LINE
  5
2AC
100
AcDbEntity
  8
ALL_ASSEMBLY_MEMBERS
100
AcDbLine
 62
2
  6
PHANTOM
 10
7.8398084273
 20
6.7498886778
 11
7.8325711845
 21
6.7498886778
  0
LINE
  5
2AD
100
AcDbEntity
  8
ALL_ASSEMBLY_MEMBERS
100
AcDbLine
 62
2
  6
PHANTOM
 10
3.3100751131
 20
6.7498886778
 11
3.3173123559
 21
6.7498886778
  0
LINE
  5
2AE
100
AcDbEntity
  8
ALL_ASSEMBLY_MEMBERS
100
AcDbLine
 62
7
  6
CONTINUOUS
 10
3.9061917702
 20
6.8478886778
 11
3.8990573056
 21
6.8478886778
  0
LINE
  5
2AF
100
AcDbEntity
  8
ALL_ASSEMBLY_MEMBERS
100
AcDbLine
 62
7
  6
CONTINUOUS
 10
3.3133262238
 20
6.8478886778
 11
3.3016297778
 21
6.8478886778
  0
LINE
  5
2B0
100
AcDbEntity
  8
ALL_ASSEMBLY_MEMBERS
100
AcDbLine
 62
7
  6
CONTINUOUS
 10
7.2436917702
 20
6.8478886778
 11
7.2508262238
 21
6.8478886778
  0
LINE
  5
2B1
100
AcDbEntity
  8
ALL_ASSEMBLY_MEMBERS
100
AcDbLine
 62
7
  6
CONTINUOUS
 10
7.8365573056
 20
6.8478886778
 11
7.8482537625
 21
6.8478886778
  0
LINE
  5
2B2
100
AcDbEntity
  8
ALL_ASSEMBLY_MEMBERS
100
AcDbLine
 62
7
  6
CONTINUOUS
 10
7.8482537625
 20
6.6518886778
 11
7.8482537625
 21
6.8478886778
  0
LINE
  5
2B3
100
AcDbEntity
  8
ALL_ASSEMBLY_MEMBERS
100
AcDbLine
 62
7
  6
CONTINUOUS
 10
7.8874417702
 20
6.6063847137
 11
7.8874417702
 21
6.6474126069
  0
LINE
  5
2B4
100
AcDbEntity
  8
ALL_ASSEMBLY_MEMBERS
100
AcDbLine
 62
7
  6
CONTINUOUS
 10
7.8874417702
 20
6.8523647487
 11
7.8874417702
 21
6.893392455
  0
LINE
  5
2B5
100
AcDbEntity
  8
ALL_ASSEMBLY_MEMBERS
100
AcDbLine
 62
7
  6
CONTINUOUS
 10
7.9556917702
 20
6.8852352022
 11
7.9556917702
 21
6.6143886778
  0
LINE
  5
2B6
100
AcDbEntity
  8
ALL_ASSEMBLY_MEMBERS
100
AcDbLine
 62
7
  6
CONTINUOUS
 10
8.0056917702
 20
6.8853886778
 11
8.0056917702
 21
6.6143886778
  0
LINE
  5
2B7
100
AcDbEntity
  8
ALL_ASSEMBLY_MEMBERS
100
AcDbLine
 62
7
  6
CONTINUOUS
 10
5.6235500605
 20
2.0553048294
 11
5.589069096
 21
2.0408495889
  0
LINE
  5
2B8
100
AcDbEntity
  8
ALL_ASSEMBLY_MEMBERS
100
AcDbLine
 62
7
  6
CONTINUOUS
 10
5.5509234081
 20
2.0248580092
 11
5.5164424436
 21
2.0104027687
  0
LINE
  5
2B9
100
AcDbEntity
  8
ALL_ASSEMBLY_MEMBERS
100
AcDbLine
 62
7
  6
CONTINUOUS
 10
5.5238334799
 20
2.0098711505
 11
5.5583144443
 21
2.0243263909
  0
LINE
  5
2BA
100
AcDbEntity
  8
ALL_ASSEMBLY_MEMBERS
100
AcDbLine
 62
7
  6
CONTINUOUS
 10
5.5964601323
 20
2.0403179707
 11
5.6309410968
 21
2.0547732111
  0
LINE
  5
2BB
100
AcDbEntity
  8
ALL_ASSEMBLY_MEMBERS
100
AcDbLine
 62
7
  6
CONTINUOUS
 10
7.2475423414
 20
6.5239423201
 11
7.4960930887
 21
6.3804414793
  0
LINE
  5
2BC
100
AcDbEntity
  8
ALL_ASSEMBLY_MEMBERS
100
AcDbLine
 62
7
  6
CONTINUOUS
 10
8.6094586358
 20
6.5776386778
 11
8.6094586358
 21
6.9221386778
  0
LINE
  5
2BD
100
AcDbEntity
  8
ALL_ASSEMBLY_MEMBERS
100
AcDbLine
 62
7
  6
CONTINUOUS
 10
7.839841199
 20
6.9758350354
 11
7.5912904516
 21
7.1193358763
  0
LINE
  5
2BE
100
AcDbEntity
  8
ALL_ASSEMBLY_MEMBERS
100
AcDbLine
 62
7
  6
CONTINUOUS
 10
9.2556917702
 20
6.5776386778
 11
9.2556917702
 21
6.9221386778
  0
LINE
  5
2BF
100
AcDbEntity
  8
ALL_ASSEMBLY_MEMBERS
100
AcDbLine
 62
7
  6
CONTINUOUS
 10
9.3061917702
 20
6.5776386778
 11
9.3061917702
 21
6.9221386778
  0
ARC
  5
2C0
100
AcDbEntity
  8
ALL_ASSEMBLY_MEMBERS
100
AcDbCircle
 62
7
  6
CONTINUOUS
 10
5.4124595001
 20
2.0336050745
 40
0.3504070674
100
AcDbArc
 50
102.9162657185
 51
105.1851015595
  0
ARC
  5
2C1
100
AcDbEntity
  8
ALL_ASSEMBLY_MEMBERS
100
AcDbCircle
 62
7
  6
CONTINUOUS
 10
5.2992582702
 20
2.3707827386
 40
0.0700203959
100
AcDbArc
 50
127.572876275
 51
133.7560170332
  0
ARC
  5
2C2
100
AcDbEntity
  8
ALL_ASSEMBLY_MEMBERS
100
AcDbCircle
 62
7
  6
CONTINUOUS
 10
5.2973316211
 20
2.3728774783
 40
0.0671749587
100
AcDbArc
 50
133.8047168524
 51
134.443561079
  0
ARC
  5
2C3
100
AcDbEntity
  8
ALL_ASSEMBLY_MEMBERS
100
AcDbCircle
 62
7
  6
CONTINUOUS
 10
5.295194248
 20
2.3750302473
 40
0.0641414101
100
AcDbArc
 50
134.4269687867
 51
138.3842222679
  0
ARC
  5
2C4
100
AcDbEntity
  8
ALL_ASSEMBLY_MEMBERS
100
AcDbCircle
 62
7
  6
CONTINUOUS
 10
5.2943178258
 20
2.3904005668
 40
0.0628685049
100
AcDbArc
 50
222.0712574662
 51
223.2425674679
  0
ARC
  5
2C5
100
AcDbEntity
  8
ALL_ASSEMBLY_MEMBERS
100
AcDbCircle
 62
7
  6
CONTINUOUS
 10
5.2922023029
 20
2.3885450109
 40
0.0600548169
100
AcDbArc
 50
217.9200931682
 51
222.1095282788
  0
ARC
  5
2C6
100
AcDbEntity
  8
ALL_ASSEMBLY_MEMBERS
100
AcDbCircle
 62
7
  6
CONTINUOUS
 10
5.288357804
 20
2.3807779031
 40
0.0552027249
100
AcDbArc
 50
142.7010408391
 51
149.9601740032
  0
ARC
  5
2C7
100
AcDbEntity
  8
ALL_ASSEMBLY_MEMBERS
100
AcDbCircle
 62
7
  6
CONTINUOUS
 10
5.2882805165
 20
2.3856050961
 40
0.0551520534
100
AcDbArc
 50
212.7630884709
 51
215.267487854
  0
ARC
  5
2C8
100
AcDbEntity
  8
ALL_ASSEMBLY_MEMBERS
100
AcDbCircle
 62
7
  6
CONTINUOUS
 10
5.2867875155
 20
2.3846581954
 40
0.0533841361
100
AcDbArc
 50
209.1051360477
 51
212.7756444412
  0
ARC
  5
2C9
100
AcDbEntity
  8
ALL_ASSEMBLY_MEMBERS
100
AcDbCircle
 62
7
  6
CONTINUOUS
 10
5.2858920524
 20
2.3841561137
 40
0.052357525
100
AcDbArc
 50
202.1754035843
 51
209.1017243618
  0
ARC
  5
2CA
100
AcDbEntity
  8
ALL_ASSEMBLY_MEMBERS
100
AcDbCircle
 62
7
  6
CONTINUOUS
 10
5.2810329697
 20
2.3841803502
 40
0.0477216419
100
AcDbArc
 50
211.9832228947
 51
216.511885933
  0
ARC
  5
2CB
100
AcDbEntity
  8
ALL_ASSEMBLY_MEMBERS
100
AcDbCircle
 62
7
  6
CONTINUOUS
 10
5.2818954189
 20
2.3810616617
 40
0.0473150671
100
AcDbArc
 50
217.0219087998
 51
218.4388225889
  0
ARC
  5
2CC
100
AcDbEntity
  8
ALL_ASSEMBLY_MEMBERS
100
AcDbCircle
 62
7
  6
CONTINUOUS
 10
5.2816749913
 20
2.3808957039
 40
0.0470391499
100
AcDbArc
 50
216.035142268
 51
217.0221795608
  0
ARC
  5
2CD
100
AcDbEntity
  8
ALL_ASSEMBLY_MEMBERS
100
AcDbCircle
 62
7
  6
CONTINUOUS
 10
5.281491583
 20
2.3807623927
 40
0.0468124112
100
AcDbArc
 50
215.2154633328
 51
216.0352558172
  0
ARC
  5
2CE
100
AcDbEntity
  8
ALL_ASSEMBLY_MEMBERS
100
AcDbCircle
 62
7
  6
CONTINUOUS
 10
5.2784684966
 20
2.3853611941
 40
0.0442934487
100
AcDbArc
 50
151.7600265019
 51
156.7519735984
  0
ARC
  5
2CF
100
AcDbEntity
  8
ALL_ASSEMBLY_MEMBERS
100
AcDbCircle
 62
7
  6
CONTINUOUS
 10
5.2737458062
 20
2.3827894872
 40
0.0400454202
100
AcDbArc
 50
171.8148333507
 51
182.0662061769
  0
ARC
  5
2D0
100
AcDbEntity
  8
ALL_ASSEMBLY_MEMBERS
100
AcDbCircle
 62
7
  6
CONTINUOUS
 10
5.2689088723
 20
2.3772320695
 40
0.0340207956
100
AcDbArc
 50
195.3495762955
 51
202.2042470048
  0
ARC
  5
2D1
100
AcDbEntity
  8
ALL_ASSEMBLY_MEMBERS
100
AcDbCircle
 62
7
  6
CONTINUOUS
 10
5.2645810978
 20
2.3750020254
 40
0.0291376989
100
AcDbArc
 50
211.8157139429
 51
221.2597634263
  0
ARC
  5
2D2
100
AcDbEntity
  8
ALL_ASSEMBLY_MEMBERS
100
AcDbCircle
 62
7
  6
CONTINUOUS
 10
5.2671010491
 20
2.3696943841
 40
0.0286631292
100
AcDbArc
 50
214.3742228322
 51
215.076008744
  0
ARC
  5
2D3
100
AcDbEntity
  8
ALL_ASSEMBLY_MEMBERS
100
AcDbCircle
 62
7
  6
CONTINUOUS
 10
5.2667500534
 20
2.3694458726
 40
0.0282330675
100
AcDbArc
 50
215.0726089641
 51
216.708791808
  0
ARC
  5
2D4
100
AcDbEntity
  8
ALL_ASSEMBLY_MEMBERS
100
AcDbCircle
 62
7
  6
CONTINUOUS
 10
5.3894400052
 20
2.0212364395
 40
0.0153171091
100
AcDbArc
 50
134.9559536932
 51
137.5973676604
  0
ARC
  5
2D5
100
AcDbEntity
  8
ALL_ASSEMBLY_MEMBERS
100
AcDbCircle
 62
7
  6
CONTINUOUS
 10
5.2959554241
 20
2.3920002945
 40
0.065157399
100
AcDbArc
 50
223.280764148
 51
229.3318757721
  0
ARC
  5
2D6
100
AcDbEntity
  8
ALL_ASSEMBLY_MEMBERS
100
AcDbCircle
 62
7
  6
CONTINUOUS
 10
5.2673975638
 20
2.3928962482
 40
0.0309930147
100
AcDbArc
 50
149.9250060435
 51
154.3476409829
  0
ARC
  5
2D7
100
AcDbEntity
  8
ALL_ASSEMBLY_MEMBERS
100
AcDbCircle
 62
7
  6
CONTINUOUS
 10
5.5420067136
 20
1.5330407565
 40
0.5270554301
100
AcDbArc
 50
96.6207420148
 51
97.7282382428
  0
ARC
  5
2D8
100
AcDbEntity
  8
ALL_ASSEMBLY_MEMBERS
100
AcDbCircle
 62
7
  6
CONTINUOUS
 10
5.5172636744
 20
1.5652282618
 40
0.4924190899
100
AcDbArc
 50
98.7224510084
 51
98.8863748367
  0
ARC
  5
2D9
100
AcDbEntity
  8
ALL_ASSEMBLY_MEMBERS
100
AcDbCircle
 62
7
  6
CONTINUOUS
 10
5.4397467782
 20
1.9141688137
 40
0.4729233282
100
AcDbArc
 50
101.2787028633
 51
102.3765208026
  0
ARC
  5
2DA
100
AcDbEntity
  8
ALL_ASSEMBLY_MEMBERS
100
AcDbCircle
 62
7
  6
CONTINUOUS
 10
5.430348126
 20
1.9571727284
 40
0.4289043569
100
AcDbArc
 50
102.3814659224
 51
102.7505843525
  0
ARC
  5
2DB
100
AcDbEntity
  8
ALL_ASSEMBLY_MEMBERS
100
AcDbCircle
 62
7
  6
CONTINUOUS
 10
5.4263522571
 20
1.9748121915
 40
0.4108179579
100
AcDbArc
 50
102.8036827452
 51
102.9719763952
  0
ARC
  5
2DC
100
AcDbEntity
  8
ALL_ASSEMBLY_MEMBERS
100
AcDbCircle
 62
7
  6
CONTINUOUS
 10
5.5740198995
 20
2.2951294621
 40
0.2712209094
100
AcDbArc
 50
270.7757112769
 51
273.1807964637
  0
ARC
  5
2DD
100
AcDbEntity
  8
ALL_ASSEMBLY_MEMBERS
100
AcDbCircle
 62
7
  6
CONTINUOUS
 10
5.5740199004
 20
1.7700465424
 40
0.2712208847
100
AcDbArc
 50
86.8192034269
 51
89.2242888325
  0
ARC
  5
2DE
100
AcDbEntity
  8
ALL_ASSEMBLY_MEMBERS
100
AcDbCircle
 62
7
  6
CONTINUOUS
 10
5.5733636399
 20
1.770046545
 40
0.271220882
100
AcDbArc
 50
90.7757111557
 51
93.1807965849
  0
ARC
  5
2DF
100
AcDbEntity
  8
ALL_ASSEMBLY_MEMBERS
100
AcDbCircle
 62
7
  6
CONTINUOUS
 10
5.5733636395
 20
2.2951294248
 40
0.2712208721
100
AcDbArc
 50
266.8192033709
 51
269.2242888886
  0
ARC
  5
2E0
100
AcDbEntity
  8
ALL_ASSEMBLY_MEMBERS
100
AcDbCircle
 62
7
  6
CONTINUOUS
 10
5.5736917702
 20
3.1216029756
 40
1.1229632063
100
AcDbArc
 50
268.9795069219
 51
271.0204930781
  0
ARC
  5
2E1
100
AcDbEntity
  8
ALL_ASSEMBLY_MEMBERS
100
AcDbCircle
 62
7
  6
CONTINUOUS
 10
5.5736917702
 20
3.2498886778
 40
0.685
100
AcDbArc
 50
291.4087698808
 51
248.5912301192
  0
ARC
  5
2E2
100
AcDbEntity
  8
ALL_ASSEMBLY_MEMBERS
100
AcDbCircle
 62
7
  6
CONTINUOUS
 10
5.5736917702
 20
3.2498886778
 40
0.6713706144
100
AcDbArc
 50
291.8677256268
 51
248.1322800779
  0
ARC
  5
2E3
100
AcDbEntity
  8
ALL_ASSEMBLY_MEMBERS
100
AcDbCircle
 62
7
  6
CONTINUOUS
 10
5.5736917702
 20
3.2498886778
 40
0.6613899404
100
AcDbArc
 50
292.2153346718
 51
247.7846712824
  0
ARC
  5
2E4
100
AcDbEntity
  8
ALL_ASSEMBLY_MEMBERS
100
AcDbCircle
 62
7
  6
CONTINUOUS
 10
5.5736917702
 20
3.2498886778
 40
0.5890977069
100
AcDbArc
 50
295.1153123221
 51
244.8846876779
  0
ARC
  5
2E5
100
AcDbEntity
  8
ALL_ASSEMBLY_MEMBERS
100
AcDbCircle
 62
7
  6
CONTINUOUS
 10
5.5736917702
 20
3.2498886778
 40
0.5525
100
AcDbArc
 50
138.1533121441
 51
161.8466878559
  0
ARC
  5
2E6
100
AcDbEntity
  8
ALL_ASSEMBLY_MEMBERS
100
AcDbCircle
 62
7
  6
CONTINUOUS
 10
5.5736917702
 20
3.2498886778
 40
0.5525
100
AcDbArc
 50
198.1533121441
 51
221.8466878559
  0
ARC
  5
2E7
100
AcDbEntity
  8
ALL_ASSEMBLY_MEMBERS
100
AcDbCircle
 62
7
  6
CONTINUOUS
 10
5.5736917702
 20
3.2498886778
 40
0.5525
100
AcDbArc
 50
318.1533121441
 51
341.8466878559
  0
ARC
  5
2E8
100
AcDbEntity
  8
ALL_ASSEMBLY_MEMBERS
100
AcDbCircle
 62
7
  6
CONTINUOUS
 10
5.5736917702
 20
3.2498886778
 40
0.5525
100
AcDbArc
 50
18.1533121441
 51
41.8466878559
  0
ARC
  5
2E9
100
AcDbEntity
  8
ALL_ASSEMBLY_MEMBERS
100
AcDbCircle
 62
7
  6
CONTINUOUS
 10
5.5736917702
 20
3.2498886778
 40
0.5525
100
AcDbArc
 50
78.1533121441
 51
101.8466878559
  0
ARC
  5
2EA
100
AcDbEntity
  8
ALL_ASSEMBLY_MEMBERS
100
AcDbCircle
 62
7
  6
CONTINUOUS
 10
5.5736917702
 20
3.2498886778
 40
0.4825
100
AcDbArc
 50
301.2085462722
 51
238.7914537278
  0
ARC
  5
2EB
100
AcDbEntity
  8
ALL_ASSEMBLY_MEMBERS
100
AcDbCircle
 62
7
  6
CONTINUOUS
 10
5.5736917702
 20
3.2498886778
 40
0.3991949516
100
AcDbArc
 50
308.7802273771
 51
231.2197726229
  0
ARC
  5
2EC
100
AcDbEntity
  8
ALL_ASSEMBLY_MEMBERS
100
AcDbCircle
 62
7
  6
CONTINUOUS
 10
5.5736917702
 20
3.2498886778
 40
0.3575
100
AcDbArc
 50
314.3882446657
 51
225.6117553343
  0
ARC
  5
2ED
100
AcDbEntity
  8
ALL_ASSEMBLY_MEMBERS
100
AcDbCircle
 62
7
  6
CONTINUOUS
 10
5.5736917702
 20
3.2498886778
 40
0.3175
100
AcDbArc
 50
321.9571794448
 51
218.0428205552
  0
ARC
  5
2EE
100
AcDbEntity
  8
ALL_ASSEMBLY_MEMBERS
100
AcDbCircle
 62
7
  6
CONTINUOUS
 10
5.5736917702
 20
3.2498886778
 40
0.2868450182
100
AcDbArc
 50
330.6635465003
 51
209.3364534994
  0
ARC
  5
2EF
100
AcDbEntity
  8
ALL_ASSEMBLY_MEMBERS
100
AcDbCircle
 62
7
  6
CONTINUOUS
 10
5.5736917702
 20
3.2498886778
 40
0.2618450142
100
AcDbArc
 50
342.7505996139
 51
197.249115538
  0
ARC
  5
2F0
100
AcDbEntity
  8
ALL_ASSEMBLY_MEMBERS
100
AcDbCircle
 62
7
  6
CONTINUOUS
 10
5.5736917702
 20
3.2498886778
 40
0.255
100
AcDbArc
 50
348.7464429297
 51
191.2535570703
  0
ARC
  5
2F1
100
AcDbEntity
  8
ALL_ASSEMBLY_MEMBERS
100
AcDbCircle
 62
7
  6
CONTINUOUS
 10
5.5736917702
 20
3.2498886778
 40
0.25
100
AcDbArc
 50
0.0
 51
180.0
  0
ARC
  5
2F2
100
AcDbEntity
  8
ALL_ASSEMBLY_MEMBERS
100
AcDbCircle
 62
7
  6
CONTINUOUS
 10
2.9078264835
 20
5.5196140657
 40
1.12
100
AcDbArc
 50
77.8166686749
 51
109.1496801392
  0
ARC
  5
2F3
100
AcDbEntity
  8
ALL_ASSEMBLY_MEMBERS
100
AcDbCircle
 62
7
  6
CONTINUOUS
 10
2.2173083374
 20
5.9916438181
 40
0.985
100
AcDbArc
 50
70.8503198608
 51
109.1496801392
  0
ARC
  5
2F4
100
AcDbEntity
  8
ALL_ASSEMBLY_MEMBERS
100
AcDbCircle
 62
7
  6
CONTINUOUS
 10
3.3016297778
 20
6.4773886778
 40
0.1745
100
AcDbArc
 50
90.0
 51
128.0042004746
  0
ARC
  5
2F5
100
AcDbEntity
  8
ALL_ASSEMBLY_MEMBERS
100
AcDbCircle
 62
7
  6
CONTINUOUS
 10
1.8689417702
 20
6.5776386778
 40
0.02525
100
AcDbArc
 50
180.0
 51
360.0
  0
ARC
  5
2F6
100
AcDbEntity
  8
ALL_ASSEMBLY_MEMBERS
100
AcDbCircle
 62
7
  6
CONTINUOUS
 10
3.1691917702
 20
6.6143886778
 40
0.025
100
AcDbArc
 50
180.0
 51
360.0
  0
ARC
  5
2F7
100
AcDbEntity
  8
ALL_ASSEMBLY_MEMBERS
100
AcDbCircle
 62
7
  6
CONTINUOUS
 10
2.9078264835
 20
7.9801632899
 40
1.12
100
AcDbArc
 50
250.8503198608
 51
282.1833313251
  0
ARC
  5
2F8
100
AcDbEntity
  8
ALL_ASSEMBLY_MEMBERS
100
AcDbCircle
 62
7
  6
CONTINUOUS
 10
2.2173083374
 20
7.5081335375
 40
0.985
100
AcDbArc
 50
250.8503198608
 51
289.1496801392
  0
ARC
  5
2F9
100
AcDbEntity
  8
ALL_ASSEMBLY_MEMBERS
100
AcDbCircle
 62
7
  6
CONTINUOUS
 10
1.9781917702
 20
6.7498886778
 40
0.195
100
AcDbArc
 50
133.6098152012
 51
226.3901847988
  0
ARC
  5
2FA
100
AcDbEntity
  8
ALL_ASSEMBLY_MEMBERS
100
AcDbCircle
 62
7
  6
CONTINUOUS
 10
3.3016297778
 20
7.0223886778
 40
0.1745
100
AcDbArc
 50
231.9957995254
 51
270.0
  0
ARC
  5
2FB
100
AcDbEntity
  8
ALL_ASSEMBLY_MEMBERS
100
AcDbCircle
 62
7
  6
CONTINUOUS
 10
1.8689417702
 20
6.9221386778
 40
0.02525
100
AcDbArc
 50
0.0
 51
180.0
  0
ARC
  5
2FC
100
AcDbEntity
  8
ALL_ASSEMBLY_MEMBERS
100
AcDbCircle
 62
7
  6
CONTINUOUS
 10
3.1691917702
 20
6.8853886778
 40
0.025
100
AcDbArc
 50
0.0
 51
180.0
  0
ARC
  5
2FD
100
AcDbEntity
  8
ALL_ASSEMBLY_MEMBERS
100
AcDbCircle
 62
7
  6
CONTINUOUS
 10
4.8509012738
 20
6.7473064982
 40
1.5408609227
100
AcDbArc
 50
176.0895613399
 51
178.0823561196
  0
ARC
  5
2FE
100
AcDbEntity
  8
ALL_ASSEMBLY_MEMBERS
100
AcDbCircle
 62
7
  6
CONTINUOUS
 10
3.9409540068
 20
6.615950023
 40
0.05
100
AcDbArc
 50
46.7836366413
 51
134.046722441
  0
ARC
  5
2FF
100
AcDbEntity
  8
ALL_ASSEMBLY_MEMBERS
100
AcDbCircle
 62
7
  6
CONTINUOUS
 10
3.9951917702
 20
6.6523886778
 40
0.02
100
AcDbArc
 50
180.0
 51
360.0
  0
ARC
  5
300
100
AcDbEntity
  8
ALL_ASSEMBLY_MEMBERS
100
AcDbCircle
 62
7
  6
CONTINUOUS
 10
3.6061917702
 20
6.7498886778
 40
0.59125
100
AcDbArc
 50
191.3871671951
 51
168.6128328049
  0
ARC
  5
301
100
AcDbEntity
  8
ALL_ASSEMBLY_MEMBERS
100
AcDbCircle
 62
7
  6
CONTINUOUS
 10
3.6061917702
 20
6.7498886778
 40
0.5756679937
100
AcDbArc
 50
191.8752489034
 51
168.1247460738
  0
ARC
  5
302
100
AcDbEntity
  8
ALL_ASSEMBLY_MEMBERS
100
AcDbCircle
 62
7
  6
CONTINUOUS
 10
3.6061917702
 20
6.7498886778
 40
0.5545602594
100
AcDbArc
 50
192.6595815252
 51
167.3404171513
  0
ARC
  5
303
100
AcDbEntity
  8
ALL_ASSEMBLY_MEMBERS
100
AcDbCircle
 62
7
  6
CONTINUOUS
 10
3.6061917702
 20
6.7498886778
 40
0.4144385942
100
AcDbArc
 50
16.16391649
 51
162.6449665718
  0
ARC
  5
304
100
AcDbEntity
  8
ALL_ASSEMBLY_MEMBERS
100
AcDbCircle
 62
7
  6
CONTINUOUS
 10
3.6061917702
 20
6.7498886778
 40
0.4144385942
100
AcDbArc
 50
197.3550334438
 51
343.8360835935
  0
ARC
  5
305
100
AcDbEntity
  8
ALL_ASSEMBLY_MEMBERS
100
AcDbCircle
 62
7
  6
CONTINUOUS
 10
3.6061917702
 20
6.7498886778
 40
0.3725
100
AcDbArc
 50
142.6582875747
 51
157.3417124253
  0
ARC
  5
306
100
AcDbEntity
  8
ALL_ASSEMBLY_MEMBERS
100
AcDbCircle
 62
7
  6
CONTINUOUS
 10
3.6061917702
 20
6.7498886778
 40
0.3725
100
AcDbArc
 50
202.6582875747
 51
217.3417124253
  0
ARC
  5
307
100
AcDbEntity
  8
ALL_ASSEMBLY_MEMBERS
100
AcDbCircle
 62
7
  6
CONTINUOUS
 10
3.6061917702
 20
6.7498886778
 40
0.3725
100
AcDbArc
 50
262.6582875747
 51
277.3417124253
  0
ARC
  5
308
100
AcDbEntity
  8
ALL_ASSEMBLY_MEMBERS
100
AcDbCircle
 62
7
  6
CONTINUOUS
 10
3.6061917702
 20
6.7498886778
 40
0.3725
100
AcDbArc
 50
322.6582875747
 51
337.3417124253
  0
ARC
  5
309
100
AcDbEntity
  8
ALL_ASSEMBLY_MEMBERS
100
AcDbCircle
 62
7
  6
CONTINUOUS
 10
3.6061917702
 20
6.7498886778
 40
0.3725
100
AcDbArc
 50
22.6582875747
 51
37.3417124253
  0
ARC
  5
30A
100
AcDbEntity
  8
ALL_ASSEMBLY_MEMBERS
100
AcDbCircle
 62
7
  6
CONTINUOUS
 10
3.6061917702
 20
6.7498886778
 40
0.3725
100
AcDbArc
 50
82.6582875747
 51
97.3417124253
  0
ARC
  5
30B
100
AcDbEntity
  8
ALL_ASSEMBLY_MEMBERS
100
AcDbCircle
 62
7
  6
CONTINUOUS
 10
3.6061917702
 20
6.7498886778
 40
0.33325
100
AcDbArc
 50
14.8860893558
 51
162.7935736036
  0
ARC
  5
30C
100
AcDbEntity
  8
ALL_ASSEMBLY_MEMBERS
100
AcDbCircle
 62
7
  6
CONTINUOUS
 10
3.6061917702
 20
6.7498886778
 40
0.33325
100
AcDbArc
 50
197.2064263964
 51
345.1139106442
  0
ARC
  5
30D
100
AcDbEntity
  8
ALL_ASSEMBLY_MEMBERS
100
AcDbCircle
 62
7
  6
CONTINUOUS
 10
3.6061917702
 20
6.7498886778
 40
0.31
100
AcDbArc
 50
19.3079388237
 51
160.6920611763
  0
ARC
  5
30E
100
AcDbEntity
  8
ALL_ASSEMBLY_MEMBERS
100
AcDbCircle
 62
7
  6
CONTINUOUS
 10
3.6061917702
 20
6.7498886778
 40
0.31
100
AcDbArc
 50
199.3079388237
 51
340.6920611763
  0
CIRCLE
  5
30F
100
AcDbEntity
  8
ALL_ASSEMBLY_MEMBERS
100
AcDbCircle
 62
7
  6
CONTINUOUS
 10
3.6061917702
 20
6.7498886778
 40
0.2888793674
  0
CIRCLE
  5
310
100
AcDbEntity
  8
ALL_ASSEMBLY_MEMBERS
100
AcDbCircle
 62
7
  6
CONTINUOUS
 10
3.6061917702
 20
6.7498886778
 40
0.2717570262
  0
CIRCLE
  5
311
100
AcDbEntity
  8
ALL_ASSEMBLY_MEMBERS
100
AcDbCircle
 62
7
  6
CONTINUOUS
 10
3.6061917702
 20
6.7498886778
 40
0.26125
  0
CIRCLE
  5
312
100
AcDbEntity
  8
ALL_ASSEMBLY_MEMBERS
100
AcDbCircle
 62
7
  6
CONTINUOUS
 10
3.6061917702
 20
6.7498886778
 40
0.2353146361
  0
CIRCLE
  5
313
100
AcDbEntity
  8
ALL_ASSEMBLY_MEMBERS
100
AcDbCircle
 62
7
  6
CONTINUOUS
 10
3.6061917702
 20
6.7498886778
 40
0.2273677795
  0
CIRCLE
  5
314
100
AcDbEntity
  8
ALL_ASSEMBLY_MEMBERS
100
AcDbCircle
 62
7
  6
CONTINUOUS
 10
3.6061917702
 20
6.7498886778
 40
0.21375
  0
CIRCLE
  5
315
100
AcDbEntity
  8
ALL_ASSEMBLY_MEMBERS
100
AcDbCircle
 62
7
  6
CONTINUOUS
 10
3.6061917702
 20
6.7498886778
 40
0.21
  0
CIRCLE
  5
316
100
AcDbEntity
  8
ALL_ASSEMBLY_MEMBERS
100
AcDbCircle
 62
7
  6
CONTINUOUS
 10
3.6061917702
 20
6.7498886778
 40
0.1932589286
  0
ARC
  5
317
100
AcDbEntity
  8
ALL_ASSEMBLY_MEMBERS
100
AcDbCircle
 62
7
  6
CONTINUOUS
 10
3.9631917702
 20
6.7498886778
 40
0.1105
100
AcDbArc
 50
298.0724869359
 51
61.9275130641
  0
ARC
  5
318
100
AcDbEntity
  8
ALL_ASSEMBLY_MEMBERS
100
AcDbCircle
 62
7
  6
CONTINUOUS
 10
3.9409540068
 20
6.8838273325
 40
0.05
100
AcDbArc
 50
225.953277559
 51
313.2163633587
  0
ARC
  5
319
100
AcDbEntity
  8
ALL_ASSEMBLY_MEMBERS
100
AcDbCircle
 62
7
  6
CONTINUOUS
 10
3.9951917702
 20
6.8473886778
 40
0.02
100
AcDbArc
 50
0.0
 51
180.0
  0
ARC
  5
31A
100
AcDbEntity
  8
ALL_ASSEMBLY_MEMBERS
100
AcDbCircle
 62
7
  6
CONTINUOUS
 10
5.696709729
 20
1.899813358
 40
0.5677702501
100
AcDbArc
 50
78.5847550557
 51
79.1747705767
  0
ARC
  5
31B
100
AcDbEntity
  8
ALL_ASSEMBLY_MEMBERS
100
AcDbCircle
 62
7
  6
CONTINUOUS
 10
5.7037864105
 20
1.9348114945
 40
0.5320638239
100
AcDbArc
 50
78.1536575247
 51
78.5858241289
  0
ARC
  5
31C
100
AcDbEntity
  8
ALL_ASSEMBLY_MEMBERS
100
AcDbCircle
 62
7
  6
CONTINUOUS
 10
5.6070958394
 20
1.5466970177
 40
0.5132920618
100
AcDbArc
 50
82.256913404
 51
83.3941028429
  0
ARC
  5
31D
100
AcDbEntity
  8
ALL_ASSEMBLY_MEMBERS
100
AcDbCircle
 62
7
  6
CONTINUOUS
 10
5.7082370064
 20
1.9560363786
 40
0.5103773417
100
AcDbArc
 50
77.9333711091
 51
78.1535000851
  0
ARC
  5
31E
100
AcDbEntity
  8
ALL_ASSEMBLY_MEMBERS
100
AcDbCircle
 62
7
  6
CONTINUOUS
 10
5.6304215816
 20
1.5671762337
 40
0.4904478925
100
AcDbArc
 50
81.1132957436
 51
81.2778784113
  0
ARC
  5
31F
100
AcDbEntity
  8
ALL_ASSEMBLY_MEMBERS
100
AcDbCircle
 62
7
  6
CONTINUOUS
 10
5.7131247365
 20
1.9396874812
 40
0.4468215368
100
AcDbArc
 50
77.2551708943
 51
78.2942870416
  0
ARC
  5
320
100
AcDbEntity
  8
ALL_ASSEMBLY_MEMBERS
100
AcDbCircle
 62
7
  6
CONTINUOUS
 10
5.7212412004
 20
1.9757389792
 40
0.4098677006
100
AcDbArc
 50
76.9611078979
 51
77.2500255623
  0
ARC
  5
321
100
AcDbEntity
  8
ALL_ASSEMBLY_MEMBERS
100
AcDbCircle
 62
7
  6
CONTINUOUS
 10
5.7290451787
 20
2.0090603035
 40
0.3756448305
100
AcDbArc
 50
76.0761729153
 51
76.9740826386
  0
ARC
  5
322
100
AcDbEntity
  8
ALL_ASSEMBLY_MEMBERS
100
AcDbCircle
 62
7
  6
CONTINUOUS
 10
5.7420731798
 20
2.0610437304
 40
0.3220539376
100
AcDbArc
 50
74.7637129576
 51
76.1004274101
  0
ARC
  5
323
100
AcDbEntity
  8
ALL_ASSEMBLY_MEMBERS
100
AcDbCircle
 62
7
  6
CONTINUOUS
 10
5.8558563112
 20
2.3880172428
 40
0.0592005582
100
AcDbArc
 50
318.4233465765
 51
322.0533921819
  0
ARC
  5
324
100
AcDbEntity
  8
ALL_ASSEMBLY_MEMBERS
100
AcDbCircle
 62
7
  6
CONTINUOUS
 10
5.8589445806
 20
2.3856499054
 40
0.0553083455
100
AcDbArc
 50
324.7551530012
 51
327.253803799
  0
ARC
  5
325
100
AcDbEntity
  8
ALL_ASSEMBLY_MEMBERS
100
AcDbCircle
 62
7
  6
CONTINUOUS
 10
5.8595994432
 20
2.3852249875
 40
0.054527711
100
AcDbArc
 50
327.2571246607
 51
330.8921434807
  0
ARC
  5
326
100
AcDbEntity
  8
ALL_ASSEMBLY_MEMBERS
100
AcDbCircle
 62
7
  6
CONTINUOUS
 10
5.8602055374
 20
2.384879736
 40
0.0538302142
100
AcDbArc
 50
330.8993924293
 51
331.8639459219
  0
ARC
  5
327
100
AcDbEntity
  8
ALL_ASSEMBLY_MEMBERS
100
AcDbCircle
 62
7
  6
CONTINUOUS
 10
5.864510111
 20
2.3832073492
 40
0.04918236
100
AcDbArc
 50
349.7595232694
 51
357.7769872516
  0
ARC
  5
328
100
AcDbEntity
  8
ALL_ASSEMBLY_MEMBERS
100
AcDbCircle
 62
7
  6
CONTINUOUS
 10
5.8663514858
 20
2.3841753285
 40
0.0477199886
100
AcDbArc
 50
323.4851543288
 51
328.0154301427
  0
ARC
  5
329
100
AcDbEntity
  8
ALL_ASSEMBLY_MEMBERS
100
AcDbCircle
 62
7
  6
CONTINUOUS
 10
5.8654860064
 20
2.3810567025
 40
0.0473139303
100
AcDbArc
 50
321.5585065615
 51
322.9781760642
  0
ARC
  5
32A
100
AcDbEntity
  8
ALL_ASSEMBLY_MEMBERS
100
AcDbCircle
 62
7
  6
CONTINUOUS
 10
5.8657028342
 20
2.3808934128
 40
0.0470424937
100
AcDbArc
 50
322.9779511245
 51
323.9321655417
  0
ARC
  5
32B
100
AcDbEntity
  8
ALL_ASSEMBLY_MEMBERS
100
AcDbCircle
 62
7
  6
CONTINUOUS
 10
5.8658837097
 20
2.3807618082
 40
0.0468188071
100
AcDbArc
 50
323.9320303613
 51
324.7602602906
  0
ARC
  5
32C
100
AcDbEntity
  8
ALL_ASSEMBLY_MEMBERS
100
AcDbCircle
 62
7
  6
CONTINUOUS
 10
5.8689101354
 20
2.385353194
 40
0.0443011204
100
AcDbArc
 50
23.2944410687
 51
28.2234325983
  0
ARC
  5
32D
100
AcDbEntity
  8
ALL_ASSEMBLY_MEMBERS
100
AcDbCircle
 62
7
  6
CONTINUOUS
 10
5.8736482087
 20
2.3827841982
 40
0.040034699
100
AcDbArc
 50
357.8630910317
 51
8.1446318944
  0
ARC
  5
32E
100
AcDbEntity
  8
ALL_ASSEMBLY_MEMBERS
100
AcDbCircle
 62
7
  6
CONTINUOUS
 10
5.8784678672
 20
2.3772259541
 40
0.0340247884
100
AcDbArc
 50
337.8318060431
 51
344.617821166
  0
ARC
  5
32F
100
AcDbEntity
  8
ALL_ASSEMBLY_MEMBERS
100
AcDbCircle
 62
7
  6
CONTINUOUS
 10
5.8799743978
 20
2.3928805354
 40
0.0310109102
100
AcDbArc
 50
25.6371238108
 51
29.9827561222
  0
ARC
  5
330
100
AcDbEntity
  8
ALL_ASSEMBLY_MEMBERS
100
AcDbCircle
 62
7
  6
CONTINUOUS
 10
5.8828004369
 20
2.3749941645
 40
0.0291365787
100
AcDbArc
 50
318.7431215564
 51
328.1870704301
  0
ARC
  5
331
100
AcDbEntity
  8
ALL_ASSEMBLY_MEMBERS
100
AcDbCircle
 62
7
  6
CONTINUOUS
 10
5.8802842119
 20
2.3696820512
 40
0.0286543689
100
AcDbArc
 50
324.8779893132
 51
325.6291303627
  0
ARC
  5
332
100
AcDbEntity
  8
ALL_ASSEMBLY_MEMBERS
100
AcDbCircle
 62
7
  6
CONTINUOUS
 10
5.880633483
 20
2.3694345236
 40
0.0282262826
100
AcDbArc
 50
323.2990916347
 51
324.8810696351
  0
ARC
  5
333
100
AcDbEntity
  8
ALL_ASSEMBLY_MEMBERS
100
AcDbCircle
 62
7
  6
CONTINUOUS
 10
5.758175543
 20
2.0214583319
 40
0.0149961606
100
AcDbArc
 50
42.3743613416
 51
45.0723173047
  0
ARC
  5
334
100
AcDbEntity
  8
ALL_ASSEMBLY_MEMBERS
100
AcDbCircle
 62
7
  6
CONTINUOUS
 10
7.2089295336
 20
6.615950023
 40
0.05
100
AcDbArc
 50
45.953277559
 51
133.2163633587
  0
ARC
  5
335
100
AcDbEntity
  8
ALL_ASSEMBLY_MEMBERS
100
AcDbCircle
 62
7
  6
CONTINUOUS
 10
7.1546917702
 20
6.6523886778
 40
0.02
100
AcDbArc
 50
180.0
 51
360.0
  0
ARC
  5
336
100
AcDbEntity
  8
ALL_ASSEMBLY_MEMBERS
100
AcDbCircle
 62
7
  6
CONTINUOUS
 10
6.2989822666
 20
6.7524708574
 40
1.5408609227
100
AcDbArc
 50
356.0895613399
 51
358.0823561196
  0
ARC
  5
337
100
AcDbEntity
  8
ALL_ASSEMBLY_MEMBERS
100
AcDbCircle
 62
7
  6
CONTINUOUS
 10
7.5436917702
 20
6.7498886778
 40
0.59125
100
AcDbArc
 50
11.3871671951
 51
348.6128328049
  0
ARC
  5
338
100
AcDbEntity
  8
ALL_ASSEMBLY_MEMBERS
100
AcDbCircle
 62
7
  6
CONTINUOUS
 10
7.5436917702
 20
6.7498886778
 40
0.5756679937
100
AcDbArc
 50
11.8752489034
 51
348.1247460738
  0
ARC
  5
339
100
AcDbEntity
  8
ALL_ASSEMBLY_MEMBERS
100
AcDbCircle
 62
7
  6
CONTINUOUS
 10
7.5436917702
 20
6.7498886778
 40
0.5545602594
100
AcDbArc
 50
12.6595815252
 51
347.3404171513
  0
ARC
  5
33A
100
AcDbEntity
  8
ALL_ASSEMBLY_MEMBERS
100
AcDbCircle
 62
7
  6
CONTINUOUS
 10
7.5436917702
 20
6.7498886778
 40
0.4144385942
100
AcDbArc
 50
196.16391649
 51
342.6449665718
  0
ARC
  5
33B
100
AcDbEntity
  8
ALL_ASSEMBLY_MEMBERS
100
AcDbCircle
 62
7
  6
CONTINUOUS
 10
7.5436917702
 20
6.7498886778
 40
0.4144385942
100
AcDbArc
 50
17.3550334438
 51
163.8360835935
  0
ARC
  5
33C
100
AcDbEntity
  8
ALL_ASSEMBLY_MEMBERS
100
AcDbCircle
 62
7
  6
CONTINUOUS
 10
7.5436917702
 20
6.7498886778
 40
0.3725
100
AcDbArc
 50
322.6582875747
 51
337.3417124253
  0
ARC
  5
33D
100
AcDbEntity
  8
ALL_ASSEMBLY_MEMBERS
100
AcDbCircle
 62
7
  6
CONTINUOUS
 10
7.5436917702
 20
6.7498886778
 40
0.3725
100
AcDbArc
 50
22.6582875747
 51
37.3417124253
  0
ARC
  5
33E
100
AcDbEntity
  8
ALL_ASSEMBLY_MEMBERS
100
AcDbCircle
 62
7
  6
CONTINUOUS
 10
7.5436917702
 20
6.7498886778
 40
0.3725
100
AcDbArc
 50
82.6582875747
 51
97.3417124253
  0
ARC
  5
33F
100
AcDbEntity
  8
ALL_ASSEMBLY_MEMBERS
100
AcDbCircle
 62
7
  6
CONTINUOUS
 10
7.5436917702
 20
6.7498886778
 40
0.3725
100
AcDbArc
 50
142.6582875747
 51
157.3417124253
  0
ARC
  5
340
100
AcDbEntity
  8
ALL_ASSEMBLY_MEMBERS
100
AcDbCircle
 62
7
  6
CONTINUOUS
 10
7.5436917702
 20
6.7498886778
 40
0.3725
100
AcDbArc
 50
202.6582875747
 51
217.3417124253
  0
ARC
  5
341
100
AcDbEntity
  8
ALL_ASSEMBLY_MEMBERS
100
AcDbCircle
 62
7
  6
CONTINUOUS
 10
7.5436917702
 20
6.7498886778
 40
0.3725
100
AcDbArc
 50
262.6582875747
 51
277.3417124253
  0
ARC
  5
342
100
AcDbEntity
  8
ALL_ASSEMBLY_MEMBERS
100
AcDbCircle
 62
7
  6
CONTINUOUS
 10
7.5436917702
 20
6.7498886778
 40
0.33325
100
AcDbArc
 50
194.8860893558
 51
342.7935736036
  0
ARC
  5
343
100
AcDbEntity
  8
ALL_ASSEMBLY_MEMBERS
100
AcDbCircle
 62
7
  6
CONTINUOUS
 10
7.5436917702
 20
6.7498886778
 40
0.33325
100
AcDbArc
 50
17.2064263964
 51
165.1139106442
  0
ARC
  5
344
100
AcDbEntity
  8
ALL_ASSEMBLY_MEMBERS
100
AcDbCircle
 62
7
  6
CONTINUOUS
 10
7.5436917702
 20
6.7498886778
 40
0.31
100
AcDbArc
 50
199.3079388237
 51
340.6920611763
  0
ARC
  5
345
100
AcDbEntity
  8
ALL_ASSEMBLY_MEMBERS
100
AcDbCircle
 62
7
  6
CONTINUOUS
 10
7.5436917702
 20
6.7498886778
 40
0.31
100
AcDbArc
 50
19.3079388237
 51
160.6920611763
  0
CIRCLE
  5
346
100
AcDbEntity
  8
ALL_ASSEMBLY_MEMBERS
100
AcDbCircle
 62
7
  6
CONTINUOUS
 10
7.5436917702
 20
6.7498886778
 40
0.2888793674
  0
CIRCLE
  5
347
100
AcDbEntity
  8
ALL_ASSEMBLY_MEMBERS
100
AcDbCircle
 62
7
  6
CONTINUOUS
 10
7.5436917702
 20
6.7498886778
 40
0.2717570262
  0
CIRCLE
  5
348
100
AcDbEntity
  8
ALL_ASSEMBLY_MEMBERS
100
AcDbCircle
 62
7
  6
CONTINUOUS
 10
7.5436917702
 20
6.7498886778
 40
0.26125
  0
CIRCLE
  5
349
100
AcDbEntity
  8
ALL_ASSEMBLY_MEMBERS
100
AcDbCircle
 62
7
  6
CONTINUOUS
 10
7.5436917702
 20
6.7498886778
 40
0.2353146361
  0
CIRCLE
  5
34A
100
AcDbEntity
  8
ALL_ASSEMBLY_MEMBERS
100
AcDbCircle
 62
7
  6
CONTINUOUS
 10
7.5436917702
 20
6.7498886778
 40
0.2273677795
  0
CIRCLE
  5
34B
100
AcDbEntity
  8
ALL_ASSEMBLY_MEMBERS
100
AcDbCircle
 62
7
  6
CONTINUOUS
 10
7.5436917702
 20
6.7498886778
 40
0.21375
  0
CIRCLE
  5
34C
100
AcDbEntity
  8
ALL_ASSEMBLY_MEMBERS
100
AcDbCircle
 62
7
  6
CONTINUOUS
 10
7.5436917702
 20
6.7498886778
 40
0.21
  0
CIRCLE
  5
34D
100
AcDbEntity
  8
ALL_ASSEMBLY_MEMBERS
100
AcDbCircle
 62
7
  6
CONTINUOUS
 10
7.5436917702
 20
6.7498886778
 40
0.1932589286
  0
ARC
  5
34E
100
AcDbEntity
  8
ALL_ASSEMBLY_MEMBERS
100
AcDbCircle
 62
7
  6
CONTINUOUS
 10
7.1866917702
 20
6.7498886778
 40
0.1105
100
AcDbArc
 50
118.0724869359
 51
241.9275130641
  0
ARC
  5
34F
100
AcDbEntity
  8
ALL_ASSEMBLY_MEMBERS
100
AcDbCircle
 62
7
  6
CONTINUOUS
 10
7.2089295336
 20
6.8838273325
 40
0.05
100
AcDbArc
 50
226.7836366413
 51
314.046722441
  0
ARC
  5
350
100
AcDbEntity
  8
ALL_ASSEMBLY_MEMBERS
100
AcDbCircle
 62
7
  6
CONTINUOUS
 10
7.1546917702
 20
6.8473886778
 40
0.02
100
AcDbArc
 50
0.0
 51
180.0
  0
ARC
  5
351
100
AcDbEntity
  8
ALL_ASSEMBLY_MEMBERS
100
AcDbCircle
 62
7
  6
CONTINUOUS
 10
8.2420570568
 20
5.5196140657
 40
1.12
100
AcDbArc
 50
70.8503198608
 51
102.1833313251
  0
ARC
  5
352
100
AcDbEntity
  8
ALL_ASSEMBLY_MEMBERS
100
AcDbCircle
 62
7
  6
CONTINUOUS
 10
8.932575203
 20
5.9916438181
 40
0.985
100
AcDbArc
 50
70.8503198608
 51
109.1496801392
  0
ARC
  5
353
100
AcDbEntity
  8
ALL_ASSEMBLY_MEMBERS
100
AcDbCircle
 62
7
  6
CONTINUOUS
 10
7.8482537625
 20
6.4773886778
 40
0.1745
100
AcDbArc
 50
51.9957995254
 51
90.0
  0
ARC
  5
354
100
AcDbEntity
  8
ALL_ASSEMBLY_MEMBERS
100
AcDbCircle
 62
7
  6
CONTINUOUS
 10
9.2809417702
 20
6.5776386778
 40
0.02525
100
AcDbArc
 50
180.0
 51
360.0
  0
ARC
  5
355
100
AcDbEntity
  8
ALL_ASSEMBLY_MEMBERS
100
AcDbCircle
 62
7
  6
CONTINUOUS
 10
7.9806917702
 20
6.6143886778
 40
0.025
100
AcDbArc
 50
180.0
 51
360.0
  0
ARC
  5
356
100
AcDbEntity
  8
ALL_ASSEMBLY_MEMBERS
100
AcDbCircle
 62
7
  6
CONTINUOUS
 10
8.2420570568
 20
7.9801632899
 40
1.12
100
AcDbArc
 50
257.8166686749
 51
289.1496801392
  0
ARC
  5
357
100
AcDbEntity
  8
ALL_ASSEMBLY_MEMBERS
100
AcDbCircle
 62
7
  6
CONTINUOUS
 10
8.932575203
 20
7.5081335375
 40
0.985
100
AcDbArc
 50
250.8503198608
 51
289.1496801392
  0
ARC
  5
358
100
AcDbEntity
  8
ALL_ASSEMBLY_MEMBERS
100
AcDbCircle
 62
7
  6
CONTINUOUS
 10
9.1716917702
 20
6.7498886778
 40
0.195
100
AcDbArc
 50
313.6098152012
 51
46.3901847988
  0
ARC
  5
359
100
AcDbEntity
  8
ALL_ASSEMBLY_MEMBERS
100
AcDbCircle
 62
7
  6
CONTINUOUS
 10
7.8482537625
 20
7.0223886778
 40
0.1745
100
AcDbArc
 50
270.0
 51
308.0042004746
  0
ARC
  5
35A
100
AcDbEntity
  8
ALL_ASSEMBLY_MEMBERS
100
AcDbCircle
 62
7
  6
CONTINUOUS
 10
9.2809417702
 20
6.9221386778
 40
0.02525
100
AcDbArc
 50
0.0
 51
180.0
  0
ARC
  5
35B
100
AcDbEntity
  8
ALL_ASSEMBLY_MEMBERS
100
AcDbCircle
 62
7
  6
CONTINUOUS
 10
7.9806917702
 20
6.8853886778
 40
0.025
100
AcDbArc
 50
0.0
 51
180.0
  0
SPLINE
  5
35C
100
AcDbEntity
  8
ALL_ASSEMBLY_MEMBERS
100
AcDbSpline
 62
7
  6
CONTINUOUS
 70
0
 71
3
 72
12
 73
8
 74
0
 42
0.0000001
 43
0.0000001
 44
0.0000000001
 40
0.0
 40
0.0
 40
0.0
 40
0.0
 40
0.3103237358
 40
0.5776062996
 40
0.696171483
 40
0.8054968204
 40
1.0
 40
1.0
 40
1.0
 40
1.0
 10
5.6212684225
 20
2.0299177453
 30
0.0
 10
5.6215462756
 20
2.0300670242
 30
0.0
 10
5.6220533133
 20
2.030364657
 30
0.0
 10
5.6226234362
 20
2.0307873148
 30
0.0
 10
5.6229909864
 20
2.0311321491
 30
0.0
 10
5.6232771256
 20
2.0314523872
 30
0.0
 10
5.6234485727
 20
2.031713943
 30
0.0
 10
5.6235315134
 20
2.0318933972
 30
0.0
  0
SPLINE
  5
35D
100
AcDbEntity
  8
ALL_ASSEMBLY_MEMBERS
100
AcDbSpline
 62
7
  6
CONTINUOUS
 70
0
 71
3
 72
10
 73
6
 74
0
 42
0.0000001
 43
0.0000001
 44
0.0000000001
 40
0.0
 40
0.0
 40
0.0
 40
0.0
 40
0.2384404643
 40
0.4831553379
 40
1.0
 40
1.0
 40
1.0
 40
1.0
 10
5.3782590581
 20
2.0316973346
 30
0.0
 10
5.3782919517
 20
2.0314797174
 30
0.0
 10
5.3783826863
 20
2.031042022
 30
0.0
 10
5.3786625535
 20
2.0301612128
 30
0.0
 10
5.3789743765
 20
2.0295255059
 30
0.0
 10
5.3792174788
 20
2.0291150264
 30
0.0
  0
SPLINE
  5
35E
100
AcDbEntity
  8
ALL_ASSEMBLY_MEMBERS
100
AcDbSpline
 62
7
  6
CONTINUOUS
 70
0
 71
3
 72
11
 73
7
 74
0
 42
0.0000001
 43
0.0000001
 44
0.0000000001
 40
0.0
 40
0.0
 40
0.0
 40
0.0
 40
0.2792504866
 40
0.5395059614
 40
0.7799616714
 40
1.0
 40
1.0
 40
1.0
 40
1.0
 10
5.6117622177
 20
2.0269594285
 30
0.0
 10
5.6123699028
 20
2.027083368
 30
0.0
 10
5.6135413401
 20
2.0273358665
 30
0.0
 10
5.6152247897
 20
2.027745063
 30
0.0
 10
5.6167682662
 20
2.0281703415
 30
0.0
 10
5.6177442076
 20
2.0284772001
 30
0.0
 10
5.6182069551
 20
2.0286343053
 30
0.0
  0
LINE
  5
35F
100
AcDbEntity
  8
ALL_ASSEMBLY_MEMBERS
100
AcDbLine
 62
7
  6
CONTINUOUS
 10
5.5964601323
 20
2.0248580092
 11
5.6061053634
 21
2.0259771261
  0
LINE
  5
360
100
AcDbEntity
  8
ALL_ASSEMBLY_MEMBERS
100
AcDbLine
 62
7
  6
CONTINUOUS
 10
5.5412781769
 20
2.0259771261
 11
5.5509234081
 21
2.0248580092
  0
SPLINE
  5
361
100
AcDbEntity
  8
ALL_ASSEMBLY_MEMBERS
100
AcDbSpline
 62
7
  6
CONTINUOUS
 70
0
 71
3
 72
11
 73
7
 74
0
 42
0.0000001
 43
0.0000001
 44
0.0000000001
 40
0.0
 40
0.0
 40
0.0
 40
0.0
 40
0.2200366743
 40
0.4604910712
 40
0.7207482062
 40
1.0
 40
1.0
 40
1.0
 40
1.0
 10
5.5291765853
 20
2.0286343053
 30
0.0
 10
5.5296393293
 20
2.0284772013
 30
0.0
 10
5.5306152639
 20
2.0281703431
 30
0.0
 10
5.532158738
 20
2.0277450664
 30
0.0
 10
5.5338421912
 20
2.0273358697
 30
0.0
 10
5.5350136347
 20
2.0270833686
 30
0.0
 10
5.5356213227
 20
2.0269594285
 30
0.0
  0
SPLINE
  5
362
100
AcDbEntity
  8
ALL_ASSEMBLY_MEMBERS
100
AcDbSpline
 62
7
  6
CONTINUOUS
 70
0
 71
3
 72
12
 73
8
 74
0
 42
0.0000001
 43
0.0000001
 44
0.0000000001
 40
0.0
 40
0.0
 40
0.0
 40
0.0
 40
0.1945015374
 40
0.3038258404
 40
0.4223909329
 40
0.6896752745
 40
1.0
 40
1.0
 40
1.0
 40
1.0
 10
5.523852027
 20
2.0318933972
 30
0.0
 10
5.523934967
 20
2.0317139445
 30
0.0
 10
5.5241064103
 20
2.0314523897
 30
0.0
 10
5.5243925472
 20
2.031132153
 30
0.0
 10
5.5247600996
 20
2.0307873199
 30
0.0
 10
5.5253302247
 20
2.0303646608
 30
0.0
 10
5.5258372639
 20
2.0300670247
 30
0.0
 10
5.5261151178
 20
2.0299177453
 30
0.0
  0
SPLINE
  5
363
100
AcDbEntity
  8
ALL_ASSEMBLY_MEMBERS
100
AcDbSpline
 62
7
  6
CONTINUOUS
 70
0
 71
3
 72
51
 73
47
 74
0
 42
0.0000001
 43
0.0000001
 44
0.0000000001
 40
0.0
 40
0.0
 40
0.0
 40
0.0
 40
0.0041475589
 40
0.0086418266
 40
0.0137106142
 40
0.0195113359
 40
0.0261451263
 40
0.0336710757
 40
0.0421228985
 40
0.0515188205
 40
0.0618649463
 40
0.0731545029
 40
0.0853749455
 40
0.098510488
 40
0.1274377804
 40
0.1597166298
 40
0.1950868685
 40
0.2332384727
 40
0.2738374869
 40
0.3165142155
 40
0.3608830696
 40
0.406534724
 40
0.4530505495
 40
0.5
 40
0.5469494505
 40
0.593465276
 40
0.6391169304
 40
0.6834857845
 40
0.7261625131
 40
0.7667615273
 40
0.8049131315
 40
0.8402833702
 40
0.8725622196
 40
0.901489512
 40
0.9146250545
 40
0.9268454971
 40
0.9381350537
 40
0.9484811795
 40
0.9578771015
 40
0.9663289243
 40
0.9738548737
 40
0.9804886641
 40
0.9862893858
 40
0.9913581734
 40
0.9958524411
 40
1.0
 40
1.0
 40
1.0
 40
1.0
 10
5.5306931393
 20
2.0326473978
 30
0.0
 10
5.5306988238
 20
2.0327707546
 30
0.0
 10
5.5307486437
 20
2.0330270959
 30
0.0
 10
5.5309282439
 20
2.0333975302
 30
0.0
 10
5.5312091714
 20
2.0337616929
 30
0.0
 10
5.5315894856
 20
2.0341203167
 30
0.0
 10
5.5320684388
 20
2.0344739698
 30
0.0
 10
5.5326451054
 20
2.0348227837
 30
0.0
 10
5.5333185308
 20
2.035166314
 30
0.0
 10
5.5340875238
 20
2.0355038601
 30
0.0
 10
5.5349505253
 20
2.0358346035
 30
0.0
 10
5.5359055308
 20
2.03615788
 30
0.0
 10
5.5369503153
 20
2.0364729102
 30
0.0
 10
5.5385107734
 20
2.036894451
 30
0.0
 10
5.5406691927
 20
2.037388583
 30
0.0
 10
5.5434955382
 20
2.0379205081
 30
0.0
 10
5.5466089463
 20
2.0384027904
 30
0.0
 10
5.5499799891
 20
2.0388311309
 30
0.0
 10
5.5535766805
 20
2.0392007651
 30
0.0
 10
5.5573649049
 20
2.0395084646
 30
0.0
 10
5.5613085749
 20
2.0397507978
 30
0.0
 10
5.5653702004
 20
2.0399257673
 30
0.0
 10
5.5695110709
 20
2.0400312923
 30
0.0
 10
5.5736917702
 20
2.0400667009
 30
0.0
 10
5.5778724695
 20
2.0400312923
 30
0.0
 10
5.58201334
 20
2.0399257673
 30
0.0
 10
5.5860749655
 20
2.0397507978
 30
0.0
 10
5.5900186355
 20
2.0395084646
 30
0.0
 10
5.5938068599
 20
2.0392007651
 30
0.0
 10
5.5974035513
 20
2.0388311309
 30
0.0
 10
5.600774594
 20
2.0384027904
 30
0.0
 10
5.6038880022
 20
2.0379205081
 30
0.0
 10
5.6067143477
 20
2.037388583
 30
0.0
 10
5.608872767
 20
2.036894451
 30
0.0
 10
5.6104332251
 20
2.0364729102
 30
0.0
 10
5.6114780096
 20
2.03615788
 30
0.0
 10
5.6124330151
 20
2.0358346035
 30
0.0
 10
5.6132960166
 20
2.0355038601
 30
0.0
 10
5.6140650095
 20
2.035166314
 30
0.0
 10
5.6147384349
 20
2.0348227837
 30
0.0
 10
5.6153151016
 20
2.0344739698
 30
0.0
 10
5.6157940548
 20
2.0341203167
 30
0.0
 10
5.616174369
 20
2.0337616929
 30
0.0
 10
5.6164552965
 20
2.0333975302
 30
0.0
 10
5.6166348967
 20
2.0330270959
 30
0.0
 10
5.6166847165
 20
2.0327707546
 30
0.0
 10
5.6166904011
 20
2.0326473978
 30
0.0
  0
SPLINE
  5
364
100
AcDbEntity
  8
ALL_ASSEMBLY_MEMBERS
100
AcDbSpline
 62
7
  6
CONTINUOUS
 70
0
 71
3
 72
10
 73
6
 74
0
 42
0.0000001
 43
0.0000001
 44
0.0000000001
 40
0.0
 40
0.0
 40
0.0
 40
0.0
 40
0.5168446621
 40
0.7615595357
 40
1.0
 40
1.0
 40
1.0
 40
1.0
 10
5.7681660615
 20
2.0291150264
 30
0.0
 10
5.7684091639
 20
2.0295255059
 30
0.0
 10
5.7687209868
 20
2.0301612128
 30
0.0
 10
5.7690008541
 20
2.031042022
 30
0.0
 10
5.7690915886
 20
2.0314797174
 30
0.0
 10
5.7691244822
 20
2.0316973346
 30
0.0
  0
SPLINE
  5
365
100
AcDbEntity
  8
ALL_ASSEMBLY_MEMBERS
100
AcDbSpline
 62
7
  6
CONTINUOUS
 70
0
 71
3
 72
11
 73
7
 74
0
 42
0.0000001
 43
0.0000001
 44
0.0000000001
 40
0.0
 40
0.0
 40
0.0
 40
0.0
 40
0.2677962103
 40
0.5241309081
 40
0.7683876467
 40
1.0
 40
1.0
 40
1.0
 40
1.0
 10
5.6970637247
 20
2.0062531627
 30
0.0
 10
5.6996015998
 20
2.0066116689
 30
0.0
 10
5.7045638522
 20
2.007348543
 30
0.0
 10
5.7118207728
 20
2.008542889
 30
0.0
 10
5.7187153903
 20
2.0097998683
 30
0.0
 10
5.7231800793
 20
2.010701914
 30
0.0
 10
5.725347996
 20
2.0111646748
 30
0.0
  0
SPLINE
  5
366
100
AcDbEntity
  8
ALL_ASSEMBLY_MEMBERS
100
AcDbSpline
 62
7
  6
CONTINUOUS
 70
0
 71
3
 72
11
 73
7
 74
0
 42
0.0000001
 43
0.0000001
 44
0.0000000001
 40
0.0
 40
0.0
 40
0.0
 40
0.0
 40
0.2316123533
 40
0.4758690919
 40
0.7322037897
 40
1.0
 40
1.0
 40
1.0
 40
1.0
 10
5.4220355444
 20
2.0111646748
 30
0.0
 10
5.4242034611
 20
2.010701914
 30
0.0
 10
5.42866815
 20
2.0097998683
 30
0.0
 10
5.4355627676
 20
2.008542889
 30
0.0
 10
5.4428196881
 20
2.007348543
 30
0.0
 10
5.4477819406
 20
2.0066116689
 30
0.0
 10
5.4503198156
 20
2.0062531627
 30
0.0
  0
SPLINE
  5
367
100
AcDbEntity
  8
ALL_ASSEMBLY_MEMBERS
100
AcDbSpline
 62
7
  6
CONTINUOUS
 70
0
 71
3
 72
22
 73
18
 74
0
 42
0.0000001
 43
0.0000001
 44
0.0000000001
 40
0.0
 40
0.0
 40
0.0
 40
0.0
 40
0.1820357023
 40
0.2671876124
 40
0.3483030744
 40
0.4253021264
 40
0.498139697
 40
0.5667849286
 40
0.6312158874
 40
0.6914247619
 40
0.7474286187
 40
0.7992667157
 40
0.8470050872
 40
0.8907485973
 40
0.930659665
 40
0.9669692806
 40
1.0
 40
1.0
 40
1.0
 40
1.0
 10
5.7045366532
 20
2.0147785266
 30
0.0
 10
5.7067668746
 20
2.0152726033
 30
0.0
 10
5.7100305878
 20
2.0160439037
 30
0.0
 10
5.7142560017
 20
2.0171622767
 30
0.0
 10
5.7171916848
 20
2.0180000015
 30
0.0
 10
5.7199612361
 20
2.0188544679
 30
0.0
 10
5.7225614494
 20
2.0197245588
 30
0.0
 10
5.7249895754
 20
2.0206092346
 30
0.0
 10
5.7272430057
 20
2.0215075048
 30
0.0
 10
5.7293192854
 20
2.0224184598
 30
0.0
 10
5.73121627
 20
2.0233410242
 30
0.0
 10
5.7329320115
 20
2.0242741995
 30
0.0
 10
5.7344646836
 20
2.025217084
 30
0.0
 10
5.735812551
 20
2.0261689387
 30
0.0
 10
5.7369744648
 20
2.0271288724
 30
0.0
 10
5.737949126
 20
2.0280959285
 30
0.0
 10
5.7384971744
 20
2.0287751208
 30
0.0
 10
5.7387343783
 20
2.0291150264
 30
0.0
  0
SPLINE
  5
368
100
AcDbEntity
  8
ALL_ASSEMBLY_MEMBERS
100
AcDbSpline
 62
7
  6
CONTINUOUS
 70
0
 71
3
 72
15
 73
11
 74
0
 42
0.0000001
 43
0.0000001
 44
0.0000000001
 40
0.0
 40
0.0
 40
0.0
 40
0.0
 40
0.1349212235
 40
0.268222224
 40
0.3992159362
 40
0.5273213831
 40
0.6519892686
 40
0.7726882773
 40
0.8888831931
 40
1.0
 40
1.0
 40
1.0
 40
1.0
 10
5.5936917702
 20
2.0039286418
 30
0.0
 10
5.5974154992
 20
2.0040069996
 30
0.0
 10
5.6048173908
 20
2.0042069533
 30
0.0
 10
5.6158297119
 20
2.0046386894
 30
0.0
 10
5.6266478547
 20
2.0051993251
 30
0.0
 10
5.637219947
 20
2.0058857938
 30
0.0
 10
5.647498323
 20
2.0066951275
 30
0.0
 10
5.6574365059
 20
2.0076234084
 30
0.0
 10
5.6669870763
 20
2.0086665253
 30
0.0
 10
5.673212984
 20
2.0094533181
 30
0.0
 10
5.676252382
 20
2.0098670144
 30
0.0
  0
SPLINE
  5
369
100
AcDbEntity
  8
ALL_ASSEMBLY_MEMBERS
100
AcDbSpline
 62
7
  6
CONTINUOUS
 70
0
 71
3
 72
15
 73
11
 74
0
 42
0.0000001
 43
0.0000001
 44
0.0000000001
 40
0.0
 40
0.0
 40
0.0
 40
0.0
 40
0.11111679
 40
0.2273116739
 40
0.3480106664
 40
0.4726785516
 40
0.600784
 40
0.7317777302
 40
0.8650787621
 40
1.0
 40
1.0
 40
1.0
 40
1.0
 10
5.4711311584
 20
2.0098670144
 30
0.0
 10
5.4741705559
 20
2.0094533182
 30
0.0
 10
5.4803964622
 20
2.0086665254
 30
0.0
 10
5.4899470308
 20
2.0076234087
 30
0.0
 10
5.4998852124
 20
2.006695128
 30
0.0
 10
5.510163588
 20
2.0058857942
 30
0.0
 10
5.5207356808
 20
2.0051993254
 30
0.0
 10
5.531553825
 20
2.0046386895
 30
0.0
 10
5.5425661479
 20
2.0042069534
 30
0.0
 10
5.5499680408
 20
2.0040069996
 30
0.0
 10
5.5536917702
 20
2.0039286418
 30
0.0
  0
SPLINE
  5
36A
100
AcDbEntity
  8
ALL_ASSEMBLY_MEMBERS
100
AcDbSpline
 62
7
  6
CONTINUOUS
 70
0
 71
3
 72
22
 73
18
 74
0
 42
0.0000001
 43
0.0000001
 44
0.0000000001
 40
0.0
 40
0.0
 40
0.0
 40
0.0
 40
0.0330307147
 40
0.0693403185
 40
0.1092513721
 40
0.1529948713
 40
0.2007332358
 40
0.2525713267
 40
0.3085751791
 40
0.3687840523
 40
0.4332150101
 40
0.501860241
 40
0.574697816
 40
0.6516968822
 40
0.7328123626
 40
0.8179642864
 40
1.0
 40
1.0
 40
1.0
 40
1.0
 10
5.4086491621
 20
2.0291150264
 30
0.0
 10
5.408886366
 20
2.0287751209
 30
0.0
 10
5.4094344141
 20
2.0280959287
 30
0.0
 10
5.4104090749
 20
2.0271288727
 30
0.0
 10
5.4115709883
 20
2.0261689392
 30
0.0
 10
5.4129188554
 20
2.0252170848
 30
0.0
 10
5.4144515273
 20
2.0242742005
 30
0.0
 10
5.4161672686
 20
2.0233410252
 30
0.0
 10
5.418064253
 20
2.0224184607
 30
0.0
 10
5.4201405326
 20
2.0215075057
 30
0.0
 10
5.4223939628
 20
2.0206092354
 30
0.0
 10
5.4248220888
 20
2.0197245595
 30
0.0
 10
5.4274223023
 20
2.0188544684
 30
0.0
 10
5.4301918541
 20
2.018000002
 30
0.0
 10
5.4331275377
 20
2.0171622771
 30
0.0
 10
5.4373529521
 20
2.0160439039
 30
0.0
 10
5.4406166657
 20
2.0152726033
 30
0.0
 10
5.4428468872
 20
2.0147785266
 30
0.0
  0
SPLINE
  5
36B
100
AcDbEntity
  8
ALL_ASSEMBLY_MEMBERS
100
AcDbSpline
 62
7
  6
CONTINUOUS
 70
0
 71
3
 72
11
 73
7
 74
0
 42
0.0000001
 43
0.0000001
 44
0.0000000001
 40
0.0
 40
0.0
 40
0.0
 40
0.0
 40
0.2552028957
 40
0.508098222
 40
0.756934998
 40
1.0
 40
1.0
 40
1.0
 40
1.0
 10
5.5776917702
 20
2.05688881
 30
0.0
 10
5.5815956668
 20
2.0568694334
 30
0.0
 10
5.5893680003
 20
2.0567743851
 30
0.0
 10
5.6009433678
 20
2.0564627045
 30
0.0
 10
5.6123272113
 20
2.0559841649
 30
0.0
 10
5.6198399103
 20
2.0555503689
 30
0.0
 10
5.6235500605
 20
2.0553048294
 30
0.0
  0
SPLINE
  5
36C
100
AcDbEntity
  8
ALL_ASSEMBLY_MEMBERS
100
AcDbSpline
 62
7
  6
CONTINUOUS
 70
0
 71
3
 72
11
 73
7
 74
0
 42
0.0000001
 43
0.0000001
 44
0.0000000001
 40
0.0
 40
0.0
 40
0.0
 40
0.0
 40
0.243064963
 40
0.4919017022
 40
0.7447970772
 40
1.0
 40
1.0
 40
1.0
 40
1.0
 10
5.5238334799
 20
2.0553048294
 30
0.0
 10
5.5275436295
 20
2.0555503689
 30
0.0
 10
5.5350563273
 20
2.0559841648
 30
0.0
 10
5.5464401704
 20
2.0564627044
 30
0.0
 10
5.5580155385
 20
2.0567743851
 30
0.0
 10
5.5657878732
 20
2.0568694334
 30
0.0
 10
5.5696917702
 20
2.05688881
 30
0.0
  0
SPLINE
  5
36D
100
AcDbEntity
  8
ALL_ASSEMBLY_MEMBERS
100
AcDbSpline
 62
7
  6
CONTINUOUS
 70
0
 71
3
 72
11
 73
7
 74
0
 42
0.0000001
 43
0.0000001
 44
0.0000000001
 40
0.0
 40
0.0
 40
0.0
 40
0.0
 40
0.2290274917
 40
0.4731342215
 40
0.7307074192
 40
1.0
 40
1.0
 40
1.0
 40
1.0
 10
5.4775656623
 20
2.0502624158
 30
0.0
 10
5.480514944
 20
2.0507460898
 30
0.0
 10
5.4866216635
 20
2.0516611789
 30
0.0
 10
5.496082597
 20
2.0528555003
 30
0.0
 10
5.5060886922
 20
2.0539089255
 30
0.0
 10
5.5129389183
 20
2.0545005945
 30
0.0
 10
5.5164424436
 20
2.0547732111
 30
0.0
  0
SPLINE
  5
36E
100
AcDbEntity
  8
ALL_ASSEMBLY_MEMBERS
100
AcDbSpline
 62
7
  6
CONTINUOUS
 70
0
 71
3
 72
14
 73
10
 74
0
 42
0.0000001
 43
0.0000001
 44
0.0000000001
 40
0.0
 40
0.0
 40
0.0
 40
0.0
 40
0.0995723119
 40
0.2066845607
 40
0.3212140707
 40
0.4430287124
 40
0.5719955268
 40
0.7079668345
 40
1.0
 40
1.0
 40
1.0
 40
1.0
 10
5.4459321733
 20
2.0425292312
 30
0.0
 10
5.446763907
 20
2.0428515441
 30
0.0
 10
5.4485035453
 20
2.0434868205
 30
0.0
 10
5.451237319
 20
2.044386263
 30
0.0
 10
5.4541862299
 20
2.0452653825
 30
0.0
 10
5.4573448992
 20
2.0461223864
 30
0.0
 10
5.4607080637
 20
2.0469559258
 30
0.0
 10
5.4655740827
 20
2.0480602985
 30
0.0
 10
5.4693358105
 20
2.0488070239
 30
0.0
 10
5.471908808
 20
2.0492801134
 30
0.0
  0
SPLINE
  5
36F
100
AcDbEntity
  8
ALL_ASSEMBLY_MEMBERS
100
AcDbSpline
 62
7
  6
CONTINUOUS
 70
0
 71
3
 72
16
 73
12
 74
0
 42
0.0000001
 43
0.0000001
 44
0.0000000001
 40
0.0
 40
0.0
 40
0.0
 40
0.0
 40
0.0416845584
 40
0.0846863291
 40
0.1763967538
 40
0.2783982227
 40
0.3929389703
 40
0.5215523776
 40
0.665257806
 40
0.8246422987
 40
1.0
 40
1.0
 40
1.0
 40
1.0
 10
5.4337489247
 20
2.0332825826
 30
0.0
 10
5.4337771856
 20
2.0334542735
 30
0.0
 10
5.4338555509
 20
2.0337999508
 30
0.0
 10
5.434098246
 20
2.0344964722
 30
0.0
 10
5.434570977
 20
2.0353718661
 30
0.0
 10
5.4353697305
 20
2.0363865872
 30
0.0
 10
5.4364084398
 20
2.0373901145
 30
0.0
 10
5.4376851272
 20
2.0383828594
 30
0.0
 10
5.4391983912
 20
2.0393645402
 30
0.0
 10
5.4409458065
 20
2.0403341301
 30
0.0
 10
5.4422046033
 20
2.0409422962
 30
0.0
 10
5.4428707058
 20
2.0412457912
 30
0.0
  0
SPLINE
  5
370
100
AcDbEntity
  8
ALL_ASSEMBLY_MEMBERS
100
AcDbSpline
 62
7
  6
CONTINUOUS
 70
0
 71
3
 72
16
 73
12
 74
0
 42
0.0000001
 43
0.0000001
 44
0.0000000001
 40
0.0
 40
0.0
 40
0.0
 40
0.0
 40
0.1753577739
 40
0.3347424605
 40
0.4784481262
 40
0.6070614811
 40
0.7216020124
 40
0.8236033209
 40
0.9153136824
 40
0.9583154437
 40
1.0
 40
1.0
 40
1.0
 40
1.0
 10
5.7045128346
 20
2.0412457912
 30
0.0
 10
5.7051789373
 20
2.040942296
 30
0.0
 10
5.706437735
 20
2.0403341292
 30
0.0
 10
5.7081851518
 20
2.0393645377
 30
0.0
 10
5.7096984175
 20
2.0383828565
 30
0.0
 10
5.7109751047
 20
2.0373901116
 30
0.0
 10
5.7120138121
 20
2.0363865848
 30
0.0
 10
5.7128125642
 20
2.035371865
 30
0.0
 10
5.7132852945
 20
2.0344964719
 30
0.0
 10
5.7135279895
 20
2.0337999508
 30
0.0
 10
5.7136063547
 20
2.0334542735
 30
0.0
 10
5.7136346157
 20
2.0332825826
 30
0.0
  0
SPLINE
  5
371
100
AcDbEntity
  8
ALL_ASSEMBLY_MEMBERS
100
AcDbSpline
 62
7
  6
CONTINUOUS
 70
0
 71
3
 72
14
 73
10
 74
0
 42
0.0000001
 43
0.0000001
 44
0.0000000001
 40
0.0
 40
0.0
 40
0.0
 40
0.0
 40
0.2920334773
 40
0.4280049993
 40
0.5569717494
 40
0.6787861643
 40
0.7933155003
 40
0.9004276922
 40
1.0
 40
1.0
 40
1.0
 40
1.0
 10
5.6754747323
 20
2.0492801134
 30
0.0
 10
5.6780477327
 20
2.0488070234
 30
0.0
 10
5.6818094649
 20
2.0480602963
 30
0.0
 10
5.6866754881
 20
2.0469559232
 30
0.0
 10
5.6900386518
 20
2.0461223839
 30
0.0
 10
5.693197317
 20
2.0452653807
 30
0.0
 10
5.6961462239
 20
2.0443862622
 30
0.0
 10
5.6988799956
 20
2.0434868202
 30
0.0
 10
5.7006196334
 20
2.042851544
 30
0.0
 10
5.7014513671
 20
2.0425292312
 30
0.0
  0
SPLINE
  5
372
100
AcDbEntity
  8
ALL_ASSEMBLY_MEMBERS
100
AcDbSpline
 62
7
  6
CONTINUOUS
 70
0
 71
3
 72
11
 73
7
 74
0
 42
0.0000001
 43
0.0000001
 44
0.0000000001
 40
0.0
 40
0.0
 40
0.0
 40
0.0
 40
0.269292916
 40
0.5268662248
 40
0.7709725448
 40
1.0
 40
1.0
 40
1.0
 40
1.0
 10
5.6309410968
 20
2.0547732111
 30
0.0
 10
5.6344446264
 20
2.0545005941
 30
0.0
 10
5.6412948583
 20
2.0539089239
 30
0.0
 10
5.6513009541
 20
2.0528554995
 30
0.0
 10
5.6607618831
 20
2.0516611778
 30
0.0
 10
5.6668685969
 20
2.0507460898
 30
0.0
 10
5.6698178781
 20
2.0502624158
 30
0.0
  0
SPLINE
  5
373
100
AcDbEntity
  8
ALL_ASSEMBLY_MEMBERS
100
AcDbSpline
 62
7
  6
CONTINUOUS
 70
0
 71
3
 72
51
 73
47
 74
0
 42
0.0000001
 43
0.0000001
 44
0.0000000001
 40
0.0
 40
0.0
 40
0.0
 40
0.0
 40
0.0041333215
 40
0.0085735106
 40
0.0135629611
 40
0.0192712911
 40
0.0258084817
 40
0.0332393808
 40
0.0416009204
 40
0.0509132502
 40
0.0611842514
 40
0.0724082729
 40
0.0845730558
 40
0.0976629
 40
0.126530042
 40
0.1587897125
 40
0.1941799389
 40
0.2323878575
 40
0.2730757556
 40
0.3158695665
 40
0.3603786903
 40
0.4061884212
 40
0.4528743564
 40
0.5
 40
0.5471256436
 40
0.5938115788
 40
0.6396213097
 40
0.6841304335
 40
0.7269242444
 40
0.7676121425
 40
0.8058200611
 40
0.8412102875
 40
0.873469958
 40
0.9023371
 40
0.9154269442
 40
0.9275917271
 40
0.9388157486
 40
0.9490867498
 40
0.9583990796
 40
0.9667606192
 40
0.9741915183
 40
0.9807287089
 40
0.9864370389
 40
0.9914264894
 40
0.9958666785
 40
1.0
 40
1.0
 40
1.0
 40
1.0
 10
5.6166917702
 20
2.0325879899
 30
0.0
 10
5.6166917702
 20
2.0324647631
 30
0.0
 10
5.61665387
 20
2.0322079692
 30
0.0
 10
5.6164894657
 20
2.0318344609
 30
0.0
 10
5.616222145
 20
2.0314675054
 30
0.0
 10
5.6158542884
 20
2.0311062966
 30
0.0
 10
5.6153866873
 20
2.0307501751
 30
0.0
 10
5.6148202643
 20
2.0303989292
 30
0.0
 10
5.6141559647
 20
2.0300529423
 30
0.0
 10
5.61339496
 20
2.0297128945
 30
0.0
 10
5.612538772
 20
2.0293796296
 30
0.0
 10
5.611589392
 20
2.0290538203
 30
0.0
 10
5.6105490605
 20
2.028736248
 30
0.0
 10
5.6089923754
 20
2.0283109902
 30
0.0
 10
5.6068357421
 20
2.0278125113
 30
0.0
 10
5.6040081906
 20
2.0272759066
 30
0.0
 10
5.600889506
 20
2.0267892329
 30
0.0
 10
5.5975094653
 20
2.0263568744
 30
0.0
 10
5.5939004577
 20
2.0259836904
 30
0.0
 10
5.5900970655
 20
2.0256729807
 30
0.0
 10
5.5861358869
 20
2.0254282413
 30
0.0
 10
5.5820549638
 20
2.0252515173
 30
0.0
 10
5.5778935861
 20
2.0251449255
 30
0.0
 10
5.5736917702
 20
2.0251091589
 30
0.0
 10
5.5694899543
 20
2.0251449255
 30
0.0
 10
5.5653285766
 20
2.0252515173
 30
0.0
 10
5.5612476535
 20
2.0254282413
 30
0.0
 10
5.5572864749
 20
2.0256729807
 30
0.0
 10
5.5534830827
 20
2.0259836904
 30
0.0
 10
5.5498740751
 20
2.0263568744
 30
0.0
 10
5.5464940344
 20
2.0267892329
 30
0.0
 10
5.5433753498
 20
2.0272759066
 30
0.0
 10
5.5405477983
 20
2.0278125113
 30
0.0
 10
5.5383911649
 20
2.0283109902
 30
0.0
 10
5.5368344799
 20
2.028736248
 30
0.0
 10
5.5357941483
 20
2.0290538203
 30
0.0
 10
5.5348447683
 20
2.0293796296
 30
0.0
 10
5.5339885804
 20
2.0297128945
 30
0.0
 10
5.5332275757
 20
2.0300529423
 30
0.0
 10
5.5325632761
 20
2.0303989292
 30
0.0
 10
5.5319968531
 20
2.0307501751
 30
0.0
 10
5.531529252
 20
2.0311062966
 30
0.0
 10
5.5311613953
 20
2.0314675054
 30
0.0
 10
5.5308940746
 20
2.0318344609
 30
0.0
 10
5.5307296703
 20
2.0322079692
 30
0.0
 10
5.5306917702
 20
2.0324647631
 30
0.0
 10
5.5306917702
 20
2.0325879899
 30
0.0
  0
LINE
  5
374
100
AcDbEntity
  8
ALL_ASSEMBLY_MEMBERS
100
AcDbLine
 62
7
  6
CONTINUOUS
 10
5.6061053634
 20
2.0391988538
 11
5.5964601323
 21
2.0403179707
  0
SPLINE
  5
375
100
AcDbEntity
  8
ALL_ASSEMBLY_MEMBERS
100
AcDbSpline
 62
7
  6
CONTINUOUS
 70
0
 71
3
 72
12
 73
8
 74
0
 42
0.0000001
 43
0.0000001
 44
0.0000000001
 40
0.0
 40
0.0
 40
0.0
 40
0.0
 40
0.310323848
 40
0.5776066094
 40
0.6961717806
 40
0.8054970022
 40
1.0
 40
1.0
 40
1.0
 40
1.0
 10
5.5261151178
 20
2.0352582345
 30
0.0
 10
5.5258372647
 20
2.0351089556
 30
0.0
 10
5.5253302268
 20
2.0348113224
 30
0.0
 10
5.5247601036
 20
2.0343886645
 30
0.0
 10
5.5243925532
 20
2.0340438303
 30
0.0
 10
5.5241064142
 20
2.0337235924
 30
0.0
 10
5.5239349676
 20
2.0334620367
 30
0.0
 10
5.523852027
 20
2.0332825826
 30
0.0
  0
SPLINE
  5
376
100
AcDbEntity
  8
ALL_ASSEMBLY_MEMBERS
100
AcDbSpline
 62
7
  6
CONTINUOUS
 70
0
 71
3
 72
16
 73
12
 74
0
 42
0.0000001
 43
0.0000001
 44
0.0000000001
 40
0.0
 40
0.0
 40
0.0
 40
0.0
 40
0.1753577212
 40
0.3347422762
 40
0.4784477979
 40
0.6070612188
 40
0.7216019181
 40
0.823603322
 40
0.9153136918
 40
0.9583154469
 40
1.0
 40
1.0
 40
1.0
 40
1.0
 10
5.4428707058
 20
2.0239301887
 30
0.0
 10
5.4422046033
 20
2.0242336837
 30
0.0
 10
5.4409458061
 20
2.02484185
 30
0.0
 10
5.4391983903
 20
2.0258114404
 30
0.0
 10
5.4376851256
 20
2.0267931216
 30
0.0
 10
5.4364084382
 20
2.0277858668
 30
0.0
 10
5.4353697294
 20
2.028789394
 30
0.0
 10
5.4345709762
 20
2.0298041145
 30
0.0
 10
5.4340982457
 20
2.030679508
 30
0.0
 10
5.4338555508
 20
2.0313760291
 30
0.0
 10
5.4337771856
 20
2.0317217064
 30
0.0
 10
5.4337489247
 20
2.0318933972
 30
0.0
  0
SPLINE
  5
377
100
AcDbEntity
  8
ALL_ASSEMBLY_MEMBERS
100
AcDbSpline
 62
7
  6
CONTINUOUS
 70
0
 71
3
 72
14
 73
10
 74
0
 42
0.0000001
 43
0.0000001
 44
0.0000000001
 40
0.0
 40
0.0
 40
0.0
 40
0.0
 40
0.2920332531
 40
0.4280046448
 40
0.5569714772
 40
0.6787860744
 40
0.7933155151
 40
0.9004277097
 40
1.0
 40
1.0
 40
1.0
 40
1.0
 10
5.471908808
 20
2.0158958665
 30
0.0
 10
5.4693358097
 20
2.0163689561
 30
0.0
 10
5.4655740804
 20
2.017115682
 30
0.0
 10
5.4607080597
 20
2.018220055
 30
0.0
 10
5.4573448948
 20
2.0190535946
 30
0.0
 10
5.4541862264
 20
2.0199105984
 30
0.0
 10
5.4512373169
 20
2.0207897174
 30
0.0
 10
5.4485035445
 20
2.0216891596
 30
0.0
 10
5.4467639068
 20
2.0223244359
 30
0.0
 10
5.4459321733
 20
2.0226467487
 30
0.0
  0
SPLINE
  5
378
100
AcDbEntity
  8
ALL_ASSEMBLY_MEMBERS
100
AcDbSpline
 62
7
  6
CONTINUOUS
 70
0
 71
3
 72
11
 73
7
 74
0
 42
0.0000001
 43
0.0000001
 44
0.0000000001
 40
0.0
 40
0.0
 40
0.0
 40
0.0
 40
0.2692926671
 40
0.5268659547
 40
0.770972574
 40
1.0
 40
1.0
 40
1.0
 40
1.0
 10
5.5164424436
 20
2.0104027687
 30
0.0
 10
5.5129389172
 20
2.0106753855
 30
0.0
 10
5.5060886888
 20
2.0112670548
 30
0.0
 10
5.4960825927
 20
2.0123204801
 30
0.0
 10
5.4866216603
 20
2.0135148014
 30
0.0
 10
5.4805149431
 20
2.0144298902
 30
0.0
 10
5.4775656623
 20
2.014913564
 30
0.0
  0
SPLINE
  5
379
100
AcDbEntity
  8
ALL_ASSEMBLY_MEMBERS
100
AcDbSpline
 62
7
  6
CONTINUOUS
 70
0
 71
3
 72
12
 73
8
 74
0
 42
0.0000001
 43
0.0000001
 44
0.0000000001
 40
0.0
 40
0.0
 40
0.0
 40
0.0
 40
0.1945013944
 40
0.3038256085
 40
0.4223906951
 40
0.6896751908
 40
1.0
 40
1.0
 40
1.0
 40
1.0
 10
5.6235315134
 20
2.0332825826
 30
0.0
 10
5.6234485734
 20
2.0334620352
 30
0.0
 10
5.6232771305
 20
2.03372359
 30
0.0
 10
5.6229909938
 20
2.0340438266
 30
0.0
 10
5.6226234412
 20
2.0343886595
 30
0.0
 10
5.6220533159
 20
2.0348113187
 30
0.0
 10
5.6215462766
 20
2.0351089551
 30
0.0
 10
5.6212684225
 20
2.0352582345
 30
0.0
  0
SPLINE
  5
37A
100
AcDbEntity
  8
ALL_ASSEMBLY_MEMBERS
100
AcDbSpline
 62
7
  6
CONTINUOUS
 70
0
 71
3
 72
11
 73
7
 74
0
 42
0.0000001
 43
0.0000001
 44
0.0000000001
 40
0.0
 40
0.0
 40
0.0
 40
0.0
 40
0.2552030028
 40
0.508098444
 40
0.7569350835
 40
1.0
 40
1.0
 40
1.0
 40
1.0
 10
5.5696917702
 20
2.0082871698
 30
0.0
 10
5.5657878719
 20
2.0083065465
 30
0.0
 10
5.558015535
 20
2.0084015949
 30
0.0
 10
5.5464401662
 20
2.0087132755
 30
0.0
 10
5.5350563243
 20
2.0091918152
 30
0.0
 10
5.5275436288
 20
2.0096256111
 30
0.0
 10
5.5238334799
 20
2.0098711505
 30
0.0
  0
SPLINE
  5
37B
100
AcDbEntity
  8
ALL_ASSEMBLY_MEMBERS
100
AcDbSpline
 62
7
  6
CONTINUOUS
 70
0
 71
3
 72
11
 73
7
 74
0
 42
0.0000001
 43
0.0000001
 44
0.0000000001
 40
0.0
 40
0.0
 40
0.0
 40
0.0
 40
0.2430650694
 40
0.4919018697
 40
0.7447971174
 40
1.0
 40
1.0
 40
1.0
 40
1.0
 10
5.6235500605
 20
2.0098711505
 30
0.0
 10
5.6198399093
 20
2.0096256109
 30
0.0
 10
5.6123272089
 20
2.009191815
 30
0.0
 10
5.6009433652
 20
2.0087132752
 30
0.0
 10
5.5893679987
 20
2.0084015947
 30
0.0
 10
5.5815956666
 20
2.0083065464
 30
0.0
 10
5.5776917702
 20
2.0082871698
 30
0.0
  0
SPLINE
  5
37C
100
AcDbEntity
  8
ALL_ASSEMBLY_MEMBERS
100
AcDbSpline
 62
7
  6
CONTINUOUS
 70
0
 71
3
 72
11
 73
7
 74
0
 42
0.0000001
 43
0.0000001
 44
0.0000000001
 40
0.0
 40
0.0
 40
0.0
 40
0.0
 40
0.2290276166
 40
0.4731343983
 40
0.7307074528
 40
1.0
 40
1.0
 40
1.0
 40
1.0
 10
5.6698178781
 20
2.014913564
 30
0.0
 10
5.6668685948
 20
2.0144298898
 30
0.0
 10
5.660761873
 20
2.0135148007
 30
0.0
 10
5.6513009391
 20
2.012320479
 30
0.0
 10
5.6412948455
 20
2.0112670542
 30
0.0
 10
5.6344446216
 20
2.0106753853
 30
0.0
 10
5.6309410968
 20
2.0104027687
 30
0.0
  0
SPLINE
  5
37D
100
AcDbEntity
  8
ALL_ASSEMBLY_MEMBERS
100
AcDbSpline
 62
7
  6
CONTINUOUS
 70
0
 71
3
 72
11
 73
7
 74
0
 42
0.0000001
 43
0.0000001
 44
0.0000000001
 40
0.0
 40
0.0
 40
0.0
 40
0.0
 40
0.2792506813
 40
0.5395063994
 40
0.7799619133
 40
1.0
 40
1.0
 40
1.0
 40
1.0
 10
5.5356213227
 20
2.0382165513
 30
0.0
 10
5.5350136371
 20
2.0380926118
 30
0.0
 10
5.5338421989
 20
2.0378401129
 30
0.0
 10
5.5321587488
 20
2.0374309164
 30
0.0
 10
5.5306152726
 20
2.0370056382
 30
0.0
 10
5.5296393322
 20
2.0366987796
 30
0.0
 10
5.5291765853
 20
2.0365416745
 30
0.0
  0
SPLINE
  5
37E
100
AcDbEntity
  8
ALL_ASSEMBLY_MEMBERS
100
AcDbSpline
 62
7
  6
CONTINUOUS
 70
0
 71
3
 72
11
 73
7
 74
0
 42
0.0000001
 43
0.0000001
 44
0.0000000001
 40
0.0
 40
0.0
 40
0.0
 40
0.0
 40
0.2200365584
 40
0.4604908656
 40
0.7207481167
 40
1.0
 40
1.0
 40
1.0
 40
1.0
 10
5.6182069551
 20
2.0365416745
 30
0.0
 10
5.6177442113
 20
2.0366987785
 30
0.0
 10
5.6167682772
 20
2.0370056367
 30
0.0
 10
5.6152248033
 20
2.0374309132
 30
0.0
 10
5.6135413498
 20
2.03784011
 30
0.0
 10
5.6123699059
 20
2.0380926112
 30
0.0
 10
5.6117622177
 20
2.0382165513
 30
0.0
  0
SPLINE
  5
37F
100
AcDbEntity
  8
ALL_ASSEMBLY_MEMBERS
100
AcDbSpline
 62
7
  6
CONTINUOUS
 70
0
 71
3
 72
14
 73
10
 74
0
 42
0.0000001
 43
0.0000001
 44
0.0000000001
 40
0.0
 40
0.0
 40
0.0
 40
0.0
 40
0.0995723628
 40
0.2066847114
 40
0.3212142878
 40
0.4430289023
 40
0.5719956328
 40
0.7079668625
 40
1.0
 40
1.0
 40
1.0
 40
1.0
 10
5.7014513671
 20
2.0226467487
 30
0.0
 10
5.700619633
 20
2.0223244356
 30
0.0
 10
5.6988799933
 20
2.0216891589
 30
0.0
 10
5.6961462177
 20
2.020789716
 30
0.0
 10
5.6931973057
 20
2.0199105959
 30
0.0
 10
5.6900386367
 20
2.0190535922
 30
0.0
 10
5.6866754739
 20
2.0182200534
 30
0.0
 10
5.6818094565
 20
2.0171156812
 30
0.0
 10
5.6780477297
 20
2.016368956
 30
0.0
 10
5.6754747323
 20
2.0158958665
 30
0.0
  0
LINE
  5
380
100
AcDbEntity
  8
ALL_ASSEMBLY_MEMBERS
100
AcDbLine
 62
7
  6
CONTINUOUS
 10
5.5509234081
 20
2.0403179707
 11
5.5412781769
 21
2.0391988538
  0
SPLINE
  5
381
100
AcDbEntity
  8
ALL_ASSEMBLY_MEMBERS
100
AcDbSpline
 62
7
  6
CONTINUOUS
 70
0
 71
3
 72
16
 73
12
 74
0
 42
0.0000001
 43
0.0000001
 44
0.0000000001
 40
0.0
 40
0.0
 40
0.0
 40
0.0
 40
0.041684572
 40
0.0846863798
 40
0.1763969102
 40
0.2783984352
 40
0.3929391451
 40
0.5215524706
 40
0.6652578246
 40
0.8246422967
 40
1.0
 40
1.0
 40
1.0
 40
1.0
 10
5.7136346157
 20
2.0318933972
 30
0.0
 10
5.7136063547
 20
2.0317217063
 30
0.0
 10
5.7135279893
 20
2.0313760288
 30
0.0
 10
5.7132852935
 20
2.030679507
 30
0.0
 10
5.7128125616
 20
2.0298041127
 30
0.0
 10
5.7120138085
 20
2.0287893907
 30
0.0
 10
5.7109750992
 20
2.0277858637
 30
0.0
 10
5.7096984121
 20
2.0267931197
 30
0.0
 10
5.7081851487
 20
2.0258114394
 30
0.0
 10
5.7064377338
 20
2.0248418498
 30
0.0
 10
5.705178937
 20
2.0242336837
 30
0.0
 10
5.7045128346
 20
2.0239301887
 30
0.0
  0
SPLINE
  5
382
100
AcDbEntity
  8
ALL_ASSEMBLY_MEMBERS
100
AcDbSpline
 62
7
  6
CONTINUOUS
 70
0
 71
3
 72
22
 73
18
 74
0
 42
0.0000001
 43
0.0000001
 44
0.0000000001
 40
0.0
 40
0.0
 40
0.0
 40
0.0
 40
0.0330307112
 40
0.0693403062
 40
0.1092513484
 40
0.1529948371
 40
0.2007331917
 40
0.2525712707
 40
0.3085751104
 40
0.3687839712
 40
0.4332149142
 40
0.5018601314
 40
0.5746977048
 40
0.6516967927
 40
0.7328123082
 40
0.8179642604
 40
1.0
 40
1.0
 40
1.0
 40
1.0
 10
5.7387343783
 20
2.0360609535
 30
0.0
 10
5.7384971744
 20
2.0364008589
 30
0.0
 10
5.7379491265
 20
2.0370800511
 30
0.0
 10
5.7369744659
 20
2.038047107
 30
0.0
 10
5.7358125529
 20
2.0390070402
 30
0.0
 10
5.7344646861
 20
2.0399588943
 30
0.0
 10
5.7329320145
 20
2.0409017784
 30
0.0
 10
5.7312162737
 20
2.0418349536
 30
0.0
 10
5.7293192897
 20
2.042757518
 30
0.0
 10
5.7272430107
 20
2.043668473
 30
0.0
 10
5.724989581
 20
2.0445667432
 30
0.0
 10
5.7225614554
 20
2.0454514192
 30
0.0
 10
5.7199612419
 20
2.0463215103
 30
0.0
 10
5.7171916894
 20
2.0471759769
 30
0.0
 10
5.7142560047
 20
2.048013702
 30
0.0
 10
5.7100305892
 20
2.0491320757
 30
0.0
 10
5.706766875
 20
2.0499033765
 30
0.0
 10
5.7045366532
 20
2.0503974533
 30
0.0
  0
SPLINE
  5
383
100
AcDbEntity
  8
ALL_ASSEMBLY_MEMBERS
100
AcDbSpline
 62
7
  6
CONTINUOUS
 70
0
 71
3
 72
21
 73
17
 74
0
 42
0.0000001
 43
0.0000001
 44
0.0000000001
 40
0.0
 40
0.0
 40
0.0
 40
0.0
 40
0.1820664257
 40
0.3483031689
 40
0.425291352
 40
0.498126842
 40
0.5667738455
 40
0.6312100599
 40
0.6914280323
 40
0.7474356611
 40
0.7992689633
 40
0.8470008862
 40
0.8907411935
 40
0.9306511248
 40
0.9669627824
 40
1.0
 40
1.0
 40
1.0
 40
1.0
 10
5.4428468872
 20
2.0503974533
 30
0.0
 10
5.4406163048
 20
2.0499032966
 30
0.0
 10
5.4363620435
 20
2.0488977691
 30
0.0
 10
5.4312125632
 20
2.0474907941
 30
0.0
 10
5.427422416
 20
2.0463215554
 30
0.0
 10
5.424822339
 20
2.0454515482
 30
0.0
 10
5.422394179
 20
2.044566836
 30
0.0
 10
5.4201406046
 20
2.0436684277
 30
0.0
 10
5.4180641047
 20
2.0427574505
 30
0.0
 10
5.41616702
 20
2.0418348904
 30
0.0
 10
5.4144514034
 20
2.0409017065
 30
0.0
 10
5.4129189155
 20
2.0399589007
 30
0.0
 10
5.4115710644
 20
2.0390072785
 30
0.0
 10
5.4104091665
 20
2.0380473805
 30
0.0
 10
5.4094344871
 20
2.0370802214
 30
0.0
 10
5.408886411
 20
2.0364009235
 30
0.0
 10
5.4086491621
 20
2.0360609535
 30
0.0
  0
SPLINE
  5
384
100
AcDbEntity
  8
ALL_ASSEMBLY_MEMBERS
100
AcDbSpline
 62
7
  6
CONTINUOUS
 70
0
 71
3
 72
15
 73
11
 74
0
 42
0.0000001
 43
0.0000001
 44
0.0000000001
 40
0.0
 40
0.0
 40
0.0
 40
0.0
 40
0.0381310656
 40
0.1465951745
 40
0.3087598428
 40
0.4999997869
 40
0.6912397456
 40
0.853404563
 40
0.9618688895
 40
1.0
 40
1.0
 40
1.0
 40
1.0
 10
7.2511276746
 20
6.8523886778
 30
0.0
 10
7.2509501117
 20
6.8497871023
 30
0.0
 10
7.2502921473
 20
6.8397836129
 30
0.0
 10
7.2491082603
 20
6.8187012433
 30
0.0
 10
7.2479114077
 20
6.7871359489
 30
0.0
 10
7.2474115877
 20
6.7498887205
 30
0.0
 10
7.2479114053
 20
6.7126414819
 30
0.0
 10
7.2491082578
 20
6.6810761614
 30
0.0
 10
7.2502921459
 20
6.6599937637
 30
0.0
 10
7.2509501115
 20
6.6499902564
 30
0.0
 10
7.2511276746
 20
6.6473886778
 30
0.0
  0
SPLINE
  5
385
100
AcDbEntity
  8
ALL_ASSEMBLY_MEMBERS
100
AcDbSpline
 62
7
  6
CONTINUOUS
 70
0
 71
3
 72
12
 73
8
 74
0
 42
0.0000001
 43
0.0000001
 44
0.0000000001
 40
0.0
 40
0.0
 40
0.0
 40
0.0
 40
0.3361088111
 40
0.508646978
 40
0.6688554548
 40
0.9113240245
 40
1.0
 40
1.0
 40
1.0
 40
1.0
 10
7.8389802434
 20
6.7009091033
 30
0.0
 10
7.8395444112
 20
6.7178805761
 30
0.0
 10
7.8399579524
 20
6.7435817813
 30
0.0
 10
7.8396109767
 20
6.777373136
 30
0.0
 10
7.8388152227
 20
6.8064244356
 30
0.0
 10
7.8376294202
 20
6.8312229122
 30
0.0
 10
7.8365609912
 20
6.8479190568
 30
0.0
 10
7.8362558657
 20
6.8523886778
 30
0.0
  0
SPLINE
  5
386
100
AcDbEntity
  8
ALL_ASSEMBLY_MEMBERS
100
AcDbSpline
 62
7
  6
CONTINUOUS
 70
0
 71
3
 72
15
 73
11
 74
0
 42
0.0000001
 43
0.0000001
 44
0.0000000001
 40
0.0
 40
0.0
 40
0.0
 40
0.0
 40
0.0381310656
 40
0.1465951745
 40
0.3087598428
 40
0.4999997869
 40
0.6912397456
 40
0.853404563
 40
0.9618688895
 40
1.0
 40
1.0
 40
1.0
 40
1.0
 10
3.8987558657
 20
6.6473886778
 30
0.0
 10
3.8989334287
 20
6.6499902533
 30
0.0
 10
3.8995913931
 20
6.6599937427
 30
0.0
 10
3.9007752801
 20
6.6810761123
 30
0.0
 10
3.9019721326
 20
6.7126414067
 30
0.0
 10
3.9024719527
 20
6.7498886351
 30
0.0
 10
3.901972135
 20
6.7871358737
 30
0.0
 10
3.9007752826
 20
6.8187011942
 30
0.0
 10
3.8995913944
 20
6.8397835919
 30
0.0
 10
3.8989334289
 20
6.8497870992
 30
0.0
 10
3.8987558657
 20
6.8523886778
 30
0.0
  0
SPLINE
  5
387
100
AcDbEntity
  8
ALL_ASSEMBLY_MEMBERS
100
AcDbSpline
 62
7
  6
CONTINUOUS
 70
0
 71
3
 72
12
 73
8
 74
0
 42
0.0000001
 43
0.0000001
 44
0.0000000001
 40
0.0
 40
0.0
 40
0.0
 40
0.0
 40
0.3361088111
 40
0.508646978
 40
0.6688554548
 40
0.9113240245
 40
1.0
 40
1.0
 40
1.0
 40
1.0
 10
3.310903297
 20
6.7988682522
 30
0.0
 10
3.3103391292
 20
6.7818967795
 30
0.0
 10
3.3099255879
 20
6.7561955743
 30
0.0
 10
3.3102725637
 20
6.7224042196
 30
0.0
 10
3.3110683177
 20
6.69335292
 30
0.0
 10
3.3122541201
 20
6.6685544434
 30
0.0
 10
3.3133225491
 20
6.6518582988
 30
0.0
 10
3.3136276746
 20
6.6473886778
 30
0.0
  0
SPLINE
  5
388
100
AcDbEntity
  8
ALL_ASSEMBLY_MEMBERS
100
AcDbSpline
 62
7
  6
CONTINUOUS
 70
0
 71
3
 72
11
 73
7
 74
0
 42
0.0000001
 43
0.0000001
 44
0.0000000001
 40
0.0
 40
0.0
 40
0.0
 40
0.0
 40
0.2324576322
 40
0.4723817291
 40
0.7263813105
 40
1.0
 40
1.0
 40
1.0
 40
1.0
 10
5.7716917702
 20
2.0261867395
 30
0.0
 10
5.7716917702
 20
2.0265512261
 30
0.0
 10
5.7716227279
 20
2.0272935617
 30
0.0
 10
5.7713156221
 20
2.0283958447
 30
0.0
 10
5.7708076724
 20
2.0294919076
 30
0.0
 10
5.7703559903
 20
2.0301882392
 30
0.0
 10
5.7701022084
 20
2.0305341553
 30
0.0
  0
LINE
  5
389
100
AcDbEntity
  8
ALL_ASSEMBLY_MEMBERS
100
AcDbLine
 62
7
  6
CONTINUOUS
 10
5.7701022084
 20
2.0305341553
 11
5.7692540616
 21
2.0315653224
  0
SPLINE
  5
38A
100
AcDbEntity
  8
ALL_ASSEMBLY_MEMBERS
100
AcDbSpline
 62
7
  6
CONTINUOUS
 70
0
 71
3
 72
21
 73
17
 74
0
 42
0.0000001
 43
0.0000001
 44
0.0000000001
 40
0.0
 40
0.0
 40
0.0
 40
0.0
 40
0.0318821218
 40
0.0675809937
 40
0.1073120134
 40
0.1512137096
 40
0.1993578108
 40
0.2517674533
 40
0.3084399895
 40
0.3693524003
 40
0.4344509875
 40
0.5036641977
 40
0.5769127874
 40
0.6541069901
 40
0.8198727322
 40
1.0
 40
1.0
 40
1.0
 40
1.0
 10
5.7687660374
 20
2.0320755942
 30
0.0
 10
5.7682677383
 20
2.0325733695
 30
0.0
 10
5.7671428884
 20
2.0335605641
 30
0.0
 10
5.7652163778
 20
2.0349465819
 30
0.0
 10
5.7629618025
 20
2.0363171207
 30
0.0
 10
5.760382299
 20
2.037669944
 30
0.0
 10
5.7574816087
 20
2.0390033233
 30
0.0
 10
5.7542644776
 20
2.0403151979
 30
0.0
 10
5.7507360046
 20
2.0416032342
 30
0.0
 10
5.7469018531
 20
2.0428648824
 30
0.0
 10
5.7427685881
 20
2.0440981437
 30
0.0
 10
5.7383433605
 20
2.0453009243
 30
0.0
 10
5.7336336148
 20
2.046471071
 30
0.0
 10
5.7268219082
 20
2.0480216928
 30
0.0
 10
5.7176537474
 20
2.049849178
 30
0.0
 10
5.7101180736
 20
2.0511219209
 30
0.0
 10
5.7061865221
 20
2.0517366624
 30
0.0
  0
SPLINE
  5
38B
100
AcDbEntity
  8
ALL_ASSEMBLY_MEMBERS
100
AcDbSpline
 62
7
  6
CONTINUOUS
 70
0
 71
3
 72
23
 73
19
 74
0
 42
0.0000001
 43
0.0000001
 44
0.0000000001
 40
0.0
 40
0.0
 40
0.0
 40
0.0
 40
0.0535184883
 40
0.1105425198
 40
0.1706321614
 40
0.2333225366
 40
0.2981212529
 40
0.3645186326
 40
0.4319897105
 40
0.5
 40
0.5680102895
 40
0.6354813674
 40
0.7018787471
 40
0.7666774634
 40
0.8293678386
 40
0.8894574802
 40
0.9464815117
 40
1.0
 40
1.0
 40
1.0
 40
1.0
 10
5.704794307
 20
2.0519522985
 30
0.0
 10
5.7001567591
 20
2.0526638164
 30
0.0
 10
5.690556983
 20
2.0539991072
 30
0.0
 10
5.6756951372
 20
2.0557096835
 30
0.0
 10
5.6600001002
 20
2.0571824826
 30
0.0
 10
5.6436001504
 20
2.0584044991
 30
0.0
 10
5.6266290374
 20
2.0593658235
 30
0.0
 10
5.6092254396
 20
2.0600583182
 30
0.0
 10
5.591531487
 20
2.0604760068
 30
0.0
 10
5.5736917702
 20
2.0606157999
 30
0.0
 10
5.5558520534
 20
2.0604760068
 30
0.0
 10
5.5381581007
 20
2.0600583182
 30
0.0
 10
5.520754503
 20
2.0593658235
 30
0.0
 10
5.50378339
 20
2.0584044991
 30
0.0
 10
5.4873834402
 20
2.0571824826
 30
0.0
 10
5.4716884032
 20
2.0557096835
 30
0.0
 10
5.4568265574
 20
2.0539991072
 30
0.0
 10
5.4472267813
 20
2.0526638164
 30
0.0
 10
5.4425892334
 20
2.0519522985
 30
0.0
  0
SPLINE
  5
38C
100
AcDbEntity
  8
ALL_ASSEMBLY_MEMBERS
100
AcDbSpline
 62
7
  6
CONTINUOUS
 70
0
 71
3
 72
21
 73
17
 74
0
 42
0.0000001
 43
0.0000001
 44
0.0000000001
 40
0.0
 40
0.0
 40
0.0
 40
0.0
 40
0.1801272678
 40
0.3458930099
 40
0.4230872126
 40
0.4963358023
 40
0.5655490125
 40
0.6306475997
 40
0.6915600105
 40
0.7482325467
 40
0.8006421892
 40
0.8487862904
 40
0.8926879866
 40
0.9324190063
 40
0.9681178782
 40
1.0
 40
1.0
 40
1.0
 40
1.0
 10
5.4411970183
 20
2.0517366624
 30
0.0
 10
5.4372654668
 20
2.0511219209
 30
0.0
 10
5.429729793
 20
2.049849178
 30
0.0
 10
5.4205616322
 20
2.0480216928
 30
0.0
 10
5.4137499256
 20
2.046471071
 30
0.0
 10
5.4090401798
 20
2.0453009243
 30
0.0
 10
5.4046149522
 20
2.0440981437
 30
0.0
 10
5.4004816873
 20
2.0428648824
 30
0.0
 10
5.3966475358
 20
2.0416032342
 30
0.0
 10
5.3931190628
 20
2.0403151979
 30
0.0
 10
5.3899019317
 20
2.0390033233
 30
0.0
 10
5.3870012414
 20
2.037669944
 30
0.0
 10
5.3844217378
 20
2.0363171207
 30
0.0
 10
5.3821671625
 20
2.0349465819
 30
0.0
 10
5.3802406519
 20
2.0335605641
 30
0.0
 10
5.3791158021
 20
2.0325733695
 30
0.0
 10
5.378617503
 20
2.0320755942
 30
0.0
  0
LINE
  5
38D
100
AcDbEntity
  8
ALL_ASSEMBLY_MEMBERS
100
AcDbLine
 62
7
  6
CONTINUOUS
 10
5.3781294787
 20
2.0315653224
 11
5.377281332
 21
2.0305341553
  0
SPLINE
  5
38E
100
AcDbEntity
  8
ALL_ASSEMBLY_MEMBERS
100
AcDbSpline
 62
7
  6
CONTINUOUS
 70
0
 71
3
 72
11
 73
7
 74
0
 42
0.0000001
 43
0.0000001
 44
0.0000000001
 40
0.0
 40
0.0
 40
0.0
 40
0.0
 40
0.2736186895
 40
0.5276182709
 40
0.7675423678
 40
1.0
 40
1.0
 40
1.0
 40
1.0
 10
5.377281332
 20
2.0305341553
 30
0.0
 10
5.37702755
 20
2.0301882392
 30
0.0
 10
5.376575868
 20
2.0294919076
 30
0.0
 10
5.3760679183
 20
2.0283958447
 30
0.0
 10
5.3757608124
 20
2.0272935617
 30
0.0
 10
5.3756917702
 20
2.0265512261
 30
0.0
 10
5.3756917702
 20
2.0261867395
 30
0.0
  0
SPLINE
  5
38F
100
AcDbEntity
  8
ALL_ASSEMBLY_MEMBERS
100
AcDbSpline
 62
7
  6
CONTINUOUS
 70
0
 71
3
 72
15
 73
11
 74
0
 42
0.0000001
 43
0.0000001
 44
0.0000000001
 40
0.0
 40
0.0
 40
0.0
 40
0.0
 40
0.121425363
 40
0.255354091
 40
0.3978197318
 40
0.5423810035
 40
0.6808842914
 40
0.8059243256
 40
0.9128810662
 40
1.0
 40
1.0
 40
1.0
 40
1.0
 10
5.8184506983
 20
2.3977247034
 30
0.0
 10
5.8185341782
 20
2.3996889217
 30
0.0
 10
5.8186850995
 20
2.4038206875
 30
0.0
 10
5.8188529436
 20
2.4102596841
 30
0.0
 10
5.8189612462
 20
2.417074614
 30
0.0
 10
5.81899978
 20
2.4239643725
 30
0.0
 10
5.8189644083
 20
2.4305720189
 30
0.0
 10
5.8188593875
 20
2.4365700304
 30
0.0
 10
5.8186950459
 20
2.4417343771
 30
0.0
 10
5.8185395056
 20
2.4448730797
 30
0.0
 10
5.8184506983
 20
2.4462808192
 30
0.0
  0
SPLINE
  5
390
100
AcDbEntity
  8
ALL_ASSEMBLY_MEMBERS
100
AcDbSpline
 62
7
  6
CONTINUOUS
 70
0
 71
3
 72
18
 73
14
 74
0
 42
0.0000001
 43
0.0000001
 44
0.0000000001
 40
0.0
 40
0.0
 40
0.0
 40
0.0
 40
0.1215545288
 40
0.2554025829
 40
0.3976386815
 40
0.4700087959
 40
0.5419121316
 40
0.6801720792
 40
0.805133425
 40
0.8610954618
 40
0.9122925211
 40
0.9585956336
 40
1.0
 40
1.0
 40
1.0
 40
1.0
 10
5.8339455111
 20
2.3945566012
 30
0.0
 10
5.834161694
 20
2.3965166984
 30
0.0
 10
5.8345528227
 20
2.4006422519
 30
0.0
 10
5.8349882105
 20
2.4070791398
 30
0.0
 10
5.8352210477
 20
2.4127280654
 30
0.0
 10
5.8353196832
 20
2.4173751973
 30
0.0
 10
5.8353527507
 20
2.4219587552
 30
0.0
 10
5.8352772153
 20
2.4273957736
 30
0.0
 10
5.8350425523
 20
2.4325697287
 30
0.0
 10
5.8347630064
 20
2.4363252609
 30
0.0
 10
5.8345264622
 20
2.4388038327
 30
0.0
 10
5.8342597875
 20
2.4410416629
 30
0.0
 10
5.8340537807
 20
2.4424497959
 30
0.0
 10
5.8339455111
 20
2.443112717
 30
0.0
  0
SPLINE
  5
391
100
AcDbEntity
  8
ALL_ASSEMBLY_MEMBERS
100
AcDbSpline
 62
7
  6
CONTINUOUS
 70
0
 71
3
 72
17
 73
13
 74
0
 42
0.0000001
 43
0.0000001
 44
0.0000000001
 40
0.0
 40
0.0
 40
0.0
 40
0.0
 40
0.1217947992
 40
0.2554966043
 40
0.3973114178
 40
0.5410459274
 40
0.6788599015
 40
0.8036803935
 40
0.8597544154
 40
0.9112147311
 40
0.9579566008
 40
1.0
 40
1.0
 40
1.0
 40
1.0
 10
5.8480834361
 20
2.3912026035
 30
0.0
 10
5.8484305649
 20
2.3931550829
 30
0.0
 10
5.849059475
 20
2.3972689939
 30
0.0
 10
5.8497606876
 20
2.4037018621
 30
0.0
 10
5.8502131505
 20
2.4105153028
 30
0.0
 10
5.8503741313
 20
2.4174090384
 30
0.0
 10
5.8502260197
 20
2.4240263698
 30
0.0
 10
5.8498479212
 20
2.429204881
 30
0.0
 10
5.8493983062
 20
2.432961908
 30
0.0
 10
5.8490173762
 20
2.435445366
 30
0.0
 10
5.8485878482
 20
2.4376886628
 30
0.0
 10
5.8482569953
 20
2.4390965237
 30
0.0
 10
5.8480834361
 20
2.4397587193
 30
0.0
  0
SPLINE
  5
392
100
AcDbEntity
  8
ALL_ASSEMBLY_MEMBERS
100
AcDbSpline
 62
7
  6
CONTINUOUS
 70
0
 71
3
 72
18
 73
14
 74
0
 42
0.0000001
 43
0.0000001
 44
0.0000000001
 40
0.0
 40
0.0
 40
0.0
 40
0.0
 40
0.1221336689
 40
0.2556263414
 40
0.396839773
 40
0.5398107708
 40
0.6769903502
 40
0.7412255917
 40
0.801635406
 40
0.8578698714
 40
0.909703546
 40
0.9570636999
 40
1.0
 40
1.0
 40
1.0
 40
1.0
 10
5.8607907624
 20
2.3876801971
 30
0.0
 10
5.8612660962
 20
2.3896218638
 30
0.0
 10
5.8621288861
 20
2.3937189353
 30
0.0
 10
5.8630931423
 20
2.4001456326
 30
0.0
 10
5.8637153889
 20
2.4069575315
 30
0.0
 10
5.8639366077
 20
2.4138546369
 30
0.0
 10
5.8637633998
 20
2.4194933169
 30
0.0
 10
5.8634029308
 20
2.423764346
 30
0.0
 10
5.8630423438
 20
2.4267036065
 30
0.0
 10
5.8625954392
 20
2.4294255114
 30
0.0
 10
5.8620717542
 20
2.4319159508
 30
0.0
 10
5.8614811078
 20
2.4341670031
 30
0.0
 10
5.8610279437
 20
2.4355747946
 30
0.0
 10
5.8607907624
 20
2.4362363129
 30
0.0
  0
SPLINE
  5
393
100
AcDbEntity
  8
ALL_ASSEMBLY_MEMBERS
100
AcDbSpline
 62
7
  6
CONTINUOUS
 70
0
 71
3
 72
17
 73
13
 74
0
 42
0.0000001
 43
0.0000001
 44
0.0000000001
 40
0.0
 40
0.0
 40
0.0
 40
0.0
 40
0.1225619482
 40
0.2557995964
 40
0.3962670854
 40
0.5382888767
 40
0.6746848666
 40
0.7990765146
 40
0.8555200652
 40
0.9078271703
 40
0.9559599248
 40
1.0
 40
1.0
 40
1.0
 40
1.0
 10
5.8720012376
 20
2.384007747
 30
0.0
 10
5.8726011412
 20
2.3859357027
 30
0.0
 10
5.8736924709
 20
2.3900109072
 30
0.0
 10
5.8749158399
 20
2.3964290898
 30
0.0
 10
5.8757053492
 20
2.4032385988
 30
0.0
 10
5.8759860556
 20
2.4101407323
 30
0.0
 10
5.8757269281
 20
2.4167789852
 30
0.0
 10
5.8750663801
 20
2.4219721342
 30
0.0
 10
5.8742854617
 20
2.4257344389
 30
0.0
 10
5.8736212814
 20
2.42823374
 30
0.0
 10
5.8728721051
 20
2.4304945086
 30
0.0
 10
5.8722999772
 20
2.4319026872
 30
0.0
 10
5.8720012376
 20
2.4325638628
 30
0.0
  0
SPLINE
  5
394
100
AcDbEntity
  8
ALL_ASSEMBLY_MEMBERS
100
AcDbSpline
 62
7
  6
CONTINUOUS
 70
0
 71
3
 72
17
 73
13
 74
0
 42
0.0000001
 43
0.0000001
 44
0.0000000001
 40
0.0
 40
0.0
 40
0.0
 40
0.0
 40
0.123058735
 40
0.2559970247
 40
0.3955885526
 40
0.5364970501
 40
0.671979163
 40
0.7961113124
 40
0.8528051614
 40
0.9056675564
 40
0.954696004
 40
1.0
 40
1.0
 40
1.0
 40
1.0
 10
5.8816564135
 20
2.3802044
 30
0.0
 10
5.8823765162
 20
2.3821162221
 30
0.0
 10
5.8836896832
 20
2.3861649954
 30
0.0
 10
5.8851670036
 20
2.3925720664
 30
0.0
 10
5.8861205604
 20
2.3993783313
 30
0.0
 10
5.8864594513
 20
2.4062860247
 30
0.0
 10
5.8861458738
 20
2.412938496
 30
0.0
 10
5.8853475413
 20
2.4181412841
 30
0.0
 10
5.8844073049
 20
2.4219074937
 30
0.0
 10
5.8836057101
 20
2.4244173697
 30
0.0
 10
5.882701457
 20
2.4266896566
 30
0.0
 10
5.8820143918
 20
2.4280990646
 30
0.0
 10
5.8816564135
 20
2.4287605158
 30
0.0
  0
SPLINE
  5
395
100
AcDbEntity
  8
ALL_ASSEMBLY_MEMBERS
100
AcDbSpline
 62
7
  6
CONTINUOUS
 70
0
 71
3
 72
16
 73
12
 74
0
 42
0.0000001
 43
0.0000001
 44
0.0000000001
 40
0.0
 40
0.0
 40
0.0
 40
0.0
 40
0.1236160384
 40
0.2562327757
 40
0.3948613243
 40
0.5345443467
 40
0.6690301619
 40
0.7929028671
 40
0.8498889549
 40
0.9033771612
 40
1.0
 40
1.0
 40
1.0
 40
1.0
 10
5.8897059509
 20
2.3762899859
 30
0.0
 10
5.8905412486
 20
2.3781836441
 30
0.0
 10
5.8920682634
 20
2.3822018233
 30
0.0
 10
5.893793094
 20
2.3885949527
 30
0.0
 10
5.8949066856
 20
2.3953968946
 30
0.0
 10
5.8953022851
 20
2.4023108135
 30
0.0
 10
5.8949351817
 20
2.4089797595
 30
0.0
 10
5.8940023686
 20
2.4141931471
 30
0.0
 10
5.8929080914
 20
2.4179647035
 30
0.0
 10
5.8917019488
 20
2.421217313
 30
0.0
 10
5.890564301
 20
2.4234748376
 30
0.0
 10
5.8897059509
 20
2.4248461017
 30
0.0
  0
SPLINE
  5
396
100
AcDbEntity
  8
ALL_ASSEMBLY_MEMBERS
100
AcDbSpline
 62
7
  6
CONTINUOUS
 70
0
 71
3
 72
19
 73
15
 74
0
 42
0.0000001
 43
0.0000001
 44
0.0000000001
 40
0.0
 40
0.0
 40
0.0
 40
0.0
 40
0.124169343
 40
0.2564030525
 40
0.324769552
 40
0.3940199088
 40
0.4634728772
 40
0.5324203912
 40
0.6001248054
 40
0.6658886877
 40
0.7894726485
 40
0.8467672518
 40
0.900916034
 40
1.0
 40
1.0
 40
1.0
 40
1.0
 10
5.8961078818
 20
2.3722849132
 30
0.0
 10
5.8970528533
 20
2.3741587696
 30
0.0
 10
5.8987845322
 20
2.378142403
 30
0.0
 10
5.9004041251
 20
2.3833998399
 30
0.0
 10
5.9013728837
 20
2.3878588831
 30
0.0
 10
5.9019130052
 20
2.3913188939
 30
0.0
 10
5.9022462721
 20
2.3948148568
 30
0.0
 10
5.9023585134
 20
2.398298785
 30
0.0
 10
5.9022502834
 20
2.401720929
 30
0.0
 10
5.9018200488
 20
2.406046283
 30
0.0
 10
5.9009856595
 20
2.4101484659
 30
0.0
 10
5.8997436996
 20
2.4139257644
 30
0.0
 10
5.8983659598
 20
2.4172088688
 30
0.0
 10
5.897073262
 20
2.41947262
 30
0.0
 10
5.8961078818
 20
2.420841029
 30
0.0
  0
SPLINE
  5
397
100
AcDbEntity
  8
ALL_ASSEMBLY_MEMBERS
100
AcDbSpline
 62
7
  6
CONTINUOUS
 70
0
 71
3
 72
16
 73
12
 74
0
 42
0.0000001
 43
0.0000001
 44
0.0000000001
 40
0.0
 40
0.0
 40
0.0
 40
0.0
 40
0.2460057663
 40
0.3767110082
 40
0.4431359816
 40
0.5097335968
 40
0.6416397537
 40
0.7061073044
 40
0.7690188547
 40
0.8889337275
 40
1.0
 40
1.0
 40
1.0
 40
1.0
 10
5.9008288284
 20
2.3682100632
 30
0.0
 10
5.9026210261
 20
2.3713763983
 30
0.0
 10
5.9048677269
 20
2.3765295742
 30
0.0
 10
5.9065412789
 20
2.3828757815
 30
0.0
 10
5.9072241837
 20
2.3867182745
 30
0.0
 10
5.9076939863
 20
2.3906096992
 30
0.0
 10
5.9078245622
 20
2.3945077732
 30
0.0
 10
5.907601423
 20
2.3983381337
 30
0.0
 10
5.9071569623
 20
2.4019705727
 30
0.0
 10
5.9062193112
 20
2.4062281701
 30
0.0
 10
5.9050281445
 20
2.40944427
 30
0.0
 10
5.9043428775
 20
2.4109371447
 30
0.0
  0
SPLINE
  5
398
100
AcDbEntity
  8
ALL_ASSEMBLY_MEMBERS
100
AcDbSpline
 62
7
  6
CONTINUOUS
 70
0
 71
3
 72
9
 73
5
 74
0
 42
0.0000001
 43
0.0000001
 44
0.0000000001
 40
0.0
 40
0.0
 40
0.0
 40
0.0
 40
0.5162495299
 40
1.0
 40
1.0
 40
1.0
 40
1.0
 10
5.9043428775
 20
2.4109371447
 30
0.0
 10
5.9038534414
 20
2.4120033961
 30
0.0
 10
5.9027919393
 20
2.4140190431
 30
0.0
 10
5.9015045571
 20
2.4158990081
 30
0.0
 10
5.9008288284
 20
2.416766179
 30
0.0
  0
SPLINE
  5
399
100
AcDbEntity
  8
ALL_ASSEMBLY_MEMBERS
100
AcDbSpline
 62
7
  6
CONTINUOUS
 70
0
 71
3
 72
41
 73
37
 74
0
 42
0.0000001
 43
0.0000001
 44
0.0000000001
 40
0.0
 40
0.0
 40
0.0
 40
0.0
 40
0.0877426776
 40
0.1746820939
 40
0.2599533589
 40
0.3427870823
 40
0.4224186173
 40
0.4981359212
 40
0.5343221097
 40
0.569295084
 40
0.6029847203
 40
0.6353317924
 40
0.6662860714
 40
0.6958003133
 40
0.7238465025
 40
0.7504112725
 40
0.7754883575
 40
0.7991104556
 40
0.8213362842
 40
0.8422590359
 40
0.8620549942
 40
0.87159787
 40
0.880954089
 40
0.8901749085
 40
0.8993161666
 40
0.9038760012
 40
0.9084390653
 40
0.9176111502
 40
0.9269207535
 40
0.9364765479
 40
0.9463644186
 40
0.9565376282
 40
0.9669461147
 40
0.977587348
 40
0.9885535696
 40
1.0
 40
1.0
 40
1.0
 40
1.0
 10
5.5736917702
 20
1.9772614048
 30
0.0
 10
5.5831278776
 20
1.9772614048
 30
0.0
 10
5.6019141195
 20
1.977424093
 30
0.0
 10
5.6298621342
 20
1.9781539628
 30
0.0
 10
5.65726525
 20
1.9793632702
 30
0.0
 10
5.6838564675
 20
1.9810399454
 30
0.0
 10
5.7093845212
 20
1.9831688618
 30
0.0
 10
5.7298707011
 20
1.9853348908
 30
0.0
 10
5.7455446928
 20
1.9872937492
 30
0.0
 10
5.7567140473
 20
1.9888417916
 30
0.0
 10
5.7674518342
 20
1.9904882806
 30
0.0
 10
5.7777364318
 20
1.9922307647
 30
0.0
 10
5.7875483194
 20
1.9940668462
 30
0.0
 10
5.7968708601
 20
1.9959945753
 30
0.0
 10
5.8056905305
 20
1.9980136555
 30
0.0
 10
5.8139971749
 20
2.0001251133
 30
0.0
 10
5.8217862059
 20
2.0023305461
 30
0.0
 10
5.8290576974
 20
2.004638376
 30
0.0
 10
5.8358196912
 20
2.0070601292
 30
0.0
 10
5.8420909721
 20
2.0096148476
 30
0.0
 10
5.8469835921
 20
2.0119207554
 30
0.0
 10
5.8506581464
 20
2.0138754132
 30
0.0
 10
5.8532754097
 20
2.0153919241
 30
0.0
 10
5.8557916187
 20
2.0169918986
 30
0.0
 10
5.857810143
 20
2.0184086612
 30
0.0
 10
5.8593753891
 20
2.0195955742
 30
0.0
 10
5.8609119774
 20
2.0208246599
 30
0.0
 10
5.862778621
 20
2.0224576199
 30
0.0
 10
5.8649058381
 20
2.0245985041
 30
0.0
 10
5.8669078626
 20
2.0269596399
 30
0.0
 10
5.868758415
 20
2.0295569666
 30
0.0
 10
5.8704102583
 20
2.0323927941
 30
0.0
 10
5.87180056
 20
2.0354562669
 30
0.0
 10
5.8728639937
 20
2.0387395334
 30
0.0
 10
5.8735400354
 20
2.0422384536
 30
0.0
 10
5.8736917702
 20
2.0446519116
 30
0.0
 10
5.8736917702
 20
2.0458828946
 30
0.0
  0
SPLINE
  5
39A
100
AcDbEntity
  8
ALL_ASSEMBLY_MEMBERS
100
AcDbSpline
 62
7
  6
CONTINUOUS
 70
0
 71
3
 72
40
 73
36
 74
0
 42
0.0000001
 43
0.0000001
 44
0.0000000001
 40
0.0
 40
0.0
 40
0.0
 40
0.0
 40
0.0114538393
 40
0.0224185072
 40
0.0330548102
 40
0.0434594469
 40
0.0536314726
 40
0.0635219047
 40
0.0730812449
 40
0.0823916174
 40
0.0915629376
 40
0.1006842436
 40
0.1098255039
 40
0.1190466414
 40
0.1284030076
 40
0.1379455494
 40
0.1577419929
 40
0.1786652373
 40
0.2008907932
 40
0.2245136896
 40
0.2495906265
 40
0.2761556998
 40
0.3042026003
 40
0.3337167043
 40
0.3646709656
 40
0.3970181645
 40
0.4307075574
 40
0.4656804676
 40
0.5018666731
 40
0.5775836509
 40
0.6572147666
 40
0.7400482084
 40
0.8253190252
 40
0.9122575332
 40
1.0
 40
1.0
 40
1.0
 40
1.0
 10
5.2736917702
 20
2.0458828946
 30
0.0
 10
5.2736917702
 20
2.0446511156
 30
0.0
 10
5.2738433615
 20
2.0422370153
 30
0.0
 10
5.2745195671
 20
2.0387380048
 30
0.0
 10
5.2755831467
 20
2.0354559583
 30
0.0
 10
5.2769732604
 20
2.0323935923
 30
0.0
 10
5.2786250719
 20
2.0295580619
 30
0.0
 10
5.2804758827
 20
2.0269602797
 30
0.0
 10
5.2824779542
 20
2.0245982478
 30
0.0
 10
5.2846049416
 20
2.0224565347
 30
0.0
 10
5.2868408188
 20
2.0205007624
 30
0.0
 10
5.2891722265
 20
2.018690567
 30
0.0
 10
5.2915923287
 20
2.0169919288
 30
0.0
 10
5.2941086134
 20
2.0153919099
 30
0.0
 10
5.2967257416
 20
2.0138751625
 30
0.0
 10
5.3004004203
 20
2.0119206606
 30
0.0
 10
5.3052930397
 20
2.0096146272
 30
0.0
 10
5.3115643185
 20
2.007059689
 30
0.0
 10
5.3183265543
 20
2.0046383023
 30
0.0
 10
5.3255980231
 20
2.0023302985
 30
0.0
 10
5.33338717
 20
2.0001249074
 30
0.0
 10
5.3416939085
 20
1.9980134721
 30
0.0
 10
5.3505136573
 20
1.995994339
 30
0.0
 10
5.3598362569
 20
1.9940666302
 30
0.0
 10
5.3696481415
 20
1.9922305881
 30
0.0
 10
5.3799327202
 20
1.9904881234
 30
0.0
 10
5.3906704808
 20
1.9888416407
 30
0.0
 10
5.4018397996
 20
1.9872936249
 30
0.0
 10
5.417513743
 20
1.9853347924
 30
0.0
 10
5.437999832
 20
1.9831687864
 30
0.0
 10
5.4635277586
 20
1.9810398891
 30
0.0
 10
5.4901188358
 20
1.9793632467
 30
0.0
 10
5.5175217567
 20
1.978153953
 30
0.0
 10
5.5454695835
 20
1.9774240857
 30
0.0
 10
5.5642556919
 20
1.9772614048
 30
0.0
 10
5.5736917702
 20
1.9772614048
 30
0.0
  0
SPLINE
  5
39B
100
AcDbEntity
  8
ALL_ASSEMBLY_MEMBERS
100
AcDbSpline
 62
7
  6
CONTINUOUS
 70
0
 71
3
 72
40
 73
36
 74
0
 42
0.0000001
 43
0.0000001
 44
0.0000000001
 40
0.0
 40
0.0
 40
0.0
 40
0.0
 40
0.0117688226
 40
0.0230213541
 40
0.0339187946
 40
0.044556815
 40
0.0549372237
 40
0.0650160099
 40
0.0747513113
 40
0.08422858
 40
0.0935562079
 40
0.1028226431
 40
0.112097898
 40
0.1214421853
 40
0.1309111999
 40
0.1405562382
 40
0.1605258029
 40
0.1815835281
 40
0.2039087923
 40
0.22759731
 40
0.2527106191
 40
0.2792831573
 40
0.3073108051
 40
0.3367826459
 40
0.3676718747
 40
0.3999326776
 40
0.4335164475
 40
0.4683651298
 40
0.5044099864
 40
0.5797990844
 40
0.6590501445
 40
0.7414613993
 40
0.8262787338
 40
0.9127429569
 40
1.0
 40
1.0
 40
1.0
 40
1.0
 10
5.8546930119
 20
2.4999028485
 30
0.0
 10
5.8546501721
 20
2.5010863307
 30
0.0
 10
5.8544234795
 20
2.5033991009
 30
0.0
 10
5.8536668524
 20
2.5067356776
 30
0.0
 10
5.8525577295
 20
2.5098507524
 30
0.0
 10
5.8511551443
 20
2.5127462306
 30
0.0
 10
5.8495186545
 20
2.5154187478
 30
0.0
 10
5.8477062644
 20
2.5178618956
 30
0.0
 10
5.8457617805
 20
2.5200810418
 30
0.0
 10
5.8437084177
 20
2.5220925141
 30
0.0
 10
5.8415598304
 20
2.5239290597
 30
0.0
 10
5.8393277395
 20
2.5256288001
 30
0.0
 10
5.8370168959
 20
2.5272223625
 30
0.0
 10
5.8346201336
 20
2.5287221095
 30
0.0
 10
5.8321329017
 20
2.5301427511
 30
0.0
 10
5.8286502603
 20
2.5319713172
 30
0.0
 10
5.8240256444
 20
2.5341265304
 30
0.0
 10
5.8181116998
 20
2.536512647
 30
0.0
 10
5.8117501418
 20
2.5387720608
 30
0.0
 10
5.8049223409
 20
2.5409230591
 30
0.0
 10
5.7976200124
 20
2.5429770649
 30
0.0
 10
5.7898423187
 20
2.5449423058
 30
0.0
 10
5.7815928515
 20
2.5468205409
 30
0.0
 10
5.772880504
 20
2.5486130725
 30
0.0
 10
5.7637173752
 20
2.5503198111
 30
0.0
 10
5.7541185657
 20
2.551939058
 30
0.0
 10
5.7441018919
 20
2.5534687234
 30
0.0
 10
5.7336871427
 20
2.5549066446
 30
0.0
 10
5.7190796587
 20
2.5567255624
 30
0.0
 10
5.6999953663
 20
2.5587365978
 30
0.0
 10
5.6762220122
 20
2.5607129972
 30
0.0
 10
5.6514668849
 20
2.5622693144
 30
0.0
 10
5.6259618691
 20
2.5633916857
 30
0.0
 10
5.5999535269
 20
2.5640690402
 30
0.0
 10
5.582472155
 20
2.5642200195
 30
0.0
 10
5.5736917702
 20
2.5642200195
 30
0.0
  0
SPLINE
  5
39C
100
AcDbEntity
  8
ALL_ASSEMBLY_MEMBERS
100
AcDbSpline
 62
7
  6
CONTINUOUS
 70
0
 71
3
 72
40
 73
36
 74
0
 42
0.0000001
 43
0.0000001
 44
0.0000000001
 40
0.0
 40
0.0
 40
0.0
 40
0.0
 40
0.0872573567
 40
0.1737224912
 40
0.2585403454
 40
0.34095196
 40
0.4202035018
 40
0.4955929934
 40
0.566485075
 40
0.6000691197
 40
0.6323298751
 40
0.6632191342
 40
0.6926912456
 40
0.72071836
 40
0.7472905414
 40
0.7724040614
 40
0.796091967
 40
0.8184174481
 40
0.8394748867
 40
0.8594439868
 40
0.8690893338
 40
0.8785582643
 40
0.8879023067
 40
0.8971775721
 40
0.9018085112
 40
0.9064454541
 40
0.9157737495
 40
0.9252503715
 40
0.93498266
 40
0.9450594487
 40
0.9554413642
 40
0.9660828309
 40
0.9769837382
 40
0.9882367525
 40
1.0
 40
1.0
 40
1.0
 40
1.0
 10
5.5736917702
 20
2.5642200195
 30
0.0
 10
5.5649113619
 20
2.5642200195
 30
0.0
 10
5.5474298819
 20
2.5640690348
 30
0.0
 10
5.5214213905
 20
2.5633916761
 30
0.0
 10
5.4959162082
 20
2.5622693018
 30
0.0
 10
5.4711610024
 20
2.5607129294
 30
0.0
 10
5.4473874248
 20
2.5587366163
 30
0.0
 10
5.4248158795
 20
2.5563577001
 30
0.0
 10
5.406866321
 20
2.5540159981
 30
0.0
 10
5.3932641649
 20
2.5519389577
 30
0.0
 10
5.3836653363
 20
2.550319665
 30
0.0
 10
5.3745021965
 20
2.548612905
 30
0.0
 10
5.3657898874
 20
2.5468203409
 30
0.0
 10
5.3575404825
 20
2.5449421503
 30
0.0
 10
5.349762865
 20
2.54297691
 30
0.0
 10
5.342460642
 20
2.5409228456
 30
0.0
 10
5.3356328185
 20
2.5387719937
 30
0.0
 10
5.3292714321
 20
2.5365123155
 30
0.0
 10
5.3233575094
 20
2.5341263279
 30
0.0
 10
5.3187328691
 20
2.5319712581
 30
0.0
 10
5.3152503548
 20
2.5301425225
 30
0.0
 10
5.3127630127
 20
2.5287220642
 30
0.0
 10
5.3103663177
 20
2.5272223442
 30
0.0
 10
5.3084394631
 20
2.5258937298
 30
0.0
 10
5.3069422671
 20
2.5247798399
 30
0.0
 10
5.3054692658
 20
2.5236254919
 30
0.0
 10
5.3036750496
 20
2.5220916575
 30
0.0
 10
5.301621487
 20
2.5200808835
 30
0.0
 10
5.2996770802
 20
2.5178623994
 30
0.0
 10
5.2978649639
 20
2.5154194857
 30
0.0
 10
5.2962284491
 20
2.5127466372
 30
0.0
 10
5.2948256636
 20
2.509850312
 30
0.0
 10
5.293716567
 20
2.5067344398
 30
0.0
 10
5.2929600786
 20
2.5033980148
 30
0.0
 10
5.292733348
 20
2.501085769
 30
0.0
 10
5.2926905285
 20
2.4999028485
 30
0.0
  0
SPLINE
  5
39D
100
AcDbEntity
  8
ALL_ASSEMBLY_MEMBERS
100
AcDbSpline
 62
7
  6
CONTINUOUS
 70
0
 71
3
 72
14
 73
10
 74
0
 42
0.0000001
 43
0.0000001
 44
0.0000000001
 40
0.0
 40
0.0
 40
0.0
 40
0.0
 40
0.1230862726
 40
0.2469593752
 40
0.3715026691
 40
0.496577345
 40
0.6220482412
 40
0.7478163968
 40
1.0
 40
1.0
 40
1.0
 40
1.0
 10
5.2802481416
 20
2.4396027021
 30
0.0
 10
5.2811700296
 20
2.4419670383
 30
0.0
 10
5.2829210043
 20
2.4467499968
 30
0.0
 10
5.2852512202
 20
2.4540485571
 30
0.0
 10
5.2872848568
 20
2.4614779167
 30
0.0
 10
5.2890140173
 20
2.4690176932
 30
0.0
 10
5.2904299683
 20
2.4766485142
 30
0.0
 10
5.291892178
 20
2.4869262857
 30
0.0
 10
5.292502445
 20
2.4947069031
 30
0.0
 10
5.2926905285
 20
2.4999028486
 30
0.0
  0
SPLINE
  5
39E
100
AcDbEntity
  8
ALL_ASSEMBLY_MEMBERS
100
AcDbSpline
 62
7
  6
CONTINUOUS
 70
0
 71
3
 72
9
 73
5
 74
0
 42
0.0000001
 43
0.0000001
 44
0.0000000001
 40
0.0
 40
0.0
 40
0.0
 40
0.0
 40
0.5055414711
 40
1.0
 40
1.0
 40
1.0
 40
1.0
 10
5.2534938767
 20
2.3425786025
 30
0.0
 10
5.254560861
 20
2.3416601975
 30
0.0
 10
5.256727804
 20
2.3399082737
 30
0.0
 10
5.2589841152
 20
2.3382740845
 30
0.0
 10
5.2601178251
 20
2.3374926252
 30
0.0
  0
SPLINE
  5
39F
100
AcDbEntity
  8
ALL_ASSEMBLY_MEMBERS
100
AcDbSpline
 62
7
  6
CONTINUOUS
 70
0
 71
3
 72
11
 73
7
 74
0
 42
0.0000001
 43
0.0000001
 44
0.0000000001
 40
0.0
 40
0.0
 40
0.0
 40
0.0
 40
0.2512721557
 40
0.5005894181
 40
0.7496516956
 40
1.0
 40
1.0
 40
1.0
 40
1.0
 10
5.2601178251
 20
2.3374926252
 30
0.0
 10
5.2611970811
 20
2.3367487007
 30
0.0
 10
5.2633812079
 20
2.3353153903
 30
0.0
 10
5.2667396038
 20
2.3333097488
 30
0.0
 10
5.2701675566
 20
2.3314359124
 30
0.0
 10
5.272493662
 20
2.3302615496
 30
0.0
 10
5.2736680036
 20
2.3296901234
 30
0.0
  0
SPLINE
  5
3A0
100
AcDbEntity
  8
ALL_ASSEMBLY_MEMBERS
100
AcDbSpline
 62
7
  6
CONTINUOUS
 70
0
 71
3
 72
11
 73
7
 74
0
 42
0.0000001
 43
0.0000001
 44
0.0000000001
 40
0.0
 40
0.0
 40
0.0
 40
0.0
 40
0.2543680142
 40
0.5067745918
 40
0.7557518307
 40
1.0
 40
1.0
 40
1.0
 40
1.0
 10
5.2344722135
 20
2.3744615802
 30
0.0
 10
5.2347249541
 20
2.3730597841
 30
0.0
 10
5.2353733438
 20
2.3702910206
 30
0.0
 10
5.2367471603
 20
2.3662814536
 30
0.0
 10
5.2384687326
 20
2.3624711944
 30
0.0
 10
5.2398309419
 20
2.3600637402
 30
0.0
 10
5.240555319
 20
2.3589035843
 30
0.0
  0
SPLINE
  5
3A1
100
AcDbEntity
  8
ALL_ASSEMBLY_MEMBERS
100
AcDbSpline
 62
7
  6
CONTINUOUS
 70
0
 71
3
 72
17
 73
13
 74
0
 42
0.0000001
 43
0.0000001
 44
0.0000000001
 40
0.0
 40
0.0
 40
0.0
 40
0.0
 40
0.1216380876
 40
0.2472180695
 40
0.3110615731
 40
0.3753048969
 40
0.4397432844
 40
0.5041692702
 40
0.5683635829
 40
0.6321534506
 40
0.7580318277
 40
1.0
 40
1.0
 40
1.0
 40
1.0
 10
5.2349566085
 20
2.3942575446
 30
0.0
 10
5.2346280624
 20
2.3928329216
 30
0.0
 10
5.234136417
 20
2.389894169
 30
0.0
 10
5.2339566128
 20
2.3861512352
 30
0.0
 10
5.2340642772
 20
2.383102931
 30
0.0
 10
5.2342742286
 20
2.3807972018
 30
0.0
 10
5.2346097638
 20
2.3784994546
 30
0.0
 10
5.2350648303
 20
2.3762230012
 30
0.0
 10
5.2356345443
 20
2.3739805802
 30
0.0
 10
5.2365351086
 20
2.3710638784
 30
0.0
 10
5.2384251412
 20
2.3662257299
 30
0.0
 10
5.2406038618
 20
2.3623426658
 30
0.0
 10
5.2422459598
 20
2.359942292
 30
0.0
  0
SPLINE
  5
3A2
100
AcDbEntity
  8
ALL_ASSEMBLY_MEMBERS
100
AcDbSpline
 62
7
  6
CONTINUOUS
 70
0
 71
3
 72
9
 73
5
 74
0
 42
0.0000001
 43
0.0000001
 44
0.0000000001
 40
0.0
 40
0.0
 40
0.0
 40
0.0
 40
0.4837464825
 40
1.0
 40
1.0
 40
1.0
 40
1.0
 10
5.2465603274
 20
2.4167721278
 30
0.0
 10
5.2458846905
 20
2.4159049606
 30
0.0
 10
5.2445974862
 20
2.4140250005
 30
0.0
 10
5.2435361483
 20
2.4120093856
 30
0.0
 10
5.2430467867
 20
2.4109431491
 30
0.0
  0
SPLINE
  5
3A3
100
AcDbEntity
  8
ALL_ASSEMBLY_MEMBERS
100
AcDbSpline
 62
7
  6
CONTINUOUS
 70
0
 71
3
 72
16
 73
12
 74
0
 42
0.0000001
 43
0.0000001
 44
0.0000000001
 40
0.0
 40
0.0
 40
0.0
 40
0.0
 40
0.1110646478
 40
0.2309793265
 40
0.2938911785
 40
0.3583592175
 40
0.4902666342
 40
0.5568648594
 40
0.6232903469
 40
0.7539961214
 40
1.0
 40
1.0
 40
1.0
 40
1.0
 10
5.2430467867
 20
2.4109431491
 30
0.0
 10
5.2423616144
 20
2.4094502742
 30
0.0
 10
5.241170619
 20
2.4062341765
 30
0.0
 10
5.2402331128
 20
2.4019766153
 30
0.0
 10
5.239788719
 20
2.3983441943
 30
0.0
 10
5.2395656133
 20
2.3945138379
 30
0.0
 10
5.2396961707
 20
2.3906157678
 30
0.0
 10
5.2401659047
 20
2.3867243366
 30
0.0
 10
5.2408487089
 20
2.3828818383
 30
0.0
 10
5.2425220045
 20
2.3765356428
 30
0.0
 10
5.2447683719
 20
2.3713824131
 30
0.0
 10
5.2465603274
 20
2.368216012
 30
0.0
  0
SPLINE
  5
3A4
100
AcDbEntity
  8
ALL_ASSEMBLY_MEMBERS
100
AcDbSpline
 62
7
  6
CONTINUOUS
 70
0
 71
3
 72
19
 73
15
 74
0
 42
0.0000001
 43
0.0000001
 44
0.0000000001
 40
0.0
 40
0.0
 40
0.0
 40
0.0
 40
0.0990803152
 40
0.1532280992
 40
0.2105222212
 40
0.3341065625
 40
0.3998711221
 40
0.4675764189
 40
0.5365249127
 40
0.6059788522
 40
0.6752300748
 40
0.7435972494
 40
0.875831498
 40
1.0
 40
1.0
 40
1.0
 40
1.0
 10
5.2512837313
 20
2.4208468919
 30
0.0
 10
5.2503185017
 20
2.4194784805
 30
0.0
 10
5.2490260234
 20
2.417214739
 30
0.0
 10
5.2476485285
 20
2.4139316801
 30
0.0
 10
5.2464067777
 20
2.410154391
 30
0.0
 10
5.2455725365
 20
2.4060522323
 30
0.0
 10
5.2451423768
 20
2.4017268989
 30
0.0
 10
5.2450341656
 20
2.3983047595
 30
0.0
 10
5.2451463877
 20
2.3948208316
 30
0.0
 10
5.2454795975
 20
2.3913248648
 30
0.0
 10
5.2460196264
 20
2.3878648462
 30
0.0
 10
5.2469882171
 20
2.3834057957
 30
0.0
 10
5.2486075254
 20
2.3781483477
 30
0.0
 10
5.2503389147
 20
2.3741646622
 30
0.0
 10
5.2512837313
 20
2.3722907761
 30
0.0
  0
SPLINE
  5
3A5
100
AcDbEntity
  8
ALL_ASSEMBLY_MEMBERS
100
AcDbSpline
 62
7
  6
CONTINUOUS
 70
0
 71
3
 72
16
 73
12
 74
0
 42
0.0000001
 43
0.0000001
 44
0.0000000001
 40
0.0
 40
0.0
 40
0.0
 40
0.0
 40
0.0966193193
 40
0.1501065833
 40
0.2070922276
 40
0.330965321
 40
0.4654526471
 40
0.6051375331
 40
0.7437675486
 40
0.8763847837
 40
1.0
 40
1.0
 40
1.0
 40
1.0
 10
5.2576880774
 20
2.4248518481
 30
0.0
 10
5.2568298873
 20
2.4234805782
 30
0.0
 10
5.2556924693
 20
2.421223062
 30
0.0
 10
5.2544865791
 20
2.4179704952
 30
0.0
 10
5.2533925208
 20
2.4141989467
 30
0.0
 10
5.2524599
 20
2.4089855756
 30
0.0
 10
5.2520928735
 20
2.4023166547
 30
0.0
 10
5.252488392
 20
2.3954027453
 30
0.0
 10
5.2536017548
 20
2.3886007962
 30
0.0
 10
5.2553262318
 20
2.3822076445
 30
0.0
 10
5.2568529429
 20
2.3781894182
 30
0.0
 10
5.2576880774
 20
2.3762957324
 30
0.0
  0
SPLINE
  5
3A6
100
AcDbEntity
  8
ALL_ASSEMBLY_MEMBERS
100
AcDbSpline
 62
7
  6
CONTINUOUS
 70
0
 71
3
 72
17
 73
13
 74
0
 42
0.0000001
 43
0.0000001
 44
0.0000000001
 40
0.0
 40
0.0
 40
0.0
 40
0.0
 40
0.0453020712
 40
0.0943291462
 40
0.1471906838
 40
0.2038841407
 40
0.3280166768
 40
0.463500192
 40
0.6044104032
 40
0.7440032782
 40
0.8769420263
 40
1.0
 40
1.0
 40
1.0
 40
1.0
 10
5.2657399754
 20
2.4287661159
 30
0.0
 10
5.2653820813
 20
2.4281046656
 30
0.0
 10
5.2646951795
 20
2.42669526
 30
0.0
 10
5.2637911483
 20
2.4244229911
 30
0.0
 10
5.2629897502
 20
2.4219131316
 30
0.0
 10
5.2620497411
 20
2.4181469283
 30
0.0
 10
5.2612516062
 20
2.4129441551
 30
0.0
 10
5.260938107
 20
2.4062917061
 30
0.0
 10
5.2612769145
 20
2.3993840213
 30
0.0
 10
5.2622302362
 20
2.3925777509
 30
0.0
 10
5.2637071927
 20
2.3861706618
 30
0.0
 10
5.2650200436
 20
2.3821218471
 30
0.0
 10
5.2657399754
 20
2.3802100001
 30
0.0
  0
SPLINE
  5
3A7
100
AcDbEntity
  8
ALL_ASSEMBLY_MEMBERS
100
AcDbSpline
 62
7
  6
CONTINUOUS
 70
0
 71
3
 72
17
 73
13
 74
0
 42
0.0000001
 43
0.0000001
 44
0.0000000001
 40
0.0
 40
0.0
 40
0.0
 40
0.0
 40
0.0440383476
 40
0.0921698859
 40
0.1444762416
 40
0.2009194581
 40
0.3253114674
 40
0.4617087001
 40
0.6037319993
 40
0.7442006727
 40
0.8774387253
 40
1.0
 40
1.0
 40
1.0
 40
1.0
 10
5.2753974449
 20
2.4325692872
 30
0.0
 10
5.2750987929
 20
2.4319081116
 30
0.0
 10
5.2745268348
 20
2.430499934
 30
0.0
 10
5.273777886
 20
2.4282391809
 30
0.0
 10
5.2731139074
 20
2.4257398939
 30
0.0
 10
5.2723332235
 20
2.4219775943
 30
0.0
 10
5.2716728773
 20
2.4167844583
 30
0.0
 10
5.2714138294
 20
2.4101462242
 30
0.0
 10
5.2716944505
 20
2.4032440981
 30
0.0
 10
5.2724837194
 20
2.3964345852
 30
0.0
 10
5.2737067161
 20
2.3900163885
 30
0.0
 10
5.2747977189
 20
2.3859411489
 30
0.0
 10
5.2753974449
 20
2.3840131714
 30
0.0
  0
SPLINE
  5
3A8
100
AcDbEntity
  8
ALL_ASSEMBLY_MEMBERS
100
AcDbSpline
 62
7
  6
CONTINUOUS
 70
0
 71
3
 72
18
 73
14
 74
0
 42
0.0000001
 43
0.0000001
 44
0.0000000001
 40
0.0
 40
0.0
 40
0.0
 40
0.0
 40
0.0429348378
 40
0.0902939703
 40
0.1421270254
 40
0.1983612198
 40
0.2587710657
 40
0.3230065817
 40
0.4601872102
 40
0.603159472
 40
0.7443738974
 40
0.8778669033
 40
1.0
 40
1.0
 40
1.0
 40
1.0
 10
5.2866101348
 20
2.4362415335
 30
0.0
 10
5.2863730443
 20
2.4355800144
 30
0.0
 10
5.2859200554
 20
2.4341722232
 30
0.0
 10
5.2853296409
 20
2.4319211839
 30
0.0
 10
5.2848061616
 20
2.4294307563
 30
0.0
 10
5.2843594321
 20
2.4267088614
 30
0.0
 10
5.2839989865
 20
2.4237696091
 30
0.0
 10
5.2836386582
 20
2.4194985834
 30
0.0
 10
5.2834655188
 20
2.4138599108
 30
0.0
 10
5.2836866507
 20
2.4069628108
 30
0.0
 10
5.2843086528
 20
2.400150909
 30
0.0
 10
5.2852725302
 20
2.3937242013
 30
0.0
 10
5.2861349844
 20
2.3896271021
 30
0.0
 10
5.2866101348
 20
2.3876854177
 30
0.0
  0
SPLINE
  5
3A9
100
AcDbEntity
  8
ALL_ASSEMBLY_MEMBERS
100
AcDbSpline
 62
7
  6
CONTINUOUS
 70
0
 71
3
 72
17
 73
13
 74
0
 42
0.0000001
 43
0.0000001
 44
0.0000000001
 40
0.0
 40
0.0
 40
0.0
 40
0.0
 40
0.042042279
 40
0.0887833771
 40
0.1402432276
 40
0.19631705
 40
0.3211377878
 40
0.4589525497
 40
0.6026880057
 40
0.744503562
 40
0.8782056235
 40
1.0
 40
1.0
 40
1.0
 40
1.0
 10
5.2993195852
 20
2.4397637087
 30
0.0
 10
5.2991461196
 20
2.4391015121
 30
0.0
 10
5.2988154461
 20
2.4376936509
 30
0.0
 10
5.2983861531
 20
2.4354503636
 30
0.0
 10
5.2980054315
 20
2.4329669143
 30
0.0
 10
5.2975560614
 20
2.42920989
 30
0.0
 10
5.2971781701
 20
2.4240313868
 30
0.0
 10
5.2970301397
 20
2.4174140666
 30
0.0
 10
5.2971910325
 20
2.4105203356
 30
0.0
 10
5.2976432478
 20
2.4037068931
 30
0.0
 10
5.2983440767
 20
2.3972740176
 30
0.0
 10
5.2989726445
 20
2.3931600859
 30
0.0
 10
5.2993195852
 20
2.3912075929
 30
0.0
  0
SPLINE
  5
3AA
100
AcDbEntity
  8
ALL_ASSEMBLY_MEMBERS
100
AcDbSpline
 62
7
  6
CONTINUOUS
 70
0
 71
3
 72
18
 73
14
 74
0
 42
0.0000001
 43
0.0000001
 44
0.0000000001
 40
0.0
 40
0.0
 40
0.0
 40
0.0
 40
0.041403644
 40
0.0877062627
 40
0.1389030264
 40
0.194864938
 40
0.319826445
 40
0.4580868982
 40
0.5299905362
 40
0.6023609472
 40
0.7445975206
 40
0.8784457396
 40
1.0
 40
1.0
 40
1.0
 40
1.0
 10
5.3134595328
 20
2.4431174493
 30
0.0
 10
5.3133513588
 20
2.4424545273
 30
0.0
 10
5.3131455344
 20
2.4410463939
 30
0.0
 10
5.3128790967
 20
2.4388085699
 30
0.0
 10
5.3126427628
 20
2.4363300035
 30
0.0
 10
5.3123634649
 20
2.4325744731
 30
0.0
 10
5.3121290106
 20
2.427400523
 30
0.0
 10
5.3120535424
 20
2.4219635117
 30
0.0
 10
5.3120865805
 20
2.4173799547
 30
0.0
 10
5.3121851284
 20
2.4127328229
 30
0.0
 10
5.3124177586
 20
2.4070838981
 30
0.0
 10
5.3128527595
 20
2.4006470058
 30
0.0
 10
5.3132435413
 20
2.3965214393
 30
0.0
 10
5.3134595328
 20
2.3945613335
 30
0.0
  0
SPLINE
  5
3AB
100
AcDbEntity
  8
ALL_ASSEMBLY_MEMBERS
100
AcDbSpline
 62
7
  6
CONTINUOUS
 70
0
 71
3
 72
15
 73
11
 74
0
 42
0.0000001
 43
0.0000001
 44
0.0000000001
 40
0.0
 40
0.0
 40
0.0
 40
0.0
 40
0.121425257
 40
0.2553540471
 40
0.3978198713
 40
0.5423813786
 40
0.6808848638
 40
0.80592496
 40
0.9128815388
 40
1.0
 40
1.0
 40
1.0
 40
1.0
 10
5.328956256
 20
2.397729154
 30
0.0
 10
5.3288729693
 20
2.3996933757
 30
0.0
 10
5.3287223973
 20
2.4038251465
 30
0.0
 10
5.3285549419
 20
2.4102641447
 30
0.0
 10
5.3284468901
 20
2.4170790749
 30
0.0
 10
5.3284084455
 20
2.4239688323
 30
0.0
 10
5.3284437353
 20
2.4305764761
 30
0.0
 10
5.3285485129
 20
2.4365744829
 30
0.0
 10
5.3287124738
 20
2.4417388235
 30
0.0
 10
5.328867654
 20
2.4448775273
 30
0.0
 10
5.328956256
 20
2.4462852698
 30
0.0
  0
SPLINE
  5
3AC
100
AcDbEntity
  8
ALL_ASSEMBLY_MEMBERS
100
AcDbSpline
 62
7
  6
CONTINUOUS
 70
0
 71
3
 72
17
 73
13
 74
0
 42
0.0000001
 43
0.0000001
 44
0.0000000001
 40
0.0
 40
0.0
 40
0.0
 40
0.0
 40
0.1127602971
 40
0.2332220818
 40
0.2960307481
 40
0.3602003636
 40
0.4911147557
 40
0.557152707
 40
0.6230483195
 40
0.7529980248
 40
0.8790821849
 40
1.0
 40
1.0
 40
1.0
 40
1.0
 10
5.2394593045
 20
2.4063134248
 30
0.0
 10
5.2387401738
 20
2.4048176384
 30
0.0
 10
5.237491772
 20
2.4016042098
 30
0.0
 10
5.2365174716
 20
2.3973420737
 30
0.0
 10
5.2360709215
 20
2.3937251079
 30
0.0
 10
5.2358642819
 20
2.3899325027
 30
0.0
 10
5.2360352511
 20
2.3860803336
 30
0.0
 10
5.2365683223
 20
2.3822466437
 30
0.0
 10
5.2373280977
 20
2.3784655848
 30
0.0
 10
5.2386722701
 20
2.3739097552
 30
0.0
 10
5.2408312159
 20
2.368787638
 30
0.0
 10
5.2425981772
 20
2.365601246
 30
0.0
 10
5.2435424922
 20
2.3640926847
 30
0.0
  0
SPLINE
  5
3AD
100
AcDbEntity
  8
ALL_ASSEMBLY_MEMBERS
100
AcDbSpline
 62
7
  6
CONTINUOUS
 70
0
 71
3
 72
29
 73
25
 74
0
 42
0.0000001
 43
0.0000001
 44
0.0000000001
 40
0.0
 40
0.0
 40
0.0
 40
0.0
 40
0.079746084
 40
0.1590328881
 40
0.2373129173
 40
0.314121919
 40
0.3890068892
 40
0.4615202588
 40
0.5312526326
 40
0.5978287581
 40
0.6609298501
 40
0.720288279
 40
0.7485088616
 40
0.7757320515
 40
0.8271879568
 40
0.8514492008
 40
0.874766675
 40
0.897202945
 40
0.9188288239
 40
0.9397472833
 40
0.9601159404
 40
0.9701487541
 40
0.9801159419
 40
1.0
 40
1.0
 40
1.0
 40
1.0
 10
5.5736917702
 20
2.4752740033
 30
0.0
 10
5.5653136735
 20
2.4752740033
 30
0.0
 10
5.5486054878
 20
2.4751551568
 30
0.0
 10
5.5236783486
 20
2.4746222254
 30
0.0
 10
5.4990699152
 20
2.4737368309
 30
0.0
 10
5.4749394078
 20
2.4725048069
 30
0.0
 10
5.4514357045
 20
2.470933352
 30
0.0
 10
5.428702349
 20
2.4690308813
 30
0.0
 10
5.4068752531
 20
2.4668075332
 30
0.0
 10
5.3860776329
 20
2.4642734682
 30
0.0
 10
5.3664192296
 20
2.4614387595
 30
0.0
 10
5.3508099113
 20
2.4587896675
 30
0.0
 10
5.3389658557
 20
2.4565093917
 30
0.0
 10
5.3279721062
 20
2.4542126143
 30
0.0
 10
5.317441901
 20
2.4517337519
 30
0.0
 10
5.3073948113
 20
2.4490271093
 30
0.0
 10
5.3003380731
 20
2.4469484164
 30
0.0
 10
5.2936024728
 20
2.444767727
 30
0.0
 10
5.2871721129
 20
2.4424716738
 30
0.0
 10
5.2810253541
 20
2.4400378035
 30
0.0
 10
5.2760951265
 20
2.4378508717
 30
0.0
 10
5.2722795249
 20
2.435998385
 30
0.0
 10
5.2685563666
 20
2.4340753669
 30
0.0
 10
5.2658305772
 20
2.4325192364
 30
0.0
 10
5.2640513406
 20
2.4314245721
 30
0.0
  0
SPLINE
  5
3AE
100
AcDbEntity
  8
ALL_ASSEMBLY_MEMBERS
100
AcDbSpline
 62
7
  6
CONTINUOUS
 70
0
 71
3
 72
9
 73
5
 74
0
 42
0.0000001
 43
0.0000001
 44
0.0000000001
 40
0.0
 40
0.0
 40
0.0
 40
0.0
 40
0.4960046185
 40
1.0
 40
1.0
 40
1.0
 40
1.0
 10
5.2640513406
 20
2.4314245721
 30
0.0
 10
5.262771367
 20
2.4306370762
 30
0.0
 10
5.2602275267
 20
2.4289888941
 30
0.0
 10
5.2577711541
 20
2.427211925
 30
0.0
 10
5.2565619315
 20
2.4262793916
 30
0.0
  0
SPLINE
  5
3AF
100
AcDbEntity
  8
ALL_ASSEMBLY_MEMBERS
100
AcDbSpline
 62
7
  6
CONTINUOUS
 70
0
 71
3
 72
14
 73
10
 74
0
 42
0.0000001
 43
0.0000001
 44
0.0000000001
 40
0.0
 40
0.0
 40
0.0
 40
0.0
 40
0.2521833141
 40
0.3779508818
 40
0.5034217886
 40
0.6284968161
 40
0.7530404581
 40
0.8769136263
 40
1.0
 40
1.0
 40
1.0
 40
1.0
 10
5.8546930119
 20
2.4999028486
 30
0.0
 10
5.8548810793
 20
2.494707346
 30
0.0
 10
5.8554912535
 20
2.4869273997
 30
0.0
 10
5.8569532534
 20
2.4766504982
 30
0.0
 10
5.8583690019
 20
2.4690203087
 30
0.0
 10
5.8600978945
 20
2.4614811236
 30
0.0
 10
5.8621312096
 20
2.4540523315
 30
0.0
 10
5.8644610633
 20
2.446754321
 30
0.0
 10
5.8662117628
 20
2.4419717145
 30
0.0
 10
5.8671335065
 20
2.4396075488
 30
0.0
  0
SPLINE
  5
3B0
100
AcDbEntity
  8
ALL_ASSEMBLY_MEMBERS
100
AcDbSpline
 62
7
  6
CONTINUOUS
 70
0
 71
3
 72
17
 73
13
 74
0
 42
0.0000001
 43
0.0000001
 44
0.0000000001
 40
0.0
 40
0.0
 40
0.0
 40
0.0
 40
0.11277369
 40
0.2332443514
 40
0.2960551428
 40
0.3602254338
 40
0.4911371146
 40
0.5571722716
 40
0.6230644975
 40
0.7530071936
 40
0.8790855701
 40
1.0
 40
1.0
 40
1.0
 40
1.0
 10
5.9079323575
 20
2.4062980254
 30
0.0
 10
5.9086509952
 20
2.4048021972
 30
0.0
 10
5.909898415
 20
2.4015888737
 30
0.0
 10
5.9108716399
 20
2.397327137
 30
0.0
 10
5.9113173996
 20
2.3937107266
 30
0.0
 10
5.9115233016
 20
2.3899189359
 30
0.0
 10
5.9113517614
 20
2.3860677364
 30
0.0
 10
5.9108182877
 20
2.3822351134
 30
0.0
 10
5.9100582325
 20
2.3784551936
 30
0.0
 10
5.9087139151
 20
2.373900773
 30
0.0
 10
5.9065550744
 20
2.36878023
 30
0.0
 10
5.9047883462
 20
2.3655948031
 30
0.0
 10
5.903844177
 20
2.3640866811
 30
0.0
  0
SPLINE
  5
3B1
100
AcDbEntity
  8
ALL_ASSEMBLY_MEMBERS
100
AcDbSpline
 62
7
  6
CONTINUOUS
 70
0
 71
3
 72
9
 73
5
 74
0
 42
0.0000001
 43
0.0000001
 44
0.0000000001
 40
0.0
 40
0.0
 40
0.0
 40
0.0
 40
0.2554274483
 40
1.0
 40
1.0
 40
1.0
 40
1.0
 10
5.9068263757
 20
2.4083958634
 30
0.0
 10
5.9065157733
 20
2.4089336873
 30
0.0
 10
5.9052629054
 20
2.4110178511
 30
0.0
 10
5.9038693095
 20
2.413016774
 30
0.0
 10
5.9027654068
 20
2.4144517074
 30
0.0
  0
SPLINE
  5
3B2
100
AcDbEntity
  8
ALL_ASSEMBLY_MEMBERS
100
AcDbSpline
 62
7
  6
CONTINUOUS
 70
0
 71
3
 72
9
 73
5
 74
0
 42
0.0000001
 43
0.0000001
 44
0.0000000001
 40
0.0
 40
0.0
 40
0.0
 40
0.0
 40
0.5103065077
 40
1.0
 40
1.0
 40
1.0
 40
1.0
 10
5.9027654068
 20
2.4144517074
 30
0.0
 10
5.9018049476
 20
2.4157001826
 30
0.0
 10
5.8998224312
 20
2.4180708322
 30
0.0
 10
5.8976707163
 20
2.4202878982
 30
0.0
 10
5.896580544
 20
2.421334941
 30
0.0
  0
LINE
  5
3B3
100
AcDbEntity
  8
ALL_ASSEMBLY_MEMBERS
100
AcDbLine
 62
7
  6
CONTINUOUS
 10
5.8964243353
 20
2.4214844702
 11
5.8908019272
 21
2.4262920247
  0
SPLINE
  5
3B4
100
AcDbEntity
  8
ALL_ASSEMBLY_MEMBERS
100
AcDbSpline
 62
7
  6
CONTINUOUS
 70
0
 71
3
 72
19
 73
15
 74
0
 42
0.0000001
 43
0.0000001
 44
0.0000000001
 40
0.0
 40
0.0
 40
0.0
 40
0.0
 40
0.0287620964
 40
0.0572144472
 40
0.1134689345
 40
0.2252625296
 40
0.2817548812
 40
0.3390797107
 40
0.3975150264
 40
0.4573207235
 40
0.5817057458
 40
0.7132348865
 40
0.8525848283
 40
1.0
 40
1.0
 40
1.0
 40
1.0
 10
5.8908019272
 20
2.4262920247
 30
0.0
 10
5.8901806501
 20
2.4267702867
 30
0.0
 10
5.8889303052
 20
2.4277029865
 30
0.0
 10
5.8864008317
 20
2.4294837321
 30
0.0
 10
5.8818993031
 20
2.4323912581
 30
0.0
 10
5.876521839
 20
2.4353328199
 30
0.0
 10
5.8709760181
 20
2.4379923797
 30
0.0
 10
5.8666765151
 20
2.4398820269
 30
0.0
 10
5.8622393609
 20
2.4416768893
 30
0.0
 10
5.8560450509
 20
2.4439967806
 30
0.0
 10
5.847880248
 20
2.4467275609
 30
0.0
 10
5.8375332498
 20
2.4497409463
 30
0.0
 10
5.8264859582
 20
2.4525716741
 30
0.0
 10
5.8188605694
 20
2.4542969387
 30
0.0
 10
5.8149308954
 20
2.4551370148
 30
0.0
  0
LINE
  5
3B5
100
AcDbEntity
  8
ALL_ASSEMBLY_MEMBERS
100
AcDbLine
 62
7
  6
CONTINUOUS
 10
5.8033448362
 20
2.4574799347
 11
5.8025093891
 21
2.4576391535
  0
SPLINE
  5
3B6
100
AcDbEntity
  8
ALL_ASSEMBLY_MEMBERS
100
AcDbSpline
 62
7
  6
CONTINUOUS
 70
0
 71
3
 72
17
 73
13
 74
0
 42
0.0000001
 43
0.0000001
 44
0.0000000001
 40
0.0
 40
0.0
 40
0.0
 40
0.0
 40
0.0505400488
 40
0.1032022743
 40
0.1579219208
 40
0.2146023606
 40
0.3334151361
 40
0.4586660663
 40
0.5892254802
 40
0.7238440497
 40
0.861246216
 40
1.0
 40
1.0
 40
1.0
 40
1.0
 10
5.8025093891
 20
2.4576391535
 30
0.0
 10
5.7987060551
 20
2.458361188
 30
0.0
 10
5.7909253227
 20
2.4597606969
 30
0.0
 10
5.778984473
 20
2.461698046
 30
0.0
 10
5.7665494248
 20
2.4635166428
 30
0.0
 10
5.7490657167
 20
2.4658165771
 30
0.0
 10
5.7261670369
 20
2.4683562678
 30
0.0
 10
5.6975779257
 20
2.4708494714
 30
0.0
 10
5.6677342634
 20
2.4728126424
 30
0.0
 10
5.6369280743
 20
2.4742287323
 30
0.0
 10
5.6054735054
 20
2.4750835075
 30
0.0
 10
5.5843200247
 20
2.4752740033
 30
0.0
 10
5.5736917702
 20
2.4752740033
 30
0.0
  0
SPLINE
  5
3B7
100
AcDbEntity
  8
ALL_ASSEMBLY_MEMBERS
100
AcDbSpline
 62
7
  6
CONTINUOUS
 70
0
 71
3
 72
17
 73
13
 74
0
 42
0.0000001
 43
0.0000001
 44
0.0000000001
 40
0.0
 40
0.0
 40
0.0
 40
0.0
 40
0.1216719587
 40
0.2472702719
 40
0.3111167809
 40
0.3753597781
 40
0.4397951985
 40
0.504215975
 40
0.5684033937
 40
0.63218596
 40
0.7580500287
 40
1.0
 40
1.0
 40
1.0
 40
1.0
 10
5.9124376492
 20
2.3942109557
 30
0.0
 10
5.9127642937
 20
2.3927871908
 30
0.0
 10
5.9132524014
 20
2.3898506815
 30
0.0
 10
5.9134286851
 20
2.3861112222
 30
0.0
 10
5.9133187901
 20
2.383066233
 30
0.0
 10
5.9131074451
 20
2.3807632923
 30
0.0
 10
5.9127708815
 20
2.3784684817
 30
0.0
 10
5.9123151174
 20
2.3761950581
 30
0.0
 10
5.9117450129
 20
2.3739557051
 30
0.0
 10
5.9108443524
 20
2.3710430427
 30
0.0
 10
5.9089550738
 20
2.3662114972
 30
0.0
 10
5.9067784415
 20
2.3623336253
 30
0.0
 10
5.9051382064
 20
2.3599362648
 30
0.0
  0
SPLINE
  5
3B8
100
AcDbEntity
  8
ALL_ASSEMBLY_MEMBERS
100
AcDbSpline
 62
7
  6
CONTINUOUS
 70
0
 71
3
 72
11
 73
7
 74
0
 42
0.0000001
 43
0.0000001
 44
0.0000000001
 40
0.0
 40
0.0
 40
0.0
 40
0.0
 40
0.2543648453
 40
0.5067716463
 40
0.7557504371
 40
1.0
 40
1.0
 40
1.0
 40
1.0
 10
5.9129120559
 20
2.374465615
 30
0.0
 10
5.9126595068
 20
2.3730629973
 30
0.0
 10
5.9120113045
 20
2.3702925736
 30
0.0
 10
5.9106372288
 20
2.3662806019
 30
0.0
 10
5.9089149216
 20
2.3624680943
 30
0.0
 10
5.9075519514
 20
2.3600592777
 30
0.0
 10
5.90682714
 20
2.3588984867
 30
0.0
  0
SPLINE
  5
3B9
100
AcDbEntity
  8
ALL_ASSEMBLY_MEMBERS
100
AcDbSpline
 62
7
  6
CONTINUOUS
 70
0
 71
3
 72
9
 73
5
 74
0
 42
0.0000001
 43
0.0000001
 44
0.0000000001
 40
0.0
 40
0.0
 40
0.0
 40
0.0
 40
0.499325746
 40
1.0
 40
1.0
 40
1.0
 40
1.0
 10
5.8736955179
 20
2.3296804465
 30
0.0
 10
5.8760472721
 20
2.3308232259
 30
0.0
 10
5.8806919419
 20
2.3332505234
 30
0.0
 10
5.8851390129
 20
2.3360289235
 30
0.0
 10
5.8872986785
 20
2.3375153669
 30
0.0
  0
SPLINE
  5
3BA
100
AcDbEntity
  8
ALL_ASSEMBLY_MEMBERS
100
AcDbSpline
 62
7
  6
CONTINUOUS
 70
0
 71
3
 72
9
 73
5
 74
0
 42
0.0000001
 43
0.0000001
 44
0.0000000001
 40
0.0
 40
0.0
 40
0.0
 40
0.0
 40
0.4946520612
 40
1.0
 40
1.0
 40
1.0
 40
1.0
 10
5.8872986785
 20
2.3375153669
 30
0.0
 10
5.888411531
 20
2.3382813152
 30
0.0
 10
5.8906256168
 20
2.3398824806
 30
0.0
 10
5.892750188
 20
2.3416014711
 30
0.0
 10
5.8937968068
 20
2.3425011873
 30
0.0
  0
SPLINE
  5
3BB
100
AcDbEntity
  8
ALL_ASSEMBLY_MEMBERS
100
AcDbSpline
 62
7
  6
CONTINUOUS
 70
0
 71
3
 72
9
 73
5
 74
0
 42
0.0000001
 43
0.0000001
 44
0.0000000001
 40
0.0
 40
0.0
 40
0.0
 40
0.0
 40
0.4909437331
 40
1.0
 40
1.0
 40
1.0
 40
1.0
 10
5.8939056044
 20
2.3425949093
 30
0.0
 10
5.8949899846
 20
2.3435309809
 30
0.0
 10
5.8971401041
 20
2.3455066205
 30
0.0
 10
5.8991568437
 20
2.3476191658
 30
0.0
 10
5.9001423877
 20
2.3487304826
 30
0.0
  0
SPLINE
  5
3BC
100
AcDbEntity
  8
ALL_ASSEMBLY_MEMBERS
100
AcDbSpline
 62
7
  6
CONTINUOUS
 70
0
 71
3
 72
21
 73
17
 74
0
 42
0.0000001
 43
0.0000001
 44
0.0000000001
 40
0.0
 40
0.0
 40
0.0
 40
0.0
 40
0.0548160956
 40
0.1109335748
 40
0.1684638387
 40
0.2275090316
 40
0.2881237229
 40
0.3503345892
 40
0.4139699184
 40
0.478814375
 40
0.544530897
 40
0.610741143
 40
0.6770705079
 40
0.7431287919
 40
0.8733799301
 40
1.0
 40
1.0
 40
1.0
 40
1.0
 10
5.6095510753
 20
2.4646841968
 30
0.0
 10
5.610236503
 20
2.4639974046
 30
0.0
 10
5.6115600899
 20
2.4625423936
 30
0.0
 10
5.6133529243
 20
2.4601540601
 30
0.0
 10
5.614944076
 20
2.4575380863
 30
0.0
 10
5.6163026304
 20
2.4547053716
 30
0.0
 10
5.6173992797
 20
2.4516727605
 30
0.0
 10
5.6182038718
 20
2.4484660751
 30
0.0
 10
5.6186981326
 20
2.4451213786
 30
0.0
 10
5.6188609166
 20
2.4416822849
 30
0.0
 10
5.6186936972
 20
2.4381979937
 30
0.0
 10
5.6181958003
 20
2.4347191708
 30
0.0
 10
5.617388623
 20
2.4312928941
 30
0.0
 10
5.6159326415
 20
2.426872608
 30
0.0
 10
5.613479763
 20
2.4216812348
 30
0.0
 10
5.6109301767
 20
2.4178948813
 30
0.0
 10
5.6095510753
 20
2.416128081
 30
0.0
  0
SPLINE
  5
3BD
100
AcDbEntity
  8
ALL_ASSEMBLY_MEMBERS
100
AcDbSpline
 62
7
  6
CONTINUOUS
 70
0
 71
3
 72
10
 73
6
 74
0
 42
0.0000001
 43
0.0000001
 44
0.0000000001
 40
0.0
 40
0.0
 40
0.0
 40
0.0
 40
0.2462728329
 40
0.4956044906
 40
1.0
 40
1.0
 40
1.0
 40
1.0
 10
5.8961078818
 20
2.420841029
 30
0.0
 10
5.8969546201
 20
2.4198665734
 30
0.0
 10
5.8985788962
 20
2.4178338155
 30
0.0
 10
5.9014876109
 20
2.4134686035
 30
0.0
 10
5.9032137641
 20
2.4098769371
 30
0.0
 10
5.904105849
 20
2.4073879791
 30
0.0
  0
SPLINE
  5
3BE
100
AcDbEntity
  8
ALL_ASSEMBLY_MEMBERS
100
AcDbSpline
 62
7
  6
CONTINUOUS
 70
0
 71
3
 72
18
 73
14
 74
0
 42
0.0000001
 43
0.0000001
 44
0.0000000001
 40
0.0
 40
0.0
 40
0.0
 40
0.0
 40
0.1321267972
 40
0.1980992494
 40
0.2637940108
 40
0.3290826608
 40
0.3938284784
 40
0.5211676509
 40
0.5837315202
 40
0.6454500192
 40
0.7664239483
 40
0.8844889023
 40
1.0
 40
1.0
 40
1.0
 40
1.0
 10
5.904105849
 20
2.4073879791
 30
0.0
 10
5.9046730885
 20
2.4058053548
 30
0.0
 10
5.9053663175
 20
2.4033711008
 30
0.0
 10
5.9059426036
 20
2.4000622959
 30
0.0
 10
5.9061917039
 20
2.3975661721
 30
0.0
 10
5.906254033
 20
2.3950740332
 30
0.0
 10
5.9060909496
 20
2.3918008489
 30
0.0
 10
5.9055559088
 20
2.3885896198
 30
0.0
 10
5.9046687163
 20
2.3855106916
 30
0.0
 10
5.9035759122
 20
2.3825847348
 30
0.0
 10
5.9018349256
 20
2.3791593271
 30
0.0
 10
5.8992198299
 20
2.3754658765
 30
0.0
 10
5.8971801223
 20
2.3732901856
 30
0.0
 10
5.8961078818
 20
2.3722849132
 30
0.0
  0
SPLINE
  5
3BF
100
AcDbEntity
  8
ALL_ASSEMBLY_MEMBERS
100
AcDbSpline
 62
7
  6
CONTINUOUS
 70
0
 71
3
 72
19
 73
15
 74
0
 42
0.0000001
 43
0.0000001
 44
0.0000000001
 40
0.0
 40
0.0
 40
0.0
 40
0.0
 40
0.1251773949
 40
0.2567324783
 40
0.3242619097
 40
0.3924418255
 40
0.4606973679
 40
0.5284417073
 40
0.5950684565
 40
0.6600133688
 40
0.7228644791
 40
0.7832858246
 40
0.8964699676
 40
1.0
 40
1.0
 40
1.0
 40
1.0
 10
5.6095510753
 20
2.416128081
 30
0.0
 10
5.6084288784
 20
2.4179644111
 30
0.0
 10
5.6063645274
 20
2.4218807569
 30
0.0
 10
5.6044132705
 20
2.4271211177
 30
0.0
 10
5.6032497006
 20
2.4315694704
 30
0.0
 10
5.6026023344
 20
2.4350188967
 30
0.0
 10
5.6022029347
 20
2.4385095736
 30
0.0
 10
5.6020685517
 20
2.4419939328
 30
0.0
 10
5.6021984965
 20
2.4454217004
 30
0.0
 10
5.602593968
 20
2.4487444263
 30
0.0
 10
5.6032382268
 20
2.4519195838
 30
0.0
 10
5.6043843111
 20
2.4558240802
 30
0.0
 10
5.6063082937
 20
2.4602113097
 30
0.0
 10
5.6084139921
 20
2.4633148453
 30
0.0
 10
5.6095510753
 20
2.4646841968
 30
0.0
  0
SPLINE
  5
3C0
100
AcDbEntity
  8
ALL_ASSEMBLY_MEMBERS
100
AcDbSpline
 62
7
  6
CONTINUOUS
 70
0
 71
3
 72
9
 73
5
 74
0
 42
0.0000001
 43
0.0000001
 44
0.0000000001
 40
0.0
 40
0.0
 40
0.0
 40
0.0
 40
0.2467188645
 40
1.0
 40
1.0
 40
1.0
 40
1.0
 10
5.9008288284
 20
2.416766179
 30
0.0
 10
5.9012867651
 20
2.4162073363
 30
0.0
 10
5.9030906869
 20
2.413900185
 30
0.0
 10
5.9046771569
 20
2.4114213007
 30
0.0
 10
5.9057202314
 20
2.4094775444
 30
0.0
  0
SPLINE
  5
3C1
100
AcDbEntity
  8
ALL_ASSEMBLY_MEMBERS
100
AcDbSpline
 62
7
  6
CONTINUOUS
 70
0
 71
3
 72
20
 73
16
 74
0
 42
0.0000001
 43
0.0000001
 44
0.0000000001
 40
0.0
 40
0.0
 40
0.0
 40
0.0
 40
0.1309285815
 40
0.1969434489
 40
0.263098331
 40
0.3291388558
 40
0.3948337359
 40
0.5241634222
 40
0.5875169401
 40
0.6497896654
 40
0.7108777791
 40
0.7708103152
 40
0.8296402915
 40
0.8874088025
 40
1.0
 40
1.0
 40
1.0
 40
1.0
 10
5.9057202314
 20
2.4094775444
 30
0.0
 10
5.9066420866
 20
2.4077596787
 30
0.0
 10
5.9078559962
 20
2.4050762008
 30
0.0
 10
5.9090736147
 20
2.4013497584
 30
0.0
 10
5.9097751284
 20
2.3984797798
 30
0.0
 10
5.9102507658
 20
2.3955683566
 30
0.0
 10
5.9105626149
 20
2.3916903842
 30
0.0
 10
5.9103949701
 20
2.3878244117
 30
0.0
 10
5.909735356
 20
2.3840819454
 30
0.0
 10
5.9090185943
 20
2.3813918752
 30
0.0
 10
5.9080873082
 20
2.3788227055
 30
0.0
 10
5.9069597192
 20
2.3763900726
 30
0.0
 10
5.9056546442
 20
2.374104452
 30
0.0
 10
5.9037191851
 20
2.3712902891
 30
0.0
 10
5.9020317206
 20
2.369377887
 30
0.0
 10
5.9008288284
 20
2.3682100632
 30
0.0
  0
SPLINE
  5
3C2
100
AcDbEntity
  8
ALL_ASSEMBLY_MEMBERS
100
AcDbSpline
 62
7
  6
CONTINUOUS
 70
0
 71
3
 72
21
 73
17
 74
0
 42
0.0000001
 43
0.0000001
 44
0.0000000001
 40
0.0
 40
0.0
 40
0.0
 40
0.0
 40
0.0560586105
 40
0.1131509002
 40
0.1713684785
 40
0.2308073381
 40
0.2915312236
 40
0.353592437
 40
0.4168639388
 40
0.4811876898
 40
0.5462958896
 40
0.6118811958
 40
0.6776358973
 40
0.7432278375
 40
0.8730265273
 40
1.0
 40
1.0
 40
1.0
 40
1.0
 10
5.6332379251
 20
2.4640856885
 30
0.0
 10
5.6339595119
 20
2.4633917956
 30
0.0
 10
5.6353530418
 20
2.4619239521
 30
0.0
 10
5.6372455559
 20
2.4595132968
 30
0.0
 10
5.6389255549
 20
2.456877245
 30
0.0
 10
5.6403603053
 20
2.4540269825
 30
0.0
 10
5.6415187407
 20
2.4509796888
 30
0.0
 10
5.6423688884
 20
2.4477614782
 30
0.0
 10
5.6428912694
 20
2.4444089054
 30
0.0
 10
5.6430634812
 20
2.4409658721
 30
0.0
 10
5.6428870233
 20
2.4374819055
 30
0.0
 10
5.6423612404
 20
2.4340078272
 30
0.0
 10
5.6415087904
 20
2.4305905716
 30
0.0
 10
5.6399695074
 20
2.4261826335
 30
0.0
 10
5.637372996
 20
2.4210132835
 30
0.0
 10
5.6346883355
 20
2.4172724874
 30
0.0
 10
5.6332379251
 20
2.4155295727
 30
0.0
  0
SPLINE
  5
3C3
100
AcDbEntity
  8
ALL_ASSEMBLY_MEMBERS
100
AcDbSpline
 62
7
  6
CONTINUOUS
 70
0
 71
3
 72
20
 73
16
 74
0
 42
0.0000001
 43
0.0000001
 44
0.0000000001
 40
0.0
 40
0.0
 40
0.0
 40
0.0
 40
0.1103901114
 40
0.167300514
 40
0.2254390852
 40
0.3454738331
 40
0.4075323731
 40
0.4708483071
 40
0.5352865164
 40
0.6006963394
 40
0.6668476126
 40
0.7334875955
 40
0.8003749867
 40
0.8672543273
 40
1.0
 40
1.0
 40
1.0
 40
1.0
 10
5.903844177
 20
2.3640866811
 30
0.0
 10
5.9049196273
 20
2.3651770178
 30
0.0
 10
5.9064301816
 20
2.3669538423
 30
0.0
 10
5.9081768075
 20
2.3695510676
 30
0.0
 10
5.9097833407
 20
2.3723924918
 30
0.0
 10
5.9110763411
 20
2.3754820293
 30
0.0
 10
5.9120137338
 20
2.3787578095
 30
0.0
 10
5.9125395523
 20
2.3813409933
 30
0.0
 10
5.9128694703
 20
2.3840031092
 30
0.0
 10
5.9129946771
 20
2.3867220134
 30
0.0
 10
5.912916632
 20
2.3894731282
 30
0.0
 10
5.9126339505
 20
2.392231317
 30
0.0
 10
5.9121528133
 20
2.3949721482
 30
0.0
 10
5.911264551
 20
2.3985634004
 30
0.0
 10
5.9103281638
 20
2.4011807828
 30
0.0
 10
5.9096000391
 20
2.4028723552
 30
0.0
  0
SPLINE
  5
3C4
100
AcDbEntity
  8
ALL_ASSEMBLY_MEMBERS
100
AcDbSpline
 62
7
  6
CONTINUOUS
 70
0
 71
3
 72
17
 73
13
 74
0
 42
0.0000001
 43
0.0000001
 44
0.0000000001
 40
0.0
 40
0.0
 40
0.0
 40
0.0
 40
0.2562321202
 40
0.3930453257
 40
0.4620276508
 40
0.5305007963
 40
0.5977819947
 40
0.6632297033
 40
0.7263626419
 40
0.786783613
 40
0.8989648102
 40
1.0
 40
1.0
 40
1.0
 40
1.0
 10
5.6332379251
 20
2.4155295727
 30
0.0
 10
5.6311350562
 20
2.4193486414
 30
0.0
 10
5.6286184146
 20
2.4256343813
 30
0.0
 10
5.6270502514
 20
2.4333538637
 30
0.0
 10
5.626568675
 20
2.4379992389
 30
0.0
 10
5.6264467153
 20
2.441483372
 30
0.0
 10
5.6265644095
 20
2.4449077008
 30
0.0
 10
5.6269228372
 20
2.4482239294
 30
0.0
 10
5.6275067567
 20
2.4513897145
 30
0.0
 10
5.6285429053
 20
2.4552680035
 30
0.0
 10
5.6302759053
 20
2.459613305
 30
0.0
 10
5.6321966641
 20
2.4627178208
 30
0.0
 10
5.6332379251
 20
2.4640856885
 30
0.0
  0
SPLINE
  5
3C5
100
AcDbEntity
  8
ALL_ASSEMBLY_MEMBERS
100
AcDbSpline
 62
7
  6
CONTINUOUS
 70
0
 71
3
 72
14
 73
10
 74
0
 42
0.0000001
 43
0.0000001
 44
0.0000000001
 40
0.0
 40
0.0
 40
0.0
 40
0.0
 40
0.2277728687
 40
0.3470380447
 40
0.4701212557
 40
0.5970858734
 40
0.7279831924
 40
0.8624609325
 40
1.0
 40
1.0
 40
1.0
 40
1.0
 10
5.9051382064
 20
2.3599362648
 30
0.0
 10
5.9063560122
 20
2.3612378626
 30
0.0
 10
5.9080368334
 20
2.3633949498
 30
0.0
 10
5.9098930275
 20
2.3665753157
 30
0.0
 10
5.911119
 20
2.3691972795
 30
0.0
 10
5.9121342025
 20
2.3720044817
 30
0.0
 10
5.9129135461
 20
2.3749785624
 30
0.0
 10
5.9134420436
 20
2.3780909289
 30
0.0
 10
5.9136137633
 20
2.3802158655
 30
0.0
 10
5.9136550668
 20
2.3812914063
 30
0.0
  0
SPLINE
  5
3C6
100
AcDbEntity
  8
ALL_ASSEMBLY_MEMBERS
100
AcDbSpline
 62
7
  6
CONTINUOUS
 70
0
 71
3
 72
21
 73
17
 74
0
 42
0.0000001
 43
0.0000001
 44
0.0000000001
 40
0.0
 40
0.0
 40
0.0
 40
0.0
 40
0.1150997048
 40
0.1739782294
 40
0.2338104596
 40
0.2946644091
 40
0.3566122432
 40
0.4195653692
 40
0.4834171384
 40
0.5479636507
 40
0.6129639724
 40
0.678173605
 40
0.7433153575
 40
0.8082350552
 40
0.8727646198
 40
1.0
 40
1.0
 40
1.0
 40
1.0
 10
5.6566143184
 20
2.4631919378
 30
0.0
 10
5.6581313957
 20
2.4617803261
 30
0.0
 10
5.660239612
 20
2.4594312114
 30
0.0
 10
5.6625667215
 20
2.4559171871
 30
0.0
 10
5.6640703948
 20
2.453048333
 30
0.0
 10
5.6652844629
 20
2.4499858882
 30
0.0
 10
5.6661757684
 20
2.446755774
 30
0.0
 10
5.6667235796
 20
2.4433951512
 30
0.0
 10
5.6669043628
 20
2.4399481776
 30
0.0
 10
5.6667196165
 20
2.4364647377
 30
0.0
 10
5.6661686669
 20
2.4329957653
 30
0.0
 10
5.665275463
 20
2.4295882436
 30
0.0
 10
5.6640610201
 20
2.4262836574
 30
0.0
 10
5.6625584934
 20
2.4231135251
 30
0.0
 10
5.6602267614
 20
2.4191189472
 30
0.0
 10
5.6581285339
 20
2.4163547119
 30
0.0
 10
5.6566143184
 20
2.414635822
 30
0.0
  0
SPLINE
  5
3C7
100
AcDbEntity
  8
ALL_ASSEMBLY_MEMBERS
100
AcDbSpline
 62
7
  6
CONTINUOUS
 70
0
 71
3
 72
41
 73
37
 74
0
 42
0.0000001
 43
0.0000001
 44
0.0000000001
 40
0.0
 40
0.0
 40
0.0
 40
0.0
 40
0.0041080371
 40
0.0083131055
 40
0.0126865666
 40
0.0172915933
 40
0.0221820517
 40
0.0274026511
 40
0.0329893235
 40
0.0389701214
 40
0.0453671039
 40
0.0521975794
 40
0.0594750943
 40
0.0672101773
 40
0.0754101577
 40
0.084079689
 40
0.0932218297
 40
0.1028383817
 40
0.1234957007
 40
0.1460452553
 40
0.1704620025
 40
0.1967134852
 40
0.224757087
 40
0.2545399344
 40
0.2860058393
 40
0.319091119
 40
0.3537249221
 40
0.3898345793
 40
0.4273411111
 40
0.4661602711
 40
0.5473886228
 40
0.6327881706
 40
0.7215773887
 40
0.8129358662
 40
0.9060473146
 40
1.0
 40
1.0
 40
1.0
 40
1.0
 10
5.2926905371
 20
2.4999028486
 30
0.0
 10
5.292705021
 20
2.500302382
 30
0.0
 10
5.2927920116
 20
2.50110987
 30
0.0
 10
5.2930922683
 20
2.5023110523
 30
0.0
 10
5.2935617608
 20
2.5035086287
 30
0.0
 10
5.2941991742
 20
2.5047014752
 30
0.0
 10
5.2950034406
 20
2.5058892714
 30
0.0
 10
5.2959737974
 20
2.5070716617
 30
0.0
 10
5.2971094505
 20
2.5082483761
 30
0.0
 10
5.2984094937
 20
2.5094191886
 30
0.0
 10
5.2998731283
 20
2.5105836835
 30
0.0
 10
5.3014995721
 20
2.5117413664
 30
0.0
 10
5.3032880469
 20
2.5128916785
 30
0.0
 10
5.3052377088
 20
2.5140339398
 30
0.0
 10
5.3073474503
 20
2.5151675507
 30
0.0
 10
5.3096159593
 20
2.5162919332
 30
0.0
 10
5.3120418667
 20
2.5174064575
 30
0.0
 10
5.315569341
 20
2.5189146291
 30
0.0
 10
5.3203692904
 20
2.5207605934
 30
0.0
 10
5.3266024164
 20
2.5228766658
 30
0.0
 10
5.3334243688
 20
2.5249386508
 30
0.0
 10
5.3408192382
 20
2.5269411013
 30
0.0
 10
5.3487697201
 20
2.5288790668
 30
0.0
 10
5.3572569473
 20
2.5307481986
 30
0.0
 10
5.3662608746
 20
2.5325435392
 30
0.0
 10
5.3757601012
 20
2.5342607523
 30
0.0
 10
5.3857319832
 20
2.5358959672
 30
0.0
 10
5.3961527995
 20
2.5374448442
 30
0.0
 10
5.4069976944
 20
2.5389037618
 30
0.0
 10
5.4222194122
 20
2.5407525031
 30
0.0
 10
5.4421104679
 20
2.5427995991
 30
0.0
 10
5.4668876698
 20
2.5448140255
 30
0.0
 10
5.4926835984
 20
2.5464015757
 30
0.0
 10
5.5192540511
 20
2.5475469339
 30
0.0
 10
5.5463427165
 20
2.5482383267
 30
0.0
 10
5.5645482562
 20
2.5483924512
 30
0.0
 10
5.5736917702
 20
2.5483924512
 30
0.0
  0
SPLINE
  5
3C8
100
AcDbEntity
  8
ALL_ASSEMBLY_MEMBERS
100
AcDbSpline
 62
7
  6
CONTINUOUS
 70
0
 71
3
 72
9
 73
5
 74
0
 42
0.0000001
 43
0.0000001
 44
0.0000000001
 40
0.0
 40
0.0
 40
0.0
 40
0.0
 40
0.4909252864
 40
1.0
 40
1.0
 40
1.0
 40
1.0
 10
5.9075599368
 20
2.3596348878
 30
0.0
 10
5.9080213078
 20
2.360376426
 30
0.0
 10
5.9088959688
 20
2.3619283389
 30
0.0
 10
5.9096355649
 20
2.3635489041
 30
0.0
 10
5.9099775496
 20
2.364387491
 30
0.0
  0
SPLINE
  5
3C9
100
AcDbEntity
  8
ALL_ASSEMBLY_MEMBERS
100
AcDbSpline
 62
7
  6
CONTINUOUS
 70
0
 71
3
 72
18
 73
14
 74
0
 42
0.0000001
 43
0.0000001
 44
0.0000000001
 40
0.0
 40
0.0
 40
0.0
 40
0.0
 40
0.1240305057
 40
0.2563649396
 40
0.3941993046
 40
0.4638239446
 40
0.532944525
 40
0.6008052222
 40
0.6666900503
 40
0.790347654
 40
0.8475628667
 40
0.9015424958
 40
1.0
 40
1.0
 40
1.0
 40
1.0
 10
5.6566143184
 20
2.414635822
 30
0.0
 10
5.6556964193
 20
2.416514799
 30
0.0
 10
5.654015357
 20
2.4205077472
 30
0.0
 10
5.6521102803
 20
2.4268880465
 30
0.0
 10
5.6510880871
 20
2.4325391292
 30
0.0
 10
5.6506587431
 20
2.4371848645
 30
0.0
 10
5.6505498049
 20
2.4406688158
 30
0.0
 10
5.6506547666
 20
2.4440901468
 30
0.0
 10
5.6510719209
 20
2.448411964
 30
0.0
 10
5.6518805116
 20
2.45250998
 30
0.0
 10
5.6530859267
 20
2.4562856879
 30
0.0
 10
5.6544209494
 20
2.4595609539
 30
0.0
 10
5.6556752838
 20
2.461823034
 30
0.0
 10
5.6566143184
 20
2.4631919378
 30
0.0
  0
SPLINE
  5
3CA
100
AcDbEntity
  8
ALL_ASSEMBLY_MEMBERS
100
AcDbSpline
 62
7
  6
CONTINUOUS
 70
0
 71
3
 72
21
 73
17
 74
0
 42
0.0000001
 43
0.0000001
 44
0.0000000001
 40
0.0
 40
0.0
 40
0.0
 40
0.0
 40
0.117017146
 40
0.1765244768
 40
0.2367459748
 40
0.2977495829
 40
0.3596216866
 40
0.4223055124
 40
0.4857390985
 40
0.5497760269
 40
0.6142361105
 40
0.6789334853
 40
0.7436422177
 40
0.8082473253
 40
0.8726086661
 40
1.0
 40
1.0
 40
1.0
 40
1.0
 10
5.6795583775
 20
2.4620076045
 30
0.0
 10
5.6811303615
 20
2.4605817106
 30
0.0
 10
5.6833195731
 20
2.4582123555
 30
0.0
 10
5.6857448941
 20
2.4546624523
 30
0.0
 10
5.6873092501
 20
2.451774623
 30
0.0
 10
5.6885726386
 20
2.4486964571
 30
0.0
 10
5.6895004121
 20
2.445454171
 30
0.0
 10
5.6900708185
 20
2.4420853713
 30
0.0
 10
5.6902592621
 20
2.4386345115
 30
0.0
 10
5.6900672149
 20
2.4351518066
 30
0.0
 10
5.6894940097
 20
2.4316883541
 30
0.0
 10
5.6885646398
 20
2.4282910099
 30
0.0
 10
5.6873010908
 20
2.4250010854
 30
0.0
 10
5.6857379443
 20
2.4218496477
 30
0.0
 10
5.6833093603
 20
2.4178796841
 30
0.0
 10
5.681128704
 20
2.4151463178
 30
0.0
 10
5.6795583775
 20
2.4134514887
 30
0.0
  0
SPLINE
  5
3CB
100
AcDbEntity
  8
ALL_ASSEMBLY_MEMBERS
100
AcDbSpline
 62
7
  6
CONTINUOUS
 70
0
 71
3
 72
17
 73
13
 74
0
 42
0.0000001
 43
0.0000001
 44
0.0000000001
 40
0.0
 40
0.0
 40
0.0
 40
0.0
 40
0.1234645716
 40
0.2561568972
 40
0.3950272608
 40
0.5350200134
 40
0.6697555163
 40
0.7936861688
 40
0.8505919896
 40
0.9039140565
 40
0.9536746438
 40
1.0
 40
1.0
 40
1.0
 40
1.0
 10
5.6795583775
 20
2.4134514887
 30
0.0
 10
5.6787515859
 20
2.4153498899
 30
0.0
 10
5.6772776012
 20
2.4193761387
 30
0.0
 10
5.6756144179
 20
2.4257730582
 30
0.0
 10
5.6745407015
 20
2.4325761957
 30
0.0
 10
5.6741592333
 20
2.4394885115
 30
0.0
 10
5.6745129358
 20
2.4461530524
 30
0.0
 10
5.6754122955
 20
2.4513638635
 30
0.0
 10
5.6764682207
 20
2.455133618
 30
0.0
 10
5.6773701618
 20
2.4576524179
 30
0.0
 10
5.6783876177
 20
2.4599343783
 30
0.0
 10
5.6791577066
 20
2.4613454296
 30
0.0
 10
5.6795583775
 20
2.4620076045
 30
0.0
  0
SPLINE
  5
3CC
100
AcDbEntity
  8
ALL_ASSEMBLY_MEMBERS
100
AcDbSpline
 62
7
  6
CONTINUOUS
 70
0
 71
3
 72
21
 73
17
 74
0
 42
0.0000001
 43
0.0000001
 44
0.0000000001
 40
0.0
 40
0.0
 40
0.0
 40
0.0
 40
0.118772475
 40
0.1788740025
 40
0.2394795086
 40
0.3006531089
 40
0.3624899944
 40
0.4249583493
 40
0.4880335673
 40
0.5516193904
 40
0.6155897667
 40
0.6798120964
 40
0.7441074536
 40
0.808397199
 40
0.8725673243
 40
1.0
 40
1.0
 40
1.0
 40
1.0
 10
5.7019504788
 20
2.4605388632
 30
0.0
 10
5.7035698584
 20
2.459097153
 30
0.0
 10
5.7058287643
 20
2.4567057194
 30
0.0
 10
5.70833909
 20
2.4531198325
 30
0.0
 10
5.7099558606
 20
2.4502124098
 30
0.0
 10
5.7112618935
 20
2.4471181002
 30
0.0
 10
5.7122212485
 20
2.4438634124
 30
0.0
 10
5.712811268
 20
2.4404863724
 30
0.0
 10
5.7130064106
 20
2.4370317209
 30
0.0
 10
5.7128080982
 20
2.433549988
 30
0.0
 10
5.7122156598
 20
2.4300924273
 30
0.0
 10
5.7112550001
 20
2.4267057697
 30
0.0
 10
5.7099489598
 20
2.4234311371
 30
0.0
 10
5.7083333707
 20
2.4202991394
 30
0.0
 10
5.7058208443
 20
2.4163556594
 30
0.0
 10
5.703569052
 20
2.4136535734
 30
0.0
 10
5.7019504788
 20
2.4119827474
 30
0.0
  0
SPLINE
  5
3CD
100
AcDbEntity
  8
ALL_ASSEMBLY_MEMBERS
100
AcDbSpline
 62
7
  6
CONTINUOUS
 70
0
 71
3
 72
17
 73
13
 74
0
 42
0.0000001
 43
0.0000001
 44
0.0000000001
 40
0.0
 40
0.0
 40
0.0
 40
0.0
 40
0.1229280883
 40
0.2559451925
 40
0.3957676499
 40
0.5369695707
 40
0.6726919091
 40
0.7968909327
 40
0.8535180312
 40
0.9062336988
 40
0.9550266888
 40
1.0
 40
1.0
 40
1.0
 40
1.0
 10
5.7019504788
 20
2.4119827474
 30
0.0
 10
5.7012601951
 20
2.4138988396
 30
0.0
 10
5.7000021856
 20
2.4179546789
 30
0.0
 10
5.698588258
 20
2.4243648056
 30
0.0
 10
5.6976756638
 20
2.4311719826
 30
0.0
 10
5.6973512956
 20
2.4380782038
 30
0.0
 10
5.6976512441
 20
2.4447268796
 30
0.0
 10
5.6984151548
 20
2.449927116
 30
0.0
 10
5.6993157508
 20
2.4536922557
 30
0.0
 10
5.7000830734
 20
2.456199318
 30
0.0
 10
5.7009486535
 20
2.4584685476
 30
0.0
 10
5.701607188
 20
2.4598775509
 30
0.0
 10
5.7019504788
 20
2.4605388632
 30
0.0
  0
SPLINE
  5
3CE
100
AcDbEntity
  8
ALL_ASSEMBLY_MEMBERS
100
AcDbSpline
 62
7
  6
CONTINUOUS
 70
0
 71
3
 72
22
 73
18
 74
0
 42
0.0000001
 43
0.0000001
 44
0.0000000001
 40
0.0
 40
0.0
 40
0.0
 40
0.0
 40
0.1203489376
 40
0.1810015545
 40
0.2419780398
 40
0.303335469
 40
0.3651727052
 40
0.4274759307
 40
0.4902500987
 40
0.5534410498
 40
0.6169694522
 40
0.6807499233
 40
0.7446458588
 40
0.808611961
 40
0.8725586531
 40
0.9363934998
 40
1.0
 40
1.0
 40
1.0
 40
1.0
 10
5.7236738763
 20
2.4587933717
 30
0.0
 10
5.7253329406
 20
2.4573344744
 30
0.0
 10
5.7276499822
 20
2.4549192586
 30
0.0
 10
5.7302315864
 20
2.4512973883
 30
0.0
 10
5.7318922265
 20
2.4483698312
 30
0.0
 10
5.733233988
 20
2.4452590206
 30
0.0
 10
5.7342198486
 20
2.441991761
 30
0.0
 10
5.734826375
 20
2.4386064705
 30
0.0
 10
5.7350272094
 20
2.4351481618
 30
0.0
 10
5.734823705
 20
2.4316676566
 30
0.0
 10
5.734215168
 20
2.4282163393
 30
0.0
 10
5.7332282922
 20
2.424840844
 30
0.0
 10
5.7318865665
 20
2.4215819805
 30
0.0
 10
5.7302271869
 20
2.4184703022
 30
0.0
 10
5.7282860871
 20
2.415528151
 30
0.0
 10
5.7261008601
 20
2.4127720332
 30
0.0
 10
5.7245024722
 20
2.4110599384
 30
0.0
 10
5.7236738763
 20
2.4102372559
 30
0.0
  0
SPLINE
  5
3CF
100
AcDbEntity
  8
ALL_ASSEMBLY_MEMBERS
100
AcDbSpline
 62
7
  6
CONTINUOUS
 70
0
 71
3
 72
18
 73
14
 74
0
 42
0.0000001
 43
0.0000001
 44
0.0000000001
 40
0.0
 40
0.0
 40
0.0
 40
0.0
 40
0.1224432493
 40
0.2557458239
 40
0.3964106307
 40
0.5386844338
 40
0.675287571
 40
0.7393734331
 40
0.7997690558
 40
0.8561542702
 40
0.9083323021
 40
0.9562562202
 40
1.0
 40
1.0
 40
1.0
 40
1.0
 10
5.7236738763
 20
2.4102372559
 30
0.0
 10
5.7231049574
 20
2.4121689054
 30
0.0
 10
5.7220705975
 20
2.4162500618
 30
0.0
 10
5.7209120437
 20
2.4226705974
 30
0.0
 10
5.7201643624
 20
2.4294808782
 30
0.0
 10
5.7198985859
 20
2.436381347
 30
0.0
 10
5.7201069344
 20
2.4420245299
 30
0.0
 10
5.7205395386
 20
2.4462976578
 30
0.0
 10
5.7209725688
 20
2.4492416043
 30
0.0
 10
5.7215093193
 20
2.4519691199
 30
0.0
 10
5.7221383521
 20
2.4544660052
 30
0.0
 10
5.7228479039
 20
2.4567241487
 30
0.0
 10
5.7233904282
 20
2.4581321598
 30
0.0
 10
5.7236738763
 20
2.4587933717
 30
0.0
  0
SPLINE
  5
3D0
100
AcDbEntity
  8
ALL_ASSEMBLY_MEMBERS
100
AcDbSpline
 62
7
  6
CONTINUOUS
 70
0
 71
3
 72
22
 73
18
 74
0
 42
0.0000001
 43
0.0000001
 44
0.0000000001
 40
0.0
 40
0.0
 40
0.0
 40
0.0
 40
0.121769493
 40
0.1829412629
 40
0.2442873069
 40
0.3058549527
 40
0.3677419372
 40
0.4299454819
 40
0.4924919796
 40
0.5553607009
 40
0.6185109154
 40
0.6818978016
 40
0.7454219745
 40
0.8090683452
 40
0.8727701456
 40
0.9364501404
 40
1.0
 40
1.0
 40
1.0
 40
1.0
 10
5.7446153105
 20
2.4567802303
 30
0.0
 10
5.7463061692
 20
2.4553029289
 30
0.0
 10
5.7486695665
 20
2.4528623788
 30
0.0
 10
5.7513083012
 20
2.4492046424
 30
0.0
 10
5.7530040376
 20
2.4462564946
 30
0.0
 10
5.754374414
 20
2.4431288941
 30
0.0
 10
5.7553815462
 20
2.4398489513
 30
0.0
 10
5.756001368
 20
2.4364554493
 30
0.0
 10
5.7562068473
 20
2.432993655
 30
0.0
 10
5.755999252
 20
2.4295146438
 30
0.0
 10
5.7553778559
 20
2.426069912
 30
0.0
 10
5.7543699673
 20
2.4227059649
 30
0.0
 10
5.7529996643
 20
2.4194633916
 30
0.0
 10
5.7513050193
 20
2.4163722957
 30
0.0
 10
5.7493227873
 20
2.4134545325
 30
0.0
 10
5.7470914071
 20
2.4107260945
 30
0.0
 10
5.7454606115
 20
2.4090356415
 30
0.0
 10
5.7446153105
 20
2.4082241145
 30
0.0
  0
SPLINE
  5
3D1
100
AcDbEntity
  8
ALL_ASSEMBLY_MEMBERS
100
AcDbSpline
 62
7
  6
CONTINUOUS
 70
0
 71
3
 72
9
 73
5
 74
0
 42
0.0000001
 43
0.0000001
 44
0.0000000001
 40
0.0
 40
0.0
 40
0.0
 40
0.0
 40
0.4909593082
 40
1.0
 40
1.0
 40
1.0
 40
1.0
 10
5.2398213924
 20
2.3596409549
 30
0.0
 10
5.2393616482
 20
2.3603798001
 30
0.0
 10
5.2384898899
 20
2.3619258222
 30
0.0
 10
5.2377522087
 20
2.3635400549
 30
0.0
 10
5.2374109713
 20
2.3643752906
 30
0.0
  0
SPLINE
  5
3D2
100
AcDbEntity
  8
ALL_ASSEMBLY_MEMBERS
100
AcDbSpline
 62
7
  6
CONTINUOUS
 70
0
 71
3
 72
14
 73
10
 74
0
 42
0.0000001
 43
0.0000001
 44
0.0000000001
 40
0.0
 40
0.0
 40
0.0
 40
0.0
 40
0.2277439427
 40
0.347003502
 40
0.4700868685
 40
0.5970576723
 40
0.7279657041
 40
0.862453593
 40
1.0
 40
1.0
 40
1.0
 40
1.0
 10
5.2422459598
 20
2.359942292
 30
0.0
 10
5.2410257343
 20
2.3612463663
 30
0.0
 10
5.2393418333
 20
2.363407972
 30
0.0
 10
5.2374831514
 20
2.3665954113
 30
0.0
 10
5.2362560795
 20
2.3692234966
 30
0.0
 10
5.2352407653
 20
2.3720373852
 30
0.0
 10
5.2344624043
 20
2.3750185327
 30
0.0
 10
5.2339359921
 20
2.3781381171
 30
0.0
 10
5.2337664674
 20
2.3802678035
 30
0.0
 10
5.2337264222
 20
2.3813456782
 30
0.0
  0
SPLINE
  5
3D3
100
AcDbEntity
  8
ALL_ASSEMBLY_MEMBERS
100
AcDbSpline
 62
7
  6
CONTINUOUS
 70
0
 71
3
 72
18
 73
14
 74
0
 42
0.0000001
 43
0.0000001
 44
0.0000000001
 40
0.0
 40
0.0
 40
0.0
 40
0.0
 40
0.1220380413
 40
0.2555882091
 40
0.396968746
 40
0.5401515643
 40
0.6775068696
 40
0.7417882216
 40
0.8022034233
 40
0.8583928671
 40
0.9101225103
 40
0.9573106718
 40
1.0
 40
1.0
 40
1.0
 40
1.0
 10
5.7446153105
 20
2.4082241145
 30
0.0
 10
5.7441719558
 20
2.4101687693
 30
0.0
 10
5.7433676118
 20
2.4142705417
 30
0.0
 10
5.7424692735
 20
2.4206989957
 30
0.0
 10
5.7418895608
 20
2.427511375
 30
0.0
 10
5.7416834607
 20
2.4344075213
 30
0.0
 10
5.7418447714
 20
2.4400448937
 30
0.0
 10
5.7421807252
 20
2.4443153314
 30
0.0
 10
5.7425167157
 20
2.4472532092
 30
0.0
 10
5.7429331273
 20
2.4499734391
 30
0.0
 10
5.7434210406
 20
2.4524619248
 30
0.0
 10
5.7439713229
 20
2.4547108087
 30
0.0
 10
5.7443939709
 20
2.4561185682
 30
0.0
 10
5.7446153105
 20
2.4567802303
 30
0.0
  0
SPLINE
  5
3D4
100
AcDbEntity
  8
ALL_ASSEMBLY_MEMBERS
100
AcDbSpline
 62
7
  6
CONTINUOUS
 70
0
 71
3
 72
20
 73
16
 74
0
 42
0.0000001
 43
0.0000001
 44
0.0000000001
 40
0.0
 40
0.0
 40
0.0
 40
0.0
 40
0.110397087
 40
0.1673089053
 40
0.2254473524
 40
0.3454775427
 40
0.4075315812
 40
0.4708425429
 40
0.5352755224
 40
0.6006806461
 40
0.6668286293
 40
0.7334672072
 40
0.8003554624
 40
0.8672387315
 40
1.0
 40
1.0
 40
1.0
 40
1.0
 10
5.2435424922
 20
2.3640926847
 30
0.0
 10
5.2424678802
 20
2.3651820957
 30
0.0
 10
5.2409584112
 20
2.3669572838
 30
0.0
 10
5.239212744
 20
2.369551976
 30
0.0
 10
5.2376068955
 20
2.3723904379
 30
0.0
 10
5.2363139672
 20
2.3754766501
 30
0.0
 10
5.2353759549
 20
2.3787489354
 30
0.0
 10
5.2348493324
 20
2.3813293811
 30
0.0
 10
5.2345182093
 20
2.383988762
 30
0.0
 10
5.2343914556
 20
2.3867050166
 30
0.0
 10
5.2344676364
 20
2.3894536327
 30
0.0
 10
5.23474812
 20
2.3922095436
 30
0.0
 10
5.2352268653
 20
2.3949483599
 30
0.0
 10
5.2361116959
 20
2.3985374029
 30
0.0
 10
5.2370452665
 20
2.401153482
 30
0.0
 10
5.237771463
 20
2.402844359
 30
0.0
  0
SPLINE
  5
3D5
100
AcDbEntity
  8
ALL_ASSEMBLY_MEMBERS
100
AcDbSpline
 62
7
  6
CONTINUOUS
 70
0
 71
3
 72
23
 73
19
 74
0
 42
0.0000001
 43
0.0000001
 44
0.0000000001
 40
0.0
 40
0.0
 40
0.0
 40
0.0
 40
0.061525822
 40
0.1231281405
 40
0.1847731313
 40
0.2464733105
 40
0.3082639548
 40
0.3702371675
 40
0.4323943346
 40
0.4947749707
 40
0.5573826697
 40
0.6202066432
 40
0.6832354926
 40
0.7464016448
 40
0.8097169912
 40
0.8731360571
 40
0.9365967391
 40
1.0
 40
1.0
 40
1.0
 40
1.0
 10
5.7646655988
 20
2.454509935
 30
0.0
 10
5.7655232104
 20
2.4537612776
 30
0.0
 10
5.7671787296
 20
2.4521914667
 30
0.0
 10
5.7694456499
 20
2.4496260598
 30
0.0
 10
5.7714595782
 20
2.4468523195
 30
0.0
 10
5.7731812183
 20
2.4438834803
 30
0.0
 10
5.7745730046
 20
2.4407388025
 30
0.0
 10
5.7755960316
 20
2.4374461424
 30
0.0
 10
5.7762258564
 20
2.4340445091
 30
0.0
 10
5.776434898
 20
2.4305794332
 30
0.0
 10
5.776224337
 20
2.4271021924
 30
0.0
 10
5.7755933965
 20
2.4236643613
 30
0.0
 10
5.7745698378
 20
2.420312309
 30
0.0
 10
5.7731781823
 20
2.4170863891
 30
0.0
 10
5.771457171
 20
2.4140162666
 30
0.0
 10
5.7694441854
 20
2.4111233123
 30
0.0
 10
5.7671783071
 20
2.4084230067
 30
0.0
 10
5.7655233398
 20
2.4067541727
 30
0.0
 10
5.7646655988
 20
2.4059538192
 30
0.0
  0
SPLINE
  5
3D6
100
AcDbEntity
  8
ALL_ASSEMBLY_MEMBERS
100
AcDbSpline
 62
7
  6
CONTINUOUS
 70
0
 71
3
 72
20
 73
16
 74
0
 42
0.0000001
 43
0.0000001
 44
0.0000000001
 40
0.0
 40
0.0
 40
0.0
 40
0.0
 40
0.112594552
 40
0.1703642503
 40
0.2291950656
 40
0.2891280921
 40
0.3502163589
 40
0.4124889269
 40
0.475842021
 40
0.605170271
 40
0.6708642931
 40
0.7369039571
 40
0.8030580416
 40
0.8690722339
 40
1.0
 40
1.0
 40
1.0
 40
1.0
 10
5.2465603274
 20
2.368216012
 30
0.0
 10
5.2453573515
 20
2.3693838509
 30
0.0
 10
5.2436697634
 20
2.3712962764
 30
0.0
 10
5.2417341519
 20
2.3741104831
 30
0.0
 10
5.2404289779
 20
2.3763961279
 30
0.0
 10
5.2393013032
 20
2.3788287822
 30
0.0
 10
5.2383699462
 20
2.38139797
 30
0.0
 10
5.2376531299
 20
2.3840880551
 30
0.0
 10
5.2369934667
 20
2.3878305302
 30
0.0
 10
5.2368258082
 20
2.3916965124
 30
0.0
 10
5.2371376821
 20
2.3955744844
 30
0.0
 10
5.2376133563
 20
2.3984859009
 30
0.0
 10
5.2383149241
 20
2.4013558685
 30
0.0
 10
5.2395326376
 20
2.4050822953
 30
0.0
 10
5.2407466396
 20
2.4077657486
 30
0.0
 10
5.2416685617
 20
2.4094835919
 30
0.0
  0
SPLINE
  5
3D7
100
AcDbEntity
  8
ALL_ASSEMBLY_MEMBERS
100
AcDbSpline
 62
7
  6
CONTINUOUS
 70
0
 71
3
 72
9
 73
5
 74
0
 42
0.0000001
 43
0.0000001
 44
0.0000000001
 40
0.0
 40
0.0
 40
0.0
 40
0.0
 40
0.2533132704
 40
1.0
 40
1.0
 40
1.0
 40
1.0
 10
5.2416685617
 20
2.4094835919
 30
0.0
 10
5.2420193702
 20
2.4101372632
 30
0.0
 10
5.2434708555
 20
2.4126816408
 30
0.0
 10
5.2451742416
 20
2.4150807717
 30
0.0
 10
5.2465603274
 20
2.4167721278
 30
0.0
  0
SPLINE
  5
3D8
100
AcDbEntity
  8
ALL_ASSEMBLY_MEMBERS
100
AcDbSpline
 62
7
  6
CONTINUOUS
 70
0
 71
3
 72
17
 73
13
 74
0
 42
0.0000001
 43
0.0000001
 44
0.0000000001
 40
0.0
 40
0.0
 40
0.0
 40
0.0
 40
0.1217244991
 40
0.2554692005
 40
0.3974075671
 40
0.5412990836
 40
0.6792437255
 40
0.8041052675
 40
0.8601463498
 40
0.911529498
 40
0.9581430444
 40
1.0
 40
1.0
 40
1.0
 40
1.0
 10
5.7646655988
 20
2.4059538192
 30
0.0
 10
5.7643512222
 20
2.4079085327
 30
0.0
 10
5.7637818777
 20
2.4120258764
 30
0.0
 10
5.7631473869
 20
2.4184599548
 30
0.0
 10
5.7627379803
 20
2.4252736975
 30
0.0
 10
5.7625923088
 20
2.4321666739
 30
0.0
 10
5.7627262964
 20
2.4387821441
 30
0.0
 10
5.7630683736
 20
2.443959323
 30
0.0
 10
5.7634753714
 20
2.4477159047
 30
0.0
 10
5.7638200683
 20
2.4501979286
 30
0.0
 10
5.7642087221
 20
2.4524396256
 30
0.0
 10
5.7645083417
 20
2.4538475485
 30
0.0
 10
5.7646655988
 20
2.454509935
 30
0.0
  0
SPLINE
  5
3D9
100
AcDbEntity
  8
ALL_ASSEMBLY_MEMBERS
100
AcDbSpline
 62
7
  6
CONTINUOUS
 70
0
 71
3
 72
19
 73
15
 74
0
 42
0.0000001
 43
0.0000001
 44
0.0000000001
 40
0.0
 40
0.0
 40
0.0
 40
0.0
 40
0.1154968934
 40
0.2335497092
 40
0.3545140897
 40
0.416229342
 40
0.4787903701
 40
0.5421392024
 40
0.6062181793
 40
0.6709604939
 40
0.7362443302
 40
0.8019326857
 40
0.8678970574
 40
1.0
 40
1.0
 40
1.0
 40
1.0
 10
5.2512837313
 20
2.3722907761
 30
0.0
 10
5.250210123
 20
2.3732972856
 30
0.0
 10
5.2481679347
 20
2.3754758625
 30
0.0
 10
5.2455503386
 20
2.3791746361
 30
0.0
 10
5.2438085317
 20
2.3826053473
 30
0.0
 10
5.2427159949
 20
2.3855355981
 30
0.0
 10
5.2420551008
 20
2.3878356694
 30
0.0
 10
5.2415658225
 20
2.3902088842
 30
0.0
 10
5.2412574326
 20
2.3926404524
 30
0.0
 10
5.2411364217
 20
2.3951131287
 30
0.0
 10
5.2412014634
 20
2.3976082917
 30
0.0
 10
5.241453686
 20
2.4001073747
 30
0.0
 10
5.2420345598
 20
2.4034195677
 30
0.0
 10
5.2427316938
 20
2.4058559298
 30
0.0
 10
5.2433016712
 20
2.4074397089
 30
0.0
  0
SPLINE
  5
3DA
100
AcDbEntity
  8
ALL_ASSEMBLY_MEMBERS
100
AcDbSpline
 62
7
  6
CONTINUOUS
 70
0
 71
3
 72
10
 73
6
 74
0
 42
0.0000001
 43
0.0000001
 44
0.0000000001
 40
0.0
 40
0.0
 40
0.0
 40
0.0
 40
0.5043908074
 40
0.7537208168
 40
1.0
 40
1.0
 40
1.0
 40
1.0
 10
5.2433016712
 20
2.4074397089
 30
0.0
 10
5.2441942333
 20
2.4099198443
 30
0.0
 10
5.2459182201
 20
2.4134986725
 30
0.0
 10
5.2488199108
 20
2.4178491864
 30
0.0
 10
5.2504395323
 20
2.4198754365
 30
0.0
 10
5.2512837313
 20
2.4208468919
 30
0.0
  0
SPLINE
  5
3DB
100
AcDbEntity
  8
ALL_ASSEMBLY_MEMBERS
100
AcDbSpline
 62
7
  6
CONTINUOUS
 70
0
 71
3
 72
21
 73
17
 74
0
 42
0.0000001
 43
0.0000001
 44
0.0000000001
 40
0.0
 40
0.0
 40
0.0
 40
0.0
 40
0.1165520748
 40
0.1759051179
 40
0.2360295864
 40
0.2969938145
 40
0.3588811473
 40
0.4216274815
 40
0.4851603322
 40
0.5493195465
 40
0.6139103134
 40
0.6787325658
 40
0.7435479168
 40
0.8082318306
 40
0.8726373428
 40
1.0
 40
1.0
 40
1.0
 40
1.0
 10
5.2576880774
 20
2.3762957324
 30
0.0
 10
5.2561291433
 20
2.3777179
 30
0.0
 10
5.2539591603
 20
2.3800820104
 30
0.0
 10
5.2515572109
 20
2.3836229173
 30
0.0
 10
5.2500072835
 20
2.3865059351
 30
0.0
 10
5.2487556268
 20
2.389580123
 30
0.0
 10
5.2478365332
 20
2.3928193379
 30
0.0
 10
5.2472715091
 20
2.3961860823
 30
0.0
 10
5.2470848952
 20
2.3996359763
 30
0.0
 10
5.2472752102
 20
2.4031188867
 30
0.0
 10
5.2478431221
 20
2.4065837565
 30
0.0
 10
5.2487638873
 20
2.4099836983
 30
0.0
 10
5.2500157524
 20
2.4132773559
 30
0.0
 10
5.2515644771
 20
2.4164335484
 30
0.0
 10
5.2539700011
 20
2.4204098556
 30
0.0
 10
5.2561310674
 20
2.423150997
 30
0.0
 10
5.2576880774
 20
2.4248518481
 30
0.0
  0
SPLINE
  5
3DC
100
AcDbEntity
  8
ALL_ASSEMBLY_MEMBERS
100
AcDbSpline
 62
7
  6
CONTINUOUS
 70
0
 71
3
 72
23
 73
19
 74
0
 42
0.0000001
 43
0.0000001
 44
0.0000000001
 40
0.0
 40
0.0
 40
0.0
 40
0.0
 40
0.0620963066
 40
0.1242135048
 40
0.1863008277
 40
0.2483546083
 40
0.3103961114
 40
0.3725076125
 40
0.4346879215
 40
0.4969812841
 40
0.5594062027
 40
0.6219727368
 40
0.684695354
 40
0.7475325762
 40
0.8105199417
 40
0.8736318032
 40
0.9368212875
 40
1.0
 40
1.0
 40
1.0
 40
1.0
 10
5.7837202048
 20
2.4519943225
 30
0.0
 10
5.7845859831
 20
2.4512351268
 30
0.0
 10
5.7862570897
 20
2.4496452896
 30
0.0
 10
5.7885462427
 20
2.447051754
 30
0.0
 10
5.7905799967
 20
2.444253121
 30
0.0
 10
5.7923187062
 20
2.4412630588
 30
0.0
 10
5.7937244527
 20
2.4381012352
 30
0.0
 10
5.7947579403
 20
2.4347958439
 30
0.0
 10
5.7953944016
 20
2.4313862123
 30
0.0
 10
5.7956058977
 20
2.4279180826
 30
0.0
 10
5.7953935109
 20
2.4244428934
 30
0.0
 10
5.7947563995
 20
2.4210122526
 30
0.0
 10
5.7937226096
 20
2.4176723833
 30
0.0
 10
5.792316951
 20
2.4144633881
 30
0.0
 10
5.7905786194
 20
2.4114145096
 30
0.0
 10
5.7885454223
 20
2.4085466428
 30
0.0
 10
5.7862568786
 20
2.405874763
 30
0.0
 10
5.7845860698
 20
2.4042274192
 30
0.0
 10
5.7837202048
 20
2.4034382067
 30
0.0
  0
SPLINE
  5
3DD
100
AcDbEntity
  8
ALL_ASSEMBLY_MEMBERS
100
AcDbSpline
 62
7
  6
CONTINUOUS
 70
0
 71
3
 72
21
 73
17
 74
0
 42
0.0000001
 43
0.0000001
 44
0.0000000001
 40
0.0
 40
0.0
 40
0.0
 40
0.0
 40
0.1183484995
 40
0.1783046474
 40
0.238814594
 40
0.2999437332
 40
0.3617855457
 40
0.4243026177
 40
0.4874617049
 40
0.5511547235
 40
0.6152427344
 40
0.6795803471
 40
0.7439772921
 40
0.8083461064
 40
0.8725664033
 40
1.0
 40
1.0
 40
1.0
 40
1.0
 10
5.2657399754
 20
2.3802100001
 30
0.0
 10
5.2641317458
 20
2.3816476157
 30
0.0
 10
5.2618892136
 20
2.3840333562
 30
0.0
 10
5.2593989003
 20
2.3876102299
 30
0.0
 10
5.2577944605
 20
2.3905126934
 30
0.0
 10
5.2564984638
 20
2.3936029251
 30
0.0
 10
5.2555465462
 20
2.3968544899
 30
0.0
 10
5.2549611502
 20
2.4002294639
 30
0.0
 10
5.254767592
 20
2.4036831772
 30
0.0
 10
5.2549644352
 20
2.4071651766
 30
0.0
 10
5.2555523486
 20
2.4106242464
 30
0.0
 10
5.2565056427
 20
2.4140136245
 30
0.0
 10
5.2578016794
 20
2.4172921401
 30
0.0
 10
5.2594049227
 20
2.4204290685
 30
0.0
 10
5.2618976757
 20
2.4243793462
 30
0.0
 10
5.264132735
 20
2.4270892907
 30
0.0
 10
5.2657399754
 20
2.4287661159
 30
0.0
  0
SPLINE
  5
3DE
100
AcDbEntity
  8
ALL_ASSEMBLY_MEMBERS
100
AcDbSpline
 62
7
  6
CONTINUOUS
 70
0
 71
3
 72
18
 73
14
 74
0
 42
0.0000001
 43
0.0000001
 44
0.0000000001
 40
0.0
 40
0.0
 40
0.0
 40
0.0
 40
0.1215113083
 40
0.2553861317
 40
0.3976986882
 40
0.4701164385
 40
0.5420682207
 40
0.6804092001
 40
0.8053965839
 40
0.8613386515
 40
0.9124882736
 40
0.9587119199
 40
1.0
 40
1.0
 40
1.0
 40
1.0
 10
5.7837202048
 20
2.4034382067
 30
0.0
 10
5.7835373136
 20
2.4053996797
 30
0.0
 10
5.7832065018
 20
2.4095273134
 30
0.0
 10
5.7828383656
 20
2.4159649119
 30
0.0
 10
5.7826415024
 20
2.4216137107
 30
0.0
 10
5.782558094
 20
2.4262608355
 30
0.0
 10
5.7825301313
 20
2.4308442379
 30
0.0
 10
5.7825939888
 20
2.4362801101
 30
0.0
 10
5.7827923886
 20
2.4414532495
 30
0.0
 10
5.7830288134
 20
2.4452085175
 30
0.0
 10
5.7832288235
 20
2.4476862081
 30
0.0
 10
5.7834543025
 20
2.4499230473
 30
0.0
 10
5.7836285784
 20
2.4513312474
 30
0.0
 10
5.7837202048
 20
2.4519943225
 30
0.0
  0
SPLINE
  5
3DF
100
AcDbEntity
  8
ALL_ASSEMBLY_MEMBERS
100
AcDbSpline
 62
7
  6
CONTINUOUS
 70
0
 71
3
 72
22
 73
18
 74
0
 42
0.0000001
 43
0.0000001
 44
0.0000000001
 40
0.0
 40
0.0
 40
0.0
 40
0.0
 40
0.1199669787
 40
0.1804836373
 40
0.2413663939
 40
0.3026743564
 40
0.364505931
 40
0.4268434485
 40
0.4896852119
 40
0.5529673182
 40
0.616599477
 40
0.6804850911
 40
0.744477429
 40
0.8085231346
 40
0.8725266725
 40
0.9363917628
 40
1.0
 40
1.0
 40
1.0
 40
1.0
 10
5.2753974449
 20
2.3840131714
 30
0.0
 10
5.2737475824
 20
2.3854676456
 30
0.0
 10
5.2714439984
 20
2.3878767556
 30
0.0
 10
5.2688789267
 20
2.3914896232
 30
0.0
 10
5.2672284548
 20
2.3944120933
 30
0.0
 10
5.2658949777
 20
2.3975187428
 30
0.0
 10
5.2649152677
 20
2.4007828424
 30
0.0
 10
5.2643125764
 20
2.404166069
 30
0.0
 10
5.2641130703
 20
2.4076234769
 30
0.0
 10
5.2643153771
 20
2.4111043137
 30
0.0
 10
5.2649201845
 20
2.4145572277
 30
0.0
 10
5.2659009776
 20
2.4179355532
 30
0.0
 10
5.2672344363
 20
2.4211984275
 30
0.0
 10
5.2688836156
 20
2.4243151835
 30
0.0
 10
5.2708128173
 20
2.4272633579
 30
0.0
 10
5.2729846916
 20
2.4300263161
 30
0.0
 10
5.2745736911
 20
2.4317438204
 30
0.0
 10
5.2753974449
 20
2.4325692872
 30
0.0
  0
SPLINE
  5
3E0
100
AcDbEntity
  8
ALL_ASSEMBLY_MEMBERS
100
AcDbSpline
 62
7
  6
CONTINUOUS
 70
0
 71
3
 72
22
 73
18
 74
0
 42
0.0000001
 43
0.0000001
 44
0.0000000001
 40
0.0
 40
0.0
 40
0.0
 40
0.0
 40
0.1214296512
 40
0.18247508
 40
0.2437293747
 40
0.3052424937
 40
0.3671129067
 40
0.4293357311
 40
0.4919327442
 40
0.5548757172
 40
0.6181150738
 40
0.6815964717
 40
0.7452117175
 40
0.8089384715
 40
0.8727043611
 40
0.936428365
 40
1.0
 40
1.0
 40
1.0
 40
1.0
 10
5.2866101348
 20
2.3876854177
 30
0.0
 10
5.2849264863
 20
2.3891580057
 30
0.0
 10
5.2825735779
 20
2.3915920775
 30
0.0
 10
5.2799477981
 20
2.3952408539
 30
0.0
 10
5.2782600154
 20
2.3981838104
 30
0.0
 10
5.2768961254
 20
2.401307184
 30
0.0
 10
5.2758938219
 20
2.404583944
 30
0.0
 10
5.2752770233
 20
2.4079753945
 30
0.0
 10
5.2750726056
 20
2.4114363314
 30
0.0
 10
5.2752792826
 20
2.4149157396
 30
0.0
 10
5.2758977667
 20
2.4183621487
 30
0.0
 10
5.2769008899
 20
2.4217290212
 30
0.0
 10
5.2782647112
 20
2.4249757106
 30
0.0
 10
5.2799513547
 20
2.4280720025
 30
0.0
 10
5.281924256
 20
2.4309959181
 30
0.0
 10
5.2841451674
 20
2.4337313358
 30
0.0
 10
5.2857686181
 20
2.4354272098
 30
0.0
 10
5.2866101348
 20
2.4362415335
 30
0.0
  0
SPLINE
  5
3E1
100
AcDbEntity
  8
ALL_ASSEMBLY_MEMBERS
100
AcDbSpline
 62
7
  6
CONTINUOUS
 70
0
 71
3
 72
23
 73
19
 74
0
 42
0.0000001
 43
0.0000001
 44
0.0000000001
 40
0.0
 40
0.0
 40
0.0
 40
0.0
 40
0.0613678212
 40
0.1228305198
 40
0.1843587783
 40
0.2459691781
 40
0.3077002063
 40
0.3696457805
 40
0.4318068819
 40
0.4942205237
 40
0.5568850863
 40
0.6197831237
 40
0.6828955662
 40
0.7461474042
 40
0.8095440817
 40
0.8730349334
 40
0.9365540652
 40
1.0
 40
1.0
 40
1.0
 40
1.0
 10
5.2993195852
 20
2.3912075929
 30
0.0
 10
5.2984646909
 20
2.3919536562
 30
0.0
 10
5.2968143728
 20
2.3935185526
 30
0.0
 10
5.2945548791
 20
2.3960769804
 30
0.0
 10
5.2925475744
 20
2.398844541
 30
0.0
 10
5.290831634
 20
2.4018081043
 30
0.0
 10
5.2894445019
 20
2.4049485084
 30
0.0
 10
5.2884249505
 20
2.4082379781
 30
0.0
 10
5.2877973155
 20
2.4116375873
 30
0.0
 10
5.287589063
 20
2.4151018618
 30
0.0
 10
5.2877989881
 20
2.4185795722
 30
0.0
 10
5.2884278536
 20
2.4220191591
 30
0.0
 10
5.2894479963
 20
2.4253742186
 30
0.0
 10
5.2908349915
 20
2.428604337
 30
0.0
 10
5.2925502456
 20
2.4316797405
 30
0.0
 10
5.2945565154
 20
2.4345789377
 30
0.0
 10
5.2968148611
 20
2.4372863203
 30
0.0
 10
5.2984645553
 20
2.4389605589
 30
0.0
 10
5.2993195852
 20
2.4397637087
 30
0.0
  0
SPLINE
  5
3E2
100
AcDbEntity
  8
ALL_ASSEMBLY_MEMBERS
100
AcDbSpline
 62
7
  6
CONTINUOUS
 70
0
 71
3
 72
23
 73
19
 74
0
 42
0.0000001
 43
0.0000001
 44
0.0000000001
 40
0.0
 40
0.0
 40
0.0
 40
0.0
 40
0.0619625224
 40
0.1239572048
 40
0.1859373596
 40
0.2479033574
 40
0.3098801392
 40
0.3719528226
 40
0.4341214853
 40
0.4964299752
 40
0.5588939592
 40
0.621519148
 40
0.6843142628
 40
0.7472318431
 40
0.810301824
 40
0.8734937293
 40
0.9367568534
 40
1.0
 40
1.0
 40
1.0
 40
1.0
 10
5.3134595328
 20
2.3945613335
 30
0.0
 10
5.3125953944
 20
2.3953178662
 30
0.0
 10
5.310927409
 20
2.3969026338
 30
0.0
 10
5.3086427031
 20
2.3994890938
 30
0.0
 10
5.3066129143
 20
2.4022814672
 30
0.0
 10
5.3048776206
 20
2.4052661968
 30
0.0
 10
5.3034746717
 20
2.408423719
 30
0.0
 10
5.3024432877
 20
2.4117259267
 30
0.0
 10
5.3018081697
 20
2.4151335701
 30
0.0
 10
5.3015971829
 20
2.418600958
 30
0.0
 10
5.3018092202
 20
2.4220766872
 30
0.0
 10
5.3024451056
 20
2.4255091538
 30
0.0
 10
5.3034768485
 20
2.4288520969
 30
0.0
 10
5.3048796963
 20
2.4320653499
 30
0.0
 10
5.3066145466
 20
2.4351195659
 30
0.0
 10
5.3086436796
 20
2.437993732
 30
0.0
 10
5.3109276666
 20
2.4406727473
 30
0.0
 10
5.3125952947
 20
2.4423254534
 30
0.0
 10
5.3134595328
 20
2.4431174493
 30
0.0
  0
SPLINE
  5
3E3
100
AcDbEntity
  8
ALL_ASSEMBLY_MEMBERS
100
AcDbSpline
 62
7
  6
CONTINUOUS
 70
0
 71
3
 72
23
 73
19
 74
0
 42
0.0000001
 43
0.0000001
 44
0.0000000001
 40
0.0
 40
0.0
 40
0.0
 40
0.0
 40
0.0624611901
 40
0.1249200043
 40
0.1873141171
 40
0.2496278602
 40
0.3118708548
 40
0.3741154063
 40
0.4363540761
 40
0.498629156
 40
0.5609640457
 40
0.6233782838
 40
0.6859005756
 40
0.7485051061
 40
0.8112428827
 40
0.8741021773
 40
0.9370476835
 40
1.0
 40
1.0
 40
1.0
 40
1.0
 10
5.328956256
 20
2.397729154
 30
0.0
 10
5.3280871927
 20
2.398496409
 30
0.0
 10
5.3264098757
 20
2.4001016234
 30
0.0
 10
5.3241118956
 20
2.402716445
 30
0.0
 10
5.3220702729
 20
2.4055339018
 30
0.0
 10
5.3203247765
 20
2.4085399845
 30
0.0
 10
5.3189134506
 20
2.4117147051
 30
0.0
 10
5.3178757339
 20
2.4150296014
 30
0.0
 10
5.3172365289
 20
2.4184451209
 30
0.0
 10
5.317023933
 20
2.4219153766
 30
0.0
 10
5.3172369359
 20
2.4253888439
 30
0.0
 10
5.317876437
 20
2.4288139216
 30
0.0
 10
5.3189142902
 20
2.4321445049
 30
0.0
 10
5.3203255738
 20
2.4353406897
 30
0.0
 10
5.3220708961
 20
2.4383735368
 30
0.0
 10
5.3241122635
 20
2.4412224995
 30
0.0
 10
5.3264099657
 20
2.443872973
 30
0.0
 10
5.3280871512
 20
2.4455043563
 30
0.0
 10
5.328956256
 20
2.4462852698
 30
0.0
  0
SPLINE
  5
3E4
100
AcDbEntity
  8
ALL_ASSEMBLY_MEMBERS
100
AcDbSpline
 62
7
  6
CONTINUOUS
 70
0
 71
3
 72
13
 73
9
 74
0
 42
0.0000001
 43
0.0000001
 44
0.0000000001
 40
0.0
 40
0.0
 40
0.0
 40
0.0
 40
0.2553475648
 40
0.5424317988
 40
0.6809625528
 40
0.8060115791
 40
0.9129463783
 40
1.0
 40
1.0
 40
1.0
 40
1.0
 10
5.3457289594
 20
2.4006945383
 30
0.0
 10
5.3458343392
 20
2.4048265916
 30
0.0
 10
5.3459937179
 20
2.4136059341
 30
0.0
 10
5.3460657293
 20
2.4246289573
 30
0.0
 10
5.3460372808
 20
2.4335427573
 30
0.0
 10
5.345974231
 20
2.4395401378
 30
0.0
 10
5.3458756272
 20
2.4447036257
 30
0.0
 10
5.3457822796
 20
2.447842497
 30
0.0
 10
5.3457289594
 20
2.4492506541
 30
0.0
  0
SPLINE
  5
3E5
100
AcDbEntity
  8
ALL_ASSEMBLY_MEMBERS
100
AcDbSpline
 62
7
  6
CONTINUOUS
 70
0
 71
3
 72
23
 73
19
 74
0
 42
0.0000001
 43
0.0000001
 44
0.0000000001
 40
0.0
 40
0.0
 40
0.0
 40
0.0
 40
0.0625706213
 40
0.125134581
 40
0.1876259362
 40
0.2500250665
 40
0.3123375281
 40
0.3746318394
 40
0.4368976858
 40
0.4991756773
 40
0.5614896404
 40
0.62386108
 40
0.6863224267
 40
0.7488523066
 40
0.8115064264
 40
0.8742774989
 40
0.9371340943
 40
1.0
 40
1.0
 40
1.0
 40
1.0
 10
5.3457289594
 20
2.4492506541
 30
0.0
 10
5.3448593455
 20
2.4484806976
 30
0.0
 10
5.3431810087
 20
2.4468703179
 30
0.0
 10
5.3408815887
 20
2.4442484033
 30
0.0
 10
5.3388386835
 20
2.4414246761
 30
0.0
 10
5.3370920763
 20
2.438413262
 30
0.0
 10
5.3356798272
 20
2.4352342578
 30
0.0
 10
5.3346413937
 20
2.4319162179
 30
0.0
 10
5.3340017029
 20
2.4284987669
 30
0.0
 10
5.3337888832
 20
2.4250278376
 30
0.0
 10
5.3340019477
 20
2.4215549766
 30
0.0
 10
5.3346418167
 20
2.4181317762
 30
0.0
 10
5.335680332
 20
2.4148043002
 30
0.0
 10
5.3370925555
 20
2.4116123847
 30
0.0
 10
5.3388390577
 20
2.408584871
 30
0.0
 10
5.3408818094
 20
2.4057421921
 30
0.0
 10
5.3431810621
 20
2.4030988317
 30
0.0
 10
5.3448593203
 20
2.4014727106
 30
0.0
 10
5.3457289594
 20
2.4006945383
 30
0.0
  0
SPLINE
  5
3E6
100
AcDbEntity
  8
ALL_ASSEMBLY_MEMBERS
100
AcDbSpline
 62
7
  6
CONTINUOUS
 70
0
 71
3
 72
18
 73
14
 74
0
 42
0.0000001
 43
0.0000001
 44
0.0000000001
 40
0.0
 40
0.0
 40
0.0
 40
0.0
 40
0.1215115375
 40
0.2553862176
 40
0.3976983686
 40
0.470115867
 40
0.5420673937
 40
0.6804079458
 40
0.8053951911
 40
0.8613373634
 40
0.9124872361
 40
0.9587113035
 40
1.0
 40
1.0
 40
1.0
 40
1.0
 10
5.3636901949
 20
2.4034420257
 30
0.0
 10
5.3638732781
 20
2.4054034914
 30
0.0
 10
5.3642044376
 20
2.4095311142
 30
0.0
 10
5.3645729613
 20
2.4159687089
 30
0.0
 10
5.3647700318
 20
2.4216175083
 30
0.0
 10
5.364853528
 20
2.4262646331
 30
0.0
 10
5.3648815201
 20
2.4308480364
 30
0.0
 10
5.3648175953
 20
2.4362839147
 30
0.0
 10
5.3646189866
 20
2.4414570584
 30
0.0
 10
5.3643823132
 20
2.4452123278
 30
0.0
 10
5.3641820926
 20
2.4476900231
 30
0.0
 10
5.3639563762
 20
2.4499268674
 30
0.0
 10
5.3637819173
 20
2.4513350672
 30
0.0
 10
5.3636901949
 20
2.4519981415
 30
0.0
  0
SPLINE
  5
3E7
100
AcDbEntity
  8
ALL_ASSEMBLY_MEMBERS
100
AcDbSpline
 62
7
  6
CONTINUOUS
 70
0
 71
3
 72
23
 73
19
 74
0
 42
0.0000001
 43
0.0000001
 44
0.0000000001
 40
0.0
 40
0.0
 40
0.0
 40
0.0
 40
0.0620955487
 40
0.1242120491
 40
0.1862987585
 40
0.2483520328
 40
0.3103931579
 40
0.372504426
 40
0.4346846559
 40
0.4969780922
 40
0.5594032232
 40
0.6219700856
 40
0.6846931149
 40
0.7475307992
 40
0.8105186452
 40
0.8736309769
 40
0.9368208986
 40
1.0
 40
1.0
 40
1.0
 40
1.0
 10
5.3636901949
 20
2.4519981415
 30
0.0
 10
5.3628244253
 20
2.4512389613
 30
0.0
 10
5.3611533353
 20
2.4496491535
 30
0.0
 10
5.3588642059
 20
2.447055659
 30
0.0
 10
5.356830473
 20
2.4442570623
 30
0.0
 10
5.3550917816
 20
2.441267031
 30
0.0
 10
5.3536860499
 20
2.4381052323
 30
0.0
 10
5.3526525735
 20
2.4347998594
 30
0.0
 10
5.3520161193
 20
2.4313902393
 30
0.0
 10
5.351804626
 20
2.4279221139
 30
0.0
 10
5.352017011
 20
2.4244469215
 30
0.0
 10
5.3526541159
 20
2.4210162701
 30
0.0
 10
5.3536878949
 20
2.417676383
 30
0.0
 10
5.3550935386
 20
2.414467363
 30
0.0
 10
5.3568318517
 20
2.4114184536
 30
0.0
 10
5.3588650272
 20
2.4085505503
 30
0.0
 10
5.3611535466
 20
2.4058786291
 30
0.0
 10
5.3628243386
 20
2.4042312543
 30
0.0
 10
5.3636901949
 20
2.4034420257
 30
0.0
  0
SPLINE
  5
3E8
100
AcDbEntity
  8
ALL_ASSEMBLY_MEMBERS
100
AcDbSpline
 62
7
  6
CONTINUOUS
 70
0
 71
3
 72
17
 73
13
 74
0
 42
0.0000001
 43
0.0000001
 44
0.0000000001
 40
0.0
 40
0.0
 40
0.0
 40
0.0
 40
0.1217248858
 40
0.2554693498
 40
0.3974070366
 40
0.5412976916
 40
0.6792416168
 40
0.8041029322
 40
0.8601441942
 40
0.9115277658
 40
0.958142018
 40
1.0
 40
1.0
 40
1.0
 40
1.0
 10
5.3827463179
 20
2.4059572917
 30
0.0
 10
5.3830608835
 20
2.407911993
 30
0.0
 10
5.3836305717
 20
2.4120293178
 30
0.0
 10
5.3842654471
 20
2.4184633896
 30
0.0
 10
5.384675102
 20
2.4252771307
 30
0.0
 10
5.3848208617
 20
2.4321701112
 30
0.0
 10
5.3846867928
 20
2.4387855916
 30
0.0
 10
5.3843445079
 20
2.4439627779
 30
0.0
 10
5.3839372642
 20
2.4477193619
 30
0.0
 10
5.3835923584
 20
2.4502013938
 30
0.0
 10
5.383203469
 20
2.4524430996
 30
0.0
 10
5.3829036691
 20
2.4538510221
 30
0.0
 10
5.3827463179
 20
2.4545134075
 30
0.0
  0
SPLINE
  5
3E9
100
AcDbEntity
  8
ALL_ASSEMBLY_MEMBERS
100
AcDbSpline
 62
7
  6
CONTINUOUS
 70
0
 71
3
 72
23
 73
19
 74
0
 42
0.0000001
 43
0.0000001
 44
0.0000000001
 40
0.0
 40
0.0
 40
0.0
 40
0.0
 40
0.0615249242
 40
0.1231264459
 40
0.184770768
 40
0.2464704294
 40
0.3082607252
 40
0.3702337699
 40
0.4323909481
 40
0.4947717617
 40
0.5573797764
 40
0.6202041677
 40
0.6832334935
 40
0.7464001387
 40
0.8097159578
 40
0.8731354458
 40
0.9365964767
 40
1.0
 40
1.0
 40
1.0
 40
1.0
 10
5.3827463179
 20
2.4545134075
 30
0.0
 10
5.3818887212
 20
2.4537647652
 30
0.0
 10
5.3802332307
 20
2.4521949828
 30
0.0
 10
5.3779663512
 20
2.4496296165
 30
0.0
 10
5.3759524594
 20
2.446855912
 30
0.0
 10
5.3742308507
 20
2.4438871034
 30
0.0
 10
5.3728390899
 20
2.4407424504
 30
0.0
 10
5.3718160821
 20
2.4374498088
 30
0.0
 10
5.3711862694
 20
2.4340481871
 30
0.0
 10
5.3709772322
 20
2.4305831159
 30
0.0
 10
5.3711877897
 20
2.4271058723
 30
0.0
 10
5.3718187188
 20
2.423668031
 30
0.0
 10
5.3728422586
 20
2.4203159613
 30
0.0
 10
5.3742338885
 20
2.417090017
 30
0.0
 10
5.3759548681
 20
2.4140198638
 30
0.0
 10
5.3779678167
 20
2.4111268733
 30
0.0
 10
5.3802336535
 20
2.4084265266
 30
0.0
 10
5.3818885917
 20
2.4067576614
 30
0.0
 10
5.3827463179
 20
2.4059572917
 30
0.0
  0
SPLINE
  5
3EA
100
AcDbEntity
  8
ALL_ASSEMBLY_MEMBERS
100
AcDbSpline
 62
7
  6
CONTINUOUS
 70
0
 71
3
 72
18
 73
14
 74
0
 42
0.0000001
 43
0.0000001
 44
0.0000000001
 40
0.0
 40
0.0
 40
0.0
 40
0.0
 40
0.1220385668
 40
0.2555884211
 40
0.3969680209
 40
0.5401496597
 40
0.6775039883
 40
0.7417850769
 40
0.8022002479
 40
0.8583899471
 40
0.9101201734
 40
0.9573092924
 40
1.0
 40
1.0
 40
1.0
 40
1.0
 10
5.4027979752
 20
2.4082272224
 30
0.0
 10
5.4032415146
 20
2.4101718603
 30
0.0
 10
5.4040461962
 20
2.4142736066
 30
0.0
 10
5.4049449146
 20
2.4207020508
 30
0.0
 10
5.4055248728
 20
2.4275144276
 30
0.0
 10
5.4057310599
 20
2.4344105793
 30
0.0
 10
5.4055696808
 20
2.4400479591
 30
0.0
 10
5.4052335854
 20
2.4443184001
 30
0.0
 10
5.404897453
 20
2.4472562856
 30
0.0
 10
5.4044808654
 20
2.4499765249
 30
0.0
 10
5.4039927457
 20
2.4524650216
 30
0.0
 10
5.4034422307
 20
2.4547139176
 30
0.0
 10
5.4030194063
 20
2.456121677
 30
0.0
 10
5.4027979752
 20
2.4567833381
 30
0.0
  0
SPLINE
  5
3EB
100
AcDbEntity
  8
ALL_ASSEMBLY_MEMBERS
100
AcDbSpline
 62
7
  6
CONTINUOUS
 70
0
 71
3
 72
22
 73
18
 74
0
 42
0.0000001
 43
0.0000001
 44
0.0000000001
 40
0.0
 40
0.0
 40
0.0
 40
0.0
 40
0.121767554
 40
0.1829385993
 40
0.244284114
 40
0.3058514408
 40
0.3677383214
 40
0.4299419666
 40
0.4924887438
 40
0.5553578822
 40
0.6185086022
 40
0.6818960283
 40
0.7454207254
 40
0.8090675631
 40
0.8727697403
 40
0.9364499998
 40
1.0
 40
1.0
 40
1.0
 40
1.0
 10
5.4027979752
 20
2.4567833381
 30
0.0
 10
5.4011071568
 20
2.4553060642
 30
0.0
 10
5.3987438181
 20
2.4528655519
 30
0.0
 10
5.3961051558
 20
2.4492078674
 30
0.0
 10
5.3944094639
 20
2.4462597497
 30
0.0
 10
5.3930391237
 20
2.4431321738
 30
0.0
 10
5.3920320184
 20
2.4398522493
 30
0.0
 10
5.3914122136
 20
2.4364587593
 30
0.0
 10
5.3912067402
 20
2.4329969699
 30
0.0
 10
5.3914143304
 20
2.4295179564
 30
0.0
 10
5.3920357102
 20
2.4260732148
 30
0.0
 10
5.3930435722
 20
2.4227092507
 30
0.0
 10
5.394413839
 20
2.4194666534
 30
0.0
 10
5.3961084393
 20
2.4163755274
 30
0.0
 10
5.3980906191
 20
2.4134577284
 30
0.0
 10
5.4003219408
 20
2.41072925
 30
0.0
 10
5.4019526953
 20
2.4090387656
 30
0.0
 10
5.4027979752
 20
2.4082272224
 30
0.0
  0
SPLINE
  5
3EC
100
AcDbEntity
  8
ALL_ASSEMBLY_MEMBERS
100
AcDbSpline
 62
7
  6
CONTINUOUS
 70
0
 71
3
 72
18
 73
14
 74
0
 42
0.0000001
 43
0.0000001
 44
0.0000000001
 40
0.0
 40
0.0
 40
0.0
 40
0.0
 40
0.1224438952
 40
0.2557460753
 40
0.3964097403
 40
0.5386820948
 40
0.675284037
 40
0.7393695909
 40
0.7997651865
 40
0.8561507167
 40
0.9083294654
 40
0.9562545533
 40
1.0
 40
1.0
 40
1.0
 40
1.0
 10
5.4237406233
 20
2.4102399829
 30
0.0
 10
5.4243097214
 20
2.4121716116
 30
0.0
 10
5.4253444105
 20
2.4162527346
 30
0.0
 10
5.4265033384
 20
2.4226732569
 30
0.0
 10
5.4272512612
 20
2.4294835342
 30
0.0
 10
5.4275171235
 20
2.4363840099
 30
0.0
 10
5.4273087072
 20
2.4420272022
 30
0.0
 10
5.4268759643
 20
2.4463003345
 30
0.0
 10
5.4264427949
 20
2.4492442908
 30
0.0
 10
5.4259058714
 20
2.4519718181
 30
0.0
 10
5.425276636
 20
2.4544687169
 30
0.0
 10
5.4245668554
 20
2.4567268752
 30
0.0
 10
5.4240241598
 20
2.4581348872
 30
0.0
 10
5.4237406233
 20
2.4587960987
 30
0.0
  0
SPLINE
  5
3ED
100
AcDbEntity
  8
ALL_ASSEMBLY_MEMBERS
100
AcDbSpline
 62
7
  6
CONTINUOUS
 70
0
 71
3
 72
22
 73
18
 74
0
 42
0.0000001
 43
0.0000001
 44
0.0000000001
 40
0.0
 40
0.0
 40
0.0
 40
0.0
 40
0.1203467549
 40
0.1809985916
 40
0.2419745362
 40
0.3033316757
 40
0.3651688713
 40
0.4274722843
 40
0.4902468308
 40
0.5534382971
 40
0.6169672899
 40
0.6807483626
 40
0.7446448533
 40
0.8086114179
 40
0.8725584446
 40
0.9363934758
 40
1.0
 40
1.0
 40
1.0
 40
1.0
 10
5.4237406233
 20
2.4587960987
 30
0.0
 10
5.4220816109
 20
2.4573372273
 30
0.0
 10
5.4197646451
 20
2.4549220471
 30
0.0
 10
5.4171831341
 20
2.451300229
 30
0.0
 10
5.4155225513
 20
2.4483727013
 30
0.0
 10
5.4141808365
 20
2.445261915
 30
0.0
 10
5.4131950105
 20
2.4419946736
 30
0.0
 10
5.4125885058
 20
2.4386093951
 30
0.0
 10
5.4123876788
 20
2.4351510917
 30
0.0
 10
5.4125911765
 20
2.4316705845
 30
0.0
 10
5.4131996925
 20
2.4282192579
 30
0.0
 10
5.414186534
 20
2.4248437462
 30
0.0
 10
5.4155282132
 20
2.4215848593
 30
0.0
 10
5.4171875352
 20
2.4184731514
 30
0.0
 10
5.4191285679
 20
2.4155309652
 30
0.0
 10
5.4213137197
 20
2.4127748077
 30
0.0
 10
5.4229120547
 20
2.4110626816
 30
0.0
 10
5.4237406233
 20
2.4102399829
 30
0.0
  0
SPLINE
  5
3EE
100
AcDbEntity
  8
ALL_ASSEMBLY_MEMBERS
100
AcDbSpline
 62
7
  6
CONTINUOUS
 70
0
 71
3
 72
17
 73
13
 74
0
 42
0.0000001
 43
0.0000001
 44
0.0000000001
 40
0.0
 40
0.0
 40
0.0
 40
0.0
 40
0.1229288314
 40
0.2559454864
 40
0.3957666318
 40
0.5369668877
 40
0.6726878624
 40
0.7968865027
 40
0.8535139778
 40
0.9062304775
 40
0.955024806
 40
1.0
 40
1.0
 40
1.0
 40
1.0
 10
5.4454650733
 20
2.4119850794
 30
0.0
 10
5.4461555296
 20
2.4139011474
 30
0.0
 10
5.4474138581
 20
2.4179569468
 30
0.0
 10
5.4488281518
 20
2.4243670564
 30
0.0
 10
5.4497409827
 20
2.4311742283
 30
0.0
 10
5.4500654347
 20
2.4380804579
 30
0.0
 10
5.4497654075
 20
2.4447291551
 30
0.0
 10
5.4490012981
 20
2.449929406
 30
0.0
 10
5.4481004729
 20
2.4536945516
 30
0.0
 10
5.4473329523
 20
2.4562016299
 30
0.0
 10
5.4464671487
 20
2.4584708768
 30
0.0
 10
5.4458084492
 20
2.4598798823
 30
0.0
 10
5.4454650733
 20
2.4605411952
 30
0.0
  0
SPLINE
  5
3EF
100
AcDbEntity
  8
ALL_ASSEMBLY_MEMBERS
100
AcDbSpline
 62
7
  6
CONTINUOUS
 70
0
 71
3
 72
21
 73
17
 74
0
 42
0.0000001
 43
0.0000001
 44
0.0000000001
 40
0.0
 40
0.0
 40
0.0
 40
0.0
 40
0.1187700487
 40
0.1788707412
 40
0.2394756959
 40
0.3006490354
 40
0.3624859419
 40
0.4249545682
 40
0.4880302595
 40
0.5516166913
 40
0.615587739
 40
0.6798107293
 40
0.7441066718
 40
0.8083968763
 40
0.8725672973
 40
1.0
 40
1.0
 40
1.0
 40
1.0
 10
5.4454650733
 20
2.4605411952
 30
0.0
 10
5.4438457569
 20
2.459099509
 30
0.0
 10
5.4415869438
 20
2.4567081087
 30
0.0
 10
5.4390767315
 20
2.453122274
 30
0.0
 10
5.4374600307
 20
2.4502148801
 30
0.0
 10
5.4361540547
 20
2.4471205941
 30
0.0
 10
5.4351947418
 20
2.4438659244
 30
0.0
 10
5.4346047486
 20
2.4404888964
 30
0.0
 10
5.434409615
 20
2.4370342504
 30
0.0
 10
5.434607919
 20
2.433552516
 30
0.0
 10
5.4352003318
 20
2.4300949465
 30
0.0
 10
5.4361609497
 20
2.426708273
 30
0.0
 10
5.4374669334
 20
2.4234336177
 30
0.0
 10
5.4390824525
 20
2.4203015913
 30
0.0
 10
5.4415948668
 20
2.4163580717
 30
0.0
 10
5.4438465643
 20
2.4136559402
 30
0.0
 10
5.4454650733
 20
2.4119850794
 30
0.0
  0
SPLINE
  5
3F0
100
AcDbEntity
  8
ALL_ASSEMBLY_MEMBERS
100
AcDbSpline
 62
7
  6
CONTINUOUS
 70
0
 71
3
 72
17
 73
13
 74
0
 42
0.0000001
 43
0.0000001
 44
0.0000000001
 40
0.0
 40
0.0
 40
0.0
 40
0.0
 40
0.1234653806
 40
0.2561572122
 40
0.3950261314
 40
0.5350170534
 40
0.6697510691
 40
0.7936813293
 40
0.8505875789
 40
0.9039105678
 40
0.9536726161
 40
1.0
 40
1.0
 40
1.0
 40
1.0
 10
5.4678580602
 20
2.4134534135
 30
0.0
 10
5.468665017
 20
2.4153517877
 30
0.0
 10
5.4701393086
 20
2.4193779908
 30
0.0
 10
5.4718028483
 20
2.4257748889
 30
0.0
 10
5.4728767951
 20
2.4325780197
 30
0.0
 10
5.4732583449
 20
2.4394903448
 30
0.0
 10
5.4729045653
 20
2.4461549103
 30
0.0
 10
5.4720050118
 20
2.4513657375
 30
0.0
 10
5.4709488655
 20
2.4551354994
 30
0.0
 10
5.4700467323
 20
2.4576543174
 30
0.0
 10
5.4690290597
 20
2.4599362974
 30
0.0
 10
5.4682588125
 20
2.4613473526
 30
0.0
 10
5.4678580602
 20
2.4620095293
 30
0.0
  0
SPLINE
  5
3F1
100
AcDbEntity
  8
ALL_ASSEMBLY_MEMBERS
100
AcDbSpline
 62
7
  6
CONTINUOUS
 70
0
 71
3
 72
21
 73
17
 74
0
 42
0.0000001
 43
0.0000001
 44
0.0000000001
 40
0.0
 40
0.0
 40
0.0
 40
0.0
 40
0.1170144809
 40
0.1765209247
 40
0.2367418624
 40
0.2977452393
 40
0.3596174238
 40
0.4223016015
 40
0.4857357509
 40
0.5497733761
 40
0.6142342073
 40
0.6789322989
 40
0.7436416458
 40
0.808247211
 40
0.8726088121
 40
1.0
 40
1.0
 40
1.0
 40
1.0
 10
5.4678580602
 20
2.4620095293
 30
0.0
 10
5.4662861504
 20
2.4605836573
 30
0.0
 10
5.4640970482
 20
2.458214333
 30
0.0
 10
5.4616718602
 20
2.4546644818
 30
0.0
 10
5.4601075862
 20
2.4517766805
 30
0.0
 10
5.4588442645
 20
2.4486985377
 30
0.0
 10
5.4579165404
 20
2.4454562694
 30
0.0
 10
5.4573461646
 20
2.4420874816
 30
0.0
 10
5.4571577314
 20
2.4386366275
 30
0.0
 10
5.4573497688
 20
2.4351539213
 30
0.0
 10
5.4579229439
 20
2.4316904606
 30
0.0
 10
5.4588522648
 20
2.4282931013
 30
0.0
 10
5.4601157474
 20
2.425003155
 30
0.0
 10
5.4616788118
 20
2.4218516896
 30
0.0
 10
5.4641072645
 20
2.4178816889
 30
0.0
 10
5.4662878094
 20
2.4151482775
 30
0.0
 10
5.4678580602
 20
2.4134534135
 30
0.0
  0
SPLINE
  5
3F2
100
AcDbEntity
  8
ALL_ASSEMBLY_MEMBERS
100
AcDbSpline
 62
7
  6
CONTINUOUS
 70
0
 71
3
 72
18
 73
14
 74
0
 42
0.0000001
 43
0.0000001
 44
0.0000000001
 40
0.0
 40
0.0
 40
0.0
 40
0.0
 40
0.1240313464
 40
0.2563652482
 40
0.3941980717
 40
0.4638217526
 40
0.5329413662
 40
0.6008011918
 40
0.6666853488
 40
0.7903425679
 40
0.8475582518
 40
0.9015388668
 40
1.0
 40
1.0
 40
1.0
 40
1.0
 10
5.4908028334
 20
2.4146373296
 30
0.0
 10
5.4917208895
 20
2.4165162774
 30
0.0
 10
5.4934022451
 20
2.4205091746
 30
0.0
 10
5.4953076664
 20
2.4268894481
 30
0.0
 10
5.4963300459
 20
2.4325405292
 30
0.0
 10
5.4967594668
 20
2.4371862632
 30
0.0
 10
5.4968684245
 20
2.440670215
 30
0.0
 10
5.4967634438
 20
2.4440915506
 30
0.0
 10
5.4963462138
 20
2.4484133879
 30
0.0
 10
5.495537474
 20
2.4525114277
 30
0.0
 10
5.4943318472
 20
2.4562871445
 30
0.0
 10
5.4929965775
 20
2.4595624554
 30
0.0
 10
5.4917420209
 20
2.4618245449
 30
0.0
 10
5.4908028334
 20
2.4631934454
 30
0.0
  0
SPLINE
  5
3F3
100
AcDbEntity
  8
ALL_ASSEMBLY_MEMBERS
100
AcDbSpline
 62
7
  6
CONTINUOUS
 70
0
 71
3
 72
21
 73
17
 74
0
 42
0.0000001
 43
0.0000001
 44
0.0000000001
 40
0.0
 40
0.0
 40
0.0
 40
0.0
 40
0.1150968092
 40
0.1739743986
 40
0.2338060623
 40
0.2946598101
 40
0.3566077825
 40
0.4195613358
 40
0.4834137515
 40
0.5479610417
 40
0.6129621811
 40
0.6781725821
 40
0.7433149767
 40
0.8082351312
 40
0.8727649248
 40
1.0
 40
1.0
 40
1.0
 40
1.0
 10
5.4908028334
 20
2.4631934454
 30
0.0
 10
5.4892858411
 20
2.4617818532
 30
0.0
 10
5.4871777503
 20
2.4594327665
 30
0.0
 10
5.4848507925
 20
2.4559187941
 30
0.0
 10
5.483347213
 20
2.453049967
 30
0.0
 10
5.4821332212
 20
2.4499875446
 30
0.0
 10
5.481241972
 20
2.4467574478
 30
0.0
 10
5.4806941956
 20
2.4433968368
 30
0.0
 10
5.4805134242
 20
2.439949869
 30
0.0
 10
5.4806981592
 20
2.4364664282
 30
0.0
 10
5.4812490744
 20
2.4329974482
 30
0.0
 10
5.4821422224
 20
2.429589912
 30
0.0
 10
5.4833565895
 20
2.4262853051
 30
0.0
 10
5.4848590225
 20
2.4231151462
 30
0.0
 10
5.487190605
 20
2.419120534
 30
0.0
 10
5.4892887049
 20
2.4163562543
 30
0.0
 10
5.4908028334
 20
2.4146373296
 30
0.0
  0
SPLINE
  5
3F4
100
AcDbEntity
  8
ALL_ASSEMBLY_MEMBERS
100
AcDbSpline
 62
7
  6
CONTINUOUS
 70
0
 71
3
 72
17
 73
13
 74
0
 42
0.0000001
 43
0.0000001
 44
0.0000000001
 40
0.0
 40
0.0
 40
0.0
 40
0.0
 40
0.2562323211
 40
0.3930439412
 40
0.4620252813
 40
0.5304974371
 40
0.597777749
 40
0.6632247843
 40
0.7263573624
 40
0.7867783756
 40
0.8989610997
 40
1.0
 40
1.0
 40
1.0
 40
1.0
 10
5.5141797656
 20
2.4155306552
 30
0.0
 10
5.5162829262
 20
2.4193496369
 30
0.0
 10
5.5187999621
 20
2.4256353174
 30
0.0
 10
5.5203683758
 20
2.4333548262
 30
0.0
 10
5.520850026
 20
2.4380001997
 30
0.0
 10
5.5209720042
 20
2.4414843332
 30
0.0
 10
5.5208542919
 20
2.4449086668
 30
0.0
 10
5.5204958092
 20
2.4482249045
 30
0.0
 10
5.5199118
 20
2.4513907027
 30
0.0
 10
5.5188754886
 20
2.4552690287
 30
0.0
 10
5.5171422062
 20
2.4596143906
 30
0.0
 10
5.5152211702
 20
2.462718903
 30
0.0
 10
5.5141797656
 20
2.464086771
 30
0.0
  0
SPLINE
  5
3F5
100
AcDbEntity
  8
ALL_ASSEMBLY_MEMBERS
100
AcDbSpline
 62
7
  6
CONTINUOUS
 70
0
 71
3
 72
21
 73
17
 74
0
 42
0.0000001
 43
0.0000001
 44
0.0000000001
 40
0.0
 40
0.0
 40
0.0
 40
0.0
 40
0.0560568702
 40
0.113147785
 40
0.1713643851
 40
0.2308026746
 40
0.2915263873
 40
0.3535877924
 40
0.41685979
 40
0.4811842618
 40
0.5462933111
 40
0.6118794962
 40
0.6776350113
 40
0.7432276175
 40
0.8730269765
 40
1.0
 40
1.0
 40
1.0
 40
1.0
 10
5.5141797656
 20
2.464086771
 30
0.0
 10
5.5134582286
 20
2.4633928889
 30
0.0
 10
5.512064795
 20
2.4619250651
 30
0.0
 10
5.5101724183
 20
2.459514443
 30
0.0
 10
5.5084925418
 20
2.456878421
 30
0.0
 10
5.5070578966
 20
2.4540281845
 30
0.0
 10
5.5058995464
 20
2.4509809124
 30
0.0
 10
5.5050494616
 20
2.4477627189
 30
0.0
 10
5.5045271195
 20
2.4444101576
 30
0.0
 10
5.5043549208
 20
2.4409671301
 30
0.0
 10
5.504531366
 20
2.437483163
 30
0.0
 10
5.5050571104
 20
2.4340090775
 30
0.0
 10
5.5059094979
 20
2.4305918084
 30
0.0
 10
5.5074486657
 20
2.4261838512
 30
0.0
 10
5.5100449784
 20
2.4210144672
 30
0.0
 10
5.5127294532
 20
2.4172736047
 30
0.0
 10
5.5141797656
 20
2.4155306552
 30
0.0
  0
SPLINE
  5
3F6
100
AcDbEntity
  8
ALL_ASSEMBLY_MEMBERS
100
AcDbSpline
 62
7
  6
CONTINUOUS
 70
0
 71
3
 72
19
 73
15
 74
0
 42
0.0000001
 43
0.0000001
 44
0.0000000001
 40
0.0
 40
0.0
 40
0.0
 40
0.0
 40
0.1251782099
 40
0.2567327081
 40
0.3242614323
 40
0.392440447
 40
0.4606949848
 40
0.5284383194
 40
0.595064174
 40
0.660008414
 40
0.722859174
 40
0.7832805786
 40
0.8964662837
 40
1.0
 40
1.0
 40
1.0
 40
1.0
 10
5.5378669762
 20
2.4161287328
 30
0.0
 10
5.538989312
 20
2.4179650305
 30
0.0
 10
5.5410539246
 20
2.4218813173
 30
0.0
 10
5.543005446
 20
2.4271216606
 30
0.0
 10
5.5441691708
 20
2.4315700028
 30
0.0
 10
5.5448166221
 20
2.4350194193
 30
0.0
 10
5.5452160742
 20
2.4385100914
 30
0.0
 10
5.5453504747
 20
2.4419944509
 30
0.0
 10
5.5452205126
 20
2.4454222237
 30
0.0
 10
5.5448249887
 20
2.4487449593
 30
0.0
 10
5.5441806446
 20
2.4519201309
 30
0.0
 10
5.5430344046
 20
2.4558246662
 30
0.0
 10
5.5411101508
 20
2.4602119567
 30
0.0
 10
5.5390041937
 20
2.4633154931
 30
0.0
 10
5.5378669762
 20
2.4646848486
 30
0.0
  0
SPLINE
  5
3F7
100
AcDbEntity
  8
ALL_ASSEMBLY_MEMBERS
100
AcDbSpline
 62
7
  6
CONTINUOUS
 70
0
 71
3
 72
21
 73
17
 74
0
 42
0.0000001
 43
0.0000001
 44
0.0000000001
 40
0.0
 40
0.0
 40
0.0
 40
0.0
 40
0.054814234
 40
0.1109302619
 40
0.1684595129
 40
0.2275041368
 40
0.2881186851
 40
0.3503297929
 40
0.4139656791
 40
0.4788109213
 40
0.5445283542
 40
0.6107395314
 40
0.6770697484
 40
0.7431287191
 40
0.8733805037
 40
1.0
 40
1.0
 40
1.0
 40
1.0
 10
5.5378669762
 20
2.4646848486
 30
0.0
 10
5.5371816034
 20
2.4639980662
 30
0.0
 10
5.535858123
 20
2.4625430726
 30
0.0
 10
5.5340654401
 20
2.4601547706
 30
0.0
 10
5.5324744236
 20
2.4575388252
 30
0.0
 10
5.5311159849
 20
2.4547061354
 30
0.0
 10
5.5300194294
 20
2.4516735451
 30
0.0
 10
5.5292149064
 20
2.4484668761
 30
0.0
 10
5.5287206883
 20
2.4451221909
 30
0.0
 10
5.5285579186
 20
2.441683103
 30
0.0
 10
5.5287251239
 20
2.4381988114
 30
0.0
 10
5.5292229785
 20
2.434719982
 30
0.0
 10
5.5300300869
 20
2.4312936927
 30
0.0
 10
5.5314859422
 20
2.4268733897
 30
0.0
 10
5.5339386031
 20
2.4216819866
 30
0.0
 10
5.5364879835
 20
2.4178955675
 30
0.0
 10
5.5378669762
 20
2.4161287328
 30
0.0
  0
SPLINE
  5
3F8
100
AcDbEntity
  8
ALL_ASSEMBLY_MEMBERS
100
AcDbSpline
 62
7
  6
CONTINUOUS
 70
0
 71
3
 72
19
 73
15
 74
0
 42
0.0000001
 43
0.0000001
 44
0.0000000001
 40
0.0
 40
0.0
 40
0.0
 40
0.0
 40
0.1257225831
 40
0.2568676469
 40
0.3239079196
 40
0.3914660403
 40
0.459029501
 40
0.5260829349
 40
0.5920970752
 40
0.6565851842
 40
0.7192036908
 40
0.7796754602
 40
0.8939492003
 40
1.0
 40
1.0
 40
1.0
 40
1.0
 10
5.5617409668
 20
2.416428444
 30
0.0
 10
5.5629557923
 20
2.4182420952
 30
0.0
 10
5.5651947794
 20
2.4221166427
 30
0.0
 10
5.5673240313
 20
2.4273435205
 30
0.0
 10
5.5685916436
 20
2.4317839543
 30
0.0
 10
5.5692960339
 20
2.4352263383
 30
0.0
 10
5.5697305865
 20
2.4387134587
 30
0.0
 10
5.5698767186
 20
2.4421979169
 30
0.0
 10
5.5697351146
 20
2.4456293377
 30
0.0
 10
5.569304492
 20
2.4489590184
 30
0.0
 10
5.5686030239
 20
2.4521442158
 30
0.0
 10
5.5673520805
 20
2.4560760695
 30
0.0
 10
5.5652454692
 20
2.4605055527
 30
0.0
 10
5.5629675589
 20
2.4636112175
 30
0.0
 10
5.5617409668
 20
2.4649845598
 30
0.0
  0
SPLINE
  5
3F9
100
AcDbEntity
  8
ALL_ASSEMBLY_MEMBERS
100
AcDbSpline
 62
7
  6
CONTINUOUS
 70
0
 71
3
 72
21
 73
17
 74
0
 42
0.0000001
 43
0.0000001
 44
0.0000000001
 40
0.0
 40
0.0
 40
0.0
 40
0.0
 40
0.0534928925
 40
0.1085857706
 40
0.1654070472
 40
0.2240605969
 40
0.2845863877
 40
0.3469797033
 40
0.4110184641
 40
0.4764250294
 40
0.5427888291
 40
0.6096570345
 40
0.6765853817
 40
0.7431232137
 40
0.8738127591
 40
1.0
 40
1.0
 40
1.0
 40
1.0
 10
5.5617409668
 20
2.4649845598
 30
0.0
 10
5.5610952393
 20
2.4643041146
 30
0.0
 10
5.559848563
 20
2.4628604607
 30
0.0
 10
5.5581650598
 20
2.4604932394
 30
0.0
 10
5.5566713075
 20
2.4578963497
 30
0.0
 10
5.5553962124
 20
2.4550803957
 30
0.0
 10
5.5543671653
 20
2.4520618737
 30
0.0
 10
5.55361235
 20
2.4488663042
 30
0.0
 10
5.55314877
 20
2.4455292514
 30
0.0
 10
5.5529962275
 20
2.4420940566
 30
0.0
 10
5.5531533026
 20
2.4386096088
 30
0.0
 10
5.553620686
 20
2.4351264325
 30
0.0
 10
5.5543783424
 20
2.4316917578
 30
0.0
 10
5.5557434382
 20
2.4272606392
 30
0.0
 10
5.5580399619
 20
2.4220500492
 30
0.0
 10
5.5604405888
 20
2.4182189049
 30
0.0
 10
5.5617409668
 20
2.416428444
 30
0.0
  0
SPLINE
  5
3FA
100
AcDbEntity
  8
ALL_ASSEMBLY_MEMBERS
100
AcDbSpline
 62
7
  6
CONTINUOUS
 70
0
 71
3
 72
23
 73
19
 74
0
 42
0.0000001
 43
0.0000001
 44
0.0000000001
 40
0.0
 40
0.0
 40
0.0
 40
0.0
 40
0.0625712421
 40
0.1251358029
 40
0.1876277175
 40
0.250027343
 40
0.3123402126
 40
0.374634822
 40
0.4369008385
 40
0.499178861
 40
0.5614927163
 40
0.623863918
 40
0.6863249176
 40
0.748854366
 40
0.8115079963
 40
0.874278548
 40
0.937134614
 40
1.0
 40
1.0
 40
1.0
 40
1.0
 10
5.8016797833
 20
2.4492465085
 30
0.0
 10
5.8025493997
 20
2.4484765363
 30
0.0
 10
5.8042277409
 20
2.4468661263
 30
0.0
 10
5.8065271671
 20
2.4442441704
 30
0.0
 10
5.8085700778
 20
2.4414204067
 30
0.0
 10
5.8103166898
 20
2.4384089615
 30
0.0
 10
5.8117289429
 20
2.4352299324
 30
0.0
 10
5.8127673796
 20
2.4319118742
 30
0.0
 10
5.8134070726
 20
2.428494412
 30
0.0
 10
5.8136198933
 20
2.4250234788
 30
0.0
 10
5.8134068287
 20
2.4215506212
 30
0.0
 10
5.8127669582
 20
2.4181274318
 30
0.0
 10
5.81172844
 20
2.414799974
 30
0.0
 10
5.8103162124
 20
2.4116080835
 30
0.0
 10
5.808569705
 20
2.4085806009
 30
0.0
 10
5.8065269473
 20
2.4057379585
 30
0.0
 10
5.8042276877
 20
2.4030946396
 30
0.0
 10
5.8025494248
 20
2.4014685491
 30
0.0
 10
5.8016797833
 20
2.4006903927
 30
0.0
  0
SPLINE
  5
3FB
100
AcDbEntity
  8
ALL_ASSEMBLY_MEMBERS
100
AcDbSpline
 62
7
  6
CONTINUOUS
 70
0
 71
3
 72
13
 73
9
 74
0
 42
0.0000001
 43
0.0000001
 44
0.0000000001
 40
0.0
 40
0.0
 40
0.0
 40
0.0
 40
0.2553475447
 40
0.5424320349
 40
0.6809629021
 40
0.8060119637
 40
0.9129466654
 40
1.0
 40
1.0
 40
1.0
 40
1.0
 10
5.8016797833
 20
2.4006903927
 30
0.0
 10
5.8015748102
 20
2.4048224522
 30
0.0
 10
5.8014160468
 20
2.4136017994
 30
0.0
 10
5.8013443133
 20
2.4246248175
 30
0.0
 10
5.801372652
 20
2.4335386156
 30
0.0
 10
5.8014354585
 20
2.4395359934
 30
0.0
 10
5.8015336816
 20
2.4446994776
 30
0.0
 10
5.8016266688
 20
2.4478383496
 30
0.0
 10
5.8016797833
 20
2.4492465085
 30
0.0
  0
SPLINE
  5
3FC
100
AcDbEntity
  8
ALL_ASSEMBLY_MEMBERS
100
AcDbSpline
 62
7
  6
CONTINUOUS
 70
0
 71
3
 72
23
 73
19
 74
0
 42
0.0000001
 43
0.0000001
 44
0.0000000001
 40
0.0
 40
0.0
 40
0.0
 40
0.0
 40
0.0629528037
 40
0.1258988167
 40
0.1887586185
 40
0.2514968803
 40
0.314101849
 40
0.376624504
 40
0.4390390033
 40
0.5013740289
 40
0.5636491059
 40
0.6258876289
 40
0.6881318984
 40
0.7503744916
 40
0.812687735
 40
0.8750812742
 40
0.9375394641
 40
1.0
 40
1.0
 40
1.0
 40
1.0
 10
5.8184506983
 20
2.4462808192
 30
0.0
 10
5.8193197993
 20
2.4454998897
 30
0.0
 10
5.820996977
 20
2.4438684757
 30
0.0
 10
5.8232946679
 20
2.4412179608
 30
0.0
 10
5.8253360254
 20
2.4383689615
 30
0.0
 10
5.827081339
 20
2.4353360834
 30
0.0
 10
5.8284926158
 20
2.4321398737
 30
0.0
 10
5.8295304642
 20
2.4288092724
 30
0.0
 10
5.8301699626
 20
2.4253841837
 30
0.0
 10
5.8303829648
 20
2.4219107129
 30
0.0
 10
5.8301703705
 20
2.4184404611
 30
0.0
 10
5.8295311689
 20
2.4150249529
 30
0.0
 10
5.8284934574
 20
2.4117100749
 30
0.0
 10
5.8270821382
 20
2.4085353794
 30
0.0
 10
5.8253366499
 20
2.4055293277
 30
0.0
 10
5.8232950367
 20
2.4027119074
 30
0.0
 10
5.8209970671
 20
2.4000971271
 30
0.0
 10
5.8193197577
 20
2.3984919427
 30
0.0
 10
5.8184506983
 20
2.3977247034
 30
0.0
  0
SPLINE
  5
3FD
100
AcDbEntity
  8
ALL_ASSEMBLY_MEMBERS
100
AcDbSpline
 62
7
  6
CONTINUOUS
 70
0
 71
3
 72
63
 73
59
 74
0
 42
0.0000001
 43
0.0000001
 44
0.0000000001
 40
0.0
 40
0.0
 40
0.0
 40
0.0
 40
0.0020522737
 40
0.0041447363
 40
0.0063140637
 40
0.0085930151
 40
0.0110097022
 40
0.0135875555
 40
0.0192955448
 40
0.0258311706
 40
0.0332602813
 40
0.0416221921
 40
0.0509355404
 40
0.0612048843
 40
0.0724274468
 40
0.084592605
 40
0.0976823194
 40
0.1116757653
 40
0.1265483851
 40
0.1422699191
 40
0.1588084504
 40
0.1761302541
 40
0.1941969352
 40
0.2324035523
 40
0.2730881319
 40
0.3158805133
 40
0.360386262
 40
0.4061939727
 40
0.4528769454
 40
0.5
 40
0.5471230546
 40
0.5938060273
 40
0.639613738
 40
0.6841194867
 40
0.7269118681
 40
0.7675964477
 40
0.8058030648
 40
0.8238697459
 40
0.8411915496
 40
0.8577300809
 40
0.8734516149
 40
0.8883242347
 40
0.9023176806
 40
0.915407395
 40
0.9275725532
 40
0.9387951157
 40
0.9490644596
 40
0.9583778079
 40
0.9667397187
 40
0.9741688294
 40
0.9807044552
 40
0.9864124445
 40
0.9889902978
 40
0.9914069849
 40
0.9936859363
 40
0.9958552637
 40
0.9979477263
 40
1.0
 40
1.0
 40
1.0
 40
1.0
 10
5.3756917702
 20
2.0261867395
 30
0.0
 10
5.3756917702
 20
2.02590499
 30
0.0
 10
5.3757325473
 20
2.0253351838
 30
0.0
 10
5.3759148331
 20
2.0244851296
 30
0.0
 10
5.3762175483
 20
2.0236371636
 30
0.0
 10
5.3766397255
 20
2.0227922727
 30
0.0
 10
5.3771805144
 20
2.0219507842
 30
0.0
 10
5.378090103
 20
2.0207944921
 30
0.0
 10
5.3795486178
 20
2.0193638477
 30
0.0
 10
5.3817009992
 20
2.0177245996
 30
0.0
 10
5.3843089774
 20
2.0161069853
 30
0.0
 10
5.3873680372
 20
2.0145139955
 30
0.0
 10
5.3908724372
 20
2.0129482582
 30
0.0
 10
5.3948146141
 20
2.0114131428
 30
0.0
 10
5.3991860266
 20
2.0099127524
 30
0.0
 10
5.4039766295
 20
2.0084508356
 30
0.0
 10
5.4091750582
 20
2.0070306168
 30
0.0
 10
5.4147691213
 20
2.0056558233
 30
0.0
 10
5.4207455755
 20
2.0043300369
 30
0.0
 10
5.4270900277
 20
2.0030561677
 30
0.0
 10
5.4337873052
 20
2.0018374506
 30
0.0
 10
5.4408214284
 20
2.0006771258
 30
0.0
 10
5.4508143351
 20
1.9991833656
 30
0.0
 10
5.4640195156
 20
1.9974949179
 30
0.0
 10
5.4806377242
 20
1.9957759094
 30
0.0
 10
5.4981509962
 20
1.9943457941
 30
0.0
 10
5.5163909202
 20
1.9932182933
 30
0.0
 10
5.5351821146
 20
1.9924050182
 30
0.0
 10
5.5543438668
 20
1.9919138253
 30
0.0
 10
5.5736917702
 20
1.9917494312
 30
0.0
 10
5.5930396736
 20
1.9919138253
 30
0.0
 10
5.6122014257
 20
1.9924050182
 30
0.0
 10
5.6309926202
 20
1.9932182933
 30
0.0
 10
5.6492325442
 20
1.9943457941
 30
0.0
 10
5.6667458162
 20
1.9957759094
 30
0.0
 10
5.6833640247
 20
1.9974949179
 30
0.0
 10
5.6965692053
 20
1.9991833656
 30
0.0
 10
5.706562112
 20
2.0006771258
 30
0.0
 10
5.7135962351
 20
2.0018374506
 30
0.0
 10
5.7202935126
 20
2.0030561677
 30
0.0
 10
5.7266379649
 20
2.0043300369
 30
0.0
 10
5.732614419
 20
2.0056558233
 30
0.0
 10
5.7382084822
 20
2.0070306168
 30
0.0
 10
5.7434069108
 20
2.0084508356
 30
0.0
 10
5.7481975138
 20
2.0099127524
 30
0.0
 10
5.7525689263
 20
2.0114131428
 30
0.0
 10
5.7565111032
 20
2.0129482582
 30
0.0
 10
5.7600155032
 20
2.0145139955
 30
0.0
 10
5.763074563
 20
2.0161069853
 30
0.0
 10
5.7656825411
 20
2.0177245996
 30
0.0
 10
5.7678349226
 20
2.0193638477
 30
0.0
 10
5.7692934374
 20
2.0207944921
 30
0.0
 10
5.770203026
 20
2.0219507842
 30
0.0
 10
5.7707438148
 20
2.0227922727
 30
0.0
 10
5.7711659921
 20
2.0236371636
 30
0.0
 10
5.7714687073
 20
2.0244851296
 30
0.0
 10
5.7716509931
 20
2.0253351838
 30
0.0
 10
5.7716917702
 20
2.02590499
 30
0.0
 10
5.7716917702
 20
2.0261867395
 30
0.0
  0
SPLINE
  5
3FE
100
AcDbEntity
  8
ALL_ASSEMBLY_MEMBERS
100
AcDbSpline
 62
7
  6
CONTINUOUS
 70
0
 71
3
 72
23
 73
19
 74
0
 42
0.0000001
 43
0.0000001
 44
0.0000000001
 40
0.0
 40
0.0
 40
0.0
 40
0.0
 40
0.063243504
 40
0.1265070439
 40
0.1896994062
 40
0.2527698638
 40
0.3156879128
 40
0.3784834557
 40
0.441108996
 40
0.5035732201
 40
0.5658818116
 40
0.6280504185
 40
0.690122885
 40
0.7520992952
 40
0.8140647822
 40
0.8760443089
 40
0.9380382697
 40
1.0
 40
1.0
 40
1.0
 40
1.0
 10
5.8339455111
 20
2.443112717
 30
0.0
 10
5.8348097389
 20
2.4423207049
 30
0.0
 10
5.8364773471
 20
2.4406679677
 30
0.0
 10
5.8387613055
 20
2.437988911
 30
0.0
 10
5.840790413
 20
2.4351147085
 30
0.0
 10
5.8425252416
 20
2.4320604617
 30
0.0
 10
5.8439280717
 20
2.4288471841
 30
0.0
 10
5.8449598017
 20
2.4255042233
 30
0.0
 10
5.8455956794
 20
2.4220717461
 30
0.0
 10
5.8458077145
 20
2.4185960138
 30
0.0
 10
5.8455967308
 20
2.4151286302
 30
0.0
 10
5.8449616212
 20
2.4117209983
 30
0.0
 10
5.8439302504
 20
2.4084188091
 30
0.0
 10
5.8425273191
 20
2.4052613118
 30
0.0
 10
5.8407920468
 20
2.402276613
 30
0.0
 10
5.8387622829
 20
2.3994842759
 30
0.0
 10
5.836477605
 20
2.3968978568
 30
0.0
 10
5.8348096392
 20
2.3953131184
 30
0.0
 10
5.8339455111
 20
2.3945566012
 30
0.0
  0
SPLINE
  5
3FF
100
AcDbEntity
  8
ALL_ASSEMBLY_MEMBERS
100
AcDbSpline
 62
7
  6
CONTINUOUS
 70
0
 71
3
 72
40
 73
36
 74
0
 42
0.0000001
 43
0.0000001
 44
0.0000000001
 40
0.0
 40
0.0
 40
0.0
 40
0.0
 40
0.0942303301
 40
0.1876095392
 40
0.27921696
 40
0.368227224
 40
0.4538110296
 40
0.5351791921
 40
0.5740494197
 40
0.6115933782
 40
0.6477259928
 40
0.6823679229
 40
0.7154458514
 40
0.746888358
 40
0.7766318011
 40
0.8046196292
 40
0.8307988334
 40
0.8551274453
 40
0.8775732133
 40
0.8981118613
 40
0.9167372145
 40
0.9253366239
 40
0.9334640118
 40
0.9411245125
 40
0.9483262598
 40
0.9550805218
 40
0.9614017529
 40
0.9673084301
 40
0.9728241088
 40
0.9779788053
 40
0.9828109257
 40
0.9873678308
 40
0.9917062947
 40
0.9958923975
 40
1.0
 40
1.0
 40
1.0
 40
1.0
 10
5.5736917702
 20
2.0979773479
 30
0.0
 10
5.5834923967
 20
2.0979773479
 30
0.0
 10
5.6030055391
 20
2.0978114996
 30
0.0
 10
5.6320379513
 20
2.0970674999
 30
0.0
 10
5.6605104735
 20
2.0958350622
 30
0.0
 10
5.6881462867
 20
2.0941269725
 30
0.0
 10
5.7146816281
 20
2.0919598109
 30
0.0
 10
5.735977122
 20
2.0897575426
 30
0.0
 10
5.7522670394
 20
2.0877687526
 30
0.0
 10
5.7638674349
 20
2.0861996859
 30
0.0
 10
5.7750099112
 20
2.0845340008
 30
0.0
 10
5.785667686
 20
2.0827756816
 30
0.0
 10
5.7958152
 20
2.0809294093
 30
0.0
 10
5.8054280676
 20
2.078999339
 30
0.0
 10
5.8144832758
 20
2.0769902489
 30
0.0
 10
5.8229592562
 20
2.0749074718
 30
0.0
 10
5.8308357581
 20
2.0727556777
 30
0.0
 10
5.838094154
 20
2.0705403167
 30
0.0
 10
5.844717681
 20
2.0682672861
 30
0.0
 10
5.8506906444
 20
2.0659414963
 30
0.0
 10
5.8552288095
 20
2.0639138699
 30
0.0
 10
5.8585133262
 20
2.0622598934
 30
0.0
 10
5.8607393374
 20
2.0610428263
 30
0.0
 10
5.8627928057
 20
2.0598165965
 30
0.0
 10
5.8646726025
 20
2.0585818592
 30
0.0
 10
5.8663778455
 20
2.0573393267
 30
0.0
 10
5.867907698
 20
2.0560895851
 30
0.0
 10
5.8692613106
 20
2.0548331487
 30
0.0
 10
5.8704378097
 20
2.0535704317
 30
0.0
 10
5.8714361951
 20
2.05230164
 30
0.0
 10
5.87225567
 20
2.0510271093
 30
0.0
 10
5.8728953319
 20
2.0497472073
 30
0.0
 10
5.873353943
 20
2.0484623591
 30
0.0
 10
5.8736300529
 20
2.0471739177
 30
0.0
 10
5.8736917702
 20
2.0463101146
 30
0.0
 10
5.8736917702
 20
2.0458828946
 30
0.0
  0
SPLINE
  5
400
100
AcDbEntity
  8
ALL_ASSEMBLY_MEMBERS
100
AcDbSpline
 62
7
  6
CONTINUOUS
 70
0
 71
3
 72
23
 73
19
 74
0
 42
0.0000001
 43
0.0000001
 44
0.0000000001
 40
0.0
 40
0.0
 40
0.0
 40
0.0
 40
0.0634461667
 40
0.1269656267
 40
0.1904568881
 40
0.2538540349
 40
0.3171063727
 40
0.3802193073
 40
0.4431177852
 40
0.5057826909
 40
0.5681965377
 40
0.6303576733
 40
0.6923030953
 40
0.7540337813
 40
0.8156436588
 40
0.8771712338
 40
0.9386331114
 40
1.0
 40
1.0
 40
1.0
 40
1.0
 10
5.8480834361
 20
2.4397587193
 30
0.0
 10
5.8489384495
 20
2.4389555532
 30
0.0
 10
5.8505881116
 20
2.4372812833
 30
0.0
 10
5.8528464115
 20
2.4345738597
 30
0.0
 10
5.8548526405
 20
2.4316746265
 30
0.0
 10
5.8565678597
 20
2.4285991925
 30
0.0
 10
5.8579548265
 20
2.4253690498
 30
0.0
 10
5.8589749484
 20
2.422013973
 30
0.0
 10
5.8596038014
 20
2.4185743759
 30
0.0
 10
5.8598137225
 20
2.4150966628
 30
0.0
 10
5.8596054748
 20
2.411632393
 30
0.0
 10
5.8589778531
 20
2.4082327954
 30
0.0
 10
5.8579583228
 20
2.4049433443
 30
0.0
 10
5.856571219
 20
2.4018029649
 30
0.0
 10
5.8548553133
 20
2.3988394322
 30
0.0
 10
5.8528480489
 20
2.3960719073
 30
0.0
 10
5.8505886003
 20
2.3935135198
 30
0.0
 10
5.8489383139
 20
2.3919486517
 30
0.0
 10
5.8480834361
 20
2.3912026035
 30
0.0
  0
SPLINE
  5
401
100
AcDbEntity
  8
ALL_ASSEMBLY_MEMBERS
100
AcDbSpline
 62
7
  6
CONTINUOUS
 70
0
 71
3
 72
40
 73
36
 74
0
 42
0.0000001
 43
0.0000001
 44
0.0000000001
 40
0.0
 40
0.0
 40
0.0
 40
0.0
 40
0.0041076025
 40
0.0082937052
 40
0.012632169
 40
0.017189074
 40
0.0220211943
 40
0.0271758909
 40
0.0326915696
 40
0.0385982467
 40
0.0449194775
 40
0.0516737393
 40
0.0588754865
 40
0.0665359873
 40
0.0746633751
 40
0.0832627843
 40
0.1018881368
 40
0.1224267848
 40
0.1448725523
 40
0.1692011634
 40
0.1953803675
 40
0.223368195
 40
0.2531116374
 40
0.2845541437
 40
0.3176320715
 40
0.3522740008
 40
0.3884066149
 40
0.4259505725
 40
0.464820799
 40
0.5461889602
 40
0.6317727657
 40
0.7207830297
 40
0.8123904528
 40
0.9057696678
 40
1.0
 40
1.0
 40
1.0
 40
1.0
 10
5.2736917702
 20
2.0458828946
 30
0.0
 10
5.2736917702
 20
2.0463101146
 30
0.0
 10
5.2737534875
 20
2.0471739177
 30
0.0
 10
5.2740295974
 20
2.048462359
 30
0.0
 10
5.2744882084
 20
2.0497472073
 30
0.0
 10
5.2751278703
 20
2.0510271093
 30
0.0
 10
5.2759473452
 20
2.0523016399
 30
0.0
 10
5.2769457306
 20
2.0535704316
 30
0.0
 10
5.2781222297
 20
2.0548331486
 30
0.0
 10
5.2794758423
 20
2.056089585
 30
0.0
 10
5.2810056947
 20
2.0573393266
 30
0.0
 10
5.2827109376
 20
2.0585818591
 30
0.0
 10
5.2845907344
 20
2.0598165964
 30
0.0
 10
5.2866442027
 20
2.0610428261
 30
0.0
 10
5.2888702139
 20
2.0622598932
 30
0.0
 10
5.2921547305
 20
2.0639138697
 30
0.0
 10
5.2966928955
 20
2.0659414961
 30
0.0
 10
5.3026658588
 20
2.0682672859
 30
0.0
 10
5.3092893856
 20
2.0705403165
 30
0.0
 10
5.3165477814
 20
2.0727556775
 30
0.0
 10
5.3244242832
 20
2.0749074715
 30
0.0
 10
5.3329002634
 20
2.0769902486
 30
0.0
 10
5.3419554714
 20
2.0789993388
 30
0.0
 10
5.3515683389
 20
2.080929409
 30
0.0
 10
5.3617158527
 20
2.0827756813
 30
0.0
 10
5.3723736272
 20
2.0845340005
 30
0.0
 10
5.3835161033
 20
2.0861996855
 30
0.0
 10
5.3951164986
 20
2.0877687523
 30
0.0
 10
5.4114064156
 20
2.0897575423
 30
0.0
 10
5.4327019093
 20
2.0919598106
 30
0.0
 10
5.4592372505
 20
2.0941269722
 30
0.0
 10
5.4868730639
 20
2.095835062
 30
0.0
 10
5.515345587
 20
2.0970674999
 30
0.0
 10
5.5443780002
 20
2.0978114995
 30
0.0
 10
5.5638911435
 20
2.0979773479
 30
0.0
 10
5.5736917702
 20
2.0979773479
 30
0.0
  0
SPLINE
  5
402
100
AcDbEntity
  8
ALL_ASSEMBLY_MEMBERS
100
AcDbSpline
 62
7
  6
CONTINUOUS
 70
0
 71
3
 72
23
 73
19
 74
0
 42
0.0000001
 43
0.0000001
 44
0.0000000001
 40
0.0
 40
0.0
 40
0.0
 40
0.0
 40
0.0324175164
 40
0.0661063154
 40
0.1021958563
 40
0.1416022774
 40
0.1850185802
 40
0.2329408655
 40
0.2857213346
 40
0.3436079695
 40
0.4067612795
 40
0.4752774757
 40
0.5492131815
 40
0.628593148
 40
0.7134038982
 40
0.8036100978
 40
0.8991638047
 40
1.0
 40
1.0
 40
1.0
 40
1.0
 10
5.2736917702
 20
2.3437872399
 30
0.0
 10
5.2736917702
 20
2.3444059317
 30
0.0
 10
5.2738236456
 20
2.3456710556
 30
0.0
 10
5.274408802
 20
2.3475431316
 30
0.0
 10
5.2753745355
 20
2.3494002159
 30
0.0
 10
5.2767144185
 20
2.3512404963
 30
0.0
 10
5.2784242366
 20
2.3530649851
 30
0.0
 10
5.2805009124
 20
2.354874333
 30
0.0
 10
5.2829423488
 20
2.3566680911
 30
0.0
 10
5.2857463965
 20
2.3584448102
 30
0.0
 10
5.2889100498
 20
2.3602029691
 30
0.0
 10
5.292429691
 20
2.3619408278
 30
0.0
 10
5.2963014102
 20
2.3636562715
 30
0.0
 10
5.3005207973
 20
2.3653469799
 30
0.0
 10
5.3050826454
 20
2.3670110608
 30
0.0
 10
5.309981326
 20
2.3686464511
 30
0.0
 10
5.3152109077
 20
2.3702509564
 30
0.0
 10
5.3188177544
 20
2.3712714718
 30
0.0
 10
5.3206744897
 20
2.3717775523
 30
0.0
  0
SPLINE
  5
403
100
AcDbEntity
  8
ALL_ASSEMBLY_MEMBERS
100
AcDbSpline
 62
7
  6
CONTINUOUS
 70
0
 71
3
 72
18
 73
14
 74
0
 42
0.0000001
 43
0.0000001
 44
0.0000000001
 40
0.0
 40
0.0
 40
0.0
 40
0.0
 40
0.0484947575
 40
0.0995753979
 40
0.1531110414
 40
0.2089623397
 40
0.2669833569
 40
0.3270171775
 40
0.4524723748
 40
0.5839692291
 40
0.7200563647
 40
0.8592582586
 40
1.0
 40
1.0
 40
1.0
 40
1.0
 10
5.3472516623
 20
2.3779587746
 30
0.0
 10
5.3508573909
 20
2.3786792506
 30
0.0
 10
5.3582769614
 20
2.3800801112
 30
0.0
 10
5.3697232157
 20
2.3820222656
 30
0.0
 10
5.3817518464
 20
2.3838561397
 30
0.0
 10
5.3943285247
 20
2.3855763895
 30
0.0
 10
5.4074173811
 20
2.3871778163
 30
0.0
 10
5.4257727421
 20
2.3891781777
 30
0.0
 10
5.4497131364
 20
2.3913330982
 30
0.0
 10
5.4794483658
 20
2.393348119
 30
0.0
 10
5.510259636
 20
2.3948047882
 30
0.0
 10
5.5417937194
 20
2.3956854657
 30
0.0
 10
5.5630203472
 20
2.3958816932
 30
0.0
 10
5.5736917702
 20
2.3958816932
 30
0.0
  0
SPLINE
  5
404
100
AcDbEntity
  8
ALL_ASSEMBLY_MEMBERS
100
AcDbSpline
 62
7
  6
CONTINUOUS
 70
0
 71
3
 72
71
 73
67
 74
0
 42
0.0000001
 43
0.0000001
 44
0.0000000001
 40
0.0
 40
0.0
 40
0.0
 40
0.0
 40
0.0471152644
 40
0.0938049523
 40
0.1396087701
 40
0.184114024
 40
0.2269060342
 40
0.2675902128
 40
0.287025376
 40
0.305797404
 40
0.3238637571
 40
0.3411847658
 40
0.3577237714
 40
0.3734450637
 40
0.3883168231
 40
0.4023107728
 40
0.4154004078
 40
0.4275647447
 40
0.438787657
 40
0.4490570068
 40
0.458369707
 40
0.4667319223
 40
0.4705621822
 40
0.474163065
 40
0.4775402045
 40
0.480700828
 40
0.4836541741
 40
0.4864120203
 40
0.488989375
 40
0.4914054412
 40
0.4936838994
 40
0.4958531368
 40
0.4979461933
 40
0.4999999997
 40
0.502053806
 40
0.5041468625
 40
0.5063160998
 40
0.508594558
 40
0.5110106241
 40
0.5135879788
 40
0.516345825
 40
0.519299171
 40
0.5224597944
 40
0.5258369338
 40
0.5294378165
 40
0.5332680764
 40
0.5416302915
 40
0.5509429915
 40
0.5612123412
 40
0.5724352534
 40
0.58459959
 40
0.597689225
 40
0.6116831746
 40
0.6265549338
 40
0.642276226
 40
0.6588152313
 40
0.6761362398
 40
0.6942025929
 40
0.7129746208
 40
0.7324097839
 40
0.7730939618
 40
0.8158859724
 40
0.8603912281
 40
0.9061950469
 40
0.9528847354
 40
1.0
 40
1.0
 40
1.0
 40
1.0
 10
5.5736917702
 20
2.0748082293
 30
0.0
 10
5.5828390188
 20
2.0748082293
 30
0.0
 10
5.6010512767
 20
2.0746534444
 30
0.0
 10
5.6281481858
 20
2.0739590422
 30
0.0
 10
5.654722536
 20
2.072808757
 30
0.0
 10
5.6805159651
 20
2.0712145471
 30
0.0
 10
5.7052822874
 20
2.0691918643
 30
0.0
 10
5.7251580827
 20
2.0671364115
 30
0.0
 10
5.7403620067
 20
2.0652802079
 30
0.0
 10
5.7511890443
 20
2.0638157462
 30
0.0
 10
5.7615886903
 20
2.0622611069
 30
0.0
 10
5.7715359479
 20
2.060620009
 30
0.0
 10
5.7810069618
 20
2.0588968215
 30
0.0
 10
5.7899789727
 20
2.0570954223
 30
0.0
 10
5.7984305008
 20
2.0552202716
 30
0.0
 10
5.8063414188
 20
2.0532763466
 30
0.0
 10
5.813692815
 20
2.0512680046
 30
0.0
 10
5.8204673406
 20
2.0492003366
 30
0.0
 10
5.8266492274
 20
2.0470788337
 30
0.0
 10
5.832224231
 20
2.0449081213
 30
0.0
 10
5.8371796044
 20
2.0426936667
 30
0.0
 10
5.8408860868
 20
2.0407638453
 30
0.0
 10
5.8435194084
 20
2.0391915531
 30
0.0
 10
5.8452738773
 20
2.0380391015
 30
0.0
 10
5.8468654397
 20
2.0368794118
 30
0.0
 10
5.8482933018
 20
2.0357129845
 30
0.0
 10
5.8495566739
 20
2.0345403107
 30
0.0
 10
5.8506547398
 20
2.0333617751
 30
0.0
 10
5.8515865663
 20
2.0321775681
 30
0.0
 10
5.8523514096
 20
2.0309880107
 30
0.0
 10
5.8529484276
 20
2.0297934197
 30
0.0
 10
5.8533764647
 20
2.0285942826
 30
0.0
 10
5.8536341673
 20
2.0273915433
 30
0.0
 10
5.853720299
 20
2.0261867398
 30
0.0
 10
5.8536341674
 20
2.0249819363
 30
0.0
 10
5.8533764648
 20
2.023779197
 30
0.0
 10
5.8529484277
 20
2.0225800599
 30
0.0
 10
5.8523514099
 20
2.0213854689
 30
0.0
 10
5.8515865666
 20
2.0201959115
 30
0.0
 10
5.8506547402
 20
2.0190117045
 30
0.0
 10
5.8495566742
 20
2.0178331689
 30
0.0
 10
5.8482933022
 20
2.0166604951
 30
0.0
 10
5.8468654402
 20
2.0154940678
 30
0.0
 10
5.8452738779
 20
2.0143343781
 30
0.0
 10
5.8435194091
 20
2.0131819265
 30
0.0
 10
5.8408860875
 20
2.0116096344
 30
0.0
 10
5.8371796052
 20
2.0096798129
 30
0.0
 10
5.8322242319
 20
2.0074653582
 30
0.0
 10
5.8266492284
 20
2.0052946459
 30
0.0
 10
5.8204673417
 20
2.0031731429
 30
0.0
 10
5.8136928162
 20
2.001105475
 30
0.0
 10
5.8063414201
 20
1.999097133
 30
0.0
 10
5.7984305021
 20
1.997153208
 30
0.0
 10
5.7899789741
 20
1.9952780572
 30
0.0
 10
5.7810069633
 20
1.9934766581
 30
0.0
 10
5.7715359496
 20
1.9917534704
 30
0.0
 10
5.7615886921
 20
1.9901123726
 30
0.0
 10
5.7511890461
 20
1.9885577333
 30
0.0
 10
5.7403620085
 20
1.9870932716
 30
0.0
 10
5.7251580847
 20
1.9852370681
 30
0.0
 10
5.7052822896
 20
1.983181615
 30
0.0
 10
5.680515967
 20
1.9811589323
 30
0.0
 10
5.6547225372
 20
1.9795647229
 30
0.0
 10
5.6281481863
 20
1.9784144367
 30
0.0
 10
5.6010512769
 20
1.9777200341
 30
0.0
 10
5.5828390189
 20
1.9775652498
 30
0.0
 10
5.5736917702
 20
1.9775652498
 30
0.0
  0
SPLINE
  5
405
100
AcDbEntity
  8
ALL_ASSEMBLY_MEMBERS
100
AcDbSpline
 62
7
  6
CONTINUOUS
 70
0
 71
3
 72
41
 73
37
 74
0
 42
0.0000001
 43
0.0000001
 44
0.0000000001
 40
0.0
 40
0.0
 40
0.0
 40
0.0
 40
0.0939526954
 40
0.1870641725
 40
0.278422661
 40
0.3672118797
 40
0.4526114266
 40
0.5338397717
 40
0.572658927
 40
0.6101654542
 40
0.6462751092
 40
0.6809089084
 40
0.7139941845
 40
0.7454600881
 40
0.775242932
 40
0.8032865308
 40
0.8295380128
 40
0.8539547567
 40
0.8765043087
 40
0.8971616275
 40
0.9067781781
 40
0.9159203172
 40
0.9245898471
 40
0.932789827
 40
0.9405249106
 40
0.9478024251
 40
0.9546328995
 40
0.9610298808
 40
0.9670106779
 40
0.9725973502
 40
0.9778179502
 40
0.9827084083
 40
0.9873134344
 40
0.991686895
 40
0.9958919631
 40
1.0
 40
1.0
 40
1.0
 40
1.0
 10
5.5736917702
 20
2.5483924512
 30
0.0
 10
5.5828352851
 20
2.5483924512
 30
0.0
 10
5.6010408286
 20
2.548238326
 30
0.0
 10
5.6281294989
 20
2.5475469334
 30
0.0
 10
5.6546999555
 20
2.5464015759
 30
0.0
 10
5.6804958851
 20
2.5448140244
 30
0.0
 10
5.7052730863
 20
2.5427995979
 30
0.0
 10
5.7251641409
 20
2.540752502
 30
0.0
 10
5.7403858571
 20
2.5389037606
 30
0.0
 10
5.7512307508
 20
2.5374448428
 30
0.0
 10
5.7616515661
 20
2.535895966
 30
0.0
 10
5.7716234471
 20
2.534260751
 30
0.0
 10
5.7811226729
 20
2.5325435378
 30
0.0
 10
5.7901265993
 20
2.5307481976
 30
0.0
 10
5.7986138258
 20
2.5288790656
 30
0.0
 10
5.8065643069
 20
2.5269411
 30
0.0
 10
5.8139591757
 20
2.5249386499
 30
0.0
 10
5.8207811275
 20
2.5228766648
 30
0.0
 10
5.8270142528
 20
2.5207605922
 30
0.0
 10
5.8318142018
 20
2.5189146284
 30
0.0
 10
5.8353416758
 20
2.5174064567
 30
0.0
 10
5.8377675828
 20
2.5162919324
 30
0.0
 10
5.8400360914
 20
2.5151675499
 30
0.0
 10
5.8421458327
 20
2.514033939
 30
0.0
 10
5.8440954948
 20
2.512891678
 30
0.0
 10
5.8458839695
 20
2.5117413659
 30
0.0
 10
5.847510413
 20
2.510583683
 30
0.0
 10
5.8489740472
 20
2.509419188
 30
0.0
 10
5.8502740901
 20
2.5082483756
 30
0.0
 10
5.8514097431
 20
2.5070716612
 30
0.0
 10
5.8523801003
 20
2.5058892712
 30
0.0
 10
5.8531843666
 20
2.504701475
 30
0.0
 10
5.8538217797
 20
2.5035086285
 30
0.0
 10
5.8542912719
 20
2.5023110521
 30
0.0
 10
5.8545915284
 20
2.5011098699
 30
0.0
 10
5.8546785191
 20
2.5003023819
 30
0.0
 10
5.8546930032
 20
2.4999028485
 30
0.0
  0
SPLINE
  5
406
100
AcDbEntity
  8
ALL_ASSEMBLY_MEMBERS
100
AcDbSpline
 62
7
  6
CONTINUOUS
 70
0
 71
3
 72
22
 73
18
 74
0
 42
0.0000001
 43
0.0000001
 44
0.0000000001
 40
0.0
 40
0.0
 40
0.0
 40
0.0
 40
0.063572208
 40
0.1272972547
 40
0.1910637938
 40
0.2547910075
 40
0.3184064231
 40
0.3818879891
 40
0.4451275741
 40
0.5080705051
 40
0.5706673345
 40
0.6328899935
 40
0.6947599542
 40
0.7562724168
 40
0.8175261836
 40
0.8785711432
 40
1.0
 40
1.0
 40
1.0
 40
1.0
 10
5.8607907624
 20
2.4362363129
 30
0.0
 10
5.8616322624
 20
2.4354219671
 30
0.0
 10
5.8632556805
 20
2.4337260401
 30
0.0
 10
5.8654765411
 20
2.4309905559
 30
0.0
 10
5.8674494073
 20
2.4280665942
 30
0.0
 10
5.869135984
 20
2.4249702634
 30
0.0
 10
5.8704997619
 20
2.4217235638
 30
0.0
 10
5.8715028388
 20
2.4183566888
 30
0.0
 10
5.8721212964
 20
2.4149102912
 30
0.0
 10
5.872327977
 20
2.4114309045
 30
0.0
 10
5.8721235565
 20
2.4079699961
 30
0.0
 10
5.8715067848
 20
2.4045785782
 30
0.0
 10
5.8705045282
 20
2.4013018499
 30
0.0
 10
5.8691406814
 20
2.3981785135
 30
0.0
 10
5.8674529657
 20
2.3952355769
 30
0.0
 10
5.8648272344
 20
2.3915868395
 30
0.0
 10
5.8624743843
 20
2.3891527727
 30
0.0
 10
5.8607907624
 20
2.3876801971
 30
0.0
  0
SPLINE
  5
407
100
AcDbEntity
  8
ALL_ASSEMBLY_MEMBERS
100
AcDbSpline
 62
7
  6
CONTINUOUS
 70
0
 71
3
 72
71
 73
67
 74
0
 42
0.0000001
 43
0.0000001
 44
0.0000000001
 40
0.0
 40
0.0
 40
0.0
 40
0.0
 40
0.0471152644
 40
0.0938049523
 40
0.1396087701
 40
0.184114024
 40
0.2269060342
 40
0.2675902128
 40
0.287025376
 40
0.305797404
 40
0.3238637571
 40
0.3411847658
 40
0.3577237714
 40
0.3734450637
 40
0.3883168231
 40
0.4023107728
 40
0.4154004078
 40
0.4275647447
 40
0.438787657
 40
0.4490570068
 40
0.458369707
 40
0.4667319223
 40
0.4705621822
 40
0.474163065
 40
0.4775402045
 40
0.480700828
 40
0.4836541741
 40
0.4864120203
 40
0.488989375
 40
0.4914054412
 40
0.4936838994
 40
0.4958531368
 40
0.4979461933
 40
0.4999999997
 40
0.502053806
 40
0.5041468625
 40
0.5063160998
 40
0.508594558
 40
0.5110106241
 40
0.5135879788
 40
0.516345825
 40
0.519299171
 40
0.5224597944
 40
0.5258369338
 40
0.5294378165
 40
0.5332680764
 40
0.5416302915
 40
0.5509429915
 40
0.5612123412
 40
0.5724352534
 40
0.58459959
 40
0.597689225
 40
0.6116831746
 40
0.6265549338
 40
0.642276226
 40
0.6588152313
 40
0.6761362398
 40
0.6942025929
 40
0.7129746208
 40
0.7324097839
 40
0.7730939618
 40
0.8158859724
 40
0.8603912281
 40
0.9061950469
 40
0.9528847354
 40
1.0
 40
1.0
 40
1.0
 40
1.0
 10
5.5736917702
 20
1.9775652498
 30
0.0
 10
5.5645445216
 20
1.9775652498
 30
0.0
 10
5.5463322636
 20
1.9777200347
 30
0.0
 10
5.5192353546
 20
1.9784144369
 30
0.0
 10
5.4926610044
 20
1.979564722
 30
0.0
 10
5.4668675752
 20
1.981158932
 30
0.0
 10
5.4421012529
 20
1.9831816148
 30
0.0
 10
5.4222254577
 20
1.9852370676
 30
0.0
 10
5.4070215337
 20
1.9870932712
 30
0.0
 10
5.3961944961
 20
1.9885577329
 30
0.0
 10
5.38579485
 20
1.9901123722
 30
0.0
 10
5.3758475925
 20
1.99175347
 30
0.0
 10
5.3663765785
 20
1.9934766576
 30
0.0
 10
5.3574045677
 20
1.9952780567
 30
0.0
 10
5.3489530396
 20
1.9971532075
 30
0.0
 10
5.3410421216
 20
1.9990971325
 30
0.0
 10
5.3336907254
 20
2.0011054745
 30
0.0
 10
5.3269161997
 20
2.0031731424
 30
0.0
 10
5.320734313
 20
2.0052946453
 30
0.0
 10
5.3151593093
 20
2.0074653578
 30
0.0
 10
5.310203936
 20
2.0096798124
 30
0.0
 10
5.3064974535
 20
2.0116096338
 30
0.0
 10
5.3038641319
 20
2.013181926
 30
0.0
 10
5.3021096631
 20
2.0143343776
 30
0.0
 10
5.3005181007
 20
2.0154940673
 30
0.0
 10
5.2990902386
 20
2.0166604946
 30
0.0
 10
5.2978268665
 20
2.0178331683
 30
0.0
 10
5.2967288005
 20
2.019011704
 30
0.0
 10
5.2957969741
 20
2.020195911
 30
0.0
 10
5.2950321307
 20
2.0213854684
 30
0.0
 10
5.2944351128
 20
2.0225800594
 30
0.0
 10
5.2940070757
 20
2.0237791965
 30
0.0
 10
5.293749373
 20
2.0249819357
 30
0.0
 10
5.2936632414
 20
2.0261867393
 30
0.0
 10
5.293749373
 20
2.0273915428
 30
0.0
 10
5.2940070756
 20
2.028594282
 30
0.0
 10
5.2944351126
 20
2.0297934191
 30
0.0
 10
5.2950321305
 20
2.0309880101
 30
0.0
 10
5.2957969738
 20
2.0321775676
 30
0.0
 10
5.2967288002
 20
2.0333617746
 30
0.0
 10
5.2978268661
 20
2.0345403102
 30
0.0
 10
5.2990902382
 20
2.0357129839
 30
0.0
 10
5.3005181002
 20
2.0368794112
 30
0.0
 10
5.3021096625
 20
2.0380391009
 30
0.0
 10
5.3038641313
 20
2.0391915526
 30
0.0
 10
5.3064974529
 20
2.0407638447
 30
0.0
 10
5.3102039352
 20
2.0426936662
 30
0.0
 10
5.3151593085
 20
2.0449081208
 30
0.0
 10
5.320734312
 20
2.0470788332
 30
0.0
 10
5.3269161986
 20
2.0492003361
 30
0.0
 10
5.3336907242
 20
2.0512680041
 30
0.0
 10
5.3410421203
 20
2.0532763461
 30
0.0
 10
5.3489530383
 20
2.0552202711
 30
0.0
 10
5.3574045663
 20
2.0570954219
 30
0.0
 10
5.366376577
 20
2.058896821
 30
0.0
 10
5.3758475908
 20
2.0606200086
 30
0.0
 10
5.3857948483
 20
2.0622611065
 30
0.0
 10
5.3961944943
 20
2.0638157457
 30
0.0
 10
5.4070215318
 20
2.0652802074
 30
0.0
 10
5.4222254557
 20
2.067136411
 30
0.0
 10
5.4421012508
 20
2.0691918641
 30
0.0
 10
5.4668675734
 20
2.0712145468
 30
0.0
 10
5.4926610032
 20
2.0728087562
 30
0.0
 10
5.519235354
 20
2.0739590424
 30
0.0
 10
5.5463322634
 20
2.0746534449
 30
0.0
 10
5.5645445215
 20
2.0748082293
 30
0.0
 10
5.5736917702
 20
2.0748082293
 30
0.0
  0
SPLINE
  5
408
100
AcDbEntity
  8
ALL_ASSEMBLY_MEMBERS
100
AcDbSpline
 62
7
  6
CONTINUOUS
 70
0
 71
3
 72
22
 73
18
 74
0
 42
0.0000001
 43
0.0000001
 44
0.0000000001
 40
0.0
 40
0.0
 40
0.0
 40
0.0
 40
0.0636082334
 40
0.1274734898
 40
0.1914773515
 40
0.2555235169
 40
0.3195164164
 40
0.3834026471
 40
0.4470354177
 40
0.5103180648
 40
0.5731602327
 40
0.6354979597
 40
0.6973295092
 40
0.7586371883
 40
0.8195193998
 40
0.8800352636
 40
1.0
 40
1.0
 40
1.0
 40
1.0
 10
5.8720012376
 20
2.4325638628
 30
0.0
 10
5.8728249626
 20
2.4317383798
 30
0.0
 10
5.8744139063
 20
2.4300208442
 30
0.0
 10
5.8765857012
 20
2.4272578465
 30
0.0
 10
5.8785148321
 20
2.4243096374
 30
0.0
 10
5.8801639507
 20
2.4211928521
 30
0.0
 10
5.8814973603
 20
2.4179299546
 30
0.0
 10
5.8824781171
 20
2.4145516129
 30
0.0
 10
5.8830829024
 20
2.4110986897
 30
0.0
 10
5.883285202
 20
2.4076178509
 30
0.0
 10
5.8830857038
 20
2.4041604483
 30
0.0
 10
5.8824830353
 20
2.4007772335
 30
0.0
 10
5.8815033619
 20
2.3975131523
 30
0.0
 10
5.8801699341
 20
2.3944065268
 30
0.0
 10
5.8785195227
 20
2.3914840862
 30
0.0
 10
5.8759545493
 20
2.3878712707
 30
0.0
 10
5.8736510454
 20
2.3854621958
 30
0.0
 10
5.8720012376
 20
2.384007747
 30
0.0
  0
SPLINE
  5
409
100
AcDbEntity
  8
ALL_ASSEMBLY_MEMBERS
100
AcDbSpline
 62
7
  6
CONTINUOUS
 70
0
 71
3
 72
21
 73
17
 74
0
 42
0.0000001
 43
0.0000001
 44
0.0000000001
 40
0.0
 40
0.0
 40
0.0
 40
0.0
 40
0.0534948602
 40
0.1085892525
 40
0.1654115667
 40
0.2240656789
 40
0.2845915833
 40
0.3469846131
 40
0.4110227653
 40
0.4764284927
 40
0.5427913332
 40
0.6096585671
 40
0.6765860331
 40
0.743123163
 40
0.8738120819
 40
1.0
 40
1.0
 40
1.0
 40
1.0
 10
5.5856772655
 20
2.4649843422
 30
0.0
 10
5.586323053
 20
2.4643038883
 30
0.0
 10
5.5875698455
 20
2.4628602191
 30
0.0
 10
5.5892535136
 20
2.4604929682
 30
0.0
 10
5.5907474128
 20
2.4578960516
 30
0.0
 10
5.5920226336
 20
2.455080074
 30
0.0
 10
5.5930517825
 20
2.4520615321
 30
0.0
 10
5.5938066728
 20
2.4488659468
 30
0.0
 10
5.594270299
 20
2.4455288832
 30
0.0
 10
5.5944228568
 20
2.4420936827
 30
0.0
 10
5.5942657664
 20
2.4386092351
 30
0.0
 10
5.5937983371
 20
2.4351260648
 30
0.0
 10
5.593040606
 20
2.4316914017
 30
0.0
 10
5.5916753736
 20
2.4272602977
 30
0.0
 10
5.5893786149
 20
2.4220497335
 30
0.0
 10
5.5869777627
 20
2.4182186533
 30
0.0
 10
5.5856772655
 20
2.4164282264
 30
0.0
  0
SPLINE
  5
40A
100
AcDbEntity
  8
ALL_ASSEMBLY_MEMBERS
100
AcDbSpline
 62
7
  6
CONTINUOUS
 70
0
 71
3
 72
21
 73
17
 74
0
 42
0.0000001
 43
0.0000001
 44
0.0000000001
 40
0.0
 40
0.0
 40
0.0
 40
0.0
 40
0.1274335806
 40
0.1916541632
 40
0.2560234343
 40
0.3204209709
 40
0.3847592585
 40
0.448847961
 40
0.5125416127
 40
0.5757011981
 40
0.6382185626
 40
0.700060411
 40
0.7611892959
 40
0.821698687
 40
0.8816539858
 40
1.0
 40
1.0
 40
1.0
 40
1.0
 10
5.8816564135
 20
2.4287605158
 30
0.0
 10
5.8832635869
 20
2.4270836559
 30
0.0
 10
5.8854985471
 20
2.4243736659
 30
0.0
 10
5.8879911832
 20
2.4204233492
 30
0.0
 10
5.8895943535
 20
2.4172863924
 30
0.0
 10
5.890890331
 20
2.4140078544
 30
0.0
 10
5.8918435815
 20
2.4106184607
 30
0.0
 10
5.8924314681
 20
2.4071593821
 30
0.0
 10
5.8926283025
 20
2.4036773812
 30
0.0
 10
5.8924347538
 20
2.4002236733
 30
0.0
 10
5.891849385
 20
2.3968487112
 30
0.0
 10
5.8908975115
 20
2.3935971646
 30
0.0
 10
5.8896015742
 20
2.3905069564
 30
0.0
 10
5.8879972073
 20
2.3876045216
 30
0.0
 10
5.8855070125
 20
2.3840277001
 30
0.0
 10
5.8832645772
 20
2.3816419922
 30
0.0
 10
5.8816564135
 20
2.3802044
 30
0.0
  0
SPLINE
  5
40B
100
AcDbEntity
  8
ALL_ASSEMBLY_MEMBERS
100
AcDbSpline
 62
7
  6
CONTINUOUS
 70
0
 71
3
 72
23
 73
19
 74
0
 42
0.0000001
 43
0.0000001
 44
0.0000000001
 40
0.0
 40
0.0
 40
0.0
 40
0.0
 40
0.0324175164
 40
0.0661063154
 40
0.1021958563
 40
0.1416022774
 40
0.1850185802
 40
0.2329408655
 40
0.2857213346
 40
0.3436079695
 40
0.4067612795
 40
0.4752774757
 40
0.5492131815
 40
0.628593148
 40
0.7134038982
 40
0.8036100978
 40
0.8991638047
 40
1.0
 40
1.0
 40
1.0
 40
1.0
 10
5.8736917702
 20
2.3437872399
 30
0.0
 10
5.8736917702
 20
2.3444059317
 30
0.0
 10
5.8735598947
 20
2.3456710556
 30
0.0
 10
5.8729747384
 20
2.3475431316
 30
0.0
 10
5.8720090049
 20
2.3494002159
 30
0.0
 10
5.8706691218
 20
2.3512404963
 30
0.0
 10
5.8689593038
 20
2.3530649851
 30
0.0
 10
5.866882628
 20
2.354874333
 30
0.0
 10
5.8644411916
 20
2.3566680911
 30
0.0
 10
5.8616371439
 20
2.3584448102
 30
0.0
 10
5.8584734906
 20
2.3602029691
 30
0.0
 10
5.8549538493
 20
2.3619408278
 30
0.0
 10
5.8510821301
 20
2.3636562715
 30
0.0
 10
5.8468627431
 20
2.3653469799
 30
0.0
 10
5.842300895
 20
2.3670110608
 30
0.0
 10
5.8374022144
 20
2.3686464511
 30
0.0
 10
5.8321726326
 20
2.3702509564
 30
0.0
 10
5.828565786
 20
2.3712714718
 30
0.0
 10
5.8267090507
 20
2.3717775523
 30
0.0
  0
SPLINE
  5
40C
100
AcDbEntity
  8
ALL_ASSEMBLY_MEMBERS
100
AcDbSpline
 62
7
  6
CONTINUOUS
 70
0
 71
3
 72
18
 73
14
 74
0
 42
0.0000001
 43
0.0000001
 44
0.0000000001
 40
0.0
 40
0.0
 40
0.0
 40
0.0
 40
0.0478492127
 40
0.0983959423
 40
0.1515079451
 40
0.207040219
 40
0.2648425281
 40
0.3247521641
 40
0.4502145954
 40
0.582010507
 40
0.7186228514
 40
0.8585015525
 40
1.0
 40
1.0
 40
1.0
 40
1.0
 10
5.8037780939
 20
2.3772162855
 30
0.0
 10
5.800167625
 20
2.3779655894
 30
0.0
 10
5.7927255539
 20
2.3794225129
 30
0.0
 10
5.7812250626
 20
2.3814409572
 30
0.0
 10
5.7691058521
 20
2.3833479377
 30
0.0
 10
5.7564039963
 20
2.3851379889
 30
0.0
 10
5.7431573281
 20
2.3868052566
 30
0.0
 10
5.7245334632
 20
2.3888903986
 30
0.0
 10
5.7001923596
 20
2.3911371039
 30
0.0
 10
5.669910027
 20
2.3932381343
 30
0.0
 10
5.6384807153
 20
2.3947577836
 30
0.0
 10
5.6062803999
 20
2.3956768978
 30
0.0
 10
5.584596063
 20
2.3958816932
 30
0.0
 10
5.5736917702
 20
2.3958816932
 30
0.0
  0
SPLINE
  5
40D
100
AcDbEntity
  8
ALL_ASSEMBLY_MEMBERS
100
AcDbSpline
 62
7
  6
CONTINUOUS
 70
0
 71
3
 72
19
 73
15
 74
0
 42
0.0000001
 43
0.0000001
 44
0.0000000001
 40
0.0
 40
0.0
 40
0.0
 40
0.0
 40
0.1257218229
 40
0.2568674916
 40
0.323908473
 40
0.3914674911
 40
0.4590319479
 40
0.5260863725
 40
0.5921013872
 40
0.6565901432
 40
0.7192089715
 40
0.7796806547
 40
0.8939528078
 40
1.0
 40
1.0
 40
1.0
 40
1.0
 10
5.5856772655
 20
2.4164282264
 30
0.0
 10
5.5844625693
 20
2.4182419109
 30
0.0
 10
5.5822238261
 20
2.4221165202
 30
0.0
 10
5.5800948249
 20
2.4273434196
 30
0.0
 10
5.5788273587
 20
2.431783866
 30
0.0
 10
5.5781230484
 20
2.4352262607
 30
0.0
 10
5.5776885452
 20
2.4387133866
 30
0.0
 10
5.5775424296
 20
2.4421978446
 30
0.0
 10
5.5776840171
 20
2.44562926
 30
0.0
 10
5.5781145903
 20
2.4489589303
 30
0.0
 10
5.5788159781
 20
2.4521441128
 30
0.0
 10
5.5800667739
 20
2.4560759261
 30
0.0
 10
5.5821731278
 20
2.4605053482
 30
0.0
 10
5.5844507983
 20
2.4636110074
 30
0.0
 10
5.5856772655
 20
2.4649843422
 30
0.0
  0
SPLINE
  5
40E
100
AcDbEntity
  8
ALL_ASSEMBLY_MEMBERS
100
AcDbSpline
 62
7
  6
CONTINUOUS
 70
0
 71
3
 72
21
 73
17
 74
0
 42
0.0000001
 43
0.0000001
 44
0.0000000001
 40
0.0
 40
0.0
 40
0.0
 40
0.0
 40
0.1273624714
 40
0.191768235
 40
0.2564526042
 40
0.3212685757
 40
0.3860915581
 40
0.4506830915
 40
0.5148430254
 40
0.5783764627
 40
0.6411231688
 40
0.7030105969
 40
0.7639746001
 40
0.8240985048
 40
0.8834506477
 40
1.0
 40
1.0
 40
1.0
 40
1.0
 10
5.8897059509
 20
2.4248461017
 30
0.0
 10
5.8912628824
 20
2.4231452157
 30
0.0
 10
5.8934238332
 20
2.4204040293
 30
0.0
 10
5.8958292213
 20
2.4164276858
 30
0.0
 10
5.897377861
 20
2.4132714659
 30
0.0
 10
5.8986296573
 20
2.4099777868
 30
0.0
 10
5.8995503717
 20
2.40657783
 30
0.0
 10
5.9001182524
 20
2.403112952
 30
0.0
 10
5.9003085572
 20
2.3996300404
 30
0.0
 10
5.9001219541
 20
2.3961801521
 30
0.0
 10
5.8995569617
 20
2.3928134195
 30
0.0
 10
5.8986379192
 20
2.3895742224
 30
0.0
 10
5.8973863316
 20
2.3865000574
 30
0.0
 10
5.8958364893
 20
2.3836170674
 30
0.0
 10
5.8934346777
 20
2.3800762126
 30
0.0
 10
5.8912648081
 20
2.3777121323
 30
0.0
 10
5.8897059509
 20
2.3762899859
 30
0.0
  0
SPLINE
  5
40F
100
AcDbEntity
  8
ALL_ASSEMBLY_MEMBERS
100
AcDbSpline
 62
7
  6
CONTINUOUS
 70
0
 71
3
 72
29
 73
25
 74
0
 42
0.0000001
 43
0.0000001
 44
0.0000000001
 40
0.0
 40
0.0
 40
0.0
 40
0.0
 40
0.008274664
 40
0.0171558912
 40
0.0271320321
 40
0.0385443046
 40
0.0516153037
 40
0.0664787661
 40
0.0832050025
 40
0.1018297771
 40
0.1223673553
 40
0.1448157634
 40
0.1691495705
 40
0.1953309472
 40
0.2530574293
 40
0.3175825554
 40
0.3883575958
 40
0.4647826613
 40
0.5461555573
 40
0.631729966
 40
0.720738189
 40
0.8123944598
 40
0.9058242908
 40
1.0
 40
1.0
 40
1.0
 40
1.0
 10
5.8236917702
 20
2.630124811
 30
0.0
 10
5.8236917702
 20
2.6308419413
 30
0.0
 10
5.8234715174
 20
2.6323357485
 30
0.0
 10
5.8225151184
 20
2.6345077101
 30
0.0
 10
5.8209605506
 20
2.6366402151
 30
0.0
 10
5.8188221972
 20
2.6387392529
 30
0.0
 10
5.8161041396
 20
2.640809583
 30
0.0
 10
5.8128105607
 20
2.6428512974
 30
0.0
 10
5.8089479131
 20
2.6448628906
 30
0.0
 10
5.804523721
 20
2.64684021
 30
0.0
 10
5.7995465682
 20
2.6487786262
 30
0.0
 10
5.7940268033
 20
2.6506726357
 30
0.0
 10
5.7879776437
 20
2.6525184894
 30
0.0
 10
5.7789272293
 20
2.6549905518
 30
0.0
 10
5.7663890023
 20
2.6578900663
 30
0.0
 10
5.7499500561
 20
2.6610080797
 30
0.0
 10
5.7318176229
 20
2.6638394067
 30
0.0
 10
5.7121659061
 20
2.6663514036
 30
0.0
 10
5.6911840269
 20
2.6685221278
 30
0.0
 10
5.6690734984
 20
2.6703280369
 30
0.0
 10
5.6460422622
 20
2.6717516734
 30
0.0
 10
5.6223085698
 20
2.6727787436
 30
0.0
 10
5.5981128974
 20
2.673397877
 30
0.0
 10
5.5818535818
 20
2.6735368555
 30
0.0
 10
5.5736917702
 20
2.6735368555
 30
0.0
  0
SPLINE
  5
410
100
AcDbEntity
  8
ALL_ASSEMBLY_MEMBERS
100
AcDbSpline
 62
7
  6
CONTINUOUS
 70
0
 71
3
 72
29
 73
25
 74
0
 42
0.0000001
 43
0.0000001
 44
0.0000000001
 40
0.0
 40
0.0
 40
0.0
 40
0.0
 40
0.0941757092
 40
0.1876055402
 40
0.279261811
 40
0.368270034
 40
0.4538444427
 40
0.5352173387
 40
0.6116424042
 40
0.6824174446
 40
0.7469425707
 40
0.8046690528
 40
0.8308504295
 40
0.8551842366
 40
0.8776326447
 40
0.8981702229
 40
0.9167949975
 40
0.9335212339
 40
0.9483846963
 40
0.9614556954
 40
0.9728679679
 40
0.9828441088
 40
0.991725336
 40
1.0
 40
1.0
 40
1.0
 40
1.0
 10
5.5736917702
 20
2.6735368555
 30
0.0
 10
5.5655299586
 20
2.6735368555
 30
0.0
 10
5.549270643
 20
2.673397877
 30
0.0
 10
5.5250749706
 20
2.6727787436
 30
0.0
 10
5.5013412781
 20
2.6717516734
 30
0.0
 10
5.478310042
 20
2.6703280369
 30
0.0
 10
5.4561995135
 20
2.6685221278
 30
0.0
 10
5.4352176343
 20
2.6663514036
 30
0.0
 10
5.4155659174
 20
2.6638394067
 30
0.0
 10
5.3974334843
 20
2.6610080797
 30
0.0
 10
5.380994538
 20
2.6578900663
 30
0.0
 10
5.368456311
 20
2.6549905518
 30
0.0
 10
5.3594058966
 20
2.6525184894
 30
0.0
 10
5.3533567371
 20
2.6506726357
 30
0.0
 10
5.3478369722
 20
2.6487786262
 30
0.0
 10
5.3428598194
 20
2.64684021
 30
0.0
 10
5.3384356273
 20
2.6448628906
 30
0.0
 10
5.3345729797
 20
2.6428512974
 30
0.0
 10
5.3312794008
 20
2.640809583
 30
0.0
 10
5.3285613432
 20
2.6387392529
 30
0.0
 10
5.3264229898
 20
2.6366402151
 30
0.0
 10
5.3248684219
 20
2.6345077101
 30
0.0
 10
5.323912023
 20
2.6323357485
 30
0.0
 10
5.3236917702
 20
2.6308419413
 30
0.0
 10
5.3236917702
 20
2.630124811
 30
0.0
  0
ELLIPSE
  5
411
100
AcDbEntity
  8
ALL_ASSEMBLY_MEMBERS
100
AcDbEllipse
 62
7
  6
CONTINUOUS
 10
5.5736917702
 20
1.8625790726
 30
0.0
 11
-0.0533992194
 21
5.9727794407
 31
0.0
 40
0.0216676486
 41
1.5422511531
 42
1.5435849118
  0
ELLIPSE
  5
412
100
AcDbEntity
  8
ALL_ASSEMBLY_MEMBERS
100
AcDbEllipse
 62
7
  6
CONTINUOUS
 10
5.5736917702
 20
1.8625790726
 30
0.0
 11
-0.0987366869
 21
5.9675269338
 31
0.0
 40
0.0166321059
 41
1.5433832639
 42
1.5448264635
  0
ELLIPSE
  5
413
100
AcDbEntity
  8
ALL_ASSEMBLY_MEMBERS
100
AcDbEllipse
 62
7
  6
CONTINUOUS
 10
5.5736917702
 20
1.8625790726
 30
0.0
 11
-0.1291509255
 21
5.959657635
 31
0.0
 40
0.0090671954
 41
1.5439099661
 42
1.5457932308
  0
ELLIPSE
  5
414
100
AcDbEntity
  8
ALL_ASSEMBLY_MEMBERS
100
AcDbEllipse
 62
7
  6
CONTINUOUS
 10
5.5736917702
 20
1.8625790726
 30
0.0
 11
-0.1399988328
 21
5.9503617697
 31
0.0
 40
0.0000960725
 41
1.543675476
 42
1.5463043516
  0
ELLIPSE
  5
415
100
AcDbEntity
  8
ALL_ASSEMBLY_MEMBERS
100
AcDbEllipse
 62
7
  6
CONTINUOUS
 10
5.5736917702
 20
1.8625790726
 30
0.0
 11
0.1399988328
 21
5.9503617697
 31
0.0
 40
0.0000960725
 41
-1.5463043516
 42
-1.543675476
  0
ELLIPSE
  5
416
100
AcDbEntity
  8
ALL_ASSEMBLY_MEMBERS
100
AcDbEllipse
 62
7
  6
CONTINUOUS
 10
5.5736917702
 20
1.8625790726
 30
0.0
 11
0.1291509255
 21
5.959657635
 31
0.0
 40
0.0090671954
 41
-1.5457932308
 42
-1.5439099661
  0
ELLIPSE
  5
417
100
AcDbEntity
  8
ALL_ASSEMBLY_MEMBERS
100
AcDbEllipse
 62
7
  6
CONTINUOUS
 10
5.5736917702
 20
1.8625790726
 30
0.0
 11
0.0987366869
 21
5.9675269338
 31
0.0
 40
0.0166321059
 41
-1.5448264635
 42
-1.5433832639
  0
ELLIPSE
  5
418
100
AcDbEntity
  8
ALL_ASSEMBLY_MEMBERS
100
AcDbEllipse
 62
7
  6
CONTINUOUS
 10
5.5736917702
 20
1.8625790726
 30
0.0
 11
0.0533992194
 21
5.9727794407
 31
0.0
 40
0.0216676486
 41
-1.5435849118
 42
-1.5422511531
  0
ENDSEC
  0
SECTION
  2
OBJECTS
  0
DICTIONARY
  5
C
100
AcDbDictionary
280
0
281
1
  3
ACAD_GROUP
350
D
  3
ACAD_MLINESTYLE
350
17
  3
ACAD_LAYOUT
350
1A
  3
ACAD_PLOTSETTINGS
350
19
  3
ACAD_PLOTSTYLENAME
350
E
  0
DICTIONARY
  5
D
102
{ACAD_REACTORS
330
C
102
}
100
AcDbDictionary
280
0
281
1
  0
ACDBDICTIONARYWDFLT
  5
E
102
{ACAD_REACTORS
330
C
102
}
100
AcDbDictionary
281
1
  3
Normal
350
F
100
AcDbDictionaryWithDefault
340
F
  0
DICTIONARY
  5
17
102
{ACAD_REACTORS
330
C
102
}
100
AcDbDictionary
280
0
281
1
  3
Standard
350
18
  0
DICTIONARY
  5
19
102
{ACAD_REACTORS
330
C
102
}
100
AcDbDictionary
281
1
  0
DICTIONARY
  5
1A
102
{ACAD_REACTORS
330
C
102
}
100
AcDbDictionary
281
1
  3
Model
350
419
  3
Layout1
350
41A
  0
ACDBPLACEHOLDER
  5
F
102
{ACAD_REACTORS
330
E
102
}
  0
MLINESTYLE
  5
18
102
{ACAD_REACTORS
330
17
102
}
100
AcDbMlineStyle
  2
STANDARD
 70
0
  3

 62
256
 51
90.0
 52
90.0
 71
2
 49
0.5
 62
256
  6
BYLAYER
 49
-0.5
 62
256
  6
BYLAYER
  0
LAYOUT
  5
419
102
{ACAD_REACTORS
330
1A
102
}
100
AcDbPlotSettings
  1

  2
none_device
  4
ANSI_A_(11.00_x_8.50_Inches)
  6

 40
0.0
 41
0.0
 42
0.0
 43
0.0
 44
279.4
 45
215.9
 46
0.0
 47
0.0
 48
0.0
 49
0.0
140
0.0
141
0.0
142
1.0
143
1.0
 70
1024
 72
0
 73
0
 74
0
  7

 75
0
147
1.0
148
0.0
149
0.0
100
AcDbLayout
  1
Model
 70
0
 71
0
 10
0.0
 20
0.0
 11
11.0
 21
8.5
 12
0.0
 22
0.0
 32
0.0
 14
0.0
 24
0.0
 34
0.0
 15
0.0
 25
0.0
 35
0.0
146
0.0
 13
0.0
 23
0.0
 33
0.0
 16
1.0
 26
0.0
 36
0.0
 17
0.0
 27
1.0
 37
0.0
 76
0
330
21A
345
0
346
0
  0
LAYOUT
  5
41A
102
{ACAD_REACTORS
330
1A
102
}
100
AcDbPlotSettings
  1

  2
none_device
  4
ANSI_A_(11.00_x_8.50_Inches)
  6

 40
0.0
 41
0.0
 42
0.0
 43
0.0
 44
279.4
 45
215.9
 46
0.0
 47
0.0
 48
0.0
 49
0.0
140
0.0
141
0.0
142
1.0
143
1.0
 70
0
 72
0
 73
0
 74
0
  7

 75
0
147
1.0
148
0.0
149
0.0
100
AcDbLayout
  1
Layout1
 70
0
 71
1
 10
0.0
 20
0.0
 11
11.0
 21
8.5
 12
0.0
 22
0.0
 32
0.0
 14
0.0
 24
0.0
 34
0.0
 15
0.0
 25
0.0
 35
0.0
146
0.0
 13
0.0
 23
0.0
 33
0.0
 16
1.0
 26
0.0
 36
0.0
 17
0.0
 27
1.0
 37
0.0
 76
0
330
21B
345
0
346
0
  0
ENDSEC
  0
EOF
