999
DXF file: 3-2023tr_FRONT.dxf
999
Pro/ENGINEER 2013150 by Parametric Technology Corporation
  0
SECTION
  2
HEADER
  9
$ACADVER
  1
AC1021
  9
$DWGCODEPAGE
  3
ANSI_1252
  9
$EXTMAX
 10
11.0
 20
8.5
 30
0.0
  9
$EXTMIN
 10
0.0
 20
0.0
 30
0.0
  9
$LIMMIN
 10
0.0
 20
0.0
  9
$LIMMAX
 10
11.0
 20
8.5
  9
$VIEWCTR
 10
5.5
 20
4.25
  9
$VIEWSIZE
 40
8.5
  9
$CLAYER
  8
0
  9
$LTSCALE
 40
0.605
  9
$CELTYPE
  6
BYLAYER
  9
$DIMSCALE
 40
1.0
  9
$DIMASZ
 40
0.1
  9
$DIMEXO
 40
0.0625
  9
$DIMDLI
 40
0.418
  9
$DIMEXE
 40
0.125
  9
$DIMCEN
 40
0.099
  9
$DIMLFAC
 40
1.0
  9
$DIMBLK
  1
_FILLED
  9
$DIMTXT
 40
0.08
  9
$DIMTOL
 70
1
  9
$DIMLIM
 70
0
  9
$DIMTFAC
 40
1.0
  9
$DIMTP
 40
0.001
  9
$DIMTM
 40
0.001
  9
$DIMGAP
 40
0.09
  9
$DIMDSEP
 70
46
  9
$PDMODE
 70
3
  9
$PDSIZE
 40
0.06
  9
$HANDSEED
  5
33D
  9
$TILEMODE
 70
1
  9
$MEASUREMENT
 70
0
  9
$INSUNITS
 70
1
  0
ENDSEC
  0
SECTION
  2
CLASSES
  0
CLASS
  1
ACDBDICTIONARYWDFLT
  2
AcDbDictionaryWithDefault
  3
AutoCAD 2000
 90
0
 91
1
280
0
281
0
  0
CLASS
  1
ACDBPLACEHOLDER
  2
AcDbPlaceHolder
  3
AutoCAD 2000
 90
0
 91
1
280
0
281
0
  0
CLASS
  1
LAYOUT
  2
AcDbLayout
  3
AutoCAD 2000
 90
0
 91
0
280
0
281
0
  0
ENDSEC
  0
SECTION
  2
TABLES
  0
TABLE
  2
VPORT
  5
8
100
AcDbSymbolTable
 70
2
  0
VPORT
  5
1F4
100
AcDbSymbolTableRecord
100
AcDbViewportTableRecord
  2
*ACTIVE
 70
0
 10
0.0
 20
0.0
 11
1.0
 21
1.0
 12
5.5
 22
4.25
 13
0.0
 23
0.0
 14
1.0
 24
1.0
 15
0.0
 25
0.0
 16
0.0
 26
0.0
 36
1.0
 17
0.0
 27
0.0
 37
0.0
 40
8.5
 41
1.2941176471
 42
50.0
 43
0.0
 44
0.0
 50
0.0
 51
0.0
 71
0
 72
100
 73
1
 74
1
 75
0
 76
0
 77
0
 78
0
  0
ENDTAB
  0
TABLE
  2
LTYPE
  5
5
100
AcDbSymbolTable
 70
6
  0
LTYPE
  5
14
100
AcDbSymbolTableRecord
100
AcDbLinetypeTableRecord
  2
BYBLOCK
 70
0
  3

 72
65
 73
0
 40
0.0
  0
LTYPE
  5
15
100
AcDbSymbolTableRecord
100
AcDbLinetypeTableRecord
  2
BYLAYER
 70
0
  3

 72
65
 73
0
 40
0.0
  0
LTYPE
  5
16
100
AcDbSymbolTableRecord
100
AcDbLinetypeTableRecord
  2
CONTINUOUS
 70
64
  3
Solid line
 72
65
 73
0
 40
0.0
  0
LTYPE
  5
1F5
100
AcDbSymbolTableRecord
100
AcDbLinetypeTableRecord
  2
CENTER
 70
64
  3
____ _ ____ _ ____ _ ____ _ ____ _ ____ _ ____
 72
65
 73
4
 40
0.6
 49
0.375
 74
0
 49
-0.075
 74
0
 49
0.075
 74
0
 49
-0.075
 74
0
  0
LTYPE
  5
1F6
100
AcDbSymbolTableRecord
100
AcDbLinetypeTableRecord
  2
HIDDEN
 70
64
  3
- - - - - - - - - - - - - - - - - - - -
 72
65
 73
2
 40
0.2
 49
0.1
 74
0
 49
-0.1
 74
0
  0
LTYPE
  5
1F7
100
AcDbSymbolTableRecord
100
AcDbLinetypeTableRecord
  2
PHANTOM
 70
64
  3
_____ _ _ _____ _ _ _____ _ _ _____
 72
65
 73
6
 40
0.8
 49
0.45
 74
0
 49
-0.05
 74
0
 49
0.1
 74
0
 49
-0.05
 74
0
 49
0.1
 74
0
 49
-0.05
 74
0
  0
LTYPE
  5
1F8
100
AcDbSymbolTableRecord
100
AcDbLinetypeTableRecord
  2
DOT
 70
64
  3
. . . . . . . . . . . . . . . . . . . .
 72
65
 73
2
 40
0.2
 49
0.1
 74
0
 49
-0.1
 74
0
  0
LTYPE
  5
1F9
100
AcDbSymbolTableRecord
100
AcDbLinetypeTableRecord
  2
DASHED
 70
64
  3
- - - - - - - - - - - - - - - - - - - -
 72
65
 73
2
 40
0.2
 49
0.1
 74
0
 49
-0.1
 74
0
  0
ENDTAB
  0
TABLE
  2
LAYER
  5
2
100
AcDbSymbolTable
 70
36
  0
LAYER
  5
10
100
AcDbSymbolTableRecord
100
AcDbLayerTableRecord
  2
0
 70
0
 62
7
  6
CONTINUOUS
370
-3
390
F
  0
LAYER
  5
1FA
100
AcDbSymbolTableRecord
100
AcDbLayerTableRecord
  2
DEFAULT_1
 70
0
 62
7
  6
CENTER
370
-3
390
F
  0
LAYER
  5
1FB
100
AcDbSymbolTableRecord
100
AcDbLayerTableRecord
  2
DEFAULT_2
 70
0
 62
8
  6
HIDDEN
370
-3
390
F
  0
LAYER
  5
1FC
100
AcDbSymbolTableRecord
100
AcDbLayerTableRecord
  2
DEFAULT_3
 70
0
 62
7
  6
PHANTOM
370
-3
390
F
  0
LAYER
  5
1FD
100
AcDbSymbolTableRecord
100
AcDbLayerTableRecord
  2
ALL_ASSEMBLY_MEMBERS
 70
0
 62
7
  6
CONTINUOUS
370
-3
390
F
  0
LAYER
  5
1FE
100
AcDbSymbolTableRecord
100
AcDbLayerTableRecord
  2
ALL_FEATURES
 70
0
 62
7
  6
CONTINUOUS
370
-3
390
F
  0
LAYER
  5
1FF
100
AcDbSymbolTableRecord
100
AcDbLayerTableRecord
  2
AXES_FEATURES
 70
0
 62
7
  6
CONTINUOUS
370
-3
390
F
  0
LAYER
  5
200
100
AcDbSymbolTableRecord
100
AcDbLayerTableRecord
  2
CHAMFER_FEATURES
 70
0
 62
7
  6
CONTINUOUS
370
-3
390
F
  0
LAYER
  5
201
100
AcDbSymbolTableRecord
100
AcDbLayerTableRecord
  2
CUT_FEATURES
 70
0
 62
7
  6
CONTINUOUS
370
-3
390
F
  0
LAYER
  5
202
100
AcDbSymbolTableRecord
100
AcDbLayerTableRecord
  2
DATUM_CURVES
 70
0
 62
7
  6
CONTINUOUS
370
-3
390
F
  0
LAYER
  5
203
100
AcDbSymbolTableRecord
100
AcDbLayerTableRecord
  2
DATUM_PLANES
 70
0
 62
7
  6
CONTINUOUS
370
-3
390
F
  0
LAYER
  5
204
100
AcDbSymbolTableRecord
100
AcDbLayerTableRecord
  2
DATUM_POINTS
 70
0
 62
7
  6
CONTINUOUS
370
-3
390
F
  0
LAYER
  5
205
100
AcDbSymbolTableRecord
100
AcDbLayerTableRecord
  2
DEFAULT_COORDINATE_SYSTEM
 70
0
 62
7
  6
CONTINUOUS
370
-3
390
F
  0
LAYER
  5
206
100
AcDbSymbolTableRecord
100
AcDbLayerTableRecord
  2
DEFAULT_DATUM_AXES
 70
0
 62
7
  6
CONTINUOUS
370
-3
390
F
  0
LAYER
  5
207
100
AcDbSymbolTableRecord
100
AcDbLayerTableRecord
  2
DEFAULT_DATUM_CURVES
 70
0
 62
7
  6
CONTINUOUS
370
-3
390
F
  0
LAYER
  5
208
100
AcDbSymbolTableRecord
100
AcDbLayerTableRecord
  2
DEFAULT_DATUM_PLANES
 70
0
 62
7
  6
CONTINUOUS
370
-3
390
F
  0
LAYER
  5
209
100
AcDbSymbolTableRecord
100
AcDbLayerTableRecord
  2
DEFAULT_SURFACES
 70
0
 62
7
  6
CONTINUOUS
370
-3
390
F
  0
LAYER
  5
20A
100
AcDbSymbolTableRecord
100
AcDbLayerTableRecord
  2
DIMENSIONS
 70
0
 62
7
  6
CONTINUOUS
370
-3
390
F
  0
LAYER
  5
20B
100
AcDbSymbolTableRecord
100
AcDbLayerTableRecord
  2
HOLE_FEATURES
 70
0
 62
7
  6
CONTINUOUS
370
-3
390
F
  0
LAYER
  5
20C
100
AcDbSymbolTableRecord
100
AcDbLayerTableRecord
  2
INTFCLR_1
 70
0
 62
7
  6
CONTINUOUS
370
-3
390
F
  0
LAYER
  5
20D
100
AcDbSymbolTableRecord
100
AcDbLayerTableRecord
  2
NOTES
 70
0
 62
7
  6
CONTINUOUS
370
-3
390
F
  0
LAYER
  5
20E
100
AcDbSymbolTableRecord
100
AcDbLayerTableRecord
  2
PART_REFERENCE_DIMENSIONS
 70
0
 62
7
  6
CONTINUOUS
370
-3
390
F
  0
LAYER
  5
20F
100
AcDbSymbolTableRecord
100
AcDbLayerTableRecord
  2
PLATED_SURFACE_AREA
 70
0
 62
7
  6
CONTINUOUS
370
-3
390
F
  0
LAYER
  5
210
100
AcDbSymbolTableRecord
100
AcDbLayerTableRecord
  2
POINTS
 70
0
 62
7
  6
CONTINUOUS
370
-3
390
F
  0
LAYER
  5
211
100
AcDbSymbolTableRecord
100
AcDbLayerTableRecord
  2
PROTRUSION
 70
0
 62
7
  6
CONTINUOUS
370
-3
390
F
  0
LAYER
  5
212
100
AcDbSymbolTableRecord
100
AcDbLayerTableRecord
  2
PROTRUSION_FEATURES
 70
0
 62
7
  6
CONTINUOUS
370
-3
390
F
  0
LAYER
  5
213
100
AcDbSymbolTableRecord
100
AcDbLayerTableRecord
  2
QUILTS
 70
0
 62
7
  6
CONTINUOUS
370
-3
390
F
  0
LAYER
  5
214
100
AcDbSymbolTableRecord
100
AcDbLayerTableRecord
  2
REFERENCE_DIMENSIONS
 70
0
 62
7
  6
CONTINUOUS
370
-3
390
F
  0
LAYER
  5
215
100
AcDbSymbolTableRecord
100
AcDbLayerTableRecord
  2
ROUND_FEATURES
 70
0
 62
7
  6
CONTINUOUS
370
-3
390
F
  0
LAYER
  5
216
100
AcDbSymbolTableRecord
100
AcDbLayerTableRecord
  2
SIZE_REF
 70
0
 62
7
  6
CONTINUOUS
370
-3
390
F
  0
LAYER
  5
217
100
AcDbSymbolTableRecord
100
AcDbLayerTableRecord
  2
XSEC_DATUMS
 70
0
 62
7
  6
CONTINUOUS
370
-3
390
F
  0
ENDTAB
  0
TABLE
  2
STYLE
  5
3
100
AcDbSymbolTable
 70
1
  0
STYLE
  5
11
100
AcDbSymbolTableRecord
100
AcDbTextStyleTableRecord
  2
STANDARD
 70
0
 40
0.0
 41
0.8
 50
0.0
 71
0
 42
0.2
  3
txt
  4

  0
STYLE
  5
218
100
AcDbSymbolTableRecord
100
AcDbTextStyleTableRecord
  2
TEXTSTYLE_1
 70
0
 40
0.0
 41
0.8
 50
0.0
 71
0
 42
0.2
  3
gdt
  4

  0
ENDTAB
  0
TABLE
  2
VIEW
  5
6
100
AcDbSymbolTable
 70
0
  0
ENDTAB
  0
TABLE
  2
UCS
  5
7
100
AcDbSymbolTable
 70
0
  0
ENDTAB
  0
TABLE
  2
APPID
  5
9
100
AcDbSymbolTable
 70
1
  0
APPID
  5
219
100
AcDbSymbolTableRecord
100
AcDbRegAppTableRecord
  2
ACAD
 70
0
  0
ENDTAB
  0
TABLE
  2
BLOCK_RECORD
  5
1
100
AcDbSymbolTable
 70
0
  0
BLOCK_RECORD
  5
21A
100
AcDbSymbolTableRecord
100
AcDbBlockTableRecord
  2
*Model_Space
  0
BLOCK_RECORD
  5
21B
100
AcDbSymbolTableRecord
100
AcDbBlockTableRecord
  2
*Paper_Space
  0
ENDTAB
  0
TABLE
  2
DIMSTYLE
  5
A
100
AcDbSymbolTable
 70
1
100
AcDbDimStyleTable
 71
0
  0
DIMSTYLE
105
21C
100
AcDbSymbolTableRecord
100
AcDbDimStyleTableRecord
  2
STANDARD
 70
0
  3

  4

 40
1.0
 41
0.1
 42
0.0625
 43
0.38
 44
0.125
 45
0.0
 46
0.0
 47
0.001
 48
0.001
140
0.08
141
0.09
142
0.0
143
25.4
144
1.0
145
0.0
146
1.0
147
0.09
 71
1.0
 72
0.0
 73
1
 74
1
 75
0
 76
0
 77
0
 78
4
170
0
171
2
172
0
173
0
174
0
175
0
176
0
177
0
178
0
270
2
271
3
272
3
273
2
274
2
275
0
280
0
281
0
282
0
283
1
284
4
285
0
286
0
287
3
288
0
340
11
278
46
  0
ENDTAB
  0
ENDSEC
  0
SECTION
  2
BLOCKS
  0
BLOCK
  5
20
100
AcDbEntity
  8
0
100
AcDbBlockBegin
  2
*Model_Space
 70
0
 10
0.0
 20
0.0
 30
0.0
  3
*Model_Space
  1

  0
ENDBLK
  5
21
100
AcDbEntity
  8
0
100
AcDbBlockEnd
  0
BLOCK
  5
1C
100
AcDbEntity
  8
0
100
AcDbBlockBegin
  2
*Paper_Space
 70
0
 10
0.0
 20
0.0
 30
0.0
  3
*Paper_Space
  1

  0
ENDBLK
  5
1D
100
AcDbEntity
  8
0
100
AcDbBlockEnd
  0
ENDSEC
  0
SECTION
  2
ENTITIES
  0
LINE
  5
21D
100
AcDbEntity
  8
0
100
AcDbLine
 62
7
  6
CONTINUOUS
 10
0.0
 20
0.0
 11
0.0
 21
8.5
  0
LINE
  5
21E
100
AcDbEntity
  8
0
100
AcDbLine
 62
7
  6
CONTINUOUS
 10
0.0
 20
0.0
 11
11.0
 21
0.0
  0
LINE
  5
21F
100
AcDbEntity
  8
0
100
AcDbLine
 62
7
  6
CONTINUOUS
 10
0.0
 20
8.5
 11
11.0
 21
8.5
  0
LINE
  5
220
100
AcDbEntity
  8
0
100
AcDbLine
 62
7
  6
CONTINUOUS
 10
11.0
 20
0.0
 11
11.0
 21
8.5
  0
LINE
  5
221
100
AcDbEntity
  8
0
100
AcDbLine
 62
7
  6
CONTINUOUS
 10
4.8222739095
 20
2.1899254277
 11
4.842123841
 21
2.1899254277
  0
LINE
  5
222
100
AcDbEntity
  8
0
100
AcDbLine
 62
7
  6
CONTINUOUS
 10
4.842123841
 20
2.2580700368
 11
4.9125194716
 21
2.2580700368
  0
LINE
  5
223
100
AcDbEntity
  8
0
100
AcDbLine
 62
7
  6
CONTINUOUS
 10
4.9125194716
 20
2.2757712707
 11
4.842123841
 21
2.2757712707
  0
LINE
  5
224
100
AcDbEntity
  8
0
100
AcDbLine
 62
7
  6
CONTINUOUS
 10
4.842123841
 20
2.3222241983
 11
4.9234676319
 21
2.3222241983
  0
LINE
  5
225
100
AcDbEntity
  8
0
100
AcDbLine
 62
7
  6
CONTINUOUS
 10
4.9234676319
 20
2.3399254277
 11
4.8222739095
 21
2.3399254277
  0
LINE
  5
226
100
AcDbEntity
  8
ALL_ASSEMBLY_MEMBERS
100
AcDbLine
 62
7
  6
CONTINUOUS
 10
4.5804706886
 20
2.4223867866
 11
5.0492206886
 21
2.4223867866
  0
LINE
  5
227
100
AcDbEntity
  8
0
100
AcDbLine
 62
7
  6
CONTINUOUS
 10
4.0010501137
 20
2.5933352264
 11
4.0069846285
 21
2.5830563452
  0
LINE
  5
228
100
AcDbEntity
  8
0
100
AcDbLine
 62
7
  6
CONTINUOUS
 10
5.7465501452
 20
3.3145437293
 11
5.763549389
 21
3.3190986629
  0
LINE
  5
229
100
AcDbEntity
  8
0
100
AcDbLine
 62
7
  6
CONTINUOUS
 10
3.8585612559
 20
3.310213466
 11
3.8754934351
 21
3.3047118675
  0
LINE
  5
22A
100
AcDbEntity
  8
0
100
AcDbLine
 62
7
  6
CONTINUOUS
 10
3.8657594855
 20
3.3466051504
 11
3.977375633
 21
3.3103388657
  0
LINE
  5
22B
100
AcDbEntity
  8
0
100
AcDbLine
 62
7
  6
CONTINUOUS
 10
3.9830669411
 20
3.3278549108
 11
3.8398245892
 21
3.3743971722
  0
LINE
  5
22C
100
AcDbEntity
  8
0
100
AcDbLine
 62
7
  6
CONTINUOUS
 10
4.0441742977
 20
2.7844673357
 11
4.080958063
 21
2.7207559854
  0
LINE
  5
22D
100
AcDbEntity
  8
0
100
AcDbLine
 62
7
  6
CONTINUOUS
 10
4.140694326
 20
2.6526921994
 11
4.1314855962
 21
2.6686421874
  0
LINE
  5
22E
100
AcDbEntity
  8
0
100
AcDbLine
 62
7
  6
CONTINUOUS
 10
4.10907768
 20
2.7074538367
 11
4.0595040111
 21
2.7933179498
  0
LINE
  5
22F
100
AcDbEntity
  8
0
100
AcDbLine
 62
7
  6
CONTINUOUS
 10
4.0144738659
 20
2.6568513313
 11
4.006692948
 21
2.6742164067
  0
LINE
  5
230
100
AcDbEntity
  8
0
100
AcDbLine
 62
7
  6
CONTINUOUS
 10
3.9128852519
 20
2.9994094951
 11
3.9867458333
 21
3.0124331085
  0
LINE
  5
231
100
AcDbEntity
  8
0
100
AcDbLine
 62
7
  6
CONTINUOUS
 10
3.98348993
 20
3.0308982538
 11
3.9096293485
 21
3.0178746405
  0
LINE
  5
232
100
AcDbEntity
  8
0
100
AcDbLine
 62
7
  6
CONTINUOUS
 10
5.7442438919
 20
3.3911477588
 11
5.6660623275
 21
3.3852409498
  0
LINE
  5
233
100
AcDbEntity
  8
0
100
AcDbLine
 62
7
  6
CONTINUOUS
 10
5.6900258655
 20
3.3697347268
 11
5.7310580787
 21
3.3723609086
  0
LINE
  5
234
100
AcDbEntity
  8
0
100
AcDbLine
 62
7
  6
CONTINUOUS
 10
5.6186278188
 20
3.0836826147
 11
5.6933424211
 21
3.077145934
  0
LINE
  5
235
100
AcDbEntity
  8
0
100
AcDbLine
 62
7
  6
CONTINUOUS
 10
5.6949765913
 20
3.0958245846
 11
5.6202619889
 21
3.1023612653
  0
LINE
  5
236
100
AcDbEntity
  8
0
100
AcDbLine
 62
7
  6
CONTINUOUS
 10
3.9019698605
 20
3.4570286871
 11
4.0135123786
 21
3.4215563328
  0
LINE
  5
237
100
AcDbEntity
  8
0
100
AcDbLine
 62
7
  6
CONTINUOUS
 10
3.8945745941
 20
3.4210511242
 11
3.9115067733
 21
3.4155495257
  0
LINE
  5
238
100
AcDbEntity
  8
0
100
AcDbLine
 62
7
  6
CONTINUOUS
 10
4.0190802779
 20
3.4386925648
 11
3.8758379261
 21
3.4852348262
  0
LINE
  5
239
100
AcDbEntity
  8
0
100
AcDbLine
 62
7
  6
CONTINUOUS
 10
3.9382330647
 20
3.6117071156
 11
3.9214955047
 21
3.6171454786
  0
LINE
  5
23A
100
AcDbEntity
  8
0
100
AcDbLine
 62
7
  6
CONTINUOUS
 10
3.8984457013
 20
3.5462054781
 11
3.9672313598
 21
3.5085786217
  0
LINE
  5
23B
100
AcDbEntity
  8
0
100
AcDbLine
 62
7
  6
CONTINUOUS
 10
3.9555791401
 20
3.5346347128
 11
3.9197363066
 21
3.5547799479
  0
LINE
  5
23C
100
AcDbEntity
  8
0
100
AcDbLine
 62
7
  6
CONTINUOUS
 10
5.522182048
 20
2.5341481888
 11
5.5365982328
 21
2.5240538675
  0
LINE
  5
23D
100
AcDbEntity
  8
0
100
AcDbLine
 62
7
  6
CONTINUOUS
 10
5.5883895606
 20
2.6228155076
 11
5.6001236637
 21
2.6145992002
  0
LINE
  5
23E
100
AcDbEntity
  8
0
100
AcDbLine
 62
7
  6
CONTINUOUS
 10
3.9096293485
 20
3.0178746405
 11
3.9128852519
 21
2.9994094951
  0
LINE
  5
23F
100
AcDbEntity
  8
0
100
AcDbLine
 62
7
  6
CONTINUOUS
 10
3.9867458333
 20
3.0124331085
 11
3.98348993
 21
3.0308982538
  0
LINE
  5
240
100
AcDbEntity
  8
0
100
AcDbLine
 62
7
  6
CONTINUOUS
 10
5.6558184855
 20
2.6941396489
 11
5.6413184872
 21
2.704292657
  0
LINE
  5
241
100
AcDbEntity
  8
0
100
AcDbLine
 62
7
  6
CONTINUOUS
 10
4.3089019813
 20
3.8296888219
 11
4.2631585364
 21
3.8891288381
  0
LINE
  5
242
100
AcDbEntity
  8
0
100
AcDbLine
 62
7
  6
CONTINUOUS
 10
4.2484635492
 20
3.8780553709
 11
4.2935996759
 21
3.8181577077
  0
LINE
  5
243
100
AcDbEntity
  8
0
100
AcDbLine
 62
7
  6
CONTINUOUS
 10
4.000707682
 20
3.5145923262
 11
3.9962887855
 21
3.4956945666
  0
LINE
  5
244
100
AcDbEntity
  8
0
100
AcDbLine
 62
7
  6
CONTINUOUS
 10
3.8758379261
 20
3.4852348262
 11
3.8721701956
 21
3.4739467124
  0
LINE
  5
245
100
AcDbEntity
  8
0
100
AcDbLine
 62
7
  6
CONTINUOUS
 10
3.8398245892
 20
3.3743971722
 11
3.8361568573
 21
3.3631090542
  0
LINE
  5
246
100
AcDbEntity
  8
0
100
AcDbLine
 62
7
  6
CONTINUOUS
 10
3.9214955047
 20
3.6171454786
 11
3.8984457013
 21
3.5462054781
  0
LINE
  5
247
100
AcDbEntity
  8
0
100
AcDbLine
 62
7
  6
CONTINUOUS
 10
3.9197363066
 20
3.5547799479
 11
3.9382330647
 21
3.6117071156
  0
LINE
  5
248
100
AcDbEntity
  8
0
100
AcDbLine
 62
7
  6
CONTINUOUS
 10
3.977375633
 20
3.3103388657
 11
3.9830669411
 21
3.3278549108
  0
LINE
  5
249
100
AcDbEntity
  8
0
100
AcDbLine
 62
7
  6
CONTINUOUS
 10
4.0135123786
 20
3.4215563328
 11
4.0190802779
 21
3.4386925648
  0
LINE
  5
24A
100
AcDbEntity
  8
0
100
AcDbLine
 62
7
  6
CONTINUOUS
 10
5.579381708
 20
2.5851550024
 11
5.5246026889
 21
2.6412487317
  0
LINE
  5
24B
100
AcDbEntity
  8
0
100
AcDbLine
 62
7
  6
CONTINUOUS
 10
5.5281276982
 20
2.6129243885
 11
5.5565144685
 21
2.5831799668
  0
LINE
  5
24C
100
AcDbEntity
  8
ALL_ASSEMBLY_MEMBERS
100
AcDbLine
 62
7
  6
CONTINUOUS
 10
4.5804706886
 20
2.4223867866
 11
4.5804706886
 21
3.9223867866
  0
LINE
  5
24D
100
AcDbEntity
  8
ALL_ASSEMBLY_MEMBERS
100
AcDbLine
 62
7
  6
CONTINUOUS
 10
4.5804706886
 20
4.7848867866
 11
4.5804706886
 21
6.2848867866
  0
LINE
  5
24E
100
AcDbEntity
  8
0
100
AcDbLine
 62
7
  6
CONTINUOUS
 10
3.9672313598
 20
3.5085786217
 11
3.9747157153
 21
3.5243286406
  0
LINE
  5
24F
100
AcDbEntity
  8
ALL_ASSEMBLY_MEMBERS
100
AcDbLine
 62
7
  6
CONTINUOUS
 10
4.5804706886
 20
3.9223867866
 11
5.0492206886
 21
3.9223867866
  0
LINE
  5
250
100
AcDbEntity
  8
0
100
AcDbLine
 62
7
  6
CONTINUOUS
 10
4.6824222654
 20
3.9899254277
 11
4.7008397252
 21
3.9899254277
  0
LINE
  5
251
100
AcDbEntity
  8
0
100
AcDbLine
 62
7
  6
CONTINUOUS
 10
4.6455873415
 20
4.1028858647
 11
4.6455873415
 21
4.0850823179
  0
LINE
  5
252
100
AcDbEntity
  8
0
100
AcDbLine
 62
7
  6
CONTINUOUS
 10
4.6824222654
 20
4.1072855905
 11
4.6824222654
 21
3.9899254277
  0
LINE
  5
253
100
AcDbEntity
  8
0
100
AcDbLine
 62
7
  6
CONTINUOUS
 10
4.7008397252
 20
3.9899254277
 11
4.7008397252
 21
4.1405393496
  0
LINE
  5
254
100
AcDbEntity
  8
0
100
AcDbLine
 62
7
  6
CONTINUOUS
 10
4.8222739095
 20
2.3399254277
 11
4.8222739095
 21
2.1899254277
  0
LINE
  5
255
100
AcDbEntity
  8
0
100
AcDbLine
 62
7
  6
CONTINUOUS
 10
4.842123841
 20
2.1899254277
 11
4.842123841
 21
2.2580700368
  0
LINE
  5
256
100
AcDbEntity
  8
0
100
AcDbLine
 62
7
  6
CONTINUOUS
 10
4.842123841
 20
2.2757712707
 11
4.842123841
 21
2.3222241983
  0
LINE
  5
257
100
AcDbEntity
  8
0
100
AcDbLine
 62
7
  6
CONTINUOUS
 10
4.7008397252
 20
4.1405393496
 11
4.6889706955
 21
4.1405393496
  0
LINE
  5
258
100
AcDbEntity
  8
0
100
AcDbLine
 62
7
  6
CONTINUOUS
 10
5.3207023893
 20
3.8029382271
 11
5.3350657226
 21
3.7908859595
  0
LINE
  5
259
100
AcDbEntity
  8
0
100
AcDbLine
 62
7
  6
CONTINUOUS
 10
5.3832747933
 20
3.8483392927
 11
5.36891146
 21
3.8603915604
  0
LINE
  5
25A
100
AcDbEntity
  8
0
100
AcDbLine
 62
7
  6
CONTINUOUS
 10
4.9125194716
 20
2.2580700368
 11
4.9125194716
 21
2.2757712707
  0
LINE
  5
25B
100
AcDbEntity
  8
0
100
AcDbLine
 62
7
  6
CONTINUOUS
 10
4.9234676319
 20
2.3222241983
 11
4.9234676319
 21
2.3399254277
  0
LINE
  5
25C
100
AcDbEntity
  8
ALL_ASSEMBLY_MEMBERS
100
AcDbLine
 62
7
  6
CONTINUOUS
 10
5.0492206886
 20
2.4223867866
 11
5.0492206886
 21
3.9223867866
  0
LINE
  5
25D
100
AcDbEntity
  8
ALL_ASSEMBLY_MEMBERS
100
AcDbLine
 62
7
  6
CONTINUOUS
 10
5.0492206886
 20
4.7848867866
 11
5.0492206886
 21
6.2848867866
  0
LINE
  5
25E
100
AcDbEntity
  8
0
100
AcDbLine
 62
7
  6
CONTINUOUS
 10
4.2631585364
 20
3.8891288381
 11
4.2484635492
 21
3.8780553709
  0
LINE
  5
25F
100
AcDbEntity
  8
0
100
AcDbLine
 62
7
  6
CONTINUOUS
 10
4.2935996759
 20
3.8181577077
 11
4.3089019813
 21
3.8296888219
  0
LINE
  5
260
100
AcDbEntity
  8
ALL_ASSEMBLY_MEMBERS
100
AcDbLine
 62
7
  6
CONTINUOUS
 10
4.5804706886
 20
4.7848867866
 11
5.0492206886
 21
4.7848867866
  0
LINE
  5
261
100
AcDbEntity
  8
0
100
AcDbLine
 62
7
  6
CONTINUOUS
 10
5.6412620196
 20
3.3619649211
 11
5.6346755627
 21
3.3802206107
  0
LINE
  5
262
100
AcDbEntity
  8
0
100
AcDbLine
 62
7
  6
CONTINUOUS
 10
5.36891146
 20
3.8603915604
 11
5.3207023893
 21
3.8029382271
  0
LINE
  5
263
100
AcDbEntity
  8
0
100
AcDbLine
 62
7
  6
CONTINUOUS
 10
5.3350657226
 20
3.7908859595
 11
5.3832747933
 21
3.8483392927
  0
LINE
  5
264
100
AcDbEntity
  8
0
100
AcDbLine
 62
7
  6
CONTINUOUS
 10
5.7310580787
 20
3.3723609086
 11
5.7465501452
 21
3.3145437293
  0
LINE
  5
265
100
AcDbEntity
  8
0
100
AcDbLine
 62
7
  6
CONTINUOUS
 10
5.763549389
 20
3.3190986629
 11
5.7442438919
 21
3.3911477588
  0
LINE
  5
266
100
AcDbEntity
  8
0
100
AcDbLine
 62
7
  6
CONTINUOUS
 10
5.6660623275
 20
3.3852409498
 11
5.6683634939
 21
3.3679556003
  0
LINE
  5
267
100
AcDbEntity
  8
0
100
AcDbLine
 62
7
  6
CONTINUOUS
 10
5.6202619889
 20
3.1023612653
 11
5.6186278188
 21
3.0836826147
  0
LINE
  5
268
100
AcDbEntity
  8
0
100
AcDbLine
 62
7
  6
CONTINUOUS
 10
5.6933424211
 20
3.077145934
 11
5.6949765913
 21
3.0958245846
  0
LINE
  5
269
100
AcDbEntity
  8
0
100
AcDbLine
 62
7
  6
CONTINUOUS
 10
4.0595040111
 20
2.7933179498
 11
4.0441742977
 21
2.7844673357
  0
LINE
  5
26A
100
AcDbEntity
  8
0
100
AcDbLine
 62
7
  6
CONTINUOUS
 10
4.1314855962
 20
2.6686421874
 11
4.0010501137
 21
2.5933352264
  0
LINE
  5
26B
100
AcDbEntity
  8
0
100
AcDbLine
 62
7
  6
CONTINUOUS
 10
4.0390574437
 20
2.594012118
 11
4.140694326
 21
2.6526921994
  0
LINE
  5
26C
100
AcDbEntity
  8
0
100
AcDbLine
 62
7
  6
CONTINUOUS
 10
4.06128518
 20
2.564312001
 11
4.0767035038
 21
2.5732137744
  0
LINE
  5
26D
100
AcDbEntity
  8
0
100
AcDbLine
 62
7
  6
CONTINUOUS
 10
5.4908308858
 20
2.6452853269
 11
5.5005818625
 21
2.6620653766
  0
LINE
  5
26E
100
AcDbEntity
  8
0
100
AcDbLine
 62
7
  6
CONTINUOUS
 10
5.5225071437
 20
2.7618789672
 11
5.5116498823
 21
2.7463731909
  0
LINE
  5
26F
100
AcDbEntity
  8
0
100
AcDbLine
 62
7
  6
CONTINUOUS
 10
5.6413184872
 20
2.704292657
 11
5.5991805752
 21
2.6441134821
  0
LINE
  5
270
100
AcDbEntity
  8
0
100
AcDbLine
 62
7
  6
CONTINUOUS
 10
5.5565144685
 20
2.5831799668
 11
5.522182048
 21
2.5341481888
  0
LINE
  5
271
100
AcDbEntity
  8
0
100
AcDbLine
 62
7
  6
CONTINUOUS
 10
5.5365982328
 20
2.5240538675
 11
5.579381708
 21
2.5851550024
  0
LINE
  5
272
100
AcDbEntity
  8
0
100
AcDbLine
 62
7
  6
CONTINUOUS
 10
5.6001236637
 20
2.6145992002
 11
5.6558184855
 21
2.6941396489
  0
LINE
  5
273
100
AcDbEntity
  8
0
100
AcDbLine
 62
7
  6
CONTINUOUS
 10
5.5246026889
 20
2.6412487317
 11
5.5128405042
 21
2.6283751275
  0
LINE
  5
274
100
AcDbEntity
  8
ALL_ASSEMBLY_MEMBERS
100
AcDbLine
 62
7
  6
CONTINUOUS
 10
4.5804706886
 20
6.2848867866
 11
5.0492206886
 21
6.2848867866
  0
ARC
  5
275
100
AcDbEntity
  8
0
100
AcDbCircle
 62
7
  6
CONTINUOUS
 10
4.8148456886
 20
3.1712647394
 40
0.6274606299
100
AcDbArc
 50
111.9347860237
 51
248.0652139763
  0
ARC
  5
276
100
AcDbEntity
  8
0
100
AcDbCircle
 62
7
  6
CONTINUOUS
 10
4.8148456886
 20
3.1712647394
 40
0.6274606299
100
AcDbArc
 50
291.9347860237
 51
68.0652139763
  0
ARC
  5
277
100
AcDbEntity
  8
ALL_FEATURES
100
AcDbCircle
 62
7
  6
CONTINUOUS
 10
4.8148456886
 20
3.1723867866
 40
0.6200787402
100
AcDbArc
 50
292.2115064307
 51
67.7884935693
  0
ARC
  5
278
100
AcDbEntity
  8
ALL_FEATURES
100
AcDbCircle
 62
7
  6
CONTINUOUS
 10
4.8148456886
 20
3.1723867866
 40
0.6200787402
100
AcDbArc
 50
112.2115064307
 51
247.7884935693
  0
ARC
  5
279
100
AcDbEntity
  8
0
100
AcDbCircle
 62
7
  6
CONTINUOUS
 10
4.8148456886
 20
3.1712647394
 40
0.6200625
100
AcDbArc
 50
292.2093285032
 51
358.6921559735
  0
ARC
  5
27A
100
AcDbEntity
  8
0
100
AcDbCircle
 62
7
  6
CONTINUOUS
 10
4.8148456886
 20
3.1712647394
 40
0.6200625
100
AcDbArc
 50
181.3078440265
 51
247.7906714968
  0
ARC
  5
27B
100
AcDbEntity
  8
ALL_FEATURES
100
AcDbCircle
 62
7
  6
CONTINUOUS
 10
4.8148456886
 20
3.1723867866
 40
0.49125
100
AcDbArc
 50
118.4985936677
 51
241.5014063323
  0
ARC
  5
27C
100
AcDbEntity
  8
ALL_FEATURES
100
AcDbCircle
 62
7
  6
CONTINUOUS
 10
4.8148456886
 20
3.1723867866
 40
0.49125
100
AcDbArc
 50
298.4985936677
 51
61.5014063323
  0
CIRCLE
  5
27D
100
AcDbEntity
  8
0
100
AcDbCircle
 62
7
  6
CONTINUOUS
 10
4.7600842779
 20
2.3163004277
 40
0.023625
  0
CIRCLE
  5
27E
100
AcDbEntity
  8
0
100
AcDbCircle
 62
7
  6
CONTINUOUS
 10
4.7600842779
 20
2.3163004277
 40
0.01171875
  0
CIRCLE
  5
27F
100
AcDbEntity
  8
0
100
AcDbCircle
 62
7
  6
CONTINUOUS
 10
4.8148456886
 20
4.3536367866
 40
2.65875
  0
CIRCLE
  5
280
100
AcDbEntity
  8
0
100
AcDbCircle
 62
9
  6
CONTINUOUS
 10
4.8148456886
 20
4.3536367866
 40
2.62125
  0
ARC
  5
281
100
AcDbEntity
  8
0
100
AcDbCircle
 62
7
  6
CONTINUOUS
 10
4.8148456886
 20
5.5348867866
 40
0.6200775
100
AcDbArc
 50
112.2123413515
 51
247.7876586485
  0
ARC
  5
282
100
AcDbEntity
  8
0
100
AcDbCircle
 62
7
  6
CONTINUOUS
 10
4.8148456886
 20
5.5348867866
 40
0.6200775
100
AcDbArc
 50
292.2123413515
 51
67.7876586485
  0
ARC
  5
283
100
AcDbEntity
  8
0
100
AcDbCircle
 62
7
  6
CONTINUOUS
 10
4.8148456886
 20
5.5348867866
 40
0.50325
100
AcDbArc
 50
117.7601806727
 51
242.2398193273
  0
ARC
  5
284
100
AcDbEntity
  8
0
100
AcDbCircle
 62
7
  6
CONTINUOUS
 10
4.8148456886
 20
5.5348867866
 40
0.50325
100
AcDbArc
 50
297.7601806727
 51
62.2398193273
  0
ARC
  5
285
100
AcDbEntity
  8
ALL_FEATURES
100
AcDbCircle
 62
7
  6
CONTINUOUS
 10
4.8148456886
 20
5.5348867866
 40
0.4886988938
100
AcDbArc
 50
298.6654516913
 51
61.3346142264
  0
ARC
  5
286
100
AcDbEntity
  8
ALL_FEATURES
100
AcDbCircle
 62
7
  6
CONTINUOUS
 10
4.8148456886
 20
5.5348867866
 40
0.4886988938
100
AcDbArc
 50
118.6654516913
 51
241.3346142264
  0
ARC
  5
287
100
AcDbEntity
  8
ALL_FEATURES
100
AcDbCircle
 62
7
  6
CONTINUOUS
 10
4.8148456886
 20
5.5348867866
 40
0.485625
100
AcDbArc
 50
118.8640856053
 51
241.1359143947
  0
ARC
  5
288
100
AcDbEntity
  8
ALL_FEATURES
100
AcDbCircle
 62
7
  6
CONTINUOUS
 10
4.8148456886
 20
5.5348867866
 40
0.485625
100
AcDbArc
 50
298.8640856053
 51
61.1359143947
  0
ARC
  5
289
100
AcDbEntity
  8
0
100
AcDbCircle
 62
7
  6
CONTINUOUS
 10
5.3495888693
 20
2.5624592889
 40
0.2463036723
100
AcDbArc
 50
25.7192428244
 51
38.8502571725
  0
SPLINE
  5
28A
100
AcDbEntity
  8
0
100
AcDbSpline
 62
7
  6
CONTINUOUS
 70
0
 71
3
 72
8
 73
4
 74
0
 42
0.0000001
 43
0.0000001
 44
0.0000000001
 40
0.0
 40
0.0
 40
0.0
 40
0.0
 40
1.0
 40
1.0
 40
1.0
 40
1.0
 10
4.6889706955
 20
4.1405393496
 30
0.0
 10
4.6856964827
 20
4.1339909151
 30
0.0
 10
4.6802735612
 20
4.1273401633
 30
0.0
 10
4.6726023144
 20
4.1204817621
 30
0.0
  0
SPLINE
  5
28B
100
AcDbEntity
  8
0
100
AcDbSpline
 62
7
  6
CONTINUOUS
 70
0
 71
3
 72
8
 73
4
 74
0
 42
0.0000001
 43
0.0000001
 44
0.0000000001
 40
0.0
 40
0.0
 40
0.0
 40
0.0
 40
1.0
 40
1.0
 40
1.0
 40
1.0
 10
4.6726023144
 20
4.1204817621
 30
0.0
 10
4.6648233578
 20
4.113527064
 30
0.0
 10
4.6558192648
 20
4.1076948687
 30
0.0
 10
4.6455873415
 20
4.1028858647
 30
0.0
  0
SPLINE
  5
28C
100
AcDbEntity
  8
0
100
AcDbSpline
 62
7
  6
CONTINUOUS
 70
0
 71
3
 72
8
 73
4
 74
0
 42
0.0000001
 43
0.0000001
 44
0.0000000001
 40
0.0
 40
0.0
 40
0.0
 40
0.0
 40
1.0
 40
1.0
 40
1.0
 40
1.0
 10
4.6455873415
 20
4.0850823179
 30
0.0
 10
4.6513172195
 20
4.0871287003
 30
0.0
 10
4.6577633299
 20
4.0903006002
 30
0.0
 10
4.6649480189
 20
4.0945600916
 30
0.0
  0
SPLINE
  5
28D
100
AcDbEntity
  8
0
100
AcDbSpline
 62
7
  6
CONTINUOUS
 70
0
 71
3
 72
8
 73
4
 74
0
 42
0.0000001
 43
0.0000001
 44
0.0000000001
 40
0.0
 40
0.0
 40
0.0
 40
0.0
 40
1.0
 40
1.0
 40
1.0
 40
1.0
 10
4.6649480189
 20
4.0945600916
 30
0.0
 10
4.6720880226
 20
4.0987930909
 30
0.0
 10
4.6779202178
 20
4.102988182
 30
0.0
 10
4.6824222654
 20
4.1072855905
 30
0.0
  0
SPLINE
  5
28E
100
AcDbEntity
  8
0
100
AcDbSpline
 62
7
  6
CONTINUOUS
 70
0
 71
3
 72
8
 73
4
 74
0
 42
0.0000001
 43
0.0000001
 44
0.0000000001
 40
0.0
 40
0.0
 40
0.0
 40
0.0
 40
1.0
 40
1.0
 40
1.0
 40
1.0
 10
4.748008892
 20
4.0639022365
 30
0.0
 10
4.748008892
 20
4.035662125
 30
0.0
 10
4.7529202223
 20
4.0154029176
 30
0.0
 10
4.7628074489
 20
4.002890265
 30
0.0
  0
SPLINE
  5
28F
100
AcDbEntity
  8
0
100
AcDbSpline
 62
7
  6
CONTINUOUS
 70
0
 71
3
 72
8
 73
4
 74
0
 42
0.0000001
 43
0.0000001
 44
0.0000000001
 40
0.0
 40
0.0
 40
0.0
 40
0.0
 40
1.0
 40
1.0
 40
1.0
 40
1.0
 10
4.7628074489
 20
4.002890265
 30
0.0
 10
4.7710307211
 20
3.9924834086
 30
0.0
 10
4.7823881597
 20
3.9873674469
 30
0.0
 10
4.7969174892
 20
3.9873674469
 30
0.0
  0
SPLINE
  5
290
100
AcDbEntity
  8
0
100
AcDbSpline
 62
7
  6
CONTINUOUS
 70
0
 71
3
 72
8
 73
4
 74
0
 42
0.0000001
 43
0.0000001
 44
0.0000000001
 40
0.0
 40
0.0
 40
0.0
 40
0.0
 40
1.0
 40
1.0
 40
1.0
 40
1.0
 10
4.7969174892
 20
3.9873674469
 30
0.0
 10
4.8078656405
 20
3.9873674469
 30
0.0
 10
4.816972062
 20
3.9902323854
 30
0.0
 10
4.8241344041
 20
3.9961668969
 30
0.0
  0
SPLINE
  5
291
100
AcDbEntity
  8
0
100
AcDbSpline
 62
7
  6
CONTINUOUS
 70
0
 71
3
 72
8
 73
4
 74
0
 42
0.0000001
 43
0.0000001
 44
0.0000000001
 40
0.0
 40
0.0
 40
0.0
 40
0.0
 40
1.0
 40
1.0
 40
1.0
 40
1.0
 10
4.8241344041
 20
3.9961668969
 30
0.0
 10
4.8312967569
 20
4.0021014173
 30
0.0
 10
4.8367196828
 20
4.0103892744
 30
0.0
 10
4.8403571365
 20
4.0212504179
 30
0.0
  0
SPLINE
  5
292
100
AcDbEntity
  8
0
100
AcDbSpline
 62
7
  6
CONTINUOUS
 70
0
 71
3
 72
8
 73
4
 74
0
 42
0.0000001
 43
0.0000001
 44
0.0000000001
 40
0.0
 40
0.0
 40
0.0
 40
0.0
 40
1.0
 40
1.0
 40
1.0
 40
1.0
 10
4.8403571365
 20
4.0212504179
 30
0.0
 10
4.8439843387
 20
4.0320809513
 30
0.0
 10
4.8458260864
 20
4.0463033289
 30
0.0
 10
4.8458260864
 20
4.0639022365
 30
0.0
  0
SPLINE
  5
293
100
AcDbEntity
  8
0
100
AcDbSpline
 62
7
  6
CONTINUOUS
 70
0
 71
3
 72
8
 73
4
 74
0
 42
0.0000001
 43
0.0000001
 44
0.0000000001
 40
0.0
 40
0.0
 40
0.0
 40
0.0
 40
1.0
 40
1.0
 40
1.0
 40
1.0
 10
4.8458260864
 20
4.0639022365
 30
0.0
 10
4.8458260864
 20
4.078738527
 30
0.0
 10
4.8447005779
 20
4.0905052349
 30
0.0
 10
4.8424495502
 20
4.0993046973
 30
0.0
  0
SPLINE
  5
294
100
AcDbEntity
  8
0
100
AcDbSpline
 62
7
  6
CONTINUOUS
 70
0
 71
3
 72
8
 73
4
 74
0
 42
0.0000001
 43
0.0000001
 44
0.0000000001
 40
0.0
 40
0.0
 40
0.0
 40
0.0
 40
1.0
 40
1.0
 40
1.0
 40
1.0
 10
4.8424495502
 20
4.0993046973
 30
0.0
 10
4.8401985258
 20
4.108104147
 30
0.0
 10
4.8370266348
 20
4.1154711291
 30
0.0
 10
4.8331023349
 20
4.121586926
 30
0.0
  0
SPLINE
  5
295
100
AcDbEntity
  8
0
100
AcDbSpline
 62
7
  6
CONTINUOUS
 70
0
 71
3
 72
8
 73
4
 74
0
 42
0.0000001
 43
0.0000001
 44
0.0000000001
 40
0.0
 40
0.0
 40
0.0
 40
0.0
 40
1.0
 40
1.0
 40
1.0
 40
1.0
 10
4.8331023349
 20
4.121586926
 30
0.0
 10
4.8291480571
 20
4.1277494416
 30
0.0
 10
4.8241344005
 20
4.132353802
 30
0.0
 10
4.8180861301
 20
4.1356066582
 30
0.0
  0
SPLINE
  5
296
100
AcDbEntity
  8
0
100
AcDbSpline
 62
7
  6
CONTINUOUS
 70
0
 71
3
 72
8
 73
4
 74
0
 42
0.0000001
 43
0.0000001
 44
0.0000000001
 40
0.0
 40
0.0
 40
0.0
 40
0.0
 40
1.0
 40
1.0
 40
1.0
 40
1.0
 10
4.8180861301
 20
4.1356066582
 30
0.0
 10
4.8119584233
 20
4.1389022365
 30
0.0
 10
4.8048983842
 20
4.1405393496
 30
0.0
 10
4.7969174892
 20
4.1405393496
 30
0.0
  0
SPLINE
  5
297
100
AcDbEntity
  8
0
100
AcDbSpline
 62
7
  6
CONTINUOUS
 70
0
 71
3
 72
8
 73
4
 74
0
 42
0.0000001
 43
0.0000001
 44
0.0000000001
 40
0.0
 40
0.0
 40
0.0
 40
0.0
 40
1.0
 40
1.0
 40
1.0
 40
1.0
 10
4.7969174892
 20
4.1405393496
 30
0.0
 10
4.7859693378
 20
4.1405393496
 30
0.0
 10
4.7768629164
 20
4.1375720844
 30
0.0
 10
4.7697257333
 20
4.1317093975
 30
0.0
  0
SPLINE
  5
298
100
AcDbEntity
  8
0
100
AcDbSpline
 62
7
  6
CONTINUOUS
 70
0
 71
3
 72
8
 73
4
 74
0
 42
0.0000001
 43
0.0000001
 44
0.0000000001
 40
0.0
 40
0.0
 40
0.0
 40
0.0
 40
1.0
 40
1.0
 40
1.0
 40
1.0
 10
4.7697257333
 20
4.1317093975
 30
0.0
 10
4.7625382304
 20
4.1258053765
 30
0.0
 10
4.7571153045
 20
4.1175175115
 30
0.0
 10
4.7534318153
 20
4.1066716784
 30
0.0
  0
SPLINE
  5
299
100
AcDbEntity
  8
0
100
AcDbSpline
 62
7
  6
CONTINUOUS
 70
0
 71
3
 72
8
 73
4
 74
0
 42
0.0000001
 43
0.0000001
 44
0.0000000001
 40
0.0
 40
0.0
 40
0.0
 40
0.0
 40
1.0
 40
1.0
 40
1.0
 40
1.0
 10
4.7534318153
 20
4.1066716784
 30
0.0
 10
4.7497483224
 20
4.0958258346
 30
0.0
 10
4.748008892
 20
4.081603466
 30
0.0
 10
4.748008892
 20
4.0639022365
 30
0.0
  0
SPLINE
  5
29A
100
AcDbEntity
  8
0
100
AcDbSpline
 62
7
  6
CONTINUOUS
 70
0
 71
3
 72
8
 73
4
 74
0
 42
0.0000001
 43
0.0000001
 44
0.0000000001
 40
0.0
 40
0.0
 40
0.0
 40
0.0
 40
1.0
 40
1.0
 40
1.0
 40
1.0
 10
4.8181757774
 20
4.1131008554
 30
0.0
 10
4.81247001
 20
4.1212010071
 30
0.0
 10
4.8053076715
 20
4.1252937809
 30
0.0
 10
4.7967128545
 20
4.1252937809
 30
0.0
  0
SPLINE
  5
29B
100
AcDbEntity
  8
0
100
AcDbSpline
 62
7
  6
CONTINUOUS
 70
0
 71
3
 72
8
 73
4
 74
0
 42
0.0000001
 43
0.0000001
 44
0.0000000001
 40
0.0
 40
0.0
 40
0.0
 40
0.0
 40
1.0
 40
1.0
 40
1.0
 40
1.0
 10
4.8268970222
 20
4.0639022365
 30
0.0
 10
4.8268970222
 20
4.0885611698
 30
0.0
 10
4.8239297658
 20
4.1049322471
 30
0.0
 10
4.8181757774
 20
4.1131008554
 30
0.0
  0
SPLINE
  5
29C
100
AcDbEntity
  8
0
100
AcDbSpline
 62
7
  6
CONTINUOUS
 70
0
 71
3
 72
8
 73
4
 74
0
 42
0.0000001
 43
0.0000001
 44
0.0000000001
 40
0.0
 40
0.0
 40
0.0
 40
0.0
 40
1.0
 40
1.0
 40
1.0
 40
1.0
 10
4.8181998879
 20
4.0147890024
 30
0.0
 10
4.8239297658
 20
4.022974541
 30
0.0
 10
4.8268970222
 20
4.0393456206
 30
0.0
 10
4.8268970222
 20
4.0639022365
 30
0.0
  0
SPLINE
  5
29D
100
AcDbEntity
  8
0
100
AcDbSpline
 62
7
  6
CONTINUOUS
 70
0
 71
3
 72
8
 73
4
 74
0
 42
0.0000001
 43
0.0000001
 44
0.0000000001
 40
0.0
 40
0.0
 40
0.0
 40
0.0
 40
1.0
 40
1.0
 40
1.0
 40
1.0
 10
4.7969174892
 20
4.0025106933
 30
0.0
 10
4.8053076715
 20
4.0025106933
 30
0.0
 10
4.81247001
 20
4.0066034637
 30
0.0
 10
4.8181998879
 20
4.0147890024
 30
0.0
  0
SPLINE
  5
29E
100
AcDbEntity
  8
0
100
AcDbSpline
 62
7
  6
CONTINUOUS
 70
0
 71
3
 72
8
 73
4
 74
0
 42
0.0000001
 43
0.0000001
 44
0.0000000001
 40
0.0
 40
0.0
 40
0.0
 40
0.0
 40
1.0
 40
1.0
 40
1.0
 40
1.0
 10
4.7755327732
 20
4.0146866828
 30
0.0
 10
4.7812626511
 20
4.0065011442
 30
0.0
 10
4.7884249896
 20
4.0025106933
 30
0.0
 10
4.7969174892
 20
4.0025106933
 30
0.0
  0
SPLINE
  5
29F
100
AcDbEntity
  8
0
100
AcDbSpline
 62
7
  6
CONTINUOUS
 70
0
 71
3
 72
8
 73
4
 74
0
 42
0.0000001
 43
0.0000001
 44
0.0000000001
 40
0.0
 40
0.0
 40
0.0
 40
0.0
 40
1.0
 40
1.0
 40
1.0
 40
1.0
 10
4.7669379562
 20
4.0639022365
 30
0.0
 10
4.7669379562
 20
4.0392432988
 30
0.0
 10
4.7698028952
 20
4.0228722215
 30
0.0
 10
4.7755327732
 20
4.0146866828
 30
0.0
  0
SPLINE
  5
2A0
100
AcDbEntity
  8
0
100
AcDbSpline
 62
7
  6
CONTINUOUS
 70
0
 71
3
 72
8
 73
4
 74
0
 42
0.0000001
 43
0.0000001
 44
0.0000000001
 40
0.0
 40
0.0
 40
0.0
 40
0.0
 40
1.0
 40
1.0
 40
1.0
 40
1.0
 10
4.7764838189
 20
4.1145292294
 30
0.0
 10
4.7701098472
 20
4.1053415254
 30
0.0
 10
4.7669379562
 20
4.0884588525
 30
0.0
 10
4.7669379562
 20
4.0639022365
 30
0.0
  0
SPLINE
  5
2A1
100
AcDbEntity
  8
0
100
AcDbSpline
 62
7
  6
CONTINUOUS
 70
0
 71
3
 72
8
 73
4
 74
0
 42
0.0000001
 43
0.0000001
 44
0.0000000001
 40
0.0
 40
0.0
 40
0.0
 40
0.0
 40
1.0
 40
1.0
 40
1.0
 40
1.0
 10
4.7967128545
 20
4.1252937809
 30
0.0
 10
4.7882203549
 20
4.1252937809
 30
0.0
 10
4.7814672858
 20
4.1217126027
 30
0.0
 10
4.7764838189
 20
4.1145292294
 30
0.0
  0
SPLINE
  5
2A2
100
AcDbEntity
  8
0
100
AcDbSpline
 62
7
  6
CONTINUOUS
 70
0
 71
3
 72
8
 73
4
 74
0
 42
0.0000001
 43
0.0000001
 44
0.0000000001
 40
0.0
 40
0.0
 40
0.0
 40
0.0
 40
1.0
 40
1.0
 40
1.0
 40
1.0
 10
4.8699734255
 20
4.1066716771
 30
0.0
 10
4.8662899286
 20
4.0958258346
 30
0.0
 10
4.8645504982
 20
4.081603466
 30
0.0
 10
4.8645504982
 20
4.0639022365
 30
0.0
  0
SPLINE
  5
2A3
100
AcDbEntity
  8
0
100
AcDbSpline
 62
7
  6
CONTINUOUS
 70
0
 71
3
 72
8
 73
4
 74
0
 42
0.0000001
 43
0.0000001
 44
0.0000000001
 40
0.0
 40
0.0
 40
0.0
 40
0.0
 40
1.0
 40
1.0
 40
1.0
 40
1.0
 10
4.8645504982
 20
4.0639022365
 30
0.0
 10
4.8645504982
 20
4.035662125
 30
0.0
 10
4.8694618374
 20
4.0154029176
 30
0.0
 10
4.879349061
 20
4.0028902627
 30
0.0
  0
SPLINE
  5
2A4
100
AcDbEntity
  8
0
100
AcDbSpline
 62
7
  6
CONTINUOUS
 70
0
 71
3
 72
8
 73
4
 74
0
 42
0.0000001
 43
0.0000001
 44
0.0000000001
 40
0.0
 40
0.0
 40
0.0
 40
0.0
 40
1.0
 40
1.0
 40
1.0
 40
1.0
 10
4.879349061
 20
4.0028902627
 30
0.0
 10
4.8875723273
 20
3.9924834086
 30
0.0
 10
4.8989297658
 20
3.9873674469
 30
0.0
 10
4.9134590954
 20
3.9873674469
 30
0.0
  0
SPLINE
  5
2A5
100
AcDbEntity
  8
0
100
AcDbSpline
 62
7
  6
CONTINUOUS
 70
0
 71
3
 72
8
 73
4
 74
0
 42
0.0000001
 43
0.0000001
 44
0.0000000001
 40
0.0
 40
0.0
 40
0.0
 40
0.0
 40
1.0
 40
1.0
 40
1.0
 40
1.0
 10
4.9134590954
 20
3.9873674469
 30
0.0
 10
4.9244072646
 20
3.9873674469
 30
0.0
 10
4.9335136861
 20
3.9902323854
 30
0.0
 10
4.940676014
 20
3.9961668925
 30
0.0
  0
SPLINE
  5
2A6
100
AcDbEntity
  8
0
100
AcDbSpline
 62
7
  6
CONTINUOUS
 70
0
 71
3
 72
8
 73
4
 74
0
 42
0.0000001
 43
0.0000001
 44
0.0000000001
 40
0.0
 40
0.0
 40
0.0
 40
0.0
 40
1.0
 40
1.0
 40
1.0
 40
1.0
 10
4.940676014
 20
3.9961668925
 30
0.0
 10
4.9478383631
 20
4.0021014173
 30
0.0
 10
4.953261289
 20
4.0103892744
 30
0.0
 10
4.9568987525
 20
4.0212504206
 30
0.0
  0
SPLINE
  5
2A7
100
AcDbEntity
  8
0
100
AcDbSpline
 62
7
  6
CONTINUOUS
 70
0
 71
3
 72
8
 73
4
 74
0
 42
0.0000001
 43
0.0000001
 44
0.0000000001
 40
0.0
 40
0.0
 40
0.0
 40
0.0
 40
1.0
 40
1.0
 40
1.0
 40
1.0
 10
4.9568987525
 20
4.0212504206
 30
0.0
 10
4.9605259627
 20
4.0320809513
 30
0.0
 10
4.9623677105
 20
4.0463033289
 30
0.0
 10
4.9623677105
 20
4.0639022365
 30
0.0
  0
SPLINE
  5
2A8
100
AcDbEntity
  8
0
100
AcDbSpline
 62
7
  6
CONTINUOUS
 70
0
 71
3
 72
8
 73
4
 74
0
 42
0.0000001
 43
0.0000001
 44
0.0000000001
 40
0.0
 40
0.0
 40
0.0
 40
0.0
 40
1.0
 40
1.0
 40
1.0
 40
1.0
 10
4.9623677105
 20
4.0639022365
 30
0.0
 10
4.9623677105
 20
4.078738527
 30
0.0
 10
4.9612421841
 20
4.0905052349
 30
0.0
 10
4.9589911659
 20
4.0993046951
 30
0.0
  0
SPLINE
  5
2A9
100
AcDbEntity
  8
0
100
AcDbSpline
 62
7
  6
CONTINUOUS
 70
0
 71
3
 72
8
 73
4
 74
0
 42
0.0000001
 43
0.0000001
 44
0.0000000001
 40
0.0
 40
0.0
 40
0.0
 40
0.0
 40
1.0
 40
1.0
 40
1.0
 40
1.0
 10
4.9589911659
 20
4.0993046951
 30
0.0
 10
4.9567401499
 20
4.108104147
 30
0.0
 10
4.953568241
 20
4.1154711291
 30
0.0
 10
4.9496439411
 20
4.121586926
 30
0.0
  0
SPLINE
  5
2AA
100
AcDbEntity
  8
0
100
AcDbSpline
 62
7
  6
CONTINUOUS
 70
0
 71
3
 72
8
 73
4
 74
0
 42
0.0000001
 43
0.0000001
 44
0.0000000001
 40
0.0
 40
0.0
 40
0.0
 40
0.0
 40
1.0
 40
1.0
 40
1.0
 40
1.0
 10
4.9496439411
 20
4.121586926
 30
0.0
 10
4.9456896633
 20
4.1277494416
 30
0.0
 10
4.9406760067
 20
4.132353802
 30
0.0
 10
4.9346277363
 20
4.1356066582
 30
0.0
  0
SPLINE
  5
2AB
100
AcDbEntity
  8
0
100
AcDbSpline
 62
7
  6
CONTINUOUS
 70
0
 71
3
 72
8
 73
4
 74
0
 42
0.0000001
 43
0.0000001
 44
0.0000000001
 40
0.0
 40
0.0
 40
0.0
 40
0.0
 40
1.0
 40
1.0
 40
1.0
 40
1.0
 10
4.9346277363
 20
4.1356066582
 30
0.0
 10
4.9285000295
 20
4.1389022365
 30
0.0
 10
4.9214400083
 20
4.1405393496
 30
0.0
 10
4.9134590954
 20
4.1405393496
 30
0.0
  0
SPLINE
  5
2AC
100
AcDbEntity
  8
0
100
AcDbSpline
 62
7
  6
CONTINUOUS
 70
0
 71
3
 72
8
 73
4
 74
0
 42
0.0000001
 43
0.0000001
 44
0.0000000001
 40
0.0
 40
0.0
 40
0.0
 40
0.0
 40
1.0
 40
1.0
 40
1.0
 40
1.0
 10
4.9134590954
 20
4.1405393496
 30
0.0
 10
4.902510944
 20
4.1405393496
 30
0.0
 10
4.8934045226
 20
4.1375720844
 30
0.0
 10
4.8862673413
 20
4.1317093953
 30
0.0
  0
SPLINE
  5
2AD
100
AcDbEntity
  8
0
100
AcDbSpline
 62
7
  6
CONTINUOUS
 70
0
 71
3
 72
8
 73
4
 74
0
 42
0.0000001
 43
0.0000001
 44
0.0000000001
 40
0.0
 40
0.0
 40
0.0
 40
0.0
 40
1.0
 40
1.0
 40
1.0
 40
1.0
 10
4.8862673413
 20
4.1317093953
 30
0.0
 10
4.8790798456
 20
4.1258053765
 30
0.0
 10
4.8736569196
 20
4.1175175115
 30
0.0
 10
4.8699734255
 20
4.1066716771
 30
0.0
  0
SPLINE
  5
2AE
100
AcDbEntity
  8
0
100
AcDbSpline
 62
7
  6
CONTINUOUS
 70
0
 71
3
 72
8
 73
4
 74
0
 42
0.0000001
 43
0.0000001
 44
0.0000000001
 40
0.0
 40
0.0
 40
0.0
 40
0.0
 40
1.0
 40
1.0
 40
1.0
 40
1.0
 10
4.9347173836
 20
4.1131008554
 30
0.0
 10
4.9290116161
 20
4.1212010071
 30
0.0
 10
4.9218492776
 20
4.1252937809
 30
0.0
 10
4.9132544607
 20
4.1252937809
 30
0.0
  0
SPLINE
  5
2AF
100
AcDbEntity
  8
0
100
AcDbSpline
 62
7
  6
CONTINUOUS
 70
0
 71
3
 72
8
 73
4
 74
0
 42
0.0000001
 43
0.0000001
 44
0.0000000001
 40
0.0
 40
0.0
 40
0.0
 40
0.0
 40
1.0
 40
1.0
 40
1.0
 40
1.0
 10
4.9434386462
 20
4.0639022365
 30
0.0
 10
4.9434386462
 20
4.0885611698
 30
0.0
 10
4.940471372
 20
4.1049322471
 30
0.0
 10
4.9347173836
 20
4.1131008554
 30
0.0
  0
SPLINE
  5
2B0
100
AcDbEntity
  8
0
100
AcDbSpline
 62
7
  6
CONTINUOUS
 70
0
 71
3
 72
8
 73
4
 74
0
 42
0.0000001
 43
0.0000001
 44
0.0000000001
 40
0.0
 40
0.0
 40
0.0
 40
0.0
 40
1.0
 40
1.0
 40
1.0
 40
1.0
 10
4.9347414941
 20
4.0147890024
 30
0.0
 10
4.940471372
 20
4.022974541
 30
0.0
 10
4.9434386462
 20
4.0393456206
 30
0.0
 10
4.9434386462
 20
4.0639022365
 30
0.0
  0
SPLINE
  5
2B1
100
AcDbEntity
  8
0
100
AcDbSpline
 62
7
  6
CONTINUOUS
 70
0
 71
3
 72
8
 73
4
 74
0
 42
0.0000001
 43
0.0000001
 44
0.0000000001
 40
0.0
 40
0.0
 40
0.0
 40
0.0
 40
1.0
 40
1.0
 40
1.0
 40
1.0
 10
4.9134590954
 20
4.0025106933
 30
0.0
 10
4.9218492776
 20
4.0025106933
 30
0.0
 10
4.9290116161
 20
4.0066034637
 30
0.0
 10
4.9347414941
 20
4.0147890024
 30
0.0
  0
SPLINE
  5
2B2
100
AcDbEntity
  8
0
100
AcDbSpline
 62
7
  6
CONTINUOUS
 70
0
 71
3
 72
8
 73
4
 74
0
 42
0.0000001
 43
0.0000001
 44
0.0000000001
 40
0.0
 40
0.0
 40
0.0
 40
0.0
 40
1.0
 40
1.0
 40
1.0
 40
1.0
 10
4.8920743794
 20
4.0146866828
 30
0.0
 10
4.8978042573
 20
4.0065011442
 30
0.0
 10
4.9049665958
 20
4.0025106933
 30
0.0
 10
4.9134590954
 20
4.0025106933
 30
0.0
  0
SPLINE
  5
2B3
100
AcDbEntity
  8
0
100
AcDbSpline
 62
7
  6
CONTINUOUS
 70
0
 71
3
 72
8
 73
4
 74
0
 42
0.0000001
 43
0.0000001
 44
0.0000000001
 40
0.0
 40
0.0
 40
0.0
 40
0.0
 40
1.0
 40
1.0
 40
1.0
 40
1.0
 10
4.8834795624
 20
4.0639022365
 30
0.0
 10
4.8834795624
 20
4.0392432988
 30
0.0
 10
4.8863445014
 20
4.0228722215
 30
0.0
 10
4.8920743794
 20
4.0146866828
 30
0.0
  0
SPLINE
  5
2B4
100
AcDbEntity
  8
0
100
AcDbSpline
 62
7
  6
CONTINUOUS
 70
0
 71
3
 72
8
 73
4
 74
0
 42
0.0000001
 43
0.0000001
 44
0.0000000001
 40
0.0
 40
0.0
 40
0.0
 40
0.0
 40
1.0
 40
1.0
 40
1.0
 40
1.0
 10
4.8930254251
 20
4.1145292294
 30
0.0
 10
4.8866514534
 20
4.1053415254
 30
0.0
 10
4.8834795624
 20
4.0884588525
 30
0.0
 10
4.8834795624
 20
4.0639022365
 30
0.0
  0
SPLINE
  5
2B5
100
AcDbEntity
  8
0
100
AcDbSpline
 62
7
  6
CONTINUOUS
 70
0
 71
3
 72
8
 73
4
 74
0
 42
0.0000001
 43
0.0000001
 44
0.0000000001
 40
0.0
 40
0.0
 40
0.0
 40
0.0
 40
1.0
 40
1.0
 40
1.0
 40
1.0
 10
4.9132544607
 20
4.1252937809
 30
0.0
 10
4.9047619611
 20
4.1252937809
 30
0.0
 10
4.898008892
 20
4.1217126027
 30
0.0
 10
4.8930254251
 20
4.1145292294
 30
0.0
  0
SPLINE
  5
2B6
100
AcDbEntity
  8
0
100
AcDbSpline
 62
7
  6
CONTINUOUS
 70
0
 71
3
 72
8
 73
4
 74
0
 42
0.0000001
 43
0.0000001
 44
0.0000000001
 40
0.0
 40
0.0
 40
0.0
 40
0.0
 40
1.0
 40
1.0
 40
1.0
 40
1.0
 10
5.6335003323
 20
3.3984432232
 30
0.0
 10
5.621047401
 20
3.3951064703
 30
0.0
 10
5.6094782624
 20
3.3967733137
 30
0.0
 10
5.598746401
 20
3.403218548
 30
0.0
  0
SPLINE
  5
2B7
100
AcDbEntity
  8
0
100
AcDbSpline
 62
7
  6
CONTINUOUS
 70
0
 71
3
 72
8
 73
4
 74
0
 42
0.0000001
 43
0.0000001
 44
0.0000000001
 40
0.0
 40
0.0
 40
0.0
 40
0.0
 40
1.0
 40
1.0
 40
1.0
 40
1.0
 10
5.6547238721
 20
3.4116760424
 30
0.0
 10
5.6494686718
 20
3.4052642139
 30
0.0
 10
5.6423952866
 20
3.4008266191
 30
0.0
 10
5.6335003323
 20
3.3984432232
 30
0.0
  0
SPLINE
  5
2B8
100
AcDbEntity
  8
0
100
AcDbSpline
 62
7
  6
CONTINUOUS
 70
0
 71
3
 72
8
 73
4
 74
0
 42
0.0000001
 43
0.0000001
 44
0.0000000001
 40
0.0
 40
0.0
 40
0.0
 40
0.0
 40
1.0
 40
1.0
 40
1.0
 40
1.0
 10
5.6633523857
 20
3.4356783623
 30
0.0
 10
5.6627707999
 20
3.4259889482
 30
0.0
 10
5.659926445
 20
3.4180236605
 30
0.0
 10
5.6547238721
 20
3.4116760424
 30
0.0
  0
SPLINE
  5
2B9
100
AcDbEntity
  8
0
100
AcDbSpline
 62
7
  6
CONTINUOUS
 70
0
 71
3
 72
8
 73
4
 74
0
 42
0.0000001
 43
0.0000001
 44
0.0000000001
 40
0.0
 40
0.0
 40
0.0
 40
0.0
 40
1.0
 40
1.0
 40
1.0
 40
1.0
 10
5.6791071023
 20
3.4227393861
 30
0.0
 10
5.6732121008
 20
3.4249732604
 30
0.0
 10
5.6679275886
 20
3.4292774232
 30
0.0
 10
5.6633523857
 20
3.4356783623
 30
0.0
  0
SPLINE
  5
2BA
100
AcDbEntity
  8
0
100
AcDbSpline
 62
7
  6
CONTINUOUS
 70
0
 71
3
 72
8
 73
4
 74
0
 42
0.0000001
 43
0.0000001
 44
0.0000000001
 40
0.0
 40
0.0
 40
0.0
 40
0.0
 40
1.0
 40
1.0
 40
1.0
 40
1.0
 10
5.6981293763
 20
3.4221162456
 30
0.0
 10
5.6914087418
 20
3.420315457
 30
0.0
 10
5.6850021038
 20
3.4205055119
 30
0.0
 10
5.6791071023
 20
3.4227393861
 30
0.0
  0
SPLINE
  5
2BB
100
AcDbEntity
  8
0
100
AcDbSpline
 62
7
  6
CONTINUOUS
 70
0
 71
3
 72
8
 73
4
 74
0
 42
0.0000001
 43
0.0000001
 44
0.0000000001
 40
0.0
 40
0.0
 40
0.0
 40
0.0
 40
1.0
 40
1.0
 40
1.0
 40
1.0
 10
5.7218146459
 20
3.4408563402
 30
0.0
 10
5.7165666332
 20
3.431187709
 30
0.0
 10
5.7086056475
 20
3.424923354
 30
0.0
 10
5.6981293763
 20
3.4221162456
 30
0.0
  0
SPLINE
  5
2BC
100
AcDbEntity
  8
0
100
AcDbSpline
 62
7
  6
CONTINUOUS
 70
0
 71
3
 72
8
 73
4
 74
0
 42
0.0000001
 43
0.0000001
 44
0.0000000001
 40
0.0
 40
0.0
 40
0.0
 40
0.0
 40
1.0
 40
1.0
 40
1.0
 40
1.0
 10
5.7247009385
 20
3.4743616806
 30
0.0
 10
5.7280906553
 20
3.4617110852
 30
0.0
 10
5.7270626646
 20
3.4505249824
 30
0.0
 10
5.7218146459
 20
3.4408563402
 30
0.0
  0
SPLINE
  5
2BD
100
AcDbEntity
  8
0
100
AcDbSpline
 62
7
  6
CONTINUOUS
 70
0
 71
3
 72
8
 73
4
 74
0
 42
0.0000001
 43
0.0000001
 44
0.0000000001
 40
0.0
 40
0.0
 40
0.0
 40
0.0
 40
1.0
 40
1.0
 40
1.0
 40
1.0
 10
5.7058235991
 20
3.5017163046
 30
0.0
 10
5.7149532163
 20
3.4961133827
 30
0.0
 10
5.7213112205
 20
3.4870122803
 30
0.0
 10
5.7247009385
 20
3.4743616806
 30
0.0
  0
SPLINE
  5
2BE
100
AcDbEntity
  8
0
100
AcDbSpline
 62
7
  6
CONTINUOUS
 70
0
 71
3
 72
8
 73
4
 74
0
 42
0.0000001
 43
0.0000001
 44
0.0000000001
 40
0.0
 40
0.0
 40
0.0
 40
0.0
 40
1.0
 40
1.0
 40
1.0
 40
1.0
 10
5.6761931454
 20
3.5059600272
 30
0.0
 10
5.6866694166
 20
3.5087671356
 30
0.0
 10
5.6965706974
 20
3.5073948872
 30
0.0
 10
5.7058235991
 20
3.5017163046
 30
0.0
  0
SPLINE
  5
2BF
100
AcDbEntity
  8
0
100
AcDbSpline
 62
7
  6
CONTINUOUS
 70
0
 71
3
 72
8
 73
4
 74
0
 42
0.0000001
 43
0.0000001
 44
0.0000000001
 40
0.0
 40
0.0
 40
0.0
 40
0.0
 40
1.0
 40
1.0
 40
1.0
 40
1.0
 10
5.6596127467
 20
3.4958222502
 30
0.0
 10
5.6636238964
 20
3.5006853918
 30
0.0
 10
5.6691760181
 20
3.5040797936
 30
0.0
 10
5.6761931454
 20
3.5059600272
 30
0.0
  0
SPLINE
  5
2C0
100
AcDbEntity
  8
0
100
AcDbSpline
 62
7
  6
CONTINUOUS
 70
0
 71
3
 72
8
 73
4
 74
0
 42
0.0000001
 43
0.0000001
 44
0.0000000001
 40
0.0
 40
0.0
 40
0.0
 40
0.0
 40
1.0
 40
1.0
 40
1.0
 40
1.0
 10
5.6524682139
 20
3.4762986447
 30
0.0
 10
5.6531505388
 20
3.4844261235
 30
0.0
 10
5.6555484965
 20
3.4908947292
 30
0.0
 10
5.6596127467
 20
3.4958222502
 30
0.0
  0
SPLINE
  5
2C1
100
AcDbEntity
  8
0
100
AcDbSpline
 62
7
  6
CONTINUOUS
 70
0
 71
3
 72
8
 73
4
 74
0
 42
0.0000001
 43
0.0000001
 44
0.0000000001
 40
0.0
 40
0.0
 40
0.0
 40
0.0
 40
1.0
 40
1.0
 40
1.0
 40
1.0
 10
5.6339404776
 20
3.4932613864
 30
0.0
 10
5.6415369194
 20
3.4902122705
 30
0.0
 10
5.6477128331
 20
3.4845580229
 30
0.0
 10
5.6524682139
 20
3.4762986447
 30
0.0
  0
SPLINE
  5
2C2
100
AcDbEntity
  8
0
100
AcDbSpline
 62
7
  6
CONTINUOUS
 70
0
 71
3
 72
8
 73
4
 74
0
 42
0.0000001
 43
0.0000001
 44
0.0000000001
 40
0.0
 40
0.0
 40
0.0
 40
0.0
 40
1.0
 40
1.0
 40
1.0
 40
1.0
 10
5.608412723
 20
3.4940481092
 30
0.0
 10
5.6178018407
 20
3.4965639157
 30
0.0
 10
5.6263440358
 20
3.4963105024
 30
0.0
 10
5.6339404776
 20
3.4932613864
 30
0.0
  0
SPLINE
  5
2C3
100
AcDbEntity
  8
0
100
AcDbSpline
 62
7
  6
CONTINUOUS
 70
0
 71
3
 72
8
 73
4
 74
0
 42
0.0000001
 43
0.0000001
 44
0.0000000001
 40
0.0
 40
0.0
 40
0.0
 40
0.0
 40
1.0
 40
1.0
 40
1.0
 40
1.0
 10
5.5801784224
 20
3.472419999
 30
0.0
 10
5.5863522343
 20
3.4834761581
 30
0.0
 10
5.5957621277
 20
3.4906583924
 30
0.0
 10
5.608412723
 20
3.4940481092
 30
0.0
  0
SPLINE
  5
2C4
100
AcDbEntity
  8
0
100
AcDbSpline
 62
7
  6
CONTINUOUS
 70
0
 71
3
 72
8
 73
4
 74
0
 42
0.0000001
 43
0.0000001
 44
0.0000000001
 40
0.0
 40
0.0
 40
0.0
 40
0.0
 40
1.0
 40
1.0
 40
1.0
 40
1.0
 10
5.5768276879
 20
3.4344213778
 30
0.0
 10
5.5729877734
 20
3.4487521339
 30
0.0
 10
5.5740403375
 20
3.4614278204
 30
0.0
 10
5.5801784224
 20
3.472419999
 30
0.0
  0
SPLINE
  5
2C5
100
AcDbEntity
  8
0
100
AcDbSpline
 62
7
  6
CONTINUOUS
 70
0
 71
3
 72
8
 73
4
 74
0
 42
0.0000001
 43
0.0000001
 44
0.0000000001
 40
0.0
 40
0.0
 40
0.0
 40
0.0
 40
1.0
 40
1.0
 40
1.0
 40
1.0
 10
5.598746401
 20
3.403218548
 30
0.0
 10
5.5878905107
 20
3.4097382704
 30
0.0
 10
5.5806411197
 20
3.4201894569
 30
0.0
 10
5.5768276879
 20
3.4344213778
 30
0.0
  0
SPLINE
  5
2C6
100
AcDbEntity
  8
0
100
AcDbSpline
 62
7
  6
CONTINUOUS
 70
0
 71
3
 72
8
 73
4
 74
0
 42
0.0000001
 43
0.0000001
 44
0.0000000001
 40
0.0
 40
0.0
 40
0.0
 40
0.0
 40
1.0
 40
1.0
 40
1.0
 40
1.0
 10
5.6361659988
 20
3.4730956955
 30
0.0
 10
5.6291483633
 20
3.4771473302
 30
0.0
 10
5.6215150485
 20
3.4779620637
 30
0.0
 10
5.6132130928
 20
3.4757375614
 30
0.0
  0
SPLINE
  5
2C7
100
AcDbEntity
  8
0
100
AcDbSpline
 62
7
  6
CONTINUOUS
 70
0
 71
3
 72
8
 73
4
 74
0
 42
0.0000001
 43
0.0000001
 44
0.0000000001
 40
0.0
 40
0.0
 40
0.0
 40
0.0
 40
1.0
 40
1.0
 40
1.0
 40
1.0
 10
5.6500556902
 20
3.4544664779
 30
0.0
 10
5.6478047062
 20
3.4628672645
 30
0.0
 10
5.6431836357
 20
3.4690440601
 30
0.0
 10
5.6361659988
 20
3.4730956955
 30
0.0
  0
SPLINE
  5
2C8
100
AcDbEntity
  8
0
100
AcDbSpline
 62
7
  6
CONTINUOUS
 70
0
 71
3
 72
8
 73
4
 74
0
 42
0.0000001
 43
0.0000001
 44
0.0000000001
 40
0.0
 40
0.0
 40
0.0
 40
0.0
 40
1.0
 40
1.0
 40
1.0
 40
1.0
 10
5.6473431164
 20
3.4308855835
 30
0.0
 10
5.6513737227
 20
3.4380829153
 30
0.0
 10
5.652333157
 20
3.445966856
 30
0.0
 10
5.6500556902
 20
3.4544664779
 30
0.0
  0
SPLINE
  5
2C9
100
AcDbEntity
  8
0
100
AcDbSpline
 62
7
  6
CONTINUOUS
 70
0
 71
3
 72
8
 73
4
 74
0
 42
0.0000001
 43
0.0000001
 44
0.0000000001
 40
0.0
 40
0.0
 40
0.0
 40
0.0
 40
1.0
 40
1.0
 40
1.0
 40
1.0
 10
5.6284299477
 20
3.4165754912
 30
0.0
 10
5.6369295695
 20
3.418852958
 30
0.0
 10
5.6432775497
 20
3.4236258239
 30
0.0
 10
5.6473431164
 20
3.4308855835
 30
0.0
  0
SPLINE
  5
2CA
100
AcDbEntity
  8
0
100
AcDbSpline
 62
7
  6
CONTINUOUS
 70
0
 71
3
 72
8
 73
4
 74
0
 42
0.0000001
 43
0.0000001
 44
0.0000000001
 40
0.0
 40
0.0
 40
0.0
 40
0.0
 40
1.0
 40
1.0
 40
1.0
 40
1.0
 10
5.6053334877
 20
3.4192582807
 30
0.0
 10
5.612270533
 20
3.4152115922
 30
0.0
 10
5.6199303301
 20
3.4142980255
 30
0.0
 10
5.6284299477
 20
3.4165754912
 30
0.0
  0
SPLINE
  5
2CB
100
AcDbEntity
  8
0
100
AcDbSpline
 62
7
  6
CONTINUOUS
 70
0
 71
3
 72
8
 73
4
 74
0
 42
0.0000001
 43
0.0000001
 44
0.0000000001
 40
0.0
 40
0.0
 40
0.0
 40
0.0
 40
1.0
 40
1.0
 40
1.0
 40
1.0
 10
5.5915079052
 20
3.4381430722
 30
0.0
 10
5.5937853709
 20
3.4296434546
 30
0.0
 10
5.5983340911
 20
3.4233413415
 30
0.0
 10
5.6053334877
 20
3.4192582807
 30
0.0
  0
SPLINE
  5
2CC
100
AcDbEntity
  8
0
100
AcDbSpline
 62
7
  6
CONTINUOUS
 70
0
 71
3
 72
8
 73
4
 74
0
 42
0.0000001
 43
0.0000001
 44
0.0000000001
 40
0.0
 40
0.0
 40
0.0
 40
0.0
 40
1.0
 40
1.0
 40
1.0
 40
1.0
 10
5.5912576484
 20
3.4544949599
 30
0.0
 10
5.5899591401
 20
3.4490624513
 30
0.0
 10
5.5900249037
 20
3.4436777092
 30
0.0
 10
5.5915079052
 20
3.4381430722
 30
0.0
  0
SPLINE
  5
2CD
100
AcDbEntity
  8
0
100
AcDbSpline
 62
7
  6
CONTINUOUS
 70
0
 71
3
 72
8
 73
4
 74
0
 42
0.0000001
 43
0.0000001
 44
0.0000000001
 40
0.0
 40
0.0
 40
0.0
 40
0.0
 40
1.0
 40
1.0
 40
1.0
 40
1.0
 10
5.5994403639
 20
3.4682337379
 30
0.0
 10
5.595331962
 20
3.464590607
 30
0.0
 10
5.5925561571
 20
3.4599274704
 30
0.0
 10
5.5912576484
 20
3.4544949599
 30
0.0
  0
SPLINE
  5
2CE
100
AcDbEntity
  8
0
100
AcDbSpline
 62
7
  6
CONTINUOUS
 70
0
 71
3
 72
8
 73
4
 74
0
 42
0.0000001
 43
0.0000001
 44
0.0000000001
 40
0.0
 40
0.0
 40
0.0
 40
0.0
 40
1.0
 40
1.0
 40
1.0
 40
1.0
 10
5.6132130928
 20
3.4757375614
 30
0.0
 10
5.6080737882
 20
3.4743604889
 30
0.0
 10
5.6035487666
 20
3.4718768695
 30
0.0
 10
5.5994403639
 20
3.4682337379
 30
0.0
  0
SPLINE
  5
2CF
100
AcDbEntity
  8
0
100
AcDbSpline
 62
7
  6
CONTINUOUS
 70
0
 71
3
 72
8
 73
4
 74
0
 42
0.0000001
 43
0.0000001
 44
0.0000000001
 40
0.0
 40
0.0
 40
0.0
 40
0.0
 40
1.0
 40
1.0
 40
1.0
 40
1.0
 10
5.6816588587
 20
3.4879336849
 30
0.0
 10
5.6747405624
 20
3.486079933
 30
0.0
 10
5.6697885325
 20
3.4824226116
 30
0.0
 10
5.6666002886
 20
3.4768276434
 30
0.0
  0
SPLINE
  5
2D0
100
AcDbEntity
  8
0
100
AcDbSpline
 62
7
  6
CONTINUOUS
 70
0
 71
3
 72
8
 73
4
 74
0
 42
0.0000001
 43
0.0000001
 44
0.0000000001
 40
0.0
 40
0.0
 40
0.0
 40
0.0
 40
1.0
 40
1.0
 40
1.0
 40
1.0
 10
5.6990934409
 20
3.4854277836
 30
0.0
 10
5.6935084021
 20
3.4887783315
 30
0.0
 10
5.6876876592
 20
3.4895490972
 30
0.0
 10
5.6816588587
 20
3.4879336849
 30
0.0
  0
SPLINE
  5
2D1
100
AcDbEntity
  8
0
100
AcDbSpline
 62
7
  6
CONTINUOUS
 70
0
 71
3
 72
8
 73
4
 74
0
 42
0.0000001
 43
0.0000001
 44
0.0000000001
 40
0.0
 40
0.0
 40
0.0
 40
0.0
 40
1.0
 40
1.0
 40
1.0
 40
1.0
 10
5.7101266442
 20
3.4702446568
 30
0.0
 10
5.7082993751
 20
3.4770641179
 30
0.0
 10
5.7046155677
 20
3.4821149775
 30
0.0
 10
5.6990934409
 20
3.4854277836
 30
0.0
  0
SPLINE
  5
2D2
100
AcDbEntity
  8
0
100
AcDbSpline
 62
7
  6
CONTINUOUS
 70
0
 71
3
 72
8
 73
4
 74
0
 42
0.0000001
 43
0.0000001
 44
0.0000000001
 40
0.0
 40
0.0
 40
0.0
 40
0.0
 40
1.0
 40
1.0
 40
1.0
 40
1.0
 10
5.7079079818
 20
3.4516422927
 30
0.0
 10
5.711137278
 20
3.4573802995
 30
0.0
 10
5.7119274316
 20
3.4635240267
 30
0.0
 10
5.7101266442
 20
3.4702446568
 30
0.0
  0
SPLINE
  5
2D3
100
AcDbEntity
  8
0
100
AcDbSpline
 62
7
  6
CONTINUOUS
 70
0
 71
3
 72
8
 73
4
 74
0
 42
0.0000001
 43
0.0000001
 44
0.0000000001
 40
0.0
 40
0.0
 40
0.0
 40
0.0
 40
1.0
 40
1.0
 40
1.0
 40
1.0
 10
5.6933290072
 20
3.4404267907
 30
0.0
 10
5.6998519711
 20
3.4421746136
 30
0.0
 10
5.7046786872
 20
3.4459042886
 30
0.0
 10
5.7079079818
 20
3.4516422927
 30
0.0
  0
SPLINE
  5
2D4
100
AcDbEntity
  8
0
100
AcDbSpline
 62
7
  6
CONTINUOUS
 70
0
 71
3
 72
8
 73
4
 74
0
 42
0.0000001
 43
0.0000001
 44
0.0000000001
 40
0.0
 40
0.0
 40
0.0
 40
0.0
 40
1.0
 40
1.0
 40
1.0
 40
1.0
 10
5.6756426245
 20
3.4427849559
 30
0.0
 10
5.6811564795
 20
3.439601532
 30
0.0
 10
5.6870037052
 20
3.4387319311
 30
0.0
 10
5.6933290072
 20
3.4404267907
 30
0.0
  0
SPLINE
  5
2D5
100
AcDbEntity
  8
0
100
AcDbSpline
 62
7
  6
CONTINUOUS
 70
0
 71
3
 72
8
 73
4
 74
0
 42
0.0000001
 43
0.0000001
 44
0.0000000001
 40
0.0
 40
0.0
 40
0.0
 40
0.0
 40
1.0
 40
1.0
 40
1.0
 40
1.0
 10
5.6647165232
 20
3.4578651935
 30
0.0
 10
5.6665437935
 20
3.4510457281
 30
0.0
 10
5.6701287613
 20
3.4459683845
 30
0.0
 10
5.6756426245
 20
3.4427849559
 30
0.0
  0
SPLINE
  5
2D6
100
AcDbEntity
  8
0
100
AcDbSpline
 62
7
  6
CONTINUOUS
 70
0
 71
3
 72
8
 73
4
 74
0
 42
0.0000001
 43
0.0000001
 44
0.0000000001
 40
0.0
 40
0.0
 40
0.0
 40
0.0
 40
1.0
 40
1.0
 40
1.0
 40
1.0
 10
5.6666002886
 20
3.4768276434
 30
0.0
 10
5.6634481661
 20
3.4712960635
 30
0.0
 10
5.6628098079
 20
3.4649811518
 30
0.0
 10
5.6647165232
 20
3.4578651935
 30
0.0
  0
SPLINE
  5
2D7
100
AcDbEntity
  8
0
100
AcDbSpline
 62
7
  6
CONTINUOUS
 70
0
 71
3
 72
8
 73
4
 74
0
 42
0.0000001
 43
0.0000001
 44
0.0000000001
 40
0.0
 40
0.0
 40
0.0
 40
0.0
 40
1.0
 40
1.0
 40
1.0
 40
1.0
 10
5.6346755627
 20
3.3802206107
 30
0.0
 10
5.6227380847
 20
3.3757508249
 30
0.0
 10
5.6142247823
 20
3.3683851184
 30
0.0
 10
5.6091014538
 20
3.3581406592
 30
0.0
  0
SPLINE
  5
2D8
100
AcDbEntity
  8
0
100
AcDbSpline
 62
7
  6
CONTINUOUS
 70
0
 71
3
 72
8
 73
4
 74
0
 42
0.0000001
 43
0.0000001
 44
0.0000000001
 40
0.0
 40
0.0
 40
0.0
 40
0.0
 40
1.0
 40
1.0
 40
1.0
 40
1.0
 10
5.6091014538
 20
3.3581406592
 30
0.0
 10
5.6039477009
 20
3.3478353642
 30
0.0
 10
5.6031774435
 20
3.3360827514
 30
0.0
 10
5.6067260526
 20
3.3228391617
 30
0.0
  0
SPLINE
  5
2D9
100
AcDbEntity
  8
0
100
AcDbSpline
 62
7
  6
CONTINUOUS
 70
0
 71
3
 72
8
 73
4
 74
0
 42
0.0000001
 43
0.0000001
 44
0.0000000001
 40
0.0
 40
0.0
 40
0.0
 40
0.0
 40
1.0
 40
1.0
 40
1.0
 40
1.0
 10
5.6067260526
 20
3.3228391617
 30
0.0
 10
5.6110161672
 20
3.3068282361
 30
0.0
 10
5.6202634982
 20
3.2956412663
 30
0.0
 10
5.634493182
 20
3.2894549194
 30
0.0
  0
SPLINE
  5
2DA
100
AcDbEntity
  8
0
100
AcDbSpline
 62
7
  6
CONTINUOUS
 70
0
 71
3
 72
8
 73
4
 74
0
 42
0.0000001
 43
0.0000001
 44
0.0000000001
 40
0.0
 40
0.0
 40
0.0
 40
0.0
 40
1.0
 40
1.0
 40
1.0
 40
1.0
 10
5.634493182
 20
3.2894549194
 30
0.0
 10
5.6460410028
 20
3.2844345108
 30
0.0
 10
5.658439578
 20
3.2836254837
 30
0.0
 10
5.6715843411
 20
3.2871476124
 30
0.0
  0
SPLINE
  5
2DB
100
AcDbEntity
  8
0
100
AcDbSpline
 62
7
  6
CONTINUOUS
 70
0
 71
3
 72
8
 73
4
 74
0
 42
0.0000001
 43
0.0000001
 44
0.0000000001
 40
0.0
 40
0.0
 40
0.0
 40
0.0
 40
1.0
 40
1.0
 40
1.0
 40
1.0
 10
5.6715843411
 20
3.2871476124
 30
0.0
 10
5.6853220986
 20
3.2908286334
 30
0.0
 10
5.6954238221
 20
3.2981962493
 30
0.0
 10
5.7018582902
 20
3.3092685268
 30
0.0
  0
SPLINE
  5
2DC
100
AcDbEntity
  8
0
100
AcDbSpline
 62
7
  6
CONTINUOUS
 70
0
 71
3
 72
8
 73
4
 74
0
 42
0.0000001
 43
0.0000001
 44
0.0000000001
 40
0.0
 40
0.0
 40
0.0
 40
0.0
 40
1.0
 40
1.0
 40
1.0
 40
1.0
 10
5.7018582902
 20
3.3092685268
 30
0.0
 10
5.708256358
 20
3.3202781675
 30
0.0
 10
5.7098437656
 20
3.3321437991
 30
0.0
 10
5.7064540465
 20
3.3447944031
 30
0.0
  0
SPLINE
  5
2DD
100
AcDbEntity
  8
0
100
AcDbSpline
 62
7
  6
CONTINUOUS
 70
0
 71
3
 72
8
 73
4
 74
0
 42
0.0000001
 43
0.0000001
 44
0.0000000001
 40
0.0
 40
0.0
 40
0.0
 40
0.0
 40
1.0
 40
1.0
 40
1.0
 40
1.0
 10
5.7064540465
 20
3.3447944031
 30
0.0
 10
5.7038852777
 20
3.3543811784
 30
0.0
 10
5.6983850974
 20
3.3626528509
 30
0.0
 10
5.6900258655
 20
3.3697347268
 30
0.0
  0
SPLINE
  5
2DE
100
AcDbEntity
  8
0
100
AcDbSpline
 62
7
  6
CONTINUOUS
 70
0
 71
3
 72
8
 73
4
 74
0
 42
0.0000001
 43
0.0000001
 44
0.0000000001
 40
0.0
 40
0.0
 40
0.0
 40
0.0
 40
1.0
 40
1.0
 40
1.0
 40
1.0
 10
5.6683634939
 20
3.3679556003
 30
0.0
 10
5.6732030048
 20
3.3664981937
 30
0.0
 10
5.6775431602
 20
3.3637417822
 30
0.0
 10
5.6813753314
 20
3.3598026267
 30
0.0
  0
SPLINE
  5
2DF
100
AcDbEntity
  8
0
100
AcDbSpline
 62
7
  6
CONTINUOUS
 70
0
 71
3
 72
8
 73
4
 74
0
 42
0.0000001
 43
0.0000001
 44
0.0000000001
 40
0.0
 40
0.0
 40
0.0
 40
0.0
 40
1.0
 40
1.0
 40
1.0
 40
1.0
 10
5.6813753314
 20
3.3598026267
 30
0.0
 10
5.6851453068
 20
3.3559274032
 30
0.0
 10
5.6879325226
 20
3.3510600094
 30
0.0
 10
5.6894684875
 20
3.3453277104
 30
0.0
  0
SPLINE
  5
2E0
100
AcDbEntity
  8
0
100
AcDbSpline
 62
7
  6
CONTINUOUS
 70
0
 71
3
 72
8
 73
4
 74
0
 42
0.0000001
 43
0.0000001
 44
0.0000000001
 40
0.0
 40
0.0
 40
0.0
 40
0.0
 40
1.0
 40
1.0
 40
1.0
 40
1.0
 10
5.6894684875
 20
3.3453277104
 30
0.0
 10
5.6919313295
 20
3.3361362589
 30
0.0
 10
5.6909525117
 20
3.327929335
 30
0.0
 10
5.6866266822
 20
3.3206528988
 30
0.0
  0
SPLINE
  5
2E1
100
AcDbEntity
  8
0
100
AcDbSpline
 62
7
  6
CONTINUOUS
 70
0
 71
3
 72
8
 73
4
 74
0
 42
0.0000001
 43
0.0000001
 44
0.0000000001
 40
0.0
 40
0.0
 40
0.0
 40
0.0
 40
1.0
 40
1.0
 40
1.0
 40
1.0
 10
5.6866266822
 20
3.3206528988
 30
0.0
 10
5.6822633376
 20
3.3133133587
 30
0.0
 10
5.6750258616
 20
3.3083021531
 30
0.0
 10
5.6649449186
 20
3.3056009725
 30
0.0
  0
SPLINE
  5
2E2
100
AcDbEntity
  8
0
100
AcDbSpline
 62
7
  6
CONTINUOUS
 70
0
 71
3
 72
8
 73
4
 74
0
 42
0.0000001
 43
0.0000001
 44
0.0000000001
 40
0.0
 40
0.0
 40
0.0
 40
0.0
 40
1.0
 40
1.0
 40
1.0
 40
1.0
 10
5.6649449186
 20
3.3056009725
 30
0.0
 10
5.6542709769
 20
3.3027408985
 30
0.0
 10
5.6448780578
 20
3.3034019299
 30
0.0
 10
5.6368491082
 20
3.3075798708
 30
0.0
  0
SPLINE
  5
2E3
100
AcDbEntity
  8
0
100
AcDbSpline
 62
7
  6
CONTINUOUS
 70
0
 71
3
 72
8
 73
4
 74
0
 42
0.0000001
 43
0.0000001
 44
0.0000000001
 40
0.0
 40
0.0
 40
0.0
 40
0.0
 40
1.0
 40
1.0
 40
1.0
 40
1.0
 10
5.6368491082
 20
3.3075798708
 30
0.0
 10
5.6287531019
 20
3.3117927054
 30
0.0
 10
5.6236307757
 20
3.3182588874
 30
0.0
 10
5.6213533054
 20
3.3267585223
 30
0.0
  0
SPLINE
  5
2E4
100
AcDbEntity
  8
0
100
AcDbSpline
 62
7
  6
CONTINUOUS
 70
0
 71
3
 72
8
 73
4
 74
0
 42
0.0000001
 43
0.0000001
 44
0.0000000001
 40
0.0
 40
0.0
 40
0.0
 40
0.0
 40
1.0
 40
1.0
 40
1.0
 40
1.0
 10
5.6213533054
 20
3.3267585223
 30
0.0
 10
5.6194465925
 20
3.3338744719
 30
0.0
 10
5.6200778514
 20
3.3406112021
 30
0.0
 10
5.6232735683
 20
3.3468698472
 30
0.0
  0
SPLINE
  5
2E5
100
AcDbEntity
  8
0
100
AcDbSpline
 62
7
  6
CONTINUOUS
 70
0
 71
3
 72
8
 73
4
 74
0
 42
0.0000001
 43
0.0000001
 44
0.0000000001
 40
0.0
 40
0.0
 40
0.0
 40
0.0
 40
1.0
 40
1.0
 40
1.0
 40
1.0
 10
5.6232735683
 20
3.3468698472
 30
0.0
 10
5.6264692893
 20
3.3531285003
 30
0.0
 10
5.6325401537
 20
3.3581449026
 30
0.0
 10
5.6412620196
 20
3.3619649211
 30
0.0
  0
SPLINE
  5
2E6
100
AcDbEntity
  8
0
100
AcDbSpline
 62
7
  6
CONTINUOUS
 70
0
 71
3
 72
8
 73
4
 74
0
 42
0.0000001
 43
0.0000001
 44
0.0000000001
 40
0.0
 40
0.0
 40
0.0
 40
0.0
 40
1.0
 40
1.0
 40
1.0
 40
1.0
 10
5.5535788197
 20
2.7316713466
 30
0.0
 10
5.5423876458
 20
2.7449606788
 30
0.0
 10
5.532028494
 20
2.7549622276
 30
0.0
 10
5.5225071437
 20
2.7618789672
 30
0.0
  0
SPLINE
  5
2E7
100
AcDbEntity
  8
0
100
AcDbSpline
 62
7
  6
CONTINUOUS
 70
0
 71
3
 72
8
 73
4
 74
0
 42
0.0000001
 43
0.0000001
 44
0.0000000001
 40
0.0
 40
0.0
 40
0.0
 40
0.0
 40
1.0
 40
1.0
 40
1.0
 40
1.0
 10
5.5116498823
 20
2.7463731909
 30
0.0
 10
5.5232999934
 20
2.736966604
 30
0.0
 10
5.5331813842
 20
2.7271746834
 30
0.0
 10
5.5414072229
 20
2.7169624222
 30
0.0
  0
SPLINE
  5
2E8
100
AcDbEntity
  8
0
100
AcDbSpline
 62
7
  6
CONTINUOUS
 70
0
 71
3
 72
8
 73
4
 74
0
 42
0.0000001
 43
0.0000001
 44
0.0000000001
 40
0.0
 40
0.0
 40
0.0
 40
0.0
 40
1.0
 40
1.0
 40
1.0
 40
1.0
 10
5.5714915633
 20
2.6693456462
 30
0.0
 10
5.5798604328
 20
2.6520206943
 30
0.0
 10
5.5855247244
 20
2.6365629075
 30
0.0
 10
5.5883895606
 20
2.6228155076
 30
0.0
  0
SPLINE
  5
2E9
100
AcDbEntity
  8
0
100
AcDbSpline
 62
7
  6
CONTINUOUS
 70
0
 71
3
 72
8
 73
4
 74
0
 42
0.0000001
 43
0.0000001
 44
0.0000000001
 40
0.0
 40
0.0
 40
0.0
 40
0.0
 40
1.0
 40
1.0
 40
1.0
 40
1.0
 10
5.5991805752
 20
2.6441134821
 30
0.0
 10
5.5958630991
 20
2.6579280001
 30
0.0
 10
5.5901819401
 20
2.6726481428
 30
0.0
 10
5.5821957761
 20
2.6883577234
 30
0.0
  0
SPLINE
  5
2EA
100
AcDbEntity
  8
0
100
AcDbSpline
 62
7
  6
CONTINUOUS
 70
0
 71
3
 72
8
 73
4
 74
0
 42
0.0000001
 43
0.0000001
 44
0.0000000001
 40
0.0
 40
0.0
 40
0.0
 40
0.0
 40
1.0
 40
1.0
 40
1.0
 40
1.0
 10
5.5821957761
 20
2.6883577234
 30
0.0
 10
5.5742096148
 20
2.7040672988
 30
0.0
 10
5.5646893063
 20
2.7184778292
 30
0.0
 10
5.5535788197
 20
2.7316713466
 30
0.0
  0
SPLINE
  5
2EB
100
AcDbEntity
  8
0
100
AcDbSpline
 62
7
  6
CONTINUOUS
 70
0
 71
3
 72
8
 73
4
 74
0
 42
0.0000001
 43
0.0000001
 44
0.0000000001
 40
0.0
 40
0.0
 40
0.0
 40
0.0
 40
1.0
 40
1.0
 40
1.0
 40
1.0
 10
5.4463329555
 20
2.6137077767
 30
0.0
 10
5.4482933763
 20
2.6048717158
 30
0.0
 10
5.4538246489
 20
2.5972514195
 30
0.0
 10
5.4628766703
 20
2.590913126
 30
0.0
  0
SPLINE
  5
2EC
100
AcDbEntity
  8
0
100
AcDbSpline
 62
7
  6
CONTINUOUS
 70
0
 71
3
 72
8
 73
4
 74
0
 42
0.0000001
 43
0.0000001
 44
0.0000000001
 40
0.0
 40
0.0
 40
0.0
 40
0.0
 40
1.0
 40
1.0
 40
1.0
 40
1.0
 10
5.4510641448
 20
2.6379060498
 30
0.0
 10
5.4460169765
 20
2.6306979464
 30
0.0
 10
5.4443561615
 20
2.6226176351
 30
0.0
 10
5.4463329555
 20
2.6137077767
 30
0.0
  0
SPLINE
  5
2ED
100
AcDbEntity
  8
0
100
AcDbSpline
 62
7
  6
CONTINUOUS
 70
0
 71
3
 72
8
 73
4
 74
0
 42
0.0000001
 43
0.0000001
 44
0.0000000001
 40
0.0
 40
0.0
 40
0.0
 40
0.0
 40
1.0
 40
1.0
 40
1.0
 40
1.0
 10
5.4677046347
 20
2.6493623536
 30
0.0
 10
5.4608560672
 20
2.6477874352
 30
0.0
 10
5.455289667
 20
2.6439407209
 30
0.0
 10
5.4510641448
 20
2.6379060498
 30
0.0
  0
SPLINE
  5
2EE
100
AcDbEntity
  8
0
100
AcDbSpline
 62
7
  6
CONTINUOUS
 70
0
 71
3
 72
8
 73
4
 74
0
 42
0.0000001
 43
0.0000001
 44
0.0000000001
 40
0.0
 40
0.0
 40
0.0
 40
0.0
 40
1.0
 40
1.0
 40
1.0
 40
1.0
 10
5.4908308858
 20
2.6452853269
 30
0.0
 10
5.4822982746
 20
2.6495112032
 30
0.0
 10
5.474553211
 20
2.6509372739
 30
0.0
 10
5.4677046347
 20
2.6493623536
 30
0.0
  0
SPLINE
  5
2EF
100
AcDbEntity
  8
0
100
AcDbSpline
 62
7
  6
CONTINUOUS
 70
0
 71
3
 72
8
 73
4
 74
0
 42
0.0000001
 43
0.0000001
 44
0.0000000001
 40
0.0
 40
0.0
 40
0.0
 40
0.0
 40
1.0
 40
1.0
 40
1.0
 40
1.0
 10
5.467228918
 20
2.6674635614
 30
0.0
 10
5.4783698412
 20
2.6701238755
 30
0.0
 10
5.489484545
 20
2.6683368925
 30
0.0
 10
5.5005818625
 20
2.6620653766
 30
0.0
  0
SPLINE
  5
2F0
100
AcDbEntity
  8
0
100
AcDbSpline
 62
7
  6
CONTINUOUS
 70
0
 71
3
 72
8
 73
4
 74
0
 42
0.0000001
 43
0.0000001
 44
0.0000000001
 40
0.0
 40
0.0
 40
0.0
 40
0.0
 40
1.0
 40
1.0
 40
1.0
 40
1.0
 10
5.4386595236
 20
2.6465918591
 30
0.0
 10
5.4465236999
 20
2.6578230668
 30
0.0
 10
5.4560218356
 20
2.6647874493
 30
0.0
 10
5.467228918
 20
2.6674635614
 30
0.0
  0
SPLINE
  5
2F1
100
AcDbEntity
  8
0
100
AcDbSpline
 62
7
  6
CONTINUOUS
 70
0
 71
3
 72
8
 73
4
 74
0
 42
0.0000001
 43
0.0000001
 44
0.0000000001
 40
0.0
 40
0.0
 40
0.0
 40
0.0
 40
1.0
 40
1.0
 40
1.0
 40
1.0
 10
5.430934077
 20
2.6038620266
 30
0.0
 10
5.4265264292
 20
2.618739104
 30
0.0
 10
5.4291520755
 20
2.6330138161
 30
0.0
 10
5.4386595236
 20
2.6465918591
 30
0.0
  0
SPLINE
  5
2F2
100
AcDbEntity
  8
0
100
AcDbSpline
 62
7
  6
CONTINUOUS
 70
0
 71
3
 72
8
 73
4
 74
0
 42
0.0000001
 43
0.0000001
 44
0.0000000001
 40
0.0
 40
0.0
 40
0.0
 40
0.0
 40
1.0
 40
1.0
 40
1.0
 40
1.0
 10
5.4530083148
 20
2.573965442
 30
0.0
 10
5.4418609168
 20
2.581770934
 30
0.0
 10
5.434511017
 20
2.5917888262
 30
0.0
 10
5.430934077
 20
2.6038620266
 30
0.0
  0
SPLINE
  5
2F3
100
AcDbEntity
  8
0
100
AcDbSpline
 62
7
  6
CONTINUOUS
 70
0
 71
3
 72
8
 73
4
 74
0
 42
0.0000001
 43
0.0000001
 44
0.0000000001
 40
0.0
 40
0.0
 40
0.0
 40
0.0
 40
1.0
 40
1.0
 40
1.0
 40
1.0
 10
5.4894136377
 20
2.5649933012
 30
0.0
 10
5.4767957848
 20
2.5628052669
 30
0.0
 10
5.4646586007
 20
2.5658078239
 30
0.0
 10
5.4530083148
 20
2.573965442
 30
0.0
  0
SPLINE
  5
2F4
100
AcDbEntity
  8
0
100
AcDbSpline
 62
7
  6
CONTINUOUS
 70
0
 71
3
 72
8
 73
4
 74
0
 42
0.0000001
 43
0.0000001
 44
0.0000000001
 40
0.0
 40
0.0
 40
0.0
 40
0.0
 40
1.0
 40
1.0
 40
1.0
 40
1.0
 10
5.519582133
 20
2.5843083408
 30
0.0
 10
5.5120700776
 20
2.5735800138
 30
0.0
 10
5.5019601105
 20
2.5671689575
 30
0.0
 10
5.4894136377
 20
2.5649933012
 30
0.0
  0
SPLINE
  5
2F5
100
AcDbEntity
  8
0
100
AcDbSpline
 62
7
  6
CONTINUOUS
 70
0
 71
3
 72
8
 73
4
 74
0
 42
0.0000001
 43
0.0000001
 44
0.0000000001
 40
0.0
 40
0.0
 40
0.0
 40
0.0
 40
1.0
 40
1.0
 40
1.0
 40
1.0
 10
5.5281276982
 20
2.6129243885
 30
0.0
 10
5.5280758772
 20
2.6019687033
 30
0.0
 10
5.5252748563
 20
2.5924383922
 30
0.0
 10
5.519582133
 20
2.5843083408
 30
0.0
  0
SPLINE
  5
2F6
100
AcDbEntity
  8
0
100
AcDbSpline
 62
7
  6
CONTINUOUS
 70
0
 71
3
 72
8
 73
4
 74
0
 42
0.0000001
 43
0.0000001
 44
0.0000000001
 40
0.0
 40
0.0
 40
0.0
 40
0.0
 40
1.0
 40
1.0
 40
1.0
 40
1.0
 10
5.514958812
 20
2.6131668512
 30
0.0
 10
5.515513108
 20
2.618634505
 30
0.0
 10
5.5148348436
 20
2.6237310441
 30
0.0
 10
5.5128405042
 20
2.6283751275
 30
0.0
  0
SPLINE
  5
2F7
100
AcDbEntity
  8
0
100
AcDbSpline
 62
7
  6
CONTINUOUS
 70
0
 71
3
 72
8
 73
4
 74
0
 42
0.0000001
 43
0.0000001
 44
0.0000000001
 40
0.0
 40
0.0
 40
0.0
 40
0.0
 40
1.0
 40
1.0
 40
1.0
 40
1.0
 10
5.5090725633
 20
2.5976628371
 30
0.0
 10
5.5124764599
 20
2.6025241052
 30
0.0
 10
5.5144135121
 20
2.6077879369
 30
0.0
 10
5.514958812
 20
2.6131668512
 30
0.0
  0
SPLINE
  5
2F8
100
AcDbEntity
  8
0
100
AcDbSpline
 62
7
  6
CONTINUOUS
 70
0
 71
3
 72
8
 73
4
 74
0
 42
0.0000001
 43
0.0000001
 44
0.0000000001
 40
0.0
 40
0.0
 40
0.0
 40
0.0
 40
1.0
 40
1.0
 40
1.0
 40
1.0
 10
5.4883438837
 20
2.5839791231
 30
0.0
 10
5.4966985468
 20
2.5853425485
 30
0.0
 10
5.5036145873
 20
2.5898680395
 30
0.0
 10
5.5090725633
 20
2.5976628371
 30
0.0
  0
SPLINE
  5
2F9
100
AcDbEntity
  8
0
100
AcDbSpline
 62
7
  6
CONTINUOUS
 70
0
 71
3
 72
8
 73
4
 74
0
 42
0.0000001
 43
0.0000001
 44
0.0000000001
 40
0.0
 40
0.0
 40
0.0
 40
0.0
 40
1.0
 40
1.0
 40
1.0
 40
1.0
 10
5.4628766703
 20
2.590913126
 30
0.0
 10
5.4714257999
 20
2.5849269609
 30
0.0
 10
5.479916766
 20
2.5826038736
 30
0.0
 10
5.4883438837
 20
2.5839791231
 30
0.0
  0
SPLINE
  5
2FA
100
AcDbEntity
  8
0
100
AcDbSpline
 62
7
  6
CONTINUOUS
 70
0
 71
3
 72
8
 73
4
 74
0
 42
0.0000001
 43
0.0000001
 44
0.0000000001
 40
0.0
 40
0.0
 40
0.0
 40
0.0
 40
1.0
 40
1.0
 40
1.0
 40
1.0
 10
4.0069846285
 20
2.5830563452
 30
0.0
 10
4.0142928455
 20
2.583495011
 30
0.0
 10
4.0227640263
 20
2.5821239991
 30
0.0
 10
4.0325391993
 20
2.5789097052
 30
0.0
  0
SPLINE
  5
2FB
100
AcDbEntity
  8
0
100
AcDbSpline
 62
7
  6
CONTINUOUS
 70
0
 71
3
 72
8
 73
4
 74
0
 42
0.0000001
 43
0.0000001
 44
0.0000000001
 40
0.0
 40
0.0
 40
0.0
 40
0.0
 40
1.0
 40
1.0
 40
1.0
 40
1.0
 10
4.0325391993
 20
2.5789097052
 30
0.0
 10
4.0424516229
 20
2.5756502801
 30
0.0
 10
4.0520044986
 20
2.5707686045
 30
0.0
 10
4.06128518
 20
2.564312001
 30
0.0
  0
SPLINE
  5
2FC
100
AcDbEntity
  8
0
100
AcDbSpline
 62
7
  6
CONTINUOUS
 70
0
 71
3
 72
8
 73
4
 74
0
 42
0.0000001
 43
0.0000001
 44
0.0000000001
 40
0.0
 40
0.0
 40
0.0
 40
0.0
 40
1.0
 40
1.0
 40
1.0
 40
1.0
 10
4.0767035038
 20
2.5732137744
 30
0.0
 10
4.0720663456
 20
2.5771528031
 30
0.0
 10
4.0660963445
 20
2.5811493485
 30
0.0
 10
4.0588151723
 20
2.5852417261
 30
0.0
  0
SPLINE
  5
2FD
100
AcDbEntity
  8
0
100
AcDbSpline
 62
7
  6
CONTINUOUS
 70
0
 71
3
 72
8
 73
4
 74
0
 42
0.0000001
 43
0.0000001
 44
0.0000000001
 40
0.0
 40
0.0
 40
0.0
 40
0.0
 40
1.0
 40
1.0
 40
1.0
 40
1.0
 10
4.0588151723
 20
2.5852417261
 30
0.0
 10
4.0515792855
 20
2.5893086509
 30
0.0
 10
4.0450301324
 20
2.5922619346
 30
0.0
 10
4.0390574437
 20
2.594012118
 30
0.0
  0
SPLINE
  5
2FE
100
AcDbEntity
  8
0
100
AcDbSpline
 62
7
  6
CONTINUOUS
 70
0
 71
3
 72
8
 73
4
 74
0
 42
0.0000001
 43
0.0000001
 44
0.0000000001
 40
0.0
 40
0.0
 40
0.0
 40
0.0
 40
1.0
 40
1.0
 40
1.0
 40
1.0
 10
3.9743456361
 20
2.7220580466
 30
0.0
 10
3.9680542519
 20
2.7184257143
 30
0.0
 10
3.9640677466
 20
2.7130522495
 30
0.0
 10
3.9623349462
 20
2.7060262661
 30
0.0
  0
SPLINE
  5
2FF
100
AcDbEntity
  8
0
100
AcDbSpline
 62
7
  6
CONTINUOUS
 70
0
 71
3
 72
8
 73
4
 74
0
 42
0.0000001
 43
0.0000001
 44
0.0000000001
 40
0.0
 40
0.0
 40
0.0
 40
0.0
 40
1.0
 40
1.0
 40
1.0
 40
1.0
 10
3.9978716502
 20
2.725716355
 30
0.0
 10
3.9882722647
 20
2.7267904428
 30
0.0
 10
3.9803711922
 20
2.725536903
 30
0.0
 10
3.9743456361
 20
2.7220580466
 30
0.0
  0
SPLINE
  5
300
100
AcDbEntity
  8
0
100
AcDbSpline
 62
7
  6
CONTINUOUS
 70
0
 71
3
 72
8
 73
4
 74
0
 42
0.0000001
 43
0.0000001
 44
0.0000000001
 40
0.0
 40
0.0
 40
0.0
 40
0.0
 40
1.0
 40
1.0
 40
1.0
 40
1.0
 10
4.0418619799
 20
2.7129448575
 30
0.0
 10
4.0222118118
 20
2.720392881
 30
0.0
 10
4.0074710285
 20
2.7246422679
 30
0.0
 10
3.9978716502
 20
2.725716355
 30
0.0
  0
SPLINE
  5
301
100
AcDbEntity
  8
0
100
AcDbSpline
 62
7
  6
CONTINUOUS
 70
0
 71
3
 72
8
 73
4
 74
0
 42
0.0000001
 43
0.0000001
 44
0.0000000001
 40
0.0
 40
0.0
 40
0.0
 40
0.0
 40
1.0
 40
1.0
 40
1.0
 40
1.0
 10
4.0736109586
 20
2.7033996953
 30
0.0
 10
4.0651772296
 20
2.7049104779
 30
0.0
 10
4.0545783988
 20
2.7081249401
 30
0.0
 10
4.0418619799
 20
2.7129448575
 30
0.0
  0
SPLINE
  5
302
100
AcDbEntity
  8
0
100
AcDbSpline
 62
7
  6
CONTINUOUS
 70
0
 71
3
 72
8
 73
4
 74
0
 42
0.0000001
 43
0.0000001
 44
0.0000000001
 40
0.0
 40
0.0
 40
0.0
 40
0.0
 40
1.0
 40
1.0
 40
1.0
 40
1.0
 10
4.0969401551
 20
2.7028340234
 30
0.0
 10
4.089850787
 20
2.7016698423
 30
0.0
 10
4.082044682
 20
2.7018889136
 30
0.0
 10
4.0736109586
 20
2.7033996953
 30
0.0
  0
SPLINE
  5
303
100
AcDbEntity
  8
0
100
AcDbSpline
 62
7
  6
CONTINUOUS
 70
0
 71
3
 72
8
 73
4
 74
0
 42
0.0000001
 43
0.0000001
 44
0.0000000001
 40
0.0
 40
0.0
 40
0.0
 40
0.0
 40
1.0
 40
1.0
 40
1.0
 40
1.0
 10
4.10907768
 20
2.7074538367
 30
0.0
 10
4.1053697263
 20
2.7050767465
 30
0.0
 10
4.1012899425
 20
2.7035483241
 30
0.0
 10
4.0969401551
 20
2.7028340234
 30
0.0
  0
SPLINE
  5
304
100
AcDbEntity
  8
0
100
AcDbSpline
 62
7
  6
CONTINUOUS
 70
0
 71
3
 72
8
 73
4
 74
0
 42
0.0000001
 43
0.0000001
 44
0.0000000001
 40
0.0
 40
0.0
 40
0.0
 40
0.0
 40
1.0
 40
1.0
 40
1.0
 40
1.0
 10
4.0684660911
 20
2.7224919141
 30
0.0
 10
4.0728961637
 20
2.7214181031
 30
0.0
 10
4.077099313
 20
2.7208911042
 30
0.0
 10
4.080958063
 20
2.7207559854
 30
0.0
  0
SPLINE
  5
305
100
AcDbEntity
  8
0
100
AcDbSpline
 62
7
  6
CONTINUOUS
 70
0
 71
3
 72
8
 73
4
 74
0
 42
0.0000001
 43
0.0000001
 44
0.0000000001
 40
0.0
 40
0.0
 40
0.0
 40
0.0
 40
1.0
 40
1.0
 40
1.0
 40
1.0
 10
4.0414367158
 20
2.7314842687
 30
0.0
 10
4.0550292604
 20
2.726580041
 30
0.0
 10
4.0641043157
 20
2.7235491705
 30
0.0
 10
4.0684660911
 20
2.7224919141
 30
0.0
  0
SPLINE
  5
306
100
AcDbEntity
  8
0
100
AcDbSpline
 62
7
  6
CONTINUOUS
 70
0
 71
3
 72
8
 73
4
 74
0
 42
0.0000001
 43
0.0000001
 44
0.0000000001
 40
0.0
 40
0.0
 40
0.0
 40
0.0
 40
1.0
 40
1.0
 40
1.0
 40
1.0
 10
4.0044146331
 20
2.7428739881
 30
0.0
 10
4.0128549827
 20
2.7411014275
 30
0.0
 10
4.0251822219
 20
2.737348935
 30
0.0
 10
4.0414367158
 20
2.7314842687
 30
0.0
  0
SPLINE
  5
307
100
AcDbEntity
  8
0
100
AcDbSpline
 62
7
  6
CONTINUOUS
 70
0
 71
3
 72
8
 73
4
 74
0
 42
0.0000001
 43
0.0000001
 44
0.0000000001
 40
0.0
 40
0.0
 40
0.0
 40
0.0
 40
1.0
 40
1.0
 40
1.0
 40
1.0
 10
3.9824046119
 20
2.744336199
 30
0.0
 10
3.9886856756
 20
2.7451057757
 30
0.0
 10
3.9960487233
 20
2.7446309155
 30
0.0
 10
4.0044146331
 20
2.7428739881
 30
0.0
  0
SPLINE
  5
308
100
AcDbEntity
  8
0
100
AcDbSpline
 62
7
  6
CONTINUOUS
 70
0
 71
3
 72
8
 73
4
 74
0
 42
0.0000001
 43
0.0000001
 44
0.0000000001
 40
0.0
 40
0.0
 40
0.0
 40
0.0
 40
1.0
 40
1.0
 40
1.0
 40
1.0
 10
3.9652355494
 20
2.7386557363
 30
0.0
 10
3.9704636052
 20
2.7416741558
 30
0.0
 10
3.9762169658
 20
2.7435780682
 30
0.0
 10
3.9824046119
 20
2.744336199
 30
0.0
  0
SPLINE
  5
309
100
AcDbEntity
  8
0
100
AcDbSpline
 62
7
  6
CONTINUOUS
 70
0
 71
3
 72
8
 73
4
 74
0
 42
0.0000001
 43
0.0000001
 44
0.0000000001
 40
0.0
 40
0.0
 40
0.0
 40
0.0
 40
1.0
 40
1.0
 40
1.0
 40
1.0
 10
3.9458309833
 20
2.7129202909
 30
0.0
 10
3.9485475561
 20
2.7241768346
 30
0.0
 10
3.9550452814
 20
2.7327723824
 30
0.0
 10
3.9652355494
 20
2.7386557363
 30
0.0
  0
SPLINE
  5
30A
100
AcDbEntity
  8
0
100
AcDbSpline
 62
7
  6
CONTINUOUS
 70
0
 71
3
 72
8
 73
4
 74
0
 42
0.0000001
 43
0.0000001
 44
0.0000000001
 40
0.0
 40
0.0
 40
0.0
 40
0.0
 40
1.0
 40
1.0
 40
1.0
 40
1.0
 10
3.9525507947
 20
2.677338511
 30
0.0
 10
3.9453884473
 20
2.6897440607
 30
0.0
 10
3.943114406
 20
2.7016637286
 30
0.0
 10
3.9458309833
 20
2.7129202909
 30
0.0
  0
SPLINE
  5
30B
100
AcDbEntity
  8
0
100
AcDbSpline
 62
7
  6
CONTINUOUS
 70
0
 71
3
 72
8
 73
4
 74
0
 42
0.0000001
 43
0.0000001
 44
0.0000000001
 40
0.0
 40
0.0
 40
0.0
 40
0.0
 40
1.0
 40
1.0
 40
1.0
 40
1.0
 10
3.9792346235
 20
2.6533756215
 30
0.0
 10
3.9686704748
 20
2.6569900497
 30
0.0
 10
3.9597131421
 20
2.6649329613
 30
0.0
 10
3.9525507947
 20
2.677338511
 30
0.0
  0
SPLINE
  5
30C
100
AcDbEntity
  8
0
100
AcDbSpline
 62
7
  6
CONTINUOUS
 70
0
 71
3
 72
8
 73
4
 74
0
 42
0.0000001
 43
0.0000001
 44
0.0000000001
 40
0.0
 40
0.0
 40
0.0
 40
0.0
 40
1.0
 40
1.0
 40
1.0
 40
1.0
 10
4.0144738659
 20
2.6568513313
 30
0.0
 10
4.0016316298
 20
2.6508546341
 30
0.0
 10
3.9898717986
 20
2.6497362081
 30
0.0
 10
3.9792346235
 20
2.6533756215
 30
0.0
  0
SPLINE
  5
30D
100
AcDbEntity
  8
0
100
AcDbSpline
 62
7
  6
CONTINUOUS
 70
0
 71
3
 72
8
 73
4
 74
0
 42
0.0000001
 43
0.0000001
 44
0.0000000001
 40
0.0
 40
0.0
 40
0.0
 40
0.0
 40
1.0
 40
1.0
 40
1.0
 40
1.0
 10
3.9835113425
 20
2.6701662057
 30
0.0
 10
3.9907794229
 20
2.6682187294
 30
0.0
 10
3.9985407274
 20
2.6695097199
 30
0.0
 10
4.006692948
 20
2.6742164067
 30
0.0
  0
SPLINE
  5
30E
100
AcDbEntity
  8
0
100
AcDbSpline
 62
7
  6
CONTINUOUS
 70
0
 71
3
 72
8
 73
4
 74
0
 42
0.0000001
 43
0.0000001
 44
0.0000000001
 40
0.0
 40
0.0
 40
0.0
 40
0.0
 40
1.0
 40
1.0
 40
1.0
 40
1.0
 10
3.9659584792
 20
2.6846068577
 30
0.0
 10
3.9704093726
 20
2.6768976842
 30
0.0
 10
3.9762432743
 20
2.6721136787
 30
0.0
 10
3.9835113425
 20
2.6701662057
 30
0.0
  0
SPLINE
  5
30F
100
AcDbEntity
  8
0
100
AcDbSpline
 62
7
  6
CONTINUOUS
 70
0
 71
3
 72
8
 73
4
 74
0
 42
0.0000001
 43
0.0000001
 44
0.0000000001
 40
0.0
 40
0.0
 40
0.0
 40
0.0
 40
1.0
 40
1.0
 40
1.0
 40
1.0
 10
3.9623349462
 20
2.7060262661
 30
0.0
 10
3.9606021441
 20
2.6990002762
 30
0.0
 10
3.961763397
 20
2.6918729532
 30
0.0
 10
3.9659584792
 20
2.6846068577
 30
0.0
  0
SPLINE
  5
310
100
AcDbEntity
  8
0
100
AcDbSpline
 62
7
  6
CONTINUOUS
 70
0
 71
3
 72
8
 73
4
 74
0
 42
0.0000001
 43
0.0000001
 44
0.0000000001
 40
0.0
 40
0.0
 40
0.0
 40
0.0
 40
1.0
 40
1.0
 40
1.0
 40
1.0
 10
3.9080457957
 20
2.7849145679
 30
0.0
 10
3.9122920455
 20
2.7775598475
 30
0.0
 10
3.9187699714
 20
2.7735021072
 30
0.0
 10
3.9274826886
 20
2.772777985
 30
0.0
  0
SPLINE
  5
311
100
AcDbEntity
  8
0
100
AcDbSpline
 62
7
  6
CONTINUOUS
 70
0
 71
3
 72
8
 73
4
 74
0
 42
0.0000001
 43
0.0000001
 44
0.0000000001
 40
0.0
 40
0.0
 40
0.0
 40
0.0
 40
1.0
 40
1.0
 40
1.0
 40
1.0
 10
3.9078737175
 20
2.8095984671
 30
0.0
 10
3.9037116641
 20
2.8006070517
 30
0.0
 10
3.9037483873
 20
2.7923578977
 30
0.0
 10
3.9080457957
 20
2.7849145679
 30
0.0
  0
SPLINE
  5
312
100
AcDbEntity
  8
0
100
AcDbSpline
 62
7
  6
CONTINUOUS
 70
0
 71
3
 72
8
 73
4
 74
0
 42
0.0000001
 43
0.0000001
 44
0.0000000001
 40
0.0
 40
0.0
 40
0.0
 40
0.0
 40
1.0
 40
1.0
 40
1.0
 40
1.0
 10
3.9461203399
 20
2.8417506115
 30
0.0
 10
3.9247650773
 20
2.8294211449
 30
0.0
 10
3.9120709456
 20
2.8186658714
 30
0.0
 10
3.9078737175
 20
2.8095984671
 30
0.0
  0
SPLINE
  5
313
100
AcDbEntity
  8
0
100
AcDbSpline
 62
7
  6
CONTINUOUS
 70
0
 71
3
 72
8
 73
4
 74
0
 42
0.0000001
 43
0.0000001
 44
0.0000000001
 40
0.0
 40
0.0
 40
0.0
 40
0.0
 40
1.0
 40
1.0
 40
1.0
 40
1.0
 10
3.9930022244
 20
2.8587752739
 30
0.0
 10
3.983048401
 20
2.8596447245
 30
0.0
 10
3.9673869932
 20
2.8540289195
 30
0.0
 10
3.9461203399
 20
2.8417506115
 30
0.0
  0
SPLINE
  5
314
100
AcDbEntity
  8
0
100
AcDbSpline
 62
7
  6
CONTINUOUS
 70
0
 71
3
 72
8
 73
4
 74
0
 42
0.0000001
 43
0.0000001
 44
0.0000000001
 40
0.0
 40
0.0
 40
0.0
 40
0.0
 40
1.0
 40
1.0
 40
1.0
 40
1.0
 10
4.0142767514
 20
2.8464833305
 30
0.0
 10
4.0100816602
 20
2.8537494415
 30
0.0
 10
4.0029560478
 20
2.8579058234
 30
0.0
 10
3.9930022244
 20
2.8587752739
 30
0.0
  0
SPLINE
  5
315
100
AcDbEntity
  8
0
100
AcDbSpline
 62
7
  6
CONTINUOUS
 70
0
 71
3
 72
8
 73
4
 74
0
 42
0.0000001
 43
0.0000001
 44
0.0000000001
 40
0.0
 40
0.0
 40
0.0
 40
0.0
 40
1.0
 40
1.0
 40
1.0
 40
1.0
 10
4.0144243931
 20
2.8218756284
 30
0.0
 10
4.0186483386
 20
2.8309306176
 30
0.0
 10
4.0185230012
 20
2.8391286102
 30
0.0
 10
4.0142767514
 20
2.8464833305
 30
0.0
  0
SPLINE
  5
316
100
AcDbEntity
  8
0
100
AcDbSpline
 62
7
  6
CONTINUOUS
 70
0
 71
3
 72
8
 73
4
 74
0
 42
0.0000001
 43
0.0000001
 44
0.0000000001
 40
0.0
 40
0.0
 40
0.0
 40
0.0
 40
1.0
 40
1.0
 40
1.0
 40
1.0
 10
3.9760998818
 20
2.7898245218
 30
0.0
 10
3.9974551484
 20
2.8021539907
 30
0.0
 10
4.0102004477
 20
2.8128206392
 30
0.0
 10
4.0144243931
 20
2.8218756284
 30
0.0
  0
SPLINE
  5
317
100
AcDbEntity
  8
0
100
AcDbSpline
 62
7
  6
CONTINUOUS
 70
0
 71
3
 72
8
 73
4
 74
0
 42
0.0000001
 43
0.0000001
 44
0.0000000001
 40
0.0
 40
0.0
 40
0.0
 40
0.0
 40
1.0
 40
1.0
 40
1.0
 40
1.0
 10
3.9274826886
 20
2.772777985
 30
0.0
 10
3.9386264595
 20
2.7718518155
 30
0.0
 10
3.9548332286
 20
2.7775462138
 30
0.0
 10
3.9760998818
 20
2.7898245218
 30
0.0
  0
SPLINE
  5
318
100
AcDbEntity
  8
0
100
AcDbSpline
 62
7
  6
CONTINUOUS
 70
0
 71
3
 72
8
 73
4
 74
0
 42
0.0000001
 43
0.0000001
 44
0.0000000001
 40
0.0
 40
0.0
 40
0.0
 40
0.0
 40
1.0
 40
1.0
 40
1.0
 40
1.0
 10
4.0310030518
 20
2.8167533896
 30
0.0
 10
4.0359040187
 20
2.8290783741
 30
0.0
 10
4.0346558522
 20
2.8414721853
 30
0.0
 10
4.0273911874
 20
2.8540549537
 30
0.0
  0
SPLINE
  5
319
100
AcDbEntity
  8
0
100
AcDbSpline
 62
7
  6
CONTINUOUS
 70
0
 71
3
 72
8
 73
4
 74
0
 42
0.0000001
 43
0.0000001
 44
0.0000000001
 40
0.0
 40
0.0
 40
0.0
 40
0.0
 40
1.0
 40
1.0
 40
1.0
 40
1.0
 10
4.0273911874
 20
2.8540549537
 30
0.0
 10
4.0219171028
 20
2.8635363464
 30
0.0
 10
4.0148827826
 20
2.8699902695
 30
0.0
 10
4.0061621847
 20
2.8732257738
 30
0.0
  0
SPLINE
  5
31A
100
AcDbEntity
  8
0
100
AcDbSpline
 62
7
  6
CONTINUOUS
 70
0
 71
3
 72
8
 73
4
 74
0
 42
0.0000001
 43
0.0000001
 44
0.0000000001
 40
0.0
 40
0.0
 40
0.0
 40
0.0
 40
1.0
 40
1.0
 40
1.0
 40
1.0
 10
4.0061621847
 20
2.8732257738
 30
0.0
 10
3.997441561
 20
2.8764612877
 30
0.0
 10
3.9875526032
 20
2.8770137508
 30
0.0
 10
3.9763278429
 20
2.8747333135
 30
0.0
  0
SPLINE
  5
31B
100
AcDbEntity
  8
0
100
AcDbSpline
 62
7
  6
CONTINUOUS
 70
0
 71
3
 72
8
 73
4
 74
0
 42
0.0000001
 43
0.0000001
 44
0.0000000001
 40
0.0
 40
0.0
 40
0.0
 40
0.0
 40
1.0
 40
1.0
 40
1.0
 40
1.0
 10
3.9763278429
 20
2.8747333135
 30
0.0
 10
3.965134723
 20
2.8724593043
 30
0.0
 10
3.9518969089
 20
2.8669431159
 30
0.0
 10
3.9366558078
 20
2.8581436621
 30
0.0
  0
SPLINE
  5
31C
100
AcDbEntity
  8
0
100
AcDbSpline
 62
7
  6
CONTINUOUS
 70
0
 71
3
 72
8
 73
4
 74
0
 42
0.0000001
 43
0.0000001
 44
0.0000000001
 40
0.0
 40
0.0
 40
0.0
 40
0.0
 40
1.0
 40
1.0
 40
1.0
 40
1.0
 10
3.9366558078
 20
2.8581436621
 30
0.0
 10
3.9238072034
 20
2.8507255168
 30
0.0
 10
3.9141796986
 20
2.8438674284
 30
0.0
 10
3.9076846516
 20
2.8375182594
 30
0.0
  0
SPLINE
  5
31D
100
AcDbEntity
  8
0
100
AcDbSpline
 62
7
  6
CONTINUOUS
 70
0
 71
3
 72
8
 73
4
 74
0
 42
0.0000001
 43
0.0000001
 44
0.0000000001
 40
0.0
 40
0.0
 40
0.0
 40
0.0
 40
1.0
 40
1.0
 40
1.0
 40
1.0
 10
3.9076846516
 20
2.8375182594
 30
0.0
 10
3.9011896107
 20
2.8311690964
 30
0.0
 10
3.8963955715
 20
2.8247386517
 30
0.0
 10
3.893061286
 20
2.8182822098
 30
0.0
  0
SPLINE
  5
31E
100
AcDbEntity
  8
0
100
AcDbSpline
 62
7
  6
CONTINUOUS
 70
0
 71
3
 72
8
 73
4
 74
0
 42
0.0000001
 43
0.0000001
 44
0.0000000001
 40
0.0
 40
0.0
 40
0.0
 40
0.0
 40
1.0
 40
1.0
 40
1.0
 40
1.0
 10
3.893061286
 20
2.8182822098
 30
0.0
 10
3.8897015299
 20
2.811776447
 30
0.0
 10
3.888220865
 20
2.8051323128
 30
0.0
 10
3.8884279442
 20
2.7982679289
 30
0.0
  0
SPLINE
  5
31F
100
AcDbEntity
  8
0
100
AcDbSpline
 62
7
  6
CONTINUOUS
 70
0
 71
3
 72
8
 73
4
 74
0
 42
0.0000001
 43
0.0000001
 44
0.0000000001
 40
0.0
 40
0.0
 40
0.0
 40
0.0
 40
1.0
 40
1.0
 40
1.0
 40
1.0
 10
3.8884279442
 20
2.7982679289
 30
0.0
 10
3.888637743
 20
2.7913133899
 30
0.0
 10
3.8907499721
 20
2.7843806757
 30
0.0
 10
3.8947404285
 20
2.7774690024
 30
0.0
  0
SPLINE
  5
320
100
AcDbEntity
  8
0
100
AcDbSpline
 62
7
  6
CONTINUOUS
 70
0
 71
3
 72
8
 73
4
 74
0
 42
0.0000001
 43
0.0000001
 44
0.0000000001
 40
0.0
 40
0.0
 40
0.0
 40
0.0
 40
1.0
 40
1.0
 40
1.0
 40
1.0
 10
3.8947404285
 20
2.7774690024
 30
0.0
 10
3.9002145042
 20
2.7679876252
 30
0.0
 10
3.907337442
 20
2.7615848655
 30
0.0
 10
3.9159832704
 20
2.7583352297
 30
0.0
  0
SPLINE
  5
321
100
AcDbEntity
  8
0
100
AcDbSpline
 62
7
  6
CONTINUOUS
 70
0
 71
3
 72
8
 73
4
 74
0
 42
0.0000001
 43
0.0000001
 44
0.0000000001
 40
0.0
 40
0.0
 40
0.0
 40
0.0
 40
1.0
 40
1.0
 40
1.0
 40
1.0
 10
3.9159832704
 20
2.7583352297
 30
0.0
 10
3.9246900485
 20
2.7550626853
 30
0.0
 10
3.934579013
 20
2.7545102261
 30
0.0
 10
3.9458135283
 20
2.7567431438
 30
0.0
  0
SPLINE
  5
322
100
AcDbEntity
  8
0
100
AcDbSpline
 62
7
  6
CONTINUOUS
 70
0
 71
3
 72
8
 73
4
 74
0
 42
0.0000001
 43
0.0000001
 44
0.0000000001
 40
0.0
 40
0.0
 40
0.0
 40
0.0
 40
1.0
 40
1.0
 40
1.0
 40
1.0
 10
3.9458135283
 20
2.7567431438
 30
0.0
 10
3.9570480519
 20
2.7589760632
 30
0.0
 10
3.9702346996
 20
2.7645808565
 30
0.0
 10
3.985564414
 20
2.7734314713
 30
0.0
  0
SPLINE
  5
323
100
AcDbEntity
  8
0
100
AcDbSpline
 62
7
  6
CONTINUOUS
 70
0
 71
3
 72
8
 73
4
 74
0
 42
0.0000001
 43
0.0000001
 44
0.0000000001
 40
0.0
 40
0.0
 40
0.0
 40
0.0
 40
1.0
 40
1.0
 40
1.0
 40
1.0
 10
3.985564414
 20
2.7734314713
 30
0.0
 10
4.0100210679
 20
2.787551527
 30
0.0
 10
4.0251103866
 20
2.8019344753
 30
0.0
 10
4.0310030518
 20
2.8167533896
 30
0.0
  0
SPLINE
  5
324
100
AcDbEntity
  8
0
100
AcDbSpline
 62
7
  6
CONTINUOUS
 70
0
 71
3
 72
8
 73
4
 74
0
 42
0.0000001
 43
0.0000001
 44
0.0000000001
 40
0.0
 40
0.0
 40
0.0
 40
0.0
 40
1.0
 40
1.0
 40
1.0
 40
1.0
 10
3.8361568573
 20
3.3631090542
 30
0.0
 10
3.8413730012
 20
3.3579715152
 30
0.0
 10
3.8460224672
 20
3.3507588151
 30
0.0
 10
3.8501746487
 20
3.3413436634
 30
0.0
  0
SPLINE
  5
325
100
AcDbEntity
  8
0
100
AcDbSpline
 62
7
  6
CONTINUOUS
 70
0
 71
3
 72
8
 73
4
 74
0
 42
0.0000001
 43
0.0000001
 44
0.0000000001
 40
0.0
 40
0.0
 40
0.0
 40
0.0
 40
1.0
 40
1.0
 40
1.0
 40
1.0
 10
3.8501746487
 20
3.3413436634
 30
0.0
 10
3.8543851298
 20
3.331796316
 30
0.0
 10
3.8571494594
 20
3.3214306673
 30
0.0
 10
3.8585612559
 20
3.310213466
 30
0.0
  0
SPLINE
  5
326
100
AcDbEntity
  8
0
100
AcDbSpline
 62
7
  6
CONTINUOUS
 70
0
 71
3
 72
8
 73
4
 74
0
 42
0.0000001
 43
0.0000001
 44
0.0000000001
 40
0.0
 40
0.0
 40
0.0
 40
0.0
 40
1.0
 40
1.0
 40
1.0
 40
1.0
 10
3.8754934351
 20
3.3047118675
 30
0.0
 10
3.8753178394
 20
3.3107936722
 30
0.0
 10
3.874293141
 20
3.3179044585
 30
0.0
 10
3.872462315
 20
3.326053759
 30
0.0
  0
SPLINE
  5
327
100
AcDbEntity
  8
0
100
AcDbSpline
 62
7
  6
CONTINUOUS
 70
0
 71
3
 72
8
 73
4
 74
0
 42
0.0000001
 43
0.0000001
 44
0.0000000001
 40
0.0
 40
0.0
 40
0.0
 40
0.0
 40
1.0
 40
1.0
 40
1.0
 40
1.0
 10
3.872462315
 20
3.326053759
 30
0.0
 10
3.8706428759
 20
3.3341523747
 30
0.0
 10
3.8684553546
 20
3.3409954765
 30
0.0
 10
3.8657594855
 20
3.3466051504
 30
0.0
  0
SPLINE
  5
328
100
AcDbEntity
  8
0
100
AcDbSpline
 62
7
  6
CONTINUOUS
 70
0
 71
3
 72
8
 73
4
 74
0
 42
0.0000001
 43
0.0000001
 44
0.0000000001
 40
0.0
 40
0.0
 40
0.0
 40
0.0
 40
1.0
 40
1.0
 40
1.0
 40
1.0
 10
3.8721701956
 20
3.4739467124
 30
0.0
 10
3.8773863409
 20
3.4688091777
 30
0.0
 10
3.8820358054
 20
3.4615964733
 30
0.0
 10
3.8861879869
 20
3.4521813216
 30
0.0
  0
SPLINE
  5
329
100
AcDbEntity
  8
0
100
AcDbSpline
 62
7
  6
CONTINUOUS
 70
0
 71
3
 72
8
 73
4
 74
0
 42
0.0000001
 43
0.0000001
 44
0.0000000001
 40
0.0
 40
0.0
 40
0.0
 40
0.0
 40
1.0
 40
1.0
 40
1.0
 40
1.0
 10
3.8861879869
 20
3.4521813216
 30
0.0
 10
3.8903984681
 20
3.4426339743
 30
0.0
 10
3.893162797
 20
3.4322683234
 30
0.0
 10
3.8945745941
 20
3.4210511242
 30
0.0
  0
SPLINE
  5
32A
100
AcDbEntity
  8
0
100
AcDbSpline
 62
7
  6
CONTINUOUS
 70
0
 71
3
 72
8
 73
4
 74
0
 42
0.0000001
 43
0.0000001
 44
0.0000000001
 40
0.0
 40
0.0
 40
0.0
 40
0.0
 40
1.0
 40
1.0
 40
1.0
 40
1.0
 10
3.9115067733
 20
3.4155495257
 30
0.0
 10
3.9113311776
 20
3.4216313304
 30
0.0
 10
3.9103064813
 20
3.4287421231
 30
0.0
 10
3.9084756527
 20
3.4368914171
 30
0.0
  0
SPLINE
  5
32B
100
AcDbEntity
  8
0
100
AcDbSpline
 62
7
  6
CONTINUOUS
 70
0
 71
3
 72
8
 73
4
 74
0
 42
0.0000001
 43
0.0000001
 44
0.0000000001
 40
0.0
 40
0.0
 40
0.0
 40
0.0
 40
1.0
 40
1.0
 40
1.0
 40
1.0
 10
3.9084756527
 20
3.4368914171
 30
0.0
 10
3.9067007434
 20
3.4447918058
 30
0.0
 10
3.9045755568
 20
3.4514974116
 30
0.0
 10
3.9019698605
 20
3.4570286871
 30
0.0
  0
SPLINE
  5
32C
100
AcDbEntity
  8
0
100
AcDbSpline
 62
7
  6
CONTINUOUS
 70
0
 71
3
 72
8
 73
4
 74
0
 42
0.0000001
 43
0.0000001
 44
0.0000000001
 40
0.0
 40
0.0
 40
0.0
 40
0.0
 40
1.0
 40
1.0
 40
1.0
 40
1.0
 10
3.9747157153
 20
3.5243286406
 30
0.0
 10
3.9714507205
 20
3.5281867112
 30
0.0
 10
3.969312012
 20
3.5328622589
 30
0.0
 10
3.9682434963
 20
3.5382530619
 30
0.0
  0
SPLINE
  5
32D
100
AcDbEntity
  8
0
100
AcDbSpline
 62
7
  6
CONTINUOUS
 70
0
 71
3
 72
8
 73
4
 74
0
 42
0.0000001
 43
0.0000001
 44
0.0000000001
 40
0.0
 40
0.0
 40
0.0
 40
0.0
 40
1.0
 40
1.0
 40
1.0
 40
1.0
 10
3.9682434963
 20
3.5382530619
 30
0.0
 10
3.9671923256
 20
3.5435563574
 30
0.0
 10
3.9675057425
 20
3.5491565239
 30
0.0
 10
3.9693396077
 20
3.5548005808
 30
0.0
  0
SPLINE
  5
32E
100
AcDbEntity
  8
0
100
AcDbSpline
 62
7
  6
CONTINUOUS
 70
0
 71
3
 72
8
 73
4
 74
0
 42
0.0000001
 43
0.0000001
 44
0.0000000001
 40
0.0
 40
0.0
 40
0.0
 40
0.0
 40
1.0
 40
1.0
 40
1.0
 40
1.0
 10
3.9693396077
 20
3.5548005808
 30
0.0
 10
3.9722801179
 20
3.5638505405
 30
0.0
 10
3.9775708402
 20
3.5702003606
 30
0.0
 10
3.9851618173
 20
3.573946878
 30
0.0
  0
SPLINE
  5
32F
100
AcDbEntity
  8
0
100
AcDbSpline
 62
7
  6
CONTINUOUS
 70
0
 71
3
 72
8
 73
4
 74
0
 42
0.0000001
 43
0.0000001
 44
0.0000000001
 40
0.0
 40
0.0
 40
0.0
 40
0.0
 40
1.0
 40
1.0
 40
1.0
 40
1.0
 10
3.9851618173
 20
3.573946878
 30
0.0
 10
3.992818626
 20
3.5777258864
 30
0.0
 10
4.0016177768
 20
3.5779868081
 30
0.0
 10
4.0115435354
 20
3.5747617336
 30
0.0
  0
SPLINE
  5
330
100
AcDbEntity
  8
0
100
AcDbSpline
 62
7
  6
CONTINUOUS
 70
0
 71
3
 72
8
 73
4
 74
0
 42
0.0000001
 43
0.0000001
 44
0.0000000001
 40
0.0
 40
0.0
 40
0.0
 40
0.0
 40
1.0
 40
1.0
 40
1.0
 40
1.0
 10
4.0115435354
 20
3.5747617336
 30
0.0
 10
4.0220531641
 20
3.5713469483
 30
0.0
 10
4.029570711
 20
3.5656768273
 30
0.0
 10
4.0340288911
 20
3.5578000076
 30
0.0
  0
SPLINE
  5
331
100
AcDbEntity
  8
0
100
AcDbSpline
 62
7
  6
CONTINUOUS
 70
0
 71
3
 72
8
 73
4
 74
0
 42
0.0000001
 43
0.0000001
 44
0.0000000001
 40
0.0
 40
0.0
 40
0.0
 40
0.0
 40
1.0
 40
1.0
 40
1.0
 40
1.0
 10
4.0340288911
 20
3.5578000076
 30
0.0
 10
4.0385242874
 20
3.5498574335
 30
0.0
 10
4.0392984965
 20
3.5416446181
 30
0.0
 10
4.0365793164
 20
3.5332758423
 30
0.0
  0
SPLINE
  5
332
100
AcDbEntity
  8
0
100
AcDbSpline
 62
7
  6
CONTINUOUS
 70
0
 71
3
 72
8
 73
4
 74
0
 42
0.0000001
 43
0.0000001
 44
0.0000000001
 40
0.0
 40
0.0
 40
0.0
 40
0.0
 40
1.0
 40
1.0
 40
1.0
 40
1.0
 10
4.0365793164
 20
3.5332758423
 30
0.0
 10
4.034302791
 20
3.5262694175
 30
0.0
 10
4.0301042865
 20
3.5209633284
 30
0.0
 10
4.0240154318
 20
3.5174548965
 30
0.0
  0
SPLINE
  5
333
100
AcDbEntity
  8
0
100
AcDbSpline
 62
7
  6
CONTINUOUS
 70
0
 71
3
 72
8
 73
4
 74
0
 42
0.0000001
 43
0.0000001
 44
0.0000000001
 40
0.0
 40
0.0
 40
0.0
 40
0.0
 40
1.0
 40
1.0
 40
1.0
 40
1.0
 10
4.0240154318
 20
3.5174548965
 30
0.0
 10
4.0179265636
 20
3.5139464569
 30
0.0
 10
4.0101029826
 20
3.5130457861
 30
0.0
 10
4.000707682
 20
3.5145923262
 30
0.0
  0
SPLINE
  5
334
100
AcDbEntity
  8
0
100
AcDbSpline
 62
7
  6
CONTINUOUS
 70
0
 71
3
 72
8
 73
4
 74
0
 42
0.0000001
 43
0.0000001
 44
0.0000000001
 40
0.0
 40
0.0
 40
0.0
 40
0.0
 40
1.0
 40
1.0
 40
1.0
 40
1.0
 10
3.9962887855
 20
3.4956945666
 30
0.0
 10
4.0087348196
 20
3.4929416363
 30
0.0
 10
4.019886327
 20
3.4944823608
 30
0.0
 10
4.0297626442
 20
3.5002837225
 30
0.0
  0
SPLINE
  5
335
100
AcDbEntity
  8
0
100
AcDbSpline
 62
7
  6
CONTINUOUS
 70
0
 71
3
 72
8
 73
4
 74
0
 42
0.0000001
 43
0.0000001
 44
0.0000000001
 40
0.0
 40
0.0
 40
0.0
 40
0.0
 40
1.0
 40
1.0
 40
1.0
 40
1.0
 10
4.0297626442
 20
3.5002837225
 30
0.0
 10
4.039697611
 20
3.5061195351
 30
0.0
 10
4.0467445322
 20
3.5155565848
 30
0.0
 10
4.0509813996
 20
3.5285963218
 30
0.0
  0
SPLINE
  5
336
100
AcDbEntity
  8
0
100
AcDbSpline
 62
7
  6
CONTINUOUS
 70
0
 71
3
 72
8
 73
4
 74
0
 42
0.0000001
 43
0.0000001
 44
0.0000000001
 40
0.0
 40
0.0
 40
0.0
 40
0.0
 40
1.0
 40
1.0
 40
1.0
 40
1.0
 10
4.0509813996
 20
3.5285963218
 30
0.0
 10
4.0561035707
 20
3.5443607437
 30
0.0
 10
4.0544409724
 20
3.5587794004
 30
0.0
 10
4.045876275
 20
3.5717177446
 30
0.0
  0
SPLINE
  5
337
100
AcDbEntity
  8
0
100
AcDbSpline
 62
7
  6
CONTINUOUS
 70
0
 71
3
 72
8
 73
4
 74
0
 42
0.0000001
 43
0.0000001
 44
0.0000000001
 40
0.0
 40
0.0
 40
0.0
 40
0.0
 40
1.0
 40
1.0
 40
1.0
 40
1.0
 10
4.045876275
 20
3.5717177446
 30
0.0
 10
4.0389257689
 20
3.5822175947
 30
0.0
 10
4.0289680766
 20
3.5896488499
 30
0.0
 10
4.0160256619
 20
3.5938540954
 30
0.0
  0
SPLINE
  5
338
100
AcDbEntity
  8
0
100
AcDbSpline
 62
7
  6
CONTINUOUS
 70
0
 71
3
 72
8
 73
4
 74
0
 42
0.0000001
 43
0.0000001
 44
0.0000000001
 40
0.0
 40
0.0
 40
0.0
 40
0.0
 40
1.0
 40
1.0
 40
1.0
 40
1.0
 10
4.0160256619
 20
3.5938540954
 30
0.0
 10
4.0024993813
 20
3.5982490503
 30
0.0
 10
3.9900146773
 20
3.5975718577
 30
0.0
 10
3.9785878696
 20
3.5917903269
 30
0.0
  0
SPLINE
  5
339
100
AcDbEntity
  8
0
100
AcDbSpline
 62
7
  6
CONTINUOUS
 70
0
 71
3
 72
8
 73
4
 74
0
 42
0.0000001
 43
0.0000001
 44
0.0000000001
 40
0.0
 40
0.0
 40
0.0
 40
0.0
 40
1.0
 40
1.0
 40
1.0
 40
1.0
 10
3.9785878696
 20
3.5917903269
 30
0.0
 10
3.9672257381
 20
3.5860415198
 30
0.0
 10
3.9594319344
 20
3.5769547109
 30
0.0
 10
3.9553847793
 20
3.5644988483
 30
0.0
  0
SPLINE
  5
33A
100
AcDbEntity
  8
0
100
AcDbSpline
 62
7
  6
CONTINUOUS
 70
0
 71
3
 72
8
 73
4
 74
0
 42
0.0000001
 43
0.0000001
 44
0.0000000001
 40
0.0
 40
0.0
 40
0.0
 40
0.0
 40
1.0
 40
1.0
 40
1.0
 40
1.0
 10
3.9553847793
 20
3.5644988483
 30
0.0
 10
3.952317798
 20
3.5550596503
 30
0.0
 10
3.9524255617
 20
3.5451268291
 30
0.0
 10
3.9555791401
 20
3.5346347128
 30
0.0
  0
ENDSEC
  0
SECTION
  2
OBJECTS
  0
DICTIONARY
  5
C
100
AcDbDictionary
280
0
281
1
  3
ACAD_GROUP
350
D
  3
ACAD_MLINESTYLE
350
17
  3
ACAD_LAYOUT
350
1A
  3
ACAD_PLOTSETTINGS
350
19
  3
ACAD_PLOTSTYLENAME
350
E
  0
DICTIONARY
  5
D
102
{ACAD_REACTORS
330
C
102
}
100
AcDbDictionary
280
0
281
1
  0
ACDBDICTIONARYWDFLT
  5
E
102
{ACAD_REACTORS
330
C
102
}
100
AcDbDictionary
281
1
  3
Normal
350
F
100
AcDbDictionaryWithDefault
340
F
  0
DICTIONARY
  5
17
102
{ACAD_REACTORS
330
C
102
}
100
AcDbDictionary
280
0
281
1
  3
Standard
350
18
  0
DICTIONARY
  5
19
102
{ACAD_REACTORS
330
C
102
}
100
AcDbDictionary
281
1
  0
DICTIONARY
  5
1A
102
{ACAD_REACTORS
330
C
102
}
100
AcDbDictionary
281
1
  3
Model
350
33B
  3
Layout1
350
33C
  0
ACDBPLACEHOLDER
  5
F
102
{ACAD_REACTORS
330
E
102
}
  0
MLINESTYLE
  5
18
102
{ACAD_REACTORS
330
17
102
}
100
AcDbMlineStyle
  2
STANDARD
 70
0
  3

 62
256
 51
90.0
 52
90.0
 71
2
 49
0.5
 62
256
  6
BYLAYER
 49
-0.5
 62
256
  6
BYLAYER
  0
LAYOUT
  5
33B
102
{ACAD_REACTORS
330
1A
102
}
100
AcDbPlotSettings
  1

  2
none_device
  4
ANSI_A_(11.00_x_8.50_Inches)
  6

 40
0.0
 41
0.0
 42
0.0
 43
0.0
 44
279.4
 45
215.9
 46
0.0
 47
0.0
 48
0.0
 49
0.0
140
0.0
141
0.0
142
1.0
143
1.0
 70
1024
 72
0
 73
0
 74
0
  7

 75
0
147
1.0
148
0.0
149
0.0
100
AcDbLayout
  1
Model
 70
0
 71
0
 10
0.0
 20
0.0
 11
11.0
 21
8.5
 12
0.0
 22
0.0
 32
0.0
 14
0.0
 24
0.0
 34
0.0
 15
0.0
 25
0.0
 35
0.0
146
0.0
 13
0.0
 23
0.0
 33
0.0
 16
1.0
 26
0.0
 36
0.0
 17
0.0
 27
1.0
 37
0.0
 76
0
330
21A
345
0
346
0
  0
LAYOUT
  5
33C
102
{ACAD_REACTORS
330
1A
102
}
100
AcDbPlotSettings
  1

  2
none_device
  4
ANSI_A_(11.00_x_8.50_Inches)
  6

 40
0.0
 41
0.0
 42
0.0
 43
0.0
 44
279.4
 45
215.9
 46
0.0
 47
0.0
 48
0.0
 49
0.0
140
0.0
141
0.0
142
1.0
143
1.0
 70
0
 72
0
 73
0
 74
0
  7

 75
0
147
1.0
148
0.0
149
0.0
100
AcDbLayout
  1
Layout1
 70
0
 71
1
 10
0.0
 20
0.0
 11
11.0
 21
8.5
 12
0.0
 22
0.0
 32
0.0
 14
0.0
 24
0.0
 34
0.0
 15
0.0
 25
0.0
 35
0.0
146
0.0
 13
0.0
 23
0.0
 33
0.0
 16
1.0
 26
0.0
 36
0.0
 17
0.0
 27
1.0
 37
0.0
 76
0
330
21B
345
0
346
0
  0
ENDSEC
  0
EOF
