999
DXF file: 3-2023tr_TOP.dxf
999
Pro/ENGINEER 2013150 by Parametric Technology Corporation
  0
SECTION
  2
HEADER
  9
$ACADVER
  1
AC1021
  9
$DWGCODEPAGE
  3
ANSI_1252
  9
$EXTMAX
 10
11.0
 20
8.5
 30
0.0
  9
$EXTMIN
 10
0.0
 20
0.0
 30
0.0
  9
$LIMMIN
 10
0.0
 20
0.0
  9
$LIMMAX
 10
11.0
 20
8.5
  9
$VIEWCTR
 10
5.5
 20
4.25
  9
$VIEWSIZE
 40
8.5
  9
$CLAYER
  8
0
  9
$LTSCALE
 40
0.605
  9
$CELTYPE
  6
BYLAYER
  9
$DIMSCALE
 40
1.0
  9
$DIMASZ
 40
0.1
  9
$DIMEXO
 40
0.0625
  9
$DIMDLI
 40
0.418
  9
$DIMEXE
 40
0.125
  9
$DIMCEN
 40
0.099
  9
$DIMLFAC
 40
1.0
  9
$DIMBLK
  1
_FILLED
  9
$DIMTXT
 40
0.08
  9
$DIMTOL
 70
1
  9
$DIMLIM
 70
0
  9
$DIMTFAC
 40
1.0
  9
$DIMTP
 40
0.001
  9
$DIMTM
 40
0.001
  9
$DIMGAP
 40
0.09
  9
$DIMDSEP
 70
46
  9
$PDMODE
 70
3
  9
$PDSIZE
 40
0.06
  9
$HANDSEED
  5
266
  9
$TILEMODE
 70
1
  9
$MEASUREMENT
 70
0
  9
$INSUNITS
 70
1
  0
ENDSEC
  0
SECTION
  2
CLASSES
  0
CLASS
  1
ACDBDICTIONARYWDFLT
  2
AcDbDictionaryWithDefault
  3
AutoCAD 2000
 90
0
 91
1
280
0
281
0
  0
CLASS
  1
ACDBPLACEHOLDER
  2
AcDbPlaceHolder
  3
AutoCAD 2000
 90
0
 91
1
280
0
281
0
  0
CLASS
  1
LAYOUT
  2
AcDbLayout
  3
AutoCAD 2000
 90
0
 91
0
280
0
281
0
  0
ENDSEC
  0
SECTION
  2
TABLES
  0
TABLE
  2
VPORT
  5
8
100
AcDbSymbolTable
 70
2
  0
VPORT
  5
1F4
100
AcDbSymbolTableRecord
100
AcDbViewportTableRecord
  2
*ACTIVE
 70
0
 10
0.0
 20
0.0
 11
1.0
 21
1.0
 12
5.5
 22
4.25
 13
0.0
 23
0.0
 14
1.0
 24
1.0
 15
0.0
 25
0.0
 16
0.0
 26
0.0
 36
1.0
 17
0.0
 27
0.0
 37
0.0
 40
8.5
 41
1.2941176471
 42
50.0
 43
0.0
 44
0.0
 50
0.0
 51
0.0
 71
0
 72
100
 73
1
 74
1
 75
0
 76
0
 77
0
 78
0
  0
ENDTAB
  0
TABLE
  2
LTYPE
  5
5
100
AcDbSymbolTable
 70
6
  0
LTYPE
  5
14
100
AcDbSymbolTableRecord
100
AcDbLinetypeTableRecord
  2
BYBLOCK
 70
0
  3

 72
65
 73
0
 40
0.0
  0
LTYPE
  5
15
100
AcDbSymbolTableRecord
100
AcDbLinetypeTableRecord
  2
BYLAYER
 70
0
  3

 72
65
 73
0
 40
0.0
  0
LTYPE
  5
16
100
AcDbSymbolTableRecord
100
AcDbLinetypeTableRecord
  2
CONTINUOUS
 70
64
  3
Solid line
 72
65
 73
0
 40
0.0
  0
LTYPE
  5
1F5
100
AcDbSymbolTableRecord
100
AcDbLinetypeTableRecord
  2
CENTER
 70
64
  3
____ _ ____ _ ____ _ ____ _ ____ _ ____ _ ____
 72
65
 73
4
 40
0.6
 49
0.375
 74
0
 49
-0.075
 74
0
 49
0.075
 74
0
 49
-0.075
 74
0
  0
LTYPE
  5
1F6
100
AcDbSymbolTableRecord
100
AcDbLinetypeTableRecord
  2
HIDDEN
 70
64
  3
- - - - - - - - - - - - - - - - - - - -
 72
65
 73
2
 40
0.2
 49
0.1
 74
0
 49
-0.1
 74
0
  0
LTYPE
  5
1F7
100
AcDbSymbolTableRecord
100
AcDbLinetypeTableRecord
  2
PHANTOM
 70
64
  3
_____ _ _ _____ _ _ _____ _ _ _____
 72
65
 73
6
 40
0.8
 49
0.45
 74
0
 49
-0.05
 74
0
 49
0.1
 74
0
 49
-0.05
 74
0
 49
0.1
 74
0
 49
-0.05
 74
0
  0
LTYPE
  5
1F8
100
AcDbSymbolTableRecord
100
AcDbLinetypeTableRecord
  2
DOT
 70
64
  3
. . . . . . . . . . . . . . . . . . . .
 72
65
 73
2
 40
0.2
 49
0.1
 74
0
 49
-0.1
 74
0
  0
LTYPE
  5
1F9
100
AcDbSymbolTableRecord
100
AcDbLinetypeTableRecord
  2
DASHED
 70
64
  3
- - - - - - - - - - - - - - - - - - - -
 72
65
 73
2
 40
0.2
 49
0.1
 74
0
 49
-0.1
 74
0
  0
ENDTAB
  0
TABLE
  2
LAYER
  5
2
100
AcDbSymbolTable
 70
36
  0
LAYER
  5
10
100
AcDbSymbolTableRecord
100
AcDbLayerTableRecord
  2
0
 70
0
 62
7
  6
CONTINUOUS
370
-3
390
F
  0
LAYER
  5
1FA
100
AcDbSymbolTableRecord
100
AcDbLayerTableRecord
  2
DEFAULT_1
 70
0
 62
7
  6
CENTER
370
-3
390
F
  0
LAYER
  5
1FB
100
AcDbSymbolTableRecord
100
AcDbLayerTableRecord
  2
DEFAULT_2
 70
0
 62
8
  6
HIDDEN
370
-3
390
F
  0
LAYER
  5
1FC
100
AcDbSymbolTableRecord
100
AcDbLayerTableRecord
  2
DEFAULT_3
 70
0
 62
7
  6
PHANTOM
370
-3
390
F
  0
LAYER
  5
1FD
100
AcDbSymbolTableRecord
100
AcDbLayerTableRecord
  2
ALL_ASSEMBLY_MEMBERS
 70
0
 62
7
  6
CONTINUOUS
370
-3
390
F
  0
LAYER
  5
1FE
100
AcDbSymbolTableRecord
100
AcDbLayerTableRecord
  2
ALL_FEATURES
 70
0
 62
7
  6
CONTINUOUS
370
-3
390
F
  0
LAYER
  5
1FF
100
AcDbSymbolTableRecord
100
AcDbLayerTableRecord
  2
AXES_FEATURES
 70
0
 62
7
  6
CONTINUOUS
370
-3
390
F
  0
LAYER
  5
200
100
AcDbSymbolTableRecord
100
AcDbLayerTableRecord
  2
CHAMFER_FEATURES
 70
0
 62
7
  6
CONTINUOUS
370
-3
390
F
  0
LAYER
  5
201
100
AcDbSymbolTableRecord
100
AcDbLayerTableRecord
  2
CUT_FEATURES
 70
0
 62
7
  6
CONTINUOUS
370
-3
390
F
  0
LAYER
  5
202
100
AcDbSymbolTableRecord
100
AcDbLayerTableRecord
  2
DATUM_CURVES
 70
0
 62
7
  6
CONTINUOUS
370
-3
390
F
  0
LAYER
  5
203
100
AcDbSymbolTableRecord
100
AcDbLayerTableRecord
  2
DATUM_PLANES
 70
0
 62
7
  6
CONTINUOUS
370
-3
390
F
  0
LAYER
  5
204
100
AcDbSymbolTableRecord
100
AcDbLayerTableRecord
  2
DATUM_POINTS
 70
0
 62
7
  6
CONTINUOUS
370
-3
390
F
  0
LAYER
  5
205
100
AcDbSymbolTableRecord
100
AcDbLayerTableRecord
  2
DEFAULT_COORDINATE_SYSTEM
 70
0
 62
7
  6
CONTINUOUS
370
-3
390
F
  0
LAYER
  5
206
100
AcDbSymbolTableRecord
100
AcDbLayerTableRecord
  2
DEFAULT_DATUM_AXES
 70
0
 62
7
  6
CONTINUOUS
370
-3
390
F
  0
LAYER
  5
207
100
AcDbSymbolTableRecord
100
AcDbLayerTableRecord
  2
DEFAULT_DATUM_CURVES
 70
0
 62
7
  6
CONTINUOUS
370
-3
390
F
  0
LAYER
  5
208
100
AcDbSymbolTableRecord
100
AcDbLayerTableRecord
  2
DEFAULT_DATUM_PLANES
 70
0
 62
7
  6
CONTINUOUS
370
-3
390
F
  0
LAYER
  5
209
100
AcDbSymbolTableRecord
100
AcDbLayerTableRecord
  2
DEFAULT_SURFACES
 70
0
 62
7
  6
CONTINUOUS
370
-3
390
F
  0
LAYER
  5
20A
100
AcDbSymbolTableRecord
100
AcDbLayerTableRecord
  2
DIMENSIONS
 70
0
 62
7
  6
CONTINUOUS
370
-3
390
F
  0
LAYER
  5
20B
100
AcDbSymbolTableRecord
100
AcDbLayerTableRecord
  2
HOLE_FEATURES
 70
0
 62
7
  6
CONTINUOUS
370
-3
390
F
  0
LAYER
  5
20C
100
AcDbSymbolTableRecord
100
AcDbLayerTableRecord
  2
INTFCLR_1
 70
0
 62
7
  6
CONTINUOUS
370
-3
390
F
  0
LAYER
  5
20D
100
AcDbSymbolTableRecord
100
AcDbLayerTableRecord
  2
NOTES
 70
0
 62
7
  6
CONTINUOUS
370
-3
390
F
  0
LAYER
  5
20E
100
AcDbSymbolTableRecord
100
AcDbLayerTableRecord
  2
PART_REFERENCE_DIMENSIONS
 70
0
 62
7
  6
CONTINUOUS
370
-3
390
F
  0
LAYER
  5
20F
100
AcDbSymbolTableRecord
100
AcDbLayerTableRecord
  2
PLATED_SURFACE_AREA
 70
0
 62
7
  6
CONTINUOUS
370
-3
390
F
  0
LAYER
  5
210
100
AcDbSymbolTableRecord
100
AcDbLayerTableRecord
  2
POINTS
 70
0
 62
7
  6
CONTINUOUS
370
-3
390
F
  0
LAYER
  5
211
100
AcDbSymbolTableRecord
100
AcDbLayerTableRecord
  2
PROTRUSION
 70
0
 62
7
  6
CONTINUOUS
370
-3
390
F
  0
LAYER
  5
212
100
AcDbSymbolTableRecord
100
AcDbLayerTableRecord
  2
PROTRUSION_FEATURES
 70
0
 62
7
  6
CONTINUOUS
370
-3
390
F
  0
LAYER
  5
213
100
AcDbSymbolTableRecord
100
AcDbLayerTableRecord
  2
QUILTS
 70
0
 62
7
  6
CONTINUOUS
370
-3
390
F
  0
LAYER
  5
214
100
AcDbSymbolTableRecord
100
AcDbLayerTableRecord
  2
REFERENCE_DIMENSIONS
 70
0
 62
7
  6
CONTINUOUS
370
-3
390
F
  0
LAYER
  5
215
100
AcDbSymbolTableRecord
100
AcDbLayerTableRecord
  2
ROUND_FEATURES
 70
0
 62
7
  6
CONTINUOUS
370
-3
390
F
  0
LAYER
  5
216
100
AcDbSymbolTableRecord
100
AcDbLayerTableRecord
  2
SIZE_REF
 70
0
 62
7
  6
CONTINUOUS
370
-3
390
F
  0
LAYER
  5
217
100
AcDbSymbolTableRecord
100
AcDbLayerTableRecord
  2
XSEC_DATUMS
 70
0
 62
7
  6
CONTINUOUS
370
-3
390
F
  0
ENDTAB
  0
TABLE
  2
STYLE
  5
3
100
AcDbSymbolTable
 70
1
  0
STYLE
  5
11
100
AcDbSymbolTableRecord
100
AcDbTextStyleTableRecord
  2
STANDARD
 70
0
 40
0.0
 41
0.8
 50
0.0
 71
0
 42
0.2
  3
txt
  4

  0
STYLE
  5
218
100
AcDbSymbolTableRecord
100
AcDbTextStyleTableRecord
  2
TEXTSTYLE_1
 70
0
 40
0.0
 41
0.8
 50
0.0
 71
0
 42
0.2
  3
gdt
  4

  0
ENDTAB
  0
TABLE
  2
VIEW
  5
6
100
AcDbSymbolTable
 70
0
  0
ENDTAB
  0
TABLE
  2
UCS
  5
7
100
AcDbSymbolTable
 70
0
  0
ENDTAB
  0
TABLE
  2
APPID
  5
9
100
AcDbSymbolTable
 70
1
  0
APPID
  5
219
100
AcDbSymbolTableRecord
100
AcDbRegAppTableRecord
  2
ACAD
 70
0
  0
ENDTAB
  0
TABLE
  2
BLOCK_RECORD
  5
1
100
AcDbSymbolTable
 70
0
  0
BLOCK_RECORD
  5
21A
100
AcDbSymbolTableRecord
100
AcDbBlockTableRecord
  2
*Model_Space
  0
BLOCK_RECORD
  5
21B
100
AcDbSymbolTableRecord
100
AcDbBlockTableRecord
  2
*Paper_Space
  0
ENDTAB
  0
TABLE
  2
DIMSTYLE
  5
A
100
AcDbSymbolTable
 70
1
100
AcDbDimStyleTable
 71
0
  0
DIMSTYLE
105
21C
100
AcDbSymbolTableRecord
100
AcDbDimStyleTableRecord
  2
STANDARD
 70
0
  3

  4

 40
1.0
 41
0.1
 42
0.0625
 43
0.38
 44
0.125
 45
0.0
 46
0.0
 47
0.001
 48
0.001
140
0.08
141
0.09
142
0.0
143
25.4
144
1.0
145
0.0
146
1.0
147
0.09
 71
1.0
 72
0.0
 73
1
 74
1
 75
0
 76
0
 77
0
 78
4
170
0
171
2
172
0
173
0
174
0
175
0
176
0
177
0
178
0
270
2
271
3
272
3
273
2
274
2
275
0
280
0
281
0
282
0
283
1
284
4
285
0
286
0
287
3
288
0
340
11
278
46
  0
ENDTAB
  0
ENDSEC
  0
SECTION
  2
BLOCKS
  0
BLOCK
  5
20
100
AcDbEntity
  8
0
100
AcDbBlockBegin
  2
*Model_Space
 70
0
 10
0.0
 20
0.0
 30
0.0
  3
*Model_Space
  1

  0
ENDBLK
  5
21
100
AcDbEntity
  8
0
100
AcDbBlockEnd
  0
BLOCK
  5
1C
100
AcDbEntity
  8
0
100
AcDbBlockBegin
  2
*Paper_Space
 70
0
 10
0.0
 20
0.0
 30
0.0
  3
*Paper_Space
  1

  0
ENDBLK
  5
1D
100
AcDbEntity
  8
0
100
AcDbBlockEnd
  0
ENDSEC
  0
SECTION
  2
ENTITIES
  0
LINE
  5
21D
100
AcDbEntity
  8
0
100
AcDbLine
 62
7
  6
CONTINUOUS
 10
0.0
 20
0.0
 11
0.0
 21
8.5
  0
LINE
  5
21E
100
AcDbEntity
  8
0
100
AcDbLine
 62
7
  6
CONTINUOUS
 10
0.0
 20
0.0
 11
11.0
 21
0.0
  0
LINE
  5
21F
100
AcDbEntity
  8
0
100
AcDbLine
 62
7
  6
CONTINUOUS
 10
0.0
 20
8.5
 11
11.0
 21
8.5
  0
LINE
  5
220
100
AcDbEntity
  8
0
100
AcDbLine
 62
7
  6
CONTINUOUS
 10
11.0
 20
0.0
 11
11.0
 21
8.5
  0
LINE
  5
221
100
AcDbEntity
  8
0
100
AcDbLine
 62
7
  6
CONTINUOUS
 10
2.1560956886
 20
5.5579271409
 11
2.1560956886
 21
5.2669271409
  0
LINE
  5
222
100
AcDbEntity
  8
ALL_ASSEMBLY_MEMBERS
100
AcDbLine
 62
7
  6
CONTINUOUS
 10
4.5804706886
 20
2.6801535189
 11
5.0492206886
 21
2.6801535189
  0
LINE
  5
223
100
AcDbEntity
  8
ALL_ASSEMBLY_MEMBERS
100
AcDbLine
 62
7
  6
CONTINUOUS
 10
4.5804706886
 20
2.9576535189
 11
5.0492206886
 21
2.9576535189
  0
LINE
  5
224
100
AcDbEntity
  8
ALL_ASSEMBLY_MEMBERS
100
AcDbLine
 62
7
  6
CONTINUOUS
 10
5.0492206886
 20
3.4264035189
 11
4.5804706886
 21
3.4264035189
  0
LINE
  5
225
100
AcDbEntity
  8
ALL_FEATURES
100
AcDbLine
 62
7
  6
CONTINUOUS
 10
4.1947669484
 20
3.9289035189
 11
4.1947669484
 21
4.2454271409
  0
LINE
  5
226
100
AcDbEntity
  8
0
100
AcDbLine
 62
7
  6
CONTINUOUS
 10
4.1947681886
 20
5.2294271409
 11
4.1947681886
 21
4.2454271409
  0
LINE
  5
227
100
AcDbEntity
  8
ALL_FEATURES
100
AcDbLine
 62
7
  6
CONTINUOUS
 10
4.5804706886
 20
3.7414035189
 11
4.3235996901
 21
3.7414035189
  0
LINE
  5
228
100
AcDbEntity
  8
ALL_FEATURES
100
AcDbLine
 62
7
  6
CONTINUOUS
 10
5.0492206886
 20
3.7414035189
 11
5.306091687
 21
3.7414035189
  0
LINE
  5
229
100
AcDbEntity
  8
ALL_FEATURES
100
AcDbLine
 62
7
  6
CONTINUOUS
 10
4.3235956886
 20
3.7414035189
 11
4.3235956886
 21
3.9289035189
  0
LINE
  5
22A
100
AcDbEntity
  8
0
100
AcDbLine
 62
7
  6
CONTINUOUS
 10
4.3292206886
 20
4.2454271409
 11
4.3292206886
 21
4.0189035189
  0
LINE
  5
22B
100
AcDbEntity
  8
ALL_FEATURES
100
AcDbLine
 62
7
  6
CONTINUOUS
 10
4.3292206886
 20
4.0189035189
 11
4.3292206886
 21
4.2454271409
  0
LINE
  5
22C
100
AcDbEntity
  8
ALL_ASSEMBLY_MEMBERS
100
AcDbLine
 62
7
  6
CONTINUOUS
 10
4.7979311299
 20
3.8021066439
 11
4.8317602473
 21
3.8021066439
  0
LINE
  5
22D
100
AcDbEntity
  8
ALL_ASSEMBLY_MEMBERS
100
AcDbLine
 62
7
  6
CONTINUOUS
 10
4.8317602473
 20
3.8607003939
 11
4.7979311299
 21
3.8607003939
  0
LINE
  5
22E
100
AcDbEntity
  8
ALL_FEATURES
100
AcDbLine
 62
7
  6
CONTINUOUS
 10
4.5804706886
 20
3.9289035189
 11
4.1947705677
 21
3.9289035189
  0
LINE
  5
22F
100
AcDbEntity
  8
ALL_FEATURES
100
AcDbLine
 62
7
  6
CONTINUOUS
 10
5.0492206886
 20
3.9289035189
 11
5.4349208094
 21
3.9289035189
  0
LINE
  5
230
100
AcDbEntity
  8
ALL_ASSEMBLY_MEMBERS
100
AcDbLine
 62
7
  6
CONTINUOUS
 10
4.8111234405
 20
3.7752848692
 11
4.8148456886
 21
3.775004933
  0
LINE
  5
231
100
AcDbEntity
  8
ALL_ASSEMBLY_MEMBERS
100
AcDbLine
 62
7
  6
CONTINUOUS
 10
4.5804706886
 20
3.9814035189
 11
4.5804706886
 21
2.6801535189
  0
LINE
  5
232
100
AcDbEntity
  8
ALL_ASSEMBLY_MEMBERS
100
AcDbLine
 62
7
  6
CONTINUOUS
 10
5.0492206886
 20
3.9814035189
 11
4.5804706886
 21
3.9814035189
  0
LINE
  5
233
100
AcDbEntity
  8
ALL_FEATURES
100
AcDbLine
 62
7
  6
CONTINUOUS
 10
4.3292206886
 20
4.0189035189
 11
5.3004706886
 21
4.0189035189
  0
LINE
  5
234
100
AcDbEntity
  8
ALL_ASSEMBLY_MEMBERS
100
AcDbLine
 62
7
  6
CONTINUOUS
 10
4.7810165713
 20
3.8314035189
 11
4.7979311299
 21
3.8021066439
  0
LINE
  5
235
100
AcDbEntity
  8
ALL_ASSEMBLY_MEMBERS
100
AcDbLine
 62
7
  6
CONTINUOUS
 10
4.8486748059
 20
3.8314035189
 11
4.8317602473
 21
3.8607003939
  0
LINE
  5
236
100
AcDbEntity
  8
0
100
AcDbLine
 62
7
  6
CONTINUOUS
 10
4.6760956886
 20
4.0189035189
 11
4.6760956886
 21
3.9814035189
  0
LINE
  5
237
100
AcDbEntity
  8
0
100
AcDbLine
 62
7
  6
CONTINUOUS
 10
4.1947681886
 20
4.2454271409
 11
5.4349231886
 21
4.2454271409
  0
LINE
  5
238
100
AcDbEntity
  8
0
100
AcDbLine
 62
7
  6
CONTINUOUS
 10
4.9535956886
 20
4.0189035189
 11
4.9535956886
 21
3.9814035189
  0
LINE
  5
239
100
AcDbEntity
  8
ALL_ASSEMBLY_MEMBERS
100
AcDbLine
 62
7
  6
CONTINUOUS
 10
5.0492206886
 20
2.6801535189
 11
5.0492206886
 21
3.9814035189
  0
LINE
  5
23A
100
AcDbEntity
  8
ALL_ASSEMBLY_MEMBERS
100
AcDbLine
 62
7
  6
CONTINUOUS
 10
4.7979311299
 20
3.8607003939
 11
4.7810165713
 21
3.8314035189
  0
LINE
  5
23B
100
AcDbEntity
  8
ALL_ASSEMBLY_MEMBERS
100
AcDbLine
 62
7
  6
CONTINUOUS
 10
4.8317602473
 20
3.8021066439
 11
4.8486748059
 21
3.8314035189
  0
LINE
  5
23C
100
AcDbEntity
  8
0
100
AcDbLine
 62
7
  6
CONTINUOUS
 10
5.3004706886
 20
4.2454271409
 11
5.3004706886
 21
4.0189035189
  0
LINE
  5
23D
100
AcDbEntity
  8
ALL_FEATURES
100
AcDbLine
 62
7
  6
CONTINUOUS
 10
5.3004706886
 20
4.0189035189
 11
5.3004706886
 21
4.2454271409
  0
LINE
  5
23E
100
AcDbEntity
  8
ALL_FEATURES
100
AcDbLine
 62
7
  6
CONTINUOUS
 10
5.3060956886
 20
3.7414035189
 11
5.3060956886
 21
3.9289035189
  0
LINE
  5
23F
100
AcDbEntity
  8
0
100
AcDbLine
 62
7
  6
CONTINUOUS
 10
5.4349231886
 20
5.2294271409
 11
5.4349231886
 21
4.2454271409
  0
LINE
  5
240
100
AcDbEntity
  8
ALL_FEATURES
100
AcDbLine
 62
7
  6
CONTINUOUS
 10
5.4349244287
 20
3.9289035189
 11
5.4349244287
 21
4.2454271409
  0
LINE
  5
241
100
AcDbEntity
  8
0
100
AcDbLine
 62
7
  6
CONTINUOUS
 10
7.4360956886
 20
5.2294271409
 11
2.1935956886
 21
5.2294271409
  0
LINE
  5
242
100
AcDbEntity
  8
0
100
AcDbLine
 62
9
  6
CONTINUOUS
 10
7.4735956886
 20
5.2669271409
 11
2.1560956886
 21
5.2669271409
  0
LINE
  5
243
100
AcDbEntity
  8
0
100
AcDbLine
 62
7
  6
CONTINUOUS
 10
7.4735956886
 20
5.5579271409
 11
2.1560956886
 21
5.5579271409
  0
LINE
  5
244
100
AcDbEntity
  8
0
100
AcDbLine
 62
7
  6
CONTINUOUS
 10
7.4735956886
 20
5.5579271409
 11
7.4735956886
 21
5.2669271409
  0
ARC
  5
245
100
AcDbEntity
  8
ALL_ASSEMBLY_MEMBERS
100
AcDbCircle
 62
7
  6
CONTINUOUS
 10
4.814830658
 20
3.8314122454
 40
0.0614172542
100
AcDbArc
 50
118.810703982
 51
120.0096442175
  0
ARC
  5
246
100
AcDbEntity
  8
ALL_ASSEMBLY_MEMBERS
100
AcDbCircle
 62
7
  6
CONTINUOUS
 10
4.8147635327
 20
3.831528768
 40
0.06128278
100
AcDbArc
 50
120.00978612
 51
120.7609790388
  0
ARC
  5
247
100
AcDbEntity
  8
ALL_ASSEMBLY_MEMBERS
100
AcDbCircle
 62
7
  6
CONTINUOUS
 10
4.8146805623
 20
3.831667739
 40
0.0611209252
100
AcDbArc
 50
120.7607734044
 51
121.9330184257
  0
ARC
  5
248
100
AcDbEntity
  8
ALL_ASSEMBLY_MEMBERS
100
AcDbCircle
 62
7
  6
CONTINUOUS
 10
4.8139776685
 20
3.8336293151
 40
0.0610358553
100
AcDbArc
 50
29.4933522504
 51
29.7576200352
  0
ARC
  5
249
100
AcDbEntity
  8
ALL_ASSEMBLY_MEMBERS
100
AcDbCircle
 62
7
  6
CONTINUOUS
 10
4.8067042321
 20
3.8282148276
 40
0.0604466698
100
AcDbArc
 50
109.8440600692
 51
113.5667141465
  0
ARC
  5
24A
100
AcDbEntity
  8
ALL_ASSEMBLY_MEMBERS
100
AcDbCircle
 62
7
  6
CONTINUOUS
 10
4.8066956821
 20
3.8282345406
 40
0.0604251826
100
AcDbArc
 50
113.5667565369
 51
113.7578891959
  0
ARC
  5
24B
100
AcDbEntity
  8
ALL_ASSEMBLY_MEMBERS
100
AcDbCircle
 62
7
  6
CONTINUOUS
 10
4.8065835819
 20
3.8285600134
 40
0.0600810251
100
AcDbArc
 50
105.938516054
 51
109.847580222
  0
ARC
  5
24C
100
AcDbEntity
  8
ALL_ASSEMBLY_MEMBERS
100
AcDbCircle
 62
7
  6
CONTINUOUS
 10
4.8148401855
 20
3.8313684464
 40
0.0488529615
100
AcDbArc
 50
82.0927400279
 51
82.3929804593
  0
ARC
  5
24D
100
AcDbEntity
  8
ALL_ASSEMBLY_MEMBERS
100
AcDbCircle
 62
7
  6
CONTINUOUS
 10
4.8085850009
 20
3.832756028
 40
0.0484808191
100
AcDbArc
 50
77.0469066879
 51
78.4951215495
  0
ARC
  5
24E
100
AcDbEntity
  8
0
100
AcDbCircle
 62
7
  6
CONTINUOUS
 10
2.1935956886
 20
5.2669271409
 40
0.0375
100
AcDbArc
 50
180.0
 51
270.0
  0
CIRCLE
  5
24F
100
AcDbEntity
  8
ALL_ASSEMBLY_MEMBERS
100
AcDbCircle
 62
7
  6
CONTINUOUS
 10
4.8148456886
 20
3.8314035189
 40
0.06375
  0
ARC
  5
250
100
AcDbEntity
  8
ALL_ASSEMBLY_MEMBERS
100
AcDbCircle
 62
7
  6
CONTINUOUS
 10
4.8149039273
 20
3.8312785501
 40
0.0615697099
100
AcDbArc
 50
116.8668088286
 51
118.810489668
  0
ARC
  5
251
100
AcDbEntity
  8
ALL_ASSEMBLY_MEMBERS
100
AcDbCircle
 62
7
  6
CONTINUOUS
 10
4.8148456886
 20
3.8314035189
 40
0.0614324999
100
AcDbArc
 50
31.9621502918
 51
121.933376486
  0
ARC
  5
252
100
AcDbEntity
  8
ALL_ASSEMBLY_MEMBERS
100
AcDbCircle
 62
7
  6
CONTINUOUS
 10
4.8148501161
 20
3.8314159389
 40
0.061422276
100
AcDbArc
 50
28.164426932
 51
30.2216035352
  0
ARC
  5
253
100
AcDbEntity
  8
ALL_ASSEMBLY_MEMBERS
100
AcDbCircle
 62
7
  6
CONTINUOUS
 10
4.8150922852
 20
3.8315578641
 40
0.0611415839
100
AcDbArc
 50
30.2209094666
 51
31.9617679024
  0
ARC
  5
254
100
AcDbEntity
  8
ALL_ASSEMBLY_MEMBERS
100
AcDbCircle
 62
7
  6
CONTINUOUS
 10
4.8171987247
 20
3.8311591065
 40
0.0562031681
100
AcDbArc
 50
258.0730426768
 51
263.7945276692
  0
ARC
  5
255
100
AcDbEntity
  8
ALL_ASSEMBLY_MEMBERS
100
AcDbCircle
 62
7
  6
CONTINUOUS
 10
4.8148456886
 20
3.8314035189
 40
0.054
100
AcDbArc
 50
130.544423655
 51
308.6553637346
  0
ARC
  5
256
100
AcDbEntity
  8
ALL_ASSEMBLY_MEMBERS
100
AcDbCircle
 62
7
  6
CONTINUOUS
 10
4.8148456926
 20
3.8314035309
 40
0.0488174787
100
AcDbArc
 50
355.6980613282
 51
82.0934772884
  0
ARC
  5
257
100
AcDbEntity
  8
ALL_ASSEMBLY_MEMBERS
100
AcDbCircle
 62
7
  6
CONTINUOUS
 10
4.8148461033
 20
3.8314143032
 40
0.0488067246
100
AcDbArc
 50
82.4642864652
 51
84.5847721018
  0
ARC
  5
258
100
AcDbEntity
  8
ALL_ASSEMBLY_MEMBERS
100
AcDbCircle
 62
7
  6
CONTINUOUS
 10
4.8149149776
 20
3.8313968364
 40
0.0487478896
100
AcDbArc
 50
354.6144584821
 51
355.6997990044
  0
ARC
  5
259
100
AcDbEntity
  8
ALL_ASSEMBLY_MEMBERS
100
AcDbCircle
 62
7
  6
CONTINUOUS
 10
4.8148578743
 20
3.8315330933
 40
0.0486873539
100
AcDbArc
 50
83.488307427
 51
84.5853697254
  0
ARC
  5
25A
100
AcDbEntity
  8
ALL_ASSEMBLY_MEMBERS
100
AcDbCircle
 62
7
  6
CONTINUOUS
 10
4.8149929532
 20
3.8313896962
 40
0.048669588
100
AcDbArc
 50
354.0092067171
 51
354.6142113047
  0
ARC
  5
25B
100
AcDbEntity
  8
0
100
AcDbCircle
 62
7
  6
CONTINUOUS
 10
7.4360956886
 20
5.2669271409
 40
0.0375
100
AcDbArc
 50
270.0
 51
360.0
  0
SPLINE
  5
25C
100
AcDbEntity
  8
ALL_ASSEMBLY_MEMBERS
100
AcDbSpline
 62
7
  6
CONTINUOUS
 70
0
 71
3
 72
8
 73
4
 74
0
 42
0.0000001
 43
0.0000001
 44
0.0000000001
 40
0.0
 40
0.0
 40
0.0
 40
0.0
 40
1.0
 40
1.0
 40
1.0
 40
1.0
 10
4.8213072344
 20
3.8797914691
 30
0.0
 10
4.8212870962
 20
3.8797941458
 30
0.0
 10
4.8212669581
 20
3.8797968225
 30
0.0
 10
4.8212468199
 20
3.8797994993
 30
0.0
  0
SPLINE
  5
25D
100
AcDbEntity
  8
ALL_ASSEMBLY_MEMBERS
100
AcDbSpline
 62
7
  6
CONTINUOUS
 70
0
 71
3
 72
21
 73
17
 74
0
 42
0.0000001
 43
0.0000001
 44
0.0000000001
 40
0.0
 40
0.0
 40
0.0
 40
0.0
 40
0.1249675496
 40
0.1874782833
 40
0.2499807154
 40
0.312482071
 40
0.3749863092
 40
0.4374911187
 40
0.499995924
 40
0.562500754
 40
0.6250072984
 40
0.6875135588
 40
0.7500174804
 40
0.812522036
 40
0.8750347512
 40
1.0
 40
1.0
 40
1.0
 40
1.0
 10
4.8485759501
 20
3.7892339865
 30
0.0
 10
4.8497896572
 20
3.7904681219
 30
0.0
 10
4.851522287
 20
3.7924096654
 30
0.0
 10
4.8536323992
 20
3.7951561243
 30
0.0
 10
4.8551120292
 20
3.7972921501
 30
0.0
 10
4.8564838265
 20
3.7994987517
 30
0.0
 10
4.8577438704
 20
3.8017711063
 30
0.0
 10
4.8588883968
 20
3.8041038413
 30
0.0
 10
4.8599135444
 20
3.8064914738
 30
0.0
 10
4.8608161255
 20
3.8089281238
 30
0.0
 10
4.8615927748
 20
3.8114078221
 30
0.0
 10
4.862240814
 20
3.8139242054
 30
0.0
 10
4.8627575648
 20
3.8164707448
 30
0.0
 10
4.8631407434
 20
3.8190410254
 30
0.0
 10
4.8634708347
 20
3.8224888616
 30
0.0
 10
4.8635127188
 20
3.8250918096
 30
0.0
 10
4.8634476784
 20
3.8268215017
 30
0.0
  0
SPLINE
  5
25E
100
AcDbEntity
  8
ALL_ASSEMBLY_MEMBERS
100
AcDbSpline
 62
7
  6
CONTINUOUS
 70
0
 71
3
 72
21
 73
17
 74
0
 42
0.0000001
 43
0.0000001
 44
0.0000000001
 40
0.0
 40
0.0
 40
0.0
 40
0.0
 40
0.1249486597
 40
0.1874700612
 40
0.2499778541
 40
0.3124784168
 40
0.3749794236
 40
0.4374842233
 40
0.4999909599
 40
0.5624970686
 40
0.6250028147
 40
0.6875086406
 40
0.7500145465
 40
0.8125211452
 40
0.8750279415
 40
1.0
 40
1.0
 40
1.0
 40
1.0
 10
4.8485759501
 20
3.7892339865
 30
0.0
 10
4.8471251019
 20
3.7879655215
 30
0.0
 10
4.8448435411
 20
3.7861774304
 30
0.0
 10
4.841627736
 20
3.7840482591
 30
0.0
 10
4.8391330664
 20
3.7825815671
 30
0.0
 10
4.8365645178
 20
3.7812495262
 30
0.0
 10
4.8339289855
 20
3.7800554959
 30
0.0
 10
4.8312339502
 20
3.7790024337
 30
0.0
 10
4.8284871394
 20
3.7780926881
 30
0.0
 10
4.8256962035
 20
3.777328909
 30
0.0
 10
4.8228690501
 20
3.7767126996
 30
0.0
 10
4.8200135229
 20
3.7762452524
 30
0.0
 10
4.8171374749
 20
3.7759278949
 30
0.0
 10
4.8142486499
 20
3.7757608245
 30
0.0
 10
4.8103918558
 20
3.7757385829
 30
0.0
 10
4.8075009551
 20
3.7759477469
 30
0.0
 10
4.8055881989
 20
3.7761859042
 30
0.0
  0
SPLINE
  5
25F
100
AcDbEntity
  8
ALL_ASSEMBLY_MEMBERS
100
AcDbSpline
 62
7
  6
CONTINUOUS
 70
0
 71
3
 72
8
 73
4
 74
0
 42
0.0000001
 43
0.0000001
 44
0.0000000001
 40
0.0
 40
0.0
 40
0.0
 40
0.0
 40
1.0
 40
1.0
 40
1.0
 40
1.0
 10
4.863396741
 20
3.8263101168
 30
0.0
 10
4.8633956047
 20
3.8262993233
 30
0.0
 10
4.8633944683
 20
3.8262885298
 30
0.0
 10
4.863393332
 20
3.8262777363
 30
0.0
  0
SPLINE
  5
260
100
AcDbEntity
  8
ALL_ASSEMBLY_MEMBERS
100
AcDbSpline
 62
7
  6
CONTINUOUS
 70
0
 71
3
 72
16
 73
12
 74
0
 42
0.0000001
 43
0.0000001
 44
0.0000000001
 40
0.0
 40
0.0
 40
0.0
 40
0.0
 40
0.0625157724
 40
0.1250282043
 40
0.2500107496
 40
0.3749939581
 40
0.4999793195
 40
0.6249703309
 40
0.7499695473
 40
0.8749820713
 40
1.0
 40
1.0
 40
1.0
 40
1.0
 10
4.8182545667
 20
3.8802627573
 30
0.0
 10
4.8174312115
 20
3.8804303515
 30
0.0
 10
4.8157754907
 20
3.8807228748
 30
0.0
 10
4.8124396176
 20
3.881136352
 30
0.0
 10
4.8082363672
 20
3.8813320663
 30
0.0
 10
4.8031961267
 20
3.8810567629
 30
0.0
 10
4.7982081754
 20
3.8802807984
 30
0.0
 10
4.7933208568
 20
3.8790178738
 30
0.0
 10
4.7885791431
 20
3.8772857697
 30
0.0
 10
4.7840259835
 20
3.8751063344
 30
0.0
 10
4.7811412436
 20
3.8733710678
 30
0.0
 10
4.7797436676
 20
3.8724382374
 30
0.0
  0
SPLINE
  5
261
100
AcDbEntity
  8
ALL_ASSEMBLY_MEMBERS
100
AcDbSpline
 62
7
  6
CONTINUOUS
 70
0
 71
3
 72
21
 73
17
 74
0
 42
0.0000001
 43
0.0000001
 44
0.0000000001
 40
0.0
 40
0.0
 40
0.0
 40
0.0
 40
0.0624011687
 40
0.1248435361
 40
0.1872930403
 40
0.2497465712
 40
0.3122122052
 40
0.3746928104
 40
0.4371857171
 40
0.4996884951
 40
0.5622026243
 40
0.6247272596
 40
0.6872617614
 40
0.7498031748
 40
0.8748831966
 40
1.0
 40
1.0
 40
1.0
 40
1.0
 10
4.7797436676
 20
3.8724382374
 30
0.0
 10
4.7804020094
 20
3.8732180177
 30
0.0
 10
4.7817643343
 20
3.8747405423
 30
0.0
 10
4.7839342097
 20
3.8769046526
 30
0.0
 10
4.7862234187
 20
3.8789435252
 30
0.0
 10
4.788623247
 20
3.8808514769
 30
0.0
 10
4.7911255218
 20
3.8826237873
 30
0.0
 10
4.7937218864
 20
3.8842563052
 30
0.0
 10
4.7964037988
 20
3.8857453224
 30
0.0
 10
4.7991627953
 20
3.8870873219
 30
0.0
 10
4.8019901653
 20
3.8882798304
 30
0.0
 10
4.8048774632
 20
3.8893202866
 30
0.0
 10
4.8078160689
 20
3.8902072107
 30
0.0
 10
4.8117907486
 20
3.8911830043
 30
0.0
 10
4.8168471351
 20
3.8920133116
 30
0.0
 10
4.8209395889
 20
3.8922601699
 30
0.0
 10
4.8229856832
 20
3.8922802527
 30
0.0
  0
SPLINE
  5
262
100
AcDbEntity
  8
ALL_ASSEMBLY_MEMBERS
100
AcDbSpline
 62
7
  6
CONTINUOUS
 70
0
 71
3
 72
33
 73
29
 74
0
 42
0.0000001
 43
0.0000001
 44
0.0000000001
 40
0.0
 40
0.0
 40
0.0
 40
0.0
 40
0.0624711147
 40
0.0937426596
 40
0.1250037333
 40
0.1874761514
 40
0.2499547634
 40
0.2812113286
 40
0.3124678072
 40
0.3437241648
 40
0.3749809597
 40
0.4062391041
 40
0.4374975305
 40
0.4687557469
 40
0.5000141438
 40
0.5312718331
 40
0.5625285854
 40
0.5937849869
 40
0.6250404327
 40
0.6562951208
 40
0.6875500039
 40
0.7188052591
 40
0.7500621192
 40
0.8125404237
 40
0.8750113884
 40
0.9062717386
 40
0.9375426927
 40
1.0
 40
1.0
 40
1.0
 40
1.0
 10
4.8671040596
 20
3.8636786444
 30
0.0
 10
4.868387406
 20
3.8614097245
 30
0.0
 10
4.8700978844
 20
3.8578764006
 30
0.0
 10
4.8719120809
 20
3.852983337
 30
0.0
 10
4.8734077876
 20
3.8479828902
 30
0.0
 10
4.8746689955
 20
3.8415683207
 30
0.0
 10
4.8750905005
 20
3.83504432
 30
0.0
 10
4.8749190216
 20
3.8298285572
 30
0.0
 10
4.8745349707
 20
3.8259318356
 30
0.0
 10
4.8738976606
 20
3.8220685953
 30
0.0
 10
4.8730085477
 20
3.8182552711
 30
0.0
 10
4.8718703845
 20
3.8145086546
 30
0.0
 10
4.8704885417
 20
3.8108448327
 30
0.0
 10
4.8688676968
 20
3.8072802372
 30
0.0
 10
4.8670139563
 20
3.8038310522
 30
0.0
 10
4.8649359263
 20
3.8005122283
 30
0.0
 10
4.8626415333
 20
3.7973391814
 30
0.0
 10
4.8601402084
 20
3.7943266924
 30
0.0
 10
4.8574434578
 20
3.7914879185
 30
0.0
 10
4.854562168
 20
3.7888366599
 30
0.0
 10
4.8515089119
 20
3.786385505
 30
0.0
 10
4.8482973639
 20
3.7841452471
 30
0.0
 10
4.8438245237
 20
3.7814565204
 30
0.0
 10
4.8379068009
 20
3.778673517
 30
0.0
 10
4.8316647348
 20
3.7767230012
 30
0.0
 10
4.8265490363
 20
3.7756860525
 30
0.0
 10
4.8213754309
 20
3.7750046563
 30
0.0
 10
4.8174495418
 20
3.7748957508
 30
0.0
 10
4.8148456886
 20
3.775004933
 30
0.0
  0
SPLINE
  5
263
100
AcDbEntity
  8
ALL_ASSEMBLY_MEMBERS
100
AcDbSpline
 62
7
  6
CONTINUOUS
 70
0
 71
3
 72
23
 73
19
 74
0
 42
0.0000001
 43
0.0000001
 44
0.0000000001
 40
0.0
 40
0.0
 40
0.0
 40
0.0
 40
0.0626626441
 40
0.1252895659
 40
0.1878830767
 40
0.2504609498
 40
0.3130317013
 40
0.3755853184
 40
0.4381223974
 40
0.500639592
 40
0.5631371545
 40
0.6256191101
 40
0.6880731257
 40
0.7504989716
 40
0.8129052347
 40
0.8753121041
 40
0.9377080784
 40
1.0
 40
1.0
 40
1.0
 40
1.0
 10
4.7900849917
 20
3.8863313394
 30
0.0
 10
4.7915219942
 20
3.8867416772
 30
0.0
 10
4.7944271753
 20
3.8874547022
 30
0.0
 10
4.7988517032
 20
3.8881886703
 30
0.0
 10
4.803317789
 20
3.8885811874
 30
0.0
 10
4.8077995958
 20
3.8886254791
 30
0.0
 10
4.8122701572
 20
3.8883174714
 30
0.0
 10
4.8167014314
 20
3.8876563892
 30
0.0
 10
4.8210638217
 20
3.8866402284
 30
0.0
 10
4.8253278557
 20
3.8852728166
 30
0.0
 10
4.8294635486
 20
3.8835588583
 30
0.0
 10
4.8334398015
 20
3.8815049695
 30
0.0
 10
4.8372271304
 20
3.879123562
 30
0.0
 10
4.8407942172
 20
3.8764260817
 30
0.0
 10
4.8441121272
 20
3.8734289267
 30
0.0
 10
4.847151412
 20
3.8701500972
 30
0.0
 10
4.8498817642
 20
3.8666136778
 30
0.0
 10
4.8514807553
 20
3.8641006115
 30
0.0
 10
4.8522190256
 20
3.8628114402
 30
0.0
  0
ENDSEC
  0
SECTION
  2
OBJECTS
  0
DICTIONARY
  5
C
100
AcDbDictionary
280
0
281
1
  3
ACAD_GROUP
350
D
  3
ACAD_MLINESTYLE
350
17
  3
ACAD_LAYOUT
350
1A
  3
ACAD_PLOTSETTINGS
350
19
  3
ACAD_PLOTSTYLENAME
350
E
  0
DICTIONARY
  5
D
102
{ACAD_REACTORS
330
C
102
}
100
AcDbDictionary
280
0
281
1
  0
ACDBDICTIONARYWDFLT
  5
E
102
{ACAD_REACTORS
330
C
102
}
100
AcDbDictionary
281
1
  3
Normal
350
F
100
AcDbDictionaryWithDefault
340
F
  0
DICTIONARY
  5
17
102
{ACAD_REACTORS
330
C
102
}
100
AcDbDictionary
280
0
281
1
  3
Standard
350
18
  0
DICTIONARY
  5
19
102
{ACAD_REACTORS
330
C
102
}
100
AcDbDictionary
281
1
  0
DICTIONARY
  5
1A
102
{ACAD_REACTORS
330
C
102
}
100
AcDbDictionary
281
1
  3
Model
350
264
  3
Layout1
350
265
  0
ACDBPLACEHOLDER
  5
F
102
{ACAD_REACTORS
330
E
102
}
  0
MLINESTYLE
  5
18
102
{ACAD_REACTORS
330
17
102
}
100
AcDbMlineStyle
  2
STANDARD
 70
0
  3

 62
256
 51
90.0
 52
90.0
 71
2
 49
0.5
 62
256
  6
BYLAYER
 49
-0.5
 62
256
  6
BYLAYER
  0
LAYOUT
  5
264
102
{ACAD_REACTORS
330
1A
102
}
100
AcDbPlotSettings
  1

  2
none_device
  4
ANSI_A_(11.00_x_8.50_Inches)
  6

 40
0.0
 41
0.0
 42
0.0
 43
0.0
 44
279.4
 45
215.9
 46
0.0
 47
0.0
 48
0.0
 49
0.0
140
0.0
141
0.0
142
1.0
143
1.0
 70
1024
 72
0
 73
0
 74
0
  7

 75
0
147
1.0
148
0.0
149
0.0
100
AcDbLayout
  1
Model
 70
0
 71
0
 10
0.0
 20
0.0
 11
11.0
 21
8.5
 12
0.0
 22
0.0
 32
0.0
 14
0.0
 24
0.0
 34
0.0
 15
0.0
 25
0.0
 35
0.0
146
0.0
 13
0.0
 23
0.0
 33
0.0
 16
1.0
 26
0.0
 36
0.0
 17
0.0
 27
1.0
 37
0.0
 76
0
330
21A
345
0
346
0
  0
LAYOUT
  5
265
102
{ACAD_REACTORS
330
1A
102
}
100
AcDbPlotSettings
  1

  2
none_device
  4
ANSI_A_(11.00_x_8.50_Inches)
  6

 40
0.0
 41
0.0
 42
0.0
 43
0.0
 44
279.4
 45
215.9
 46
0.0
 47
0.0
 48
0.0
 49
0.0
140
0.0
141
0.0
142
1.0
143
1.0
 70
0
 72
0
 73
0
 74
0
  7

 75
0
147
1.0
148
0.0
149
0.0
100
AcDbLayout
  1
Layout1
 70
0
 71
1
 10
0.0
 20
0.0
 11
11.0
 21
8.5
 12
0.0
 22
0.0
 32
0.0
 14
0.0
 24
0.0
 34
0.0
 15
0.0
 25
0.0
 35
0.0
146
0.0
 13
0.0
 23
0.0
 33
0.0
 16
1.0
 26
0.0
 36
0.0
 17
0.0
 27
1.0
 37
0.0
 76
0
330
21B
345
0
346
0
  0
ENDSEC
  0
EOF
