999
DXF file: 3-2023ts_TOP.dxf
999
Pro/ENGINEER 2013150 by Parametric Technology Corporation
  0
SECTION
  2
HEADER
  9
$ACADVER
  1
AC1021
  9
$DWGCODEPAGE
  3
ANSI_1252
  9
$EXTMAX
 10
11.0
 20
8.5
 30
0.0
  9
$EXTMIN
 10
0.0
 20
0.0
 30
0.0
  9
$LIMMIN
 10
0.0
 20
0.0
  9
$LIMMAX
 10
11.0
 20
8.5
  9
$VIEWCTR
 10
5.5
 20
4.25
  9
$VIEWSIZE
 40
8.5
  9
$CLAYER
  8
0
  9
$LTSCALE
 40
0.605
  9
$CELTYPE
  6
BYLAYER
  9
$DIMSCALE
 40
1.0
  9
$DIMASZ
 40
0.1
  9
$DIMEXO
 40
0.0625
  9
$DIMDLI
 40
0.418
  9
$DIMEXE
 40
0.125
  9
$DIMCEN
 40
0.099
  9
$DIMLFAC
 40
1.0
  9
$DIMBLK
  1
_FILLED
  9
$DIMTXT
 40
0.08
  9
$DIMTOL
 70
1
  9
$DIMLIM
 70
0
  9
$DIMTFAC
 40
1.0
  9
$DIMTP
 40
0.001
  9
$DIMTM
 40
0.001
  9
$DIMGAP
 40
0.09
  9
$DIMDSEP
 70
46
  9
$PDMODE
 70
3
  9
$PDSIZE
 40
0.06
  9
$HANDSEED
  5
261
  9
$TILEMODE
 70
1
  9
$MEASUREMENT
 70
0
  9
$INSUNITS
 70
1
  0
ENDSEC
  0
SECTION
  2
CLASSES
  0
CLASS
  1
ACDBDICTIONARYWDFLT
  2
AcDbDictionaryWithDefault
  3
AutoCAD 2000
 90
0
 91
1
280
0
281
0
  0
CLASS
  1
ACDBPLACEHOLDER
  2
AcDbPlaceHolder
  3
AutoCAD 2000
 90
0
 91
1
280
0
281
0
  0
CLASS
  1
LAYOUT
  2
AcDbLayout
  3
AutoCAD 2000
 90
0
 91
0
280
0
281
0
  0
ENDSEC
  0
SECTION
  2
TABLES
  0
TABLE
  2
VPORT
  5
8
100
AcDbSymbolTable
 70
2
  0
VPORT
  5
1F4
100
AcDbSymbolTableRecord
100
AcDbViewportTableRecord
  2
*ACTIVE
 70
0
 10
0.0
 20
0.0
 11
1.0
 21
1.0
 12
5.5
 22
4.25
 13
0.0
 23
0.0
 14
1.0
 24
1.0
 15
0.0
 25
0.0
 16
0.0
 26
0.0
 36
1.0
 17
0.0
 27
0.0
 37
0.0
 40
8.5
 41
1.2941176471
 42
50.0
 43
0.0
 44
0.0
 50
0.0
 51
0.0
 71
0
 72
100
 73
1
 74
1
 75
0
 76
0
 77
0
 78
0
  0
ENDTAB
  0
TABLE
  2
LTYPE
  5
5
100
AcDbSymbolTable
 70
6
  0
LTYPE
  5
14
100
AcDbSymbolTableRecord
100
AcDbLinetypeTableRecord
  2
BYBLOCK
 70
0
  3

 72
65
 73
0
 40
0.0
  0
LTYPE
  5
15
100
AcDbSymbolTableRecord
100
AcDbLinetypeTableRecord
  2
BYLAYER
 70
0
  3

 72
65
 73
0
 40
0.0
  0
LTYPE
  5
16
100
AcDbSymbolTableRecord
100
AcDbLinetypeTableRecord
  2
CONTINUOUS
 70
64
  3
Solid line
 72
65
 73
0
 40
0.0
  0
LTYPE
  5
1F5
100
AcDbSymbolTableRecord
100
AcDbLinetypeTableRecord
  2
CENTER
 70
64
  3
____ _ ____ _ ____ _ ____ _ ____ _ ____ _ ____
 72
65
 73
4
 40
0.6
 49
0.375
 74
0
 49
-0.075
 74
0
 49
0.075
 74
0
 49
-0.075
 74
0
  0
LTYPE
  5
1F6
100
AcDbSymbolTableRecord
100
AcDbLinetypeTableRecord
  2
HIDDEN
 70
64
  3
- - - - - - - - - - - - - - - - - - - -
 72
65
 73
2
 40
0.2
 49
0.1
 74
0
 49
-0.1
 74
0
  0
LTYPE
  5
1F7
100
AcDbSymbolTableRecord
100
AcDbLinetypeTableRecord
  2
PHANTOM
 70
64
  3
_____ _ _ _____ _ _ _____ _ _ _____
 72
65
 73
6
 40
0.8
 49
0.45
 74
0
 49
-0.05
 74
0
 49
0.1
 74
0
 49
-0.05
 74
0
 49
0.1
 74
0
 49
-0.05
 74
0
  0
LTYPE
  5
1F8
100
AcDbSymbolTableRecord
100
AcDbLinetypeTableRecord
  2
DOT
 70
64
  3
. . . . . . . . . . . . . . . . . . . .
 72
65
 73
2
 40
0.2
 49
0.1
 74
0
 49
-0.1
 74
0
  0
LTYPE
  5
1F9
100
AcDbSymbolTableRecord
100
AcDbLinetypeTableRecord
  2
DASHED
 70
64
  3
- - - - - - - - - - - - - - - - - - - -
 72
65
 73
2
 40
0.2
 49
0.1
 74
0
 49
-0.1
 74
0
  0
ENDTAB
  0
TABLE
  2
LAYER
  5
2
100
AcDbSymbolTable
 70
36
  0
LAYER
  5
10
100
AcDbSymbolTableRecord
100
AcDbLayerTableRecord
  2
0
 70
0
 62
7
  6
CONTINUOUS
370
-3
390
F
  0
LAYER
  5
1FA
100
AcDbSymbolTableRecord
100
AcDbLayerTableRecord
  2
DEFAULT_1
 70
0
 62
7
  6
CENTER
370
-3
390
F
  0
LAYER
  5
1FB
100
AcDbSymbolTableRecord
100
AcDbLayerTableRecord
  2
DEFAULT_2
 70
0
 62
8
  6
HIDDEN
370
-3
390
F
  0
LAYER
  5
1FC
100
AcDbSymbolTableRecord
100
AcDbLayerTableRecord
  2
DEFAULT_3
 70
0
 62
7
  6
PHANTOM
370
-3
390
F
  0
LAYER
  5
1FD
100
AcDbSymbolTableRecord
100
AcDbLayerTableRecord
  2
ALL_ASSEMBLY_MEMBERS
 70
0
 62
7
  6
CONTINUOUS
370
-3
390
F
  0
LAYER
  5
1FE
100
AcDbSymbolTableRecord
100
AcDbLayerTableRecord
  2
ALL_FEATURES
 70
0
 62
7
  6
CONTINUOUS
370
-3
390
F
  0
LAYER
  5
1FF
100
AcDbSymbolTableRecord
100
AcDbLayerTableRecord
  2
AXES_FEATURES
 70
0
 62
7
  6
CONTINUOUS
370
-3
390
F
  0
LAYER
  5
200
100
AcDbSymbolTableRecord
100
AcDbLayerTableRecord
  2
CHAMFER_FEATURES
 70
0
 62
7
  6
CONTINUOUS
370
-3
390
F
  0
LAYER
  5
201
100
AcDbSymbolTableRecord
100
AcDbLayerTableRecord
  2
CUT_FEATURES
 70
0
 62
7
  6
CONTINUOUS
370
-3
390
F
  0
LAYER
  5
202
100
AcDbSymbolTableRecord
100
AcDbLayerTableRecord
  2
DATUM_CURVES
 70
0
 62
7
  6
CONTINUOUS
370
-3
390
F
  0
LAYER
  5
203
100
AcDbSymbolTableRecord
100
AcDbLayerTableRecord
  2
DATUM_PLANES
 70
0
 62
7
  6
CONTINUOUS
370
-3
390
F
  0
LAYER
  5
204
100
AcDbSymbolTableRecord
100
AcDbLayerTableRecord
  2
DATUM_POINTS
 70
0
 62
7
  6
CONTINUOUS
370
-3
390
F
  0
LAYER
  5
205
100
AcDbSymbolTableRecord
100
AcDbLayerTableRecord
  2
DEFAULT_COORDINATE_SYSTEM
 70
0
 62
7
  6
CONTINUOUS
370
-3
390
F
  0
LAYER
  5
206
100
AcDbSymbolTableRecord
100
AcDbLayerTableRecord
  2
DEFAULT_DATUM_AXES
 70
0
 62
7
  6
CONTINUOUS
370
-3
390
F
  0
LAYER
  5
207
100
AcDbSymbolTableRecord
100
AcDbLayerTableRecord
  2
DEFAULT_DATUM_CURVES
 70
0
 62
7
  6
CONTINUOUS
370
-3
390
F
  0
LAYER
  5
208
100
AcDbSymbolTableRecord
100
AcDbLayerTableRecord
  2
DEFAULT_DATUM_PLANES
 70
0
 62
7
  6
CONTINUOUS
370
-3
390
F
  0
LAYER
  5
209
100
AcDbSymbolTableRecord
100
AcDbLayerTableRecord
  2
DEFAULT_SURFACES
 70
0
 62
7
  6
CONTINUOUS
370
-3
390
F
  0
LAYER
  5
20A
100
AcDbSymbolTableRecord
100
AcDbLayerTableRecord
  2
DIMENSIONS
 70
0
 62
7
  6
CONTINUOUS
370
-3
390
F
  0
LAYER
  5
20B
100
AcDbSymbolTableRecord
100
AcDbLayerTableRecord
  2
HOLE_FEATURES
 70
0
 62
7
  6
CONTINUOUS
370
-3
390
F
  0
LAYER
  5
20C
100
AcDbSymbolTableRecord
100
AcDbLayerTableRecord
  2
INTFCLR_1
 70
0
 62
7
  6
CONTINUOUS
370
-3
390
F
  0
LAYER
  5
20D
100
AcDbSymbolTableRecord
100
AcDbLayerTableRecord
  2
NOTES
 70
0
 62
7
  6
CONTINUOUS
370
-3
390
F
  0
LAYER
  5
20E
100
AcDbSymbolTableRecord
100
AcDbLayerTableRecord
  2
PART_REFERENCE_DIMENSIONS
 70
0
 62
7
  6
CONTINUOUS
370
-3
390
F
  0
LAYER
  5
20F
100
AcDbSymbolTableRecord
100
AcDbLayerTableRecord
  2
PLATED_SURFACE_AREA
 70
0
 62
7
  6
CONTINUOUS
370
-3
390
F
  0
LAYER
  5
210
100
AcDbSymbolTableRecord
100
AcDbLayerTableRecord
  2
POINTS
 70
0
 62
7
  6
CONTINUOUS
370
-3
390
F
  0
LAYER
  5
211
100
AcDbSymbolTableRecord
100
AcDbLayerTableRecord
  2
PROTRUSION
 70
0
 62
7
  6
CONTINUOUS
370
-3
390
F
  0
LAYER
  5
212
100
AcDbSymbolTableRecord
100
AcDbLayerTableRecord
  2
PROTRUSION_FEATURES
 70
0
 62
7
  6
CONTINUOUS
370
-3
390
F
  0
LAYER
  5
213
100
AcDbSymbolTableRecord
100
AcDbLayerTableRecord
  2
QUILTS
 70
0
 62
7
  6
CONTINUOUS
370
-3
390
F
  0
LAYER
  5
214
100
AcDbSymbolTableRecord
100
AcDbLayerTableRecord
  2
REFERENCE_DIMENSIONS
 70
0
 62
7
  6
CONTINUOUS
370
-3
390
F
  0
LAYER
  5
215
100
AcDbSymbolTableRecord
100
AcDbLayerTableRecord
  2
ROUND_FEATURES
 70
0
 62
7
  6
CONTINUOUS
370
-3
390
F
  0
LAYER
  5
216
100
AcDbSymbolTableRecord
100
AcDbLayerTableRecord
  2
SIZE_REF
 70
0
 62
7
  6
CONTINUOUS
370
-3
390
F
  0
LAYER
  5
217
100
AcDbSymbolTableRecord
100
AcDbLayerTableRecord
  2
XSEC_DATUMS
 70
0
 62
7
  6
CONTINUOUS
370
-3
390
F
  0
ENDTAB
  0
TABLE
  2
STYLE
  5
3
100
AcDbSymbolTable
 70
1
  0
STYLE
  5
11
100
AcDbSymbolTableRecord
100
AcDbTextStyleTableRecord
  2
STANDARD
 70
0
 40
0.0
 41
0.8
 50
0.0
 71
0
 42
0.2
  3
txt
  4

  0
STYLE
  5
218
100
AcDbSymbolTableRecord
100
AcDbTextStyleTableRecord
  2
TEXTSTYLE_1
 70
0
 40
0.0
 41
0.8
 50
0.0
 71
0
 42
0.2
  3
gdt
  4

  0
ENDTAB
  0
TABLE
  2
VIEW
  5
6
100
AcDbSymbolTable
 70
0
  0
ENDTAB
  0
TABLE
  2
UCS
  5
7
100
AcDbSymbolTable
 70
0
  0
ENDTAB
  0
TABLE
  2
APPID
  5
9
100
AcDbSymbolTable
 70
1
  0
APPID
  5
219
100
AcDbSymbolTableRecord
100
AcDbRegAppTableRecord
  2
ACAD
 70
0
  0
ENDTAB
  0
TABLE
  2
BLOCK_RECORD
  5
1
100
AcDbSymbolTable
 70
0
  0
BLOCK_RECORD
  5
21A
100
AcDbSymbolTableRecord
100
AcDbBlockTableRecord
  2
*Model_Space
  0
BLOCK_RECORD
  5
21B
100
AcDbSymbolTableRecord
100
AcDbBlockTableRecord
  2
*Paper_Space
  0
ENDTAB
  0
TABLE
  2
DIMSTYLE
  5
A
100
AcDbSymbolTable
 70
1
100
AcDbDimStyleTable
 71
0
  0
DIMSTYLE
105
21C
100
AcDbSymbolTableRecord
100
AcDbDimStyleTableRecord
  2
STANDARD
 70
0
  3

  4

 40
1.0
 41
0.1
 42
0.0625
 43
0.38
 44
0.125
 45
0.0
 46
0.0
 47
0.001
 48
0.001
140
0.08
141
0.09
142
0.0
143
25.4
144
1.0
145
0.0
146
1.0
147
0.09
 71
1.0
 72
0.0
 73
1
 74
1
 75
0
 76
0
 77
0
 78
4
170
0
171
2
172
0
173
0
174
0
175
0
176
0
177
0
178
0
270
2
271
3
272
3
273
2
274
2
275
0
280
0
281
0
282
0
283
1
284
4
285
0
286
0
287
3
288
0
340
11
278
46
  0
ENDTAB
  0
ENDSEC
  0
SECTION
  2
BLOCKS
  0
BLOCK
  5
20
100
AcDbEntity
  8
0
100
AcDbBlockBegin
  2
*Model_Space
 70
0
 10
0.0
 20
0.0
 30
0.0
  3
*Model_Space
  1

  0
ENDBLK
  5
21
100
AcDbEntity
  8
0
100
AcDbBlockEnd
  0
BLOCK
  5
1C
100
AcDbEntity
  8
0
100
AcDbBlockBegin
  2
*Paper_Space
 70
0
 10
0.0
 20
0.0
 30
0.0
  3
*Paper_Space
  1

  0
ENDBLK
  5
1D
100
AcDbEntity
  8
0
100
AcDbBlockEnd
  0
ENDSEC
  0
SECTION
  2
ENTITIES
  0
LINE
  5
21D
100
AcDbEntity
  8
0
100
AcDbLine
 62
7
  6
CONTINUOUS
 10
0.0
 20
0.0
 11
0.0
 21
8.5
  0
LINE
  5
21E
100
AcDbEntity
  8
0
100
AcDbLine
 62
7
  6
CONTINUOUS
 10
0.0
 20
0.0
 11
11.0
 21
0.0
  0
LINE
  5
21F
100
AcDbEntity
  8
0
100
AcDbLine
 62
7
  6
CONTINUOUS
 10
0.0
 20
8.5
 11
11.0
 21
8.5
  0
LINE
  5
220
100
AcDbEntity
  8
0
100
AcDbLine
 62
7
  6
CONTINUOUS
 10
11.0
 20
0.0
 11
11.0
 21
8.5
  0
LINE
  5
221
100
AcDbEntity
  8
0
100
AcDbLine
 62
7
  6
CONTINUOUS
 10
2.3608289392
 20
5.1252599573
 11
2.3608289392
 21
5.4312599573
  0
LINE
  5
222
100
AcDbEntity
  8
0
100
AcDbLine
 62
9
  6
CONTINUOUS
 10
2.3833289392
 20
5.1027599573
 11
2.3833289392
 21
5.4312599573
  0
LINE
  5
223
100
AcDbEntity
  8
ALL_ASSEMBLY_MEMBERS
100
AcDbLine
 62
7
  6
CONTINUOUS
 10
4.1889539392
 20
2.5534863353
 11
4.6577039392
 21
2.5534863353
  0
LINE
  5
224
100
AcDbEntity
  8
ALL_ASSEMBLY_MEMBERS
100
AcDbLine
 62
7
  6
CONTINUOUS
 10
4.1889539392
 20
2.8309863353
 11
4.6577039392
 21
2.8309863353
  0
LINE
  5
225
100
AcDbEntity
  8
ALL_ASSEMBLY_MEMBERS
100
AcDbLine
 62
7
  6
CONTINUOUS
 10
4.6577039392
 20
3.2997363353
 11
4.1889539392
 21
3.2997363353
  0
LINE
  5
226
100
AcDbEntity
  8
ALL_FEATURES
100
AcDbLine
 62
7
  6
CONTINUOUS
 10
3.803250199
 20
3.8022363353
 11
3.803250199
 21
4.1187599573
  0
LINE
  5
227
100
AcDbEntity
  8
0
100
AcDbLine
 62
7
  6
CONTINUOUS
 10
3.8032514392
 20
5.1027599573
 11
3.8032514392
 21
4.1187599573
  0
LINE
  5
228
100
AcDbEntity
  8
ALL_FEATURES
100
AcDbLine
 62
7
  6
CONTINUOUS
 10
4.1889539392
 20
3.6147363353
 11
3.9320829407
 21
3.6147363353
  0
LINE
  5
229
100
AcDbEntity
  8
ALL_FEATURES
100
AcDbLine
 62
7
  6
CONTINUOUS
 10
4.6577039392
 20
3.6147363353
 11
4.9145749377
 21
3.6147363353
  0
LINE
  5
22A
100
AcDbEntity
  8
ALL_ASSEMBLY_MEMBERS
100
AcDbLine
 62
7
  6
CONTINUOUS
 10
4.4064143805
 20
3.6754394603
 11
4.4402434979
 21
3.6754394603
  0
LINE
  5
22B
100
AcDbEntity
  8
ALL_ASSEMBLY_MEMBERS
100
AcDbLine
 62
7
  6
CONTINUOUS
 10
4.4196066911
 20
3.6486176856
 11
4.4233289392
 21
3.6483377493
  0
LINE
  5
22C
100
AcDbEntity
  8
ALL_FEATURES
100
AcDbLine
 62
7
  6
CONTINUOUS
 10
3.9320789392
 20
3.6147363353
 11
3.9320789392
 21
3.8022363353
  0
LINE
  5
22D
100
AcDbEntity
  8
0
100
AcDbLine
 62
7
  6
CONTINUOUS
 10
3.9377039392
 20
4.1187599573
 11
3.9377039392
 21
3.8922363353
  0
LINE
  5
22E
100
AcDbEntity
  8
ALL_FEATURES
100
AcDbLine
 62
7
  6
CONTINUOUS
 10
3.9377039392
 20
3.8922363353
 11
3.9377039392
 21
4.1187599573
  0
LINE
  5
22F
100
AcDbEntity
  8
ALL_ASSEMBLY_MEMBERS
100
AcDbLine
 62
7
  6
CONTINUOUS
 10
4.4402434979
 20
3.7340332103
 11
4.4064143805
 21
3.7340332103
  0
LINE
  5
230
100
AcDbEntity
  8
ALL_FEATURES
100
AcDbLine
 62
7
  6
CONTINUOUS
 10
4.1889539392
 20
3.8022363353
 11
3.8032538184
 21
3.8022363353
  0
LINE
  5
231
100
AcDbEntity
  8
ALL_FEATURES
100
AcDbLine
 62
7
  6
CONTINUOUS
 10
4.6577039392
 20
3.8022363353
 11
5.0434040601
 21
3.8022363353
  0
LINE
  5
232
100
AcDbEntity
  8
ALL_ASSEMBLY_MEMBERS
100
AcDbLine
 62
7
  6
CONTINUOUS
 10
4.6577039392
 20
3.8547363353
 11
4.1889539392
 21
3.8547363353
  0
LINE
  5
233
100
AcDbEntity
  8
ALL_FEATURES
100
AcDbLine
 62
7
  6
CONTINUOUS
 10
3.9377039392
 20
3.8922363353
 11
4.9089539392
 21
3.8922363353
  0
LINE
  5
234
100
AcDbEntity
  8
ALL_ASSEMBLY_MEMBERS
100
AcDbLine
 62
7
  6
CONTINUOUS
 10
4.1889539392
 20
3.8547363353
 11
4.1889539392
 21
2.5534863353
  0
LINE
  5
235
100
AcDbEntity
  8
ALL_ASSEMBLY_MEMBERS
100
AcDbLine
 62
7
  6
CONTINUOUS
 10
4.3894998219
 20
3.7047363353
 11
4.4064143805
 21
3.6754394603
  0
LINE
  5
236
100
AcDbEntity
  8
ALL_ASSEMBLY_MEMBERS
100
AcDbLine
 62
7
  6
CONTINUOUS
 10
4.4571580565
 20
3.7047363353
 11
4.4402434979
 21
3.7340332103
  0
LINE
  5
237
100
AcDbEntity
  8
0
100
AcDbLine
 62
7
  6
CONTINUOUS
 10
4.2845789392
 20
3.8922363353
 11
4.2845789392
 21
3.8547363353
  0
LINE
  5
238
100
AcDbEntity
  8
0
100
AcDbLine
 62
7
  6
CONTINUOUS
 10
3.8032514392
 20
4.1187599573
 11
5.0434064392
 21
4.1187599573
  0
LINE
  5
239
100
AcDbEntity
  8
0
100
AcDbLine
 62
7
  6
CONTINUOUS
 10
4.5620789392
 20
3.8922363353
 11
4.5620789392
 21
3.8547363353
  0
LINE
  5
23A
100
AcDbEntity
  8
ALL_ASSEMBLY_MEMBERS
100
AcDbLine
 62
7
  6
CONTINUOUS
 10
4.6577039392
 20
2.5534863353
 11
4.6577039392
 21
3.8547363353
  0
LINE
  5
23B
100
AcDbEntity
  8
ALL_ASSEMBLY_MEMBERS
100
AcDbLine
 62
7
  6
CONTINUOUS
 10
4.4064143805
 20
3.7340332103
 11
4.3894998219
 21
3.7047363353
  0
LINE
  5
23C
100
AcDbEntity
  8
ALL_ASSEMBLY_MEMBERS
100
AcDbLine
 62
7
  6
CONTINUOUS
 10
4.4402434979
 20
3.6754394603
 11
4.4571580565
 21
3.7047363353
  0
LINE
  5
23D
100
AcDbEntity
  8
0
100
AcDbLine
 62
7
  6
CONTINUOUS
 10
4.9089539392
 20
4.1187599573
 11
4.9089539392
 21
3.8922363353
  0
LINE
  5
23E
100
AcDbEntity
  8
ALL_FEATURES
100
AcDbLine
 62
7
  6
CONTINUOUS
 10
4.9089539392
 20
3.8922363353
 11
4.9089539392
 21
4.1187599573
  0
LINE
  5
23F
100
AcDbEntity
  8
ALL_FEATURES
100
AcDbLine
 62
7
  6
CONTINUOUS
 10
4.9145789392
 20
3.6147363353
 11
4.9145789392
 21
3.8022363353
  0
LINE
  5
240
100
AcDbEntity
  8
0
100
AcDbLine
 62
7
  6
CONTINUOUS
 10
5.0434064392
 20
5.1027599573
 11
5.0434064392
 21
4.1187599573
  0
LINE
  5
241
100
AcDbEntity
  8
ALL_FEATURES
100
AcDbLine
 62
7
  6
CONTINUOUS
 10
5.0434076794
 20
3.8022363353
 11
5.0434076794
 21
4.1187599573
  0
LINE
  5
242
100
AcDbEntity
  8
0
100
AcDbLine
 62
7
  6
CONTINUOUS
 10
6.4633289392
 20
5.1027599573
 11
2.3833289392
 21
5.1027599573
  0
LINE
  5
243
100
AcDbEntity
  8
0
100
AcDbLine
 62
9
  6
CONTINUOUS
 10
6.4858289392
 20
5.1252599573
 11
2.3608289392
 21
5.1252599573
  0
LINE
  5
244
100
AcDbEntity
  8
0
100
AcDbLine
 62
7
  6
CONTINUOUS
 10
2.3608289392
 20
5.4312599573
 11
6.4858289392
 21
5.4312599573
  0
LINE
  5
245
100
AcDbEntity
  8
0
100
AcDbLine
 62
9
  6
CONTINUOUS
 10
6.4633289392
 20
5.1027599573
 11
6.4633289392
 21
5.4312599573
  0
LINE
  5
246
100
AcDbEntity
  8
0
100
AcDbLine
 62
7
  6
CONTINUOUS
 10
6.4858289392
 20
5.1252599573
 11
6.4858289392
 21
5.4312599573
  0
CIRCLE
  5
247
100
AcDbEntity
  8
ALL_ASSEMBLY_MEMBERS
100
AcDbCircle
 62
7
  6
CONTINUOUS
 10
4.4233289392
 20
3.7047363353
 40
0.06375
  0
ARC
  5
248
100
AcDbEntity
  8
ALL_ASSEMBLY_MEMBERS
100
AcDbCircle
 62
7
  6
CONTINUOUS
 10
4.4232213625
 20
3.7046856286
 40
0.0615508317
100
AcDbArc
 50
24.3846448347
 51
30.2198999889
  0
ARC
  5
249
100
AcDbEntity
  8
ALL_ASSEMBLY_MEMBERS
100
AcDbCircle
 62
7
  6
CONTINUOUS
 10
4.423368136
 20
3.7046490613
 40
0.0615275065
100
AcDbArc
 50
115.7021769603
 51
120.008660377
  0
ARC
  5
24A
100
AcDbEntity
  8
ALL_ASSEMBLY_MEMBERS
100
AcDbCircle
 62
7
  6
CONTINUOUS
 10
4.4233289392
 20
3.7047363353
 40
0.0614324999
100
AcDbArc
 50
31.9621502918
 51
121.933376486
  0
ARC
  5
24B
100
AcDbEntity
  8
ALL_ASSEMBLY_MEMBERS
100
AcDbCircle
 62
7
  6
CONTINUOUS
 10
4.4231829519
 20
3.7049696393
 40
0.0611572858
100
AcDbArc
 50
120.0086330751
 51
121.93291559
  0
ARC
  5
24C
100
AcDbEntity
  8
ALL_ASSEMBLY_MEMBERS
100
AcDbCircle
 62
7
  6
CONTINUOUS
 10
4.4235755358
 20
3.7048906805
 40
0.0611415839
100
AcDbArc
 50
30.2209094667
 51
31.9617679024
  0
ARC
  5
24D
100
AcDbEntity
  8
ALL_ASSEMBLY_MEMBERS
100
AcDbCircle
 62
7
  6
CONTINUOUS
 10
4.4224609192
 20
3.7069621315
 40
0.0610358552
100
AcDbArc
 50
29.4933522503
 51
29.7576200353
  0
ARC
  5
24E
100
AcDbEntity
  8
ALL_ASSEMBLY_MEMBERS
100
AcDbCircle
 62
7
  6
CONTINUOUS
 10
4.4151873438
 20
3.7015480017
 40
0.0604462861
100
AcDbArc
 50
109.8440513753
 51
113.7577950101
  0
ARC
  5
24F
100
AcDbEntity
  8
ALL_ASSEMBLY_MEMBERS
100
AcDbCircle
 62
7
  6
CONTINUOUS
 10
4.4150668325
 20
3.7018928298
 40
0.0600810251
100
AcDbArc
 50
105.938516054
 51
109.847580222
  0
ARC
  5
250
100
AcDbEntity
  8
ALL_ASSEMBLY_MEMBERS
100
AcDbCircle
 62
7
  6
CONTINUOUS
 10
4.4256819753
 20
3.7044919229
 40
0.0562031681
100
AcDbArc
 50
258.0730426768
 51
263.7945276692
  0
ARC
  5
251
100
AcDbEntity
  8
ALL_ASSEMBLY_MEMBERS
100
AcDbCircle
 62
7
  6
CONTINUOUS
 10
4.4233289392
 20
3.7047363353
 40
0.054
100
AcDbArc
 50
130.544423655
 51
308.6553637346
  0
ARC
  5
252
100
AcDbEntity
  8
ALL_ASSEMBLY_MEMBERS
100
AcDbCircle
 62
7
  6
CONTINUOUS
 10
4.4233289908
 20
3.7047363479
 40
0.0488174498
100
AcDbArc
 50
354.6142622121
 51
82.3939912883
  0
ARC
  5
253
100
AcDbEntity
  8
ALL_ASSEMBLY_MEMBERS
100
AcDbCircle
 62
7
  6
CONTINUOUS
 10
4.4233291287
 20
3.7047450936
 40
0.0488087629
100
AcDbArc
 50
82.3927929231
 51
84.5847333149
  0
ARC
  5
254
100
AcDbEntity
  8
ALL_ASSEMBLY_MEMBERS
100
AcDbCircle
 62
7
  6
CONTINUOUS
 10
4.4233408041
 20
3.7048626644
 40
0.0486906149
100
AcDbArc
 50
83.412047707
 51
84.5853542807
  0
ARC
  5
255
100
AcDbEntity
  8
ALL_ASSEMBLY_MEMBERS
100
AcDbCircle
 62
7
  6
CONTINUOUS
 10
4.4234741067
 20
3.7047227181
 40
0.0486716951
100
AcDbArc
 50
353.9708951493
 51
354.6142021691
  0
ARC
  5
256
100
AcDbEntity
  8
ALL_ASSEMBLY_MEMBERS
100
AcDbCircle
 62
7
  6
CONTINUOUS
 10
4.4170682516
 20
3.7060888444
 40
0.0484808191
100
AcDbArc
 50
77.0469066879
 51
78.4951215495
  0
ARC
  5
257
100
AcDbEntity
  8
0
100
AcDbCircle
 62
7
  6
CONTINUOUS
 10
6.4633289392
 20
5.1252599573
 40
0.0225
100
AcDbArc
 50
270.0
 51
360.0
  0
ARC
  5
258
100
AcDbEntity
  8
0
100
AcDbCircle
 62
7
  6
CONTINUOUS
 10
2.3833289392
 20
5.1252599573
 40
0.0225
100
AcDbArc
 50
180.0
 51
270.0
  0
SPLINE
  5
259
100
AcDbEntity
  8
ALL_ASSEMBLY_MEMBERS
100
AcDbSpline
 62
7
  6
CONTINUOUS
 70
0
 71
3
 72
21
 73
17
 74
0
 42
0.0000001
 43
0.0000001
 44
0.0000000001
 40
0.0
 40
0.0
 40
0.0
 40
0.0
 40
0.1249675496
 40
0.1874782833
 40
0.2499807154
 40
0.312482071
 40
0.3749863092
 40
0.4374911187
 40
0.499995924
 40
0.562500754
 40
0.6250072984
 40
0.6875135588
 40
0.7500174804
 40
0.812522036
 40
0.8750347512
 40
1.0
 40
1.0
 40
1.0
 40
1.0
 10
4.4570592007
 20
3.6625668029
 30
0.0
 10
4.4582729079
 20
3.6638009383
 30
0.0
 10
4.4600055376
 20
3.6657424817
 30
0.0
 10
4.4621156498
 20
3.6684889407
 30
0.0
 10
4.4635952798
 20
3.6706249665
 30
0.0
 10
4.4649670771
 20
3.6728315681
 30
0.0
 10
4.466227121
 20
3.6751039227
 30
0.0
 10
4.4673716474
 20
3.6774366577
 30
0.0
 10
4.4683967951
 20
3.6798242901
 30
0.0
 10
4.4692993761
 20
3.6822609401
 30
0.0
 10
4.4700760254
 20
3.6847406385
 30
0.0
 10
4.4707240646
 20
3.6872570217
 30
0.0
 10
4.4712408155
 20
3.6898035612
 30
0.0
 10
4.471623994
 20
3.6923738418
 30
0.0
 10
4.4719540853
 20
3.695821678
 30
0.0
 10
4.4719959694
 20
3.698424626
 30
0.0
 10
4.4719309291
 20
3.7001543181
 30
0.0
  0
SPLINE
  5
25A
100
AcDbEntity
  8
ALL_ASSEMBLY_MEMBERS
100
AcDbSpline
 62
7
  6
CONTINUOUS
 70
0
 71
3
 72
21
 73
17
 74
0
 42
0.0000001
 43
0.0000001
 44
0.0000000001
 40
0.0
 40
0.0
 40
0.0
 40
0.0
 40
0.1249486597
 40
0.1874700612
 40
0.2499778541
 40
0.3124784168
 40
0.3749794236
 40
0.4374842233
 40
0.4999909599
 40
0.5624970686
 40
0.6250028147
 40
0.6875086406
 40
0.7500145465
 40
0.8125211452
 40
0.8750279415
 40
1.0
 40
1.0
 40
1.0
 40
1.0
 10
4.4570592007
 20
3.6625668029
 30
0.0
 10
4.4556083525
 20
3.6612983379
 30
0.0
 10
4.4533267917
 20
3.6595102468
 30
0.0
 10
4.4501109867
 20
3.6573810755
 30
0.0
 10
4.447616317
 20
3.6559143835
 30
0.0
 10
4.4450477685
 20
3.6545823426
 30
0.0
 10
4.4424122361
 20
3.6533883123
 30
0.0
 10
4.4397172008
 20
3.65233525
 30
0.0
 10
4.43697039
 20
3.6514255044
 30
0.0
 10
4.4341794541
 20
3.6506617254
 30
0.0
 10
4.4313523007
 20
3.650045516
 30
0.0
 10
4.4284967735
 20
3.6495780688
 30
0.0
 10
4.4256207255
 20
3.6492607113
 30
0.0
 10
4.4227319005
 20
3.6490936409
 30
0.0
 10
4.4188751064
 20
3.6490713992
 30
0.0
 10
4.4159842057
 20
3.6492805633
 30
0.0
 10
4.4140714495
 20
3.6495187206
 30
0.0
  0
SPLINE
  5
25B
100
AcDbEntity
  8
ALL_ASSEMBLY_MEMBERS
100
AcDbSpline
 62
7
  6
CONTINUOUS
 70
0
 71
3
 72
16
 73
12
 74
0
 42
0.0000001
 43
0.0000001
 44
0.0000000001
 40
0.0
 40
0.0
 40
0.0
 40
0.0
 40
0.0625157724
 40
0.1250282043
 40
0.2500107496
 40
0.3749939581
 40
0.4999793195
 40
0.6249703309
 40
0.7499695473
 40
0.8749820713
 40
1.0
 40
1.0
 40
1.0
 40
1.0
 10
4.4267378173
 20
3.7535955736
 30
0.0
 10
4.4259144622
 20
3.7537631679
 30
0.0
 10
4.4242587414
 20
3.7540556912
 30
0.0
 10
4.4209228682
 20
3.7544691684
 30
0.0
 10
4.4167196178
 20
3.7546648826
 30
0.0
 10
4.4116793773
 20
3.7543895792
 30
0.0
 10
4.406691426
 20
3.7536136148
 30
0.0
 10
4.4018041075
 20
3.7523506902
 30
0.0
 10
4.3970623937
 20
3.7506185861
 30
0.0
 10
4.3925092341
 20
3.7484391508
 30
0.0
 10
4.3896244942
 20
3.7467038842
 30
0.0
 10
4.3882269182
 20
3.7457710538
 30
0.0
  0
SPLINE
  5
25C
100
AcDbEntity
  8
ALL_ASSEMBLY_MEMBERS
100
AcDbSpline
 62
7
  6
CONTINUOUS
 70
0
 71
3
 72
21
 73
17
 74
0
 42
0.0000001
 43
0.0000001
 44
0.0000000001
 40
0.0
 40
0.0
 40
0.0
 40
0.0
 40
0.0624011687
 40
0.1248435361
 40
0.1872930403
 40
0.2497465712
 40
0.3122122052
 40
0.3746928104
 40
0.4371857171
 40
0.4996884951
 40
0.5622026243
 40
0.6247272596
 40
0.6872617614
 40
0.7498031748
 40
0.8748831966
 40
1.0
 40
1.0
 40
1.0
 40
1.0
 10
4.3882269182
 20
3.7457710538
 30
0.0
 10
4.38888526
 20
3.7465508341
 30
0.0
 10
4.3902475849
 20
3.7480733587
 30
0.0
 10
4.3924174603
 20
3.750237469
 30
0.0
 10
4.3947066693
 20
3.7522763416
 30
0.0
 10
4.3971064976
 20
3.7541842933
 30
0.0
 10
4.3996087724
 20
3.7559566037
 30
0.0
 10
4.402205137
 20
3.7575891215
 30
0.0
 10
4.4048870494
 20
3.7590781388
 30
0.0
 10
4.4076460459
 20
3.7604201383
 30
0.0
 10
4.410473416
 20
3.7616126468
 30
0.0
 10
4.4133607139
 20
3.762653103
 30
0.0
 10
4.4162993196
 20
3.763540027
 30
0.0
 10
4.4202739992
 20
3.7645158206
 30
0.0
 10
4.4253303858
 20
3.765346128
 30
0.0
 10
4.4294228395
 20
3.7655929863
 30
0.0
 10
4.4314689338
 20
3.765613069
 30
0.0
  0
SPLINE
  5
25D
100
AcDbEntity
  8
ALL_ASSEMBLY_MEMBERS
100
AcDbSpline
 62
7
  6
CONTINUOUS
 70
0
 71
3
 72
33
 73
29
 74
0
 42
0.0000001
 43
0.0000001
 44
0.0000000001
 40
0.0
 40
0.0
 40
0.0
 40
0.0
 40
0.0624711147
 40
0.0937426596
 40
0.1250037333
 40
0.1874761514
 40
0.2499547634
 40
0.2812113286
 40
0.3124678072
 40
0.3437241648
 40
0.3749809597
 40
0.4062391041
 40
0.4374975305
 40
0.4687557469
 40
0.5000141438
 40
0.5312718331
 40
0.5625285854
 40
0.5937849869
 40
0.6250404327
 40
0.6562951208
 40
0.6875500039
 40
0.7188052591
 40
0.7500621192
 40
0.8125404237
 40
0.8750113884
 40
0.9062717386
 40
0.9375426927
 40
1.0
 40
1.0
 40
1.0
 40
1.0
 10
4.4755873103
 20
3.7370114608
 30
0.0
 10
4.4768706566
 20
3.7347425409
 30
0.0
 10
4.478581135
 20
3.731209217
 30
0.0
 10
4.4803953315
 20
3.7263161534
 30
0.0
 10
4.4818910382
 20
3.7213157066
 30
0.0
 10
4.4831522462
 20
3.714901137
 30
0.0
 10
4.4835737511
 20
3.7083771364
 30
0.0
 10
4.4834022723
 20
3.7031613735
 30
0.0
 10
4.4830182213
 20
3.699264652
 30
0.0
 10
4.4823809112
 20
3.6954014117
 30
0.0
 10
4.4814917983
 20
3.6915880874
 30
0.0
 10
4.4803536352
 20
3.6878414709
 30
0.0
 10
4.4789717923
 20
3.684177649
 30
0.0
 10
4.4773509474
 20
3.6806130536
 30
0.0
 10
4.4754972069
 20
3.6771638686
 30
0.0
 10
4.4734191769
 20
3.6738450447
 30
0.0
 10
4.4711247839
 20
3.6706719977
 30
0.0
 10
4.468623459
 20
3.6676595087
 30
0.0
 10
4.4659267084
 20
3.6648207349
 30
0.0
 10
4.4630454186
 20
3.6621694763
 30
0.0
 10
4.4599921625
 20
3.6597183214
 30
0.0
 10
4.4567806145
 20
3.6574780635
 30
0.0
 10
4.4523077743
 20
3.6547893368
 30
0.0
 10
4.4463900515
 20
3.6520063333
 30
0.0
 10
4.4401479854
 20
3.6500558176
 30
0.0
 10
4.4350322869
 20
3.6490188689
 30
0.0
 10
4.4298586815
 20
3.6483374727
 30
0.0
 10
4.4259327924
 20
3.6482285672
 30
0.0
 10
4.4233289392
 20
3.6483377493
 30
0.0
  0
SPLINE
  5
25E
100
AcDbEntity
  8
ALL_ASSEMBLY_MEMBERS
100
AcDbSpline
 62
7
  6
CONTINUOUS
 70
0
 71
3
 72
23
 73
19
 74
0
 42
0.0000001
 43
0.0000001
 44
0.0000000001
 40
0.0
 40
0.0
 40
0.0
 40
0.0
 40
0.0626626441
 40
0.1252895659
 40
0.1878830767
 40
0.2504609498
 40
0.3130317013
 40
0.3755853184
 40
0.4381223974
 40
0.500639592
 40
0.5631371545
 40
0.6256191101
 40
0.6880731257
 40
0.7504989716
 40
0.8129052347
 40
0.8753121041
 40
0.9377080784
 40
1.0
 40
1.0
 40
1.0
 40
1.0
 10
4.3985682424
 20
3.7596641558
 30
0.0
 10
4.4000052449
 20
3.7600744936
 30
0.0
 10
4.4029104259
 20
3.7607875185
 30
0.0
 10
4.4073349538
 20
3.7615214866
 30
0.0
 10
4.4118010396
 20
3.7619140038
 30
0.0
 10
4.4162828464
 20
3.7619582955
 30
0.0
 10
4.4207534078
 20
3.7616502878
 30
0.0
 10
4.425184682
 20
3.7609892056
 30
0.0
 10
4.4295470723
 20
3.7599730448
 30
0.0
 10
4.4338111063
 20
3.758605633
 30
0.0
 10
4.4379467992
 20
3.7568916747
 30
0.0
 10
4.4419230521
 20
3.7548377859
 30
0.0
 10
4.445710381
 20
3.7524563783
 30
0.0
 10
4.4492774679
 20
3.7497588981
 30
0.0
 10
4.4525953778
 20
3.7467617431
 30
0.0
 10
4.4556346626
 20
3.7434829136
 30
0.0
 10
4.4583650149
 20
3.7399464942
 30
0.0
 10
4.4599640059
 20
3.7374334279
 30
0.0
 10
4.4607022762
 20
3.7361442566
 30
0.0
  0
ENDSEC
  0
SECTION
  2
OBJECTS
  0
DICTIONARY
  5
C
100
AcDbDictionary
280
0
281
1
  3
ACAD_GROUP
350
D
  3
ACAD_MLINESTYLE
350
17
  3
ACAD_LAYOUT
350
1A
  3
ACAD_PLOTSETTINGS
350
19
  3
ACAD_PLOTSTYLENAME
350
E
  0
DICTIONARY
  5
D
102
{ACAD_REACTORS
330
C
102
}
100
AcDbDictionary
280
0
281
1
  0
ACDBDICTIONARYWDFLT
  5
E
102
{ACAD_REACTORS
330
C
102
}
100
AcDbDictionary
281
1
  3
Normal
350
F
100
AcDbDictionaryWithDefault
340
F
  0
DICTIONARY
  5
17
102
{ACAD_REACTORS
330
C
102
}
100
AcDbDictionary
280
0
281
1
  3
Standard
350
18
  0
DICTIONARY
  5
19
102
{ACAD_REACTORS
330
C
102
}
100
AcDbDictionary
281
1
  0
DICTIONARY
  5
1A
102
{ACAD_REACTORS
330
C
102
}
100
AcDbDictionary
281
1
  3
Model
350
25F
  3
Layout1
350
260
  0
ACDBPLACEHOLDER
  5
F
102
{ACAD_REACTORS
330
E
102
}
  0
MLINESTYLE
  5
18
102
{ACAD_REACTORS
330
17
102
}
100
AcDbMlineStyle
  2
STANDARD
 70
0
  3

 62
256
 51
90.0
 52
90.0
 71
2
 49
0.5
 62
256
  6
BYLAYER
 49
-0.5
 62
256
  6
BYLAYER
  0
LAYOUT
  5
25F
102
{ACAD_REACTORS
330
1A
102
}
100
AcDbPlotSettings
  1

  2
none_device
  4
ANSI_A_(11.00_x_8.50_Inches)
  6

 40
0.0
 41
0.0
 42
0.0
 43
0.0
 44
279.4
 45
215.9
 46
0.0
 47
0.0
 48
0.0
 49
0.0
140
0.0
141
0.0
142
1.0
143
1.0
 70
1024
 72
0
 73
0
 74
0
  7

 75
0
147
1.0
148
0.0
149
0.0
100
AcDbLayout
  1
Model
 70
0
 71
0
 10
0.0
 20
0.0
 11
11.0
 21
8.5
 12
0.0
 22
0.0
 32
0.0
 14
0.0
 24
0.0
 34
0.0
 15
0.0
 25
0.0
 35
0.0
146
0.0
 13
0.0
 23
0.0
 33
0.0
 16
1.0
 26
0.0
 36
0.0
 17
0.0
 27
1.0
 37
0.0
 76
0
330
21A
345
0
346
0
  0
LAYOUT
  5
260
102
{ACAD_REACTORS
330
1A
102
}
100
AcDbPlotSettings
  1

  2
none_device
  4
ANSI_A_(11.00_x_8.50_Inches)
  6

 40
0.0
 41
0.0
 42
0.0
 43
0.0
 44
279.4
 45
215.9
 46
0.0
 47
0.0
 48
0.0
 49
0.0
140
0.0
141
0.0
142
1.0
143
1.0
 70
0
 72
0
 73
0
 74
0
  7

 75
0
147
1.0
148
0.0
149
0.0
100
AcDbLayout
  1
Layout1
 70
0
 71
1
 10
0.0
 20
0.0
 11
11.0
 21
8.5
 12
0.0
 22
0.0
 32
0.0
 14
0.0
 24
0.0
 34
0.0
 15
0.0
 25
0.0
 35
0.0
146
0.0
 13
0.0
 23
0.0
 33
0.0
 16
1.0
 26
0.0
 36
0.0
 17
0.0
 27
1.0
 37
0.0
 76
0
330
21B
345
0
346
0
  0
ENDSEC
  0
EOF
