999
DXF file: E:\BT Custom\CADOUTPUT\_TOP.dxf
999
Pro/ENGINEER 2018400 by Parametric Technology Corporation
  0
SECTION
  2
HEADER
  9
$ACADVER
  1
AC1018
  9
$DWGCODEPAGE
  3
ANSI_1252
  9
$EXTMAX
 10
22.0
 20
17.0
 30
0.0
  9
$EXTMIN
 10
0.0
 20
0.0
 30
0.0
  9
$LIMMIN
 10
0.0
 20
0.0
  9
$LIMMAX
 10
22.0
 20
17.0
  9
$VIEWCTR
 10
11.0
 20
8.5
  9
$VIEWSIZE
 40
17.0
  9
$CLAYER
  8
0
  9
$LTSCALE
 40
1.21
  9
$CELTYPE
  6
BYLAYER
  9
$DIMSCALE
 40
1.0
  9
$DIMASZ
 40
0.1
  9
$DIMEXO
 40
0.0625
  9
$DIMDLI
 40
0.836
  9
$DIMEXE
 40
0.125
  9
$DIMCEN
 40
0.198
  9
$DIMLFAC
 40
1.0
  9
$DIMBLK
  1
_FILLED
  9
$DIMALT
 70
1
  9
$DIMALTD
 70
2
  9
$DIMALTTD
 70
2
  9
$DIMALTF
 40
25.4
  9
$DIMTXT
 40
0.08
  9
$DIMTOL
 70
1
  9
$DIMLIM
 70
0
  9
$DIMTFAC
 40
1.0
  9
$DIMTP
 40
0.001
  9
$DIMTM
 40
0.001
  9
$DIMGAP
 40
0.09
  9
$DIMDSEP
 70
46
  9
$AUNITS
 70
0
  9
$PDMODE
 70
3
  9
$PDSIZE
 40
0.06
  9
$HANDSEED
  5
2E5
  9
$TILEMODE
 70
1
  9
$MEASUREMENT
 70
0
  9
$INSUNITS
 70
1
  0
ENDSEC
  0
SECTION
  2
CLASSES
  0
CLASS
  1
ACDBDICTIONARYWDFLT
  2
AcDbDictionaryWithDefault
  3
AutoCAD 2000
 90
0
 91
1
280
0
281
0
  0
CLASS
  1
ACDBPLACEHOLDER
  2
AcDbPlaceHolder
  3
AutoCAD 2000
 90
0
 91
1
280
0
281
0
  0
CLASS
  1
LAYOUT
  2
AcDbLayout
  3
AutoCAD 2000
 90
0
 91
0
280
0
281
0
  0
ENDSEC
  0
SECTION
  2
TABLES
  0
TABLE
  2
VPORT
  5
8
100
AcDbSymbolTable
 70
2
  0
VPORT
  5
1F4
100
AcDbSymbolTableRecord
100
AcDbViewportTableRecord
  2
*ACTIVE
 70
0
 10
0.0
 20
0.0
 11
1.0
 21
1.0
 12
11.0
 22
8.5
 13
0.0
 23
0.0
 14
1.0
 24
1.0
 15
0.0
 25
0.0
 16
0.0
 26
0.0
 36
1.0
 17
0.0
 27
0.0
 37
0.0
 40
17.0
 41
1.2941176471
 42
50.0
 43
0.0
 44
0.0
 50
0.0
 51
0.0
 71
0
 72
100
 73
1
 74
1
 75
0
 76
0
 77
0
 78
0
  0
ENDTAB
  0
TABLE
  2
LTYPE
  5
5
100
AcDbSymbolTable
 70
6
  0
LTYPE
  5
14
100
AcDbSymbolTableRecord
100
AcDbLinetypeTableRecord
  2
BYBLOCK
 70
0
  3

 72
65
 73
0
 40
0.0
  0
LTYPE
  5
15
100
AcDbSymbolTableRecord
100
AcDbLinetypeTableRecord
  2
BYLAYER
 70
0
  3

 72
65
 73
0
 40
0.0
  0
LTYPE
  5
16
100
AcDbSymbolTableRecord
100
AcDbLinetypeTableRecord
  2
CONTINUOUS
 70
64
  3
Solid line
 72
65
 73
0
 40
0.0
  0
LTYPE
  5
1F5
100
AcDbSymbolTableRecord
100
AcDbLinetypeTableRecord
  2
CENTER
 70
64
  3
____ _ ____ _ ____ _ ____ _ ____ _ ____ _ ____
 72
65
 73
4
 40
0.6
 49
0.375
 74
0
 49
-0.075
 74
0
 49
0.075
 74
0
 49
-0.075
 74
0
  0
LTYPE
  5
1F6
100
AcDbSymbolTableRecord
100
AcDbLinetypeTableRecord
  2
HIDDEN
 70
64
  3
- - - - - - - - - - - - - - - - - - - -
 72
65
 73
2
 40
0.2
 49
0.1
 74
0
 49
-0.1
 74
0
  0
LTYPE
  5
1F7
100
AcDbSymbolTableRecord
100
AcDbLinetypeTableRecord
  2
PHANTOM
 70
64
  3
_____ _ _ _____ _ _ _____ _ _ _____
 72
65
 73
6
 40
0.8
 49
0.45
 74
0
 49
-0.05
 74
0
 49
0.1
 74
0
 49
-0.05
 74
0
 49
0.1
 74
0
 49
-0.05
 74
0
  0
LTYPE
  5
1F8
100
AcDbSymbolTableRecord
100
AcDbLinetypeTableRecord
  2
DOT
 70
64
  3
. . . . . . . . . . . . . . . . . . . .
 72
65
 73
2
 40
0.2
 49
0.1
 74
0
 49
-0.1
 74
0
  0
LTYPE
  5
1F9
100
AcDbSymbolTableRecord
100
AcDbLinetypeTableRecord
  2
DASHED
 70
64
  3
- - - - - - - - - - - - - - - - - - - -
 72
65
 73
2
 40
0.2
 49
0.1
 74
0
 49
-0.1
 74
0
  0
ENDTAB
  0
TABLE
  2
LAYER
  5
2
100
AcDbSymbolTable
 70
36
  0
LAYER
  5
10
100
AcDbSymbolTableRecord
100
AcDbLayerTableRecord
  2
0
 70
0
 62
7
  6
CONTINUOUS
370
-3
390
F
  0
LAYER
  5
1FA
100
AcDbSymbolTableRecord
100
AcDbLayerTableRecord
  2
DEFAULT_1
 70
0
 62
7
  6
CENTER
370
-3
390
F
  0
LAYER
  5
1FB
100
AcDbSymbolTableRecord
100
AcDbLayerTableRecord
  2
DEFAULT_2
 70
0
 62
8
  6
HIDDEN
370
-3
390
F
  0
LAYER
  5
1FC
100
AcDbSymbolTableRecord
100
AcDbLayerTableRecord
  2
DEFAULT_3
 70
0
 62
7
  6
PHANTOM
370
-3
390
F
  0
LAYER
  5
1FD
100
AcDbSymbolTableRecord
100
AcDbLayerTableRecord
  2
ALL_FEATURES
 70
0
 62
7
  6
CONTINUOUS
370
-3
390
F
  0
LAYER
  5
1FE
100
AcDbSymbolTableRecord
100
AcDbLayerTableRecord
  2
AXES_FEATURES
 70
0
 62
7
  6
CONTINUOUS
370
-3
390
F
  0
LAYER
  5
1FF
100
AcDbSymbolTableRecord
100
AcDbLayerTableRecord
  2
DEFAULT_COORDINATE_SYSTEM
 70
0
 62
7
  6
CONTINUOUS
370
-3
390
F
  0
LAYER
  5
200
100
AcDbSymbolTableRecord
100
AcDbLayerTableRecord
  2
DEFAULT_DATUM_AXES
 70
0
 62
7
  6
CONTINUOUS
370
-3
390
F
  0
LAYER
  5
201
100
AcDbSymbolTableRecord
100
AcDbLayerTableRecord
  2
DEFAULT_DATUM_PLANES
 70
0
 62
7
  6
CONTINUOUS
370
-3
390
F
  0
LAYER
  5
202
100
AcDbSymbolTableRecord
100
AcDbLayerTableRecord
  2
DIMENSIONS
 70
0
 62
7
  6
CONTINUOUS
370
-3
390
F
  0
ENDTAB
  0
TABLE
  2
STYLE
  5
3
100
AcDbSymbolTable
 70
1
  0
STYLE
  5
11
100
AcDbSymbolTableRecord
100
AcDbTextStyleTableRecord
  2
STANDARD
 70
0
 40
0.0
 41
0.8
 50
0.0
 71
0
 42
0.2
  3
txt
  4

  0
STYLE
  5
203
100
AcDbSymbolTableRecord
100
AcDbTextStyleTableRecord
  2
TEXTSTYLE_1
 70
0
 40
0.0
 41
0.8
 50
0.0
 71
0
 42
0.2
  3
gdt
  4

  0
ENDTAB
  0
TABLE
  2
VIEW
  5
6
100
AcDbSymbolTable
 70
0
  0
ENDTAB
  0
TABLE
  2
UCS
  5
7
100
AcDbSymbolTable
 70
0
  0
ENDTAB
  0
TABLE
  2
APPID
  5
9
100
AcDbSymbolTable
 70
1
  0
APPID
  5
204
100
AcDbSymbolTableRecord
100
AcDbRegAppTableRecord
  2
ACAD
 70
0
  0
ENDTAB
  0
TABLE
  2
BLOCK_RECORD
  5
1
100
AcDbSymbolTable
 70
0
  0
BLOCK_RECORD
  5
205
100
AcDbSymbolTableRecord
100
AcDbBlockTableRecord
  2
*Model_Space
  0
BLOCK_RECORD
  5
206
100
AcDbSymbolTableRecord
100
AcDbBlockTableRecord
  2
*Paper_Space
  0
BLOCK_RECORD
  5
207
100
AcDbSymbolTableRecord
100
AcDbBlockTableRecord
  2
_FILLED
  0
ENDTAB
  0
TABLE
  2
DIMSTYLE
  5
A
100
AcDbSymbolTable
 70
1
100
AcDbDimStyleTable
 71
0
  0
DIMSTYLE
105
208
100
AcDbSymbolTableRecord
100
AcDbDimStyleTableRecord
  2
STANDARD
 70
0
  3

  4

 40
1.0
 41
0.1
 42
0.0625
 43
0.38
 44
0.125
 45
0.0
 46
0.0
 47
0.001
 48
0.001
140
0.08
141
0.09
142
0.0
143
25.4
144
1.0
145
0.0
146
1.0
147
0.09
 71
1.0
 72
0.0
 73
1
 74
1
 75
0
 76
0
 77
0
 78
4
 79
1
170
1
171
2
172
0
173
0
174
0
175
0
176
0
177
0
178
0
270
2
179
3
271
3
272
3
273
2
274
2
275
0
280
0
281
0
282
0
283
1
284
4
285
0
286
0
287
3
288
0
340
11
278
46
341
207
342
207
343
207
344
207
  0
ENDTAB
  0
ENDSEC
  0
SECTION
  2
BLOCKS
  0
BLOCK
  5
20
100
AcDbEntity
  8
0
100
AcDbBlockBegin
  2
*Model_Space
 70
0
 10
0.0
 20
0.0
 30
0.0
  3
*Model_Space
  1

  0
ENDBLK
  5
21
100
AcDbEntity
  8
0
100
AcDbBlockEnd
  0
BLOCK
  5
1C
100
AcDbEntity
  8
0
100
AcDbBlockBegin
  2
*Paper_Space
 70
0
 10
0.0
 20
0.0
 30
0.0
  3
*Paper_Space
  1

  0
ENDBLK
  5
1D
100
AcDbEntity
  8
0
100
AcDbBlockEnd
  0
BLOCK
  5
209
100
AcDbEntity
  8
0
100
AcDbBlockBegin
  2
_FILLED
 70
64
 10
0.0
 20
0.0
  3
_FILLED
  1

  0
SOLID
  5
20A
100
AcDbEntity
  8
0
  6
BYBLOCK
 62
0
100
AcDbTrace
 10
0.0
 20
0.0
 11
-1.0
 21
0.2
 12
-1.0
 22
-0.2
 13
-1.0
 23
-0.2
  0
ENDBLK
  5
20B
100
AcDbEntity
  8
0
  6
BYBLOCK
 62
0
100
AcDbBlockEnd
  0
ENDSEC
  0
SECTION
  2
ENTITIES
  0
LINE
  5
20C
100
AcDbEntity
  8
0
100
AcDbLine
 62
7
  6
CONTINUOUS
 10
1.073793928
 20
10.7598318604
 11
1.073793928
 21
11.3248318604
  0
LINE
  5
20D
100
AcDbEntity
  8
0
100
AcDbLine
 62
9
  6
CONTINUOUS
 10
1.103793928
 20
10.7298318604
 11
1.103793928
 21
11.3548318604
  0
LINE
  5
20E
100
AcDbEntity
  8
0
100
AcDbLine
 62
7
  6
CONTINUOUS
 10
2.723793928
 20
12.1323318604
 11
2.723793928
 21
11.3548318604
  0
LINE
  5
20F
100
AcDbEntity
  8
0
100
AcDbLine
 62
7
  6
CONTINUOUS
 10
2.723793928
 20
10.7298318604
 11
2.723793928
 21
9.9523318604
  0
LINE
  5
210
100
AcDbEntity
  8
0
100
AcDbLine
 62
9
  6
CONTINUOUS
 10
2.743793928
 20
10.7298318604
 11
2.743793928
 21
9.9323318604
  0
LINE
  5
211
100
AcDbEntity
  8
0
100
AcDbLine
 62
9
  6
CONTINUOUS
 10
2.743793928
 20
11.3548318604
 11
2.743793928
 21
12.1523318604
  0
LINE
  5
212
100
AcDbEntity
  8
0
100
AcDbLine
 62
7
  6
CONTINUOUS
 10
3.033793928
 20
11.8423318604
 11
3.033793928
 21
11.3548318604
  0
LINE
  5
213
100
AcDbEntity
  8
0
100
AcDbLine
 62
7
  6
CONTINUOUS
 10
3.033793928
 20
10.7298318604
 11
3.033793928
 21
10.2423318604
  0
LINE
  5
214
100
AcDbEntity
  8
0
100
AcDbLine
 62
7
  6
CONTINUOUS
 10
3.396293928
 20
10.6048318604
 11
3.396293928
 21
10.7298318604
  0
LINE
  5
215
100
AcDbEntity
  8
0
100
AcDbLine
 62
7
  6
CONTINUOUS
 10
3.396293928
 20
11.3548318604
 11
3.396293928
 21
11.4798318604
  0
LINE
  5
216
100
AcDbEntity
  8
0
100
AcDbLine
 62
7
  6
CONTINUOUS
 10
4.271293928
 20
10.6048318604
 11
4.271293928
 21
10.7298318604
  0
LINE
  5
217
100
AcDbEntity
  8
0
100
AcDbLine
 62
7
  6
CONTINUOUS
 10
4.271293928
 20
11.3548318604
 11
4.271293928
 21
11.4798318604
  0
LINE
  5
218
100
AcDbEntity
  8
0
100
AcDbLine
 62
7
  6
CONTINUOUS
 10
4.633793928
 20
10.2423318604
 11
4.633793928
 21
10.7298318604
  0
LINE
  5
219
100
AcDbEntity
  8
0
100
AcDbLine
 62
7
  6
CONTINUOUS
 10
4.633793928
 20
11.3548318604
 11
4.633793928
 21
11.8423318604
  0
LINE
  5
21A
100
AcDbEntity
  8
0
100
AcDbLine
 62
9
  6
CONTINUOUS
 10
4.803793928
 20
10.7298318604
 11
4.803793928
 21
11.3548318604
  0
LINE
  5
21B
100
AcDbEntity
  8
0
100
AcDbLine
 62
7
  6
CONTINUOUS
 10
4.833793928
 20
11.3248318604
 11
4.833793928
 21
10.7598318604
  0
LINE
  5
21C
100
AcDbEntity
  8
0
100
AcDbLine
 62
9
  6
CONTINUOUS
 10
4.923793928
 20
9.9323318604
 11
4.923793928
 21
12.1523318604
  0
LINE
  5
21D
100
AcDbEntity
  8
0
100
AcDbLine
 62
7
  6
CONTINUOUS
 10
4.943793928
 20
9.9523318604
 11
4.943793928
 21
12.1323318604
  0
LINE
  5
21E
100
AcDbEntity
  8
0
100
AcDbLine
 62
7
  6
CONTINUOUS
 10
6.708793928
 20
2.0973318604
 11
8.958793928
 21
2.0973318604
  0
LINE
  5
21F
100
AcDbEntity
  8
0
100
AcDbLine
 62
7
  6
CONTINUOUS
 10
6.593793928
 20
12.2423318604
 11
6.593793928
 21
9.8423318604
  0
LINE
  5
220
100
AcDbEntity
  8
0
100
AcDbLine
 62
9
  6
CONTINUOUS
 10
6.633793928
 20
9.8023318604
 11
6.633793928
 21
12.2823318604
  0
LINE
  5
221
100
AcDbEntity
  8
0
100
AcDbLine
 62
7
  6
CONTINUOUS
 10
6.708793928
 20
12.8673318604
 11
6.708793928
 21
2.0973318604
  0
LINE
  5
222
100
AcDbEntity
  8
0
100
AcDbLine
 62
7
  6
CONTINUOUS
 10
19.398793928
 20
4.5300631614
 11
20.268793928
 21
4.5300631614
  0
LINE
  5
223
100
AcDbEntity
  8
0
100
AcDbLine
 62
9
  6
CONTINUOUS
 10
19.398793928
 20
4.5336352853
 11
20.268793928
 21
4.5336352853
  0
LINE
  5
224
100
AcDbEntity
  8
0
100
AcDbLine
 62
7
  6
CONTINUOUS
 10
19.450293928
 20
4.5515959074
 11
20.217293928
 21
4.5515959074
  0
LINE
  5
225
100
AcDbEntity
  8
0
100
AcDbLine
 62
9
  6
CONTINUOUS
 10
19.450293928
 20
4.5551680313
 11
20.217293928
 21
4.5551680313
  0
LINE
  5
226
100
AcDbEntity
  8
0
100
AcDbLine
 62
9
  6
CONTINUOUS
 10
20.217293928
 20
5.2499703413
 11
19.450293928
 21
5.2499703413
  0
LINE
  5
227
100
AcDbEntity
  8
0
100
AcDbLine
 62
7
  6
CONTINUOUS
 10
19.450293928
 20
5.2640586618
 11
20.217293928
 21
5.2640586618
  0
LINE
  5
228
100
AcDbEntity
  8
0
100
AcDbLine
 62
9
  6
CONTINUOUS
 10
20.268793928
 20
5.2843588395
 11
19.398793928
 21
5.2843588395
  0
LINE
  5
229
100
AcDbEntity
  8
0
100
AcDbLine
 62
9
  6
CONTINUOUS
 10
20.268793928
 20
5.2984471601
 11
19.398793928
 21
5.2984471601
  0
LINE
  5
22A
100
AcDbEntity
  8
0
100
AcDbLine
 62
7
  6
CONTINUOUS
 10
8.958793928
 20
12.8673318604
 11
8.958793928
 21
2.0973318604
  0
LINE
  5
22B
100
AcDbEntity
  8
0
100
AcDbLine
 62
9
  6
CONTINUOUS
 10
9.033793928
 20
9.8023318604
 11
9.033793928
 21
12.2823318604
  0
LINE
  5
22C
100
AcDbEntity
  8
0
100
AcDbLine
 62
7
  6
CONTINUOUS
 10
9.073793928
 20
9.8423318604
 11
9.073793928
 21
12.2423318604
  0
LINE
  5
22D
100
AcDbEntity
  8
0
100
AcDbLine
 62
7
  6
CONTINUOUS
 10
10.723793928
 20
12.1323318604
 11
10.723793928
 21
9.9523318604
  0
LINE
  5
22E
100
AcDbEntity
  8
0
100
AcDbLine
 62
9
  6
CONTINUOUS
 10
10.743793928
 20
9.9323318604
 11
10.743793928
 21
12.1523318604
  0
LINE
  5
22F
100
AcDbEntity
  8
0
100
AcDbLine
 62
7
  6
CONTINUOUS
 10
10.833793928
 20
10.7598318604
 11
10.833793928
 21
11.3248318604
  0
LINE
  5
230
100
AcDbEntity
  8
0
100
AcDbLine
 62
9
  6
CONTINUOUS
 10
10.863793928
 20
10.7298318604
 11
10.863793928
 21
11.3548318604
  0
LINE
  5
231
100
AcDbEntity
  8
0
100
AcDbLine
 62
7
  6
CONTINUOUS
 10
11.033793928
 20
11.8423318604
 11
11.033793928
 21
11.3548318604
  0
LINE
  5
232
100
AcDbEntity
  8
0
100
AcDbLine
 62
7
  6
CONTINUOUS
 10
11.033793928
 20
10.7298318604
 11
11.033793928
 21
10.2423318604
  0
LINE
  5
233
100
AcDbEntity
  8
0
100
AcDbLine
 62
7
  6
CONTINUOUS
 10
11.396293928
 20
10.6048318604
 11
11.396293928
 21
10.7298318604
  0
LINE
  5
234
100
AcDbEntity
  8
0
100
AcDbLine
 62
7
  6
CONTINUOUS
 10
11.396293928
 20
11.3548318604
 11
11.396293928
 21
11.4798318604
  0
LINE
  5
235
100
AcDbEntity
  8
0
100
AcDbLine
 62
7
  6
CONTINUOUS
 10
12.271293928
 20
10.6048318604
 11
12.271293928
 21
10.7298318604
  0
LINE
  5
236
100
AcDbEntity
  8
0
100
AcDbLine
 62
7
  6
CONTINUOUS
 10
12.271293928
 20
11.3548318604
 11
12.271293928
 21
11.4798318604
  0
LINE
  5
237
100
AcDbEntity
  8
0
100
AcDbLine
 62
7
  6
CONTINUOUS
 10
12.633793928
 20
10.2423318604
 11
12.633793928
 21
10.7298318604
  0
LINE
  5
238
100
AcDbEntity
  8
0
100
AcDbLine
 62
7
  6
CONTINUOUS
 10
12.633793928
 20
11.3548318604
 11
12.633793928
 21
11.8423318604
  0
LINE
  5
239
100
AcDbEntity
  8
0
100
AcDbLine
 62
9
  6
CONTINUOUS
 10
12.923793928
 20
9.9323318604
 11
12.923793928
 21
10.7298318604
  0
LINE
  5
23A
100
AcDbEntity
  8
0
100
AcDbLine
 62
9
  6
CONTINUOUS
 10
12.923793928
 20
11.3548318604
 11
12.923793928
 21
12.1523318604
  0
LINE
  5
23B
100
AcDbEntity
  8
0
100
AcDbLine
 62
7
  6
CONTINUOUS
 10
12.943793928
 20
9.9523318604
 11
12.943793928
 21
10.7298318604
  0
LINE
  5
23C
100
AcDbEntity
  8
0
100
AcDbLine
 62
7
  6
CONTINUOUS
 10
12.943793928
 20
11.3548318604
 11
12.943793928
 21
12.1323318604
  0
LINE
  5
23D
100
AcDbEntity
  8
0
100
AcDbLine
 62
7
  6
CONTINUOUS
 10
6.633793928
 20
9.8023318604
 11
6.708793928
 21
9.8023318604
  0
LINE
  5
23E
100
AcDbEntity
  8
0
100
AcDbLine
 62
7
  6
CONTINUOUS
 10
8.958793928
 20
9.8023318604
 11
9.033793928
 21
9.8023318604
  0
LINE
  5
23F
100
AcDbEntity
  8
0
100
AcDbLine
 62
9
  6
CONTINUOUS
 10
6.593793928
 20
9.8423318604
 11
6.708793928
 21
9.8423318604
  0
LINE
  5
240
100
AcDbEntity
  8
0
100
AcDbLine
 62
9
  6
CONTINUOUS
 10
8.958793928
 20
9.8423318604
 11
9.073793928
 21
9.8423318604
  0
LINE
  5
241
100
AcDbEntity
  8
0
100
AcDbLine
 62
7
  6
CONTINUOUS
 10
2.743793928
 20
9.9323318604
 11
4.923793928
 21
9.9323318604
  0
LINE
  5
242
100
AcDbEntity
  8
0
100
AcDbLine
 62
7
  6
CONTINUOUS
 10
10.743793928
 20
9.9323318604
 11
12.923793928
 21
9.9323318604
  0
LINE
  5
243
100
AcDbEntity
  8
0
100
AcDbLine
 62
7
  6
CONTINUOUS
 10
14.743793928
 20
9.9323318604
 11
16.923793928
 21
9.9323318604
  0
LINE
  5
244
100
AcDbEntity
  8
0
100
AcDbLine
 62
9
  6
CONTINUOUS
 10
2.723793928
 20
9.9523318604
 11
4.943793928
 21
9.9523318604
  0
LINE
  5
245
100
AcDbEntity
  8
0
100
AcDbLine
 62
9
  6
CONTINUOUS
 10
10.723793928
 20
9.9523318604
 11
12.943793928
 21
9.9523318604
  0
LINE
  5
246
100
AcDbEntity
  8
0
100
AcDbLine
 62
9
  6
CONTINUOUS
 10
14.723793928
 20
9.9523318604
 11
16.943793928
 21
9.9523318604
  0
LINE
  5
247
100
AcDbEntity
  8
0
100
AcDbLine
 62
7
  6
CONTINUOUS
 10
3.033793928
 20
10.2423318604
 11
4.633793928
 21
10.2423318604
  0
LINE
  5
248
100
AcDbEntity
  8
0
100
AcDbLine
 62
7
  6
CONTINUOUS
 10
11.033793928
 20
10.2423318604
 11
12.633793928
 21
10.2423318604
  0
LINE
  5
249
100
AcDbEntity
  8
0
100
AcDbLine
 62
7
  6
CONTINUOUS
 10
15.033793928
 20
10.2423318604
 11
16.633793928
 21
10.2423318604
  0
LINE
  5
24A
100
AcDbEntity
  8
0
100
AcDbLine
 62
7
  6
CONTINUOUS
 10
16.271293928
 20
10.6048318604
 11
15.396293928
 21
10.6048318604
  0
LINE
  5
24B
100
AcDbEntity
  8
0
100
AcDbLine
 62
7
  6
CONTINUOUS
 10
12.271293928
 20
10.6048318604
 11
11.396293928
 21
10.6048318604
  0
LINE
  5
24C
100
AcDbEntity
  8
0
100
AcDbLine
 62
7
  6
CONTINUOUS
 10
4.271293928
 20
10.6048318604
 11
3.396293928
 21
10.6048318604
  0
LINE
  5
24D
100
AcDbEntity
  8
0
100
AcDbLine
 62
9
  6
CONTINUOUS
 10
14.563793928
 20
10.7298318604
 11
14.563793928
 21
11.3548318604
  0
LINE
  5
24E
100
AcDbEntity
  8
0
100
AcDbLine
 62
7
  6
CONTINUOUS
 10
14.593793928
 20
11.3248318604
 11
14.593793928
 21
10.7598318604
  0
LINE
  5
24F
100
AcDbEntity
  8
0
100
AcDbLine
 62
7
  6
CONTINUOUS
 10
14.723793928
 20
12.1323318604
 11
14.723793928
 21
9.9523318604
  0
LINE
  5
250
100
AcDbEntity
  8
0
100
AcDbLine
 62
9
  6
CONTINUOUS
 10
14.743793928
 20
9.9323318604
 11
14.743793928
 21
12.1523318604
  0
LINE
  5
251
100
AcDbEntity
  8
0
100
AcDbLine
 62
7
  6
CONTINUOUS
 10
14.833793928
 20
10.7598318604
 11
14.833793928
 21
11.3248318604
  0
LINE
  5
252
100
AcDbEntity
  8
0
100
AcDbLine
 62
9
  6
CONTINUOUS
 10
14.863793928
 20
10.7298318604
 11
14.863793928
 21
11.3548318604
  0
LINE
  5
253
100
AcDbEntity
  8
0
100
AcDbLine
 62
7
  6
CONTINUOUS
 10
1.103793928
 20
10.7298318604
 11
4.803793928
 21
10.7298318604
  0
LINE
  5
254
100
AcDbEntity
  8
0
100
AcDbLine
 62
7
  6
CONTINUOUS
 10
10.863793928
 20
10.7298318604
 11
14.563793928
 21
10.7298318604
  0
LINE
  5
255
100
AcDbEntity
  8
0
100
AcDbLine
 62
7
  6
CONTINUOUS
 10
14.863793928
 20
10.7298318604
 11
18.563793928
 21
10.7298318604
  0
LINE
  5
256
100
AcDbEntity
  8
0
100
AcDbLine
 62
9
  6
CONTINUOUS
 10
19.398793928
 20
10.7492860902
 11
20.268793928
 21
10.7492860902
  0
LINE
  5
257
100
AcDbEntity
  8
0
100
AcDbLine
 62
7
  6
CONTINUOUS
 10
19.398793928
 20
10.7516256458
 11
20.268793928
 21
10.7516256458
  0
LINE
  5
258
100
AcDbEntity
  8
0
100
AcDbLine
 62
9
  6
CONTINUOUS
 10
1.073793928
 20
10.7598318604
 11
4.833793928
 21
10.7598318604
  0
LINE
  5
259
100
AcDbEntity
  8
0
100
AcDbLine
 62
9
  6
CONTINUOUS
 10
10.833793928
 20
10.7598318604
 11
14.593793928
 21
10.7598318604
  0
LINE
  5
25A
100
AcDbEntity
  8
0
100
AcDbLine
 62
9
  6
CONTINUOUS
 10
14.833793928
 20
10.7598318604
 11
18.593793928
 21
10.7598318604
  0
LINE
  5
25B
100
AcDbEntity
  8
0
100
AcDbLine
 62
9
  6
CONTINUOUS
 10
18.593793928
 20
11.3248318604
 11
14.833793928
 21
11.3248318604
  0
LINE
  5
25C
100
AcDbEntity
  8
0
100
AcDbLine
 62
9
  6
CONTINUOUS
 10
14.593793928
 20
11.3248318604
 11
10.833793928
 21
11.3248318604
  0
LINE
  5
25D
100
AcDbEntity
  8
0
100
AcDbLine
 62
9
  6
CONTINUOUS
 10
4.833793928
 20
11.3248318604
 11
1.073793928
 21
11.3248318604
  0
LINE
  5
25E
100
AcDbEntity
  8
0
100
AcDbLine
 62
7
  6
CONTINUOUS
 10
18.563793928
 20
11.3548318604
 11
14.863793928
 21
11.3548318604
  0
LINE
  5
25F
100
AcDbEntity
  8
0
100
AcDbLine
 62
7
  6
CONTINUOUS
 10
14.563793928
 20
11.3548318604
 11
10.863793928
 21
11.3548318604
  0
LINE
  5
260
100
AcDbEntity
  8
0
100
AcDbLine
 62
7
  6
CONTINUOUS
 10
4.803793928
 20
11.3548318604
 11
1.103793928
 21
11.3548318604
  0
LINE
  5
261
100
AcDbEntity
  8
0
100
AcDbLine
 62
7
  6
CONTINUOUS
 10
15.033793928
 20
11.8423318604
 11
15.033793928
 21
11.3548318604
  0
LINE
  5
262
100
AcDbEntity
  8
0
100
AcDbLine
 62
7
  6
CONTINUOUS
 10
15.033793928
 20
10.7298318604
 11
15.033793928
 21
10.2423318604
  0
LINE
  5
263
100
AcDbEntity
  8
0
100
AcDbLine
 62
7
  6
CONTINUOUS
 10
15.396293928
 20
10.6048318604
 11
15.396293928
 21
10.7298318604
  0
LINE
  5
264
100
AcDbEntity
  8
0
100
AcDbLine
 62
7
  6
CONTINUOUS
 10
15.396293928
 20
11.3548318604
 11
15.396293928
 21
11.4798318604
  0
LINE
  5
265
100
AcDbEntity
  8
0
100
AcDbLine
 62
7
  6
CONTINUOUS
 10
16.271293928
 20
11.4798318604
 11
15.396293928
 21
11.4798318604
  0
LINE
  5
266
100
AcDbEntity
  8
0
100
AcDbLine
 62
7
  6
CONTINUOUS
 10
12.271293928
 20
11.4798318604
 11
11.396293928
 21
11.4798318604
  0
LINE
  5
267
100
AcDbEntity
  8
0
100
AcDbLine
 62
7
  6
CONTINUOUS
 10
4.271293928
 20
11.4798318604
 11
3.396293928
 21
11.4798318604
  0
LINE
  5
268
100
AcDbEntity
  8
0
100
AcDbLine
 62
7
  6
CONTINUOUS
 10
16.633793928
 20
11.8423318604
 11
15.033793928
 21
11.8423318604
  0
LINE
  5
269
100
AcDbEntity
  8
0
100
AcDbLine
 62
7
  6
CONTINUOUS
 10
12.633793928
 20
11.8423318604
 11
11.033793928
 21
11.8423318604
  0
LINE
  5
26A
100
AcDbEntity
  8
0
100
AcDbLine
 62
7
  6
CONTINUOUS
 10
4.633793928
 20
11.8423318604
 11
3.033793928
 21
11.8423318604
  0
LINE
  5
26B
100
AcDbEntity
  8
0
100
AcDbLine
 62
7
  6
CONTINUOUS
 10
16.271293928
 20
10.6048318604
 11
16.271293928
 21
10.7298318604
  0
LINE
  5
26C
100
AcDbEntity
  8
0
100
AcDbLine
 62
7
  6
CONTINUOUS
 10
16.271293928
 20
11.3548318604
 11
16.271293928
 21
11.4798318604
  0
LINE
  5
26D
100
AcDbEntity
  8
0
100
AcDbLine
 62
9
  6
CONTINUOUS
 10
2.723793928
 20
12.1323318604
 11
4.943793928
 21
12.1323318604
  0
LINE
  5
26E
100
AcDbEntity
  8
0
100
AcDbLine
 62
9
  6
CONTINUOUS
 10
10.723793928
 20
12.1323318604
 11
12.943793928
 21
12.1323318604
  0
LINE
  5
26F
100
AcDbEntity
  8
0
100
AcDbLine
 62
9
  6
CONTINUOUS
 10
14.723793928
 20
12.1323318604
 11
16.943793928
 21
12.1323318604
  0
LINE
  5
270
100
AcDbEntity
  8
0
100
AcDbLine
 62
7
  6
CONTINUOUS
 10
16.923793928
 20
12.1523318604
 11
14.743793928
 21
12.1523318604
  0
LINE
  5
271
100
AcDbEntity
  8
0
100
AcDbLine
 62
7
  6
CONTINUOUS
 10
12.923793928
 20
12.1523318604
 11
10.743793928
 21
12.1523318604
  0
LINE
  5
272
100
AcDbEntity
  8
0
100
AcDbLine
 62
7
  6
CONTINUOUS
 10
4.923793928
 20
12.1523318604
 11
2.743793928
 21
12.1523318604
  0
LINE
  5
273
100
AcDbEntity
  8
0
100
AcDbLine
 62
9
  6
CONTINUOUS
 10
6.708793928
 20
12.2423318604
 11
6.593793928
 21
12.2423318604
  0
LINE
  5
274
100
AcDbEntity
  8
0
100
AcDbLine
 62
9
  6
CONTINUOUS
 10
8.958793928
 20
12.2423318604
 11
9.073793928
 21
12.2423318604
  0
LINE
  5
275
100
AcDbEntity
  8
0
100
AcDbLine
 62
7
  6
CONTINUOUS
 10
9.033793928
 20
12.2823318604
 11
8.958793928
 21
12.2823318604
  0
LINE
  5
276
100
AcDbEntity
  8
0
100
AcDbLine
 62
7
  6
CONTINUOUS
 10
6.708793928
 20
12.2823318604
 11
6.633793928
 21
12.2823318604
  0
LINE
  5
277
100
AcDbEntity
  8
0
100
AcDbLine
 62
7
  6
CONTINUOUS
 10
6.708793928
 20
12.8673318604
 11
8.958793928
 21
12.8673318604
  0
LINE
  5
278
100
AcDbEntity
  8
0
100
AcDbLine
 62
7
  6
CONTINUOUS
 10
16.633793928
 20
10.2423318604
 11
16.633793928
 21
10.7298318604
  0
LINE
  5
279
100
AcDbEntity
  8
0
100
AcDbLine
 62
7
  6
CONTINUOUS
 10
16.633793928
 20
11.3548318604
 11
16.633793928
 21
11.8423318604
  0
LINE
  5
27A
100
AcDbEntity
  8
0
100
AcDbLine
 62
9
  6
CONTINUOUS
 10
16.923793928
 20
9.9323318604
 11
16.923793928
 21
10.7298318604
  0
LINE
  5
27B
100
AcDbEntity
  8
0
100
AcDbLine
 62
9
  6
CONTINUOUS
 10
16.923793928
 20
11.3548318604
 11
16.923793928
 21
12.1523318604
  0
LINE
  5
27C
100
AcDbEntity
  8
0
100
AcDbLine
 62
7
  6
CONTINUOUS
 10
16.943793928
 20
9.9523318604
 11
16.943793928
 21
10.7298318604
  0
LINE
  5
27D
100
AcDbEntity
  8
0
100
AcDbLine
 62
7
  6
CONTINUOUS
 10
16.943793928
 20
11.3548318604
 11
16.943793928
 21
12.1323318604
  0
LINE
  5
27E
100
AcDbEntity
  8
0
100
AcDbLine
 62
9
  6
CONTINUOUS
 10
18.563793928
 20
10.7298318604
 11
18.563793928
 21
11.3548318604
  0
LINE
  5
27F
100
AcDbEntity
  8
0
100
AcDbLine
 62
7
  6
CONTINUOUS
 10
18.593793928
 20
11.3248318604
 11
18.593793928
 21
10.7598318604
  0
LINE
  5
280
100
AcDbEntity
  8
0
100
AcDbLine
 62
7
  6
CONTINUOUS
 10
19.333793928
 20
4.5821956057
 11
19.333793928
 21
10.6994932014
  0
LINE
  5
281
100
AcDbEntity
  8
0
100
AcDbLine
 62
9
  6
CONTINUOUS
 10
19.343793928
 20
5.2422263952
 11
19.343793928
 21
4.5757677296
  0
LINE
  5
282
100
AcDbEntity
  8
0
100
AcDbLine
 62
7
  6
CONTINUOUS
 10
19.343793928
 20
10.7273374837
 11
19.343793928
 21
10.7455085583
  0
LINE
  5
283
100
AcDbEntity
  8
0
100
AcDbLine
 62
7
  6
CONTINUOUS
 10
19.346293928
 20
11.0423318604
 11
19.346293928
 21
10.7818119071
  0
LINE
  5
284
100
AcDbEntity
  8
0
100
AcDbLine
 62
7
  6
CONTINUOUS
 10
19.363793928
 20
10.7680924008
 11
19.363793928
 21
10.7434717487
  0
LINE
  5
285
100
AcDbEntity
  8
0
100
AcDbLine
 62
7
  6
CONTINUOUS
 10
19.370293928
 20
4.6152190185
 11
19.370293928
 21
5.2027751063
  0
LINE
  5
286
100
AcDbEntity
  8
0
100
AcDbLine
 62
9
  6
CONTINUOUS
 10
19.380293928
 20
5.1963472302
 11
19.380293928
 21
4.6087911424
  0
LINE
  5
287
100
AcDbEntity
  8
0
100
AcDbLine
 62
9
  6
CONTINUOUS
 10
19.398793928
 20
4.5336352853
 11
19.398793928
 21
4.5300631614
  0
LINE
  5
288
100
AcDbEntity
  8
0
100
AcDbLine
 62
9
  6
CONTINUOUS
 10
19.398793928
 20
5.2843588395
 11
19.398793928
 21
10.7516256458
  0
LINE
  5
289
100
AcDbEntity
  8
0
100
AcDbLine
 62
9
  6
CONTINUOUS
 10
19.450293928
 20
4.5551680313
 11
19.450293928
 21
4.5515959074
  0
LINE
  5
28A
100
AcDbEntity
  8
0
100
AcDbLine
 62
9
  6
CONTINUOUS
 10
19.450293928
 20
5.2499703413
 11
19.450293928
 21
5.2640586618
  0
LINE
  5
28B
100
AcDbEntity
  8
0
100
AcDbLine
 62
9
  6
CONTINUOUS
 10
20.217293928
 20
4.5551680313
 11
20.217293928
 21
4.5515959074
  0
LINE
  5
28C
100
AcDbEntity
  8
0
100
AcDbLine
 62
9
  6
CONTINUOUS
 10
20.217293928
 20
5.2499703413
 11
20.217293928
 21
5.2640586618
  0
LINE
  5
28D
100
AcDbEntity
  8
0
100
AcDbLine
 62
9
  6
CONTINUOUS
 10
20.268793928
 20
4.5336352853
 11
20.268793928
 21
4.5300631614
  0
LINE
  5
28E
100
AcDbEntity
  8
0
100
AcDbLine
 62
9
  6
CONTINUOUS
 10
20.268793928
 20
10.7516256458
 11
20.268793928
 21
5.2843588395
  0
LINE
  5
28F
100
AcDbEntity
  8
0
100
AcDbLine
 62
9
  6
CONTINUOUS
 10
20.287293928
 20
4.6087911424
 11
20.287293928
 21
5.1963472302
  0
LINE
  5
290
100
AcDbEntity
  8
0
100
AcDbLine
 62
7
  6
CONTINUOUS
 10
20.297293928
 20
5.2027751063
 11
20.297293928
 21
4.6152190185
  0
LINE
  5
291
100
AcDbEntity
  8
0
100
AcDbLine
 62
7
  6
CONTINUOUS
 10
20.303793928
 20
10.7680924008
 11
20.303793928
 21
10.7434760167
  0
LINE
  5
292
100
AcDbEntity
  8
0
100
AcDbLine
 62
7
  6
CONTINUOUS
 10
20.321293928
 20
11.0423318604
 11
20.321293928
 21
10.7818100288
  0
LINE
  5
293
100
AcDbEntity
  8
0
100
AcDbLine
 62
9
  6
CONTINUOUS
 10
20.323793928
 20
4.5757677296
 11
20.323793928
 21
5.2422263952
  0
LINE
  5
294
100
AcDbEntity
  8
0
100
AcDbLine
 62
7
  6
CONTINUOUS
 10
20.323793928
 20
10.7273374605
 11
20.323793928
 21
10.7455085583
  0
LINE
  5
295
100
AcDbEntity
  8
0
100
AcDbLine
 62
7
  6
CONTINUOUS
 10
20.333793928
 20
4.5821956057
 11
20.333793928
 21
10.6994932014
  0
LINE
  5
296
100
AcDbEntity
  8
0
100
AcDbLine
 62
7
  6
CONTINUOUS
 10
20.3302292343
 20
11.2732176876
 11
20.3291666459
 21
11.2754870735
  0
LINE
  5
297
100
AcDbEntity
  8
0
100
AcDbLine
 62
7
  6
CONTINUOUS
 10
20.3316702499
 20
11.2700941536
 11
20.3302292343
 21
11.2732176876
  0
LINE
  5
298
100
AcDbEntity
  8
0
100
AcDbLine
 62
7
  6
CONTINUOUS
 10
20.3329531453
 20
11.2672689754
 11
20.3316702499
 21
11.2700941536
  0
LINE
  5
299
100
AcDbEntity
  8
0
100
AcDbLine
 62
7
  6
CONTINUOUS
 10
20.3344403235
 20
11.2639388099
 11
20.3329531453
 21
11.2672689754
  0
LINE
  5
29A
100
AcDbEntity
  8
0
100
AcDbLine
 62
7
  6
CONTINUOUS
 10
20.3361316991
 20
11.2600785706
 11
20.3344403235
 21
11.2639388099
  0
LWPOLYLINE
  5
29B
100
AcDbEntity
  8
0
100
AcDbPolyline
 62
7
  6
CONTINUOUS
 90
13
 70
0
 10
20.3517677238
 20
11.219699825
 10
20.3505058397
 20
11.2233437978
 10
20.3492529136
 20
11.2268818577
 10
20.348012868
 20
11.2303088094
 10
20.346790188
 20
11.2336197961
 10
20.3455880415
 20
11.2368141572
 10
20.3444082134
 20
11.2398917215
 10
20.343255359
 20
11.2428453819
 10
20.3421343276
 20
11.2456697376
 10
20.3410469581
 20
11.248368002
 10
20.3399902074
 20
11.2509518413
 10
20.3389672954
 20
11.253416489
 10
20.3361316991
 20
11.2600785706
  0
LWPOLYLINE
  5
29C
100
AcDbEntity
  8
0
100
AcDbPolyline
 62
7
  6
CONTINUOUS
 90
9
 70
0
 10
20.3612531611
 20
11.1891076726
 10
20.3605956416
 20
11.19145072
 10
20.3593573615
 20
11.1957580235
 10
20.3581062876
 20
11.1999798609
 10
20.3568457122
 20
11.2041128567
 10
20.3555785437
 20
11.2081549416
 10
20.3543075057
 20
11.212102826
 10
20.3530359699
 20
11.215952384
 10
20.3517677238
 20
11.219699825
  0
ARC
  5
29D
100
AcDbEntity
  8
0
100
AcDbCircle
 62
7
  6
CONTINUOUS
 10
6.633793928
 20
9.8423318604
 40
0.04
100
AcDbArc
 50
180.0
 51
270.0
  0
ARC
  5
29E
100
AcDbEntity
  8
0
100
AcDbCircle
 62
7
  6
CONTINUOUS
 10
9.033793928
 20
9.8423318604
 40
0.04
100
AcDbArc
 50
270.0
 51
360.0
  0
ARC
  5
29F
100
AcDbEntity
  8
0
100
AcDbCircle
 62
7
  6
CONTINUOUS
 10
1.103793928
 20
10.7598318604
 40
0.03
100
AcDbArc
 50
180.0
 51
270.0
  0
ARC
  5
2A0
100
AcDbEntity
  8
0
100
AcDbCircle
 62
7
  6
CONTINUOUS
 10
4.803793928
 20
10.7598318604
 40
0.03
100
AcDbArc
 50
270.0
 51
360.0
  0
ARC
  5
2A1
100
AcDbEntity
  8
0
100
AcDbCircle
 62
7
  6
CONTINUOUS
 10
4.923793928
 20
9.9523318604
 40
0.02
100
AcDbArc
 50
270.0
 51
360.0
  0
ARC
  5
2A2
100
AcDbEntity
  8
0
100
AcDbCircle
 62
7
  6
CONTINUOUS
 10
2.743793928
 20
9.9523318604
 40
0.02
100
AcDbArc
 50
180.0
 51
270.0
  0
ARC
  5
2A3
100
AcDbEntity
  8
0
100
AcDbCircle
 62
7
  6
CONTINUOUS
 10
6.633793928
 20
12.2423318604
 40
0.04
100
AcDbArc
 50
90.0
 51
180.0
  0
ARC
  5
2A4
100
AcDbEntity
  8
0
100
AcDbCircle
 62
7
  6
CONTINUOUS
 10
9.033793928
 20
12.2423318604
 40
0.04
100
AcDbArc
 50
0.0
 51
90.0
  0
ARC
  5
2A5
100
AcDbEntity
  8
0
100
AcDbCircle
 62
7
  6
CONTINUOUS
 10
4.803793928
 20
11.3248318604
 40
0.03
100
AcDbArc
 50
0.0
 51
90.0
  0
ARC
  5
2A6
100
AcDbEntity
  8
0
100
AcDbCircle
 62
7
  6
CONTINUOUS
 10
1.103793928
 20
11.3248318604
 40
0.03
100
AcDbArc
 50
90.0
 51
180.0
  0
ARC
  5
2A7
100
AcDbEntity
  8
0
100
AcDbCircle
 62
7
  6
CONTINUOUS
 10
4.923793928
 20
12.1323318604
 40
0.02
100
AcDbArc
 50
0.0
 51
90.0
  0
ARC
  5
2A8
100
AcDbEntity
  8
0
100
AcDbCircle
 62
7
  6
CONTINUOUS
 10
2.743793928
 20
12.1323318604
 40
0.02
100
AcDbArc
 50
90.0
 51
180.0
  0
ARC
  5
2A9
100
AcDbEntity
  8
0
100
AcDbCircle
 62
7
  6
CONTINUOUS
 10
19.6535457942
 20
10.6565746842
 40
0.3104711663
100
AcDbArc
 50
158.9496238775
 51
160.6519891693
  0
ARC
  5
2AA
100
AcDbEntity
  8
0
100
AcDbCircle
 62
7
  6
CONTINUOUS
 10
20.0146131508
 20
10.6567847949
 40
0.3098627196
100
AcDbArc
 50
19.3463393245
 51
21.0520476287
  0
ARC
  5
2AB
100
AcDbEntity
  8
0
100
AcDbCircle
 62
7
  6
CONTINUOUS
 10
19.6479650738
 20
10.6585181986
 40
0.3045617286
100
AcDbArc
 50
160.649135407
 51
165.0148020496
  0
ARC
  5
2AC
100
AcDbEntity
  8
0
100
AcDbCircle
 62
7
  6
CONTINUOUS
 10
20.0209912701
 20
10.6589409815
 40
0.3031304654
100
AcDbArc
 50
14.9746018547
 51
19.361175789
  0
ARC
  5
2AD
100
AcDbEntity
  8
0
100
AcDbCircle
 62
7
  6
CONTINUOUS
 10
10.863793928
 20
10.7598318604
 40
0.03
100
AcDbArc
 50
180.0
 51
270.0
  0
ARC
  5
2AE
100
AcDbEntity
  8
0
100
AcDbCircle
 62
7
  6
CONTINUOUS
 10
14.563793928
 20
10.7598318604
 40
0.03
100
AcDbArc
 50
270.0
 51
360.0
  0
ARC
  5
2AF
100
AcDbEntity
  8
0
100
AcDbCircle
 62
7
  6
CONTINUOUS
 10
14.863793928
 20
10.7598318604
 40
0.03
100
AcDbArc
 50
180.0
 51
270.0
  0
ARC
  5
2B0
100
AcDbEntity
  8
0
100
AcDbCircle
 62
7
  6
CONTINUOUS
 10
18.563793928
 20
10.7598318604
 40
0.03
100
AcDbArc
 50
270.0
 51
360.0
  0
ARC
  5
2B1
100
AcDbEntity
  8
0
100
AcDbCircle
 62
7
  6
CONTINUOUS
 10
12.923793928
 20
9.9523318604
 40
0.02
100
AcDbArc
 50
270.0
 51
360.0
  0
ARC
  5
2B2
100
AcDbEntity
  8
0
100
AcDbCircle
 62
7
  6
CONTINUOUS
 10
10.743793928
 20
9.9523318604
 40
0.02
100
AcDbArc
 50
180.0
 51
270.0
  0
ARC
  5
2B3
100
AcDbEntity
  8
0
100
AcDbCircle
 62
7
  6
CONTINUOUS
 10
16.923793928
 20
9.9523318604
 40
0.02
100
AcDbArc
 50
270.0
 51
360.0
  0
ARC
  5
2B4
100
AcDbEntity
  8
0
100
AcDbCircle
 62
7
  6
CONTINUOUS
 10
14.743793928
 20
9.9523318604
 40
0.02
100
AcDbArc
 50
180.0
 51
270.0
  0
ARC
  5
2B5
100
AcDbEntity
  8
0
100
AcDbCircle
 62
7
  6
CONTINUOUS
 10
14.563793928
 20
11.3248318604
 40
0.03
100
AcDbArc
 50
0.0
 51
90.0
  0
ARC
  5
2B6
100
AcDbEntity
  8
0
100
AcDbCircle
 62
7
  6
CONTINUOUS
 10
10.863793928
 20
11.3248318604
 40
0.03
100
AcDbArc
 50
90.0
 51
180.0
  0
ARC
  5
2B7
100
AcDbEntity
  8
0
100
AcDbCircle
 62
7
  6
CONTINUOUS
 10
14.863793928
 20
11.3248318604
 40
0.03
100
AcDbArc
 50
90.0
 51
180.0
  0
ARC
  5
2B8
100
AcDbEntity
  8
0
100
AcDbCircle
 62
7
  6
CONTINUOUS
 10
12.923793928
 20
12.1323318604
 40
0.02
100
AcDbArc
 50
0.0
 51
90.0
  0
ARC
  5
2B9
100
AcDbEntity
  8
0
100
AcDbCircle
 62
7
  6
CONTINUOUS
 10
10.743793928
 20
12.1323318604
 40
0.02
100
AcDbArc
 50
90.0
 51
180.0
  0
ARC
  5
2BA
100
AcDbEntity
  8
0
100
AcDbCircle
 62
7
  6
CONTINUOUS
 10
14.743793928
 20
12.1323318604
 40
0.02
100
AcDbArc
 50
90.0
 51
180.0
  0
ARC
  5
2BB
100
AcDbEntity
  8
0
100
AcDbCircle
 62
7
  6
CONTINUOUS
 10
18.563793928
 20
11.3248318604
 40
0.03
100
AcDbArc
 50
0.0
 51
90.0
  0
ARC
  5
2BC
100
AcDbEntity
  8
0
100
AcDbCircle
 62
7
  6
CONTINUOUS
 10
19.833793928
 20
11.0423318604
 40
1.1875
100
AcDbArc
 50
294.9050342942
 51
245.0949658216
  0
ARC
  5
2BD
100
AcDbEntity
  8
0
100
AcDbCircle
 62
7
  6
CONTINUOUS
 10
19.833793928
 20
11.0423318604
 40
0.5475
100
AcDbArc
 50
332.9401378731
 51
207.0598621269
  0
ARC
  5
2BE
100
AcDbEntity
  8
0
100
AcDbCircle
 62
9
  6
CONTINUOUS
 10
19.833793928
 20
11.0423318604
 40
0.5175
100
AcDbArc
 50
340.4301071549
 51
199.5698928451
  0
ARC
  5
2BF
100
AcDbEntity
  8
0
100
AcDbCircle
 62
7
  6
CONTINUOUS
 10
19.833793928
 20
11.0423318604
 40
0.4875
100
AcDbArc
 50
0.0
 51
180.0
  0
ARC
  5
2C0
100
AcDbEntity
  8
0
100
AcDbCircle
 62
7
  6
CONTINUOUS
 10
16.923793928
 20
12.1323318604
 40
0.02
100
AcDbArc
 50
0.0
 51
90.0
  0
SPLINE
  5
2C1
100
AcDbEntity
  8
0
100
AcDbSpline
 62
7
  6
CONTINUOUS
 70
0
 71
3
 72
23
 73
19
 74
0
 42
0.0000001
 43
0.0000001
 44
0.0000000001
 40
0.0
 40
0.0
 40
0.0
 40
0.0
 40
0.0567252977
 40
0.085167768
 40
0.1136897317
 40
0.1710455435
 40
0.2290153614
 40
0.2582987512
 40
0.2877999498
 40
0.3475026491
 40
0.4082625348
 40
0.470153673
 40
0.5332047242
 40
0.5973971587
 40
0.6626662708
 40
0.7289043435
 40
0.8635681598
 40
1.0
 40
1.0
 40
1.0
 40
1.0
 10
19.370293928
 20
4.6152190185
 30
0.0
 10
19.370293928
 20
4.6130792569
 30
0.0
 10
19.3704967742
 20
4.6098618886
 30
0.0
 10
19.3711666894
 20
4.605624026
 30
0.0
 10
19.3721027806
 20
4.601411912
 30
0.0
 10
19.3737679439
 20
4.5962326366
 30
0.0
 10
19.3760508466
 20
4.5912639127
 30
0.0
 10
19.3782278874
 20
4.587433145
 30
0.0
 10
19.3806526113
 20
4.5836760398
 30
0.0
 10
19.3841111819
 20
4.5791844547
 30
0.0
 10
19.3888652075
 20
4.5741967997
 30
0.0
 10
19.3941893775
 20
4.5696273329
 30
0.0
 10
19.4000293818
 20
4.5655113277
 30
0.0
 10
19.4063287071
 20
4.5618793479
 30
0.0
 10
19.4130287105
 20
4.5587582319
 30
0.0
 10
19.4224621447
 20
4.5552913288
 30
0.0
 10
19.4349052451
 20
4.5523741885
 30
0.0
 10
19.4451475186
 20
4.5515959074
 30
0.0
 10
19.450293928
 20
4.5515959074
 30
0.0
  0
SPLINE
  5
2C2
100
AcDbEntity
  8
0
100
AcDbSpline
 62
7
  6
CONTINUOUS
 70
0
 71
3
 72
23
 73
19
 74
0
 42
0.0000001
 43
0.0000001
 44
0.0000000001
 40
0.0
 40
0.0
 40
0.0
 40
0.0
 40
0.1364322742
 40
0.2710962527
 40
0.337334335
 40
0.4026034104
 40
0.4667957638
 40
0.5298467014
 40
0.5917376989
 40
0.6524974371
 40
0.7121999943
 40
0.7417011282
 40
0.7709844652
 40
0.8289542125
 40
0.8863100157
 40
0.9148319962
 40
0.9432745226
 40
1.0
 40
1.0
 40
1.0
 40
1.0
 10
20.217293928
 20
4.5515959074
 30
0.0
 10
20.2224403537
 20
4.5515959074
 30
0.0
 10
20.23268265
 20
4.5523741924
 30
0.0
 10
20.245125771
 20
4.5552913461
 30
0.0
 10
20.2545592073
 20
4.558758258
 30
0.0
 10
20.2612592048
 20
4.561879377
 30
0.0
 10
20.2675585199
 20
4.5655113569
 30
0.0
 10
20.2733985113
 20
4.5696273585
 30
0.0
 10
20.2787226674
 20
4.5741968179
 30
0.0
 10
20.2834766805
 20
4.5791844624
 30
0.0
 10
20.2869352421
 20
4.5836760374
 30
0.0
 10
20.2893599621
 20
4.5874331334
 30
0.0
 10
20.2915369994
 20
4.5912638949
 30
0.0
 10
20.2938199026
 20
4.5962326131
 30
0.0
 10
20.2954850674
 20
4.6014118854
 30
0.0
 10
20.2964211623
 20
4.6056240011
 30
0.0
 10
20.2970910802
 20
4.6098618729
 30
0.0
 10
20.297293928
 20
4.6130792502
 30
0.0
 10
20.297293928
 20
4.6152190185
 30
0.0
  0
SPLINE
  5
2C3
100
AcDbEntity
  8
0
100
AcDbSpline
 62
7
  6
CONTINUOUS
 70
0
 71
3
 72
20
 73
16
 74
0
 42
0.0000001
 43
0.0000001
 44
0.0000000001
 40
0.0
 40
0.0
 40
0.0
 40
0.0
 40
0.1356164856
 40
0.2695547903
 40
0.3354942365
 40
0.4005235598
 40
0.5273781061
 40
0.5892730737
 40
0.6501346309
 40
0.7100395638
 40
0.7691006126
 40
0.8274592438
 40
0.8852779956
 40
0.9427306853
 40
1.0
 40
1.0
 40
1.0
 40
1.0
 10
20.268793928
 20
10.7516256458
 30
0.0
 10
20.2729646786
 20
10.7516256458
 30
0.0
 10
20.2812678717
 20
10.7509918177
 30
0.0
 10
20.291354878
 20
10.7486162927
 30
0.0
 10
20.2990059706
 20
10.7457914124
 30
0.0
 10
20.306193793
 20
10.7424281564
 30
0.0
 10
20.3128189515
 20
10.7382050104
 30
0.0
 10
20.3186393698
 20
10.7331843374
 30
0.0
 10
20.3225119945
 20
10.7291007736
 30
0.0
 10
20.3258815522
 20
10.7247020446
 30
0.0
 10
20.3287077673
 20
10.7200245643
 30
0.0
 10
20.330952641
 20
10.7151115827
 30
0.0
 10
20.3325829923
 20
10.7100128879
 30
0.0
 10
20.3335725964
 20
10.7047865652
 30
0.0
 10
20.333793928
 20
10.7012544624
 30
0.0
 10
20.333793928
 20
10.6994932014
 30
0.0
  0
SPLINE
  5
2C4
100
AcDbEntity
  8
0
100
AcDbSpline
 62
7
  6
CONTINUOUS
 70
0
 71
3
 72
20
 73
16
 74
0
 42
0.0000001
 43
0.0000001
 44
0.0000000001
 40
0.0
 40
0.0
 40
0.0
 40
0.0
 40
0.0572690483
 40
0.1147216304
 40
0.1725403999
 40
0.230899133
 40
0.289960355
 40
0.3498655006
 40
0.4107272784
 40
0.4726224467
 40
0.5994772814
 40
0.6645066542
 40
0.7304460837
 40
0.8643841531
 40
1.0
 40
1.0
 40
1.0
 40
1.0
 10
19.333793928
 20
10.6994932014
 30
0.0
 10
19.333793928
 20
10.7012544542
 30
0.0
 10
19.3340152573
 20
10.7047865454
 30
0.0
 10
19.3350048554
 20
10.7100128581
 30
0.0
 10
19.3366352032
 20
10.7151115545
 30
0.0
 10
19.3388800784
 20
10.7200245454
 30
0.0
 10
19.3417063
 20
10.7247020395
 30
0.0
 10
19.3450758691
 20
10.7291007832
 30
0.0
 10
19.3489485088
 20
10.73318436
 30
0.0
 10
19.354768947
 20
10.7382050434
 30
0.0
 10
19.3613941246
 20
10.7424281909
 30
0.0
 10
19.3685819598
 20
10.7457914427
 30
0.0
 10
19.3762330495
 20
10.748616313
 30
0.0
 10
19.3863200311
 20
10.7509918226
 30
0.0
 10
19.3946231971
 20
10.7516256458
 30
0.0
 10
19.398793928
 20
10.7516256458
 30
0.0
  0
SPLINE
  5
2C5
100
AcDbEntity
  8
0
100
AcDbSpline
 62
7
  6
CONTINUOUS
 70
0
 71
3
 72
20
 73
16
 74
0
 42
0.0000001
 43
0.0000001
 44
0.0000000001
 40
0.0
 40
0.0
 40
0.0
 40
0.0
 40
0.1356164856
 40
0.2695547903
 40
0.3354942365
 40
0.4005235598
 40
0.5273781061
 40
0.5892730737
 40
0.6501346309
 40
0.7100395638
 40
0.7691006126
 40
0.8274592438
 40
0.8852779956
 40
0.9427306853
 40
1.0
 40
1.0
 40
1.0
 40
1.0
 10
19.398793928
 20
4.5300631614
 30
0.0
 10
19.3946231774
 20
4.5300631614
 30
0.0
 10
19.3863199843
 20
4.5306969894
 30
0.0
 10
19.376232978
 20
4.5330725145
 30
0.0
 10
19.3685818854
 20
4.5358973948
 30
0.0
 10
19.361394063
 20
4.5392606507
 30
0.0
 10
19.3547689045
 20
4.5434837968
 30
0.0
 10
19.3489484862
 20
4.5485044697
 30
0.0
 10
19.3450758615
 20
4.5525880335
 30
0.0
 10
19.3417063038
 20
4.5569867625
 30
0.0
 10
19.3388800887
 20
4.5616642428
 30
0.0
 10
19.336635215
 20
4.5665772244
 30
0.0
 10
19.3350048637
 20
4.5716759193
 30
0.0
 10
19.3340152596
 20
4.576902242
 30
0.0
 10
19.333793928
 20
4.5804343447
 30
0.0
 10
19.333793928
 20
4.5821956057
 30
0.0
  0
SPLINE
  5
2C6
100
AcDbEntity
  8
0
100
AcDbSpline
 62
7
  6
CONTINUOUS
 70
0
 71
3
 72
20
 73
16
 74
0
 42
0.0000001
 43
0.0000001
 44
0.0000000001
 40
0.0
 40
0.0
 40
0.0
 40
0.0
 40
0.0572690483
 40
0.1147216304
 40
0.1725403999
 40
0.230899133
 40
0.289960355
 40
0.3498655006
 40
0.4107272784
 40
0.4726224467
 40
0.5994772814
 40
0.6645066542
 40
0.7304460837
 40
0.8643841531
 40
1.0
 40
1.0
 40
1.0
 40
1.0
 10
20.333793928
 20
4.5821956057
 30
0.0
 10
20.333793928
 20
4.5804343529
 30
0.0
 10
20.3335725987
 20
4.5769022617
 30
0.0
 10
20.3325830006
 20
4.571675949
 30
0.0
 10
20.3309526528
 20
4.5665772526
 30
0.0
 10
20.3287077776
 20
4.5616642617
 30
0.0
 10
20.325881556
 20
4.5569867677
 30
0.0
 10
20.3225119868
 20
4.5525880239
 30
0.0
 10
20.3186393472
 20
4.5485044471
 30
0.0
 10
20.312818909
 20
4.5434837638
 30
0.0
 10
20.3061937314
 20
4.5392606162
 30
0.0
 10
20.2990058962
 20
4.5358973645
 30
0.0
 10
20.2913548065
 20
4.5330724942
 30
0.0
 10
20.2812678249
 20
4.5306969845
 30
0.0
 10
20.2729646589
 20
4.5300631614
 30
0.0
 10
20.268793928
 20
4.5300631614
 30
0.0
  0
SPLINE
  5
2C7
100
AcDbEntity
  8
0
100
AcDbSpline
 62
7
  6
CONTINUOUS
 70
0
 71
3
 72
51
 73
47
 74
0
 42
0.0000001
 43
0.0000001
 44
0.0000000001
 40
0.0
 40
0.0
 40
0.0
 40
0.0
 40
0.0137385575
 40
0.0274968538
 40
0.0412933088
 40
0.0551470242
 40
0.069075852
 40
0.0830968869
 40
0.0972261485
 40
0.1114783716
 40
0.1258668877
 40
0.1404034692
 40
0.1550982326
 40
0.1699595663
 40
0.200196584
 40
0.2311561351
 40
0.2628402858
 40
0.2952235775
 40
0.3282553615
 40
0.3618626585
 40
0.3959535252
 40
0.4304206453
 40
0.4651450823
 40
0.5000001268
 40
0.5348551692
 40
0.5695795997
 40
0.6040467092
 40
0.638137562
 40
0.6717448409
 40
0.704776605
 40
0.7371598734
 40
0.7688440004
 40
0.7998035264
 40
0.8300405198
 40
0.8449018416
 40
0.8595965935
 40
0.8741331642
 40
0.8885216703
 40
0.9027738843
 40
0.9169031375
 40
0.9309241652
 40
0.9448529869
 40
0.9587066975
 40
0.9725031488
 40
0.9862614432
 40
1.0
 40
1.0
 40
1.0
 40
1.0
 10
20.323793928
 20
10.7455085583
 30
0.0
 10
20.323793928
 20
10.7517918323
 30
0.0
 10
20.3233927684
 20
10.7643710793
 30
0.0
 10
20.3215901416
 20
10.7831823172
 30
0.0
 10
20.3185919237
 20
10.8018943752
 30
0.0
 10
20.3144076062
 20
10.8204569401
 30
0.0
 10
20.3090498144
 20
10.8388222265
 30
0.0
 10
20.3025347588
 20
10.8569431984
 30
0.0
 10
20.2948816246
 20
10.8747743769
 30
0.0
 10
20.2861123827
 20
10.892271757
 30
0.0
 10
20.2762516087
 20
10.9093929794
 30
0.0
 10
20.2653265303
 20
10.9260972379
 30
0.0
 10
20.2533660008
 20
10.9423458593
 30
0.0
 10
20.2359835006
 20
10.9634708155
 30
0.0
 10
20.2117744817
 20
10.9885425236
 30
0.0
 10
20.1793172741
 20
11.0160468803
 30
0.0
 10
20.1435972778
 20
11.0409128473
 30
0.0
 10
20.1049605875
 20
11.0629215785
 30
0.0
 10
20.0637738524
 20
11.0818823253
 30
0.0
 10
20.0204258922
 20
11.0976291545
 30
0.0
 10
19.9753243805
 20
11.1100238334
 30
0.0
 10
19.9288929834
 20
11.1189566597
 30
0.0
 10
19.8815678841
 20
11.1243484789
 30
0.0
 10
19.8337937547
 20
11.1261510362
 30
0.0
 10
19.7860196294
 20
11.1243484513
 30
0.0
 10
19.7386945412
 20
11.1189566112
 30
0.0
 10
19.6922631641
 20
11.1100237569
 30
0.0
 10
19.6471616757
 20
11.0976290662
 30
0.0
 10
19.6038137487
 20
11.0818822158
 30
0.0
 10
19.5626270452
 20
11.0629214674
 30
0.0
 10
19.5239903953
 20
11.0409127273
 30
0.0
 10
19.4882704333
 20
11.0160467688
 30
0.0
 10
19.4558132653
 20
10.9885424172
 30
0.0
 10
19.4316042715
 20
10.9634707242
 30
0.0
 10
19.4142217936
 20
10.9423457778
 30
0.0
 10
19.4022612767
 20
10.9260971667
 30
0.0
 10
19.3913362093
 20
10.9093929186
 30
0.0
 10
19.3814754458
 20
10.8922717059
 30
0.0
 10
19.372706213
 20
10.8747743354
 30
0.0
 10
19.3650530847
 20
10.8569431667
 30
0.0
 10
19.358538034
 20
10.8388222036
 30
0.0
 10
19.3531802459
 20
10.8204569247
 30
0.0
 10
19.3489959308
 20
10.8018943661
 30
0.0
 10
19.3459977137
 20
10.7831823128
 30
0.0
 10
19.3441950875
 20
10.7643710778
 30
0.0
 10
19.343793928
 20
10.7517918319
 30
0.0
 10
19.343793928
 20
10.7455085583
 30
0.0
  0
SPLINE
  5
2C8
100
AcDbEntity
  8
0
100
AcDbSpline
 62
9
  6
CONTINUOUS
 70
0
 71
3
 72
17
 73
13
 74
0
 42
0.0000001
 43
0.0000001
 44
0.0000000001
 40
0.0
 40
0.0
 40
0.0
 40
0.0
 40
0.1218023066
 40
0.1837802205
 40
0.2463322698
 40
0.3726862226
 40
0.5
 40
0.6273137774
 40
0.7536677302
 40
0.8162197795
 40
0.8781976934
 40
1.0
 40
1.0
 40
1.0
 40
1.0
 10
19.5909624631
 20
10.7516614415
 30
0.0
 10
19.6093979795
 20
10.7601835205
 30
0.0
 10
19.6380055705
 20
10.7714095205
 30
0.0
 10
19.6773642961
 20
10.7832050442
 30
0.0
 10
19.7180494546
 20
10.7930216264
 30
0.0
 10
19.7702402322
 20
10.8012446612
 30
0.0
 10
19.833793928
 20
10.8045407265
 30
0.0
 10
19.8973476239
 20
10.8012446612
 30
0.0
 10
19.9495384014
 20
10.7930216264
 30
0.0
 10
19.9902235599
 20
10.7832050442
 30
0.0
 10
20.0295822856
 20
10.7714095205
 30
0.0
 10
20.0581898765
 20
10.7601835204
 30
0.0
 10
20.076625393
 20
10.7516614415
 30
0.0
  0
SPLINE
  5
2C9
100
AcDbEntity
  8
0
100
AcDbSpline
 62
9
  6
CONTINUOUS
 70
0
 71
3
 72
21
 73
17
 74
0
 42
0.0000001
 43
0.0000001
 44
0.0000000001
 40
0.0
 40
0.0
 40
0.0
 40
0.0
 40
0.0596420856
 40
0.120366684
 40
0.1820649281
 40
0.2446067965
 40
0.3715490491
 40
0.435683148
 40
0.5
 40
0.564316852
 40
0.6284509509
 40
0.7553932035
 40
0.8179350719
 40
0.879633316
 40
0.9403579144
 40
1.0
 40
1.0
 40
1.0
 40
1.0
 10
19.5315789107
 20
10.75171905
 30
0.0
 10
19.5423608759
 20
10.7581906826
 30
0.0
 10
19.5646262276
 20
10.7704268203
 30
0.0
 10
19.5995484347
 20
10.7864372535
 30
0.0
 10
19.6360826244
 20
10.8001750167
 30
0.0
 10
19.686837651
 20
10.8154054213
 30
0.0
 10
19.7395133051
 20
10.8256162874
 30
0.0
 10
19.793141845
 20
10.8307544046
 30
0.0
 10
19.833793928
 20
10.8320472773
 30
0.0
 10
19.8744460109
 20
10.8307544046
 30
0.0
 10
19.9280745508
 20
10.8256162874
 30
0.0
 10
19.980750205
 20
10.8154054213
 30
0.0
 10
20.0315052316
 20
10.8001750167
 30
0.0
 10
20.0680394213
 20
10.7864372535
 30
0.0
 10
20.1029616283
 20
10.7704268203
 30
0.0
 10
20.12522698
 20
10.7581906826
 30
0.0
 10
20.1360089452
 20
10.75171905
 30
0.0
  0
SPLINE
  5
2CA
100
AcDbEntity
  8
0
100
AcDbSpline
 62
9
  6
CONTINUOUS
 70
0
 71
3
 72
21
 73
17
 74
0
 42
0.0000001
 43
0.0000001
 44
0.0000000001
 40
0.0
 40
0.0
 40
0.0
 40
0.0
 40
0.1405220478
 40
0.2101410161
 40
0.2789543092
 40
0.4131356838
 40
0.4782490759
 40
0.5418290916
 40
0.6038066037
 40
0.6641710918
 40
0.7229757449
 40
0.7803401779
 40
0.8364513197
 40
0.8915560546
 40
0.945960626
 40
1.0
 40
1.0
 40
1.0
 40
1.0
 10
20.268793928
 20
10.7492860902
 30
0.0
 10
20.2730329273
 20
10.7492860902
 30
0.0
 10
20.2793860311
 20
10.7488108339
 30
0.0
 10
20.2876570644
 20
10.7472265559
 30
0.0
 10
20.2955955682
 20
10.7450556007
 30
0.0
 10
20.3031304927
 20
10.7419970809
 30
0.0
 10
20.3100364853
 20
10.7380825474
 30
0.0
 10
20.3147719622
 20
10.734802832
 30
0.0
 10
20.3190667286
 20
10.7311822254
 30
0.0
 10
20.3228797148
 20
10.7272545502
 30
0.0
 10
20.3261735255
 20
10.7230568969
 30
0.0
 10
20.328915658
 20
10.7186290033
 30
0.0
 10
20.3310784135
 20
10.7140132374
 30
0.0
 10
20.332639819
 20
10.7092538641
 30
0.0
 10
20.3335832388
 20
10.7043985086
 30
0.0
 10
20.333793928
 20
10.7011233575
 30
0.0
 10
20.333793928
 20
10.6994932014
 30
0.0
  0
SPLINE
  5
2CB
100
AcDbEntity
  8
0
100
AcDbSpline
 62
9
  6
CONTINUOUS
 70
0
 71
3
 72
21
 73
17
 74
0
 42
0.0000001
 43
0.0000001
 44
0.0000000001
 40
0.0
 40
0.0
 40
0.0
 40
0.0
 40
0.054039374
 40
0.1084439454
 40
0.1635486803
 40
0.2196598221
 40
0.2770242551
 40
0.3358289082
 40
0.3961933963
 40
0.4581709084
 40
0.5217509241
 40
0.5868643162
 40
0.7210456908
 40
0.7898589839
 40
0.8594779522
 40
1.0
 40
1.0
 40
1.0
 40
1.0
 10
20.333793928
 20
5.2486542712
 30
0.0
 10
20.333793928
 20
5.2502844273
 30
0.0
 10
20.3335832388
 20
5.2535595785
 30
0.0
 10
20.332639819
 20
5.258414934
 30
0.0
 10
20.3310784135
 20
5.2631743072
 30
0.0
 10
20.328915658
 20
5.2677900732
 30
0.0
 10
20.3261735255
 20
5.2722179667
 30
0.0
 10
20.3228797148
 20
5.27641562
 30
0.0
 10
20.3190667286
 20
5.2803432953
 30
0.0
 10
20.3147719622
 20
5.2839639019
 30
0.0
 10
20.3100364853
 20
5.2872436173
 30
0.0
 10
20.3031304927
 20
5.2911581508
 30
0.0
 10
20.2955955682
 20
5.2942166706
 30
0.0
 10
20.2876570644
 20
5.2963876257
 30
0.0
 10
20.2793860311
 20
5.2979719038
 30
0.0
 10
20.2730329273
 20
5.29844716
 30
0.0
 10
20.268793928
 20
5.2984471601
 30
0.0
  0
SPLINE
  5
2CC
100
AcDbEntity
  8
0
100
AcDbSpline
 62
9
  6
CONTINUOUS
 70
0
 71
3
 72
21
 73
17
 74
0
 42
0.0000001
 43
0.0000001
 44
0.0000000001
 40
0.0
 40
0.0
 40
0.0
 40
0.0
 40
0.054039374
 40
0.1084439454
 40
0.1635486803
 40
0.2196598221
 40
0.2770242551
 40
0.3358289082
 40
0.3961933963
 40
0.4581709084
 40
0.5217509241
 40
0.5868643162
 40
0.7210456908
 40
0.7898589839
 40
0.8594779522
 40
1.0
 40
1.0
 40
1.0
 40
1.0
 10
19.333793928
 20
10.6994932014
 30
0.0
 10
19.333793928
 20
10.7011233575
 30
0.0
 10
19.3340046172
 20
10.7043985086
 30
0.0
 10
19.334948037
 20
10.7092538641
 30
0.0
 10
19.3365094425
 20
10.7140132374
 30
0.0
 10
19.338672198
 20
10.7186290033
 30
0.0
 10
19.3414143305
 20
10.7230568969
 30
0.0
 10
19.3447081412
 20
10.7272545502
 30
0.0
 10
19.3485211274
 20
10.7311822254
 30
0.0
 10
19.3528158938
 20
10.734802832
 30
0.0
 10
19.3575513707
 20
10.7380825474
 30
0.0
 10
19.3644573633
 20
10.7419970809
 30
0.0
 10
19.3719922878
 20
10.7450556007
 30
0.0
 10
19.3799307916
 20
10.7472265559
 30
0.0
 10
19.3882018249
 20
10.7488108339
 30
0.0
 10
19.3945549287
 20
10.7492860902
 30
0.0
 10
19.398793928
 20
10.7492860902
 30
0.0
  0
SPLINE
  5
2CD
100
AcDbEntity
  8
0
100
AcDbSpline
 62
9
  6
CONTINUOUS
 70
0
 71
3
 72
21
 73
17
 74
0
 42
0.0000001
 43
0.0000001
 44
0.0000000001
 40
0.0
 40
0.0
 40
0.0
 40
0.0
 40
0.1405220478
 40
0.2101410161
 40
0.2789543092
 40
0.4131356838
 40
0.4782490759
 40
0.5418290916
 40
0.6038066037
 40
0.6641710918
 40
0.7229757449
 40
0.7803401779
 40
0.8364513197
 40
0.8915560546
 40
0.945960626
 40
1.0
 40
1.0
 40
1.0
 40
1.0
 10
19.398793928
 20
5.2984471601
 30
0.0
 10
19.3945549287
 20
5.29844716
 30
0.0
 10
19.3882018249
 20
5.2979719038
 30
0.0
 10
19.3799307916
 20
5.2963876257
 30
0.0
 10
19.3719922878
 20
5.2942166706
 30
0.0
 10
19.3644573633
 20
5.2911581508
 30
0.0
 10
19.3575513707
 20
5.2872436173
 30
0.0
 10
19.3528158938
 20
5.2839639019
 30
0.0
 10
19.3485211274
 20
5.2803432953
 30
0.0
 10
19.3447081412
 20
5.27641562
 30
0.0
 10
19.3414143305
 20
5.2722179667
 30
0.0
 10
19.338672198
 20
5.2677900732
 30
0.0
 10
19.3365094425
 20
5.2631743072
 30
0.0
 10
19.334948037
 20
5.258414934
 30
0.0
 10
19.3340046172
 20
5.2535595785
 30
0.0
 10
19.333793928
 20
5.2502844273
 30
0.0
 10
19.333793928
 20
5.2486542712
 30
0.0
  0
SPLINE
  5
2CE
100
AcDbEntity
  8
0
100
AcDbSpline
 62
9
  6
CONTINUOUS
 70
0
 71
3
 72
21
 73
17
 74
0
 42
0.0000001
 43
0.0000001
 44
0.0000000001
 40
0.0
 40
0.0
 40
0.0
 40
0.0
 40
0.0540383147
 40
0.1084418043
 40
0.1635466401
 40
0.2196580828
 40
0.277023079
 40
0.3358282945
 40
0.3961931782
 40
0.4581709115
 40
0.5217511611
 40
0.5868650073
 40
0.721047799
 40
0.7898615253
 40
0.8594806966
 40
1.0
 40
1.0
 40
1.0
 40
1.0
 10
20.323793928
 20
5.2422263952
 30
0.0
 10
20.323793928
 20
5.2436057309
 30
0.0
 10
20.3236156687
 20
5.2463769588
 30
0.0
 10
20.3228174032
 20
5.2504852856
 30
0.0
 10
20.3214962465
 20
5.2545124397
 30
0.0
 10
20.3196662211
 20
5.258418115
 30
0.0
 10
20.3173459475
 20
5.2621648323
 30
0.0
 10
20.3145588588
 20
5.2657167285
 30
0.0
 10
20.3113324679
 20
5.2690401707
 30
0.0
 10
20.3076984185
 20
5.2721037756
 30
0.0
 10
20.3036914569
 20
5.2748789318
 30
0.0
 10
20.2978478751
 20
5.2781912516
 30
0.0
 10
20.2914721093
 20
5.2807792391
 30
0.0
 10
20.2847548597
 20
5.2826162032
 30
0.0
 10
20.2777563408
 20
5.2839567102
 30
0.0
 10
20.2723807035
 20
5.2843588395
 30
0.0
 10
20.268793928
 20
5.2843588395
 30
0.0
  0
SPLINE
  5
2CF
100
AcDbEntity
  8
0
100
AcDbSpline
 62
9
  6
CONTINUOUS
 70
0
 71
3
 72
16
 73
12
 74
0
 42
0.0000001
 43
0.0000001
 44
0.0000000001
 40
0.0
 40
0.0
 40
0.0
 40
0.0
 40
0.1499359137
 40
0.2965207911
 40
0.4367331031
 40
0.5681393902
 40
0.6892989886
 40
0.8001541501
 40
0.9024174118
 40
0.9515511933
 40
1.0
 40
1.0
 40
1.0
 40
1.0
 10
20.323793928
 20
5.2422263952
 30
0.0
 10
20.3244455499
 20
5.2422263952
 30
0.0
 10
20.3257357625
 20
5.2423071033
 30
0.0
 10
20.327604637
 20
5.2426672961
 30
0.0
 10
20.3293318413
 20
5.2432530341
 30
0.0
 10
20.3308531784
 20
5.2440437295
 30
0.0
 10
20.332112556
 20
5.2450131027
 30
0.0
 10
20.3330614213
 20
5.2461295456
 30
0.0
 10
20.3335643402
 20
5.2471701089
 30
0.0
 10
20.3337611192
 20
5.2480189015
 30
0.0
 10
20.333793928
 20
5.2484437137
 30
0.0
 10
20.333793928
 20
5.2486542724
 30
0.0
  0
SPLINE
  5
2D0
100
AcDbEntity
  8
0
100
AcDbSpline
 62
9
  6
CONTINUOUS
 70
0
 71
3
 72
16
 73
12
 74
0
 42
0.0000001
 43
0.0000001
 44
0.0000000001
 40
0.0
 40
0.0
 40
0.0
 40
0.0
 40
0.1499359263
 40
0.2965208159
 40
0.4367331396
 40
0.5681394376
 40
0.6892990468
 40
0.8001542149
 40
0.9024174938
 40
0.95155123
 40
1.0
 40
1.0
 40
1.0
 40
1.0
 10
20.323793928
 20
4.5757677296
 30
0.0
 10
20.3244455499
 20
4.5757677296
 30
0.0
 10
20.3257357625
 20
4.5758484378
 30
0.0
 10
20.327604637
 20
4.5762086305
 30
0.0
 10
20.3293318413
 20
4.5767943686
 30
0.0
 10
20.3308531784
 20
4.577585064
 30
0.0
 10
20.3321125559
 20
4.5785544372
 30
0.0
 10
20.3330614214
 20
4.5796708801
 30
0.0
 10
20.33356434
 20
4.5807114432
 30
0.0
 10
20.3337611192
 20
4.5815602354
 30
0.0
 10
20.333793928
 20
4.5819850472
 30
0.0
 10
20.333793928
 20
4.5821956057
 30
0.0
  0
SPLINE
  5
2D1
100
AcDbEntity
  8
0
100
AcDbSpline
 62
9
  6
CONTINUOUS
 70
0
 71
3
 72
21
 73
17
 74
0
 42
0.0000001
 43
0.0000001
 44
0.0000000001
 40
0.0
 40
0.0
 40
0.0
 40
0.0
 40
0.1405193033
 40
0.2101384747
 40
0.2789522009
 40
0.4131349926
 40
0.4782488388
 40
0.5418290885
 40
0.6038068218
 40
0.6641717054
 40
0.7229769209
 40
0.7803419171
 40
0.8364533598
 40
0.8915581957
 40
0.9459616852
 40
1.0
 40
1.0
 40
1.0
 40
1.0
 10
20.268793928
 20
4.5336352853
 30
0.0
 10
20.2723807035
 20
4.5336352853
 30
0.0
 10
20.2777563408
 20
4.5340374146
 30
0.0
 10
20.2847548597
 20
4.5353779216
 30
0.0
 10
20.2914721093
 20
4.5372148857
 30
0.0
 10
20.2978478751
 20
4.5398028732
 30
0.0
 10
20.3036914569
 20
4.5431151929
 30
0.0
 10
20.3076984185
 20
4.5458903492
 30
0.0
 10
20.3113324679
 20
4.5489539541
 30
0.0
 10
20.3145588588
 20
4.5522773963
 30
0.0
 10
20.3173459475
 20
4.5558292925
 30
0.0
 10
20.319666221
 20
4.5595760098
 30
0.0
 10
20.3214962465
 20
4.5634816851
 30
0.0
 10
20.3228174032
 20
4.5675088392
 30
0.0
 10
20.3236156687
 20
4.571617166
 30
0.0
 10
20.323793928
 20
4.5743883938
 30
0.0
 10
20.323793928
 20
4.5757677296
 30
0.0
  0
SPLINE
  5
2D2
100
AcDbEntity
  8
0
100
AcDbSpline
 62
9
  6
CONTINUOUS
 70
0
 71
3
 72
21
 73
17
 74
0
 42
0.0000001
 43
0.0000001
 44
0.0000000001
 40
0.0
 40
0.0
 40
0.0
 40
0.0
 40
0.0540383147
 40
0.1084418043
 40
0.1635466401
 40
0.2196580828
 40
0.277023079
 40
0.3358282945
 40
0.3961931782
 40
0.4581709115
 40
0.5217511611
 40
0.5868650073
 40
0.721047799
 40
0.7898615253
 40
0.8594806966
 40
1.0
 40
1.0
 40
1.0
 40
1.0
 10
19.343793928
 20
4.5757677296
 30
0.0
 10
19.343793928
 20
4.5743883938
 30
0.0
 10
19.3439721873
 20
4.571617166
 30
0.0
 10
19.3447704528
 20
4.5675088392
 30
0.0
 10
19.3460916095
 20
4.5634816851
 30
0.0
 10
19.3479216349
 20
4.5595760098
 30
0.0
 10
19.3502419085
 20
4.5558292925
 30
0.0
 10
19.3530289972
 20
4.5522773963
 30
0.0
 10
19.3562553881
 20
4.5489539541
 30
0.0
 10
19.3598894374
 20
4.5458903492
 30
0.0
 10
19.3638963991
 20
4.5431151929
 30
0.0
 10
19.3697399809
 20
4.5398028732
 30
0.0
 10
19.3761157467
 20
4.5372148857
 30
0.0
 10
19.3828329963
 20
4.5353779216
 30
0.0
 10
19.3898315152
 20
4.5340374146
 30
0.0
 10
19.3952071525
 20
4.5336352853
 30
0.0
 10
19.398793928
 20
4.5336352853
 30
0.0
  0
SPLINE
  5
2D3
100
AcDbEntity
  8
0
100
AcDbSpline
 62
9
  6
CONTINUOUS
 70
0
 71
3
 72
16
 73
12
 74
0
 42
0.0000001
 43
0.0000001
 44
0.0000000001
 40
0.0
 40
0.0
 40
0.0
 40
0.0
 40
0.1499359388
 40
0.2965208407
 40
0.4367331762
 40
0.5681394851
 40
0.6892991051
 40
0.8001542796
 40
0.9024175757
 40
0.9515512667
 40
1.0
 40
1.0
 40
1.0
 40
1.0
 10
19.343793928
 20
4.5757677296
 30
0.0
 10
19.343142306
 20
4.5757677296
 30
0.0
 10
19.3418520935
 20
4.5758484378
 30
0.0
 10
19.339983219
 20
4.5762086305
 30
0.0
 10
19.3382560147
 20
4.5767943686
 30
0.0
 10
19.3367346776
 20
4.577585064
 30
0.0
 10
19.3354753001
 20
4.5785544373
 30
0.0
 10
19.3345264345
 20
4.5796708801
 30
0.0
 10
19.3340235162
 20
4.5807114431
 30
0.0
 10
19.3338267367
 20
4.5815602349
 30
0.0
 10
19.333793928
 20
4.5819850463
 30
0.0
 10
19.333793928
 20
4.5821956046
 30
0.0
  0
SPLINE
  5
2D4
100
AcDbEntity
  8
0
100
AcDbSpline
 62
9
  6
CONTINUOUS
 70
0
 71
3
 72
16
 73
12
 74
0
 42
0.0000001
 43
0.0000001
 44
0.0000000001
 40
0.0
 40
0.0
 40
0.0
 40
0.0
 40
0.1499359263
 40
0.2965208159
 40
0.4367331396
 40
0.5681394376
 40
0.6892990468
 40
0.8001542149
 40
0.9024174938
 40
0.95155123
 40
1.0
 40
1.0
 40
1.0
 40
1.0
 10
19.343793928
 20
5.2422263952
 30
0.0
 10
19.343142306
 20
5.2422263952
 30
0.0
 10
19.3418520935
 20
5.2423071033
 30
0.0
 10
19.339983219
 20
5.2426672961
 30
0.0
 10
19.3382560147
 20
5.2432530341
 30
0.0
 10
19.3367346776
 20
5.2440437295
 30
0.0
 10
19.3354753001
 20
5.2450131028
 30
0.0
 10
19.3345264346
 20
5.2461295456
 30
0.0
 10
19.334023516
 20
5.2471701087
 30
0.0
 10
19.3338267368
 20
5.2480189009
 30
0.0
 10
19.333793928
 20
5.2484437128
 30
0.0
 10
19.333793928
 20
5.2486542712
 30
0.0
  0
SPLINE
  5
2D5
100
AcDbEntity
  8
0
100
AcDbSpline
 62
9
  6
CONTINUOUS
 70
0
 71
3
 72
21
 73
17
 74
0
 42
0.0000001
 43
0.0000001
 44
0.0000000001
 40
0.0
 40
0.0
 40
0.0
 40
0.0
 40
0.1405193033
 40
0.2101384747
 40
0.2789522009
 40
0.4131349926
 40
0.4782488388
 40
0.5418290885
 40
0.6038068218
 40
0.6641717054
 40
0.7229769209
 40
0.7803419171
 40
0.8364533598
 40
0.8915581957
 40
0.9459616852
 40
1.0
 40
1.0
 40
1.0
 40
1.0
 10
19.398793928
 20
5.2843588395
 30
0.0
 10
19.3952071525
 20
5.2843588395
 30
0.0
 10
19.3898315152
 20
5.2839567102
 30
0.0
 10
19.3828329963
 20
5.2826162032
 30
0.0
 10
19.3761157467
 20
5.2807792391
 30
0.0
 10
19.3697399809
 20
5.2781912516
 30
0.0
 10
19.3638963991
 20
5.2748789319
 30
0.0
 10
19.3598894374
 20
5.2721037756
 30
0.0
 10
19.3562553881
 20
5.2690401707
 30
0.0
 10
19.3530289972
 20
5.2657167285
 30
0.0
 10
19.3502419085
 20
5.2621648323
 30
0.0
 10
19.3479216349
 20
5.258418115
 30
0.0
 10
19.3460916095
 20
5.2545124397
 30
0.0
 10
19.3447704528
 20
5.2504852856
 30
0.0
 10
19.3439721873
 20
5.2463769588
 30
0.0
 10
19.343793928
 20
5.2436057309
 30
0.0
 10
19.343793928
 20
5.2422263952
 30
0.0
  0
SPLINE
  5
2D6
100
AcDbEntity
  8
0
100
AcDbSpline
 62
9
  6
CONTINUOUS
 70
0
 71
3
 72
51
 73
47
 74
0
 42
0.0000001
 43
0.0000001
 44
0.0000000001
 40
0.0
 40
0.0
 40
0.0
 40
0.0
 40
0.0135003657
 40
0.0270244198
 40
0.0405930962
 40
0.0542291486
 40
0.06795324
 40
0.0817849751
 40
0.0957425627
 40
0.1098424706
 40
0.1240993331
 40
0.1385258241
 40
0.1531325789
 40
0.1679281368
 40
0.1980993611
 40
0.2290767961
 40
0.2608551676
 40
0.2933999604
 40
0.3266505406
 40
0.3605237475
 40
0.3949175873
 40
0.4297150181
 40
0.464787751
 40
0.5
 40
0.535212249
 40
0.5702849819
 40
0.6050824127
 40
0.6394762525
 40
0.6733494594
 40
0.7066000396
 40
0.7391448324
 40
0.7709232039
 40
0.8019006389
 40
0.8320718632
 40
0.8468674211
 40
0.8614741759
 40
0.8759006669
 40
0.8901575294
 40
0.9042574373
 40
0.9182150249
 40
0.93204676
 40
0.9457708514
 40
0.9594069038
 40
0.9729755802
 40
0.9864996343
 40
1.0
 40
1.0
 40
1.0
 40
1.0
 10
19.343793928
 20
10.7455085583
 30
0.0
 10
19.343793928
 20
10.7516509276
 30
0.0
 10
19.3441884345
 20
10.7639500712
 30
0.0
 10
19.3459612292
 20
10.7823457599
 30
0.0
 10
19.3489113255
 20
10.8006528895
 30
0.0
 10
19.3530310464
 20
10.8188256944
 30
0.0
 10
19.3583104388
 20
10.836820667
 30
0.0
 10
19.3647363861
 20
10.8545941094
 30
0.0
 10
19.372293075
 20
10.87210311
 30
0.0
 10
19.3809620753
 20
10.8893053801
 30
0.0
 10
19.3907221431
 20
10.9061595323
 30
0.0
 10
19.4015493352
 20
10.9226249362
 30
0.0
 10
19.4134177848
 20
10.9386624128
 30
0.0
 10
19.4307012083
 20
10.9595559509
 30
0.0
 10
19.4548152027
 20
10.9843963249
 30
0.0
 10
19.4871905374
 20
11.0116886737
 30
0.0
 10
19.5228866016
 20
11.0364120795
 30
0.0
 10
19.561557694
 20
11.0583311231
 30
0.0
 10
19.6028332137
 20
11.0772404253
 30
0.0
 10
19.646317729
 20
11.0929614242
 30
0.0
 10
19.6915951726
 20
11.1053458107
 30
0.0
 10
19.7382324714
 20
11.1142765367
 30
0.0
 10
19.7857836391
 20
11.1196689675
 30
0.0
 10
19.833793928
 20
11.1214722118
 30
0.0
 10
19.8818042169
 20
11.1196689675
 30
0.0
 10
19.9293553846
 20
11.1142765367
 30
0.0
 10
19.9759926833
 20
11.1053458107
 30
0.0
 10
20.021270127
 20
11.0929614242
 30
0.0
 10
20.0647546423
 20
11.0772404253
 30
0.0
 10
20.106030162
 20
11.0583311231
 30
0.0
 10
20.1447012544
 20
11.0364120795
 30
0.0
 10
20.1803973185
 20
11.0116886737
 30
0.0
 10
20.2127726532
 20
10.9843963249
 30
0.0
 10
20.2368866477
 20
10.9595559509
 30
0.0
 10
20.2541700712
 20
10.9386624128
 30
0.0
 10
20.2660385208
 20
10.9226249362
 30
0.0
 10
20.2768657129
 20
10.9061595323
 30
0.0
 10
20.2866257807
 20
10.8893053801
 30
0.0
 10
20.295294781
 20
10.87210311
 30
0.0
 10
20.3028514699
 20
10.8545941093
 30
0.0
 10
20.3092774172
 20
10.836820667
 30
0.0
 10
20.3145568095
 20
10.8188256944
 30
0.0
 10
20.3186765304
 20
10.8006528895
 30
0.0
 10
20.3216266268
 20
10.7823457599
 30
0.0
 10
20.3233994215
 20
10.7639500712
 30
0.0
 10
20.323793928
 20
10.7516509276
 30
0.0
 10
20.323793928
 20
10.7455085583
 30
0.0
  0
SPLINE
  5
2D7
100
AcDbEntity
  8
0
100
AcDbSpline
 62
7
  6
CONTINUOUS
 70
0
 71
3
 72
22
 73
18
 74
0
 42
0.0000001
 43
0.0000001
 44
0.0000000001
 40
0.0
 40
0.0
 40
0.0
 40
0.0
 40
0.1405182112
 40
0.2101364038
 40
0.2789478304
 40
0.4131261447
 40
0.4782379889
 40
0.5418164905
 40
0.6037925555
 40
0.6641556647
 40
0.7229589742
 40
0.7518218682
 40
0.7803452855
 40
0.8364549355
 40
0.8915590048
 40
0.9459610953
 40
1.0
 40
1.0
 40
1.0
 40
1.0
 10
19.450293928
 20
5.2640586618
 30
0.0
 10
19.4450767196
 20
5.2640586618
 30
0.0
 10
19.4372575091
 20
5.2634737156
 30
0.0
 10
19.4270777665
 20
5.2615238841
 30
0.0
 10
19.4173072845
 20
5.2588519055
 30
0.0
 10
19.408033543
 20
5.2550875811
 30
0.0
 10
19.3995338654
 20
5.2502696687
 30
0.0
 10
19.3937056077
 20
5.2462331152
 30
0.0
 10
19.3884196866
 20
5.2417769072
 30
0.0
 10
19.3837269538
 20
5.2369431537
 30
0.0
 10
19.3803269635
 20
5.2326100088
 30
0.0
 10
19.3779556883
 20
5.2290037984
 30
0.0
 10
19.375842933
 20
5.2253555847
 30
0.0
 10
19.3736359291
 20
5.2206457227
 30
0.0
 10
19.371714425
 20
5.2147882938
 30
0.0
 10
19.3705531991
 20
5.2088124093
 30
0.0
 10
19.370293928
 20
5.2047814813
 30
0.0
 10
19.370293928
 20
5.2027751063
 30
0.0
  0
SPLINE
  5
2D8
100
AcDbEntity
  8
0
100
AcDbSpline
 62
7
  6
CONTINUOUS
 70
0
 71
3
 72
22
 73
18
 74
0
 42
0.0000001
 43
0.0000001
 44
0.0000000001
 40
0.0
 40
0.0
 40
0.0
 40
0.0
 40
0.0540389047
 40
0.1084409952
 40
0.1635450645
 40
0.2196547145
 40
0.2481781318
 40
0.2770410258
 40
0.3358443353
 40
0.3962074445
 40
0.4581835095
 40
0.5217620111
 40
0.5868738553
 40
0.7210521696
 40
0.7898635962
 40
0.8594817888
 40
1.0
 40
1.0
 40
1.0
 40
1.0
 10
20.297293928
 20
5.2027751063
 30
0.0
 10
20.297293928
 20
5.2047814813
 30
0.0
 10
20.2970346569
 20
5.2088124093
 30
0.0
 10
20.295873431
 20
5.2147882938
 30
0.0
 10
20.2939519269
 20
5.2206457227
 30
0.0
 10
20.291744923
 20
5.2253555847
 30
0.0
 10
20.2896321677
 20
5.2290037984
 30
0.0
 10
20.2872608925
 20
5.2326100088
 30
0.0
 10
20.2838609022
 20
5.2369431537
 30
0.0
 10
20.2791681694
 20
5.2417769072
 30
0.0
 10
20.2738822483
 20
5.2462331152
 30
0.0
 10
20.2680539906
 20
5.2502696687
 30
0.0
 10
20.259554313
 20
5.2550875811
 30
0.0
 10
20.2502805715
 20
5.2588519055
 30
0.0
 10
20.2405100895
 20
5.2615238841
 30
0.0
 10
20.2303303469
 20
5.2634737156
 30
0.0
 10
20.2225111363
 20
5.2640586618
 30
0.0
 10
20.217293928
 20
5.2640586618
 30
0.0
  0
SPLINE
  5
2D9
100
AcDbEntity
  8
0
100
AcDbSpline
 62
9
  6
CONTINUOUS
 70
0
 71
3
 72
16
 73
12
 74
0
 42
0.0000001
 43
0.0000001
 44
0.0000000001
 40
0.0
 40
0.0
 40
0.0
 40
0.0
 40
0.1499359263
 40
0.2965208159
 40
0.4367331396
 40
0.5681394376
 40
0.6892990468
 40
0.8001542149
 40
0.9024174938
 40
0.95155123
 40
1.0
 40
1.0
 40
1.0
 40
1.0
 10
20.287293928
 20
5.1963472302
 30
0.0
 10
20.2879455499
 20
5.1963472302
 30
0.0
 10
20.2892357625
 20
5.1964279384
 30
0.0
 10
20.291104637
 20
5.1967881311
 30
0.0
 10
20.2928318413
 20
5.1973738692
 30
0.0
 10
20.2943531784
 20
5.1981645646
 30
0.0
 10
20.2956125559
 20
5.1991339378
 30
0.0
 10
20.2965614214
 20
5.2002503807
 30
0.0
 10
20.29706434
 20
5.2012909438
 30
0.0
 10
20.2972611192
 20
5.202139736
 30
0.0
 10
20.297293928
 20
5.2025645478
 30
0.0
 10
20.297293928
 20
5.2027751063
 30
0.0
  0
SPLINE
  5
2DA
100
AcDbEntity
  8
0
100
AcDbSpline
 62
9
  6
CONTINUOUS
 70
0
 71
3
 72
16
 73
12
 74
0
 42
0.0000001
 43
0.0000001
 44
0.0000000001
 40
0.0
 40
0.0
 40
0.0
 40
0.0
 40
0.1499359263
 40
0.2965208159
 40
0.4367331396
 40
0.5681394376
 40
0.6892990468
 40
0.8001542149
 40
0.9024174938
 40
0.95155123
 40
1.0
 40
1.0
 40
1.0
 40
1.0
 10
19.380293928
 20
5.1963472302
 30
0.0
 10
19.379642306
 20
5.1963472302
 30
0.0
 10
19.3783520935
 20
5.1964279384
 30
0.0
 10
19.376483219
 20
5.1967881311
 30
0.0
 10
19.3747560147
 20
5.1973738692
 30
0.0
 10
19.3732346776
 20
5.1981645646
 30
0.0
 10
19.3719753001
 20
5.1991339378
 30
0.0
 10
19.3710264346
 20
5.2002503807
 30
0.0
 10
19.370523516
 20
5.2012909438
 30
0.0
 10
19.3703267368
 20
5.202139736
 30
0.0
 10
19.370293928
 20
5.2025645478
 30
0.0
 10
19.370293928
 20
5.2027751063
 30
0.0
  0
SPLINE
  5
2DB
100
AcDbEntity
  8
0
100
AcDbSpline
 62
9
  6
CONTINUOUS
 70
0
 71
3
 72
16
 73
12
 74
0
 42
0.0000001
 43
0.0000001
 44
0.0000000001
 40
0.0
 40
0.0
 40
0.0
 40
0.0
 40
0.1499359263
 40
0.2965208159
 40
0.4367331396
 40
0.5681394376
 40
0.6892990468
 40
0.8001542149
 40
0.9024174938
 40
0.95155123
 40
1.0
 40
1.0
 40
1.0
 40
1.0
 10
19.380293928
 20
4.6087911424
 30
0.0
 10
19.379642306
 20
4.6087911424
 30
0.0
 10
19.3783520935
 20
4.6088718505
 30
0.0
 10
19.376483219
 20
4.6092320433
 30
0.0
 10
19.3747560147
 20
4.6098177813
 30
0.0
 10
19.3732346776
 20
4.6106084767
 30
0.0
 10
19.3719753001
 20
4.61157785
 30
0.0
 10
19.3710264346
 20
4.6126942928
 30
0.0
 10
19.370523516
 20
4.6137348559
 30
0.0
 10
19.3703267368
 20
4.6145836482
 30
0.0
 10
19.370293928
 20
4.61500846
 30
0.0
 10
19.370293928
 20
4.6152190185
 30
0.0
  0
SPLINE
  5
2DC
100
AcDbEntity
  8
0
100
AcDbSpline
 62
9
  6
CONTINUOUS
 70
0
 71
3
 72
16
 73
12
 74
0
 42
0.0000001
 43
0.0000001
 44
0.0000000001
 40
0.0
 40
0.0
 40
0.0
 40
0.0
 40
0.1499359263
 40
0.2965208159
 40
0.4367331396
 40
0.5681394376
 40
0.6892990468
 40
0.8001542149
 40
0.9024174938
 40
0.95155123
 40
1.0
 40
1.0
 40
1.0
 40
1.0
 10
20.287293928
 20
4.6087911424
 30
0.0
 10
20.2879455499
 20
4.6087911424
 30
0.0
 10
20.2892357625
 20
4.6088718505
 30
0.0
 10
20.291104637
 20
4.6092320433
 30
0.0
 10
20.2928318413
 20
4.6098177813
 30
0.0
 10
20.2943531784
 20
4.6106084767
 30
0.0
 10
20.2956125559
 20
4.61157785
 30
0.0
 10
20.2965614214
 20
4.6126942928
 30
0.0
 10
20.29706434
 20
4.6137348559
 30
0.0
 10
20.2972611192
 20
4.6145836482
 30
0.0
 10
20.297293928
 20
4.61500846
 30
0.0
 10
20.297293928
 20
4.6152190185
 30
0.0
  0
SPLINE
  5
2DD
100
AcDbEntity
  8
0
100
AcDbSpline
 62
9
  6
CONTINUOUS
 70
0
 71
3
 72
21
 73
17
 74
0
 42
0.0000001
 43
0.0000001
 44
0.0000000001
 40
0.0
 40
0.0
 40
0.0
 40
0.0
 40
0.1405207079
 40
0.2101406883
 40
0.2789538763
 40
0.4131354698
 40
0.4782489196
 40
0.5418290147
 40
0.6038066303
 40
0.6641712209
 40
0.7229759408
 40
0.7803405407
 40
0.8364516155
 40
0.8915570845
 40
0.9459602116
 40
1.0
 40
1.0
 40
1.0
 40
1.0
 10
19.450293928
 20
5.2499703413
 30
0.0
 10
19.4457288951
 20
5.2499703413
 30
0.0
 10
19.4388871049
 20
5.2494585167
 30
0.0
 10
19.4299798411
 20
5.2477524248
 30
0.0
 10
19.4214306522
 20
5.2454144429
 30
0.0
 10
19.4133161113
 20
5.2421206543
 30
0.0
 10
19.4058788855
 20
5.2379049828
 30
0.0
 10
19.4007791381
 20
5.2343729724
 30
0.0
 10
19.3961539938
 20
5.2304738562
 30
0.0
 10
19.3920476881
 20
5.2262440525
 30
0.0
 10
19.3885004877
 20
5.2217235027
 30
0.0
 10
19.3855474282
 20
5.2169549925
 30
0.0
 10
19.3832182698
 20
5.2119841525
 30
0.0
 10
19.3815368238
 20
5.2068586782
 30
0.0
 10
19.3805207928
 20
5.2016298526
 30
0.0
 10
19.380293928
 20
5.1981027965
 30
0.0
 10
19.380293928
 20
5.1963472302
 30
0.0
  0
SPLINE
  5
2DE
100
AcDbEntity
  8
0
100
AcDbSpline
 62
9
  6
CONTINUOUS
 70
0
 71
3
 72
21
 73
17
 74
0
 42
0.0000001
 43
0.0000001
 44
0.0000000001
 40
0.0
 40
0.0
 40
0.0
 40
0.0
 40
0.0540397884
 40
0.1084429154
 40
0.1635483845
 40
0.2196594592
 40
0.2770240591
 40
0.3358287791
 40
0.3961933696
 40
0.4581709852
 40
0.5217510804
 40
0.5868645302
 40
0.7210461236
 40
0.7898593116
 40
0.859479292
 40
1.0
 40
1.0
 40
1.0
 40
1.0
 10
19.380293928
 20
4.6087911424
 30
0.0
 10
19.380293928
 20
4.6070355761
 30
0.0
 10
19.3805207928
 20
4.60350852
 30
0.0
 10
19.3815368238
 20
4.5982796944
 30
0.0
 10
19.3832182698
 20
4.5931542201
 30
0.0
 10
19.3855474282
 20
4.5881833801
 30
0.0
 10
19.3885004877
 20
4.5834148699
 30
0.0
 10
19.3920476881
 20
4.5788943201
 30
0.0
 10
19.3961539938
 20
4.5746645164
 30
0.0
 10
19.4007791381
 20
4.5707654002
 30
0.0
 10
19.4058788855
 20
4.5672333898
 30
0.0
 10
19.4133161113
 20
4.5630177183
 30
0.0
 10
19.4214306522
 20
4.5597239297
 30
0.0
 10
19.4299798411
 20
4.5573859478
 30
0.0
 10
19.4388871049
 20
4.5556798559
 30
0.0
 10
19.4457288951
 20
4.5551680313
 30
0.0
 10
19.450293928
 20
4.5551680313
 30
0.0
  0
SPLINE
  5
2DF
100
AcDbEntity
  8
0
100
AcDbSpline
 62
9
  6
CONTINUOUS
 70
0
 71
3
 72
21
 73
17
 74
0
 42
0.0000001
 43
0.0000001
 44
0.0000000001
 40
0.0
 40
0.0
 40
0.0
 40
0.0
 40
0.1405207079
 40
0.2101406883
 40
0.2789538763
 40
0.4131354698
 40
0.4782489196
 40
0.5418290147
 40
0.6038066303
 40
0.6641712209
 40
0.7229759408
 40
0.7803405407
 40
0.8364516155
 40
0.8915570845
 40
0.9459602116
 40
1.0
 40
1.0
 40
1.0
 40
1.0
 10
20.217293928
 20
4.5551680313
 30
0.0
 10
20.2218589609
 20
4.5551680313
 30
0.0
 10
20.2287007511
 20
4.5556798559
 30
0.0
 10
20.2376080149
 20
4.5573859477
 30
0.0
 10
20.2461572038
 20
4.5597239297
 30
0.0
 10
20.2542717447
 20
4.5630177183
 30
0.0
 10
20.2617089705
 20
4.5672333898
 30
0.0
 10
20.2668087179
 20
4.5707654002
 30
0.0
 10
20.2714338622
 20
4.5746645164
 30
0.0
 10
20.2755401679
 20
4.5788943201
 30
0.0
 10
20.2790873683
 20
4.5834148699
 30
0.0
 10
20.2820404278
 20
4.5881833801
 30
0.0
 10
20.2843695862
 20
4.5931542201
 30
0.0
 10
20.2860510322
 20
4.5982796944
 30
0.0
 10
20.2870670631
 20
4.60350852
 30
0.0
 10
20.287293928
 20
4.6070355761
 30
0.0
 10
20.287293928
 20
4.6087911424
 30
0.0
  0
SPLINE
  5
2E0
100
AcDbEntity
  8
0
100
AcDbSpline
 62
9
  6
CONTINUOUS
 70
0
 71
3
 72
21
 73
17
 74
0
 42
0.0000001
 43
0.0000001
 44
0.0000000001
 40
0.0
 40
0.0
 40
0.0
 40
0.0
 40
0.0540397884
 40
0.1084429154
 40
0.1635483845
 40
0.2196594592
 40
0.2770240591
 40
0.3358287791
 40
0.3961933696
 40
0.4581709852
 40
0.5217510804
 40
0.5868645302
 40
0.7210461236
 40
0.7898593116
 40
0.859479292
 40
1.0
 40
1.0
 40
1.0
 40
1.0
 10
20.287293928
 20
5.1963472302
 30
0.0
 10
20.287293928
 20
5.1981027965
 30
0.0
 10
20.2870670631
 20
5.2016298526
 30
0.0
 10
20.2860510322
 20
5.2068586782
 30
0.0
 10
20.2843695862
 20
5.2119841525
 30
0.0
 10
20.2820404278
 20
5.2169549925
 30
0.0
 10
20.2790873683
 20
5.2217235027
 30
0.0
 10
20.2755401679
 20
5.2262440525
 30
0.0
 10
20.2714338622
 20
5.2304738562
 30
0.0
 10
20.2668087179
 20
5.2343729724
 30
0.0
 10
20.2617089705
 20
5.2379049828
 30
0.0
 10
20.2542717447
 20
5.2421206543
 30
0.0
 10
20.2461572038
 20
5.2454144429
 30
0.0
 10
20.2376080149
 20
5.2477524248
 30
0.0
 10
20.2287007511
 20
5.2494585167
 30
0.0
 10
20.2218589609
 20
5.2499703413
 30
0.0
 10
20.217293928
 20
5.2499703413
 30
0.0
  0
SPLINE
  5
2E1
100
AcDbEntity
  8
0
100
AcDbSpline
 62
7
  6
CONTINUOUS
 70
0
 71
3
 72
51
 73
47
 74
0
 42
0.0000001
 43
0.0000001
 44
0.0000000001
 40
0.0
 40
0.0
 40
0.0
 40
0.0
 40
0.013443449
 40
0.0269592942
 40
0.0405641325
 40
0.0542737389
 40
0.06810264
 40
0.0820640361
 40
0.0961697019
 40
0.1104299001
 40
0.1248533553
 40
0.1394471903
 40
0.1542169161
 40
0.1691664779
 40
0.1996053243
 40
0.2307728213
 40
0.2626470047
 40
0.2951852698
 40
0.3283267523
 40
0.3619948758
 40
0.3960999687
 40
0.4305419275
 40
0.4652127895
 40
0.499999411
 40
0.5347860412
 40
0.5694569287
 40
0.6038989293
 40
0.6380040796
 40
0.6716722743
 40
0.7048138405
 40
0.7373521995
 40
0.7692264844
 40
0.8003940877
 40
0.8308330422
 40
0.8457826574
 40
0.8605524357
 40
0.8751463219
 40
0.8895698263
 40
0.9038300715
 40
0.9179357814
 40
0.9318972184
 40
0.9457261567
 40
0.9594357962
 40
0.9730406632
 40
0.9865565321
 40
1.0
 40
1.0
 40
1.0
 40
1.0
 10
20.3170596148
 20
10.8074780281
 30
0.0
 10
20.3160966145
 20
10.8130385478
 30
0.0
 10
20.313840626
 20
10.8241359865
 30
0.0
 10
20.3094932711
 20
10.8406088026
 30
0.0
 10
20.304183241
 20
10.8569149469
 30
0.0
 10
20.2979216031
 20
10.8730205484
 30
0.0
 10
20.2907213044
 20
10.8888932571
 30
0.0
 10
20.2825970304
 20
10.9045008707
 30
0.0
 10
20.2735653669
 20
10.9198118332
 30
0.0
 10
20.2636448771
 20
10.9347952967
 30
0.0
 10
20.2528556732
 20
10.949421013
 30
0.0
 10
20.241219782
 20
10.9636594107
 30
0.0
 10
20.2287606169
 20
10.9774821752
 30
0.0
 10
20.2109805076
 20
10.9954261249
 30
0.0
 10
20.1867927374
 20
11.0166580768
 30
0.0
 10
20.1551059143
 20
11.0398849644
 30
0.0
 10
20.1208342114
 20
11.0608352832
 30
0.0
 10
20.0842556723
 20
11.0793411764
 30
0.0
 10
20.0456642684
 20
11.0952562823
 30
0.0
 10
20.0053704954
 20
11.1084541441
 30
0.0
 10
19.9636981402
 20
11.1188298219
 30
0.0
 10
19.9209820513
 20
11.1263006514
 30
0.0
 10
19.8775654482
 20
11.1308072146
 30
0.0
 10
19.8337971594
 20
11.1323135827
 30
0.0
 10
19.7900288445
 20
11.1308076585
 30
0.0
 10
19.7466121638
 20
11.1263015356
 30
0.0
 10
19.7038959461
 20
11.1188311395
 30
0.0
 10
19.6622234121
 20
11.1084558844
 30
0.0
 10
19.6219294116
 20
11.0952584316
 30
0.0
 10
19.5833377335
 20
11.0793437176
 30
0.0
 10
19.5467588753
 20
11.0608381961
 30
0.0
 10
19.5124868114
 20
11.0398882259
 30
0.0
 10
19.480799588
 20
11.016661661
 30
0.0
 10
19.4566114519
 20
10.9954299563
 30
0.0
 10
19.4388310325
 20
10.9774861876
 30
0.0
 10
19.4263716282
 20
10.9636635499
 30
0.0
 10
19.4147354907
 20
10.9494252707
 30
0.0
 10
19.4039460339
 20
10.9347996643
 30
0.0
 10
19.3940252848
 20
10.9198163019
 30
0.0
 10
19.3849933562
 20
10.9045054315
 30
0.0
 10
19.3768688122
 20
10.8888979007
 30
0.0
 10
19.3696682386
 20
10.8730252655
 30
0.0
 10
19.3634063219
 20
10.8569197279
 30
0.0
 10
19.3580960095
 20
10.8406136379
 30
0.0
 10
19.3537483693
 20
10.8241408662
 30
0.0
 10
19.3514921882
 20
10.8130434483
 30
0.0
 10
19.3505290915
 20
10.8074829373
 30
0.0
  0
SPLINE
  5
2E2
100
AcDbEntity
  8
0
100
AcDbSpline
 62
9
  6
CONTINUOUS
 70
0
 71
3
 72
49
 73
45
 74
0
 42
0.0000001
 43
0.0000001
 44
0.0000000001
 40
0.0
 40
0.0
 40
0.0
 40
0.0
 40
0.0135006553
 40
0.0270249995
 40
0.040593967
 40
0.0542303119
 40
0.0679546978
 40
0.0817867296
 40
0.0957446166
 40
0.109844827
 40
0.1241019953
 40
0.1385287959
 40
0.1679210124
 40
0.1980928841
 40
0.2290709837
 40
0.260850037
 40
0.293395528
 40
0.3266468216
 40
0.3605207552
 40
0.3949153328
 40
0.4297135102
 40
0.4647869955
 40
0.5
 40
0.5352130045
 40
0.5702864898
 40
0.6050846672
 40
0.6394792448
 40
0.6733531784
 40
0.706604472
 40
0.739149963
 40
0.7709290163
 40
0.8019071159
 40
0.8320789876
 40
0.8614712041
 40
0.8758980047
 40
0.890155173
 40
0.9042553834
 40
0.9182132704
 40
0.9320453022
 40
0.9457696881
 40
0.959406033
 40
0.9729750005
 40
0.9864993447
 40
1.0
 40
1.0
 40
1.0
 40
1.0
 10
20.321293928
 20
10.8902607484
 30
0.0
 10
20.321293928
 20
10.8963717791
 30
0.0
 10
20.3209014343
 20
10.9086081719
 30
0.0
 10
20.3191376844
 20
10.926910005
 30
0.0
 10
20.3162026396
 20
10.945123731
 30
0.0
 10
20.312103938
 20
10.9632038172
 30
0.0
 10
20.3068514801
 20
10.9811069799
 30
0.0
 10
20.3004583229
 20
10.9987897363
 30
0.0
 10
20.2929401709
 20
11.0162094248
 30
0.0
 10
20.284315467
 20
11.0333238543
 30
0.0
 10
20.2746049421
 20
11.0500922963
 30
0.0
 10
20.2601553479
 20
11.0720669878
 30
0.0
 10
20.2394364261
 20
11.0984724216
 30
0.0
 10
20.2108403559
 20
11.1279279789
 30
0.0
 10
20.1786285811
 20
11.1550832811
 30
0.0
 10
20.1431150908
 20
11.1796799347
 30
0.0
 10
20.1046411746
 20
11.2014873166
 30
0.0
 10
20.063576279
 20
11.2203000956
 30
0.0
 10
20.0203136138
 20
11.2359408983
 30
0.0
 10
19.9752671801
 20
11.2482620956
 30
0.0
 10
19.928867826
 20
11.2571472577
 30
0.0
 10
19.8815592665
 20
11.2625121759
 30
0.0
 10
19.833793928
 20
11.26430622
 30
0.0
 10
19.7860285895
 20
11.2625121759
 30
0.0
 10
19.73872003
 20
11.2571472577
 30
0.0
 10
19.6923206759
 20
11.2482620956
 30
0.0
 10
19.6472742422
 20
11.2359408983
 30
0.0
 10
19.604011577
 20
11.2203000956
 30
0.0
 10
19.5629466814
 20
11.2014873166
 30
0.0
 10
19.5244727652
 20
11.1796799347
 30
0.0
 10
19.4889592749
 20
11.1550832811
 30
0.0
 10
19.4567475001
 20
11.1279279789
 30
0.0
 10
19.4281514299
 20
11.0984724216
 30
0.0
 10
19.4074325081
 20
11.0720669878
 30
0.0
 10
19.3929829139
 20
11.0500922963
 30
0.0
 10
19.383272389
 20
11.0333238543
 30
0.0
 10
19.3746476851
 20
11.0162094248
 30
0.0
 10
19.3671295331
 20
10.9987897363
 30
0.0
 10
19.3607363759
 20
10.9811069799
 30
0.0
 10
19.355483918
 20
10.9632038172
 30
0.0
 10
19.3513852164
 20
10.945123731
 30
0.0
 10
19.3484501715
 20
10.926910005
 30
0.0
 10
19.3466864217
 20
10.9086081719
 30
0.0
 10
19.346293928
 20
10.8963717791
 30
0.0
 10
19.346293928
 20
10.8902607484
 30
0.0
  0
ENDSEC
  0
SECTION
  2
OBJECTS
  0
DICTIONARY
  5
C
100
AcDbDictionary
280
0
281
1
  3
ACAD_GROUP
350
D
  3
ACAD_MLINESTYLE
350
17
  3
ACAD_LAYOUT
350
1A
  3
ACAD_PLOTSETTINGS
350
19
  3
ACAD_PLOTSTYLENAME
350
E
  0
DICTIONARY
  5
D
102
{ACAD_REACTORS
330
C
102
}
100
AcDbDictionary
280
0
281
1
  0
ACDBDICTIONARYWDFLT
  5
E
102
{ACAD_REACTORS
330
C
102
}
100
AcDbDictionary
281
1
  3
Normal
350
F
100
AcDbDictionaryWithDefault
340
F
  0
DICTIONARY
  5
17
102
{ACAD_REACTORS
330
C
102
}
100
AcDbDictionary
280
0
281
1
  3
Standard
350
18
  0
DICTIONARY
  5
19
102
{ACAD_REACTORS
330
C
102
}
100
AcDbDictionary
281
1
  0
DICTIONARY
  5
1A
102
{ACAD_REACTORS
330
C
102
}
100
AcDbDictionary
281
1
  3
Model
350
2E3
  3
Layout1
350
2E4
  0
ACDBPLACEHOLDER
  5
F
102
{ACAD_REACTORS
330
E
102
}
  0
MLINESTYLE
  5
18
102
{ACAD_REACTORS
330
17
102
}
100
AcDbMlineStyle
  2
STANDARD
 70
0
  3

 62
256
 51
90.0
 52
90.0
 71
2
 49
0.5
 62
256
  6
BYLAYER
 49
-0.5
 62
256
  6
BYLAYER
  0
LAYOUT
  5
2E3
102
{ACAD_REACTORS
330
1A
102
}
100
AcDbPlotSettings
  1

  2
none_device
  4
ANSI_C_(22.00_x_17.00_Inches)
  6

 40
0.0
 41
0.0
 42
0.0
 43
0.0
 44
558.8
 45
431.8
 46
0.0
 47
0.0
 48
0.0
 49
0.0
140
0.0
141
0.0
142
1.0
143
1.0
 70
1024
 72
0
 73
0
 74
0
  7

 75
0
147
1.0
148
0.0
149
0.0
100
AcDbLayout
  1
Model
 70
0
 71
0
 10
0.0
 20
0.0
 11
22.0
 21
17.0
 12
0.0
 22
0.0
 32
0.0
 14
0.0
 24
0.0
 34
0.0
 15
0.0
 25
0.0
 35
0.0
146
0.0
 13
0.0
 23
0.0
 33
0.0
 16
1.0
 26
0.0
 36
0.0
 17
0.0
 27
1.0
 37
0.0
 76
0
330
205
345
0
346
0
  0
LAYOUT
  5
2E4
102
{ACAD_REACTORS
330
1A
102
}
100
AcDbPlotSettings
  1

  2
none_device
  4
ANSI_C_(22.00_x_17.00_Inches)
  6

 40
0.0
 41
0.0
 42
0.0
 43
0.0
 44
558.8
 45
431.8
 46
0.0
 47
0.0
 48
0.0
 49
0.0
140
0.0
141
0.0
142
1.0
143
1.0
 70
0
 72
0
 73
0
 74
0
  7

 75
0
147
1.0
148
0.0
149
0.0
100
AcDbLayout
  1
Layout1
 70
0
 71
1
 10
0.0
 20
0.0
 11
22.0
 21
17.0
 12
0.0
 22
0.0
 32
0.0
 14
0.0
 24
0.0
 34
0.0
 15
0.0
 25
0.0
 35
0.0
146
0.0
 13
0.0
 23
0.0
 33
0.0
 16
1.0
 26
0.0
 36
0.0
 17
0.0
 27
1.0
 37
0.0
 76
0
330
206
345
0
346
0
  0
ENDSEC
  0
EOF
