999
DXF file: E:\BT Custom\CADOUTPUT\_RIGHT.dxf
999
Pro/ENGINEER 2018400 by Parametric Technology Corporation
  0
SECTION
  2
HEADER
  9
$ACADVER
  1
AC1018
  9
$DWGCODEPAGE
  3
ANSI_1252
  9
$EXTMAX
 10
22.0
 20
17.0
 30
0.0
  9
$EXTMIN
 10
0.0
 20
0.0
 30
0.0
  9
$LIMMIN
 10
0.0
 20
0.0
  9
$LIMMAX
 10
22.0
 20
17.0
  9
$VIEWCTR
 10
11.0
 20
8.5
  9
$VIEWSIZE
 40
17.0
  9
$CLAYER
  8
0
  9
$LTSCALE
 40
1.21
  9
$CELTYPE
  6
BYLAYER
  9
$DIMSCALE
 40
1.0
  9
$DIMASZ
 40
0.1
  9
$DIMEXO
 40
0.0625
  9
$DIMDLI
 40
0.836
  9
$DIMEXE
 40
0.125
  9
$DIMCEN
 40
0.198
  9
$DIMLFAC
 40
1.0
  9
$DIMBLK
  1
_FILLED
  9
$DIMALT
 70
1
  9
$DIMALTD
 70
2
  9
$DIMALTTD
 70
2
  9
$DIMALTF
 40
25.4
  9
$DIMTXT
 40
0.08
  9
$DIMTOL
 70
1
  9
$DIMLIM
 70
0
  9
$DIMTFAC
 40
1.0
  9
$DIMTP
 40
0.001
  9
$DIMTM
 40
0.001
  9
$DIMGAP
 40
0.09
  9
$DIMDSEP
 70
46
  9
$AUNITS
 70
0
  9
$PDMODE
 70
3
  9
$PDSIZE
 40
0.06
  9
$HANDSEED
  5
4D1
  9
$TILEMODE
 70
1
  9
$MEASUREMENT
 70
0
  9
$INSUNITS
 70
1
  0
ENDSEC
  0
SECTION
  2
CLASSES
  0
CLASS
  1
ACDBDICTIONARYWDFLT
  2
AcDbDictionaryWithDefault
  3
AutoCAD 2000
 90
0
 91
1
280
0
281
0
  0
CLASS
  1
ACDBPLACEHOLDER
  2
AcDbPlaceHolder
  3
AutoCAD 2000
 90
0
 91
1
280
0
281
0
  0
CLASS
  1
LAYOUT
  2
AcDbLayout
  3
AutoCAD 2000
 90
0
 91
0
280
0
281
0
  0
ENDSEC
  0
SECTION
  2
TABLES
  0
TABLE
  2
VPORT
  5
8
100
AcDbSymbolTable
 70
2
  0
VPORT
  5
1F4
100
AcDbSymbolTableRecord
100
AcDbViewportTableRecord
  2
*ACTIVE
 70
0
 10
0.0
 20
0.0
 11
1.0
 21
1.0
 12
11.0
 22
8.5
 13
0.0
 23
0.0
 14
1.0
 24
1.0
 15
0.0
 25
0.0
 16
0.0
 26
0.0
 36
1.0
 17
0.0
 27
0.0
 37
0.0
 40
17.0
 41
1.2941176471
 42
50.0
 43
0.0
 44
0.0
 50
0.0
 51
0.0
 71
0
 72
100
 73
1
 74
1
 75
0
 76
0
 77
0
 78
0
  0
ENDTAB
  0
TABLE
  2
LTYPE
  5
5
100
AcDbSymbolTable
 70
6
  0
LTYPE
  5
14
100
AcDbSymbolTableRecord
100
AcDbLinetypeTableRecord
  2
BYBLOCK
 70
0
  3

 72
65
 73
0
 40
0.0
  0
LTYPE
  5
15
100
AcDbSymbolTableRecord
100
AcDbLinetypeTableRecord
  2
BYLAYER
 70
0
  3

 72
65
 73
0
 40
0.0
  0
LTYPE
  5
16
100
AcDbSymbolTableRecord
100
AcDbLinetypeTableRecord
  2
CONTINUOUS
 70
64
  3
Solid line
 72
65
 73
0
 40
0.0
  0
LTYPE
  5
1F5
100
AcDbSymbolTableRecord
100
AcDbLinetypeTableRecord
  2
CENTER
 70
64
  3
____ _ ____ _ ____ _ ____ _ ____ _ ____ _ ____
 72
65
 73
4
 40
0.6
 49
0.375
 74
0
 49
-0.075
 74
0
 49
0.075
 74
0
 49
-0.075
 74
0
  0
LTYPE
  5
1F6
100
AcDbSymbolTableRecord
100
AcDbLinetypeTableRecord
  2
HIDDEN
 70
64
  3
- - - - - - - - - - - - - - - - - - - -
 72
65
 73
2
 40
0.2
 49
0.1
 74
0
 49
-0.1
 74
0
  0
LTYPE
  5
1F7
100
AcDbSymbolTableRecord
100
AcDbLinetypeTableRecord
  2
PHANTOM
 70
64
  3
_____ _ _ _____ _ _ _____ _ _ _____
 72
65
 73
6
 40
0.8
 49
0.45
 74
0
 49
-0.05
 74
0
 49
0.1
 74
0
 49
-0.05
 74
0
 49
0.1
 74
0
 49
-0.05
 74
0
  0
LTYPE
  5
1F8
100
AcDbSymbolTableRecord
100
AcDbLinetypeTableRecord
  2
DOT
 70
64
  3
. . . . . . . . . . . . . . . . . . . .
 72
65
 73
2
 40
0.2
 49
0.1
 74
0
 49
-0.1
 74
0
  0
LTYPE
  5
1F9
100
AcDbSymbolTableRecord
100
AcDbLinetypeTableRecord
  2
DASHED
 70
64
  3
- - - - - - - - - - - - - - - - - - - -
 72
65
 73
2
 40
0.2
 49
0.1
 74
0
 49
-0.1
 74
0
  0
ENDTAB
  0
TABLE
  2
LAYER
  5
2
100
AcDbSymbolTable
 70
36
  0
LAYER
  5
10
100
AcDbSymbolTableRecord
100
AcDbLayerTableRecord
  2
0
 70
0
 62
7
  6
CONTINUOUS
370
-3
390
F
  0
LAYER
  5
1FA
100
AcDbSymbolTableRecord
100
AcDbLayerTableRecord
  2
DEFAULT_1
 70
0
 62
7
  6
CENTER
370
-3
390
F
  0
LAYER
  5
1FB
100
AcDbSymbolTableRecord
100
AcDbLayerTableRecord
  2
DEFAULT_2
 70
0
 62
8
  6
HIDDEN
370
-3
390
F
  0
LAYER
  5
1FC
100
AcDbSymbolTableRecord
100
AcDbLayerTableRecord
  2
DEFAULT_3
 70
0
 62
7
  6
PHANTOM
370
-3
390
F
  0
LAYER
  5
1FD
100
AcDbSymbolTableRecord
100
AcDbLayerTableRecord
  2
ALL_FEATURES
 70
0
 62
7
  6
CONTINUOUS
370
-3
390
F
  0
LAYER
  5
1FE
100
AcDbSymbolTableRecord
100
AcDbLayerTableRecord
  2
AXES_FEATURES
 70
0
 62
7
  6
CONTINUOUS
370
-3
390
F
  0
LAYER
  5
1FF
100
AcDbSymbolTableRecord
100
AcDbLayerTableRecord
  2
DEFAULT_COORDINATE_SYSTEM
 70
0
 62
7
  6
CONTINUOUS
370
-3
390
F
  0
LAYER
  5
200
100
AcDbSymbolTableRecord
100
AcDbLayerTableRecord
  2
DEFAULT_DATUM_AXES
 70
0
 62
7
  6
CONTINUOUS
370
-3
390
F
  0
LAYER
  5
201
100
AcDbSymbolTableRecord
100
AcDbLayerTableRecord
  2
DEFAULT_DATUM_PLANES
 70
0
 62
7
  6
CONTINUOUS
370
-3
390
F
  0
LAYER
  5
202
100
AcDbSymbolTableRecord
100
AcDbLayerTableRecord
  2
DIMENSIONS
 70
0
 62
7
  6
CONTINUOUS
370
-3
390
F
  0
ENDTAB
  0
TABLE
  2
STYLE
  5
3
100
AcDbSymbolTable
 70
1
  0
STYLE
  5
11
100
AcDbSymbolTableRecord
100
AcDbTextStyleTableRecord
  2
STANDARD
 70
0
 40
0.0
 41
0.8
 50
0.0
 71
0
 42
0.2
  3
txt
  4

  0
STYLE
  5
203
100
AcDbSymbolTableRecord
100
AcDbTextStyleTableRecord
  2
TEXTSTYLE_1
 70
0
 40
0.0
 41
0.8
 50
0.0
 71
0
 42
0.2
  3
gdt
  4

  0
ENDTAB
  0
TABLE
  2
VIEW
  5
6
100
AcDbSymbolTable
 70
0
  0
ENDTAB
  0
TABLE
  2
UCS
  5
7
100
AcDbSymbolTable
 70
0
  0
ENDTAB
  0
TABLE
  2
APPID
  5
9
100
AcDbSymbolTable
 70
1
  0
APPID
  5
204
100
AcDbSymbolTableRecord
100
AcDbRegAppTableRecord
  2
ACAD
 70
0
  0
ENDTAB
  0
TABLE
  2
BLOCK_RECORD
  5
1
100
AcDbSymbolTable
 70
0
  0
BLOCK_RECORD
  5
205
100
AcDbSymbolTableRecord
100
AcDbBlockTableRecord
  2
*Model_Space
  0
BLOCK_RECORD
  5
206
100
AcDbSymbolTableRecord
100
AcDbBlockTableRecord
  2
*Paper_Space
  0
BLOCK_RECORD
  5
207
100
AcDbSymbolTableRecord
100
AcDbBlockTableRecord
  2
_FILLED
  0
ENDTAB
  0
TABLE
  2
DIMSTYLE
  5
A
100
AcDbSymbolTable
 70
1
100
AcDbDimStyleTable
 71
0
  0
DIMSTYLE
105
208
100
AcDbSymbolTableRecord
100
AcDbDimStyleTableRecord
  2
STANDARD
 70
0
  3

  4

 40
1.0
 41
0.1
 42
0.0625
 43
0.38
 44
0.125
 45
0.0
 46
0.0
 47
0.001
 48
0.001
140
0.08
141
0.09
142
0.0
143
25.4
144
1.0
145
0.0
146
1.0
147
0.09
 71
1.0
 72
0.0
 73
1
 74
1
 75
0
 76
0
 77
0
 78
4
 79
1
170
1
171
2
172
0
173
0
174
0
175
0
176
0
177
0
178
0
270
2
179
3
271
3
272
3
273
2
274
2
275
0
280
0
281
0
282
0
283
1
284
4
285
0
286
0
287
3
288
0
340
11
278
46
341
207
342
207
343
207
344
207
  0
ENDTAB
  0
ENDSEC
  0
SECTION
  2
BLOCKS
  0
BLOCK
  5
20
100
AcDbEntity
  8
0
100
AcDbBlockBegin
  2
*Model_Space
 70
0
 10
0.0
 20
0.0
 30
0.0
  3
*Model_Space
  1

  0
ENDBLK
  5
21
100
AcDbEntity
  8
0
100
AcDbBlockEnd
  0
BLOCK
  5
1C
100
AcDbEntity
  8
0
100
AcDbBlockBegin
  2
*Paper_Space
 70
0
 10
0.0
 20
0.0
 30
0.0
  3
*Paper_Space
  1

  0
ENDBLK
  5
1D
100
AcDbEntity
  8
0
100
AcDbBlockEnd
  0
BLOCK
  5
209
100
AcDbEntity
  8
0
100
AcDbBlockBegin
  2
_FILLED
 70
64
 10
0.0
 20
0.0
  3
_FILLED
  1

  0
SOLID
  5
20A
100
AcDbEntity
  8
0
  6
BYBLOCK
 62
0
100
AcDbTrace
 10
0.0
 20
0.0
 11
-1.0
 21
0.2
 12
-1.0
 22
-0.2
 13
-1.0
 23
-0.2
  0
ENDBLK
  5
20B
100
AcDbEntity
  8
0
  6
BYBLOCK
 62
0
100
AcDbBlockEnd
  0
ENDSEC
  0
SECTION
  2
ENTITIES
  0
LINE
  5
20C
100
AcDbEntity
  8
0
100
AcDbLine
 62
7
  6
CONTINUOUS
 10
13.0224834891
 20
3.3986766055
 11
15.5224834891
 21
3.3986766055
  0
LINE
  5
20D
100
AcDbEntity
  8
0
100
AcDbLine
 62
9
  6
CONTINUOUS
 10
13.0224834891
 20
3.6686766057
 11
15.5224834891
 21
3.6686766057
  0
LINE
  5
20E
100
AcDbEntity
  8
0
100
AcDbLine
 62
7
  6
CONTINUOUS
 10
13.0624834891
 20
3.7086766055
 11
15.4824834891
 21
3.7086766055
  0
LINE
  5
20F
100
AcDbEntity
  8
0
100
AcDbLine
 62
9
  6
CONTINUOUS
 10
13.2574834891
 20
3.7186766055
 11
13.7249834891
 21
3.7186766055
  0
LINE
  5
210
100
AcDbEntity
  8
0
100
AcDbLine
 62
9
  6
CONTINUOUS
 10
14.8199834891
 20
3.7186766055
 11
15.2874834891
 21
3.7186766055
  0
LINE
  5
211
100
AcDbEntity
  8
0
100
AcDbLine
 62
7
  6
CONTINUOUS
 10
13.2874834891
 20
3.7486766055
 11
13.7249834891
 21
3.7486766055
  0
LINE
  5
212
100
AcDbEntity
  8
0
100
AcDbLine
 62
7
  6
CONTINUOUS
 10
14.8199834891
 20
3.7486766055
 11
15.2574834891
 21
3.7486766055
  0
LINE
  5
213
100
AcDbEntity
  8
0
100
AcDbLine
 62
9
  6
CONTINUOUS
 10
13.1574834891
 20
3.9311766055
 11
13.6924834891
 21
3.9311766055
  0
LINE
  5
214
100
AcDbEntity
  8
0
100
AcDbLine
 62
9
  6
CONTINUOUS
 10
14.8524834891
 20
3.9311766055
 11
15.3874834891
 21
3.9311766055
  0
LINE
  5
215
100
AcDbEntity
  8
0
100
AcDbLine
 62
7
  6
CONTINUOUS
 10
13.1874834891
 20
3.9611766055
 11
13.6924834891
 21
3.9611766055
  0
LINE
  5
216
100
AcDbEntity
  8
0
100
AcDbLine
 62
7
  6
CONTINUOUS
 10
14.8524834891
 20
3.9611766055
 11
15.3574834891
 21
3.9611766055
  0
LINE
  5
217
100
AcDbEntity
  8
0
100
AcDbLine
 62
9
  6
CONTINUOUS
 10
14.039015441
 20
4.1179659275
 11
14.5059515373
 21
4.1179659275
  0
LINE
  5
218
100
AcDbEntity
  8
0
100
AcDbLine
 62
9
  6
CONTINUOUS
 10
14.1391118432
 20
4.1533212665
 11
14.405855135
 21
4.1533212665
  0
LINE
  5
219
100
AcDbEntity
  8
0
100
AcDbLine
 62
9
  6
CONTINUOUS
 10
13.7249834891
 20
4.2408480369
 11
14.8199834891
 21
4.2408480369
  0
LINE
  5
21A
100
AcDbEntity
  8
0
100
AcDbLine
 62
9
  6
CONTINUOUS
 10
13.7549834891
 20
4.3122623212
 11
14.7899834891
 21
4.3122623212
  0
LINE
  5
21B
100
AcDbEntity
  8
0
100
AcDbLine
 62
7
  6
CONTINUOUS
 10
14.7599834891
 20
4.3836766055
 11
13.7849834891
 21
4.3836766055
  0
LINE
  5
21C
100
AcDbEntity
  8
0
100
AcDbLine
 62
7
  6
CONTINUOUS
 10
7.849598421
 20
11.569232857
 11
8.544400731
 21
12.152241219
  0
LINE
  5
21D
100
AcDbEntity
  8
0
100
AcDbLine
 62
7
  6
CONTINUOUS
 10
7.828065675
 20
11.5381106648
 11
8.5787892292
 21
12.1680425223
  0
LINE
  5
21E
100
AcDbEntity
  8
0
100
AcDbLine
 62
9
  6
CONTINUOUS
 10
7.8268331066
 20
11.5240223443
 11
8.5928775497
 21
12.166809954
  0
LWPOLYLINE
  5
21F
100
AcDbEntity
  8
0
100
AcDbPolyline
 62
7
  6
CONTINUOUS
 90
13
 70
0
 10
14.6474834852
 20
5.9978377567
 10
14.648903846
 20
5.9981132233
 10
14.6524838698
 20
5.9991340139
 10
14.6559077082
 20
6.0005892359
 10
14.6591244675
 20
6.0024566092
 10
14.6620861198
 20
6.0047082839
 10
14.6647480417
 20
6.0073111515
 10
14.6670695292
 20
6.0102271945
 10
14.6690127605
 20
6.0134109809
 10
14.6705427046
 20
6.0168028666
 10
14.6716356007
 20
6.0203358422
 10
14.672281175
 20
6.023939132
 10
14.6724835988
 20
6.0274182785
  0
LINE
  5
220
100
AcDbEntity
  8
0
100
AcDbLine
 62
9
  6
CONTINUOUS
 10
14.2673526696
 20
5.3886766055
 11
14.8524834891
 21
5.3886766055
  0
LINE
  5
221
100
AcDbEntity
  8
0
100
AcDbLine
 62
7
  6
CONTINUOUS
 10
14.2421796807
 20
5.4186766055
 11
14.8224834891
 21
5.4186766055
  0
LINE
  5
222
100
AcDbEntity
  8
0
100
AcDbLine
 62
7
  6
CONTINUOUS
 10
14.5974837137
 20
5.4486766055
 11
14.2170066918
 21
5.4486766055
  0
LWPOLYLINE
  5
223
100
AcDbEntity
  8
0
100
AcDbPolyline
 62
7
  6
CONTINUOUS
 90
7
 70
0
 10
8.104559444
 20
11.1027838329
 10
8.1034211359
 20
11.100301277
 10
8.1023188483
 20
11.0965180724
 10
8.1018257105
 20
11.092516968
 10
8.1019227489
 20
11.0883595777
 10
8.1025762746
 20
11.0841185812
 10
8.1037349888
 20
11.0798709196
  0
LWPOLYLINE
  5
224
100
AcDbEntity
  8
0
100
AcDbPolyline
 62
7
  6
CONTINUOUS
 90
7
 70
0
 10
8.2909678508
 20
10.8806309444
 10
8.2898295428
 20
10.8781483885
 10
8.2887272552
 20
10.8743651839
 10
8.2882341173
 20
10.8703640795
 10
8.2883311557
 20
10.8662066892
 10
8.2889846814
 20
10.8619656927
 10
8.2901433957
 20
10.8577180311
  0
LWPOLYLINE
  5
225
100
AcDbEntity
  8
0
100
AcDbPolyline
 62
7
  6
CONTINUOUS
 90
8
 70
0
 10
8.0978242533
 20
11.0902219806
 10
8.0974427459
 20
11.0894036227
 10
8.0969882286
 20
11.0878348016
 10
8.0968363822
 20
11.0862414921
 10
8.096941824
 20
11.0847120724
 10
8.0972406753
 20
11.0832603863
 10
8.0976944022
 20
11.0818370146
 10
8.0982897773
 20
11.0803885737
  0
LWPOLYLINE
  5
226
100
AcDbEntity
  8
0
100
AcDbPolyline
 62
7
  6
CONTINUOUS
 90
8
 70
0
 10
8.2842326601
 20
10.8680690921
 10
8.2838511527
 20
10.8672507342
 10
8.2833966355
 20
10.8656819131
 10
8.283244789
 20
10.8640886036
 10
8.2833502309
 20
10.8625591839
 10
8.2836490821
 20
10.8611074978
 10
8.284102809
 20
10.8596841261
 10
8.2846981841
 20
10.8582356852
  0
LINE
  5
227
100
AcDbEntity
  8
0
100
AcDbLine
 62
7
  6
CONTINUOUS
 10
8.0978238611
 20
11.0902212781
 11
8.1188177021
 21
11.1293769389
  0
LINE
  5
228
100
AcDbEntity
  8
0
100
AcDbLine
 62
7
  6
CONTINUOUS
 10
8.2842322679
 20
10.8680683896
 11
8.3052261089
 21
10.9072240504
  0
LINE
  5
229
100
AcDbEntity
  8
0
100
AcDbLine
 62
7
  6
CONTINUOUS
 10
8.1188177021
 20
11.1293769389
 11
8.1393885818
 21
11.1515332338
  0
LINE
  5
22A
100
AcDbEntity
  8
0
100
AcDbLine
 62
7
  6
CONTINUOUS
 10
8.3052261089
 20
10.9072240504
 11
8.3257969887
 21
10.9293803453
  0
LINE
  5
22B
100
AcDbEntity
  8
0
100
AcDbLine
 62
9
  6
CONTINUOUS
 10
8.1141422714
 20
11.0601834222
 11
8.1147570264
 21
11.0606992629
  0
LINE
  5
22C
100
AcDbEntity
  8
0
100
AcDbLine
 62
9
  6
CONTINUOUS
 10
8.1233474638
 20
11.0679074958
 11
8.1378927014
 21
11.0801123993
  0
LINE
  5
22D
100
AcDbEntity
  8
0
100
AcDbLine
 62
9
  6
CONTINUOUS
 10
8.3005506782
 20
10.8380305337
 11
8.3011654332
 21
10.8385463744
  0
LINE
  5
22E
100
AcDbEntity
  8
0
100
AcDbLine
 62
9
  6
CONTINUOUS
 10
8.3097558706
 20
10.8457546072
 11
8.3243011083
 21
10.8579595108
  0
LINE
  5
22F
100
AcDbEntity
  8
0
100
AcDbLine
 62
7
  6
CONTINUOUS
 10
8.1830964631
 20
11.0527724946
 11
8.2084882499
 21
11.0691834562
  0
LINE
  5
230
100
AcDbEntity
  8
0
100
AcDbLine
 62
9
  6
CONTINUOUS
 10
14.5974834891
 20
5.9386766055
 11
13.9474834891
 21
5.9386766055
  0
LINE
  5
231
100
AcDbEntity
  8
0
100
AcDbLine
 62
7
  6
CONTINUOUS
 10
14.6424834891
 20
5.9986766055
 11
13.9024834891
 21
5.9986766055
  0
LINE
  5
232
100
AcDbEntity
  8
0
100
AcDbLine
 62
9
  6
CONTINUOUS
 10
14.6724834891
 20
6.0286766055
 11
13.8724834891
 21
6.0286766055
  0
LWPOLYLINE
  5
233
100
AcDbEntity
  8
0
100
AcDbPolyline
 62
7
  6
CONTINUOUS
 90
7
 70
0
 10
8.4773762576
 20
10.6584780559
 10
8.4762379496
 20
10.6559955
 10
8.475135662
 20
10.6522122954
 10
8.4746425241
 20
10.648211191
 10
8.4747395626
 20
10.6440538007
 10
8.4753930883
 20
10.6398128042
 10
8.4765518025
 20
10.6355651426
  0
LWPOLYLINE
  5
234
100
AcDbEntity
  8
0
100
AcDbPolyline
 62
7
  6
CONTINUOUS
 90
7
 70
0
 10
8.6637846645
 20
10.4363251674
 10
8.6626463564
 20
10.4338426115
 10
8.6615440688
 20
10.4300594069
 10
8.6610509309
 20
10.4260583025
 10
8.6611479694
 20
10.4219009122
 10
8.6618014951
 20
10.4176599157
 10
8.6629602093
 20
10.4134122541
  0
LWPOLYLINE
  5
235
100
AcDbEntity
  8
0
100
AcDbPolyline
 62
7
  6
CONTINUOUS
 90
8
 70
0
 10
8.4706410669
 20
10.6459162036
 10
8.4702595595
 20
10.6450978457
 10
8.4698050423
 20
10.6435290246
 10
8.4696531958
 20
10.6419357151
 10
8.4697586377
 20
10.6404062954
 10
8.4700574889
 20
10.6389546093
 10
8.4705112158
 20
10.6375312376
 10
8.4711065909
 20
10.6360827966
  0
LWPOLYLINE
  5
236
100
AcDbEntity
  8
0
100
AcDbPolyline
 62
7
  6
CONTINUOUS
 90
8
 70
0
 10
8.6570494737
 20
10.4237633151
 10
8.6566679663
 20
10.4229449572
 10
8.6562134491
 20
10.4213761361
 10
8.6560616026
 20
10.4197828266
 10
8.6561670445
 20
10.4182534069
 10
8.6564658957
 20
10.4168017208
 10
8.6569196226
 20
10.4153783491
 10
8.6575149977
 20
10.4139299081
  0
LINE
  5
237
100
AcDbEntity
  8
0
100
AcDbLine
 62
7
  6
CONTINUOUS
 10
8.4706406747
 20
10.6459155011
 11
8.4916345157
 21
10.6850711619
  0
LINE
  5
238
100
AcDbEntity
  8
0
100
AcDbLine
 62
7
  6
CONTINUOUS
 10
8.6570490816
 20
10.4237626126
 11
8.6780429225
 21
10.4629182734
  0
LINE
  5
239
100
AcDbEntity
  8
0
100
AcDbLine
 62
7
  6
CONTINUOUS
 10
8.4916345157
 20
10.6850711619
 11
8.5122053955
 21
10.7072274568
  0
LINE
  5
23A
100
AcDbEntity
  8
0
100
AcDbLine
 62
7
  6
CONTINUOUS
 10
8.6780429225
 20
10.4629182734
 11
8.6986138023
 21
10.4850745683
  0
LINE
  5
23B
100
AcDbEntity
  8
0
100
AcDbLine
 62
9
  6
CONTINUOUS
 10
8.486959085
 20
10.6158776452
 11
8.48757384
 21
10.6163934859
  0
LINE
  5
23C
100
AcDbEntity
  8
0
100
AcDbLine
 62
9
  6
CONTINUOUS
 10
8.4961642774
 20
10.6236017187
 11
8.5107095151
 21
10.6358066223
  0
LINE
  5
23D
100
AcDbEntity
  8
0
100
AcDbLine
 62
7
  6
CONTINUOUS
 10
8.3695048699
 20
10.830619606
 11
8.3948966567
 21
10.8470305677
  0
LINE
  5
23E
100
AcDbEntity
  8
0
100
AcDbLine
 62
7
  6
CONTINUOUS
 10
8.5559132767
 20
10.6084667175
 11
8.5813050635
 21
10.6248776792
  0
LINE
  5
23F
100
AcDbEntity
  8
0
100
AcDbLine
 62
7
  6
CONTINUOUS
 10
8.1408900074
 20
11.0388968685
 11
8.1830964631
 21
11.0527724946
  0
LINE
  5
240
100
AcDbEntity
  8
0
100
AcDbLine
 62
7
  6
CONTINUOUS
 10
8.3272984142
 20
10.81674398
 11
8.3695048699
 21
10.830619606
  0
LINE
  5
241
100
AcDbEntity
  8
0
100
AcDbLine
 62
9
  6
CONTINUOUS
 10
13.8724834891
 20
6.4186766055
 11
14.6724834891
 21
6.4186766055
  0
LINE
  5
242
100
AcDbEntity
  8
0
100
AcDbLine
 62
7
  6
CONTINUOUS
 10
13.9024834891
 20
6.4486766055
 11
14.6424834891
 21
6.4486766055
  0
LWPOLYLINE
  5
243
100
AcDbEntity
  8
0
100
AcDbPolyline
 62
7
  6
CONTINUOUS
 90
7
 70
0
 10
8.8501930713
 20
10.2141722789
 10
8.8490547632
 20
10.211689723
 10
8.8479524756
 20
10.2079065184
 10
8.8474593377
 20
10.203905414
 10
8.8475563762
 20
10.1997480236
 10
8.8482099019
 20
10.1955070272
 10
8.8493686161
 20
10.1912593656
  0
LWPOLYLINE
  5
244
100
AcDbEntity
  8
0
100
AcDbPolyline
 62
7
  6
CONTINUOUS
 90
7
 70
0
 10
9.0366014781
 20
9.9920193904
 10
9.03546317
 20
9.9895368345
 10
9.0343608824
 20
9.9857536299
 10
9.0338677445
 20
9.9817525255
 10
9.033964783
 20
9.9775951351
 10
9.0346183087
 20
9.9733541387
 10
9.0357770229
 20
9.9691064771
  0
LWPOLYLINE
  5
245
100
AcDbEntity
  8
0
100
AcDbPolyline
 62
7
  6
CONTINUOUS
 90
8
 70
0
 10
8.8434578805
 20
10.2016104266
 10
8.8430763732
 20
10.2007920687
 10
8.8426218559
 20
10.1992232476
 10
8.8424700094
 20
10.1976299381
 10
8.8425754513
 20
10.1961005184
 10
8.8428743026
 20
10.1946488323
 10
8.8433280294
 20
10.1932254606
 10
8.8439234045
 20
10.1917770196
  0
LWPOLYLINE
  5
246
100
AcDbEntity
  8
0
100
AcDbPolyline
 62
7
  6
CONTINUOUS
 90
8
 70
0
 10
9.0298662873
 20
9.9794575381
 10
9.02948478
 20
9.9786391802
 10
9.0290302627
 20
9.9770703591
 10
9.0288784162
 20
9.9754770496
 10
9.0289838581
 20
9.9739476299
 10
9.0292827094
 20
9.9724959438
 10
9.0297364362
 20
9.9710725721
 10
9.0303318113
 20
9.9696241311
  0
LINE
  5
247
100
AcDbEntity
  8
0
100
AcDbLine
 62
7
  6
CONTINUOUS
 10
8.8434574884
 20
10.201609724
 11
8.8644513293
 21
10.2407653848
  0
LINE
  5
248
100
AcDbEntity
  8
0
100
AcDbLine
 62
7
  6
CONTINUOUS
 10
9.0298658952
 20
9.9794568355
 11
9.0508597361
 21
10.0186124963
  0
LINE
  5
249
100
AcDbEntity
  8
0
100
AcDbLine
 62
7
  6
CONTINUOUS
 10
8.8644513293
 20
10.2407653848
 11
8.8850222091
 21
10.2629216798
  0
LINE
  5
24A
100
AcDbEntity
  8
0
100
AcDbLine
 62
9
  6
CONTINUOUS
 10
8.6733674918
 20
10.3937247567
 11
8.6739822468
 21
10.3942405974
  0
LINE
  5
24B
100
AcDbEntity
  8
0
100
AcDbLine
 62
9
  6
CONTINUOUS
 10
8.6825726842
 20
10.4014488302
 11
8.6971179219
 21
10.4136537338
  0
LINE
  5
24C
100
AcDbEntity
  8
0
100
AcDbLine
 62
9
  6
CONTINUOUS
 10
8.8597758986
 20
10.1715718682
 11
8.8603906536
 21
10.1720877089
  0
LINE
  5
24D
100
AcDbEntity
  8
0
100
AcDbLine
 62
9
  6
CONTINUOUS
 10
8.868981091
 20
10.1792959417
 11
8.8835263287
 21
10.1915008453
  0
LINE
  5
24E
100
AcDbEntity
  8
0
100
AcDbLine
 62
7
  6
CONTINUOUS
 10
8.7423216835
 20
10.386313829
 11
8.7677134703
 21
10.4027247907
  0
LINE
  5
24F
100
AcDbEntity
  8
0
100
AcDbLine
 62
7
  6
CONTINUOUS
 10
8.9287300903
 20
10.1641609405
 11
8.9541218771
 21
10.1805719022
  0
LINE
  5
250
100
AcDbEntity
  8
0
100
AcDbLine
 62
7
  6
CONTINUOUS
 10
8.513706821
 20
10.5945910915
 11
8.5559132767
 21
10.6084667175
  0
LINE
  5
251
100
AcDbEntity
  8
0
100
AcDbLine
 62
7
  6
CONTINUOUS
 10
8.7001152278
 20
10.372438203
 11
8.7423216835
 21
10.386313829
  0
LINE
  5
252
100
AcDbEntity
  8
0
100
AcDbLine
 62
9
  6
CONTINUOUS
 10
13.5524834891
 20
6.7311766055
 11
14.9924834891
 21
6.7311766055
  0
LINE
  5
253
100
AcDbEntity
  8
0
100
AcDbLine
 62
7
  6
CONTINUOUS
 10
13.5824834891
 20
6.7611766055
 11
14.9624834891
 21
6.7611766055
  0
LWPOLYLINE
  5
254
100
AcDbEntity
  8
0
100
AcDbPolyline
 62
7
  6
CONTINUOUS
 90
7
 70
0
 10
9.2230098849
 20
9.7698665019
 10
9.2218715768
 20
9.767383946
 10
9.2207692892
 20
9.7636007414
 10
9.2202761513
 20
9.759599637
 10
9.2203731898
 20
9.7554422466
 10
9.2210267155
 20
9.7512012502
 10
9.2221854297
 20
9.7469535886
  0
LWPOLYLINE
  5
255
100
AcDbEntity
  8
0
100
AcDbPolyline
 62
7
  6
CONTINUOUS
 90
8
 70
0
 10
9.2162746941
 20
9.7573046496
 10
9.2158931868
 20
9.7564862917
 10
9.2154386695
 20
9.7549174706
 10
9.215286823
 20
9.7533241611
 10
9.2153922649
 20
9.7517947414
 10
9.2156911162
 20
9.7503430553
 10
9.216144843
 20
9.7489196836
 10
9.2167402182
 20
9.7474712426
  0
LINE
  5
256
100
AcDbEntity
  8
0
100
AcDbLine
 62
7
  6
CONTINUOUS
 10
9.216274302
 20
9.757303947
 11
9.2372681429
 21
9.7964596078
  0
LINE
  5
257
100
AcDbEntity
  8
0
100
AcDbLine
 62
7
  6
CONTINUOUS
 10
9.0508597361
 20
10.0186124963
 11
9.0714306159
 21
10.0407687913
  0
LINE
  5
258
100
AcDbEntity
  8
0
100
AcDbLine
 62
7
  6
CONTINUOUS
 10
9.2372681429
 20
9.7964596078
 11
9.2578390227
 21
9.8186159028
  0
LINE
  5
259
100
AcDbEntity
  8
0
100
AcDbLine
 62
9
  6
CONTINUOUS
 10
9.0461843054
 20
9.9494189797
 11
9.0467990604
 21
9.9499348204
  0
LINE
  5
25A
100
AcDbEntity
  8
0
100
AcDbLine
 62
9
  6
CONTINUOUS
 10
9.0553894978
 20
9.9571430532
 11
9.0699347355
 21
9.9693479568
  0
LINE
  5
25B
100
AcDbEntity
  8
0
100
AcDbLine
 62
9
  6
CONTINUOUS
 10
9.2325927122
 20
9.7272660912
 11
9.2332074672
 21
9.7277819319
  0
LINE
  5
25C
100
AcDbEntity
  8
0
100
AcDbLine
 62
9
  6
CONTINUOUS
 10
9.2417979046
 20
9.7349901647
 11
9.2563431423
 21
9.7471950683
  0
LINE
  5
25D
100
AcDbEntity
  8
0
100
AcDbLine
 62
7
  6
CONTINUOUS
 10
9.1151384971
 20
9.942008052
 11
9.1405302839
 21
9.9584190137
  0
LINE
  5
25E
100
AcDbEntity
  8
0
100
AcDbLine
 62
7
  6
CONTINUOUS
 10
8.8865236346
 20
10.1502853145
 11
8.9287300903
 21
10.1641609405
  0
LWPOLYLINE
  5
25F
100
AcDbEntity
  8
0
100
AcDbPolyline
 62
7
  6
CONTINUOUS
 90
16
 70
0
 10
8.1053326489
 20
11.075695744
 10
8.1072881157
 20
11.071665603
 10
8.1095482315
 20
11.0678011813
 10
8.1120691534
 20
11.0641144887
 10
8.1148240802
 20
11.060614064
 10
8.1177971548
 20
11.0573097832
 10
8.1209784622
 20
11.0542153886
 10
8.1243655775
 20
11.0513572295
 10
8.1279601154
 20
11.0487662005
 10
8.1317562355
 20
11.046498312
 10
8.1357049046
 20
11.0446369053
 10
8.1397430181
 20
11.0432636169
 10
8.1438066314
 20
11.0424444847
 10
8.14783505
 20
11.042229185
 10
8.1517633889
 20
11.0426538078
 10
8.154431181
 20
11.0433485731
  0
LINE
  5
260
100
AcDbEntity
  8
0
100
AcDbLine
 62
7
  6
CONTINUOUS
 10
8.0982699199
 20
11.0804322749
 11
8.099029075
 21
11.0788683329
  0
LINE
  5
261
100
AcDbEntity
  8
0
100
AcDbLine
 62
7
  6
CONTINUOUS
 10
8.1037349888
 20
11.0798709196
 11
8.1053326489
 21
11.075695744
  0
LINE
  5
262
100
AcDbEntity
  8
0
100
AcDbLine
 62
7
  6
CONTINUOUS
 10
8.2901433957
 20
10.8577180311
 11
8.2917410557
 21
10.8535428555
  0
LINE
  5
263
100
AcDbEntity
  8
0
100
AcDbLine
 62
7
  6
CONTINUOUS
 10
8.4765518025
 20
10.6355651426
 11
8.4781494625
 21
10.631389967
  0
LWPOLYLINE
  5
264
100
AcDbEntity
  8
0
100
AcDbPolyline
 62
7
  6
CONTINUOUS
 90
7
 70
0
 10
9.4094182917
 20
9.5477136134
 10
9.4082799836
 20
9.5452310575
 10
9.407177696
 20
9.5414478529
 10
9.4066845581
 20
9.5374467485
 10
9.4067815966
 20
9.5332893581
 10
9.4074351223
 20
9.5290483617
 10
9.4085938365
 20
9.5248007001
  0
LWPOLYLINE
  5
265
100
AcDbEntity
  8
0
100
AcDbPolyline
 62
7
  6
CONTINUOUS
 90
7
 70
0
 10
9.5958266985
 20
9.3255607249
 10
9.5946883904
 20
9.323078169
 10
9.5935861028
 20
9.3192949644
 10
9.5930929649
 20
9.31529386
 10
9.5931900034
 20
9.3111364696
 10
9.5938435291
 20
9.3068954732
 10
9.5950022433
 20
9.3026478116
  0
LWPOLYLINE
  5
266
100
AcDbEntity
  8
0
100
AcDbPolyline
 62
7
  6
CONTINUOUS
 90
8
 70
0
 10
9.4026831009
 20
9.5351517611
 10
9.4023015936
 20
9.5343334032
 10
9.4018470763
 20
9.5327645821
 10
9.4016952298
 20
9.5311712726
 10
9.4018006717
 20
9.5296418529
 10
9.402099523
 20
9.5281901668
 10
9.4025532499
 20
9.5267667951
 10
9.403148625
 20
9.5253183541
  0
LWPOLYLINE
  5
267
100
AcDbEntity
  8
0
100
AcDbPolyline
 62
7
  6
CONTINUOUS
 90
8
 70
0
 10
9.5890915077
 20
9.3129988726
 10
9.5887100004
 20
9.3121805147
 10
9.5882554831
 20
9.3106116936
 10
9.5881036366
 20
9.3090183841
 10
9.5882090785
 20
9.3074889644
 10
9.5885079298
 20
9.3060372783
 10
9.5889616567
 20
9.3046139066
 10
9.5895570318
 20
9.3031654656
  0
LINE
  5
268
100
AcDbEntity
  8
0
100
AcDbLine
 62
7
  6
CONTINUOUS
 10
9.4026827088
 20
9.5351510585
 11
9.4236765497
 21
9.5743067193
  0
LINE
  5
269
100
AcDbEntity
  8
0
100
AcDbLine
 62
7
  6
CONTINUOUS
 10
9.5890911156
 20
9.31299817
 11
9.6100849566
 21
9.3521538308
  0
LINE
  5
26A
100
AcDbEntity
  8
0
100
AcDbLine
 62
7
  6
CONTINUOUS
 10
9.4236765497
 20
9.5743067193
 11
9.4442474295
 21
9.5964630143
  0
LINE
  5
26B
100
AcDbEntity
  8
0
100
AcDbLine
 62
7
  6
CONTINUOUS
 10
9.6100849566
 20
9.3521538308
 11
9.6306558363
 21
9.3743101258
  0
LINE
  5
26C
100
AcDbEntity
  8
0
100
AcDbLine
 62
9
  6
CONTINUOUS
 10
9.419001119
 20
9.5051132027
 11
9.419615874
 21
9.5056290434
  0
LINE
  5
26D
100
AcDbEntity
  8
0
100
AcDbLine
 62
9
  6
CONTINUOUS
 10
9.4282063114
 20
9.5128372762
 11
9.4427515491
 21
9.5250421798
  0
LINE
  5
26E
100
AcDbEntity
  8
0
100
AcDbLine
 62
7
  6
CONTINUOUS
 10
9.3015469039
 20
9.7198551635
 11
9.3269386907
 21
9.7362661252
  0
LINE
  5
26F
100
AcDbEntity
  8
0
100
AcDbLine
 62
7
  6
CONTINUOUS
 10
9.4879553107
 20
9.497702275
 11
9.5133470975
 21
9.5141132367
  0
LINE
  5
270
100
AcDbEntity
  8
0
100
AcDbLine
 62
7
  6
CONTINUOUS
 10
9.0729320414
 20
9.928132426
 11
9.1151384971
 21
9.942008052
  0
LINE
  5
271
100
AcDbEntity
  8
0
100
AcDbLine
 62
7
  6
CONTINUOUS
 10
9.2593404483
 20
9.7059795375
 11
9.3015469039
 21
9.7198551635
  0
LWPOLYLINE
  5
272
100
AcDbEntity
  8
0
100
AcDbPolyline
 62
7
  6
CONTINUOUS
 90
6
 70
0
 10
8.1022854267
 20
11.0734616394
 10
8.1037801515
 20
11.0712845717
 10
8.1054981398
 20
11.0689044443
 10
8.1074360469
 20
11.0663328828
 10
8.1095817571
 20
11.0635927503
 10
8.111911712
 20
11.0607207836
  0
LWPOLYLINE
  5
273
100
AcDbEntity
  8
0
100
AcDbPolyline
 62
7
  6
CONTINUOUS
 90
6
 70
0
 10
8.2886938335
 20
10.8513087509
 10
8.2901885583
 20
10.8491316832
 10
8.2919065466
 20
10.8467515558
 10
8.2938444537
 20
10.8441799942
 10
8.2959901639
 20
10.8414398618
 10
8.2983201188
 20
10.8385678951
  0
LWPOLYLINE
  5
274
100
AcDbEntity
  8
0
100
AcDbPolyline
 62
7
  6
CONTINUOUS
 90
6
 70
0
 10
8.4751022403
 20
10.6291558623
 10
8.4765969651
 20
10.6269787947
 10
8.4783149534
 20
10.6245986673
 10
8.4802528605
 20
10.6220271057
 10
8.4823985707
 20
10.6192869733
 10
8.4847285256
 20
10.6164150066
  0
LINE
  5
275
100
AcDbEntity
  8
0
100
AcDbLine
 62
7
  6
CONTINUOUS
 10
8.1009700496
 20
11.0754963877
 11
8.1022854267
 21
11.0734616394
  0
LINE
  5
276
100
AcDbEntity
  8
0
100
AcDbLine
 62
7
  6
CONTINUOUS
 10
8.2873784564
 20
10.8533434992
 11
8.2886938335
 21
10.8513087509
  0
LINE
  5
277
100
AcDbEntity
  8
0
100
AcDbLine
 62
7
  6
CONTINUOUS
 10
8.4737868632
 20
10.6311906107
 11
8.4751022403
 21
10.6291558623
  0
LINE
  5
278
100
AcDbEntity
  8
0
100
AcDbLine
 62
7
  6
CONTINUOUS
 10
8.66019527
 20
10.4090377222
 11
8.6615106471
 21
10.4070029738
  0
LINE
  5
279
100
AcDbEntity
  8
0
100
AcDbLine
 62
7
  6
CONTINUOUS
 10
8.8466036769
 20
10.1868848337
 11
8.8479190539
 21
10.1848500853
  0
LINE
  5
27A
100
AcDbEntity
  8
0
100
AcDbLine
 62
7
  6
CONTINUOUS
 10
8.0998976712
 20
11.0772833767
 11
8.1010070543
 21
11.0754373945
  0
LINE
  5
27B
100
AcDbEntity
  8
0
100
AcDbLine
 62
7
  6
CONTINUOUS
 10
8.286306078
 20
10.8551304882
 11
8.2874154611
 21
10.853284506
  0
LINE
  5
27C
100
AcDbEntity
  8
0
100
AcDbLine
 62
7
  6
CONTINUOUS
 10
8.4727144848
 20
10.6329775997
 11
8.4738238679
 21
10.6311316175
  0
LINE
  5
27D
100
AcDbEntity
  8
0
100
AcDbLine
 62
7
  6
CONTINUOUS
 10
8.6591228916
 20
10.4108247112
 11
8.6602322747
 21
10.408978729
  0
LINE
  5
27E
100
AcDbEntity
  8
0
100
AcDbLine
 62
7
  6
CONTINUOUS
 10
8.8455312984
 20
10.1886718227
 11
8.8466406815
 21
10.1868258405
  0
LINE
  5
27F
100
AcDbEntity
  8
0
100
AcDbLine
 62
7
  6
CONTINUOUS
 10
9.0319397052
 20
9.9665189342
 11
9.0330490883
 21
9.964672952
  0
LINE
  5
280
100
AcDbEntity
  8
0
100
AcDbLine
 62
7
  6
CONTINUOUS
 10
8.0990047561
 20
11.0789150798
 11
8.0999279624
 21
11.0772304932
  0
LINE
  5
281
100
AcDbEntity
  8
0
100
AcDbLine
 62
7
  6
CONTINUOUS
 10
8.2854131629
 20
10.8567621913
 11
8.2863363692
 21
10.8550776047
  0
LINE
  5
282
100
AcDbEntity
  8
0
100
AcDbLine
 62
7
  6
CONTINUOUS
 10
8.4718215697
 20
10.6346093028
 11
8.472744776
 21
10.6329247162
  0
LINE
  5
283
100
AcDbEntity
  8
0
100
AcDbLine
 62
7
  6
CONTINUOUS
 10
8.6582299765
 20
10.4124564143
 11
8.6591531829
 21
10.4107718277
  0
LINE
  5
284
100
AcDbEntity
  8
0
100
AcDbLine
 62
7
  6
CONTINUOUS
 10
8.8446383833
 20
10.1903035258
 11
8.8455615897
 21
10.1886189392
  0
LINE
  5
285
100
AcDbEntity
  8
0
100
AcDbLine
 62
7
  6
CONTINUOUS
 10
9.0310467901
 20
9.9681506373
 11
9.0319699965
 21
9.9664660507
  0
LINE
  5
286
100
AcDbEntity
  8
0
100
AcDbLine
 62
7
  6
CONTINUOUS
 10
9.2174551969
 20
9.7459977488
 11
9.2183784033
 21
9.7443131622
  0
LWPOLYLINE
  5
287
100
AcDbEntity
  8
0
100
AcDbPolyline
 62
7
  6
CONTINUOUS
 90
16
 70
0
 10
8.2917410557
 20
10.8535428555
 10
8.2936965225
 20
10.8495127145
 10
8.2959566383
 20
10.8456482928
 10
8.2984775602
 20
10.8419616002
 10
8.301232487
 20
10.8384611755
 10
8.3042055616
 20
10.8351568947
 10
8.307386869
 20
10.8320625001
 10
8.3107739843
 20
10.829204341
 10
8.3143685222
 20
10.826613312
 10
8.3181646423
 20
10.8243454235
 10
8.3221133114
 20
10.8224840168
 10
8.3261514249
 20
10.8211107284
 10
8.3302150382
 20
10.8202915962
 10
8.3342434568
 20
10.8200762965
 10
8.3381717957
 20
10.8205009193
 10
8.3408395878
 20
10.8211956846
  0
LWPOLYLINE
  5
288
100
AcDbEntity
  8
0
100
AcDbPolyline
 62
7
  6
CONTINUOUS
 90
16
 70
0
 10
8.4781494625
 20
10.631389967
 10
8.4801049293
 20
10.627359826
 10
8.4823650451
 20
10.6234954043
 10
8.484885967
 20
10.6198087117
 10
8.4876408938
 20
10.616308287
 10
8.4906139684
 20
10.6130040062
 10
8.4937952758
 20
10.6099096116
 10
8.4971823911
 20
10.6070514525
 10
8.500776929
 20
10.6044604235
 10
8.5045730491
 20
10.602192535
 10
8.5085217182
 20
10.6003311283
 10
8.5125598317
 20
10.5989578399
 10
8.516623445
 20
10.5981387077
 10
8.5206518636
 20
10.597923408
 10
8.5245802025
 20
10.5983480308
 10
8.5272479946
 20
10.5990427961
  0
LWPOLYLINE
  5
289
100
AcDbEntity
  8
0
100
AcDbPolyline
 62
7
  6
CONTINUOUS
 90
16
 70
0
 10
8.6645578693
 20
10.4092370785
 10
8.6665133361
 20
10.4052069375
 10
8.6687734519
 20
10.4013425157
 10
8.6712943738
 20
10.3976558232
 10
8.6740493006
 20
10.3941553985
 10
8.6770223752
 20
10.3908511176
 10
8.6802036827
 20
10.3877567231
 10
8.683590798
 20
10.384898564
 10
8.6871853358
 20
10.382307535
 10
8.6909814559
 20
10.3800396465
 10
8.694930125
 20
10.3781782398
 10
8.6989682385
 20
10.3768049513
 10
8.7030318518
 20
10.3759858192
 10
8.7070602704
 20
10.3757705194
 10
8.7109886094
 20
10.3761951423
 10
8.7136564014
 20
10.3768899076
  0
LWPOLYLINE
  5
28A
100
AcDbEntity
  8
0
100
AcDbPolyline
 62
7
  6
CONTINUOUS
 90
16
 70
0
 10
8.8509662762
 20
10.18708419
 10
8.8529217429
 20
10.183054049
 10
8.8551818587
 20
10.1791896272
 10
8.8577027806
 20
10.1755029347
 10
8.8604577074
 20
10.17200251
 10
8.863430782
 20
10.1686982291
 10
8.8666120895
 20
10.1656038346
 10
8.8699992048
 20
10.1627456755
 10
8.8735937426
 20
10.1601546465
 10
8.8773898627
 20
10.157886758
 10
8.8813385318
 20
10.1560253513
 10
8.8853766453
 20
10.1546520628
 10
8.8894402586
 20
10.1538329307
 10
8.8934686772
 20
10.1536176309
 10
8.8973970162
 20
10.1540422538
 10
8.9000648082
 20
10.1547370191
  0
LWPOLYLINE
  5
28B
100
AcDbEntity
  8
0
100
AcDbPolyline
 62
7
  6
CONTINUOUS
 90
16
 70
0
 10
9.037374683
 20
9.9649313015
 10
9.0393301497
 20
9.9609011605
 10
9.0415902655
 20
9.9570367387
 10
9.0441111874
 20
9.9533500462
 10
9.0468661142
 20
9.9498496214
 10
9.0498391889
 20
9.9465453406
 10
9.0530204963
 20
9.9434509461
 10
9.0564076116
 20
9.940592787
 10
9.0600021494
 20
9.938001758
 10
9.0637982695
 20
9.9357338695
 10
9.0677469387
 20
9.9338724628
 10
9.0717850521
 20
9.9324991743
 10
9.0758486654
 20
9.9316800422
 10
9.079877084
 20
9.9314647424
 10
9.083805423
 20
9.9318893653
 10
9.086473215
 20
9.9325841306
  0
LWPOLYLINE
  5
28C
100
AcDbEntity
  8
0
100
AcDbPolyline
 62
7
  6
CONTINUOUS
 90
16
 70
0
 10
9.2237830898
 20
9.742778413
 10
9.2257385565
 20
9.738748272
 10
9.2279986723
 20
9.7348838502
 10
9.2305195942
 20
9.7311971577
 10
9.233274521
 20
9.7276967329
 10
9.2362475957
 20
9.7243924521
 10
9.2394289031
 20
9.7212980576
 10
9.2428160184
 20
9.7184398985
 10
9.2464105562
 20
9.7158488695
 10
9.2502066763
 20
9.713580981
 10
9.2541553455
 20
9.7117195743
 10
9.258193459
 20
9.7103462858
 10
9.2622570722
 20
9.7095271537
 10
9.2662854908
 20
9.7093118539
 10
9.2702138298
 20
9.7097364768
 10
9.2728816218
 20
9.7104312421
  0
LWPOLYLINE
  5
28D
100
AcDbEntity
  8
0
100
AcDbPolyline
 62
7
  6
CONTINUOUS
 90
16
 70
0
 10
9.4101914966
 20
9.5206255245
 10
9.4121469633
 20
9.5165953835
 10
9.4144070792
 20
9.5127309617
 10
9.416928001
 20
9.5090442692
 10
9.4196829279
 20
9.5055438444
 10
9.4226560025
 20
9.5022395636
 10
9.4258373099
 20
9.4991451691
 10
9.4292244252
 20
9.49628701
 10
9.432818963
 20
9.493695981
 10
9.4366150831
 20
9.4914280925
 10
9.4405637523
 20
9.4895666858
 10
9.4446018658
 20
9.4881933973
 10
9.448665479
 20
9.4873742652
 10
9.4526938976
 20
9.4871589654
 10
9.4566222366
 20
9.4875835883
 10
9.4592900286
 20
9.4882783536
  0
LINE
  5
28E
100
AcDbEntity
  8
0
100
AcDbLine
 62
7
  6
CONTINUOUS
 10
8.2846783267
 20
10.8582793864
 11
8.2854374818
 21
10.8567154444
  0
LINE
  5
28F
100
AcDbEntity
  8
0
100
AcDbLine
 62
7
  6
CONTINUOUS
 10
8.4710867336
 20
10.6361264979
 11
8.4718458886
 21
10.6345625559
  0
LINE
  5
290
100
AcDbEntity
  8
0
100
AcDbLine
 62
7
  6
CONTINUOUS
 10
8.6574951404
 20
10.4139736094
 11
8.6582542955
 21
10.4124096674
  0
LINE
  5
291
100
AcDbEntity
  8
0
100
AcDbLine
 62
7
  6
CONTINUOUS
 10
8.8439035472
 20
10.1918207209
 11
8.8446627023
 21
10.1902567789
  0
LINE
  5
292
100
AcDbEntity
  8
0
100
AcDbLine
 62
7
  6
CONTINUOUS
 10
9.030311954
 20
9.9696678324
 11
9.0310711091
 21
9.9681038904
  0
LINE
  5
293
100
AcDbEntity
  8
0
100
AcDbLine
 62
7
  6
CONTINUOUS
 10
9.2167203608
 20
9.7475149439
 11
9.2174795159
 21
9.7459510019
  0
LINE
  5
294
100
AcDbEntity
  8
0
100
AcDbLine
 62
7
  6
CONTINUOUS
 10
9.4031287676
 20
9.5253620554
 11
9.4038879227
 21
9.5237981134
  0
LINE
  5
295
100
AcDbEntity
  8
0
100
AcDbLine
 62
7
  6
CONTINUOUS
 10
8.6629602093
 20
10.4134122541
 11
8.6645578693
 21
10.4092370785
  0
LINE
  5
296
100
AcDbEntity
  8
0
100
AcDbLine
 62
7
  6
CONTINUOUS
 10
8.8493686161
 20
10.1912593656
 11
8.8509662762
 21
10.18708419
  0
LINE
  5
297
100
AcDbEntity
  8
0
100
AcDbLine
 62
7
  6
CONTINUOUS
 10
9.0357770229
 20
9.9691064771
 11
9.037374683
 21
9.9649313015
  0
LINE
  5
298
100
AcDbEntity
  8
0
100
AcDbLine
 62
7
  6
CONTINUOUS
 10
9.2221854297
 20
9.7469535886
 11
9.2237830898
 21
9.742778413
  0
LINE
  5
299
100
AcDbEntity
  8
0
100
AcDbLine
 62
7
  6
CONTINUOUS
 10
9.4085938365
 20
9.5248007001
 11
9.4101914966
 21
9.5206255245
  0
LINE
  5
29A
100
AcDbEntity
  8
0
100
AcDbLine
 62
7
  6
CONTINUOUS
 10
9.5950022433
 20
9.3026478116
 11
9.5965999034
 21
9.298472636
  0
LWPOLYLINE
  5
29B
100
AcDbEntity
  8
0
100
AcDbPolyline
 62
7
  6
CONTINUOUS
 90
7
 70
0
 10
9.7822351053
 20
9.1034078364
 10
9.7810967972
 20
9.1009252805
 10
9.7799945096
 20
9.0971420759
 10
9.7795013717
 20
9.0931409715
 10
9.7795984102
 20
9.0889835811
 10
9.7802519359
 20
9.0847425847
 10
9.7814106501
 20
9.0804949231
  0
LWPOLYLINE
  5
29C
100
AcDbEntity
  8
0
100
AcDbPolyline
 62
7
  6
CONTINUOUS
 90
7
 70
0
 10
9.9686435121
 20
8.8812549479
 10
9.967505204
 20
8.878772392
 10
9.9664029164
 20
8.8749891874
 10
9.9659097785
 20
8.870988083
 10
9.966006817
 20
8.8668306926
 10
9.9666603427
 20
8.8625896962
 10
9.9678190569
 20
8.8583420346
  0
LWPOLYLINE
  5
29D
100
AcDbEntity
  8
0
100
AcDbPolyline
 62
7
  6
CONTINUOUS
 90
8
 70
0
 10
9.7754999145
 20
9.0908459841
 10
9.7751184072
 20
9.0900276262
 10
9.7746638899
 20
9.0884588051
 10
9.7745120435
 20
9.0868654956
 10
9.7746174853
 20
9.0853360759
 10
9.7749163366
 20
9.0838843898
 10
9.7753700635
 20
9.0824610181
 10
9.7759654386
 20
9.0810125771
  0
LWPOLYLINE
  5
29E
100
AcDbEntity
  8
0
100
AcDbPolyline
 62
7
  6
CONTINUOUS
 90
8
 70
0
 10
9.9619083213
 20
8.8686930956
 10
9.961526814
 20
8.8678747377
 10
9.9610722967
 20
8.8663059166
 10
9.9609204503
 20
8.8647126071
 10
9.9610258921
 20
8.8631831874
 10
9.9613247434
 20
8.8617315013
 10
9.9617784703
 20
8.8603081296
 10
9.9623738454
 20
8.8588596886
  0
LINE
  5
29F
100
AcDbEntity
  8
0
100
AcDbLine
 62
7
  6
CONTINUOUS
 10
9.7754995224
 20
9.0908452815
 11
9.7964933634
 21
9.1300009423
  0
LINE
  5
2A0
100
AcDbEntity
  8
0
100
AcDbLine
 62
7
  6
CONTINUOUS
 10
9.9619079292
 20
8.868692393
 11
9.9829017702
 21
8.9078480538
  0
LINE
  5
2A1
100
AcDbEntity
  8
0
100
AcDbLine
 62
7
  6
CONTINUOUS
 10
9.7964933634
 20
9.1300009423
 11
9.8170642431
 21
9.1521572373
  0
LINE
  5
2A2
100
AcDbEntity
  8
0
100
AcDbLine
 62
7
  6
CONTINUOUS
 10
9.9829017702
 20
8.9078480538
 11
10.0034726499
 21
8.9300043488
  0
LINE
  5
2A3
100
AcDbEntity
  8
0
100
AcDbLine
 62
9
  6
CONTINUOUS
 10
9.6054095259
 20
9.2829603142
 11
9.6060242808
 21
9.2834761549
  0
LINE
  5
2A4
100
AcDbEntity
  8
0
100
AcDbLine
 62
9
  6
CONTINUOUS
 10
9.6146147182
 20
9.2906843877
 11
9.6291599559
 21
9.3028892913
  0
LINE
  5
2A5
100
AcDbEntity
  8
0
100
AcDbLine
 62
9
  6
CONTINUOUS
 10
9.7918179327
 20
9.0608074257
 11
9.7924326877
 21
9.0613232664
  0
LINE
  5
2A6
100
AcDbEntity
  8
0
100
AcDbLine
 62
9
  6
CONTINUOUS
 10
9.801023125
 20
9.0685314992
 11
9.8155683627
 21
9.0807364028
  0
LINE
  5
2A7
100
AcDbEntity
  8
0
100
AcDbLine
 62
7
  6
CONTINUOUS
 10
9.6743637175
 20
9.2755493865
 11
9.6997555044
 21
9.2919603481
  0
LINE
  5
2A8
100
AcDbEntity
  8
0
100
AcDbLine
 62
7
  6
CONTINUOUS
 10
9.8607721243
 20
9.053396498
 11
9.8861639112
 21
9.0698074596
  0
LINE
  5
2A9
100
AcDbEntity
  8
0
100
AcDbLine
 62
7
  6
CONTINUOUS
 10
9.4457488551
 20
9.483826649
 11
9.4879553107
 21
9.497702275
  0
LINE
  5
2AA
100
AcDbEntity
  8
0
100
AcDbLine
 62
7
  6
CONTINUOUS
 10
9.6321572619
 20
9.2616737605
 11
9.6743637175
 21
9.2755493865
  0
LWPOLYLINE
  5
2AB
100
AcDbEntity
  8
0
100
AcDbPolyline
 62
7
  6
CONTINUOUS
 90
8
 70
0
 10
9.9956017083
 20
8.8193792769
 10
9.996891063
 20
8.8185841209
 10
9.9981892272
 20
8.8179244321
 10
9.9995536566
 20
8.8174052816
 10
10.0010309131
 20
8.8170625846
 10
10.0026000053
 20
8.8169616276
 10
10.0041825731
 20
8.8171521518
 10
10.0049743027
 20
8.8173685507
  0
LWPOLYLINE
  5
2AC
100
AcDbEntity
  8
0
100
AcDbPolyline
 62
7
  6
CONTINUOUS
 90
8
 70
0
 10
9.8091933015
 20
9.0415321654
 10
9.8104826562
 20
9.0407370095
 10
9.8117808204
 20
9.0400773206
 10
9.8131452498
 20
9.0395581701
 10
9.8146225063
 20
9.0392154731
 10
9.8161915985
 20
9.0391145161
 10
9.8177741663
 20
9.0393050403
 10
9.8185658959
 20
9.0395214392
  0
LINE
  5
2AD
100
AcDbEntity
  8
0
100
AcDbLine
 62
7
  6
CONTINUOUS
 10
9.9942416767
 20
8.8203452755
 11
9.9955641619
 21
8.8194044801
  0
LINE
  5
2AE
100
AcDbEntity
  8
0
100
AcDbLine
 62
7
  6
CONTINUOUS
 10
9.8078332699
 20
9.042498164
 11
9.8091557551
 21
9.0415573686
  0
LINE
  5
2AF
100
AcDbEntity
  8
0
100
AcDbLine
 62
7
  6
CONTINUOUS
 10
9.9928557061
 20
8.8214387897
 11
9.9942815679
 21
8.8203151408
  0
LINE
  5
2B0
100
AcDbEntity
  8
0
100
AcDbLine
 62
7
  6
CONTINUOUS
 10
9.8064472993
 20
9.0435916782
 11
9.8078731611
 21
9.0424680293
  0
LINE
  5
2B1
100
AcDbEntity
  8
0
100
AcDbLine
 62
7
  6
CONTINUOUS
 10
9.6200388925
 20
9.2657445667
 11
9.6214647543
 21
9.2646209178
  0
LINE
  5
2B2
100
AcDbEntity
  8
0
100
AcDbLine
 62
7
  6
CONTINUOUS
 10
9.991379888
 20
8.822701808
 11
9.9929011001
 21
8.8214016156
  0
LINE
  5
2B3
100
AcDbEntity
  8
0
100
AcDbLine
 62
7
  6
CONTINUOUS
 10
9.8049714812
 20
9.0448546965
 11
9.8064926933
 21
9.0435545041
  0
LINE
  5
2B4
100
AcDbEntity
  8
0
100
AcDbLine
 62
7
  6
CONTINUOUS
 10
9.6185630744
 20
9.267007585
 11
9.6200842865
 21
9.2657073927
  0
LINE
  5
2B5
100
AcDbEntity
  8
0
100
AcDbLine
 62
7
  6
CONTINUOUS
 10
9.4321546676
 20
9.4891604735
 11
9.4336758797
 21
9.4878602812
  0
LINE
  5
2B6
100
AcDbEntity
  8
0
100
AcDbLine
 62
7
  6
CONTINUOUS
 10
9.9897993761
 20
8.8241455738
 11
9.9914322612
 21
8.8226553791
  0
LINE
  5
2B7
100
AcDbEntity
  8
0
100
AcDbLine
 62
7
  6
CONTINUOUS
 10
9.8033909693
 20
9.0462984623
 11
9.8050238544
 21
9.0448082676
  0
LINE
  5
2B8
100
AcDbEntity
  8
0
100
AcDbLine
 62
7
  6
CONTINUOUS
 10
9.6169825625
 20
9.2684513508
 11
9.6186154476
 21
9.2669611561
  0
LINE
  5
2B9
100
AcDbEntity
  8
0
100
AcDbLine
 62
7
  6
CONTINUOUS
 10
9.4305741557
 20
9.4906042393
 11
9.4322070408
 21
9.4891140446
  0
LINE
  5
2BA
100
AcDbEntity
  8
0
100
AcDbLine
 62
7
  6
CONTINUOUS
 10
9.2441657489
 20
9.7127571278
 11
9.245798634
 21
9.7112669331
  0
LINE
  5
2BB
100
AcDbEntity
  8
0
100
AcDbLine
 62
7
  6
CONTINUOUS
 10
9.0577573421
 20
9.9349100163
 11
9.0593902272
 21
9.9334198216
  0
LWPOLYLINE
  5
2BC
100
AcDbEntity
  8
0
100
AcDbPolyline
 62
7
  6
CONTINUOUS
 90
7
 70
0
 10
9.9781934138
 20
8.8365696626
 10
9.9803559305
 20
8.8340666882
 10
9.9824524329
 20
8.8317134844
 10
9.9844608745
 20
8.8295311249
 10
9.9863698778
 20
8.827529071
 10
9.9881706857
 20
8.82571434
 10
9.9898307788
 20
8.8241165323
  0
LWPOLYLINE
  5
2BD
100
AcDbEntity
  8
0
100
AcDbPolyline
 62
7
  6
CONTINUOUS
 90
7
 70
0
 10
9.791785007
 20
9.0587225511
 10
9.7939475237
 20
9.0562195767
 10
9.7960440261
 20
9.0538663729
 10
9.7980524677
 20
9.0516840134
 10
9.799961471
 20
9.0496819595
 10
9.8017622789
 20
9.0478672286
 10
9.803422372
 20
9.0462694208
  0
LWPOLYLINE
  5
2BE
100
AcDbEntity
  8
0
100
AcDbPolyline
 62
7
  6
CONTINUOUS
 90
7
 70
0
 10
9.6053766002
 20
9.2808754396
 10
9.6075391169
 20
9.2783724652
 10
9.6096356193
 20
9.2760192614
 10
9.6116440609
 20
9.2738369019
 10
9.6135530642
 20
9.271834848
 10
9.6153538721
 20
9.2700201171
 10
9.6170139651
 20
9.2684223093
  0
LWPOLYLINE
  5
2BF
100
AcDbEntity
  8
0
100
AcDbPolyline
 62
7
  6
CONTINUOUS
 90
7
 70
0
 10
9.4189681934
 20
9.5030283281
 10
9.4211307101
 20
9.5005253537
 10
9.4232272125
 20
9.4981721499
 10
9.425235654
 20
9.4959897904
 10
9.4271446574
 20
9.4939877365
 10
9.4289454653
 20
9.4921730056
 10
9.4306055583
 20
9.4905751978
  0
LWPOLYLINE
  5
2C0
100
AcDbEntity
  8
0
100
AcDbPolyline
 62
7
  6
CONTINUOUS
 90
7
 70
0
 10
9.2325597866
 20
9.7251812166
 10
9.2347223033
 20
9.7226782422
 10
9.2368188057
 20
9.7203250385
 10
9.2388272472
 20
9.718142679
 10
9.2407362506
 20
9.716140625
 10
9.2425370584
 20
9.7143258941
 10
9.2441971515
 20
9.7127280864
  0
LWPOLYLINE
  5
2C1
100
AcDbEntity
  8
0
100
AcDbPolyline
 62
7
  6
CONTINUOUS
 90
7
 70
0
 10
9.0461513797
 20
9.9473341051
 10
9.0483138965
 20
9.9448311307
 10
9.0504103989
 20
9.942477927
 10
9.0524188404
 20
9.9402955675
 10
9.0543278438
 20
9.9382935135
 10
9.0561286516
 20
9.9364787826
 10
9.0577887447
 20
9.9348809749
  0
LWPOLYLINE
  5
2C2
100
AcDbEntity
  8
0
100
AcDbPolyline
 62
7
  6
CONTINUOUS
 90
7
 70
0
 10
8.8597429729
 20
10.1694869936
 10
8.8619054897
 20
10.1669840192
 10
8.8640019921
 20
10.1646308155
 10
8.8660104336
 20
10.162448456
 10
8.867919437
 20
10.160446402
 10
8.8697202448
 20
10.1586316711
 10
8.8713803379
 20
10.1570338634
  0
LWPOLYLINE
  5
2C3
100
AcDbEntity
  8
0
100
AcDbPolyline
 62
7
  6
CONTINUOUS
 90
7
 70
0
 10
8.6733345661
 20
10.3916398821
 10
8.6754970829
 20
10.3891369077
 10
8.6775935853
 20
10.386783704
 10
8.6796020268
 20
10.3846013445
 10
8.6815110302
 20
10.3825992905
 10
8.683311838
 20
10.3807845596
 10
8.6849719311
 20
10.3791867519
  0
LWPOLYLINE
  5
2C4
100
AcDbEntity
  8
0
100
AcDbPolyline
 62
7
  6
CONTINUOUS
 90
7
 70
0
 10
8.4869261593
 20
10.6137927706
 10
8.4890886761
 20
10.6112897962
 10
8.4911851785
 20
10.6089365925
 10
8.49319362
 20
10.606754233
 10
8.4951026233
 20
10.604752179
 10
8.4969034312
 20
10.6029374481
 10
8.4985635243
 20
10.6013396404
  0
LWPOLYLINE
  5
2C5
100
AcDbEntity
  8
0
100
AcDbPolyline
 62
7
  6
CONTINUOUS
 90
7
 70
0
 10
8.3005177525
 20
10.8359456591
 10
8.3026802693
 20
10.8334426847
 10
8.3047767717
 20
10.831089481
 10
8.3067852132
 20
10.8289071215
 10
8.3086942165
 20
10.8269050675
 10
8.3104950244
 20
10.8250903366
 10
8.3121551175
 20
10.8234925289
  0
LWPOLYLINE
  5
2C6
100
AcDbEntity
  8
0
100
AcDbPolyline
 62
7
  6
CONTINUOUS
 90
7
 70
0
 10
8.1141093457
 20
11.0580985476
 10
8.1162718624
 20
11.0555955732
 10
8.1183683648
 20
11.0532423695
 10
8.1203768064
 20
11.05106001
 10
8.1222858097
 20
11.049057956
 10
8.1240866176
 20
11.0472432251
 10
8.1257467107
 20
11.0456454174
  0
LINE
  5
2C7
100
AcDbEntity
  8
0
100
AcDbLine
 62
7
  6
CONTINUOUS
 10
9.9771761927
 20
8.8377733597
 11
9.9781934138
 21
8.8365696626
  0
LINE
  5
2C8
100
AcDbEntity
  8
0
100
AcDbLine
 62
7
  6
CONTINUOUS
 10
9.7907677859
 20
9.0599262482
 11
9.791785007
 21
9.0587225511
  0
LINE
  5
2C9
100
AcDbEntity
  8
0
100
AcDbLine
 62
7
  6
CONTINUOUS
 10
9.6043593791
 20
9.2820791367
 11
9.6053766002
 21
9.2808754396
  0
LINE
  5
2CA
100
AcDbEntity
  8
0
100
AcDbLine
 62
7
  6
CONTINUOUS
 10
9.4179509723
 20
9.5042320252
 11
9.4189681934
 21
9.5030283281
  0
LINE
  5
2CB
100
AcDbEntity
  8
0
100
AcDbLine
 62
7
  6
CONTINUOUS
 10
9.2315425655
 20
9.7263849137
 11
9.2325597866
 21
9.7251812166
  0
LINE
  5
2CC
100
AcDbEntity
  8
0
100
AcDbLine
 62
7
  6
CONTINUOUS
 10
9.0451341586
 20
9.9485378022
 11
9.0461513797
 21
9.9473341051
  0
LINE
  5
2CD
100
AcDbEntity
  8
0
100
AcDbLine
 62
7
  6
CONTINUOUS
 10
8.8587257518
 20
10.1706906907
 11
8.8597429729
 21
10.1694869936
  0
LINE
  5
2CE
100
AcDbEntity
  8
0
100
AcDbLine
 62
7
  6
CONTINUOUS
 10
8.672317345
 20
10.3928435792
 11
8.6733345661
 21
10.3916398821
  0
LINE
  5
2CF
100
AcDbEntity
  8
0
100
AcDbLine
 62
7
  6
CONTINUOUS
 10
8.4859089382
 20
10.6149964677
 11
8.4869261593
 21
10.6137927706
  0
LINE
  5
2D0
100
AcDbEntity
  8
0
100
AcDbLine
 62
7
  6
CONTINUOUS
 10
8.2995005314
 20
10.8371493562
 11
8.3005177525
 21
10.8359456591
  0
LINE
  5
2D1
100
AcDbEntity
  8
0
100
AcDbLine
 62
7
  6
CONTINUOUS
 10
8.1130921246
 20
11.0593022447
 11
8.1141093457
 21
11.0580985476
  0
LINE
  5
2D2
100
AcDbEntity
  8
0
100
AcDbLine
 62
7
  6
CONTINUOUS
 10
8.1830964631
 20
11.0527724946
 11
8.1607174705
 21
11.0794427467
  0
LINE
  5
2D3
100
AcDbEntity
  8
0
100
AcDbLine
 62
7
  6
CONTINUOUS
 10
8.7423216835
 20
10.386313829
 11
8.7199426958
 21
10.4129840693
  0
LINE
  5
2D4
100
AcDbEntity
  8
0
100
AcDbLine
 62
7
  6
CONTINUOUS
 10
10.0471805311
 20
8.8312436095
 11
10.0248015386
 21
8.8579138617
  0
LINE
  5
2D5
100
AcDbEntity
  8
0
100
AcDbLine
 62
7
  6
CONTINUOUS
 10
9.6743637175
 20
9.2755493865
 11
9.6519847299
 21
9.3022196267
  0
LINE
  5
2D6
100
AcDbEntity
  8
0
100
AcDbLine
 62
7
  6
CONTINUOUS
 10
9.4879553107
 20
9.497702275
 11
9.4655763238
 21
9.5243725135
  0
LINE
  5
2D7
100
AcDbEntity
  8
0
100
AcDbLine
 62
7
  6
CONTINUOUS
 10
9.3015469039
 20
9.7198551635
 11
9.279167917
 21
9.746525402
  0
LINE
  5
2D8
100
AcDbEntity
  8
0
100
AcDbLine
 62
7
  6
CONTINUOUS
 10
9.1151384971
 20
9.942008052
 11
9.0927595102
 21
9.9686782905
  0
LINE
  5
2D9
100
AcDbEntity
  8
0
100
AcDbLine
 62
7
  6
CONTINUOUS
 10
8.9287300903
 20
10.1641609405
 11
8.9063511034
 21
10.190831179
  0
LINE
  5
2DA
100
AcDbEntity
  8
0
100
AcDbLine
 62
7
  6
CONTINUOUS
 10
8.5559132767
 20
10.6084667175
 11
8.5335342897
 21
10.635136956
  0
LINE
  5
2DB
100
AcDbEntity
  8
0
100
AcDbLine
 62
7
  6
CONTINUOUS
 10
9.8607721243
 20
9.053396498
 11
9.8383931381
 21
9.0800667348
  0
LINE
  5
2DC
100
AcDbEntity
  8
0
100
AcDbLine
 62
7
  6
CONTINUOUS
 10
9.8188723501
 20
9.1033307046
 11
9.7964933634
 21
9.1300009423
  0
LINE
  5
2DD
100
AcDbEntity
  8
0
100
AcDbLine
 62
7
  6
CONTINUOUS
 10
9.4460555364
 20
9.5476364816
 11
9.4236765497
 21
9.5743067193
  0
LINE
  5
2DE
100
AcDbEntity
  8
0
100
AcDbLine
 62
7
  6
CONTINUOUS
 10
9.2596471296
 20
9.7697893701
 11
9.2372681429
 21
9.7964596078
  0
LINE
  5
2DF
100
AcDbEntity
  8
0
100
AcDbLine
 62
7
  6
CONTINUOUS
 10
9.0732387228
 20
9.9919422586
 11
9.0508597361
 21
10.0186124963
  0
LINE
  5
2E0
100
AcDbEntity
  8
0
100
AcDbLine
 62
7
  6
CONTINUOUS
 10
8.886830316
 20
10.2140951471
 11
8.8644513293
 21
10.2407653848
  0
LINE
  5
2E1
100
AcDbEntity
  8
0
100
AcDbLine
 62
7
  6
CONTINUOUS
 10
8.5140135023
 20
10.6584009241
 11
8.4916345157
 21
10.6850711619
  0
LINE
  5
2E2
100
AcDbEntity
  8
0
100
AcDbLine
 62
7
  6
CONTINUOUS
 10
8.3695048699
 20
10.830619606
 11
8.3471258836
 21
10.8572898429
  0
LINE
  5
2E3
100
AcDbEntity
  8
0
100
AcDbLine
 62
7
  6
CONTINUOUS
 10
8.3276050956
 20
10.8805538126
 11
8.3052261089
 21
10.9072240504
  0
LINE
  5
2E4
100
AcDbEntity
  8
0
100
AcDbLine
 62
7
  6
CONTINUOUS
 10
10.005280769
 20
8.8811778084
 11
9.9829017702
 21
8.9078480538
  0
LINE
  5
2E5
100
AcDbEntity
  8
0
100
AcDbLine
 62
7
  6
CONTINUOUS
 10
9.6324639471
 20
9.3254835906
 11
9.6100849566
 21
9.3521538308
  0
LINE
  5
2E6
100
AcDbEntity
  8
0
100
AcDbLine
 62
7
  6
CONTINUOUS
 10
8.7004219131
 20
10.4362480332
 11
8.6780429225
 21
10.4629182734
  0
LINE
  5
2E7
100
AcDbEntity
  8
0
100
AcDbLine
 62
7
  6
CONTINUOUS
 10
8.1411967009
 20
11.1027066935
 11
8.1188177021
 21
11.1293769389
  0
LINE
  5
2E8
100
AcDbEntity
  8
0
100
AcDbLine
 62
7
  6
CONTINUOUS
 10
7.8268331066
 20
11.5240223443
 11
13.2776720368
 21
5.0279654666
  0
LINE
  5
2E9
100
AcDbEntity
  8
0
100
AcDbLine
 62
7
  6
CONTINUOUS
 10
13.60029841
 20
4.6590315656
 11
13.3110439856
 21
5.003751565
  0
LINE
  5
2EA
100
AcDbEntity
  8
0
100
AcDbLine
 62
7
  6
CONTINUOUS
 10
13.7469657111
 20
4.4881295921
 11
13.6150692733
 21
4.6453176458
  0
LINE
  5
2EB
100
AcDbEntity
  8
0
100
AcDbLine
 62
9
  6
CONTINUOUS
 10
7.8701981193
 20
11.5734639833
 11
13.3338928017
 21
5.0620862168
  0
LINE
  5
2EC
100
AcDbEntity
  8
0
100
AcDbLine
 62
9
  6
CONTINUOUS
 10
13.3786228999
 20
5.0865651529
 11
13.3721950238
 21
5.0942255973
  0
LINE
  5
2ED
100
AcDbEntity
  8
0
100
AcDbLine
 62
9
  6
CONTINUOUS
 10
7.9032215321
 20
11.6142279897
 11
7.9096494082
 21
11.6065675452
  0
LINE
  5
2EE
100
AcDbEntity
  8
0
100
AcDbLine
 62
7
  6
CONTINUOUS
 10
8.111911712
 20
11.0607207836
 11
8.1130921246
 21
11.0593022447
  0
LINE
  5
2EF
100
AcDbEntity
  8
0
100
AcDbLine
 62
7
  6
CONTINUOUS
 10
8.2983201188
 20
10.8385678951
 11
8.2995005314
 21
10.8371493562
  0
LINE
  5
2F0
100
AcDbEntity
  8
0
100
AcDbLine
 62
7
  6
CONTINUOUS
 10
8.4847285256
 20
10.6164150066
 11
8.4859089382
 21
10.6149964677
  0
LINE
  5
2F1
100
AcDbEntity
  8
0
100
AcDbLine
 62
7
  6
CONTINUOUS
 10
8.6711369324
 20
10.3942621181
 11
8.672317345
 21
10.3928435792
  0
LINE
  5
2F2
100
AcDbEntity
  8
0
100
AcDbLine
 62
7
  6
CONTINUOUS
 10
8.8575453392
 20
10.1721092296
 11
8.8587257518
 21
10.1706906907
  0
LINE
  5
2F3
100
AcDbEntity
  8
0
100
AcDbLine
 62
7
  6
CONTINUOUS
 10
9.043953746
 20
9.9499563411
 11
9.0451341586
 21
9.9485378022
  0
LINE
  5
2F4
100
AcDbEntity
  8
0
100
AcDbLine
 62
7
  6
CONTINUOUS
 10
9.2303621529
 20
9.7278034525
 11
9.2315425655
 21
9.7263849137
  0
LINE
  5
2F5
100
AcDbEntity
  8
0
100
AcDbLine
 62
7
  6
CONTINUOUS
 10
9.4167705597
 20
9.505650564
 11
9.4179509723
 21
9.5042320252
  0
LINE
  5
2F6
100
AcDbEntity
  8
0
100
AcDbLine
 62
7
  6
CONTINUOUS
 10
9.6031789665
 20
9.2834976755
 11
9.6043593791
 21
9.2820791367
  0
LINE
  5
2F7
100
AcDbEntity
  8
0
100
AcDbLine
 62
7
  6
CONTINUOUS
 10
9.7895873733
 20
9.061344787
 11
9.7907677859
 21
9.0599262482
  0
LINE
  5
2F8
100
AcDbEntity
  8
0
100
AcDbLine
 62
7
  6
CONTINUOUS
 10
9.9759957801
 20
8.8391918985
 11
9.9771761927
 21
8.8377733597
  0
LWPOLYLINE
  5
2F9
100
AcDbEntity
  8
0
100
AcDbPolyline
 62
7
  6
CONTINUOUS
 90
6
 70
0
 10
8.6615106471
 20
10.4070029738
 10
8.6630053719
 20
10.4048259062
 10
8.6647233602
 20
10.4024457788
 10
8.6666612674
 20
10.3998742172
 10
8.6688069775
 20
10.3971340848
 10
8.6711369324
 20
10.3942621181
  0
LWPOLYLINE
  5
2FA
100
AcDbEntity
  8
0
100
AcDbPolyline
 62
7
  6
CONTINUOUS
 90
6
 70
0
 10
8.8479190539
 20
10.1848500853
 10
8.8494137787
 20
10.1826730177
 10
8.851131767
 20
10.1802928903
 10
8.8530696742
 20
10.1777213287
 10
8.8552153843
 20
10.1749811963
 10
8.8575453392
 20
10.1721092296
  0
LWPOLYLINE
  5
2FB
100
AcDbEntity
  8
0
100
AcDbPolyline
 62
7
  6
CONTINUOUS
 90
6
 70
0
 10
9.0343274607
 20
9.9626971968
 10
9.0358221855
 20
9.9605201292
 10
9.0375401738
 20
9.9581400017
 10
9.039478081
 20
9.9555684402
 10
9.0416237911
 20
9.9528283078
 10
9.043953746
 20
9.9499563411
  0
LWPOLYLINE
  5
2FC
100
AcDbEntity
  8
0
100
AcDbPolyline
 62
7
  6
CONTINUOUS
 90
6
 70
0
 10
9.2207358675
 20
9.7405443083
 10
9.2222305923
 20
9.7383672407
 10
9.2239485806
 20
9.7359871132
 10
9.2258864878
 20
9.7334155517
 10
9.228032198
 20
9.7306754193
 10
9.2303621529
 20
9.7278034525
  0
LWPOLYLINE
  5
2FD
100
AcDbEntity
  8
0
100
AcDbPolyline
 62
7
  6
CONTINUOUS
 90
6
 70
0
 10
9.4071442744
 20
9.5183914198
 10
9.4086389991
 20
9.5162143522
 10
9.4103569875
 20
9.5138342247
 10
9.4122948946
 20
9.5112626632
 10
9.4144406048
 20
9.5085225308
 10
9.4167705597
 20
9.505650564
  0
LWPOLYLINE
  5
2FE
100
AcDbEntity
  8
0
100
AcDbPolyline
 62
7
  6
CONTINUOUS
 90
6
 70
0
 10
9.5935526812
 20
9.2962385313
 10
9.595047406
 20
9.2940614637
 10
9.5967653943
 20
9.2916813362
 10
9.5987033014
 20
9.2891097747
 10
9.6008490116
 20
9.2863696423
 10
9.6031789665
 20
9.2834976755
  0
LWPOLYLINE
  5
2FF
100
AcDbEntity
  8
0
100
AcDbPolyline
 62
7
  6
CONTINUOUS
 90
6
 70
0
 10
9.779961088
 20
9.0740856428
 10
9.7814558128
 20
9.0719085752
 10
9.7831738011
 20
9.0695284477
 10
9.7851117082
 20
9.0669568862
 10
9.7872574184
 20
9.0642167538
 10
9.7895873733
 20
9.061344787
  0
LWPOLYLINE
  5
300
100
AcDbEntity
  8
0
100
AcDbPolyline
 62
7
  6
CONTINUOUS
 90
6
 70
0
 10
9.9663694948
 20
8.8519327543
 10
9.9678642196
 20
8.8497556867
 10
9.9695822079
 20
8.8473755592
 10
9.971520115
 20
8.8448039977
 10
9.9736658252
 20
8.8420638653
 10
9.9759957801
 20
8.8391918985
  0
LINE
  5
301
100
AcDbEntity
  8
0
100
AcDbLine
 62
7
  6
CONTINUOUS
 10
9.0330120837
 20
9.9647319452
 11
9.0343274607
 21
9.9626971968
  0
LINE
  5
302
100
AcDbEntity
  8
0
100
AcDbLine
 62
7
  6
CONTINUOUS
 10
9.2194204905
 20
9.7425790567
 11
9.2207358675
 21
9.7405443083
  0
LINE
  5
303
100
AcDbEntity
  8
0
100
AcDbLine
 62
7
  6
CONTINUOUS
 10
9.4058288973
 20
9.5204261682
 11
9.4071442744
 21
9.5183914198
  0
LINE
  5
304
100
AcDbEntity
  8
0
100
AcDbLine
 62
7
  6
CONTINUOUS
 10
9.5922373041
 20
9.2982732796
 11
9.5935526812
 21
9.2962385313
  0
LINE
  5
305
100
AcDbEntity
  8
0
100
AcDbLine
 62
7
  6
CONTINUOUS
 10
9.7786457109
 20
9.0761203911
 11
9.779961088
 21
9.0740856428
  0
LINE
  5
306
100
AcDbEntity
  8
0
100
AcDbLine
 62
7
  6
CONTINUOUS
 10
9.9650541177
 20
8.8539675026
 11
9.9663694948
 21
8.8519327543
  0
LINE
  5
307
100
AcDbEntity
  8
0
100
AcDbLine
 62
7
  6
CONTINUOUS
 10
9.2183481121
 20
9.7443660457
 11
9.2194574951
 21
9.7425200635
  0
LINE
  5
308
100
AcDbEntity
  8
0
100
AcDbLine
 62
7
  6
CONTINUOUS
 10
9.4047565189
 20
9.5222131572
 11
9.4058659019
 21
9.520367175
  0
LINE
  5
309
100
AcDbEntity
  8
0
100
AcDbLine
 62
7
  6
CONTINUOUS
 10
9.5911649257
 20
9.3000602687
 11
9.5922743087
 21
9.2982142865
  0
LINE
  5
30A
100
AcDbEntity
  8
0
100
AcDbLine
 62
7
  6
CONTINUOUS
 10
9.7775733325
 20
9.0779073802
 11
9.7786827155
 21
9.076061398
  0
LINE
  5
30B
100
AcDbEntity
  8
0
100
AcDbLine
 62
7
  6
CONTINUOUS
 10
9.9639817393
 20
8.8557544917
 11
9.9650911223
 21
8.8539085095
  0
LINE
  5
30C
100
AcDbEntity
  8
0
100
AcDbLine
 62
7
  6
CONTINUOUS
 10
9.4038636037
 20
9.5238448603
 11
9.4047868101
 21
9.5221602737
  0
LINE
  5
30D
100
AcDbEntity
  8
0
100
AcDbLine
 62
7
  6
CONTINUOUS
 10
9.5902720105
 20
9.3016919718
 11
9.5911952169
 21
9.3000073852
  0
LINE
  5
30E
100
AcDbEntity
  8
0
100
AcDbLine
 62
7
  6
CONTINUOUS
 10
9.7766804173
 20
9.0795390833
 11
9.7776036237
 21
9.0778544966
  0
LINE
  5
30F
100
AcDbEntity
  8
0
100
AcDbLine
 62
7
  6
CONTINUOUS
 10
9.9630888241
 20
8.8573861948
 11
9.9640120305
 21
8.8557016081
  0
LWPOLYLINE
  5
310
100
AcDbEntity
  8
0
100
AcDbPolyline
 62
7
  6
CONTINUOUS
 90
16
 70
0
 10
9.5965999034
 20
9.298472636
 10
9.5985553701
 20
9.294442495
 10
9.600815486
 20
9.2905780732
 10
9.6033364078
 20
9.2868913807
 10
9.6060913347
 20
9.2833909559
 10
9.6090644093
 20
9.2800866751
 10
9.6122457167
 20
9.2769922806
 10
9.615632832
 20
9.2741341215
 10
9.6192273698
 20
9.2715430925
 10
9.6230234899
 20
9.2692752039
 10
9.6269721591
 20
9.2674137973
 10
9.6310102726
 20
9.2660405088
 10
9.6350738858
 20
9.2652213767
 10
9.6391023044
 20
9.2650060769
 10
9.6430306434
 20
9.2654306998
 10
9.6456984354
 20
9.2661254651
  0
LWPOLYLINE
  5
311
100
AcDbEntity
  8
0
100
AcDbPolyline
 62
7
  6
CONTINUOUS
 90
16
 70
0
 10
9.7830083102
 20
9.0763197475
 10
9.7849637769
 20
9.0722896065
 10
9.7872238928
 20
9.0684251847
 10
9.7897448146
 20
9.0647384922
 10
9.7924997415
 20
9.0612380674
 10
9.7954728161
 20
9.0579337866
 10
9.7986541235
 20
9.0548393921
 10
9.8020412388
 20
9.051981233
 10
9.8056357767
 20
9.0493902039
 10
9.8094318968
 20
9.0471223154
 10
9.8133805659
 20
9.0452609088
 10
9.8174186794
 20
9.0438876203
 10
9.8214822927
 20
9.0430684882
 10
9.8255107112
 20
9.0428531884
 10
9.8294390502
 20
9.0432778113
 10
9.8321068423
 20
9.0439725766
  0
LWPOLYLINE
  5
312
100
AcDbEntity
  8
0
100
AcDbPolyline
 62
7
  6
CONTINUOUS
 90
16
 70
0
 10
9.969416717
 20
8.854166859
 10
9.9713721837
 20
8.850136718
 10
9.9736322996
 20
8.8462722962
 10
9.9761532214
 20
8.8425856037
 10
9.9789081483
 20
8.8390851789
 10
9.9818812229
 20
8.8357808981
 10
9.9850625303
 20
8.8326865036
 10
9.9884496456
 20
8.8298283445
 10
9.9920441835
 20
8.8272373154
 10
9.9958403036
 20
8.8249694269
 10
9.9997889727
 20
8.8231080203
 10
10.0038270862
 20
8.8217347318
 10
10.0078906995
 20
8.8209155997
 10
10.0119191181
 20
8.8207002999
 10
10.015847457
 20
8.8211249228
 10
10.0185152491
 20
8.8218196881
  0
LINE
  5
313
100
AcDbEntity
  8
0
100
AcDbLine
 62
7
  6
CONTINUOUS
 10
9.5895371744
 20
9.3032091669
 11
9.5902963295
 21
9.3016452249
  0
LINE
  5
314
100
AcDbEntity
  8
0
100
AcDbLine
 62
7
  6
CONTINUOUS
 10
9.7759455812
 20
9.0810562784
 11
9.7767047363
 21
9.0794923364
  0
LINE
  5
315
100
AcDbEntity
  8
0
100
AcDbLine
 62
7
  6
CONTINUOUS
 10
9.962353988
 20
8.8589033899
 11
9.9631131431
 21
8.8573394479
  0
LINE
  5
316
100
AcDbEntity
  8
0
100
AcDbLine
 62
7
  6
CONTINUOUS
 10
9.7814106501
 20
9.0804949231
 11
9.7830083102
 21
9.0763197475
  0
LINE
  5
317
100
AcDbEntity
  8
0
100
AcDbLine
 62
7
  6
CONTINUOUS
 10
9.9678190569
 20
8.8583420346
 11
9.969416717
 21
8.854166859
  0
LINE
  5
318
100
AcDbEntity
  8
0
100
AcDbLine
 62
9
  6
CONTINUOUS
 10
9.9782263395
 20
8.8386545372
 11
9.9788410945
 21
8.8391703779
  0
LINE
  5
319
100
AcDbEntity
  8
0
100
AcDbLine
 62
9
  6
CONTINUOUS
 10
9.9874315319
 20
8.8463786107
 11
10.0019767695
 21
8.8585835143
  0
LINE
  5
31A
100
AcDbEntity
  8
0
100
AcDbLine
 62
7
  6
CONTINUOUS
 10
10.0471805311
 20
8.8312436095
 11
10.072572318
 21
8.8476545711
  0
LINE
  5
31B
100
AcDbEntity
  8
0
100
AcDbLine
 62
7
  6
CONTINUOUS
 10
9.8185656687
 20
9.039520872
 11
9.8607721243
 21
9.053396498
  0
LINE
  5
31C
100
AcDbEntity
  8
0
100
AcDbLine
 62
7
  6
CONTINUOUS
 10
10.0049740755
 20
8.8173679835
 11
10.0471805311
 21
8.8312436095
  0
LWPOLYLINE
  5
31D
100
AcDbEntity
  8
0
100
AcDbPolyline
 62
7
  6
CONTINUOUS
 90
8
 70
0
 10
9.6227848947
 20
9.2636850539
 10
9.6240742494
 20
9.262889898
 10
9.6253724136
 20
9.2622302091
 10
9.626736843
 20
9.2617110586
 10
9.6282140995
 20
9.2613683616
 10
9.6297831916
 20
9.2612674046
 10
9.6313657595
 20
9.2614579288
 10
9.632157489
 20
9.2616743277
  0
LWPOLYLINE
  5
31E
100
AcDbEntity
  8
0
100
AcDbPolyline
 62
7
  6
CONTINUOUS
 90
8
 70
0
 10
9.4363764879
 20
9.4858379424
 10
9.4376658426
 20
9.4850427865
 10
9.4389640068
 20
9.4843830976
 10
9.4403284362
 20
9.4838639471
 10
9.4418056927
 20
9.4835212501
 10
9.4433747848
 20
9.4834202931
 10
9.4449573527
 20
9.4836108173
 10
9.4457490822
 20
9.4838272162
  0
LWPOLYLINE
  5
31F
100
AcDbEntity
  8
0
100
AcDbPolyline
 62
7
  6
CONTINUOUS
 90
8
 70
0
 10
9.249968081
 20
9.7079908309
 10
9.2512574357
 20
9.707195675
 10
9.2525556
 20
9.7065359862
 10
9.2539200294
 20
9.7060168356
 10
9.2553972859
 20
9.7056741386
 10
9.256966378
 20
9.7055731816
 10
9.2585489459
 20
9.7057637058
 10
9.2593406754
 20
9.7059801047
  0
LWPOLYLINE
  5
320
100
AcDbEntity
  8
0
100
AcDbPolyline
 62
7
  6
CONTINUOUS
 90
8
 70
0
 10
9.0635596742
 20
9.9301437195
 10
9.0648490289
 20
9.9293485635
 10
9.0661471932
 20
9.9286888747
 10
9.0675116226
 20
9.9281697241
 10
9.0689888791
 20
9.9278270271
 10
9.0705579712
 20
9.9277260701
 10
9.0721405391
 20
9.9279165943
 10
9.0729322686
 20
9.9281329932
  0
LWPOLYLINE
  5
321
100
AcDbEntity
  8
0
100
AcDbPolyline
 62
7
  6
CONTINUOUS
 90
8
 70
0
 10
8.8771512674
 20
10.152296608
 10
8.8784406221
 20
10.151501452
 10
8.8797387864
 20
10.1508417632
 10
8.8811032158
 20
10.1503226126
 10
8.8825804722
 20
10.1499799156
 10
8.8841495644
 20
10.1498789586
 10
8.8857321323
 20
10.1500694828
 10
8.8865238618
 20
10.1502858817
  0
LINE
  5
322
100
AcDbEntity
  8
0
100
AcDbLine
 62
7
  6
CONTINUOUS
 10
9.6214248631
 20
9.2646510525
 11
9.6227473483
 21
9.2637102571
  0
LINE
  5
323
100
AcDbEntity
  8
0
100
AcDbLine
 62
7
  6
CONTINUOUS
 10
9.4350164563
 20
9.486803941
 11
9.4363389415
 21
9.4858631456
  0
LINE
  5
324
100
AcDbEntity
  8
0
100
AcDbLine
 62
7
  6
CONTINUOUS
 10
9.2486080495
 20
9.7089568295
 11
9.2499305347
 21
9.7080160342
  0
LINE
  5
325
100
AcDbEntity
  8
0
100
AcDbLine
 62
7
  6
CONTINUOUS
 10
9.0621996427
 20
9.931109718
 11
9.0635221279
 21
9.9301689227
  0
LINE
  5
326
100
AcDbEntity
  8
0
100
AcDbLine
 62
7
  6
CONTINUOUS
 10
8.8757912359
 20
10.1532626066
 11
8.8771137211
 21
10.1523218112
  0
LINE
  5
327
100
AcDbEntity
  8
0
100
AcDbLine
 62
7
  6
CONTINUOUS
 10
8.689382829
 20
10.3754154951
 11
8.6907053143
 21
10.3744746997
  0
LINE
  5
328
100
AcDbEntity
  8
0
100
AcDbLine
 62
7
  6
CONTINUOUS
 10
8.5029744222
 20
10.5975683836
 11
8.5042969075
 21
10.5966275882
  0
LINE
  5
329
100
AcDbEntity
  8
0
100
AcDbLine
 62
7
  6
CONTINUOUS
 10
9.4336304857
 20
9.4878974552
 11
9.4350563475
 21
9.4867738063
  0
LINE
  5
32A
100
AcDbEntity
  8
0
100
AcDbLine
 62
7
  6
CONTINUOUS
 10
9.2472220789
 20
9.7100503437
 11
9.2486479407
 21
9.7089266948
  0
LINE
  5
32B
100
AcDbEntity
  8
0
100
AcDbLine
 62
7
  6
CONTINUOUS
 10
9.0608136721
 20
9.9322032322
 11
9.0622395338
 21
9.9310795834
  0
LINE
  5
32C
100
AcDbEntity
  8
0
100
AcDbLine
 62
7
  6
CONTINUOUS
 10
8.8744052653
 20
10.1543561207
 11
8.875831127
 21
10.1532324719
  0
LINE
  5
32D
100
AcDbEntity
  8
0
100
AcDbLine
 62
7
  6
CONTINUOUS
 10
8.6879968585
 20
10.3765090092
 11
8.6894227202
 21
10.3753853604
  0
LINE
  5
32E
100
AcDbEntity
  8
0
100
AcDbLine
 62
7
  6
CONTINUOUS
 10
8.5015884517
 20
10.5986618977
 11
8.5030143134
 21
10.5975382489
  0
LINE
  5
32F
100
AcDbEntity
  8
0
100
AcDbLine
 62
7
  6
CONTINUOUS
 10
8.3151800449
 20
10.8208147862
 11
8.3166059066
 21
10.8196911374
  0
LINE
  5
330
100
AcDbEntity
  8
0
100
AcDbLine
 62
7
  6
CONTINUOUS
 10
8.1287716381
 20
11.0429676747
 11
8.1301974998
 21
11.0418440259
  0
LINE
  5
331
100
AcDbEntity
  8
0
100
AcDbLine
 62
7
  6
CONTINUOUS
 10
9.2457462608
 20
9.711313362
 11
9.2472674729
 21
9.7100131697
  0
LINE
  5
332
100
AcDbEntity
  8
0
100
AcDbLine
 62
7
  6
CONTINUOUS
 10
9.0593378539
 20
9.9334662505
 11
9.0608590661
 21
9.9321660582
  0
LINE
  5
333
100
AcDbEntity
  8
0
100
AcDbLine
 62
7
  6
CONTINUOUS
 10
8.8729294471
 20
10.155619139
 11
8.8744506593
 21
10.1543189467
  0
LINE
  5
334
100
AcDbEntity
  8
0
100
AcDbLine
 62
7
  6
CONTINUOUS
 10
8.6865210403
 20
10.3777720275
 11
8.6880422524
 21
10.3764718352
  0
LINE
  5
335
100
AcDbEntity
  8
0
100
AcDbLine
 62
7
  6
CONTINUOUS
 10
8.5001126335
 20
10.599924916
 11
8.5016338456
 21
10.5986247237
  0
LINE
  5
336
100
AcDbEntity
  8
0
100
AcDbLine
 62
7
  6
CONTINUOUS
 10
8.3137042267
 20
10.8220778045
 11
8.3152254388
 21
10.8207776122
  0
LINE
  5
337
100
AcDbEntity
  8
0
100
AcDbLine
 62
7
  6
CONTINUOUS
 10
8.1272958199
 20
11.044230693
 11
8.128817032
 21
11.0429305007
  0
LINE
  5
338
100
AcDbEntity
  8
0
100
AcDbLine
 62
7
  6
CONTINUOUS
 10
8.8713489352
 20
10.1570629048
 11
8.8729818204
 21
10.1555727101
  0
LINE
  5
339
100
AcDbEntity
  8
0
100
AcDbLine
 62
7
  6
CONTINUOUS
 10
8.6849405284
 20
10.3792157933
 11
8.6865734136
 21
10.3777255986
  0
LINE
  5
33A
100
AcDbEntity
  8
0
100
AcDbLine
 62
7
  6
CONTINUOUS
 10
8.4985321216
 20
10.6013686818
 11
8.5001650068
 21
10.5998784871
  0
LINE
  5
33B
100
AcDbEntity
  8
0
100
AcDbLine
 62
7
  6
CONTINUOUS
 10
8.3121237148
 20
10.8235215703
 11
8.3137566
 21
10.8220313756
  0
LINE
  5
33C
100
AcDbEntity
  8
0
100
AcDbLine
 62
7
  6
CONTINUOUS
 10
8.125715308
 20
11.0456744588
 11
8.1273481932
 21
11.0441842642
  0
LINE
  5
33D
100
AcDbEntity
  8
0
100
AcDbLine
 62
7
  6
CONTINUOUS
 10
13.7859515661
 20
4.9845160082
 11
13.580259531
 21
5.22965023
  0
LINE
  5
33E
100
AcDbEntity
  8
0
100
AcDbLine
 62
7
  6
CONTINUOUS
 10
13.9982440295
 20
5.1626505359
 11
13.7925519944
 21
5.4077847577
  0
LWPOLYLINE
  5
33F
100
AcDbEntity
  8
0
100
AcDbPolyline
 62
7
  6
CONTINUOUS
 90
8
 70
0
 10
8.6907428606
 20
10.3744494965
 10
8.6920322153
 20
10.3736543405
 10
8.6933303795
 20
10.3729946517
 10
8.694694809
 20
10.3724755011
 10
8.6961720654
 20
10.3721328041
 10
8.6977411576
 20
10.3720318471
 10
8.6993237254
 20
10.3722223714
 10
8.700115455
 20
10.3724387702
  0
LWPOLYLINE
  5
340
100
AcDbEntity
  8
0
100
AcDbPolyline
 62
7
  6
CONTINUOUS
 90
8
 70
0
 10
8.5043344538
 20
10.596602385
 10
8.5056238085
 20
10.595807229
 10
8.5069219727
 20
10.5951475402
 10
8.5082864021
 20
10.5946283896
 10
8.5097636586
 20
10.5942856926
 10
8.5113327508
 20
10.5941847356
 10
8.5129153186
 20
10.5943752599
 10
8.5137070482
 20
10.5945916587
  0
LWPOLYLINE
  5
341
100
AcDbEntity
  8
0
100
AcDbPolyline
 62
7
  6
CONTINUOUS
 90
8
 70
0
 10
8.317926047
 20
10.8187552735
 10
8.3192154017
 20
10.8179601175
 10
8.3205135659
 20
10.8173004287
 10
8.3218779953
 20
10.8167812781
 10
8.3233552518
 20
10.8164385811
 10
8.324924344
 20
10.8163376241
 10
8.3265069118
 20
10.8165281484
 10
8.3272986414
 20
10.8167445472
  0
LWPOLYLINE
  5
342
100
AcDbEntity
  8
0
100
AcDbPolyline
 62
7
  6
CONTINUOUS
 90
8
 70
0
 10
8.1315176402
 20
11.040908162
 10
8.1328069949
 20
11.040113006
 10
8.1341051591
 20
11.0394533172
 10
8.1354695885
 20
11.0389341666
 10
8.136946845
 20
11.0385914696
 10
8.1385159372
 20
11.0384905126
 10
8.140098505
 20
11.0386810369
 10
8.1408902346
 20
11.0388974358
  0
LINE
  5
343
100
AcDbEntity
  8
0
100
AcDbLine
 62
7
  6
CONTINUOUS
 10
8.3165660154
 20
10.8197212721
 11
8.3178885007
 21
10.8187804767
  0
LINE
  5
344
100
AcDbEntity
  8
0
100
AcDbLine
 62
7
  6
CONTINUOUS
 10
8.1301576086
 20
11.0418741606
 11
8.1314800939
 21
11.0409333652
  0
LINE
  5
345
100
AcDbEntity
  8
0
100
AcDbLine
 62
9
  6
CONTINUOUS
 10
8.4907776199
 20
12.1072460863
 11
8.497205496
 21
12.0995856419
  0
LINE
  5
346
100
AcDbEntity
  8
0
100
AcDbLine
 62
9
  6
CONTINUOUS
 10
13.9684771211
 20
5.5815116123
 11
13.962049245
 21
5.5891720568
  0
LINE
  5
347
100
AcDbEntity
  8
0
100
AcDbLine
 62
9
  6
CONTINUOUS
 10
8.5366567849
 20
12.1326892038
 11
14.0003514672
 21
5.6213114373
  0
LINE
  5
348
100
AcDbEntity
  8
0
100
AcDbLine
 62
7
  6
CONTINUOUS
 10
14.4938590432
 20
5.1148475115
 11
14.3619626053
 21
5.2720355652
  0
LINE
  5
349
100
AcDbEntity
  8
0
100
AcDbLine
 62
7
  6
CONTINUOUS
 10
14.3510219642
 20
5.2889634231
 11
14.0617675398
 21
5.6336834225
  0
LINE
  5
34A
100
AcDbEntity
  8
0
100
AcDbLine
 62
7
  6
CONTINUOUS
 10
8.5928775497
 20
12.166809954
 11
14.0437164799
 21
5.6707530763
  0
LINE
  5
34B
100
AcDbEntity
  8
0
100
AcDbLine
 62
7
  6
CONTINUOUS
 10
6.6474834891
 20
10.2471766055
 11
5.8974834891
 21
10.2471766055
  0
LINE
  5
34C
100
AcDbEntity
  8
0
100
AcDbLine
 62
7
  6
CONTINUOUS
 10
13.0224834891
 20
3.6686766057
 11
13.0224834891
 21
3.3986766057
  0
LINE
  5
34D
100
AcDbEntity
  8
0
100
AcDbLine
 62
9
  6
CONTINUOUS
 10
13.0624834891
 20
3.7086766057
 11
13.0624834891
 21
3.3986766057
  0
LINE
  5
34E
100
AcDbEntity
  8
0
100
AcDbLine
 62
7
  6
CONTINUOUS
 10
13.1574834891
 20
3.9311766055
 11
13.1574834891
 21
3.7086766055
  0
LINE
  5
34F
100
AcDbEntity
  8
0
100
AcDbLine
 62
9
  6
CONTINUOUS
 10
13.1874834891
 20
3.9611766055
 11
13.1874834891
 21
3.7086766055
  0
LWPOLYLINE
  5
350
100
AcDbEntity
  8
0
100
AcDbPolyline
 62
7
  6
CONTINUOUS
 90
13
 70
0
 10
13.8724833794
 20
6.0274182785
 10
13.8726858033
 20
6.023939132
 10
13.8733313776
 20
6.0203358422
 10
13.8744242736
 20
6.0168028666
 10
13.8759542178
 20
6.0134109809
 10
13.8778974491
 20
6.0102271945
 10
13.8802189365
 20
6.0073111515
 10
13.8828808584
 20
6.0047082839
 10
13.8858425107
 20
6.0024566092
 10
13.88905927
 20
6.0005892359
 10
13.8924831085
 20
5.9991340139
 10
13.8960631322
 20
5.9981132233
 10
13.897483493
 20
5.9978377567
  0
LINE
  5
351
100
AcDbEntity
  8
0
100
AcDbLine
 62
7
  6
CONTINUOUS
 10
13.2574834891
 20
3.7186766055
 11
13.2574834891
 21
3.7086766055
  0
LINE
  5
352
100
AcDbEntity
  8
0
100
AcDbLine
 62
7
  6
CONTINUOUS
 10
13.2724834891
 20
3.7186766055
 11
13.2724834891
 21
3.7086766055
  0
LINE
  5
353
100
AcDbEntity
  8
0
100
AcDbLine
 62
9
  6
CONTINUOUS
 10
13.2874834891
 20
3.7486766055
 11
13.2874834891
 21
3.7446535299
  0
LINE
  5
354
100
AcDbEntity
  8
0
100
AcDbLine
 62
9
  6
CONTINUOUS
 10
13.3024834891
 20
3.7486766055
 11
13.3024834891
 21
3.7086766055
  0
LINE
  5
355
100
AcDbEntity
  8
0
100
AcDbLine
 62
7
  6
CONTINUOUS
 10
13.5524834891
 20
6.7311766055
 11
13.5524834891
 21
6.2561817579
  0
LINE
  5
356
100
AcDbEntity
  8
0
100
AcDbLine
 62
7
  6
CONTINUOUS
 10
13.5524834891
 20
4.7160151693
 11
13.5524834891
 21
3.9611766055
  0
LINE
  5
357
100
AcDbEntity
  8
0
100
AcDbLine
 62
9
  6
CONTINUOUS
 10
13.5824834891
 20
6.7611766055
 11
13.5824834891
 21
6.2204291501
  0
LINE
  5
358
100
AcDbEntity
  8
0
100
AcDbLine
 62
9
  6
CONTINUOUS
 10
13.5824834891
 20
4.6802625615
 11
13.5824834891
 21
3.9611766055
  0
LINE
  5
359
100
AcDbEntity
  8
0
100
AcDbLine
 62
7
  6
CONTINUOUS
 10
13.6924834891
 20
4.5530589759
 11
13.6924834891
 21
3.7486766055
  0
LINE
  5
35A
100
AcDbEntity
  8
0
100
AcDbLine
 62
9
  6
CONTINUOUS
 10
13.7224834891
 20
4.5173063681
 11
13.7224834891
 21
3.7486766055
  0
LINE
  5
35B
100
AcDbEntity
  8
0
100
AcDbLine
 62
7
  6
CONTINUOUS
 10
13.7249834891
 20
4.2408480369
 11
13.7249834891
 21
3.7086766055
  0
LINE
  5
35C
100
AcDbEntity
  8
0
100
AcDbLine
 62
7
  6
CONTINUOUS
 10
13.8724834891
 20
6.4186766055
 11
13.8724834891
 21
6.0274182941
  0
LINE
  5
35D
100
AcDbEntity
  8
0
100
AcDbLine
 62
7
  6
CONTINUOUS
 10
13.8974834891
 20
6.7611766055
 11
13.8974834891
 21
10.2471766055
  0
LINE
  5
35E
100
AcDbEntity
  8
0
100
AcDbLine
 62
9
  6
CONTINUOUS
 10
13.9024834891
 20
5.9986766055
 11
13.9024834891
 21
6.4486766055
  0
LINE
  5
35F
100
AcDbEntity
  8
0
100
AcDbLine
 62
7
  6
CONTINUOUS
 10
13.9474834891
 20
5.9386766055
 11
13.9474834891
 21
5.7854390888
  0
LINE
  5
360
100
AcDbEntity
  8
0
100
AcDbLine
 62
9
  6
CONTINUOUS
 10
14.039015441
 20
4.1179659275
 11
14.039015441
 21
3.7086766055
  0
LINE
  5
361
100
AcDbEntity
  8
0
100
AcDbLine
 62
9
  6
CONTINUOUS
 10
14.0603367239
 20
4.1179659275
 11
14.0603367239
 21
3.7086766056
  0
LINE
  5
362
100
AcDbEntity
  8
0
100
AcDbLine
 62
9
  6
CONTINUOUS
 10
14.4846302544
 20
3.7086766056
 11
14.4846302544
 21
4.1179659275
  0
LINE
  5
363
100
AcDbEntity
  8
0
100
AcDbLine
 62
9
  6
CONTINUOUS
 10
14.5059515373
 20
3.7086766055
 11
14.5059515373
 21
4.1179659275
  0
LINE
  5
364
100
AcDbEntity
  8
0
100
AcDbLine
 62
7
  6
CONTINUOUS
 10
14.5339834891
 20
5.4486766055
 11
14.5339834891
 21
5.4186766055
  0
LINE
  5
365
100
AcDbEntity
  8
0
100
AcDbLine
 62
7
  6
CONTINUOUS
 10
14.5974834891
 20
5.9386766055
 11
14.5974834891
 21
5.4486766055
  0
LINE
  5
366
100
AcDbEntity
  8
0
100
AcDbLine
 62
9
  6
CONTINUOUS
 10
14.6424834891
 20
6.4486766055
 11
14.6424834891
 21
5.9986766055
  0
LINE
  5
367
100
AcDbEntity
  8
0
100
AcDbLine
 62
7
  6
CONTINUOUS
 10
14.6474834891
 20
6.7611766055
 11
14.6474834891
 21
10.2471766055
  0
LINE
  5
368
100
AcDbEntity
  8
0
100
AcDbLine
 62
7
  6
CONTINUOUS
 10
14.6724834891
 20
6.0274182941
 11
14.6724834891
 21
6.4186766055
  0
LINE
  5
369
100
AcDbEntity
  8
0
100
AcDbLine
 62
7
  6
CONTINUOUS
 10
14.8199834891
 20
4.2408480369
 11
14.8199834891
 21
3.7086766055
  0
LINE
  5
36A
100
AcDbEntity
  8
0
100
AcDbLine
 62
9
  6
CONTINUOUS
 10
14.8224834891
 20
3.7486766055
 11
14.8224834891
 21
5.4186766055
  0
LINE
  5
36B
100
AcDbEntity
  8
0
100
AcDbLine
 62
7
  6
CONTINUOUS
 10
14.8524834891
 20
5.3886766055
 11
14.8524834891
 21
3.7486766055
  0
LINE
  5
36C
100
AcDbEntity
  8
0
100
AcDbLine
 62
9
  6
CONTINUOUS
 10
14.9624834891
 20
6.7611766055
 11
14.9624834891
 21
3.9611766055
  0
LINE
  5
36D
100
AcDbEntity
  8
0
100
AcDbLine
 62
7
  6
CONTINUOUS
 10
14.9924834891
 20
6.7311766055
 11
14.9924834891
 21
3.9611766055
  0
LINE
  5
36E
100
AcDbEntity
  8
0
100
AcDbLine
 62
9
  6
CONTINUOUS
 10
15.2424834891
 20
3.7486766055
 11
15.2424834891
 21
3.7086766055
  0
LINE
  5
36F
100
AcDbEntity
  8
0
100
AcDbLine
 62
9
  6
CONTINUOUS
 10
15.2574834891
 20
3.7486766055
 11
15.2574834891
 21
3.7446535299
  0
LINE
  5
370
100
AcDbEntity
  8
0
100
AcDbLine
 62
7
  6
CONTINUOUS
 10
15.2724834891
 20
3.7186766055
 11
15.2724834891
 21
3.7086766055
  0
LINE
  5
371
100
AcDbEntity
  8
0
100
AcDbLine
 62
7
  6
CONTINUOUS
 10
15.2874834891
 20
3.7186766055
 11
15.2874834891
 21
3.7086766055
  0
LINE
  5
372
100
AcDbEntity
  8
0
100
AcDbLine
 62
9
  6
CONTINUOUS
 10
15.3574834891
 20
3.9611766055
 11
15.3574834891
 21
3.7086766055
  0
LINE
  5
373
100
AcDbEntity
  8
0
100
AcDbLine
 62
7
  6
CONTINUOUS
 10
15.3874834891
 20
3.9311766055
 11
15.3874834891
 21
3.7086766055
  0
LINE
  5
374
100
AcDbEntity
  8
0
100
AcDbLine
 62
9
  6
CONTINUOUS
 10
15.4824834891
 20
3.3986766057
 11
15.4824834891
 21
3.7086766057
  0
LINE
  5
375
100
AcDbEntity
  8
0
100
AcDbLine
 62
7
  6
CONTINUOUS
 10
15.5224834891
 20
3.6686766057
 11
15.5224834891
 21
3.3986766057
  0
LINE
  5
376
100
AcDbEntity
  8
0
100
AcDbLine
 62
9
  6
CONTINUOUS
 10
14.0437164799
 20
5.6707530763
 11
13.2776720368
 21
5.0279654666
  0
LINE
  5
377
100
AcDbEntity
  8
0
100
AcDbLine
 62
7
  6
CONTINUOUS
 10
14.0424839116
 20
5.6566647558
 11
13.2917603573
 21
5.0267328983
  0
LINE
  5
378
100
AcDbEntity
  8
0
100
AcDbLine
 62
7
  6
CONTINUOUS
 10
14.0335908988
 20
5.6361485592
 11
13.3135091223
 21
5.0319282061
  0
LINE
  5
379
100
AcDbEntity
  8
0
100
AcDbLine
 62
9
  6
CONTINUOUS
 10
14.0617675398
 20
5.6336834225
 11
13.7925519945
 21
5.4077847577
  0
LINE
  5
37A
100
AcDbEntity
  8
0
100
AcDbLine
 62
9
  6
CONTINUOUS
 10
13.5802595311
 20
5.2296502299
 11
13.3110439856
 21
5.003751565
  0
LINE
  5
37B
100
AcDbEntity
  8
0
100
AcDbLine
 62
7
  6
CONTINUOUS
 10
13.7859515661
 20
4.9845160082
 11
13.9982440295
 21
5.1626505359
  0
LINE
  5
37C
100
AcDbEntity
  8
0
100
AcDbLine
 62
9
  6
CONTINUOUS
 10
14.3510219642
 20
5.2889634231
 11
13.60029841
 21
4.6590315656
  0
LINE
  5
37D
100
AcDbEntity
  8
0
100
AcDbLine
 62
7
  6
CONTINUOUS
 10
13.6150692733
 20
4.6453176458
 11
14.3619626053
 21
5.2720355652
  0
LINE
  5
37E
100
AcDbEntity
  8
0
100
AcDbLine
 62
9
  6
CONTINUOUS
 10
13.7469657111
 20
4.4881295921
 11
14.4938590432
 21
5.1148475115
  0
ARC
  5
37F
100
AcDbEntity
  8
0
100
AcDbCircle
 62
7
  6
CONTINUOUS
 10
8.768404569
 20
10.473474152
 40
0.124064548
100
AcDbArc
 50
220.0013510245
 51
221.2322727399
  0
ARC
  5
380
100
AcDbEntity
  8
0
100
AcDbCircle
 62
7
  6
CONTINUOUS
 10
8.9548129758
 20
10.2513212635
 40
0.124064548
100
AcDbArc
 50
220.0013510245
 51
221.2322727399
  0
ARC
  5
381
100
AcDbEntity
  8
0
100
AcDbCircle
 62
9
  6
CONTINUOUS
 10
8.9024021403
 20
10.2204148799
 40
0.0649544787
100
AcDbArc
 50
212.1856393077
 51
212.3784251484
  0
ARC
  5
382
100
AcDbEntity
  8
0
100
AcDbCircle
 62
9
  6
CONTINUOUS
 10
8.7159937326
 20
10.4425677679
 40
0.0649544777
100
AcDbArc
 50
212.1856393058
 51
212.3784251494
  0
ARC
  5
383
100
AcDbEntity
  8
0
100
AcDbCircle
 62
9
  6
CONTINUOUS
 10
8.9144154864
 20
10.2041187885
 40
0.0636707667
100
AcDbArc
 50
227.6247962459
 51
227.881602826
  0
ARC
  5
384
100
AcDbEntity
  8
0
100
AcDbCircle
 62
9
  6
CONTINUOUS
 10
8.7280070796
 20
10.426271677
 40
0.0636707667
100
AcDbArc
 50
227.624796246
 51
227.881602826
  0
ARC
  5
385
100
AcDbEntity
  8
0
100
AcDbCircle
 62
9
  6
CONTINUOUS
 10
8.8656945768
 20
10.1765382903
 40
0.0396073665
100
AcDbArc
 50
20.5136557378
 51
59.4841120389
  0
ARC
  5
386
100
AcDbEntity
  8
0
100
AcDbCircle
 62
9
  6
CONTINUOUS
 10
9.0521029836
 20
9.9543854019
 40
0.0396073665
100
AcDbArc
 50
20.5136557231
 51
59.4841120536
  0
ARC
  5
387
100
AcDbEntity
  8
0
100
AcDbCircle
 62
7
  6
CONTINUOUS
 10
8.2091793485
 20
11.1399328175
 40
0.124064548
100
AcDbArc
 50
220.0013510244
 51
221.23227274
  0
ARC
  5
388
100
AcDbEntity
  8
0
100
AcDbCircle
 62
7
  6
CONTINUOUS
 10
8.3955877553
 20
10.917779929
 40
0.124064548
100
AcDbArc
 50
220.0013510244
 51
221.23227274
  0
ARC
  5
389
100
AcDbEntity
  8
0
100
AcDbCircle
 62
7
  6
CONTINUOUS
 10
8.5819961621
 20
10.6956270405
 40
0.124064548
100
AcDbArc
 50
220.0013510244
 51
221.23227274
  0
ARC
  5
38A
100
AcDbEntity
  8
0
100
AcDbCircle
 62
9
  6
CONTINUOUS
 10
8.5295853274
 20
10.6647206574
 40
0.0649544796
100
AcDbArc
 50
212.1856393085
 51
212.3784251466
  0
ARC
  5
38B
100
AcDbEntity
  8
0
100
AcDbCircle
 62
9
  6
CONTINUOUS
 10
8.3431769199
 20
10.8868735454
 40
0.0649544787
100
AcDbArc
 50
212.1856393073
 51
212.378425148
  0
ARC
  5
38C
100
AcDbEntity
  8
0
100
AcDbCircle
 62
9
  6
CONTINUOUS
 10
8.1567685127
 20
11.1090264337
 40
0.0649544783
100
AcDbArc
 50
212.185639307
 51
212.378425149
  0
ARC
  5
38D
100
AcDbEntity
  8
0
100
AcDbCircle
 62
9
  6
CONTINUOUS
 10
8.5415986727
 20
10.6484245655
 40
0.0636707666
100
AcDbArc
 50
227.6247962463
 51
227.8816028268
  0
ARC
  5
38E
100
AcDbEntity
  8
0
100
AcDbCircle
 62
9
  6
CONTINUOUS
 10
8.3551902656
 20
10.8705774536
 40
0.0636707661
100
AcDbArc
 50
227.6247962445
 51
227.881602827
  0
ARC
  5
38F
100
AcDbEntity
  8
0
100
AcDbCircle
 62
9
  6
CONTINUOUS
 10
8.1687818588
 20
11.0927303421
 40
0.0636707661
100
AcDbArc
 50
227.6247962445
 51
227.881602827
  0
ARC
  5
390
100
AcDbEntity
  8
0
100
AcDbCircle
 62
9
  6
CONTINUOUS
 10
8.4928774135
 20
10.6208437475
 40
0.0396078282
100
AcDbArc
 50
20.5146741559
 51
59.4839111887
  0
ARC
  5
391
100
AcDbEntity
  8
0
100
AcDbCircle
 62
7
  6
CONTINUOUS
 10
8.5852171053
 20
12.1603820779
 40
0.01
100
AcDbArc
 50
40.0
 51
130.0
  0
ARC
  5
392
100
AcDbEntity
  8
0
100
AcDbCircle
 62
7
  6
CONTINUOUS
 10
7.8344935511
 20
11.5304502204
 40
0.01
100
AcDbArc
 50
130.0
 51
220.0
  0
ARC
  5
393
100
AcDbEntity
  8
0
100
AcDbCircle
 62
7
  6
CONTINUOUS
 10
7.8560262971
 20
11.5615724126
 40
0.01
100
AcDbArc
 50
130.0
 51
220.0
  0
ARC
  5
394
100
AcDbEntity
  8
0
100
AcDbCircle
 62
7
  6
CONTINUOUS
 10
8.550828607
 20
12.1445807746
 40
0.01
100
AcDbArc
 50
40.0
 51
130.0
  0
ARC
  5
395
100
AcDbEntity
  8
0
100
AcDbCircle
 62
7
  6
CONTINUOUS
 10
10.2724834891
 20
10.2471766055
 40
4.375
100
AcDbArc
 50
0.0
 51
180.0
  0
ARC
  5
396
100
AcDbEntity
  8
0
100
AcDbCircle
 62
7
  6
CONTINUOUS
 10
10.2724834891
 20
10.2471766055
 40
3.625
100
AcDbArc
 50
0.0
 51
180.0
  0
ARC
  5
397
100
AcDbEntity
  8
0
100
AcDbCircle
 62
7
  6
CONTINUOUS
 10
10.0732634166
 20
8.9184039324
 40
0.124064548
100
AcDbArc
 50
220.0013510245
 51
221.2322727398
  0
ARC
  5
398
100
AcDbEntity
  8
0
100
AcDbCircle
 62
7
  6
CONTINUOUS
 10
9.1412213826
 20
10.0291683749
 40
0.124064548
100
AcDbArc
 50
220.0013510244
 51
221.23227274
  0
ARC
  5
399
100
AcDbEntity
  8
0
100
AcDbCircle
 62
7
  6
CONTINUOUS
 10
9.3276297894
 20
9.8070154864
 40
0.124064548
100
AcDbArc
 50
220.0013510244
 51
221.23227274
  0
ARC
  5
39A
100
AcDbEntity
  8
0
100
AcDbCircle
 62
7
  6
CONTINUOUS
 10
9.5140381962
 20
9.5848625979
 40
0.124064548
100
AcDbArc
 50
220.0013510244
 51
221.23227274
  0
ARC
  5
39B
100
AcDbEntity
  8
0
100
AcDbCircle
 62
7
  6
CONTINUOUS
 10
9.700446603
 20
9.3627097094
 40
0.124064548
100
AcDbArc
 50
220.0013510245
 51
221.2322727399
  0
ARC
  5
39C
100
AcDbEntity
  8
0
100
AcDbCircle
 62
7
  6
CONTINUOUS
 10
9.8868550098
 20
9.1405568209
 40
0.124064548
100
AcDbArc
 50
220.0013510244
 51
221.23227274
  0
ARC
  5
39D
100
AcDbEntity
  8
0
100
AcDbCircle
 62
9
  6
CONTINUOUS
 10
9.2752189543
 20
9.7761091032
 40
0.0649544792
100
AcDbArc
 50
212.1856393085
 51
212.3784251478
  0
ARC
  5
39E
100
AcDbEntity
  8
0
100
AcDbCircle
 62
9
  6
CONTINUOUS
 10
10.0208525815
 20
8.8874975491
 40
0.0649544791
100
AcDbArc
 50
212.185639308
 51
212.3784251475
  0
ARC
  5
39F
100
AcDbEntity
  8
0
100
AcDbCircle
 62
9
  6
CONTINUOUS
 10
9.8344441743
 20
9.1096504374
 40
0.0649544787
100
AcDbArc
 50
212.1856393076
 51
212.3784251482
  0
ARC
  5
3A0
100
AcDbEntity
  8
0
100
AcDbCircle
 62
9
  6
CONTINUOUS
 10
9.6480357675
 20
9.3318033259
 40
0.0649544787
100
AcDbArc
 50
212.1856393076
 51
212.3784251482
  0
ARC
  5
3A1
100
AcDbEntity
  8
0
100
AcDbCircle
 62
9
  6
CONTINUOUS
 10
9.4616273607
 20
9.5539562144
 40
0.0649544787
100
AcDbArc
 50
212.1856393074
 51
212.3784251481
  0
ARC
  5
3A2
100
AcDbEntity
  8
0
100
AcDbCircle
 62
9
  6
CONTINUOUS
 10
9.0888105471
 20
9.9982619914
 40
0.0649544787
100
AcDbArc
 50
212.1856393079
 51
212.3784251485
  0
ARC
  5
3A3
100
AcDbEntity
  8
0
100
AcDbCircle
 62
9
  6
CONTINUOUS
 10
9.660049114
 20
9.3155072349
 40
0.0636707671
100
AcDbArc
 50
227.624796247
 51
227.8816028251
  0
ARC
  5
3A4
100
AcDbEntity
  8
0
100
AcDbCircle
 62
9
  6
CONTINUOUS
 10
10.0328659274
 20
8.8712014577
 40
0.0636707669
100
AcDbArc
 50
227.6247962463
 51
227.8816028252
  0
ARC
  5
3A5
100
AcDbEntity
  8
0
100
AcDbCircle
 62
9
  6
CONTINUOUS
 10
9.8464575205
 20
9.0933543461
 40
0.0636707668
100
AcDbArc
 50
227.6247962463
 51
227.8816028259
  0
ARC
  5
3A6
100
AcDbEntity
  8
0
100
AcDbCircle
 62
9
  6
CONTINUOUS
 10
9.2872323
 20
9.7598130115
 40
0.0636707667
100
AcDbArc
 50
227.6247962463
 51
227.8816028262
  0
ARC
  5
3A7
100
AcDbEntity
  8
0
100
AcDbCircle
 62
9
  6
CONTINUOUS
 10
9.1008238926
 20
9.9819658994
 40
0.0636707658
100
AcDbArc
 50
227.6247962442
 51
227.8816028279
  0
ARC
  5
3A8
100
AcDbEntity
  8
0
100
AcDbCircle
 62
9
  6
CONTINUOUS
 10
9.4736407062
 20
9.5376601223
 40
0.0636707657
100
AcDbArc
 50
227.6247962441
 51
227.8816028279
  0
ARC
  5
3A9
100
AcDbEntity
  8
0
100
AcDbCircle
 62
9
  6
CONTINUOUS
 10
9.4249197644
 20
9.5100795909
 40
0.0396074078
100
AcDbArc
 50
20.5125880242
 51
59.4840960852
  0
ARC
  5
3AA
100
AcDbEntity
  8
0
100
AcDbCircle
 62
9
  6
CONTINUOUS
 10
9.2385113904
 20
9.7322325133
 40
0.0396073665
100
AcDbArc
 50
20.5136557349
 51
59.4841120418
  0
ARC
  5
3AB
100
AcDbEntity
  8
0
100
AcDbCircle
 62
7
  6
CONTINUOUS
 10
13.6224834891
 20
4.3836766055
 40
1.1375
100
AcDbArc
 50
0.0
 51
40.0
  0
ARC
  5
3AC
100
AcDbEntity
  8
0
100
AcDbCircle
 62
9
  6
CONTINUOUS
 10
14.2722853886
 20
3.6076551862
 40
0.5992286545
100
AcDbArc
 50
89.981058548
 51
104.1589092244
  0
ARC
  5
3AD
100
AcDbEntity
  8
0
100
AcDbCircle
 62
7
  6
CONTINUOUS
 10
13.6224834891
 20
4.3836766055
 40
0.1625
100
AcDbArc
 50
0.0
 51
40.0
  0
ARC
  5
3AE
100
AcDbEntity
  8
0
100
AcDbCircle
 62
7
  6
CONTINUOUS
 10
13.6849834891
 20
4.3836766055
 40
0.1
100
AcDbArc
 50
314.4270040008
 51
360.0
  0
ARC
  5
3AF
100
AcDbEntity
  8
0
100
AcDbCircle
 62
7
  6
CONTINUOUS
 10
13.8249834891
 20
4.2408480369
 40
0.1
100
AcDbArc
 50
134.4270040008
 51
180.0
  0
ARC
  5
3B0
100
AcDbEntity
  8
0
100
AcDbCircle
 62
7
  6
CONTINUOUS
 10
13.0624834891
 20
3.6686766057
 40
0.04
100
AcDbArc
 50
90.0
 51
180.0
  0
ARC
  5
3B1
100
AcDbEntity
  8
0
100
AcDbCircle
 62
7
  6
CONTINUOUS
 10
13.1874834891
 20
3.9311766055
 40
0.03
100
AcDbArc
 50
90.0
 51
180.0
  0
ARC
  5
3B2
100
AcDbEntity
  8
0
100
AcDbCircle
 62
7
  6
CONTINUOUS
 10
13.2874834891
 20
3.7186766055
 40
0.03
100
AcDbArc
 50
90.0
 51
180.0
  0
ARC
  5
3B3
100
AcDbEntity
  8
0
100
AcDbCircle
 62
7
  6
CONTINUOUS
 10
13.3024834891
 20
3.7186766055
 40
0.03
100
AcDbArc
 50
90.0
 51
180.0
  0
ARC
  5
3B4
100
AcDbEntity
  8
0
100
AcDbCircle
 62
7
  6
CONTINUOUS
 10
13.6156192988
 20
4.6718873178
 40
0.02
100
AcDbArc
 50
220.0
 51
310.0
  0
ARC
  5
3B5
100
AcDbEntity
  8
0
100
AcDbCircle
 62
7
  6
CONTINUOUS
 10
13.3263648745
 20
5.0166073172
 40
0.02
100
AcDbArc
 50
130.0
 51
220.0
  0
ARC
  5
3B6
100
AcDbEntity
  8
0
100
AcDbCircle
 62
7
  6
CONTINUOUS
 10
13.2853324812
 20
5.0343933427
 40
0.01
100
AcDbArc
 50
220.0
 51
310.0
  0
ARC
  5
3B7
100
AcDbEntity
  8
0
100
AcDbCircle
 62
7
  6
CONTINUOUS
 10
13.3197209795
 20
5.0501946461
 40
0.01
100
AcDbArc
 50
220.0
 51
310.0
  0
ARC
  5
3B8
100
AcDbEntity
  8
0
100
AcDbCircle
 62
7
  6
CONTINUOUS
 10
13.8874834891
 20
5.9386766055
 40
0.06
100
AcDbArc
 50
0.0
 51
80.4059853617
  0
ARC
  5
3B9
100
AcDbEntity
  8
0
100
AcDbCircle
 62
7
  6
CONTINUOUS
 10
13.5824834891
 20
6.7311766055
 40
0.03
100
AcDbArc
 50
90.0
 51
180.0
  0
ARC
  5
3BA
100
AcDbEntity
  8
0
100
AcDbCircle
 62
7
  6
CONTINUOUS
 10
13.9024834891
 20
6.4186766055
 40
0.03
100
AcDbArc
 50
90.0
 51
180.0
  0
ARC
  5
3BB
100
AcDbEntity
  8
0
100
AcDbCircle
 62
7
  6
CONTINUOUS
 10
13.9024834891
 20
6.0286766055
 40
0.03
100
AcDbArc
 50
180.0000000116
 51
270.0
  0
ARC
  5
3BC
100
AcDbEntity
  8
0
100
AcDbCircle
 62
7
  6
CONTINUOUS
 10
14.046446651
 20
5.6208276703
 40
0.02
100
AcDbArc
 50
40.0
 51
130.0
  0
ARC
  5
3BD
100
AcDbEntity
  8
0
100
AcDbCircle
 62
7
  6
CONTINUOUS
 10
14.0360560355
 20
5.6643252002
 40
0.01
100
AcDbArc
 50
310.0
 51
40.0
  0
ARC
  5
3BE
100
AcDbEntity
  8
0
100
AcDbCircle
 62
7
  6
CONTINUOUS
 10
14.0145232894
 20
5.633203008
 40
0.01
100
AcDbArc
 50
310.0
 51
40.0
  0
ARC
  5
3BF
100
AcDbEntity
  8
0
100
AcDbCircle
 62
9
  6
CONTINUOUS
 10
14.2726349078
 20
3.6072707119
 40
0.5996147778
100
AcDbArc
 50
75.8457522694
 51
90.0144686633
  0
ARC
  5
3C0
100
AcDbEntity
  8
0
100
AcDbCircle
 62
9
  6
CONTINUOUS
 10
14.2724845408
 20
3.674031443
 40
0.4975001246
100
AcDbArc
 50
74.4498639573
 51
105.5497021299
  0
ARC
  5
3C1
100
AcDbEntity
  8
0
100
AcDbCircle
 62
7
  6
CONTINUOUS
 10
14.8599834891
 20
4.3836766055
 40
0.1
100
AcDbArc
 50
180.0
 51
225.5729959992
  0
ARC
  5
3C2
100
AcDbEntity
  8
0
100
AcDbCircle
 62
7
  6
CONTINUOUS
 10
14.7199834891
 20
4.2408480369
 40
0.1
100
AcDbArc
 50
0.0
 51
45.5729959992
  0
ARC
  5
3C3
100
AcDbEntity
  8
0
100
AcDbCircle
 62
7
  6
CONTINUOUS
 10
15.4824834891
 20
3.6686766057
 40
0.04
100
AcDbArc
 50
0.0
 51
90.0
  0
ARC
  5
3C4
100
AcDbEntity
  8
0
100
AcDbCircle
 62
7
  6
CONTINUOUS
 10
15.3574834891
 20
3.9311766055
 40
0.03
100
AcDbArc
 50
0.0
 51
90.0
  0
ARC
  5
3C5
100
AcDbEntity
  8
0
100
AcDbCircle
 62
7
  6
CONTINUOUS
 10
15.2574834891
 20
3.7186766055
 40
0.03
100
AcDbArc
 50
0.0
 51
90.0
  0
ARC
  5
3C6
100
AcDbEntity
  8
0
100
AcDbCircle
 62
7
  6
CONTINUOUS
 10
15.2424834891
 20
3.7186766055
 40
0.03
100
AcDbArc
 50
0.0
 51
90.0
  0
ARC
  5
3C7
100
AcDbEntity
  8
0
100
AcDbCircle
 62
7
  6
CONTINUOUS
 10
14.6574834891
 20
5.9386766055
 40
0.06
100
AcDbArc
 50
99.5940146383
 51
180.0
  0
ARC
  5
3C8
100
AcDbEntity
  8
0
100
AcDbCircle
 62
7
  6
CONTINUOUS
 10
14.9624834891
 20
6.7311766055
 40
0.03
100
AcDbArc
 50
0.0
 51
90.0
  0
ARC
  5
3C9
100
AcDbEntity
  8
0
100
AcDbCircle
 62
7
  6
CONTINUOUS
 10
14.6424834891
 20
6.4186766055
 40
0.03
100
AcDbArc
 50
0.0
 51
90.0
  0
ARC
  5
3CA
100
AcDbEntity
  8
0
100
AcDbCircle
 62
7
  6
CONTINUOUS
 10
14.6424834891
 20
6.0286766055
 40
0.03
100
AcDbArc
 50
270.0
 51
360.0
  0
ARC
  5
3CB
100
AcDbEntity
  8
0
100
AcDbCircle
 62
7
  6
CONTINUOUS
 10
14.8224834891
 20
5.3886766055
 40
0.03
100
AcDbArc
 50
0.0
 51
90.0
  0
ARC
  5
3CC
100
AcDbEntity
  8
0
100
AcDbCircle
 62
7
  6
CONTINUOUS
 10
14.3357010753
 20
5.2761076709
 40
0.02
100
AcDbArc
 50
310.0
 51
40.0
  0
LINE
  5
3CD
100
AcDbEntity
  8
0
100
AcDbLine
 62
7
  6
CONTINUOUS
 10
9.9920921521
 20
8.8264654593
 11
9.9923929991
 21
8.8270104859
  0
LINE
  5
3CE
100
AcDbEntity
  8
0
100
AcDbLine
 62
7
  6
CONTINUOUS
 10
9.8056837453
 20
9.0486183478
 11
9.8059845923
 21
9.0491633744
  0
LINE
  5
3CF
100
AcDbEntity
  8
0
100
AcDbLine
 62
7
  6
CONTINUOUS
 10
9.6192753385
 20
9.2707712363
 11
9.6195761855
 21
9.2713162629
  0
LINE
  5
3D0
100
AcDbEntity
  8
0
100
AcDbLine
 62
7
  6
CONTINUOUS
 10
9.4328669317
 20
9.4929241248
 11
9.4331677787
 21
9.4934691514
  0
LINE
  5
3D1
100
AcDbEntity
  8
0
100
AcDbLine
 62
7
  6
CONTINUOUS
 10
9.2464585248
 20
9.7150770133
 11
9.2467593719
 21
9.7156220399
  0
LINE
  5
3D2
100
AcDbEntity
  8
0
100
AcDbLine
 62
7
  6
CONTINUOUS
 10
9.060050118
 20
9.9372299018
 11
9.0603509651
 21
9.9377749284
  0
LINE
  5
3D3
100
AcDbEntity
  8
0
100
AcDbLine
 62
7
  6
CONTINUOUS
 10
8.8736417112
 20
10.1593827903
 11
8.8739425583
 21
10.1599278169
  0
LINE
  5
3D4
100
AcDbEntity
  8
0
100
AcDbLine
 62
7
  6
CONTINUOUS
 10
8.6872333044
 20
10.3815356788
 11
8.6875341515
 21
10.3820807054
  0
LINE
  5
3D5
100
AcDbEntity
  8
0
100
AcDbLine
 62
7
  6
CONTINUOUS
 10
8.5008248976
 20
10.6036885673
 11
8.5011257447
 21
10.6042335939
  0
LINE
  5
3D6
100
AcDbEntity
  8
0
100
AcDbLine
 62
7
  6
CONTINUOUS
 10
8.3144164908
 20
10.8258414558
 11
8.3147173379
 21
10.8263864824
  0
SPLINE
  5
3D7
100
AcDbEntity
  8
0
100
AcDbSpline
 62
7
  6
CONTINUOUS
 70
0
 71
3
 72
20
 73
16
 74
0
 42
0.0000001
 43
0.0000001
 44
0.0000000001
 40
0.0
 40
0.0
 40
0.0
 40
0.0
 40
0.1599658398
 40
0.3154655569
 40
0.3903954457
 40
0.4628048231
 40
0.5979490401
 40
0.6599543878
 40
0.7179833948
 40
0.7720983745
 40
0.8225010527
 40
0.8696091002
 40
0.9141289652
 40
0.9571254817
 40
1.0
 40
1.0
 40
1.0
 40
1.0
 10
8.1378927014
 20
11.0801123993
 30
0.0
 10
8.1370719619
 20
11.0810905565
 30
0.0
 10
8.1353345441
 20
11.0829224407
 30
0.0
 10
8.1329433173
 20
11.0849315489
 30
0.0
 10
8.1309587469
 20
11.0863146169
 30
0.0
 10
8.1290293817
 20
11.0874828779
 30
0.0
 10
8.1270732599
 20
11.0884068143
 30
0.0
 10
8.1251239995
 20
11.0890080126
 30
0.0
 10
8.1237577788
 20
11.0892792197
 30
0.0
 10
8.1224611536
 20
11.0893831516
 30
0.0
 10
8.1212483977
 20
11.0893174777
 30
0.0
 10
8.1201345758
 20
11.0890790311
 30
0.0
 10
8.1191357274
 20
11.0886638668
 30
0.0
 10
8.1182732684
 20
11.088066798
 30
0.0
 10
8.1178069096
 20
11.0875554219
 30
0.0
 10
8.1176046256
 20
11.0872793722
 30
0.0
  0
LINE
  5
3D8
100
AcDbEntity
  8
0
100
AcDbLine
 62
7
  6
CONTINUOUS
 10
8.128008084
 20
11.0479943443
 11
8.1283089311
 21
11.0485393709
  0
SPLINE
  5
3D9
100
AcDbEntity
  8
0
100
AcDbSpline
 62
7
  6
CONTINUOUS
 70
0
 71
3
 72
20
 73
16
 74
0
 42
0.0000001
 43
0.0000001
 44
0.0000000001
 40
0.0
 40
0.0
 40
0.0
 40
0.0
 40
0.0428745183
 40
0.0858710348
 40
0.1303908998
 40
0.1774989473
 40
0.2279016255
 40
0.2820166052
 40
0.3400456122
 40
0.4020509599
 40
0.5371951769
 40
0.6096045543
 40
0.6845344431
 40
0.8400341602
 40
1.0
 40
1.0
 40
1.0
 40
1.0
 10
10.0055118726
 20
8.8373591281
 30
0.0
 10
10.0058188547
 20
8.8375104035
 30
0.0
 10
10.0064034442
 20
8.8378808777
 30
0.0
 10
10.0071412066
 20
8.838626554
 30
0.0
 10
10.0077235118
 20
8.8395381352
 30
0.0
 10
10.0081517491
 20
8.8405936298
 30
0.0
 10
10.0084270181
 20
8.841776557
 30
0.0
 10
10.0085498217
 20
8.8430715312
 30
0.0
 10
10.0085199767
 20
8.8444640905
 30
0.0
 10
10.0082663974
 20
8.8464881344
 30
0.0
 10
10.0076961747
 20
8.8485749781
 30
0.0
 10
10.0068806929
 20
8.8506778983
 30
0.0
 10
10.0058632539
 20
8.8528724858
 30
0.0
 10
10.0042999007
 20
8.8555762626
 30
0.0
 10
10.0027975463
 20
8.8576053884
 30
0.0
 10
10.0019767695
 20
8.8585835143
 30
0.0
  0
SPLINE
  5
3DA
100
AcDbEntity
  8
0
100
AcDbSpline
 62
7
  6
CONTINUOUS
 70
0
 71
3
 72
20
 73
16
 74
0
 42
0.0000001
 43
0.0000001
 44
0.0000000001
 40
0.0
 40
0.0
 40
0.0
 40
0.0
 40
0.1599658398
 40
0.3154655569
 40
0.3903954457
 40
0.4628048231
 40
0.5979490401
 40
0.6599543878
 40
0.7179833948
 40
0.7720983745
 40
0.8225010527
 40
0.8696091002
 40
0.9141289652
 40
0.9571254817
 40
1.0
 40
1.0
 40
1.0
 40
1.0
 10
8.3243011083
 20
10.8579595108
 30
0.0
 10
8.3234803687
 20
10.858937668
 30
0.0
 10
8.3217429509
 20
10.8607695522
 30
0.0
 10
8.3193517241
 20
10.8627786604
 30
0.0
 10
8.3173671537
 20
10.8641617284
 30
0.0
 10
8.3154377885
 20
10.8653299894
 30
0.0
 10
8.3134816667
 20
10.8662539258
 30
0.0
 10
8.3115324063
 20
10.8668551241
 30
0.0
 10
8.3101661856
 20
10.8671263312
 30
0.0
 10
8.3088695604
 20
10.8672302631
 30
0.0
 10
8.3076568045
 20
10.8671645892
 30
0.0
 10
8.3065429826
 20
10.8669261426
 30
0.0
 10
8.3055441342
 20
10.8665109783
 30
0.0
 10
8.3046816753
 20
10.8659139095
 30
0.0
 10
8.3042153164
 20
10.8654025334
 30
0.0
 10
8.3040130324
 20
10.8651264837
 30
0.0
  0
SPLINE
  5
3DB
100
AcDbEntity
  8
0
100
AcDbSpline
 62
7
  6
CONTINUOUS
 70
0
 71
3
 72
20
 73
16
 74
0
 42
0.0000001
 43
0.0000001
 44
0.0000000001
 40
0.0
 40
0.0
 40
0.0
 40
0.0
 40
0.0428745183
 40
0.0858710348
 40
0.1303908998
 40
0.1774989473
 40
0.2279016255
 40
0.2820166052
 40
0.3400456122
 40
0.4020509599
 40
0.5371951769
 40
0.6096045543
 40
0.6845344431
 40
0.8400341602
 40
1.0
 40
1.0
 40
1.0
 40
1.0
 10
9.8191034658
 20
9.0595120166
 30
0.0
 10
9.8194104479
 20
9.059663292
 30
0.0
 10
9.8199950374
 20
9.0600337662
 30
0.0
 10
9.8207327998
 20
9.0607794425
 30
0.0
 10
9.821315105
 20
9.0616910237
 30
0.0
 10
9.8217433423
 20
9.0627465183
 30
0.0
 10
9.8220186113
 20
9.0639294455
 30
0.0
 10
9.8221414149
 20
9.0652244197
 30
0.0
 10
9.8221115698
 20
9.066616979
 30
0.0
 10
9.8218579906
 20
9.0686410229
 30
0.0
 10
9.8212877679
 20
9.0707278666
 30
0.0
 10
9.8204722861
 20
9.0728307868
 30
0.0
 10
9.8194548471
 20
9.0750253743
 30
0.0
 10
9.8178914939
 20
9.0777291511
 30
0.0
 10
9.8163891395
 20
9.0797582769
 30
0.0
 10
9.8155683627
 20
9.0807364028
 30
0.0
  0
SPLINE
  5
3DC
100
AcDbEntity
  8
0
100
AcDbSpline
 62
7
  6
CONTINUOUS
 70
0
 71
3
 72
20
 73
16
 74
0
 42
0.0000001
 43
0.0000001
 44
0.0000000001
 40
0.0
 40
0.0
 40
0.0
 40
0.0
 40
0.0428745183
 40
0.0858710348
 40
0.1303908998
 40
0.1774989473
 40
0.2279016255
 40
0.2820166052
 40
0.3400456122
 40
0.4020509599
 40
0.5371951769
 40
0.6096045543
 40
0.6845344431
 40
0.8400341602
 40
1.0
 40
1.0
 40
1.0
 40
1.0
 10
9.632695059
 20
9.2816649051
 30
0.0
 10
9.6330020411
 20
9.2818161805
 30
0.0
 10
9.6335866306
 20
9.2821866547
 30
0.0
 10
9.634324393
 20
9.282932331
 30
0.0
 10
9.6349066982
 20
9.2838439122
 30
0.0
 10
9.6353349355
 20
9.2848994068
 30
0.0
 10
9.6356102045
 20
9.286082334
 30
0.0
 10
9.6357330081
 20
9.2873773082
 30
0.0
 10
9.635703163
 20
9.2887698675
 30
0.0
 10
9.6354495838
 20
9.2907939114
 30
0.0
 10
9.6348793611
 20
9.2928807551
 30
0.0
 10
9.6340638793
 20
9.2949836753
 30
0.0
 10
9.6330464403
 20
9.2971782628
 30
0.0
 10
9.6314830871
 20
9.2998820396
 30
0.0
 10
9.6299807327
 20
9.3019111655
 30
0.0
 10
9.6291599559
 20
9.3028892913
 30
0.0
  0
SPLINE
  5
3DD
100
AcDbEntity
  8
0
100
AcDbSpline
 62
7
  6
CONTINUOUS
 70
0
 71
3
 72
20
 73
16
 74
0
 42
0.0000001
 43
0.0000001
 44
0.0000000001
 40
0.0
 40
0.0
 40
0.0
 40
0.0
 40
0.0428745183
 40
0.0858710348
 40
0.1303908998
 40
0.1774989473
 40
0.2279016255
 40
0.2820166052
 40
0.3400456122
 40
0.4020509599
 40
0.5371951769
 40
0.6096045543
 40
0.6845344431
 40
0.8400341602
 40
1.0
 40
1.0
 40
1.0
 40
1.0
 10
9.4462866522
 20
9.5038177936
 30
0.0
 10
9.4465936343
 20
9.503969069
 30
0.0
 10
9.4471782238
 20
9.5043395432
 30
0.0
 10
9.4479159862
 20
9.5050852195
 30
0.0
 10
9.4484982914
 20
9.5059968007
 30
0.0
 10
9.4489265287
 20
9.5070522953
 30
0.0
 10
9.4492017977
 20
9.5082352225
 30
0.0
 10
9.4493246013
 20
9.5095301967
 30
0.0
 10
9.4492947562
 20
9.510922756
 30
0.0
 10
9.449041177
 20
9.5129467999
 30
0.0
 10
9.4484709543
 20
9.5150336436
 30
0.0
 10
9.4476554725
 20
9.5171365638
 30
0.0
 10
9.4466380335
 20
9.5193311513
 30
0.0
 10
9.4450746802
 20
9.5220349281
 30
0.0
 10
9.4435723259
 20
9.524064054
 30
0.0
 10
9.4427515491
 20
9.5250421798
 30
0.0
  0
SPLINE
  5
3DE
100
AcDbEntity
  8
0
100
AcDbSpline
 62
7
  6
CONTINUOUS
 70
0
 71
3
 72
20
 73
16
 74
0
 42
0.0000001
 43
0.0000001
 44
0.0000000001
 40
0.0
 40
0.0
 40
0.0
 40
0.0
 40
0.1599658398
 40
0.3154655569
 40
0.3903954457
 40
0.4628048231
 40
0.5979490401
 40
0.6599543878
 40
0.7179833948
 40
0.7720983745
 40
0.8225010527
 40
0.8696091002
 40
0.9141289652
 40
0.9571254817
 40
1.0
 40
1.0
 40
1.0
 40
1.0
 10
8.5107095151
 20
10.6358066223
 30
0.0
 10
8.5098887755
 20
10.6367847794
 30
0.0
 10
8.5081513577
 20
10.6386166637
 30
0.0
 10
8.5057601309
 20
10.6406257719
 30
0.0
 10
8.5037755605
 20
10.6420088399
 30
0.0
 10
8.5018461953
 20
10.6431771009
 30
0.0
 10
8.4998900735
 20
10.6441010373
 30
0.0
 10
8.4979408131
 20
10.6447022356
 30
0.0
 10
8.4965745924
 20
10.6449734427
 30
0.0
 10
8.4952779672
 20
10.6450773746
 30
0.0
 10
8.4940652113
 20
10.6450117007
 30
0.0
 10
8.4929513894
 20
10.6447732541
 30
0.0
 10
8.491952541
 20
10.6443580898
 30
0.0
 10
8.4910900821
 20
10.643761021
 30
0.0
 10
8.4906237232
 20
10.6432496449
 30
0.0
 10
8.4904214392
 20
10.6429735952
 30
0.0
  0
SPLINE
  5
3DF
100
AcDbEntity
  8
0
100
AcDbSpline
 62
7
  6
CONTINUOUS
 70
0
 71
3
 72
20
 73
16
 74
0
 42
0.0000001
 43
0.0000001
 44
0.0000000001
 40
0.0
 40
0.0
 40
0.0
 40
0.0
 40
0.0428745183
 40
0.0858710348
 40
0.1303908998
 40
0.1774989473
 40
0.2279016255
 40
0.2820166052
 40
0.3400456122
 40
0.4020509599
 40
0.5371951769
 40
0.6096045543
 40
0.6845344431
 40
0.8400341602
 40
1.0
 40
1.0
 40
1.0
 40
1.0
 10
9.2598782454
 20
9.7259706821
 30
0.0
 10
9.2601852275
 20
9.7261219575
 30
0.0
 10
9.260769817
 20
9.7264924317
 30
0.0
 10
9.2615075794
 20
9.727238108
 30
0.0
 10
9.2620898846
 20
9.7281496892
 30
0.0
 10
9.2625181219
 20
9.7292051838
 30
0.0
 10
9.2627933909
 20
9.730388111
 30
0.0
 10
9.2629161945
 20
9.7316830852
 30
0.0
 10
9.2628863494
 20
9.7330756445
 30
0.0
 10
9.2626327701
 20
9.7350996884
 30
0.0
 10
9.2620625475
 20
9.7371865321
 30
0.0
 10
9.2612470657
 20
9.7392894524
 30
0.0
 10
9.2602296267
 20
9.7414840398
 30
0.0
 10
9.2586662734
 20
9.7441878166
 30
0.0
 10
9.2571639191
 20
9.7462169425
 30
0.0
 10
9.2563431423
 20
9.7471950683
 30
0.0
  0
SPLINE
  5
3E0
100
AcDbEntity
  8
0
100
AcDbSpline
 62
7
  6
CONTINUOUS
 70
0
 71
3
 72
20
 73
16
 74
0
 42
0.0000001
 43
0.0000001
 44
0.0000000001
 40
0.0
 40
0.0
 40
0.0
 40
0.0
 40
0.0428745183
 40
0.0858710348
 40
0.1303908998
 40
0.1774989473
 40
0.2279016255
 40
0.2820166052
 40
0.3400456122
 40
0.4020509599
 40
0.5371951769
 40
0.6096045543
 40
0.6845344431
 40
0.8400341602
 40
1.0
 40
1.0
 40
1.0
 40
1.0
 10
9.0734698386
 20
9.9481235706
 30
0.0
 10
9.0737768207
 20
9.948274846
 30
0.0
 10
9.0743614102
 20
9.9486453202
 30
0.0
 10
9.0750991726
 20
9.9493909966
 30
0.0
 10
9.0756814778
 20
9.9503025777
 30
0.0
 10
9.0761097151
 20
9.9513580723
 30
0.0
 10
9.0763849841
 20
9.9525409996
 30
0.0
 10
9.0765077877
 20
9.9538359737
 30
0.0
 10
9.0764779426
 20
9.9552285331
 30
0.0
 10
9.0762243633
 20
9.9572525769
 30
0.0
 10
9.0756541407
 20
9.9593394206
 30
0.0
 10
9.0748386589
 20
9.9614423409
 30
0.0
 10
9.0738212199
 20
9.9636369283
 30
0.0
 10
9.0722578666
 20
9.9663407051
 30
0.0
 10
9.0707555123
 20
9.968369831
 30
0.0
 10
9.0699347355
 20
9.9693479568
 30
0.0
  0
SPLINE
  5
3E1
100
AcDbEntity
  8
0
100
AcDbSpline
 62
7
  6
CONTINUOUS
 70
0
 71
3
 72
20
 73
16
 74
0
 42
0.0000001
 43
0.0000001
 44
0.0000000001
 40
0.0
 40
0.0
 40
0.0
 40
0.0
 40
0.1599658398
 40
0.3154655569
 40
0.3903954457
 40
0.4628048231
 40
0.5979490401
 40
0.6599543878
 40
0.7179833948
 40
0.7720983745
 40
0.8225010527
 40
0.8696091002
 40
0.9141289652
 40
0.9571254817
 40
1.0
 40
1.0
 40
1.0
 40
1.0
 10
8.6971179219
 20
10.4136537338
 30
0.0
 10
8.6962971824
 20
10.4146318909
 30
0.0
 10
8.6945597645
 20
10.4164637751
 30
0.0
 10
8.6921685377
 20
10.4184728834
 30
0.0
 10
8.6901839674
 20
10.4198559514
 30
0.0
 10
8.6882546021
 20
10.4210242124
 30
0.0
 10
8.6862984804
 20
10.4219481488
 30
0.0
 10
8.6843492199
 20
10.4225493471
 30
0.0
 10
8.6829829992
 20
10.4228205542
 30
0.0
 10
8.681686374
 20
10.4229244861
 30
0.0
 10
8.6804736181
 20
10.4228588122
 30
0.0
 10
8.6793597962
 20
10.4226203656
 30
0.0
 10
8.6783609478
 20
10.4222052013
 30
0.0
 10
8.6774984889
 20
10.4216081325
 30
0.0
 10
8.6770321301
 20
10.4210967564
 30
0.0
 10
8.676829846
 20
10.4208207067
 30
0.0
  0
SPLINE
  5
3E2
100
AcDbEntity
  8
0
100
AcDbSpline
 62
7
  6
CONTINUOUS
 70
0
 71
3
 72
20
 73
16
 74
0
 42
0.0000001
 43
0.0000001
 44
0.0000000001
 40
0.0
 40
0.0
 40
0.0
 40
0.0
 40
0.0428745183
 40
0.0858710348
 40
0.1303908998
 40
0.1774989473
 40
0.2279016255
 40
0.2820166052
 40
0.3400456122
 40
0.4020509599
 40
0.5371951769
 40
0.6096045543
 40
0.6845344431
 40
0.8400341602
 40
1.0
 40
1.0
 40
1.0
 40
1.0
 10
8.8870614318
 20
10.1702764591
 30
0.0
 10
8.8873684139
 20
10.1704277345
 30
0.0
 10
8.8879530034
 20
10.1707982087
 30
0.0
 10
8.8886907658
 20
10.1715438851
 30
0.0
 10
8.889273071
 20
10.1724554662
 30
0.0
 10
8.8897013082
 20
10.1735109608
 30
0.0
 10
8.8899765773
 20
10.1746938881
 30
0.0
 10
8.8900993809
 20
10.1759888622
 30
0.0
 10
8.8900695358
 20
10.1773814216
 30
0.0
 10
8.8898159565
 20
10.1794054654
 30
0.0
 10
8.8892457338
 20
10.1814923091
 30
0.0
 10
8.8884302521
 20
10.1835952294
 30
0.0
 10
8.887412813
 20
10.1857898168
 30
0.0
 10
8.8858494598
 20
10.1884935936
 30
0.0
 10
8.8843471055
 20
10.1905227195
 30
0.0
 10
8.8835263287
 20
10.1915008453
 30
0.0
  0
SPLINE
  5
3E3
100
AcDbEntity
  8
0
100
AcDbSpline
 62
7
  6
CONTINUOUS
 70
0
 71
3
 72
20
 73
16
 74
0
 42
0.0000001
 43
0.0000001
 44
0.0000000001
 40
0.0
 40
0.0
 40
0.0
 40
0.0
 40
0.0428745183
 40
0.0858710348
 40
0.1303908998
 40
0.1774989473
 40
0.2279016255
 40
0.2820166052
 40
0.3400456122
 40
0.4020509599
 40
0.5371951769
 40
0.6096045543
 40
0.6845344431
 40
0.8400341602
 40
1.0
 40
1.0
 40
1.0
 40
1.0
 10
8.7006530249
 20
10.3924293476
 30
0.0
 10
8.7009600071
 20
10.392580623
 30
0.0
 10
8.7015445966
 20
10.3929510973
 30
0.0
 10
8.702282359
 20
10.3936967736
 30
0.0
 10
8.7028646642
 20
10.3946083547
 30
0.0
 10
8.7032929014
 20
10.3956638493
 30
0.0
 10
8.7035681705
 20
10.3968467766
 30
0.0
 10
8.7036909741
 20
10.3981417507
 30
0.0
 10
8.703661129
 20
10.3995343101
 30
0.0
 10
8.7034075497
 20
10.4015583539
 30
0.0
 10
8.702837327
 20
10.4036451976
 30
0.0
 10
8.7020218453
 20
10.4057481179
 30
0.0
 10
8.7010044062
 20
10.4079427053
 30
0.0
 10
8.699441053
 20
10.4106464821
 30
0.0
 10
8.6979386987
 20
10.412675608
 30
0.0
 10
8.6971179219
 20
10.4136537338
 30
0.0
  0
SPLINE
  5
3E4
100
AcDbEntity
  8
0
100
AcDbSpline
 62
7
  6
CONTINUOUS
 70
0
 71
3
 72
20
 73
16
 74
0
 42
0.0000001
 43
0.0000001
 44
0.0000000001
 40
0.0
 40
0.0
 40
0.0
 40
0.0
 40
0.0428745183
 40
0.0858710348
 40
0.1303908998
 40
0.1774989473
 40
0.2279016255
 40
0.2820166052
 40
0.3400456122
 40
0.4020509599
 40
0.5371951769
 40
0.6096045543
 40
0.6845344431
 40
0.8400341602
 40
1.0
 40
1.0
 40
1.0
 40
1.0
 10
8.5142446181
 20
10.6145822361
 30
0.0
 10
8.5145516003
 20
10.6147335115
 30
0.0
 10
8.5151361898
 20
10.6151039858
 30
0.0
 10
8.5158739522
 20
10.6158496621
 30
0.0
 10
8.5164562574
 20
10.6167612432
 30
0.0
 10
8.5168844946
 20
10.6178167378
 30
0.0
 10
8.5171597637
 20
10.6189996651
 30
0.0
 10
8.5172825672
 20
10.6202946393
 30
0.0
 10
8.5172527222
 20
10.6216871986
 30
0.0
 10
8.5169991429
 20
10.6237112424
 30
0.0
 10
8.5164289202
 20
10.6257980861
 30
0.0
 10
8.5156134384
 20
10.6279010064
 30
0.0
 10
8.5145959994
 20
10.6300955938
 30
0.0
 10
8.5130326462
 20
10.6327993706
 30
0.0
 10
8.5115302919
 20
10.6348284965
 30
0.0
 10
8.5107095151
 20
10.6358066223
 30
0.0
  0
SPLINE
  5
3E5
100
AcDbEntity
  8
0
100
AcDbSpline
 62
7
  6
CONTINUOUS
 70
0
 71
3
 72
20
 73
16
 74
0
 42
0.0000001
 43
0.0000001
 44
0.0000000001
 40
0.0
 40
0.0
 40
0.0
 40
0.0
 40
0.1599658398
 40
0.3154655569
 40
0.3903954457
 40
0.4628048231
 40
0.5979490401
 40
0.6599543878
 40
0.7179833948
 40
0.7720983745
 40
0.8225010527
 40
0.8696091002
 40
0.9141289652
 40
0.9571254817
 40
1.0
 40
1.0
 40
1.0
 40
1.0
 10
8.8835263287
 20
10.1915008453
 30
0.0
 10
8.8827055892
 20
10.1924790024
 30
0.0
 10
8.8809681713
 20
10.1943108866
 30
0.0
 10
8.8785769445
 20
10.1963199949
 30
0.0
 10
8.8765923742
 20
10.1977030629
 30
0.0
 10
8.8746630089
 20
10.1988713239
 30
0.0
 10
8.8727068872
 20
10.1997952603
 30
0.0
 10
8.8707576267
 20
10.2003964586
 30
0.0
 10
8.869391406
 20
10.2006676656
 30
0.0
 10
8.8680947808
 20
10.2007715976
 30
0.0
 10
8.8668820249
 20
10.2007059237
 30
0.0
 10
8.865768203
 20
10.2004674771
 30
0.0
 10
8.8647693546
 20
10.2000523128
 30
0.0
 10
8.8639068957
 20
10.199455244
 30
0.0
 10
8.8634405369
 20
10.1989438679
 30
0.0
 10
8.8632382528
 20
10.1986678182
 30
0.0
  0
SPLINE
  5
3E6
100
AcDbEntity
  8
0
100
AcDbSpline
 62
7
  6
CONTINUOUS
 70
0
 71
3
 72
20
 73
16
 74
0
 42
0.0000001
 43
0.0000001
 44
0.0000000001
 40
0.0
 40
0.0
 40
0.0
 40
0.0
 40
0.0428745183
 40
0.0858710348
 40
0.1303908998
 40
0.1774989473
 40
0.2279016255
 40
0.2820166052
 40
0.3400456122
 40
0.4020509599
 40
0.5371951769
 40
0.6096045543
 40
0.6845344431
 40
0.8400341602
 40
1.0
 40
1.0
 40
1.0
 40
1.0
 10
8.3278362113
 20
10.8367351246
 30
0.0
 10
8.3281431935
 20
10.8368864
 30
0.0
 10
8.328727783
 20
10.8372568743
 30
0.0
 10
8.3294655453
 20
10.8380025506
 30
0.0
 10
8.3300478506
 20
10.8389141317
 30
0.0
 10
8.3304760878
 20
10.8399696263
 30
0.0
 10
8.3307513568
 20
10.8411525536
 30
0.0
 10
8.3308741604
 20
10.8424475278
 30
0.0
 10
8.3308443154
 20
10.8438400871
 30
0.0
 10
8.3305907361
 20
10.8458641309
 30
0.0
 10
8.3300205134
 20
10.8479509746
 30
0.0
 10
8.3292050316
 20
10.8500538949
 30
0.0
 10
8.3281875926
 20
10.8522484823
 30
0.0
 10
8.3266242394
 20
10.8549522591
 30
0.0
 10
8.3251218851
 20
10.856981385
 30
0.0
 10
8.3243011083
 20
10.8579595108
 30
0.0
  0
SPLINE
  5
3E7
100
AcDbEntity
  8
0
100
AcDbSpline
 62
7
  6
CONTINUOUS
 70
0
 71
3
 72
20
 73
16
 74
0
 42
0.0000001
 43
0.0000001
 44
0.0000000001
 40
0.0
 40
0.0
 40
0.0
 40
0.0
 40
0.0428745183
 40
0.0858710348
 40
0.1303908998
 40
0.1774989473
 40
0.2279016255
 40
0.2820166052
 40
0.3400456122
 40
0.4020509599
 40
0.5371951769
 40
0.6096045543
 40
0.6845344431
 40
0.8400341602
 40
1.0
 40
1.0
 40
1.0
 40
1.0
 10
8.1414278045
 20
11.0588880132
 30
0.0
 10
8.1417347866
 20
11.0590392885
 30
0.0
 10
8.1423193761
 20
11.0594097628
 30
0.0
 10
8.1430571385
 20
11.0601554391
 30
0.0
 10
8.1436394438
 20
11.0610670202
 30
0.0
 10
8.144067681
 20
11.0621225148
 30
0.0
 10
8.14434295
 20
11.0633054421
 30
0.0
 10
8.1444657536
 20
11.0646004163
 30
0.0
 10
8.1444359086
 20
11.0659929756
 30
0.0
 10
8.1441823293
 20
11.0680170194
 30
0.0
 10
8.1436121066
 20
11.0701038632
 30
0.0
 10
8.1427966248
 20
11.0722067834
 30
0.0
 10
8.1417791858
 20
11.0744013709
 30
0.0
 10
8.1402158326
 20
11.0771051476
 30
0.0
 10
8.1387134782
 20
11.0791342735
 30
0.0
 10
8.1378927014
 20
11.0801123993
 30
0.0
  0
SPLINE
  5
3E8
100
AcDbEntity
  8
0
100
AcDbSpline
 62
7
  6
CONTINUOUS
 70
0
 71
3
 72
20
 73
16
 74
0
 42
0.0000001
 43
0.0000001
 44
0.0000000001
 40
0.0
 40
0.0
 40
0.0
 40
0.0
 40
0.1599658398
 40
0.3154655569
 40
0.3903954457
 40
0.4628048231
 40
0.5979490401
 40
0.6599543878
 40
0.7179833948
 40
0.7720983745
 40
0.8225010527
 40
0.8696091002
 40
0.9141289652
 40
0.9571254817
 40
1.0
 40
1.0
 40
1.0
 40
1.0
 10
9.0699347355
 20
9.9693479568
 30
0.0
 10
9.069113996
 20
9.9703261139
 30
0.0
 10
9.0673765782
 20
9.9721579981
 30
0.0
 10
9.0649853513
 20
9.9741671064
 30
0.0
 10
9.063000781
 20
9.9755501744
 30
0.0
 10
9.0610714158
 20
9.9767184354
 30
0.0
 10
9.059115294
 20
9.9776423718
 30
0.0
 10
9.0571660335
 20
9.9782435701
 30
0.0
 10
9.0557998128
 20
9.9785147771
 30
0.0
 10
9.0545031876
 20
9.9786187091
 30
0.0
 10
9.0532904317
 20
9.9785530352
 30
0.0
 10
9.0521766098
 20
9.9783145886
 30
0.0
 10
9.0511777614
 20
9.9778994243
 30
0.0
 10
9.0503153025
 20
9.9773023555
 30
0.0
 10
9.0498489437
 20
9.9767909794
 30
0.0
 10
9.0496466596
 20
9.9765149297
 30
0.0
  0
SPLINE
  5
3E9
100
AcDbEntity
  8
0
100
AcDbSpline
 62
7
  6
CONTINUOUS
 70
0
 71
3
 72
20
 73
16
 74
0
 42
0.0000001
 43
0.0000001
 44
0.0000000001
 40
0.0
 40
0.0
 40
0.0
 40
0.0
 40
0.1599658398
 40
0.3154655569
 40
0.3903954457
 40
0.4628048231
 40
0.5979490401
 40
0.6599543878
 40
0.7179833948
 40
0.7720983745
 40
0.8225010527
 40
0.8696091002
 40
0.9141289652
 40
0.9571254817
 40
1.0
 40
1.0
 40
1.0
 40
1.0
 10
9.2563431423
 20
9.7471950683
 30
0.0
 10
9.2555224028
 20
9.7481732254
 30
0.0
 10
9.253784985
 20
9.7500051096
 30
0.0
 10
9.2513937581
 20
9.7520142179
 30
0.0
 10
9.2494091878
 20
9.7533972859
 30
0.0
 10
9.2474798226
 20
9.7545655469
 30
0.0
 10
9.2455237008
 20
9.7554894832
 30
0.0
 10
9.2435744403
 20
9.7560906816
 30
0.0
 10
9.2422082196
 20
9.7563618886
 30
0.0
 10
9.2409115944
 20
9.7564658206
 30
0.0
 10
9.2396988385
 20
9.7564001467
 30
0.0
 10
9.2385850166
 20
9.7561617001
 30
0.0
 10
9.2375861682
 20
9.7557465358
 30
0.0
 10
9.2367237093
 20
9.755149467
 30
0.0
 10
9.2362573505
 20
9.7546380909
 30
0.0
 10
9.2360550664
 20
9.7543620412
 30
0.0
  0
SPLINE
  5
3EA
100
AcDbEntity
  8
0
100
AcDbSpline
 62
7
  6
CONTINUOUS
 70
0
 71
3
 72
20
 73
16
 74
0
 42
0.0000001
 43
0.0000001
 44
0.0000000001
 40
0.0
 40
0.0
 40
0.0
 40
0.0
 40
0.1599658398
 40
0.3154655569
 40
0.3903954457
 40
0.4628048231
 40
0.5979490401
 40
0.6599543878
 40
0.7179833948
 40
0.7720983745
 40
0.8225010527
 40
0.8696091002
 40
0.9141289652
 40
0.9571254817
 40
1.0
 40
1.0
 40
1.0
 40
1.0
 10
9.4427515491
 20
9.5250421798
 30
0.0
 10
9.4419308096
 20
9.5260203369
 30
0.0
 10
9.4401933918
 20
9.5278522211
 30
0.0
 10
9.4378021649
 20
9.5298613294
 30
0.0
 10
9.4358175946
 20
9.5312443974
 30
0.0
 10
9.4338882294
 20
9.5324126584
 30
0.0
 10
9.4319321076
 20
9.5333365947
 30
0.0
 10
9.4299828471
 20
9.5339377931
 30
0.0
 10
9.4286166265
 20
9.5342090001
 30
0.0
 10
9.4273200012
 20
9.5343129321
 30
0.0
 10
9.4261072453
 20
9.5342472582
 30
0.0
 10
9.4249934235
 20
9.5340088115
 30
0.0
 10
9.423994575
 20
9.5335936473
 30
0.0
 10
9.4231321161
 20
9.5329965785
 30
0.0
 10
9.4226657573
 20
9.5324852024
 30
0.0
 10
9.4224634733
 20
9.5322091527
 30
0.0
  0
SPLINE
  5
3EB
100
AcDbEntity
  8
0
100
AcDbSpline
 62
7
  6
CONTINUOUS
 70
0
 71
3
 72
20
 73
16
 74
0
 42
0.0000001
 43
0.0000001
 44
0.0000000001
 40
0.0
 40
0.0
 40
0.0
 40
0.0
 40
0.1599658398
 40
0.3154655569
 40
0.3903954457
 40
0.4628048231
 40
0.5979490401
 40
0.6599543878
 40
0.7179833948
 40
0.7720983745
 40
0.8225010527
 40
0.8696091002
 40
0.9141289652
 40
0.9571254817
 40
1.0
 40
1.0
 40
1.0
 40
1.0
 10
9.6291599559
 20
9.3028892913
 30
0.0
 10
9.6283392164
 20
9.3038674484
 30
0.0
 10
9.6266017986
 20
9.3056993326
 30
0.0
 10
9.6242105717
 20
9.3077084409
 30
0.0
 10
9.6222260014
 20
9.3090915089
 30
0.0
 10
9.6202966362
 20
9.3102597699
 30
0.0
 10
9.6183405144
 20
9.3111837062
 30
0.0
 10
9.6163912539
 20
9.3117849046
 30
0.0
 10
9.6150250333
 20
9.3120561116
 30
0.0
 10
9.613728408
 20
9.3121600436
 30
0.0
 10
9.6125156521
 20
9.3120943697
 30
0.0
 10
9.6114018303
 20
9.311855923
 30
0.0
 10
9.6104029818
 20
9.3114407588
 30
0.0
 10
9.6095405229
 20
9.31084369
 30
0.0
 10
9.6090741641
 20
9.3103323139
 30
0.0
 10
9.6088718801
 20
9.3100562642
 30
0.0
  0
SPLINE
  5
3EC
100
AcDbEntity
  8
0
100
AcDbSpline
 62
7
  6
CONTINUOUS
 70
0
 71
3
 72
20
 73
16
 74
0
 42
0.0000001
 43
0.0000001
 44
0.0000000001
 40
0.0
 40
0.0
 40
0.0
 40
0.0
 40
0.1599658398
 40
0.3154655569
 40
0.3903954457
 40
0.4628048231
 40
0.5979490401
 40
0.6599543878
 40
0.7179833948
 40
0.7720983745
 40
0.8225010527
 40
0.8696091002
 40
0.9141289652
 40
0.9571254817
 40
1.0
 40
1.0
 40
1.0
 40
1.0
 10
9.8155683627
 20
9.0807364028
 30
0.0
 10
9.8147476232
 20
9.0817145599
 30
0.0
 10
9.8130102054
 20
9.0835464441
 30
0.0
 10
9.8106189785
 20
9.0855555524
 30
0.0
 10
9.8086344082
 20
9.0869386204
 30
0.0
 10
9.806705043
 20
9.0881068814
 30
0.0
 10
9.8047489212
 20
9.0890308177
 30
0.0
 10
9.8027996607
 20
9.0896320161
 30
0.0
 10
9.8014334401
 20
9.0899032231
 30
0.0
 10
9.8001368148
 20
9.0900071551
 30
0.0
 10
9.7989240589
 20
9.0899414812
 30
0.0
 10
9.7978102371
 20
9.0897030345
 30
0.0
 10
9.7968113886
 20
9.0892878703
 30
0.0
 10
9.7959489297
 20
9.0886908015
 30
0.0
 10
9.7954825709
 20
9.0881794254
 30
0.0
 10
9.7952802869
 20
9.0879033757
 30
0.0
  0
SPLINE
  5
3ED
100
AcDbEntity
  8
0
100
AcDbSpline
 62
7
  6
CONTINUOUS
 70
0
 71
3
 72
20
 73
16
 74
0
 42
0.0000001
 43
0.0000001
 44
0.0000000001
 40
0.0
 40
0.0
 40
0.0
 40
0.0
 40
0.1599658398
 40
0.3154655569
 40
0.3903954457
 40
0.4628048231
 40
0.5979490401
 40
0.6599543878
 40
0.7179833948
 40
0.7720983745
 40
0.8225010527
 40
0.8696091002
 40
0.9141289652
 40
0.9571254817
 40
1.0
 40
1.0
 40
1.0
 40
1.0
 10
10.0019767695
 20
8.8585835143
 30
0.0
 10
10.00115603
 20
8.8595616714
 30
0.0
 10
9.9994186122
 20
8.8613935556
 30
0.0
 10
9.9970273853
 20
8.8634026639
 30
0.0
 10
9.995042815
 20
8.8647857318
 30
0.0
 10
9.9931134498
 20
8.8659539929
 30
0.0
 10
9.991157328
 20
8.8668779292
 30
0.0
 10
9.9892080675
 20
8.8674791276
 30
0.0
 10
9.9878418469
 20
8.8677503346
 30
0.0
 10
9.9865452216
 20
8.8678542666
 30
0.0
 10
9.9853324657
 20
8.8677885927
 30
0.0
 10
9.9842186439
 20
8.867550146
 30
0.0
 10
9.9832197954
 20
8.8671349818
 30
0.0
 10
9.9823573365
 20
8.866537913
 30
0.0
 10
9.9818909777
 20
8.8660265369
 30
0.0
 10
9.9816886937
 20
8.8657504872
 30
0.0
  0
LINE
  5
3EE
100
AcDbEntity
  8
0
100
AcDbLine
 62
7
  6
CONTINUOUS
 10
8.1051395013
 20
11.0761566347
 11
8.1045461458
 21
11.0759551934
  0
LINE
  5
3EF
100
AcDbEntity
  8
0
100
AcDbLine
 62
7
  6
CONTINUOUS
 10
8.2915479082
 20
10.8540037461
 11
8.2909545527
 21
10.8538023049
  0
LINE
  5
3F0
100
AcDbEntity
  8
0
100
AcDbLine
 62
7
  6
CONTINUOUS
 10
8.477956315
 20
10.6318508576
 11
8.4773629595
 21
10.6316494164
  0
LINE
  5
3F1
100
AcDbEntity
  8
0
100
AcDbLine
 62
7
  6
CONTINUOUS
 10
8.6643647218
 20
10.4096979691
 11
8.6637713663
 21
10.4094965279
  0
LINE
  5
3F2
100
AcDbEntity
  8
0
100
AcDbLine
 62
7
  6
CONTINUOUS
 10
8.8507731286
 20
10.1875450806
 11
8.8501797731
 21
10.1873436394
  0
LINE
  5
3F3
100
AcDbEntity
  8
0
100
AcDbLine
 62
7
  6
CONTINUOUS
 10
9.0371815354
 20
9.9653921921
 11
9.0365881799
 21
9.9651907509
  0
LINE
  5
3F4
100
AcDbEntity
  8
0
100
AcDbLine
 62
7
  6
CONTINUOUS
 10
9.2235899422
 20
9.7432393036
 11
9.2229965867
 21
9.7430378624
  0
LINE
  5
3F5
100
AcDbEntity
  8
0
100
AcDbLine
 62
7
  6
CONTINUOUS
 10
9.409998349
 20
9.5210864151
 11
9.4094049935
 21
9.5208849739
  0
LINE
  5
3F6
100
AcDbEntity
  8
0
100
AcDbLine
 62
7
  6
CONTINUOUS
 10
9.5964067558
 20
9.2989335266
 11
9.5958134003
 21
9.2987320853
  0
LINE
  5
3F7
100
AcDbEntity
  8
0
100
AcDbLine
 62
7
  6
CONTINUOUS
 10
9.7828151626
 20
9.0767806381
 11
9.7822218071
 21
9.0765791968
  0
LINE
  5
3F8
100
AcDbEntity
  8
0
100
AcDbLine
 62
7
  6
CONTINUOUS
 10
9.9692235694
 20
8.8546277496
 11
9.9686302139
 21
8.8544263083
  0
SPLINE
  5
3F9
100
AcDbEntity
  8
0
100
AcDbSpline
 62
7
  6
CONTINUOUS
 70
0
 71
3
 72
19
 73
15
 74
0
 42
0.0000001
 43
0.0000001
 44
0.0000000001
 40
0.0
 40
0.0
 40
0.0
 40
0.0
 40
0.0423900202
 40
0.0866875015
 40
0.1334976334
 40
0.1832377682
 40
0.236172129
 40
0.2924555131
 40
0.4151110624
 40
0.4813159956
 40
0.5502799463
 40
0.6948843401
 40
0.8458405377
 40
1.0
 40
1.0
 40
1.0
 40
1.0
 10
9.4224634733
 20
9.5322091527
 30
0.0
 10
9.4222846578
 20
9.5319651297
 30
0.0
 10
9.4219649749
 20
9.5314311173
 30
0.0
 10
9.4216144179
 20
9.5305414643
 30
0.0
 10
9.4213830611
 20
9.5295600856
 30
0.0
 10
9.4212699615
 20
9.5284968527
 30
0.0
 10
9.4212739422
 20
9.5273603859
 30
0.0
 10
9.4214399054
 20
9.5257118271
 30
0.0
 10
9.4218468923
 20
9.5240013333
 30
0.0
 10
9.4224533377
 20
9.5222634845
 30
0.0
 10
9.4232252789
 20
9.520420789
 30
0.0
 10
9.4244279752
 20
9.5181084966
 30
0.0
 10
9.4261673392
 20
9.5154066963
 30
0.0
 10
9.4274991196
 20
9.5136800746
 30
0.0
 10
9.4282063114
 20
9.5128372762
 30
0.0
  0
SPLINE
  5
3FA
100
AcDbEntity
  8
0
100
AcDbSpline
 62
7
  6
CONTINUOUS
 70
0
 71
3
 72
9
 73
5
 74
0
 42
0.0000001
 43
0.0000001
 44
0.0000000001
 40
0.0
 40
0.0
 40
0.0
 40
0.0
 40
0.5142238131
 40
1.0
 40
1.0
 40
1.0
 40
1.0
 10
8.5084530073
 20
10.6339131875
 30
0.0
 10
8.5073019362
 20
10.6352849807
 30
0.0
 10
8.5052144671
 20
10.6380830644
 30
0.0
 10
8.5034628604
 20
10.6411041243
 30
0.0
 10
8.502712638
 20
10.6426203544
 30
0.0
  0
SPLINE
  5
3FB
100
AcDbEntity
  8
0
100
AcDbSpline
 62
9
  6
CONTINUOUS
 70
0
 71
3
 72
18
 73
14
 74
0
 42
0.0000001
 43
0.0000001
 44
0.0000000001
 40
0.0
 40
0.0
 40
0.0
 40
0.0
 40
0.0352683453
 40
0.0696454363
 40
0.1047153451
 40
0.1419682725
 40
0.1826444894
 40
0.2276806266
 40
0.3332329817
 40
0.4621353286
 40
0.6159072183
 40
0.7951722197
 40
1.0
 40
1.0
 40
1.0
 40
1.0
 10
8.0978240211
 20
11.0902215744
 30
0.0
 10
8.0978490206
 20
11.0902681401
 30
0.0
 10
8.0979074635
 20
11.0903556825
 30
0.0
 10
8.0980217444
 20
11.0904650251
 30
0.0
 10
8.0981596347
 20
11.0905483473
 30
0.0
 10
8.0983200415
 20
11.0906055713
 30
0.0
 10
8.0985023163
 20
11.0906372451
 30
0.0
 10
8.0987895347
 20
11.0906463968
 30
0.0
 10
8.099206832
 20
11.0905863066
 30
0.0
 10
8.0997658366
 20
11.090421382
 30
0.0
 10
8.1004078158
 20
11.0901599906
 30
0.0
 10
8.1011307113
 20
11.0898023976
 30
0.0
 10
8.1016319373
 20
11.0895188593
 30
0.0
 10
8.10189592
 20
11.0893622369
 30
0.0
  0
SPLINE
  5
3FC
100
AcDbEntity
  8
0
100
AcDbSpline
 62
7
  6
CONTINUOUS
 70
0
 71
3
 72
19
 73
15
 74
0
 42
0.0000001
 43
0.0000001
 44
0.0000000001
 40
0.0
 40
0.0
 40
0.0
 40
0.0
 40
0.0423900202
 40
0.0866875015
 40
0.1334976334
 40
0.1832377682
 40
0.236172129
 40
0.2924555131
 40
0.4151110624
 40
0.4813159956
 40
0.5502799463
 40
0.6948843401
 40
0.8458405377
 40
1.0
 40
1.0
 40
1.0
 40
1.0
 10
9.2360550664
 20
9.7543620412
 30
0.0
 10
9.235876251
 20
9.7541180182
 30
0.0
 10
9.2355565681
 20
9.7535840058
 30
0.0
 10
9.2352060111
 20
9.7526943528
 30
0.0
 10
9.2349746543
 20
9.7517129741
 30
0.0
 10
9.2348615547
 20
9.7506497412
 30
0.0
 10
9.2348655354
 20
9.7495132744
 30
0.0
 10
9.2350314986
 20
9.7478647156
 30
0.0
 10
9.2354384855
 20
9.7461542218
 30
0.0
 10
9.2360449309
 20
9.744416373
 30
0.0
 10
9.2368168721
 20
9.7425736775
 30
0.0
 10
9.2380195684
 20
9.7402613851
 30
0.0
 10
9.2397589324
 20
9.7375595849
 30
0.0
 10
9.2410907128
 20
9.7358329631
 30
0.0
 10
9.2417979046
 20
9.7349901647
 30
0.0
  0
SPLINE
  5
3FD
100
AcDbEntity
  8
0
100
AcDbSpline
 62
7
  6
CONTINUOUS
 70
0
 71
3
 72
19
 73
15
 74
0
 42
0.0000001
 43
0.0000001
 44
0.0000000001
 40
0.0
 40
0.0
 40
0.0
 40
0.0
 40
0.0423900202
 40
0.0866875015
 40
0.1334976334
 40
0.1832377682
 40
0.236172129
 40
0.2924555131
 40
0.4151110624
 40
0.4813159956
 40
0.5502799463
 40
0.6948843401
 40
0.8458405377
 40
1.0
 40
1.0
 40
1.0
 40
1.0
 10
9.0496466596
 20
9.9765149297
 30
0.0
 10
9.0494678442
 20
9.9762709067
 30
0.0
 10
9.0491481613
 20
9.9757368943
 30
0.0
 10
9.0487976043
 20
9.9748472413
 30
0.0
 10
9.0485662475
 20
9.9738658626
 30
0.0
 10
9.0484531478
 20
9.9728026297
 30
0.0
 10
9.0484571286
 20
9.9716661629
 30
0.0
 10
9.0486230918
 20
9.9700176041
 30
0.0
 10
9.0490300787
 20
9.9683071103
 30
0.0
 10
9.0496365241
 20
9.9665692615
 30
0.0
 10
9.0504084653
 20
9.964726566
 30
0.0
 10
9.0516111616
 20
9.9624142736
 30
0.0
 10
9.0533505256
 20
9.9597124734
 30
0.0
 10
9.054682306
 20
9.9579858516
 30
0.0
 10
9.0553894978
 20
9.9571430532
 30
0.0
  0
SPLINE
  5
3FE
100
AcDbEntity
  8
0
100
AcDbSpline
 62
7
  6
CONTINUOUS
 70
0
 71
3
 72
19
 73
15
 74
0
 42
0.0000001
 43
0.0000001
 44
0.0000000001
 40
0.0
 40
0.0
 40
0.0
 40
0.0
 40
0.1541594623
 40
0.3051156599
 40
0.4497200537
 40
0.5186840044
 40
0.5848889376
 40
0.7075444869
 40
0.763827871
 40
0.8167622318
 40
0.8665023666
 40
0.9133124985
 40
0.9576099798
 40
1.0
 40
1.0
 40
1.0
 40
1.0
 10
8.6825726842
 20
10.4014488302
 30
0.0
 10
8.683279876
 20
10.4006060318
 30
0.0
 10
8.6847490052
 20
10.3989946594
 30
0.0
 10
8.6871077217
 20
10.3968125576
 30
0.0
 10
8.6891760391
 20
10.3952266077
 30
0.0
 10
8.6908566937
 20
10.3941464133
 30
0.0
 10
8.6924628326
 20
10.3932474068
 30
0.0
 10
8.6940766676
 20
10.3925495789
 30
0.0
 10
8.6956713619
 20
10.3920998678
 30
0.0
 10
8.696789872
 20
10.3918986021
 30
0.0
 10
8.6978565915
 20
10.3918253551
 30
0.0
 10
8.6988632356
 20
10.3918827824
 30
0.0
 10
8.6998002463
 20
10.392073527
 30
0.0
 10
8.7003816583
 20
10.3922956229
 30
0.0
 10
8.7006530249
 20
10.3924293476
 30
0.0
  0
SPLINE
  5
3FF
100
AcDbEntity
  8
0
100
AcDbSpline
 62
7
  6
CONTINUOUS
 70
0
 71
3
 72
9
 73
5
 74
0
 42
0.0000001
 43
0.0000001
 44
0.0000000001
 40
0.0
 40
0.0
 40
0.0
 40
0.0
 40
0.5142238131
 40
1.0
 40
1.0
 40
1.0
 40
1.0
 10
8.6948614141
 20
10.411760299
 30
0.0
 10
8.6960124853
 20
10.4103885059
 30
0.0
 10
8.6984055747
 20
10.407846868
 30
0.0
 10
8.7010765745
 20
10.4055972706
 30
0.0
 10
8.702439495
 20
10.4045951551
 30
0.0
  0
SPLINE
  5
400
100
AcDbEntity
  8
0
100
AcDbSpline
 62
7
  6
CONTINUOUS
 70
0
 71
3
 72
9
 73
5
 74
0
 42
0.0000001
 43
0.0000001
 44
0.0000000001
 40
0.0
 40
0.0
 40
0.0
 40
0.0
 40
0.5142238131
 40
1.0
 40
1.0
 40
1.0
 40
1.0
 10
8.6948614141
 20
10.411760299
 30
0.0
 10
8.693710343
 20
10.4131320922
 30
0.0
 10
8.691622874
 20
10.4159301759
 30
0.0
 10
8.6898712673
 20
10.4189512358
 30
0.0
 10
8.6891210448
 20
10.4204674659
 30
0.0
  0
SPLINE
  5
401
100
AcDbEntity
  8
0
100
AcDbSpline
 62
7
  6
CONTINUOUS
 70
0
 71
3
 72
19
 73
15
 74
0
 42
0.0000001
 43
0.0000001
 44
0.0000000001
 40
0.0
 40
0.0
 40
0.0
 40
0.0
 40
0.0423900202
 40
0.0866875015
 40
0.1334976334
 40
0.1832377682
 40
0.236172129
 40
0.2924555131
 40
0.4151110624
 40
0.4813159956
 40
0.5502799463
 40
0.6948843401
 40
0.8458405377
 40
1.0
 40
1.0
 40
1.0
 40
1.0
 10
8.8632382528
 20
10.1986678182
 30
0.0
 10
8.8630594374
 20
10.1984237952
 30
0.0
 10
8.8627397545
 20
10.1978897828
 30
0.0
 10
8.8623891975
 20
10.1970001298
 30
0.0
 10
8.8621578407
 20
10.1960187511
 30
0.0
 10
8.862044741
 20
10.1949555182
 30
0.0
 10
8.8620487218
 20
10.1938190514
 30
0.0
 10
8.862214685
 20
10.1921704926
 30
0.0
 10
8.8626216719
 20
10.1904599988
 30
0.0
 10
8.8632281173
 20
10.18872215
 30
0.0
 10
8.8640000585
 20
10.1868794545
 30
0.0
 10
8.8652027548
 20
10.1845671621
 30
0.0
 10
8.8669421188
 20
10.1818653619
 30
0.0
 10
8.8682738992
 20
10.1801387401
 30
0.0
 10
8.868981091
 20
10.1792959417
 30
0.0
  0
SPLINE
  5
402
100
AcDbEntity
  8
0
100
AcDbSpline
 62
7
  6
CONTINUOUS
 70
0
 71
3
 72
19
 73
15
 74
0
 42
0.0000001
 43
0.0000001
 44
0.0000000001
 40
0.0
 40
0.0
 40
0.0
 40
0.0
 40
0.0423900202
 40
0.0866875015
 40
0.1334976334
 40
0.1832377682
 40
0.236172129
 40
0.2924555131
 40
0.4151110624
 40
0.4813159956
 40
0.5502799463
 40
0.6948843401
 40
0.8458405377
 40
1.0
 40
1.0
 40
1.0
 40
1.0
 10
8.676829846
 20
10.4208207067
 30
0.0
 10
8.6766510306
 20
10.4205766837
 30
0.0
 10
8.6763313477
 20
10.4200426713
 30
0.0
 10
8.6759807907
 20
10.4191530184
 30
0.0
 10
8.6757494339
 20
10.4181716396
 30
0.0
 10
8.6756363342
 20
10.4171084067
 30
0.0
 10
8.675640315
 20
10.4159719399
 30
0.0
 10
8.6758062782
 20
10.4143233811
 30
0.0
 10
8.6762132651
 20
10.4126128873
 30
0.0
 10
8.6768197105
 20
10.4108750385
 30
0.0
 10
8.6775916517
 20
10.409032343
 30
0.0
 10
8.678794348
 20
10.4067200506
 30
0.0
 10
8.6805337119
 20
10.4040182504
 30
0.0
 10
8.6818654924
 20
10.4022916286
 30
0.0
 10
8.6825726842
 20
10.4014488302
 30
0.0
  0
SPLINE
  5
403
100
AcDbEntity
  8
0
100
AcDbSpline
 62
7
  6
CONTINUOUS
 70
0
 71
3
 72
19
 73
15
 74
0
 42
0.0000001
 43
0.0000001
 44
0.0000000001
 40
0.0
 40
0.0
 40
0.0
 40
0.0
 40
0.1541594623
 40
0.3051156599
 40
0.4497200537
 40
0.5186840044
 40
0.5848889376
 40
0.7075444869
 40
0.763827871
 40
0.8167622318
 40
0.8665023666
 40
0.9133124985
 40
0.9576099798
 40
1.0
 40
1.0
 40
1.0
 40
1.0
 10
8.868981091
 20
10.1792959417
 30
0.0
 10
8.8696882828
 20
10.1784531433
 30
0.0
 10
8.871157412
 20
10.1768417709
 30
0.0
 10
8.8735161285
 20
10.1746596691
 30
0.0
 10
8.8755844459
 20
10.1730737192
 30
0.0
 10
8.8772651006
 20
10.1719935248
 30
0.0
 10
8.8788712395
 20
10.1710945183
 30
0.0
 10
8.8804850744
 20
10.1703966904
 30
0.0
 10
8.8820797687
 20
10.1699469793
 30
0.0
 10
8.8831982788
 20
10.1697457136
 30
0.0
 10
8.8842649983
 20
10.1696724666
 30
0.0
 10
8.8852716424
 20
10.1697298939
 30
0.0
 10
8.8862086531
 20
10.1699206385
 30
0.0
 10
8.8867900651
 20
10.1701427344
 30
0.0
 10
8.8870614318
 20
10.1702764591
 30
0.0
  0
SPLINE
  5
404
100
AcDbEntity
  8
0
100
AcDbSpline
 62
7
  6
CONTINUOUS
 70
0
 71
3
 72
9
 73
5
 74
0
 42
0.0000001
 43
0.0000001
 44
0.0000000001
 40
0.0
 40
0.0
 40
0.0
 40
0.0
 40
0.5142238131
 40
1.0
 40
1.0
 40
1.0
 40
1.0
 10
8.8812698209
 20
10.1896074105
 30
0.0
 10
8.8824208921
 20
10.1882356173
 30
0.0
 10
8.8848139815
 20
10.1856939795
 30
0.0
 10
8.8874849813
 20
10.1834443821
 30
0.0
 10
8.8888479018
 20
10.1824422666
 30
0.0
  0
SPLINE
  5
405
100
AcDbEntity
  8
0
100
AcDbSpline
 62
7
  6
CONTINUOUS
 70
0
 71
3
 72
19
 73
15
 74
0
 42
0.0000001
 43
0.0000001
 44
0.0000000001
 40
0.0
 40
0.0
 40
0.0
 40
0.0
 40
0.0423900202
 40
0.0866875015
 40
0.1334976334
 40
0.1832377682
 40
0.236172129
 40
0.2924555131
 40
0.4151110624
 40
0.4813159956
 40
0.5502799463
 40
0.6948843401
 40
0.8458405377
 40
1.0
 40
1.0
 40
1.0
 40
1.0
 10
8.4904214392
 20
10.6429735952
 30
0.0
 10
8.4902426238
 20
10.6427295722
 30
0.0
 10
8.4899229409
 20
10.6421955598
 30
0.0
 10
8.4895723839
 20
10.6413059069
 30
0.0
 10
8.4893410271
 20
10.6403245281
 30
0.0
 10
8.4892279274
 20
10.6392612952
 30
0.0
 10
8.4892319082
 20
10.6381248284
 30
0.0
 10
8.4893978714
 20
10.6364762696
 30
0.0
 10
8.4898048583
 20
10.6347657759
 30
0.0
 10
8.4904113037
 20
10.633027927
 30
0.0
 10
8.4911832449
 20
10.6311852315
 30
0.0
 10
8.4923859412
 20
10.6288729391
 30
0.0
 10
8.4941253051
 20
10.6261711389
 30
0.0
 10
8.4954570856
 20
10.6244445171
 30
0.0
 10
8.4961642774
 20
10.6236017187
 30
0.0
  0
SPLINE
  5
406
100
AcDbEntity
  8
0
100
AcDbSpline
 62
7
  6
CONTINUOUS
 70
0
 71
3
 72
9
 73
5
 74
0
 42
0.0000001
 43
0.0000001
 44
0.0000000001
 40
0.0
 40
0.0
 40
0.0
 40
0.0
 40
0.5142238131
 40
1.0
 40
1.0
 40
1.0
 40
1.0
 10
8.8812698209
 20
10.1896074105
 30
0.0
 10
8.8801187498
 20
10.1909792036
 30
0.0
 10
8.8780312808
 20
10.1937772874
 30
0.0
 10
8.8762796741
 20
10.1967983473
 30
0.0
 10
8.8755294516
 20
10.1983145774
 30
0.0
  0
SPLINE
  5
407
100
AcDbEntity
  8
0
100
AcDbSpline
 62
7
  6
CONTINUOUS
 70
0
 71
3
 72
19
 73
15
 74
0
 42
0.0000001
 43
0.0000001
 44
0.0000000001
 40
0.0
 40
0.0
 40
0.0
 40
0.0
 40
0.0423900202
 40
0.0866875015
 40
0.1334976334
 40
0.1832377682
 40
0.236172129
 40
0.2924555131
 40
0.4151110624
 40
0.4813159956
 40
0.5502799463
 40
0.6948843401
 40
0.8458405377
 40
1.0
 40
1.0
 40
1.0
 40
1.0
 10
8.3040130324
 20
10.8651264837
 30
0.0
 10
8.3038342169
 20
10.8648824608
 30
0.0
 10
8.3035145341
 20
10.8643484483
 30
0.0
 10
8.3031639771
 20
10.8634587954
 30
0.0
 10
8.3029326203
 20
10.8624774166
 30
0.0
 10
8.3028195206
 20
10.8614141837
 30
0.0
 10
8.3028235014
 20
10.8602777169
 30
0.0
 10
8.3029894646
 20
10.8586291581
 30
0.0
 10
8.3033964515
 20
10.8569186644
 30
0.0
 10
8.3040028969
 20
10.8551808155
 30
0.0
 10
8.3047748381
 20
10.85333812
 30
0.0
 10
8.3059775344
 20
10.8510258276
 30
0.0
 10
8.3077168983
 20
10.8483240274
 30
0.0
 10
8.3090486787
 20
10.8465974056
 30
0.0
 10
8.3097558706
 20
10.8457546072
 30
0.0
  0
SPLINE
  5
408
100
AcDbEntity
  8
0
100
AcDbSpline
 62
7
  6
CONTINUOUS
 70
0
 71
3
 72
19
 73
15
 74
0
 42
0.0000001
 43
0.0000001
 44
0.0000000001
 40
0.0
 40
0.0
 40
0.0
 40
0.0
 40
0.0423900202
 40
0.0866875015
 40
0.1334976334
 40
0.1832377682
 40
0.236172129
 40
0.2924555131
 40
0.4151110624
 40
0.4813159956
 40
0.5502799463
 40
0.6948843401
 40
0.8458405377
 40
1.0
 40
1.0
 40
1.0
 40
1.0
 10
8.1176046256
 20
11.0872793722
 30
0.0
 10
8.1174258101
 20
11.0870353493
 30
0.0
 10
8.1171061273
 20
11.0865013368
 30
0.0
 10
8.1167555703
 20
11.0856116839
 30
0.0
 10
8.1165242135
 20
11.0846303051
 30
0.0
 10
8.1164111138
 20
11.0835670722
 30
0.0
 10
8.1164150945
 20
11.0824306054
 30
0.0
 10
8.1165810578
 20
11.0807820466
 30
0.0
 10
8.1169880447
 20
11.0790715529
 30
0.0
 10
8.1175944901
 20
11.077333704
 30
0.0
 10
8.1183664313
 20
11.0754910085
 30
0.0
 10
8.1195691276
 20
11.0731787161
 30
0.0
 10
8.1213084915
 20
11.0704769159
 30
0.0
 10
8.1226402719
 20
11.0687502941
 30
0.0
 10
8.1233474638
 20
11.0679074958
 30
0.0
  0
SPLINE
  5
409
100
AcDbEntity
  8
0
100
AcDbSpline
 62
7
  6
CONTINUOUS
 70
0
 71
3
 72
19
 73
15
 74
0
 42
0.0000001
 43
0.0000001
 44
0.0000000001
 40
0.0
 40
0.0
 40
0.0
 40
0.0
 40
0.1541594623
 40
0.3051156599
 40
0.4497200537
 40
0.5186840044
 40
0.5848889376
 40
0.7075444869
 40
0.763827871
 40
0.8167622318
 40
0.8665023666
 40
0.9133124985
 40
0.9576099798
 40
1.0
 40
1.0
 40
1.0
 40
1.0
 10
9.0553894978
 20
9.9571430532
 30
0.0
 10
9.0560966896
 20
9.9563002548
 30
0.0
 10
9.0575658189
 20
9.9546888824
 30
0.0
 10
9.0599245353
 20
9.9525067806
 30
0.0
 10
9.0619928527
 20
9.9509208307
 30
0.0
 10
9.0636735074
 20
9.9498406363
 30
0.0
 10
9.0652796463
 20
9.9489416298
 30
0.0
 10
9.0668934812
 20
9.9482438018
 30
0.0
 10
9.0684881755
 20
9.9477940907
 30
0.0
 10
9.0696066856
 20
9.9475928251
 30
0.0
 10
9.0706734051
 20
9.9475195781
 30
0.0
 10
9.0716800492
 20
9.9475770054
 30
0.0
 10
9.0726170599
 20
9.94776775
 30
0.0
 10
9.0731984719
 20
9.9479898459
 30
0.0
 10
9.0734698386
 20
9.9481235706
 30
0.0
  0
SPLINE
  5
40A
100
AcDbEntity
  8
0
100
AcDbSpline
 62
7
  6
CONTINUOUS
 70
0
 71
3
 72
9
 73
5
 74
0
 42
0.0000001
 43
0.0000001
 44
0.0000000001
 40
0.0
 40
0.0
 40
0.0
 40
0.0
 40
0.5142238131
 40
1.0
 40
1.0
 40
1.0
 40
1.0
 10
9.0676782278
 20
9.967454522
 30
0.0
 10
9.0688292989
 20
9.9660827288
 30
0.0
 10
9.0712223883
 20
9.963541091
 30
0.0
 10
9.0738933881
 20
9.9612914936
 30
0.0
 10
9.0752563086
 20
9.9602893781
 30
0.0
  0
SPLINE
  5
40B
100
AcDbEntity
  8
0
100
AcDbSpline
 62
7
  6
CONTINUOUS
 70
0
 71
3
 72
9
 73
5
 74
0
 42
0.0000001
 43
0.0000001
 44
0.0000000001
 40
0.0
 40
0.0
 40
0.0
 40
0.0
 40
0.5142238131
 40
1.0
 40
1.0
 40
1.0
 40
1.0
 10
9.0676782278
 20
9.967454522
 30
0.0
 10
9.0665271566
 20
9.9688263151
 30
0.0
 10
9.0644396876
 20
9.9716243989
 30
0.0
 10
9.0626880809
 20
9.9746454588
 30
0.0
 10
9.0619378584
 20
9.9761616889
 30
0.0
  0
SPLINE
  5
40C
100
AcDbEntity
  8
0
100
AcDbSpline
 62
7
  6
CONTINUOUS
 70
0
 71
3
 72
19
 73
15
 74
0
 42
0.0000001
 43
0.0000001
 44
0.0000000001
 40
0.0
 40
0.0
 40
0.0
 40
0.0
 40
0.1541594623
 40
0.3051156599
 40
0.4497200537
 40
0.5186840044
 40
0.5848889376
 40
0.7075444869
 40
0.763827871
 40
0.8167622318
 40
0.8665023666
 40
0.9133124985
 40
0.9576099798
 40
1.0
 40
1.0
 40
1.0
 40
1.0
 10
9.2417979046
 20
9.7349901647
 30
0.0
 10
9.2425050964
 20
9.7341473663
 30
0.0
 10
9.2439742257
 20
9.7325359939
 30
0.0
 10
9.2463329421
 20
9.7303538921
 30
0.0
 10
9.2484012595
 20
9.7287679422
 30
0.0
 10
9.2500819142
 20
9.7276877478
 30
0.0
 10
9.2516880531
 20
9.7267887413
 30
0.0
 10
9.253301888
 20
9.7260909133
 30
0.0
 10
9.2548965823
 20
9.7256412022
 30
0.0
 10
9.2560150924
 20
9.7254399366
 30
0.0
 10
9.257081812
 20
9.7253666896
 30
0.0
 10
9.258088456
 20
9.7254241169
 30
0.0
 10
9.2590254668
 20
9.7256148615
 30
0.0
 10
9.2596068787
 20
9.7258369574
 30
0.0
 10
9.2598782454
 20
9.7259706821
 30
0.0
  0
SPLINE
  5
40D
100
AcDbEntity
  8
0
100
AcDbSpline
 62
7
  6
CONTINUOUS
 70
0
 71
3
 72
9
 73
5
 74
0
 42
0.0000001
 43
0.0000001
 44
0.0000000001
 40
0.0
 40
0.0
 40
0.0
 40
0.0
 40
0.5142238131
 40
1.0
 40
1.0
 40
1.0
 40
1.0
 10
9.2540866346
 20
9.7453016335
 30
0.0
 10
9.2552377057
 20
9.7439298403
 30
0.0
 10
9.2576307951
 20
9.7413882025
 30
0.0
 10
9.2603017949
 20
9.7391386051
 30
0.0
 10
9.2616647154
 20
9.7381364896
 30
0.0
  0
SPLINE
  5
40E
100
AcDbEntity
  8
0
100
AcDbSpline
 62
9
  6
CONTINUOUS
 70
0
 71
3
 72
18
 73
14
 74
0
 42
0.0000001
 43
0.0000001
 44
0.0000000001
 40
0.0
 40
0.0
 40
0.0
 40
0.0
 40
0.0352683453
 40
0.0696454363
 40
0.1047153451
 40
0.1419682725
 40
0.1826444894
 40
0.2276806266
 40
0.3332329817
 40
0.4621353286
 40
0.6159072183
 40
0.7951722197
 40
1.0
 40
1.0
 40
1.0
 40
1.0
 10
9.9619080892
 20
8.8686926894
 30
0.0
 10
9.9619330887
 20
8.8687392551
 30
0.0
 10
9.9619915316
 20
8.8688267974
 30
0.0
 10
9.9621058125
 20
8.8689361401
 30
0.0
 10
9.9622437028
 20
8.8690194623
 30
0.0
 10
9.9624041095
 20
8.8690766863
 30
0.0
 10
9.9625863844
 20
8.8691083601
 30
0.0
 10
9.9628736028
 20
8.8691175117
 30
0.0
 10
9.9632909001
 20
8.8690574216
 30
0.0
 10
9.9638499047
 20
8.8688924969
 30
0.0
 10
9.9644918839
 20
8.8686311056
 30
0.0
 10
9.9652147794
 20
8.8682735125
 30
0.0
 10
9.9657160054
 20
8.8679899742
 30
0.0
 10
9.9659799881
 20
8.8678333519
 30
0.0
  0
SPLINE
  5
40F
100
AcDbEntity
  8
0
100
AcDbSpline
 62
7
  6
CONTINUOUS
 70
0
 71
3
 72
9
 73
5
 74
0
 42
0.0000001
 43
0.0000001
 44
0.0000000001
 40
0.0
 40
0.0
 40
0.0
 40
0.0
 40
0.5142238131
 40
1.0
 40
1.0
 40
1.0
 40
1.0
 10
9.2540866346
 20
9.7453016335
 30
0.0
 10
9.2529355634
 20
9.7466734266
 30
0.0
 10
9.2508480944
 20
9.7494715104
 30
0.0
 10
9.2490964877
 20
9.7524925703
 30
0.0
 10
9.2483462652
 20
9.7540088004
 30
0.0
  0
SPLINE
  5
410
100
AcDbEntity
  8
0
100
AcDbSpline
 62
9
  6
CONTINUOUS
 70
0
 71
3
 72
19
 73
15
 74
0
 42
0.0000001
 43
0.0000001
 44
0.0000000001
 40
0.0
 40
0.0
 40
0.0
 40
0.0
 40
0.0463214964
 40
0.0921786636
 40
0.1384766632
 40
0.1860191283
 40
0.2872164253
 40
0.3420283302
 40
0.4000569578
 40
0.4615564373
 40
0.5267262094
 40
0.6685510025
 40
0.8263843618
 40
1.0
 40
1.0
 40
1.0
 40
1.0
 10
9.9686444657
 20
8.881256717
 30
0.0
 10
9.9689405374
 20
8.8818089124
 30
0.0
 10
9.9696157631
 20
8.8828643413
 30
0.0
 10
9.9708666773
 20
8.8842683415
 30
0.0
 10
9.9723317384
 20
8.8854734053
 30
0.0
 10
9.9745976527
 20
8.8868395752
 30
0.0
 10
9.9772271439
 20
8.8877609262
 30
0.0
 10
9.9800802
 20
8.8882679986
 30
0.0
 10
9.9824356628
 20
8.8884478604
 30
0.0
 10
9.9849367729
 20
8.8884097506
 30
0.0
 10
9.9885540904
 20
8.888047555
 30
0.0
 10
9.9933888174
 20
8.8869580758
 30
0.0
 10
9.9993827706
 20
8.8846543989
 30
0.0
 10
10.0033139756
 20
8.882461022
 30
0.0
 10
10.005280769
 20
8.8811778084
 30
0.0
  0
SPLINE
  5
411
100
AcDbEntity
  8
0
100
AcDbSpline
 62
7
  6
CONTINUOUS
 70
0
 71
3
 72
19
 73
15
 74
0
 42
0.0000001
 43
0.0000001
 44
0.0000000001
 40
0.0
 40
0.0
 40
0.0
 40
0.0
 40
0.1541594623
 40
0.3051156599
 40
0.4497200537
 40
0.5186840044
 40
0.5848889376
 40
0.7075444869
 40
0.763827871
 40
0.8167622318
 40
0.8665023666
 40
0.9133124985
 40
0.9576099798
 40
1.0
 40
1.0
 40
1.0
 40
1.0
 10
9.4282063114
 20
9.5128372762
 30
0.0
 10
9.4289135032
 20
9.5119944778
 30
0.0
 10
9.4303826325
 20
9.5103831054
 30
0.0
 10
9.4327413489
 20
9.5082010036
 30
0.0
 10
9.4348096663
 20
9.5066150536
 30
0.0
 10
9.436490321
 20
9.5055348592
 30
0.0
 10
9.4380964599
 20
9.5046358528
 30
0.0
 10
9.4397102949
 20
9.5039380248
 30
0.0
 10
9.4413049891
 20
9.5034883137
 30
0.0
 10
9.4424234992
 20
9.5032870481
 30
0.0
 10
9.4434902188
 20
9.5032138011
 30
0.0
 10
9.4444968628
 20
9.5032712284
 30
0.0
 10
9.4454338736
 20
9.503461973
 30
0.0
 10
9.4460152855
 20
9.5036840689
 30
0.0
 10
9.4462866522
 20
9.5038177936
 30
0.0
  0
SPLINE
  5
412
100
AcDbEntity
  8
0
100
AcDbSpline
 62
7
  6
CONTINUOUS
 70
0
 71
3
 72
9
 73
5
 74
0
 42
0.0000001
 43
0.0000001
 44
0.0000000001
 40
0.0
 40
0.0
 40
0.0
 40
0.0
 40
0.5142238131
 40
1.0
 40
1.0
 40
1.0
 40
1.0
 10
9.4404950414
 20
9.523148745
 30
0.0
 10
9.4416461125
 20
9.5217769518
 30
0.0
 10
9.4440392019
 20
9.519235314
 30
0.0
 10
9.4467102017
 20
9.5169857166
 30
0.0
 10
9.4480731222
 20
9.5159836011
 30
0.0
  0
SPLINE
  5
413
100
AcDbEntity
  8
0
100
AcDbSpline
 62
7
  6
CONTINUOUS
 70
0
 71
3
 72
9
 73
5
 74
0
 42
0.0000001
 43
0.0000001
 44
0.0000000001
 40
0.0
 40
0.0
 40
0.0
 40
0.0
 40
0.5142238131
 40
1.0
 40
1.0
 40
1.0
 40
1.0
 10
9.4404950414
 20
9.523148745
 30
0.0
 10
9.4393439702
 20
9.5245205381
 30
0.0
 10
9.4372565012
 20
9.5273186219
 30
0.0
 10
9.4355048945
 20
9.5303396818
 30
0.0
 10
9.434754672
 20
9.5318559119
 30
0.0
  0
SPLINE
  5
414
100
AcDbEntity
  8
0
100
AcDbSpline
 62
7
  6
CONTINUOUS
 70
0
 71
3
 72
19
 73
15
 74
0
 42
0.0000001
 43
0.0000001
 44
0.0000000001
 40
0.0
 40
0.0
 40
0.0
 40
0.0
 40
0.1541594623
 40
0.3051156599
 40
0.4497200537
 40
0.5186840044
 40
0.5848889376
 40
0.7075444869
 40
0.763827871
 40
0.8167622318
 40
0.8665023666
 40
0.9133124985
 40
0.9576099798
 40
1.0
 40
1.0
 40
1.0
 40
1.0
 10
9.6146147182
 20
9.2906843877
 30
0.0
 10
9.6153219101
 20
9.2898415893
 30
0.0
 10
9.6167910393
 20
9.2882302169
 30
0.0
 10
9.6191497557
 20
9.2860481151
 30
0.0
 10
9.6212180732
 20
9.2844621651
 30
0.0
 10
9.6228987278
 20
9.2833819707
 30
0.0
 10
9.6245048667
 20
9.2824829643
 30
0.0
 10
9.6261187017
 20
9.2817851363
 30
0.0
 10
9.627713396
 20
9.2813354252
 30
0.0
 10
9.628831906
 20
9.2811341596
 30
0.0
 10
9.6298986256
 20
9.2810609126
 30
0.0
 10
9.6309052697
 20
9.2811183399
 30
0.0
 10
9.6318422804
 20
9.2813090845
 30
0.0
 10
9.6324236923
 20
9.2815311804
 30
0.0
 10
9.632695059
 20
9.2816649051
 30
0.0
  0
SPLINE
  5
415
100
AcDbEntity
  8
0
100
AcDbSpline
 62
7
  6
CONTINUOUS
 70
0
 71
3
 72
9
 73
5
 74
0
 42
0.0000001
 43
0.0000001
 44
0.0000000001
 40
0.0
 40
0.0
 40
0.0
 40
0.0
 40
0.5142238131
 40
1.0
 40
1.0
 40
1.0
 40
1.0
 10
9.6269034482
 20
9.3009958565
 30
0.0
 10
9.6280545193
 20
9.2996240633
 30
0.0
 10
9.6304476087
 20
9.2970824255
 30
0.0
 10
9.6331186086
 20
9.2948328281
 30
0.0
 10
9.634481529
 20
9.2938307126
 30
0.0
  0
SPLINE
  5
416
100
AcDbEntity
  8
0
100
AcDbSpline
 62
7
  6
CONTINUOUS
 70
0
 71
3
 72
9
 73
5
 74
0
 42
0.0000001
 43
0.0000001
 44
0.0000000001
 40
0.0
 40
0.0
 40
0.0
 40
0.0
 40
0.5142238131
 40
1.0
 40
1.0
 40
1.0
 40
1.0
 10
9.6269034482
 20
9.3009958565
 30
0.0
 10
9.6257523771
 20
9.3023676496
 30
0.0
 10
9.623664908
 20
9.3051657334
 30
0.0
 10
9.6219133013
 20
9.3081867933
 30
0.0
 10
9.6211630788
 20
9.3097030234
 30
0.0
  0
SPLINE
  5
417
100
AcDbEntity
  8
0
100
AcDbSpline
 62
7
  6
CONTINUOUS
 70
0
 71
3
 72
19
 73
15
 74
0
 42
0.0000001
 43
0.0000001
 44
0.0000000001
 40
0.0
 40
0.0
 40
0.0
 40
0.0
 40
0.1541594623
 40
0.3051156599
 40
0.4497200537
 40
0.5186840044
 40
0.5848889376
 40
0.7075444869
 40
0.763827871
 40
0.8167622318
 40
0.8665023666
 40
0.9133124985
 40
0.9576099798
 40
1.0
 40
1.0
 40
1.0
 40
1.0
 10
9.801023125
 20
9.0685314992
 30
0.0
 10
9.8017303169
 20
9.0676887008
 30
0.0
 10
9.8031994461
 20
9.0660773284
 30
0.0
 10
9.8055581625
 20
9.0638952266
 30
0.0
 10
9.80762648
 20
9.0623092766
 30
0.0
 10
9.8093071346
 20
9.0612290822
 30
0.0
 10
9.8109132735
 20
9.0603300758
 30
0.0
 10
9.8125271085
 20
9.0596322478
 30
0.0
 10
9.8141218028
 20
9.0591825367
 30
0.0
 10
9.8152403128
 20
9.0589812711
 30
0.0
 10
9.8163070324
 20
9.0589080241
 30
0.0
 10
9.8173136765
 20
9.0589654514
 30
0.0
 10
9.8182506872
 20
9.059156196
 30
0.0
 10
9.8188320991
 20
9.0593782919
 30
0.0
 10
9.8191034658
 20
9.0595120166
 30
0.0
  0
SPLINE
  5
418
100
AcDbEntity
  8
0
100
AcDbSpline
 62
7
  6
CONTINUOUS
 70
0
 71
3
 72
9
 73
5
 74
0
 42
0.0000001
 43
0.0000001
 44
0.0000000001
 40
0.0
 40
0.0
 40
0.0
 40
0.0
 40
0.5142238131
 40
1.0
 40
1.0
 40
1.0
 40
1.0
 10
9.813311855
 20
9.078842968
 30
0.0
 10
9.8144629261
 20
9.0774711748
 30
0.0
 10
9.8168560155
 20
9.074929537
 30
0.0
 10
9.8195270154
 20
9.0726799396
 30
0.0
 10
9.8208899358
 20
9.0716778241
 30
0.0
  0
SPLINE
  5
419
100
AcDbEntity
  8
0
100
AcDbSpline
 62
9
  6
CONTINUOUS
 70
0
 71
3
 72
18
 73
14
 74
0
 42
0.0000001
 43
0.0000001
 44
0.0000000001
 40
0.0
 40
0.0
 40
0.0
 40
0.0
 40
0.0352683453
 40
0.0696454363
 40
0.1047153451
 40
0.1419682725
 40
0.1826444894
 40
0.2276806266
 40
0.3332329817
 40
0.4621353286
 40
0.6159072183
 40
0.7951722197
 40
1.0
 40
1.0
 40
1.0
 40
1.0
 10
9.7754996824
 20
9.0908455779
 30
0.0
 10
9.7755246818
 20
9.0908921436
 30
0.0
 10
9.7755831248
 20
9.0909796859
 30
0.0
 10
9.7756974057
 20
9.0910890286
 30
0.0
 10
9.775835296
 20
9.0911723508
 30
0.0
 10
9.7759957027
 20
9.0912295748
 30
0.0
 10
9.7761779776
 20
9.0912612486
 30
0.0
 10
9.7764651959
 20
9.0912704002
 30
0.0
 10
9.7768824932
 20
9.0912103101
 30
0.0
 10
9.7774414979
 20
9.0910453854
 30
0.0
 10
9.7780834771
 20
9.0907839941
 30
0.0
 10
9.7788063726
 20
9.090426401
 30
0.0
 10
9.7793075986
 20
9.0901428627
 30
0.0
 10
9.7795715812
 20
9.0899862404
 30
0.0
  0
SPLINE
  5
41A
100
AcDbEntity
  8
0
100
AcDbSpline
 62
9
  6
CONTINUOUS
 70
0
 71
3
 72
19
 73
15
 74
0
 42
0.0000001
 43
0.0000001
 44
0.0000000001
 40
0.0
 40
0.0
 40
0.0
 40
0.0
 40
0.0463215015
 40
0.0921786737
 40
0.1384766779
 40
0.1860191467
 40
0.2872164488
 40
0.3420283548
 40
0.4000569826
 40
0.4615564614
 40
0.526726232
 40
0.6685510195
 40
0.8263843709
 40
1.0
 40
1.0
 40
1.0
 40
1.0
 10
9.7822360589
 20
9.1034096055
 30
0.0
 10
9.7825321305
 20
9.1039618007
 30
0.0
 10
9.783207356
 20
9.1050172295
 30
0.0
 10
9.7844582699
 20
9.1064212294
 30
0.0
 10
9.7859233305
 20
9.107626293
 30
0.0
 10
9.7881892439
 20
9.1089924628
 30
0.0
 10
9.7908187342
 20
9.1099138139
 30
0.0
 10
9.7936717893
 20
9.1104208866
 30
0.0
 10
9.7960272512
 20
9.1106007487
 30
0.0
 10
9.7985283604
 20
9.1105626394
 30
0.0
 10
9.8021456766
 20
9.1102004446
 30
0.0
 10
9.806980402
 20
9.1091109669
 30
0.0
 10
9.8129743531
 20
9.1068072919
 30
0.0
 10
9.8169055576
 20
9.1046139177
 30
0.0
 10
9.8188723501
 20
9.1033307046
 30
0.0
  0
SPLINE
  5
41B
100
AcDbEntity
  8
0
100
AcDbSpline
 62
7
  6
CONTINUOUS
 70
0
 71
3
 72
9
 73
5
 74
0
 42
0.0000001
 43
0.0000001
 44
0.0000000001
 40
0.0
 40
0.0
 40
0.0
 40
0.0
 40
0.5142238131
 40
1.0
 40
1.0
 40
1.0
 40
1.0
 10
9.813311855
 20
9.078842968
 30
0.0
 10
9.8121607839
 20
9.0802147611
 30
0.0
 10
9.8100733148
 20
9.0830128449
 30
0.0
 10
9.8083217081
 20
9.0860339048
 30
0.0
 10
9.8075714856
 20
9.0875501349
 30
0.0
  0
SPLINE
  5
41C
100
AcDbEntity
  8
0
100
AcDbSpline
 62
7
  6
CONTINUOUS
 70
0
 71
3
 72
19
 73
15
 74
0
 42
0.0000001
 43
0.0000001
 44
0.0000000001
 40
0.0
 40
0.0
 40
0.0
 40
0.0
 40
0.1541594623
 40
0.3051156599
 40
0.4497200537
 40
0.5186840044
 40
0.5848889376
 40
0.7075444869
 40
0.763827871
 40
0.8167622318
 40
0.8665023666
 40
0.9133124985
 40
0.9576099798
 40
1.0
 40
1.0
 40
1.0
 40
1.0
 10
9.9874315319
 20
8.8463786107
 30
0.0
 10
9.9881387237
 20
8.8455358123
 30
0.0
 10
9.9896078529
 20
8.8439244399
 30
0.0
 10
9.9919665693
 20
8.8417423381
 30
0.0
 10
9.9940348868
 20
8.8401563881
 30
0.0
 10
9.9957155414
 20
8.8390761937
 30
0.0
 10
9.9973216803
 20
8.8381771873
 30
0.0
 10
9.9989355153
 20
8.8374793593
 30
0.0
 10
10.0005302096
 20
8.8370296482
 30
0.0
 10
10.0016487196
 20
8.8368283826
 30
0.0
 10
10.0027154392
 20
8.8367551355
 30
0.0
 10
10.0037220833
 20
8.8368125629
 30
0.0
 10
10.004659094
 20
8.8370033075
 30
0.0
 10
10.0052405059
 20
8.8372254034
 30
0.0
 10
10.0055118726
 20
8.8373591281
 30
0.0
  0
SPLINE
  5
41D
100
AcDbEntity
  8
0
100
AcDbSpline
 62
7
  6
CONTINUOUS
 70
0
 71
3
 72
9
 73
5
 74
0
 42
0.0000001
 43
0.0000001
 44
0.0000000001
 40
0.0
 40
0.0
 40
0.0
 40
0.0
 40
0.5142238131
 40
1.0
 40
1.0
 40
1.0
 40
1.0
 10
9.9997202618
 20
8.8566900795
 30
0.0
 10
10.0008713329
 20
8.8553182863
 30
0.0
 10
10.0032644223
 20
8.8527766485
 30
0.0
 10
10.0059354222
 20
8.8505270511
 30
0.0
 10
10.0072983426
 20
8.8495249356
 30
0.0
  0
SPLINE
  5
41E
100
AcDbEntity
  8
0
100
AcDbSpline
 62
7
  6
CONTINUOUS
 70
0
 71
3
 72
9
 73
5
 74
0
 42
0.0000001
 43
0.0000001
 44
0.0000000001
 40
0.0
 40
0.0
 40
0.0
 40
0.0
 40
0.5142238131
 40
1.0
 40
1.0
 40
1.0
 40
1.0
 10
9.9997202618
 20
8.8566900795
 30
0.0
 10
9.9985691907
 20
8.8580618726
 30
0.0
 10
9.9964817216
 20
8.8608599564
 30
0.0
 10
9.9947301149
 20
8.8638810162
 30
0.0
 10
9.9939798924
 20
8.8653972464
 30
0.0
  0
SPLINE
  5
41F
100
AcDbEntity
  8
0
100
AcDbSpline
 62
7
  6
CONTINUOUS
 70
0
 71
3
 72
23
 73
19
 74
0
 42
0.0000001
 43
0.0000001
 44
0.0000000001
 40
0.0
 40
0.0
 40
0.0
 40
0.0
 40
0.1904276749
 40
0.3705665337
 40
0.4552185358
 40
0.5354148918
 40
0.6104482876
 40
0.6796780496
 40
0.7427128443
 40
0.7992790911
 40
0.8492045985
 40
0.8923382843
 40
0.9286002663
 40
0.9580854914
 40
0.9704412476
 40
0.9813603194
 40
0.9910833725
 40
1.0
 40
1.0
 40
1.0
 40
1.0
 10
8.1158773778
 20
11.0581602406
 30
0.0
 10
8.1165536519
 20
11.0573886155
 30
0.0
 10
8.1178883092
 20
11.0559032827
 30
0.0
 10
8.1195763008
 20
11.0541232348
 30
0.0
 10
8.120888518
 20
11.0528065717
 30
0.0
 10
8.1218179249
 20
11.0519082492
 30
0.0
 10
8.1227059127
 20
11.0510870186
 30
0.0
 10
8.1235460834
 20
11.0503508044
 30
0.0
 10
8.1243323621
 20
11.0497047809
 30
0.0
 10
8.1250602976
 20
11.049152532
 30
0.0
 10
8.1257256998
 20
11.0486967148
 30
0.0
 10
8.1263249139
 20
11.0483396874
 30
0.0
 10
8.1268538898
 20
11.0480843177
 30
0.0
 10
8.1272552795
 20
11.0479502005
 30
0.0
 10
8.1275367431
 20
11.0479056837
 30
0.0
 10
8.1277152864
 20
11.0479028237
 30
0.0
 10
8.1278733961
 20
11.0479295791
 30
0.0
 10
8.1279669015
 20
11.0479696023
 30
0.0
 10
8.128008084
 20
11.0479943443
 30
0.0
  0
SPLINE
  5
420
100
AcDbEntity
  8
0
100
AcDbSpline
 62
9
  6
CONTINUOUS
 70
0
 71
3
 72
18
 73
14
 74
0
 42
0.0000001
 43
0.0000001
 44
0.0000000001
 40
0.0
 40
0.0
 40
0.0
 40
0.0
 40
0.2048445602
 40
0.3841215915
 40
0.537902138
 40
0.6668090644
 40
0.7723508365
 40
0.8173760976
 40
0.8580411949
 40
0.8952877619
 40
0.9303567543
 40
0.9647345642
 40
1.0
 40
1.0
 40
1.0
 40
1.0
 10
8.1407501788
 20
11.0430590541
 30
0.0
 10
8.1408587166
 20
11.042771673
 30
0.0
 10
8.1410511893
 20
11.042228441
 30
0.0
 10
8.1412781865
 20
11.0414538749
 30
0.0
 10
8.1414242501
 20
11.040775731
 30
0.0
 10
8.1414896216
 20
11.0401961628
 30
0.0
 10
8.1414764767
 20
11.0397744962
 30
0.0
 10
8.1414176767
 20
11.0394930506
 30
0.0
 10
8.1413548527
 20
11.0393189393
 30
0.0
 10
8.1412705967
 20
11.0391708211
 30
0.0
 10
8.141164507
 20
11.0390494302
 30
0.0
 10
8.1410368757
 20
11.0389558317
 30
0.0
 10
8.1409404406
 20
11.0389134667
 30
0.0
 10
8.1408902055
 20
11.038896934
 30
0.0
  0
SPLINE
  5
421
100
AcDbEntity
  8
0
100
AcDbSpline
 62
9
  6
CONTINUOUS
 70
0
 71
3
 72
18
 73
14
 74
0
 42
0.0000001
 43
0.0000001
 44
0.0000000001
 40
0.0
 40
0.0
 40
0.0
 40
0.0
 40
0.0352683453
 40
0.0696454363
 40
0.1047153451
 40
0.1419682725
 40
0.1826444894
 40
0.2276806266
 40
0.3332329817
 40
0.4621353286
 40
0.6159072183
 40
0.7951722197
 40
1.0
 40
1.0
 40
1.0
 40
1.0
 10
9.5890912756
 20
9.3129984664
 30
0.0
 10
9.589116275
 20
9.3130450321
 30
0.0
 10
9.589174718
 20
9.3131325744
 30
0.0
 10
9.5892889989
 20
9.3132419171
 30
0.0
 10
9.5894268892
 20
9.3133252393
 30
0.0
 10
9.5895872959
 20
9.3133824633
 30
0.0
 10
9.5897695708
 20
9.3134141371
 30
0.0
 10
9.5900567891
 20
9.3134232887
 30
0.0
 10
9.5904740864
 20
9.3133631986
 30
0.0
 10
9.591033091
 20
9.3131982739
 30
0.0
 10
9.5916750703
 20
9.3129368826
 30
0.0
 10
9.5923979658
 20
9.3125792895
 30
0.0
 10
9.5928991918
 20
9.3122957512
 30
0.0
 10
9.5931631744
 20
9.3121391289
 30
0.0
  0
SPLINE
  5
422
100
AcDbEntity
  8
0
100
AcDbSpline
 62
9
  6
CONTINUOUS
 70
0
 71
3
 72
19
 73
15
 74
0
 42
0.0000001
 43
0.0000001
 44
0.0000000001
 40
0.0
 40
0.0
 40
0.0
 40
0.0
 40
0.1736155984
 40
0.3314488577
 40
0.4732735633
 40
0.5384433466
 40
0.5999427365
 40
0.657971286
 40
0.7127832217
 40
0.8139806243
 40
0.8615232562
 40
0.9078216764
 40
0.9536790675
 40
1.0
 40
1.0
 40
1.0
 40
1.0
 10
8.1607174705
 20
11.0794427467
 30
0.0
 10
8.1616396555
 20
11.0772830045
 30
0.0
 10
8.1631170752
 20
11.0730306524
 30
0.0
 10
8.1643448924
 20
11.0667277309
 30
0.0
 10
8.1645782995
 20
11.0617772699
 30
0.0
 10
8.164306826
 20
11.0581520171
 30
0.0
 10
8.163910065
 20
11.055682286
 30
0.0
 10
8.1633239227
 20
11.0533938394
 30
0.0
 10
8.1623291186
 20
11.0506721813
 30
0.0
 10
8.1609651569
 20
11.0482426252
 30
0.0
 10
8.1592262603
 20
11.0462483636
 30
0.0
 10
8.1577850848
 20
11.0450148166
 30
0.0
 10
8.1561851955
 20
11.0440267078
 30
0.0
 10
8.155028556
 20
11.0435450089
 30
0.0
 10
8.1544333448
 20
11.0433493245
 30
0.0
  0
SPLINE
  5
423
100
AcDbEntity
  8
0
100
AcDbSpline
 62
7
  6
CONTINUOUS
 70
0
 71
3
 72
23
 73
19
 74
0
 42
0.0000001
 43
0.0000001
 44
0.0000000001
 40
0.0
 40
0.0
 40
0.0
 40
0.0
 40
0.1904276749
 40
0.3705665337
 40
0.4552185358
 40
0.5354148918
 40
0.6104482876
 40
0.6796780496
 40
0.7427128443
 40
0.7992790911
 40
0.8492045985
 40
0.8923382843
 40
0.9286002663
 40
0.9580854914
 40
0.9704412476
 40
0.9813603194
 40
0.9910833725
 40
1.0
 40
1.0
 40
1.0
 40
1.0
 10
8.3022857846
 20
10.8360073521
 30
0.0
 10
8.3029620587
 20
10.835235727
 30
0.0
 10
8.304296716
 20
10.8337503942
 30
0.0
 10
8.3059847076
 20
10.8319703463
 30
0.0
 10
8.3072969248
 20
10.8306536832
 30
0.0
 10
8.3082263318
 20
10.8297553607
 30
0.0
 10
8.3091143195
 20
10.8289341301
 30
0.0
 10
8.3099544902
 20
10.8281979159
 30
0.0
 10
8.3107407689
 20
10.8275518924
 30
0.0
 10
8.3114687044
 20
10.8269996435
 30
0.0
 10
8.3121341067
 20
10.8265438263
 30
0.0
 10
8.3127333207
 20
10.8261867989
 30
0.0
 10
8.3132622966
 20
10.8259314292
 30
0.0
 10
8.3136636863
 20
10.825797312
 30
0.0
 10
8.3139451499
 20
10.8257527952
 30
0.0
 10
8.3141236932
 20
10.8257499352
 30
0.0
 10
8.3142818029
 20
10.8257766906
 30
0.0
 10
8.3143753083
 20
10.8258167138
 30
0.0
 10
8.3144164908
 20
10.8258414558
 30
0.0
  0
SPLINE
  5
424
100
AcDbEntity
  8
0
100
AcDbSpline
 62
9
  6
CONTINUOUS
 70
0
 71
3
 72
19
 73
15
 74
0
 42
0.0000001
 43
0.0000001
 44
0.0000000001
 40
0.0
 40
0.0
 40
0.0
 40
0.0
 40
0.0463214999
 40
0.0921786705
 40
0.1384766732
 40
0.1860191409
 40
0.2872164413
 40
0.342028347
 40
0.4000569747
 40
0.4615564537
 40
0.5267262248
 40
0.6685510141
 40
0.826384368
 40
1.0
 40
1.0
 40
1.0
 40
1.0
 10
9.5958276521
 20
9.325562494
 30
0.0
 10
9.5961237237
 20
9.3261146893
 30
0.0
 10
9.5967989493
 20
9.3271701181
 30
0.0
 10
9.5980498633
 20
9.3285741181
 30
0.0
 10
9.599514924
 20
9.3297791818
 30
0.0
 10
9.6017808377
 20
9.3311453516
 30
0.0
 10
9.6044103283
 20
9.3320667027
 30
0.0
 10
9.6072633838
 20
9.3325737753
 30
0.0
 10
9.6096188459
 20
9.3327536373
 30
0.0
 10
9.6121199554
 20
9.3327155278
 30
0.0
 10
9.615737272
 20
9.3323533328
 30
0.0
 10
9.6205719979
 20
9.3312638545
 30
0.0
 10
9.6265659497
 20
9.328960179
 30
0.0
 10
9.6304971544
 20
9.326766804
 30
0.0
 10
9.6324639471
 20
9.3254835906
 30
0.0
  0
SPLINE
  5
425
100
AcDbEntity
  8
0
100
AcDbSpline
 62
7
  6
CONTINUOUS
 70
0
 71
3
 72
23
 73
19
 74
0
 42
0.0000001
 43
0.0000001
 44
0.0000000001
 40
0.0
 40
0.0
 40
0.0
 40
0.0
 40
0.1904276749
 40
0.3705665337
 40
0.4552185358
 40
0.5354148918
 40
0.6104482876
 40
0.6796780496
 40
0.7427128443
 40
0.7992790911
 40
0.8492045985
 40
0.8923382843
 40
0.9286002663
 40
0.9580854914
 40
0.9704412476
 40
0.9813603194
 40
0.9910833725
 40
1.0
 40
1.0
 40
1.0
 40
1.0
 10
8.4886941914
 20
10.6138544636
 30
0.0
 10
8.4893704655
 20
10.6130828385
 30
0.0
 10
8.4907051228
 20
10.6115975057
 30
0.0
 10
8.4923931144
 20
10.6098174578
 30
0.0
 10
8.4937053316
 20
10.6085007947
 30
0.0
 10
8.4946347386
 20
10.6076024722
 30
0.0
 10
8.4955227264
 20
10.6067812416
 30
0.0
 10
8.496362897
 20
10.6060450274
 30
0.0
 10
8.4971491757
 20
10.6053990039
 30
0.0
 10
8.4978771112
 20
10.604846755
 30
0.0
 10
8.4985425135
 20
10.6043909378
 30
0.0
 10
8.4991417275
 20
10.6040339104
 30
0.0
 10
8.4996707034
 20
10.6037785407
 30
0.0
 10
8.5000720932
 20
10.6036444235
 30
0.0
 10
8.5003535567
 20
10.6035999067
 30
0.0
 10
8.5005321
 20
10.6035970467
 30
0.0
 10
8.5006902097
 20
10.6036238021
 30
0.0
 10
8.5007837151
 20
10.6036638253
 30
0.0
 10
8.5008248976
 20
10.6036885673
 30
0.0
  0
SPLINE
  5
426
100
AcDbEntity
  8
0
100
AcDbSpline
 62
7
  6
CONTINUOUS
 70
0
 71
3
 72
23
 73
19
 74
0
 42
0.0000001
 43
0.0000001
 44
0.0000000001
 40
0.0
 40
0.0
 40
0.0
 40
0.0
 40
0.1904276749
 40
0.3705665337
 40
0.4552185358
 40
0.5354148918
 40
0.6104482876
 40
0.6796780496
 40
0.7427128443
 40
0.7992790911
 40
0.8492045985
 40
0.8923382843
 40
0.9286002663
 40
0.9580854914
 40
0.9704412476
 40
0.9813603194
 40
0.9910833725
 40
1.0
 40
1.0
 40
1.0
 40
1.0
 10
8.6751025982
 20
10.391701575
 30
0.0
 10
8.6757788723
 20
10.39092995
 30
0.0
 10
8.6771135296
 20
10.3894446172
 30
0.0
 10
8.6788015212
 20
10.3876645693
 30
0.0
 10
8.6801137384
 20
10.3863479062
 30
0.0
 10
8.6810431454
 20
10.3854495837
 30
0.0
 10
8.6819311332
 20
10.3846283531
 30
0.0
 10
8.6827713038
 20
10.3838921389
 30
0.0
 10
8.6835575826
 20
10.3832461154
 30
0.0
 10
8.684285518
 20
10.3826938665
 30
0.0
 10
8.6849509203
 20
10.3822380493
 30
0.0
 10
8.6855501343
 20
10.3818810219
 30
0.0
 10
8.6860791102
 20
10.3816256522
 30
0.0
 10
8.6864805
 20
10.381491535
 30
0.0
 10
8.6867619635
 20
10.3814470182
 30
0.0
 10
8.6869405068
 20
10.3814441582
 30
0.0
 10
8.6870986165
 20
10.3814709136
 30
0.0
 10
8.6871921219
 20
10.3815109368
 30
0.0
 10
8.6872333044
 20
10.3815356788
 30
0.0
  0
SPLINE
  5
427
100
AcDbEntity
  8
0
100
AcDbSpline
 62
7
  6
CONTINUOUS
 70
0
 71
3
 72
15
 73
11
 74
0
 42
0.0000001
 43
0.0000001
 44
0.0000000001
 40
0.0
 40
0.0
 40
0.0
 40
0.0
 40
0.2540157816
 40
0.3804895978
 40
0.5063289163
 40
0.631352311
 40
0.7553801313
 40
0.8169824492
 40
0.8783011078
 40
1.0
 40
1.0
 40
1.0
 40
1.0
 10
8.1515511639
 20
11.0915732102
 30
0.0
 10
8.1507234661
 20
11.0925596286
 30
0.0
 10
8.1494521185
 20
11.094011047
 30
0.0
 10
8.1477067778
 20
11.0958931133
 30
0.0
 10
8.1463843522
 20
11.0972752631
 30
0.0
 10
8.1450555172
 20
11.0986338867
 30
0.0
 10
8.1439499691
 20
11.0997553526
 30
0.0
 10
8.1430770518
 20
11.1006526988
 30
0.0
 10
8.142219355
 20
11.101548156
 30
0.0
 10
8.1415934103
 20
11.1022338902
 30
0.0
 10
8.1411968708
 20
11.1027064917
 30
0.0
  0
SPLINE
  5
428
100
AcDbEntity
  8
0
100
AcDbSpline
 62
7
  6
CONTINUOUS
 70
0
 71
3
 72
15
 73
11
 74
0
 42
0.0000001
 43
0.0000001
 44
0.0000000001
 40
0.0
 40
0.0
 40
0.0
 40
0.0
 40
0.1216988822
 40
0.1830175012
 40
0.2446197923
 40
0.3686476112
 40
0.4936709987
 40
0.6195103199
 40
0.7459841612
 40
1.0
 40
1.0
 40
1.0
 40
1.0
 10
8.1607173255
 20
11.0794429203
 30
0.0
 10
8.1603207668
 20
11.0799155076
 30
0.0
 10
8.1597541381
 20
11.0806510161
 30
0.0
 10
8.159021212
 20
11.0816511727
 30
0.0
 10
8.1582890806
 20
11.0826666555
 30
0.0
 10
8.1573766336
 20
11.0839501562
 30
0.0
 10
8.1562693963
 20
11.0854947284
 30
0.0
 10
8.1551378758
 20
11.087037073
 30
0.0
 10
8.1535874714
 20
11.0890827191
 30
0.0
 10
8.1523788647
 20
11.0905867898
 30
0.0
 10
8.1515511647
 20
11.0915732108
 30
0.0
  0
SPLINE
  5
429
100
AcDbEntity
  8
0
100
AcDbSpline
 62
7
  6
CONTINUOUS
 70
0
 71
3
 72
23
 73
19
 74
0
 42
0.0000001
 43
0.0000001
 44
0.0000000001
 40
0.0
 40
0.0
 40
0.0
 40
0.0
 40
0.1904276749
 40
0.3705665337
 40
0.4552185358
 40
0.5354148918
 40
0.6104482876
 40
0.6796780496
 40
0.7427128443
 40
0.7992790911
 40
0.8492045985
 40
0.8923382843
 40
0.9286002663
 40
0.9580854914
 40
0.9704412476
 40
0.9813603194
 40
0.9910833725
 40
1.0
 40
1.0
 40
1.0
 40
1.0
 10
8.861511005
 20
10.1695486865
 30
0.0
 10
8.8621872792
 20
10.1687770615
 30
0.0
 10
8.8635219364
 20
10.1672917287
 30
0.0
 10
8.8652099281
 20
10.1655116808
 30
0.0
 10
8.8665221452
 20
10.1641950177
 30
0.0
 10
8.8674515522
 20
10.1632966952
 30
0.0
 10
8.86833954
 20
10.1624754646
 30
0.0
 10
8.8691797106
 20
10.1617392504
 30
0.0
 10
8.8699659894
 20
10.1610932269
 30
0.0
 10
8.8706939248
 20
10.160540978
 30
0.0
 10
8.8713593271
 20
10.1600851608
 30
0.0
 10
8.8719585411
 20
10.1597281334
 30
0.0
 10
8.872487517
 20
10.1594727637
 30
0.0
 10
8.8728889068
 20
10.1593386465
 30
0.0
 10
8.8731703703
 20
10.1592941297
 30
0.0
 10
8.8733489136
 20
10.1592912697
 30
0.0
 10
8.8735070233
 20
10.1593180251
 30
0.0
 10
8.8736005287
 20
10.1593580483
 30
0.0
 10
8.8736417112
 20
10.1593827903
 30
0.0
  0
SPLINE
  5
42A
100
AcDbEntity
  8
0
100
AcDbSpline
 62
9
  6
CONTINUOUS
 70
0
 71
3
 72
18
 73
14
 74
0
 42
0.0000001
 43
0.0000001
 44
0.0000000001
 40
0.0
 40
0.0
 40
0.0
 40
0.0
 40
0.0352683453
 40
0.0696454363
 40
0.1047153451
 40
0.1419682725
 40
0.1826444894
 40
0.2276806266
 40
0.3332329817
 40
0.4621353285
 40
0.6159072183
 40
0.7951722197
 40
1.0
 40
1.0
 40
1.0
 40
1.0
 10
9.4026828688
 20
9.5351513549
 30
0.0
 10
9.4027078682
 20
9.5351979206
 30
0.0
 10
9.4027663112
 20
9.5352854629
 30
0.0
 10
9.4028805921
 20
9.5353948056
 30
0.0
 10
9.4030184823
 20
9.5354781278
 30
0.0
 10
9.4031788891
 20
9.5355353518
 30
0.0
 10
9.403361164
 20
9.5355670256
 30
0.0
 10
9.4036483823
 20
9.5355761772
 30
0.0
 10
9.4040656796
 20
9.5355160871
 30
0.0
 10
9.4046246842
 20
9.5353511624
 30
0.0
 10
9.4052666635
 20
9.5350897711
 30
0.0
 10
9.405989559
 20
9.534732178
 30
0.0
 10
9.406490785
 20
9.5344486397
 30
0.0
 10
9.4067547676
 20
9.5342920174
 30
0.0
  0
SPLINE
  5
42B
100
AcDbEntity
  8
0
100
AcDbSpline
 62
7
  6
CONTINUOUS
 70
0
 71
3
 72
23
 73
19
 74
0
 42
0.0000001
 43
0.0000001
 44
0.0000000001
 40
0.0
 40
0.0
 40
0.0
 40
0.0
 40
0.1904276749
 40
0.3705665337
 40
0.4552185358
 40
0.5354148918
 40
0.6104482876
 40
0.6796780496
 40
0.7427128443
 40
0.7992790911
 40
0.8492045985
 40
0.8923382843
 40
0.9286002663
 40
0.9580854914
 40
0.9704412476
 40
0.9813603194
 40
0.9910833725
 40
1.0
 40
1.0
 40
1.0
 40
1.0
 10
9.0479194119
 20
9.947395798
 30
0.0
 10
9.048595686
 20
9.946624173
 30
0.0
 10
9.0499303432
 20
9.9451388402
 30
0.0
 10
9.0516183349
 20
9.9433587923
 30
0.0
 10
9.052930552
 20
9.9420421292
 30
0.0
 10
9.053859959
 20
9.9411438067
 30
0.0
 10
9.0547479468
 20
9.9403225761
 30
0.0
 10
9.0555881174
 20
9.9395863619
 30
0.0
 10
9.0563743962
 20
9.9389403384
 30
0.0
 10
9.0571023316
 20
9.9383880895
 30
0.0
 10
9.0577677339
 20
9.9379322723
 30
0.0
 10
9.0583669479
 20
9.9375752449
 30
0.0
 10
9.0588959238
 20
9.9373198752
 30
0.0
 10
9.0592973136
 20
9.937185758
 30
0.0
 10
9.0595787772
 20
9.9371412412
 30
0.0
 10
9.0597573204
 20
9.9371383812
 30
0.0
 10
9.0599154301
 20
9.9371651366
 30
0.0
 10
9.0600089355
 20
9.9372051598
 30
0.0
 10
9.060050118
 20
9.9372299018
 30
0.0
  0
SPLINE
  5
42C
100
AcDbEntity
  8
0
100
AcDbSpline
 62
9
  6
CONTINUOUS
 70
0
 71
3
 72
18
 73
14
 74
0
 42
0.0000001
 43
0.0000001
 44
0.0000000001
 40
0.0
 40
0.0
 40
0.0
 40
0.0
 40
0.2048445602
 40
0.3841215915
 40
0.537902138
 40
0.6668090644
 40
0.7723508365
 40
0.8173760976
 40
0.8580411949
 40
0.8952877619
 40
0.9303567543
 40
0.9647345642
 40
1.0
 40
1.0
 40
1.0
 40
1.0
 10
8.3271585856
 20
10.8209061656
 30
0.0
 10
8.3272671234
 20
10.8206187845
 30
0.0
 10
8.3274595961
 20
10.8200755525
 30
0.0
 10
8.3276865933
 20
10.8193009864
 30
0.0
 10
8.3278326569
 20
10.8186228425
 30
0.0
 10
8.3278980284
 20
10.8180432743
 30
0.0
 10
8.3278848835
 20
10.8176216077
 30
0.0
 10
8.3278260835
 20
10.8173401621
 30
0.0
 10
8.3277632595
 20
10.8171660508
 30
0.0
 10
8.3276790035
 20
10.8170179326
 30
0.0
 10
8.3275729138
 20
10.8168965417
 30
0.0
 10
8.3274452825
 20
10.8168029432
 30
0.0
 10
8.3273488474
 20
10.8167605782
 30
0.0
 10
8.3272986123
 20
10.8167440455
 30
0.0
  0
SPLINE
  5
42D
100
AcDbEntity
  8
0
100
AcDbSpline
 62
7
  6
CONTINUOUS
 70
0
 71
3
 72
23
 73
19
 74
0
 42
0.0000001
 43
0.0000001
 44
0.0000000001
 40
0.0
 40
0.0
 40
0.0
 40
0.0
 40
0.1904276749
 40
0.3705665337
 40
0.4552185358
 40
0.5354148918
 40
0.6104482876
 40
0.6796780496
 40
0.7427128443
 40
0.7992790911
 40
0.8492045985
 40
0.8923382843
 40
0.9286002663
 40
0.9580854914
 40
0.9704412476
 40
0.9813603194
 40
0.9910833725
 40
1.0
 40
1.0
 40
1.0
 40
1.0
 10
9.2343278187
 20
9.7252429095
 30
0.0
 10
9.2350040928
 20
9.7244712845
 30
0.0
 10
9.2363387501
 20
9.7229859517
 30
0.0
 10
9.2380267417
 20
9.7212059038
 30
0.0
 10
9.2393389588
 20
9.7198892407
 30
0.0
 10
9.2402683658
 20
9.7189909182
 30
0.0
 10
9.2411563536
 20
9.7181696876
 30
0.0
 10
9.2419965242
 20
9.7174334734
 30
0.0
 10
9.242782803
 20
9.7167874499
 30
0.0
 10
9.2435107384
 20
9.716235201
 30
0.0
 10
9.2441761407
 20
9.7157793838
 30
0.0
 10
9.2447753547
 20
9.7154223564
 30
0.0
 10
9.2453043306
 20
9.7151669867
 30
0.0
 10
9.2457057204
 20
9.7150328695
 30
0.0
 10
9.245987184
 20
9.7149883527
 30
0.0
 10
9.2461657272
 20
9.7149854927
 30
0.0
 10
9.2463238369
 20
9.7150122481
 30
0.0
 10
9.2464173423
 20
9.7150522713
 30
0.0
 10
9.2464585248
 20
9.7150770133
 30
0.0
  0
SPLINE
  5
42E
100
AcDbEntity
  8
0
100
AcDbSpline
 62
9
  6
CONTINUOUS
 70
0
 71
3
 72
19
 73
15
 74
0
 42
0.0000001
 43
0.0000001
 44
0.0000000001
 40
0.0
 40
0.0
 40
0.0
 40
0.0
 40
0.0463215016
 40
0.0921786738
 40
0.138476678
 40
0.1860191469
 40
0.287216449
 40
0.342028355
 40
0.4000569828
 40
0.4615564616
 40
0.5267262322
 40
0.6685510197
 40
0.8263843709
 40
1.0
 40
1.0
 40
1.0
 40
1.0
 10
9.4094192452
 20
9.5477153825
 30
0.0
 10
9.4097153169
 20
9.5482675778
 30
0.0
 10
9.4103905424
 20
9.5493230065
 30
0.0
 10
9.4116414562
 20
9.5507270064
 30
0.0
 10
9.4131065168
 20
9.55193207
 30
0.0
 10
9.4153724303
 20
9.5532982398
 30
0.0
 10
9.4180019205
 20
9.5542195909
 30
0.0
 10
9.4208549757
 20
9.5547266636
 30
0.0
 10
9.4232104375
 20
9.5549065257
 30
0.0
 10
9.4257115468
 20
9.5548684164
 30
0.0
 10
9.429328863
 20
9.5545062216
 30
0.0
 10
9.4341635883
 20
9.5534167439
 30
0.0
 10
9.4401575394
 20
9.551113069
 30
0.0
 10
9.4440887439
 20
9.5489196948
 30
0.0
 10
9.4460555364
 20
9.5476364816
 30
0.0
  0
SPLINE
  5
42F
100
AcDbEntity
  8
0
100
AcDbSpline
 62
9
  6
CONTINUOUS
 70
0
 71
3
 72
19
 73
15
 74
0
 42
0.0000001
 43
0.0000001
 44
0.0000000001
 40
0.0
 40
0.0
 40
0.0
 40
0.0
 40
0.173615588
 40
0.3314488379
 40
0.473273537
 40
0.5384433185
 40
0.5999427075
 40
0.6579712574
 40
0.7127831943
 40
0.8139806028
 40
0.8615232391
 40
0.9078216646
 40
0.9536790615
 40
1.0
 40
1.0
 40
1.0
 40
1.0
 10
8.3471258836
 20
10.8572898429
 30
0.0
 10
8.3480480683
 20
10.8551301017
 30
0.0
 10
8.3495254851
 20
10.8508777507
 30
0.0
 10
8.3507533004
 20
10.844574832
 30
0.0
 10
8.3509867062
 20
10.8396243732
 30
0.0
 10
8.350715232
 20
10.8359991221
 30
0.0
 10
8.3503184706
 20
10.8335293921
 30
0.0
 10
8.3497323282
 20
10.8312409465
 30
0.0
 10
8.3487375238
 20
10.8285192896
 30
0.0
 10
8.3473735623
 20
10.8260897346
 30
0.0
 10
8.345634666
 20
10.8240954739
 30
0.0
 10
8.3441934908
 20
10.8228619275
 30
0.0
 10
8.3425936018
 20
10.8218738191
 30
0.0
 10
8.3414369626
 20
10.8213921203
 30
0.0
 10
8.3408417516
 20
10.821196436
 30
0.0
  0
SPLINE
  5
430
100
AcDbEntity
  8
0
100
AcDbSpline
 62
7
  6
CONTINUOUS
 70
0
 71
3
 72
23
 73
19
 74
0
 42
0.0000001
 43
0.0000001
 44
0.0000000001
 40
0.0
 40
0.0
 40
0.0
 40
0.0
 40
0.1904276749
 40
0.3705665337
 40
0.4552185358
 40
0.5354148918
 40
0.6104482876
 40
0.6796780496
 40
0.7427128443
 40
0.7992790911
 40
0.8492045985
 40
0.8923382843
 40
0.9286002663
 40
0.9580854914
 40
0.9704412476
 40
0.9813603194
 40
0.9910833725
 40
1.0
 40
1.0
 40
1.0
 40
1.0
 10
9.4207362255
 20
9.503090021
 30
0.0
 10
9.4214124996
 20
9.502318396
 30
0.0
 10
9.4227471569
 20
9.5008330632
 30
0.0
 10
9.4244351485
 20
9.4990530152
 30
0.0
 10
9.4257473656
 20
9.4977363522
 30
0.0
 10
9.4266767726
 20
9.4968380297
 30
0.0
 10
9.4275647604
 20
9.4960167991
 30
0.0
 10
9.428404931
 20
9.4952805849
 30
0.0
 10
9.4291912098
 20
9.4946345613
 30
0.0
 10
9.4299191453
 20
9.4940823125
 30
0.0
 10
9.4305845475
 20
9.4936264953
 30
0.0
 10
9.4311837615
 20
9.4932694679
 30
0.0
 10
9.4317127374
 20
9.4930140982
 30
0.0
 10
9.4321141272
 20
9.492879981
 30
0.0
 10
9.4323955908
 20
9.4928354642
 30
0.0
 10
9.432574134
 20
9.4928326042
 30
0.0
 10
9.4327322437
 20
9.4928593596
 30
0.0
 10
9.4328257491
 20
9.4928993828
 30
0.0
 10
9.4328669317
 20
9.4929241248
 30
0.0
  0
SPLINE
  5
431
100
AcDbEntity
  8
0
100
AcDbSpline
 62
7
  6
CONTINUOUS
 70
0
 71
3
 72
23
 73
19
 74
0
 42
0.0000001
 43
0.0000001
 44
0.0000000001
 40
0.0
 40
0.0
 40
0.0
 40
0.0
 40
0.1904276749
 40
0.3705665337
 40
0.4552185358
 40
0.5354148918
 40
0.6104482876
 40
0.6796780496
 40
0.7427128443
 40
0.7992790911
 40
0.8492045985
 40
0.8923382843
 40
0.9286002663
 40
0.9580854914
 40
0.9704412476
 40
0.9813603194
 40
0.9910833725
 40
1.0
 40
1.0
 40
1.0
 40
1.0
 10
9.6071446323
 20
9.2809371325
 30
0.0
 10
9.6078209064
 20
9.2801655075
 30
0.0
 10
9.6091555637
 20
9.2786801747
 30
0.0
 10
9.6108435553
 20
9.2769001267
 30
0.0
 10
9.6121557725
 20
9.2755834637
 30
0.0
 10
9.6130851794
 20
9.2746851412
 30
0.0
 10
9.6139731672
 20
9.2738639106
 30
0.0
 10
9.6148133379
 20
9.2731276964
 30
0.0
 10
9.6155996166
 20
9.2724816728
 30
0.0
 10
9.6163275521
 20
9.271929424
 30
0.0
 10
9.6169929543
 20
9.2714736068
 30
0.0
 10
9.6175921684
 20
9.2711165794
 30
0.0
 10
9.6181211443
 20
9.2708612097
 30
0.0
 10
9.618522534
 20
9.2707270925
 30
0.0
 10
9.6188039976
 20
9.2706825757
 30
0.0
 10
9.6189825408
 20
9.2706797157
 30
0.0
 10
9.6191406505
 20
9.2707064711
 30
0.0
 10
9.619234156
 20
9.2707464943
 30
0.0
 10
9.6192753385
 20
9.2707712363
 30
0.0
  0
SPLINE
  5
432
100
AcDbEntity
  8
0
100
AcDbSpline
 62
7
  6
CONTINUOUS
 70
0
 71
3
 72
15
 73
11
 74
0
 42
0.0000001
 43
0.0000001
 44
0.0000000001
 40
0.0
 40
0.0
 40
0.0
 40
0.0
 40
0.2540159658
 40
0.3804898494
 40
0.5063292093
 40
0.6313526023
 40
0.7553804056
 40
0.8169826662
 40
0.8783012305
 40
1.0
 40
1.0
 40
1.0
 40
1.0
 10
8.3379595624
 20
10.8694203146
 30
0.0
 10
8.3371318381
 20
10.8704067428
 30
0.0
 10
8.33586049
 20
10.8718582087
 30
0.0
 10
8.3341151182
 20
10.8737403126
 30
0.0
 10
8.3327926692
 20
10.875122489
 30
0.0
 10
8.3314638155
 20
10.876481143
 30
0.0
 10
8.3303582362
 20
10.8776026181
 30
0.0
 10
8.3294852991
 20
10.8784999757
 30
0.0
 10
8.3286276035
 20
10.8793954639
 30
0.0
 10
8.3280016611
 20
10.8800812197
 30
0.0
 10
8.3276050953
 20
10.880553813
 30
0.0
  0
SPLINE
  5
433
100
AcDbEntity
  8
0
100
AcDbSpline
 62
7
  6
CONTINUOUS
 70
0
 71
3
 72
23
 73
19
 74
0
 42
0.0000001
 43
0.0000001
 44
0.0000000001
 40
0.0
 40
0.0
 40
0.0
 40
0.0
 40
0.1904276749
 40
0.3705665337
 40
0.4552185358
 40
0.5354148918
 40
0.6104482876
 40
0.6796780496
 40
0.7427128443
 40
0.7992790911
 40
0.8492045985
 40
0.8923382843
 40
0.9286002663
 40
0.9580854914
 40
0.9704412476
 40
0.9813603194
 40
0.9910833725
 40
1.0
 40
1.0
 40
1.0
 40
1.0
 10
9.7935530391
 20
9.058784244
 30
0.0
 10
9.7942293132
 20
9.058012619
 30
0.0
 10
9.7955639705
 20
9.0565272862
 30
0.0
 10
9.7972519621
 20
9.0547472382
 30
0.0
 10
9.7985641793
 20
9.0534305752
 30
0.0
 10
9.7994935862
 20
9.0525322527
 30
0.0
 10
9.800381574
 20
9.0517110221
 30
0.0
 10
9.8012217447
 20
9.0509748079
 30
0.0
 10
9.8020080234
 20
9.0503287843
 30
0.0
 10
9.8027359589
 20
9.0497765355
 30
0.0
 10
9.8034013611
 20
9.0493207183
 30
0.0
 10
9.8040005752
 20
9.0489636909
 30
0.0
 10
9.8045295511
 20
9.0487083212
 30
0.0
 10
9.8049309408
 20
9.0485742039
 30
0.0
 10
9.8052124044
 20
9.0485296872
 30
0.0
 10
9.8053909476
 20
9.0485268272
 30
0.0
 10
9.8055490574
 20
9.0485535826
 30
0.0
 10
9.8056425628
 20
9.0485936058
 30
0.0
 10
9.8056837453
 20
9.0486183478
 30
0.0
  0
SPLINE
  5
434
100
AcDbEntity
  8
0
100
AcDbSpline
 62
7
  6
CONTINUOUS
 70
0
 71
3
 72
15
 73
11
 74
0
 42
0.0000001
 43
0.0000001
 44
0.0000000001
 40
0.0
 40
0.0
 40
0.0
 40
0.0
 40
0.1216987213
 40
0.1830172762
 40
0.2446195274
 40
0.3686473186
 40
0.4936707078
 40
0.6195100635
 40
0.7459839717
 40
1.0
 40
1.0
 40
1.0
 40
1.0
 10
8.3471259384
 20
10.8572897775
 30
0.0
 10
8.34672938
 20
10.8577623813
 30
0.0
 10
8.3461627387
 20
10.8584979032
 30
0.0
 10
8.3454297917
 20
10.859498076
 30
0.0
 10
8.3446976426
 20
10.8605135783
 30
0.0
 10
8.3437851744
 20
10.8617971051
 30
0.0
 10
8.3426779113
 20
10.8633417091
 30
0.0
 10
8.3415463682
 20
10.8648840888
 30
0.0
 10
8.3399959326
 20
10.8669297824
 30
0.0
 10
8.3387872923
 20
10.8684338813
 30
0.0
 10
8.3379595632
 20
10.8694203153
 30
0.0
  0
SPLINE
  5
435
100
AcDbEntity
  8
0
100
AcDbSpline
 62
7
  6
CONTINUOUS
 70
0
 71
3
 72
23
 73
19
 74
0
 42
0.0000001
 43
0.0000001
 44
0.0000000001
 40
0.0
 40
0.0
 40
0.0
 40
0.0
 40
0.1904276749
 40
0.3705665337
 40
0.4552185358
 40
0.5354148918
 40
0.6104482876
 40
0.6796780496
 40
0.7427128443
 40
0.7992790911
 40
0.8492045985
 40
0.8923382843
 40
0.9286002663
 40
0.9580854914
 40
0.9704412476
 40
0.9813603194
 40
0.9910833725
 40
1.0
 40
1.0
 40
1.0
 40
1.0
 10
9.9799614459
 20
8.8366313555
 30
0.0
 10
9.98063772
 20
8.8358597305
 30
0.0
 10
9.9819723773
 20
8.8343743977
 30
0.0
 10
9.9836603689
 20
8.8325943497
 30
0.0
 10
9.9849725861
 20
8.8312776867
 30
0.0
 10
9.985901993
 20
8.8303793642
 30
0.0
 10
9.9867899808
 20
8.8295581336
 30
0.0
 10
9.9876301515
 20
8.8288219194
 30
0.0
 10
9.9884164302
 20
8.8281758958
 30
0.0
 10
9.9891443657
 20
8.8276236469
 30
0.0
 10
9.9898097679
 20
8.8271678298
 30
0.0
 10
9.990408982
 20
8.8268108024
 30
0.0
 10
9.9909379579
 20
8.8265554327
 30
0.0
 10
9.9913393476
 20
8.8264213154
 30
0.0
 10
9.9916208112
 20
8.8263767987
 30
0.0
 10
9.9917993545
 20
8.8263739387
 30
0.0
 10
9.9919574642
 20
8.8264006941
 30
0.0
 10
9.9920509696
 20
8.8264407173
 30
0.0
 10
9.9920921521
 20
8.8264654593
 30
0.0
  0
SPLINE
  5
436
100
AcDbEntity
  8
0
100
AcDbSpline
 62
9
  6
CONTINUOUS
 70
0
 71
3
 72
19
 73
15
 74
0
 42
0.0000001
 43
0.0000001
 44
0.0000000001
 40
0.0
 40
0.0
 40
0.0
 40
0.0
 40
0.0463215016
 40
0.0921786738
 40
0.138476678
 40
0.1860191469
 40
0.287216449
 40
0.342028355
 40
0.4000569828
 40
0.4615564616
 40
0.5267262322
 40
0.6685510197
 40
0.8263843709
 40
1.0
 40
1.0
 40
1.0
 40
1.0
 10
9.2230108384
 20
9.769868271
 30
0.0
 10
9.2233069101
 20
9.7704204663
 30
0.0
 10
9.2239821356
 20
9.771475895
 30
0.0
 10
9.2252330494
 20
9.7728798949
 30
0.0
 10
9.22669811
 20
9.7740849585
 30
0.0
 10
9.2289640235
 20
9.7754511283
 30
0.0
 10
9.2315935137
 20
9.7763724794
 30
0.0
 10
9.2344465689
 20
9.7768795521
 30
0.0
 10
9.2368020307
 20
9.7770594142
 30
0.0
 10
9.23930314
 20
9.7770213049
 30
0.0
 10
9.2429204562
 20
9.7766591101
 30
0.0
 10
9.2477551815
 20
9.7755696324
 30
0.0
 10
9.2537491326
 20
9.7732659575
 30
0.0
 10
9.2576803371
 20
9.7710725833
 30
0.0
 10
9.2596471296
 20
9.7697893701
 30
0.0
  0
SPLINE
  5
437
100
AcDbEntity
  8
0
100
AcDbSpline
 62
9
  6
CONTINUOUS
 70
0
 71
3
 72
15
 73
11
 74
0
 42
0.0000001
 43
0.0000001
 44
0.0000000001
 40
0.0
 40
0.0
 40
0.0
 40
0.0
 40
0.0168684794
 40
0.0667879403
 40
0.1490924483
 40
0.2627294721
 40
0.4060715541
 40
0.5776643424
 40
0.7760016835
 40
1.0
 40
1.0
 40
1.0
 40
1.0
 10
14.6474835435
 20
5.997837413
 30
0.0
 10
14.6474564848
 20
5.9978467436
 30
0.0
 10
14.6473486484
 20
5.9978816174
 30
0.0
 10
14.6471071255
 20
5.9979568876
 30
0.0
 10
14.646706684
 20
5.9980739621
 30
0.0
 10
14.6461503439
 20
5.9982223662
 30
0.0
 10
14.6454404752
 20
5.9983812291
 30
0.0
 10
14.6445824106
 20
5.9985325663
 30
0.0
 10
14.643580534
 20
5.998647888
 30
0.0
 10
14.6428635677
 20
5.9986766031
 30
0.0
 10
14.6424834891
 20
5.9986766055
 30
0.0
  0
SPLINE
  5
438
100
AcDbEntity
  8
0
100
AcDbSpline
 62
9
  6
CONTINUOUS
 70
0
 71
3
 72
34
 73
30
 74
0
 42
0.0000001
 43
0.0000001
 44
0.0000000001
 40
0.0
 40
0.0
 40
0.0
 40
0.0
 40
0.0725155893
 40
0.1061115298
 40
0.1379628994
 40
0.1967352862
 40
0.223946096
 40
0.249858221
 40
0.298324584
 40
0.3213276201
 40
0.3437856624
 40
0.3659716702
 40
0.3881958464
 40
0.4107993801
 40
0.4341405349
 40
0.4585785471
 40
0.4844548411
 40
0.51206894
 40
0.541666672
 40
0.573415574
 40
0.6073792835
 40
0.6435139263
 40
0.6816330993
 40
0.7623193263
 40
0.8454053553
 40
0.8863084291
 40
0.9259939564
 40
0.963992681
 40
1.0
 40
1.0
 40
1.0
 40
1.0
 10
10.0212397355
 20
8.8575018369
 30
0.0
 10
10.0220334767
 20
8.8553700685
 30
0.0
 10
10.0229225822
 20
8.8521372214
 30
0.0
 10
10.0234893787
 20
8.8478422794
 30
0.0
 10
10.0236548114
 20
8.8439453682
 30
0.0
 10
10.0233267199
 20
8.8402388081
 30
0.0
 10
10.0225099826
 20
8.8368196585
 30
0.0
 10
10.021462863
 20
8.8338061351
 30
0.0
 10
10.0200093002
 20
8.831083635
 30
0.0
 10
10.0181621426
 20
8.8287795257
 30
0.0
 10
10.0166279474
 20
8.8273041939
 30
0.0
 10
10.0149267731
 20
8.8260655745
 30
0.0
 10
10.0130636562
 20
8.8250766518
 30
0.0
 10
10.0110441648
 20
8.8243517058
 30
0.0
 10
10.0088746965
 20
8.8239050019
 30
0.0
 10
10.0065625586
 20
8.8237505822
 30
0.0
 10
10.0041164796
 20
8.8239022756
 30
0.0
 10
10.0015469947
 20
8.8243716989
 30
0.0
 10
9.9988678308
 20
8.8251702766
 30
0.0
 10
9.9960971904
 20
8.8263056081
 30
0.0
 10
9.9932582013
 20
8.8277794794
 30
0.0
 10
9.9903817029
 20
8.8295890019
 30
0.0
 10
9.9864736542
 20
8.8324852334
 30
0.0
 10
9.9818059279
 20
8.8367963526
 30
0.0
 10
9.9776754833
 20
8.8417365314
 30
0.0
 10
9.9747839251
 20
8.8459830592
 30
0.0
 10
9.9729003558
 20
8.8491946151
 30
0.0
 10
9.9713217248
 20
8.8523959618
 30
0.0
 10
9.970454529
 20
8.8545525485
 30
0.0
 10
9.9700784387
 20
8.8556176119
 30
0.0
  0
SPLINE
  5
439
100
AcDbEntity
  8
0
100
AcDbSpline
 62
9
  6
CONTINUOUS
 70
0
 71
3
 72
11
 73
7
 74
0
 42
0.0000001
 43
0.0000001
 44
0.0000000001
 40
0.0
 40
0.0
 40
0.0
 40
0.0
 40
0.2441854296
 40
0.4999998288
 40
0.7558142784
 40
1.0
 40
1.0
 40
1.0
 40
1.0
 10
10.0042564223
 20
8.8777417098
 30
0.0
 10
10.0061449011
 20
8.8766327595
 30
0.0
 10
10.0098255734
 20
8.8740282341
 30
0.0
 10
10.0146385563
 20
8.8692080819
 30
0.0
 10
10.0185497271
 20
8.8636312148
 30
0.0
 10
10.020475556
 20
8.8595541926
 30
0.0
 10
10.0212397355
 20
8.8575018369
 30
0.0
  0
SPLINE
  5
43A
100
AcDbEntity
  8
0
100
AcDbSpline
 62
9
  6
CONTINUOUS
 70
0
 71
3
 72
18
 73
14
 74
0
 42
0.0000001
 43
0.0000001
 44
0.0000000001
 40
0.0
 40
0.0
 40
0.0
 40
0.0
 40
0.2048445602
 40
0.3841215915
 40
0.537902138
 40
0.6668090644
 40
0.7723508365
 40
0.8173760976
 40
0.8580411949
 40
0.8952877619
 40
0.9303567543
 40
0.9647345642
 40
1.0
 40
1.0
 40
1.0
 40
1.0
 10
8.5135669924
 20
10.5987532771
 30
0.0
 10
8.5136755303
 20
10.598465896
 30
0.0
 10
8.5138680029
 20
10.597922664
 30
0.0
 10
8.5140950001
 20
10.5971480979
 30
0.0
 10
8.5142410637
 20
10.596469954
 30
0.0
 10
8.5143064352
 20
10.5958903858
 30
0.0
 10
8.5142932903
 20
10.5954687191
 30
0.0
 10
8.5142344903
 20
10.5951872736
 30
0.0
 10
8.5141716663
 20
10.5950131623
 30
0.0
 10
8.5140874103
 20
10.5948650441
 30
0.0
 10
8.5139813206
 20
10.5947436532
 30
0.0
 10
8.5138536893
 20
10.5946500547
 30
0.0
 10
8.5137572542
 20
10.5946076897
 30
0.0
 10
8.5137070191
 20
10.594591157
 30
0.0
  0
SPLINE
  5
43B
100
AcDbEntity
  8
0
100
AcDbSpline
 62
9
  6
CONTINUOUS
 70
0
 71
3
 72
19
 73
15
 74
0
 42
0.0000001
 43
0.0000001
 44
0.0000000001
 40
0.0
 40
0.0
 40
0.0
 40
0.0
 40
0.1736155891
 40
0.33144884
 40
0.4732735398
 40
0.5384433215
 40
0.5999427106
 40
0.6579712604
 40
0.7127831973
 40
0.8139806051
 40
0.8615232409
 40
0.9078216659
 40
0.9536790622
 40
1.0
 40
1.0
 40
1.0
 40
1.0
 10
8.5335342897
 20
10.635136956
 30
0.0
 10
8.5344564745
 20
10.6329772147
 30
0.0
 10
8.5359338915
 20
10.6287248636
 30
0.0
 10
8.5371617071
 20
10.6224219446
 30
0.0
 10
8.537395113
 20
10.6174714856
 30
0.0
 10
8.5371236389
 20
10.6138462343
 30
0.0
 10
8.5367268776
 20
10.6113765042
 30
0.0
 10
8.5361407351
 20
10.6090880585
 30
0.0
 10
8.5351459308
 20
10.6063664015
 30
0.0
 10
8.5337819692
 20
10.6039368464
 30
0.0
 10
8.5320430729
 20
10.6019425855
 30
0.0
 10
8.5306018977
 20
10.6007090391
 30
0.0
 10
8.5290020087
 20
10.5997209306
 30
0.0
 10
8.5278453694
 20
10.5992392318
 30
0.0
 10
8.5272501584
 20
10.5990435475
 30
0.0
  0
SPLINE
  5
43C
100
AcDbEntity
  8
0
100
AcDbSpline
 62
7
  6
CONTINUOUS
 70
0
 71
3
 72
33
 73
29
 74
0
 42
0.0000001
 43
0.0000001
 44
0.0000000001
 40
0.0
 40
0.0
 40
0.0
 40
0.0
 40
0.125000205
 40
0.2500003569
 40
0.3125005077
 40
0.3750006629
 40
0.4375008008
 40
0.5000008654
 40
0.562500725
 40
0.625000094
 40
0.656250507
 40
0.687500886
 40
0.7187512266
 40
0.7500015079
 40
0.7812516312
 40
0.8125014093
 40
0.8437504985
 40
0.8749978702
 40
0.8906238063
 40
0.9062496247
 40
0.9218752115
 40
0.9375001393
 40
0.9531230928
 40
0.9687391766
 40
0.9765557496
 40
0.9843711315
 40
0.9921865918
 40
1.0
 40
1.0
 40
1.0
 40
1.0
 10
13.6735496554
 20
5.3340380868
 30
0.0
 10
13.6781625898
 20
5.3379087984
 30
0.0
 10
13.687387183
 20
5.3456517161
 30
0.0
 10
13.698933896
 20
5.3553114393
 30
0.0
 10
13.7082159588
 20
5.3629854769
 30
0.0
 10
13.7152133533
 20
5.3686974512
 30
0.0
 10
13.7222622232
 20
5.374345902
 30
0.0
 10
13.7293816177
 20
5.3799054412
 30
0.0
 10
13.7365942204
 20
5.3853437594
 30
0.0
 10
13.7427054674
 20
5.3897398427
 30
0.0
 10
13.747671763
 20
5.3931457739
 30
0.0
 10
13.7514405869
 20
5.3956349413
 30
0.0
 10
13.7552593004
 20
5.3980470331
 30
0.0
 10
13.7591348212
 20
5.4003670261
 30
0.0
 10
13.7630753165
 20
5.402575235
 30
0.0
 10
13.7670907019
 20
5.4046449837
 30
0.0
 10
13.7711927632
 20
5.4065378844
 30
0.0
 10
13.7746964555
 20
5.4079205689
 30
0.0
 10
13.7775578015
 20
5.4088602453
 30
0.0
 10
13.7797354893
 20
5.4094621208
 30
0.0
 10
13.7819453938
 20
5.4099344095
 30
0.0
 10
13.7841861085
 20
5.4102373937
 30
0.0
 10
13.786447126
 20
5.410310015
 30
0.0
 10
13.788328264
 20
5.4100959983
 30
0.0
 10
13.789779227
 20
5.4096817739
 30
0.0
 10
13.7908170099
 20
5.4092247857
 30
0.0
 10
13.7917662913
 20
5.4086023217
 30
0.0
 10
13.7923100472
 20
5.4080730992
 30
0.0
 10
13.7925519944
 20
5.4077847577
 30
0.0
  0
SPLINE
  5
43D
100
AcDbEntity
  8
0
100
AcDbSpline
 62
7
  6
CONTINUOUS
 70
0
 71
3
 72
14
 73
10
 74
0
 42
0.0000001
 43
0.0000001
 44
0.0000000001
 40
0.0
 40
0.0
 40
0.0
 40
0.0
 40
0.2540181179
 40
0.5063272581
 40
0.631353882
 40
0.7553840497
 40
0.8169866942
 40
0.8783046295
 40
1.0
 40
1.0
 40
1.0
 40
1.0
 10
8.5243697074
 20
10.6472688846
 30
0.0
 10
8.5235420375
 20
10.6482553586
 30
0.0
 10
8.5218485204
 20
10.6501853086
 30
0.0
 10
8.5196495413
 20
10.6525113899
 30
0.0
 10
8.5178739195
 20
10.6543298619
 30
0.0
 10
8.5167687516
 20
10.6554517703
 30
0.0
 10
8.5158956432
 20
10.6563489583
 30
0.0
 10
8.515037509
 20
10.6572439895
 30
0.0
 10
8.5144108719
 20
10.6579290391
 30
0.0
 10
8.5140135007
 20
10.6584009261
 30
0.0
  0
SPLINE
  5
43E
100
AcDbEntity
  8
0
100
AcDbSpline
 62
7
  6
CONTINUOUS
 70
0
 71
3
 72
14
 73
10
 74
0
 42
0.0000001
 43
0.0000001
 44
0.0000000001
 40
0.0
 40
0.0
 40
0.0
 40
0.0
 40
0.1216960368
 40
0.1830140334
 40
0.2446164627
 40
0.3686461019
 40
0.4936726032
 40
0.7459819457
 40
1.0
 40
1.0
 40
1.0
 40
1.0
 10
8.5335343042
 20
10.6351369388
 30
0.0
 10
8.533138539
 20
10.6356101795
 30
0.0
 10
8.5325725162
 20
10.6363461108
 30
0.0
 10
8.5318401005
 20
10.63734664
 30
0.0
 10
8.5311083272
 20
10.6383624007
 30
0.0
 10
8.5301956417
 20
10.639645785
 30
0.0
 10
8.5287131533
 20
10.641710228
 30
0.0
 10
8.5268037526
 20
10.6442793484
 30
0.0
 10
8.5251973794
 20
10.6462824097
 30
0.0
 10
8.5243697082
 20
10.6472688853
 30
0.0
  0
SPLINE
  5
43F
100
AcDbEntity
  8
0
100
AcDbSpline
 62
9
  6
CONTINUOUS
 70
0
 71
3
 72
29
 73
25
 74
0
 42
0.0000001
 43
0.0000001
 44
0.0000000001
 40
0.0
 40
0.0
 40
0.0
 40
0.0
 40
0.0158381073
 40
0.0316674978
 40
0.0474731021
 40
0.0632513711
 40
0.0946903067
 40
0.1260309821
 40
0.1572919722
 40
0.188496048
 40
0.219661389
 40
0.2508011544
 40
0.2819254003
 40
0.3130418395
 40
0.3441568132
 40
0.37527244
 40
0.4375181383
 40
0.4998024356
 40
0.5621339612
 40
0.6245195694
 40
0.686960239
 40
0.7494577053
 40
0.8746186268
 40
1.0
 40
1.0
 40
1.0
 40
1.0
 10
14.4846302544
 20
4.1179659275
 30
0.0
 10
14.4846308037
 20
4.1184462231
 30
0.0
 10
14.4845720677
 20
4.1194076714
 30
0.0
 10
14.4843095391
 20
4.1208264025
 30
0.0
 10
14.4838892307
 20
4.1222043991
 30
0.0
 10
14.4831475161
 20
4.1239688049
 30
0.0
 10
14.4819197299
 20
4.1260249533
 30
0.0
 10
14.4801126195
 20
4.1282400635
 30
0.0
 10
14.4780808421
 20
4.1302376554
 30
0.0
 10
14.4758849606
 20
4.1320423176
 30
0.0
 10
14.4735716736
 20
4.1336856056
 30
0.0
 10
14.4711705971
 20
4.1351921062
 30
0.0
 10
14.4687015872
 20
4.1365807368
 30
0.0
 10
14.4661782254
 20
4.1378657709
 30
0.0
 10
14.4636116378
 20
4.139061082
 30
0.0
 10
14.4601428223
 20
4.1405510169
 30
0.0
 10
14.4557311404
 20
4.1422348619
 30
0.0
 10
14.450354356
 20
4.144028062
 30
0.0
 10
14.4449137226
 20
4.1456311797
 30
0.0
 10
14.4394233315
 20
4.14707208
 30
0.0
 10
14.4338936565
 20
4.1483753552
 30
0.0
 10
14.4264745921
 20
4.1499524435
 30
0.0
 10
14.4171339386
 20
4.1516578813
 30
0.0
 10
14.4096211025
 20
4.1527973763
 30
0.0
 10
14.405855135
 20
4.1533212665
 30
0.0
  0
SPLINE
  5
440
100
AcDbEntity
  8
0
100
AcDbSpline
 62
9
  6
CONTINUOUS
 70
0
 71
3
 72
19
 73
15
 74
0
 42
0.0000001
 43
0.0000001
 44
0.0000000001
 40
0.0
 40
0.0
 40
0.0
 40
0.0
 40
0.0463215016
 40
0.0921786738
 40
0.138476678
 40
0.1860191469
 40
0.287216449
 40
0.342028355
 40
0.4000569828
 40
0.4615564616
 40
0.5267262322
 40
0.6685510197
 40
0.8263843709
 40
1.0
 40
1.0
 40
1.0
 40
1.0
 10
9.0366024316
 20
9.9920211595
 30
0.0
 10
9.0368985033
 20
9.9925733548
 30
0.0
 10
9.0375737288
 20
9.9936287835
 30
0.0
 10
9.0388246426
 20
9.9950327834
 30
0.0
 10
9.0402897032
 20
9.996237847
 30
0.0
 10
9.0425556166
 20
9.9976040168
 30
0.0
 10
9.0451851069
 20
9.9985253679
 30
0.0
 10
9.0480381621
 20
9.9990324406
 30
0.0
 10
9.0503936239
 20
9.9992123027
 30
0.0
 10
9.0528947332
 20
9.9991741934
 30
0.0
 10
9.0565120494
 20
9.9988119986
 30
0.0
 10
9.0613467747
 20
9.9977225209
 30
0.0
 10
9.0673407258
 20
9.995418846
 30
0.0
 10
9.0712719303
 20
9.9932254718
 30
0.0
 10
9.0732387228
 20
9.9919422586
 30
0.0
  0
SPLINE
  5
441
100
AcDbEntity
  8
0
100
AcDbSpline
 62
9
  6
CONTINUOUS
 70
0
 71
3
 72
18
 73
14
 74
0
 42
0.0000001
 43
0.0000001
 44
0.0000000001
 40
0.0
 40
0.0
 40
0.0
 40
0.0
 40
0.0352683453
 40
0.0696454363
 40
0.1047153451
 40
0.1419682725
 40
0.1826444894
 40
0.2276806266
 40
0.3332329817
 40
0.4621353285
 40
0.6159072183
 40
0.7951722197
 40
1.0
 40
1.0
 40
1.0
 40
1.0
 10
9.216274462
 20
9.7573042434
 30
0.0
 10
9.2162994614
 20
9.7573508091
 30
0.0
 10
9.2163579043
 20
9.7574383514
 30
0.0
 10
9.2164721852
 20
9.7575476941
 30
0.0
 10
9.2166100755
 20
9.7576310163
 30
0.0
 10
9.2167704823
 20
9.7576882403
 30
0.0
 10
9.2169527571
 20
9.7577199141
 30
0.0
 10
9.2172399755
 20
9.7577290657
 30
0.0
 10
9.2176572728
 20
9.7576689756
 30
0.0
 10
9.2182162774
 20
9.7575040509
 30
0.0
 10
9.2188582567
 20
9.7572426596
 30
0.0
 10
9.2195811522
 20
9.7568850665
 30
0.0
 10
9.2200823781
 20
9.7566015282
 30
0.0
 10
9.2203463608
 20
9.7564449059
 30
0.0
  0
SPLINE
  5
442
100
AcDbEntity
  8
0
100
AcDbSpline
 62
9
  6
CONTINUOUS
 70
0
 71
3
 72
25
 73
21
 74
0
 42
0.0000001
 43
0.0000001
 44
0.0000000001
 40
0.0
 40
0.0
 40
0.0
 40
0.0
 40
0.0324489316
 40
0.064844145
 40
0.0971301197
 40
0.1292717286
 40
0.1612456582
 40
0.1930447287
 40
0.2246673565
 40
0.2561294511
 40
0.287446757
 40
0.3186373361
 40
0.380696472
 40
0.4424840014
 40
0.5041255077
 40
0.5657222807
 40
0.6273507098
 40
0.7508850642
 40
0.8750603666
 40
1.0
 40
1.0
 40
1.0
 40
1.0
 10
14.5059515373
 20
4.1179659274
 30
0.0
 10
14.5059531386
 20
4.1192630814
 30
0.0
 10
14.5058295621
 20
4.1218567051
 30
0.0
 10
14.5053032406
 20
4.125708284
 30
0.0
 10
14.5044469897
 20
4.12948796
 30
0.0
 10
14.5032760299
 20
4.1331641829
 30
0.0
 10
14.5018176438
 20
4.1367143693
 30
0.0
 10
14.5001096193
 20
4.1401276743
 30
0.0
 10
14.4981722806
 20
4.143392189
 30
0.0
 10
14.4960328949
 20
4.1465039233
 30
0.0
 10
14.4937225487
 20
4.1494686039
 30
0.0
 10
14.4904443189
 20
4.1532198604
 30
0.0
 10
14.4860021585
 20
4.15755714
 30
0.0
 10
14.4802559729
 20
4.1622558078
 30
0.0
 10
14.4741854991
 20
4.1664925053
 30
0.0
 10
14.467855878
 20
4.1703159212
 30
0.0
 10
14.4591304518
 20
4.1749262864
 30
0.0
 10
14.4477805597
 20
4.1798803912
 30
0.0
 10
14.4336980897
 20
4.1847700018
 30
0.0
 10
14.4241015472
 20
4.1874527448
 30
0.0
 10
14.4192593206
 20
4.1886766055
 30
0.0
  0
SPLINE
  5
443
100
AcDbEntity
  8
0
100
AcDbSpline
 62
9
  6
CONTINUOUS
 70
0
 71
3
 72
18
 73
14
 74
0
 42
0.0000001
 43
0.0000001
 44
0.0000000001
 40
0.0
 40
0.0
 40
0.0
 40
0.0
 40
0.2048445602
 40
0.3841215915
 40
0.537902138
 40
0.6668090644
 40
0.7723508365
 40
0.8173760976
 40
0.8580411949
 40
0.8952877619
 40
0.9303567543
 40
0.9647345642
 40
1.0
 40
1.0
 40
1.0
 40
1.0
 10
8.6999753992
 20
10.3766003886
 30
0.0
 10
8.7000839371
 20
10.3763130075
 30
0.0
 10
8.7002764097
 20
10.3757697755
 30
0.0
 10
8.7005034069
 20
10.3749952094
 30
0.0
 10
8.7006494706
 20
10.3743170655
 30
0.0
 10
8.700714842
 20
10.3737374973
 30
0.0
 10
8.7007016971
 20
10.3733158306
 30
0.0
 10
8.7006428971
 20
10.3730343851
 30
0.0
 10
8.7005800732
 20
10.3728602738
 30
0.0
 10
8.7004958171
 20
10.3727121556
 30
0.0
 10
8.7003897274
 20
10.3725907647
 30
0.0
 10
8.7002620961
 20
10.3724971662
 30
0.0
 10
8.700165661
 20
10.3724548012
 30
0.0
 10
8.7001154259
 20
10.3724382685
 30
0.0
  0
SPLINE
  5
444
100
AcDbEntity
  8
0
100
AcDbSpline
 62
9
  6
CONTINUOUS
 70
0
 71
3
 72
19
 73
15
 74
0
 42
0.0000001
 43
0.0000001
 44
0.0000000001
 40
0.0
 40
0.0
 40
0.0
 40
0.0
 40
0.1736155903
 40
0.3314488423
 40
0.4732735429
 40
0.5384433248
 40
0.599942714
 40
0.6579712637
 40
0.7127832004
 40
0.8139806076
 40
0.8615232429
 40
0.9078216672
 40
0.9536790629
 40
1.0
 40
1.0
 40
1.0
 40
1.0
 10
8.7199426958
 20
10.4129840693
 30
0.0
 10
8.7208648806
 20
10.4108243279
 30
0.0
 10
8.722342298
 20
10.4065719766
 30
0.0
 10
8.7235701138
 20
10.4002690573
 30
0.0
 10
8.7238035198
 20
10.395318598
 30
0.0
 10
8.7235320458
 20
10.3916933465
 30
0.0
 10
8.7231352845
 20
10.3892236163
 30
0.0
 10
8.7225491421
 20
10.3869351705
 30
0.0
 10
8.7215543378
 20
10.3842135133
 30
0.0
 10
8.7201903762
 20
10.3817839581
 30
0.0
 10
8.7184514799
 20
10.3797896972
 30
0.0
 10
8.7170103046
 20
10.3785561506
 30
0.0
 10
8.7154104155
 20
10.3775680421
 30
0.0
 10
8.7142537763
 20
10.3770863433
 30
0.0
 10
8.7136585652
 20
10.376890659
 30
0.0
  0
SPLINE
  5
445
100
AcDbEntity
  8
0
100
AcDbSpline
 62
9
  6
CONTINUOUS
 70
0
 71
3
 72
19
 73
15
 74
0
 42
0.0000001
 43
0.0000001
 44
0.0000000001
 40
0.0
 40
0.0
 40
0.0
 40
0.0
 40
0.0463215016
 40
0.0921786738
 40
0.138476678
 40
0.1860191469
 40
0.287216449
 40
0.342028355
 40
0.4000569828
 40
0.4615564616
 40
0.5267262322
 40
0.6685510197
 40
0.8263843709
 40
1.0
 40
1.0
 40
1.0
 40
1.0
 10
8.8501940248
 20
10.214174048
 30
0.0
 10
8.8504900964
 20
10.2147262433
 30
0.0
 10
8.851165322
 20
10.215781672
 30
0.0
 10
8.8524162358
 20
10.2171856719
 30
0.0
 10
8.8538812964
 20
10.2183907355
 30
0.0
 10
8.8561472098
 20
10.2197569053
 30
0.0
 10
8.8587767001
 20
10.2206782564
 30
0.0
 10
8.8616297553
 20
10.2211853291
 30
0.0
 10
8.8639852171
 20
10.2213651913
 30
0.0
 10
8.8664863263
 20
10.2213270819
 30
0.0
 10
8.8701036425
 20
10.2209648872
 30
0.0
 10
8.8749383679
 20
10.2198754094
 30
0.0
 10
8.880932319
 20
10.2175717345
 30
0.0
 10
8.8848635235
 20
10.2153783603
 30
0.0
 10
8.886830316
 20
10.2140951471
 30
0.0
  0
SPLINE
  5
446
100
AcDbEntity
  8
0
100
AcDbSpline
 62
7
  6
CONTINUOUS
 70
0
 71
3
 72
15
 73
11
 74
0
 42
0.0000001
 43
0.0000001
 44
0.0000000001
 40
0.0
 40
0.0
 40
0.0
 40
0.0
 40
0.2540159087
 40
0.3804897724
 40
0.5063291176
 40
0.631352507
 40
0.755380316
 40
0.816982588
 40
0.8783011727
 40
1.0
 40
1.0
 40
1.0
 40
1.0
 10
8.7107763754
 20
10.4251145372
 30
0.0
 10
8.7099486605
 20
10.4261009626
 30
0.0
 10
8.7086773153
 20
10.4275524149
 30
0.0
 10
8.7069319542
 20
10.4294345065
 30
0.0
 10
8.705609513
 20
10.430816674
 30
0.0
 10
8.7042806655
 20
10.4321753176
 30
0.0
 10
8.7031750905
 20
10.4332967835
 30
0.0
 10
8.7023021577
 20
10.4341941349
 30
0.0
 10
8.7014444672
 20
10.4350896181
 30
0.0
 10
8.7008185312
 20
10.4357753727
 30
0.0
 10
8.7004219701
 20
10.4362479654
 30
0.0
  0
SPLINE
  5
447
100
AcDbEntity
  8
0
100
AcDbSpline
 62
7
  6
CONTINUOUS
 70
0
 71
3
 72
15
 73
11
 74
0
 42
0.0000001
 43
0.0000001
 44
0.0000000001
 40
0.0
 40
0.0
 40
0.0
 40
0.0
 40
0.1216987826
 40
0.1830173442
 40
0.2446195983
 40
0.3686473925
 40
0.4936707766
 40
0.6195101249
 40
0.7459840171
 40
1.0
 40
1.0
 40
1.0
 40
1.0
 10
8.7199427061
 20
10.4129840572
 30
0.0
 10
8.7195461556
 20
10.4134566641
 30
0.0
 10
8.7189795047
 20
10.4141921728
 30
0.0
 10
8.7182465536
 20
10.415192336
 30
0.0
 10
8.7175144131
 20
10.4162078371
 30
0.0
 10
8.7166019607
 20
10.417491366
 30
0.0
 10
8.7154947022
 20
10.4190359621
 30
0.0
 10
8.7143631636
 20
10.4205783335
 30
0.0
 10
8.7128127339
 20
10.4226240159
 30
0.0
 10
8.7116040972
 20
10.4241281053
 30
0.0
 10
8.7107763762
 20
10.4251145378
 30
0.0
  0
SPLINE
  5
448
100
AcDbEntity
  8
0
100
AcDbSpline
 62
9
  6
CONTINUOUS
 70
0
 71
3
 72
18
 73
14
 74
0
 42
0.0000001
 43
0.0000001
 44
0.0000000001
 40
0.0
 40
0.0
 40
0.0
 40
0.0
 40
0.0352683453
 40
0.0696454363
 40
0.1047153451
 40
0.1419682725
 40
0.1826444894
 40
0.2276806266
 40
0.3332329817
 40
0.4621353285
 40
0.6159072183
 40
0.7951722197
 40
1.0
 40
1.0
 40
1.0
 40
1.0
 10
9.0298660552
 20
9.9794571319
 30
0.0
 10
9.0298910546
 20
9.9795036976
 30
0.0
 10
9.0299494975
 20
9.9795912399
 30
0.0
 10
9.0300637784
 20
9.9797005826
 30
0.0
 10
9.0302016687
 20
9.9797839048
 30
0.0
 10
9.0303620755
 20
9.9798411288
 30
0.0
 10
9.0305443503
 20
9.9798728026
 30
0.0
 10
9.0308315687
 20
9.9798819543
 30
0.0
 10
9.031248866
 20
9.9798218641
 30
0.0
 10
9.0318078706
 20
9.9796569394
 30
0.0
 10
9.0324498499
 20
9.9793955481
 30
0.0
 10
9.0331727454
 20
9.979037955
 30
0.0
 10
9.0336739713
 20
9.9787544168
 30
0.0
 10
9.033937954
 20
9.9785977944
 30
0.0
  0
SPLINE
  5
449
100
AcDbEntity
  8
0
100
AcDbSpline
 62
7
  6
CONTINUOUS
 70
0
 71
3
 72
33
 73
29
 74
0
 42
0.0000001
 43
0.0000001
 44
0.0000000001
 40
0.0
 40
0.0
 40
0.0
 40
0.0
 40
0.0078133999
 40
0.0156288501
 40
0.0234442309
 40
0.031260802
 40
0.0468768914
 40
0.06249985
 40
0.0781247796
 40
0.0937503685
 40
0.1093761881
 40
0.1250021252
 40
0.1562494972
 40
0.1874985867
 40
0.2187483648
 40
0.2499984879
 40
0.2812487691
 40
0.3124991097
 40
0.3437494888
 40
0.3749999018
 40
0.4374992711
 40
0.4999991311
 40
0.5624991961
 40
0.6249993344
 40
0.68749949
 40
0.7499996413
 40
0.8749997941
 40
1.0
 40
1.0
 40
1.0
 40
1.0
 10
13.580259531
 20
5.22965023
 30
0.0
 10
13.5800175856
 20
5.2299385693
 30
0.0
 10
13.5795908281
 20
5.2305659576
 30
0.0
 10
13.5791426627
 20
5.2316088985
 30
0.0
 10
13.5788728254
 20
5.2327102619
 30
0.0
 10
13.5787168471
 20
5.2342111009
 30
0.0
 10
13.5788327314
 20
5.2361008124
 30
0.0
 10
13.5792968619
 20
5.2383148573
 30
0.0
 10
13.5799843291
 20
5.2404689063
 30
0.0
 10
13.5808331782
 20
5.2425632142
 30
0.0
 10
13.5818040507
 20
5.2446032927
 30
0.0
 10
13.5832263044
 20
5.2472579814
 30
0.0
 10
13.5851963737
 20
5.2504683276
 30
0.0
 10
13.5877728096
 20
5.2541793513
 30
0.0
 10
13.5905083551
 20
5.2577743074
 30
0.0
 10
13.5933672526
 20
5.2612714682
 30
0.0
 10
13.596324953
 20
5.264685231
 30
0.0
 10
13.5993634884
 20
5.268027057
 30
0.0
 10
13.6024692651
 20
5.2713063676
 30
0.0
 10
13.6066858087
 20
5.2756057578
 30
0.0
 10
13.6120762724
 20
5.2808607616
 30
0.0
 10
13.6186843775
 20
5.2870194016
 30
0.0
 10
13.625395677
 20
5.2930651993
 30
0.0
 10
13.6321822914
 20
5.2990261043
 30
0.0
 10
13.639022526
 20
5.3049252845
 30
0.0
 10
13.6481917295
 20
5.3127337028
 30
0.0
 10
13.6597096902
 20
5.322427542
 30
0.0
 10
13.6689367505
 20
5.3301674
 30
0.0
 10
13.6735496554
 20
5.3340380868
 30
0.0
  0
SPLINE
  5
44A
100
AcDbEntity
  8
0
100
AcDbSpline
 62
9
  6
CONTINUOUS
 70
0
 71
3
 72
19
 73
15
 74
0
 42
0.0000001
 43
0.0000001
 44
0.0000000001
 40
0.0
 40
0.0
 40
0.0
 40
0.0
 40
0.0463214999
 40
0.0921786705
 40
0.1384766732
 40
0.1860191409
 40
0.2872164413
 40
0.342028347
 40
0.4000569747
 40
0.4615564537
 40
0.5267262248
 40
0.6685510141
 40
0.826384368
 40
1.0
 40
1.0
 40
1.0
 40
1.0
 10
8.663785618
 20
10.4363269365
 30
0.0
 10
8.6640816897
 20
10.4368791318
 30
0.0
 10
8.6647569153
 20
10.4379345606
 30
0.0
 10
8.6660078292
 20
10.4393385606
 30
0.0
 10
8.66747289
 20
10.4405436243
 30
0.0
 10
8.6697388037
 20
10.4419097941
 30
0.0
 10
8.6723682942
 20
10.4428311452
 30
0.0
 10
8.6752213497
 20
10.4433382178
 30
0.0
 10
8.6775768119
 20
10.4435180798
 30
0.0
 10
8.6800779214
 20
10.4434799703
 30
0.0
 10
8.683695238
 20
10.4431177753
 30
0.0
 10
8.6885299639
 20
10.4420282971
 30
0.0
 10
8.6945239156
 20
10.4397246215
 30
0.0
 10
8.6984551203
 20
10.4375312465
 30
0.0
 10
8.7004219131
 20
10.4362480332
 30
0.0
  0
SPLINE
  5
44B
100
AcDbEntity
  8
0
100
AcDbSpline
 62
9
  6
CONTINUOUS
 70
0
 71
3
 72
18
 73
14
 74
0
 42
0.0000001
 43
0.0000001
 44
0.0000000001
 40
0.0
 40
0.0
 40
0.0
 40
0.0
 40
0.2048445602
 40
0.3841215915
 40
0.537902138
 40
0.6668090644
 40
0.7723508365
 40
0.8173760976
 40
0.8580411949
 40
0.8952877619
 40
0.9303567543
 40
0.9647345642
 40
1.0
 40
1.0
 40
1.0
 40
1.0
 10
8.886383806
 20
10.1544475001
 30
0.0
 10
8.8864923439
 20
10.154160119
 30
0.0
 10
8.8866848165
 20
10.153616887
 30
0.0
 10
8.8869118137
 20
10.1528423209
 30
0.0
 10
8.8870578774
 20
10.152164177
 30
0.0
 10
8.8871232489
 20
10.1515846088
 30
0.0
 10
8.8871101039
 20
10.1511629421
 30
0.0
 10
8.8870513039
 20
10.1508814966
 30
0.0
 10
8.88698848
 20
10.1507073853
 30
0.0
 10
8.8869042239
 20
10.1505592671
 30
0.0
 10
8.8867981342
 20
10.1504378762
 30
0.0
 10
8.8866705029
 20
10.1503442777
 30
0.0
 10
8.8865740678
 20
10.1503019127
 30
0.0
 10
8.8865238327
 20
10.15028538
 30
0.0
  0
SPLINE
  5
44C
100
AcDbEntity
  8
0
100
AcDbSpline
 62
9
  6
CONTINUOUS
 70
0
 71
3
 72
19
 73
15
 74
0
 42
0.0000001
 43
0.0000001
 44
0.0000000001
 40
0.0
 40
0.0
 40
0.0
 40
0.0
 40
0.1736155891
 40
0.33144884
 40
0.4732735398
 40
0.5384433215
 40
0.5999427106
 40
0.6579712604
 40
0.7127831973
 40
0.8139806051
 40
0.8615232409
 40
0.9078216659
 40
0.9536790622
 40
1.0
 40
1.0
 40
1.0
 40
1.0
 10
8.9063511034
 20
10.190831179
 30
0.0
 10
8.9072732881
 20
10.1886714377
 30
0.0
 10
8.9087507052
 20
10.1844190866
 30
0.0
 10
8.9099785207
 20
10.1781161676
 30
0.0
 10
8.9102119266
 20
10.1731657085
 30
0.0
 10
8.9099404525
 20
10.1695404573
 30
0.0
 10
8.9095436912
 20
10.1670707272
 30
0.0
 10
8.9089575487
 20
10.1647822815
 30
0.0
 10
8.9079627444
 20
10.1620606245
 30
0.0
 10
8.9065987829
 20
10.1596310693
 30
0.0
 10
8.9048598865
 20
10.1576368085
 30
0.0
 10
8.9034187113
 20
10.156403262
 30
0.0
 10
8.9018188223
 20
10.1554151536
 30
0.0
 10
8.900662183
 20
10.1549334548
 30
0.0
 10
8.900066972
 20
10.1547377705
 30
0.0
  0
SPLINE
  5
44D
100
AcDbEntity
  8
0
100
AcDbSpline
 62
9
  6
CONTINUOUS
 70
0
 71
3
 72
27
 73
23
 74
0
 42
0.0000001
 43
0.0000001
 44
0.0000000001
 40
0.0
 40
0.0
 40
0.0
 40
0.0
 40
0.07939194
 40
0.147969046
 40
0.2058492506
 40
0.2535157042
 40
0.2738705848
 40
0.2921916182
 40
0.3088303415
 40
0.3242657041
 40
0.339102864
 40
0.3540289534
 40
0.3866276377
 40
0.405477414
 40
0.4264722129
 40
0.4757536163
 40
0.535661367
 40
0.6066147229
 40
0.6887425241
 40
0.781946062
 40
0.8858520401
 40
1.0
 40
1.0
 40
1.0
 40
1.0
 10
9.997608162
 20
8.824120506
 30
0.0
 10
9.9977269309
 20
8.8237784566
 30
0.0
 10
9.9979318377
 20
8.823134975
 30
0.0
 10
9.9981525422
 20
8.8222213178
 30
0.0
 10
9.9982648318
 20
8.821433868
 30
0.0
 10
9.9982693576
 20
8.820856464
 30
0.0
 10
9.9982093075
 20
8.8204664204
 30
0.0
 10
9.9981388935
 20
8.8202232813
 30
0.0
 10
9.9980404348
 20
8.8200143215
 30
0.0
 10
9.9979133412
 20
8.8198403532
 30
0.0
 10
9.9977574127
 20
8.8197028901
 30
0.0
 10
9.99750543
 20
8.8195661742
 30
0.0
 10
9.9971989893
 20
8.8195141028
 30
0.0
 10
9.996868817
 20
8.8195307785
 30
0.0
 10
9.996467297
 20
8.8196004446
 30
0.0
 10
9.9959019394
 20
8.8197909719
 30
0.0
 10
9.9951613422
 20
8.8201493718
 30
0.0
 10
9.9943267842
 20
8.8206483698
 30
0.0
 10
9.9934016144
 20
8.8212862973
 30
0.0
 10
9.992389889
 20
8.8220604396
 30
0.0
 10
9.9912963217
 20
8.8229659719
 30
0.0
 10
9.990550343
 20
8.8236238548
 30
0.0
 10
9.9901641836
 20
8.8239729956
 30
0.0
  0
SPLINE
  5
44E
100
AcDbEntity
  8
0
100
AcDbSpline
 62
9
  6
CONTINUOUS
 70
0
 71
3
 72
12
 73
8
 74
0
 42
0.0000001
 43
0.0000001
 44
0.0000000001
 40
0.0
 40
0.0
 40
0.0
 40
0.0
 40
0.1038548967
 40
0.2157819706
 40
0.4601935038
 40
0.7248614568
 40
1.0
 40
1.0
 40
1.0
 40
1.0
 10
9.9899529296
 20
8.8241648637
 30
0.0
 10
9.9894753117
 20
8.8246005865
 30
0.0
 10
9.9884961574
 20
8.8255204258
 30
0.0
 10
9.9864538573
 20
8.827529622
 30
0.0
 10
9.9837792481
 20
8.8303220858
 30
0.0
 10
9.9805066923
 20
8.8339452767
 30
0.0
 10
9.9783163687
 20
8.8364942203
 30
0.0
 10
9.9772154042
 20
8.8378062618
 30
0.0
  0
SPLINE
  5
44F
100
AcDbEntity
  8
0
100
AcDbSpline
 62
9
  6
CONTINUOUS
 70
0
 71
3
 72
11
 73
7
 74
0
 42
0.0000001
 43
0.0000001
 44
0.0000000001
 40
0.0
 40
0.0
 40
0.0
 40
0.0
 40
0.2751245655
 40
0.539798729
 40
0.7842317564
 40
1.0
 40
1.0
 40
1.0
 40
1.0
 10
9.9772154042
 20
8.8378062618
 30
0.0
 10
9.9761149313
 20
8.839117816
 30
0.0
 10
9.9739859341
 20
8.8417165738
 30
0.0
 10
9.9709867377
 20
8.845567175
 30
0.0
 10
9.9683202685
 20
8.8492063469
 30
0.0
 10
9.9667156208
 20
8.8515798876
 30
0.0
 10
9.9659965991
 20
8.8527138524
 30
0.0
  0
SPLINE
  5
450
100
AcDbEntity
  8
0
100
AcDbSpline
 62
9
  6
CONTINUOUS
 70
0
 71
3
 72
26
 73
22
 74
0
 42
0.0000001
 43
0.0000001
 44
0.0000000001
 40
0.0
 40
0.0
 40
0.0
 40
0.0
 40
0.1143407954
 40
0.2184199245
 40
0.3117535359
 40
0.394080877
 40
0.4652331113
 40
0.525266429
 40
0.5746702343
 40
0.5957255492
 40
0.6146222992
 40
0.6472478336
 40
0.6621514219
 40
0.6769444537
 40
0.7087357642
 40
0.7269685216
 40
0.7472257863
 40
0.7946956257
 40
0.8524119285
 40
0.92081426
 40
1.0
 40
1.0
 40
1.0
 40
1.0
 10
9.9658798715
 20
8.8528986255
 30
0.0
 10
9.9656005896
 20
8.8533423738
 30
0.0
 10
9.9650773513
 20
8.8541965958
 30
0.0
 10
9.9643686739
 20
8.8554384606
 30
0.0
 10
9.9637762017
 20
8.856576672
 30
0.0
 10
9.9633029817
 20
8.8576053674
 30
0.0
 10
9.9629512561
 20
8.858520148
 30
0.0
 10
9.9627230834
 20
8.8593174466
 30
0.0
 10
9.9626308212
 20
8.8599115308
 30
0.0
 10
9.9626297252
 20
8.8603223142
 30
0.0
 10
9.9626688319
 20
8.8606530045
 30
0.0
 10
9.9627717312
 20
8.8609483495
 30
0.0
 10
9.9629493991
 20
8.861175119
 30
0.0
 10
9.9631703154
 20
8.8613540439
 30
0.0
 10
9.9634584473
 20
8.8614566678
 30
0.0
 10
9.9637790921
 20
8.8614919085
 30
0.0
 10
9.9641743053
 20
8.8614844981
 30
0.0
 10
9.9647432228
 20
8.8613802005
 30
0.0
 10
9.9655010451
 20
8.8611322493
 30
0.0
 10
9.9663648949
 20
8.8607552304
 30
0.0
 10
9.9669648071
 20
8.86044092
 30
0.0
 10
9.9672819245
 20
8.8602640368
 30
0.0
  0
SPLINE
  5
451
100
AcDbEntity
  8
0
100
AcDbSpline
 62
9
  6
CONTINUOUS
 70
0
 71
3
 72
27
 73
23
 74
0
 42
0.0000001
 43
0.0000001
 44
0.0000000001
 40
0.0
 40
0.0
 40
0.0
 40
0.0
 40
0.07939194
 40
0.147969046
 40
0.2058492506
 40
0.2535157042
 40
0.2738705848
 40
0.2921916182
 40
0.3088303415
 40
0.3242657041
 40
0.339102864
 40
0.3540289534
 40
0.3866276377
 40
0.405477414
 40
0.4264722129
 40
0.4757536163
 40
0.535661367
 40
0.6066147229
 40
0.6887425241
 40
0.781946062
 40
0.8858520401
 40
1.0
 40
1.0
 40
1.0
 40
1.0
 10
9.8111997552
 20
9.0462733945
 30
0.0
 10
9.8113185241
 20
9.0459313451
 30
0.0
 10
9.8115234309
 20
9.0452878635
 30
0.0
 10
9.8117441354
 20
9.0443742063
 30
0.0
 10
9.811856425
 20
9.0435867565
 30
0.0
 10
9.8118609508
 20
9.0430093525
 30
0.0
 10
9.8118009007
 20
9.0426193089
 30
0.0
 10
9.8117304867
 20
9.0423761698
 30
0.0
 10
9.811632028
 20
9.04216721
 30
0.0
 10
9.8115049344
 20
9.0419932417
 30
0.0
 10
9.8113490058
 20
9.0418557786
 30
0.0
 10
9.8110970232
 20
9.0417190627
 30
0.0
 10
9.8107905825
 20
9.0416669913
 30
0.0
 10
9.8104604102
 20
9.041683667
 30
0.0
 10
9.8100588901
 20
9.0417533331
 30
0.0
 10
9.8094935326
 20
9.0419438604
 30
0.0
 10
9.8087529354
 20
9.0423022603
 30
0.0
 10
9.8079183774
 20
9.0428012583
 30
0.0
 10
9.8069932076
 20
9.0434391858
 30
0.0
 10
9.8059814822
 20
9.0442133281
 30
0.0
 10
9.8048879148
 20
9.0451188604
 30
0.0
 10
9.8041419362
 20
9.0457767433
 30
0.0
 10
9.8037557768
 20
9.0461258841
 30
0.0
  0
SPLINE
  5
452
100
AcDbEntity
  8
0
100
AcDbSpline
 62
9
  6
CONTINUOUS
 70
0
 71
3
 72
12
 73
8
 74
0
 42
0.0000001
 43
0.0000001
 44
0.0000000001
 40
0.0
 40
0.0
 40
0.0
 40
0.0
 40
0.1038548967
 40
0.2157819706
 40
0.4601935038
 40
0.7248614568
 40
1.0
 40
1.0
 40
1.0
 40
1.0
 10
9.8035445228
 20
9.0463177522
 30
0.0
 10
9.8030669049
 20
9.046753475
 30
0.0
 10
9.8020877506
 20
9.0476733143
 30
0.0
 10
9.8000454505
 20
9.0496825105
 30
0.0
 10
9.7973708413
 20
9.0524749743
 30
0.0
 10
9.7940982855
 20
9.0560981652
 30
0.0
 10
9.7919079619
 20
9.0586471088
 30
0.0
 10
9.7908069974
 20
9.0599591503
 30
0.0
  0
SPLINE
  5
453
100
AcDbEntity
  8
0
100
AcDbSpline
 62
9
  6
CONTINUOUS
 70
0
 71
3
 72
11
 73
7
 74
0
 42
0.0000001
 43
0.0000001
 44
0.0000000001
 40
0.0
 40
0.0
 40
0.0
 40
0.0
 40
0.2751245655
 40
0.539798729
 40
0.7842317564
 40
1.0
 40
1.0
 40
1.0
 40
1.0
 10
9.7908069974
 20
9.0599591503
 30
0.0
 10
9.7897065245
 20
9.0612707045
 30
0.0
 10
9.7875775273
 20
9.0638694623
 30
0.0
 10
9.7845783309
 20
9.0677200635
 30
0.0
 10
9.7819118617
 20
9.0713592354
 30
0.0
 10
9.7803072139
 20
9.0737327761
 30
0.0
 10
9.7795881923
 20
9.0748667409
 30
0.0
  0
SPLINE
  5
454
100
AcDbEntity
  8
0
100
AcDbSpline
 62
9
  6
CONTINUOUS
 70
0
 71
3
 72
26
 73
22
 74
0
 42
0.0000001
 43
0.0000001
 44
0.0000000001
 40
0.0
 40
0.0
 40
0.0
 40
0.0
 40
0.1143407954
 40
0.2184199245
 40
0.3117535359
 40
0.394080877
 40
0.4652331113
 40
0.525266429
 40
0.5746702343
 40
0.5957255492
 40
0.6146222992
 40
0.6472478336
 40
0.6621514219
 40
0.6769444537
 40
0.7087357642
 40
0.7269685216
 40
0.7472257863
 40
0.7946956257
 40
0.8524119285
 40
0.92081426
 40
1.0
 40
1.0
 40
1.0
 40
1.0
 10
9.7794714647
 20
9.075051514
 30
0.0
 10
9.7791921828
 20
9.0754952624
 30
0.0
 10
9.7786689445
 20
9.0763494843
 30
0.0
 10
9.7779602671
 20
9.0775913491
 30
0.0
 10
9.7773677948
 20
9.0787295605
 30
0.0
 10
9.7768945749
 20
9.0797582559
 30
0.0
 10
9.7765428493
 20
9.0806730365
 30
0.0
 10
9.7763146766
 20
9.0814703351
 30
0.0
 10
9.7762224144
 20
9.0820644193
 30
0.0
 10
9.7762213184
 20
9.0824752027
 30
0.0
 10
9.7762604251
 20
9.082805893
 30
0.0
 10
9.7763633243
 20
9.083101238
 30
0.0
 10
9.7765409923
 20
9.0833280075
 30
0.0
 10
9.7767619086
 20
9.0835069324
 30
0.0
 10
9.7770500405
 20
9.0836095563
 30
0.0
 10
9.7773706853
 20
9.083644797
 30
0.0
 10
9.7777658985
 20
9.0836373866
 30
0.0
 10
9.7783348159
 20
9.083533089
 30
0.0
 10
9.7790926383
 20
9.0832851378
 30
0.0
 10
9.7799564881
 20
9.0829081189
 30
0.0
 10
9.7805564003
 20
9.0825938086
 30
0.0
 10
9.7808735176
 20
9.0824169253
 30
0.0
  0
SPLINE
  5
455
100
AcDbEntity
  8
0
100
AcDbSpline
 62
9
  6
CONTINUOUS
 70
0
 71
3
 72
27
 73
23
 74
0
 42
0.0000001
 43
0.0000001
 44
0.0000000001
 40
0.0
 40
0.0
 40
0.0
 40
0.0
 40
0.07939194
 40
0.147969046
 40
0.2058492506
 40
0.2535157042
 40
0.2738705848
 40
0.2921916182
 40
0.3088303415
 40
0.3242657041
 40
0.339102864
 40
0.3540289534
 40
0.3866276377
 40
0.405477414
 40
0.4264722129
 40
0.4757536163
 40
0.535661367
 40
0.6066147229
 40
0.6887425241
 40
0.781946062
 40
0.8858520401
 40
1.0
 40
1.0
 40
1.0
 40
1.0
 10
9.6247913484
 20
9.268426283
 30
0.0
 10
9.6249101173
 20
9.2680842336
 30
0.0
 10
9.6251150241
 20
9.267440752
 30
0.0
 10
9.6253357286
 20
9.2665270948
 30
0.0
 10
9.6254480182
 20
9.265739645
 30
0.0
 10
9.625452544
 20
9.265162241
 30
0.0
 10
9.6253924939
 20
9.2647721974
 30
0.0
 10
9.6253220799
 20
9.2645290583
 30
0.0
 10
9.6252236211
 20
9.2643200985
 30
0.0
 10
9.6250965276
 20
9.2641461302
 30
0.0
 10
9.624940599
 20
9.2640086671
 30
0.0
 10
9.6246886164
 20
9.2638719512
 30
0.0
 10
9.6243821757
 20
9.2638198798
 30
0.0
 10
9.6240520034
 20
9.2638365555
 30
0.0
 10
9.6236504833
 20
9.2639062216
 30
0.0
 10
9.6230851258
 20
9.2640967489
 30
0.0
 10
9.6223445286
 20
9.2644551489
 30
0.0
 10
9.6215099706
 20
9.2649541468
 30
0.0
 10
9.6205848008
 20
9.2655920743
 30
0.0
 10
9.6195730754
 20
9.2663662166
 30
0.0
 10
9.618479508
 20
9.2672717489
 30
0.0
 10
9.6177335294
 20
9.2679296318
 30
0.0
 10
9.61734737
 20
9.2682787726
 30
0.0
  0
SPLINE
  5
456
100
AcDbEntity
  8
0
100
AcDbSpline
 62
9
  6
CONTINUOUS
 70
0
 71
3
 72
12
 73
8
 74
0
 42
0.0000001
 43
0.0000001
 44
0.0000000001
 40
0.0
 40
0.0
 40
0.0
 40
0.0
 40
0.1038548967
 40
0.2157819706
 40
0.4601935038
 40
0.7248614568
 40
1.0
 40
1.0
 40
1.0
 40
1.0
 10
9.617136116
 20
9.2684706407
 30
0.0
 10
9.6166584981
 20
9.2689063635
 30
0.0
 10
9.6156793438
 20
9.2698262028
 30
0.0
 10
9.6136370437
 20
9.271835399
 30
0.0
 10
9.6109624344
 20
9.2746278628
 30
0.0
 10
9.6076898787
 20
9.2782510538
 30
0.0
 10
9.6054995551
 20
9.2807999973
 30
0.0
 10
9.6043985906
 20
9.2821120388
 30
0.0
  0
SPLINE
  5
457
100
AcDbEntity
  8
0
100
AcDbSpline
 62
9
  6
CONTINUOUS
 70
0
 71
3
 72
11
 73
7
 74
0
 42
0.0000001
 43
0.0000001
 44
0.0000000001
 40
0.0
 40
0.0
 40
0.0
 40
0.0
 40
0.2751245655
 40
0.539798729
 40
0.7842317564
 40
1.0
 40
1.0
 40
1.0
 40
1.0
 10
9.6043985906
 20
9.2821120388
 30
0.0
 10
9.6032981176
 20
9.283423593
 30
0.0
 10
9.6011691205
 20
9.2860223508
 30
0.0
 10
9.5981699241
 20
9.289872952
 30
0.0
 10
9.5955034549
 20
9.2935121239
 30
0.0
 10
9.5938988071
 20
9.2958856646
 30
0.0
 10
9.5931797855
 20
9.2970196294
 30
0.0
  0
SPLINE
  5
458
100
AcDbEntity
  8
0
100
AcDbSpline
 62
9
  6
CONTINUOUS
 70
0
 71
3
 72
26
 73
22
 74
0
 42
0.0000001
 43
0.0000001
 44
0.0000000001
 40
0.0
 40
0.0
 40
0.0
 40
0.0
 40
0.1143407954
 40
0.2184199245
 40
0.3117535359
 40
0.394080877
 40
0.4652331113
 40
0.525266429
 40
0.5746702343
 40
0.5957255492
 40
0.6146222992
 40
0.6472478336
 40
0.6621514219
 40
0.6769444537
 40
0.7087357642
 40
0.7269685216
 40
0.7472257863
 40
0.7946956257
 40
0.8524119285
 40
0.92081426
 40
1.0
 40
1.0
 40
1.0
 40
1.0
 10
9.5930630579
 20
9.2972044025
 30
0.0
 10
9.592783776
 20
9.2976481509
 30
0.0
 10
9.5922605377
 20
9.2985023728
 30
0.0
 10
9.5915518603
 20
9.2997442376
 30
0.0
 10
9.590959388
 20
9.300882449
 30
0.0
 10
9.5904861681
 20
9.3019111444
 30
0.0
 10
9.5901344425
 20
9.302825925
 30
0.0
 10
9.5899062698
 20
9.3036232236
 30
0.0
 10
9.5898140076
 20
9.3042173078
 30
0.0
 10
9.5898129116
 20
9.3046280912
 30
0.0
 10
9.5898520183
 20
9.3049587815
 30
0.0
 10
9.5899549175
 20
9.3052541266
 30
0.0
 10
9.5901325855
 20
9.305480896
 30
0.0
 10
9.5903535018
 20
9.3056598209
 30
0.0
 10
9.5906416336
 20
9.3057624449
 30
0.0
 10
9.5909622785
 20
9.3057976855
 30
0.0
 10
9.5913574917
 20
9.3057902751
 30
0.0
 10
9.5919264091
 20
9.3056859775
 30
0.0
 10
9.5926842315
 20
9.3054380263
 30
0.0
 10
9.5935480813
 20
9.3050610074
 30
0.0
 10
9.5941479935
 20
9.3047466971
 30
0.0
 10
9.5944651108
 20
9.3045698138
 30
0.0
  0
SPLINE
  5
459
100
AcDbEntity
  8
0
100
AcDbSpline
 62
9
  6
CONTINUOUS
 70
0
 71
3
 72
27
 73
23
 74
0
 42
0.0000001
 43
0.0000001
 44
0.0000000001
 40
0.0
 40
0.0
 40
0.0
 40
0.0
 40
0.07939194
 40
0.147969046
 40
0.2058492506
 40
0.2535157042
 40
0.2738705848
 40
0.2921916182
 40
0.3088303415
 40
0.3242657041
 40
0.339102864
 40
0.3540289534
 40
0.3866276377
 40
0.405477414
 40
0.4264722129
 40
0.4757536163
 40
0.535661367
 40
0.6066147229
 40
0.6887425241
 40
0.781946062
 40
0.8858520401
 40
1.0
 40
1.0
 40
1.0
 40
1.0
 10
9.4383829416
 20
9.4905791715
 30
0.0
 10
9.4385017105
 20
9.4902371221
 30
0.0
 10
9.4387066173
 20
9.4895936405
 30
0.0
 10
9.4389273218
 20
9.4886799833
 30
0.0
 10
9.4390396114
 20
9.4878925335
 30
0.0
 10
9.4390441372
 20
9.4873151295
 30
0.0
 10
9.438984087
 20
9.4869250859
 30
0.0
 10
9.4389136731
 20
9.4866819468
 30
0.0
 10
9.4388152143
 20
9.486472987
 30
0.0
 10
9.4386881208
 20
9.4862990187
 30
0.0
 10
9.4385321922
 20
9.4861615556
 30
0.0
 10
9.4382802096
 20
9.4860248397
 30
0.0
 10
9.4379737689
 20
9.4859727683
 30
0.0
 10
9.4376435966
 20
9.485989444
 30
0.0
 10
9.4372420765
 20
9.4860591101
 30
0.0
 10
9.436676719
 20
9.4862496374
 30
0.0
 10
9.4359361218
 20
9.4866080374
 30
0.0
 10
9.4351015638
 20
9.4871070353
 30
0.0
 10
9.434176394
 20
9.4877449628
 30
0.0
 10
9.4331646686
 20
9.4885191051
 30
0.0
 10
9.4320711012
 20
9.4894246374
 30
0.0
 10
9.4313251226
 20
9.4900825203
 30
0.0
 10
9.4309389632
 20
9.4904316611
 30
0.0
  0
SPLINE
  5
45A
100
AcDbEntity
  8
0
100
AcDbSpline
 62
9
  6
CONTINUOUS
 70
0
 71
3
 72
12
 73
8
 74
0
 42
0.0000001
 43
0.0000001
 44
0.0000000001
 40
0.0
 40
0.0
 40
0.0
 40
0.0
 40
0.1038548967
 40
0.2157819706
 40
0.4601935038
 40
0.7248614568
 40
1.0
 40
1.0
 40
1.0
 40
1.0
 10
9.4307277091
 20
9.4906235292
 30
0.0
 10
9.4302500913
 20
9.491059252
 30
0.0
 10
9.429270937
 20
9.4919790913
 30
0.0
 10
9.4272286369
 20
9.4939882876
 30
0.0
 10
9.4245540276
 20
9.4967807513
 30
0.0
 10
9.4212814719
 20
9.5004039423
 30
0.0
 10
9.4190911483
 20
9.5029528858
 30
0.0
 10
9.4179901838
 20
9.5042649273
 30
0.0
  0
SPLINE
  5
45B
100
AcDbEntity
  8
0
100
AcDbSpline
 62
9
  6
CONTINUOUS
 70
0
 71
3
 72
11
 73
7
 74
0
 42
0.0000001
 43
0.0000001
 44
0.0000000001
 40
0.0
 40
0.0
 40
0.0
 40
0.0
 40
0.2751245655
 40
0.539798729
 40
0.7842317564
 40
1.0
 40
1.0
 40
1.0
 40
1.0
 10
9.4179901838
 20
9.5042649273
 30
0.0
 10
9.4168897108
 20
9.5055764815
 30
0.0
 10
9.4147607137
 20
9.5081752393
 30
0.0
 10
9.4117615173
 20
9.5120258405
 30
0.0
 10
9.4090950481
 20
9.5156650124
 30
0.0
 10
9.4074904003
 20
9.5180385531
 30
0.0
 10
9.4067713787
 20
9.5191725179
 30
0.0
  0
SPLINE
  5
45C
100
AcDbEntity
  8
0
100
AcDbSpline
 62
9
  6
CONTINUOUS
 70
0
 71
3
 72
26
 73
22
 74
0
 42
0.0000001
 43
0.0000001
 44
0.0000000001
 40
0.0
 40
0.0
 40
0.0
 40
0.0
 40
0.1143407954
 40
0.2184199245
 40
0.3117535359
 40
0.394080877
 40
0.4652331113
 40
0.525266429
 40
0.5746702343
 40
0.5957255492
 40
0.6146222992
 40
0.6472478336
 40
0.6621514219
 40
0.6769444537
 40
0.7087357642
 40
0.7269685216
 40
0.7472257863
 40
0.7946956257
 40
0.8524119285
 40
0.92081426
 40
1.0
 40
1.0
 40
1.0
 40
1.0
 10
9.4066546511
 20
9.519357291
 30
0.0
 10
9.4063753691
 20
9.5198010394
 30
0.0
 10
9.4058521309
 20
9.5206552613
 30
0.0
 10
9.4051434535
 20
9.5218971261
 30
0.0
 10
9.4045509812
 20
9.5230353375
 30
0.0
 10
9.4040777613
 20
9.5240640329
 30
0.0
 10
9.4037260357
 20
9.5249788135
 30
0.0
 10
9.403497863
 20
9.5257761121
 30
0.0
 10
9.4034056008
 20
9.5263701963
 30
0.0
 10
9.4034045048
 20
9.5267809797
 30
0.0
 10
9.4034436115
 20
9.52711167
 30
0.0
 10
9.4035465107
 20
9.5274070151
 30
0.0
 10
9.4037241787
 20
9.5276337846
 30
0.0
 10
9.403945095
 20
9.5278127094
 30
0.0
 10
9.4042332268
 20
9.5279153334
 30
0.0
 10
9.4045538717
 20
9.527950574
 30
0.0
 10
9.4049490848
 20
9.5279431636
 30
0.0
 10
9.4055180023
 20
9.527838866
 30
0.0
 10
9.4062758247
 20
9.5275909148
 30
0.0
 10
9.4071396745
 20
9.5272138959
 30
0.0
 10
9.4077395867
 20
9.5268995856
 30
0.0
 10
9.408056704
 20
9.5267227023
 30
0.0
  0
SPLINE
  5
45D
100
AcDbEntity
  8
0
100
AcDbSpline
 62
9
  6
CONTINUOUS
 70
0
 71
3
 72
27
 73
23
 74
0
 42
0.0000001
 43
0.0000001
 44
0.0000000001
 40
0.0
 40
0.0
 40
0.0
 40
0.0
 40
0.07939194
 40
0.147969046
 40
0.2058492506
 40
0.2535157042
 40
0.2738705848
 40
0.2921916182
 40
0.3088303415
 40
0.3242657041
 40
0.339102864
 40
0.3540289534
 40
0.3866276377
 40
0.405477414
 40
0.4264722129
 40
0.4757536163
 40
0.535661367
 40
0.6066147229
 40
0.6887425241
 40
0.781946062
 40
0.8858520401
 40
1.0
 40
1.0
 40
1.0
 40
1.0
 10
9.2519745348
 20
9.71273206
 30
0.0
 10
9.2520933037
 20
9.7123900106
 30
0.0
 10
9.2522982105
 20
9.711746529
 30
0.0
 10
9.252518915
 20
9.7108328718
 30
0.0
 10
9.2526312046
 20
9.710045422
 30
0.0
 10
9.2526357304
 20
9.709468018
 30
0.0
 10
9.2525756802
 20
9.7090779744
 30
0.0
 10
9.2525052662
 20
9.7088348353
 30
0.0
 10
9.2524068075
 20
9.7086258755
 30
0.0
 10
9.252279714
 20
9.7084519072
 30
0.0
 10
9.2521237854
 20
9.7083144441
 30
0.0
 10
9.2518718028
 20
9.7081777282
 30
0.0
 10
9.251565362
 20
9.7081256568
 30
0.0
 10
9.2512351898
 20
9.7081423325
 30
0.0
 10
9.2508336697
 20
9.7082119986
 30
0.0
 10
9.2502683122
 20
9.7084025259
 30
0.0
 10
9.249527715
 20
9.7087609259
 30
0.0
 10
9.2486931569
 20
9.7092599238
 30
0.0
 10
9.2477679872
 20
9.7098978513
 30
0.0
 10
9.2467562618
 20
9.7106719936
 30
0.0
 10
9.2456626944
 20
9.7115775259
 30
0.0
 10
9.2449167158
 20
9.7122354088
 30
0.0
 10
9.2445305563
 20
9.7125845496
 30
0.0
  0
SPLINE
  5
45E
100
AcDbEntity
  8
0
100
AcDbSpline
 62
9
  6
CONTINUOUS
 70
0
 71
3
 72
12
 73
8
 74
0
 42
0.0000001
 43
0.0000001
 44
0.0000000001
 40
0.0
 40
0.0
 40
0.0
 40
0.0
 40
0.1038548967
 40
0.2157819706
 40
0.4601935038
 40
0.7248614568
 40
1.0
 40
1.0
 40
1.0
 40
1.0
 10
9.2443193023
 20
9.7127764177
 30
0.0
 10
9.2438416845
 20
9.7132121405
 30
0.0
 10
9.2428625302
 20
9.7141319798
 30
0.0
 10
9.2408202301
 20
9.7161411761
 30
0.0
 10
9.2381456208
 20
9.7189336398
 30
0.0
 10
9.2348730651
 20
9.7225568308
 30
0.0
 10
9.2326827415
 20
9.7251057743
 30
0.0
 10
9.2315817769
 20
9.7264178158
 30
0.0
  0
SPLINE
  5
45F
100
AcDbEntity
  8
0
100
AcDbSpline
 62
9
  6
CONTINUOUS
 70
0
 71
3
 72
11
 73
7
 74
0
 42
0.0000001
 43
0.0000001
 44
0.0000000001
 40
0.0
 40
0.0
 40
0.0
 40
0.0
 40
0.2751245655
 40
0.539798729
 40
0.7842317564
 40
1.0
 40
1.0
 40
1.0
 40
1.0
 10
9.2315817769
 20
9.7264178158
 30
0.0
 10
9.230481304
 20
9.72772937
 30
0.0
 10
9.2283523069
 20
9.7303281278
 30
0.0
 10
9.2253531105
 20
9.734178729
 30
0.0
 10
9.2226866413
 20
9.7378179009
 30
0.0
 10
9.2210819935
 20
9.7401914416
 30
0.0
 10
9.2203629719
 20
9.7413254064
 30
0.0
  0
SPLINE
  5
460
100
AcDbEntity
  8
0
100
AcDbSpline
 62
9
  6
CONTINUOUS
 70
0
 71
3
 72
26
 73
22
 74
0
 42
0.0000001
 43
0.0000001
 44
0.0000000001
 40
0.0
 40
0.0
 40
0.0
 40
0.0
 40
0.1143407954
 40
0.2184199245
 40
0.3117535359
 40
0.394080877
 40
0.4652331113
 40
0.525266429
 40
0.5746702343
 40
0.5957255492
 40
0.6146222992
 40
0.6472478336
 40
0.6621514219
 40
0.6769444537
 40
0.7087357642
 40
0.7269685216
 40
0.7472257863
 40
0.7946956257
 40
0.8524119285
 40
0.92081426
 40
1.0
 40
1.0
 40
1.0
 40
1.0
 10
9.2202462443
 20
9.7415101795
 30
0.0
 10
9.2199669623
 20
9.7419539279
 30
0.0
 10
9.2194437241
 20
9.7428081498
 30
0.0
 10
9.2187350467
 20
9.7440500146
 30
0.0
 10
9.2181425744
 20
9.745188226
 30
0.0
 10
9.2176693544
 20
9.7462169214
 30
0.0
 10
9.2173176289
 20
9.747131702
 30
0.0
 10
9.2170894562
 20
9.7479290006
 30
0.0
 10
9.216997194
 20
9.7485230848
 30
0.0
 10
9.216996098
 20
9.7489338682
 30
0.0
 10
9.2170352047
 20
9.7492645585
 30
0.0
 10
9.2171381039
 20
9.7495599036
 30
0.0
 10
9.2173157719
 20
9.7497866731
 30
0.0
 10
9.2175366882
 20
9.7499655979
 30
0.0
 10
9.21782482
 20
9.7500682219
 30
0.0
 10
9.2181454649
 20
9.7501034625
 30
0.0
 10
9.218540678
 20
9.7500960521
 30
0.0
 10
9.2191095955
 20
9.7499917546
 30
0.0
 10
9.2198674179
 20
9.7497438033
 30
0.0
 10
9.2207312677
 20
9.7493667844
 30
0.0
 10
9.2213311799
 20
9.7490524741
 30
0.0
 10
9.2216482972
 20
9.7488755908
 30
0.0
  0
SPLINE
  5
461
100
AcDbEntity
  8
0
100
AcDbSpline
 62
9
  6
CONTINUOUS
 70
0
 71
3
 72
27
 73
23
 74
0
 42
0.0000001
 43
0.0000001
 44
0.0000000001
 40
0.0
 40
0.0
 40
0.0
 40
0.0
 40
0.07939194
 40
0.147969046
 40
0.2058492506
 40
0.2535157042
 40
0.2738705848
 40
0.2921916182
 40
0.3088303415
 40
0.3242657041
 40
0.339102864
 40
0.3540289534
 40
0.3866276377
 40
0.405477414
 40
0.4264722129
 40
0.4757536163
 40
0.535661367
 40
0.6066147229
 40
0.6887425241
 40
0.781946062
 40
0.8858520401
 40
1.0
 40
1.0
 40
1.0
 40
1.0
 10
9.065566128
 20
9.9348849485
 30
0.0
 10
9.0656848969
 20
9.9345428991
 30
0.0
 10
9.0658898037
 20
9.9338994175
 30
0.0
 10
9.0661105082
 20
9.9329857603
 30
0.0
 10
9.0662227978
 20
9.9321983105
 30
0.0
 10
9.0662273236
 20
9.9316209066
 30
0.0
 10
9.0661672734
 20
9.9312308629
 30
0.0
 10
9.0660968594
 20
9.9309877238
 30
0.0
 10
9.0659984007
 20
9.930778764
 30
0.0
 10
9.0658713072
 20
9.9306047957
 30
0.0
 10
9.0657153786
 20
9.9304673326
 30
0.0
 10
9.065463396
 20
9.9303306167
 30
0.0
 10
9.0651569552
 20
9.9302785453
 30
0.0
 10
9.064826783
 20
9.930295221
 30
0.0
 10
9.0644252629
 20
9.9303648871
 30
0.0
 10
9.0638599053
 20
9.9305554144
 30
0.0
 10
9.0631193082
 20
9.9309138144
 30
0.0
 10
9.0622847501
 20
9.9314128123
 30
0.0
 10
9.0613595804
 20
9.9320507398
 30
0.0
 10
9.060347855
 20
9.9328248821
 30
0.0
 10
9.0592542876
 20
9.9337304144
 30
0.0
 10
9.058508309
 20
9.9343882973
 30
0.0
 10
9.0581221495
 20
9.9347374381
 30
0.0
  0
SPLINE
  5
462
100
AcDbEntity
  8
0
100
AcDbSpline
 62
9
  6
CONTINUOUS
 70
0
 71
3
 72
12
 73
8
 74
0
 42
0.0000001
 43
0.0000001
 44
0.0000000001
 40
0.0
 40
0.0
 40
0.0
 40
0.0
 40
0.1038548967
 40
0.2157819706
 40
0.4601935038
 40
0.7248614568
 40
1.0
 40
1.0
 40
1.0
 40
1.0
 10
9.0579108955
 20
9.9349293062
 30
0.0
 10
9.0574332777
 20
9.935365029
 30
0.0
 10
9.0564541233
 20
9.9362848683
 30
0.0
 10
9.0544118233
 20
9.9382940646
 30
0.0
 10
9.051737214
 20
9.9410865283
 30
0.0
 10
9.0484646583
 20
9.9447097193
 30
0.0
 10
9.0462743347
 20
9.9472586628
 30
0.0
 10
9.0451733701
 20
9.9485707043
 30
0.0
  0
SPLINE
  5
463
100
AcDbEntity
  8
0
100
AcDbSpline
 62
9
  6
CONTINUOUS
 70
0
 71
3
 72
11
 73
7
 74
0
 42
0.0000001
 43
0.0000001
 44
0.0000000001
 40
0.0
 40
0.0
 40
0.0
 40
0.0
 40
0.2751245655
 40
0.539798729
 40
0.7842317564
 40
1.0
 40
1.0
 40
1.0
 40
1.0
 10
9.0451733701
 20
9.9485707043
 30
0.0
 10
9.0440728972
 20
9.9498822585
 30
0.0
 10
9.0419439001
 20
9.9524810163
 30
0.0
 10
9.0389447037
 20
9.9563316175
 30
0.0
 10
9.0362782345
 20
9.9599707894
 30
0.0
 10
9.0346735867
 20
9.9623443301
 30
0.0
 10
9.0339545651
 20
9.9634782949
 30
0.0
  0
SPLINE
  5
464
100
AcDbEntity
  8
0
100
AcDbSpline
 62
9
  6
CONTINUOUS
 70
0
 71
3
 72
26
 73
22
 74
0
 42
0.0000001
 43
0.0000001
 44
0.0000000001
 40
0.0
 40
0.0
 40
0.0
 40
0.0
 40
0.1143407954
 40
0.2184199245
 40
0.3117535359
 40
0.394080877
 40
0.4652331113
 40
0.525266429
 40
0.5746702343
 40
0.5957255492
 40
0.6146222992
 40
0.6472478336
 40
0.6621514219
 40
0.6769444537
 40
0.7087357642
 40
0.7269685216
 40
0.7472257863
 40
0.7946956257
 40
0.8524119285
 40
0.92081426
 40
1.0
 40
1.0
 40
1.0
 40
1.0
 10
9.0338378374
 20
9.963663068
 30
0.0
 10
9.0335585555
 20
9.9641068164
 30
0.0
 10
9.0330353173
 20
9.9649610383
 30
0.0
 10
9.0323266399
 20
9.9662029031
 30
0.0
 10
9.0317341676
 20
9.9673411145
 30
0.0
 10
9.0312609476
 20
9.9683698099
 30
0.0
 10
9.0309092221
 20
9.9692845905
 30
0.0
 10
9.0306810494
 20
9.9700818891
 30
0.0
 10
9.0305887872
 20
9.9706759733
 30
0.0
 10
9.0305876912
 20
9.9710867567
 30
0.0
 10
9.0306267979
 20
9.9714174471
 30
0.0
 10
9.0307296971
 20
9.9717127921
 30
0.0
 10
9.0309073651
 20
9.9719395616
 30
0.0
 10
9.0311282814
 20
9.9721184865
 30
0.0
 10
9.0314164132
 20
9.9722211104
 30
0.0
 10
9.0317370581
 20
9.972256351
 30
0.0
 10
9.0321322712
 20
9.9722489406
 30
0.0
 10
9.0327011887
 20
9.9721446431
 30
0.0
 10
9.0334590111
 20
9.9718966918
 30
0.0
 10
9.0343228609
 20
9.9715196729
 30
0.0
 10
9.0349227731
 20
9.9712053626
 30
0.0
 10
9.0352398904
 20
9.9710284793
 30
0.0
  0
SPLINE
  5
465
100
AcDbEntity
  8
0
100
AcDbSpline
 62
9
  6
CONTINUOUS
 70
0
 71
3
 72
27
 73
23
 74
0
 42
0.0000001
 43
0.0000001
 44
0.0000000001
 40
0.0
 40
0.0
 40
0.0
 40
0.0
 40
0.07939194
 40
0.147969046
 40
0.2058492506
 40
0.2535157042
 40
0.2738705848
 40
0.2921916182
 40
0.3088303415
 40
0.3242657041
 40
0.339102864
 40
0.3540289534
 40
0.3866276377
 40
0.405477414
 40
0.4264722129
 40
0.4757536163
 40
0.535661367
 40
0.6066147229
 40
0.6887425241
 40
0.781946062
 40
0.8858520401
 40
1.0
 40
1.0
 40
1.0
 40
1.0
 10
8.8791577212
 20
10.157037837
 30
0.0
 10
8.8792764901
 20
10.1566957876
 30
0.0
 10
8.8794813969
 20
10.156052306
 30
0.0
 10
8.8797021013
 20
10.1551386488
 30
0.0
 10
8.879814391
 20
10.154351199
 30
0.0
 10
8.8798189168
 20
10.1537737951
 30
0.0
 10
8.8797588666
 20
10.1533837514
 30
0.0
 10
8.8796884526
 20
10.1531406123
 30
0.0
 10
8.8795899939
 20
10.1529316525
 30
0.0
 10
8.8794629003
 20
10.1527576842
 30
0.0
 10
8.8793069718
 20
10.1526202211
 30
0.0
 10
8.8790549891
 20
10.1524835052
 30
0.0
 10
8.8787485484
 20
10.1524314338
 30
0.0
 10
8.8784183762
 20
10.1524481095
 30
0.0
 10
8.8780168561
 20
10.1525177756
 30
0.0
 10
8.8774514985
 20
10.1527083029
 30
0.0
 10
8.8767109014
 20
10.1530667029
 30
0.0
 10
8.8758763433
 20
10.1535657008
 30
0.0
 10
8.8749511736
 20
10.1542036283
 30
0.0
 10
8.8739394482
 20
10.1549777706
 30
0.0
 10
8.8728458808
 20
10.1558833029
 30
0.0
 10
8.8720999022
 20
10.1565411858
 30
0.0
 10
8.8717137427
 20
10.1568903266
 30
0.0
  0
SPLINE
  5
466
100
AcDbEntity
  8
0
100
AcDbSpline
 62
9
  6
CONTINUOUS
 70
0
 71
3
 72
12
 73
8
 74
0
 42
0.0000001
 43
0.0000001
 44
0.0000000001
 40
0.0
 40
0.0
 40
0.0
 40
0.0
 40
0.1038548967
 40
0.2157819706
 40
0.4601935038
 40
0.7248614568
 40
1.0
 40
1.0
 40
1.0
 40
1.0
 10
8.8715024887
 20
10.1570821947
 30
0.0
 10
8.8710248709
 20
10.1575179175
 30
0.0
 10
8.8700457165
 20
10.1584377568
 30
0.0
 10
8.8680034165
 20
10.1604469531
 30
0.0
 10
8.8653288072
 20
10.1632394168
 30
0.0
 10
8.8620562515
 20
10.1668626078
 30
0.0
 10
8.8598659278
 20
10.1694115513
 30
0.0
 10
8.8587649633
 20
10.1707235928
 30
0.0
  0
SPLINE
  5
467
100
AcDbEntity
  8
0
100
AcDbSpline
 62
9
  6
CONTINUOUS
 70
0
 71
3
 72
11
 73
7
 74
0
 42
0.0000001
 43
0.0000001
 44
0.0000000001
 40
0.0
 40
0.0
 40
0.0
 40
0.0
 40
0.2751245655
 40
0.539798729
 40
0.7842317564
 40
1.0
 40
1.0
 40
1.0
 40
1.0
 10
8.8587649633
 20
10.1707235928
 30
0.0
 10
8.8576644904
 20
10.172035147
 30
0.0
 10
8.8555354933
 20
10.1746339048
 30
0.0
 10
8.8525362968
 20
10.178484506
 30
0.0
 10
8.8498698277
 20
10.1821236779
 30
0.0
 10
8.8482651799
 20
10.1844972186
 30
0.0
 10
8.8475461583
 20
10.1856311834
 30
0.0
  0
SPLINE
  5
468
100
AcDbEntity
  8
0
100
AcDbSpline
 62
9
  6
CONTINUOUS
 70
0
 71
3
 72
26
 73
22
 74
0
 42
0.0000001
 43
0.0000001
 44
0.0000000001
 40
0.0
 40
0.0
 40
0.0
 40
0.0
 40
0.1143407954
 40
0.2184199245
 40
0.3117535359
 40
0.394080877
 40
0.4652331113
 40
0.525266429
 40
0.5746702343
 40
0.5957255492
 40
0.6146222992
 40
0.6472478336
 40
0.6621514219
 40
0.6769444537
 40
0.7087357642
 40
0.7269685216
 40
0.7472257863
 40
0.7946956257
 40
0.8524119285
 40
0.92081426
 40
1.0
 40
1.0
 40
1.0
 40
1.0
 10
8.8474294306
 20
10.1858159565
 30
0.0
 10
8.8471501487
 20
10.1862597049
 30
0.0
 10
8.8466269105
 20
10.1871139268
 30
0.0
 10
8.8459182331
 20
10.1883557916
 30
0.0
 10
8.8453257608
 20
10.1894940031
 30
0.0
 10
8.8448525408
 20
10.1905226984
 30
0.0
 10
8.8445008153
 20
10.191437479
 30
0.0
 10
8.8442726426
 20
10.1922347776
 30
0.0
 10
8.8441803804
 20
10.1928288618
 30
0.0
 10
8.8441792844
 20
10.1932396452
 30
0.0
 10
8.8442183911
 20
10.1935703356
 30
0.0
 10
8.8443212903
 20
10.1938656806
 30
0.0
 10
8.8444989583
 20
10.1940924501
 30
0.0
 10
8.8447198746
 20
10.194271375
 30
0.0
 10
8.8450080064
 20
10.1943739989
 30
0.0
 10
8.8453286513
 20
10.1944092395
 30
0.0
 10
8.8457238644
 20
10.1944018291
 30
0.0
 10
8.8462927819
 20
10.1942975316
 30
0.0
 10
8.8470506042
 20
10.1940495803
 30
0.0
 10
8.8479144541
 20
10.1936725614
 30
0.0
 10
8.8485143663
 20
10.1933582511
 30
0.0
 10
8.8488314836
 20
10.1931813679
 30
0.0
  0
SPLINE
  5
469
100
AcDbEntity
  8
0
100
AcDbSpline
 62
9
  6
CONTINUOUS
 70
0
 71
3
 72
27
 73
23
 74
0
 42
0.0000001
 43
0.0000001
 44
0.0000000001
 40
0.0
 40
0.0
 40
0.0
 40
0.0
 40
0.07939194
 40
0.147969046
 40
0.2058492506
 40
0.2535157042
 40
0.2738705848
 40
0.2921916182
 40
0.3088303415
 40
0.3242657041
 40
0.339102864
 40
0.3540289534
 40
0.3866276377
 40
0.405477414
 40
0.4264722129
 40
0.4757536163
 40
0.535661367
 40
0.6066147229
 40
0.6887425241
 40
0.781946062
 40
0.8858520401
 40
1.0
 40
1.0
 40
1.0
 40
1.0
 10
8.6927493144
 20
10.3791907255
 30
0.0
 10
8.6928680833
 20
10.3788486761
 30
0.0
 10
8.6930729901
 20
10.3782051945
 30
0.0
 10
8.6932936945
 20
10.3772915373
 30
0.0
 10
8.6934059842
 20
10.3765040875
 30
0.0
 10
8.69341051
 20
10.3759266836
 30
0.0
 10
8.6933504598
 20
10.3755366399
 30
0.0
 10
8.6932800458
 20
10.3752935008
 30
0.0
 10
8.6931815871
 20
10.3750845411
 30
0.0
 10
8.6930544935
 20
10.3749105727
 30
0.0
 10
8.692898565
 20
10.3747731096
 30
0.0
 10
8.6926465823
 20
10.3746363937
 30
0.0
 10
8.6923401416
 20
10.3745843223
 30
0.0
 10
8.6920099693
 20
10.374600998
 30
0.0
 10
8.6916084493
 20
10.3746706641
 30
0.0
 10
8.6910430917
 20
10.3748611914
 30
0.0
 10
8.6903024946
 20
10.3752195914
 30
0.0
 10
8.6894679365
 20
10.3757185893
 30
0.0
 10
8.6885427668
 20
10.3763565168
 30
0.0
 10
8.6875310414
 20
10.3771306591
 30
0.0
 10
8.686437474
 20
10.3780361914
 30
0.0
 10
8.6856914954
 20
10.3786940743
 30
0.0
 10
8.6853053359
 20
10.3790432151
 30
0.0
  0
SPLINE
  5
46A
100
AcDbEntity
  8
0
100
AcDbSpline
 62
9
  6
CONTINUOUS
 70
0
 71
3
 72
12
 73
8
 74
0
 42
0.0000001
 43
0.0000001
 44
0.0000000001
 40
0.0
 40
0.0
 40
0.0
 40
0.0
 40
0.1038548967
 40
0.2157819706
 40
0.4601935038
 40
0.7248614568
 40
1.0
 40
1.0
 40
1.0
 40
1.0
 10
8.6850940819
 20
10.3792350832
 30
0.0
 10
8.6846164641
 20
10.379670806
 30
0.0
 10
8.6836373097
 20
10.3805906453
 30
0.0
 10
8.6815950097
 20
10.3825998416
 30
0.0
 10
8.6789204004
 20
10.3853923053
 30
0.0
 10
8.6756478446
 20
10.3890154963
 30
0.0
 10
8.673457521
 20
10.3915644398
 30
0.0
 10
8.6723565565
 20
10.3928764813
 30
0.0
  0
SPLINE
  5
46B
100
AcDbEntity
  8
0
100
AcDbSpline
 62
9
  6
CONTINUOUS
 70
0
 71
3
 72
11
 73
7
 74
0
 42
0.0000001
 43
0.0000001
 44
0.0000000001
 40
0.0
 40
0.0
 40
0.0
 40
0.0
 40
0.2751245655
 40
0.539798729
 40
0.7842317564
 40
1.0
 40
1.0
 40
1.0
 40
1.0
 10
8.6723565565
 20
10.3928764813
 30
0.0
 10
8.6712560836
 20
10.3941880355
 30
0.0
 10
8.6691270865
 20
10.3967867933
 30
0.0
 10
8.66612789
 20
10.4006373945
 30
0.0
 10
8.6634614209
 20
10.4042765664
 30
0.0
 10
8.6618567731
 20
10.4066501071
 30
0.0
 10
8.6611377514
 20
10.4077840719
 30
0.0
  0
SPLINE
  5
46C
100
AcDbEntity
  8
0
100
AcDbSpline
 62
9
  6
CONTINUOUS
 70
0
 71
3
 72
26
 73
22
 74
0
 42
0.0000001
 43
0.0000001
 44
0.0000000001
 40
0.0
 40
0.0
 40
0.0
 40
0.0
 40
0.1143407954
 40
0.2184199245
 40
0.3117535359
 40
0.394080877
 40
0.4652331113
 40
0.525266429
 40
0.5746702343
 40
0.5957255492
 40
0.6146222992
 40
0.6472478336
 40
0.6621514219
 40
0.6769444537
 40
0.7087357642
 40
0.7269685216
 40
0.7472257863
 40
0.7946956257
 40
0.8524119285
 40
0.92081426
 40
1.0
 40
1.0
 40
1.0
 40
1.0
 10
8.6610210238
 20
10.407968845
 30
0.0
 10
8.6607417419
 20
10.4084125934
 30
0.0
 10
8.6602185037
 20
10.4092668153
 30
0.0
 10
8.6595098262
 20
10.4105086801
 30
0.0
 10
8.658917354
 20
10.4116468916
 30
0.0
 10
8.658444134
 20
10.4126755869
 30
0.0
 10
8.6580924084
 20
10.4135903675
 30
0.0
 10
8.6578642358
 20
10.4143876662
 30
0.0
 10
8.6577719736
 20
10.4149817503
 30
0.0
 10
8.6577708776
 20
10.4153925337
 30
0.0
 10
8.6578099842
 20
10.4157232241
 30
0.0
 10
8.6579128835
 20
10.4160185691
 30
0.0
 10
8.6580905514
 20
10.4162453386
 30
0.0
 10
8.6583114678
 20
10.4164242635
 30
0.0
 10
8.6585995996
 20
10.4165268874
 30
0.0
 10
8.6589202445
 20
10.416562128
 30
0.0
 10
8.6593154576
 20
10.4165547176
 30
0.0
 10
8.6598843751
 20
10.4164504201
 30
0.0
 10
8.6606421974
 20
10.4162024688
 30
0.0
 10
8.6615060473
 20
10.4158254499
 30
0.0
 10
8.6621059595
 20
10.4155111396
 30
0.0
 10
8.6624230768
 20
10.4153342564
 30
0.0
  0
SPLINE
  5
46D
100
AcDbEntity
  8
0
100
AcDbSpline
 62
9
  6
CONTINUOUS
 70
0
 71
3
 72
27
 73
23
 74
0
 42
0.0000001
 43
0.0000001
 44
0.0000000001
 40
0.0
 40
0.0
 40
0.0
 40
0.0
 40
0.07939194
 40
0.147969046
 40
0.2058492506
 40
0.2535157042
 40
0.2738705848
 40
0.2921916182
 40
0.3088303415
 40
0.3242657041
 40
0.339102864
 40
0.3540289534
 40
0.3866276377
 40
0.405477414
 40
0.4264722129
 40
0.4757536163
 40
0.535661367
 40
0.6066147229
 40
0.6887425241
 40
0.781946062
 40
0.8858520401
 40
1.0
 40
1.0
 40
1.0
 40
1.0
 10
8.5063409076
 20
10.601343614
 30
0.0
 10
8.5064596764
 20
10.6010015646
 30
0.0
 10
8.5066645833
 20
10.600358083
 30
0.0
 10
8.5068852877
 20
10.5994444258
 30
0.0
 10
8.5069975774
 20
10.598656976
 30
0.0
 10
8.5070021031
 20
10.5980795721
 30
0.0
 10
8.506942053
 20
10.5976895284
 30
0.0
 10
8.506871639
 20
10.5974463893
 30
0.0
 10
8.5067731803
 20
10.5972374296
 30
0.0
 10
8.5066460867
 20
10.5970634612
 30
0.0
 10
8.5064901582
 20
10.5969259981
 30
0.0
 10
8.5062381755
 20
10.5967892822
 30
0.0
 10
8.5059317348
 20
10.5967372108
 30
0.0
 10
8.5056015625
 20
10.5967538865
 30
0.0
 10
8.5052000425
 20
10.5968235526
 30
0.0
 10
8.5046346849
 20
10.5970140799
 30
0.0
 10
8.5038940878
 20
10.5973724799
 30
0.0
 10
8.5030595297
 20
10.5978714778
 30
0.0
 10
8.50213436
 20
10.5985094053
 30
0.0
 10
8.5011226346
 20
10.5992835476
 30
0.0
 10
8.5000290672
 20
10.6001890799
 30
0.0
 10
8.4992830886
 20
10.6008469628
 30
0.0
 10
8.4988969291
 20
10.6011961036
 30
0.0
  0
SPLINE
  5
46E
100
AcDbEntity
  8
0
100
AcDbSpline
 62
9
  6
CONTINUOUS
 70
0
 71
3
 72
12
 73
8
 74
0
 42
0.0000001
 43
0.0000001
 44
0.0000000001
 40
0.0
 40
0.0
 40
0.0
 40
0.0
 40
0.1038548967
 40
0.2157819706
 40
0.4601935038
 40
0.7248614568
 40
1.0
 40
1.0
 40
1.0
 40
1.0
 10
8.4986856751
 20
10.6013879717
 30
0.0
 10
8.4982080573
 20
10.6018236945
 30
0.0
 10
8.4972289029
 20
10.6027435338
 30
0.0
 10
8.4951866029
 20
10.6047527301
 30
0.0
 10
8.4925119936
 20
10.6075451938
 30
0.0
 10
8.4892394378
 20
10.6111683848
 30
0.0
 10
8.4870491142
 20
10.6137173283
 30
0.0
 10
8.4859481497
 20
10.6150293698
 30
0.0
  0
SPLINE
  5
46F
100
AcDbEntity
  8
0
100
AcDbSpline
 62
9
  6
CONTINUOUS
 70
0
 71
3
 72
11
 73
7
 74
0
 42
0.0000001
 43
0.0000001
 44
0.0000000001
 40
0.0
 40
0.0
 40
0.0
 40
0.0
 40
0.2751245655
 40
0.539798729
 40
0.7842317564
 40
1.0
 40
1.0
 40
1.0
 40
1.0
 10
8.4859481497
 20
10.6150293698
 30
0.0
 10
8.4848476768
 20
10.616340924
 30
0.0
 10
8.4827186796
 20
10.6189396818
 30
0.0
 10
8.4797194832
 20
10.622790283
 30
0.0
 10
8.4770530141
 20
10.6264294549
 30
0.0
 10
8.4754483663
 20
10.6288029956
 30
0.0
 10
8.4747293446
 20
10.6299369604
 30
0.0
  0
SPLINE
  5
470
100
AcDbEntity
  8
0
100
AcDbSpline
 62
9
  6
CONTINUOUS
 70
0
 71
3
 72
26
 73
22
 74
0
 42
0.0000001
 43
0.0000001
 44
0.0000000001
 40
0.0
 40
0.0
 40
0.0
 40
0.0
 40
0.1143407954
 40
0.2184199245
 40
0.3117535359
 40
0.394080877
 40
0.4652331113
 40
0.525266429
 40
0.5746702343
 40
0.5957255492
 40
0.6146222992
 40
0.6472478336
 40
0.6621514219
 40
0.6769444537
 40
0.7087357642
 40
0.7269685216
 40
0.7472257863
 40
0.7946956257
 40
0.8524119285
 40
0.92081426
 40
1.0
 40
1.0
 40
1.0
 40
1.0
 10
8.474612617
 20
10.6301217335
 30
0.0
 10
8.4743333351
 20
10.6305654819
 30
0.0
 10
8.4738100969
 20
10.6314197038
 30
0.0
 10
8.4731014194
 20
10.6326615686
 30
0.0
 10
8.4725089472
 20
10.6337997801
 30
0.0
 10
8.4720357272
 20
10.6348284755
 30
0.0
 10
8.4716840016
 20
10.635743256
 30
0.0
 10
8.471455829
 20
10.6365405547
 30
0.0
 10
8.4713635668
 20
10.6371346388
 30
0.0
 10
8.4713624708
 20
10.6375454223
 30
0.0
 10
8.4714015774
 20
10.6378761126
 30
0.0
 10
8.4715044767
 20
10.6381714576
 30
0.0
 10
8.4716821446
 20
10.6383982271
 30
0.0
 10
8.471903061
 20
10.638577152
 30
0.0
 10
8.4721911928
 20
10.6386797759
 30
0.0
 10
8.4725118376
 20
10.6387150166
 30
0.0
 10
8.4729070508
 20
10.6387076062
 30
0.0
 10
8.4734759683
 20
10.6386033086
 30
0.0
 10
8.4742337906
 20
10.6383553573
 30
0.0
 10
8.4750976405
 20
10.6379783384
 30
0.0
 10
8.4756975527
 20
10.6376640281
 30
0.0
 10
8.47601467
 20
10.6374871449
 30
0.0
  0
SPLINE
  5
471
100
AcDbEntity
  8
0
100
AcDbSpline
 62
9
  6
CONTINUOUS
 70
0
 71
3
 72
27
 73
23
 74
0
 42
0.0000001
 43
0.0000001
 44
0.0000000001
 40
0.0
 40
0.0
 40
0.0
 40
0.0
 40
0.07939194
 40
0.147969046
 40
0.2058492506
 40
0.2535157042
 40
0.2738705848
 40
0.2921916182
 40
0.3088303415
 40
0.3242657041
 40
0.339102864
 40
0.3540289534
 40
0.3866276377
 40
0.405477414
 40
0.4264722129
 40
0.4757536163
 40
0.535661367
 40
0.6066147229
 40
0.6887425241
 40
0.781946062
 40
0.8858520401
 40
1.0
 40
1.0
 40
1.0
 40
1.0
 10
8.3199325007
 20
10.8234965025
 30
0.0
 10
8.3200512696
 20
10.8231544531
 30
0.0
 10
8.3202561765
 20
10.8225109715
 30
0.0
 10
8.3204768809
 20
10.8215973143
 30
0.0
 10
8.3205891706
 20
10.8208098645
 30
0.0
 10
8.3205936963
 20
10.8202324606
 30
0.0
 10
8.3205336462
 20
10.8198424169
 30
0.0
 10
8.3204632322
 20
10.8195992778
 30
0.0
 10
8.3203647735
 20
10.8193903181
 30
0.0
 10
8.3202376799
 20
10.8192163497
 30
0.0
 10
8.3200817514
 20
10.8190788866
 30
0.0
 10
8.3198297687
 20
10.8189421707
 30
0.0
 10
8.319523328
 20
10.8188900993
 30
0.0
 10
8.3191931557
 20
10.818906775
 30
0.0
 10
8.3187916357
 20
10.8189764411
 30
0.0
 10
8.3182262781
 20
10.8191669684
 30
0.0
 10
8.317485681
 20
10.8195253684
 30
0.0
 10
8.3166511229
 20
10.8200243663
 30
0.0
 10
8.3157259532
 20
10.8206622938
 30
0.0
 10
8.3147142278
 20
10.8214364361
 30
0.0
 10
8.3136206604
 20
10.8223419685
 30
0.0
 10
8.3128746817
 20
10.8229998513
 30
0.0
 10
8.3124885223
 20
10.8233489921
 30
0.0
  0
SPLINE
  5
472
100
AcDbEntity
  8
0
100
AcDbSpline
 62
9
  6
CONTINUOUS
 70
0
 71
3
 72
12
 73
8
 74
0
 42
0.0000001
 43
0.0000001
 44
0.0000000001
 40
0.0
 40
0.0
 40
0.0
 40
0.0
 40
0.1038548967
 40
0.2157819706
 40
0.4601935038
 40
0.7248614568
 40
1.0
 40
1.0
 40
1.0
 40
1.0
 10
8.3122772683
 20
10.8235408602
 30
0.0
 10
8.3117996505
 20
10.8239765831
 30
0.0
 10
8.3108204961
 20
10.8248964223
 30
0.0
 10
8.3087781961
 20
10.8269056186
 30
0.0
 10
8.3061035868
 20
10.8296980823
 30
0.0
 10
8.302831031
 20
10.8333212733
 30
0.0
 10
8.3006407074
 20
10.8358702168
 30
0.0
 10
8.2995397429
 20
10.8371822583
 30
0.0
  0
SPLINE
  5
473
100
AcDbEntity
  8
0
100
AcDbSpline
 62
9
  6
CONTINUOUS
 70
0
 71
3
 72
11
 73
7
 74
0
 42
0.0000001
 43
0.0000001
 44
0.0000000001
 40
0.0
 40
0.0
 40
0.0
 40
0.0
 40
0.2751245655
 40
0.539798729
 40
0.7842317564
 40
1.0
 40
1.0
 40
1.0
 40
1.0
 10
8.2995397429
 20
10.8371822583
 30
0.0
 10
8.29843927
 20
10.8384938125
 30
0.0
 10
8.2963102728
 20
10.8410925703
 30
0.0
 10
8.2933110764
 20
10.8449431715
 30
0.0
 10
8.2906446073
 20
10.8485823434
 30
0.0
 10
8.2890399595
 20
10.8509558841
 30
0.0
 10
8.2883209378
 20
10.8520898489
 30
0.0
  0
SPLINE
  5
474
100
AcDbEntity
  8
0
100
AcDbSpline
 62
9
  6
CONTINUOUS
 70
0
 71
3
 72
26
 73
22
 74
0
 42
0.0000001
 43
0.0000001
 44
0.0000000001
 40
0.0
 40
0.0
 40
0.0
 40
0.0
 40
0.1143407954
 40
0.2184199245
 40
0.3117535359
 40
0.394080877
 40
0.4652331113
 40
0.525266429
 40
0.5746702343
 40
0.5957255492
 40
0.6146222992
 40
0.6472478336
 40
0.6621514219
 40
0.6769444537
 40
0.7087357642
 40
0.7269685216
 40
0.7472257863
 40
0.7946956257
 40
0.8524119285
 40
0.92081426
 40
1.0
 40
1.0
 40
1.0
 40
1.0
 10
8.2882042102
 20
10.852274622
 30
0.0
 10
8.2879249283
 20
10.8527183704
 30
0.0
 10
8.2874016901
 20
10.8535725923
 30
0.0
 10
8.2866930126
 20
10.8548144571
 30
0.0
 10
8.2861005404
 20
10.8559526686
 30
0.0
 10
8.2856273204
 20
10.856981364
 30
0.0
 10
8.2852755948
 20
10.8578961445
 30
0.0
 10
8.2850474222
 20
10.8586934432
 30
0.0
 10
8.28495516
 20
10.8592875273
 30
0.0
 10
8.284954064
 20
10.8596983108
 30
0.0
 10
8.2849931706
 20
10.8600290011
 30
0.0
 10
8.2850960699
 20
10.8603243461
 30
0.0
 10
8.2852737378
 20
10.8605511156
 30
0.0
 10
8.2854946542
 20
10.8607300405
 30
0.0
 10
8.285782786
 20
10.8608326644
 30
0.0
 10
8.2861034308
 20
10.8608679051
 30
0.0
 10
8.286498644
 20
10.8608604947
 30
0.0
 10
8.2870675615
 20
10.8607561971
 30
0.0
 10
8.2878253838
 20
10.8605082458
 30
0.0
 10
8.2886892337
 20
10.8601312269
 30
0.0
 10
8.2892891459
 20
10.8598169166
 30
0.0
 10
8.2896062632
 20
10.8596400334
 30
0.0
  0
SPLINE
  5
475
100
AcDbEntity
  8
0
100
AcDbSpline
 62
9
  6
CONTINUOUS
 70
0
 71
3
 72
27
 73
23
 74
0
 42
0.0000001
 43
0.0000001
 44
0.0000000001
 40
0.0
 40
0.0
 40
0.0
 40
0.0
 40
0.07939194
 40
0.147969046
 40
0.2058492506
 40
0.2535157042
 40
0.2738705848
 40
0.2921916182
 40
0.3088303415
 40
0.3242657041
 40
0.339102864
 40
0.3540289534
 40
0.3866276377
 40
0.405477414
 40
0.4264722129
 40
0.4757536163
 40
0.535661367
 40
0.6066147229
 40
0.6887425241
 40
0.781946062
 40
0.8858520401
 40
1.0
 40
1.0
 40
1.0
 40
1.0
 10
8.1335240939
 20
11.045649391
 30
0.0
 10
8.1336428628
 20
11.0453073416
 30
0.0
 10
8.1338477697
 20
11.04466386
 30
0.0
 10
8.1340684741
 20
11.0437502028
 30
0.0
 10
8.1341807638
 20
11.042962753
 30
0.0
 10
8.1341852895
 20
11.0423853491
 30
0.0
 10
8.1341252394
 20
11.0419953054
 30
0.0
 10
8.1340548254
 20
11.0417521663
 30
0.0
 10
8.1339563667
 20
11.0415432066
 30
0.0
 10
8.1338292731
 20
11.0413692382
 30
0.0
 10
8.1336733446
 20
11.0412317751
 30
0.0
 10
8.1334213619
 20
11.0410950592
 30
0.0
 10
8.1331149212
 20
11.0410429878
 30
0.0
 10
8.1327847489
 20
11.0410596635
 30
0.0
 10
8.1323832289
 20
11.0411293296
 30
0.0
 10
8.1318178713
 20
11.0413198569
 30
0.0
 10
8.1310772741
 20
11.0416782569
 30
0.0
 10
8.1302427161
 20
11.0421772548
 30
0.0
 10
8.1293175464
 20
11.0428151823
 30
0.0
 10
8.128305821
 20
11.0435893246
 30
0.0
 10
8.1272122536
 20
11.044494857
 30
0.0
 10
8.1264662749
 20
11.0451527398
 30
0.0
 10
8.1260801155
 20
11.0455018806
 30
0.0
  0
SPLINE
  5
476
100
AcDbEntity
  8
0
100
AcDbSpline
 62
9
  6
CONTINUOUS
 70
0
 71
3
 72
12
 73
8
 74
0
 42
0.0000001
 43
0.0000001
 44
0.0000000001
 40
0.0
 40
0.0
 40
0.0
 40
0.0
 40
0.1038548967
 40
0.2157819706
 40
0.4601935038
 40
0.7248614568
 40
1.0
 40
1.0
 40
1.0
 40
1.0
 10
8.1258688615
 20
11.0456937487
 30
0.0
 10
8.1253912437
 20
11.0461294716
 30
0.0
 10
8.1244120893
 20
11.0470493108
 30
0.0
 10
8.1223697893
 20
11.0490585071
 30
0.0
 10
8.11969518
 20
11.0518509708
 30
0.0
 10
8.1164226242
 20
11.0554741618
 30
0.0
 10
8.1142323006
 20
11.0580231053
 30
0.0
 10
8.1131313361
 20
11.0593351468
 30
0.0
  0
SPLINE
  5
477
100
AcDbEntity
  8
0
100
AcDbSpline
 62
9
  6
CONTINUOUS
 70
0
 71
3
 72
11
 73
7
 74
0
 42
0.0000001
 43
0.0000001
 44
0.0000000001
 40
0.0
 40
0.0
 40
0.0
 40
0.0
 40
0.2751245655
 40
0.539798729
 40
0.7842317564
 40
1.0
 40
1.0
 40
1.0
 40
1.0
 10
8.1131313361
 20
11.0593351468
 30
0.0
 10
8.1120308632
 20
11.0606467011
 30
0.0
 10
8.109901866
 20
11.0632454588
 30
0.0
 10
8.1069026696
 20
11.06709606
 30
0.0
 10
8.1042362005
 20
11.070735232
 30
0.0
 10
8.1026315527
 20
11.0731087726
 30
0.0
 10
8.101912531
 20
11.0742427375
 30
0.0
  0
SPLINE
  5
478
100
AcDbEntity
  8
0
100
AcDbSpline
 62
9
  6
CONTINUOUS
 70
0
 71
3
 72
26
 73
22
 74
0
 42
0.0000001
 43
0.0000001
 44
0.0000000001
 40
0.0
 40
0.0
 40
0.0
 40
0.0
 40
0.1143407954
 40
0.2184199245
 40
0.3117535359
 40
0.394080877
 40
0.4652331113
 40
0.525266429
 40
0.5746702343
 40
0.5957255492
 40
0.6146222992
 40
0.6472478336
 40
0.6621514219
 40
0.6769444537
 40
0.7087357642
 40
0.7269685216
 40
0.7472257863
 40
0.7946956257
 40
0.8524119285
 40
0.92081426
 40
1.0
 40
1.0
 40
1.0
 40
1.0
 10
8.1017958034
 20
11.0744275105
 30
0.0
 10
8.1015165215
 20
11.0748712589
 30
0.0
 10
8.1009932833
 20
11.0757254808
 30
0.0
 10
8.1002846058
 20
11.0769673456
 30
0.0
 10
8.0996921336
 20
11.0781055571
 30
0.0
 10
8.0992189136
 20
11.0791342525
 30
0.0
 10
8.098867188
 20
11.080049033
 30
0.0
 10
8.0986390153
 20
11.0808463317
 30
0.0
 10
8.0985467531
 20
11.0814404158
 30
0.0
 10
8.0985456572
 20
11.0818511993
 30
0.0
 10
8.0985847638
 20
11.0821818896
 30
0.0
 10
8.0986876631
 20
11.0824772346
 30
0.0
 10
8.098865331
 20
11.0827040041
 30
0.0
 10
8.0990862473
 20
11.082882929
 30
0.0
 10
8.0993743792
 20
11.0829855529
 30
0.0
 10
8.099695024
 20
11.0830207936
 30
0.0
 10
8.1000902372
 20
11.0830133832
 30
0.0
 10
8.1006591547
 20
11.0829090856
 30
0.0
 10
8.101416977
 20
11.0826611343
 30
0.0
 10
8.1022808269
 20
11.0822841154
 30
0.0
 10
8.102880739
 20
11.0819698051
 30
0.0
 10
8.1031978564
 20
11.0817929219
 30
0.0
  0
SPLINE
  5
479
100
AcDbEntity
  8
0
100
AcDbSpline
 62
9
  6
CONTINUOUS
 70
0
 71
3
 72
19
 73
15
 74
0
 42
0.0000001
 43
0.0000001
 44
0.0000000001
 40
0.0
 40
0.0
 40
0.0
 40
0.0
 40
0.0463215016
 40
0.0921786738
 40
0.138476678
 40
0.1860191469
 40
0.287216449
 40
0.342028355
 40
0.4000569828
 40
0.4615564616
 40
0.5267262322
 40
0.6685510197
 40
0.8263843709
 40
1.0
 40
1.0
 40
1.0
 40
1.0
 10
8.4773772112
 20
10.658479825
 30
0.0
 10
8.4776732828
 20
10.6590320203
 30
0.0
 10
8.4783485084
 20
10.660087449
 30
0.0
 10
8.4795994222
 20
10.6614914489
 30
0.0
 10
8.4810644828
 20
10.6626965125
 30
0.0
 10
8.4833303962
 20
10.6640626823
 30
0.0
 10
8.4859598865
 20
10.6649840334
 30
0.0
 10
8.4888129416
 20
10.6654911061
 30
0.0
 10
8.4911684035
 20
10.6656709683
 30
0.0
 10
8.4936695127
 20
10.665632859
 30
0.0
 10
8.4972868289
 20
10.6652706642
 30
0.0
 10
8.5021215543
 20
10.6641811864
 30
0.0
 10
8.5081155054
 20
10.6618775115
 30
0.0
 10
8.5120467099
 20
10.6596841373
 30
0.0
 10
8.5140135023
 20
10.6584009241
 30
0.0
  0
SPLINE
  5
47A
100
AcDbEntity
  8
0
100
AcDbSpline
 62
7
  6
CONTINUOUS
 70
0
 71
3
 72
23
 73
19
 74
0
 42
0.0000001
 43
0.0000001
 44
0.0000000001
 40
0.0
 40
0.0
 40
0.0
 40
0.0
 40
0.0084906217
 40
0.0178769539
 40
0.0285813346
 40
0.0408473195
 40
0.0548041666
 40
0.0705234047
 40
0.1073441825
 40
0.1513531547
 40
0.2024075237
 40
0.260320254
 40
0.3248186383
 40
0.395477849
 40
0.4715914991
 40
0.6369935843
 40
0.8151129113
 40
1.0
 40
1.0
 40
1.0
 40
1.0
 10
9.9686302139
 20
8.8544263083
 30
0.0
 10
9.9685952537
 20
8.8543860871
 30
0.0
 10
9.9685343987
 20
8.8542897752
 30
0.0
 10
9.9684798166
 20
8.8541174353
 30
0.0
 10
9.9684563048
 20
8.853914794
 30
0.0
 10
9.9684623858
 20
8.853682542
 30
0.0
 10
9.9684970908
 20
8.8534212133
 30
0.0
 10
9.9685858511
 20
8.8530130317
 30
0.0
 10
9.9687731848
 20
8.8524353552
 30
0.0
 10
9.9690927155
 20
8.8516711845
 30
0.0
 10
9.9695159435
 20
8.8508088093
 30
0.0
 10
9.9700402907
 20
8.8498543103
 30
0.0
 10
9.9706625622
 20
8.8488142146
 30
0.0
 10
9.9713776607
 20
8.847697317
 30
0.0
 10
9.9724745873
 20
8.8460736035
 30
0.0
 10
9.9740163604
 20
8.8439373918
 30
0.0
 10
9.9760402397
 20
8.8413094571
 30
0.0
 10
9.9774804217
 20
8.8395434874
 30
0.0
 10
9.9782263395
 20
8.8386545372
 30
0.0
  0
SPLINE
  5
47B
100
AcDbEntity
  8
0
100
AcDbSpline
 62
7
  6
CONTINUOUS
 70
0
 71
3
 72
14
 73
10
 74
0
 42
0.0000001
 43
0.0000001
 44
0.0000000001
 40
0.0
 40
0.0
 40
0.0
 40
0.0
 40
0.2540181442
 40
0.5063272491
 40
0.6313538734
 40
0.7553840862
 40
0.8169867641
 40
0.8783047098
 40
1.0
 40
1.0
 40
1.0
 40
1.0
 10
8.8971864784
 20
10.2029630719
 30
0.0
 10
8.8963588317
 20
10.2039495652
 30
0.0
 10
8.8946653794
 20
10.2058795735
 30
0.0
 10
8.8924663332
 20
10.2082055919
 30
0.0
 10
8.8906907114
 20
10.2100240629
 30
0.0
 10
8.8895855722
 20
10.2111459999
 30
0.0
 10
8.8887124826
 20
10.2120432066
 30
0.0
 10
8.8878543474
 20
10.212938236
 30
0.0
 10
8.8872276907
 20
10.2136232672
 30
0.0
 10
8.8868303143
 20
10.2140951491
 30
0.0
  0
SPLINE
  5
47C
100
AcDbEntity
  8
0
100
AcDbSpline
 62
7
  6
CONTINUOUS
 70
0
 71
3
 72
14
 73
10
 74
0
 42
0.0000001
 43
0.0000001
 44
0.0000000001
 40
0.0
 40
0.0
 40
0.0
 40
0.0
 40
0.1216961789
 40
0.1830141318
 40
0.2446164713
 40
0.368645988
 40
0.4936724782
 40
0.7459819478
 40
1.0
 40
1.0
 40
1.0
 40
1.0
 10
8.9063511178
 20
10.1908311618
 30
0.0
 10
8.9059553496
 20
10.191304401
 30
0.0
 10
8.9053892824
 20
10.1920402982
 30
0.0
 10
8.9046568678
 20
10.193040829
 30
0.0
 10
8.9039251522
 20
10.1940566297
 30
0.0
 10
8.9030125529
 20
10.195340074
 30
0.0
 10
8.9015300664
 20
10.1974045195
 30
0.0
 10
8.8996204829
 20
10.199973505
 30
0.0
 10
8.8980141273
 20
10.2019765775
 30
0.0
 10
8.8971864792
 20
10.2029630725
 30
0.0
  0
SPLINE
  5
47D
100
AcDbEntity
  8
0
100
AcDbSpline
 62
9
  6
CONTINUOUS
 70
0
 71
3
 72
14
 73
10
 74
0
 42
0.0000001
 43
0.0000001
 44
0.0000000001
 40
0.0
 40
0.0
 40
0.0
 40
0.0
 40
0.1061290075
 40
0.2199289722
 40
0.3403504492
 40
0.4662702305
 40
0.5964793299
 40
0.7297103637
 40
1.0
 40
1.0
 40
1.0
 40
1.0
 10
14.405855135
 20
4.1533212665
 30
0.0
 10
14.4065071784
 20
4.154492882
 30
0.0
 10
14.407799826
 20
4.1569536542
 30
0.0
 10
14.409646856
 20
4.1608377589
 30
0.0
 10
14.4114554755
 20
4.165013838
 30
0.0
 10
14.413206521
 20
4.1694379804
 30
0.0
 10
14.4148815082
 20
4.1740639859
 30
0.0
 10
14.4169995947
 20
4.1804664517
 30
0.0
 10
14.4184052991
 20
4.1853702507
 30
0.0
 10
14.4192592292
 20
4.1886766056
 30
0.0
  0
SPLINE
  5
47E
100
AcDbEntity
  8
0
100
AcDbSpline
 62
9
  6
CONTINUOUS
 70
0
 71
3
 72
34
 73
30
 74
0
 42
0.0000001
 43
0.0000001
 44
0.0000000001
 40
0.0
 40
0.0
 40
0.0
 40
0.0
 40
0.0725157979
 40
0.1061118495
 40
0.1379633232
 40
0.1967358888
 40
0.2239467727
 40
0.2498589612
 40
0.2983254164
 40
0.321328479
 40
0.3437865332
 40
0.3659725373
 40
0.3881966934
 40
0.4108001907
 40
0.4341412936
 40
0.4585792401
 40
0.4844554569
 40
0.5120694704
 40
0.5416671121
 40
0.5734159228
 40
0.6073795442
 40
0.6435141056
 40
0.6816332083
 40
0.7623193369
 40
0.8454053284
 40
0.8863084015
 40
0.9259939356
 40
0.9639926705
 40
1.0
 40
1.0
 40
1.0
 40
1.0
 10
9.8348312393
 20
9.0796549811
 30
0.0
 10
9.8356249846
 20
9.0775232012
 30
0.0
 10
9.8365141291
 20
9.0742903474
 30
0.0
 10
9.8370809526
 20
9.0699953841
 30
0.0
 10
9.8372464115
 20
9.0660984522
 30
0.0
 10
9.8369183401
 20
9.0623918696
 30
0.0
 10
9.8361016197
 20
9.0589726969
 30
0.0
 10
9.8350545142
 20
9.0559591526
 30
0.0
 10
9.8336009632
 20
9.0532366311
 30
0.0
 10
9.8317538144
 20
9.0509325001
 30
0.0
 10
9.8302196251
 20
9.0494571531
 30
0.0
 10
9.8285184557
 20
9.0482185188
 30
0.0
 10
9.8266553428
 20
9.0472295814
 30
0.0
 10
9.8246358545
 20
9.0465046212
 30
0.0
 10
9.8224663883
 20
9.0460579035
 30
0.0
 10
9.8201542517
 20
9.0459034706
 30
0.0
 10
9.8177081729
 20
9.0460551516
 30
0.0
 10
9.8151386873
 20
9.0465245632
 30
0.0
 10
9.8124595218
 20
9.0473231302
 30
0.0
 10
9.8096888786
 20
9.0484584522
 30
0.0
 10
9.8068498856
 20
9.0499323155
 30
0.0
 10
9.803973382
 20
9.0517418314
 30
0.0
 10
9.8000653238
 20
9.0546380572
 30
0.0
 10
9.7953975833
 20
9.0589491747
 30
0.0
 10
9.7912671243
 20
9.0638893567
 30
0.0
 10
9.7883755543
 20
9.0681358906
 30
0.0
 10
9.7864919762
 20
9.0713474527
 30
0.0
 10
9.7849133374
 20
9.0745488063
 30
0.0
 10
9.7840461371
 20
9.076705398
 30
0.0
 10
9.7836700448
 20
9.0777704641
 30
0.0
  0
SPLINE
  5
47F
100
AcDbEntity
  8
0
100
AcDbSpline
 62
9
  6
CONTINUOUS
 70
0
 71
3
 72
11
 73
7
 74
0
 42
0.0000001
 43
0.0000001
 44
0.0000000001
 40
0.0
 40
0.0
 40
0.0
 40
0.0
 40
0.2441851412
 40
0.4999992673
 40
0.7558138011
 40
1.0
 40
1.0
 40
1.0
 40
1.0
 10
9.8178480155
 20
9.0998945983
 30
0.0
 10
9.8197364689
 20
9.0987856532
 30
0.0
 10
9.8234170915
 20
9.0961811524
 30
0.0
 10
9.8282300757
 20
9.0913610989
 30
0.0
 10
9.8321411776
 20
9.0857842702
 30
0.0
 10
9.8340670804
 20
9.0817073256
 30
0.0
 10
9.8348312393
 20
9.0796549811
 30
0.0
  0
SPLINE
  5
480
100
AcDbEntity
  8
0
100
AcDbSpline
 62
9
  6
CONTINUOUS
 70
0
 71
3
 72
34
 73
30
 74
0
 42
0.0000001
 43
0.0000001
 44
0.0000000001
 40
0.0
 40
0.0
 40
0.0
 40
0.0
 40
0.072515321
 40
0.1061111188
 40
0.1379623545
 40
0.1967345114
 40
0.2239452258
 40
0.2498572692
 40
0.2983235138
 40
0.3213265159
 40
0.3437845428
 40
0.3659705554
 40
0.3881947573
 40
0.4107983379
 40
0.4341395594
 40
0.4585776561
 40
0.4844540493
 40
0.512068258
 40
0.5416661061
 40
0.5734151255
 40
0.6073789483
 40
0.6435136958
 40
0.6816329592
 40
0.7623193127
 40
0.84540539
 40
0.8863084646
 40
0.9259939832
 40
0.9639926945
 40
1.0
 40
1.0
 40
1.0
 40
1.0
 10
9.6484230369
 20
9.3018072851
 30
0.0
 10
9.6492167729
 20
9.2996755314
 30
0.0
 10
9.650105828
 20
9.296442693
 30
0.0
 10
9.6506725899
 20
9.2921477785
 30
0.0
 10
9.6508379889
 20
9.288250894
 30
0.0
 10
9.6505098715
 20
9.2845443627
 30
0.0
 10
9.6496931125
 20
9.2811252429
 30
0.0
 10
9.6486459749
 20
9.2781117462
 30
0.0
 10
9.6471923969
 20
9.2753892736
 30
0.0
 10
9.6453452279
 20
9.2730851922
 30
0.0
 10
9.6438110252
 20
9.27160988
 30
0.0
 10
9.6421098445
 20
9.2703712798
 30
0.0
 10
9.6402467225
 20
9.2693823759
 30
0.0
 10
9.6382272271
 20
9.2686574483
 30
0.0
 10
9.6360577561
 20
9.268210762
 30
0.0
 10
9.6337456166
 20
9.2680563593
 30
0.0
 10
9.6312995372
 20
9.2682080687
 30
0.0
 10
9.6287300531
 20
9.2686775069
 30
0.0
 10
9.6260508915
 20
9.2694760984
 30
0.0
 10
9.6232802546
 20
9.2706114421
 30
0.0
 10
9.6204412705
 20
9.2720853239
 30
0.0
 10
9.6175647789
 20
9.2738948548
 30
0.0
 10
9.6136567422
 20
9.2767910937
 30
0.0
 10
9.6089890343
 20
9.281102215
 30
0.0
 10
9.6048586082
 20
9.2860423897
 30
0.0
 10
9.6019670652
 20
9.2902889097
 30
0.0
 10
9.6000835071
 20
9.2935004577
 30
0.0
 10
9.5985048861
 20
9.2967017954
 30
0.0
 10
9.5976376962
 20
9.2988583755
 30
0.0
 10
9.5972616086
 20
9.2999234357
 30
0.0
  0
SPLINE
  5
481
100
AcDbEntity
  8
0
100
AcDbSpline
 62
9
  6
CONTINUOUS
 70
0
 71
3
 72
11
 73
7
 74
0
 42
0.0000001
 43
0.0000001
 44
0.0000000001
 40
0.0
 40
0.0
 40
0.0
 40
0.0
 40
0.244185806
 40
0.5000005067
 40
0.7558149633
 40
1.0
 40
1.0
 40
1.0
 40
1.0
 10
9.6314396086
 20
9.3220474868
 30
0.0
 10
9.6333281077
 20
9.3209385087
 30
0.0
 10
9.6370088279
 20
9.3183339441
 30
0.0
 10
9.641821885
 20
9.3135137306
 30
0.0
 10
9.6457330537
 20
9.3079367524
 30
0.0
 10
9.6476588461
 20
9.3038596601
 30
0.0
 10
9.6484230369
 20
9.3018072851
 30
0.0
  0
SPLINE
  5
482
100
AcDbEntity
  8
0
100
AcDbSpline
 62
9
  6
CONTINUOUS
 70
0
 71
3
 72
33
 73
29
 74
0
 42
0.0000001
 43
0.0000001
 44
0.0000000001
 40
0.0
 40
0.0
 40
0.0
 40
0.0
 40
0.0725185393
 40
0.13790341
 40
0.1966781482
 40
0.2238901236
 40
0.2498034219
 40
0.2982722072
 40
0.321276536
 40
0.3437359535
 40
0.3659234439
 40
0.388149233
 40
0.4107545298
 40
0.4340976122
 40
0.4585377237
 40
0.4844162897
 40
0.5120328273
 40
0.5416331546
 40
0.5733847875
 40
0.6073513403
 40
0.6434889102
 40
0.6816110571
 40
0.7623032327
 40
0.8453950038
 40
0.8863008209
 40
0.9259889905
 40
0.9639902517
 40
1.0
 40
1.0
 40
1.0
 40
1.0
 10
9.4620152768
 20
9.5239583247
 30
0.0
 10
9.4628089812
 20
9.5218266594
 30
0.0
 10
9.4639631533
 20
9.5176284282
 30
0.0
 10
9.4645226427
 20
9.5114552171
 30
0.0
 10
9.4641013069
 20
9.506696242
 30
0.0
 10
9.4632843951
 20
9.5032770579
 30
0.0
 10
9.4622371722
 20
9.5002637668
 30
0.0
 10
9.4607835151
 20
9.4975414288
 30
0.0
 10
9.4589362936
 20
9.4952375051
 30
0.0
 10
9.4574020574
 20
9.4937622996
 30
0.0
 10
9.4557008509
 20
9.4925238031
 30
0.0
 10
9.4538377105
 20
9.4915349986
 30
0.0
 10
9.4518182039
 20
9.4908101656
 30
0.0
 10
9.449648729
 20
9.4903635685
 30
0.0
 10
9.4473365926
 20
9.4902092486
 30
0.0
 10
9.4448905233
 20
9.4903610336
 30
0.0
 10
9.4423210562
 20
9.4908305392
 30
0.0
 10
9.4396419188
 20
9.4916291891
 30
0.0
 10
9.4368713134
 20
9.4927645805
 30
0.0
 10
9.4340323681
 20
9.4942384985
 30
0.0
 10
9.4311559223
 20
9.4960480531
 30
0.0
 10
9.4272479611
 20
9.4989443014
 30
0.0
 10
9.4225803553
 20
9.503255398
 30
0.0
 10
9.4184500233
 20
9.5081955165
 30
0.0
 10
9.4155585498
 20
9.5124419724
 30
0.0
 10
9.4136750371
 20
9.5156534665
 30
0.0
 10
9.412096452
 20
9.5188547486
 30
0.0
 10
9.4112292799
 20
9.5210112902
 30
0.0
 10
9.4108531992
 20
9.5220763315
 30
0.0
  0
SPLINE
  5
483
100
AcDbEntity
  8
0
100
AcDbSpline
 62
9
  6
CONTINUOUS
 70
0
 71
3
 72
34
 73
30
 74
0
 42
0.0000001
 43
0.0000001
 44
0.0000000001
 40
0.0
 40
0.0
 40
0.0
 40
0.0
 40
0.0725144035
 40
0.1061097175
 40
0.1379605001
 40
0.1967318848
 40
0.223942281
 40
0.249854054
 40
0.298319911
 40
0.3213228041
 40
0.3437807847
 40
0.3659668174
 40
0.3881911081
 40
0.4107948452
 40
0.4341362869
 40
0.4585746592
 40
0.4844513725
 40
0.5120659325
 40
0.541664149
 40
0.5734135369
 40
0.6073777127
 40
0.6435127835
 40
0.6816323252
 40
0.7623190724
 40
0.8454053259
 40
0.8863084314
 40
0.9259939615
 40
0.9639926801
 40
1.0
 40
1.0
 40
1.0
 40
1.0
 10
9.2756066195
 20
9.7461119292
 30
0.0
 10
9.2764003368
 20
9.7439802282
 30
0.0
 10
9.277289218
 20
9.7407474223
 30
0.0
 10
9.2778558607
 20
9.736452606
 30
0.0
 10
9.2780211449
 20
9.7325558159
 30
0.0
 10
9.2776929398
 20
9.7288493864
 30
0.0
 10
9.2768761084
 20
9.7254303707
 30
0.0
 10
9.2758289113
 20
9.7224169674
 30
0.0
 10
9.2743752842
 20
9.7196945897
 30
0.0
 10
9.2725280796
 20
9.7173906036
 30
0.0
 10
9.2709938539
 20
9.7159153579
 30
0.0
 10
9.2692926547
 20
9.7146768225
 30
0.0
 10
9.2674295185
 20
9.7136879813
 30
0.0
 10
9.2654100132
 20
9.712963114
 30
0.0
 10
9.2632405366
 20
9.7125164852
 30
0.0
 10
9.2609283957
 20
9.7123621367
 30
0.0
 10
9.2584823191
 20
9.7125138965
 30
0.0
 10
9.2559128421
 20
9.7129833806
 30
0.0
 10
9.2532336919
 20
9.713782013
 30
0.0
 10
9.2504630712
 20
9.7149173919
 30
0.0
 10
9.247624108
 20
9.7163913021
 30
0.0
 10
9.2447476421
 20
9.7182008542
 30
0.0
 10
9.2408396497
 20
9.7210971077
 30
0.0
 10
9.2361720046
 20
9.725408224
 30
0.0
 10
9.2320416389
 20
9.7303483734
 30
0.0
 10
9.229150143
 20
9.7345948597
 30
0.0
 10
9.2272666175
 20
9.7378063772
 30
0.0
 10
9.2256880242
 20
9.7410076824
 30
0.0
 10
9.2248208494
 20
9.7431642394
 30
0.0
 10
9.2244447683
 20
9.7442292881
 30
0.0
  0
SPLINE
  5
484
100
AcDbEntity
  8
0
100
AcDbSpline
 62
9
  6
CONTINUOUS
 70
0
 71
3
 72
34
 73
30
 74
0
 42
0.0000001
 43
0.0000001
 44
0.0000000001
 40
0.0
 40
0.0
 40
0.0
 40
0.0
 40
0.0725144035
 40
0.1061097175
 40
0.1379605001
 40
0.1967318848
 40
0.223942281
 40
0.249854054
 40
0.298319911
 40
0.3213228041
 40
0.3437807847
 40
0.3659668174
 40
0.3881911081
 40
0.4107948452
 40
0.4341362869
 40
0.4585746592
 40
0.4844513725
 40
0.5120659325
 40
0.541664149
 40
0.5734135369
 40
0.6073777127
 40
0.6435127835
 40
0.6816323252
 40
0.7623190724
 40
0.8454053259
 40
0.8863084314
 40
0.9259939615
 40
0.9639926801
 40
1.0
 40
1.0
 40
1.0
 40
1.0
 10
9.0891982127
 20
9.9682648177
 30
0.0
 10
9.08999193
 20
9.9661331167
 30
0.0
 10
9.0908808112
 20
9.9629003108
 30
0.0
 10
9.0914474539
 20
9.9586054945
 30
0.0
 10
9.0916127381
 20
9.9547087044
 30
0.0
 10
9.091284533
 20
9.9510022749
 30
0.0
 10
9.0904677016
 20
9.9475832592
 30
0.0
 10
9.0894205045
 20
9.9445698559
 30
0.0
 10
9.0879668773
 20
9.9418474782
 30
0.0
 10
9.0861196728
 20
9.9395434921
 30
0.0
 10
9.0845854471
 20
9.9380682465
 30
0.0
 10
9.0828842479
 20
9.936829711
 30
0.0
 10
9.0810211117
 20
9.9358408699
 30
0.0
 10
9.0790016064
 20
9.9351160025
 30
0.0
 10
9.0768321298
 20
9.9346693737
 30
0.0
 10
9.0745199889
 20
9.9345150252
 30
0.0
 10
9.0720739123
 20
9.934666785
 30
0.0
 10
9.0695044352
 20
9.9351362691
 30
0.0
 10
9.0668252851
 20
9.9359349015
 30
0.0
 10
9.0640546644
 20
9.9370702804
 30
0.0
 10
9.0612157012
 20
9.9385441906
 30
0.0
 10
9.0583392353
 20
9.9403537427
 30
0.0
 10
9.0544312429
 20
9.9432499962
 30
0.0
 10
9.0497635978
 20
9.9475611125
 30
0.0
 10
9.0456332321
 20
9.9525012619
 30
0.0
 10
9.0427417362
 20
9.9567477482
 30
0.0
 10
9.0408582107
 20
9.9599592658
 30
0.0
 10
9.0392796174
 20
9.9631605709
 30
0.0
 10
9.0384124426
 20
9.9653171279
 30
0.0
 10
9.0380363615
 20
9.9663821766
 30
0.0
  0
SPLINE
  5
485
100
AcDbEntity
  8
0
100
AcDbSpline
 62
9
  6
CONTINUOUS
 70
0
 71
3
 72
34
 73
30
 74
0
 42
0.0000001
 43
0.0000001
 44
0.0000000001
 40
0.0
 40
0.0
 40
0.0
 40
0.0
 40
0.0725144035
 40
0.1061097175
 40
0.1379605001
 40
0.1967318848
 40
0.223942281
 40
0.249854054
 40
0.298319911
 40
0.3213228041
 40
0.3437807847
 40
0.3659668174
 40
0.3881911081
 40
0.4107948452
 40
0.4341362869
 40
0.4585746592
 40
0.4844513725
 40
0.5120659325
 40
0.541664149
 40
0.5734135369
 40
0.6073777127
 40
0.6435127835
 40
0.6816323252
 40
0.7623190724
 40
0.8454053259
 40
0.8863084314
 40
0.9259939615
 40
0.9639926801
 40
1.0
 40
1.0
 40
1.0
 40
1.0
 10
8.9027898059
 20
10.1904177062
 30
0.0
 10
8.9035835232
 20
10.1882860052
 30
0.0
 10
8.9044724044
 20
10.1850531993
 30
0.0
 10
8.9050390471
 20
10.180758383
 30
0.0
 10
8.9052043312
 20
10.1768615929
 30
0.0
 10
8.9048761261
 20
10.1731551634
 30
0.0
 10
8.9040592948
 20
10.1697361477
 30
0.0
 10
8.9030120977
 20
10.1667227444
 30
0.0
 10
8.9015584705
 20
10.1640003667
 30
0.0
 10
8.899711266
 20
10.1616963806
 30
0.0
 10
8.8981770403
 20
10.160221135
 30
0.0
 10
8.8964758411
 20
10.1589825996
 30
0.0
 10
8.8946127049
 20
10.1579937584
 30
0.0
 10
8.8925931996
 20
10.157268891
 30
0.0
 10
8.890423723
 20
10.1568222622
 30
0.0
 10
8.8881115821
 20
10.1566679137
 30
0.0
 10
8.8856655055
 20
10.1568196735
 30
0.0
 10
8.8830960284
 20
10.1572891576
 30
0.0
 10
8.8804168783
 20
10.1580877901
 30
0.0
 10
8.8776462576
 20
10.1592231689
 30
0.0
 10
8.8748072944
 20
10.1606970791
 30
0.0
 10
8.8719308285
 20
10.1625066312
 30
0.0
 10
8.8680228361
 20
10.1654028847
 30
0.0
 10
8.863355191
 20
10.169714001
 30
0.0
 10
8.8592248252
 20
10.1746541504
 30
0.0
 10
8.8563333294
 20
10.1789006367
 30
0.0
 10
8.8544498039
 20
10.1821121543
 30
0.0
 10
8.8528712106
 20
10.1853134594
 30
0.0
 10
8.8520040358
 20
10.1874700165
 30
0.0
 10
8.8516279547
 20
10.1885350651
 30
0.0
  0
SPLINE
  5
486
100
AcDbEntity
  8
0
100
AcDbSpline
 62
9
  6
CONTINUOUS
 70
0
 71
3
 72
34
 73
30
 74
0
 42
0.0000001
 43
0.0000001
 44
0.0000000001
 40
0.0
 40
0.0
 40
0.0
 40
0.0
 40
0.072515321
 40
0.1061111188
 40
0.1379623545
 40
0.1967345114
 40
0.2239452258
 40
0.2498572692
 40
0.2983235138
 40
0.3213265159
 40
0.3437845428
 40
0.3659705554
 40
0.3881947573
 40
0.4107983379
 40
0.4341395594
 40
0.4585776561
 40
0.4844540493
 40
0.512068258
 40
0.5416661061
 40
0.5734151255
 40
0.6073789483
 40
0.6435136958
 40
0.6816329592
 40
0.7623193127
 40
0.84540539
 40
0.8863084646
 40
0.9259939832
 40
0.9639926945
 40
1.0
 40
1.0
 40
1.0
 40
1.0
 10
8.7163810029
 20
10.4125717276
 30
0.0
 10
8.7171747388
 20
10.410439974
 30
0.0
 10
8.7180637939
 20
10.4072071355
 30
0.0
 10
8.7186305558
 20
10.402912221
 30
0.0
 10
8.7187959549
 20
10.3990153365
 30
0.0
 10
8.7184678374
 20
10.3953088052
 30
0.0
 10
8.7176510784
 20
10.3918896854
 30
0.0
 10
8.7166039408
 20
10.3888761887
 30
0.0
 10
8.7151503629
 20
10.3861537161
 30
0.0
 10
8.7133031938
 20
10.3838496347
 30
0.0
 10
8.7117689911
 20
10.3823743225
 30
0.0
 10
8.7100678104
 20
10.3811357224
 30
0.0
 10
8.7082046884
 20
10.3801468185
 30
0.0
 10
8.706185193
 20
10.3794218908
 30
0.0
 10
8.704015722
 20
10.3789752045
 30
0.0
 10
8.7017035826
 20
10.3788208018
 30
0.0
 10
8.6992575032
 20
10.3789725112
 30
0.0
 10
8.6966880191
 20
10.3794419495
 30
0.0
 10
8.6940088574
 20
10.3802405409
 30
0.0
 10
8.6912382206
 20
10.3813758846
 30
0.0
 10
8.6883992365
 20
10.3828497664
 30
0.0
 10
8.6855227448
 20
10.3846592974
 30
0.0
 10
8.6816147082
 20
10.3875555362
 30
0.0
 10
8.6769470003
 20
10.3918666576
 30
0.0
 10
8.6728165741
 20
10.3968068322
 30
0.0
 10
8.6699250312
 20
10.4010533522
 30
0.0
 10
8.668041473
 20
10.4042649002
 30
0.0
 10
8.666462852
 20
10.4074662379
 30
0.0
 10
8.6655956621
 20
10.409622818
 30
0.0
 10
8.6652195746
 20
10.4106878782
 30
0.0
  0
SPLINE
  5
487
100
AcDbEntity
  8
0
100
AcDbSpline
 62
9
  6
CONTINUOUS
 70
0
 71
3
 72
11
 73
7
 74
0
 42
0.0000001
 43
0.0000001
 44
0.0000000001
 40
0.0
 40
0.0
 40
0.0
 40
0.0
 40
0.244185806
 40
0.5000005067
 40
0.7558149633
 40
1.0
 40
1.0
 40
1.0
 40
1.0
 10
8.6993975746
 20
10.4328119293
 30
0.0
 10
8.7012860737
 20
10.4317029513
 30
0.0
 10
8.7049667938
 20
10.4290983866
 30
0.0
 10
8.7097798509
 20
10.4242781731
 30
0.0
 10
8.7136910196
 20
10.4187011949
 30
0.0
 10
8.715616812
 20
10.4146241026
 30
0.0
 10
8.7163810029
 20
10.4125717276
 30
0.0
  0
SPLINE
  5
488
100
AcDbEntity
  8
0
100
AcDbSpline
 62
9
  6
CONTINUOUS
 70
0
 71
3
 72
34
 73
30
 74
0
 42
0.0000001
 43
0.0000001
 44
0.0000000001
 40
0.0
 40
0.0
 40
0.0
 40
0.0
 40
0.0725148027
 40
0.1061103247
 40
0.1379613017
 40
0.1967330145
 40
0.2239435446
 40
0.2498554304
 40
0.2983214463
 40
0.3213243826
 40
0.3437823799
 40
0.3659684018
 40
0.3881926536
 40
0.4107963245
 40
0.434137675
 40
0.4585759349
 40
0.4844525195
 40
0.5120669402
 40
0.5416650126
 40
0.5734142585
 40
0.6073782999
 40
0.6435132495
 40
0.6816326873
 40
0.7623192849
 40
0.8454054554
 40
0.8863085321
 40
0.9259940341
 40
0.9639927201
 40
1.0
 40
1.0
 40
1.0
 40
1.0
 10
8.5299728183
 20
10.6347239808
 30
0.0
 10
8.5307665441
 20
10.6325922556
 30
0.0
 10
8.531655502
 20
10.6293594339
 30
0.0
 10
8.5322221968
 20
10.6250645725
 30
0.0
 10
8.5323875309
 20
10.6211677395
 30
0.0
 10
8.5320593634
 20
10.617461264
 30
0.0
 10
8.5312425625
 20
10.6140422017
 30
0.0
 10
8.5301953901
 20
10.6110287569
 30
0.0
 10
8.5287417827
 20
10.6083063373
 30
0.0
 10
8.5268945917
 20
10.6060023097
 30
0.0
 10
8.5253603745
 20
10.6045270354
 30
0.0
 10
8.5236591816
 20
10.6032884725
 30
0.0
 10
8.5217960497
 20
10.6022996049
 30
0.0
 10
8.5197765467
 20
10.6015747126
 30
0.0
 10
8.5176070704
 20
10.6011280605
 30
0.0
 10
8.5152949279
 20
10.6009736904
 30
0.0
 10
8.5128488478
 20
10.6011254308
 30
0.0
 10
8.5102793654
 20
10.6015948979
 30
0.0
 10
8.507600208
 20
10.6023935158
 30
0.0
 10
8.5048295781
 20
10.6035288831
 30
0.0
 10
8.5019906038
 20
10.605002785
 30
0.0
 10
8.499114125
 20
10.6068123323
 30
0.0
 10
8.4952061119
 20
10.6097085852
 30
0.0
 10
8.4905384393
 20
10.6140197106
 30
0.0
 10
8.4864080489
 20
10.6189598772
 30
0.0
 10
8.4835165354
 20
10.623206382
 30
0.0
 10
8.4816329988
 20
10.6264179146
 30
0.0
 10
8.4800543971
 20
10.6296192351
 30
0.0
 10
8.4791872185
 20
10.6317758026
 30
0.0
 10
8.4788111361
 20
10.6328408564
 30
0.0
  0
SPLINE
  5
489
100
AcDbEntity
  8
0
100
AcDbSpline
 62
9
  6
CONTINUOUS
 70
0
 71
3
 72
34
 73
30
 74
0
 42
0.0000001
 43
0.0000001
 44
0.0000000001
 40
0.0
 40
0.0
 40
0.0
 40
0.0
 40
0.0725157979
 40
0.1061118495
 40
0.1379633232
 40
0.1967358888
 40
0.2239467727
 40
0.2498589612
 40
0.2983254164
 40
0.321328479
 40
0.3437865332
 40
0.3659725373
 40
0.3881966934
 40
0.4108001907
 40
0.4341412936
 40
0.4585792401
 40
0.4844554569
 40
0.5120694704
 40
0.5416671121
 40
0.5734159228
 40
0.6073795442
 40
0.6435141056
 40
0.6816332083
 40
0.7623193369
 40
0.8454053284
 40
0.8863084015
 40
0.9259939356
 40
0.9639926705
 40
1.0
 40
1.0
 40
1.0
 40
1.0
 10
8.3435639848
 20
10.8568780891
 30
0.0
 10
8.3443577301
 20
10.8547463093
 30
0.0
 10
8.3452468746
 20
10.8515134555
 30
0.0
 10
8.3458136982
 20
10.8472184921
 30
0.0
 10
8.345979157
 20
10.8433215602
 30
0.0
 10
8.3456510857
 20
10.8396149776
 30
0.0
 10
8.3448343652
 20
10.8361958049
 30
0.0
 10
8.3437872597
 20
10.8331822606
 30
0.0
 10
8.3423337087
 20
10.8304597392
 30
0.0
 10
8.3404865599
 20
10.8281556082
 30
0.0
 10
8.3389523707
 20
10.8266802611
 30
0.0
 10
8.3372512012
 20
10.8254416268
 30
0.0
 10
8.3353880884
 20
10.8244526894
 30
0.0
 10
8.3333686
 20
10.8237277292
 30
0.0
 10
8.3311991339
 20
10.8232810115
 30
0.0
 10
8.3288869972
 20
10.8231265787
 30
0.0
 10
8.3264409185
 20
10.8232782596
 30
0.0
 10
8.3238714329
 20
10.8237476713
 30
0.0
 10
8.3211922673
 20
10.8245462383
 30
0.0
 10
8.3184216241
 20
10.8256815603
 30
0.0
 10
8.3155826311
 20
10.8271554235
 30
0.0
 10
8.3127061275
 20
10.8289649394
 30
0.0
 10
8.3087980693
 20
10.8318611652
 30
0.0
 10
8.3041303288
 20
10.8361722828
 30
0.0
 10
8.2999998699
 20
10.8411124647
 30
0.0
 10
8.2971082998
 20
10.8453589987
 30
0.0
 10
8.2952247218
 20
10.8485705607
 30
0.0
 10
8.293646083
 20
10.8517719144
 30
0.0
 10
8.2927788826
 20
10.8539285061
 30
0.0
 10
8.2924027903
 20
10.8549935721
 30
0.0
  0
SPLINE
  5
48A
100
AcDbEntity
  8
0
100
AcDbSpline
 62
9
  6
CONTINUOUS
 70
0
 71
3
 72
11
 73
7
 74
0
 42
0.0000001
 43
0.0000001
 44
0.0000000001
 40
0.0
 40
0.0
 40
0.0
 40
0.0
 40
0.2441851412
 40
0.4999992673
 40
0.7558138011
 40
1.0
 40
1.0
 40
1.0
 40
1.0
 10
8.326580761
 20
10.8771177063
 30
0.0
 10
8.3284692144
 20
10.8760087613
 30
0.0
 10
8.332149837
 20
10.8734042604
 30
0.0
 10
8.3369628212
 20
10.868584207
 30
0.0
 10
8.3408739231
 20
10.8630073782
 30
0.0
 10
8.3427998259
 20
10.8589304336
 30
0.0
 10
8.3435639848
 20
10.8568780891
 30
0.0
  0
SPLINE
  5
48B
100
AcDbEntity
  8
0
100
AcDbSpline
 62
9
  6
CONTINUOUS
 70
0
 71
3
 72
34
 73
30
 74
0
 42
0.0000001
 43
0.0000001
 44
0.0000000001
 40
0.0
 40
0.0
 40
0.0
 40
0.0
 40
0.0725155893
 40
0.1061115298
 40
0.1379628994
 40
0.1967352862
 40
0.223946096
 40
0.249858221
 40
0.298324584
 40
0.3213276201
 40
0.3437856624
 40
0.3659716702
 40
0.3881958464
 40
0.4107993801
 40
0.4341405349
 40
0.4585785471
 40
0.4844548411
 40
0.51206894
 40
0.541666672
 40
0.573415574
 40
0.6073792835
 40
0.6435139263
 40
0.6816330993
 40
0.7623193263
 40
0.8454053553
 40
0.8863084291
 40
0.9259939564
 40
0.963992681
 40
1.0
 40
1.0
 40
1.0
 40
1.0
 10
8.1571556674
 20
11.0790307219
 30
0.0
 10
8.1579494087
 20
11.0768989535
 30
0.0
 10
8.1588385141
 20
11.0736661065
 30
0.0
 10
8.1594053106
 20
11.0693711645
 30
0.0
 10
8.1595707433
 20
11.0654742533
 30
0.0
 10
8.1592426518
 20
11.0617676931
 30
0.0
 10
8.1584259145
 20
11.0583485435
 30
0.0
 10
8.1573787949
 20
11.0553350201
 30
0.0
 10
8.1559252322
 20
11.05261252
 30
0.0
 10
8.1540780745
 20
11.0503084107
 30
0.0
 10
8.1525438793
 20
11.0488330789
 30
0.0
 10
8.150842705
 20
11.0475944596
 30
0.0
 10
8.1489795881
 20
11.0466055368
 30
0.0
 10
8.1469600967
 20
11.0458805909
 30
0.0
 10
8.1447906284
 20
11.0454338869
 30
0.0
 10
8.1424784906
 20
11.0452794672
 30
0.0
 10
8.1400324115
 20
11.0454311606
 30
0.0
 10
8.1374629266
 20
11.0459005839
 30
0.0
 10
8.1347837627
 20
11.0466991616
 30
0.0
 10
8.1320131223
 20
11.0478344931
 30
0.0
 10
8.1291741332
 20
11.0493083645
 30
0.0
 10
8.1262976348
 20
11.051117887
 30
0.0
 10
8.1223895861
 20
11.0540141185
 30
0.0
 10
8.1177218598
 20
11.0583252377
 30
0.0
 10
8.1135914152
 20
11.0632654165
 30
0.0
 10
8.110699857
 20
11.0675119443
 30
0.0
 10
8.1088162877
 20
11.0707235002
 30
0.0
 10
8.1072376567
 20
11.0739248469
 30
0.0
 10
8.1063704609
 20
11.0760814335
 30
0.0
 10
8.1059943706
 20
11.077146497
 30
0.0
  0
SPLINE
  5
48C
100
AcDbEntity
  8
0
100
AcDbSpline
 62
9
  6
CONTINUOUS
 70
0
 71
3
 72
11
 73
7
 74
0
 42
0.0000001
 43
0.0000001
 44
0.0000000001
 40
0.0
 40
0.0
 40
0.0
 40
0.0
 40
0.2441854296
 40
0.4999998288
 40
0.7558142784
 40
1.0
 40
1.0
 40
1.0
 40
1.0
 10
8.1401723542
 20
11.0992705948
 30
0.0
 10
8.142060833
 20
11.0981616446
 30
0.0
 10
8.1457415053
 20
11.0955571191
 30
0.0
 10
8.1505544882
 20
11.090736967
 30
0.0
 10
8.154465659
 20
11.0851600999
 30
0.0
 10
8.1563914879
 20
11.0810830777
 30
0.0
 10
8.1571556674
 20
11.0790307219
 30
0.0
  0
SPLINE
  5
48D
100
AcDbEntity
  8
0
100
AcDbSpline
 62
9
  6
CONTINUOUS
 70
0
 71
3
 72
18
 73
14
 74
0
 42
0.0000001
 43
0.0000001
 44
0.0000000001
 40
0.0
 40
0.0
 40
0.0
 40
0.0
 40
0.2048445602
 40
0.3841215915
 40
0.537902138
 40
0.6668090644
 40
0.7723508365
 40
0.8173760976
 40
0.8580411949
 40
0.8952877619
 40
0.9303567543
 40
0.9647345642
 40
1.0
 40
1.0
 40
1.0
 40
1.0
 10
9.0727922129
 20
9.9322946116
 30
0.0
 10
9.0729007507
 20
9.9320072305
 30
0.0
 10
9.0730932233
 20
9.9314639985
 30
0.0
 10
9.0733202205
 20
9.9306894324
 30
0.0
 10
9.0734662842
 20
9.9300112885
 30
0.0
 10
9.0735316557
 20
9.9294317203
 30
0.0
 10
9.0735185107
 20
9.9290100536
 30
0.0
 10
9.0734597107
 20
9.9287286081
 30
0.0
 10
9.0733968868
 20
9.9285544968
 30
0.0
 10
9.0733126307
 20
9.9284063786
 30
0.0
 10
9.073206541
 20
9.9282849877
 30
0.0
 10
9.0730789097
 20
9.9281913892
 30
0.0
 10
9.0729824746
 20
9.9281490242
 30
0.0
 10
9.0729322395
 20
9.9281324915
 30
0.0
  0
SPLINE
  5
48E
100
AcDbEntity
  8
0
100
AcDbSpline
 62
9
  6
CONTINUOUS
 70
0
 71
3
 72
19
 73
15
 74
0
 42
0.0000001
 43
0.0000001
 44
0.0000000001
 40
0.0
 40
0.0
 40
0.0
 40
0.0
 40
0.1736155891
 40
0.33144884
 40
0.4732735398
 40
0.5384433215
 40
0.5999427106
 40
0.6579712604
 40
0.7127831973
 40
0.8139806051
 40
0.8615232409
 40
0.9078216659
 40
0.9536790622
 40
1.0
 40
1.0
 40
1.0
 40
1.0
 10
9.0927595102
 20
9.9686782905
 30
0.0
 10
9.0936816949
 20
9.9665185492
 30
0.0
 10
9.095159112
 20
9.9622661981
 30
0.0
 10
9.0963869276
 20
9.9559632791
 30
0.0
 10
9.0966203334
 20
9.95101282
 30
0.0
 10
9.0963488593
 20
9.9473875688
 30
0.0
 10
9.095952098
 20
9.9449178387
 30
0.0
 10
9.0953659555
 20
9.942629393
 30
0.0
 10
9.0943711512
 20
9.9399077359
 30
0.0
 10
9.0930071897
 20
9.9374781808
 30
0.0
 10
9.0912682933
 20
9.93548392
 30
0.0
 10
9.0898271181
 20
9.9342503735
 30
0.0
 10
9.0882272291
 20
9.9332622651
 30
0.0
 10
9.0870705899
 20
9.9327805663
 30
0.0
 10
9.0864753788
 20
9.932584882
 30
0.0
  0
SPLINE
  5
48F
100
AcDbEntity
  8
0
100
AcDbSpline
 62
7
  6
CONTINUOUS
 70
0
 71
3
 72
23
 73
19
 74
0
 42
0.0000001
 43
0.0000001
 44
0.0000000001
 40
0.0
 40
0.0
 40
0.0
 40
0.0
 40
0.0084906217
 40
0.0178769539
 40
0.0285813346
 40
0.0408473195
 40
0.0548041666
 40
0.0705234047
 40
0.1073441825
 40
0.1513531547
 40
0.2024075237
 40
0.260320254
 40
0.3248186383
 40
0.395477849
 40
0.4715914991
 40
0.6369935843
 40
0.8151129113
 40
1.0
 40
1.0
 40
1.0
 40
1.0
 10
9.7822218071
 20
9.0765791968
 30
0.0
 10
9.7821868469
 20
9.0765389756
 30
0.0
 10
9.7821259919
 20
9.0764426637
 30
0.0
 10
9.7820714098
 20
9.0762703238
 30
0.0
 10
9.782047898
 20
9.0760676825
 30
0.0
 10
9.782053979
 20
9.0758354305
 30
0.0
 10
9.7820886839
 20
9.0755741018
 30
0.0
 10
9.7821774443
 20
9.0751659202
 30
0.0
 10
9.782364778
 20
9.0745882438
 30
0.0
 10
9.7826843087
 20
9.073824073
 30
0.0
 10
9.7831075367
 20
9.0729616978
 30
0.0
 10
9.7836318839
 20
9.0720071988
 30
0.0
 10
9.7842541554
 20
9.0709671031
 30
0.0
 10
9.7849692539
 20
9.0698502055
 30
0.0
 10
9.7860661805
 20
9.068226492
 30
0.0
 10
9.7876079536
 20
9.0660902803
 30
0.0
 10
9.7896318329
 20
9.0634623456
 30
0.0
 10
9.7910720149
 20
9.0616963759
 30
0.0
 10
9.7918179327
 20
9.0608074257
 30
0.0
  0
SPLINE
  5
490
100
AcDbEntity
  8
0
100
AcDbSpline
 62
9
  6
CONTINUOUS
 70
0
 71
3
 72
19
 73
15
 74
0
 42
0.0000001
 43
0.0000001
 44
0.0000000001
 40
0.0
 40
0.0
 40
0.0
 40
0.0
 40
0.0463215015
 40
0.0921786737
 40
0.1384766779
 40
0.1860191467
 40
0.2872164488
 40
0.3420283548
 40
0.4000569826
 40
0.4615564614
 40
0.526726232
 40
0.6685510195
 40
0.8263843709
 40
1.0
 40
1.0
 40
1.0
 40
1.0
 10
8.2909688044
 20
10.8806327135
 30
0.0
 10
8.291264876
 20
10.8811849088
 30
0.0
 10
8.2919401016
 20
10.8822403375
 30
0.0
 10
8.2931910154
 20
10.8836443374
 30
0.0
 10
8.294656076
 20
10.884849401
 30
0.0
 10
8.2969219894
 20
10.8862155708
 30
0.0
 10
8.2995514797
 20
10.8871369219
 30
0.0
 10
8.3024045349
 20
10.8876439946
 30
0.0
 10
8.3047599967
 20
10.8878238568
 30
0.0
 10
8.307261106
 20
10.8877857475
 30
0.0
 10
8.3108784222
 20
10.8874235527
 30
0.0
 10
8.3157131475
 20
10.8863340749
 30
0.0
 10
8.3217070986
 20
10.8840304
 30
0.0
 10
8.3256383031
 20
10.8818370258
 30
0.0
 10
8.3276050956
 20
10.8805538126
 30
0.0
  0
SPLINE
  5
491
100
AcDbEntity
  8
0
100
AcDbSpline
 62
9
  6
CONTINUOUS
 70
0
 71
3
 72
18
 73
14
 74
0
 42
0.0000001
 43
0.0000001
 44
0.0000000001
 40
0.0
 40
0.0
 40
0.0
 40
0.0
 40
0.0352683453
 40
0.0696454363
 40
0.1047153451
 40
0.1419682725
 40
0.1826444894
 40
0.2276806266
 40
0.3332329817
 40
0.4621353285
 40
0.6159072183
 40
0.7951722197
 40
1.0
 40
1.0
 40
1.0
 40
1.0
 10
8.8434576484
 20
10.2016100204
 30
0.0
 10
8.8434826478
 20
10.2016565861
 30
0.0
 10
8.8435410907
 20
10.2017441284
 30
0.0
 10
8.8436553716
 20
10.2018534711
 30
0.0
 10
8.8437932619
 20
10.2019367933
 30
0.0
 10
8.8439536687
 20
10.2019940173
 30
0.0
 10
8.8441359435
 20
10.2020256911
 30
0.0
 10
8.8444231619
 20
10.2020348428
 30
0.0
 10
8.8448404592
 20
10.2019747526
 30
0.0
 10
8.8453994638
 20
10.2018098279
 30
0.0
 10
8.8460414431
 20
10.2015484366
 30
0.0
 10
8.8467643386
 20
10.2011908436
 30
0.0
 10
8.8472655645
 20
10.2009073053
 30
0.0
 10
8.8475295472
 20
10.2007506829
 30
0.0
  0
SPLINE
  5
492
100
AcDbEntity
  8
0
100
AcDbSpline
 62
7
  6
CONTINUOUS
 70
0
 71
3
 72
14
 73
10
 74
0
 42
0.0000001
 43
0.0000001
 44
0.0000000001
 40
0.0
 40
0.0
 40
0.0
 40
0.0
 40
0.2540181442
 40
0.5063272491
 40
0.6313538734
 40
0.7553840862
 40
0.8169867641
 40
0.8783047098
 40
1.0
 40
1.0
 40
1.0
 40
1.0
 10
9.0835948852
 20
9.9808101834
 30
0.0
 10
9.0827672385
 20
9.9817966767
 30
0.0
 10
9.0810737862
 20
9.983726685
 30
0.0
 10
9.07887474
 20
9.9860527034
 30
0.0
 10
9.0770991182
 20
9.9878711744
 30
0.0
 10
9.075993979
 20
9.9889931114
 30
0.0
 10
9.0751208894
 20
9.9898903181
 30
0.0
 10
9.0742627542
 20
9.9907853475
 30
0.0
 10
9.0736360975
 20
9.9914703787
 30
0.0
 10
9.0732387211
 20
9.9919422606
 30
0.0
  0
SPLINE
  5
493
100
AcDbEntity
  8
0
100
AcDbSpline
 62
7
  6
CONTINUOUS
 70
0
 71
3
 72
14
 73
10
 74
0
 42
0.0000001
 43
0.0000001
 44
0.0000000001
 40
0.0
 40
0.0
 40
0.0
 40
0.0
 40
0.1216961789
 40
0.1830141318
 40
0.2446164713
 40
0.368645988
 40
0.4936724782
 40
0.7459819478
 40
1.0
 40
1.0
 40
1.0
 40
1.0
 10
9.0927595246
 20
9.9686782733
 30
0.0
 10
9.0923637564
 20
9.9691515125
 30
0.0
 10
9.0917976892
 20
9.9698874097
 30
0.0
 10
9.0910652746
 20
9.9708879405
 30
0.0
 10
9.090333559
 20
9.9719037412
 30
0.0
 10
9.0894209597
 20
9.9731871855
 30
0.0
 10
9.0879384732
 20
9.975251631
 30
0.0
 10
9.0860288898
 20
9.9778206165
 30
0.0
 10
9.0844225341
 20
9.979823689
 30
0.0
 10
9.083594886
 20
9.980810184
 30
0.0
  0
SPLINE
  5
494
100
AcDbEntity
  8
0
100
AcDbSpline
 62
7
  6
CONTINUOUS
 70
0
 71
3
 72
23
 73
19
 74
0
 42
0.0000001
 43
0.0000001
 44
0.0000000001
 40
0.0
 40
0.0
 40
0.0
 40
0.0
 40
0.0084906217
 40
0.0178769539
 40
0.0285813346
 40
0.0408473195
 40
0.0548041666
 40
0.0705234047
 40
0.1073441825
 40
0.1513531547
 40
0.2024075237
 40
0.260320254
 40
0.3248186383
 40
0.395477849
 40
0.4715914991
 40
0.6369935843
 40
0.8151129113
 40
1.0
 40
1.0
 40
1.0
 40
1.0
 10
9.5958134003
 20
9.2987320853
 30
0.0
 10
9.5957784401
 20
9.2986918641
 30
0.0
 10
9.5957175851
 20
9.2985955523
 30
0.0
 10
9.595663003
 20
9.2984232123
 30
0.0
 10
9.5956394912
 20
9.298220571
 30
0.0
 10
9.5956455722
 20
9.297988319
 30
0.0
 10
9.5956802771
 20
9.2977269903
 30
0.0
 10
9.5957690375
 20
9.2973188087
 30
0.0
 10
9.5959563712
 20
9.2967411323
 30
0.0
 10
9.5962759019
 20
9.2959769615
 30
0.0
 10
9.5966991299
 20
9.2951145863
 30
0.0
 10
9.5972234771
 20
9.2941600873
 30
0.0
 10
9.5978457486
 20
9.2931199916
 30
0.0
 10
9.5985608471
 20
9.292003094
 30
0.0
 10
9.5996577737
 20
9.2903793805
 30
0.0
 10
9.6011995468
 20
9.2882431688
 30
0.0
 10
9.6032234261
 20
9.2856152341
 30
0.0
 10
9.6046636081
 20
9.2838492644
 30
0.0
 10
9.6054095259
 20
9.2829603142
 30
0.0
  0
SPLINE
  5
495
100
AcDbEntity
  8
0
100
AcDbSpline
 62
9
  6
CONTINUOUS
 70
0
 71
3
 72
18
 73
14
 74
0
 42
0.0000001
 43
0.0000001
 44
0.0000000001
 40
0.0
 40
0.0
 40
0.0
 40
0.0
 40
0.2048445602
 40
0.3841215915
 40
0.537902138
 40
0.6668090644
 40
0.7723508365
 40
0.8173760976
 40
0.8580411949
 40
0.8952877619
 40
0.9303567543
 40
0.9647345642
 40
1.0
 40
1.0
 40
1.0
 40
1.0
 10
9.2592006197
 20
9.7101417231
 30
0.0
 10
9.2593091575
 20
9.709854342
 30
0.0
 10
9.2595016301
 20
9.7093111099
 30
0.0
 10
9.2597286273
 20
9.7085365439
 30
0.0
 10
9.259874691
 20
9.7078584
 30
0.0
 10
9.2599400625
 20
9.7072788317
 30
0.0
 10
9.2599269175
 20
9.7068571651
 30
0.0
 10
9.2598681175
 20
9.7065757196
 30
0.0
 10
9.2598052936
 20
9.7064016083
 30
0.0
 10
9.2597210376
 20
9.7062534901
 30
0.0
 10
9.2596149478
 20
9.7061320992
 30
0.0
 10
9.2594873165
 20
9.7060385007
 30
0.0
 10
9.2593908814
 20
9.7059961357
 30
0.0
 10
9.2593406463
 20
9.705979603
 30
0.0
  0
SPLINE
  5
496
100
AcDbEntity
  8
0
100
AcDbSpline
 62
9
  6
CONTINUOUS
 70
0
 71
3
 72
19
 73
15
 74
0
 42
0.0000001
 43
0.0000001
 44
0.0000000001
 40
0.0
 40
0.0
 40
0.0
 40
0.0
 40
0.1736155891
 40
0.33144884
 40
0.4732735398
 40
0.5384433215
 40
0.5999427106
 40
0.6579712604
 40
0.7127831973
 40
0.8139806051
 40
0.8615232409
 40
0.9078216659
 40
0.9536790622
 40
1.0
 40
1.0
 40
1.0
 40
1.0
 10
9.279167917
 20
9.746525402
 30
0.0
 10
9.2800901017
 20
9.7443656607
 30
0.0
 10
9.2815675188
 20
9.7401133096
 30
0.0
 10
9.2827953344
 20
9.7338103906
 30
0.0
 10
9.2830287402
 20
9.7288599315
 30
0.0
 10
9.2827572661
 20
9.7252346803
 30
0.0
 10
9.2823605048
 20
9.7227649502
 30
0.0
 10
9.2817743624
 20
9.7204765045
 30
0.0
 10
9.2807795581
 20
9.7177548474
 30
0.0
 10
9.2794155965
 20
9.7153252923
 30
0.0
 10
9.2776767002
 20
9.7133310315
 30
0.0
 10
9.2762355249
 20
9.712097485
 30
0.0
 10
9.2746356359
 20
9.7111093766
 30
0.0
 10
9.2734789967
 20
9.7106276778
 30
0.0
 10
9.2728837857
 20
9.7104319935
 30
0.0
  0
SPLINE
  5
497
100
AcDbEntity
  8
0
100
AcDbSpline
 62
9
  6
CONTINUOUS
 70
0
 71
3
 72
19
 73
15
 74
0
 42
0.0000001
 43
0.0000001
 44
0.0000000001
 40
0.0
 40
0.0
 40
0.0
 40
0.0
 40
0.0463214964
 40
0.0921786636
 40
0.1384766632
 40
0.1860191283
 40
0.2872164253
 40
0.3420283302
 40
0.4000569578
 40
0.4615564373
 40
0.5267262094
 40
0.6685510025
 40
0.8263843618
 40
1.0
 40
1.0
 40
1.0
 40
1.0
 10
8.1045603976
 20
11.102785602
 30
0.0
 10
8.1048564693
 20
11.1033377974
 30
0.0
 10
8.105531695
 20
11.1043932264
 30
0.0
 10
8.1067826092
 20
11.1057972266
 30
0.0
 10
8.1082476703
 20
11.1070022904
 30
0.0
 10
8.1105135846
 20
11.1083684603
 30
0.0
 10
8.1131430758
 20
11.1092898113
 30
0.0
 10
8.1159961319
 20
11.1097968836
 30
0.0
 10
8.1183515947
 20
11.1099767454
 30
0.0
 10
8.1208527048
 20
11.1099386356
 30
0.0
 10
8.1244700223
 20
11.10957644
 30
0.0
 10
8.1293047493
 20
11.1084869608
 30
0.0
 10
8.1352987025
 20
11.1061832839
 30
0.0
 10
8.1392299075
 20
11.1039899071
 30
0.0
 10
8.1411967009
 20
11.1027066935
 30
0.0
  0
SPLINE
  5
498
100
AcDbEntity
  8
0
100
AcDbSpline
 62
7
  6
CONTINUOUS
 70
0
 71
3
 72
23
 73
19
 74
0
 42
0.0000001
 43
0.0000001
 44
0.0000000001
 40
0.0
 40
0.0
 40
0.0
 40
0.0
 40
0.0084906217
 40
0.0178769539
 40
0.0285813346
 40
0.0408473195
 40
0.0548041666
 40
0.0705234047
 40
0.1073441825
 40
0.1513531547
 40
0.2024075237
 40
0.260320254
 40
0.3248186383
 40
0.395477849
 40
0.4715914991
 40
0.6369935843
 40
0.8151129113
 40
1.0
 40
1.0
 40
1.0
 40
1.0
 10
9.4094049935
 20
9.5208849739
 30
0.0
 10
9.4093700333
 20
9.5208447526
 30
0.0
 10
9.4093091783
 20
9.5207484408
 30
0.0
 10
9.4092545962
 20
9.5205761008
 30
0.0
 10
9.4092310844
 20
9.5203734595
 30
0.0
 10
9.4092371654
 20
9.5201412075
 30
0.0
 10
9.4092718703
 20
9.5198798788
 30
0.0
 10
9.4093606307
 20
9.5194716972
 30
0.0
 10
9.4095479644
 20
9.5188940208
 30
0.0
 10
9.4098674951
 20
9.51812985
 30
0.0
 10
9.4102907231
 20
9.5172674748
 30
0.0
 10
9.4108150702
 20
9.5163129758
 30
0.0
 10
9.4114373418
 20
9.5152728801
 30
0.0
 10
9.4121524403
 20
9.5141559825
 30
0.0
 10
9.4132493668
 20
9.512532269
 30
0.0
 10
9.41479114
 20
9.5103960573
 30
0.0
 10
9.4168150193
 20
9.5077681226
 30
0.0
 10
9.4182552013
 20
9.5060021529
 30
0.0
 10
9.419001119
 20
9.5051132027
 30
0.0
  0
SPLINE
  5
499
100
AcDbEntity
  8
0
100
AcDbSpline
 62
7
  6
CONTINUOUS
 70
0
 71
3
 72
14
 73
10
 74
0
 42
0.0000001
 43
0.0000001
 44
0.0000000001
 40
0.0
 40
0.0
 40
0.0
 40
0.0
 40
0.2540181442
 40
0.5063272491
 40
0.6313538734
 40
0.7553840862
 40
0.8169867641
 40
0.8783047098
 40
1.0
 40
1.0
 40
1.0
 40
1.0
 10
9.270003292
 20
9.7586572949
 30
0.0
 10
9.2691756453
 20
9.7596437882
 30
0.0
 10
9.267482193
 20
9.7615737965
 30
0.0
 10
9.2652831468
 20
9.7638998149
 30
0.0
 10
9.263507525
 20
9.7657182859
 30
0.0
 10
9.2624023858
 20
9.7668402229
 30
0.0
 10
9.2615292962
 20
9.7677374295
 30
0.0
 10
9.260671161
 20
9.768632459
 30
0.0
 10
9.2600445044
 20
9.7693174902
 30
0.0
 10
9.2596471279
 20
9.7697893721
 30
0.0
  0
SPLINE
  5
49A
100
AcDbEntity
  8
0
100
AcDbSpline
 62
7
  6
CONTINUOUS
 70
0
 71
3
 72
14
 73
10
 74
0
 42
0.0000001
 43
0.0000001
 44
0.0000000001
 40
0.0
 40
0.0
 40
0.0
 40
0.0
 40
0.1216961789
 40
0.1830141318
 40
0.2446164713
 40
0.368645988
 40
0.4936724782
 40
0.7459819478
 40
1.0
 40
1.0
 40
1.0
 40
1.0
 10
9.2791679314
 20
9.7465253848
 30
0.0
 10
9.2787721632
 20
9.746998624
 30
0.0
 10
9.278206096
 20
9.7477345212
 30
0.0
 10
9.2774736814
 20
9.748735052
 30
0.0
 10
9.2767419658
 20
9.7497508527
 30
0.0
 10
9.2758293665
 20
9.751034297
 30
0.0
 10
9.2743468801
 20
9.7530987425
 30
0.0
 10
9.2724372966
 20
9.755667728
 30
0.0
 10
9.2708309409
 20
9.7576708005
 30
0.0
 10
9.2700032928
 20
9.7586572955
 30
0.0
  0
SPLINE
  5
49B
100
AcDbEntity
  8
0
100
AcDbSpline
 62
9
  6
CONTINUOUS
 70
0
 71
3
 72
18
 73
14
 74
0
 42
0.0000001
 43
0.0000001
 44
0.0000000001
 40
0.0
 40
0.0
 40
0.0
 40
0.0
 40
0.2048445602
 40
0.3841215915
 40
0.537902138
 40
0.6668090644
 40
0.7723508365
 40
0.8173760976
 40
0.8580411949
 40
0.8952877619
 40
0.9303567543
 40
0.9647345642
 40
1.0
 40
1.0
 40
1.0
 40
1.0
 10
9.4456090265
 20
9.4879888346
 30
0.0
 10
9.4457175643
 20
9.4877014535
 30
0.0
 10
9.4459100369
 20
9.4871582214
 30
0.0
 10
9.4461370341
 20
9.4863836554
 30
0.0
 10
9.4462830978
 20
9.4857055115
 30
0.0
 10
9.4463484693
 20
9.4851259432
 30
0.0
 10
9.4463353244
 20
9.4847042766
 30
0.0
 10
9.4462765243
 20
9.4844228311
 30
0.0
 10
9.4462137004
 20
9.4842487198
 30
0.0
 10
9.4461294444
 20
9.4841006016
 30
0.0
 10
9.4460233547
 20
9.4839792107
 30
0.0
 10
9.4458957233
 20
9.4838856122
 30
0.0
 10
9.4457992882
 20
9.4838432472
 30
0.0
 10
9.4457490532
 20
9.4838267145
 30
0.0
  0
SPLINE
  5
49C
100
AcDbEntity
  8
0
100
AcDbSpline
 62
9
  6
CONTINUOUS
 70
0
 71
3
 72
19
 73
15
 74
0
 42
0.0000001
 43
0.0000001
 44
0.0000000001
 40
0.0
 40
0.0
 40
0.0
 40
0.0
 40
0.1736155891
 40
0.33144884
 40
0.4732735398
 40
0.5384433215
 40
0.5999427106
 40
0.6579712604
 40
0.7127831973
 40
0.8139806051
 40
0.8615232409
 40
0.9078216659
 40
0.9536790622
 40
1.0
 40
1.0
 40
1.0
 40
1.0
 10
9.4655763238
 20
9.5243725135
 30
0.0
 10
9.4664985085
 20
9.5222127722
 30
0.0
 10
9.4679759256
 20
9.5179604211
 30
0.0
 10
9.4692037412
 20
9.5116575021
 30
0.0
 10
9.469437147
 20
9.506707043
 30
0.0
 10
9.4691656729
 20
9.5030817917
 30
0.0
 10
9.4687689116
 20
9.5006120616
 30
0.0
 10
9.4681827692
 20
9.498323616
 30
0.0
 10
9.4671879649
 20
9.4956019589
 30
0.0
 10
9.4658240033
 20
9.4931724038
 30
0.0
 10
9.464085107
 20
9.491178143
 30
0.0
 10
9.4626439317
 20
9.4899445965
 30
0.0
 10
9.4610440427
 20
9.4889564881
 30
0.0
 10
9.4598874035
 20
9.4884747893
 30
0.0
 10
9.4592921925
 20
9.488279105
 30
0.0
  0
SPLINE
  5
49D
100
AcDbEntity
  8
0
100
AcDbSpline
 62
7
  6
CONTINUOUS
 70
0
 71
3
 72
23
 73
19
 74
0
 42
0.0000001
 43
0.0000001
 44
0.0000000001
 40
0.0
 40
0.0
 40
0.0
 40
0.0
 40
0.0084906217
 40
0.0178769539
 40
0.0285813346
 40
0.0408473195
 40
0.0548041666
 40
0.0705234047
 40
0.1073441825
 40
0.1513531547
 40
0.2024075237
 40
0.260320254
 40
0.3248186383
 40
0.395477849
 40
0.4715914991
 40
0.6369935843
 40
0.8151129113
 40
1.0
 40
1.0
 40
1.0
 40
1.0
 10
9.2229965867
 20
9.7430378624
 30
0.0
 10
9.2229616265
 20
9.7429976411
 30
0.0
 10
9.2229007714
 20
9.7429013293
 30
0.0
 10
9.2228461894
 20
9.7427289893
 30
0.0
 10
9.2228226776
 20
9.742526348
 30
0.0
 10
9.2228287586
 20
9.742294096
 30
0.0
 10
9.2228634635
 20
9.7420327673
 30
0.0
 10
9.2229522239
 20
9.7416245857
 30
0.0
 10
9.2231395576
 20
9.7410469093
 30
0.0
 10
9.2234590883
 20
9.7402827385
 30
0.0
 10
9.2238823163
 20
9.7394203633
 30
0.0
 10
9.2244066634
 20
9.7384658643
 30
0.0
 10
9.225028935
 20
9.7374257686
 30
0.0
 10
9.2257440335
 20
9.736308871
 30
0.0
 10
9.22684096
 20
9.7346851575
 30
0.0
 10
9.2283827332
 20
9.7325489458
 30
0.0
 10
9.2304066124
 20
9.7299210111
 30
0.0
 10
9.2318467945
 20
9.7281550414
 30
0.0
 10
9.2325927122
 20
9.7272660912
 30
0.0
  0
SPLINE
  5
49E
100
AcDbEntity
  8
0
100
AcDbSpline
 62
9
  6
CONTINUOUS
 70
0
 71
3
 72
29
 73
25
 74
0
 42
0.0000001
 43
0.0000001
 44
0.0000000001
 40
0.0
 40
0.0
 40
0.0
 40
0.0
 40
0.1253813731
 40
0.25054229
 40
0.3130397512
 40
0.3754804303
 40
0.4378660338
 40
0.5001975598
 40
0.5624818585
 40
0.6247275545
 40
0.6558431829
 40
0.6869581563
 40
0.7180745943
 40
0.749198839
 40
0.7803386058
 40
0.8115039464
 40
0.8427080203
 40
0.87396901
 40
0.9053096859
 40
0.9367486229
 40
0.9525268924
 40
0.9683324933
 40
0.9841618915
 40
1.0
 40
1.0
 40
1.0
 40
1.0
 10
14.1391118432
 20
4.1533212665
 30
0.0
 10
14.1353458755
 20
4.1527973785
 30
0.0
 10
14.1278330401
 20
4.1516578799
 30
0.0
 10
14.1184923858
 20
4.1499524466
 30
0.0
 10
14.1110733242
 20
4.148375346
 30
0.0
 10
14.1055436459
 20
4.1470720847
 30
0.0
 10
14.100053256
 20
4.1456311783
 30
0.0
 10
14.0946126234
 20
4.1440280588
 30
0.0
 10
14.0892358364
 20
4.1422348661
 30
0.0
 10
14.0848241576
 20
4.1405510129
 30
0.0
 10
14.08135534
 20
4.139061083
 30
0.0
 10
14.0787887523
 20
4.1378657721
 30
0.0
 10
14.0762653915
 20
4.1365807361
 30
0.0
 10
14.0737963822
 20
4.1351921046
 30
0.0
 10
14.0713953043
 20
4.1336856063
 30
0.0
 10
14.0690820162
 20
4.1320423196
 30
0.0
 10
14.0668861383
 20
4.130237653
 30
0.0
 10
14.0648543598
 20
4.1282400635
 30
0.0
 10
14.0630472401
 20
4.1260249588
 30
0.0
 10
14.0618194745
 20
4.123968799
 30
0.0
 10
14.0610777444
 20
4.1222044004
 30
0.0
 10
14.0606574342
 20
4.1208264036
 30
0.0
 10
14.0603949092
 20
4.1194076718
 30
0.0
 10
14.0603361728
 20
4.1184462231
 30
0.0
 10
14.0603367239
 20
4.1179659275
 30
0.0
  0
SPLINE
  5
49F
100
AcDbEntity
  8
0
100
AcDbSpline
 62
7
  6
CONTINUOUS
 70
0
 71
3
 72
14
 73
10
 74
0
 42
0.0000001
 43
0.0000001
 44
0.0000000001
 40
0.0
 40
0.0
 40
0.0
 40
0.0
 40
0.2540181181
 40
0.5063273028
 40
0.6313539291
 40
0.7553840635
 40
0.8169866809
 40
0.8783046005
 40
1.0
 40
1.0
 40
1.0
 40
1.0
 10
9.4564117248
 20
9.5365044282
 30
0.0
 10
9.4555840486
 20
9.5374908969
 30
0.0
 10
9.4538905258
 20
9.5394208408
 30
0.0
 10
9.4516916005
 20
9.5417469731
 30
0.0
 10
9.4499159818
 20
9.5435654485
 30
0.0
 10
9.4488107935
 20
9.5446873364
 30
0.0
 10
9.4479376704
 20
9.5455845095
 30
0.0
 10
9.447079534
 20
9.5464795387
 30
0.0
 10
9.4464529067
 20
9.5471645971
 30
0.0
 10
9.4460555347
 20
9.5476364836
 30
0.0
  0
SPLINE
  5
4A0
100
AcDbEntity
  8
0
100
AcDbSpline
 62
7
  6
CONTINUOUS
 70
0
 71
3
 72
14
 73
10
 74
0
 42
0.0000001
 43
0.0000001
 44
0.0000000001
 40
0.0
 40
0.0
 40
0.0
 40
0.0
 40
0.1216959932
 40
0.1830139865
 40
0.2446164231
 40
0.3686460778
 40
0.4936725868
 40
0.7459819347
 40
1.0
 40
1.0
 40
1.0
 40
1.0
 10
9.4655763382
 20
9.5243724963
 30
0.0
 10
9.4651805786
 20
9.5248457413
 30
0.0
 10
9.4646145657
 20
9.5255816797
 30
0.0
 10
9.4638821535
 20
9.526582211
 30
0.0
 10
9.4631503758
 20
9.5275979685
 30
0.0
 10
9.4622376807
 20
9.528881346
 30
0.0
 10
9.4607551877
 20
9.5309457856
 30
0.0
 10
9.4588457946
 20
9.5335149118
 30
0.0
 10
9.4572394032
 20
9.5355179586
 30
0.0
 10
9.4564117256
 20
9.5365044289
 30
0.0
  0
SPLINE
  5
4A1
100
AcDbEntity
  8
0
100
AcDbSpline
 62
7
  6
CONTINUOUS
 70
0
 71
3
 72
23
 73
19
 74
0
 42
0.0000001
 43
0.0000001
 44
0.0000000001
 40
0.0
 40
0.0
 40
0.0
 40
0.0
 40
0.0084906217
 40
0.0178769539
 40
0.0285813346
 40
0.0408473195
 40
0.0548041666
 40
0.0705234047
 40
0.1073441825
 40
0.1513531547
 40
0.2024075237
 40
0.260320254
 40
0.3248186383
 40
0.395477849
 40
0.4715914991
 40
0.6369935843
 40
0.8151129113
 40
1.0
 40
1.0
 40
1.0
 40
1.0
 10
9.0365881799
 20
9.9651907509
 30
0.0
 10
9.0365532197
 20
9.9651505296
 30
0.0
 10
9.0364923646
 20
9.9650542178
 30
0.0
 10
9.0364377826
 20
9.9648818779
 30
0.0
 10
9.0364142707
 20
9.9646792365
 30
0.0
 10
9.0364203518
 20
9.9644469845
 30
0.0
 10
9.0364550567
 20
9.9641856558
 30
0.0
 10
9.0365438171
 20
9.9637774742
 30
0.0
 10
9.0367311508
 20
9.9631997978
 30
0.0
 10
9.0370506815
 20
9.962435627
 30
0.0
 10
9.0374739095
 20
9.9615732518
 30
0.0
 10
9.0379982566
 20
9.9606187528
 30
0.0
 10
9.0386205282
 20
9.9595786571
 30
0.0
 10
9.0393356267
 20
9.9584617595
 30
0.0
 10
9.0404325532
 20
9.956838046
 30
0.0
 10
9.0419743264
 20
9.9547018343
 30
0.0
 10
9.0439982056
 20
9.9520738996
 30
0.0
 10
9.0454383876
 20
9.9503079299
 30
0.0
 10
9.0461843054
 20
9.9494189797
 30
0.0
  0
SPLINE
  5
4A2
100
AcDbEntity
  8
0
100
AcDbSpline
 62
9
  6
CONTINUOUS
 70
0
 71
3
 72
18
 73
14
 74
0
 42
0.0000001
 43
0.0000001
 44
0.0000000001
 40
0.0
 40
0.0
 40
0.0
 40
0.0
 40
0.2048445602
 40
0.3841215915
 40
0.537902138
 40
0.6668090644
 40
0.7723508365
 40
0.8173760976
 40
0.8580411949
 40
0.8952877619
 40
0.9303567543
 40
0.9647345642
 40
1.0
 40
1.0
 40
1.0
 40
1.0
 10
9.6320174333
 20
9.2658359461
 30
0.0
 10
9.6321259711
 20
9.265548565
 30
0.0
 10
9.6323184437
 20
9.2650053329
 30
0.0
 10
9.6325454409
 20
9.2642307669
 30
0.0
 10
9.6326915046
 20
9.263552623
 30
0.0
 10
9.6327568761
 20
9.2629730547
 30
0.0
 10
9.6327437312
 20
9.2625513881
 30
0.0
 10
9.6326849311
 20
9.2622699426
 30
0.0
 10
9.6326221072
 20
9.2620958313
 30
0.0
 10
9.6325378512
 20
9.2619477131
 30
0.0
 10
9.6324317615
 20
9.2618263222
 30
0.0
 10
9.6323041301
 20
9.2617327237
 30
0.0
 10
9.6322076951
 20
9.2616903587
 30
0.0
 10
9.63215746
 20
9.261673826
 30
0.0
  0
SPLINE
  5
4A3
100
AcDbEntity
  8
0
100
AcDbSpline
 62
9
  6
CONTINUOUS
 70
0
 71
3
 72
19
 73
15
 74
0
 42
0.0000001
 43
0.0000001
 44
0.0000000001
 40
0.0
 40
0.0
 40
0.0
 40
0.0
 40
0.1736155903
 40
0.3314488423
 40
0.4732735429
 40
0.5384433248
 40
0.599942714
 40
0.6579712637
 40
0.7127832004
 40
0.8139806076
 40
0.8615232429
 40
0.9078216672
 40
0.9536790629
 40
1.0
 40
1.0
 40
1.0
 40
1.0
 10
9.6519847299
 20
9.3022196267
 30
0.0
 10
9.6529069146
 20
9.3000598854
 30
0.0
 10
9.6543843321
 20
9.2958075341
 30
0.0
 10
9.6556121478
 20
9.2895046148
 30
0.0
 10
9.6558455538
 20
9.2845541555
 30
0.0
 10
9.6555740798
 20
9.280928904
 30
0.0
 10
9.6551773186
 20
9.2784591738
 30
0.0
 10
9.6545911761
 20
9.276170728
 30
0.0
 10
9.6535963718
 20
9.2734490708
 30
0.0
 10
9.6522324103
 20
9.2710195156
 30
0.0
 10
9.6504935139
 20
9.2690252546
 30
0.0
 10
9.6490523386
 20
9.2677917081
 30
0.0
 10
9.6474524496
 20
9.2668035996
 30
0.0
 10
9.6462958103
 20
9.2663219008
 30
0.0
 10
9.6457005993
 20
9.2661262165
 30
0.0
  0
SPLINE
  5
4A4
100
AcDbEntity
  8
0
100
AcDbSpline
 62
9
  6
CONTINUOUS
 70
0
 71
3
 72
18
 73
14
 74
0
 42
0.0000001
 43
0.0000001
 44
0.0000000001
 40
0.0
 40
0.0
 40
0.0
 40
0.0
 40
0.0352683453
 40
0.0696454363
 40
0.1047153451
 40
0.1419682725
 40
0.1826444894
 40
0.2276806266
 40
0.3332329817
 40
0.4621353286
 40
0.6159072183
 40
0.7951722197
 40
1.0
 40
1.0
 40
1.0
 40
1.0
 10
8.6570492415
 20
10.4237629089
 30
0.0
 10
8.657074241
 20
10.4238094746
 30
0.0
 10
8.6571326839
 20
10.4238970169
 30
0.0
 10
8.6572469648
 20
10.4240063596
 30
0.0
 10
8.6573848551
 20
10.4240896818
 30
0.0
 10
8.6575452619
 20
10.4241469058
 30
0.0
 10
8.6577275367
 20
10.4241785796
 30
0.0
 10
8.6580147551
 20
10.4241877313
 30
0.0
 10
8.6584320524
 20
10.4241276411
 30
0.0
 10
8.658991057
 20
10.4239627164
 30
0.0
 10
8.6596330363
 20
10.4237013251
 30
0.0
 10
8.6603559318
 20
10.4233437321
 30
0.0
 10
8.6608571577
 20
10.4230601938
 30
0.0
 10
8.6611211404
 20
10.4229035714
 30
0.0
  0
SPLINE
  5
4A5
100
AcDbEntity
  8
0
100
AcDbSpline
 62
9
  6
CONTINUOUS
 70
0
 71
3
 72
25
 73
21
 74
0
 42
0.0000001
 43
0.0000001
 44
0.0000000001
 40
0.0
 40
0.0
 40
0.0
 40
0.0
 40
0.1249396346
 40
0.2491149367
 40
0.3726492915
 40
0.4342777252
 40
0.4958745013
 40
0.5575160079
 40
0.6193035375
 40
0.6813626773
 40
0.7125532549
 40
0.7438705583
 40
0.7753326556
 40
0.8069552812
 40
0.838754349
 40
0.8707282782
 40
0.9028698813
 40
0.9351558651
 40
0.9675510667
 40
1.0
 40
1.0
 40
1.0
 40
1.0
 10
14.1257076577
 20
4.1886766055
 30
0.0
 10
14.120865431
 20
4.1874527449
 30
0.0
 10
14.1112688919
 20
4.1847699904
 30
0.0
 10
14.0971864172
 20
4.1798803953
 30
0.0
 10
14.0858365224
 20
4.1749262941
 30
0.0
 10
14.077111102
 20
4.1703159174
 30
0.0
 10
14.0707814833
 20
4.1664924975
 30
0.0
 10
14.0647110073
 20
4.1622558032
 30
0.0
 10
14.0589648186
 20
4.1575571385
 30
0.0
 10
14.0545226619
 20
4.1532198553
 30
0.0
 10
14.0512444279
 20
4.1494686026
 30
0.0
 10
14.048934081
 20
4.1465039225
 30
0.0
 10
14.0467946985
 20
4.1433921861
 30
0.0
 10
14.0448573604
 20
4.1401276713
 30
0.0
 10
14.043149336
 20
4.1367143669
 30
0.0
 10
14.041690937
 20
4.1331641858
 30
0.0
 10
14.0405199933
 20
4.129487957
 30
0.0
 10
14.0396637483
 20
4.1257082813
 30
0.0
 10
14.0391373976
 20
4.1218567062
 30
0.0
 10
14.0390138337
 20
4.1192630814
 30
0.0
 10
14.039015441
 20
4.1179659274
 30
0.0
  0
SPLINE
  5
4A6
100
AcDbEntity
  8
0
100
AcDbSpline
 62
7
  6
CONTINUOUS
 70
0
 71
3
 72
15
 73
11
 74
0
 42
0.0000001
 43
0.0000001
 44
0.0000000001
 40
0.0
 40
0.0
 40
0.0
 40
0.0
 40
0.2540159087
 40
0.3804897724
 40
0.5063291176
 40
0.631352507
 40
0.755380316
 40
0.816982588
 40
0.8783011727
 40
1.0
 40
1.0
 40
1.0
 40
1.0
 10
9.6428184095
 20
9.3143500946
 30
0.0
 10
9.6419906946
 20
9.31533652
 30
0.0
 10
9.6407193494
 20
9.3167879724
 30
0.0
 10
9.6389739883
 20
9.318670064
 30
0.0
 10
9.6376515471
 20
9.3200522314
 30
0.0
 10
9.6363226995
 20
9.3214108751
 30
0.0
 10
9.6352171245
 20
9.322532341
 30
0.0
 10
9.6343441917
 20
9.3234296923
 30
0.0
 10
9.6334865013
 20
9.3243251756
 30
0.0
 10
9.6328605652
 20
9.3250109301
 30
0.0
 10
9.6324640042
 20
9.3254835229
 30
0.0
  0
SPLINE
  5
4A7
100
AcDbEntity
  8
0
100
AcDbSpline
 62
7
  6
CONTINUOUS
 70
0
 71
3
 72
15
 73
11
 74
0
 42
0.0000001
 43
0.0000001
 44
0.0000000001
 40
0.0
 40
0.0
 40
0.0
 40
0.0
 40
0.1216987826
 40
0.1830173442
 40
0.2446195983
 40
0.3686473925
 40
0.4936707766
 40
0.6195101249
 40
0.7459840171
 40
1.0
 40
1.0
 40
1.0
 40
1.0
 10
9.6519847401
 20
9.3022196147
 30
0.0
 10
9.6515881896
 20
9.3026922216
 30
0.0
 10
9.6510215388
 20
9.3034277303
 30
0.0
 10
9.6502885877
 20
9.3044278935
 30
0.0
 10
9.6495564471
 20
9.3054433946
 30
0.0
 10
9.6486439947
 20
9.3067269235
 30
0.0
 10
9.6475367363
 20
9.3082715196
 30
0.0
 10
9.6464051976
 20
9.309813891
 30
0.0
 10
9.6448547679
 20
9.3118595733
 30
0.0
 10
9.6436461312
 20
9.3133636627
 30
0.0
 10
9.6428184103
 20
9.3143500953
 30
0.0
  0
SPLINE
  5
4A8
100
AcDbEntity
  8
0
100
AcDbSpline
 62
7
  6
CONTINUOUS
 70
0
 71
3
 72
23
 73
19
 74
0
 42
0.0000001
 43
0.0000001
 44
0.0000000001
 40
0.0
 40
0.0
 40
0.0
 40
0.0
 40
0.0084906217
 40
0.0178769539
 40
0.0285813346
 40
0.0408473195
 40
0.0548041666
 40
0.0705234047
 40
0.1073441825
 40
0.1513531547
 40
0.2024075237
 40
0.260320254
 40
0.3248186383
 40
0.395477849
 40
0.4715914991
 40
0.6369935843
 40
0.8151129113
 40
1.0
 40
1.0
 40
1.0
 40
1.0
 10
8.8501797731
 20
10.1873436394
 30
0.0
 10
8.8501448129
 20
10.1873034181
 30
0.0
 10
8.8500839578
 20
10.1872071063
 30
0.0
 10
8.8500293758
 20
10.1870347664
 30
0.0
 10
8.8500058639
 20
10.186832125
 30
0.0
 10
8.8500119449
 20
10.186599873
 30
0.0
 10
8.8500466499
 20
10.1863385443
 30
0.0
 10
8.8501354103
 20
10.1859303627
 30
0.0
 10
8.850322744
 20
10.1853526863
 30
0.0
 10
8.8506422746
 20
10.1845885155
 30
0.0
 10
8.8510655027
 20
10.1837261404
 30
0.0
 10
8.8515898498
 20
10.1827716413
 30
0.0
 10
8.8522121214
 20
10.1817315456
 30
0.0
 10
8.8529272198
 20
10.180614648
 30
0.0
 10
8.8540241464
 20
10.1789909345
 30
0.0
 10
8.8555659196
 20
10.1768547228
 30
0.0
 10
8.8575897988
 20
10.1742267882
 30
0.0
 10
8.8590299808
 20
10.1724608184
 30
0.0
 10
8.8597758986
 20
10.1715718682
 30
0.0
  0
SPLINE
  5
4A9
100
AcDbEntity
  8
0
100
AcDbSpline
 62
9
  6
CONTINUOUS
 70
0
 71
3
 72
14
 73
10
 74
0
 42
0.0000001
 43
0.0000001
 44
0.0000000001
 40
0.0
 40
0.0
 40
0.0
 40
0.0
 40
0.1061285933
 40
0.2199282214
 40
0.3403494634
 40
0.466269133
 40
0.5964782635
 40
0.7297094858
 40
1.0
 40
1.0
 40
1.0
 40
1.0
 10
14.1391118432
 20
4.1533213064
 30
0.0
 10
14.1384597968
 20
4.1544929146
 30
0.0
 10
14.1371671426
 20
4.1569536731
 30
0.0
 10
14.1353201018
 20
4.1608377599
 30
0.0
 10
14.1335114696
 20
4.165013825
 30
0.0
 10
14.1317604094
 20
4.1694379583
 30
0.0
 10
14.1300854056
 20
4.1740639603
 30
0.0
 10
14.1279672932
 20
4.1804664335
 30
0.0
 10
14.1265615694
 20
4.185370242
 30
0.0
 10
14.1257076261
 20
4.1886766056
 30
0.0
  0
SPLINE
  5
4AA
100
AcDbEntity
  8
0
100
AcDbSpline
 62
9
  6
CONTINUOUS
 70
0
 71
3
 72
18
 73
14
 74
0
 42
0.0000001
 43
0.0000001
 44
0.0000000001
 40
0.0
 40
0.0
 40
0.0
 40
0.0
 40
0.2048445602
 40
0.3841215915
 40
0.537902138
 40
0.6668090644
 40
0.7723508365
 40
0.8173760976
 40
0.8580411949
 40
0.8952877619
 40
0.9303567543
 40
0.9647345642
 40
1.0
 40
1.0
 40
1.0
 40
1.0
 10
9.8184258401
 20
9.0436830576
 30
0.0
 10
9.8185343779
 20
9.0433956764
 30
0.0
 10
9.8187268506
 20
9.0428524444
 30
0.0
 10
9.8189538478
 20
9.0420778784
 30
0.0
 10
9.8190999114
 20
9.0413997345
 30
0.0
 10
9.8191652829
 20
9.0408201662
 30
0.0
 10
9.819152138
 20
9.0403984996
 30
0.0
 10
9.8190933379
 20
9.0401170541
 30
0.0
 10
9.819030514
 20
9.0399429428
 30
0.0
 10
9.818946258
 20
9.0397948246
 30
0.0
 10
9.8188401683
 20
9.0396734336
 30
0.0
 10
9.818712537
 20
9.0395798352
 30
0.0
 10
9.8186161019
 20
9.0395374702
 30
0.0
 10
9.8185658668
 20
9.0395209375
 30
0.0
  0
SPLINE
  5
4AB
100
AcDbEntity
  8
0
100
AcDbSpline
 62
9
  6
CONTINUOUS
 70
0
 71
3
 72
19
 73
15
 74
0
 42
0.0000001
 43
0.0000001
 44
0.0000000001
 40
0.0
 40
0.0
 40
0.0
 40
0.0
 40
0.173615588
 40
0.3314488379
 40
0.473273537
 40
0.5384433185
 40
0.5999427075
 40
0.6579712574
 40
0.7127831943
 40
0.8139806028
 40
0.8615232391
 40
0.9078216646
 40
0.9536790615
 40
1.0
 40
1.0
 40
1.0
 40
1.0
 10
9.8383931381
 20
9.0800667348
 30
0.0
 10
9.8393153228
 20
9.0779069937
 30
0.0
 10
9.8407927395
 20
9.0736546427
 30
0.0
 10
9.8420205549
 20
9.067351724
 30
0.0
 10
9.8422539606
 20
9.0624012651
 30
0.0
 10
9.8419824865
 20
9.058776014
 30
0.0
 10
9.8415857251
 20
9.0563062841
 30
0.0
 10
9.8409995826
 20
9.0540178385
 30
0.0
 10
9.8400047783
 20
9.0512961816
 30
0.0
 10
9.8386408168
 20
9.0488666266
 30
0.0
 10
9.8369019205
 20
9.0468723659
 30
0.0
 10
9.8354607452
 20
9.0456388195
 30
0.0
 10
9.8338608563
 20
9.044650711
 30
0.0
 10
9.8327042171
 20
9.0441690123
 30
0.0
 10
9.8321090061
 20
9.043973328
 30
0.0
  0
SPLINE
  5
4AC
100
AcDbEntity
  8
0
100
AcDbSpline
 62
7
  6
CONTINUOUS
 70
0
 71
3
 72
23
 73
19
 74
0
 42
0.0000001
 43
0.0000001
 44
0.0000000001
 40
0.0
 40
0.0
 40
0.0
 40
0.0
 40
0.0084906217
 40
0.0178769539
 40
0.0285813346
 40
0.0408473195
 40
0.0548041666
 40
0.0705234047
 40
0.1073441825
 40
0.1513531547
 40
0.2024075237
 40
0.260320254
 40
0.3248186383
 40
0.395477849
 40
0.4715914991
 40
0.6369935843
 40
0.8151129113
 40
1.0
 40
1.0
 40
1.0
 40
1.0
 10
8.6637713663
 20
10.4094965279
 30
0.0
 10
8.6637364061
 20
10.4094563066
 30
0.0
 10
8.663675551
 20
10.4093599948
 30
0.0
 10
8.663620969
 20
10.4091876549
 30
0.0
 10
8.6635974571
 20
10.4089850135
 30
0.0
 10
8.6636035381
 20
10.4087527615
 30
0.0
 10
8.6636382431
 20
10.4084914329
 30
0.0
 10
8.6637270035
 20
10.4080832512
 30
0.0
 10
8.6639143372
 20
10.4075055748
 30
0.0
 10
8.6642338678
 20
10.406741404
 30
0.0
 10
8.6646570959
 20
10.4058790289
 30
0.0
 10
8.665181443
 20
10.4049245298
 30
0.0
 10
8.6658037146
 20
10.4038844341
 30
0.0
 10
8.666518813
 20
10.4027675365
 30
0.0
 10
8.6676157396
 20
10.4011438231
 30
0.0
 10
8.6691575128
 20
10.3990076113
 30
0.0
 10
8.671181392
 20
10.3963796767
 30
0.0
 10
8.672621574
 20
10.3946137069
 30
0.0
 10
8.6733674918
 20
10.3937247567
 30
0.0
  0
SPLINE
  5
4AD
100
AcDbEntity
  8
0
100
AcDbSpline
 62
9
  6
CONTINUOUS
 70
0
 71
3
 72
18
 73
14
 74
0
 42
0.0000001
 43
0.0000001
 44
0.0000000001
 40
0.0
 40
0.0
 40
0.0
 40
0.0
 40
0.0352683453
 40
0.0696454363
 40
0.1047153451
 40
0.1419682725
 40
0.1826444894
 40
0.2276806266
 40
0.3332329817
 40
0.4621353285
 40
0.6159072183
 40
0.7951722197
 40
1.0
 40
1.0
 40
1.0
 40
1.0
 10
8.4706408347
 20
10.6459157974
 30
0.0
 10
8.4706658342
 20
10.6459623631
 30
0.0
 10
8.4707242771
 20
10.6460499054
 30
0.0
 10
8.470838558
 20
10.6461592481
 30
0.0
 10
8.4709764483
 20
10.6462425703
 30
0.0
 10
8.4711368551
 20
10.6462997943
 30
0.0
 10
8.4713191299
 20
10.6463314681
 30
0.0
 10
8.4716063483
 20
10.6463406198
 30
0.0
 10
8.4720236456
 20
10.6462805296
 30
0.0
 10
8.4725826502
 20
10.646115605
 30
0.0
 10
8.4732246294
 20
10.6458542136
 30
0.0
 10
8.473947525
 20
10.6454966206
 30
0.0
 10
8.4744487509
 20
10.6452130823
 30
0.0
 10
8.4747127336
 20
10.6450564599
 30
0.0
  0
SPLINE
  5
4AE
100
AcDbEntity
  8
0
100
AcDbSpline
 62
7
  6
CONTINUOUS
 70
0
 71
3
 72
15
 73
11
 74
0
 42
0.0000001
 43
0.0000001
 44
0.0000000001
 40
0.0
 40
0.0
 40
0.0
 40
0.0
 40
0.2540159658
 40
0.3804898494
 40
0.5063292093
 40
0.6313526023
 40
0.7553804056
 40
0.8169826662
 40
0.8783012305
 40
1.0
 40
1.0
 40
1.0
 40
1.0
 10
9.8292268168
 20
9.0921972066
 30
0.0
 10
9.8283990926
 20
9.0931836348
 30
0.0
 10
9.8271277445
 20
9.0946351006
 30
0.0
 10
9.8253823727
 20
9.0965172045
 30
0.0
 10
9.8240599236
 20
9.0978993809
 30
0.0
 10
9.82273107
 20
9.099258035
 30
0.0
 10
9.8216254907
 20
9.1003795101
 30
0.0
 10
9.8207525536
 20
9.1012768677
 30
0.0
 10
9.819894858
 20
9.1021723558
 30
0.0
 10
9.8192689156
 20
9.1028581117
 30
0.0
 10
9.8188723498
 20
9.103330705
 30
0.0
  0
SPLINE
  5
4AF
100
AcDbEntity
  8
0
100
AcDbSpline
 62
7
  6
CONTINUOUS
 70
0
 71
3
 72
15
 73
11
 74
0
 42
0.0000001
 43
0.0000001
 44
0.0000000001
 40
0.0
 40
0.0
 40
0.0
 40
0.0
 40
0.1216987213
 40
0.1830172762
 40
0.2446195274
 40
0.3686473186
 40
0.4936707078
 40
0.6195100635
 40
0.7459839717
 40
1.0
 40
1.0
 40
1.0
 40
1.0
 10
9.8383931928
 20
9.0800666695
 30
0.0
 10
9.8379966345
 20
9.0805392732
 30
0.0
 10
9.8374299932
 20
9.0812747952
 30
0.0
 10
9.8366970462
 20
9.082274968
 30
0.0
 10
9.8359648971
 20
9.0832904703
 30
0.0
 10
9.8350524289
 20
9.0845739971
 30
0.0
 10
9.8339451658
 20
9.0861186011
 30
0.0
 10
9.8328136227
 20
9.0876609808
 30
0.0
 10
9.8312631871
 20
9.0897066744
 30
0.0
 10
9.8300545468
 20
9.0912107733
 30
0.0
 10
9.8292268176
 20
9.0921972073
 30
0.0
  0
SPLINE
  5
4B0
100
AcDbEntity
  8
0
100
AcDbSpline
 62
7
  6
CONTINUOUS
 70
0
 71
3
 72
23
 73
19
 74
0
 42
0.0000001
 43
0.0000001
 44
0.0000000001
 40
0.0
 40
0.0
 40
0.0
 40
0.0
 40
0.0084906217
 40
0.0178769539
 40
0.0285813346
 40
0.0408473195
 40
0.0548041666
 40
0.0705234047
 40
0.1073441825
 40
0.1513531547
 40
0.2024075237
 40
0.260320254
 40
0.3248186383
 40
0.395477849
 40
0.4715914991
 40
0.6369935843
 40
0.8151129113
 40
1.0
 40
1.0
 40
1.0
 40
1.0
 10
8.4773629595
 20
10.6316494164
 30
0.0
 10
8.4773279993
 20
10.6316091951
 30
0.0
 10
8.4772671442
 20
10.6315128833
 30
0.0
 10
8.4772125621
 20
10.6313405434
 30
0.0
 10
8.4771890503
 20
10.631137902
 30
0.0
 10
8.4771951313
 20
10.63090565
 30
0.0
 10
8.4772298363
 20
10.6306443214
 30
0.0
 10
8.4773185967
 20
10.6302361397
 30
0.0
 10
8.4775059304
 20
10.6296584633
 30
0.0
 10
8.477825461
 20
10.6288942925
 30
0.0
 10
8.4782486891
 20
10.6280319174
 30
0.0
 10
8.4787730362
 20
10.6270774183
 30
0.0
 10
8.4793953078
 20
10.6260373226
 30
0.0
 10
8.4801104062
 20
10.624920425
 30
0.0
 10
8.4812073328
 20
10.6232967116
 30
0.0
 10
8.482749106
 20
10.6211604998
 30
0.0
 10
8.4847729852
 20
10.6185325652
 30
0.0
 10
8.4862131672
 20
10.6167665954
 30
0.0
 10
8.486959085
 20
10.6158776452
 30
0.0
  0
SPLINE
  5
4B1
100
AcDbEntity
  8
0
100
AcDbSpline
 62
9
  6
CONTINUOUS
 70
0
 71
3
 72
18
 73
14
 74
0
 42
0.0000001
 43
0.0000001
 44
0.0000000001
 40
0.0
 40
0.0
 40
0.0
 40
0.0
 40
0.2048445602
 40
0.3841215915
 40
0.537902138
 40
0.6668090644
 40
0.7723508365
 40
0.8173760976
 40
0.8580411949
 40
0.8952877619
 40
0.9303567543
 40
0.9647345642
 40
1.0
 40
1.0
 40
1.0
 40
1.0
 10
10.0048342469
 20
8.8215301691
 30
0.0
 10
10.0049427847
 20
8.8212427879
 30
0.0
 10
10.0051352574
 20
8.8206995559
 30
0.0
 10
10.0053622546
 20
8.8199249899
 30
0.0
 10
10.0055083182
 20
8.819246846
 30
0.0
 10
10.0055736897
 20
8.8186672777
 30
0.0
 10
10.0055605448
 20
8.8182456111
 30
0.0
 10
10.0055017447
 20
8.8179641656
 30
0.0
 10
10.0054389208
 20
8.8177900543
 30
0.0
 10
10.0053546648
 20
8.817641936
 30
0.0
 10
10.0052485751
 20
8.8175205451
 30
0.0
 10
10.0051209438
 20
8.8174269467
 30
0.0
 10
10.0050245087
 20
8.8173845816
 30
0.0
 10
10.0049742736
 20
8.8173680489
 30
0.0
  0
SPLINE
  5
4B2
100
AcDbEntity
  8
0
100
AcDbSpline
 62
9
  6
CONTINUOUS
 70
0
 71
3
 72
19
 73
15
 74
0
 42
0.0000001
 43
0.0000001
 44
0.0000000001
 40
0.0
 40
0.0
 40
0.0
 40
0.0
 40
0.1736155984
 40
0.3314488577
 40
0.4732735633
 40
0.5384433466
 40
0.5999427365
 40
0.657971286
 40
0.7127832217
 40
0.8139806243
 40
0.8615232562
 40
0.9078216764
 40
0.9536790675
 40
1.0
 40
1.0
 40
1.0
 40
1.0
 10
10.0248015386
 20
8.8579138617
 30
0.0
 10
10.0257237235
 20
8.8557541195
 30
0.0
 10
10.0272011433
 20
8.8515017673
 30
0.0
 10
10.0284289605
 20
8.8451988459
 30
0.0
 10
10.0286623675
 20
8.8402483848
 30
0.0
 10
10.0283908941
 20
8.8366231321
 30
0.0
 10
10.0279941331
 20
8.834153401
 30
0.0
 10
10.0274079908
 20
8.8318649544
 30
0.0
 10
10.0264131867
 20
8.8291432962
 30
0.0
 10
10.025049225
 20
8.8267137401
 30
0.0
 10
10.0233103284
 20
8.8247194785
 30
0.0
 10
10.0218691529
 20
8.8234859316
 30
0.0
 10
10.0202692636
 20
8.8224978227
 30
0.0
 10
10.019112624
 20
8.8220161238
 30
0.0
 10
10.0185174129
 20
8.8218204395
 30
0.0
  0
SPLINE
  5
4B3
100
AcDbEntity
  8
0
100
AcDbSpline
 62
7
  6
CONTINUOUS
 70
0
 71
3
 72
15
 73
11
 74
0
 42
0.0000001
 43
0.0000001
 44
0.0000000001
 40
0.0
 40
0.0
 40
0.0
 40
0.0
 40
0.2540157984
 40
0.3804896243
 40
0.5063289405
 40
0.6313523344
 40
0.7553801657
 40
0.8169824721
 40
0.878301109
 40
1.0
 40
1.0
 40
1.0
 40
1.0
 10
10.015635232
 20
8.8700443251
 30
0.0
 10
10.014807535
 20
8.8710307426
 30
0.0
 10
10.0135361887
 20
8.8724821597
 30
0.0
 10
10.0117908496
 20
8.874364224
 30
0.0
 10
10.0104684258
 20
8.8757463728
 30
0.0
 10
10.0091395919
 20
8.8771049947
 30
0.0
 10
10.0080340448
 20
8.8782264593
 30
0.0
 10
10.0071611282
 20
8.8791238043
 30
0.0
 10
10.0063034348
 20
8.8800192625
 30
0.0
 10
10.0056774876
 20
8.8807049931
 30
0.0
 10
10.0052809491
 20
8.8811775945
 30
0.0
  0
SPLINE
  5
4B4
100
AcDbEntity
  8
0
100
AcDbSpline
 62
7
  6
CONTINUOUS
 70
0
 71
3
 72
15
 73
11
 74
0
 42
0.0000001
 43
0.0000001
 44
0.0000000001
 40
0.0
 40
0.0
 40
0.0
 40
0.0
 40
0.1216988822
 40
0.1830175012
 40
0.2446197923
 40
0.3686476112
 40
0.4936709987
 40
0.6195103199
 40
0.7459841612
 40
1.0
 40
1.0
 40
1.0
 40
1.0
 10
10.0248013936
 20
8.8579140353
 30
0.0
 10
10.0244048349
 20
8.8583866225
 30
0.0
 10
10.0238382062
 20
8.8591221311
 30
0.0
 10
10.02310528
 20
8.8601222877
 30
0.0
 10
10.0223731487
 20
8.8611377704
 30
0.0
 10
10.0214607017
 20
8.8624212712
 30
0.0
 10
10.0203534644
 20
8.8639658434
 30
0.0
 10
10.0192219439
 20
8.865508188
 30
0.0
 10
10.0176715395
 20
8.8675538341
 30
0.0
 10
10.0164629328
 20
8.8690579047
 30
0.0
 10
10.0156352328
 20
8.8700443258
 30
0.0
  0
SPLINE
  5
4B5
100
AcDbEntity
  8
0
100
AcDbSpline
 62
7
  6
CONTINUOUS
 70
0
 71
3
 72
23
 73
19
 74
0
 42
0.0000001
 43
0.0000001
 44
0.0000000001
 40
0.0
 40
0.0
 40
0.0
 40
0.0
 40
0.0084906217
 40
0.0178769539
 40
0.0285813346
 40
0.0408473195
 40
0.0548041666
 40
0.0705234047
 40
0.1073441825
 40
0.1513531547
 40
0.2024075237
 40
0.260320254
 40
0.3248186383
 40
0.395477849
 40
0.4715914991
 40
0.6369935843
 40
0.8151129113
 40
1.0
 40
1.0
 40
1.0
 40
1.0
 10
8.2909545527
 20
10.8538023049
 30
0.0
 10
8.2909195924
 20
10.8537620837
 30
0.0
 10
8.2908587374
 20
10.8536657718
 30
0.0
 10
8.2908041553
 20
10.8534934319
 30
0.0
 10
8.2907806435
 20
10.8532907905
 30
0.0
 10
8.2907867245
 20
10.8530585385
 30
0.0
 10
8.2908214295
 20
10.8527972099
 30
0.0
 10
8.2909101899
 20
10.8523890282
 30
0.0
 10
8.2910975235
 20
10.8518113518
 30
0.0
 10
8.2914170542
 20
10.851047181
 30
0.0
 10
8.2918402822
 20
10.8501848059
 30
0.0
 10
8.2923646294
 20
10.8492303069
 30
0.0
 10
8.292986901
 20
10.8481902111
 30
0.0
 10
8.2937019994
 20
10.8470733135
 30
0.0
 10
8.294798926
 20
10.8454496001
 30
0.0
 10
8.2963406992
 20
10.8433133883
 30
0.0
 10
8.2983645784
 20
10.8406854537
 30
0.0
 10
8.2998047604
 20
10.8389194839
 30
0.0
 10
8.3005506782
 20
10.8380305337
 30
0.0
  0
SPLINE
  5
4B6
100
AcDbEntity
  8
0
100
AcDbSpline
 62
7
  6
CONTINUOUS
 70
0
 71
3
 72
19
 73
15
 74
0
 42
0.0000001
 43
0.0000001
 44
0.0000000001
 40
0.0
 40
0.0
 40
0.0
 40
0.0
 40
0.1541594623
 40
0.3051156599
 40
0.4497200537
 40
0.5186840044
 40
0.5848889376
 40
0.7075444869
 40
0.763827871
 40
0.8167622318
 40
0.8665023666
 40
0.9133124985
 40
0.9576099798
 40
1.0
 40
1.0
 40
1.0
 40
1.0
 10
8.1233474638
 20
11.0679074958
 30
0.0
 10
8.1240546556
 20
11.0670646974
 30
0.0
 10
8.1255237848
 20
11.065453325
 30
0.0
 10
8.1278825012
 20
11.0632712232
 30
0.0
 10
8.1299508187
 20
11.0616852732
 30
0.0
 10
8.1316314733
 20
11.0606050788
 30
0.0
 10
8.1332376122
 20
11.0597060723
 30
0.0
 10
8.1348514472
 20
11.0590082444
 30
0.0
 10
8.1364461415
 20
11.0585585333
 30
0.0
 10
8.1375646515
 20
11.0583572676
 30
0.0
 10
8.1386313711
 20
11.0582840206
 30
0.0
 10
8.1396380152
 20
11.0583414479
 30
0.0
 10
8.1405750259
 20
11.0585321926
 30
0.0
 10
8.1411564378
 20
11.0587542885
 30
0.0
 10
8.1414278045
 20
11.0588880132
 30
0.0
  0
SPLINE
  5
4B7
100
AcDbEntity
  8
0
100
AcDbSpline
 62
7
  6
CONTINUOUS
 70
0
 71
3
 72
9
 73
5
 74
0
 42
0.0000001
 43
0.0000001
 44
0.0000000001
 40
0.0
 40
0.0
 40
0.0
 40
0.0
 40
0.5142238131
 40
1.0
 40
1.0
 40
1.0
 40
1.0
 10
8.1356361937
 20
11.0782189645
 30
0.0
 10
8.1367872648
 20
11.0768471714
 30
0.0
 10
8.1391803542
 20
11.0743055335
 30
0.0
 10
8.1418513541
 20
11.0720559361
 30
0.0
 10
8.1432142745
 20
11.0710538206
 30
0.0
  0
SPLINE
  5
4B8
100
AcDbEntity
  8
0
100
AcDbSpline
 62
7
  6
CONTINUOUS
 70
0
 71
3
 72
23
 73
19
 74
0
 42
0.0000001
 43
0.0000001
 44
0.0000000001
 40
0.0
 40
0.0
 40
0.0
 40
0.0
 40
0.0084906217
 40
0.0178769539
 40
0.0285813346
 40
0.0408473195
 40
0.0548041666
 40
0.0705234047
 40
0.1073441825
 40
0.1513531547
 40
0.2024075237
 40
0.260320254
 40
0.3248186383
 40
0.395477849
 40
0.4715914991
 40
0.6369935843
 40
0.8151129113
 40
1.0
 40
1.0
 40
1.0
 40
1.0
 10
8.1045461458
 20
11.0759551934
 30
0.0
 10
8.1045111856
 20
11.0759149722
 30
0.0
 10
8.1044503306
 20
11.0758186603
 30
0.0
 10
8.1043957485
 20
11.0756463204
 30
0.0
 10
8.1043722367
 20
11.075443679
 30
0.0
 10
8.1043783177
 20
11.075211427
 30
0.0
 10
8.1044130227
 20
11.0749500984
 30
0.0
 10
8.104501783
 20
11.0745419167
 30
0.0
 10
8.1046891167
 20
11.0739642403
 30
0.0
 10
8.1050086474
 20
11.0732000695
 30
0.0
 10
8.1054318754
 20
11.0723376944
 30
0.0
 10
8.1059562226
 20
11.0713831954
 30
0.0
 10
8.1065784941
 20
11.0703430997
 30
0.0
 10
8.1072935926
 20
11.0692262021
 30
0.0
 10
8.1083905192
 20
11.0676024886
 30
0.0
 10
8.1099322924
 20
11.0654662768
 30
0.0
 10
8.1119561716
 20
11.0628383422
 30
0.0
 10
8.1133963536
 20
11.0610723724
 30
0.0
 10
8.1141422714
 20
11.0601834222
 30
0.0
  0
SPLINE
  5
4B9
100
AcDbEntity
  8
0
100
AcDbSpline
 62
9
  6
CONTINUOUS
 70
0
 71
3
 72
29
 73
25
 74
0
 42
0.0000001
 43
0.0000001
 44
0.0000000001
 40
0.0
 40
0.0
 40
0.0
 40
0.0
 40
0.2240750066
 40
0.4224824102
 40
0.5117568061
 40
0.5941353749
 40
0.6694388452
 40
0.7374990168
 40
0.7981286067
 40
0.8511225692
 40
0.8962619682
 40
0.9158303088
 40
0.9333827826
 40
0.9489093507
 40
0.9623998455
 40
0.9738439721
 40
0.9832313091
 40
0.9905513106
 40
0.9934327328
 40
0.99579331
 40
0.9976316895
 40
0.9989465108
 40
0.9997364061
 40
1.0
 40
1.0
 40
1.0
 40
1.0
 10
13.9024834891
 20
5.9986766055
 30
0.0
 10
13.9021032695
 20
5.9986766058
 30
0.0
 10
13.901386049
 20
5.9986478303
 30
0.0
 10
13.9005227103
 20
5.9985485464
 30
0.0
 10
13.8999028963
 20
5.9984474866
 30
0.0
 10
13.8994911247
 20
5.9983695153
 30
0.0
 10
13.8991164971
 20
5.9982894837
 30
0.0
 10
13.8987796204
 20
5.9982098157
 30
0.0
 10
13.8984810318
 20
5.9981330219
 30
0.0
 10
13.898221285
 20
5.9980615323
 30
0.0
 10
13.8980293934
 20
5.9980061472
 30
0.0
 10
13.8978955458
 20
5.9979665463
 30
0.0
 10
13.8978099996
 20
5.9979408081
 30
0.0
 10
13.897734431
 20
5.9979177021
 30
0.0
 10
13.8976688672
 20
5.9978973363
 30
0.0
 10
13.8976133215
 20
5.997879806
 30
0.0
 10
13.8975678457
 20
5.9978652504
 30
0.0
 10
13.8975362001
 20
5.9978549306
 30
0.0
 10
13.8975160067
 20
5.9978483318
 30
0.0
 10
13.8975044881
 20
5.9978444184
 30
0.0
 10
13.8974959093
 20
5.9978418011
 30
0.0
 10
13.8974888972
 20
5.9978388865
 30
0.0
 10
13.8974862676
 20
5.9978389722
 30
0.0
 10
13.8974833559
 20
5.9978369722
 30
0.0
 10
13.8974834338
 20
5.9978374127
 30
0.0
  0
SPLINE
  5
4BA
100
AcDbEntity
  8
0
100
AcDbSpline
 62
7
  6
CONTINUOUS
 70
0
 71
3
 72
9
 73
5
 74
0
 42
0.0000001
 43
0.0000001
 44
0.0000000001
 40
0.0
 40
0.0
 40
0.0
 40
0.0
 40
0.5142238131
 40
1.0
 40
1.0
 40
1.0
 40
1.0
 10
8.1356361937
 20
11.0782189645
 30
0.0
 10
8.1344851226
 20
11.0795907577
 30
0.0
 10
8.1323976535
 20
11.0823888415
 30
0.0
 10
8.1306460468
 20
11.0854099013
 30
0.0
 10
8.1298958244
 20
11.0869261314
 30
0.0
  0
SPLINE
  5
4BB
100
AcDbEntity
  8
0
100
AcDbSpline
 62
7
  6
CONTINUOUS
 70
0
 71
3
 72
19
 73
15
 74
0
 42
0.0000001
 43
0.0000001
 44
0.0000000001
 40
0.0
 40
0.0
 40
0.0
 40
0.0
 40
0.0423900202
 40
0.0866875015
 40
0.1334976334
 40
0.1832377682
 40
0.236172129
 40
0.2924555131
 40
0.4151110624
 40
0.4813159956
 40
0.5502799463
 40
0.6948843401
 40
0.8458405377
 40
1.0
 40
1.0
 40
1.0
 40
1.0
 10
9.9816886937
 20
8.8657504872
 30
0.0
 10
9.9815098782
 20
8.8655064642
 30
0.0
 10
9.9811901953
 20
8.8649724518
 30
0.0
 10
9.9808396384
 20
8.8640827988
 30
0.0
 10
9.9806082816
 20
8.8631014201
 30
0.0
 10
9.9804951819
 20
8.8620381872
 30
0.0
 10
9.9804991626
 20
8.8609017204
 30
0.0
 10
9.9806651259
 20
8.8592531616
 30
0.0
 10
9.9810721128
 20
8.8575426678
 30
0.0
 10
9.9816785582
 20
8.8558048189
 30
0.0
 10
9.9824504994
 20
8.8539621234
 30
0.0
 10
9.9836531956
 20
8.8516498311
 30
0.0
 10
9.9853925596
 20
8.8489480308
 30
0.0
 10
9.98672434
 20
8.8472214091
 30
0.0
 10
9.9874315319
 20
8.8463786107
 30
0.0
  0
SPLINE
  5
4BC
100
AcDbEntity
  8
0
100
AcDbSpline
 62
9
  6
CONTINUOUS
 70
0
 71
3
 72
18
 73
14
 74
0
 42
0.0000001
 43
0.0000001
 44
0.0000000001
 40
0.0
 40
0.0
 40
0.0
 40
0.0
 40
0.0352683453
 40
0.0696454363
 40
0.1047153451
 40
0.1419682725
 40
0.1826444894
 40
0.2276806266
 40
0.3332329817
 40
0.4621353286
 40
0.6159072183
 40
0.7951722197
 40
1.0
 40
1.0
 40
1.0
 40
1.0
 10
8.2842324279
 20
10.8680686859
 30
0.0
 10
8.2842574274
 20
10.8681152516
 30
0.0
 10
8.2843158703
 20
10.8682027939
 30
0.0
 10
8.2844301512
 20
10.8683121366
 30
0.0
 10
8.2845680415
 20
10.8683954588
 30
0.0
 10
8.2847284483
 20
10.8684526828
 30
0.0
 10
8.2849107231
 20
10.8684843566
 30
0.0
 10
8.2851979415
 20
10.8684935083
 30
0.0
 10
8.2856152388
 20
10.8684334181
 30
0.0
 10
8.2861742434
 20
10.8682684935
 30
0.0
 10
8.2868162226
 20
10.8680071021
 30
0.0
 10
8.2875391182
 20
10.8676495091
 30
0.0
 10
8.2880403441
 20
10.8673659708
 30
0.0
 10
8.2883043268
 20
10.8672093484
 30
0.0
  0
SPLINE
  5
4BD
100
AcDbEntity
  8
0
100
AcDbSpline
 62
7
  6
CONTINUOUS
 70
0
 71
3
 72
19
 73
15
 74
0
 42
0.0000001
 43
0.0000001
 44
0.0000000001
 40
0.0
 40
0.0
 40
0.0
 40
0.0
 40
0.1541594623
 40
0.3051156599
 40
0.4497200537
 40
0.5186840044
 40
0.5848889376
 40
0.7075444869
 40
0.763827871
 40
0.8167622318
 40
0.8665023666
 40
0.9133124985
 40
0.9576099798
 40
1.0
 40
1.0
 40
1.0
 40
1.0
 10
8.3097558706
 20
10.8457546072
 30
0.0
 10
8.3104630624
 20
10.8449118089
 30
0.0
 10
8.3119321916
 20
10.8433004364
 30
0.0
 10
8.314290908
 20
10.8411183347
 30
0.0
 10
8.3163592255
 20
10.8395323847
 30
0.0
 10
8.3180398801
 20
10.8384521903
 30
0.0
 10
8.319646019
 20
10.8375531838
 30
0.0
 10
8.321259854
 20
10.8368553559
 30
0.0
 10
8.3228545483
 20
10.8364056448
 30
0.0
 10
8.3239730583
 20
10.8362043791
 30
0.0
 10
8.3250397779
 20
10.8361311321
 30
0.0
 10
8.326046422
 20
10.8361885594
 30
0.0
 10
8.3269834327
 20
10.836379304
 30
0.0
 10
8.3275648446
 20
10.8366013999
 30
0.0
 10
8.3278362113
 20
10.8367351246
 30
0.0
  0
SPLINE
  5
4BE
100
AcDbEntity
  8
0
100
AcDbSpline
 62
7
  6
CONTINUOUS
 70
0
 71
3
 72
9
 73
5
 74
0
 42
0.0000001
 43
0.0000001
 44
0.0000000001
 40
0.0
 40
0.0
 40
0.0
 40
0.0
 40
0.5142238131
 40
1.0
 40
1.0
 40
1.0
 40
1.0
 10
8.3220446005
 20
10.856066076
 30
0.0
 10
8.3231956716
 20
10.8546942829
 30
0.0
 10
8.3255887611
 20
10.852152645
 30
0.0
 10
8.3282597609
 20
10.8499030476
 30
0.0
 10
8.3296226813
 20
10.8489009321
 30
0.0
  0
SPLINE
  5
4BF
100
AcDbEntity
  8
0
100
AcDbSpline
 62
7
  6
CONTINUOUS
 70
0
 71
3
 72
19
 73
15
 74
0
 42
0.0000001
 43
0.0000001
 44
0.0000000001
 40
0.0
 40
0.0
 40
0.0
 40
0.0
 40
0.0423900202
 40
0.0866875015
 40
0.1334976334
 40
0.1832377682
 40
0.236172129
 40
0.2924555131
 40
0.4151110624
 40
0.4813159956
 40
0.5502799463
 40
0.6948843401
 40
0.8458405377
 40
1.0
 40
1.0
 40
1.0
 40
1.0
 10
9.7952802869
 20
9.0879033757
 30
0.0
 10
9.7951014714
 20
9.0876593527
 30
0.0
 10
9.7947817885
 20
9.0871253403
 30
0.0
 10
9.7944312315
 20
9.0862356873
 30
0.0
 10
9.7941998748
 20
9.0852543086
 30
0.0
 10
9.7940867751
 20
9.0841910757
 30
0.0
 10
9.7940907558
 20
9.0830546089
 30
0.0
 10
9.794256719
 20
9.0814060501
 30
0.0
 10
9.7946637059
 20
9.0796955563
 30
0.0
 10
9.7952701514
 20
9.0779577075
 30
0.0
 10
9.7960420926
 20
9.0761150119
 30
0.0
 10
9.7972447888
 20
9.0738027196
 30
0.0
 10
9.7989841528
 20
9.0711009193
 30
0.0
 10
9.8003159332
 20
9.0693742976
 30
0.0
 10
9.801023125
 20
9.0685314992
 30
0.0
  0
SPLINE
  5
4C0
100
AcDbEntity
  8
0
100
AcDbSpline
 62
7
  6
CONTINUOUS
 70
0
 71
3
 72
9
 73
5
 74
0
 42
0.0000001
 43
0.0000001
 44
0.0000000001
 40
0.0
 40
0.0
 40
0.0
 40
0.0
 40
0.5142238131
 40
1.0
 40
1.0
 40
1.0
 40
1.0
 10
8.3220446005
 20
10.856066076
 30
0.0
 10
8.3208935294
 20
10.8574378692
 30
0.0
 10
8.3188060603
 20
10.860235953
 30
0.0
 10
8.3170544536
 20
10.8632570128
 30
0.0
 10
8.3163042312
 20
10.8647732429
 30
0.0
  0
SPLINE
  5
4C1
100
AcDbEntity
  8
0
100
AcDbSpline
 62
7
  6
CONTINUOUS
 70
0
 71
3
 72
19
 73
15
 74
0
 42
0.0000001
 43
0.0000001
 44
0.0000000001
 40
0.0
 40
0.0
 40
0.0
 40
0.0
 40
0.0423900202
 40
0.0866875015
 40
0.1334976334
 40
0.1832377682
 40
0.236172129
 40
0.2924555131
 40
0.4151110624
 40
0.4813159956
 40
0.5502799463
 40
0.6948843401
 40
0.8458405377
 40
1.0
 40
1.0
 40
1.0
 40
1.0
 10
9.6088718801
 20
9.3100562642
 30
0.0
 10
9.6086930646
 20
9.3098122412
 30
0.0
 10
9.6083733817
 20
9.3092782288
 30
0.0
 10
9.6080228247
 20
9.3083885758
 30
0.0
 10
9.6077914679
 20
9.3074071971
 30
0.0
 10
9.6076783683
 20
9.3063439642
 30
0.0
 10
9.607682349
 20
9.3052074974
 30
0.0
 10
9.6078483122
 20
9.3035589386
 30
0.0
 10
9.6082552991
 20
9.3018484448
 30
0.0
 10
9.6088617445
 20
9.300110596
 30
0.0
 10
9.6096336858
 20
9.2982679005
 30
0.0
 10
9.610836382
 20
9.2959556081
 30
0.0
 10
9.612575746
 20
9.2932538078
 30
0.0
 10
9.6139075264
 20
9.2915271861
 30
0.0
 10
9.6146147182
 20
9.2906843877
 30
0.0
  0
SPLINE
  5
4C2
100
AcDbEntity
  8
0
100
AcDbSpline
 62
7
  6
CONTINUOUS
 70
0
 71
3
 72
19
 73
15
 74
0
 42
0.0000001
 43
0.0000001
 44
0.0000000001
 40
0.0
 40
0.0
 40
0.0
 40
0.0
 40
0.1541594623
 40
0.3051156599
 40
0.4497200537
 40
0.5186840044
 40
0.5848889376
 40
0.7075444869
 40
0.763827871
 40
0.8167622318
 40
0.8665023666
 40
0.9133124985
 40
0.9576099798
 40
1.0
 40
1.0
 40
1.0
 40
1.0
 10
8.4961642774
 20
10.6236017187
 30
0.0
 10
8.4968714692
 20
10.6227589203
 30
0.0
 10
8.4983405984
 20
10.6211475479
 30
0.0
 10
8.5006993149
 20
10.6189654461
 30
0.0
 10
8.5027676323
 20
10.6173794962
 30
0.0
 10
8.5044482869
 20
10.6162993018
 30
0.0
 10
8.5060544258
 20
10.6154002953
 30
0.0
 10
8.5076682608
 20
10.6147024674
 30
0.0
 10
8.5092629551
 20
10.6142527563
 30
0.0
 10
8.5103814652
 20
10.6140514906
 30
0.0
 10
8.5114481847
 20
10.6139782436
 30
0.0
 10
8.5124548288
 20
10.6140356709
 30
0.0
 10
8.5133918395
 20
10.6142264155
 30
0.0
 10
8.5139732514
 20
10.6144485114
 30
0.0
 10
8.5142446181
 20
10.6145822361
 30
0.0
  0
SPLINE
  5
4C3
100
AcDbEntity
  8
0
100
AcDbSpline
 62
7
  6
CONTINUOUS
 70
0
 71
3
 72
9
 73
5
 74
0
 42
0.0000001
 43
0.0000001
 44
0.0000000001
 40
0.0
 40
0.0
 40
0.0
 40
0.0
 40
0.5142238131
 40
1.0
 40
1.0
 40
1.0
 40
1.0
 10
8.5084530073
 20
10.6339131875
 30
0.0
 10
8.5096040785
 20
10.6325413944
 30
0.0
 10
8.5119971679
 20
10.6299997565
 30
0.0
 10
8.5146681677
 20
10.6277501591
 30
0.0
 10
8.5160310881
 20
10.6267480436
 30
0.0
  0
SPLINE
  5
4C4
100
AcDbEntity
  8
0
100
AcDbSpline
 62
9
  6
CONTINUOUS
 70
0
 71
3
 72
23
 73
19
 74
0
 42
0.0000001
 43
0.0000001
 44
0.0000000001
 40
0.0
 40
0.0
 40
0.0
 40
0.0
 40
0.0756902974
 40
0.1445602234
 40
0.2071650387
 40
0.2645244796
 40
0.3179903052
 40
0.3690698918
 40
0.4192811923
 40
0.4700169249
 40
0.5224651113
 40
0.5775928916
 40
0.6361774626
 40
0.6988573015
 40
0.7661770577
 40
0.8386088904
 40
0.9165076284
 40
1.0
 40
1.0
 40
1.0
 40
1.0
 10
9.9700784387
 20
8.8556176119
 30
0.0
 10
9.9696000124
 20
8.8569724847
 30
0.0
 10
9.9688261251
 20
8.8596134978
 30
0.0
 10
9.9682109227
 20
8.863509754
 30
0.0
 10
9.9681733273
 20
8.8671088958
 30
0.0
 10
9.96868563
 20
8.8703780141
 30
0.0
 10
9.9697117672
 20
8.8732947144
 30
0.0
 10
9.971214408
 20
8.8758412978
 30
0.0
 10
9.9731518615
 20
8.87800484
 30
0.0
 10
9.9754833747
 20
8.8797768503
 30
0.0
 10
9.9781723854
 20
8.8811508545
 30
0.0
 10
9.9811880341
 20
8.8821176524
 30
0.0
 10
9.9845034273
 20
8.8826612639
 30
0.0
 10
9.9880924391
 20
8.8827562584
 30
0.0
 10
9.9919254803
 20
8.8823665009
 30
0.0
 10
9.9959636762
 20
8.8814444535
 30
0.0
 10
10.0001489798
 20
8.8799348325
 30
0.0
 10
10.002889674
 20
8.8785442902
 30
0.0
 10
10.0042564223
 20
8.8777417098
 30
0.0
  0
SPLINE
  5
4C5
100
AcDbEntity
  8
0
100
AcDbSpline
 62
9
  6
CONTINUOUS
 70
0
 71
3
 72
23
 73
19
 74
0
 42
0.0000001
 43
0.0000001
 44
0.0000000001
 40
0.0
 40
0.0
 40
0.0
 40
0.0
 40
0.075690344
 40
0.1445603115
 40
0.20716516
 40
0.2645246236
 40
0.317990461
 40
0.3690700494
 40
0.4192813435
 40
0.4700170637
 40
0.5224652337
 40
0.5775929954
 40
0.6361775469
 40
0.6988573664
 40
0.766177104
 40
0.8386089193
 40
0.9165076417
 40
1.0
 40
1.0
 40
1.0
 40
1.0
 10
9.7836700448
 20
9.0777704641
 30
0.0
 10
9.7831916165
 20
9.0791253381
 30
0.0
 10
9.7824177255
 20
9.0817663538
 30
0.0
 10
9.7818025182
 20
9.0856626143
 30
0.0
 10
9.7817649187
 20
9.0892617604
 30
0.0
 10
9.7822772181
 20
9.0925308827
 30
0.0
 10
9.7833033528
 20
9.0954475868
 30
0.0
 10
9.7848059919
 20
9.0979941738
 30
0.0
 10
9.7867434443
 20
9.1001577191
 30
0.0
 10
9.7890749571
 20
9.1019297322
 30
0.0
 10
9.7917639679
 20
9.1033037387
 30
0.0
 10
9.7947796172
 20
9.1042705386
 30
0.0
 10
9.7980950113
 20
9.1048141516
 30
0.0
 10
9.8016840245
 20
9.1049091473
 30
0.0
 10
9.8055170672
 20
9.1045193906
 30
0.0
 10
9.8095552651
 20
9.1035973433
 30
0.0
 10
9.8137405709
 20
9.102087722
 30
0.0
 10
9.8164812665
 20
9.1006971791
 30
0.0
 10
9.8178480155
 20
9.0998945983
 30
0.0
  0
SPLINE
  5
4C6
100
AcDbEntity
  8
0
100
AcDbSpline
 62
9
  6
CONTINUOUS
 70
0
 71
3
 72
23
 73
19
 74
0
 42
0.0000001
 43
0.0000001
 44
0.0000000001
 40
0.0
 40
0.0
 40
0.0
 40
0.0
 40
0.0756902375
 40
0.1445601101
 40
0.2071648827
 40
0.2645242945
 40
0.317990105
 40
0.3690696892
 40
0.419280998
 40
0.4700167465
 40
0.522464954
 40
0.5775927581
 40
0.6361773542
 40
0.6988572181
 40
0.7661769983
 40
0.8386088533
 40
0.9165076112
 40
1.0
 40
1.0
 40
1.0
 40
1.0
 10
9.5972616086
 20
9.2999234357
 30
0.0
 10
9.5967831848
 20
9.3012783068
 30
0.0
 10
9.5960093022
 20
9.3039193165
 30
0.0
 10
9.5953941061
 20
9.3078155673
 30
0.0
 10
9.595356516
 20
9.3114147037
 30
0.0
 10
9.5958688229
 20
9.3146838167
 30
0.0
 10
9.5968949633
 20
9.317600512
 30
0.0
 10
9.5983976064
 20
9.320147091
 30
0.0
 10
9.6003350612
 20
9.3223106291
 30
0.0
 10
9.6026665749
 20
9.3240826358
 30
0.0
 10
9.6053555855
 20
9.325456637
 30
0.0
 10
9.6083712335
 20
9.3264234324
 30
0.0
 10
9.6116866255
 20
9.3269670419
 30
0.0
 10
9.6152756356
 20
9.3270620349
 30
0.0
 10
9.6191086746
 20
9.3266722765
 30
0.0
 10
9.623146868
 20
9.3257502288
 30
0.0
 10
9.6273321689
 20
9.3242406082
 30
0.0
 10
9.6300728613
 20
9.3228500667
 30
0.0
 10
9.6314396086
 20
9.3220474868
 30
0.0
  0
SPLINE
  5
4C7
100
AcDbEntity
  8
0
100
AcDbSpline
 62
9
  6
CONTINUOUS
 70
0
 71
3
 72
23
 73
19
 74
0
 42
0.0000001
 43
0.0000001
 44
0.0000000001
 40
0.0
 40
0.0
 40
0.0
 40
0.0
 40
0.0756902281
 40
0.1445600923
 40
0.2071648583
 40
0.2645242655
 40
0.3179900736
 40
0.3690696575
 40
0.4192809675
 40
0.4700167186
 40
0.5224649294
 40
0.5775927372
 40
0.6361773372
 40
0.698857205
 40
0.766176989
 40
0.8386088475
 40
0.9165076086
 40
1.0
 40
1.0
 40
1.0
 40
1.0
 10
9.4108531992
 20
9.5220763315
 30
0.0
 10
9.4103747758
 20
9.5234312023
 30
0.0
 10
9.4096008939
 20
9.5260722116
 30
0.0
 10
9.4089856988
 20
9.5299684615
 30
0.0
 10
9.4089481096
 20
9.533567597
 30
0.0
 10
9.4094604171
 20
9.5368367092
 30
0.0
 10
9.4104865581
 20
9.5397534038
 30
0.0
 10
9.4119892015
 20
9.542299982
 30
0.0
 10
9.4139266565
 20
9.5444635195
 30
0.0
 10
9.4162581703
 20
9.5462355257
 30
0.0
 10
9.4189471808
 20
9.5476095264
 30
0.0
 10
9.4219628287
 20
9.5485763214
 30
0.0
 10
9.4252782205
 20
9.5491199305
 30
0.0
 10
9.4288672304
 20
9.5492149234
 30
0.0
 10
9.4327002691
 20
9.5488251648
 30
0.0
 10
9.4367384621
 20
9.547903117
 30
0.0
 10
9.4409237625
 20
9.5463934965
 30
0.0
 10
9.4436644546
 20
9.5450029551
 30
0.0
 10
9.4450312018
 20
9.5442003753
 30
0.0
  0
SPLINE
  5
4C8
100
AcDbEntity
  8
0
100
AcDbSpline
 62
9
  6
CONTINUOUS
 70
0
 71
3
 72
23
 73
19
 74
0
 42
0.0000001
 43
0.0000001
 44
0.0000000001
 40
0.0
 40
0.0
 40
0.0
 40
0.0
 40
0.0756901409
 40
0.1445599273
 40
0.2071646311
 40
0.2645239959
 40
0.3179897818
 40
0.3690693623
 40
0.4192806843
 40
0.4700164587
 40
0.5224647002
 40
0.5775925428
 40
0.6361771792
 40
0.6988570834
 40
0.7661769024
 40
0.8386087934
 40
0.9165075836
 40
1.0
 40
1.0
 40
1.0
 40
1.0
 10
9.2244447683
 20
9.7442292881
 30
0.0
 10
9.2239663485
 20
9.7455841565
 30
0.0
 10
9.2231924736
 20
9.7482251609
 30
0.0
 10
9.2225772876
 20
9.7521214028
 30
0.0
 10
9.2225397061
 20
9.7557205305
 30
0.0
 10
9.2230520199
 20
9.758989635
 30
0.0
 10
9.2240781655
 20
9.7619063224
 30
0.0
 10
9.2255808121
 20
9.764452894
 30
0.0
 10
9.227518269
 20
9.7666164256
 30
0.0
 10
9.2298497836
 20
9.7683884266
 30
0.0
 10
9.232538794
 20
9.7697624229
 30
0.0
 10
9.2355544409
 20
9.7707292143
 30
0.0
 10
9.2388698309
 20
9.7712728205
 30
0.0
 10
9.2424588383
 20
9.7713678112
 30
0.0
 10
9.2462918739
 20
9.7709780512
 30
0.0
 10
9.2503300633
 20
9.770056003
 30
0.0
 10
9.2545153597
 20
9.7685463831
 30
0.0
 10
9.2572560491
 20
9.7671558428
 30
0.0
 10
9.258622795
 20
9.7663532638
 30
0.0
  0
SPLINE
  5
4C9
100
AcDbEntity
  8
0
100
AcDbSpline
 62
9
  6
CONTINUOUS
 70
0
 71
3
 72
23
 73
19
 74
0
 42
0.0000001
 43
0.0000001
 44
0.0000000001
 40
0.0
 40
0.0
 40
0.0
 40
0.0
 40
0.0756901409
 40
0.1445599273
 40
0.2071646311
 40
0.2645239959
 40
0.3179897818
 40
0.3690693623
 40
0.4192806843
 40
0.4700164587
 40
0.5224647002
 40
0.5775925428
 40
0.6361771792
 40
0.6988570834
 40
0.7661769024
 40
0.8386087934
 40
0.9165075836
 40
1.0
 40
1.0
 40
1.0
 40
1.0
 10
9.0380363615
 20
9.9663821766
 30
0.0
 10
9.0375579417
 20
9.967737045
 30
0.0
 10
9.0367840667
 20
9.9703780494
 30
0.0
 10
9.0361688808
 20
9.9742742913
 30
0.0
 10
9.0361312993
 20
9.977873419
 30
0.0
 10
9.0366436131
 20
9.9811425235
 30
0.0
 10
9.0376697587
 20
9.9840592109
 30
0.0
 10
9.0391724053
 20
9.9866057825
 30
0.0
 10
9.0411098622
 20
9.9887693141
 30
0.0
 10
9.0434413768
 20
9.9905413151
 30
0.0
 10
9.0461303872
 20
9.9919153114
 30
0.0
 10
9.0491460341
 20
9.9928821028
 30
0.0
 10
9.052461424
 20
9.993425709
 30
0.0
 10
9.0560504315
 20
9.9935206997
 30
0.0
 10
9.0598834671
 20
9.9931309397
 30
0.0
 10
9.0639216565
 20
9.9922088915
 30
0.0
 10
9.0681069529
 20
9.9906992716
 30
0.0
 10
9.0708476423
 20
9.9893087313
 30
0.0
 10
9.0722143882
 20
9.9885061523
 30
0.0
  0
SPLINE
  5
4CA
100
AcDbEntity
  8
0
100
AcDbSpline
 62
9
  6
CONTINUOUS
 70
0
 71
3
 72
23
 73
19
 74
0
 42
0.0000001
 43
0.0000001
 44
0.0000000001
 40
0.0
 40
0.0
 40
0.0
 40
0.0
 40
0.0756901409
 40
0.1445599273
 40
0.2071646311
 40
0.2645239959
 40
0.3179897818
 40
0.3690693623
 40
0.4192806843
 40
0.4700164587
 40
0.5224647002
 40
0.5775925428
 40
0.6361771792
 40
0.6988570834
 40
0.7661769024
 40
0.8386087934
 40
0.9165075836
 40
1.0
 40
1.0
 40
1.0
 40
1.0
 10
8.8516279547
 20
10.1885350651
 30
0.0
 10
8.8511495349
 20
10.1898899335
 30
0.0
 10
8.8503756599
 20
10.1925309379
 30
0.0
 10
8.849760474
 20
10.1964271798
 30
0.0
 10
8.8497228925
 20
10.2000263075
 30
0.0
 10
8.8502352063
 20
10.203295412
 30
0.0
 10
8.8512613518
 20
10.2062120994
 30
0.0
 10
8.8527639985
 20
10.208758671
 30
0.0
 10
8.8547014554
 20
10.2109222026
 30
0.0
 10
8.85703297
 20
10.2126942036
 30
0.0
 10
8.8597219804
 20
10.2140681999
 30
0.0
 10
8.8627376273
 20
10.2150349913
 30
0.0
 10
8.8660530172
 20
10.2155785975
 30
0.0
 10
8.8696420246
 20
10.2156735882
 30
0.0
 10
8.8734750603
 20
10.2152838283
 30
0.0
 10
8.8775132497
 20
10.21436178
 30
0.0
 10
8.8816985461
 20
10.2128521601
 30
0.0
 10
8.8844392355
 20
10.2114616198
 30
0.0
 10
8.8858059814
 20
10.2106590408
 30
0.0
  0
SPLINE
  5
4CB
100
AcDbEntity
  8
0
100
AcDbSpline
 62
9
  6
CONTINUOUS
 70
0
 71
3
 72
23
 73
19
 74
0
 42
0.0000001
 43
0.0000001
 44
0.0000000001
 40
0.0
 40
0.0
 40
0.0
 40
0.0
 40
0.0756902375
 40
0.1445601101
 40
0.2071648827
 40
0.2645242945
 40
0.317990105
 40
0.3690696892
 40
0.419280998
 40
0.4700167465
 40
0.522464954
 40
0.5775927581
 40
0.6361773542
 40
0.6988572181
 40
0.7661769983
 40
0.8386088533
 40
0.9165076112
 40
1.0
 40
1.0
 40
1.0
 40
1.0
 10
8.6652195746
 20
10.4106878782
 30
0.0
 10
8.6647411507
 20
10.4120427493
 30
0.0
 10
8.6639672681
 20
10.414683759
 30
0.0
 10
8.663352072
 20
10.4185800098
 30
0.0
 10
8.663314482
 20
10.4221791462
 30
0.0
 10
8.6638267889
 20
10.4254482592
 30
0.0
 10
8.6648529293
 20
10.4283649546
 30
0.0
 10
8.6663555724
 20
10.4309115335
 30
0.0
 10
8.6682930271
 20
10.4330750716
 30
0.0
 10
8.6706245409
 20
10.4348470784
 30
0.0
 10
8.6733135514
 20
10.4362210795
 30
0.0
 10
8.6763291995
 20
10.4371878749
 30
0.0
 10
8.6796445914
 20
10.4377314844
 30
0.0
 10
8.6832336016
 20
10.4378264775
 30
0.0
 10
8.6870666406
 20
10.4374367191
 30
0.0
 10
8.691104834
 20
10.4365146713
 30
0.0
 10
8.6952901349
 20
10.4350050507
 30
0.0
 10
8.6980308272
 20
10.4336145092
 30
0.0
 10
8.6993975746
 20
10.4328119293
 30
0.0
  0
SPLINE
  5
4CC
100
AcDbEntity
  8
0
100
AcDbSpline
 62
9
  6
CONTINUOUS
 70
0
 71
3
 72
23
 73
19
 74
0
 42
0.0000001
 43
0.0000001
 44
0.0000000001
 40
0.0
 40
0.0
 40
0.0
 40
0.0
 40
0.0756901226
 40
0.1445598927
 40
0.2071645836
 40
0.2645239395
 40
0.3179897208
 40
0.3690693005
 40
0.419280625
 40
0.4700164043
 40
0.5224646522
 40
0.5775925021
 40
0.6361771462
 40
0.698857058
 40
0.7661768843
 40
0.8386087821
 40
0.9165075784
 40
1.0
 40
1.0
 40
1.0
 40
1.0
 10
8.4788111361
 20
10.6328408564
 30
0.0
 10
8.478332717
 20
10.6341957243
 30
0.0
 10
8.4775588435
 20
10.6368367276
 30
0.0
 10
8.4769436594
 20
10.6407329679
 30
0.0
 10
8.4769060796
 20
10.6443320939
 30
0.0
 10
8.4774183946
 20
10.6476011968
 30
0.0
 10
8.4784445412
 20
10.6505178827
 30
0.0
 10
8.4799471885
 20
10.6530644529
 30
0.0
 10
8.4818846459
 20
10.6552279833
 30
0.0
 10
8.4842161606
 20
10.6569999832
 30
0.0
 10
8.4869051709
 20
10.6583739786
 30
0.0
 10
8.4899208176
 20
10.6593407692
 30
0.0
 10
8.4932362072
 20
10.6598843748
 30
0.0
 10
8.4968252141
 20
10.659979365
 30
0.0
 10
8.5006582491
 20
10.6595896048
 30
0.0
 10
8.5046964377
 20
10.6586675565
 30
0.0
 10
8.5088817333
 20
10.6571579367
 30
0.0
 10
8.5116224222
 20
10.6557673967
 30
0.0
 10
8.5129891678
 20
10.6549648178
 30
0.0
  0
SPLINE
  5
4CD
100
AcDbEntity
  8
0
100
AcDbSpline
 62
9
  6
CONTINUOUS
 70
0
 71
3
 72
23
 73
19
 74
0
 42
0.0000001
 43
0.0000001
 44
0.0000000001
 40
0.0
 40
0.0
 40
0.0
 40
0.0
 40
0.075690344
 40
0.1445603115
 40
0.20716516
 40
0.2645246236
 40
0.317990461
 40
0.3690700494
 40
0.4192813435
 40
0.4700170637
 40
0.5224652337
 40
0.5775929954
 40
0.6361775469
 40
0.6988573664
 40
0.766177104
 40
0.8386089193
 40
0.9165076417
 40
1.0
 40
1.0
 40
1.0
 40
1.0
 10
8.2924027903
 20
10.8549935721
 30
0.0
 10
8.291924362
 20
10.8563484461
 30
0.0
 10
8.2911504711
 20
10.8589894618
 30
0.0
 10
8.2905352637
 20
10.8628857223
 30
0.0
 10
8.2904976642
 20
10.8664848684
 30
0.0
 10
8.2910099636
 20
10.8697539908
 30
0.0
 10
8.2920360983
 20
10.8726706948
 30
0.0
 10
8.2935387374
 20
10.8752172818
 30
0.0
 10
8.2954761898
 20
10.8773808272
 30
0.0
 10
8.2978077026
 20
10.8791528402
 30
0.0
 10
8.3004967134
 20
10.8805268468
 30
0.0
 10
8.3035123627
 20
10.8814936466
 30
0.0
 10
8.3068277569
 20
10.8820372596
 30
0.0
 10
8.31041677
 20
10.8821322553
 30
0.0
 10
8.3142498128
 20
10.8817424986
 30
0.0
 10
8.3182880106
 20
10.8808204514
 30
0.0
 10
8.3224733164
 20
10.8793108301
 30
0.0
 10
8.325214012
 20
10.8779202871
 30
0.0
 10
8.326580761
 20
10.8771177063
 30
0.0
  0
SPLINE
  5
4CE
100
AcDbEntity
  8
0
100
AcDbSpline
 62
9
  6
CONTINUOUS
 70
0
 71
3
 72
23
 73
19
 74
0
 42
0.0000001
 43
0.0000001
 44
0.0000000001
 40
0.0
 40
0.0
 40
0.0
 40
0.0
 40
0.0756902974
 40
0.1445602234
 40
0.2071650387
 40
0.2645244796
 40
0.3179903052
 40
0.3690698918
 40
0.4192811923
 40
0.4700169249
 40
0.5224651113
 40
0.5775928916
 40
0.6361774626
 40
0.6988573015
 40
0.7661770577
 40
0.8386088904
 40
0.9165076284
 40
1.0
 40
1.0
 40
1.0
 40
1.0
 10
8.1059943706
 20
11.077146497
 30
0.0
 10
8.1055159443
 20
11.0785013697
 30
0.0
 10
8.104742057
 20
11.0811423828
 30
0.0
 10
8.1041268546
 20
11.085038639
 30
0.0
 10
8.1040892592
 20
11.0886377809
 30
0.0
 10
8.1046015619
 20
11.0919068992
 30
0.0
 10
8.1056276991
 20
11.0948235994
 30
0.0
 10
8.1071303399
 20
11.0973701829
 30
0.0
 10
8.1090677934
 20
11.0995337251
 30
0.0
 10
8.1113993066
 20
11.1013057353
 30
0.0
 10
8.1140883173
 20
11.1026797396
 30
0.0
 10
8.117103966
 20
11.1036465375
 30
0.0
 10
8.1204193592
 20
11.1041901489
 30
0.0
 10
8.124008371
 20
11.1042851435
 30
0.0
 10
8.1278414122
 20
11.103895386
 30
0.0
 10
8.1318796081
 20
11.1029733385
 30
0.0
 10
8.1360649117
 20
11.1014637176
 30
0.0
 10
8.1388056059
 20
11.1000731752
 30
0.0
 10
8.1401723542
 20
11.0992705948
 30
0.0
  0
ENDSEC
  0
SECTION
  2
OBJECTS
  0
DICTIONARY
  5
C
100
AcDbDictionary
280
0
281
1
  3
ACAD_GROUP
350
D
  3
ACAD_MLINESTYLE
350
17
  3
ACAD_LAYOUT
350
1A
  3
ACAD_PLOTSETTINGS
350
19
  3
ACAD_PLOTSTYLENAME
350
E
  0
DICTIONARY
  5
D
102
{ACAD_REACTORS
330
C
102
}
100
AcDbDictionary
280
0
281
1
  0
ACDBDICTIONARYWDFLT
  5
E
102
{ACAD_REACTORS
330
C
102
}
100
AcDbDictionary
281
1
  3
Normal
350
F
100
AcDbDictionaryWithDefault
340
F
  0
DICTIONARY
  5
17
102
{ACAD_REACTORS
330
C
102
}
100
AcDbDictionary
280
0
281
1
  3
Standard
350
18
  0
DICTIONARY
  5
19
102
{ACAD_REACTORS
330
C
102
}
100
AcDbDictionary
281
1
  0
DICTIONARY
  5
1A
102
{ACAD_REACTORS
330
C
102
}
100
AcDbDictionary
281
1
  3
Model
350
4CF
  3
Layout1
350
4D0
  0
ACDBPLACEHOLDER
  5
F
102
{ACAD_REACTORS
330
E
102
}
  0
MLINESTYLE
  5
18
102
{ACAD_REACTORS
330
17
102
}
100
AcDbMlineStyle
  2
STANDARD
 70
0
  3

 62
256
 51
90.0
 52
90.0
 71
2
 49
0.5
 62
256
  6
BYLAYER
 49
-0.5
 62
256
  6
BYLAYER
  0
LAYOUT
  5
4CF
102
{ACAD_REACTORS
330
1A
102
}
100
AcDbPlotSettings
  1

  2
none_device
  4
ANSI_C_(22.00_x_17.00_Inches)
  6

 40
0.0
 41
0.0
 42
0.0
 43
0.0
 44
558.8
 45
431.8
 46
0.0
 47
0.0
 48
0.0
 49
0.0
140
0.0
141
0.0
142
1.0
143
1.0
 70
1024
 72
0
 73
0
 74
0
  7

 75
0
147
1.0
148
0.0
149
0.0
100
AcDbLayout
  1
Model
 70
0
 71
0
 10
0.0
 20
0.0
 11
22.0
 21
17.0
 12
0.0
 22
0.0
 32
0.0
 14
0.0
 24
0.0
 34
0.0
 15
0.0
 25
0.0
 35
0.0
146
0.0
 13
0.0
 23
0.0
 33
0.0
 16
1.0
 26
0.0
 36
0.0
 17
0.0
 27
1.0
 37
0.0
 76
0
330
205
345
0
346
0
  0
LAYOUT
  5
4D0
102
{ACAD_REACTORS
330
1A
102
}
100
AcDbPlotSettings
  1

  2
none_device
  4
ANSI_C_(22.00_x_17.00_Inches)
  6

 40
0.0
 41
0.0
 42
0.0
 43
0.0
 44
558.8
 45
431.8
 46
0.0
 47
0.0
 48
0.0
 49
0.0
140
0.0
141
0.0
142
1.0
143
1.0
 70
0
 72
0
 73
0
 74
0
  7

 75
0
147
1.0
148
0.0
149
0.0
100
AcDbLayout
  1
Layout1
 70
0
 71
1
 10
0.0
 20
0.0
 11
22.0
 21
17.0
 12
0.0
 22
0.0
 32
0.0
 14
0.0
 24
0.0
 34
0.0
 15
0.0
 25
0.0
 35
0.0
146
0.0
 13
0.0
 23
0.0
 33
0.0
 16
1.0
 26
0.0
 36
0.0
 17
0.0
 27
1.0
 37
0.0
 76
0
330
206
345
0
346
0
  0
ENDSEC
  0
EOF
