  0
SECTION
  2
HEADER
  9
$ACADVER
  1
AC1015
  9
$DWGCODEPAGE
  3
ANSI_1252
  9
$EXTMAX
 10
23.3858267717
 20
16.5354330709
 30
0.0
  9
$EXTMIN
 10
0.0
 20
0.0
 30
0.0
  9
$LIMMIN
 10
0.0
 20
0.0
  9
$LIMMAX
 10
23.3858267717
 20
16.5354330709
  9
$VIEWCTR
 10
11.6929133858
 20
8.2677165354
  9
$VIEWSIZE
 40
16.5354330709
  9
$CLAYER
  8
0
  9
$LTSCALE
 40
1.2862204724
  9
$CELTYPE
  6
BYLAYER
  9
$DIMSCALE
 40
1.0
  9
$DIMASZ
 40
0.1875
  9
$DIMEXO
 40
0.1461614173
  9
$DIMDLI
 40
0.8886614173
  9
$DIMEXE
 40
0.4209448819
  9
$DIMCEN
 40
0.2104724409
  9
$DIMLFAC
 40
1.0
  9
$DIMBLK
  1
_CLOSED
  9
$DIMTXT
 40
0.15625
  9
$DIMTOL
 70
0
  9
$DIMLIM
 70
0
  9
$DIMTFAC
 40
1.0
  9
$PDMODE
 70
3
  9
$PDSIZE
 40
0.3125
  9
$HANDSEED
  5
376
  9
$TILEMODE
 70
1
  9
$MEASUREMENT
 70
0
  9
$INSUNITS
 70
1
  0
ENDSEC
  0
SECTION
  2
CLASSES
  0
CLASS
  1
ACDBDICTIONARYWDFLT
  2
AcDbDictionaryWithDefault
  3
AutoCAD 2000
 90
0
280
0
281
0
  0
CLASS
  1
ACDBPLACEHOLDER
  2
AcDbPlaceHolder
  3
AutoCAD 2000
 90
0
280
0
281
0
  0
CLASS
  1
LAYOUT
  2
AcDbLayout
  3
AutoCAD 2000
 90
0
280
0
281
0
  0
ENDSEC
  0
SECTION
  2
TABLES
  0
TABLE
  2
VPORT
  5
8
100
AcDbSymbolTable
 70
2
  0
VPORT
  5
1F4
100
AcDbSymbolTableRecord
100
AcDbViewportTableRecord
  2
*ACTIVE
 70
0
 10
0.0
 20
0.0
 11
1.0
 21
1.0
 12
11.6929133858
 22
8.2677165354
 13
0.0
 23
0.0
 14
1.0
 24
1.0
 15
0.0
 25
0.0
 16
0.0
 26
0.0
 36
1.0
 17
0.0
 27
0.0
 37
0.0
 40
16.5354330709
 41
1.4142857143
 42
50.0
 43
0.0
 44
0.0
 50
0.0
 51
0.0
 71
0
 72
100
 73
1
 74
1
 75
0
 76
0
 77
0
 78
0
  0
ENDTAB
  0
TABLE
  2
LTYPE
  5
5
100
AcDbSymbolTable
 70
6
  0
LTYPE
  5
14
100
AcDbSymbolTableRecord
100
AcDbLinetypeTableRecord
  2
BYBLOCK
 70
0
  3

 72
65
 73
0
 40
0.0
  0
LTYPE
  5
15
100
AcDbSymbolTableRecord
100
AcDbLinetypeTableRecord
  2
BYLAYER
 70
0
  3

 72
65
 73
0
 40
0.0
  0
LTYPE
  5
16
100
AcDbSymbolTableRecord
100
AcDbLinetypeTableRecord
  2
CONTINUOUS
 70
64
  3
Solid line
 72
65
 73
0
 40
0.0
  0
LTYPE
  5
1F5
100
AcDbSymbolTableRecord
100
AcDbLinetypeTableRecord
  2
CENTER
 70
64
  3
____ _ ____ _ ____ _ ____ _ ____ _ ____ _ ____
 72
65
 73
4
 40
0.6
 49
0.375
 74
0
 49
-0.075
 74
0
 49
0.075
 74
0
 49
-0.075
 74
0
  0
LTYPE
  5
1F6
100
AcDbSymbolTableRecord
100
AcDbLinetypeTableRecord
  2
HIDDEN
 70
64
  3
- - - - - - - - - - - - - - - - - - - -
 72
65
 73
2
 40
0.2
 49
0.1
 74
0
 49
-0.1
 74
0
  0
LTYPE
  5
1F7
100
AcDbSymbolTableRecord
100
AcDbLinetypeTableRecord
  2
PHANTOM
 70
64
  3
_____ _ _ _____ _ _ _____ _ _ _____
 72
65
 73
6
 40
0.8
 49
0.45
 74
0
 49
-0.05
 74
0
 49
0.1
 74
0
 49
-0.05
 74
0
 49
0.1
 74
0
 49
-0.05
 74
0
  0
LTYPE
  5
1F8
100
AcDbSymbolTableRecord
100
AcDbLinetypeTableRecord
  2
DOT
 70
64
  3
. . . . . . . . . . . . . . . . . . . .
 72
65
 73
2
 40
0.2
 49
0.1
 74
0
 49
-0.1
 74
0
  0
LTYPE
  5
1F9
100
AcDbSymbolTableRecord
100
AcDbLinetypeTableRecord
  2
DASHED
 70
64
  3
- - - - - - - - - - - - - - - - - - - -
 72
65
 73
2
 40
0.2
 49
0.1
 74
0
 49
-0.1
 74
0
  0
ENDTAB
  0
TABLE
  2
LAYER
  5
2
100
AcDbSymbolTable
 70
36
  0
LAYER
  5
10
100
AcDbSymbolTableRecord
100
AcDbLayerTableRecord
  2
0
 70
0
 62
7
  6
CONTINUOUS
370
-3
390
F
  0
LAYER
  5
1FA
100
AcDbSymbolTableRecord
100
AcDbLayerTableRecord
  2
DEFAULT_1
 70
0
 62
7
  6
CENTER
370
-3
390
F
  0
LAYER
  5
1FB
100
AcDbSymbolTableRecord
100
AcDbLayerTableRecord
  2
DEFAULT_2
 70
0
 62
8
  6
HIDDEN
370
-3
390
F
  0
LAYER
  5
1FC
100
AcDbSymbolTableRecord
100
AcDbLayerTableRecord
  2
DEFAULT_3
 70
0
 62
7
  6
PHANTOM
370
-3
390
F
  0
LAYER
  5
1FD
100
AcDbSymbolTableRecord
100
AcDbLayerTableRecord
  2
DEFAULT_COORDINATE_SYSTEM
 70
0
 62
7
  6
CONTINUOUS
370
-3
390
F
  0
LAYER
  5
1FE
100
AcDbSymbolTableRecord
100
AcDbLayerTableRecord
  2
DEFAULT_DATUM_AXES
 70
0
 62
7
  6
CONTINUOUS
370
-3
390
F
  0
LAYER
  5
1FF
100
AcDbSymbolTableRecord
100
AcDbLayerTableRecord
  2
DEFAULT_DATUM_CURVES
 70
0
 62
7
  6
CONTINUOUS
370
-3
390
F
  0
LAYER
  5
200
100
AcDbSymbolTableRecord
100
AcDbLayerTableRecord
  2
DEFAULT_DATUM_PLANES
 70
0
 62
7
  6
CONTINUOUS
370
-3
390
F
  0
ENDTAB
  0
TABLE
  2
STYLE
  5
3
100
AcDbSymbolTable
 70
1
  0
STYLE
  5
11
100
AcDbSymbolTableRecord
100
AcDbTextStyleTableRecord
  2
STANDARD
 70
0
 40
0.0
 41
0.8
 50
0.0
 71
0
 42
0.2
  3
txt
  4

  0
STYLE
  5
201
100
AcDbSymbolTableRecord
100
AcDbTextStyleTableRecord
  2
TEXTSTYLE_1
 70
0
 40
0.0
 41
0.8
 50
0.0
 71
0
 42
0.2
  3
gdt
  4

  0
ENDTAB
  0
TABLE
  2
VIEW
  5
6
100
AcDbSymbolTable
 70
0
  0
ENDTAB
  0
TABLE
  2
UCS
  5
7
100
AcDbSymbolTable
 70
0
  0
ENDTAB
  0
TABLE
  2
APPID
  5
9
100
AcDbSymbolTable
 70
1
  0
APPID
  5
202
100
AcDbSymbolTableRecord
100
AcDbRegAppTableRecord
  2
ACAD
 70
0
  0
ENDTAB
  0
TABLE
  2
BLOCK_RECORD
  5
1
100
AcDbSymbolTable
 70
0
  0
BLOCK_RECORD
  5
203
100
AcDbSymbolTableRecord
100
AcDbBlockTableRecord
  2
*Model_Space
  0
BLOCK_RECORD
  5
204
100
AcDbSymbolTableRecord
100
AcDbBlockTableRecord
  2
*Paper_Space
  0
ENDTAB
  0
TABLE
  2
DIMSTYLE
  5
A
100
AcDbSymbolTable
 70
1
100
AcDbDimStyleTable
 71
0
  0
DIMSTYLE
105
205
100
AcDbSymbolTableRecord
100
AcDbDimStyleTableRecord
  2
STANDARD
 70
0
  3

  4

 40
1.0
 41
0.1875
 42
0.0625
 43
0.38
 44
0.18
 45
0.0
 46
0.0
 47
0.01
 48
0.01
140
0.15625
141
0.09
142
0.0
143
25.4
144
1.0
145
0.0
146
1.0
147
0.09
 71
0.0
 72
0.0
 73
1
 74
1
 75
0
 76
0
 77
0
 78
4
170
0
171
2
172
0
173
0
174
0
175
0
176
0
177
0
178
0
270
2
271
2
272
2
273
2
274
2
275
0
280
0
281
0
282
0
283
1
284
4
285
0
286
0
287
3
288
0
340
11
  0
ENDTAB
  0
ENDSEC
  0
SECTION
  2
BLOCKS
  0
BLOCK
  5
20
100
AcDbEntity
  8
0
100
AcDbBlockBegin
  2
*Model_Space
 70
0
 10
0.0
 20
0.0
 30
0.0
  3
*Model_Space
  1

  0
ENDBLK
  5
21
100
AcDbEntity
  8
0
100
AcDbBlockEnd
  0
BLOCK
  5
1C
100
AcDbEntity
  8
0
100
AcDbBlockBegin
  2
*Paper_Space
 70
0
 10
0.0
 20
0.0
 30
0.0
  3
*Paper_Space
  1

  0
ENDBLK
  5
1D
100
AcDbEntity
  8
0
100
AcDbBlockEnd
  0
ENDSEC
  0
SECTION
  2
ENTITIES
  0
LINE
  5
206
100
AcDbEntity
  8
0
100
AcDbLine
 62
6
  6
CONTINUOUS
 10
8.2802473997
 20
9.1176702763
 11
8.2879665642
 21
8.4142145163
  0
LINE
  5
207
100
AcDbEntity
  8
0
100
AcDbLine
 62
6
  6
CONTINUOUS
 10
9.1110737779
 20
9.0449823869
 11
8.981318074
 21
8.3535541194
  0
LINE
  5
208
100
AcDbEntity
  8
0
100
AcDbLine
 62
6
  6
CONTINUOUS
 10
12.3114616088
 20
5.1432785348
 11
12.2614616088
 21
5.1432785348
  0
LINE
  5
209
100
AcDbEntity
  8
0
100
AcDbLine
 62
9
  6
CONTINUOUS
 10
10.1886828735
 20
9.9159794243
 11
10.4024454631
 21
10.5032873123
  0
LWPOLYLINE
  5
20A
100
AcDbEntity
  8
0
100
AcDbPolyline
 62
6
  6
CONTINUOUS
 90
7
 70
0
 10
12.0523951292
 20
10.1235637381
 10
12.0426617854
 20
10.1183602779
 10
12.0269947918
 20
10.1094456276
 10
12.0115935698
 20
10.1000046461
 10
11.9964775762
 20
10.0900478671
 10
11.9816663604
 20
10.0795862628
 10
11.9680529949
 20
10.0692918265
  0
LWPOLYLINE
  5
20B
100
AcDbEntity
  8
0
100
AcDbPolyline
 62
6
  6
CONTINUOUS
 90
9
 70
0
 10
12.0530363043
 20
10.1158841364
 10
12.0478862176
 20
10.1135975827
 10
12.0316568824
 20
10.1059652307
 10
12.0156521997
 20
10.0977847516
 10
11.9998734733
 20
10.0890566312
 10
11.9843384547
 20
10.0797887036
 10
11.9690718801
 20
10.0699933358
 10
11.9540981595
 20
10.0596838274
 10
11.9439192038
 20
10.0522551582
  0
LWPOLYLINE
  5
20C
100
AcDbEntity
  8
0
100
AcDbPolyline
 62
6
  6
CONTINUOUS
 90
10
 70
0
 10
12.0723364698
 20
10.1357611667
 10
12.0632387309
 20
10.1317909435
 10
12.0465704806
 20
10.1240163454
 10
12.0301782599
 20
10.1157131501
 10
12.014107652
 20
10.1069065369
 10
11.9984064093
 20
10.0976278444
 10
11.9830864365
 20
10.0878905635
 10
11.9681341368
 20
10.077689831
 10
11.9535382436
 20
10.0670173836
 10
11.9477174331
 20
10.0625523752
  0
LWPOLYLINE
  5
20D
100
AcDbEntity
  8
0
100
AcDbPolyline
 62
6
  6
CONTINUOUS
 90
5
 70
0
 10
12.1285488675
 20
10.1562260675
 10
12.1145376908
 20
10.1517867999
 10
12.0972551996
 20
10.145687978
 10
12.0801452431
 20
10.1390193545
 10
12.0723364698
 20
10.1357611667
  0
LWPOLYLINE
  5
20E
100
AcDbEntity
  8
0
100
AcDbPolyline
 62
6
  6
CONTINUOUS
 90
10
 70
0
 10
11.9060219106
 20
9.958503153
 10
11.8975893923
 20
9.9507546076
 10
11.8853805638
 20
9.9388820433
 10
11.8735343103
 20
9.9265595984
 10
11.8620536447
 20
9.913789048
 10
11.8509428316
 20
9.9005703381
 10
11.8402125003
 20
9.8869080567
 10
11.8298886998
 20
9.8728263235
 10
11.8199989072
 20
9.8583549368
 10
11.8158390286
 20
9.851946495
  0
LWPOLYLINE
  5
20F
100
AcDbEntity
  8
0
100
AcDbPolyline
 62
6
  6
CONTINUOUS
 90
9
 70
0
 10
11.9439192038
 20
10.0522551582
 10
11.9394419571
 20
10.0488748584
 10
11.9251330011
 20
10.0375865908
 10
11.9112025961
 20
10.0258431974
 10
11.8976804264
 20
10.0136707309
 10
11.8845930957
 20
10.0010957177
 10
11.8719548622
 20
9.9881349564
 10
11.8597722884
 20
9.9747970315
 10
11.8507026555
 20
9.9642702251
  0
LWPOLYLINE
  5
210
100
AcDbEntity
  8
0
100
AcDbPolyline
 62
6
  6
CONTINUOUS
 90
8
 70
0
 10
12.0352081836
 20
9.9217972135
 10
12.0232821271
 20
9.9157907784
 10
12.0106608131
 20
9.9088691137
 10
11.9982679839
 20
9.9014766856
 10
11.9861280978
 20
9.8936267834
 10
11.9742557386
 20
9.8853271263
 10
11.962654658
 20
9.8765765943
 10
11.9542850484
 20
9.8698403816
  0
LWPOLYLINE
  5
211
100
AcDbEntity
  8
0
100
AcDbPolyline
 62
6
  6
CONTINUOUS
 90
8
 70
0
 10
11.8856767959
 20
9.7976324813
 10
11.8801152853
 20
9.7900416273
 10
11.8713715317
 20
9.7773704191
 10
11.863063774
 20
9.7643810168
 10
11.8551999582
 20
9.7510841969
 10
11.8477867158
 20
9.7374863919
 10
11.8408318587
 20
9.7235932099
 10
11.8367042724
 20
9.714723369
  0
LWPOLYLINE
  5
212
100
AcDbEntity
  8
0
100
AcDbPolyline
 62
6
  6
CONTINUOUS
 90
9
 70
0
 10
11.9542850479
 20
9.8698403812
 10
11.9513179389
 20
9.8673622817
 10
11.9402488087
 20
9.857679702
 10
11.9294478836
 20
9.8475246641
 10
11.9189300016
 20
9.8369038509
 10
11.9087124255
 20
9.8258258301
 10
11.8988162183
 20
9.8143034448
 10
11.889273216
 20
9.8023643897
 10
11.8856767959
 20
9.7976324813
  0
LWPOLYLINE
  5
213
100
AcDbEntity
  8
0
100
AcDbPolyline
 62
6
  6
CONTINUOUS
 90
9
 70
0
 10
11.8367042723
 20
9.7147233689
 10
11.8343430372
 20
9.7094063464
 10
11.8283284668
 20
9.6949297732
 10
11.8227907147
 20
9.6801644653
 10
11.817731913
 20
9.6651052401
 10
11.8131621023
 20
9.6497630616
 10
11.8090972803
 20
9.63416982
 10
11.8055519665
 20
9.6183604494
 10
11.8032018485
 20
9.6061626892
  0
LWPOLYLINE
  5
214
100
AcDbEntity
  8
0
100
AcDbPolyline
 62
6
  6
CONTINUOUS
 90
9
 70
0
 10
11.8158390286
 20
9.8519464951
 10
11.8105685815
 20
9.8435253743
 10
11.8016207331
 20
9.8283700673
 10
11.7931754363
 20
9.812921292
 10
11.7852514581
 20
9.7972139719
 10
11.7778678416
 20
9.7812900483
 10
11.771036659
 20
9.7651835712
 10
11.7647531466
 20
9.7488892252
 10
11.7588560278
 20
9.7319153992
  0
LWPOLYLINE
  5
215
100
AcDbEntity
  8
0
100
AcDbPolyline
 62
6
  6
CONTINUOUS
 90
4
 70
0
 10
12.1115146979
 20
9.7068992304
 10
12.1069941906
 20
9.7023215288
 10
12.099354926
 20
9.6938466755
 10
12.0966738238
 20
9.690681424
  0
LWPOLYLINE
  5
216
100
AcDbEntity
  8
0
100
AcDbPolyline
 62
6
  6
CONTINUOUS
 90
8
 70
0
 10
12.5358125224
 20
9.1776826856
 10
12.544773671
 20
9.1805548416
 10
12.5592954656
 20
9.1856666149
 10
12.5736515619
 20
9.1912920846
 10
12.5878291972
 20
9.197427203
 10
12.6018192254
 20
9.2040706638
 10
12.6156120305
 20
9.2112225217
 10
12.6241648797
 20
9.2159722393
  0
LWPOLYLINE
  5
217
100
AcDbEntity
  8
0
100
AcDbPolyline
 62
6
  6
CONTINUOUS
 90
8
 70
0
 10
11.7588560279
 20
9.7319153995
 10
11.7538062023
 20
9.7156574168
 10
11.7491307805
 20
9.6986695191
 10
11.7449939971
 20
9.6814381509
 10
11.7414082328
 20
9.6639931526
 10
11.7383853216
 20
9.6463708006
 10
11.735935186
 20
9.6286104751
 10
11.7350209772
 20
9.6205785264
  0
LWPOLYLINE
  5
218
100
AcDbEntity
  8
0
100
AcDbPolyline
 62
6
  6
CONTINUOUS
 90
10
 70
0
 10
11.7527525331
 20
9.7942062117
 10
11.7503047871
 20
9.7872905285
 10
11.7446650655
 20
9.7701110416
 10
11.7395841071
 20
9.7527383597
 10
11.7350575347
 20
9.7351592145
 10
11.7310849244
 20
9.7173591717
 10
11.7276754286
 20
9.6993537221
 10
11.7248440953
 20
9.6811979654
 10
11.7226007858
 20
9.6629430344
 10
11.7216362351
 20
9.6530637041
  0
LINE
  5
219
100
AcDbEntity
  8
0
100
AcDbLine
 62
9
  6
CONTINUOUS
 10
11.6852603838
 20
9.3712697573
 11
11.7301215365
 21
9.4945247615
  0
LWPOLYLINE
  5
21A
100
AcDbEntity
  8
0
100
AcDbPolyline
 62
6
  6
CONTINUOUS
 90
7
 70
0
 10
12.5302799072
 20
9.439874122
 10
12.5374980752
 20
9.4459005598
 10
12.5465487448
 20
9.4540587901
 10
12.555316224
 20
9.4626616207
 10
12.5637688107
 20
9.4716822787
 10
12.5718768946
 20
9.481091542
 10
12.5747026586
 20
9.4845636432
  0
LWPOLYLINE
  5
21B
100
AcDbEntity
  8
0
100
AcDbPolyline
 62
6
  6
CONTINUOUS
 90
8
 70
0
 10
12.6770402105
 20
9.1563055445
 10
12.6906818076
 20
9.1664903157
 10
12.7044495391
 20
9.1774856698
 10
12.7179246113
 20
9.1889945991
 10
12.7310794682
 20
9.2010002399
 10
12.7438832135
 20
9.2134801995
 10
12.7563046722
 20
9.226408451
 10
12.7617653436
 20
9.2323690756
  0
LWPOLYLINE
  5
21C
100
AcDbEntity
  8
0
100
AcDbPolyline
 62
6
  6
CONTINUOUS
 90
10
 70
0
 10
12.6453644207
 20
9.1023236745
 10
12.6514096254
 20
9.1064798308
 10
12.6660701051
 20
9.1170633825
 10
12.680392093
 20
9.1281316649
 10
12.6943869293
 20
9.1396928396
 10
12.7080634412
 20
9.1517583351
 10
12.7214051189
 20
9.1643209984
 10
12.7343674018
 20
9.1773450981
 10
12.7469122565
 20
9.1907950634
 10
12.7534995191
 20
9.1982206607
  0
LWPOLYLINE
  5
21D
100
AcDbEntity
  8
0
100
AcDbPolyline
 62
6
  6
CONTINUOUS
 90
9
 70
0
 10
12.6241648798
 20
9.2159722394
 10
12.6292004265
 20
9.2188859018
 10
12.6425754324
 20
9.2270624197
 10
12.6557343982
 20
9.2357527957
 10
12.6686786452
 20
9.2449624758
 10
12.6813936061
 20
9.2546884916
 10
12.6938475936
 20
9.2649144467
 10
12.7060083276
 20
9.2756206129
 10
12.7150792765
 20
9.2841074435
  0
LWPOLYLINE
  5
21E
100
AcDbEntity
  8
0
100
AcDbPolyline
 62
6
  6
CONTINUOUS
 90
9
 70
0
 10
12.5603874867
 20
9.0926921158
 10
12.5696011786
 20
9.0964070544
 10
12.5857482059
 20
9.103408542
 10
12.6016611569
 20
9.1109428429
 10
12.617304321
 20
9.1189927343
 10
12.6326376397
 20
9.1275354782
 10
12.6476313322
 20
9.1365506235
 10
12.6622923768
 20
9.1460396704
 10
12.6770402108
 20
9.1563055447
  0
LINE
  5
21F
100
AcDbEntity
  8
0
100
AcDbLine
 62
6
  6
CONTINUOUS
 10
11.7864616088
 20
9.3241231621
 11
11.7864616088
 21
8.8182785348
  0
LWPOLYLINE
  5
220
100
AcDbEntity
  8
0
100
AcDbPolyline
 62
6
  6
CONTINUOUS
 90
10
 70
0
 10
11.7216362351
 20
9.6530637041
 10
11.720950558
 20
9.6446302839
 10
11.7198955874
 20
9.6262970304
 10
11.7194358467
 20
9.6079757649
 10
11.7195697773
 20
9.5896985284
 10
11.7202943159
 20
9.5714971423
 10
11.7216049216
 20
9.55340265
 10
11.7234957353
 20
9.5354444071
 10
11.7259641603
 20
9.517621718
 10
11.7270744659
 20
9.510758811
  0
LWPOLYLINE
  5
221
100
AcDbEntity
  8
0
100
AcDbPolyline
 62
6
  6
CONTINUOUS
 90
8
 70
0
 10
11.7350209772
 20
9.6205785265
 10
11.7340653217
 20
9.6107534318
 10
11.7327805116
 20
9.5928418357
 10
11.7320826384
 20
9.5749153081
 10
11.7319712619
 20
9.5569950221
 10
11.7324461474
 20
9.5390942577
 10
11.7335080123
 20
9.5212250692
 10
11.7345763351
 20
9.5089954772
  0
LWPOLYLINE
  5
222
100
AcDbEntity
  8
0
100
AcDbPolyline
 62
6
  6
CONTINUOUS
 90
9
 70
0
 10
11.9148139384
 20
9.5430278612
 10
11.9129565691
 20
9.5301797619
 10
11.9115215827
 20
9.5167660429
 10
11.9105761755
 20
9.5031440236
 10
11.9101318786
 20
9.4893446489
 10
11.9101982028
 20
9.4753997245
 10
11.9107825297
 20
9.4613436298
 10
11.9118898586
 20
9.4472122075
 10
11.9136547756
 20
9.4320637694
  0
LWPOLYLINE
  5
223
100
AcDbEntity
  8
0
100
AcDbPolyline
 62
6
  6
CONTINUOUS
 90
9
 70
0
 10
11.8032018485
 20
9.6061626892
 10
11.8025386914
 20
9.6023721991
 10
11.8000672212
 20
9.5862409612
 10
11.7981446251
 20
9.569998699
 10
11.7967766088
 20
9.5536826137
 10
11.7959669134
 20
9.5373441789
 10
11.7957149141
 20
9.521017118
 10
11.7960201778
 20
9.5046730459
 10
11.7965156569
 20
9.4940971031
  0
LWPOLYLINE
  5
224
100
AcDbEntity
  8
0
100
AcDbPolyline
 62
6
  6
CONTINUOUS
 90
7
 70
0
 10
12.0442650352
 20
9.588767143
 10
12.041967666
 20
9.5796489198
 10
12.0394408079
 20
9.5677289228
 10
12.0374043851
 20
9.5556156916
 10
12.0358683086
 20
9.5433495202
 10
12.0348393571
 20
9.5309714541
 10
12.034594116
 20
9.5265015228
  0
LWPOLYLINE
  5
225
100
AcDbEntity
  8
0
100
AcDbPolyline
 62
6
  6
CONTINUOUS
 90
10
 70
0
 10
12.7534995191
 20
9.1982206607
 10
12.7590112835
 20
9.2046404101
 10
12.7706407887
 20
9.2188522277
 10
12.7817816964
 20
9.233404214
 10
12.7924164343
 20
9.2482695314
 10
12.8025287766
 20
9.2634206351
 10
12.8121041501
 20
9.2788297416
 10
12.82113004
 20
9.2944696577
 10
12.829608956
 20
9.3103394199
 10
12.8327446155
 20
9.3165442495
  0
LWPOLYLINE
  5
226
100
AcDbEntity
  8
0
100
AcDbPolyline
 62
6
  6
CONTINUOUS
 90
8
 70
0
 10
12.7617653436
 20
9.2323690755
 10
12.7683135309
 20
9.2397560239
 10
12.7798811361
 20
9.2534916171
 10
12.7909826759
 20
9.267584283
 10
12.8016060612
 20
9.2820166335
 10
12.8117436761
 20
9.2967777867
 10
12.8213878549
 20
9.3118584125
 10
12.8277119374
 20
9.3223803046
  0
LWPOLYLINE
  5
227
100
AcDbEntity
  8
0
100
AcDbPolyline
 62
6
  6
CONTINUOUS
 90
9
 70
0
 10
12.6618929198
 20
9.4007885328
 10
12.6709474865
 20
9.4100911291
 10
12.679992801
 20
9.4200995919
 10
12.6887644736
 20
9.4305643407
 10
12.6972349863
 20
9.4414671181
 10
12.7053779498
 20
9.4527877834
 10
12.7131671845
 20
9.4645028615
 10
12.7205775783
 20
9.4765862939
 10
12.7280537589
 20
9.48987903
  0
LWPOLYLINE
  5
228
100
AcDbEntity
  8
0
100
AcDbPolyline
 62
6
  6
CONTINUOUS
 90
9
 70
0
 10
12.7150792765
 20
9.2841074435
 10
12.7178437761
 20
9.2867842205
 10
12.7293249413
 20
9.2983819723
 10
12.7404273163
 20
9.3103921648
 10
12.7511244191
 20
9.3227880554
 10
12.7613829674
 20
9.3355301997
 10
12.7711836447
 20
9.348590948
 10
12.7805434858
 20
9.3619930095
 10
12.786359018
 20
9.3708403624
  0
LINE
  5
229
100
AcDbEntity
  8
0
100
AcDbLine
 62
6
  6
CONTINUOUS
 10
13.7163224772
 20
9.8937785348
 11
13.7764616088
 21
9.9457785348
  0
LINE
  5
22A
100
AcDbEntity
  8
0
100
AcDbLine
 62
6
  6
CONTINUOUS
 10
14.53084517
 20
10.1337785348
 11
14.6367627973
 21
10.207912529
  0
LWPOLYLINE
  5
22B
100
AcDbEntity
  8
0
100
AcDbPolyline
 62
6
  6
CONTINUOUS
 90
9
 70
0
 10
11.7345763351
 20
9.5089954773
 10
11.7351595126
 20
9.5033908698
 10
11.7374031704
 20
9.4855973283
 10
11.7402375493
 20
9.4678480634
 10
11.7436625905
 20
9.4501444654
 10
11.7476763286
 20
9.4325058376
 10
11.752274646
 20
9.4149595272
 10
11.7574524371
 20
9.3975328594
 10
11.761372051
 20
9.3855565122
  0
LINE
  5
22C
100
AcDbEntity
  8
0
100
AcDbLine
 62
6
  6
CONTINUOUS
 10
11.8364616088
 20
9.2415089481
 11
11.8364616088
 21
8.8682785348
  0
LWPOLYLINE
  5
22D
100
AcDbEntity
  8
0
100
AcDbPolyline
 62
6
  6
CONTINUOUS
 90
8
 70
0
 10
12.7280537589
 20
9.48987903
 10
12.7341716474
 20
9.5017482982
 10
12.7403140525
 20
9.5147666648
 10
12.7459949017
 20
9.528031587
 10
12.7512022192
 20
9.5415179373
 10
12.7559287434
 20
9.5552108986
 10
12.7601707811
 20
9.5691091718
 10
12.762982491
 20
9.5794784155
  0
LWPOLYLINE
  5
22E
100
AcDbEntity
  8
0
100
AcDbPolyline
 62
6
  6
CONTINUOUS
 90
9
 70
0
 10
12.8277119373
 20
9.3223803046
 10
12.8305344424
 20
9.3272573104
 10
12.8391780664
 20
9.3429713768
 10
12.8473177618
 20
9.3589968399
 10
12.8549527591
 20
9.3753325403
 10
12.8620733021
 20
9.391961706
 10
12.8686666477
 20
9.4088597924
 10
12.874720865
 20
9.4260016921
 10
12.878589351
 20
9.4379946517
  0
LWPOLYLINE
  5
22F
100
AcDbEntity
  8
0
100
AcDbPolyline
 62
6
  6
CONTINUOUS
 90
7
 70
0
 10
11.7270744659
 20
9.5107588109
 10
11.7290154819
 20
9.4998938933
 10
11.732652451
 20
9.4822389184
 10
11.7368721186
 20
9.4646740621
 10
11.7416704792
 20
9.447221084
 10
11.7470431387
 20
9.4299019673
 10
11.7526269682
 20
9.4137737315
  0
LINE
  5
230
100
AcDbEntity
  8
0
100
AcDbLine
 62
6
  6
CONTINUOUS
 10
12.2614616088
 20
5.1432785348
 11
12.2614616088
 21
9.0068296691
  0
LINE
  5
231
100
AcDbEntity
  8
0
100
AcDbLine
 62
6
  6
CONTINUOUS
 10
12.3114616088
 20
5.1432785348
 11
12.3114616088
 21
9.0062752228
  0
LWPOLYLINE
  5
232
100
AcDbEntity
  8
0
100
AcDbPolyline
 62
6
  6
CONTINUOUS
 90
4
 70
0
 10
12.5399978304
 20
9.618825415
 10
12.5409730887
 20
9.6252438326
 10
12.5421719898
 20
9.63659038
 10
12.5424805588
 20
9.6407270346
  0
LWPOLYLINE
  5
233
100
AcDbEntity
  8
0
100
AcDbPolyline
 62
6
  6
CONTINUOUS
 90
9
 70
0
 10
12.7629824912
 20
9.5794784161
 10
12.7639263425
 20
9.5832272636
 10
12.7671901794
 20
9.5975669066
 10
12.7699593298
 20
9.6121311293
 10
12.7722257177
 20
9.6269058036
 10
12.7739804132
 20
9.6418738513
 10
12.7752139249
 20
9.6570125015
 10
12.7759167754
 20
9.6722806359
 10
12.7760449944
 20
9.678222753
  0
LWPOLYLINE
  5
234
100
AcDbEntity
  8
0
100
AcDbPolyline
 62
6
  6
CONTINUOUS
 90
9
 70
0
 10
12.878589351
 20
9.4379946517
 10
12.8802246293
 20
9.4433610313
 10
12.8851657407
 20
9.460904025
 10
12.8895330816
 20
9.4785927164
 10
12.8933179504
 20
9.4963885806
 10
12.896514416
 20
9.51425452
 10
12.8991208174
 20
9.5321685633
 10
12.9011368911
 20
9.5501199085
 10
12.9022868766
 20
9.5639672702
  0
LWPOLYLINE
  5
235
100
AcDbEntity
  8
0
100
AcDbPolyline
 62
6
  6
CONTINUOUS
 90
7
 70
0
 10
12.8327446155
 20
9.3165442496
 10
12.8375605389
 20
9.3264750532
 10
12.844995503
 20
9.3428959847
 10
12.8519060836
 20
9.3595865103
 10
12.8582827315
 20
9.3765266718
 10
12.86411608
 20
9.3936961016
 10
12.8690786062
 20
9.410026211
  0
LINE
  5
236
100
AcDbEntity
  8
0
100
AcDbLine
 62
6
  6
CONTINUOUS
 10
8.9481481098
 20
8.3283898345
 11
8.3162628699
 21
8.3836726296
  0
LINE
  5
237
100
AcDbEntity
  8
0
100
AcDbLine
 62
9
  6
CONTINUOUS
 10
8.981318074
 20
8.3535541194
 11
8.2879665642
 21
8.4142145163
  0
LWPOLYLINE
  5
238
100
AcDbEntity
  8
0
100
AcDbPolyline
 62
6
  6
CONTINUOUS
 90
9
 70
0
 10
11.761372051
 20
9.3855565122
 10
11.7632033619
 20
9.3802538274
 10
11.7695174317
 20
9.3631569351
 10
11.7763813306
 20
9.3462794245
 10
11.7837794541
 20
9.3296575778
 10
11.7916947947
 20
9.3133248939
 10
11.8001157822
 20
9.2973001241
 10
11.8090362803
 20
9.2815921624
 10
11.8162451974
 20
9.2697134669
  0
LWPOLYLINE
  5
239
100
AcDbEntity
  8
0
100
AcDbPolyline
 62
6
  6
CONTINUOUS
 90
8
 70
0
 10
11.9136547756
 20
9.4320637693
 10
11.9156818807
 20
9.418865325
 10
11.9183645745
 20
9.4047228301
 10
11.9215655966
 20
9.3906521632
 10
11.9252798661
 20
9.3766806922
 10
11.9295045483
 20
9.3628246726
 10
11.9342418677
 20
9.3490873262
 10
11.9380620352
 20
9.3390457502
  0
LWPOLYLINE
  5
23A
100
AcDbEntity
  8
0
100
AcDbPolyline
 62
6
  6
CONTINUOUS
 90
10
 70
0
 10
12.8541428592
 20
9.5361170873
 10
12.8564104291
 20
9.547342302
 10
12.8593090606
 20
9.5641235776
 10
12.8616499297
 20
9.5810556982
 10
12.8634316421
 20
9.5981354564
 10
12.8646507159
 20
9.6153603894
 10
12.8653012488
 20
9.6327205377
 10
12.8653763437
 20
9.6501810769
 10
12.8648712863
 20
9.6677017488
 10
12.8644699112
 20
9.6753314025
  0
LINE
  5
23B
100
AcDbEntity
  8
0
100
AcDbLine
 62
6
  6
CONTINUOUS
 10
15.0799616088
 20
10.2344419745
 11
15.0952566258
 21
10.2497811777
  0
LINE
  5
23C
100
AcDbEntity
  8
0
100
AcDbLine
 62
6
  6
CONTINUOUS
 10
15.6914616088
 20
8.4132785348
 11
15.8634616088
 21
8.4132785348
  0
LWPOLYLINE
  5
23D
100
AcDbEntity
  8
0
100
AcDbPolyline
 62
6
  6
CONTINUOUS
 90
10
 70
0
 10
11.8388245989
 20
9.3205430817
 10
11.843588112
 20
9.310128848
 10
11.8511068561
 20
9.294848738
 10
11.859165504
 20
9.2797744364
 10
11.8677632984
 20
9.2649093575
 10
11.8769016085
 20
9.2502575403
 10
11.8865793555
 20
9.2358305117
 10
11.8967816499
 20
9.2216604991
 10
11.9074886425
 20
9.207782843
 10
11.9122979596
 20
9.2018462459
  0
LWPOLYLINE
  5
23E
100
AcDbEntity
  8
0
100
AcDbPolyline
 62
6
  6
CONTINUOUS
 90
9
 70
0
 10
11.9380620354
 20
9.3390457496
 10
11.9395019609
 20
9.3354580864
 10
11.945290092
 20
9.3219386363
 10
11.9516104376
 20
9.3085282669
 10
11.9584612269
 20
9.2952431549
 10
11.9658396462
 20
9.2821023658
 10
11.9737399896
 20
9.2691299006
 10
11.9821457559
 20
9.2563645952
 10
11.9855347133
 20
9.2514819563
  0
LWPOLYLINE
  5
23F
100
AcDbEntity
  8
0
100
AcDbPolyline
 62
6
  6
CONTINUOUS
 90
9
 70
0
 10
12.8644699113
 20
9.6753314024
 10
12.863783982
 20
9.6852421233
 10
12.8621148774
 20
9.7027624375
 10
12.8598667038
 20
9.7202247802
 10
12.8570448057
 20
9.7375898666
 10
12.8536584295
 20
9.7548125724
 10
12.8497178226
 20
9.7718582544
 10
12.8452237146
 20
9.7887340131
 10
12.8400176193
 20
9.8059323664
  0
LINE
  5
240
100
AcDbEntity
  8
0
100
AcDbLine
 62
6
  6
CONTINUOUS
 10
12.7864616088
 20
8.8682785348
 11
12.7864616088
 21
9.2399458311
  0
LINE
  5
241
100
AcDbEntity
  8
0
100
AcDbLine
 62
6
  6
CONTINUOUS
 10
12.8364616088
 20
8.8182785348
 11
12.8364616088
 21
9.3242089751
  0
LINE
  5
242
100
AcDbEntity
  8
0
100
AcDbLine
 62
9
  6
CONTINUOUS
 10
12.9764616088
 20
9.3407785348
 11
12.9764616088
 21
9.8457785348
  0
LWPOLYLINE
  5
243
100
AcDbEntity
  8
0
100
AcDbPolyline
 62
6
  6
CONTINUOUS
 90
8
 70
0
 10
12.7760449944
 20
9.6782227529
 10
12.7760825589
 20
9.6876328568
 10
12.7757084549
 20
9.7030235289
 10
12.774794593
 20
9.7184153536
 10
12.7733408789
 20
9.7337949419
 10
12.7713457288
 20
9.7491531917
 10
12.7688061188
 20
9.7644809745
 10
12.7669318447
 20
9.7740829609
  0
LINE
  5
244
100
AcDbEntity
  8
0
100
AcDbLine
 62
6
  6
CONTINUOUS
 10
12.2614616088
 20
8.6432785348
 11
12.3114616088
 21
8.6432785348
  0
LINE
  5
245
100
AcDbEntity
  8
0
100
AcDbLine
 62
6
  6
CONTINUOUS
 10
15.3634616088
 20
8.7112785348
 11
15.3774616088
 21
8.7112785348
  0
LINE
  5
246
100
AcDbEntity
  8
0
100
AcDbLine
 62
6
  6
CONTINUOUS
 10
11.7864616088
 20
8.8182785348
 11
12.2614616088
 21
8.8182785348
  0
LINE
  5
247
100
AcDbEntity
  8
0
100
AcDbLine
 62
6
  6
CONTINUOUS
 10
12.3114616088
 20
8.8182785348
 11
12.8364616088
 21
8.8182785348
  0
LINE
  5
248
100
AcDbEntity
  8
0
100
AcDbLine
 62
6
  6
CONTINUOUS
 10
15.4464616088
 20
8.8522785348
 11
15.5084616088
 21
8.8522785348
  0
LINE
  5
249
100
AcDbEntity
  8
0
100
AcDbLine
 62
6
  6
CONTINUOUS
 10
11.8364616088
 20
8.8682785348
 11
12.2614616088
 21
8.8682785348
  0
LINE
  5
24A
100
AcDbEntity
  8
0
100
AcDbLine
 62
6
  6
CONTINUOUS
 10
12.3114616088
 20
8.8682785348
 11
12.7864616088
 21
8.8682785348
  0
LINE
  5
24B
100
AcDbEntity
  8
0
100
AcDbLine
 62
6
  6
CONTINUOUS
 10
15.4464616088
 20
8.9367785348
 11
15.0952539908
 21
8.9367785348
  0
LINE
  5
24C
100
AcDbEntity
  8
0
100
AcDbLine
 62
6
  6
CONTINUOUS
 10
9.1110737779
 20
9.0449823869
 11
8.2802473997
 21
9.1176702763
  0
LINE
  5
24D
100
AcDbEntity
  8
0
100
AcDbLine
 62
9
  6
CONTINUOUS
 10
9.1059362566
 20
9.1698396619
 11
8.3069881087
 21
9.2397385676
  0
LWPOLYLINE
  5
24E
100
AcDbEntity
  8
0
100
AcDbPolyline
 62
6
  6
CONTINUOUS
 90
8
 70
0
 10
12.0088455996
 20
9.1105605433
 10
12.022747378
 20
9.1007338809
 10
12.0374590441
 20
9.0910377415
 10
12.0525687126
 20
9.081778641
 10
12.0680518299
 20
9.0729775756
 10
12.0838775517
 20
9.0646570099
 10
12.1000114914
 20
9.0568385501
 10
12.1073678225
 20
9.0534870772
  0
LWPOLYLINE
  5
24F
100
AcDbEntity
  8
0
100
AcDbPolyline
 62
6
  6
CONTINUOUS
 90
10
 70
0
 10
11.9477174331
 20
9.1240046945
 10
11.9535382436
 20
9.119539686
 10
11.9681341368
 20
9.1088672386
 10
11.9830864365
 20
9.0986665061
 10
11.9984064093
 20
9.0889292253
 10
12.014107652
 20
9.0796505327
 10
12.0301782599
 20
9.0708439196
 10
12.0465704806
 20
9.0625407242
 10
12.0632387309
 20
9.0547661262
 10
12.0723364698
 20
9.0507959029
  0
LWPOLYLINE
  5
250
100
AcDbEntity
  8
0
100
AcDbPolyline
 62
6
  6
CONTINUOUS
 90
9
 70
0
 10
12.0492526229
 20
9.1792859939
 10
12.0535797499
 20
9.1753972756
 10
12.0654891847
 20
9.165203572
 10
12.0778205675
 20
9.1553741258
 10
12.0905794861
 20
9.1459093629
 10
12.1037586157
 20
9.1368222208
 10
12.1173325708
 20
9.1281377687
 10
12.1312726134
 20
9.1198806107
 10
12.1421471463
 20
9.1138762005
  0
LWPOLYLINE
  5
251
100
AcDbEntity
  8
0
100
AcDbPolyline
 62
6
  6
CONTINUOUS
 90
9
 70
0
 10
11.9122979596
 20
9.2018462459
 10
11.9186782636
 20
9.1942314834
 10
11.9303267799
 20
9.1810383265
 10
11.9424096981
 20
9.1682324378
 10
11.9548996033
 20
9.1558424579
 10
11.9677624916
 20
9.1438994582
 10
11.9809697101
 20
9.1324254424
 10
11.9945248419
 20
9.1214142372
 10
12.0088455999
 20
9.1105605432
  0
LWPOLYLINE
  5
252
100
AcDbEntity
  8
0
100
AcDbPolyline
 62
6
  6
CONTINUOUS
 90
8
 70
0
 10
11.9855347132
 20
9.2514819563
 10
11.9910354432
 20
9.2438469425
 10
12.0003845098
 20
9.23161552
 10
12.0101709272
 20
9.2197004268
 10
12.0203869017
 20
9.2081125502
 10
12.0310283648
 20
9.196860185
 10
12.0420923971
 20
9.1859524935
 10
12.0492526227
 20
9.179285994
  0
LWPOLYLINE
  5
253
100
AcDbEntity
  8
0
100
AcDbPolyline
 62
6
  6
CONTINUOUS
 90
4
 70
0
 10
12.1415843123
 20
9.4382875824
 10
12.1445716518
 20
9.4325146026
 10
12.1502710537
 20
9.4226303566
 10
12.1524528806
 20
9.4191023603
  0
LINE
  5
254
100
AcDbEntity
  8
0
100
AcDbLine
 62
9
  6
CONTINUOUS
 10
13.0963368687
 20
9.336911591
 11
13.0963368687
 21
9.8496454787
  0
LINE
  5
255
100
AcDbEntity
  8
0
100
AcDbLine
 62
9
  6
CONTINUOUS
 10
13.1164616088
 20
9.3557785348
 11
13.1164616088
 21
9.8307785348
  0
LINE
  5
256
100
AcDbEntity
  8
0
100
AcDbLine
 62
9
  6
CONTINUOUS
 10
13.1664616088
 20
9.3557785348
 11
13.1664616088
 21
9.8307785348
  0
LWPOLYLINE
  5
257
100
AcDbEntity
  8
0
100
AcDbPolyline
 62
6
  6
CONTINUOUS
 90
10
 70
0
 10
12.4247955705
 20
9.0594941367
 10
12.4361721018
 20
9.0608063317
 10
12.4530277697
 20
9.0632352686
 10
12.4698545416
 20
9.0662412829
 10
12.4866489364
 20
9.0698247092
 10
12.5034075357
 20
9.0739880981
 10
12.5201190436
 20
9.0787339854
 10
12.5367482087
 20
9.0840581693
 10
12.5532552867
 20
9.0899526928
 10
12.5603874867
 20
9.0926921158
  0
LWPOLYLINE
  5
258
100
AcDbEntity
  8
0
100
AcDbPolyline
 62
6
  6
CONTINUOUS
 90
9
 70
0
 10
12.4378645419
 20
9.1595921862
 10
12.4417215739
 20
9.1598529878
 10
12.4563679659
 20
9.1611800878
 10
12.4710750793
 20
9.1630470616
 10
12.4858269819
 20
9.1654572241
 10
12.500604672
 20
9.1684137906
 10
12.51538356
 20
9.1719187515
 10
12.5301216114
 20
9.175968414
 10
12.5358125224
 20
9.1776826856
  0
LWPOLYLINE
  5
259
100
AcDbEntity
  8
0
100
AcDbPolyline
 62
6
  6
CONTINUOUS
 90
9
 70
0
 10
12.3390299702
 20
9.0059226412
 10
12.3446390293
 20
9.0060257017
 10
12.3628502951
 20
9.0067475086
 10
12.3810228229
 20
9.0080600268
 10
12.3991172844
 20
9.0099596272
 10
12.4170965646
 20
9.0124404866
 10
12.4349392546
 20
9.0154973955
 10
12.4526349994
 20
9.0191272662
 10
12.4661599881
 20
9.022312635
  0
LWPOLYLINE
  5
25A
100
AcDbEntity
  8
0
100
AcDbPolyline
 62
6
  6
CONTINUOUS
 90
3
 70
0
 10
12.3114616088
 20
8.9995999238
 10
12.3225709852
 20
8.9996336797
 10
12.329904586
 20
8.9998245609
  0
LINE
  5
25B
100
AcDbEntity
  8
0
100
AcDbLine
 62
6
  6
CONTINUOUS
 10
13.7764616088
 20
9.2407785348
 11
14.1764616088
 21
9.2407785348
  0
LWPOLYLINE
  5
25C
100
AcDbEntity
  8
0
100
AcDbPolyline
 62
6
  6
CONTINUOUS
 90
7
 70
0
 10
12.2093569715
 20
9.0119933374
 10
12.2202899292
 20
9.0104819092
 10
12.2382046933
 20
9.008485185
 10
12.2562138133
 20
9.0070704884
 10
12.2742953568
 20
9.0062407336
 10
12.2924270588
 20
9.0059985351
 10
12.3094914207
 20
9.0063251736
  0
LWPOLYLINE
  5
25D
100
AcDbEntity
  8
0
100
AcDbPolyline
 62
6
  6
CONTINUOUS
 90
8
 70
0
 10
12.3418568901
 20
9.1651236516
 10
12.3550357665
 20
9.1629729995
 10
12.3693150764
 20
9.1611541217
 10
12.3836862461
 20
9.1598503993
 10
12.398121677
 20
9.1590654576
 10
12.4126050334
 20
9.1588016237
 10
12.4271339384
 20
9.1590620087
 10
12.4378645413
 20
9.1595921861
  0
LWPOLYLINE
  5
25E
100
AcDbEntity
  8
0
100
AcDbPolyline
 62
6
  6
CONTINUOUS
 90
9
 70
0
 10
12.2133522065
 20
9.018583139
 10
12.2188627167
 20
9.0174058547
 10
12.2364787087
 20
9.0140411934
 10
12.254235134
 20
9.0112520235
 10
12.2721306522
 20
9.0090387186
 10
12.2901462974
 20
9.0074053746
 10
12.3082547885
 20
9.0063565262
 10
12.3264285599
 20
9.0058957616
 10
12.3390299703
 20
9.0059226412
  0
LWPOLYLINE
  5
25F
100
AcDbEntity
  8
0
100
AcDbPolyline
 62
6
  6
CONTINUOUS
 90
6
 70
0
 10
12.1860546194
 20
9.0138466363
 10
12.1957484834
 20
9.0117110976
 10
12.2138031753
 20
9.0082035278
 10
12.2319452562
 20
9.0052858485
 10
12.2501230485
 20
9.0029644818
 10
12.2614616088
 20
9.0018888947
  0
LWPOLYLINE
  5
260
100
AcDbEntity
  8
0
100
AcDbPolyline
 62
6
  6
CONTINUOUS
 90
5
 70
0
 10
12.1285488675
 20
9.0303310022
 10
12.1424934836
 20
9.0256868821
 10
12.1600601102
 20
9.0204625391
 10
12.1778220744
 20
9.0158005888
 10
12.1860546194
 20
9.0138466363
  0
LINE
  5
261
100
AcDbEntity
  8
0
100
AcDbLine
 62
6
  6
CONTINUOUS
 10
11.6852603838
 20
9.3712697573
 11
10.1886828735
 21
9.9159794243
  0
LWPOLYLINE
  5
262
100
AcDbEntity
  8
0
100
AcDbPolyline
 62
6
  6
CONTINUOUS
 90
10
 70
0
 10
12.0723364698
 20
9.0507959029
 10
12.0801452431
 20
9.0475377152
 10
12.0972551996
 20
9.0408690916
 10
12.1145376908
 20
9.0347702698
 10
12.1319617625
 20
9.0292496687
 10
12.1494962041
 20
9.0243142082
 10
12.1671100883
 20
9.0199691627
 10
12.1847736858
 20
9.0162180311
 10
12.2024868557
 20
9.013058129
 10
12.2093569715
 20
9.0119933374
  0
LWPOLYLINE
  5
263
100
AcDbEntity
  8
0
100
AcDbPolyline
 62
6
  6
CONTINUOUS
 90
8
 70
0
 10
12.1073678224
 20
9.0534870772
 10
12.1164167289
 20
9.0495420736
 10
12.133054641
 20
9.042785159
 10
12.1498881272
 20
9.0365818405
 10
12.1668969147
 20
9.0309382422
 10
12.184068301
 20
9.0258582447
 10
12.2013910436
 20
9.0213462553
 10
12.2133522066
 20
9.0185831389
  0
LWPOLYLINE
  5
264
100
AcDbEntity
  8
0
100
AcDbPolyline
 62
6
  6
CONTINUOUS
 90
9
 70
0
 10
12.2366819685
 20
9.2005158711
 10
12.2483272784
 20
9.1947791268
 10
12.260641048
 20
9.1892693066
 10
12.2733042114
 20
9.1841607355
 10
12.2862909013
 20
9.1794739426
 10
12.2995738079
 20
9.1752278021
 10
12.3131225152
 20
9.1714399579
 10
12.3269044799
 20
9.1681262406
 10
12.3418568901
 20
9.1651236516
  0
LWPOLYLINE
  5
265
100
AcDbEntity
  8
0
100
AcDbPolyline
 62
6
  6
CONTINUOUS
 90
9
 70
0
 10
12.1421471463
 20
9.1138762005
 10
12.1455471899
 20
9.1120741747
 10
12.1601251825
 20
9.1047388402
 10
12.1749783769
 20
9.0978912076
 10
12.1900731559
 20
9.0915481992
 10
12.2053617211
 20
9.0857292791
 10
12.2208118067
 20
9.0804442742
 10
12.2364502746
 20
9.0756840012
 10
12.2466617054
 20
9.0728870838
  0
LWPOLYLINE
  5
266
100
AcDbEntity
  8
0
100
AcDbPolyline
 62
6
  6
CONTINUOUS
 90
7
 70
0
 10
12.2331839153
 20
9.3377653957
 10
12.2411459348
 20
9.3327627817
 10
12.2517016835
 20
9.3266761152
 10
12.2625927617
 20
9.3209961678
 10
12.2737839103
 20
9.3157448168
 10
12.2852381871
 20
9.310941193
 10
12.2894135608
 20
9.30932667
  0
LWPOLYLINE
  5
267
100
AcDbEntity
  8
0
100
AcDbPolyline
 62
6
  6
CONTINUOUS
 90
7
 70
0
 10
12.5249764481
 20
9.7539825329
 10
12.5214755017
 20
9.7627096902
 10
12.5165133744
 20
9.7738384203
 10
12.5110408964
 20
9.7848352094
 10
12.5050737337
 20
9.7956616337
 10
12.4986305283
 20
9.806280502
 10
12.4962015729
 20
9.8100409015
  0
LWPOLYLINE
  5
268
100
AcDbEntity
  8
0
100
AcDbPolyline
 62
6
  6
CONTINUOUS
 90
10
 70
0
 10
12.8815690712
 20
9.7591255846
 10
12.8794844028
 20
9.7661592388
 10
12.8739491843
 20
9.7833726809
 10
12.8678483598
 20
9.8004139882
 10
12.8611776715
 20
9.8172964679
 10
12.8539289781
 20
9.8340320468
 10
12.8461039804
 20
9.8506028128
 10
12.8377228912
 20
9.8669553445
 10
12.8288077874
 20
9.8830424782
 10
12.8237812007
 20
9.891601973
  0
LWPOLYLINE
  5
269
100
AcDbEntity
  8
0
100
AcDbPolyline
 62
6
  6
CONTINUOUS
 90
9
 70
0
 10
12.7669318446
 20
9.774082961
 10
12.7657168566
 20
9.7797724217
 10
12.76207363
 20
9.7950194912
 10
12.7578749354
 20
9.8102198853
 10
12.7531160014
 20
9.8253765434
 10
12.7477951497
 20
9.8404746939
 10
12.7419181823
 20
9.8554791338
 10
12.7354938866
 20
9.8703530664
 10
12.7302255084
 20
9.8816026264
  0
LINE
  5
26A
100
AcDbEntity
  8
0
100
AcDbLine
 62
9
  6
CONTINUOUS
 10
13.445323173
 20
9.2780374238
 11
13.445323173
 21
9.9085196459
  0
LWPOLYLINE
  5
26B
100
AcDbEntity
  8
0
100
AcDbPolyline
 62
6
  6
CONTINUOUS
 90
4
 70
0
 10
12.4065240931
 20
9.3838458912
 10
12.4127853612
 20
9.3848779665
 10
12.4239470499
 20
9.3872440199
 10
12.4279765953
 20
9.3882288498
  0
LINE
  5
26C
100
AcDbEntity
  8
0
100
AcDbLine
 62
6
  6
CONTINUOUS
 10
14.1964616088
 20
9.2807785348
 11
14.1764616088
 21
9.2807785348
  0
LINE
  5
26D
100
AcDbEntity
  8
0
100
AcDbLine
 62
6
  6
CONTINUOUS
 10
13.7302007383
 20
9.2807785348
 11
13.6990425436
 21
9.2807785348
  0
LINE
  5
26E
100
AcDbEntity
  8
0
100
AcDbLine
 62
6
  6
CONTINUOUS
 10
13.440630337
 20
9.2807785348
 11
12.8364616088
 21
9.2807785348
  0
LINE
  5
26F
100
AcDbEntity
  8
0
100
AcDbLine
 62
6
  6
CONTINUOUS
 10
13.1164616088
 20
9.3557785348
 11
13.1664616088
 21
9.3557785348
  0
LINE
  5
270
100
AcDbEntity
  8
0
100
AcDbLine
 62
6
  6
CONTINUOUS
 10
12.865508627
 20
9.3982785348
 11
12.9764616088
 21
9.3982785348
  0
LWPOLYLINE
  5
271
100
AcDbEntity
  8
0
100
AcDbPolyline
 62
6
  6
CONTINUOUS
 90
8
 70
0
 10
12.7938584085
 20
9.9100156797
 10
12.7888565043
 20
9.9185260685
 10
12.7793677655
 20
9.9337720465
 10
12.7693954082
 20
9.9486851116
 10
12.7589522339
 20
9.963248393
 10
12.7480462381
 20
9.9774512849
 10
12.7366839259
 20
9.9912836136
 10
12.7286312608
 20
10.0005496169
  0
LWPOLYLINE
  5
272
100
AcDbEntity
  8
0
100
AcDbPolyline
 62
6
  6
CONTINUOUS
 90
9
 70
0
 10
12.60281971
 20
9.8670758348
 10
12.5967704301
 20
9.8785618998
 10
12.5900469723
 20
9.8902572902
 10
12.5828050007
 20
9.9018334318
 10
12.5750533756
 20
9.9132585116
 10
12.5668030972
 20
9.924501208
 10
12.5580684017
 20
9.9355293687
 10
12.5488663121
 20
9.9463110579
 10
12.5385344358
 20
9.9575290096
  0
LWPOLYLINE
  5
273
100
AcDbEntity
  8
0
100
AcDbPolyline
 62
6
  6
CONTINUOUS
 90
9
 70
0
 10
12.7302255084
 20
9.8816026264
 10
12.7285340196
 20
9.8850589913
 10
12.7210517772
 20
9.8995621307
 10
12.713060228
 20
9.9138324704
 10
12.7045766221
 20
9.9278365605
 10
12.6956281884
 20
9.9415305589
 10
12.6862352545
 20
9.9548875501
 10
12.6763814865
 20
9.9679307527
 10
12.6697642522
 20
9.9761956349
  0
LWPOLYLINE
  5
274
100
AcDbEntity
  8
0
100
AcDbPolyline
 62
6
  6
CONTINUOUS
 90
8
 70
0
 10
12.8400176194
 20
9.8059323661
 10
12.8345468117
 20
9.8220535633
 10
12.8283440716
 20
9.8385452053
 10
12.8215624557
 20
9.8549172152
 10
12.8142094871
 20
9.8711381747
 10
12.8062969151
 20
9.8871717796
 10
12.7978398591
 20
9.9029803384
 10
12.7938584085
 20
9.9100156798
  0
LINE
  5
275
100
AcDbEntity
  8
0
100
AcDbLine
 62
6
  6
CONTINUOUS
 10
13.7163224772
 20
9.2927785348
 11
13.7163224772
 21
9.8937785348
  0
LINE
  5
276
100
AcDbEntity
  8
0
100
AcDbLine
 62
6
  6
CONTINUOUS
 10
13.7764616088
 20
9.2407785348
 11
13.7764616088
 21
9.9457785348
  0
LWPOLYLINE
  5
277
100
AcDbEntity
  8
0
100
AcDbPolyline
 62
6
  6
CONTINUOUS
 90
7
 70
0
 10
12.2246027382
 20
9.8460034805
 10
12.2152208664
 20
9.8453707226
 10
12.2031034335
 20
9.8440904258
 10
12.1909537768
 20
9.8422839846
 10
12.1788132808
 20
9.8399544248
 10
12.1667230769
 20
9.837107983
 10
12.1623961359
 20
9.8359599365
  0
LINE
  5
278
100
AcDbEntity
  8
0
100
AcDbLine
 62
6
  6
CONTINUOUS
 10
15.4464616088
 20
9.5932785348
 11
15.1965189919
 21
9.5932785348
  0
LINE
  5
279
100
AcDbEntity
  8
0
100
AcDbLine
 62
6
  6
CONTINUOUS
 10
12.8721928781
 20
9.7882785348
 11
12.9764616088
 21
9.7882785348
  0
LINE
  5
27A
100
AcDbEntity
  8
0
100
AcDbLine
 62
6
  6
CONTINUOUS
 10
13.1164616088
 20
9.8307785348
 11
13.1664616088
 21
9.8307785348
  0
LINE
  5
27B
100
AcDbEntity
  8
0
100
AcDbLine
 62
6
  6
CONTINUOUS
 10
11.858504244
 20
9.9733252567
 11
10.4024454631
 21
10.5032873123
  0
LWPOLYLINE
  5
27C
100
AcDbEntity
  8
0
100
AcDbPolyline
 62
6
  6
CONTINUOUS
 90
4
 70
0
 10
12.3577517663
 20
9.8185413207
 10
12.3519837518
 20
9.8214347436
 10
12.3415630248
 20
9.8260812422
 10
12.3377241855
 20
9.8276530054
  0
LWPOLYLINE
  5
27D
100
AcDbEntity
  8
0
100
AcDbPolyline
 62
6
  6
CONTINUOUS
 90
8
 70
0
 10
12.5385344357
 20
9.9575290097
 10
12.5291366224
 20
9.967015273
 10
12.5186535276
 20
9.9768799438
 10
12.5077933158
 20
9.9863818389
 10
12.4965761841
 20
9.9955018035
 10
12.4850139803
 20
10.0042283529
 10
12.4731067988
 20
10.0125575732
 10
12.4641139282
 20
10.0184359407
  0
LWPOLYLINE
  5
27E
100
AcDbEntity
  8
0
100
AcDbPolyline
 62
6
  6
CONTINUOUS
 90
9
 70
0
 10
12.7286312608
 20
10.0005496169
 10
12.7248651547
 20
10.0047410565
 10
12.7125912161
 20
10.0178175449
 10
12.6998653993
 20
10.0305109957
 10
12.6866885689
 20
10.0428203187
 10
12.6730736612
 20
10.0547310523
 10
12.6590400819
 20
10.0662234924
 10
12.6446080226
 20
10.0772785336
 10
12.634397468
 20
10.0846637108
  0
LWPOLYLINE
  5
27F
100
AcDbEntity
  8
0
100
AcDbPolyline
 62
6
  6
CONTINUOUS
 90
10
 70
0
 10
12.7534995191
 20
9.9883364089
 10
12.7469122565
 20
9.9957620063
 10
12.7343674018
 20
10.0092119715
 10
12.7214051189
 20
10.0222360713
 10
12.7080634412
 20
10.0347987346
 10
12.6943869293
 20
10.04686423
 10
12.680392093
 20
10.0584254047
 10
12.6660701051
 20
10.0694936871
 10
12.6514096254
 20
10.0800772389
 10
12.6453644207
 20
10.0842333951
  0
LWPOLYLINE
  5
280
100
AcDbEntity
  8
0
100
AcDbPolyline
 62
6
  6
CONTINUOUS
 90
5
 70
0
 10
12.7903333825
 20
9.9411992439
 10
12.7817816964
 20
9.9531528557
 10
12.7706407887
 20
9.967704842
 10
12.7590112835
 20
9.9819166595
 10
12.7534995191
 20
9.9883364089
  0
LWPOLYLINE
  5
281
100
AcDbEntity
  8
0
100
AcDbPolyline
 62
6
  6
CONTINUOUS
 90
10
 70
0
 10
12.8237812007
 20
9.891601973
 10
12.8193788851
 20
9.8988277841
 10
12.8094563581
 20
9.9142797939
 10
12.7990593266
 20
9.9293722379
 10
12.7882078843
 20
9.9440801104
 10
12.776923214
 20
9.958379468
 10
12.765227236
 20
9.972247865
 10
12.7531419453
 20
9.9856649963
 10
12.7406690337
 20
9.9986329509
 10
12.735736862
 20
10.0035325381
  0
LINE
  5
282
100
AcDbEntity
  8
0
100
AcDbLine
 62
7
  6
CONTINUOUS
 10
14.1764616088
 20
9.2407785348
 11
14.1764616088
 21
9.9457785348
  0
LINE
  5
283
100
AcDbEntity
  8
0
100
AcDbLine
 62
9
  6
CONTINUOUS
 10
14.1964616088
 20
9.1944296499
 11
14.1964616088
 21
9.9921274198
  0
LINE
  5
284
100
AcDbEntity
  8
0
100
AcDbLine
 62
9
  6
CONTINUOUS
 10
14.2248623659
 20
9.1635388073
 11
14.2248623659
 21
10.0230182624
  0
LWPOLYLINE
  5
285
100
AcDbEntity
  8
0
100
AcDbPolyline
 62
6
  6
CONTINUOUS
 90
10
 70
0
 10
12.1860546194
 20
10.1727104333
 10
12.1778220744
 20
10.1707564808
 10
12.1600601102
 20
10.1660945305
 10
12.1424934836
 20
10.1608701876
 10
12.1251521856
 20
10.1550948353
 10
12.1080655335
 20
10.1487812205
 10
12.0912616481
 20
10.1419432548
 10
12.0747666378
 20
10.1345955819
 10
12.0585790384
 20
10.1267404564
 10
12.0523951293
 20
10.1235637381
  0
LWPOLYLINE
  5
286
100
AcDbEntity
  8
0
100
AcDbPolyline
 62
6
  6
CONTINUOUS
 90
8
 70
0
 10
12.1592954923
 20
10.1499423152
 10
12.1496559583
 20
10.1478150763
 10
12.1322239899
 20
10.1435020157
 10
12.1149591944
 20
10.1386261309
 10
12.0978815723
 20
10.1331943833
 10
12.0810036814
 20
10.1272111
 10
12.0643372075
 20
10.1206793235
 10
12.0530363043
 20
10.1158841364
  0
LWPOLYLINE
  5
287
100
AcDbEntity
  8
0
100
AcDbPolyline
 62
6
  6
CONTINUOUS
 90
9
 70
0
 10
12.1410995073
 20
9.9549845743
 10
12.12830628
 20
9.9527807565
 10
12.11510564
 20
9.9500004425
 10
12.1018581829
 20
9.9466901427
 10
12.0885969023
 20
9.9428484529
 10
12.0753549864
 20
9.9384761561
 10
12.062167413
 20
9.9335768561
 10
12.0490698151
 20
9.9281568741
 10
12.0352081837
 20
9.9217972135
  0
LWPOLYLINE
  5
288
100
AcDbEntity
  8
0
100
AcDbPolyline
 62
6
  6
CONTINUOUS
 90
9
 70
0
 10
12.1666542643
 20
10.0806437145
 10
12.1628443671
 20
10.0801030885
 10
12.1467389219
 20
10.0774687697
 10
12.1306974978
 20
10.0742781322
 10
12.1147572382
 20
10.0705372454
 10
12.0989682537
 20
10.0662584574
 10
12.083362424
 20
10.0614527837
 10
12.0679126194
 20
10.0561118647
 10
12.0580074115
 20
10.05237249
  0
LWPOLYLINE
  5
289
100
AcDbEntity
  8
0
100
AcDbPolyline
 62
6
  6
CONTINUOUS
 90
8
 70
0
 10
12.2725485866
 20
10.1616788207
 10
12.2555258444
 20
10.1614574973
 10
12.2379246087
 20
10.1606545385
 10
12.2202582674
 20
10.1592640678
 10
12.202559026
 20
10.1572835313
 10
12.1848650423
 20
10.1547128845
 10
12.1672168355
 20
10.1515548596
 10
12.1592954923
 20
10.1499423152
  0
LINE
  5
28A
100
AcDbEntity
  8
0
100
AcDbLine
 62
6
  6
CONTINUOUS
 10
14.1964616088
 20
9.9057785348
 11
14.1764616088
 21
9.9057785348
  0
LINE
  5
28B
100
AcDbEntity
  8
0
100
AcDbLine
 62
6
  6
CONTINUOUS
 10
13.7302007383
 20
9.9057785348
 11
13.6990425436
 21
9.9057785348
  0
LINE
  5
28C
100
AcDbEntity
  8
0
100
AcDbLine
 62
6
  6
CONTINUOUS
 10
13.440630337
 20
9.9057785348
 11
12.814915452
 21
9.9057785348
  0
LINE
  5
28D
100
AcDbEntity
  8
0
100
AcDbLine
 62
6
  6
CONTINUOUS
 10
13.7764616088
 20
9.9457785348
 11
14.1764616088
 21
9.9457785348
  0
LWPOLYLINE
  5
28E
100
AcDbEntity
  8
0
100
AcDbPolyline
 62
6
  6
CONTINUOUS
 90
10
 70
0
 10
12.329904586
 20
10.1867325088
 10
12.3225709852
 20
10.1869233899
 10
12.3044895524
 20
10.1869783305
 10
12.2863970477
 20
10.1864421552
 10
12.2682794992
 20
10.1853149267
 10
12.2501230485
 20
10.1835925879
 10
12.2319452562
 20
10.1812712212
 10
12.2138031753
 20
10.1783535418
 10
12.1957484834
 20
10.174845972
 10
12.1860546194
 20
10.1727104333
  0
LWPOLYLINE
  5
28F
100
AcDbEntity
  8
0
100
AcDbPolyline
 62
6
  6
CONTINUOUS
 90
9
 70
0
 10
12.2802544244
 20
10.0823281109
 10
12.2744679738
 20
10.0829307287
 10
12.25884133
 20
10.0841774179
 10
12.2430874282
 20
10.0848814021
 10
12.2272019983
 20
10.0850390519
 10
12.2111985703
 20
10.0846442063
 10
12.1951124171
 20
10.083691505
 10
12.17898125
 20
10.0821779347
 10
12.1666542643
 20
10.0806437145
  0
LWPOLYLINE
  5
290
100
AcDbEntity
  8
0
100
AcDbPolyline
 62
6
  6
CONTINUOUS
 90
9
 70
0
 10
12.4043136579
 20
10.1445764149
 10
12.3946760384
 20
10.1469866386
 10
12.3774974477
 20
10.1508133007
 10
12.360195049
 20
10.1540713212
 10
12.342807856
 20
10.1567536434
 10
12.3253816417
 20
10.158855117
 10
12.3079525202
 20
10.1603747826
 10
12.2905139642
 20
10.1613155281
 10
12.2725485863
 20
10.1616788207
  0
LWPOLYLINE
  5
291
100
AcDbEntity
  8
0
100
AcDbPolyline
 62
6
  6
CONTINUOUS
 90
8
 70
0
 10
12.3742390182
 20
10.061372798
 10
12.3653010856
 20
10.064316406
 10
12.3505480821
 20
10.0687165912
 10
12.3356271881
 20
10.0726037922
 10
12.3205511081
 20
10.0759737822
 10
12.3053280092
 20
10.0788222418
 10
12.2899656389
 20
10.0811434746
 10
12.2802544246
 20
10.0823281109
  0
LWPOLYLINE
  5
292
100
AcDbEntity
  8
0
100
AcDbPolyline
 62
6
  6
CONTINUOUS
 90
10
 70
0
 10
12.5335231049
 20
10.0917352155
 10
12.5235480089
 20
10.0973605848
 10
12.5084837938
 20
10.1053030466
 10
12.4931037585
 20
10.1127616583
 10
12.4774105226
 20
10.119734103
 10
12.4614053523
 20
10.1262163082
 10
12.4450958959
 20
10.1321995826
 10
12.4285131419
 20
10.1376666054
 10
12.4116939214
 20
10.1426004527
 10
12.4043136579
 20
10.144576415
  0
LWPOLYLINE
  5
293
100
AcDbEntity
  8
0
100
AcDbPolyline
 62
6
  6
CONTINUOUS
 90
9
 70
0
 10
12.4641139276
 20
10.018435941
 10
12.4608402278
 20
10.0204920546
 10
12.448210998
 20
10.0280273413
 10
12.4352153137
 20
10.0351615522
 10
12.4218641158
 20
10.0418826406
 10
12.4081708872
 20
10.0481768363
 10
12.3941543513
 20
10.0540280758
 10
12.3798506854
 20
10.0594146393
 10
12.3742390181
 20
10.061372798
  0
LWPOLYLINE
  5
294
100
AcDbEntity
  8
0
100
AcDbPolyline
 62
6
  6
CONTINUOUS
 90
9
 70
0
 10
12.634397468
 20
10.0846637108
 10
12.6297990665
 20
10.0878772553
 10
12.6146415755
 20
10.0979976147
 10
12.5991682128
 20
10.107617309
 10
12.5834129289
 20
10.1167161576
 10
12.5674091731
 20
10.125277056
 10
12.5511773278
 20
10.1332916348
 10
12.534727585
 20
10.1407563055
 10
12.5219133265
 20
10.1461290769
  0
LINE
  5
295
100
AcDbEntity
  8
0
100
AcDbLine
 62
6
  6
CONTINUOUS
 10
13.7163224772
 20
9.2927785348
 11
13.7764616088
 21
9.2407785348
  0
LWPOLYLINE
  5
296
100
AcDbEntity
  8
0
100
AcDbPolyline
 62
6
  6
CONTINUOUS
 90
7
 70
0
 10
12.735736862
 20
10.0035325381
 10
12.7277803087
 20
10.0111815405
 10
12.714460605
 20
10.0233269584
 10
12.7007224588
 20
10.0350569672
 10
12.6865819004
 20
10.0463563176
 10
12.6720554061
 20
10.0572098073
 10
12.658058054
 20
10.0669757315
  0
LINE
  5
297
100
AcDbEntity
  8
0
100
AcDbLine
 62
9
  6
CONTINUOUS
 10
14.53084517
 20
9.0527785348
 11
14.53084517
 21
10.1337785348
  0
LINE
  5
298
100
AcDbEntity
  8
0
100
AcDbLine
 62
6
  6
CONTINUOUS
 10
15.8634616088
 20
8.4132785348
 11
15.8644663414
 21
8.4142832674
  0
LINE
  5
299
100
AcDbEntity
  8
0
100
AcDbLine
 62
6
  6
CONTINUOUS
 10
15.0952539908
 20
10.2497785348
 11
15.4464616088
 21
10.2497785348
  0
LINE
  5
29A
100
AcDbEntity
  8
0
100
AcDbLine
 62
6
  6
CONTINUOUS
 10
15.4464616088
 20
10.3342785348
 11
15.5084616088
 21
10.3342785348
  0
LINE
  5
29B
100
AcDbEntity
  8
0
100
AcDbLine
 62
6
  6
CONTINUOUS
 10
15.3634616088
 20
10.4752785348
 11
15.3774616088
 21
10.4752785348
  0
LINE
  5
29C
100
AcDbEntity
  8
0
100
AcDbLine
 62
6
  6
CONTINUOUS
 10
14.53084517
 20
9.0527785348
 11
14.6367627973
 21
8.9786445406
  0
LINE
  5
29D
100
AcDbEntity
  8
0
100
AcDbLine
 62
9
  6
CONTINUOUS
 10
14.6367627973
 20
8.9786445406
 11
14.6367627973
 21
10.207912529
  0
LINE
  5
29E
100
AcDbEntity
  8
0
100
AcDbLine
 62
9
  6
CONTINUOUS
 10
14.8649616088
 20
8.9747785348
 11
14.8649616088
 21
10.2117785348
  0
LINE
  5
29F
100
AcDbEntity
  8
0
100
AcDbLine
 62
6
  6
CONTINUOUS
 10
15.6914616088
 20
10.7732785348
 11
15.8634616088
 21
10.7732785348
  0
LINE
  5
2A0
100
AcDbEntity
  8
0
100
AcDbLine
 62
6
  6
CONTINUOUS
 10
15.0799616088
 20
8.9521150952
 11
15.0952566258
 21
8.936775892
  0
LINE
  5
2A1
100
AcDbEntity
  8
0
100
AcDbLine
 62
9
  6
CONTINUOUS
 10
15.0799616088
 20
8.9521150952
 11
15.0799616088
 21
10.2344419745
  0
LINE
  5
2A2
100
AcDbEntity
  8
0
100
AcDbLine
 62
6
  6
CONTINUOUS
 10
15.3634616088
 20
8.9367785348
 11
15.3634616088
 21
8.7112823195
  0
LINE
  5
2A3
100
AcDbEntity
  8
0
100
AcDbLine
 62
6
  6
CONTINUOUS
 10
15.3634616088
 20
10.2497785348
 11
15.3634616088
 21
10.4752747501
  0
LINE
  5
2A4
100
AcDbEntity
  8
0
100
AcDbLine
 62
6
  6
CONTINUOUS
 10
15.3774616088
 20
8.9367785348
 11
15.3774616088
 21
8.7112785348
  0
LINE
  5
2A5
100
AcDbEntity
  8
0
100
AcDbLine
 62
6
  6
CONTINUOUS
 10
15.3774616088
 20
10.2497785348
 11
15.3774616088
 21
10.4752785348
  0
LINE
  5
2A6
100
AcDbEntity
  8
0
100
AcDbLine
 62
6
  6
CONTINUOUS
 10
15.4464616088
 20
8.8522817145
 11
15.4464616088
 21
10.3342753551
  0
LINE
  5
2A7
100
AcDbEntity
  8
0
100
AcDbLine
 62
9
  6
CONTINUOUS
 10
15.5084616088
 20
8.7802784827
 11
15.5084616088
 21
10.4062785869
  0
LINE
  5
2A8
100
AcDbEntity
  8
0
100
AcDbLine
 62
9
  6
CONTINUOUS
 10
15.6614616088
 20
8.5964277318
 11
15.6614616088
 21
8.4432785348
  0
LINE
  5
2A9
100
AcDbEntity
  8
0
100
AcDbLine
 62
9
  6
CONTINUOUS
 10
15.6614616088
 20
10.5901293379
 11
15.6614616088
 21
10.7432785348
  0
LINE
  5
2AA
100
AcDbEntity
  8
0
100
AcDbLine
 62
9
  6
CONTINUOUS
 10
15.6914616088
 20
8.5933528371
 11
15.6914616088
 21
8.4132785348
  0
LINE
  5
2AB
100
AcDbEntity
  8
0
100
AcDbLine
 62
9
  6
CONTINUOUS
 10
15.6914616088
 20
10.5932042326
 11
15.6914616088
 21
10.7732785348
  0
LINE
  5
2AC
100
AcDbEntity
  8
0
100
AcDbLine
 62
6
  6
CONTINUOUS
 10
15.6964616088
 20
8.5932785348
 11
15.6964616088
 21
10.5932785348
  0
LINE
  5
2AD
100
AcDbEntity
  8
0
100
AcDbLine
 62
6
  6
CONTINUOUS
 10
15.8634616088
 20
8.4143849219
 11
15.8634616088
 21
8.4132785348
  0
LINE
  5
2AE
100
AcDbEntity
  8
0
100
AcDbLine
 62
6
  6
CONTINUOUS
 10
15.8634616088
 20
10.7721721478
 11
15.8634616088
 21
10.7732785348
  0
LINE
  5
2AF
100
AcDbEntity
  8
0
100
AcDbLine
 62
6
  6
CONTINUOUS
 10
15.8834616088
 20
8.4132785348
 11
15.8834616088
 21
10.7732785348
  0
LINE
  5
2B0
100
AcDbEntity
  8
0
100
AcDbLine
 62
6
  6
CONTINUOUS
 10
15.8634616088
 20
10.7732785348
 11
15.8644663414
 21
10.7722738022
  0
ARC
  5
2B1
100
AcDbEntity
  8
0
100
AcDbCircle
 62
6
  6
CONTINUOUS
 10
8.9508499378
 20
8.3592718701
 40
0.031
100
AcDbArc
 50
265.0
 51
349.3713068797
  0
ARC
  5
2B2
100
AcDbEntity
  8
0
100
AcDbCircle
 62
6
  6
CONTINUOUS
 10
8.318964698
 20
8.4145546652
 40
0.031
100
AcDbArc
 50
180.6286931203
 51
265.0
  0
ARC
  5
2B3
100
AcDbEntity
  8
0
100
AcDbCircle
 62
6
  6
CONTINUOUS
 10
8.3014972969
 20
9.1769783017
 40
0.063
100
AcDbArc
 50
85.0
 51
250.2875420391
  0
ARC
  5
2B4
100
AcDbEntity
  8
0
100
AcDbCircle
 62
6
  6
CONTINUOUS
 10
9.8892442381
 20
9.0932785348
 40
1.5005
100
AcDbArc
 50
70.0
 51
174.6944947298
  0
ARC
  5
2B5
100
AcDbEntity
  8
0
100
AcDbCircle
 62
6
  6
CONTINUOUS
 10
9.8892442381
 20
9.0932785348
 40
0.8755
100
AcDbArc
 50
70.0
 51
174.4735100419
  0
ARC
  5
2B6
100
AcDbEntity
  8
0
100
AcDbCircle
 62
6
  6
CONTINUOUS
 10
9.1004454448
 20
9.107079396
 40
0.063
100
AcDbArc
 50
279.7124579609
 51
85.0
  0
ARC
  5
2B7
100
AcDbEntity
  8
0
100
AcDbCircle
 62
6
  6
CONTINUOUS
 10
14.1724582803
 20
8.5407396327
 40
0.625
100
AcDbArc
 50
55.0110095298
 51
85.1903004751
  0
ARC
  5
2B8
100
AcDbEntity
  8
0
100
AcDbCircle
 62
6
  6
CONTINUOUS
 10
12.3128268191
 20
9.5663209831
 40
0.5668325101
100
AcDbArc
 50
253.6555987789
 51
257.0764827101
  0
ARC
  5
2B9
100
AcDbEntity
  8
0
100
AcDbCircle
 62
6
  6
CONTINUOUS
 10
12.3127290588
 20
9.5656448779
 40
0.5661516696
100
AcDbArc
 50
257.0708227684
 51
264.7853448523
  0
ARC
  5
2BA
100
AcDbEntity
  8
0
100
AcDbCircle
 62
6
  6
CONTINUOUS
 10
12.3123055465
 20
9.5645421967
 40
0.5649789173
100
AcDbArc
 50
252.1386523809
 51
253.6555620317
  0
ARC
  5
2BB
100
AcDbEntity
  8
0
100
AcDbCircle
 62
6
  6
CONTINUOUS
 10
12.3111474638
 20
9.5630860002
 40
0.5635792866
100
AcDbArc
 50
283.6581324201
 51
284.865584647
  0
ARC
  5
2BC
100
AcDbEntity
  8
0
100
AcDbCircle
 62
6
  6
CONTINUOUS
 10
12.3118284439
 20
9.5630673647
 40
0.5634288357
100
AcDbArc
 50
251.0146672239
 51
252.1388307955
  0
ARC
  5
2BD
100
AcDbEntity
  8
0
100
AcDbCircle
 62
6
  6
CONTINUOUS
 10
12.3113213157
 20
9.5619205884
 40
0.5624049518
100
AcDbArc
 50
271.8935470715
 51
283.6689568611
  0
ARC
  5
2BE
100
AcDbEntity
  8
0
100
AcDbCircle
 62
6
  6
CONTINUOUS
 10
12.3118341186
 20
9.5605965468
 40
0.5609969921
100
AcDbArc
 50
284.8630315841
 51
288.9962779212
  0
ARC
  5
2BF
100
AcDbEntity
  8
0
100
AcDbCircle
 62
6
  6
CONTINUOUS
 10
12.2908147883
 20
9.5646363143
 40
0.5586400978
100
AcDbArc
 50
269.7790631938
 51
273.307033981
  0
ARC
  5
2C0
100
AcDbEntity
  8
0
100
AcDbCircle
 62
6
  6
CONTINUOUS
 10
12.3323217608
 20
9.5647913087
 40
0.5586400978
100
AcDbArc
 50
341.7790631938
 51
345.3070339811
  0
ARC
  5
2C1
100
AcDbEntity
  8
0
100
AcDbCircle
 62
6
  6
CONTINUOUS
 10
12.2908149234
 20
9.5642465635
 40
0.5582503504
100
AcDbArc
 50
269.2769492607
 51
269.7788950805
  0
ARC
  5
2C2
100
AcDbEntity
  8
0
100
AcDbCircle
 62
6
  6
CONTINUOUS
 10
12.332692478
 20
9.5646709974
 40
0.55825035
100
AcDbArc
 50
341.2769492605
 51
341.7788950807
  0
ARC
  5
2C3
100
AcDbEntity
  8
0
100
AcDbCircle
 62
6
  6
CONTINUOUS
 10
12.290674033
 20
9.560433291
 40
0.5544356113
100
AcDbArc
 50
261.5662127693
 51
269.2865349824
  0
ARC
  5
2C4
100
AcDbEntity
  8
0
100
AcDbCircle
 62
6
  6
CONTINUOUS
 10
12.3362755778
 20
9.5633586368
 40
0.5544356113
100
AcDbArc
 50
333.5662127693
 51
341.2865349823
  0
ARC
  5
2C5
100
AcDbEntity
  8
0
100
AcDbCircle
 62
6
  6
CONTINUOUS
 10
12.3118405357
 20
9.5529513418
 40
0.5534216708
100
AcDbArc
 50
269.9605591637
 51
271.8705044774
  0
ARC
  5
2C6
100
AcDbEntity
  8
0
100
AcDbCircle
 62
6
  6
CONTINUOUS
 10
12.2792822092
 20
9.5626063701
 40
0.5473393003
100
AcDbArc
 50
173.9200462576
 51
185.6210461663
  0
ARC
  5
2C7
100
AcDbEntity
  8
0
100
AcDbCircle
 62
6
  6
CONTINUOUS
 10
12.3306885961
 20
9.5531958853
 40
0.5473393003
100
AcDbArc
 50
245.9200455665
 51
257.6210454638
  0
ARC
  5
2C8
100
AcDbEntity
  8
0
100
AcDbCircle
 62
6
  6
CONTINUOUS
 10
12.2724975633
 20
9.5637350294
 40
0.5404741102
100
AcDbArc
 50
161.8701296178
 51
173.9628433243
  0
ARC
  5
2C9
100
AcDbEntity
  8
0
100
AcDbCircle
 62
6
  6
CONTINUOUS
 10
12.3275185999
 20
9.5470920801
 40
0.5404741102
100
AcDbArc
 50
233.8701296178
 51
245.9628433243
  0
ARC
  5
2CA
100
AcDbEntity
  8
0
100
AcDbCircle
 62
6
  6
CONTINUOUS
 10
13.1664616088
 20
8.8167622333
 40
0.5390163015
100
AcDbArc
 50
58.8451540803
 51
90.0
  0
ARC
  5
2CB
100
AcDbEntity
  8
0
100
AcDbCircle
 62
6
  6
CONTINUOUS
 10
12.2748087615
 20
9.5217953169
 40
0.4790945237
100
AcDbArc
 50
169.8574508426
 51
183.3143280428
  0
ARC
  5
2CC
100
AcDbEntity
  8
0
100
AcDbCircle
 62
6
  6
CONTINUOUS
 10
12.3681198405
 20
9.5363300748
 40
0.4790945237
100
AcDbArc
 50
241.8574503191
 51
255.3143275171
  0
ARC
  5
2CD
100
AcDbEntity
  8
0
100
AcDbCircle
 62
6
  6
CONTINUOUS
 10
15.3651549872
 20
9.23427551
 40
0.474
100
AcDbArc
 50
209.291575605
 51
269.7953087711
  0
ARC
  5
2CE
100
AcDbEntity
  8
0
100
AcDbCircle
 62
6
  6
CONTINUOUS
 10
12.2393980692
 20
9.5327899461
 40
0.441883681
100
AcDbArc
 50
143.1766170653
 51
155.6869769612
  0
ARC
  5
2CF
100
AcDbEntity
  8
0
100
AcDbCircle
 62
6
  6
CONTINUOUS
 10
12.3467208169
 20
9.506050034
 40
0.441883681
100
AcDbArc
 50
215.1766170649
 51
227.6869769608
  0
ARC
  5
2D0
100
AcDbEntity
  8
0
100
AcDbCircle
 62
6
  6
CONTINUOUS
 10
15.3787440682
 20
8.4262814203
 40
0.285
100
AcDbArc
 50
7.256162538
 51
90.2578237223
  0
ARC
  5
2D1
100
AcDbEntity
  8
0
100
AcDbCircle
 62
6
  6
CONTINUOUS
 10
12.365659771
 20
9.5533978324
 40
0.2519770861
100
AcDbArc
 50
207.680889761
 51
212.2061432521
  0
ARC
  5
2D2
100
AcDbEntity
  8
0
100
AcDbCircle
 62
6
  6
CONTINUOUS
 10
12.2902753888
 20
9.5294139956
 40
0.2519697391
100
AcDbArc
 50
135.6663200431
 51
140.2061694635
  0
ARC
  5
2D3
100
AcDbEntity
  8
0
100
AcDbCircle
 62
6
  6
CONTINUOUS
 10
13.5700051849
 20
9.4842785348
 40
0.241
100
AcDbArc
 50
238.8451540803
 51
307.3819608307
  0
ARC
  5
2D4
100
AcDbEntity
  8
0
100
AcDbCircle
 62
6
  6
CONTINUOUS
 10
14.753726012
 20
9.1457536559
 40
0.2039751211
100
AcDbArc
 50
235.0110095298
 51
303.0478355064
  0
ARC
  5
2D5
100
AcDbEntity
  8
0
100
AcDbCircle
 62
6
  6
CONTINUOUS
 10
15.8834616088
 20
8.6004146459
 40
0.1871361111
100
AcDbArc
 50
182.1854050713
 51
270.0
  0
ARC
  5
2D6
100
AcDbEntity
  8
0
100
AcDbCircle
 62
6
  6
CONTINUOUS
 10
15.6954616088
 20
8.780275861
 40
0.187
100
AcDbArc
 50
180.0
 51
270.3063960032
  0
ARC
  5
2D7
100
AcDbEntity
  8
0
100
AcDbCircle
 62
6
  6
CONTINUOUS
 10
14.9585006334
 20
8.8310040012
 40
0.1715245336
100
AcDbArc
 50
44.9173576842
 51
123.0478355064
  0
ARC
  5
2D8
100
AcDbEntity
  8
0
100
AcDbCircle
 62
6
  6
CONTINUOUS
 10
14.3614616088
 20
9.1877785348
 40
0.063
100
AcDbArc
 50
216.6747783989
 51
290.78474578
  0
ARC
  5
2D9
100
AcDbEntity
  8
0
100
AcDbCircle
 62
6
  6
CONTINUOUS
 10
13.0364616088
 20
9.3407785348
 40
0.06
100
AcDbArc
 50
180.0
 51
356.304779468
  0
ARC
  5
2DA
100
AcDbEntity
  8
0
100
AcDbCircle
 62
6
  6
CONTINUOUS
 10
14.2274616088
 20
9.1944296463
 40
0.031
100
AcDbArc
 50
179.999995562
 51
265.1903000361
  0
ARC
  5
2DB
100
AcDbEntity
  8
0
100
AcDbCircle
 62
6
  6
CONTINUOUS
 10
15.6914616088
 20
8.4432785348
 40
0.03
100
AcDbArc
 50
180.0
 51
270.0
  0
ARC
  5
2DC
100
AcDbEntity
  8
0
100
AcDbCircle
 62
6
  6
CONTINUOUS
 10
13.1164616088
 20
9.3356118682
 40
0.0201666667
100
AcDbArc
 50
90.0
 51
176.304779468
  0
ARC
  5
2DD
100
AcDbEntity
  8
0
100
AcDbCircle
 62
6
  6
CONTINUOUS
 10
12.3262023818
 20
9.6158901028
 40
0.5668325101
100
AcDbArc
 50
37.6555987789
 51
41.0764827101
  0
ARC
  5
2DE
100
AcDbEntity
  8
0
100
AcDbCircle
 62
6
  6
CONTINUOUS
 10
12.2945118791
 20
9.6142852018
 40
0.5668325101
100
AcDbArc
 50
109.6555987789
 51
113.0764827101
  0
ARC
  5
2DF
100
AcDbEntity
  8
0
100
AcDbCircle
 62
6
  6
CONTINUOUS
 10
12.2938880531
 20
9.6160306666
 40
0.5649789173
100
AcDbArc
 50
108.1386523809
 51
109.6555620316
  0
ARC
  5
2E0
100
AcDbEntity
  8
0
100
AcDbCircle
 62
6
  6
CONTINUOUS
 10
12.3276696446
 20
9.6170227749
 40
0.5649789173
100
AcDbArc
 50
36.1386523808
 51
37.6555620317
  0
ARC
  5
2E1
100
AcDbEntity
  8
0
100
AcDbCircle
 62
6
  6
CONTINUOUS
 10
12.2939910066
 20
9.6178709422
 40
0.5636080227
100
AcDbArc
 50
139.6581439157
 51
140.7567128541
  0
ARC
  5
2E2
100
AcDbEntity
  8
0
100
AcDbCircle
 62
6
  6
CONTINUOUS
 10
12.329462484
 20
9.6175201586
 40
0.5635792867
100
AcDbArc
 50
67.6581324201
 51
68.865584647
  0
ARC
  5
2E3
100
AcDbEntity
  8
0
100
AcDbCircle
 62
6
  6
CONTINUOUS
 10
12.2825789739
 20
9.5842701852
 40
0.5635289213
100
AcDbArc
 50
205.5748141202
 51
207.9328776228
  0
ARC
  5
2E4
100
AcDbEntity
  8
0
100
AcDbCircle
 62
6
  6
CONTINUOUS
 10
12.3289225132
 20
9.6179355051
 40
0.5634288357
100
AcDbArc
 50
35.014667224
 51
36.1388307955
  0
ARC
  5
2E5
100
AcDbEntity
  8
0
100
AcDbCircle
 62
6
  6
CONTINUOUS
 10
12.2934071527
 20
9.6175042645
 40
0.5634288357
100
AcDbArc
 50
107.014667224
 51
108.1388307954
  0
ARC
  5
2E6
100
AcDbEntity
  8
0
100
AcDbCircle
 62
6
  6
CONTINUOUS
 10
12.281831557
 20
9.58390965
 40
0.5626990953
100
AcDbArc
 50
205.2256807932
 51
205.5745535555
  0
ARC
  5
2E7
100
AcDbEntity
  8
0
100
AcDbCircle
 62
6
  6
CONTINUOUS
 10
12.3300068522
 20
9.6185651811
 40
0.5624049518
100
AcDbArc
 50
55.8935476986
 51
67.6689574852
  0
ARC
  5
2E8
100
AcDbEntity
  8
0
100
AcDbCircle
 62
6
  6
CONTINUOUS
 10
12.2931288468
 20
9.6187461067
 40
0.5623833871
100
AcDbArc
 50
127.8933805004
 51
139.5934315475
  0
ARC
  5
2E9
100
AcDbEntity
  8
0
100
AcDbCircle
 62
6
  6
CONTINUOUS
 10
12.3303702327
 20
9.6199377742
 40
0.5609969921
100
AcDbArc
 50
68.8630315841
 51
72.9962779212
  0
ARC
  5
2EA
100
AcDbEntity
  8
0
100
AcDbCircle
 62
6
  6
CONTINUOUS
 10
12.2779008806
 20
9.6040852808
 40
0.5587036591
100
AcDbArc
 50
199.1227596568
 51
199.7139667769
  0
ARC
  5
2EB
100
AcDbEntity
  8
0
100
AcDbCircle
 62
6
  6
CONTINUOUS
 10
12.3450007123
 20
9.6043146814
 40
0.5586400978
100
AcDbArc
 50
53.7790631938
 51
57.307033981
  0
ARC
  5
2EC
100
AcDbEntity
  8
0
100
AcDbCircle
 62
6
  6
CONTINUOUS
 10
12.3113233315
 20
9.6285941951
 40
0.5586300515
100
AcDbArc
 50
125.2773863975
 51
129.2274800516
  0
ARC
  5
2ED
100
AcDbEntity
  8
0
100
AcDbCircle
 62
6
  6
CONTINUOUS
 10
12.345229693
 20
9.6046300761
 40
0.55825035
100
AcDbArc
 50
53.2769492605
 51
53.7788950807
  0
ARC
  5
2EE
100
AcDbEntity
  8
0
100
AcDbCircle
 62
6
  6
CONTINUOUS
 10
12.2747371294
 20
9.603107352
 40
0.5553941358
100
AcDbArc
 50
189.5713496896
 51
199.1343610809
  0
ARC
  5
2EF
100
AcDbEntity
  8
0
100
AcDbCircle
 62
6
  6
CONTINUOUS
 10
12.3475850609
 20
9.6076322648
 40
0.5544356113
100
AcDbArc
 50
45.5662127693
 51
53.2865349824
  0
ARC
  5
2F0
100
AcDbEntity
  8
0
100
AcDbCircle
 62
6
  6
CONTINUOUS
 10
12.308973161
 20
9.6320695258
 40
0.5544356113
100
AcDbArc
 50
117.5662127693
 51
125.2865349824
  0
ARC
  5
2F1
100
AcDbEntity
  8
0
100
AcDbCircle
 62
6
  6
CONTINUOUS
 10
12.2723466649
 20
9.6144047417
 40
0.5473393003
100
AcDbArc
 50
101.9200461989
 51
113.6210460967
  0
ARC
  5
2F2
100
AcDbEntity
  8
0
100
AcDbCircle
 62
6
  6
CONTINUOUS
 10
12.3555239361
 20
9.599178261
 40
0.5473393003
100
AcDbArc
 50
317.9200462405
 51
329.6210461464
  0
ARC
  5
2F3
100
AcDbEntity
  8
0
100
AcDbCircle
 62
6
  6
CONTINUOUS
 10
12.3194666437
 20
9.637007414
 40
0.5473393003
100
AcDbArc
 50
29.92004624
 51
41.6210461459
  0
ARC
  5
2F4
100
AcDbEntity
  8
0
100
AcDbCircle
 62
6
  6
CONTINUOUS
 10
12.2713235132
 20
9.621206099
 40
0.5404741102
100
AcDbArc
 50
89.8701296178
 51
101.9628433243
  0
ARC
  5
2F5
100
AcDbEntity
  8
0
100
AcDbCircle
 62
6
  6
CONTINUOUS
 10
12.3603494206
 20
9.5942772415
 40
0.5404741102
100
AcDbArc
 50
305.8701296178
 51
317.9628433243
  0
ARC
  5
2F6
100
AcDbEntity
  8
0
100
AcDbCircle
 62
6
  6
CONTINUOUS
 10
12.325618947
 20
9.6400822241
 40
0.5404741102
100
AcDbArc
 50
17.8701296178
 51
29.9628433242
  0
ARC
  5
2F7
100
AcDbEntity
  8
0
100
AcDbCircle
 62
6
  6
CONTINUOUS
 10
12.2990975892
 20
9.6726536991
 40
0.4790945237
100
AcDbArc
 50
25.8574475996
 51
39.3143247999
  0
ARC
  5
2F8
100
AcDbEntity
  8
0
100
AcDbCircle
 62
6
  6
CONTINUOUS
 10
12.2321506629
 20
9.6060479316
 40
0.4790945237
100
AcDbArc
 50
97.8574492528
 51
111.3143264535
  0
ARC
  5
2F9
100
AcDbEntity
  8
0
100
AcDbCircle
 62
6
  6
CONTINUOUS
 10
12.3831311838
 20
9.629565691
 40
0.4790945237
100
AcDbArc
 50
313.8574475994
 51
327.3143247997
  0
ARC
  5
2FA
100
AcDbEntity
  8
0
100
AcDbCircle
 62
6
  6
CONTINUOUS
 10
12.3342079389
 20
9.6845726892
 40
0.441883681
100
AcDbArc
 50
359.1766206528
 51
11.686980536
  0
ARC
  5
2FB
100
AcDbEntity
  8
0
100
AcDbCircle
 62
6
  6
CONTINUOUS
 10
12.2316647015
 20
9.6431230279
 40
0.441883681
100
AcDbArc
 50
71.176619394
 51
83.6869792869
  0
ARC
  5
2FC
100
AcDbEntity
  8
0
100
AcDbCircle
 62
6
  6
CONTINUOUS
 10
12.4053165209
 20
9.5998569382
 40
0.441883681
100
AcDbArc
 50
287.1766193827
 51
299.6869792757
  0
ARC
  5
2FD
100
AcDbEntity
  8
0
100
AcDbCircle
 62
6
  6
CONTINUOUS
 10
12.2441703557
 20
9.5936792907
 40
0.2519841627
100
AcDbArc
 50
63.6949296697
 51
68.2061180834
  0
ARC
  5
2FE
100
AcDbEntity
  8
0
100
AcDbCircle
 62
6
  6
CONTINUOUS
 10
12.3661391744
 20
9.6324976545
 40
0.2519744343
100
AcDbArc
 50
279.6756303333
 51
284.2061527024
  0
ARC
  5
2FF
100
AcDbEntity
  8
0
100
AcDbCircle
 62
6
  6
CONTINUOUS
 10
12.2910622512
 20
9.6573990405
 40
0.2519704768
100
AcDbArc
 50
351.6677827547
 51
356.2061668277
  0
CIRCLE
  5
300
100
AcDbEntity
  8
0
100
AcDbCircle
 62
6
  6
CONTINUOUS
 10
12.3114616088
 20
9.5932785348
 40
0.23
  0
ARC
  5
301
100
AcDbEntity
  8
0
100
AcDbCircle
 62
6
  6
CONTINUOUS
 10
13.0364616088
 20
9.8457785348
 40
0.06
100
AcDbArc
 50
3.695220532
 51
180.0
  0
ARC
  5
302
100
AcDbEntity
  8
0
100
AcDbCircle
 62
6
  6
CONTINUOUS
 10
13.5700051849
 20
9.7022785348
 40
0.241
100
AcDbArc
 50
52.6180391693
 51
121.1548459197
  0
ARC
  5
303
100
AcDbEntity
  8
0
100
AcDbCircle
 62
7
  6
CONTINUOUS
 10
13.976460377
 20
9.5932798828
 40
0.0921578858
100
AcDbArc
 50
82.926482498
 51
221.4867970759
  0
ARC
  5
304
100
AcDbEntity
  8
0
100
AcDbCircle
 62
7
  6
CONTINUOUS
 10
13.9762904846
 20
9.5932686117
 40
0.0652699539
100
AcDbArc
 50
359.9869636576
 51
10.7868073955
  0
ARC
  5
305
100
AcDbEntity
  8
0
100
AcDbCircle
 62
7
  6
CONTINUOUS
 10
13.9764456967
 20
9.5932710356
 40
0.065116899
100
AcDbArc
 50
10.8102721574
 51
39.6584395486
  0
ARC
  5
306
100
AcDbEntity
  8
0
100
AcDbCircle
 62
7
  6
CONTINUOUS
 10
13.9764616088
 20
9.5932785348
 40
0.0650899999
100
AcDbArc
 50
229.0174920094
 51
359.9809404032
  0
ARC
  5
307
100
AcDbEntity
  8
0
100
AcDbCircle
 62
7
  6
CONTINUOUS
 10
13.9763345116
 20
9.5931320981
 40
0.0648960994
100
AcDbArc
 50
228.3764935052
 51
229.0174121782
  0
CIRCLE
  5
308
100
AcDbEntity
  8
0
100
AcDbCircle
 62
6
  6
CONTINUOUS
 10
13.9764616088
 20
9.5932785348
 40
0.062
  0
ARC
  5
309
100
AcDbEntity
  8
0
100
AcDbCircle
 62
6
  6
CONTINUOUS
 10
13.9940016988
 20
9.5830211081
 40
0.0515563434
100
AcDbArc
 50
11.4758960087
 51
25.8298590029
  0
ARC
  5
30A
100
AcDbEntity
  8
0
100
AcDbCircle
 62
6
  6
CONTINUOUS
 10
13.1164616088
 20
9.8509452015
 40
0.0201666667
100
AcDbArc
 50
183.695220532
 51
270.0
  0
ARC
  5
30B
100
AcDbEntity
  8
0
100
AcDbCircle
 62
6
  6
CONTINUOUS
 10
12.1984616088
 20
10.7812785348
 40
1.5005
100
AcDbArc
 50
250.0
 51
253.7606641928
  0
ARC
  5
30C
100
AcDbEntity
  8
0
100
AcDbCircle
 62
6
  6
CONTINUOUS
 10
13.1664616088
 20
10.3697948363
 40
0.5390163015
100
AcDbArc
 50
270.0
 51
301.1548459197
  0
ARC
  5
30D
100
AcDbEntity
  8
0
100
AcDbCircle
 62
6
  6
CONTINUOUS
 10
15.3651549872
 20
9.9522815597
 40
0.474
100
AcDbArc
 50
90.2046912289
 51
150.708424395
  0
ARC
  5
30E
100
AcDbEntity
  8
0
100
AcDbCircle
 62
6
  6
CONTINUOUS
 10
14.753726012
 20
10.0408034138
 40
0.2039751211
100
AcDbArc
 50
56.9521644936
 51
124.9889904702
  0
ARC
  5
30F
100
AcDbEntity
  8
0
100
AcDbCircle
 62
6
  6
CONTINUOUS
 10
14.3614616088
 20
9.9987785348
 40
0.063
100
AcDbArc
 50
69.21525422
 51
143.3252216011
  0
ARC
  5
310
100
AcDbEntity
  8
0
100
AcDbCircle
 62
6
  6
CONTINUOUS
 10
14.2274616088
 20
9.9921274233
 40
0.031
100
AcDbArc
 50
94.8096999639
 51
180.000004438
  0
ARC
  5
311
100
AcDbEntity
  8
0
100
AcDbCircle
 62
6
  6
CONTINUOUS
 10
14.1724582803
 20
10.6458174369
 40
0.625
100
AcDbArc
 50
274.8096995249
 51
304.9889904702
  0
ARC
  5
312
100
AcDbEntity
  8
0
100
AcDbCircle
 62
6
  6
CONTINUOUS
 10
15.3787440682
 20
10.7602756494
 40
0.285
100
AcDbArc
 50
269.7421762777
 51
352.743837462
  0
ARC
  5
313
100
AcDbEntity
  8
0
100
AcDbCircle
 62
6
  6
CONTINUOUS
 10
15.8834616088
 20
10.5861424237
 40
0.1871361111
100
AcDbArc
 50
90.0
 51
177.8145949287
  0
ARC
  5
314
100
AcDbEntity
  8
0
100
AcDbCircle
 62
6
  6
CONTINUOUS
 10
15.6954616088
 20
10.4062812086
 40
0.187
100
AcDbArc
 50
89.6936039968
 51
180.0
  0
ARC
  5
315
100
AcDbEntity
  8
0
100
AcDbCircle
 62
6
  6
CONTINUOUS
 10
14.9585006334
 20
10.3555530684
 40
0.1715245336
100
AcDbArc
 50
236.9521644936
 51
315.0826423158
  0
ARC
  5
316
100
AcDbEntity
  8
0
100
AcDbCircle
 62
6
  6
CONTINUOUS
 10
15.6914616088
 20
10.7432785348
 40
0.03
100
AcDbArc
 50
90.0
 51
180.0
  0
SPLINE
  5
317
100
AcDbEntity
  8
0
100
AcDbSpline
 62
7
  6
CONTINUOUS
 70
0
 71
3
 72
21
 73
17
 74
15
 42
0.0000001
 43
0.0000001
 44
0.0000000001
 12
0.0571448498
 22
-0.0305074614
 32
0.0
 13
0.0184998232
 23
-0.0620805574
 33
0.0
 40
0.0
 40
0.0
 40
0.0
 40
0.0
 40
0.0625796598
 40
0.1251522037
 40
0.1877035995
 40
0.2501850877
 40
0.3125848043
 40
0.3749462789
 40
0.4372984356
 40
0.4996534034
 40
0.5620242167
 40
0.624432665
 40
0.686897276
 40
0.749433063
 40
0.8746625326
 40
1.0
 40
1.0
 40
1.0
 40
1.0
 10
13.9878090713
 20
9.6847372712
 30
0.0
 10
13.9890011064
 20
9.684100889
 30
0.0
 10
13.9913438756
 20
9.6827495374
 30
0.0
 10
13.9947244881
 20
9.6805095989
 30
0.0
 10
13.9979666375
 20
9.6780772341
 30
0.0
 10
14.0010665794
 20
9.6754722626
 30
0.0
 10
14.0040218003
 20
9.6727103996
 30
0.0
 10
14.0068307567
 20
9.6698039669
 30
0.0
 10
14.0094934699
 20
9.6667644522
 30
0.0
 10
14.0120106469
 20
9.663603239
 30
0.0
 10
14.0143812008
 20
9.66032918
 30
0.0
 10
14.0166020435
 20
9.6569489926
 30
0.0
 10
14.0186707761
 20
9.653469439
 30
0.0
 10
14.0212235721
 20
9.6487056607
 30
0.0
 10
14.0240186238
 20
9.642539586
 30
0.0
 10
14.0258039665
 20
9.6374230233
 30
0.0
 10
14.0265768735
 20
9.63482935
 30
0.0
 11
13.9878090713
 21
9.6847372712
 31
0.0
 11
13.9913218236
 21
9.6827139222
 31
0.0
 11
13.994702069
 21
9.6804770555
 31
0.0
 11
13.9979446018
 21
9.6780471357
 31
0.0
 11
14.0010442943
 21
9.6754444915
 31
0.0
 11
14.0039983483
 21
9.6726854039
 31
0.0
 11
14.0068066308
 21
9.6697815225
 31
0.0
 11
14.0094691551
 21
9.6667442429
 31
0.0
 11
14.0119858825
 21
9.663584867
 31
0.0
 11
14.0143555659
 21
9.6603124876
 31
0.0
 11
14.0165757362
 21
9.6569339647
 31
0.0
 11
14.01864387
 21
9.6534560596
 31
0.0
 11
14.0205574311
 21
9.6498855387
 31
0.0
 11
14.0239048931
 21
9.6424962436
 31
0.0
 11
14.0265768735
 21
9.63482935
 31
0.0
  0
SPLINE
  5
318
100
AcDbEntity
  8
0
100
AcDbSpline
 62
6
  6
CONTINUOUS
 70
0
 71
3
 72
29
 73
25
 74
23
 42
0.0000001
 43
0.0000001
 44
0.0000000001
 12
-0.2877866616
 22
-0.285006919
 32
0.0
 13
-0.3788449241
 23
0.1432711764
 33
0.0
 40
0.0
 40
0.0
 40
0.0
 40
0.0
 40
0.0723657256
 40
0.1433015305
 40
0.2128440309
 40
0.2471035002
 40
0.2810185918
 40
0.3145886457
 40
0.3478170896
 40
0.3807117005
 40
0.4132789364
 40
0.4774393753
 40
0.5403318078
 40
0.6019607861
 40
0.6623345969
 40
0.7214993925
 40
0.7794895357
 40
0.8080539047
 40
0.8363287931
 40
0.8643136479
 40
0.8920084489
 40
0.9194191233
 40
0.9465525624
 40
1.0
 40
1.0
 40
1.0
 40
1.0
 10
12.6618929285
 20
9.4007885414
 30
0.0
 10
12.654950965
 20
9.3939136306
 30
0.0
 10
12.6407150793
 20
9.3807829181
 30
0.0
 10
12.6182392841
 20
9.362841454
 30
0.0
 10
12.5987841458
 20
9.3494588883
 30
0.0
 10
12.5829190524
 20
9.3397570015
 30
0.0
 10
12.5709490655
 20
9.333011838
 30
0.0
 10
12.5588686922
 20
9.3267642747
 30
0.0
 10
12.5466963611
 20
9.3210134441
 30
0.0
 10
12.5344504239
 20
9.3157550381
 30
0.0
 10
12.5181309936
 20
9.3094270396
 30
0.0
 10
12.4976339671
 20
9.3027080775
 30
0.0
 10
12.4729043627
 20
9.2965080087
 30
0.0
 10
12.4482987518
 20
9.2921747201
 30
0.0
 10
12.4239464119
 20
9.2896720323
 30
0.0
 10
12.3999699508
 20
9.2889287327
 30
0.0
 10
12.3802940846
 20
9.2897194462
 30
0.0
 10
12.3648563703
 20
9.2911715968
 30
0.0
 10
12.3534975102
 20
9.2926500201
 30
0.0
 10
12.3423146681
 20
9.2945141397
 30
0.0
 10
12.3313203898
 20
9.2967554683
 30
0.0
 10
12.3205249925
 20
9.2993622961
 30
0.0
 10
12.3064815484
 20
9.3032887266
 30
0.0
 10
12.2961629909
 20
9.3067741776
 30
0.0
 10
12.2894135608
 20
9.30932667
 30
0.0
 11
12.6618929285
 21
9.4007885414
 31
0.0
 11
12.6403444342
 21
9.3809199808
 31
0.0
 11
12.6178864936
 21
9.363000083
 31
0.0
 11
12.5946758543
 21
9.347042681
 31
0.0
 11
12.5828372562
 21
9.3398042386
 31
0.0
 11
12.5708692637
 21
9.3330616075
 31
0.0
 11
12.5587914408
 21
9.326816432
 31
0.0
 11
12.54662243
 21
9.3210677159
 31
0.0
 11
12.5343797946
 21
9.3158113687
 31
0.0
 11
12.5220810361
 21
9.3110431237
 31
0.0
 11
12.497385157
 21
9.3029538731
 31
0.0
 11
12.472674806
 21
9.2967658305
 31
0.0
 11
12.4480899938
 21
9.2924448584
 31
0.0
 11
12.4237644459
 21
9.2899488881
 31
0.0
 11
12.3998122316
 21
9.2892110474
 31
0.0
 11
12.3763435889
 21
9.2901596287
 31
0.0
 11
12.364825056
 21
9.291243919
 31
0.0
 11
12.3534687551
 21
9.2927229243
 31
0.0
 11
12.342288466
 21
9.2945876813
 31
0.0
 11
12.3312973882
 21
9.2968288797
 31
0.0
 11
12.3205054974
 21
9.2994352817
 31
0.0
 11
12.3099216554
 21
9.3023949837
 31
0.0
 11
12.2894135608
 21
9.30932667
 31
0.0
  0
SPLINE
  5
319
100
AcDbEntity
  8
0
100
AcDbSpline
 62
6
  6
CONTINUOUS
 70
0
 71
3
 72
29
 73
25
 74
23
 42
0.0000001
 43
0.0000001
 44
0.0000000001
 12
0.1821267183
 22
-0.3617733613
 32
0.0
 13
-0.2533285057
 23
-0.3160297054
 33
0.0
 40
0.0
 40
0.0
 40
0.0
 40
0.0
 40
0.0723657256
 40
0.1433015305
 40
0.2128440309
 40
0.2471035002
 40
0.2810185918
 40
0.3145886457
 40
0.3478170896
 40
0.3807117005
 40
0.4132789364
 40
0.4774393753
 40
0.5403318078
 40
0.6019607861
 40
0.6623345969
 40
0.7214993925
 40
0.7794895357
 40
0.8080539047
 40
0.8363287931
 40
0.8643136479
 40
0.8920084489
 40
0.9194191233
 40
0.9465525624
 40
1.0
 40
1.0
 40
1.0
 40
1.0
 10
12.6028197045
 20
9.8670758457
 30
0.0
 10
12.6072129486
 20
9.8583491818
 30
0.0
 10
12.6153018676
 20
9.8407524366
 30
0.0
 10
12.6254198112
 20
9.8138324678
 30
0.0
 10
12.6321354192
 20
9.7911940915
 30
0.0
 10
12.6364598785
 20
9.7731074432
 30
0.0
 10
12.6391759807
 20
9.759638939
 30
0.0
 10
12.6413847259
 20
9.7462192181
 30
0.0
 10
12.6430926336
 20
9.7328655388
 30
0.0
 10
12.6443094722
 20
9.7195940236
 30
0.0
 10
12.6452847752
 20
9.702117864
 30
0.0
 10
12.6453409583
 20
9.6805477599
 30
0.0
 10
12.6435957061
 20
9.6551125819
 30
0.0
 10
12.6401133565
 20
9.6303721956
 30
0.0
 10
12.6349682672
 20
9.6064383709
 30
0.0
 10
12.6282660532
 20
9.5834057091
 30
0.0
 10
12.6214338629
 20
9.5649371922
 30
0.0
 10
12.6152822696
 20
9.5507037927
 30
0.0
 10
12.6103661246
 20
9.5403577328
 30
0.0
 10
12.6051375532
 20
9.5302982625
 30
0.0
 10
12.5996085043
 20
9.5205346911
 30
0.0
 10
12.5937933025
 20
9.5110732123
 30
0.0
 10
12.5857193823
 20
9.4989304369
 30
0.0
 10
12.5792159117
 20
9.4901939692
 30
0.0
 10
12.5747026586
 20
9.4845636432
 30
0.0
 11
12.6028197045
 21
9.8670758457
 31
0.0
 11
12.6150569776
 21
9.8404422869
 31
0.0
 11
12.6251599279
 21
9.8135459632
 31
0.0
 11
12.6331638371
 21
9.786540225
 31
0.0
 11
12.6363896769
 21
9.7730442474
 31
0.0
 11
12.6391039871
 21
9.7595784226
 31
0.0
 11
12.6413112494
 21
9.746161865
 31
0.0
 11
12.6430181721
 21
9.7328119971
 31
0.0
 11
12.644234073
 21
9.7195442583
 31
0.0
 11
12.6449684181
 21
9.7063739752
 31
0.0
 11
12.6450303062
 21
9.6803870825
 31
0.0
 11
12.6432795661
 21
9.6549739318
 31
0.0
 11
12.63979193
 21
9.6302571322
 31
0.0
 11
12.6346487311
 21
9.6063508641
 31
0.0
 11
12.627948818
 21
9.5833429493
 31
0.0
 11
12.6197944541
 21
9.5613160714
 31
0.0
 11
12.6152038104
 21
9.5506963598
 31
0.0
 11
12.6102879028
 21
9.5403529137
 31
0.0
 11
12.6050595142
 21
9.5302960684
 31
0.0
 11
12.599531578
 21
9.5205355007
 31
0.0
 11
12.5937178647
 21
9.5110772251
 31
0.0
 11
12.5876324338
 21
9.5019259914
 31
0.0
 11
12.5747026586
 21
9.4845636432
 31
0.0
  0
SPLINE
  5
31A
100
AcDbEntity
  8
0
100
AcDbSpline
 62
6
  6
CONTINUOUS
 70
0
 71
3
 72
29
 73
25
 74
23
 42
0.0000001
 43
0.0000001
 44
0.0000000001
 12
0.4003471638
 22
0.0614186855
 32
0.0
 13
0.2222792973
 23
-0.3385882758
 33
0.0
 40
0.0
 40
0.0
 40
0.0
 40
0.0
 40
0.0723657256
 40
0.1433015305
 40
0.2128440309
 40
0.2471035002
 40
0.2810185918
 40
0.3145886457
 40
0.3478170896
 40
0.3807117005
 40
0.4132789364
 40
0.4774393753
 40
0.5403318078
 40
0.6019607861
 40
0.6623345969
 40
0.7214993925
 40
0.7794895357
 40
0.8080539047
 40
0.8363287931
 40
0.8643136479
 40
0.8920084489
 40
0.9194191233
 40
0.9465525624
 40
1.0
 40
1.0
 40
1.0
 40
1.0
 10
12.1410994952
 20
9.9549845724
 30
0.0
 10
12.1507566328
 20
9.9564661083
 30
0.0
 10
12.1699917454
 20
9.9587214342
 30
0.0
 10
12.1987207737
 20
9.9600254426
 30
0.0
 10
12.222326386
 20
9.9594167223
 30
0.0
 10
12.2408641422
 20
9.9579404457
 30
0.0
 10
12.2545127726
 20
9.9563616158
 30
0.0
 10
12.2679582254
 20
9.9543153355
 30
0.0
 10
12.2811861016
 20
9.9518131384
 30
0.0
 10
12.2941840864
 20
9.9488692969
 30
0.0
 10
12.3111062871
 20
9.9443964348
 30
0.0
 10
12.3316380367
 20
9.9377843395
 30
0.0
 10
12.3552890159
 20
9.9282646037
 30
0.0
 10
12.3777424163
 20
9.9173074926
 30
0.0
 10
12.3989149162
 20
9.9050182633
 30
0.0
 10
12.4187491812
 20
9.8915265952
 30
0.0
 10
12.4342025217
 20
9.8793217104
 30
0.0
 10
12.4458383422
 20
9.8690728352
 30
0.0
 10
12.4541588575
 20
9.8612001951
 30
0.0
 10
12.4621102648
 20
9.853118981
 30
0.0
 10
12.469687403
 20
9.8448434334
 30
0.0
 10
12.4768888079
 20
9.8363890901
 30
0.0
 10
12.485942295
 20
9.8249580118
 30
0.0
 10
12.4922414866
 20
9.8160731268
 30
0.0
 10
12.4962015729
 20
9.8100409015
 30
0.0
 11
12.1410994952
 21
9.9549845724
 31
0.0
 11
12.1702110402
 21
9.9583926884
 31
0.0
 11
12.1989129474
 21
9.959689744
 31
0.0
 11
12.2270702747
 21
9.9589566819
 31
0.0
 11
12.2409025514
 21
9.9578541515
 31
0.0
 11
12.2545480798
 21
9.9562744452
 31
0.0
 11
12.2679900659
 21
9.9542277321
 31
0.0
 11
12.2812140129
 21
9.951725776
 31
0.0
 11
12.2942081164
 21
9.9487822096
 31
0.0
 11
12.3069607251
 21
9.9454107721
 31
0.0
 11
12.3316948532
 21
9.9374392397
 31
0.0
 11
12.3553231873
 21
9.9279210915
 31
0.0
 11
12.3777525218
 21
9.9169662413
 31
0.0
 11
12.3988993981
 21
9.9046873253
 31
0.0
 11
12.4187108383
 21
9.8912054927
 31
0.0
 11
12.437139807
 21
9.8766435522
 31
0.0
 11
12.445821166
 21
9.8689959192
 31
0.0
 11
12.4541392689
 21
9.8611243126
 31
0.0
 11
12.4620882362
 21
9.8530440834
 31
0.0
 11
12.4696628615
 21
9.8447705224
 31
0.0
 11
12.4768616799
 21
9.8363185846
 31
0.0
 11
12.4836845188
 21
9.8277031092
 31
0.0
 11
12.4962015729
 21
9.8100409015
 31
0.0
  0
SPLINE
  5
31B
100
AcDbEntity
  8
0
100
AcDbSpline
 62
6
  6
CONTINUOUS
 70
0
 71
3
 72
29
 73
25
 74
23
 42
0.0000001
 43
0.0000001
 44
0.0000000001
 12
0.0653014362
 22
0.3997321965
 32
0.0
 13
0.3907046664
 23
0.1067706428
 33
0.0
 40
0.0
 40
0.0
 40
0.0
 40
0.0
 40
0.0723657256
 40
0.1433015305
 40
0.2128440309
 40
0.2471035002
 40
0.2810185918
 40
0.3145886457
 40
0.3478170896
 40
0.3807117005
 40
0.4132789364
 40
0.4774393753
 40
0.5403318078
 40
0.6019607861
 40
0.6623345969
 40
0.7214993925
 40
0.7794895357
 40
0.8080539047
 40
0.8363287931
 40
0.8643136479
 40
0.8920084489
 40
0.9194191233
 40
0.9465525624
 40
1.0
 40
1.0
 40
1.0
 40
1.0
 10
11.9148139365
 20
9.5430278491
 30
0.0
 10
11.9163891317
 20
9.5526701526
 30
0.0
 10
11.9201881661
 20
9.5716607658
 30
0.0
 10
11.9278257384
 20
9.5993866561
 30
0.0
 10
11.9356992011
 20
9.6216488225
 30
0.0
 10
11.9428317053
 20
9.6388230818
 30
0.0
 10
11.9485509205
 20
9.6513158155
 30
0.0
 10
11.9546519222
 20
9.6634708656
 30
0.0
 10
11.9611192915
 20
9.675278102
 30
0.0
 10
11.9679356493
 20
9.6867302231
 30
0.0
 10
11.9774188416
 20
9.7014420019
 30
0.0
 10
11.9900519775
 20
9.7189256063
 30
0.0
 10
12.0064143388
 20
9.7384772641
 30
0.0
 10
12.023773653
 20
9.7564457833
 30
0.0
 10
12.0420040668
 20
9.7727844466
 30
0.0
 10
12.0609645307
 20
9.7874787989
 30
0.0
 10
12.0773474107
 20
9.7984042822
 30
0.0
 10
12.0906903366
 20
9.8063035285
 30
0.0
 10
12.1007488428
 20
9.8117840293
 30
0.0
 10
12.1108916542
 20
9.8168490345
 30
0.0
 10
12.1211036321
 20
9.8214980363
 30
0.0
 10
12.1313695469
 20
9.8257344436
 30
0.0
 10
12.1450388297
 20
9.830812424
 30
0.0
 10
12.1554354148
 20
9.8340577307
 30
0.0
 10
12.1623961359
 20
9.8359599365
 30
0.0
 11
11.9148139365
 21
9.5430278491
 31
0.0
 11
11.9205685876
 21
9.5717677395
 31
0.0
 11
11.9282043916
 21
9.5994656875
 31
0.0
 11
11.9376026677
 21
9.6260183685
 31
0.0
 11
11.9429256451
 21
9.6388329448
 31
0.0
 11
11.9486447352
 21
9.6513224574
 31
0.0
 11
11.9547450772
 21
9.6634740767
 31
0.0
 11
11.9612110032
 21
9.6752776508
 31
0.0
 11
11.9680259
 21
9.6867261655
 31
0.0
 11
11.9751731004
 21
9.6978127856
 31
0.0
 11
11.9903977442
 21
9.7188730003
 31
0.0
 11
12.0067515978
 21
9.7384036119
 31
0.0
 11
12.024101325
 21
9.7563499418
 31
0.0
 11
12.0423140122
 21
9.7726674225
 31
0.0
 11
12.0612580687
 21
9.7873431064
 31
0.0
 11
12.0808021617
 21
9.8003702102
 31
0.0
 11
12.0907581803
 21
9.8062634247
 31
0.0
 11
12.1008149582
 21
9.8117419504
 31
0.0
 11
12.1109560788
 21
9.8168049394
 31
0.0
 11
12.1211653909
 21
9.8214521652
 31
0.0
 11
12.1314282186
 21
9.8256868559
 31
0.0
 11
12.1417303958
 21
9.829513433
 31
0.0
 11
12.1623961359
 21
9.8359599365
 31
0.0
  0
SPLINE
  5
31C
100
AcDbEntity
  8
0
100
AcDbSpline
 62
6
  6
CONTINUOUS
 70
0
 71
3
 72
29
 73
25
 74
23
 42
0.0000001
 43
0.0000001
 44
0.0000000001
 12
-0.3599886567
 22
0.1856293984
 32
0.0
 13
0.0191894661
 23
0.404576162
 33
0.0
 40
0.0
 40
0.0
 40
0.0
 40
0.0
 40
0.0723657256
 40
0.1433015305
 40
0.2128440309
 40
0.2471035002
 40
0.2810185918
 40
0.3145886457
 40
0.3478170896
 40
0.3807117005
 40
0.4132789364
 40
0.4774393753
 40
0.5403318078
 40
0.6019607861
 40
0.6623345969
 40
0.7214993925
 40
0.7794895357
 40
0.8080539047
 40
0.8363287931
 40
0.8643136479
 40
0.8920084489
 40
0.9194191233
 40
0.9465525624
 40
1.0
 40
1.0
 40
1.0
 40
1.0
 10
12.2366819794
 20
9.2005158655
 30
0.0
 10
12.227998366
 20
9.2049936009
 30
0.0
 10
12.2111111857
 20
9.2144751194
 30
0.0
 10
12.1871024367
 20
9.2303066536
 30
0.0
 10
12.168362892
 20
9.2446741494
 30
0.0
 10
12.1542332658
 20
9.256764702
 30
0.0
 10
12.1441193048
 20
9.2660644659
 30
0.0
 10
12.1344444783
 20
9.2756229803
 30
0.0
 10
12.1252136563
 20
9.2854224508
 30
0.0
 10
12.1164284122
 20
9.2954440924
 30
0.0
 10
12.1053671467
 20
9.3090093338
 30
0.0
 10
12.0926431045
 20
9.326426891
 30
0.0
 10
12.0791046207
 20
9.3480302158
 30
0.0
 10
12.0673798664
 20
9.3700924825
 30
0.0
 10
12.057474382
 20
9.392479561
 30
0.0
 10
12.0493583281
 20
9.4150528383
 30
0.0
 10
12.0440301643
 20
9.434010043
 30
0.0
 10
12.0406407255
 20
9.449140921
 30
0.0
 10
12.0385367088
 20
9.4604006968
 30
0.0
 10
12.0368539037
 20
9.4716122563
 30
0.0
 10
12.035588115
 20
9.482761045
 30
0.0
 10
12.0347313943
 20
9.493833632
 30
0.0
 10
12.0341259887
 20
9.5084030748
 30
0.0
 10
12.03425224
 20
9.5192936698
 30
0.0
 10
12.034594116
 20
9.5265015228
 30
0.0
 11
12.2366819794
 21
9.2005158655
 31
0.0
 11
12.2111270044
 21
9.2148699785
 31
0.0
 11
12.1871442836
 21
9.2306911963
 31
0.0
 11
12.1647954104
 21
9.2478347177
 31
0.0
 11
12.1542529146
 21
9.2568570919
 31
0.0
 11
12.1441419782
 21
9.2661557415
 31
0.0
 11
12.1344702108
 21
9.2757125683
 31
0.0
 11
12.1252424258
 21
9.2855095344
 31
0.0
 11
12.1164601602
 21
9.295528672
 31
0.0
 11
12.1081247643
 21
9.3057520176
 31
0.0
 11
12.0927999835
 21
9.3267394785
 31
0.0
 11
12.0792788868
 21
9.3483282084
 31
0.0
 11
12.0675722734
 21
9.3703745004
 31
0.0
 11
12.0576814569
 21
9.3927381741
 31
0.0
 11
12.0495780875
 21
9.4152900782
 31
0.0
 11
12.0432280324
 21
9.4379032116
 31
0.0
 11
12.0406998313
 21
9.4491930515
 31
0.0
 11
12.038597159
 21
9.4604505732
 31
0.0
 11
12.036915749
 21
9.4716599016
 31
0.0
 11
12.0356508255
 21
9.4828056062
 31
0.0
 11
12.0347947835
 21
9.4938747267
 31
0.0
 11
12.0343390403
 21
9.5048551568
 31
0.0
 11
12.034594116
 21
9.5265015228
 31
0.0
  0
SPLINE
  5
31D
100
AcDbEntity
  8
0
100
AcDbSpline
 62
6
  6
CONTINUOUS
 70
0
 71
3
 72
42
 73
38
 74
36
 42
0.0000001
 43
0.0000001
 44
0.0000000001
 12
-0.1671904584
 22
-0.0072473216
 32
0.0
 13
0.1314946877
 23
-0.1035100002
 33
0.0
 40
0.0
 40
0.0
 40
0.0
 40
0.0
 40
0.0312449351
 40
0.0625056657
 40
0.0937602432
 40
0.1250107813
 40
0.1562629575
 40
0.1875154178
 40
0.2187670011
 40
0.2500180212
 40
0.2812692988
 40
0.3125204066
 40
0.3437714174
 40
0.3750218939
 40
0.3906497703
 40
0.4062775108
 40
0.4219051385
 40
0.4375327925
 40
0.4687824974
 40
0.5000322664
 40
0.5312821348
 40
0.562531892
 40
0.5937812893
 40
0.6250302253
 40
0.6406573838
 40
0.6562843907
 40
0.687532512
 40
0.718780325
 40
0.7500281727
 40
0.7812754239
 40
0.8125223172
 40
0.843769233
 40
0.8750157652
 40
0.9062600759
 40
0.9375068691
 40
0.9687615534
 40
1.0
 40
1.0
 40
1.0
 40
1.0
 10
13.9764616088
 20
9.6660190204
 30
0.0
 10
13.9747203238
 20
9.6659435397
 30
0.0
 10
13.9712410304
 20
9.6656667457
 30
0.0
 10
13.9660664202
 20
9.6648770686
 30
0.0
 10
13.9609620451
 20
9.6637142548
 30
0.0
 10
13.9559560082
 20
9.6621842769
 30
0.0
 10
13.951074878
 20
9.6602934981
 30
0.0
 10
13.9463446577
 20
9.6580515358
 30
0.0
 10
13.9417917526
 20
9.6554684915
 30
0.0
 10
13.9374409814
 20
9.6525579139
 30
0.0
 10
13.9333169908
 20
9.6493340437
 30
0.0
 10
13.9294427171
 20
9.6458139065
 30
0.0
 10
13.9258408608
 20
9.642015709
 30
0.0
 10
13.9230829906
 20
9.6386353083
 30
0.0
 10
13.9210336242
 20
9.6358135762
 30
0.0
 10
13.9195766813
 20
9.6336409665
 30
0.0
 10
13.9182022959
 20
9.6314152188
 30
0.0
 10
13.9164830742
 20
9.6283810896
 30
0.0
 10
13.9145499286
 20
9.6244701373
 30
0.0
 10
13.9125917811
 20
9.6196157385
 30
0.0
 10
13.9110068849
 20
9.6146268
 30
0.0
 10
13.9098063026
 20
9.609531691
 30
0.0
 10
13.9089977634
 20
9.6043600216
 30
0.0
 10
13.9086563231
 20
9.6000107053
 30
0.0
 10
13.9085841953
 20
9.5965241302
 30
0.0
 10
13.9086463337
 20
9.5930374044
 30
0.0
 10
13.9089767085
 20
9.5886873194
 30
0.0
 10
13.9097755828
 20
9.5835142446
 30
0.0
 10
13.9109743402
 20
9.5784188166
 30
0.0
 10
13.9125664332
 20
9.5734323317
 30
0.0
 10
13.9145440997
 20
9.568585817
 30
0.0
 10
13.9168963061
 20
9.5639096149
 30
0.0
 10
13.9196098224
 20
9.5594335003
 30
0.0
 10
13.9226690225
 20
9.5551861376
 30
0.0
 10
13.926056306
 20
9.5511947111
 30
0.0
 10
13.9297510623
 20
9.5474869965
 30
0.0
 10
13.932404496
 20
9.5452192843
 30
0.0
 10
13.9337737259
 20
9.5441414537
 30
0.0
 11
13.9764616088
 21
9.6660190204
 31
0.0
 11
13.9712493102
 21
9.6656044353
 31
0.0
 11
13.9660778412
 21
9.6648148182
 31
0.0
 11
13.9609781395
 21
9.6636529848
 31
0.0
 11
13.9559768933
 21
9.6621241682
 31
0.0
 11
13.9511000535
 21
9.6602349768
 31
0.0
 11
13.9463741574
 21
9.657994661
 31
0.0
 11
13.9418254053
 21
9.6554138807
 31
0.0
 11
13.9374787861
 21
9.6525057044
 31
0.0
 11
13.933358603
 21
9.6492846596
 31
0.0
 11
13.9294881109
 21
9.6457675541
 31
0.0
 11
13.9258895918
 21
9.6419726586
 31
0.0
 11
13.9225838654
 21
9.6379202756
 31
0.0
 11
13.921046987
 21
9.6358042125
 31
0.0
 11
13.9195904363
 21
9.6336321031
 31
0.0
 11
13.9182164385
 21
9.6314068772
 31
0.0
 11
13.9169271525
 21
9.6291315168
 31
0.0
 11
13.9146101879
 21
9.6244432378
 31
0.0
 11
13.9126539917
 21
9.6195933209
 31
0.0
 11
13.9110709348
 21
9.6146090955
 31
0.0
 11
13.9098716377
 21
9.6095189027
 31
0.0
 11
13.9090642303
 21
9.6043521009
 31
0.0
 11
13.9086550522
 21
9.5991387035
 31
0.0
 11
13.9086009801
 21
9.5965240973
 31
0.0
 11
13.9086476554
 21
9.5939093739
 31
0.0
 11
13.909043784
 21
9.5886951054
 31
0.0
 11
13.9098422313
 21
9.5835271797
 31
0.0
 11
13.9110399074
 21
9.5784369335
 31
0.0
 11
13.912630705
 21
9.5734556331
 31
0.0
 11
13.9146065253
 21
9.5686141975
 31
0.0
 11
13.9169565471
 21
9.5639429235
 31
0.0
 11
13.9196675045
 21
9.5594715207
 31
0.0
 11
13.922723568
 21
9.5552289602
 31
0.0
 11
13.9261072954
 21
9.5512422851
 31
0.0
 11
13.9297992942
 21
9.5475374037
 31
0.0
 11
13.9337737259
 21
9.5441414537
 31
0.0
  0
SPLINE
  5
31E
100
AcDbEntity
  8
0
100
AcDbSpline
 62
6
  6
CONTINUOUS
 70
0
 71
3
 72
15
 73
11
 74
9
 42
0.0000001
 43
0.0000001
 44
0.0000000001
 12
-0.0363419561
 22
0.0212425454
 32
0.0
 13
-0.0420554414
 23
-0.0018230066
 33
0.0
 40
0.0
 40
0.0
 40
0.0
 40
0.0
 40
0.1250012598
 40
0.250002458
 40
0.3750063771
 40
0.5000060909
 40
0.6249986458
 40
0.7500051441
 40
0.8750355722
 40
1.0
 40
1.0
 40
1.0
 40
1.0
 10
14.0167633159
 20
9.655985996
 30
0.0
 10
14.0152490525
 20
9.6568711109
 30
0.0
 10
14.0121567527
 20
9.6585347377
 30
0.0
 10
14.0073542413
 20
9.6606953848
 30
0.0
 10
14.002409961
 20
9.662509072
 30
0.0
 10
13.9973493258
 20
9.6639663334
 30
0.0
 10
13.9921973512
 20
9.6650578936
 30
0.0
 10
13.9869798804
 20
9.6657776098
 30
0.0
 10
13.9817247829
 20
9.6661196594
 30
0.0
 10
13.9782134202
 20
9.6660949574
 30
0.0
 10
13.9764616088
 20
9.6660190204
 30
0.0
 11
14.0167633159
 21
9.655985996
 31
0.0
 11
14.012129414
 21
9.6584789367
 31
0.0
 11
14.007330645
 21
9.6606375448
 31
0.0
 11
14.0023904929
 21
9.6624496915
 31
0.0
 11
13.9973340113
 21
9.6639054075
 31
0.0
 11
13.9921866992
 21
9.6649958762
 31
0.0
 11
13.9869738773
 21
9.6657146315
 31
0.0
 11
13.9817218447
 21
9.6660565039
 31
0.0
 11
13.9764616088
 21
9.6660190204
 31
0.0
  0
SPLINE
  5
31F
100
AcDbEntity
  8
0
100
AcDbSpline
 62
6
  6
CONTINUOUS
 70
0
 71
3
 72
13
 73
9
 74
7
 42
0.0000001
 43
0.0000001
 44
0.0000000001
 12
-0.0526922151
 22
-0.0981081422
 32
0.0
 13
-0.079126622
 23
-0.0783623301
 33
0.0
 40
0.0
 40
0.0
 40
0.0
 40
0.0
 40
0.2538007189
 40
0.5050722092
 40
0.6297685244
 40
0.7538209126
 40
0.8772300022
 40
1.0
 40
1.0
 40
1.0
 40
1.0
 10
12.7280537589
 20
9.48987903
 30
0.0
 10
12.7235959849
 20
9.4815790576
 30
0.0
 10
12.7141276071
 20
9.465374901
 30
0.0
 10
12.7008820977
 20
9.4460851075
 30
0.0
 10
12.6895385843
 20
9.4313888592
 30
0.0
 10
12.6806925318
 20
9.4207732242
 30
0.0
 10
12.6714996956
 20
9.4105528189
 30
0.0
 10
12.6651310536
 20
9.4039953891
 30
0.0
 10
12.6618929285
 20
9.4007885414
 30
0.0
 11
12.7280537589
 21
9.48987903
 31
0.0
 11
12.7137886759
 21
9.4654790501
 31
0.0
 11
12.6979422034
 21
9.4424161257
 31
0.0
 11
12.6894562459
 21
9.4314241139
 31
0.0
 11
12.680611301
 21
9.4208120313
 31
0.0
 11
12.6714194885
 21
9.4105950999
 31
0.0
 11
12.6618929285
 21
9.4007885414
 31
0.0
  0
SPLINE
  5
320
100
AcDbEntity
  8
0
100
AcDbSpline
 62
6
  6
CONTINUOUS
 70
0
 71
3
 72
13
 73
9
 74
7
 42
0.0000001
 43
0.0000001
 44
0.0000000001
 12
-0.0239814584
 22
-0.0933604891
 32
0.0
 13
-0.0456083419
 23
-0.0849186106
 33
0.0
 40
0.0
 40
0.0
 40
0.0
 40
0.0
 40
0.1267518663
 40
0.2529974356
 40
0.3787432714
 40
0.5039935634
 40
0.7529859347
 40
1.0
 40
1.0
 40
1.0
 40
1.0
 10
12.7629824912
 20
9.5794784161
 30
0.0
 10
12.7619692597
 20
9.5755338773
 30
0.0
 10
12.7598271245
 20
9.5676907418
 30
0.0
 10
12.7562656493
 20
9.5560525429
 30
0.0
 10
12.7523693795
 20
9.5445728463
 30
0.0
 10
12.746749024
 20
9.5295210285
 30
0.0
 10
12.7389261747
 20
9.5111429277
 30
0.0
 10
12.7318090596
 20
9.4968710605
 30
0.0
 10
12.7280537589
 20
9.48987903
 30
0.0
 11
12.7629824912
 21
9.5794784161
 31
0.0
 11
12.7597633751
 21
9.5676923435
 31
0.0
 11
12.7562024514
 21
9.5560560253
 31
0.0
 11
12.7523067666
 21
9.5445783217
 31
0.0
 11
12.748083373
 21
9.5332680901
 31
0.0
 11
12.7386816691
 21
9.5111854722
 31
0.0
 11
12.7280537589
 21
9.48987903
 31
0.0
  0
SPLINE
  5
321
100
AcDbEntity
  8
0
100
AcDbSpline
 62
6
  6
CONTINUOUS
 70
0
 71
3
 72
9
 73
5
 74
3
 42
0.0000001
 43
0.0000001
 44
0.0000000001
 12
-0.0014725913
 22
-0.0997677718
 32
0.0
 13
-0.0248241926
 23
-0.0966412762
 33
0.0
 40
0.0
 40
0.0
 40
0.0
 40
0.0
 40
0.5038687617
 40
1.0
 40
1.0
 40
1.0
 40
1.0
 10
12.7760449944
 20
9.678222753
 30
0.0
 10
12.7757976635
 20
9.6614661318
 30
0.0
 10
12.7733907408
 20
9.6282092223
 30
0.0
 10
12.7670878435
 20
9.5954606675
 30
0.0
 10
12.762982491
 20
9.5794784155
 30
0.0
 11
12.7760449944
 21
9.678222753
 31
0.0
 11
12.7723829926
 21
9.6280809592
 31
0.0
 11
12.762982491
 21
9.5794784155
 31
0.0
  0
SPLINE
  5
322
100
AcDbEntity
  8
0
100
AcDbSpline
 62
6
  6
CONTINUOUS
 70
0
 71
3
 72
13
 73
9
 74
7
 42
0.0000001
 43
0.0000001
 44
0.0000000001
 12
0.049648326
 22
-0.1024993169
 32
0.0
 13
0.0230527022
 23
-0.1115331303
 33
0.0
 40
0.0
 40
0.0
 40
0.0
 40
0.0
 40
0.2525796105
 40
0.5034671815
 40
0.6282721686
 40
0.7526325218
 40
0.8765429909
 40
1.0
 40
1.0
 40
1.0
 40
1.0
 10
12.7302255084
 20
9.8816026264
 30
0.0
 10
12.73440556
 20
9.8729728806
 30
0.0
 10
12.7422190546
 20
9.8555146406
 30
0.0
 10
12.7506221715
 20
9.8331758377
 30
0.0
 10
12.7564776675
 20
9.815114973
 30
0.0
 10
12.7604265596
 20
9.8015108316
 30
0.0
 10
12.7639358017
 20
9.7878397652
 30
0.0
 10
12.7659831721
 20
9.7786728097
 30
0.0
 10
12.7669318447
 20
9.7740829609
 30
0.0
 11
12.7302255084
 21
9.8816026264
 31
0.0
 11
12.7419735868
 21
9.8553444704
 31
0.0
 11
12.7520295274
 21
9.828598699
 31
0.0
 11
12.7564125421
 21
9.815077227
 31
0.0
 11
12.7603600374
 21
9.8014749746
 31
0.0
 11
12.7638678519
 21
9.7878056494
 31
0.0
 11
12.7669318447
 21
9.7740829609
 31
0.0
  0
SPLINE
  5
323
100
AcDbEntity
  8
0
100
AcDbSpline
 62
6
  6
CONTINUOUS
 70
0
 71
3
 72
15
 73
11
 74
9
 42
0.0000001
 43
0.0000001
 44
0.0000000001
 12
0.1554115563
 22
-0.0899857412
 32
0.0
 13
0.1137791207
 23
-0.1389406246
 33
0.0
 40
0.0
 40
0.0
 40
0.0
 40
0.0
 40
0.1266777435
 40
0.2528997373
 40
0.3786587809
 40
0.5039426549
 40
0.6287357778
 40
0.7530208908
 40
0.8767807744
 40
1.0
 40
1.0
 40
1.0
 40
1.0
 10
12.5335231049
 20
10.0917352155
 30
0.0
 10
12.5400855
 20
10.0879354853
 30
0.0
 10
12.5530174366
 20
10.0800529847
 30
0.0
 10
12.5718289138
 20
10.0673941759
 30
0.0
 10
12.5899886939
 20
10.0539561387
 30
0.0
 10
12.6074639402
 20
10.039774817
 30
0.0
 10
12.6242224344
 20
10.0248857888
 30
0.0
 10
12.6402319014
 20
10.0093245471
 30
0.0
 10
12.6554596008
 20
9.9931271418
 30
0.0
 10
12.6650909939
 20
9.9819023536
 30
0.0
 10
12.6697642522
 20
9.9761956349
 30
0.0
 11
12.5335231049
 21
10.0917352155
 31
0.0
 11
12.5529483912
 21
10.0798952383
 31
0.0
 11
12.5717542982
 21
10.0672402965
 31
0.0
 11
12.5899083521
 21
10.0538060909
 31
0.0
 11
12.6073780795
 21
10.0396283224
 31
0.0
 11
12.6241310067
 21
10.0247426918
 31
0.0
 11
12.6401346603
 21
10.0091848998
 31
0.0
 11
12.6553565667
 21
9.9929906472
 31
0.0
 11
12.6697642522
 21
9.9761956349
 31
0.0
  0
SPLINE
  5
324
100
AcDbEntity
  8
0
100
AcDbSpline
 62
6
  6
CONTINUOUS
 70
0
 71
3
 72
13
 73
9
 74
7
 42
0.0000001
 43
0.0000001
 44
0.0000000001
 12
0.1354995917
 22
-0.0352353265
 32
0.0
 13
0.1211612406
 23
-0.0701542684
 33
0.0
 40
0.0
 40
0.0
 40
0.0
 40
0.0
 40
0.2518750538
 40
0.5025353005
 40
0.6274029126
 40
0.7519395178
 40
0.8761393146
 40
1.0
 40
1.0
 40
1.0
 40
1.0
 10
12.4043136579
 20
10.144576415
 30
0.0
 10
12.4156899802
 20
10.141618115
 30
0.0
 10
12.4381986334
 20
10.1349604617
 30
0.0
 10
12.465680899
 20
10.1247924838
 30
0.0
 10
12.4871340386
 20
10.1155962203
 30
0.0
 10
12.5029202286
 20
10.1081854386
 30
0.0
 10
12.5184016408
 20
10.1002606805
 30
0.0
 10
12.5285207335
 20
10.0946316674
 30
0.0
 10
12.5335231049
 20
10.0917352155
 30
0.0
 11
12.4043136579
 21
10.144576415
 31
0.0
 11
12.4381284469
 21
10.1345709029
 31
0.0
 11
12.4710400266
 21
10.1223884704
 31
0.0
 11
12.4871077941
 21
10.1154997483
 31
0.0
 11
12.5028905766
 21
10.1080894033
 31
0.0
 11
12.5183686467
 21
10.1001649713
 31
0.0
 11
12.5335231049
 21
10.0917352155
 31
0.0
  0
SPLINE
  5
325
100
AcDbEntity
  8
0
100
AcDbSpline
 62
6
  6
CONTINUOUS
 70
0
 71
3
 72
13
 73
9
 74
7
 42
0.0000001
 43
0.0000001
 44
0.0000000001
 12
0.1332057268
 22
-0.000414807
 32
0.0
 13
0.1289188666
 23
-0.0335240742
 33
0.0
 40
0.0
 40
0.0
 40
0.0
 40
0.0
 40
0.1258317489
 40
0.2514278188
 40
0.3767915079
 40
0.5019232952
 40
0.7514503912
 40
1.0
 40
1.0
 40
1.0
 40
1.0
 10
12.2725485866
 20
10.1616788207
 30
0.0
 10
12.2781357565
 20
10.1616614221
 30
0.0
 10
12.2892999056
 20
10.1614484492
 30
0.0
 10
12.306011189
 20
10.1605964859
 30
0.0
 10
12.3226564625
 20
10.1592189461
 30
0.0
 10
12.3447173922
 20
10.1566921743
 30
0.0
 10
12.3720499158
 20
10.1522540241
 30
0.0
 10
12.3936327466
 20
10.1473538801
 30
0.0
 10
12.4043136579
 20
10.1445764149
 30
0.0
 11
12.2725485866
 21
10.1616788207
 31
0.0
 11
12.2893071298
 21
10.1613592002
 31
0.0
 11
12.3060156517
 21
10.1605078564
 31
0.0
 11
12.3226580241
 21
10.1591308546
 31
0.0
 11
12.3392181331
 21
10.1572343502
 31
0.0
 11
12.3720271057
 21
10.1519074554
 31
0.0
 11
12.4043136579
 21
10.1445764149
 31
0.0
  0
SPLINE
  5
326
100
AcDbEntity
  8
0
100
AcDbSpline
 62
6
  6
CONTINUOUS
 70
0
 71
3
 72
13
 73
9
 74
7
 42
0.0000001
 43
0.0000001
 44
0.0000000001
 12
0.1014007351
 22
0.0757639217
 32
0.0
 13
0.1159554042
 23
0.0507604684
 33
0.0
 40
0.0
 40
0.0
 40
0.0
 40
0.0
 40
0.2506940911
 40
0.500947321
 40
0.6259054252
 40
0.7507358081
 40
0.8754347367
 40
1.0
 40
1.0
 40
1.0
 40
1.0
 10
11.9439192038
 20
10.0522551582
 30
0.0
 10
11.9523927255
 20
10.0585863474
 30
0.0
 10
11.9696864739
 20
10.0707612691
 30
0.0
 10
11.9921209245
 20
10.0847222235
 30
0.0
 10
12.010497117
 20
10.0950931754
 30
0.0
 10
12.0244768135
 20
10.1024623493
 30
0.0
 10
12.0386481441
 20
10.1094178833
 30
0.0
 10
12.0482216324
 20
10.1137764727
 30
0.0
 10
12.0530363043
 20
10.1158841364
 30
0.0
 11
11.9439192038
 21
10.0522551582
 31
0.0
 11
11.9698674358
 21
10.0705212468
 31
0.0
 11
11.9967631436
 21
10.0872557365
 31
0.0
 11
12.0105381232
 21
10.0950294286
 31
0.0
 11
12.0245161584
 21
10.1023971771
 31
0.0
 11
12.0386859783
 21
10.1093513007
 31
0.0
 11
12.0530363043
 21
10.1158841364
 31
0.0
  0
SPLINE
  5
327
100
AcDbEntity
  8
0
100
AcDbSpline
 62
6
  6
CONTINUOUS
 70
0
 71
3
 72
15
 73
11
 74
9
 42
0.0000001
 43
0.0000001
 44
0.0000000001
 12
0.0670425705
 22
0.185506384
 32
0.0
 13
0.1268566298
 23
0.1510454245
 33
0.0
 40
0.0
 40
0.0
 40
0.0
 40
0.0
 40
0.1251149854
 40
0.2502256293
 40
0.3753202183
 40
0.500383753
 40
0.6253995128
 40
0.7503506204
 40
0.8752216099
 40
1.0
 40
1.0
 40
1.0
 40
1.0
 10
11.7527525331
 20
9.7942062117
 30
0.0
 10
11.7555485432
 20
9.8019427546
 30
0.0
 10
11.7614853372
 20
9.8172933834
 30
0.0
 10
11.7713963356
 20
9.8399011474
 30
0.0
 10
11.7822882107
 20
9.8620497414
 30
0.0
 10
11.7941350295
 20
9.8836952994
 30
0.0
 10
11.8069111221
 20
9.9047946652
 30
0.0
 10
11.8205909093
 20
9.9253046322
 30
0.0
 10
11.8351483288
 20
9.9451814093
 30
0.0
 10
11.8454263335
 20
9.9579878235
 30
0.0
 10
11.8507026555
 20
9.9642702251
 30
0.0
 11
11.7527525331
 21
9.7942062117
 31
0.0
 11
11.7616531608
 21
9.8172241338
 31
0.0
 11
11.7715605035
 21
9.839826085
 31
0.0
 11
11.7824487949
 21
9.8619686337
 31
0.0
 11
11.7942922684
 21
9.883608348
 31
0.0
 11
11.8070651576
 21
9.904701796
 31
0.0
 11
11.8207416962
 21
9.9252055461
 31
0.0
 11
11.8352961176
 21
9.9450761664
 31
0.0
 11
11.8507026555
 21
9.9642702251
 31
0.0
  0
SPLINE
  5
328
100
AcDbEntity
  8
0
100
AcDbSpline
 62
6
  6
CONTINUOUS
 70
0
 71
3
 72
13
 73
9
 74
7
 42
0.0000001
 43
0.0000001
 44
0.0000000001
 12
0.0128201569
 22
0.144349815
 32
0.0
 13
0.0492557903
 23
0.1362904715
 33
0.0
 40
0.0
 40
0.0
 40
0.0
 40
0.0
 40
0.2498944186
 40
0.4998800744
 40
0.6249051165
 40
0.7499344339
 40
0.8749659522
 40
1.0
 40
1.0
 40
1.0
 40
1.0
 10
11.7216362351
 20
9.6530637041
 30
0.0
 10
11.7227041303
 20
9.6650877751
 30
0.0
 10
11.7256083252
 20
9.6890787232
 30
0.0
 10
11.7311470928
 20
9.7187748365
 30
0.0
 10
11.7367176146
 20
9.7422823365
 30
0.0
 10
11.7414648316
 20
9.7597717515
 30
0.0
 10
11.7467791717
 20
9.7770974103
 30
0.0
 10
11.7506996495
 20
9.7885258953
 30
0.0
 10
11.7527525331
 20
9.7942062117
 30
0.0
 11
11.7216362351
 21
9.6530637041
 31
0.0
 11
11.7259892631
 21
9.6890153286
 31
0.0
 11
11.7326340741
 21
9.7246281418
 31
0.0
 11
11.7368123465
 21
9.7422581639
 31
0.0
 11
11.7415593027
 21
9.759744287
 31
0.0
 11
11.7468735219
 21
9.7770667788
 31
0.0
 11
11.7527525331
 21
9.7942062117
 31
0.0
  0
SPLINE
  5
329
100
AcDbEntity
  8
0
100
AcDbSpline
 62
6
  6
CONTINUOUS
 70
0
 71
3
 72
14
 73
10
 74
8
 42
0.0000001
 43
0.0000001
 44
0.0000000001
 12
-0.0236966856
 22
0.1408009485
 32
0.0
 13
0.0126311158
 23
0.1422212886
 33
0.0
 40
0.0
 40
0.0
 40
0.0
 40
0.0
 40
0.0623638086
 40
0.1247479696
 40
0.2495737878
 40
0.374480907
 40
0.4994661625
 40
0.7496171932
 40
1.0
 40
1.0
 40
1.0
 40
1.0
 10
11.7270744659
 20
9.5107588109
 30
0.0
 10
11.7265818607
 20
9.513685772
 30
0.0
 10
11.7256439934
 20
9.5195487753
 30
0.0
 10
11.7239590425
 20
9.5313072131
 30
0.0
 10
11.7222100824
 20
9.546061532
 30
0.0
 10
11.7206817986
 20
9.5638332638
 30
0.0
 10
11.7194020458
 20
9.5876012265
 30
0.0
 10
11.7192214286
 20
9.6173921965
 30
0.0
 10
11.7205820303
 20
9.6411937823
 30
0.0
 10
11.7216362351
 20
9.6530637041
 30
0.0
 11
11.7270744659
 21
9.5107588109
 31
0.0
 11
11.7256680523
 21
9.519551413
 31
0.0
 11
11.724404466
 21
9.52836861
 31
0.0
 11
11.7223056898
 21
9.5460673711
 31
0.0
 11
11.7207769674
 21
9.5638361058
 31
0.0
 11
11.7198169295
 21
9.5816557946
 31
0.0
 11
11.7195974295
 21
9.6173719572
 31
0.0
 11
11.7216362351
 21
9.6530637041
 31
0.0
  0
SPLINE
  5
32A
100
AcDbEntity
  8
0
100
AcDbSpline
 62
6
  6
CONTINUOUS
 70
0
 71
3
 72
13
 73
9
 74
7
 42
0.0000001
 43
0.0000001
 44
0.0000000001
 12
0.082613051
 22
0.0983655594
 32
0.0
 13
0.1029034913
 23
0.076886741
 33
0.0
 40
0.0
 40
0.0
 40
0.0
 40
0.0
 40
0.1252551751
 40
0.2504435328
 40
0.3755649039
 40
0.5006173902
 40
0.7504748268
 40
1.0
 40
1.0
 40
1.0
 40
1.0
 10
11.8507026555
 20
9.9642702251
 30
0.0
 10
11.8541518929
 20
9.9683771569
 30
0.0
 10
11.8611687365
 20
9.9764887459
 30
0.0
 10
11.8720415403
 20
9.9883399772
 30
0.0
 10
11.8832475845
 20
9.9998648257
 30
0.0
 10
11.8986120147
 20
10.014779658
 30
0.0
 10
11.9185928174
 20
10.0325691352
 30
0.0
 10
11.9353602
 20
10.0458600991
 30
0.0
 10
11.9439192038
 20
10.0522551582
 30
0.0
 11
11.8507026555
 21
9.9642702251
 31
0.0
 11
11.8612290472
 21
9.9764387181
 31
0.0
 11
11.8721000433
 21
9.9882887167
 31
0.0
 11
11.8833042708
 21
9.9998121553
 31
0.0
 11
11.8948301676
 21
10.011001154
 31
0.0
 11
11.9188007202
 21
10.0323443136
 31
0.0
 11
11.9439192038
 21
10.0522551582
 31
0.0
  0
SPLINE
  5
32B
100
AcDbEntity
  8
0
100
AcDbSpline
 62
6
  6
CONTINUOUS
 70
0
 71
3
 72
15
 73
11
 74
9
 42
0.0000001
 43
0.0000001
 44
0.0000000001
 12
-0.0967447909
 22
0.0630534561
 32
0.0
 13
-0.0615396411
 23
0.0977147147
 33
0.0
 40
0.0
 40
0.0
 40
0.0
 40
0.0
 40
0.1319802649
 40
0.2619171169
 40
0.3898500816
 40
0.5157980768
 40
0.6397623271
 40
0.7617465228
 40
0.8818079822
 40
1.0
 40
1.0
 40
1.0
 40
1.0
 10
12.2331839153
 20
9.3377653957
 30
0.0
 10
12.2289277809
 20
9.3405393329
 30
0.0
 10
12.2206283
 20
9.3462736477
 30
0.0
 10
12.208756497
 20
9.3554639648
 30
0.0
 10
12.1975729095
 20
9.3651293469
 30
0.0
 10
12.1870915572
 20
9.3752230515
 30
0.0
 10
12.1773253333
 20
9.385699188
 30
0.0
 10
12.168285645
 20
9.3965145933
 30
0.0
 10
12.1599741772
 20
9.4076221054
 30
0.0
 10
12.1548773788
 20
9.4152526606
 30
0.0
 10
12.1524528806
 20
9.4191023603
 30
0.0
 11
12.2331839153
 21
9.3377653957
 31
0.0
 11
12.2206456968
 21
9.3464301373
 31
0.0
 11
12.2087815373
 21
9.3556165009
 31
0.0
 11
12.1976051927
 21
9.365278073
 31
0.0
 11
12.1871304193
 21
9.37536844
 31
0.0
 11
12.1773709731
 21
9.3858411884
 31
0.0
 11
12.1683381033
 21
9.396650367
 31
0.0
 11
12.1600326785
 21
9.4077519384
 31
0.0
 11
12.1524528806
 21
9.4191023603
 31
0.0
  0
SPLINE
  5
32C
100
AcDbEntity
  8
0
100
AcDbSpline
 62
6
  6
CONTINUOUS
 70
0
 71
3
 72
13
 73
9
 74
7
 42
0.0000001
 43
0.0000001
 44
0.0000000001
 12
-0.059048466
 22
0.022330887
 32
0.0
 13
-0.0528885568
 23
0.034470138
 33
0.0
 40
0.0
 40
0.0
 40
0.0
 40
0.0
 40
0.2558049293
 40
0.5077321358
 40
0.6322555308
 40
0.7558091522
 40
0.8783897371
 40
1.0
 40
1.0
 40
1.0
 40
1.0
 10
12.2894135608
 20
9.30932667
 30
0.0
 10
12.2843785979
 20
9.311230787
 30
0.0
 10
12.2744839766
 20
9.3152779087
 30
0.0
 10
12.2624521598
 20
9.3209726656
 30
0.0
 10
12.2531314267
 20
9.3258567268
 30
0.0
 10
12.2463220769
 20
9.3296628085
 30
0.0
 10
12.239671205
 20
9.3336207286
 30
0.0
 10
12.2353278457
 20
9.3363680881
 30
0.0
 10
12.2331839153
 20
9.3377653957
 30
0.0
 11
12.2894135608
 21
9.30932667
 31
0.0
 11
12.2744674201
 21
9.3154423461
 31
0.0
 11
12.2600931959
 21
9.3222484965
 31
0.0
 11
12.2531302447
 21
9.3258974782
 31
0.0
 11
12.2463219032
 21
9.3297034529
 31
0.0
 11
12.2396720449
 21
9.3336612114
 31
0.0
 11
12.2331839153
 21
9.3377653957
 31
0.0
  0
SPLINE
  5
32D
100
AcDbEntity
  8
0
100
AcDbSpline
 62
6
  6
CONTINUOUS
 70
0
 71
3
 72
13
 73
9
 74
7
 42
0.0000001
 43
0.0000001
 44
0.0000000001
 12
0.077023598
 22
-0.0804303577
 32
0.0
 13
0.0500755337
 23
-0.0994691812
 33
0.0
 40
0.0
 40
0.0
 40
0.0
 40
0.0
 40
0.2538007189
 40
0.5050722092
 40
0.6297685244
 40
0.7538209126
 40
0.8772300022
 40
1.0
 40
1.0
 40
1.0
 40
1.0
 10
12.5385344358
 20
9.9575290096
 30
0.0
 10
12.5450506506
 20
9.9507245821
 30
0.0
 10
12.5575358297
 20
9.9367122599
 30
0.0
 10
12.571788426
 20
9.9181541579
 30
0.0
 10
12.5822600503
 20
9.9028244451
 30
0.0
 10
12.5896225386
 20
9.8911309376
 30
0.0
 10
12.596501979
 20
9.8792297519
 30
0.0
 10
12.6007704468
 20
9.8711464561
 30
0.0
 10
12.6028197045
 20
9.8670758457
 30
0.0
 11
12.5385344358
 21
9.9575290096
 31
0.0
 11
12.5573320426
 21
9.936422101
 31
0.0
 11
12.5743693578
 21
9.9142243745
 31
0.0
 11
12.5822010772
 21
9.9027570309
 31
0.0
 11
12.5895605291
 21
9.8910656745
 31
0.0
 11
12.5964369821
 21
9.8791665359
 31
0.0
 11
12.6028197045
 21
9.8670758457
 31
0.0
  0
SPLINE
  5
32E
100
AcDbEntity
  8
0
100
AcDbSpline
 62
6
  6
CONTINUOUS
 70
0
 71
3
 72
13
 73
9
 74
7
 42
0.0000001
 43
0.0000001
 44
0.0000000001
 12
0.0813804233
 22
-0.0516577
 32
0.0
 13
0.0666686452
 23
-0.0696174046
 33
0.0
 40
0.0
 40
0.0
 40
0.0
 40
0.0
 40
0.1267518663
 40
0.2529974356
 40
0.3787432714
 40
0.5039935634
 40
0.7529859347
 40
1.0
 40
1.0
 40
1.0
 40
1.0
 10
12.4641139276
 20
10.018435941
 30
0.0
 10
12.4675523012
 20
10.0162533711
 30
0.0
 10
12.4743496101
 20
10.0117924173
 30
0.0
 10
12.4843176386
 20
10.0048088519
 30
0.0
 10
12.4940314653
 20
9.9975558578
 30
0.0
 10
12.5066098093
 20
9.9875593145
 30
0.0
 10
12.5216710286
 20
9.9744401972
 30
0.0
 10
12.5330450714
 20
9.963261169
 30
0.0
 10
12.5385344357
 20
9.9575290097
 30
0.0
 11
12.4641139276
 21
10.018435941
 31
0.0
 11
12.4743283872
 21
10.0117322829
 31
0.0
 11
12.4842947975
 21
10.0047498232
 31
0.0
 11
12.4940069095
 21
9.9974980014
 31
0.0
 11
12.5034584785
 21
9.9899862616
 31
0.0
 11
12.5215550099
 21
9.9742208055
 31
0.0
 11
12.5385344357
 21
9.9575290097
 31
0.0
  0
SPLINE
  5
32F
100
AcDbEntity
  8
0
100
AcDbSpline
 62
6
  6
CONTINUOUS
 70
0
 71
3
 72
9
 73
5
 74
3
 42
0.0000001
 43
0.0000001
 44
0.0000000001
 12
0.0944297337
 22
-0.0322304545
 32
0.0
 13
0.0842402181
 23
-0.0534730068
 33
0.0
 40
0.0
 40
0.0
 40
0.0
 40
0.0
 40
0.5038687617
 40
1.0
 40
1.0
 40
1.0
 40
1.0
 10
12.3742390181
 20
10.061372798
 30
0.0
 10
12.3900990824
 20
10.0559594916
 30
0.0
 10
12.4209845028
 20
10.043393422
 30
0.0
 10
12.4501825269
 20
10.0272791504
 30
0.0
 10
12.4641139282
 20
10.0184359407
 30
0.0
 11
12.3742390181
 21
10.061372798
 31
0.0
 11
12.420795077
 21
10.042395361
 31
0.0
 11
12.4641139282
 21
10.0184359407
 31
0.0
  0
SPLINE
  5
330
100
AcDbEntity
  8
0
100
AcDbSpline
 62
6
  6
CONTINUOUS
 70
0
 71
3
 72
13
 73
9
 74
7
 42
0.0000001
 43
0.0000001
 44
0.0000000001
 12
0.1128248197
 22
0.0155443331
 32
0.0
 13
0.1131979871
 23
-0.0125412101
 33
0.0
 40
0.0
 40
0.0
 40
0.0
 40
0.0
 40
0.2525796105
 40
0.5034671815
 40
0.6282721686
 40
0.7526325218
 40
0.8765429909
 40
1.0
 40
1.0
 40
1.0
 40
1.0
 10
12.1666542643
 20
10.0806437145
 30
0.0
 10
12.1761533473
 20
10.0819524417
 30
0.0
 10
12.1951716228
 20
10.0839886238
 30
0.0
 10
12.2190137928
 20
10.0850773931
 30
0.0
 10
12.2380001436
 20
10.0850651866
 30
0.0
 10
12.2521587258
 20
10.0846168953
 30
0.0
 10
12.2662450979
 20
10.083729791
 30
0.0
 10
12.2755960629
 20
10.082844211
 30
0.0
 10
12.2802544246
 20
10.0823281109
 30
0.0
 11
12.1666542643
 21
10.0806437145
 31
0.0
 11
12.1952576106
 21
10.0837025846
 31
0.0
 11
12.2238018073
 21
10.0850014546
 31
0.0
 11
12.2380159173
 21
10.0849915846
 31
0.0
 11
12.2521722713
 21
10.0845425486
 31
0.0
 11
12.2662565464
 21
10.0836546246
 31
0.0
 11
12.2802544246
 21
10.0823281109
 31
0.0
  0
SPLINE
  5
331
100
AcDbEntity
  8
0
100
AcDbSpline
 62
6
  6
CONTINUOUS
 70
0
 71
3
 72
15
 73
11
 74
9
 42
0.0000001
 43
0.0000001
 44
0.0000000001
 12
0.1336063375
 22
0.1199980501
 32
0.0
 13
0.1673000683
 23
0.0652753599
 33
0.0
 40
0.0
 40
0.0
 40
0.0
 40
0.0
 40
0.1266777435
 40
0.2528997373
 40
0.3786587809
 40
0.5039426549
 40
0.6287357778
 40
0.7530208908
 40
0.8767807744
 40
1.0
 40
1.0
 40
1.0
 40
1.0
 10
11.9060219106
 20
9.958503153
 30
0.0
 10
11.9116635604
 20
9.9635701804
 30
0.0
 10
11.9231564522
 20
9.9734333563
 30
0.0
 10
11.9410087609
 20
9.9874123473
 30
0.0
 10
11.9594007744
 20
10.0005307426
 30
0.0
 10
11.978288161
 20
10.01276842
 30
0.0
 10
11.9976271277
 20
10.0241057324
 30
0.0
 10
12.0173739454
 20
10.0345229522
 30
0.0
 10
12.0374842111
 20
10.0440000814
 30
0.0
 10
12.0511358833
 20
10.0496914302
 30
0.0
 10
12.0580074115
 20
10.05237249
 30
0.0
 11
11.9060219106
 21
9.958503153
 31
0.0
 11
11.9232851418
 21
9.973318944
 31
0.0
 11
11.9411320514
 21
9.9872938322
 31
0.0
 11
11.9595186513
 21
10.0004079657
 31
0.0
 11
11.9784009531
 21
10.0126414923
 31
0.0
 11
11.9977349684
 21
10.0239745601
 31
0.0
 11
12.0174767088
 21
10.034387317
 31
0.0
 11
12.0375821859
 21
10.043859911
 31
0.0
 11
12.0580074115
 21
10.05237249
 31
0.0
  0
SPLINE
  5
332
100
AcDbEntity
  8
0
100
AcDbSpline
 62
6
  6
CONTINUOUS
 70
0
 71
3
 72
13
 73
9
 74
7
 42
0.0000001
 43
0.0000001
 44
0.0000000001
 12
0.0753824635
 22
0.117979455
 32
0.0
 13
0.1041615565
 23
0.0935523262
 33
0.0
 40
0.0
 40
0.0
 40
0.0
 40
0.0
 40
0.2518750538
 40
0.5025353005
 40
0.6274029126
 40
0.7519395178
 40
0.8761393146
 40
1.0
 40
1.0
 40
1.0
 40
1.0
 10
11.8158390286
 20
9.851946495
 30
0.0
 10
11.822168016
 20
9.8618518556
 30
0.0
 10
11.8354553769
 20
9.8812015288
 30
0.0
 10
11.8536181857
 20
9.9041966386
 30
0.0
 10
11.8689937367
 20
9.9217579852
 30
0.0
 10
11.8809200099
 20
9.9344814865
 30
0.0
 10
11.8932409222
 20
9.9467562995
 30
0.0
 10
11.9017214034
 20
9.9546406679
 30
0.0
 10
11.9060219106
 20
9.958503153
 30
0.0
 11
11.8158390286
 21
9.851946495
 31
0.0
 11
11.8358041805
 21
9.8810143973
 31
0.0
 11
11.8575605998
 21
9.9085505909
 31
0.0
 11
11.869077377
 21
9.9217032137
 31
0.0
 11
11.8810021819
 21
9.9344236093
 31
0.0
 11
11.8933217514
 21
9.9466953446
 31
0.0
 11
11.9060219106
 21
9.958503153
 31
0.0
  0
SPLINE
  5
333
100
AcDbEntity
  8
0
100
AcDbSpline
 62
6
  6
CONTINUOUS
 70
0
 71
3
 72
13
 73
9
 74
7
 42
0.0000001
 43
0.0000001
 44
0.0000000001
 12
0.0415573382
 22
0.1265579921
 32
0.0
 13
0.0717214099
 23
0.1122496195
 33
0.0
 40
0.0
 40
0.0
 40
0.0
 40
0.0
 40
0.1258317489
 40
0.2514278188
 40
0.3767915079
 40
0.5019232952
 40
0.7514503912
 40
1.0
 40
1.0
 40
1.0
 40
1.0
 10
11.7588560279
 20
9.7319153995
 30
0.0
 10
11.7605991054
 20
9.7372237373
 30
0.0
 10
11.7642515665
 20
9.7477756618
 30
0.0
 10
11.7702259023
 20
9.7634057656
 30
0.0
 10
11.7766796928
 20
9.7788106783
 30
0.0
 10
11.7858999978
 20
9.7990110537
 30
0.0
 10
11.7985671438
 20
9.8236343646
 30
0.0
 10
11.8098969192
 20
9.8426466287
 30
0.0
 10
11.8158390286
 20
9.8519464951
 30
0.0
 11
11.7588560279
 21
9.7319153995
 31
0.0
 11
11.7643386797
 21
9.747754953
 31
0.0
 11
11.770311573
 21
9.7633826218
 31
0.0
 11
11.7767639554
 21
9.7787849416
 31
0.0
 11
11.7836849934
 21
9.7939484892
 31
0.0
 11
11.7988897015
 21
9.8235055753
 31
0.0
 11
11.8158390286
 21
9.8519464951
 31
0.0
  0
SPLINE
  5
334
100
AcDbEntity
  8
0
100
AcDbSpline
 62
6
  6
CONTINUOUS
 70
0
 71
3
 72
13
 73
9
 74
7
 42
0.0000001
 43
0.0000001
 44
0.0000000001
 12
-0.040721221
 22
0.1198501692
 32
0.0
 13
-0.0124438838
 23
0.1259659901
 33
0.0
 40
0.0
 40
0.0
 40
0.0
 40
0.0
 40
0.2506940911
 40
0.500947321
 40
0.6259054252
 40
0.7507358081
 40
0.8754347367
 40
1.0
 40
1.0
 40
1.0
 40
1.0
 10
11.761372051
 20
9.3855565122
 30
0.0
 10
11.7579691945
 20
9.3955717552
 30
0.0
 10
11.7517342181
 20
9.4157813451
 30
0.0
 10
11.7453891878
 20
9.4414319477
 30
0.0
 10
11.7412043823
 20
9.4621135457
 30
0.0
 10
11.7385158452
 20
9.4776862271
 30
0.0
 10
11.7362799212
 20
9.4933133417
 30
0.0
 10
11.735093027
 20
9.5037651483
 30
0.0
 10
11.7345763351
 20
9.5089954772
 30
0.0
 11
11.761372051
 21
9.3855565122
 31
0.0
 11
11.7520184131
 21
9.4158792791
 31
0.0
 11
11.7444141984
 21
9.446629859
 31
0.0
 11
11.7412776807
 21
9.462132846
 31
0.0
 11
11.7385899859
 21
9.477703507
 31
0.0
 11
11.7363549365
 21
9.4933287489
 31
0.0
 11
11.7345763351
 21
9.5089954772
 31
0.0
  0
SPLINE
  5
335
100
AcDbEntity
  8
0
100
AcDbSpline
 62
6
  6
CONTINUOUS
 70
0
 71
3
 72
15
 73
11
 74
9
 42
0.0000001
 43
0.0000001
 44
0.0000000001
 12
-0.1557097617
 22
0.1210858988
 32
0.0
 13
-0.1044518808
 23
0.1673234275
 33
0.0
 40
0.0
 40
0.0
 40
0.0
 40
0.0
 40
0.1251149854
 40
0.2502256293
 40
0.3753202183
 40
0.500383753
 40
0.6253995128
 40
0.7503506204
 40
0.8752216099
 40
1.0
 40
1.0
 40
1.0
 40
1.0
 10
11.9477174331
 20
9.1240046945
 30
0.0
 10
11.9412235582
 20
9.1290545813
 30
0.0
 10
11.9284588129
 20
9.1394444131
 30
0.0
 10
11.9100202185
 20
9.155856516
 30
0.0
 10
11.8923214284
 20
9.1730595967
 30
0.0
 10
11.8753961478
 20
9.1910154362
 30
0.0
 10
11.8592774882
 20
9.209686285
 30
0.0
 10
11.8439986371
 20
9.229034464
 30
0.0
 10
11.8295931888
 20
9.2490216547
 30
0.0
 10
11.8205896432
 20
9.2627540176
 30
0.0
 10
11.8162451974
 20
9.2697134669
 30
0.0
 11
11.9477174331
 21
9.1240046945
 31
0.0
 11
11.9285765335
 21
9.1395826235
 31
0.0
 11
11.9101423378
 21
9.1559894534
 31
0.0
 11
11.8924481897
 21
9.1731872577
 31
0.0
 11
11.875527433
 21
9.1911381098
 31
0.0
 11
11.8594134116
 21
9.2098040833
 31
0.0
 11
11.8441394693
 21
9.2291472516
 31
0.0
 11
11.82973895
 21
9.2491296883
 31
0.0
 11
11.8162451974
 21
9.2697134669
 31
0.0
  0
SPLINE
  5
336
100
AcDbEntity
  8
0
100
AcDbSpline
 62
6
  6
CONTINUOUS
 70
0
 71
3
 72
13
 73
9
 74
7
 42
0.0000001
 43
0.0000001
 44
0.0000000001
 12
-0.1333231858
 22
0.0567992397
 32
0.0
 13
-0.1143990648
 23
0.0889611122
 33
0.0
 40
0.0
 40
0.0
 40
0.0
 40
0.0
 40
0.2498944186
 40
0.4998800744
 40
0.6249051165
 40
0.7499344339
 40
0.8749659522
 40
1.0
 40
1.0
 40
1.0
 40
1.0
 10
12.0723364698
 20
9.0507959029
 30
0.0
 10
12.0612308964
 20
9.0555271739
 30
0.0
 10
12.0393115946
 20
9.0657028381
 30
0.0
 10
12.0127804858
 20
9.0801471228
 30
0.0
 10
11.9921449106
 20
9.0927092209
 30
0.0
 10
11.9769784592
 20
9.102628619
 30
0.0
 10
11.962143
 20
9.1130367797
 30
0.0
 10
11.9524853591
 20
9.1202969718
 30
0.0
 10
11.9477174331
 20
9.1240046945
 30
0.0
 11
12.0723364698
 21
9.0507959029
 31
0.0
 11
12.0394896026
 21
9.0660455416
 31
0.0
 11
12.0076731642
 21
9.0833700969
 31
0.0
 11
11.9921971739
 21
9.0927918466
 31
0.0
 11
11.9770337728
 21
9.1027099793
 31
0.0
 11
11.962201288
 21
9.1131170465
 31
0.0
 11
11.9477174331
 21
9.1240046945
 31
0.0
  0
SPLINE
  5
337
100
AcDbEntity
  8
0
100
AcDbSpline
 62
6
  6
CONTINUOUS
 70
0
 71
3
 72
14
 73
10
 74
8
 42
0.0000001
 43
0.0000001
 44
0.0000000001
 12
-0.1412323381
 22
0.0209729987
 32
0.0
 13
-0.1313572538
 23
0.0559617001
 33
0.0
 40
0.0
 40
0.0
 40
0.0
 40
0.0
 40
0.0623638086
 40
0.1247479696
 40
0.2495737878
 40
0.374480907
 40
0.4994661625
 40
0.7496171932
 40
1.0
 40
1.0
 40
1.0
 40
1.0
 10
12.2093569715
 20
9.0119933374
 30
0.0
 10
12.2064210427
 20
9.0124293228
 30
0.0
 10
12.2005551783
 20
9.0133491257
 30
0.0
 10
12.1888515609
 20
9.0153801992
 30
0.0
 10
12.1742789114
 20
9.0182761746
 30
0.0
 10
12.1569047244
 20
9.0223144575
 30
0.0
 10
12.1339045832
 20
9.0284420446
 30
0.0
 10
12.1055158733
 20
9.0374761835
 30
0.0
 10
12.0832996691
 20
9.0461252871
 30
0.0
 10
12.0723364698
 20
9.0507959029
 30
0.0
 11
12.2093569715
 21
9.0119933374
 31
0.0
 11
12.2005601042
 21
9.0133728221
 31
0.0
 11
12.191783982
 21
9.0148957439
 31
0.0
 11
12.1743029024
 21
9.018368907
 31
0.0
 11
12.1569314303
 21
9.0224058466
 31
0.0
 11
12.1396872311
 21
9.0269993829
 31
0.0
 11
12.1056513127
 21
9.0378275273
 31
0.0
 11
12.0723364698
 21
9.0507959029
 31
0.0
  0
SPLINE
  5
338
100
AcDbEntity
  8
0
100
AcDbSpline
 62
6
  6
CONTINUOUS
 70
0
 71
3
 72
13
 73
9
 74
7
 42
0.0000001
 43
0.0000001
 44
0.0000000001
 12
-0.0680223696
 22
0.10896631
 32
0.0
 13
-0.0413247084
 23
0.1216263456
 33
0.0
 40
0.0
 40
0.0
 40
0.0
 40
0.0
 40
0.1252551751
 40
0.2504435328
 40
0.3755649039
 40
0.5006173902
 40
0.7504748268
 40
1.0
 40
1.0
 40
1.0
 40
1.0
 10
11.8162451974
 20
9.2697134669
 30
0.0
 10
11.8134051461
 20
9.2742629983
 30
0.0
 10
11.8078588905
 20
9.283443032
 30
0.0
 10
11.7999475809
 20
9.2974459147
 30
0.0
 10
11.7924496567
 20
9.3116648702
 30
0.0
 10
11.7830126783
 20
9.3308862483
 30
0.0
 10
11.7722682876
 20
9.3553863717
 30
0.0
 10
11.764809236
 20
9.3754402339
 30
0.0
 10
11.761372051
 20
9.3855565122
 30
0.0
 11
11.8162451974
 21
9.2697134669
 31
0.0
 11
11.8079251067
 21
9.2834849315
 31
0.0
 11
11.8000144109
 21
9.2974857141
 31
0.0
 11
11.7925172663
 21
9.311702506
 31
0.0
 11
11.7854375941
 21
9.326121876
 31
0.0
 11
11.7725463512
 21
9.3555146253
 31
0.0
 11
11.761372051
 21
9.3855565122
 31
0.0
  0
SPLINE
  5
339
100
AcDbEntity
  8
0
100
AcDbSpline
 62
6
  6
CONTINUOUS
 70
0
 71
3
 72
15
 73
11
 74
9
 42
0.0000001
 43
0.0000001
 44
0.0000000001
 12
-0.0898631848
 22
-0.0725251743
 32
0.0
 13
-0.1119490111
 23
-0.0283321692
 33
0.0
 40
0.0
 40
0.0
 40
0.0
 40
0.0
 40
0.1319802649
 40
0.2619171169
 40
0.3898500816
 40
0.5157980768
 40
0.6397623271
 40
0.7617465228
 40
0.8818079822
 40
1.0
 40
1.0
 40
1.0
 40
1.0
 10
12.5302799072
 20
9.439874122
 30
0.0
 10
12.5263265183
 20
9.4366834915
 30
0.0
 10
12.5183081802
 20
9.4305622167
 30
0.0
 10
12.5058990803
 20
9.4221114253
 30
0.0
 10
12.4932508371
 20
9.4144619688
 30
0.0
 10
12.4804122376
 20
9.4076127368
 30
0.0
 10
12.4674309105
 20
9.4015618101
 30
0.0
 10
12.4543514316
 20
9.3963066997
 30
0.0
 10
12.441219175
 20
9.3918344341
 30
0.0
 10
12.4323870885
 20
9.3893450619
 30
0.0
 10
12.4279765953
 20
9.3882288498
 30
0.0
 11
12.5302799072
 21
9.439874122
 31
0.0
 11
12.5181647256
 21
9.4306271201
 31
0.0
 11
12.5057617478
 21
9.4221823763
 31
0.0
 11
12.4931193663
 21
9.414538631
 31
0.0
 11
12.480285974
 21
9.4076946243
 31
0.0
 11
12.4673099636
 21
9.4016490967
 31
0.0
 11
12.4542385136
 21
9.3963985469
 31
0.0
 11
12.4411137744
 21
9.3919301927
 31
0.0
 11
12.4279765953
 21
9.3882288498
 31
0.0
  0
SPLINE
  5
33A
100
AcDbEntity
  8
0
100
AcDbSpline
 62
6
  6
CONTINUOUS
 70
0
 71
3
 72
13
 73
9
 74
7
 42
0.0000001
 43
0.0000001
 44
0.0000000001
 12
-0.0394849151
 22
-0.0492578048
 32
0.0
 13
-0.0491265122
 23
-0.0396481481
 33
0.0
 40
0.0
 40
0.0
 40
0.0
 40
0.0
 40
0.2558049293
 40
0.5077321358
 40
0.6322555308
 40
0.7558091522
 40
0.8783897371
 40
1.0
 40
1.0
 40
1.0
 40
1.0
 10
12.5747026586
 20
9.4845636432
 30
0.0
 10
12.5713358466
 20
9.4803635135
 30
0.0
 10
12.5644291991
 20
9.4722037988
 30
0.0
 10
12.5552951275
 20
9.4625206378
 30
0.0
 10
12.5477698444
 20
9.4551653517
 30
0.0
 10
12.5420458408
 20
9.4498654191
 30
0.0
 10
12.5362264026
 20
9.4447631286
 30
0.0
 10
12.5322713366
 20
9.4414813293
 30
0.0
 10
12.5302799072
 20
9.439874122
 30
0.0
 11
12.5747026586
 21
9.4845636432
 31
0.0
 11
12.5642676935
 21
9.4722388666
 31
0.0
 11
12.5533527804
 21
9.4606713832
 31
0.0
 11
12.5477307222
 21
9.4551768204
 31
0.0
 11
12.5420071319
 21
9.4498778137
 31
0.0
 11
12.5361881607
 21
9.4447764373
 31
0.0
 11
12.5302799072
 21
9.439874122
 31
0.0
  0
SPLINE
  5
33B
100
AcDbEntity
  8
0
100
AcDbSpline
 62
6
  6
CONTINUOUS
 70
0
 71
3
 72
13
 73
9
 74
7
 42
0.0000001
 43
0.0000001
 44
0.0000000001
 12
0.1002954166
 22
0.0483994474
 32
0.0
 13
0.1100750039
 23
0.0168869952
 33
0.0
 40
0.0
 40
0.0
 40
0.0
 40
0.0
 40
0.2538007189
 40
0.5050722092
 40
0.6297685244
 40
0.7538209126
 40
0.8772300022
 40
1.0
 40
1.0
 40
1.0
 40
1.0
 10
12.0352081837
 20
9.9217972135
 30
0.0
 10
12.0436932
 20
9.9258918183
 30
0.0
 10
12.0608778428
 20
9.9334358836
 30
0.0
 10
12.0829319411
 20
9.9412561393
 30
0.0
 10
12.1007472742
 20
9.9464781041
 30
0.0
 10
12.1141435948
 20
9.9498667539
 30
0.0
 10
12.127588159
 20
9.9527318219
 30
0.0
 10
12.1365948592
 20
9.9542935003
 30
0.0
 10
12.1410994952
 20
9.9549845724
 30
0.0
 11
12.0352081837
 21
9.9217972135
 31
0.0
 11
12.0610908266
 21
9.9331524065
 31
0.0
 11
12.087466939
 21
9.9424963814
 31
0.0
 11
12.1007931653
 21
9.9464011851
 31
0.0
 11
12.1141865017
 21
9.949787612
 31
0.0
 11
12.1276281958
 21
9.9526504714
 31
0.0
 11
12.1410994952
 21
9.9549845724
 31
0.0
  0
SPLINE
  5
33C
100
AcDbEntity
  8
0
100
AcDbSpline
 62
6
  6
CONTINUOUS
 70
0
 71
3
 72
13
 73
9
 74
7
 42
0.0000001
 43
0.0000001
 44
0.0000000001
 12
0.0742773261
 22
0.0614342747
 32
0.0
 13
0.0868118306
 23
0.0418926884
 33
0.0
 40
0.0
 40
0.0
 40
0.0
 40
0.0
 40
0.1267518663
 40
0.2529974356
 40
0.3787432714
 40
0.5039935634
 40
0.7529859347
 40
1.0
 40
1.0
 40
1.0
 40
1.0
 10
11.9542850479
 20
9.8698403812
 30
0.0
 10
11.9574233112
 20
9.8724360175
 30
0.0
 10
11.9637664143
 20
9.877522132
 30
0.0
 10
11.9734884699
 20
9.88484425
 30
0.0
 10
11.9833882147
 20
9.8918413498
 30
0.0
 10
11.9967824144
 20
9.9007149641
 30
0.0
 10
12.0139136091
 20
9.9109850046
 30
0.0
 10
12.0280602692
 20
9.9183478524
 30
0.0
 10
12.0352081836
 20
9.9217972135
 30
0.0
 11
11.9542850479
 21
9.8698403812
 31
0.0
 11
11.9638170473
 21
9.8774833652
 31
0.0
 11
11.9735375512
 21
9.884804286
 31
0.0
 11
11.9834356513
 21
9.8918001172
 31
0.0
 11
11.9935004358
 21
9.8984678382
 31
0.0
 11
12.0140864113
 21
9.9108068685
 31
0.0
 11
12.0352081836
 21
9.9217972135
 31
0.0
  0
SPLINE
  5
33D
100
AcDbEntity
  8
0
100
AcDbSpline
 62
6
  6
CONTINUOUS
 70
0
 71
3
 72
9
 73
5
 74
3
 42
0.0000001
 43
0.0000001
 44
0.0000000001
 12
0.0598333763
 22
0.0798482554
 32
0.0
 13
0.0768875106
 23
0.0635931405
 33
0.0
 40
0.0
 40
0.0
 40
0.0
 40
0.0
 40
0.5038687617
 40
1.0
 40
1.0
 40
1.0
 40
1.0
 10
11.8856767959
 20
9.7976324813
 30
0.0
 10
11.8957261856
 20
9.8110434951
 30
0.0
 10
11.9172213478
 20
9.8365341464
 30
0.0
 10
11.9415696165
 20
9.8593235337
 30
0.0
 10
11.9542850484
 20
9.8698403816
 30
0.0
 11
11.8856767959
 21
9.7976324813
 31
0.0
 11
11.9181120245
 21
9.836045574
 31
0.0
 11
11.9542850484
 21
9.8698403816
 31
0.0
  0
SPLINE
  5
33E
100
AcDbEntity
  8
0
100
AcDbSpline
 62
6
  6
CONTINUOUS
 70
0
 71
3
 72
13
 73
9
 74
7
 42
0.0000001
 43
0.0000001
 44
0.0000000001
 12
0.0200812474
 22
0.1121062431
 32
0.0
 13
0.0469075013
 23
0.1037822362
 33
0.0
 40
0.0
 40
0.0
 40
0.0
 40
0.0
 40
0.2525796105
 40
0.5034671815
 40
0.6282721686
 40
0.7526325218
 40
0.8765429909
 40
1.0
 40
1.0
 40
1.0
 40
1.0
 10
11.8032018485
 20
9.6061626892
 30
0.0
 10
11.8048925531
 20
9.6156012729
 30
0.0
 10
11.8088329991
 20
9.6343179427
 30
0.0
 10
11.8151651537
 20
9.657329642
 30
0.0
 10
11.8210438678
 20
9.6753829627
 30
0.0
 10
11.8258454607
 20
9.6887100448
 30
0.0
 10
11.8310420754
 20
9.7018328506
 30
0.0
 10
11.8347739191
 20
9.7104524875
 30
0.0
 10
11.8367042724
 20
9.714723369
 30
0.0
 11
11.8032018485
 21
9.6061626892
 31
0.0
 11
11.8091316103
 21
9.6343113309
 31
0.0
 11
11.8167169534
 21
9.6618598481
 31
0.0
 11
11.8211187419
 21
9.6753752201
 31
0.0
 11
11.8259203545
 21
9.688699953
 31
0.0
 11
11.8311171007
 21
9.701820511
 31
0.0
 11
11.8367042724
 21
9.714723369
 31
0.0
  0
SPLINE
  5
33F
100
AcDbEntity
  8
0
100
AcDbSpline
 62
6
  6
CONTINUOUS
 70
0
 71
3
 72
15
 73
11
 74
9
 42
0.0000001
 43
0.0000001
 44
0.0000000001
 12
-0.0728382986
 22
0.1641486147
 32
0.0
 13
-0.0103819922
 23
0.1792830156
 33
0.0
 40
0.0
 40
0.0
 40
0.0
 40
0.0
 40
0.1266777435
 40
0.2528997373
 40
0.3786587809
 40
0.5039426549
 40
0.6287357778
 40
0.7530208908
 40
0.8767807744
 40
1.0
 40
1.0
 40
1.0
 40
1.0
 10
11.8388245989
 20
9.3205430817
 30
0.0
 10
11.8357489351
 20
9.327474407
 30
0.0
 10
11.8299199962
 20
9.3414526856
 30
0.0
 10
11.8221418526
 20
9.362750986
 30
0.0
 10
11.8153489619
 20
9.3842966373
 30
0.0
 10
11.8095467625
 20
9.4060412597
 30
0.0
 10
11.8047404071
 20
9.4279371322
 30
0.0
 10
11.8009351446
 20
9.4499365698
 30
0.0
 10
11.798136273
 20
9.4719911631
 30
0.0
 10
11.7969420772
 20
9.4867333983
 30
0.0
 10
11.7965156569
 20
9.4940971031
 30
0.0
 11
11.8388245989
 21
9.3205430817
 31
0.0
 11
11.8300685761
 21
9.3415397213
 31
0.0
 11
11.822292666
 21
9.362831619
 31
0.0
 11
11.8155021557
 21
9.3843708048
 31
0.0
 11
11.8097023326
 21
9.4061093086
 31
0.0
 11
11.8048984839
 21
9.4279991603
 31
0.0
 11
11.8010958969
 21
9.44999239
 31
0.0
 11
11.7982998588
 21
9.4720410276
 31
0.0
 11
11.7965156569
 21
9.4940971031
 31
0.0
  0
SPLINE
  5
340
100
AcDbEntity
  8
0
100
AcDbSpline
 62
6
  6
CONTINUOUS
 70
0
 71
3
 72
13
 73
9
 74
7
 42
0.0000001
 43
0.0000001
 44
0.0000000001
 12
-0.0889106671
 22
0.1081506397
 32
0.0
 13
-0.0567858584
 23
0.1279727857
 33
0.0
 40
0.0
 40
0.0
 40
0.0
 40
0.0
 40
0.2518750538
 40
0.5025353005
 40
0.6274029126
 40
0.7519395178
 40
0.8761393146
 40
1.0
 40
1.0
 40
1.0
 40
1.0
 10
11.9122979596
 20
9.2018462459
 30
0.0
 10
11.9048331666
 20
9.2109263953
 30
0.0
 10
11.8905365541
 20
9.2295428044
 30
0.0
 10
11.8742795216
 20
9.2539225417
 30
0.0
 10
11.8623289951
 20
9.2739723142
 30
0.0
 10
11.8539136474
 20
9.2892466523
 30
0.0
 10
11.8460469778
 20
9.304757662
 30
0.0
 10
11.8411691107
 20
9.3152594827
 30
0.0
 10
11.8388245989
 20
9.3205430817
 30
0.0
 11
11.9122979596
 21
9.2018462459
 31
0.0
 11
11.890822313
 21
9.2298167095
 31
0.0
 11
11.8713569399
 21
9.2590174456
 31
0.0
 11
11.8624069322
 21
9.2740349356
 31
0.0
 11
11.8539940844
 21
9.2893069174
 31
0.0
 11
11.846129927
 21
9.304815699
 31
0.0
 11
11.8388245989
 21
9.3205430817
 31
0.0
  0
SPLINE
  5
341
100
AcDbEntity
  8
0
100
AcDbSpline
 62
6
  6
CONTINUOUS
 70
0
 71
3
 72
13
 73
9
 74
7
 42
0.0000001
 43
0.0000001
 44
0.0000000001
 12
-0.1075218793
 22
0.0786319477
 32
0.0
 13
-0.0845925976
 23
0.1028981543
 33
0.0
 40
0.0
 40
0.0
 40
0.0
 40
0.0
 40
0.1258317489
 40
0.2514278188
 40
0.3767915079
 40
0.5019232952
 40
0.7514503912
 40
1.0
 40
1.0
 40
1.0
 40
1.0
 10
12.0088455996
 20
9.1105605433
 30
0.0
 10
12.0043357109
 20
9.1138586752
 30
0.0
 10
11.9954289069
 20
9.1205930961
 30
0.0
 10
11.9824099661
 20
9.1311049948
 30
0.0
 10
11.9697533545
 20
9.1420032942
 30
0.0
 10
11.9533908867
 20
9.1570145846
 30
0.0
 10
11.9338870898
 20
9.1766707779
 30
0.0
 10
11.9193064453
 20
9.1933211473
 30
0.0
 10
11.9122979596
 20
9.2018462459
 30
0.0
 11
12.0088455996
 21
9.1105605433
 31
0.0
 11
11.9954755216
 21
9.1206695463
 31
0.0
 11
11.9824584508
 21
9.1311793207
 31
0.0
 11
11.9698038701
 21
9.1420754796
 31
0.0
 11
11.9575211977
 21
9.1533435717
 31
0.0
 11
11.9341092516
 21
9.1769377504
 31
0.0
 11
11.9122979596
 21
9.2018462459
 31
0.0
  0
SPLINE
  5
342
100
AcDbEntity
  8
0
100
AcDbSpline
 62
6
  6
CONTINUOUS
 70
0
 71
3
 72
13
 73
9
 74
7
 42
0.0000001
 43
0.0000001
 44
0.0000000001
 12
-0.1265678338
 22
-0.0016924435
 32
0.0
 13
-0.1236461473
 23
0.0270907949
 33
0.0
 40
0.0
 40
0.0
 40
0.0
 40
0.0
 40
0.2506940911
 40
0.500947321
 40
0.6259054252
 40
0.7507358081
 40
0.8754347367
 40
1.0
 40
1.0
 40
1.0
 40
1.0
 10
12.3390299703
 20
9.0059226412
 30
0.0
 10
12.3284533676
 20
9.0057812127
 30
0.0
 10
12.3073061918
 20
9.0060965044
 30
0.0
 10
12.2809502969
 20
9.0079884942
 30
0.0
 10
12.2599877523
 20
9.0103994728
 30
0.0
 10
12.2443464485
 20
9.0126547453
 30
0.0
 10
12.2287932409
 20
9.0153572992
 30
0.0
 10
12.2184862116
 20
9.0174582816
 30
0.0
 10
12.2133522066
 20
9.0185831389
 30
0.0
 11
12.3390299703
 21
9.0059226412
 31
0.0
 11
12.3073008721
 21
9.0063970532
 31
0.0
 11
12.2757055011
 21
9.008667467
 31
0.0
 11
12.259992047
 21
9.0104751479
 31
0.0
 11
12.244352925
 21
9.0127305971
 31
0.0
 11
12.2288017687
 21
9.0154334041
 31
0.0
 11
12.2133522066
 21
9.0185831389
 31
0.0
  0
SPLINE
  5
343
100
AcDbEntity
  8
0
100
AcDbSpline
 62
6
  6
CONTINUOUS
 70
0
 71
3
 72
15
 73
11
 74
9
 42
0.0000001
 43
0.0000001
 44
0.0000000001
 12
-0.1632764956
 22
-0.110671183
 32
0.0
 13
-0.1914114423
 23
-0.0476338592
 33
0.0
 40
0.0
 40
0.0
 40
0.0
 40
0.0
 40
0.1251149854
 40
0.2502256293
 40
0.3753202183
 40
0.500383753
 40
0.6253995128
 40
0.7503506204
 40
0.8752216099
 40
1.0
 40
1.0
 40
1.0
 40
1.0
 10
12.6453644207
 20
9.1023236745
 30
0.0
 10
12.6385549752
 20
9.0977081334
 30
0.0
 10
12.6247291348
 20
9.0887787737
 30
0.0
 10
12.6034224583
 20
9.0763142472
 30
0.0
 10
12.5815921294
 20
9.0647977418
 30
0.0
 10
12.5592849119
 20
9.0542495029
 30
0.0
 10
12.5365469398
 20
9.0446893562
 30
0.0
 10
12.5134243034
 20
9.0361372215
 30
0.0
 10
12.4899638271
 20
9.0286132076
 30
0.0
 10
12.4741213253
 20
9.0242938604
 30
0.0
 10
12.4661599881
 20
9.022312635
 30
0.0
 11
12.6453644207
 21
9.1023236745
 31
0.0
 11
12.6246340665
 21
9.0889334421
 31
0.0
 11
12.6033337643
 21
9.0764714694
 31
0.0
 11
12.581509888
 21
9.0649577483
 31
0.0
 11
12.5592088117
 21
9.0544122708
 31
0.0
 11
12.5364769096
 21
9.0448550287
 31
0.0
 11
12.5133605555
 21
9.0363060141
 31
0.0
 11
12.4899061237
 21
9.0287852189
 31
0.0
 11
12.4661599881
 21
9.022312635
 31
0.0
  0
SPLINE
  5
344
100
AcDbEntity
  8
0
100
AcDbSpline
 62
6
  6
CONTINUOUS
 70
0
 71
3
 72
13
 73
9
 74
7
 42
0.0000001
 43
0.0000001
 44
0.0000000001
 12
-0.0952184172
 22
-0.1092459543
 32
0.0
 13
-0.1199583006
 23
-0.0813094805
 33
0.0
 40
0.0
 40
0.0
 40
0.0
 40
0.0
 40
0.2498944186
 40
0.4998800744
 40
0.6249051165
 40
0.7499344339
 40
0.8749659522
 40
1.0
 40
1.0
 40
1.0
 40
1.0
 10
12.7534995191
 20
9.1982206607
 30
0.0
 10
12.7455680021
 20
9.189120676
 30
0.0
 10
12.7291169336
 20
9.1714186343
 30
0.0
 10
12.707181039
 20
9.1506495798
 30
0.0
 10
12.6888570303
 20
9.1349058834
 30
0.0
 10
12.6747364309
 20
9.1235469936
 30
0.0
 10
12.6602532728
 20
9.1126539319
 30
0.0
 10
12.6503640446
 20
9.1057124924
 30
0.0
 10
12.6453644207
 20
9.1023236745
 30
0.0
 11
12.7534995191
 21
9.1982206607
 31
0.0
 11
12.7288460108
 21
9.1716938312
 31
0.0
 11
12.7025375593
 21
9.146788182
 31
0.0
 11
12.6887945989
 21
9.1349811215
 31
0.0
 11
12.6746761455
 21
9.1236247416
 31
0.0
 11
12.6601949466
 21
9.1127341709
 31
0.0
 11
12.6453644207
 21
9.1023236745
 31
0.0
  0
SPLINE
  5
345
100
AcDbEntity
  8
0
100
AcDbSpline
 62
6
  6
CONTINUOUS
 70
0
 71
3
 72
14
 73
10
 74
8
 42
0.0000001
 43
0.0000001
 44
0.0000000001
 12
-0.0635896997
 22
-0.1278389225
 32
0.0
 13
-0.0938143633
 23
-0.1076350558
 33
0.0
 40
0.0
 40
0.0
 40
0.0
 40
0.0
 40
0.0623638086
 40
0.1247479696
 40
0.2495737878
 40
0.374480907
 40
0.4994661625
 40
0.7496171932
 40
1.0
 40
1.0
 40
1.0
 40
1.0
 10
12.8327446155
 20
9.3165442496
 30
0.0
 10
12.8314227169
 20
9.3138867423
 30
0.0
 10
12.8287352806
 20
9.3085922084
 30
0.0
 10
12.8231869982
 20
9.298089043
 30
0.0
 10
12.8159295656
 20
9.2851245354
 30
0.0
 10
12.8067200112
 20
9.2698485997
 30
0.0
 10
12.7937848951
 20
9.2498676941
 30
0.0
 10
12.7764203247
 20
9.225660129
 30
0.0
 10
12.7613293536
 20
9.2072039832
 30
0.0
 10
12.7534995191
 20
9.1982206607
 30
0.0
 11
12.8327446155
 21
9.3165442496
 31
0.0
 11
12.8287142661
 21
9.3086042159
 31
0.0
 11
12.8245539106
 21
9.3007282363
 31
0.0
 11
12.8158487854
 21
9.2851760081
 31
0.0
 11
12.8066413476
 21
9.2699022393
 31
0.0
 11
12.7969438844
 21
9.2549215121
 31
0.0
 11
12.7761280298
 21
9.2258975107
 31
0.0
 11
12.7534995191
 21
9.1982206607
 31
0.0
  0
SPLINE
  5
346
100
AcDbEntity
  8
0
100
AcDbSpline
 62
6
  6
CONTINUOUS
 70
0
 71
3
 72
13
 73
9
 74
7
 42
0.0000001
 43
0.0000001
 44
0.0000000001
 12
-0.1246531874
 22
-0.0310206762
 32
0.0
 13
-0.1284435657
 23
-0.0017175255
 33
0.0
 40
0.0
 40
0.0
 40
0.0
 40
0.0
 40
0.1252551751
 40
0.2504435328
 40
0.3755649039
 40
0.5006173902
 40
0.7504748268
 40
1.0
 40
1.0
 40
1.0
 40
1.0
 10
12.4661599881
 20
9.022312635
 30
0.0
 10
12.4609555025
 20
9.0210174683
 30
0.0
 10
12.4505108844
 20
9.0185794521
 30
0.0
 10
12.4347486224
 20
9.0153824783
 30
0.0
 10
12.4189086061
 20
9.0126454275
 30
0.0
 10
12.3977118025
 20
9.0096100603
 30
0.0
 10
12.3710906013
 20
9.0069624919
 30
0.0
 10
12.3497132712
 20
9.0060654965
 30
0.0
 10
12.3390299702
 20
9.0059226412
 30
0.0
 11
12.4661599881
 21
9.022312635
 31
0.0
 11
12.4504914976
 21
9.0186553751
 31
0.0
 11
12.4347314225
 21
9.0154583361
 31
0.0
 11
12.4188937049
 21
9.0127213582
 31
0.0
 11
12.40299233
 21
9.0104440202
 31
0.0
 11
12.3710545512
 21
9.0072665787
 31
0.0
 11
12.3390299702
 21
9.0059226412
 31
0.0
  0
SPLINE
  5
347
100
AcDbEntity
  8
0
100
AcDbSpline
 62
6
  6
CONTINUOUS
 70
0
 71
3
 72
15
 73
11
 74
9
 42
0.0000001
 43
0.0000001
 44
0.0000000001
 12
0.0412062884
 22
-0.1078764789
 32
0.0
 13
-0.0076486528
 23
-0.1152249583
 33
0.0
 40
0.0
 40
0.0
 40
0.0
 40
0.0
 40
0.1319802649
 40
0.2619171169
 40
0.3898500816
 40
0.5157980768
 40
0.6397623271
 40
0.7617465228
 40
0.8818079822
 40
1.0
 40
1.0
 40
1.0
 40
1.0
 10
12.5249764481
 20
9.7539825329
 30
0.0
 10
12.5267892537
 20
9.7492366774
 30
0.0
 10
12.5301331292
 20
9.7397192069
 30
0.0
 10
12.5343356867
 20
9.7253060134
 30
0.0
 10
12.5377022301
 20
9.7109130073
 30
0.0
 10
12.5402488914
 20
9.6965862444
 30
0.0
 10
12.541992214
 20
9.6823704295
 30
0.0
 10
12.5429483397
 20
9.6683071874
 30
0.0
 10
12.5431436266
 20
9.6544356631
 30
0.0
 10
12.5427818954
 20
9.6452665914
 30
0.0
 10
12.5424805588
 20
9.6407270346
 30
0.0
 11
12.5249764481
 21
9.7539825329
 31
0.0
 11
12.5300270726
 21
9.7396028297
 31
0.0
 11
12.5342257703
 21
9.7251973274
 31
0.0
 11
12.5375886933
 21
9.710811661
 31
0.0
 11
12.5401319941
 21
9.6964914652
 31
0.0
 11
12.5418718249
 21
9.6822823752
 31
0.0
 11
12.5428260943
 21
9.6682281784
 31
0.0
 11
12.5430199842
 21
9.6543650123
 31
0.0
 11
12.5424805588
 21
9.6407270346
 31
0.0
  0
SPLINE
  5
348
100
AcDbEntity
  8
0
100
AcDbSpline
 62
6
  6
CONTINUOUS
 70
0
 71
3
 72
13
 73
9
 74
7
 42
0.0000001
 43
0.0000001
 44
0.0000000001
 12
0.0346454464
 22
-0.0527738845
 32
0.0
 13
0.0225267025
 23
-0.0589740411
 33
0.0
 40
0.0
 40
0.0
 40
0.0
 40
0.0
 40
0.2558049293
 40
0.5077321358
 40
0.6322555308
 40
0.7558091522
 40
0.8783897371
 40
1.0
 40
1.0
 40
1.0
 40
1.0
 10
12.4962015729
 20
9.8100409015
 30
0.0
 10
12.4991557315
 20
9.8055409616
 30
0.0
 10
12.5047818099
 20
9.796450859
 30
0.0
 10
12.5111684599
 20
9.7847715793
 30
0.0
 10
12.5158383123
 20
9.7753417014
 30
0.0
 10
12.5191100334
 20
9.7682600812
 30
0.0
 10
12.5221642947
 20
9.7611487722
 30
0.0
 10
12.5240632887
 20
9.7563731491
 30
0.0
 10
12.5249764481
 20
9.7539825329
 30
0.0
 11
12.4962015729
 21
9.8100409015
 31
0.0
 11
12.5046985505
 21
9.7963080946
 31
0.0
 11
12.5123269873
 21
9.7823528463
 31
0.0
 11
12.5158153155
 21
9.775308038
 31
0.0
 11
12.5190862837
 21
9.768227097
 31
0.0
 11
12.52213982
 21
9.7611165146
 31
0.0
 11
12.5249764481
 21
9.7539825329
 31
0.0
  0
SPLINE
  5
349
100
AcDbEntity
  8
0
100
AcDbSpline
 62
6
  6
CONTINUOUS
 70
0
 71
3
 72
13
 73
9
 74
7
 42
0.0000001
 43
0.0000001
 44
0.0000000001
 12
-0.0150376216
 22
0.1103428612
 32
0.0
 13
0.01795456
 23
0.1099059182
 33
0.0
 40
0.0
 40
0.0
 40
0.0
 40
0.0
 40
0.2538007189
 40
0.5050722092
 40
0.6297685244
 40
0.7538209126
 40
0.8772300022
 40
1.0
 40
1.0
 40
1.0
 40
1.0
 10
11.9136547756
 20
9.4320637694
 30
0.0
 10
11.9123825892
 20
9.4413988019
 30
0.0
 10
11.9105181035
 20
9.4600736128
 30
0.0
 10
11.9098956896
 20
9.4834648986
 30
0.0
 10
11.9104345466
 20
9.5020219631
 30
0.0
 10
11.9113514398
 20
9.5158097715
 30
0.0
 10
11.912781197
 20
9.5294816666
 30
0.0
 10
11.914079176
 20
9.5385301326
 30
0.0
 10
11.9148139365
 20
9.5430278491
 30
0.0
 11
11.9136547756
 21
9.4320637694
 31
0.0
 11
11.9108535218
 21
9.4601885732
 31
0.0
 11
11.9101175406
 21
9.4881611938
 31
0.0
 11
11.910521882
 21
9.5020418388
 31
0.0
 11
11.9114399671
 21
9.5158261222
 31
0.0
 11
11.912870938
 21
9.5294946051
 31
0.0
 11
11.9148139365
 21
9.5430278491
 31
0.0
  0
SPLINE
  5
34A
100
AcDbEntity
  8
0
100
AcDbSpline
 62
6
  6
CONTINUOUS
 70
0
 71
3
 72
13
 73
9
 74
7
 42
0.0000001
 43
0.0000001
 44
0.0000000001
 12
-0.0354745112
 22
0.0896261699
 32
0.0
 13
-0.0130159833
 23
0.0955085099
 33
0.0
 40
0.0
 40
0.0
 40
0.0
 40
0.0
 40
0.1267518663
 40
0.2529974356
 40
0.3787432714
 40
0.5039935634
 40
0.7529859347
 40
1.0
 40
1.0
 40
1.0
 40
1.0
 10
11.9380620354
 20
9.3390457496
 30
0.0
 10
11.9365632152
 20
9.3428325111
 30
0.0
 10
11.9336861596
 20
9.3504368564
 30
0.0
 10
11.9297266919
 20
9.3619457397
 30
0.0
 10
11.926131244
 20
9.3735231793
 30
0.0
 10
11.9218309706
 20
9.3890039178
 30
0.0
 10
11.9173574119
 20
9.4084702691
 30
0.0
 10
11.914726486
 20
9.4241997876
 30
0.0
 10
11.9136547756
 20
9.4320637693
 30
0.0
 11
11.9380620354
 21
9.3390457496
 31
0.0
 11
11.9337386754
 21
9.3504730317
 31
0.0
 11
11.9297798669
 21
9.3619800692
 31
0.0
 11
11.9261851172
 21
9.3735555525
 31
0.0
 11
11.9229539271
 21
9.3851881706
 31
0.0
 11
11.9175802282
 21
9.4085795667
 31
0.0
 11
11.9136547756
 21
9.4320637693
 31
0.0
  0
SPLINE
  5
34B
100
AcDbEntity
  8
0
100
AcDbSpline
 62
6
  6
CONTINUOUS
 70
0
 71
3
 72
9
 73
5
 74
3
 42
0.0000001
 43
0.0000001
 44
0.0000000001
 12
-0.0574506735
 22
0.0815793903
 32
0.0
 13
-0.0367211232
 23
0.0927757291
 33
0.0
 40
0.0
 40
0.0
 40
0.0
 40
0.0
 40
0.5038687617
 40
1.0
 40
1.0
 40
1.0
 40
1.0
 10
11.9855347133
 20
9.2514819563
 30
0.0
 10
11.9758855134
 20
9.2651837251
 30
0.0
 10
11.9582848338
 20
9.2935038836
 30
0.0
 10
11.9441348673
 20
9.3237027711
 30
0.0
 10
11.9380620352
 20
9.3390457502
 30
0.0
 11
11.9855347133
 21
9.2514819563
 31
0.0
 11
11.959024728
 21
9.2941999902
 31
0.0
 11
11.9380620352
 21
9.3390457502
 31
0.0
  0
SPLINE
  5
34C
100
AcDbEntity
  8
0
100
AcDbSpline
 62
6
  6
CONTINUOUS
 70
0
 71
3
 72
13
 73
9
 74
7
 42
0.0000001
 43
0.0000001
 44
0.0000000001
 12
-0.1004139263
 22
0.0537411355
 32
0.0
 13
-0.084207557
 23
0.0766821595
 33
0.0
 40
0.0
 40
0.0
 40
0.0
 40
0.0
 40
0.2525796105
 40
0.5034671815
 40
0.6282721686
 40
0.7526325218
 40
0.8765429909
 40
1.0
 40
1.0
 40
1.0
 40
1.0
 10
12.1421471463
 20
9.1138762005
 30
0.0
 10
12.1336929762
 20
9.1184008388
 30
0.0
 10
12.1171100303
 20
9.1279321948
 30
0.0
 10
12.0971813471
 20
9.1410654378
 30
0.0
 10
12.0818282414
 20
9.1522352101
 30
0.0
 10
12.0706372068
 20
9.1609200911
 30
0.0
 10
12.0597625192
 20
9.1699175354
 30
0.0
 10
12.0527179604
 20
9.176130344
 30
0.0
 10
12.0492526227
 20
9.179285994
 30
0.0
 11
12.1421471463
 21
9.1138762005
 31
0.0
 11
12.1172085944
 21
9.1282141477
 31
0.0
 11
12.0933523976
 21
9.1439411977
 31
0.0
 11
12.0818587424
 21
9.1523040269
 31
0.0
 11
12.0706699482
 21
9.1609882008
 31
0.0
 11
12.0597974389
 21
9.1699850755
 31
0.0
 11
12.0492526227
 21
9.179285994
 31
0.0
  0
SPLINE
  5
34D
100
AcDbEntity
  8
0
100
AcDbSpline
 62
6
  6
CONTINUOUS
 70
0
 71
3
 72
15
 73
11
 74
9
 42
0.0000001
 43
0.0000001
 44
0.0000000001
 12
-0.1786228818
 22
-0.018548627
 32
0.0
 13
-0.1737164923
 23
0.0455276373
 33
0.0
 40
0.0
 40
0.0
 40
0.0
 40
0.0
 40
0.1266777435
 40
0.2528997373
 40
0.3786587809
 40
0.5039426549
 40
0.6287357778
 40
0.7530208908
 40
0.8767807744
 40
1.0
 40
1.0
 40
1.0
 40
1.0
 10
12.4247955705
 20
9.0594941367
 30
0.0
 10
12.417253056
 20
9.058710904
 30
0.0
 10
12.4021576819
 20
9.0574867793
 30
0.0
 10
12.379498216
 20
9.0566708618
 30
0.0
 10
12.3569079652
 20
9.0568684113
 30
0.0
 10
12.3344346222
 20
9.0580696496
 30
0.0
 10
12.3121251644
 20
9.0602647307
 30
0.0
 10
12.2900265652
 20
9.063443911
 30
0.0
 10
12.2681865016
 20
9.0675972701
 30
0.0
 10
12.253796776
 20
9.0710171237
 30
0.0
 10
12.2466617054
 20
9.0728870838
 30
0.0
 11
12.4247955705
 21
9.0594941367
 31
0.0
 11
12.4021208197
 21
9.0576549826
 31
0.0
 11
12.3794681333
 21
9.0568392109
 31
0.0
 11
12.3568847672
 21
9.0570370263
 31
0.0
 11
12.3344179777
 21
9.0582386338
 31
0.0
 11
12.3121150206
 21
9.0604342384
 31
0.0
 11
12.2900231522
 21
9.063614045
 31
0.0
 11
12.2681896284
 21
9.0677682585
 31
0.0
 11
12.2466617054
 21
9.0728870838
 31
0.0
  0
SPLINE
  5
34E
100
AcDbEntity
  8
0
100
AcDbSpline
 62
6
  6
CONTINUOUS
 70
0
 71
3
 72
13
 73
9
 74
7
 42
0.0000001
 43
0.0000001
 44
0.0000000001
 12
-0.1303322778
 22
-0.0511386837
 32
0.0
 13
-0.1392571471
 23
-0.014460795
 33
0.0
 40
0.0
 40
0.0
 40
0.0
 40
0.0
 40
0.2518750538
 40
0.5025353005
 40
0.6274029126
 40
0.7519395178
 40
0.8761393146
 40
1.0
 40
1.0
 40
1.0
 40
1.0
 10
12.5603874867
 20
9.0926921158
 30
0.0
 10
12.5494450036
 20
9.0883985962
 30
0.0
 10
12.5273218502
 20
9.0805544965
 30
0.0
 10
12.4991116428
 20
9.072626893
 30
0.0
 10
12.4763502603
 20
9.0674569873
 30
0.0
 10
12.4592230161
 20
9.0641735461
 30
0.0
 10
12.4420402346
 20
9.0614850642
 30
0.0
 10
12.4305450657
 20
9.060091178
 30
0.0
 10
12.4247955705
 20
9.0594941367
 30
0.0
 11
12.5603874867
 21
9.0926921158
 31
0.0
 11
12.5271496553
 21
9.0809109107
 31
0.0
 11
12.4933629739
 21
9.0714217645
 31
0.0
 11
12.4763147877
 21
9.067550461
 31
0.0
 11
12.4591905569
 21
9.0642686691
 31
0.0
 11
12.4420106708
 21
9.061581888
 31
0.0
 11
12.4247955705
 21
9.0594941367
 31
0.0
  0
SPLINE
  5
34F
100
AcDbEntity
  8
0
100
AcDbSpline
 62
6
  6
CONTINUOUS
 70
0
 71
3
 72
13
 73
9
 74
7
 42
0.0000001
 43
0.0000001
 44
0.0000000001
 12
-0.1080095142
 22
-0.0779607758
 32
0.0
 13
-0.1240025104
 23
-0.0486550628
 33
0.0
 40
0.0
 40
0.0
 40
0.0
 40
0.0
 40
0.1258317489
 40
0.2514278188
 40
0.3767915079
 40
0.5019232952
 40
0.7514503912
 40
1.0
 40
1.0
 40
1.0
 40
1.0
 10
12.6770402105
 20
9.1563055445
 30
0.0
 10
12.6725098685
 20
9.1530355642
 30
0.0
 10
12.6633526998
 20
9.1466457407
 30
0.0
 10
12.6493322161
 20
9.1375123476
 30
0.0
 10
12.6350562094
 20
9.1288429544
 30
0.0
 10
12.6157233432
 20
9.1179200666
 30
0.0
 10
12.5910021878
 20
9.1054449513
 30
0.0
 10
12.5706610785
 20
9.0967231814
 30
0.0
 10
12.5603874867
 20
9.0926921158
 30
0.0
 11
12.6770402105
 21
9.1563055445
 31
0.0
 11
12.663294396
 21
9.1467136984
 31
0.0
 11
12.6492765106
 21
9.1375814273
 31
0.0
 11
12.6350031671
 21
9.1289133041
 31
0.0
 11
12.6204910202
 21
9.1207138204
 31
0.0
 11
12.5908169336
 21
9.1057387387
 31
0.0
 11
12.5603874867
 21
9.0926921158
 31
0.0
  0
SPLINE
  5
350
100
AcDbEntity
  8
0
100
AcDbSpline
 62
6
  6
CONTINUOUS
 70
0
 71
3
 72
13
 73
9
 74
7
 42
0.0000001
 43
0.0000001
 44
0.0000000001
 12
-0.0375020021
 22
-0.1208961569
 32
0.0
 13
-0.0639736378
 23
-0.1092229581
 33
0.0
 40
0.0
 40
0.0
 40
0.0
 40
0.0
 40
0.2506940911
 40
0.500947321
 40
0.6259054252
 40
0.7507358081
 40
0.8754347367
 40
1.0
 40
1.0
 40
1.0
 40
1.0
 10
12.878589351
 20
9.4379946517
 30
0.0
 10
12.8754555076
 20
9.427892001
 30
0.0
 10
12.8686208106
 20
9.4078772722
 30
0.0
 10
12.858677002
 20
9.3833959836
 30
0.0
 10
12.8499062425
 20
9.3642044523
 30
0.0
 10
12.8429279222
 20
9.350025606
 30
0.0
 10
12.8355514352
 20
9.3360687616
 30
0.0
 10
12.830368235
 20
9.3269154335
 30
0.0
 10
12.8277119374
 20
9.3223803046
 30
0.0
 11
12.878589351
 21
9.4379946517
 31
0.0
 11
12.8683333278
 21
9.4079650875
 31
0.0
 11
12.8564105294
 21
9.3786177006
 31
0.0
 11
12.8498355984
 21
9.3642319217
 31
0.0
 11
12.8428577842
 21
9.350055205
 31
0.0
 11
12.8354816905
 21
9.3361003897
 31
0.0
 11
12.8277119374
 21
9.3223803046
 31
0.0
  0
SPLINE
  5
351
100
AcDbEntity
  8
0
100
AcDbSpline
 62
6
  6
CONTINUOUS
 70
0
 71
3
 72
15
 73
11
 74
9
 42
0.0000001
 43
0.0000001
 44
0.0000000001
 12
0.0547993379
 22
-0.1894844515
 32
0.0
 13
-0.0138468964
 23
-0.1967627715
 33
0.0
 40
0.0
 40
0.0
 40
0.0
 40
0.0
 40
0.1251149854
 40
0.2502256293
 40
0.3753202183
 40
0.500383753
 40
0.6253995128
 40
0.7503506204
 40
0.8752216099
 40
1.0
 40
1.0
 40
1.0
 40
1.0
 10
12.8815690712
 20
9.7591255846
 30
0.0
 10
12.8838544774
 20
9.7512231364
 30
0.0
 10
12.8880743834
 20
9.7353146569
 30
0.0
 10
12.8933447275
 20
9.7111990529
 30
0.0
 10
12.8975516323
 20
9.6868783804
 30
0.0
 10
12.9006902944
 20
9.6624033708
 30
0.0
 10
12.9027561144
 20
9.6378240264
 30
0.0
 10
12.9037443902
 20
9.6131903374
 30
0.0
 10
12.9036504668
 20
9.5885530504
 30
0.0
 10
12.9028628078
 20
9.5721511842
 30
0.0
 10
12.9022868766
 20
9.5639672702
 30
0.0
 11
12.8815690712
 21
9.7591255846
 31
0.0
 11
12.8878979073
 21
9.7352720368
 31
0.0
 11
12.8931677923
 21
9.7111632842
 31
0.0
 11
12.8973740431
 21
9.6868496089
 31
0.0
 11
12.9005119767
 21
9.6623812933
 31
0.0
 11
12.9025769099
 21
9.6378086194
 31
0.0
 11
12.9035641597
 21
9.6131818694
 31
0.0
 11
12.903469043
 21
9.5885513257
 31
0.0
 11
12.9022868766
 21
9.5639672702
 31
0.0
  0
SPLINE
  5
352
100
AcDbEntity
  8
0
100
AcDbSpline
 62
6
  6
CONTINUOUS
 70
0
 71
3
 72
13
 73
9
 74
7
 42
0.0000001
 43
0.0000001
 44
0.0000000001
 12
0.0744749676
 22
-0.1243169526
 32
0.0
 13
0.0402607578
 23
-0.1392131347
 33
0.0
 40
0.0
 40
0.0
 40
0.0
 40
0.0
 40
0.2498944186
 40
0.4998800744
 40
0.6249051165
 40
0.7499344339
 40
0.8749659522
 40
1.0
 40
1.0
 40
1.0
 40
1.0
 10
12.8237812007
 20
9.891601973
 30
0.0
 10
12.829984827
 20
9.8812466021
 30
0.0
 10
12.8417368094
 20
9.8601304745
 30
0.0
 10
12.8547107897
 20
9.8328502083
 30
0.0
 10
12.8640215047
 20
9.8105579706
 30
0.0
 10
12.8704609457
 20
9.7936183926
 30
0.0
 10
12.876345321
 20
9.7764779495
 30
0.0
 10
12.8798910827
 20
9.7649277118
 30
0.0
 10
12.8815690712
 20
9.7591255846
 30
0.0
 11
12.8237812007
 21
9.891601973
 31
0.0
 11
12.8413913618
 21
9.8599578521
 31
0.0
 11
12.8569482831
 21
9.8272407591
 31
0.0
 11
12.8639306567
 21
9.8105218447
 31
0.0
 11
12.8703683737
 21
9.7935850832
 31
0.0
 11
12.8762509854
 21
9.7764472732
 31
0.0
 11
12.8815690712
 21
9.7591255846
 31
0.0
  0
SPLINE
  5
353
100
AcDbEntity
  8
0
100
AcDbSpline
 62
6
  6
CONTINUOUS
 70
0
 71
3
 72
14
 73
10
 74
8
 42
0.0000001
 43
0.0000001
 44
0.0000000001
 12
0.1019317424
 22
-0.0999817979
 32
0.0
 13
0.0733767886
 23
-0.122483823
 33
0.0
 40
0.0
 40
0.0
 40
0.0
 40
0.0
 40
0.0623638086
 40
0.1247479696
 40
0.2495737878
 40
0.374480907
 40
0.4994661625
 40
0.7496171932
 40
1.0
 40
1.0
 40
1.0
 40
1.0
 10
12.735736862
 20
10.0035325381
 30
0.0
 10
12.7378558125
 20
10.0014541229
 30
0.0
 10
12.74206075
 20
9.9972621181
 30
0.0
 10
12.7503353403
 20
9.9887397314
 30
0.0
 10
12.7604226497
 20
9.9778312496
 30
0.0
 10
12.7721050192
 20
9.9643519192
 30
0.0
 10
12.7871108189
 20
9.9458754533
 30
0.0
 10
12.8047676341
 20
9.9218802165
 30
0.0
 10
12.8176571053
 20
9.9018245875
 30
0.0
 10
12.8237812007
 20
9.891601973
 30
0.0
 11
12.735736862
 21
10.0035325381
 31
0.0
 11
12.7420428364
 21
9.9972458427
 31
0.0
 11
12.7482477174
 21
9.9908552979
 31
0.0
 11
12.7603487339
 21
9.9777703291
 31
0.0
 11
12.7720296964
 21
9.9642936813
 31
0.0
 11
12.7832805337
 21
9.9504415463
 31
0.0
 11
12.8044515466
 21
9.9216755826
 31
0.0
 11
12.8237812007
 21
9.891601973
 31
0.0
  0
SPLINE
  5
354
100
AcDbEntity
  8
0
100
AcDbSpline
 62
6
  6
CONTINUOUS
 70
0
 71
3
 72
13
 73
9
 74
7
 42
0.0000001
 43
0.0000001
 44
0.0000000001
 12
-0.009017537
 22
-0.1281381422
 32
0.0
 13
-0.0380577808
 23
-0.1226878347
 33
0.0
 40
0.0
 40
0.0
 40
0.0
 40
0.0
 40
0.1252551751
 40
0.2504435328
 40
0.3755649039
 40
0.5006173902
 40
0.7504748268
 40
1.0
 40
1.0
 40
1.0
 40
1.0
 10
12.9022868766
 20
9.5639672702
 30
0.0
 10
12.9019103789
 20
9.5586172818
 30
0.0
 10
12.9010015055
 20
9.5479304712
 30
0.0
 10
12.8991712015
 20
9.53195175
 30
0.0
 10
12.8968794572
 20
9.5160412041
 30
0.0
 10
12.8932160905
 20
9.4949438659
 30
0.0
 10
12.8875076741
 20
9.4688074553
 30
0.0
 10
12.8817548091
 20
9.4481992195
 30
0.0
 10
12.878589351
 20
9.4379946517
 30
0.0
 11
12.9022868766
 21
9.5639672702
 31
0.0
 11
12.9009233076
 21
9.5479354948
 31
0.0
 11
12.8990937414
 21
9.5319588333
 31
0.0
 11
12.8968026382
 21
9.516050496
 31
0.0
 11
12.8940547203
 21
9.5002236537
 31
0.0
 11
12.8872073303
 21
9.4688671376
 31
0.0
 11
12.878589351
 21
9.4379946517
 31
0.0
  0
SPLINE
  5
355
100
AcDbEntity
  8
0
100
AcDbSpline
 62
6
  6
CONTINUOUS
 70
0
 71
3
 72
15
 73
11
 74
9
 42
0.0000001
 43
0.0000001
 44
0.0000000001
 12
0.1153300716
 22
0.0058538438
 32
0.0
 13
0.1072218837
 23
-0.0428807714
 33
0.0
 40
0.0
 40
0.0
 40
0.0
 40
0.0
 40
0.1319802649
 40
0.2619171169
 40
0.3898500816
 40
0.5157980768
 40
0.6397623271
 40
0.7617465228
 40
0.8818079822
 40
1.0
 40
1.0
 40
1.0
 40
1.0
 10
12.2246027382
 20
9.8460034805
 30
0.0
 10
12.2296765026
 20
9.8462610111
 30
0.0
 10
12.2397614694
 20
9.8465001656
 30
0.0
 10
12.2547678927
 20
9.8460431135
 30
0.0
 10
12.2694967741
 20
9.844797203
 30
0.0
 10
12.2839092969
 20
9.8427920087
 30
0.0
 10
12.2979680565
 20
9.8400570786
 30
0.0
 10
12.3116384537
 20
9.8366206274
 30
0.0
 10
12.3248914042
 20
9.8325198195
 30
0.0
 10
12.3334999286
 20
9.8293423937
 30
0.0
 10
12.3377241855
 20
9.8276530054
 30
0.0
 11
12.2246027382
 21
9.8460034805
 31
0.0
 11
12.2398393774
 21
9.8463633372
 31
0.0
 11
12.2548372931
 21
9.8459049909
 31
0.0
 11
12.2695580753
 21
9.8446579054
 31
0.0
 11
12.283963314
 21
9.8426515444
 31
0.0
 11
12.2980145989
 21
9.8399153715
 31
0.0
 11
12.3116758198
 21
9.8364799499
 31
0.0
 11
12.3249203895
 21
9.8323803963
 31
0.0
 11
12.3377241855
 21
9.8276530054
 31
0.0
  0
SPLINE
  5
356
100
AcDbEntity
  8
0
100
AcDbSpline
 62
6
  6
CONTINUOUS
 70
0
 71
3
 72
13
 73
9
 74
7
 42
0.0000001
 43
0.0000001
 44
0.0000000001
 12
0.0608969785
 22
0.0166417504
 32
0.0
 13
0.06304878
 23
0.0032001863
 33
0.0
 40
0.0
 40
0.0
 40
0.0
 40
0.0
 40
0.2558049293
 40
0.5077321358
 40
0.6322555308
 40
0.7558091522
 40
0.8783897371
 40
1.0
 40
1.0
 40
1.0
 40
1.0
 10
12.1623961359
 20
9.8359599365
 30
0.0
 10
12.1675887183
 20
9.8373789504
 30
0.0
 10
12.1779724735
 20
9.8399206727
 30
0.0
 10
12.1910537119
 20
9.842385642
 30
0.0
 10
12.2014651225
 20
9.843912943
 30
0.0
 10
12.2092111609
 20
9.8448361936
 30
0.0
 10
12.2169182364
 20
9.8455434534
 30
0.0
 10
12.2220469453
 20
9.8458737554
 30
0.0
 10
12.2246027382
 20
9.8460034805
 30
0.0
 11
12.1623961359
 21
9.8359599365
 31
0.0
 11
12.1780825219
 21
9.8397973717
 31
0.0
 11
12.1937120683
 21
9.8427400374
 31
0.0
 11
12.2014900319
 21
9.8438806692
 31
0.0
 11
12.2092351917
 21
9.8448034137
 31
0.0
 11
12.2169413521
 21
9.8455102084
 31
0.0
 11
12.2246027382
 21
9.8460034805
 31
0.0
  0
SPLINE
  5
357
100
AcDbEntity
  8
0
100
AcDbSpline
 62
6
  6
CONTINUOUS
 70
0
 71
3
 72
13
 73
9
 74
7
 42
0.0000001
 43
0.0000001
 44
0.0000000001
 12
-0.1095891778
 22
0.0197961913
 32
0.0
 13
-0.0989784756
 23
0.0510385978
 33
0.0
 40
0.0
 40
0.0
 40
0.0
 40
0.0
 40
0.2538007189
 40
0.5050722092
 40
0.6297685244
 40
0.7538209126
 40
0.8772300022
 40
1.0
 40
1.0
 40
1.0
 40
1.0
 10
12.3418568901
 20
9.1651236516
 30
0.0
 10
12.3325856193
 20
9.1667984142
 30
0.0
 10
12.3142486609
 20
9.1707960168
 30
0.0
 10
12.2918098897
 20
9.1774323708
 30
0.0
 10
12.2743275885
 20
9.1836793026
 30
0.0
 10
12.2614979391
 20
9.1888119869
 30
0.0
 10
12.2489370135
 20
9.1943966148
 30
0.0
 10
12.2407325085
 20
9.198427196
 30
0.0
 10
12.2366819794
 20
9.2005158655
 30
0.0
 11
12.3418568901
 21
9.1651236516
 31
0.0
 11
12.3142429771
 21
9.1711505433
 31
0.0
 11
12.2874120033
 21
9.1790945987
 31
0.0
 11
12.2743356737
 21
9.1837685054
 31
0.0
 11
12.2615097452
 21
9.1889012341
 31
0.0
 11
12.2489524397
 21
9.1944859618
 31
0.0
 11
12.2366819794
 21
9.2005158655
 31
0.0
  0
SPLINE
  5
358
100
AcDbEntity
  8
0
100
AcDbSpline
 62
6
  6
CONTINUOUS
 70
0
 71
3
 72
13
 73
9
 74
7
 42
0.0000001
 43
0.0000001
 44
0.0000000001
 12
-0.0962017797
 22
-0.0060422554
 32
0.0
 13
-0.0948561507
 23
0.0171348169
 33
0.0
 40
0.0
 40
0.0
 40
0.0
 40
0.0
 40
0.1267518663
 40
0.2529974356
 40
0.3787432714
 40
0.5039935634
 40
0.7529859347
 40
1.0
 40
1.0
 40
1.0
 40
1.0
 10
12.4378645419
 20
9.1595921862
 30
0.0
 10
12.4337999569
 20
9.1593368971
 30
0.0
 10
12.4256787356
 20
9.1589505265
 30
0.0
 10
12.4135095943
 20
9.1587412895
 30
0.0
 10
12.4013877405
 20
9.1588994409
 30
0.0
 10
12.3853358257
 20
9.1595934492
 30
0.0
 10
12.3654398198
 20
9.1613542755
 30
0.0
 10
12.3496671579
 20
9.1637128047
 30
0.0
 10
12.3418568901
 20
9.1651236516
 30
0.0
 11
12.4378645419
 21
9.1595921862
 31
0.0
 11
12.4256605592
 21
9.1590116508
 31
0.0
 11
12.413493377
 21
9.1588024703
 31
0.0
 11
12.4013735994
 21
9.1589606813
 31
0.0
 11
12.3893118296
 21
9.1594823136
 31
0.0
 11
12.3654047256
 21
9.1615999612
 31
0.0
 11
12.3418568901
 21
9.1651236516
 31
0.0
  0
SPLINE
  5
359
100
AcDbEntity
  8
0
100
AcDbSpline
 62
6
  6
CONTINUOUS
 70
0
 71
3
 72
9
 73
5
 74
3
 42
0.0000001
 43
0.0000001
 44
0.0000000001
 12
-0.0953398452
 22
-0.0294294194
 32
0.0
 13
-0.0995824129
 23
-0.0062545866
 33
0.0
 40
0.0
 40
0.0
 40
0.0
 40
0.0
 40
0.5038687617
 40
1.0
 40
1.0
 40
1.0
 40
1.0
 10
12.5358125224
 20
9.1776826856
 30
0.0
 10
12.5197995992
 20
9.1727398306
 30
0.0
 10
12.4874266188
 20
9.1647519998
 30
0.0
 10
12.4543331899
 20
9.1606265514
 30
0.0
 10
12.4378645413
 20
9.1595921861
 30
0.0
 11
12.5358125224
 21
9.1776826856
 31
0.0
 11
12.4869932219
 21
9.1656707898
 31
0.0
 11
12.4378645413
 21
9.1595921861
 31
0.0
  0
SPLINE
  5
35A
100
AcDbEntity
  8
0
100
AcDbSpline
 62
6
  6
CONTINUOUS
 70
0
 71
3
 72
13
 73
9
 74
7
 42
0.0000001
 43
0.0000001
 44
0.0000000001
 12
-0.0821404668
 22
-0.0788923948
 32
0.0
 13
-0.0989506336
 23
-0.0563900553
 33
0.0
 40
0.0
 40
0.0
 40
0.0
 40
0.0
 40
0.2525796105
 40
0.5034671815
 40
0.6282721686
 40
0.7526325218
 40
0.8765429909
 40
1.0
 40
1.0
 40
1.0
 40
1.0
 10
12.7150792765
 20
9.2841074435
 30
0.0
 10
12.7081636075
 20
9.2774652401
 30
0.0
 10
12.6939743372
 20
9.2646392722
 30
0.0
 10
12.675325579
 20
9.2497443635
 30
0.0
 10
12.6599581238
 20
9.2385943417
 30
0.0
 10
12.6482400912
 20
9.2306348113
 30
0.0
 10
12.6363225499
 20
9.2230727319
 30
0.0
 10
12.6282369294
 20
9.2182928219
 30
0.0
 10
12.6241648797
 20
9.2159722393
 30
0.0
 11
12.7150792765
 21
9.2841074435
 31
0.0
 11
12.693736642
 21
9.2648201406
 31
0.0
 11
12.6714073584
 21
9.2469914748
 31
0.0
 11
12.6599021004
 21
9.2386446155
 31
0.0
 11
12.6481854327
 21
9.2306869972
 31
0.0
 11
12.6362691062
 21
9.2231268136
 31
0.0
 11
12.6241648797
 21
9.2159722393
 31
0.0
  0
SPLINE
  5
35B
100
AcDbEntity
  8
0
100
AcDbSpline
 62
6
  6
CONTINUOUS
 70
0
 71
3
 72
15
 73
11
 74
9
 42
0.0000001
 43
0.0000001
 44
0.0000000001
 12
-0.0375567135
 22
-0.1756122966
 32
0.0
 13
-0.0969807045
 23
-0.1511453883
 33
0.0
 40
0.0
 40
0.0
 40
0.0
 40
0.0
 40
0.1266777435
 40
0.2528997373
 40
0.3786587809
 40
0.5039426549
 40
0.6287357778
 40
0.7530208908
 40
0.8767807744
 40
1.0
 40
1.0
 40
1.0
 40
1.0
 10
12.8541428592
 20
9.5361170873
 30
0.0
 10
12.8525569926
 20
9.5287016974
 30
0.0
 10
12.8490564772
 20
9.5139668682
 30
0.0
 10
12.8428303008
 20
9.4921643032
 30
0.0
 10
12.8356616486
 20
9.4707407441
 30
0.0
 10
12.8275745582
 20
9.4497385278
 30
0.0
 10
12.8185929105
 20
9.42919929
 30
0.0
 10
12.8087404876
 20
9.4091646939
 30
0.0
 10
12.7980414576
 20
9.3896770177
 30
0.0
 10
12.7903423137
 20
9.3770483683
 30
0.0
 10
12.786359018
 20
9.3708403624
 30
0.0
 11
12.8541428592
 21
9.5361170873
 31
0.0
 11
12.8488851153
 21
9.5139837879
 31
0.0
 11
12.8426608952
 21
9.4921877155
 31
0.0
 11
12.8354941177
 21
9.4707707864
 31
0.0
 11
12.8274087012
 21
9.4497749169
 31
0.0
 11
12.8184285644
 21
9.4292420234
 31
0.0
 11
12.8085776259
 21
9.4092140223
 31
0.0
 11
12.7978798042
 21
9.3897328298
 31
0.0
 11
12.786359018
 21
9.3708403624
 31
0.0
  0
SPLINE
  5
35C
100
AcDbEntity
  8
0
100
AcDbSpline
 62
6
  6
CONTINUOUS
 70
0
 71
3
 72
13
 73
9
 74
7
 42
0.0000001
 43
0.0000001
 44
0.0000000001
 12
0.0083608897
 22
-0.1397560844
 32
0.0
 13
-0.0292797917
 23
-0.1369100486
 33
0.0
 40
0.0
 40
0.0
 40
0.0
 40
0.0
 40
0.2518750538
 40
0.5025353005
 40
0.6274029126
 40
0.7519395178
 40
0.8761393146
 40
1.0
 40
1.0
 40
1.0
 40
1.0
 10
12.8644699112
 20
9.6753314025
 30
0.0
 10
12.8651718778
 20
9.663597712
 30
0.0
 10
12.8657956296
 20
9.6401333827
 30
0.0
 10
12.864617795
 20
9.610854117
 30
0.0
 10
12.8625010134
 20
9.5876091671
 30
0.0
 10
12.8603311421
 20
9.5703055507
 30
0.0
 10
12.8575782688
 20
9.5531329678
 30
0.0
 10
12.8553517308
 20
9.5417696781
 30
0.0
 10
12.8541428592
 20
9.5361170873
 30
0.0
 11
12.8644699112
 21
9.6753314025
 31
0.0
 11
12.8654034483
 21
9.6400797537
 31
0.0
 11
12.8639875039
 21
9.6050144027
 31
0.0
 11
12.8624011531
 21
9.5876043156
 31
0.0
 11
12.8602306443
 21
9.5703040748
 31
0.0
 11
12.8574770482
 21
9.5531347712
 31
0.0
 11
12.8541428592
 21
9.5361170873
 31
0.0
  0
SPLINE
  5
35D
100
AcDbEntity
  8
0
100
AcDbSpline
 62
6
  6
CONTINUOUS
 70
0
 71
3
 72
13
 73
9
 74
7
 42
0.0000001
 43
0.0000001
 44
0.0000000001
 12
0.0407683284
 22
-0.1268143569
 32
0.0
 13
0.0079548315
 23
-0.1329686368
 33
0.0
 40
0.0
 40
0.0
 40
0.0
 40
0.0
 40
0.1258317489
 40
0.2514278188
 40
0.3767915079
 40
0.5019232952
 40
0.7514503912
 40
1.0
 40
1.0
 40
1.0
 40
1.0
 10
12.8400176194
 20
9.8059323661
 30
0.0
 10
12.8417276028
 20
9.8006132753
 30
0.0
 10
12.8449749653
 20
9.7899297263
 30
0.0
 10
12.8493287707
 20
9.7737730802
 30
0.0
 10
12.8531623249
 20
9.7575168012
 30
0.0
 10
12.8575764243
 20
9.7357547948
 30
0.0
 10
12.8618017068
 20
9.7083885563
 30
0.0
 10
12.8638108545
 20
9.6863478366
 30
0.0
 10
12.8644699113
 20
9.6753314024
 30
0.0
 11
12.8400176194
 21
9.8059323661
 31
0.0
 11
12.8448923169
 21
9.7898952762
 31
0.0
 11
12.849245858
 21
9.7737414479
 31
0.0
 11
12.8530790274
 21
9.7574880943
 31
0.0
 11
12.8563926997
 21
9.7411524425
 31
0.0
 11
12.8614650517
 21
9.7083031544
 31
0.0
 11
12.8644699113
 21
9.6753314024
 31
0.0
  0
SPLINE
  5
35E
100
AcDbEntity
  8
0
100
AcDbSpline
 62
6
  6
CONTINUOUS
 70
0
 71
3
 72
13
 73
9
 74
7
 42
0.0000001
 43
0.0000001
 44
0.0000000001
 12
0.1033903218
 22
-0.0730254905
 32
0.0
 13
0.0841082647
 23
-0.0945942954
 33
0.0
 40
0.0
 40
0.0
 40
0.0
 40
0.0
 40
0.2506940911
 40
0.500947321
 40
0.6259054252
 40
0.7507358081
 40
0.8754347367
 40
1.0
 40
1.0
 40
1.0
 40
1.0
 10
12.634397468
 20
10.0846637108
 30
0.0
 10
12.6430372489
 20
10.0785613578
 30
0.0
 10
12.6599603497
 20
10.0658762834
 30
0.0
 10
12.6801706329
 20
10.0488540251
 30
0.0
 10
12.69571255
 20
10.0345820279
 30
0.0
 10
12.7070410147
 20
10.0235637465
 30
0.0
 10
12.7180353027
 20
10.0122353883
 30
0.0
 10
12.7251389381
 20
10.004477338
 30
0.0
 10
12.7286312608
 20
10.0005496169
 30
0.0
 11
12.634397468
 21
10.0846637108
 31
0.0
 11
12.6597879953
 21
10.0656300074
 31
0.0
 11
12.6840146715
 21
10.045221911
 31
0.0
 11
12.6956645948
 21
10.0345233298
 31
0.0
 11
12.7069911905
 21
10.0235061878
 31
0.0
 11
12.7179836702
 21
10.0121788307
 31
0.0
 11
12.7286312608
 21
10.0005496169
 31
0.0
  0
SPLINE
  5
35F
100
AcDbEntity
  8
0
100
AcDbSpline
 62
6
  6
CONTINUOUS
 70
0
 71
3
 72
15
 73
11
 74
9
 42
0.0000001
 43
0.0000001
 44
0.0000000001
 12
0.197144349
 22
-0.0064366483
 32
0.0
 13
0.1828535897
 23
-0.0739722213
 33
0.0
 40
0.0
 40
0.0
 40
0.0
 40
0.0
 40
0.1251149854
 40
0.2502256293
 40
0.3753202183
 40
0.500383753
 40
0.6253995128
 40
0.7503506204
 40
0.8752216099
 40
1.0
 40
1.0
 40
1.0
 40
1.0
 10
12.329904586
 20
10.1867325088
 30
0.0
 10
12.3381264901
 20
10.1864640684
 30
0.0
 10
12.3545603759
 20
10.185561447
 30
0.0
 10
12.3791243041
 20
10.1831217106
 30
0.0
 10
12.4035546432
 20
10.1796072138
 30
0.0
 10
12.4278016605
 20
10.1750290649
 30
0.0
 10
12.4518163796
 20
10.1693983413
 30
0.0
 10
12.4755498041
 20
10.1627260189
 30
0.0
 10
12.4989522325
 20
10.1550233521
 30
0.0
 10
12.5143079343
 20
10.1492057884
 30
0.0
 10
12.5219133265
 20
10.1461290769
 30
0.0
 11
12.329904586
 21
10.1867325088
 31
0.0
 11
12.3545463759
 21
10.1853804379
 31
0.0
 11
12.3791036462
 21
10.1829423821
 31
0.0
 11
12.4035271285
 21
10.1794294255
 31
0.0
 11
12.4277675543
 21
10.1748526523
 31
0.0
 11
12.4517756554
 21
10.1692231467
 31
0.0
 11
12.4755021634
 21
10.1625519928
 31
0.0
 11
12.4988978098
 21
10.1548502748
 31
0.0
 11
12.5219133265
 21
10.1461290769
 31
0.0
  0
SPLINE
  5
360
100
AcDbEntity
  8
0
100
AcDbSpline
 62
6
  6
CONTINUOUS
 70
0
 71
3
 72
13
 73
9
 74
7
 42
0.0000001
 43
0.0000001
 44
0.0000000001
 12
0.1412464785
 22
0.0324138522
 32
0.0
 13
0.1448408173
 23
-0.0047289684
 33
0.0
 40
0.0
 40
0.0
 40
0.0
 40
0.0
 40
0.2498944186
 40
0.4998800744
 40
0.6249051165
 40
0.7499344339
 40
0.8749659522
 40
1.0
 40
1.0
 40
1.0
 40
1.0
 10
12.1860546194
 20
10.1727104333
 30
0.0
 10
12.1978201883
 20
10.1754104469
 30
0.0
 10
12.2215343813
 20
10.1800620041
 30
0.0
 10
12.2514886368
 20
10.1839709268
 30
0.0
 10
12.2755669838
 20
10.1859372626
 30
0.0
 10
12.2936673766
 20
10.1868269175
 30
0.0
 10
12.3117872786
 20
10.1871266027
 30
0.0
 10
12.3238679081
 20
10.1869296028
 30
0.0
 10
12.329904586
 20
10.1867325088
 30
0.0
 11
12.1860546194
 21
10.1727104333
 31
0.0
 11
12.2215918058
 21
10.1796801206
 31
0.0
 11
12.2575149634
 21
10.1843654943
 31
0.0
 11
12.275573268
 21
10.1858396975
 31
0.0
 11
12.2936704494
 21
10.1867285831
 31
0.0
 11
12.3117873022
 21
10.1870274047
 31
0.0
 11
12.329904586
 21
10.1867325088
 31
0.0
  0
SPLINE
  5
361
100
AcDbEntity
  8
0
100
AcDbSpline
 62
6
  6
CONTINUOUS
 70
0
 71
3
 72
14
 73
10
 74
8
 42
0.0000001
 43
0.0000001
 44
0.0000000001
 12
0.126586981
 22
0.0660467731
 32
0.0
 13
0.1391637127
 23
0.0319358901
 33
0.0
 40
0.0
 40
0.0
 40
0.0
 40
0.0
 40
0.0623638086
 40
0.1247479696
 40
0.2495737878
 40
0.374480907
 40
0.4994661625
 40
0.7496171932
 40
1.0
 40
1.0
 40
1.0
 40
1.0
 10
12.0523951292
 20
10.1235637381
 30
0.0
 10
12.0550266113
 20
10.1249367142
 30
0.0
 10
12.0603128418
 20
10.1276404466
 30
0.0
 10
12.0709751023
 20
10.1328764873
 30
0.0
 10
12.084466835
 20
10.1390991825
 30
0.0
 10
12.1008964907
 20
10.1460444339
 30
0.0
 10
12.1231057011
 20
10.1546062556
 30
0.0
 10
12.1513827834
 20
10.1639839487
 30
0.0
 10
12.1744398858
 20
10.1700450341
 30
0.0
 10
12.1860546194
 20
10.1727104333
 30
0.0
 11
12.0523951292
 21
10.1235637381
 31
0.0
 11
12.060322785
 21
10.1276183804
 31
0.0
 11
12.068317968
 21
10.131544786
 31
0.0
 11
12.0845019326
 21
10.1390100588
 31
0.0
 11
12.1009286023
 21
10.1459548012
 31
0.0
 11
12.1175794654
 21
10.1523744382
 31
0.0
 11
12.1514797254
 21
10.1636200963
 31
0.0
 11
12.1860546194
 21
10.1727104333
 31
0.0
  0
SPLINE
  5
362
100
AcDbEntity
  8
0
100
AcDbSpline
 62
6
  6
CONTINUOUS
 70
0
 71
3
 72
13
 73
9
 74
7
 42
0.0000001
 43
0.0000001
 44
0.0000000001
 12
0.119080043
 22
-0.0481730509
 32
0.0
 13
0.1049225636
 23
-0.0741077264
 33
0.0
 40
0.0
 40
0.0
 40
0.0
 40
0.0
 40
0.1252551751
 40
0.2504435328
 40
0.3755649039
 40
0.5006173902
 40
0.7504748268
 40
1.0
 40
1.0
 40
1.0
 40
1.0
 10
12.5219133265
 20
10.1461290769
 30
0.0
 10
12.5268851237
 20
10.1441177689
 30
0.0
 10
12.5367680271
 20
10.1399509729
 30
0.0
 10
12.5513990991
 20
10.1332725539
 30
0.0
 10
12.5658227394
 20
10.1261763465
 30
0.0
 10
12.5847554579
 20
10.1161728417
 30
0.0
 10
12.6078486638
 20
10.10266722
 30
0.0
 10
12.6256705277
 20
10.0908276252
 30
0.0
 10
12.634397468
 20
10.0846637108
 30
0.0
 11
12.5219133265
 21
10.1461290769
 31
0.0
 11
12.536739085
 21
10.1398781546
 31
0.0
 11
12.5513684259
 21
10.1332010739
 31
0.0
 11
12.5657901639
 21
10.1261061586
 31
0.0
 11
12.5799932321
 21
10.1186019701
 31
0.0
 11
12.6076990912
 21
10.1024000189
 31
0.0
 11
12.634397468
 21
10.0846637108
 31
0.0
  0
SPLINE
  5
363
100
AcDbEntity
  8
0
100
AcDbSpline
 62
6
  6
CONTINUOUS
 70
0
 71
3
 72
15
 73
11
 74
9
 42
0.0000001
 43
0.0000001
 44
0.0000000001
 12
0.0300716158
 22
0.1114943533
 32
0.0
 13
0.0739154213
 23
0.0887231841
 33
0.0
 40
0.0
 40
0.0
 40
0.0
 40
0.0
 40
0.1319802649
 40
0.2619171169
 40
0.3898500816
 40
0.5157980768
 40
0.6397623271
 40
0.7617465228
 40
0.8818079822
 40
1.0
 40
1.0
 40
1.0
 40
1.0
 10
12.0442650352
 20
9.588767143
 30
0.0
 10
12.0455879885
 20
9.5936721611
 30
0.0
 10
12.0484769653
 20
9.6033374373
 30
0.0
 10
12.0535488874
 20
9.617468157
 30
0.0
 10
12.0592852934
 20
9.6310911481
 30
0.0
 10
12.065646061
 20
9.6441786328
 30
0.0
 10
12.0725915297
 20
9.6567041679
 30
0.0
 10
12.0800841741
 20
9.6686435663
 30
0.0
 10
12.0880796611
 20
9.679980652
 30
0.0
 10
12.0937617529
 20
9.6871859666
 30
0.0
 10
12.0966738238
 20
9.690681424
 30
0.0
 11
12.0442650352
 21
9.588767143
 31
0.0
 11
12.0486311716
 21
9.6033692499
 31
0.0
 11
12.0537016957
 21
9.6174914786
 31
0.0
 11
12.0594367164
 21
9.6311064038
 31
0.0
 11
12.0657963427
 21
9.6441866002
 31
0.0
 11
12.0727406836
 21
9.6567046424
 31
0.0
 11
12.0802295131
 21
9.6686356319
 31
0.0
 11
12.0882212174
 21
9.6799651345
 31
0.0
 11
12.0966738238
 21
9.690681424
 31
0.0
  0
SPLINE
  5
364
100
AcDbEntity
  8
0
100
AcDbSpline
 62
6
  6
CONTINUOUS
 70
0
 71
3
 72
13
 73
9
 74
7
 42
0.0000001
 43
0.0000001
 44
0.0000000001
 12
0.0029909561
 22
0.0630590519
 32
0.0
 13
0.0164395865
 23
0.060951865
 33
0.0
 40
0.0
 40
0.0
 40
0.0
 40
0.0
 40
0.2558049293
 40
0.5077321358
 40
0.6322555308
 40
0.7558091522
 40
0.8783897371
 40
1.0
 40
1.0
 40
1.0
 40
1.0
 10
12.034594116
 20
9.5265015228
 30
0.0
 10
12.0348491497
 20
9.5318784616
 30
0.0
 10
12.035640585
 20
9.542539435
 30
0.0
 10
12.0373385849
 20
9.5557421494
 30
0.0
 10
12.0391033381
 20
9.5661159513
 30
0.0
 10
12.0406189321
 20
9.5737681717
 30
0.0
 10
12.0423279054
 20
9.5813165913
 30
0.0
 10
12.0435986278
 20
9.5862963523
 30
0.0
 10
12.0442650352
 20
9.588767143
 30
0.0
 11
12.034594116
 21
9.5265015228
 31
0.0
 11
12.0357918581
 21
9.5426059951
 31
0.0
 11
12.0378230122
 21
9.5583799108
 31
0.0
 11
12.0391417298
 21
9.5661296683
 31
0.0
 11
12.0406575336
 21
9.5737808968
 31
0.0
 11
12.0423666664
 21
9.5813283024
 31
0.0
 11
12.0442650352
 21
9.588767143
 31
0.0
  0
SPLINE
  5
365
100
AcDbEntity
  8
0
100
AcDbSpline
 62
6
  6
CONTINUOUS
 70
0
 71
3
 72
13
 73
9
 74
7
 42
0.0000001
 43
0.0000001
 44
0.0000000001
 12
-0.0952184172
 22
0.1092459543
 32
0.0
 13
-0.1199583006
 23
0.0813094805
 33
0.0
 40
0.0
 40
0.0
 40
0.0
 40
0.0
 40
0.2498944186
 40
0.4998800744
 40
0.6249051165
 40
0.7499344339
 40
0.8749659522
 40
1.0
 40
1.0
 40
1.0
 40
1.0
 10
12.7534995191
 20
9.9883364089
 30
0.0
 10
12.7455680021
 20
9.9974363937
 30
0.0
 10
12.7291169336
 20
10.0151384354
 30
0.0
 10
12.707181039
 20
10.0359074898
 30
0.0
 10
12.6888570303
 20
10.0516511863
 30
0.0
 10
12.6747364309
 20
10.0630100761
 30
0.0
 10
12.6602532728
 20
10.0739031377
 30
0.0
 10
12.6503640446
 20
10.0808445773
 30
0.0
 10
12.6453644207
 20
10.0842333951
 30
0.0
 11
12.7534995191
 21
9.9883364089
 31
0.0
 11
12.7288460108
 21
10.0148632385
 31
0.0
 11
12.7025375593
 21
10.0397688876
 31
0.0
 11
12.6887945989
 21
10.0515759482
 31
0.0
 11
12.6746761455
 21
10.0629323281
 31
0.0
 11
12.6601949466
 21
10.0738228987
 31
0.0
 11
12.6453644207
 21
10.0842333951
 31
0.0
  0
SPLINE
  5
366
100
AcDbEntity
  8
0
100
AcDbSpline
 62
6
  6
CONTINUOUS
 70
0
 71
3
 72
13
 73
9
 74
7
 42
0.0000001
 43
0.0000001
 44
0.0000000001
 12
-0.1333231858
 22
-0.0567992397
 32
0.0
 13
-0.1143990648
 23
-0.0889611122
 33
0.0
 40
0.0
 40
0.0
 40
0.0
 40
0.0
 40
0.2498944186
 40
0.4998800744
 40
0.6249051165
 40
0.7499344339
 40
0.8749659522
 40
1.0
 40
1.0
 40
1.0
 40
1.0
 10
12.0723364698
 20
10.1357611667
 30
0.0
 10
12.0612308964
 20
10.1310298957
 30
0.0
 10
12.0393115946
 20
10.1208542316
 30
0.0
 10
12.0127804858
 20
10.1064099469
 30
0.0
 10
11.9921449106
 20
10.0938478487
 30
0.0
 10
11.9769784592
 20
10.0839284506
 30
0.0
 10
11.962143
 20
10.0735202899
 30
0.0
 10
11.9524853591
 20
10.0662600978
 30
0.0
 10
11.9477174331
 20
10.0625523752
 30
0.0
 11
12.0723364698
 21
10.1357611667
 31
0.0
 11
12.0394896026
 21
10.1205115281
 31
0.0
 11
12.0076731642
 21
10.1031869728
 31
0.0
 11
11.9921971739
 21
10.0937652231
 31
0.0
 11
11.9770337728
 21
10.0838470903
 31
0.0
 11
11.962201288
 21
10.0734400232
 31
0.0
 11
11.9477174331
 21
10.0625523752
 31
0.0
  0
LINE
  5
367
100
AcDbEntity
  8
0
100
AcDbLine
 62
6
  6
CONTINUOUS
 10
11.864893507
 20
9.9832876087
 11
11.8644114351
 21
9.9827207675
  0
SPLINE
  5
368
100
AcDbEntity
  8
0
100
AcDbSpline
 62
9
  6
CONTINUOUS
 70
0
 71
3
 72
41
 73
37
 74
35
 42
0.0000001
 43
0.0000001
 44
0.0000000001
 12
-0.0733033133
 22
0.145608433
 32
0.0
 13
-0.1179803709
 23
-0.1124981047
 33
0.0
 40
0.0
 40
0.0
 40
0.0
 40
0.0
 40
0.0231580055
 40
0.0347887849
 40
0.0464750892
 40
0.0700710545
 40
0.0940681332
 40
0.1062509301
 40
0.1185688388
 40
0.1436417585
 40
0.1693576984
 40
0.1957689712
 40
0.2508028343
 40
0.2795177032
 40
0.3090505508
 40
0.3241312005
 40
0.3394218777
 40
0.3706172082
 40
0.4026016366
 40
0.4353241686
 40
0.4687244628
 40
0.5027350362
 40
0.5372831236
 40
0.5722922703
 40
0.6076837271
 40
0.6433777059
 40
0.679294545
 40
0.7153558294
 40
0.751485503
 40
0.7876106621
 40
0.8236580616
 40
0.8595512879
 40
0.8952117088
 40
0.9305595848
 40
0.9655151927
 40
1.0
 40
1.0
 40
1.0
 40
1.0
 10
12.6028197045
 20
9.8670758457
 30
0.0
 10
12.6022538517
 20
9.868199846
 30
0.0
 10
12.6013150078
 20
9.8698456542
 30
0.0
 10
12.5999010424
 20
9.871939013
 30
0.0
 10
12.5983707739
 20
9.8739790729
 30
0.0
 10
12.5962512543
 20
9.8764116625
 30
0.0
 10
12.5938956387
 20
9.8786549423
 30
0.0
 10
12.5918708222
 20
9.8803428122
 30
0.0
 10
12.5897285623
 20
9.8819772401
 30
0.0
 10
12.5868723153
 20
9.8838824815
 30
0.0
 10
12.5832040504
 20
9.8859265078
 30
0.0
 10
12.5779131192
 20
9.8883691172
 30
0.0
 10
12.572214577
 20
9.8902753969
 30
0.0
 10
12.566211848
 20
9.8916510716
 30
0.0
 10
12.5622762428
 20
9.892293634
 30
0.0
 10
12.5590426534
 20
9.8926710974
 30
0.0
 10
12.555709078
 20
9.8929588222
 30
0.0
 10
12.5514464343
 20
9.8931398427
 30
0.0
 10
12.5462331973
 20
9.893080709
 30
0.0
 10
12.5409101045
 20
9.8927514345
 30
0.0
 10
12.5354995155
 20
9.8921567569
 30
0.0
 10
12.5300236698
 20
9.8913013905
 30
0.0
 10
12.5245048798
 20
9.8901900316
 30
0.0
 10
12.5189654689
 20
9.8888273672
 30
0.0
 10
12.5134277816
 20
9.887218076
 30
0.0
 10
12.5079141724
 20
9.8853668348
 30
0.0
 10
12.502447008
 20
9.8832783032
 30
0.0
 10
12.4970486475
 20
9.8809571801
 30
0.0
 10
12.4917415151
 20
9.8784079915
 30
0.0
 10
12.4865481215
 20
9.8756360409
 30
0.0
 10
12.4814856477
 20
9.872657057
 30
0.0
 10
12.4765711913
 20
9.8694861283
 30
0.0
 10
12.471821822
 20
9.8661384821
 30
0.0
 10
12.467254583
 20
9.8626292654
 30
0.0
 10
12.4628866511
 20
9.8589737539
 30
0.0
 10
12.4600977379
 20
9.8564299696
 30
0.0
 10
12.4587415611
 20
9.8551368111
 30
0.0
 11
12.6028197045
 21
9.8670758457
 31
0.0
 11
12.6009509363
 21
9.8703560592
 31
0.0
 11
12.5998899968
 21
9.8719274812
 31
0.0
 11
12.5987471212
 21
9.8734516865
 31
0.0
 11
12.5962228646
 21
9.8763541658
 31
0.0
 11
12.5933927716
 21
9.8790549356
 31
0.0
 11
12.5918676006
 21
9.880327004
 31
0.0
 11
12.5902714475
 21
9.8815454343
 31
0.0
 11
12.5868734976
 21
9.8838171
 31
0.0
 11
12.5832135272
 21
9.8858613711
 31
0.0
 11
12.5793061414
 21
9.8876696861
 31
0.0
 11
12.5708075449
 21
9.8905442005
 31
0.0
 11
12.5662455447
 21
9.8915932768
 31
0.0
 11
12.5614945502
 21
9.8923721501
 31
0.0
 11
12.5590527443
 21
9.8926575852
 31
0.0
 11
12.5565693635
 21
9.892872591
 31
0.0
 11
12.5514887106
 21
9.8930929927
 31
0.0
 11
12.5462749329
 21
9.8930378505
 31
0.0
 11
12.5409505072
 21
9.892711888
 31
0.0
 11
12.53553791
 21
9.8921198286
 31
0.0
 11
12.5300596179
 21
9.8912663956
 31
0.0
 11
12.5245381076
 21
9.8901563124
 31
0.0
 11
12.5189958557
 21
9.8887943025
 31
0.0
 11
12.5134553388
 21
9.8871850893
 31
0.0
 11
12.5079390335
 21
9.8853333962
 31
0.0
 11
12.5024694165
 21
9.8832439465
 31
0.0
 11
12.4970689642
 21
9.8809214637
 31
0.0
 11
12.4917601533
 21
9.8783706717
 31
0.0
 11
12.4865644016
 21
9.8755983964
 31
0.0
 11
12.4814996175
 21
9.8726184359
 31
0.0
 11
12.4765829823
 21
9.8694460318
 31
0.0
 11
12.4718316776
 21
9.8660964257
 31
0.0
 11
12.4672628849
 21
9.8625848592
 31
0.0
 11
12.4628937855
 21
9.8589265738
 31
0.0
 11
12.4587415611
 21
9.8551368111
 31
0.0
  0
SPLINE
  5
369
100
AcDbEntity
  8
0
100
AcDbSpline
 62
6
  6
CONTINUOUS
 70
0
 71
3
 72
39
 73
35
 74
33
 42
0.0000001
 43
0.0000001
 44
0.0000000001
 12
-0.346789581
 22
-0.6023924304
 32
0.0
 13
0.3467891654
 23
-0.6023926697
 33
0.0
 40
0.0
 40
0.0
 40
0.0
 40
0.0
 40
0.063520618
 40
0.0951730978
 40
0.1267484386
 40
0.1582434109
 40
0.1896559317
 40
0.2209882309
 40
0.2522409633
 40
0.2834146363
 40
0.3145148849
 40
0.3455465456
 40
0.3765161979
 40
0.4074349688
 40
0.438312987
 40
0.4537412981
 40
0.4691643527
 40
0.5000001418
 40
0.5308359317
 40
0.5462589865
 40
0.5616872959
 40
0.5925653075
 40
0.6234840729
 40
0.6544537157
 40
0.6854853645
 40
0.7165856077
 40
0.7477592744
 40
0.7790119955
 40
0.8103442831
 40
0.841756797
 40
0.8732517611
 40
0.9048270723
 40
0.9364794929
 40
1.0
 40
1.0
 40
1.0
 40
1.0
 10
15.1965189917
 20
9.5932785348
 30
0.0
 10
15.1891762289
 20
9.580523755
 30
0.0
 10
15.1785329778
 20
9.5612019499
 30
0.0
 10
15.1652206362
 20
9.5350235269
 30
0.0
 10
15.1557356323
 20
9.5152297405
 30
0.0
 10
15.1467782422
 20
9.4952523661
 30
0.0
 10
15.1383906629
 20
9.4750896643
 30
0.0
 10
15.1306156948
 20
9.4547425521
 30
0.0
 10
15.1234967688
 20
9.4342148366
 30
0.0
 10
15.1170780151
 20
9.4135133074
 30
0.0
 10
15.1114056359
 20
9.392647512
 30
0.0
 10
15.1065199371
 20
9.3716317231
 30
0.0
 10
15.1024595153
 20
9.3504832508
 30
0.0
 10
15.0992644408
 20
9.3292226482
 30
0.0
 10
15.0973419066
 20
9.3114278451
 30
0.0
 10
15.0962603293
 20
9.297165502
 30
0.0
 10
15.0954871921
 20
9.2828928958
 30
0.0
 10
15.0951006453
 20
9.2650287745
 30
0.0
 10
15.0954871825
 20
9.2471646533
 30
0.0
 10
15.0962602953
 20
9.232892046
 30
0.0
 10
15.0973418551
 20
9.2186297034
 30
0.0
 10
15.0992643784
 20
9.2008349022
 30
0.0
 10
15.102459433
 20
9.1795743018
 30
0.0
 10
15.106519837
 20
9.1584258323
 30
0.0
 10
15.1114055252
 20
9.1374100474
 30
0.0
 10
15.1170778696
 20
9.1165442486
 30
0.0
 10
15.1234965742
 20
9.0958427096
 30
0.0
 10
15.1306154766
 20
9.0753149925
 30
0.0
 10
15.1383904971
 20
9.0549679068
 30
0.0
 10
15.146778169
 20
9.0348052504
 30
0.0
 10
15.1557355549
 20
9.0148278874
 30
0.0
 10
15.1652203113
 20
8.9950340097
 30
0.0
 10
15.1785320087
 20
8.9688553142
 30
0.0
 10
15.1891748117
 20
8.9495332974
 30
0.0
 10
15.1965175529
 20
8.9367785348
 30
0.0
 11
15.1965189917
 21
9.5932785348
 31
0.0
 11
15.1752574708
 21
9.5545828904
 31
0.0
 11
15.165290103
 21
9.534969138
 31
0.0
 11
15.1558118388
 21
9.515173841
 31
0.0
 11
15.1468619105
 21
9.4951953255
 31
0.0
 11
15.1384824093
 21
9.4750329768
 31
0.0
 11
15.1307155657
 21
9.4546864635
 31
0.0
 11
15.1236049509
 21
9.4341599504
 31
0.0
 11
15.1171952684
 21
9.4134613981
 31
0.0
 11
15.1115309312
 21
9.3925994649
 31
0.0
 11
15.1066530341
 21
9.3715887011
 31
0.0
 11
15.1026007351
 21
9.3504470959
 31
0.0
 11
15.0994107243
 21
9.3291940717
 31
0.0
 11
15.097109113
 21
9.3078550685
 31
0.0
 11
15.0962987226
 21
9.2971617835
 31
0.0
 11
15.0957190283
 21
9.2864571733
 31
0.0
 11
15.0952552517
 21
9.2650287747
 31
0.0
 11
15.0957190112
 21
9.2436003752
 31
0.0
 11
15.0962986895
 21
9.232895764
 31
0.0
 11
15.0971090667
 21
9.2222024792
 31
0.0
 11
15.0994106608
 21
9.2008634787
 31
0.0
 11
15.1026006534
 21
9.1796104557
 31
0.0
 11
15.1066529354
 21
9.158468854
 31
0.0
 11
15.1115308161
 21
9.1374580948
 31
0.0
 11
15.1171951206
 21
9.1165961566
 31
0.0
 11
15.123604761
 21
9.0958975959
 31
0.0
 11
15.1307153602
 21
9.0753710857
 31
0.0
 11
15.1384822497
 21
9.0550245985
 31
0.0
 11
15.1468618215
 21
9.0348622844
 31
0.0
 11
15.155811724
 21
9.0148837635
 31
0.0
 11
15.1652897432
 21
8.9950883721
 31
0.0
 11
15.175256668
 21
8.9754744407
 31
0.0
 11
15.1965175529
 21
8.9367785348
 31
0.0
  0
SPLINE
  5
36A
100
AcDbEntity
  8
0
100
AcDbSpline
 62
6
  6
CONTINUOUS
 70
0
 71
3
 72
39
 73
35
 74
33
 42
0.0000001
 43
0.0000001
 44
0.0000000001
 12
-0.3467891659
 22
-0.6023926694
 32
0.0
 13
0.346789581
 23
-0.6023924304
 33
0.0
 40
0.0
 40
0.0
 40
0.0
 40
0.0
 40
0.063520506
 40
0.095172928
 40
0.1267482445
 40
0.1582432168
 40
0.1896557379
 40
0.2209880302
 40
0.2522407615
 40
0.2834144364
 40
0.314514684
 40
0.3455463441
 40
0.3765159932
 40
0.4074347609
 40
0.4383127796
 40
0.4537410911
 40
0.4691641455
 40
0.4999999342
 40
0.5308357246
 40
0.5462587795
 40
0.5616870885
 40
0.5925650997
 40
0.6234838682
 40
0.6544535142
 40
0.6854851636
 40
0.7165854077
 40
0.7477590726
 40
0.7790117949
 40
0.8103440892
 40
0.8417566029
 40
0.8732515669
 40
0.9048269024
 40
0.9364793808
 40
1.0
 40
1.0
 40
1.0
 40
1.0
 10
15.1965175527
 20
10.2497785348
 30
0.0
 10
15.1891748116
 20
10.2370237724
 30
0.0
 10
15.1785320083
 20
10.2177017557
 30
0.0
 10
15.1652203104
 20
10.191523059
 30
0.0
 10
15.155735553
 20
10.171729178
 30
0.0
 10
15.1467781652
 20
10.1517518107
 30
0.0
 10
15.1383904915
 20
10.1315891499
 30
0.0
 10
15.13061547
 20
10.1112420591
 30
0.0
 10
15.1234965679
 20
10.0907143362
 30
0.0
 10
15.1170778612
 20
10.0700127924
 30
0.0
 10
15.1114055137
 20
10.0491469886
 30
0.0
 10
15.1065198347
 20
10.0281311963
 30
0.0
 10
15.1024594235
 20
10.0069827237
 30
0.0
 10
15.0992643679
 20
9.9857221195
 30
0.0
 10
15.0973418578
 20
9.9679273142
 30
0.0
 10
15.0962602958
 20
9.9536649699
 30
0.0
 10
15.09548717
 20
9.9393923631
 30
0.0
 10
15.0951006452
 20
9.9215282413
 30
0.0
 10
15.0954872046
 20
9.9036641206
 30
0.0
 10
15.0962603288
 20
9.8893915138
 30
0.0
 10
15.0973419039
 20
9.8751291725
 30
0.0
 10
15.0992644512
 20
9.8573343734
 30
0.0
 10
15.1024595248
 20
9.8360737747
 30
0.0
 10
15.1065199394
 20
9.8149253056
 30
0.0
 10
15.1114056474
 20
9.793909524
 30
0.0
 10
15.1170780233
 20
9.7730437336
 30
0.0
 10
15.1234967751
 20
9.7523422092
 30
0.0
 10
15.1306157014
 20
9.7318144995
 30
0.0
 10
15.1383906687
 20
9.7114673925
 30
0.0
 10
15.1467782462
 20
9.691304695
 30
0.0
 10
15.1557356342
 20
9.6713273249
 30
0.0
 10
15.165220637
 20
9.6515335418
 30
0.0
 10
15.1785329781
 20
9.6253551201
 30
0.0
 10
15.1891762289
 20
9.6060333149
 30
0.0
 10
15.1965189919
 20
9.5932785348
 30
0.0
 11
15.1965175527
 21
10.2497785348
 31
0.0
 11
15.1752566679
 21
10.2110826297
 31
0.0
 11
15.1652897428
 21
10.1914686975
 31
0.0
 11
15.1558117223
 21
10.1716733026
 31
0.0
 11
15.1468618175
 21
10.1516947764
 31
0.0
 11
15.138482244
 21
10.1315324576
 31
0.0
 11
15.1307153542
 21
10.111185967
 31
0.0
 11
15.1236047542
 21
10.0906594497
 31
0.0
 11
15.1171951119
 21
10.0699608836
 31
0.0
 11
15.111530807
 21
10.0490989422
 31
0.0
 11
15.1066529301
 21
10.0280881742
 31
0.0
 11
15.1026006447
 21
10.0069465686
 31
0.0
 11
15.0994106532
 21
9.9856935438
 31
0.0
 11
15.0971090677
 21
9.9643545374
 31
0.0
 11
15.0962986886
 21
9.9536612513
 31
0.0
 11
15.0957190038
 21
9.9429566407
 31
0.0
 11
15.0952552517
 21
9.9215282419
 31
0.0
 11
15.0957190356
 21
9.9000998426
 31
0.0
 11
15.0962987235
 21
9.8893952318
 31
0.0
 11
15.097109112
 21
9.8787019481
 31
0.0
 11
15.0994107318
 21
9.8573629507
 31
0.0
 11
15.1026007438
 21
9.8361099284
 31
0.0
 11
15.1066530394
 21
9.8149683271
 31
0.0
 11
15.1115309403
 21
9.7939575722
 31
0.0
 11
15.1171952771
 21
9.773095642
 31
0.0
 11
15.1236049577
 21
9.7523970951
 31
0.0
 11
15.1307155717
 21
9.7318705892
 31
0.0
 11
15.1384824151
 21
9.7115240794
 31
0.0
 11
15.1468619145
 21
9.6913617353
 31
0.0
 11
15.1558118405
 21
9.671383225
 31
0.0
 11
15.1652901033
 21
9.6515879315
 31
0.0
 11
15.1752574708
 21
9.6319741801
 31
0.0
 11
15.1965189919
 21
9.5932785348
 31
0.0
  0
SPLINE
  5
36B
100
AcDbEntity
  8
0
100
AcDbSpline
 62
9
  6
CONTINUOUS
 70
0
 71
3
 72
41
 73
37
 74
35
 42
0.0000001
 43
0.0000001
 44
0.0000000001
 12
-0.1611338185
 22
-0.0247201135
 32
0.0
 13
0.070534116
 23
-0.1469698268
 33
0.0
 40
0.0
 40
0.0
 40
0.0
 40
0.0
 40
0.0231580055
 40
0.0347887849
 40
0.0464750892
 40
0.0700710545
 40
0.0940681332
 40
0.1062509301
 40
0.1185688388
 40
0.1436417585
 40
0.1693576984
 40
0.1957689712
 40
0.2508028343
 40
0.2795177032
 40
0.3090505508
 40
0.3241312005
 40
0.3394218777
 40
0.3706172082
 40
0.4026016366
 40
0.4353241686
 40
0.4687244628
 40
0.5027350362
 40
0.5372831236
 40
0.5722922703
 40
0.6076837271
 40
0.6433777059
 40
0.679294545
 40
0.7153558294
 40
0.751485503
 40
0.7876106621
 40
0.8236580616
 40
0.8595512879
 40
0.8952117088
 40
0.9305595848
 40
0.9655151927
 40
1.0
 40
1.0
 40
1.0
 40
1.0
 10
12.1410994952
 20
9.9549845724
 30
0.0
 10
12.1398556492
 20
9.9547937496
 30
0.0
 10
12.1380002739
 20
9.9544094387
 30
0.0
 10
12.1355724321
 20
9.9537115611
 30
0.0
 10
12.1331593408
 20
9.9528866025
 30
0.0
 10
12.130190843
 20
9.9516225311
 30
0.0
 10
12.1273294319
 20
9.9500754191
 30
0.0
 10
12.1250984695
 20
9.9486712846
 30
0.0
 10
12.1228820415
 20
9.9471389404
 30
0.0
 10
12.1201874204
 20
9.94501124
 30
0.0
 10
12.1171098797
 20
9.9421541516
 30
0.0
 10
12.1131518324
 20
9.9378769849
 30
0.0
 10
12.1095779063
 20
9.933046422
 30
0.0
 10
12.1064146167
 20
9.9277625944
 30
0.0
 10
12.1045873346
 20
9.9242181741
 30
0.0
 10
12.1032291115
 20
9.9212594904
 30
0.0
 10
12.1019253375
 20
9.9181779837
 30
0.0
 10
12.1004359474
 20
9.914179907
 30
0.0
 10
12.0988812081
 20
9.9092035506
 30
0.0
 10
12.0975494406
 20
9.9040392372
 30
0.0
 10
12.0964430487
 20
9.8987096958
 30
0.0
 10
12.0955644211
 20
9.8932375342
 30
0.0
 10
12.0949159863
 20
9.8876454243
 30
0.0
 10
12.0945001851
 20
9.881956045
 30
0.0
 10
12.0943194725
 20
9.876192093
 30
0.0
 10
12.0943763085
 20
9.8703762742
 30
0.0
 10
12.0946731734
 20
9.8645313001
 30
0.0
 10
12.0952125076
 20
9.8586798876
 30
0.0
 10
12.0959969358
 20
9.8528447621
 30
0.0
 10
12.0970283706
 20
9.8470489715
 30
0.0
 10
12.0982971622
 20
9.8413137162
 30
0.0
 10
12.0997942442
 20
9.8356599195
 30
0.0
 10
12.101510409
 20
9.8301085213
 30
0.0
 10
12.103436518
 20
9.8246804113
 30
0.0
 10
12.1055633508
 20
9.8193966461
 30
0.0
 10
12.1071208119
 20
9.8159581594
 30
0.0
 10
12.107931597
 20
9.8142687506
 30
0.0
 11
12.1410994952
 21
9.9549845724
 31
0.0
 11
12.1374023456
 21
9.9542209099
 31
0.0
 11
12.1355799861
 21
9.9536974926
 31
0.0
 11
12.1337772128
 21
9.9530815587
 31
0.0
 11
12.1302367527
 21
9.9515777634
 31
0.0
 11
12.1267936211
 21
9.9497207688
 31
0.0
 11
12.1251125085
 21
9.9486633357
 31
0.0
 11
12.123460474
 21
9.9475218196
 31
0.0
 11
12.1202499673
 21
9.9449921605
 31
0.0
 11
12.1171747568
 21
9.9421430363
 31
0.0
 11
12.1142474985
 21
9.9389856916
 31
0.0
 11
12.108887462
 21
9.9317913199
 31
0.0
 11
12.1064799957
 21
9.9277767822
 31
0.0
 11
12.1042711051
 21
9.9234990031
 31
0.0
 11
12.1032450806
 21
9.921264912
 31
0.0
 11
12.1022731911
 21
9.9189695169
 31
0.0
 11
12.1004935686
 21
9.9142056367
 31
0.0
 11
12.0989348659
 21
9.9092299996
 31
0.0
 11
12.0975995367
 21
9.9040654418
 31
0.0
 11
12.0964900341
 21
9.8987347996
 31
0.0
 11
12.0956088118
 21
9.8932609089
 31
0.0
 11
12.0949583231
 21
9.887666606
 31
0.0
 11
12.0945410215
 21
9.881974727
 31
0.0
 11
12.0943593603
 21
9.8762081081
 31
0.0
 11
12.0944157931
 21
9.8703895853
 31
0.0
 11
12.0947127732
 21
9.8645419949
 31
0.0
 11
12.095252754
 21
9.858688173
 31
0.0
 11
12.0960381886
 21
9.8528509556
 31
0.0
 11
12.0970692036
 21
9.847052822
 31
0.0
 11
12.09833821
 21
9.8413150676
 31
0.0
 11
12.0998360218
 21
9.8356587429
 31
0.0
 11
12.1015534526
 21
9.8301048984
 31
0.0
 11
12.1034813162
 21
9.8246745846
 31
0.0
 11
12.1056104264
 21
9.8193888518
 31
0.0
 11
12.107931597
 21
9.8142687506
 31
0.0
  0
LINE
  5
36C
100
AcDbEntity
  8
0
100
AcDbLine
 62
6
  6
CONTINUOUS
 10
11.8364616088
 20
8.8682785348
 11
11.8114863107
 21
8.8433032367
  0
SPLINE
  5
36D
100
AcDbEntity
  8
0
100
AcDbSpline
 62
9
  6
CONTINUOUS
 70
0
 71
3
 72
41
 73
37
 74
35
 42
0.0000001
 43
0.0000001
 44
0.0000000001
 12
-0.0262828633
 22
-0.1608863033
 32
0.0
 13
0.1615728519
 23
0.0216657565
 33
0.0
 40
0.0
 40
0.0
 40
0.0
 40
0.0
 40
0.0231580055
 40
0.0347887849
 40
0.0464750892
 40
0.0700710545
 40
0.0940681332
 40
0.1062509301
 40
0.1185688388
 40
0.1436417585
 40
0.1693576984
 40
0.1957689712
 40
0.2508028343
 40
0.2795177032
 40
0.3090505508
 40
0.3241312005
 40
0.3394218777
 40
0.3706172082
 40
0.4026016366
 40
0.4353241686
 40
0.4687244628
 40
0.5027350362
 40
0.5372831236
 40
0.5722922703
 40
0.6076837271
 40
0.6433777059
 40
0.679294545
 40
0.7153558294
 40
0.751485503
 40
0.7876106621
 40
0.8236580616
 40
0.8595512879
 40
0.8952117088
 40
0.9305595848
 40
0.9655151927
 40
1.0
 40
1.0
 40
1.0
 40
1.0
 10
11.9148139365
 20
9.5430278491
 30
0.0
 10
11.9146110502
 20
9.5417859138
 30
0.0
 10
11.9144032091
 20
9.5399025885
 30
0.0
 10
11.9143166857
 20
9.5373779176
 30
0.0
 10
11.9143555818
 20
9.5348280052
 30
0.0
 10
11.9146404689
 20
9.5316141765
 30
0.0
 10
11.9152276352
 20
9.5284147289
 30
0.0
 10
11.9158736412
 20
9.5258590562
 30
0.0
 10
11.9166460731
 20
9.5232775875
 30
0.0
 10
11.9178369528
 20
9.5200573549
 30
0.0
 10
11.9196031929
 20
9.5162475509
 30
0.0
 10
11.9224479163
 20
9.511161507
 30
0.0
 10
11.9259376507
 20
9.5062697753
 30
0.0
 10
11.9299853592
 20
9.5016285155
 30
0.0
 10
11.932791642
 20
9.4987953809
 30
0.0
 10
11.9351858034
 20
9.4965893505
 30
0.0
 10
11.9377136021
 20
9.4943971497
 30
0.0
 10
11.9410557521
 20
9.491745182
 30
0.0
 10
11.9453081074
 20
9.4887287583
 30
0.0
 10
11.9498081226
 20
9.4858663116
 30
0.0
 10
11.9545349237
 20
9.4831671514
 30
0.0
 10
11.9594677478
 20
9.4806405361
 30
0.0
 10
11.964585783
 20
9.4782957808
 30
0.0
 10
11.9698682146
 20
9.4761422156
 30
0.0
 10
11.9752942154
 20
9.4741891885
 30
0.0
 10
11.9808429511
 20
9.4724460559
 30
0.0
 10
11.9864935881
 20
9.4709221949
 30
0.0
 10
11.9922252755
 20
9.4696269463
 30
0.0
 10
11.9980172113
 20
9.468569829
 30
0.0
 10
12.0038480666
 20
9.4677597839
 30
0.0
 10
12.0096946967
 20
9.4671941851
 30
0.0
 10
12.0155344006
 20
9.4668708754
 30
0.0
 10
12.0213444182
 20
9.4667875687
 30
0.0
 10
12.027102058
 20
9.466942029
 30
0.0
 10
12.0327844448
 20
9.467331994
 30
0.0
 10
12.036535922
 20
9.4677506766
 30
0.0
 10
12.0383931915
 20
9.4679997231
 30
0.0
 11
11.9148139365
 21
9.5430278491
 31
0.0
 11
11.9143977406
 21
9.5392756662
 31
0.0
 11
11.9143324
 21
9.5373807545
 31
0.0
 11
11.9143611004
 21
9.5354758812
 31
0.0
 11
11.9146972324
 21
9.5316440052
 31
0.0
 11
11.915399353
 21
9.5277955496
 31
0.0
 11
11.9158855393
 21
9.5258699517
 31
0.0
 11
11.9164606789
 21
9.5239460256
 31
0.0
 11
11.9178744265
 21
9.5201109446
 31
0.0
 11
11.9196338124
 21
9.5163058179
 31
0.0
 11
11.921732053
 21
9.5125461566
 31
0.0
 11
11.9269179648
 21
9.5052252759
 31
0.0
 11
11.9299920689
 21
9.501695079
 31
0.0
 11
11.9333778939
 21
9.4982723927
 31
0.0
 11
11.9351855819
 21
9.4966062134
 31
0.0
 11
11.9370683019
 21
9.4949725754
 31
0.0
 11
11.9410490877
 21
9.4918079338
 31
0.0
 11
11.9452995341
 21
9.4887879631
 31
0.0
 11
11.949798681
 21
9.4859220534
 31
0.0
 11
11.9545255679
 21
9.4832195948
 31
0.0
 11
11.9594592346
 21
9.4806899773
 31
0.0
 11
11.9645787208
 21
9.4783425911
 31
0.0
 11
11.9698630661
 21
9.4761868263
 31
0.0
 11
11.9752913102
 21
9.474232073
 31
0.0
 11
11.9808424929
 21
9.4724877214
 31
0.0
 11
11.9864956537
 21
9.4709631614
 31
0.0
 11
11.9922298325
 21
9.4696677833
 31
0.0
 11
11.9980240687
 21
9.4686109766
 31
0.0
 11
12.0038570227
 21
9.4677998082
 31
0.0
 11
12.0097060959
 21
9.4672336415
 31
0.0
 11
12.0155484296
 21
9.4669102446
 31
0.0
 11
12.0213611649
 21
9.4668273861
 31
0.0
 11
12.0271214429
 21
9.4669828341
 31
0.0
 11
12.0328064048
 21
9.467374357
 31
0.0
 11
12.0383931915
 21
9.4679997231
 31
0.0
  0
LINE
  5
36E
100
AcDbEntity
  8
0
100
AcDbLine
 62
6
  6
CONTINUOUS
 10
12.7864616088
 20
8.8682785348
 11
12.8114369069
 21
8.8433032367
  0
SPLINE
  5
36F
100
AcDbEntity
  8
0
100
AcDbSpline
 62
6
  6
CONTINUOUS
 70
0
 71
3
 72
44
 73
40
 74
38
 42
0.0000001
 43
0.0000001
 44
0.0000000001
 12
0.0368569325
 22
-0.1820105613
 32
0.0
 13
-0.1590716944
 23
0.095825226
 33
0.0
 40
0.0
 40
0.0
 40
0.0
 40
0.0
 40
0.0313150786
 40
0.0469873109
 40
0.0626520834
 40
0.0783090746
 40
0.0939594986
 40
0.1096032483
 40
0.1252411146
 40
0.1408726322
 40
0.1564952943
 40
0.1721096969
 40
0.187717472
 40
0.2033177379
 40
0.2189113635
 40
0.2345004885
 40
0.250084849
 40
0.2812362362
 40
0.3123823808
 40
0.3279585363
 40
0.3435365297
 40
0.3746922324
 40
0.4058621242
 40
0.4370484008
 40
0.4682559068
 40
0.4994849493
 40
0.561981664
 40
0.6245563019
 40
0.6558755346
 40
0.6872031588
 40
0.7185329782
 40
0.7498604977
 40
0.7811808261
 40
0.8124872944
 40
0.843779258
 40
0.8750603811
 40
0.9063344456
 40
0.9375969349
 40
1.0
 40
1.0
 40
1.0
 40
1.0
 10
14.0445273531
 20
9.5932785348
 30
0.0
 10
14.044912079
 20
9.5913786431
 30
0.0
 10
14.0453262627
 20
9.588491298
 30
0.0
 10
14.0455492392
 20
9.5846180656
 30
0.0
 10
14.0455509854
 20
9.5817073614
 30
0.0
 10
14.0453892246
 20
9.5788027378
 30
0.0
 10
14.0450667805
 20
9.5759128264
 30
0.0
 10
14.0445859754
 20
9.5730462564
 30
0.0
 10
14.0439512328
 20
9.570211058
 30
0.0
 10
14.0431676833
 20
9.5674147329
 30
0.0
 10
14.0422398992
 20
9.5646644773
 30
0.0
 10
14.0411735745
 20
9.5619665641
 30
0.0
 10
14.0399750547
 20
9.5593263084
 30
0.0
 10
14.0386501681
 20
9.5567486462
 30
0.0
 10
14.0372050558
 20
9.5542378267
 30
0.0
 10
14.0356460803
 20
9.5517972513
 30
0.0
 10
14.0334243079
 20
9.5486418796
 30
0.0
 10
14.0303913239
 20
9.5448862771
 30
0.0
 10
14.0270570902
 20
9.5413971889
 30
0.0
 10
14.0242310402
 20
9.5387718453
 30
0.0
 10
14.0213050892
 20
9.5362574226
 30
0.0
 10
14.0174715865
 20
9.5333238573
 30
0.0
 10
14.012628404
 20
9.530144972
 30
0.0
 10
14.0075738708
 20
9.5273081129
 30
0.0
 10
14.002337918
 20
9.5248138358
 30
0.0
 10
13.9951518353
 20
9.5219437253
 30
0.0
 10
13.9858450171
 20
9.5192061338
 30
0.0
 10
13.9762768461
 20
9.5175899846
 30
0.0
 10
13.968548122
 20
9.5169548419
 30
0.0
 10
13.9627296508
 20
9.5168031921
 30
0.0
 10
13.9569114244
 20
9.5169726485
 30
0.0
 10
13.9511115186
 20
9.5174585249
 30
0.0
 10
13.9453476971
 20
9.5182558895
 30
0.0
 10
13.9396369643
 20
9.5193599686
 30
0.0
 10
13.9339955874
 20
9.5207664801
 30
0.0
 10
13.9284392454
 20
9.5224712276
 30
0.0
 10
13.9229833723
 20
9.5244701087
 30
0.0
 10
13.9158725645
 20
9.5275176894
 30
0.0
 10
13.9107326816
 20
9.5302340628
 30
0.0
 10
13.9074238278
 20
9.5322273254
 30
0.0
 11
14.0445273531
 21
9.5932785348
 31
0.0
 11
14.045354461
 21
9.5875222935
 31
0.0
 11
14.0455216619
 21
9.5846166913
 31
0.0
 11
14.045523715
 21
9.5817076683
 31
0.0
 11
14.0453623924
 21
9.5788045685
 31
0.0
 11
14.0450403028
 21
9.5759161119
 31
0.0
 11
14.0445602118
 21
9.5730509361
 31
0.0
 11
14.0439262817
 21
9.5702169449
 31
0.0
 11
14.0431434107
 21
9.5674216561
 31
0.0
 11
14.0422165497
 21
9.5646724906
 31
0.0
 11
14.0411512917
 21
9.5619755831
 31
0.0
 11
14.0399536978
 21
9.5593361291
 31
0.0
 11
14.0386298426
 21
9.5567592563
 31
0.0
 11
14.0371858493
 21
9.5542491553
 31
0.0
 11
14.035627887
 21
9.5518091478
 31
0.0
 11
14.0339621213
 21
9.5494425075
 31
0.0
 11
14.0303307971
 21
9.5449392557
 31
0.0
 11
14.0263375885
 21
9.5407549023
 31
0.0
 11
14.0242186919
 21
9.5387858362
 31
0.0
 11
14.0220249039
 21
9.5369000438
 31
0.0
 11
14.0174320427
 21
9.5333814232
 31
0.0
 11
14.0125945039
 21
9.5302027787
 31
0.0
 11
14.0075453441
 21
9.5273660937
 31
0.0
 11
14.0023142689
 21
9.524871634
 31
0.0
 11
13.9969292606
 21
9.5227188371
 31
0.0
 11
13.9857985411
 21
9.5194317495
 31
0.0
 11
13.9743421164
 21
9.5174864226
 31
0.0
 11
13.9685456092
 21
9.5170090354
 31
0.0
 11
13.962729913
 21
9.5168567125
 31
0.0
 11
13.9569142607
 21
9.5170254001
 31
0.0
 11
13.9511168511
 21
9.5175105185
 31
0.0
 11
13.9453553371
 21
9.5183072108
 31
0.0
 11
13.9396472517
 21
9.5194106544
 31
0.0
 11
13.9340087906
 21
9.5208164533
 31
0.0
 11
13.9284552878
 21
9.5225204863
 31
0.0
 11
13.9230020933
 21
9.5245186266
 31
0.0
 11
13.9176661747
 21
9.5268061804
 31
0.0
 11
13.9074238278
 21
9.5322273254
 31
0.0
  0
SPLINE
  5
370
100
AcDbEntity
  8
0
100
AcDbSpline
 62
9
  6
CONTINUOUS
 70
0
 71
3
 72
41
 73
37
 74
35
 42
0.0000001
 43
0.0000001
 44
0.0000000001
 12
0.1158298794
 22
0.1147110741
 32
0.0
 13
-0.1434499952
 23
0.0774421744
 33
0.0
 40
0.0
 40
0.0
 40
0.0
 40
0.0
 40
0.0231580055
 40
0.0347887849
 40
0.0464750892
 40
0.0700710545
 40
0.0940681332
 40
0.1062509301
 40
0.1185688388
 40
0.1436417585
 40
0.1693576984
 40
0.1957689712
 40
0.2508028343
 40
0.2795177032
 40
0.3090505508
 40
0.3241312005
 40
0.3394218777
 40
0.3706172082
 40
0.4026016366
 40
0.4353241686
 40
0.4687244628
 40
0.5027350362
 40
0.5372831236
 40
0.5722922703
 40
0.6076837271
 40
0.6433777059
 40
0.679294545
 40
0.7153558294
 40
0.751485503
 40
0.7876106621
 40
0.8236580616
 40
0.8595512879
 40
0.8952117088
 40
0.9305595848
 40
0.9655151927
 40
1.0
 40
1.0
 40
1.0
 40
1.0
 10
12.6618929285
 20
9.4007885414
 30
0.0
 10
12.6627870582
 20
9.4016740346
 30
0.0
 10
12.664062196
 20
9.4030755109
 30
0.0
 10
12.6656161592
 20
9.4050671553
 30
0.0
 10
12.6670834925
 20
9.4071529404
 30
0.0
 10
12.6687420552
 20
9.4099204348
 30
0.0
 10
12.6701476158
 20
9.41285397
 30
0.0
 10
12.6711271727
 20
9.4153012654
 30
0.0
 10
12.6720196114
 20
9.4178437416
 30
0.0
 10
12.6729489747
 20
9.4211489459
 30
0.0
 10
12.673759403
 20
9.425269312
 30
0.0
 10
12.674447475
 20
9.4310560945
 30
0.0
 10
12.6744995083
 20
9.4370648029
 30
0.0
 10
12.6739529074
 20
9.4431988443
 30
0.0
 10
12.6733478517
 20
9.44714039
 30
0.0
 10
12.6727076066
 20
9.4503323589
 30
0.0
 10
12.6719511178
 20
9.4535916893
 30
0.0
 10
12.6708060491
 20
9.4577016428
 30
0.0
 10
12.6691388308
 20
9.4626414526
 30
0.0
 10
12.667180746
 20
9.4676022632
 30
0.0
 10
12.6649432101
 20
9.4725642736
 30
0.0
 10
12.6624375788
 20
9.4775077896
 30
0.0
 10
12.6596752139
 20
9.4824130421
 30
0.0
 10
12.6566674709
 20
9.4872602484
 30
0.0
 10
12.6534257045
 20
9.4920296037
 30
0.0
 10
12.6499612706
 20
9.4967012926
 30
0.0
 10
12.6462855123
 20
9.5012554832
 30
0.0
 10
12.6424098079
 20
9.5056723626
 30
0.0
 10
12.6383453914
 20
9.5099320029
 30
0.0
 10
12.6341042628
 20
9.5140146339
 30
0.0
 10
12.6297066903
 20
9.5179087759
 30
0.0
 10
12.6251723073
 20
9.5216028308
 30
0.0
 10
12.6205208708
 20
9.5250852699
 30
0.0
 10
12.6157720529
 20
9.5283445647
 30
0.0
 10
12.6109456897
 20
9.5313690996
 30
0.0
 10
12.6076645855
 20
9.5332354411
 30
0.0
 10
12.606015637
 20
9.534125634
 30
0.0
 11
12.6618929285
 21
9.4007885414
 31
0.0
 11
12.6644351158
 21
9.4035794873
 31
0.0
 11
12.6656017786
 21
9.4050740968
 31
0.0
 11
12.6666982159
 21
9.4066320414
 31
0.0
 11
12.6686785997
 21
9.4099296676
 31
0.0
 11
12.6703726376
 21
9.4134558298
 31
0.0
 11
12.6711111427
 21
9.4152994443
 31
0.0
 11
12.6717767003
 21
9.4171939918
 31
0.0
 11
12.6728871585
 21
9.4211276175
 31
0.0
 11
12.6737003829
 21
9.4252401708
 31
0.0
 11
12.6742127439
 21
9.4295151155
 31
0.0
 11
12.6743203589
 21
9.4384860349
 31
0.0
 11
12.6739083541
 21
9.4431489373
 31
0.0
 11
12.6731809687
 21
9.4479080866
 31
0.0
 11
12.6726978741
 21
9.4503185863
 31
0.0
 11
12.6721349499
 21
9.4527468623
 31
0.0
 11
12.6707745562
 21
9.4576469582
 31
0.0
 11
12.669110967
 21
9.4625885156
 31
0.0
 11
12.6671556202
 21
9.4675516175
 31
0.0
 11
12.6649199537
 21
9.4725163469
 31
0.0
 11
12.6624154053
 21
9.4774627869
 31
0.0
 11
12.659653413
 21
9.4823710207
 31
0.0
 11
12.6566454146
 21
9.4872211313
 31
0.0
 11
12.653402848
 21
9.4919932018
 31
0.0
 11
12.6499371511
 21
9.4966673152
 31
0.0
 11
12.6462597617
 21
9.5012235547
 31
0.0
 11
12.6423821178
 21
9.5056420033
 31
0.0
 11
12.6383156576
 21
9.5099027445
 31
0.0
 11
12.6340734915
 21
9.5139875178
 31
0.0
 11
12.6296742763
 21
9.5178835553
 31
0.0
 11
12.625137817
 21
9.5215792265
 31
0.0
 11
12.6204839184
 21
9.5250629005
 31
0.0
 11
12.6157323855
 21
9.5283229469
 31
0.0
 11
12.6109030234
 21
9.5313477349
 31
0.0
 11
12.606015637
 21
9.534125634
 31
0.0
  0
LINE
  5
371
100
AcDbEntity
  8
0
100
AcDbLine
 62
6
  6
CONTINUOUS
 10
11.8114863107
 20
8.8433032367
 11
11.7864616088
 21
8.8182785348
  0
LINE
  5
372
100
AcDbEntity
  8
0
100
AcDbLine
 62
6
  6
CONTINUOUS
 10
12.8114369069
 20
8.8433032367
 11
12.8364616088
 21
8.8182785348
  0
SPLINE
  5
373
100
AcDbEntity
  8
0
100
AcDbSpline
 62
9
  6
CONTINUOUS
 70
0
 71
3
 72
41
 73
37
 74
35
 42
0.0000001
 43
0.0000001
 44
0.0000000001
 12
0.1448901157
 22
-0.0747130903
 32
0.0
 13
0.0293233982
 23
0.1603600006
 33
0.0
 40
0.0
 40
0.0
 40
0.0
 40
0.0
 40
0.0231580055
 40
0.0347887849
 40
0.0464750892
 40
0.0700710545
 40
0.0940681332
 40
0.1062509301
 40
0.1185688388
 40
0.1436417585
 40
0.1693576984
 40
0.1957689712
 40
0.2508028343
 40
0.2795177032
 40
0.3090505508
 40
0.3241312005
 40
0.3394218777
 40
0.3706172082
 40
0.4026016366
 40
0.4353241686
 40
0.4687244628
 40
0.5027350362
 40
0.5372831236
 40
0.5722922703
 40
0.6076837271
 40
0.6433777059
 40
0.679294545
 40
0.7153558294
 40
0.751485503
 40
0.7876106621
 40
0.8236580616
 40
0.8595512879
 40
0.8952117088
 40
0.9305595848
 40
0.9655151927
 40
1.0
 40
1.0
 40
1.0
 40
1.0
 10
12.2366819794
 20
9.2005158655
 30
0.0
 10
12.2378004348
 20
9.1999391301
 30
0.0
 10
12.2395273571
 20
9.1991594819
 30
0.0
 10
12.2419017246
 20
9.1982970271
 30
0.0
 10
12.244338855
 20
9.1975460532
 30
0.0
 10
12.2474834227
 20
9.1968238692
 30
0.0
 10
12.2507077225
 20
9.1963936139
 30
0.0
 10
12.2533379385
 20
9.1962182558
 30
0.0
 10
12.2560317558
 20
9.1961551645
 30
0.0
 10
12.2594623809
 20
9.1962926518
 30
0.0
 10
12.2636315181
 20
9.1967951518
 30
0.0
 10
12.2693477012
 20
9.1979289705
 30
0.0
 10
12.2750784017
 20
9.1997362769
 30
0.0
 10
12.2807433128
 20
9.2021516483
 30
0.0
 10
12.284304973
 20
9.2039450951
 30
0.0
 10
12.2871428692
 20
9.205540377
 30
0.0
 10
12.2900089087
 20
9.2072670291
 30
0.0
 10
12.2935638611
 20
9.2096260996
 30
0.0
 10
12.2977467005
 20
9.2127382037
 30
0.0
 10
12.3018596303
 20
9.2161334277
 30
0.0
 10
12.3058873461
 20
9.2197947964
 30
0.0
 10
12.3098146265
 20
9.2237054237
 30
0.0
 10
12.3136261811
 20
9.2278483953
 30
0.0
 10
12.3173067046
 20
9.232206798
 30
0.0
 10
12.3208408701
 20
9.2367637129
 30
0.0
 10
12.3242133414
 20
9.2415022166
 30
0.0
 10
12.3274087622
 20
9.2464053928
 30
0.0
 10
12.3304118056
 20
9.2514562975
 30
0.0
 10
12.3332069905
 20
9.2566380886
 30
0.0
 10
12.3357792225
 20
9.2619332439
 30
0.0
 10
12.338123847
 20
9.2673189399
 30
0.0
 10
12.3402359006
 20
9.2727729201
 30
0.0
 10
12.3421105241
 20
9.278272832
 30
0.0
 10
12.3437428322
 20
9.2837964037
 30
0.0
 10
12.3451279076
 20
9.2893211806
 30
0.0
 10
12.3458889869
 20
9.2930184274
 30
0.0
 10
12.3462260575
 20
9.2948617553
 30
0.0
 11
12.2366819794
 21
9.2005158655
 31
0.0
 11
12.2401219058
 21
9.1989605514
 31
0.0
 11
12.2419038825
 21
9.1983128489
 31
0.0
 11
12.2437243936
 21
9.1977515064
 31
0.0
 11
12.2474725947
 21
9.1968870721
 31
0.0
 11
12.2513496607
 21
9.1963655903
 31
0.0
 11
12.253331253
 21
9.1962329385
 31
0.0
 11
12.2553387433
 21
9.1961854029
 31
0.0
 11
12.2594229941
 21
9.1963448516
 31
0.0
 11
12.2635855649
 21
9.1968422781
 31
0.0
 11
12.2678096072
 21
9.1976760243
 31
0.0
 11
12.2763747134
 21
9.2003458429
 31
0.0
 11
12.2806820806
 21
9.2021785989
 31
0.0
 11
12.2849835262
 21
9.2043410416
 31
0.0
 11
12.2871267632
 21
9.2055453772
 31
0.0
 11
12.2892622377
 21
9.2068311285
 31
0.0
 11
12.2935021211
 21
9.2096391527
 31
0.0
 11
12.2976877441
 21
9.2127483453
 31
0.0
 11
12.3018036991
 21
9.2161416734
 31
0.0
 11
12.3058345784
 21
9.2198021044
 31
0.0
 11
12.3097649744
 21
9.2237126054
 31
0.0
 11
12.3135794796
 21
9.2278561439
 31
0.0
 11
12.3172626862
 21
9.232215687
 31
0.0
 11
12.3207991868
 21
9.2367742019
 31
0.0
 11
12.3241735736
 21
9.241514656
 31
0.0
 11
12.327370439
 21
9.2464200166
 31
0.0
 11
12.3303743755
 21
9.2514732508
 31
0.0
 11
12.3331699759
 21
9.2566573257
 31
0.0
 11
12.3357439247
 21
9.2619541298
 31
0.0
 11
12.3380898444
 21
9.2673419738
 31
0.0
 11
12.3402027934
 21
9.2727984283
 31
0.0
 11
12.3420778306
 21
9.2783010634
 31
0.0
 11
12.3437100146
 21
9.2838274494
 31
0.0
 11
12.345094404
 21
9.2893551566
 31
0.0
 11
12.3462260575
 21
9.2948617553
 31
0.0
  0
ENDSEC
  0
SECTION
  2
OBJECTS
  0
DICTIONARY
  5
C
100
AcDbDictionary
280
0
281
1
  3
ACAD_GROUP
350
D
  3
ACAD_MLINESTYLE
350
17
  3
ACAD_LAYOUT
350
1A
  3
ACAD_PLOTSETTINGS
350
19
  3
ACAD_PLOTSTYLENAME
350
E
  0
DICTIONARY
  5
D
102
{ACAD_REACTORS
330
C
102
}
100
AcDbDictionary
280
0
281
1
  0
ACDBDICTIONARYWDFLT
  5
E
102
{ACAD_REACTORS
330
C
102
}
100
AcDbDictionary
281
1
  3
Normal
350
F
100
AcDbDictionaryWithDefault
340
F
  0
DICTIONARY
  5
17
102
{ACAD_REACTORS
330
C
102
}
100
AcDbDictionary
280
0
281
1
  3
Standard
350
18
  0
DICTIONARY
  5
19
102
{ACAD_REACTORS
330
C
102
}
100
AcDbDictionary
281
1
  0
DICTIONARY
  5
1A
102
{ACAD_REACTORS
330
C
102
}
100
AcDbDictionary
281
1
  3
Model
350
374
  3
Layout1
350
375
  0
ACDBPLACEHOLDER
  5
F
102
{ACAD_REACTORS
330
E
102
}
  0
MLINESTYLE
  5
18
102
{ACAD_REACTORS
330
17
102
}
100
AcDbMlineStyle
  2
STANDARD
 70
0
  3

 62
256
 51
90.0
 52
90.0
 71
2
 49
0.5
 62
256
  6
BYLAYER
 49
-0.5
 62
256
  6
BYLAYER
  0
LAYOUT
  5
374
102
{ACAD_REACTORS
330
1A
102
}
100
AcDbPlotSettings
  1

  2
none_device
  4
ISO_A2_(594.00_x_420.00_MM)
  6

 40
0.0
 41
0.0
 42
0.0
 43
0.0
 44
594.0
 45
420.0
 46
0.0
 47
0.0
 48
0.0
 49
0.0
140
0.0
141
0.0
142
1.0
143
1.0
 70
1024
 72
0
 73
0
 74
0
  7

 75
0
147
1.0
148
0.0
149
0.0
100
AcDbLayout
  1
Model
 70
0
 71
0
 10
0.0
 20
0.0
 11
23.3858267717
 21
16.5354330709
 12
0.0
 22
0.0
 32
0.0
 14
0.0
 24
0.0
 34
0.0
 15
0.0
 25
0.0
 35
0.0
146
0.0
 13
0.0
 23
0.0
 33
0.0
 16
1.0
 26
0.0
 36
0.0
 17
0.0
 27
1.0
 37
0.0
 76
0
330
203
345
0
346
0
  0
LAYOUT
  5
375
102
{ACAD_REACTORS
330
1A
102
}
100
AcDbPlotSettings
  1

  2
none_device
  4
ISO_A2_(594.00_x_420.00_MM)
  6

 40
0.0
 41
0.0
 42
0.0
 43
0.0
 44
594.0
 45
420.0
 46
0.0
 47
0.0
 48
0.0
 49
0.0
140
0.0
141
0.0
142
1.0
143
1.0
 70
0
 72
0
 73
0
 74
0
  7

 75
0
147
1.0
148
0.0
149
0.0
100
AcDbLayout
  1
Layout1
 70
0
 71
1
 10
0.0
 20
0.0
 11
23.3858267717
 21
16.5354330709
 12
0.0
 22
0.0
 32
0.0
 14
0.0
 24
0.0
 34
0.0
 15
0.0
 25
0.0
 35
0.0
146
0.0
 13
0.0
 23
0.0
 33
0.0
 16
1.0
 26
0.0
 36
0.0
 17
0.0
 27
1.0
 37
0.0
 76
0
330
204
345
0
346
0
  0
ENDSEC
  0
EOF
