999
DXF file: E:\BT Custom\CADOUTPUT\_RIGHT.dxf
999
Pro/ENGINEER 2018400 by Parametric Technology Corporation
  0
SECTION
  2
HEADER
  9
$ACADVER
  1
AC1018
  9
$DWGCODEPAGE
  3
ANSI_1252
  9
$EXTMAX
 10
22.0
 20
17.0
 30
0.0
  9
$EXTMIN
 10
0.0
 20
0.0
 30
0.0
  9
$LIMMIN
 10
0.0
 20
0.0
  9
$LIMMAX
 10
22.0
 20
17.0
  9
$VIEWCTR
 10
11.0
 20
8.5
  9
$VIEWSIZE
 40
17.0
  9
$CLAYER
  8
0
  9
$LTSCALE
 40
1.21
  9
$CELTYPE
  6
BYLAYER
  9
$DIMSCALE
 40
1.0
  9
$DIMASZ
 40
0.1
  9
$DIMEXO
 40
0.0625
  9
$DIMDLI
 40
0.836
  9
$DIMEXE
 40
0.125
  9
$DIMCEN
 40
0.198
  9
$DIMLFAC
 40
1.0
  9
$DIMBLK
  1
_FILLED
  9
$DIMALT
 70
1
  9
$DIMALTD
 70
2
  9
$DIMALTTD
 70
2
  9
$DIMALTF
 40
25.4
  9
$DIMTXT
 40
0.08
  9
$DIMTOL
 70
1
  9
$DIMLIM
 70
0
  9
$DIMTFAC
 40
1.0
  9
$DIMTP
 40
0.001
  9
$DIMTM
 40
0.001
  9
$DIMGAP
 40
0.09
  9
$DIMDSEP
 70
46
  9
$AUNITS
 70
0
  9
$PDMODE
 70
3
  9
$PDSIZE
 40
0.06
  9
$HANDSEED
  5
2A5
  9
$TILEMODE
 70
1
  9
$MEASUREMENT
 70
0
  9
$INSUNITS
 70
1
  0
ENDSEC
  0
SECTION
  2
CLASSES
  0
CLASS
  1
ACDBDICTIONARYWDFLT
  2
AcDbDictionaryWithDefault
  3
AutoCAD 2000
 90
0
 91
1
280
0
281
0
  0
CLASS
  1
ACDBPLACEHOLDER
  2
AcDbPlaceHolder
  3
AutoCAD 2000
 90
0
 91
1
280
0
281
0
  0
CLASS
  1
LAYOUT
  2
AcDbLayout
  3
AutoCAD 2000
 90
0
 91
0
280
0
281
0
  0
ENDSEC
  0
SECTION
  2
TABLES
  0
TABLE
  2
VPORT
  5
8
100
AcDbSymbolTable
 70
2
  0
VPORT
  5
1F4
100
AcDbSymbolTableRecord
100
AcDbViewportTableRecord
  2
*ACTIVE
 70
0
 10
0.0
 20
0.0
 11
1.0
 21
1.0
 12
11.0
 22
8.5
 13
0.0
 23
0.0
 14
1.0
 24
1.0
 15
0.0
 25
0.0
 16
0.0
 26
0.0
 36
1.0
 17
0.0
 27
0.0
 37
0.0
 40
17.0
 41
1.2941176471
 42
50.0
 43
0.0
 44
0.0
 50
0.0
 51
0.0
 71
0
 72
100
 73
1
 74
1
 75
0
 76
0
 77
0
 78
0
  0
ENDTAB
  0
TABLE
  2
LTYPE
  5
5
100
AcDbSymbolTable
 70
6
  0
LTYPE
  5
14
100
AcDbSymbolTableRecord
100
AcDbLinetypeTableRecord
  2
BYBLOCK
 70
0
  3

 72
65
 73
0
 40
0.0
  0
LTYPE
  5
15
100
AcDbSymbolTableRecord
100
AcDbLinetypeTableRecord
  2
BYLAYER
 70
0
  3

 72
65
 73
0
 40
0.0
  0
LTYPE
  5
16
100
AcDbSymbolTableRecord
100
AcDbLinetypeTableRecord
  2
CONTINUOUS
 70
64
  3
Solid line
 72
65
 73
0
 40
0.0
  0
LTYPE
  5
1F5
100
AcDbSymbolTableRecord
100
AcDbLinetypeTableRecord
  2
CENTER
 70
64
  3
____ _ ____ _ ____ _ ____ _ ____ _ ____ _ ____
 72
65
 73
4
 40
0.6
 49
0.375
 74
0
 49
-0.075
 74
0
 49
0.075
 74
0
 49
-0.075
 74
0
  0
LTYPE
  5
1F6
100
AcDbSymbolTableRecord
100
AcDbLinetypeTableRecord
  2
HIDDEN
 70
64
  3
- - - - - - - - - - - - - - - - - - - -
 72
65
 73
2
 40
0.2
 49
0.1
 74
0
 49
-0.1
 74
0
  0
LTYPE
  5
1F7
100
AcDbSymbolTableRecord
100
AcDbLinetypeTableRecord
  2
PHANTOM
 70
64
  3
_____ _ _ _____ _ _ _____ _ _ _____
 72
65
 73
6
 40
0.8
 49
0.45
 74
0
 49
-0.05
 74
0
 49
0.1
 74
0
 49
-0.05
 74
0
 49
0.1
 74
0
 49
-0.05
 74
0
  0
LTYPE
  5
1F8
100
AcDbSymbolTableRecord
100
AcDbLinetypeTableRecord
  2
DOT
 70
64
  3
. . . . . . . . . . . . . . . . . . . .
 72
65
 73
2
 40
0.2
 49
0.1
 74
0
 49
-0.1
 74
0
  0
LTYPE
  5
1F9
100
AcDbSymbolTableRecord
100
AcDbLinetypeTableRecord
  2
DASHED
 70
64
  3
- - - - - - - - - - - - - - - - - - - -
 72
65
 73
2
 40
0.2
 49
0.1
 74
0
 49
-0.1
 74
0
  0
ENDTAB
  0
TABLE
  2
LAYER
  5
2
100
AcDbSymbolTable
 70
36
  0
LAYER
  5
10
100
AcDbSymbolTableRecord
100
AcDbLayerTableRecord
  2
0
 70
0
 62
7
  6
CONTINUOUS
370
-3
390
F
  0
LAYER
  5
1FA
100
AcDbSymbolTableRecord
100
AcDbLayerTableRecord
  2
DEFAULT_1
 70
0
 62
7
  6
CENTER
370
-3
390
F
  0
LAYER
  5
1FB
100
AcDbSymbolTableRecord
100
AcDbLayerTableRecord
  2
DEFAULT_2
 70
0
 62
8
  6
HIDDEN
370
-3
390
F
  0
LAYER
  5
1FC
100
AcDbSymbolTableRecord
100
AcDbLayerTableRecord
  2
DEFAULT_3
 70
0
 62
7
  6
PHANTOM
370
-3
390
F
  0
LAYER
  5
1FD
100
AcDbSymbolTableRecord
100
AcDbLayerTableRecord
  2
ALL_FEATURES
 70
0
 62
7
  6
CONTINUOUS
370
-3
390
F
  0
LAYER
  5
1FE
100
AcDbSymbolTableRecord
100
AcDbLayerTableRecord
  2
AXES_FEATURES
 70
0
 62
7
  6
CONTINUOUS
370
-3
390
F
  0
LAYER
  5
1FF
100
AcDbSymbolTableRecord
100
AcDbLayerTableRecord
  2
DIMENSIONS
 70
0
 62
7
  6
CONTINUOUS
370
-3
390
F
  0
ENDTAB
  0
TABLE
  2
STYLE
  5
3
100
AcDbSymbolTable
 70
1
  0
STYLE
  5
11
100
AcDbSymbolTableRecord
100
AcDbTextStyleTableRecord
  2
STANDARD
 70
0
 40
0.0
 41
0.8
 50
0.0
 71
0
 42
0.2
  3
txt
  4

  0
STYLE
  5
200
100
AcDbSymbolTableRecord
100
AcDbTextStyleTableRecord
  2
TEXTSTYLE_1
 70
0
 40
0.0
 41
0.8
 50
0.0
 71
0
 42
0.2
  3
gdt
  4

  0
ENDTAB
  0
TABLE
  2
VIEW
  5
6
100
AcDbSymbolTable
 70
0
  0
ENDTAB
  0
TABLE
  2
UCS
  5
7
100
AcDbSymbolTable
 70
0
  0
ENDTAB
  0
TABLE
  2
APPID
  5
9
100
AcDbSymbolTable
 70
1
  0
APPID
  5
201
100
AcDbSymbolTableRecord
100
AcDbRegAppTableRecord
  2
ACAD
 70
0
  0
ENDTAB
  0
TABLE
  2
BLOCK_RECORD
  5
1
100
AcDbSymbolTable
 70
0
  0
BLOCK_RECORD
  5
202
100
AcDbSymbolTableRecord
100
AcDbBlockTableRecord
  2
*Model_Space
  0
BLOCK_RECORD
  5
203
100
AcDbSymbolTableRecord
100
AcDbBlockTableRecord
  2
*Paper_Space
  0
BLOCK_RECORD
  5
204
100
AcDbSymbolTableRecord
100
AcDbBlockTableRecord
  2
_FILLED
  0
ENDTAB
  0
TABLE
  2
DIMSTYLE
  5
A
100
AcDbSymbolTable
 70
1
100
AcDbDimStyleTable
 71
0
  0
DIMSTYLE
105
205
100
AcDbSymbolTableRecord
100
AcDbDimStyleTableRecord
  2
STANDARD
 70
0
  3

  4

 40
1.0
 41
0.1
 42
0.0625
 43
0.38
 44
0.125
 45
0.0
 46
0.0
 47
0.001
 48
0.001
140
0.08
141
0.09
142
0.0
143
25.4
144
1.0
145
0.0
146
1.0
147
0.09
 71
1.0
 72
0.0
 73
1
 74
1
 75
0
 76
0
 77
0
 78
4
 79
1
170
1
171
2
172
0
173
0
174
0
175
0
176
0
177
0
178
0
270
2
179
3
271
3
272
3
273
2
274
2
275
0
280
0
281
0
282
0
283
1
284
4
285
0
286
0
287
3
288
0
340
11
278
46
341
204
342
204
343
204
344
204
  0
ENDTAB
  0
ENDSEC
  0
SECTION
  2
BLOCKS
  0
BLOCK
  5
20
100
AcDbEntity
  8
0
100
AcDbBlockBegin
  2
*Model_Space
 70
0
 10
0.0
 20
0.0
 30
0.0
  3
*Model_Space
  1

  0
ENDBLK
  5
21
100
AcDbEntity
  8
0
100
AcDbBlockEnd
  0
BLOCK
  5
1C
100
AcDbEntity
  8
0
100
AcDbBlockBegin
  2
*Paper_Space
 70
0
 10
0.0
 20
0.0
 30
0.0
  3
*Paper_Space
  1

  0
ENDBLK
  5
1D
100
AcDbEntity
  8
0
100
AcDbBlockEnd
  0
BLOCK
  5
206
100
AcDbEntity
  8
0
100
AcDbBlockBegin
  2
_FILLED
 70
64
 10
0.0
 20
0.0
  3
_FILLED
  1

  0
SOLID
  5
207
100
AcDbEntity
  8
0
  6
BYBLOCK
 62
0
100
AcDbTrace
 10
0.0
 20
0.0
 11
-1.0
 21
0.2
 12
-1.0
 22
-0.2
 13
-1.0
 23
-0.2
  0
ENDBLK
  5
208
100
AcDbEntity
  8
0
  6
BYBLOCK
 62
0
100
AcDbBlockEnd
  0
ENDSEC
  0
SECTION
  2
ENTITIES
  0
LINE
  5
209
100
AcDbEntity
  8
0
100
AcDbLine
 62
7
  6
CONTINUOUS
 10
9.5299841419
 20
7.488891804
 11
11.8899828364
 21
7.488891804
  0
LINE
  5
20A
100
AcDbEntity
  8
0
100
AcDbLine
 62
7
  6
CONTINUOUS
 10
9.7099834891
 20
7.675891804
 11
11.7099834891
 21
7.675891804
  0
LINE
  5
20B
100
AcDbEntity
  8
0
100
AcDbLine
 62
9
  6
CONTINUOUS
 10
11.1029002627
 20
10.3869783815
 11
11.1028933469
 21
10.3869762926
  0
LINE
  5
20C
100
AcDbEntity
  8
0
100
AcDbLine
 62
7
  6
CONTINUOUS
 10
11.522985307
 20
7.863891804
 11
9.8969816713
 21
7.863891804
  0
LINE
  5
20D
100
AcDbEntity
  8
0
100
AcDbLine
 62
7
  6
CONTINUOUS
 10
9.968984015
 20
7.925891804
 11
11.4509829633
 21
7.925891804
  0
LINE
  5
20E
100
AcDbEntity
  8
0
100
AcDbLine
 62
7
  6
CONTINUOUS
 10
9.9689834891
 20
7.925891804
 11
9.9689834891
 21
7.863891804
  0
LINE
  5
20F
100
AcDbEntity
  8
0
100
AcDbLine
 62
7
  6
CONTINUOUS
 10
10.0534834891
 20
7.925891804
 11
10.0534834891
 21
8.2770992821
  0
LINE
  5
210
100
AcDbEntity
  8
0
100
AcDbLine
 62
9
  6
CONTINUOUS
 10
11.3511469288
 20
8.292391804
 11
10.0688200495
 21
8.292391804
  0
LINE
  5
211
100
AcDbEntity
  8
0
100
AcDbLine
 62
7
  6
CONTINUOUS
 10
10.1524834891
 20
10.2119020092
 11
10.1524834891
 21
10.125891804
  0
LINE
  5
212
100
AcDbEntity
  8
0
100
AcDbLine
 62
7
  6
CONTINUOUS
 10
10.1599834891
 20
10.100891804
 11
10.1599834891
 21
10.0483111027
  0
LINE
  5
213
100
AcDbEntity
  8
0
100
AcDbLine
 62
9
  6
CONTINUOUS
 10
10.0914834891
 20
8.507391804
 11
11.3284834891
 21
8.507391804
  0
LINE
  5
214
100
AcDbEntity
  8
0
100
AcDbLine
 62
7
  6
CONTINUOUS
 10
10.4084834891
 20
9.485891804
 11
10.4084834891
 21
9.195891804
  0
LINE
  5
215
100
AcDbEntity
  8
0
100
AcDbLine
 62
7
  6
CONTINUOUS
 10
10.1694834891
 20
8.8415082428
 11
10.0953494949
 21
8.7355906156
  0
LINE
  5
216
100
AcDbEntity
  8
0
100
AcDbLine
 62
9
  6
CONTINUOUS
 10
10.0953494949
 20
8.7355906156
 11
11.3246174833
 21
8.7355906156
  0
LINE
  5
217
100
AcDbEntity
  8
0
100
AcDbLine
 62
7
  6
CONTINUOUS
 10
10.5099834891
 20
9.195891804
 11
10.5099834891
 21
9.175891804
  0
LINE
  5
218
100
AcDbEntity
  8
0
100
AcDbLine
 62
9
  6
CONTINUOUS
 10
11.2504834891
 20
8.8415082428
 11
10.1694834891
 21
8.8415082428
  0
LINE
  5
219
100
AcDbEntity
  8
0
100
AcDbLine
 62
7
  6
CONTINUOUS
 10
10.7099823605
 20
8.1758353475
 11
10.7099834891
 21
7.925891804
  0
LINE
  5
21A
100
AcDbEntity
  8
0
100
AcDbLine
 62
7
  6
CONTINUOUS
 10
11.3511469288
 20
8.292391804
 11
11.3664834891
 21
8.2770994223
  0
LINE
  5
21B
100
AcDbEntity
  8
0
100
AcDbLine
 62
7
  6
CONTINUOUS
 10
10.7549834891
 20
10.5283539762
 11
10.7549834891
 21
10.52734978
  0
LINE
  5
21C
100
AcDbEntity
  8
0
100
AcDbLine
 62
7
  6
CONTINUOUS
 10
10.7626845403
 20
10.5217852861
 11
10.7626845403
 21
10.5207700634
  0
LINE
  5
21D
100
AcDbEntity
  8
0
100
AcDbLine
 62
7
  6
CONTINUOUS
 10
10.0688200495
 20
8.292391804
 11
10.0534834891
 21
8.2770994223
  0
LINE
  5
21E
100
AcDbEntity
  8
0
100
AcDbLine
 62
9
  6
CONTINUOUS
 10
11.1397232167
 20
9.1474910467
 11
10.2802437616
 21
9.1474910467
  0
LINE
  5
21F
100
AcDbEntity
  8
0
100
AcDbLine
 62
7
  6
CONTINUOUS
 10
10.9099834891
 20
9.195891804
 11
10.9099834891
 21
9.175891804
  0
LINE
  5
220
100
AcDbEntity
  8
0
100
AcDbLine
 62
7
  6
CONTINUOUS
 10
10.9643584891
 20
10.4748971695
 11
10.9643584891
 21
10.4737955989
  0
LINE
  5
221
100
AcDbEntity
  8
0
100
AcDbLine
 62
7
  6
CONTINUOUS
 10
10.9799834891
 20
10.4667213089
 11
10.9799834891
 21
10.4676909724
  0
LINE
  5
222
100
AcDbEntity
  8
0
100
AcDbLine
 62
7
  6
CONTINUOUS
 10
11.1088221507
 20
9.175891804
 11
10.3111448276
 21
9.175891804
  0
LINE
  5
223
100
AcDbEntity
  8
0
100
AcDbLine
 62
7
  6
CONTINUOUS
 10
10.4084836616
 20
9.195891804
 11
11.0114833166
 21
9.195891804
  0
LINE
  5
224
100
AcDbEntity
  8
0
100
AcDbLine
 62
7
  6
CONTINUOUS
 10
11.0114834891
 20
9.485891804
 11
11.0114834891
 21
9.195891804
  0
LINE
  5
225
100
AcDbEntity
  8
0
100
AcDbLine
 62
7
  6
CONTINUOUS
 10
11.2504834891
 20
8.8415082428
 11
11.3246174833
 21
8.7355906156
  0
LINE
  5
226
100
AcDbEntity
  8
0
100
AcDbLine
 62
9
  6
CONTINUOUS
 10
11.0114834891
 20
9.485891804
 11
10.4084834891
 21
9.485891804
  0
LINE
  5
227
100
AcDbEntity
  8
0
100
AcDbLine
 62
7
  6
CONTINUOUS
 10
11.2599834891
 20
10.100891804
 11
11.2599834891
 21
10.0483111027
  0
LINE
  5
228
100
AcDbEntity
  8
0
100
AcDbLine
 62
7
  6
CONTINUOUS
 10
11.2674834891
 20
10.2119020092
 11
11.2674834891
 21
10.125891804
  0
LINE
  5
229
100
AcDbEntity
  8
0
100
AcDbLine
 62
7
  6
CONTINUOUS
 10
11.3664834891
 20
8.2770992821
 11
11.3664834891
 21
7.925891804
  0
LINE
  5
22A
100
AcDbEntity
  8
0
100
AcDbLine
 62
7
  6
CONTINUOUS
 10
9.9132668405
 20
9.545891804
 11
11.5067001378
 21
9.545891804
  0
LINE
  5
22B
100
AcDbEntity
  8
0
100
AcDbLine
 62
9
  6
CONTINUOUS
 10
10.3531199056
 20
9.555891804
 11
11.0668466351
 21
9.555891804
  0
LINE
  5
22C
100
AcDbEntity
  8
0
100
AcDbLine
 62
9
  6
CONTINUOUS
 10
10.9496262609
 20
9.6458918041
 11
11.4359894596
 21
9.645891804
  0
LINE
  5
22D
100
AcDbEntity
  8
0
100
AcDbLine
 62
9
  6
CONTINUOUS
 10
10.4703154402
 20
9.6458918275
 11
9.9839775186
 21
9.645891804
  0
LINE
  5
22E
100
AcDbEntity
  8
0
100
AcDbLine
 62
7
  6
CONTINUOUS
 10
11.4509834891
 20
7.925891804
 11
11.4509834891
 21
7.863891804
  0
LINE
  5
22F
100
AcDbEntity
  8
0
100
AcDbLine
 62
9
  6
CONTINUOUS
 10
11.0853725364
 20
9.9193398798
 11
11.4289905548
 21
10.005025846
  0
LINE
  5
230
100
AcDbEntity
  8
0
100
AcDbLine
 62
7
  6
CONTINUOUS
 10
11.4755057544
 20
10.1020545985
 11
11.1206130638
 21
10.0135571349
  0
LINE
  5
231
100
AcDbEntity
  8
0
100
AcDbLine
 62
9
  6
CONTINUOUS
 10
9.9909764234
 20
10.005025846
 11
10.3341354042
 21
9.9194543473
  0
LINE
  5
232
100
AcDbEntity
  8
0
100
AcDbLine
 62
7
  6
CONTINUOUS
 10
10.2986058008
 20
10.013743687
 11
9.9444612231
 21
10.1020545987
  0
LINE
  5
233
100
AcDbEntity
  8
0
100
AcDbLine
 62
9
  6
CONTINUOUS
 10
11.2599834891
 20
10.100891804
 11
10.1599834891
 21
10.100891804
  0
LINE
  5
234
100
AcDbEntity
  8
0
100
AcDbLine
 62
7
  6
CONTINUOUS
 10
10.1675063185
 20
10.110891804
 11
11.2524606598
 21
10.110891804
  0
LINE
  5
235
100
AcDbEntity
  8
0
100
AcDbLine
 62
9
  6
CONTINUOUS
 10
10.1524834891
 20
10.125891804
 11
11.2674834891
 21
10.125891804
  0
LINE
  5
236
100
AcDbEntity
  8
0
100
AcDbLine
 62
9
  6
CONTINUOUS
 10
11.2674834891
 20
10.2119020092
 11
10.1524834891
 21
10.2119020092
  0
LINE
  5
237
100
AcDbEntity
  8
0
100
AcDbLine
 62
7
  6
CONTINUOUS
 10
10.1924834891
 20
10.260891804
 11
11.2274834891
 21
10.260891804
  0
LINE
  5
238
100
AcDbEntity
  8
0
100
AcDbLine
 62
9
  6
CONTINUOUS
 10
10.2850134692
 20
10.3762107263
 11
11.134953509
 21
10.3762107263
  0
LINE
  5
239
100
AcDbEntity
  8
0
100
AcDbLine
 62
7
  6
CONTINUOUS
 10
10.3024834891
 20
10.380891804
 11
11.1174834891
 21
10.380891804
  0
LINE
  5
23A
100
AcDbEntity
  8
0
100
AcDbLine
 62
9
  6
CONTINUOUS
 10
11.1028933469
 20
10.3869762926
 11
10.3170656421
 21
10.3869774733
  0
LINE
  5
23B
100
AcDbEntity
  8
0
100
AcDbLine
 62
7
  6
CONTINUOUS
 10
10.3024834891
 20
10.380891804
 11
10.2850134692
 21
10.3762107263
  0
LINE
  5
23C
100
AcDbEntity
  8
0
100
AcDbLine
 62
7
  6
CONTINUOUS
 10
11.1174834891
 20
10.380891804
 11
11.134953509
 21
10.3762107263
  0
ARC
  5
23D
100
AcDbEntity
  8
0
100
AcDbCircle
 62
7
  6
CONTINUOUS
 10
10.2624586102
 20
8.6186274008
 40
0.2039751211
100
AcDbArc
 50
145.0110095298
 51
213.0478355063
  0
ARC
  5
23E
100
AcDbEntity
  8
0
100
AcDbCircle
 62
7
  6
CONTINUOUS
 10
9.7171196002
 20
7.488891804
 40
0.1871361111
100
AcDbArc
 50
92.1854050713
 51
180.0
  0
ARC
  5
23F
100
AcDbEntity
  8
0
100
AcDbCircle
 62
7
  6
CONTINUOUS
 10
9.8969808153
 20
7.676891804
 40
0.187
100
AcDbArc
 50
90.0
 51
180.3063960032
  0
ARC
  5
240
100
AcDbEntity
  8
0
100
AcDbCircle
 62
7
  6
CONTINUOUS
 10
9.9477089555
 20
8.4138527795
 40
0.1715245336
100
AcDbArc
 50
314.9173576842
 51
33.0478355063
  0
ARC
  5
241
100
AcDbEntity
  8
0
100
AcDbCircle
 62
7
  6
CONTINUOUS
 10
9.657444587
 20
9.1998951326
 40
0.625
100
AcDbArc
 50
325.0110095299
 51
355.1903004544
  0
ARC
  5
242
100
AcDbEntity
  8
0
100
AcDbCircle
 62
7
  6
CONTINUOUS
 10
10.6899408026
 20
9.9563974985
 40
0.5690040937
100
AcDbArc
 50
119.2475018201
 51
120.6363501879
  0
ARC
  5
243
100
AcDbEntity
  8
0
100
AcDbCircle
 62
7
  6
CONTINUOUS
 10
10.6898062749
 20
9.9566486109
 40
0.5687192659
100
AcDbArc
 50
114.3861792778
 51
119.2480369377
  0
ARC
  5
244
100
AcDbEntity
  8
0
100
AcDbCircle
 62
7
  6
CONTINUOUS
 10
10.6898344698
 20
9.9678061304
 40
0.5587968737
100
AcDbArc
 50
87.3435978735
 51
114.8241139676
  0
ARC
  5
245
100
AcDbEntity
  8
0
100
AcDbCircle
 62
7
  6
CONTINUOUS
 10
10.6895238006
 20
9.9698864784
 40
0.5567268521
100
AcDbArc
 50
82.4487903558
 51
83.6697999389
  0
ARC
  5
246
100
AcDbEntity
  8
0
100
AcDbCircle
 62
7
  6
CONTINUOUS
 10
10.689432267
 20
9.9691141336
 40
0.5564981227
100
AcDbArc
 50
82.4361618713
 51
83.293797712
  0
ARC
  5
247
100
AcDbEntity
  8
0
100
AcDbCircle
 62
7
  6
CONTINUOUS
 10
10.6852839554
 20
9.9683030608
 40
0.5562198513
100
AcDbArc
 50
82.8816932215
 51
114.4575718184
  0
ARC
  5
248
100
AcDbEntity
  8
0
100
AcDbCircle
 62
7
  6
CONTINUOUS
 10
10.6895792576
 20
9.9703974337
 40
0.5562128974
100
AcDbArc
 50
83.6696744554
 51
87.3049652783
  0
ARC
  5
249
100
AcDbEntity
  8
0
100
AcDbCircle
 62
7
  6
CONTINUOUS
 10
10.6896225252
 20
9.9694800864
 40
0.5561163988
100
AcDbArc
 50
83.3088627503
 51
109.015452435
  0
ARC
  5
24A
100
AcDbEntity
  8
0
100
AcDbCircle
 62
7
  6
CONTINUOUS
 10
10.6850319835
 20
9.9688398428
 40
0.5557036929
100
AcDbArc
 50
81.9892580556
 51
82.84905566
  0
ARC
  5
24B
100
AcDbEntity
  8
0
100
AcDbCircle
 62
7
  6
CONTINUOUS
 10
10.6851507681
 20
9.9696606505
 40
0.554874341
100
AcDbArc
 50
79.1096204007
 51
81.9895924903
  0
ARC
  5
24C
100
AcDbEntity
  8
0
100
AcDbCircle
 62
7
  6
CONTINUOUS
 10
9.9132465957
 20
9.9770119802
 40
0.1288798254
100
AcDbArc
 50
75.9836079875
 51
89.9909998125
  0
ARC
  5
24D
100
AcDbEntity
  8
0
100
AcDbCircle
 62
7
  6
CONTINUOUS
 10
10.3173658499
 20
10.255469998
 40
0.125
100
AcDbArc
 50
105.0
 51
177.5140472804
  0
ARC
  5
24E
100
AcDbEntity
  8
0
100
AcDbCircle
 62
7
  6
CONTINUOUS
 10
10.4522043518
 20
9.4783076186
 40
0.1230092643
100
AcDbArc
 50
132.9132381596
 51
134.2196739325
  0
ARC
  5
24F
100
AcDbEntity
  8
0
100
AcDbCircle
 62
9
  6
CONTINUOUS
 10
10.4185524513
 20
9.6271239729
 40
0.0799905319
100
AcDbArc
 50
228.6083581464
 51
229.3208387852
  0
ARC
  5
250
100
AcDbEntity
  8
0
100
AcDbCircle
 62
9
  6
CONTINUOUS
 10
10.3957489743
 20
9.5054525737
 40
0.0686103913
100
AcDbArc
 50
113.4478019044
 51
116.0089640334
  0
ARC
  5
251
100
AcDbEntity
  8
0
100
AcDbCircle
 62
7
  6
CONTINUOUS
 10
10.3484834891
 20
9.485891804
 40
0.06
100
AcDbArc
 50
0.0
 51
90.0
  0
ARC
  5
252
100
AcDbEntity
  8
0
100
AcDbCircle
 62
7
  6
CONTINUOUS
 10
10.2024834891
 20
10.2119020092
 40
0.05
100
AcDbArc
 50
101.5369590328
 51
180.0
  0
ARC
  5
253
100
AcDbEntity
  8
0
100
AcDbCircle
 62
7
  6
CONTINUOUS
 10
10.3111346006
 20
9.144891804
 40
0.031
100
AcDbArc
 50
90.0
 51
175.1903004544
  0
ARC
  5
254
100
AcDbEntity
  8
0
100
AcDbCircle
 62
7
  6
CONTINUOUS
 10
10.3299834891
 20
10.3717089033
 40
0.02
100
AcDbArc
 50
130.2326139161
 51
152.405594211
  0
ARC
  5
255
100
AcDbEntity
  8
0
100
AcDbCircle
 62
7
  6
CONTINUOUS
 10
10.1674834891
 20
10.125891804
 40
0.015
100
AcDbArc
 50
180.0
 51
270.0
  0
ARC
  5
256
100
AcDbEntity
  8
0
100
AcDbCircle
 62
7
  6
CONTINUOUS
 10
10.1699834891
 20
10.100891804
 40
0.01
100
AcDbArc
 50
90.0
 51
180.0
  0
ARC
  5
257
100
AcDbEntity
  8
0
100
AcDbCircle
 62
7
  6
CONTINUOUS
 10
11.1575083681
 20
8.6186274008
 40
0.2039751211
100
AcDbArc
 50
326.9521644937
 51
34.9889904702
  0
ARC
  5
258
100
AcDbEntity
  8
0
100
AcDbCircle
 62
7
  6
CONTINUOUS
 10
11.702847378
 20
7.488891804
 40
0.1871361111
100
AcDbArc
 50
0.0
 51
87.8145949287
  0
ARC
  5
259
100
AcDbEntity
  8
0
100
AcDbCircle
 62
7
  6
CONTINUOUS
 10
11.5229861629
 20
7.676891804
 40
0.187
100
AcDbArc
 50
359.6936039968
 51
90.0
  0
ARC
  5
25A
100
AcDbEntity
  8
0
100
AcDbCircle
 62
7
  6
CONTINUOUS
 10
11.4722580228
 20
8.4138527795
 40
0.1715245336
100
AcDbArc
 50
146.9521644937
 51
225.0826423158
  0
ARC
  5
25B
100
AcDbEntity
  8
0
100
AcDbCircle
 62
7
  6
CONTINUOUS
 10
11.7625223912
 20
9.1998951326
 40
0.625
100
AcDbArc
 50
184.8096995456
 51
214.9889904701
  0
ARC
  5
25C
100
AcDbEntity
  8
0
100
AcDbCircle
 62
7
  6
CONTINUOUS
 10
10.7099834891
 20
9.9225584707
 40
0.6083333333
100
AcDbArc
 50
49.767518517
 51
63.6511341187
  0
ARC
  5
25D
100
AcDbEntity
  8
0
100
AcDbCircle
 62
7
  6
CONTINUOUS
 10
10.7099834891
 20
9.9225584707
 40
0.6083333333
100
AcDbArc
 50
120.6364598536
 51
130.2326139161
  0
ARC
  5
25E
100
AcDbEntity
  8
0
100
AcDbCircle
 62
7
  6
CONTINUOUS
 10
10.7099834891
 20
9.9225584707
 40
0.6083333333
100
AcDbArc
 50
87.98394777
 51
110.1109984566
  0
ARC
  5
25F
100
AcDbEntity
  8
0
100
AcDbCircle
 62
7
  6
CONTINUOUS
 10
10.7099834891
 20
9.9225584707
 40
0.6080992344
100
AcDbArc
 50
65.2719586833
 51
87.9834170324
  0
ARC
  5
260
100
AcDbEntity
  8
0
100
AcDbCircle
 62
7
  6
CONTINUOUS
 10
10.7099834891
 20
9.9225584707
 40
0.6074645623
100
AcDbArc
 50
63.6105416983
 51
85.7517290609
  0
ARC
  5
261
100
AcDbEntity
  8
0
100
AcDbCircle
 62
7
  6
CONTINUOUS
 10
10.7099834891
 20
9.9225584707
 40
0.6070988487
100
AcDbArc
 50
85.7398825649
 51
87.0699910339
  0
ARC
  5
262
100
AcDbEntity
  8
0
100
AcDbCircle
 62
7
  6
CONTINUOUS
 10
11.5067203826
 20
9.9770119802
 40
0.1288798255
100
AcDbArc
 50
90.0090001895
 51
104.016392598
  0
ARC
  5
263
100
AcDbEntity
  8
0
100
AcDbCircle
 62
7
  6
CONTINUOUS
 10
11.1026011284
 20
10.255469998
 40
0.125
100
AcDbArc
 50
2.4859527196
 51
75.0
  0
ARC
  5
264
100
AcDbEntity
  8
0
100
AcDbCircle
 62
7
  6
CONTINUOUS
 10
10.7176061951
 20
10.4206185026
 40
0.1107554753
100
AcDbArc
 50
65.9829908043
 51
70.7494188614
  0
ARC
  5
265
100
AcDbEntity
  8
0
100
AcDbCircle
 62
7
  6
CONTINUOUS
 10
10.7348606571
 20
10.4286959487
 40
0.1016693209
100
AcDbArc
 50
71.865603641
 51
78.5843944221
  0
ARC
  5
266
100
AcDbEntity
  8
0
100
AcDbCircle
 62
7
  6
CONTINUOUS
 10
10.7348302751
 20
10.4277350154
 40
0.1016329344
100
AcDbArc
 50
71.7042150795
 51
78.5627780592
  0
ARC
  5
267
100
AcDbEntity
  8
0
100
AcDbCircle
 62
7
  6
CONTINUOUS
 10
10.7218644357
 20
10.4357660751
 40
0.0949929941
100
AcDbArc
 50
80.1127846253
 51
84.2499156084
  0
ARC
  5
268
100
AcDbEntity
  8
0
100
AcDbCircle
 62
7
  6
CONTINUOUS
 10
11.0714834891
 20
9.485891804
 40
0.06
100
AcDbArc
 50
90.0
 51
180.0
  0
ARC
  5
269
100
AcDbEntity
  8
0
100
AcDbCircle
 62
7
  6
CONTINUOUS
 10
11.2174834891
 20
10.2119020092
 40
0.05
100
AcDbArc
 50
0.0
 51
78.4630409672
  0
ARC
  5
26A
100
AcDbEntity
  8
0
100
AcDbCircle
 62
7
  6
CONTINUOUS
 10
11.1088323776
 20
9.144891804
 40
0.031
100
AcDbArc
 50
4.8096995456
 51
90.0
  0
ARC
  5
26B
100
AcDbEntity
  8
0
100
AcDbCircle
 62
7
  6
CONTINUOUS
 10
11.0899834891
 20
10.3717089033
 40
0.02
100
AcDbArc
 50
27.594405789
 51
49.7673860839
  0
ARC
  5
26C
100
AcDbEntity
  8
0
100
AcDbCircle
 62
7
  6
CONTINUOUS
 10
11.2524834891
 20
10.125891804
 40
0.015
100
AcDbArc
 50
270.0
 51
360.0
  0
ARC
  5
26D
100
AcDbEntity
  8
0
100
AcDbCircle
 62
7
  6
CONTINUOUS
 10
11.2499834891
 20
10.100891804
 40
0.01
100
AcDbArc
 50
0.0
 51
90.0
  0
SPLINE
  5
26E
100
AcDbEntity
  8
0
100
AcDbSpline
 62
7
  6
CONTINUOUS
 70
0
 71
3
 72
19
 73
15
 74
0
 42
0.0000001
 43
0.0000001
 44
0.0000000001
 40
0.0
 40
0.0
 40
0.0
 40
0.0
 40
0.1266125538
 40
0.2525288689
 40
0.315213376
 40
0.3777388896
 40
0.5023528849
 40
0.5646097768
 40
0.6268335715
 40
0.689036419
 40
0.7512472027
 40
0.8134594387
 40
0.8756706712
 40
1.0
 40
1.0
 40
1.0
 40
1.0
 10
11.6438533273
 20
9.9824209462
 30
0.0
 10
11.6422728326
 20
9.9907206019
 30
0.0
 10
11.6379239
 20
10.0070720332
 30
0.0
 10
11.6295205529
 20
10.0264486253
 30
0.0
 10
11.6210772477
 20
10.0409432451
 30
0.0
 10
11.6115429035
 20
10.0546350408
 30
0.0
 10
11.6003451542
 20
10.0670769544
 30
0.0
 10
11.5876860171
 20
10.0778757042
 30
0.0
 10
11.5775085158
 20
10.0850900994
 30
0.0
 10
11.5667182946
 20
10.0913447485
 30
0.0
 10
11.5553908219
 20
10.0965624696
 30
0.0
 10
11.5436203885
 20
10.1006936729
 30
0.0
 10
11.5274878265
 20
10.1046737975
 30
0.0
 10
11.5149965807
 20
10.105891804
 30
0.0
 10
11.5067001378
 20
10.105891804
 30
0.0
  0
SPLINE
  5
26F
100
AcDbEntity
  8
0
100
AcDbSpline
 62
7
  6
CONTINUOUS
 70
0
 71
3
 72
13
 73
9
 74
0
 42
0.0000001
 43
0.0000001
 44
0.0000000001
 40
0.0
 40
0.0
 40
0.0
 40
0.0
 40
0.1242280933
 40
0.2491724269
 40
0.5000002825
 40
0.7508277623
 40
0.8757718931
 40
1.0
 40
1.0
 40
1.0
 40
1.0
 10
11.643853327
 20
9.6693626605
 30
0.0
 10
11.6462920189
 20
9.6821689691
 30
0.0
 10
11.6505630477
 20
9.7079782483
 30
0.0
 10
11.6566775188
 20
9.7601059602
 30
0.0
 10
11.6597377123
 20
9.8258918532
 30
0.0
 10
11.6566775191
 20
9.891677725
 30
0.0
 10
11.6505630496
 20
9.9438053775
 30
0.0
 10
11.6462920194
 20
9.9696146362
 30
0.0
 10
11.6438533273
 20
9.9824209463
 30
0.0
  0
SPLINE
  5
270
100
AcDbEntity
  8
0
100
AcDbSpline
 62
7
  6
CONTINUOUS
 70
0
 71
3
 72
19
 73
15
 74
0
 42
0.0000001
 43
0.0000001
 44
0.0000000001
 40
0.0
 40
0.0
 40
0.0
 40
0.0
 40
0.1243147901
 40
0.1865185126
 40
0.2487320208
 40
0.3109465328
 40
0.3731539928
 40
0.4353835487
 40
0.4976457442
 40
0.6222698831
 40
0.6847993042
 40
0.7474847991
 40
0.8733995772
 40
1.0
 40
1.0
 40
1.0
 40
1.0
 10
11.5067001378
 20
9.545891804
 30
0.0
 10
11.5149956108
 20
9.545891804
 30
0.0
 10
11.5274855331
 20
9.547108648
 30
0.0
 10
11.543616511
 20
9.5510894138
 30
0.0
 10
11.5553870622
 20
9.5552196585
 30
0.0
 10
11.5667153739
 20
9.5604371759
 30
0.0
 10
11.5775063858
 20
9.5666923319
 30
0.0
 10
11.5876849759
 20
9.5739069974
 30
0.0
 10
11.6003452062
 20
9.5847066785
 30
0.0
 10
11.6115436355
 20
9.5971497146
 30
0.0
 10
11.6210786021
 20
9.6108423039
 30
0.0
 10
11.6295217354
 20
9.62533729
 30
0.0
 10
11.637924478
 20
9.6447132153
 30
0.0
 10
11.6422729837
 20
9.6610637997
 30
0.0
 10
11.643853327
 20
9.6693626604
 30
0.0
  0
SPLINE
  5
271
100
AcDbEntity
  8
0
100
AcDbSpline
 62
7
  6
CONTINUOUS
 70
0
 71
3
 72
19
 73
15
 74
0
 42
0.0000001
 43
0.0000001
 44
0.0000000001
 40
0.0
 40
0.0
 40
0.0
 40
0.0
 40
0.1266125537
 40
0.2525288689
 40
0.3152133759
 40
0.3777388896
 40
0.5023528848
 40
0.5646097768
 40
0.6268335714
 40
0.689036419
 40
0.7512472027
 40
0.8134594387
 40
0.8756706712
 40
1.0
 40
1.0
 40
1.0
 40
1.0
 10
9.7761136512
 20
9.9824209475
 30
0.0
 10
9.7776941459
 20
9.9907206031
 30
0.0
 10
9.7820430787
 20
10.0070720342
 30
0.0
 10
9.7904464258
 20
10.0264486262
 30
0.0
 10
9.7988897311
 20
10.0409432458
 30
0.0
 10
9.8084240752
 20
10.0546350414
 30
0.0
 10
9.8196218245
 20
10.0670769548
 30
0.0
 10
9.8322809616
 20
10.0778757046
 30
0.0
 10
9.8424584628
 20
10.0850900996
 30
0.0
 10
9.853248684
 20
10.0913447487
 30
0.0
 10
9.8645761567
 20
10.0965624697
 30
0.0
 10
9.87634659
 20
10.100693673
 30
0.0
 10
9.8924791519
 20
10.1046737975
 30
0.0
 10
9.9049703976
 20
10.105891804
 30
0.0
 10
9.9132668405
 20
10.105891804
 30
0.0
  0
SPLINE
  5
272
100
AcDbEntity
  8
0
100
AcDbSpline
 62
7
  6
CONTINUOUS
 70
0
 71
3
 72
13
 73
9
 74
0
 42
0.0000001
 43
0.0000001
 44
0.0000000001
 40
0.0
 40
0.0
 40
0.0
 40
0.0
 40
0.1242280934
 40
0.249172427
 40
0.5000002825
 40
0.7508277624
 40
0.8757718932
 40
1.0
 40
1.0
 40
1.0
 40
1.0
 10
9.776113651
 20
9.6693626618
 30
0.0
 10
9.7736749591
 20
9.6821689705
 30
0.0
 10
9.7694039304
 20
9.7079782496
 30
0.0
 10
9.7632894594
 20
9.7601059615
 30
0.0
 10
9.760229266
 20
9.8258918546
 30
0.0
 10
9.7632894593
 20
9.8916777263
 30
0.0
 10
9.7694039288
 20
9.9438053787
 30
0.0
 10
9.7736749591
 20
9.9696146374
 30
0.0
 10
9.7761136512
 20
9.9824209474
 30
0.0
  0
SPLINE
  5
273
100
AcDbEntity
  8
0
100
AcDbSpline
 62
7
  6
CONTINUOUS
 70
0
 71
3
 72
19
 73
15
 74
0
 42
0.0000001
 43
0.0000001
 44
0.0000000001
 40
0.0
 40
0.0
 40
0.0
 40
0.0
 40
0.12431479
 40
0.1865185126
 40
0.2487320208
 40
0.3109465328
 40
0.3731539928
 40
0.4353835487
 40
0.4976457441
 40
0.622269883
 40
0.6847993042
 40
0.747484799
 40
0.8733995772
 40
1.0
 40
1.0
 40
1.0
 40
1.0
 10
9.9132668405
 20
9.545891804
 30
0.0
 10
9.9049713675
 20
9.545891804
 30
0.0
 10
9.892481445
 20
9.547108648
 30
0.0
 10
9.876350467
 20
9.5510894139
 30
0.0
 10
9.8645799158
 20
9.5552196586
 30
0.0
 10
9.8532516039
 20
9.5604371761
 30
0.0
 10
9.842460592
 20
9.5666923322
 30
0.0
 10
9.8322820018
 20
9.5739069978
 30
0.0
 10
9.8196217716
 20
9.5847066791
 30
0.0
 10
9.8084233422
 20
9.5971497153
 30
0.0
 10
9.7988883756
 20
9.6108423048
 30
0.0
 10
9.7904452423
 20
9.6253372911
 30
0.0
 10
9.7820424998
 20
9.6447132166
 30
0.0
 10
9.7776939943
 20
9.6610638011
 30
0.0
 10
9.776113651
 20
9.6693626618
 30
0.0
  0
SPLINE
  5
274
100
AcDbEntity
  8
0
100
AcDbSpline
 62
7
  6
CONTINUOUS
 70
0
 71
3
 72
9
 73
5
 74
0
 42
0.0000001
 43
0.0000001
 44
0.0000000001
 40
0.0
 40
0.0
 40
0.0
 40
0.0
 40
0.24699069
 40
1.0
 40
1.0
 40
1.0
 40
1.0
 10
10.7381756147
 20
10.5293482014
 30
0.0
 10
10.7394892183
 20
10.5291194139
 30
0.0
 10
10.7447879476
 20
10.528082293
 30
0.0
 10
10.7499994062
 20
10.5266073152
 30
0.0
 10
10.7538413004
 20
10.5252787688
 30
0.0
  0
LINE
  5
275
100
AcDbEntity
  8
0
100
AcDbLine
 62
7
  6
CONTINUOUS
 10
10.7538413004
 20
10.5252787688
 11
10.7541222997
 21
10.5251811604
  0
SPLINE
  5
276
100
AcDbEntity
  8
0
100
AcDbSpline
 62
9
  6
CONTINUOUS
 70
0
 71
3
 72
20
 73
16
 74
0
 42
0.0000001
 43
0.0000001
 44
0.0000000001
 40
0.0
 40
0.0
 40
0.0
 40
0.0
 40
0.0520780918
 40
0.1045386443
 40
0.1577845751
 40
0.2121889155
 40
0.2680683596
 40
0.325647768
 40
0.3850865556
 40
0.4464848314
 40
0.5750582002
 40
0.6422244428
 40
0.7111323418
 40
0.8534525887
 40
1.0
 40
1.0
 40
1.0
 40
1.0
 10
9.9444605975
 20
10.1020520886
 30
0.0
 10
9.9464327764
 20
10.1015608554
 30
0.0
 10
9.9503343058
 20
10.1003252026
 30
0.0
 10
9.9559387786
 20
10.0977378177
 30
0.0
 10
9.96126427
 20
10.0944404105
 30
0.0
 10
9.9662708779
 20
10.0904601026
 30
0.0
 10
9.9709200086
 20
10.0858262489
 30
0.0
 10
9.9751807055
 20
10.0805790661
 30
0.0
 10
9.9790201051
 20
10.0747568684
 30
0.0
 10
9.983602747
 20
10.0661568537
 30
0.0
 10
9.987137661
 20
10.0567073032
 30
0.0
 10
9.989632595
 20
10.0466784933
 30
0.0
 10
9.9914826161
 20
10.0359629398
 30
0.0
 10
9.9923937865
 20
10.0219859188
 30
0.0
 10
9.9916840331
 20
10.0107011674
 30
0.0
 10
9.9909764226
 20
10.0050258462
 30
0.0
  0
SPLINE
  5
277
100
AcDbEntity
  8
0
100
AcDbSpline
 62
9
  6
CONTINUOUS
 70
0
 71
3
 72
21
 73
17
 74
0
 42
0.0000001
 43
0.0000001
 44
0.0000000001
 40
0.0
 40
0.0
 40
0.0
 40
0.0
 40
0.0287918484
 40
0.056643836
 40
0.1106778785
 40
0.164375666
 40
0.2193569788
 40
0.2476528402
 40
0.2765718451
 40
0.3363393222
 40
0.3984741853
 40
0.4625298024
 40
0.5948286214
 40
0.7300157999
 40
0.8653044448
 40
1.0
 40
1.0
 40
1.0
 40
1.0
 10
10.2986647913
 20
10.013725625
 30
0.0
 10
10.2996687631
 20
10.0134759963
 30
0.0
 10
10.3016239089
 20
10.0128976607
 30
0.0
 10
10.3053181477
 20
10.0114122726
 30
0.0
 10
10.3095583061
 20
10.0089484013
 30
0.0
 10
10.3140112092
 20
10.0051171114
 30
0.0
 10
10.3172026349
 20
10.0013468941
 30
0.0
 10
10.3195001985
 20
9.9980321804
 30
0.0
 10
10.3216915847
 20
9.9944427514
 30
0.0
 10
10.3241513737
 20
9.9896040681
 30
0.0
 10
10.3266688012
 20
9.9834078606
 30
0.0
 10
10.3295505472
 20
9.9745717056
 30
0.0
 10
10.3321865809
 20
9.9629267219
 30
0.0
 10
10.3340046588
 20
9.948551015
 30
0.0
 10
10.334634035
 20
9.9339922828
 30
0.0
 10
10.3343900343
 20
9.9242874872
 30
0.0
 10
10.3341353899
 20
9.9194543488
 30
0.0
  0
SPLINE
  5
278
100
AcDbEntity
  8
0
100
AcDbSpline
 62
7
  6
CONTINUOUS
 70
0
 71
3
 72
22
 73
18
 74
0
 42
0.0000001
 43
0.0000001
 44
0.0000000001
 40
0.0
 40
0.0
 40
0.0
 40
0.0
 40
0.0635380582
 40
0.1267747041
 40
0.2522270535
 40
0.3145027142
 40
0.3765023766
 40
0.4382939858
 40
0.4999730912
 40
0.5616521961
 40
0.6234437993
 40
0.6854434577
 40
0.7477191136
 40
0.810308871
 40
0.8732250657
 40
0.9364617309
 40
1.0
 40
1.0
 40
1.0
 40
1.0
 10
11.3664821877
 20
8.1758370227
 30
0.0
 10
11.3537263957
 20
8.1831803644
 30
0.0
 10
11.3279905515
 20
8.1973497488
 30
0.0
 10
11.2756190103
 20
8.2232742476
 30
0.0
 10
11.2215630959
 20
8.2451006661
 30
0.0
 10
11.1659917941
 20
8.2613266656
 30
0.0
 10
11.1237922643
 20
8.2703173583
 30
0.0
 10
11.0811360656
 20
8.2758521792
 30
0.0
 10
11.0382330712
 20
8.2777221736
 30
0.0
 10
10.9953301698
 20
8.2758521219
 30
0.0
 10
10.9526737162
 20
8.2703171647
 30
0.0
 10
10.9104751836
 20
8.2613266811
 30
0.0
 10
10.8688888809
 20
8.2491841022
 30
0.0
 10
10.8280073214
 20
8.2342395516
 30
0.0
 10
10.7878689045
 20
8.2168492216
 30
0.0
 10
10.748473629
 20
8.1973488403
 30
0.0
 10
10.7227404504
 20
8.1831787164
 30
0.0
 10
10.7099846178
 20
8.1758353475
 30
0.0
  0
SPLINE
  5
279
100
AcDbEntity
  8
0
100
AcDbSpline
 62
9
  6
CONTINUOUS
 70
0
 71
3
 72
19
 73
15
 74
0
 42
0.0000001
 43
0.0000001
 44
0.0000000001
 40
0.0
 40
0.0
 40
0.0
 40
0.0
 40
0.0276818284
 40
0.057100768
 40
0.0896886877
 40
0.1264883959
 40
0.1682098354
 40
0.2153093799
 40
0.2680449219
 40
0.3265593751
 40
0.4611296789
 40
0.6190467358
 40
0.7992064393
 40
1.0
 40
1.0
 40
1.0
 40
1.0
 10
9.7761139545
 20
9.6693627196
 30
0.0
 10
9.7761696803
 20
9.6690714368
 30
0.0
 10
9.7763666163
 20
9.668483693
 30
0.0
 10
9.7768917083
 20
9.6676695409
 30
0.0
 10
9.7776396767
 20
9.6669120364
 30
0.0
 10
9.7786053182
 20
9.6662092175
 30
0.0
 10
9.7797869753
 20
9.6655593214
 30
0.0
 10
9.7811831537
 20
9.6649623516
 30
0.0
 10
9.7827913798
 20
9.6644181056
 30
0.0
 10
9.7853354277
 20
9.6637320767
 30
0.0
 10
9.789037802
 20
9.6630433461
 30
0.0
 10
9.7940720477
 20
9.6624742916
 30
0.0
 10
9.7998373143
 20
9.66213361
 30
0.0
 10
9.8039191514
 20
9.6620651656
 30
0.0
 10
9.8060703256
 20
9.6620651656
 30
0.0
  0
SPLINE
  5
27A
100
AcDbEntity
  8
0
100
AcDbSpline
 62
9
  6
CONTINUOUS
 70
0
 71
3
 72
15
 73
11
 74
0
 42
0.0000001
 43
0.0000001
 44
0.0000000001
 40
0.0
 40
0.0
 40
0.0
 40
0.0
 40
0.130993597
 40
0.2583067773
 40
0.3822093559
 40
0.5034860368
 40
0.623601301
 40
0.7447048322
 40
0.8693695527
 40
1.0
 40
1.0
 40
1.0
 40
1.0
 10
10.3210747595
 20
10.0543244163
 30
0.0
 10
10.3174912911
 20
10.0542003013
 30
0.0
 10
10.3104250116
 20
10.0539498905
 30
0.0
 10
10.2999835483
 20
10.0532363541
 30
0.0
 10
10.2898676006
 20
10.0518719833
 30
0.0
 10
10.2801203384
 20
10.0495450828
 30
0.0
 10
10.2708161948
 20
10.046003945
 30
0.0
 10
10.2620601362
 20
10.0410574105
 30
0.0
 10
10.2539754613
 20
10.0346037892
 30
0.0
 10
10.2492246969
 20
10.0294400916
 30
0.0
 10
10.2469817946
 20
10.0266553378
 30
0.0
  0
SPLINE
  5
27B
100
AcDbEntity
  8
0
100
AcDbSpline
 62
9
  6
CONTINUOUS
 70
0
 71
3
 72
19
 73
15
 74
0
 42
0.0000001
 43
0.0000001
 44
0.0000000001
 40
0.0
 40
0.0
 40
0.0
 40
0.0
 40
0.1284697168
 40
0.2626966896
 40
0.3309241304
 40
0.3993532664
 40
0.4674082269
 40
0.5345021436
 40
0.6636478838
 40
0.7844200893
 40
0.8416164795
 40
0.8965804427
 40
0.9493038883
 40
1.0
 40
1.0
 40
1.0
 40
1.0
 10
10.3210730278
 20
10.054324354
 30
0.0
 10
10.3211081153
 20
10.0521508751
 30
0.0
 10
10.3209148906
 20
10.0476987111
 30
0.0
 10
10.3199992709
 20
10.0421579835
 30
0.0
 10
10.3187898001
 20
10.0377331816
 30
0.0
 10
10.3176282295
 20
10.0344664829
 30
0.0
 10
10.3162323277
 20
10.0313133411
 30
0.0
 10
10.3141047222
 20
10.0273762792
 30
0.0
 10
10.3109680089
 20
10.0229838916
 30
0.0
 10
10.30711148
 20
10.0194369276
 30
0.0
 10
10.3038098185
 20
10.0172723571
 30
0.0
 10
10.3013144751
 20
10.0160101152
 30
0.0
 10
10.298789445
 20
10.0150929504
 30
0.0
 10
10.2970774751
 20
10.0147056649
 30
0.0
 10
10.2962307489
 20
10.0145682781
 30
0.0
  0
SPLINE
  5
27C
100
AcDbEntity
  8
0
100
AcDbSpline
 62
9
  6
CONTINUOUS
 70
0
 71
3
 72
15
 73
11
 74
0
 42
0.0000001
 43
0.0000001
 44
0.0000000001
 40
0.0
 40
0.0
 40
0.0
 40
0.0
 40
0.1296751568
 40
0.267946902
 40
0.4097587906
 40
0.5495141529
 40
0.6818333161
 40
0.802762446
 40
0.9091925442
 40
1.0
 40
1.0
 40
1.0
 40
1.0
 10
10.4693621063
 20
9.9194597546
 30
0.0
 10
10.4635558585
 20
9.9186251866
 30
0.0
 10
10.4515192093
 20
9.9171681599
 30
0.0
 10
10.4330442055
 20
9.9156228778
 30
0.0
 10
10.4140694867
 20
9.9147315313
 30
0.0
 10
10.3953447778
 20
9.914492385
 30
0.0
 10
10.3775681111
 20
9.9149148465
 30
0.0
 10
10.3613237364
 20
9.9159058867
 30
0.0
 10
10.3470032391
 20
9.9173848598
 30
0.0
 10
10.3381764382
 20
9.9187184287
 30
0.0
 10
10.3341356319
 20
9.9194568389
 30
0.0
  0
SPLINE
  5
27D
100
AcDbEntity
  8
0
100
AcDbSpline
 62
9
  6
CONTINUOUS
 70
0
 71
3
 72
30
 73
26
 74
0
 42
0.0000001
 43
0.0000001
 44
0.0000000001
 40
0.0
 40
0.0
 40
0.0
 40
0.0
 40
0.1250154561
 40
0.2500309118
 40
0.3750463671
 40
0.5000618222
 40
0.5625695497
 40
0.6250772774
 40
0.6875850046
 40
0.7500927345
 40
0.781346591
 40
0.8126004788
 40
0.8282273721
 40
0.8438542344
 40
0.8594812254
 40
0.8751084256
 40
0.8907352806
 40
0.9063613777
 40
0.9219889423
 40
0.9376192998
 40
0.9454318735
 40
0.9532417476
 40
0.9688538616
 40
0.9844443662
 40
1.0
 40
1.0
 40
1.0
 40
1.0
 10
10.3332245097
 20
9.645891804
 30
0.0
 10
10.3332243605
 20
9.6572931488
 30
0.0
 10
10.3332237727
 20
9.6800958384
 30
0.0
 10
10.3332206512
 20
9.7142998726
 30
0.0
 10
10.3332165138
 20
9.7485039065
 30
0.0
 10
10.3332126026
 20
9.7770072681
 30
0.0
 10
10.3332095606
 20
9.7998099573
 30
0.0
 10
10.3332073637
 20
9.8169119742
 30
0.0
 10
10.3332054692
 20
9.8340139913
 30
0.0
 10
10.3332038132
 20
9.8482656716
 30
0.0
 10
10.3332032797
 20
9.8596670181
 30
0.0
 10
10.3332020671
 20
9.8667928564
 30
0.0
 10
10.3332023088
 20
9.8724935212
 30
0.0
 10
10.333203282
 20
9.8767690206
 30
0.0
 10
10.3332027517
 20
9.8810445496
 30
0.0
 10
10.3331982243
 20
9.8853200718
 30
0.0
 10
10.3331963163
 20
9.8895955276
 30
0.0
 10
10.3332108221
 20
9.8938709705
 30
0.0
 10
10.3332138879
 20
9.8981468341
 30
0.0
 10
10.3331706925
 20
9.901709845
 30
0.0
 10
10.3331732507
 20
9.9045601653
 30
0.0
 10
10.3332262019
 20
9.9074084479
 30
0.0
 10
10.3334009344
 20
9.9109627972
 30
0.0
 10
10.3337129765
 20
9.9152159153
 30
0.0
 10
10.3339825138
 20
9.9180439442
 30
0.0
 10
10.3341354042
 20
9.9194543473
 30
0.0
  0
SPLINE
  5
27E
100
AcDbEntity
  8
0
100
AcDbSpline
 62
7
  6
CONTINUOUS
 70
0
 71
3
 72
15
 73
11
 74
0
 42
0.0000001
 43
0.0000001
 44
0.0000000001
 40
0.0
 40
0.0
 40
0.0
 40
0.0
 40
0.1321086011
 40
0.2618757399
 40
0.3892676817
 40
0.5144022945
 40
0.6375263862
 40
0.7590261422
 40
0.879502363
 40
1.0
 40
1.0
 40
1.0
 40
1.0
 10
10.4703154402
 20
9.645891804
 30
0.0
 10
10.4665500962
 20
9.6416776409
 30
0.0
 10
10.4586672353
 20
9.6336887347
 30
0.0
 10
10.4459300962
 20
9.6229357794
 30
0.0
 10
10.4327174052
 20
9.6132834436
 30
0.0
 10
10.4193205261
 20
9.6044048217
 30
0.0
 10
10.4059726695
 20
9.5959188874
 30
0.0
 10
10.3928707975
 20
9.5874150526
 30
0.0
 10
10.3801962006
 20
9.5784738602
 30
0.0
 10
10.3722232509
 20
9.5719080385
 30
0.0
 10
10.368448561
 20
9.5683978323
 30
0.0
  0
SPLINE
  5
27F
100
AcDbEntity
  8
0
100
AcDbSpline
 62
9
  6
CONTINUOUS
 70
0
 71
3
 72
15
 73
11
 74
0
 42
0.0000001
 43
0.0000001
 44
0.0000000001
 40
0.0
 40
0.0
 40
0.0
 40
0.0
 40
0.1064426495
 40
0.2157479635
 40
0.3299571612
 40
0.450664417
 40
0.5784813633
 40
0.7132621539
 40
0.8543194687
 40
1.0
 40
1.0
 40
1.0
 40
1.0
 10
9.9839775186
 20
9.645891804
 30
0.0
 10
9.9817777136
 20
9.645891804
 30
0.0
 10
9.9773031752
 20
9.6464191396
 30
0.0
 10
9.970834036
 20
9.648735178
 30
0.0
 10
9.9647460232
 20
9.6525082723
 30
0.0
 10
9.9592027124
 20
9.6576131995
 30
0.0
 10
9.9543315646
 20
9.6639019779
 30
0.0
 10
9.9502549949
 20
9.6712131472
 30
0.0
 10
9.9470771324
 20
9.6793494992
 30
0.0
 10
9.9456222456
 20
9.6851118242
 30
0.0
 10
9.9450590387
 20
9.6880693939
 30
0.0
  0
SPLINE
  5
280
100
AcDbEntity
  8
0
100
AcDbSpline
 62
9
  6
CONTINUOUS
 70
0
 71
3
 72
13
 73
9
 74
0
 42
0.0000001
 43
0.0000001
 44
0.0000000001
 40
0.0
 40
0.0
 40
0.0
 40
0.0
 40
0.1240090695
 40
0.2489265624
 40
0.5
 40
0.7510734376
 40
0.8759909305
 40
1.0
 40
1.0
 40
1.0
 40
1.0
 10
9.9450590387
 20
9.6880693939
 30
0.0
 10
9.9429156014
 20
9.6993252315
 30
0.0
 10
9.9391605512
 20
9.7220277165
 30
0.0
 10
9.9337800165
 20
9.7679255439
 30
0.0
 10
9.9310872492
 20
9.825891804
 30
0.0
 10
9.9337800165
 20
9.8838580641
 30
0.0
 10
9.9391605512
 20
9.9297558916
 30
0.0
 10
9.9429156014
 20
9.9524583766
 30
0.0
 10
9.9450590387
 20
9.9637142142
 30
0.0
  0
SPLINE
  5
281
100
AcDbEntity
  8
0
100
AcDbSpline
 62
9
  6
CONTINUOUS
 70
0
 71
3
 72
18
 73
14
 74
0
 42
0.0000001
 43
0.0000001
 44
0.0000000001
 40
0.0
 40
0.0
 40
0.0
 40
0.0
 40
0.1478753243
 40
0.2902219458
 40
0.4250048587
 40
0.4893955835
 40
0.551737603
 40
0.6704168523
 40
0.7826570887
 40
0.8373293671
 40
0.8915240095
 40
0.9456256114
 40
1.0
 40
1.0
 40
1.0
 40
1.0
 10
9.9450590387
 20
9.9637142142
 30
0.0
 10
9.9456959122
 20
9.9670586294
 30
0.0
 10
9.9473885815
 20
9.9735486851
 30
0.0
 10
9.9511906847
 20
9.9826010547
 30
0.0
 10
9.9553622656
 20
9.989314881
 30
0.0
 10
9.9592073477
 20
9.9939587098
 30
0.0
 10
9.9632130515
 20
9.9979530634
 30
0.0
 10
9.9686911831
 20
10.0019920869
 30
0.0
 10
9.9748051517
 20
10.0045985953
 30
0.0
 10
9.9797952266
 20
10.0056665321
 30
0.0
 10
9.983546361
 20
10.0059673928
 30
0.0
 10
9.9872967282
 20
10.0057781895
 30
0.0
 10
9.9897617645
 20
10.0053287382
 30
0.0
 10
9.9909764234
 20
10.005025846
 30
0.0
  0
SPLINE
  5
282
100
AcDbEntity
  8
0
100
AcDbSpline
 62
9
  6
CONTINUOUS
 70
0
 71
3
 72
21
 73
17
 74
0
 42
0.0000001
 43
0.0000001
 44
0.0000000001
 40
0.0
 40
0.0
 40
0.0
 40
0.0
 40
0.0725654256
 40
0.1449226749
 40
0.2871025208
 40
0.4239719325
 40
0.4899057728
 40
0.5538919278
 40
0.6158190769
 40
0.6756625518
 40
0.7334618258
 40
0.7893662516
 40
0.843631658
 40
0.8965894345
 40
0.9485919873
 40
1.0
 40
1.0
 40
1.0
 40
1.0
 10
9.9839775186
 20
9.645891804
 30
0.0
 10
9.9839775186
 20
9.6426267916
 30
0.0
 10
9.9837492908
 20
9.6361036007
 30
0.0
 10
9.9824061485
 20
9.6232477215
 30
0.0
 10
9.9791129413
 20
9.6077245484
 30
0.0
 10
9.9736512376
 20
9.5931216976
 30
0.0
 10
9.9680839487
 20
9.5824727222
 30
0.0
 10
9.9634323647
 20
9.5751871782
 30
0.0
 10
9.9582925776
 20
9.5685803927
 30
0.0
 10
9.9527194235
 20
9.5627113319
 30
0.0
 10
9.9467616576
 20
9.5576392938
 30
0.0
 10
9.9404733933
 20
9.5534158992
 30
0.0
 10
9.933914329
 20
9.550079451
 30
0.0
 10
9.9271434708
 20
9.5476744114
 30
0.0
 10
9.9202389046
 20
9.5462201391
 30
0.0
 10
9.9155798953
 20
9.545891804
 30
0.0
 10
9.9132668405
 20
9.545891804
 30
0.0
  0
SPLINE
  5
283
100
AcDbEntity
  8
0
100
AcDbSpline
 62
9
  6
CONTINUOUS
 70
0
 71
3
 72
17
 73
13
 74
0
 42
0.0000001
 43
0.0000001
 44
0.0000000001
 40
0.0
 40
0.0
 40
0.0
 40
0.0
 40
0.0510823398
 40
0.1064463
 40
0.2277144135
 40
0.3593009104
 40
0.4964744
 40
0.6341208929
 40
0.7670972916
 40
0.890609105
 40
0.9473673475
 40
1.0
 40
1.0
 40
1.0
 40
1.0
 10
9.8060703256
 20
9.6620651656
 30
0.0
 10
9.808487857
 20
9.6620651653
 30
0.0
 10
9.8135257741
 20
9.6621598768
 30
0.0
 10
9.8242910307
 20
9.6626840745
 30
0.0
 10
9.8388268149
 20
9.6639739266
 30
0.0
 10
9.857133554
 20
9.6663693319
 30
0.0
 10
9.8761032896
 20
9.669570354
 30
0.0
 10
9.8950114354
 20
9.6734578422
 30
0.0
 10
9.9131365371
 20
9.6778812673
 30
0.0
 10
9.9273898149
 20
9.6819785692
 30
0.0
 10
9.9378605857
 20
9.685425275
 30
0.0
 10
9.9427312485
 20
9.6871828365
 30
0.0
 10
9.9450590387
 20
9.6880693939
 30
0.0
  0
SPLINE
  5
284
100
AcDbEntity
  8
0
100
AcDbSpline
 62
9
  6
CONTINUOUS
 70
0
 71
3
 72
19
 73
15
 74
0
 42
0.0000001
 43
0.0000001
 44
0.0000000001
 40
0.0
 40
0.0
 40
0.0
 40
0.0
 40
0.0276818284
 40
0.057100768
 40
0.0896886877
 40
0.1264883959
 40
0.1682098354
 40
0.21530938
 40
0.268044922
 40
0.3265593752
 40
0.461129679
 40
0.6190467358
 40
0.7992064393
 40
1.0
 40
1.0
 40
1.0
 40
1.0
 10
11.6438530238
 20
9.9824208884
 30
0.0
 10
11.643797298
 20
9.9827121713
 30
0.0
 10
11.643600362
 20
9.9832999151
 30
0.0
 10
11.6430752699
 20
9.9841140672
 30
0.0
 10
11.6423273016
 20
9.9848715717
 30
0.0
 10
11.64136166
 20
9.9855743906
 30
0.0
 10
11.640180003
 20
9.9862242867
 30
0.0
 10
11.6387838246
 20
9.9868212565
 30
0.0
 10
11.6371755984
 20
9.9873655025
 30
0.0
 10
11.6346315505
 20
9.9880515314
 30
0.0
 10
11.6309291763
 20
9.988740262
 30
0.0
 10
11.6258949305
 20
9.9893093165
 30
0.0
 10
11.620129664
 20
9.989649998
 30
0.0
 10
11.6160478268
 20
9.9897184424
 30
0.0
 10
11.6138966526
 20
9.9897184424
 30
0.0
  0
SPLINE
  5
285
100
AcDbEntity
  8
0
100
AcDbSpline
 62
9
  6
CONTINUOUS
 70
0
 71
3
 72
17
 73
13
 74
0
 42
0.0000001
 43
0.0000001
 44
0.0000000001
 40
0.0
 40
0.0
 40
0.0
 40
0.0
 40
0.052628364
 40
0.1093730337
 40
0.2328327578
 40
0.3657718533
 40
0.503403547
 40
0.640592637
 40
0.7722165783
 40
0.8935361064
 40
0.9489134219
 40
1.0
 40
1.0
 40
1.0
 40
1.0
 10
9.9450590387
 20
9.9637142142
 30
0.0
 10
9.9427314382
 20
9.9646006992
 30
0.0
 10
9.9378615947
 20
9.9663580382
 30
0.0
 10
9.9273940103
 20
9.9698038378
 30
0.0
 10
9.9131454538
 20
9.9738999132
 30
0.0
 10
9.8950252353
 20
9.9783225281
 30
0.0
 10
9.8761189198
 20
9.9822103268
 30
0.0
 10
9.8571475095
 20
9.9854123175
 30
0.0
 10
9.8388359125
 20
9.9878087378
 30
0.0
 10
9.8242953178
 20
9.9890991464
 30
0.0
 10
9.8135268067
 20
9.989623643
 30
0.0
 10
9.8084880575
 20
9.9897184424
 30
0.0
 10
9.8060703256
 20
9.9897184424
 30
0.0
  0
SPLINE
  5
286
100
AcDbEntity
  8
0
100
AcDbSpline
 62
9
  6
CONTINUOUS
 70
0
 71
3
 72
19
 73
15
 74
0
 42
0.0000001
 43
0.0000001
 44
0.0000000001
 40
0.0
 40
0.0
 40
0.0
 40
0.0
 40
0.2008289501
 40
0.3809931311
 40
0.5388724334
 40
0.6734180563
 40
0.7319281298
 40
0.7846599243
 40
0.8317537508
 40
0.873477338
 40
0.9102889375
 40
0.9428890347
 40
0.9723148326
 40
1.0
 40
1.0
 40
1.0
 40
1.0
 10
9.8060703257
 20
9.9897184425
 30
0.0
 10
9.8039187569
 20
9.9897184428
 30
0.0
 10
9.7998364656
 20
9.9896500133
 30
0.0
 10
9.7940711216
 20
9.9893094609
 30
0.0
 10
9.7890374869
 20
9.9887401969
 30
0.0
 10
9.7853357949
 20
9.9880516148
 30
0.0
 10
9.782792038
 20
9.9873657915
 30
0.0
 10
9.7811839152
 20
9.9868216519
 30
0.0
 10
9.7797878676
 20
9.9862245338
 30
0.0
 10
9.7786061781
 20
9.985574519
 30
0.0
 10
9.7776401067
 20
9.9848718284
 30
0.0
 10
9.7768915359
 20
9.9841144469
 30
0.0
 10
9.7763659786
 20
9.9833002728
 30
0.0
 10
9.7761691445
 20
9.9827123134
 30
0.0
 10
9.7761136508
 20
9.9824209476
 30
0.0
  0
SPLINE
  5
287
100
AcDbEntity
  8
0
100
AcDbSpline
 62
7
  6
CONTINUOUS
 70
0
 71
3
 72
22
 73
18
 74
0
 42
0.0000001
 43
0.0000001
 44
0.0000000001
 40
0.0
 40
0.0
 40
0.0
 40
0.0
 40
0.0635382679
 40
0.1267749362
 40
0.1896911372
 40
0.2522808983
 40
0.3145565646
 40
0.3765562315
 40
0.4383478437
 40
0.5000269502
 40
0.561706054
 40
0.6234976543
 40
0.6854973081
 40
0.7477729584
 40
0.8732252978
 40
0.9364619406
 40
1.0
 40
1.0
 40
1.0
 40
1.0
 10
10.7099823605
 20
8.1758353475
 30
0.0
 10
10.6972265281
 20
8.1831787163
 30
0.0
 10
10.6714933489
 20
8.1973488399
 30
0.0
 10
10.6320980719
 20
8.2168492224
 30
0.0
 10
10.5919596523
 20
8.2342395539
 30
0.0
 10
10.551078088
 20
8.2491841052
 30
0.0
 10
10.5094917802
 20
8.2613266853
 30
0.0
 10
10.4672932411
 20
8.2703171694
 30
0.0
 10
10.4246367829
 20
8.2758521257
 30
0.0
 10
10.3817338792
 20
8.2777221736
 30
0.0
 10
10.3388308871
 20
8.2758521753
 30
0.0
 10
10.2961746931
 20
8.2703173537
 30
0.0
 10
10.2539751698
 20
8.2613266614
 30
0.0
 10
10.1984038746
 20
8.2451006633
 30
0.0
 10
10.1443479656
 20
8.2232742463
 30
0.0
 10
10.0919764265
 20
8.1973497495
 30
0.0
 10
10.066240583
 20
8.1831803646
 30
0.0
 10
10.0534847908
 20
8.1758370228
 30
0.0
  0
SPLINE
  5
288
100
AcDbEntity
  8
0
100
AcDbSpline
 62
9
  6
CONTINUOUS
 70
0
 71
3
 72
17
 73
13
 74
0
 42
0.0000001
 43
0.0000001
 44
0.0000000001
 40
0.0
 40
0.0
 40
0.0
 40
0.0
 40
0.0621149135
 40
0.1247020033
 40
0.1872558206
 40
0.2497446379
 40
0.3747871983
 40
0.4998297585
 40
0.6248706812
 40
0.7499148792
 40
0.874957767
 40
1.0
 40
1.0
 40
1.0
 40
1.0
 10
10.9510849891
 20
9.91933988
 30
0.0
 10
10.9504364799
 20
9.913714479
 30
0.0
 10
10.9497323111
 20
9.9023525009
 30
0.0
 10
10.9496084138
 20
9.885282093
 30
0.0
 10
10.9495988542
 20
9.8681768225
 30
0.0
 10
10.9496435098
 20
9.8453780723
 30
0.0
 10
10.9496217013
 20
9.8168824722
 30
0.0
 10
10.9496281295
 20
9.7826844058
 30
0.0
 10
10.9496285504
 20
9.7484861752
 30
0.0
 10
10.9496268432
 20
9.7142879187
 30
0.0
 10
10.9496268428
 20
9.6800895417
 30
0.0
 10
10.9496271277
 20
9.6572907234
 30
0.0
 10
10.9496271277
 20
9.6458913441
 30
0.0
  0
SPLINE
  5
289
100
AcDbEntity
  8
0
100
AcDbSpline
 62
7
  6
CONTINUOUS
 70
0
 71
3
 72
9
 73
5
 74
0
 42
0.0000001
 43
0.0000001
 44
0.0000000001
 40
0.0
 40
0.0
 40
0.0
 40
0.0
 40
0.2561317661
 40
1.0
 40
1.0
 40
1.0
 40
1.0
 10
11.0541254092
 20
9.5659102463
 30
0.0
 10
11.0551254391
 20
9.5649538825
 30
0.0
 10
11.059115745
 20
9.5613115516
 30
0.0
 10
11.0634533682
 20
9.5580448067
 30
0.0
 10
11.0668466351
 20
9.555891804
 30
0.0
  0
SPLINE
  5
28A
100
AcDbEntity
  8
0
100
AcDbSpline
 62
7
  6
CONTINUOUS
 70
0
 71
3
 72
9
 73
5
 74
0
 42
0.0000001
 43
0.0000001
 44
0.0000000001
 40
0.0
 40
0.0
 40
0.0
 40
0.0
 40
0.2438489176
 40
1.0
 40
1.0
 40
1.0
 40
1.0
 10
10.3531199056
 20
9.555891804
 30
0.0
 10
10.3542870124
 20
9.5566323238
 30
0.0
 10
10.3589890514
 20
9.5598006762
 30
0.0
 10
10.3633450996
 20
9.5634751118
 30
0.0
 10
10.3664163094
 20
9.5664648127
 30
0.0
  0
SPLINE
  5
28B
100
AcDbEntity
  8
0
100
AcDbSpline
 62
9
  6
CONTINUOUS
 70
0
 71
3
 72
23
 73
19
 74
0
 42
0.0000001
 43
0.0000001
 44
0.0000000001
 40
0.0
 40
0.0
 40
0.0
 40
0.0
 40
0.1250324472
 40
0.2500648884
 40
0.3750973179
 40
0.5001297738
 40
0.6251622164
 40
0.6876783664
 40
0.7189364795
 40
0.7501946587
 40
0.7814528764
 40
0.8127108725
 40
0.8439685856
 40
0.8752269813
 40
0.9064855183
 40
0.9377452317
 40
0.9689615688
 40
1.0
 40
1.0
 40
1.0
 40
1.0
 10
10.4703154403
 20
9.645891804
 30
0.0
 10
10.4703154403
 20
9.6572947207
 30
0.0
 10
10.4703162792
 20
9.6801005535
 30
0.0
 10
10.4703194343
 20
9.7143093012
 30
0.0
 10
10.470323866
 20
9.7485180495
 30
0.0
 10
10.4703287384
 20
9.7827267979
 30
0.0
 10
10.4703324693
 20
9.811234083
 30
0.0
 10
10.4703353212
 20
9.8311891798
 30
0.0
 10
10.4703365651
 20
9.8425920962
 30
0.0
 10
10.4703371911
 20
9.851144299
 30
0.0
 10
10.4703373976
 20
9.8596964942
 30
0.0
 10
10.4703382137
 20
9.8682486352
 30
0.0
 10
10.4703406858
 20
9.8768008358
 30
0.0
 10
10.4703402963
 20
9.8853529232
 30
0.0
 10
10.4703327716
 20
9.8939058004
 30
0.0
 10
10.4703719435
 20
9.9024525757
 30
0.0
 10
10.4702490791
 20
9.9109877066
 30
0.0
 10
10.4696320256
 20
9.9166364912
 30
0.0
 10
10.4693627348
 20
9.9194543473
 30
0.0
  0
SPLINE
  5
28C
100
AcDbEntity
  8
0
100
AcDbSpline
 62
9
  6
CONTINUOUS
 70
0
 71
3
 72
21
 73
17
 74
0
 42
0.0000001
 43
0.0000001
 44
0.0000000001
 40
0.0
 40
0.0
 40
0.0
 40
0.0
 40
0.1411630813
 40
0.2112453745
 40
0.2807229856
 40
0.4168174263
 40
0.4831028441
 40
0.547812365
 40
0.6107233663
 40
0.6716831492
 40
0.7306528528
 40
0.7877201691
 40
0.8430470695
 40
0.8967994648
 40
0.949106166
 40
1.0
 40
1.0
 40
1.0
 40
1.0
 10
10.4693627348
 20
9.9194543473
 30
0.0
 10
10.468356598
 20
9.9299720852
 30
0.0
 10
10.46547848
 20
9.9456276817
 30
0.0
 10
10.4589522795
 20
9.9656235468
 30
0.0
 10
10.450778823
 20
9.9845912743
 30
0.0
 10
10.4400862022
 20
10.002092766
 30
0.0
 10
10.4270912158
 20
10.017325767
 30
0.0
 10
10.4164968595
 20
10.0272918111
 30
0.0
 10
10.405151456
 20
10.0357424868
 30
0.0
 10
10.3932525481
 20
10.0425705835
 30
0.0
 10
10.3810174303
 20
10.0477339817
 30
0.0
 10
10.3686716349
 20
10.0513104671
 30
0.0
 10
10.3564063465
 20
10.0534837715
 30
0.0
 10
10.3443563472
 20
10.0544975673
 30
0.0
 10
10.3326040681
 20
10.0546712346
 30
0.0
 10
10.3248818032
 20
10.0544553224
 30
0.0
 10
10.3210747595
 20
10.0543244134
 30
0.0
  0
SPLINE
  5
28D
100
AcDbEntity
  8
0
100
AcDbSpline
 62
9
  6
CONTINUOUS
 70
0
 71
3
 72
17
 73
13
 74
0
 42
0.0000001
 43
0.0000001
 44
0.0000000001
 40
0.0
 40
0.0
 40
0.0
 40
0.0
 40
0.1320003554
 40
0.195386829
 40
0.257351738
 40
0.318231933
 40
0.3783832208
 40
0.4978575452
 40
0.6184279151
 40
0.7418207689
 40
0.8689345961
 40
1.0
 40
1.0
 40
1.0
 40
1.0
 10
11.1748982189
 20
10.0272474158
 30
0.0
 10
11.17265104
 20
10.030215809
 30
0.0
 10
11.1690217211
 20
10.0343984631
 30
0.0
 10
11.163638538
 20
10.0392769301
 30
0.0
 10
11.1594620503
 20
10.0424731208
 30
0.0
 10
11.1551059877
 20
10.0452535851
 30
0.0
 10
11.1490914053
 20
10.0484058533
 30
0.0
 10
11.1411231546
 20
10.0513826641
 30
0.0
 10
11.1310702021
 20
10.053529189
 30
0.0
 10
11.1206334751
 20
10.0545136288
 30
0.0
 10
11.1098660974
 20
10.0546668358
 30
0.0
 10
11.1025866129
 20
10.0544514494
 30
0.0
 10
11.0988921073
 20
10.0543244101
 30
0.0
  0
SPLINE
  5
28E
100
AcDbEntity
  8
0
100
AcDbSpline
 62
9
  6
CONTINUOUS
 70
0
 71
3
 72
21
 73
17
 74
0
 42
0.0000001
 43
0.0000001
 44
0.0000000001
 40
0.0
 40
0.0
 40
0.0
 40
0.0
 40
0.0509397139
 40
0.1033183495
 40
0.1571710802
 40
0.2126040698
 40
0.2697540611
 40
0.328757265
 40
0.3896970696
 40
0.4525523813
 40
0.5171848397
 40
0.5833855271
 40
0.7193385962
 40
0.7887680998
 40
0.8588215524
 40
1.0
 40
1.0
 40
1.0
 40
1.0
 10
11.0988921073
 20
10.0543244101
 30
0.0
 10
11.0951256818
 20
10.0541939581
 30
0.0
 10
11.0874862937
 20
10.0539272163
 30
0.0
 10
11.0758795237
 20
10.0531690934
 30
0.0
 10
11.0639986629
 20
10.0517118246
 30
0.0
 10
11.0519201161
 20
10.0492358187
 30
0.0
 10
11.0397657648
 20
10.0454956323
 30
0.0
 10
11.0277053679
 20
10.0403066658
 30
0.0
 10
11.0159482437
 20
10.0335617213
 30
0.0
 10
11.0047129372
 20
10.0252586369
 30
0.0
 10
10.9941872978
 20
10.0154909908
 30
0.0
 10
10.9812207845
 20
10.0005699533
 30
0.0
 10
10.9704630458
 20
9.9834169018
 30
0.0
 10
10.9621364938
 20
9.9647952419
 30
0.0
 10
10.9553918109
 20
9.9451341247
 30
0.0
 10
10.9522812805
 20
9.9297159815
 30
0.0
 10
10.9510849902
 20
9.9193398798
 30
0.0
  0
SPLINE
  5
28F
100
AcDbEntity
  8
0
100
AcDbSpline
 62
9
  6
CONTINUOUS
 70
0
 71
3
 72
16
 73
12
 74
0
 42
0.0000001
 43
0.0000001
 44
0.0000000001
 40
0.0
 40
0.0
 40
0.0
 40
0.0
 40
0.1199877116
 40
0.2504027954
 40
0.3875168252
 40
0.5262545685
 40
0.6613221279
 40
0.7878461329
 40
0.9015370676
 40
0.952794212
 40
1.0
 40
1.0
 40
1.0
 40
1.0
 10
10.951084999
 20
9.9193407597
 30
0.0
 10
10.9564043894
 20
9.9184198059
 30
0.0
 10
10.9675538239
 20
9.9167714632
 30
0.0
 10
10.9848989298
 20
9.9149533355
 30
0.0
 10
11.0031475156
 20
9.9138141134
 30
0.0
 10
11.0216365804
 20
9.9134052867
 30
0.0
 10
11.0396500907
 20
9.9137935266
 30
0.0
 10
11.0565039029
 20
9.9149117436
 30
0.0
 10
11.0695343766
 20
9.9164572807
 30
0.0
 10
11.0789527307
 20
9.9180167522
 30
0.0
 10
11.0832981768
 20
9.9188842702
 30
0.0
 10
11.0853724412
 20
9.9193407438
 30
0.0
  0
SPLINE
  5
290
100
AcDbEntity
  8
0
100
AcDbSpline
 62
9
  6
CONTINUOUS
 70
0
 71
3
 72
23
 73
19
 74
0
 42
0.0000001
 43
0.0000001
 44
0.0000000001
 40
0.0
 40
0.0
 40
0.0
 40
0.0
 40
0.0311369049
 40
0.0623545877
 40
0.093602666
 40
0.1248573082
 40
0.1561125195
 40
0.1873675481
 40
0.218622659
 40
0.249877756
 40
0.3123879394
 40
0.374898127
 40
0.4374083143
 40
0.4999185016
 40
0.6249388762
 40
0.7499592508
 40
0.8749796254
 40
1.0
 40
1.0
 40
1.0
 40
1.0
 10
11.0853725364
 20
9.9193398798
 30
0.0
 10
11.0856838186
 20
9.9165184274
 30
0.0
 10
11.0861666705
 20
9.9108522443
 30
0.0
 10
11.0865695914
 20
9.9023272486
 30
0.0
 10
11.0867392501
 20
9.8937842779
 30
0.0
 10
11.0867710464
 20
9.8852368697
 30
0.0
 10
11.0867666355
 20
9.8766888771
 30
0.0
 10
11.0867637891
 20
9.8681408288
 30
0.0
 10
11.086766695
 20
9.8595927941
 30
0.0
 10
11.0867657342
 20
9.8481954062
 30
0.0
 10
11.0867658473
 20
9.8339486738
 30
0.0
 10
11.0867658064
 20
9.816852595
 30
0.0
 10
11.0867658397
 20
9.7997565159
 30
0.0
 10
11.0867658194
 20
9.7769617438
 30
0.0
 10
11.0867658311
 20
9.7484682786
 30
0.0
 10
11.0867658269
 20
9.7142761204
 30
0.0
 10
11.0867658279
 20
9.6800839622
 30
0.0
 10
11.0867658277
 20
9.6572891901
 30
0.0
 10
11.0867658277
 20
9.645891804
 30
0.0
  0
SPLINE
  5
291
100
AcDbEntity
  8
0
100
AcDbSpline
 62
9
  6
CONTINUOUS
 70
0
 71
3
 72
15
 73
11
 74
0
 42
0.0000001
 43
0.0000001
 44
0.0000000001
 40
0.0
 40
0.0
 40
0.0
 40
0.0
 40
0.1230322249
 40
0.2513867661
 40
0.3827306178
 40
0.5149675699
 40
0.6452122223
 40
0.7705602901
 40
0.8889971088
 40
1.0
 40
1.0
 40
1.0
 40
1.0
 10
11.0988904871
 20
10.0543243507
 30
0.0
 10
11.0989184371
 20
10.0525930141
 30
0.0
 10
11.0991378402
 20
10.049056173
 30
0.0
 10
11.0999600427
 20
10.043725092
 30
0.0
 10
11.1013386572
 20
10.038373136
 30
0.0
 10
11.1033182985
 20
10.033182904
 30
0.0
 10
11.1058432225
 20
10.0283295211
 30
0.0
 10
11.108857527
 20
10.0239915997
 30
0.0
 10
11.1123214478
 20
10.0203667323
 30
0.0
 10
11.1149178744
 20
10.0184163159
 30
0.0
 10
11.1162464492
 20
10.0175943989
 30
0.0
  0
SPLINE
  5
292
100
AcDbEntity
  8
0
100
AcDbSpline
 62
9
  6
CONTINUOUS
 70
0
 71
3
 72
9
 73
5
 74
0
 42
0.0000001
 43
0.0000001
 44
0.0000000001
 40
0.0
 40
0.0
 40
0.0
 40
0.0
 40
0.5196755354
 40
1.0
 40
1.0
 40
1.0
 40
1.0
 10
11.1162464492
 20
10.0175943989
 30
0.0
 10
11.11755502
 20
10.0167848573
 30
0.0
 10
11.1202200393
 20
10.0154443753
 30
0.0
 10
11.1231125197
 20
10.014698319
 30
0.0
 10
11.1245203526
 20
10.0144965272
 30
0.0
  0
SPLINE
  5
293
100
AcDbEntity
  8
0
100
AcDbSpline
 62
7
  6
CONTINUOUS
 70
0
 71
3
 72
13
 73
9
 74
0
 42
0.0000001
 43
0.0000001
 44
0.0000000001
 40
0.0
 40
0.0
 40
0.0
 40
0.0
 40
0.0985633252
 40
0.2010020344
 40
0.4247559063
 40
0.6865454118
 40
0.836148494
 40
1.0
 40
1.0
 40
1.0
 40
1.0
 10
10.3281458273
 20
9.545891804
 30
0.0
 10
10.3290412813
 20
9.545891804
 30
0.0
 10
10.3308688856
 20
9.5459975976
 30
0.0
 10
10.3346806448
 20
9.5466393507
 30
0.0
 10
10.3397801478
 20
9.5483310492
 30
0.0
 10
10.3449423959
 20
9.5509359128
 30
0.0
 10
10.3494479707
 20
9.5535844557
 30
0.0
 10
10.3518629435
 20
9.5550942974
 30
0.0
 10
10.3531198838
 20
9.5558918153
 30
0.0
  0
SPLINE
  5
294
100
AcDbEntity
  8
0
100
AcDbSpline
 62
7
  6
CONTINUOUS
 70
0
 71
3
 72
13
 73
9
 74
0
 42
0.0000001
 43
0.0000001
 44
0.0000000001
 40
0.0
 40
0.0
 40
0.0
 40
0.0
 40
0.1638518925
 40
0.3134561735
 40
0.5752434939
 40
0.7989980737
 40
0.9014370376
 40
1.0
 40
1.0
 40
1.0
 40
1.0
 10
11.0668467898
 20
9.5558918532
 30
0.0
 10
11.0681037453
 20
9.5550943238
 30
0.0
 10
11.0705187513
 20
9.5535844521
 30
0.0
 10
11.0750244147
 20
9.5509359595
 30
0.0
 10
11.0801867476
 20
9.5483311559
 30
0.0
 10
11.0852862613
 20
9.5466393486
 30
0.0
 10
11.089098069
 20
9.5459975968
 30
0.0
 10
11.0909256909
 20
9.545891804
 30
0.0
 10
11.091821151
 20
9.545891804
 30
0.0
  0
SPLINE
  5
295
100
AcDbEntity
  8
0
100
AcDbSpline
 62
7
  6
CONTINUOUS
 70
0
 71
3
 72
9
 73
5
 74
0
 42
0.0000001
 43
0.0000001
 44
0.0000000001
 40
0.0
 40
0.0
 40
0.0
 40
0.0
 40
0.5103098903
 40
1.0
 40
1.0
 40
1.0
 40
1.0
 10
10.7899834891
 20
10.514541954
 30
0.0
 10
10.786198288
 20
10.5167867395
 30
0.0
 10
10.7785590842
 20
10.5208254904
 30
0.0
 10
10.7705186588
 20
10.52400251
 30
0.0
 10
10.7665049278
 20
10.525315258
 30
0.0
  0
SPLINE
  5
296
100
AcDbEntity
  8
0
100
AcDbSpline
 62
9
  6
CONTINUOUS
 70
0
 71
3
 72
15
 73
11
 74
0
 42
0.0000001
 43
0.0000001
 44
0.0000000001
 40
0.0
 40
0.0
 40
0.0
 40
0.0
 40
0.1804076863
 40
0.3441547969
 40
0.486586312
 40
0.6106487675
 40
0.7208378732
 40
0.8209036232
 40
0.9134094196
 40
1.0
 40
1.0
 40
1.0
 40
1.0
 10
10.3332245097
 20
9.645891804
 30
0.0
 10
10.3332244513
 20
9.6406048139
 30
0.0
 10
10.3337922905
 20
9.6305075422
 30
0.0
 10
10.336259053
 20
9.6164306899
 30
0.0
 10
10.3398848252
 20
9.6043235132
 30
0.0
 10
10.3443033931
 20
9.5941787677
 30
0.0
 10
10.3492471065
 20
9.5856966783
 30
0.0
 10
10.35450319
 20
9.5785303436
 30
0.0
 10
10.3599474288
 20
9.5724098518
 30
0.0
 10
10.3637572853
 20
9.56879064
 30
0.0
 10
10.3656625169
 20
9.5671144734
 30
0.0
  0
SPLINE
  5
297
100
AcDbEntity
  8
0
100
AcDbSpline
 62
9
  6
CONTINUOUS
 70
0
 71
3
 72
18
 73
14
 74
0
 42
0.0000001
 43
0.0000001
 44
0.0000000001
 40
0.0
 40
0.0
 40
0.0
 40
0.0
 40
0.1465728732
 40
0.2888798438
 40
0.4248618089
 40
0.4901820097
 40
0.5535713634
 40
0.6743160208
 40
0.7876726973
 40
0.8421085021
 40
0.8953911013
 40
0.9478893284
 40
1.0
 40
1.0
 40
1.0
 40
1.0
 10
11.4289905548
 20
10.005025846
 30
0.0
 10
11.4282830147
 20
10.0107006029
 30
0.0
 10
11.4275727038
 20
10.0219844018
 30
0.0
 10
11.4286547801
 20
10.0385704029
 30
0.0
 10
11.4313825687
 20
10.0517509523
 30
0.0
 10
11.4346456047
 20
10.0615599033
 30
0.0
 10
11.4384619196
 20
10.0705228896
 30
0.0
 10
11.444372776
 20
10.0805906055
 30
0.0
 10
11.4519315202
 20
10.0890572348
 30
0.0
 10
11.4586965661
 20
10.0944356688
 30
0.0
 10
11.4640237021
 20
10.0977356796
 30
0.0
 10
11.4696303965
 20
10.1003241153
 30
0.0
 10
11.4735335163
 20
10.1015601643
 30
0.0
 10
11.4755063772
 20
10.1020516221
 30
0.0
  0
SPLINE
  5
298
100
AcDbEntity
  8
0
100
AcDbSpline
 62
9
  6
CONTINUOUS
 70
0
 71
3
 72
17
 73
13
 74
0
 42
0.0000001
 43
0.0000001
 44
0.0000000001
 40
0.0
 40
0.0
 40
0.0
 40
0.0
 40
0.0510823397
 40
0.1064462998
 40
0.2277144134
 40
0.3593009104
 40
0.4964744002
 40
0.6341208932
 40
0.767097292
 40
0.8906091054
 40
0.9473673478
 40
1.0
 40
1.0
 40
1.0
 40
1.0
 10
11.6138966526
 20
9.9897184425
 30
0.0
 10
11.6114791213
 20
9.9897184428
 30
0.0
 10
11.6064412042
 20
9.9896237312
 30
0.0
 10
11.5956759476
 20
9.9890995334
 30
0.0
 10
11.5811401634
 20
9.9878096812
 30
0.0
 10
11.5628334244
 20
9.985414276
 30
0.0
 10
11.5438636888
 20
9.9822132539
 30
0.0
 10
11.5249555429
 20
9.9783257658
 30
0.0
 10
11.5068304412
 20
9.9739023405
 30
0.0
 10
11.4925771635
 20
9.9698050387
 30
0.0
 10
11.4821063926
 20
9.9663583333
 30
0.0
 10
11.4772357297
 20
9.964600772
 30
0.0
 10
11.4749079395
 20
9.9637142147
 30
0.0
  0
SPLINE
  5
299
100
AcDbEntity
  8
0
100
AcDbSpline
 62
9
  6
CONTINUOUS
 70
0
 71
3
 72
17
 73
13
 74
0
 42
0.0000001
 43
0.0000001
 44
0.0000000001
 40
0.0
 40
0.0
 40
0.0
 40
0.0
 40
0.052628364
 40
0.1093730337
 40
0.2328327578
 40
0.3657718533
 40
0.5034035471
 40
0.640592637
 40
0.7722165783
 40
0.8935361064
 40
0.9489134219
 40
1.0
 40
1.0
 40
1.0
 40
1.0
 10
11.4749079396
 20
9.6880693939
 30
0.0
 10
11.4772355401
 20
9.6871829089
 30
0.0
 10
11.4821053836
 20
9.6854255699
 30
0.0
 10
11.492572968
 20
9.6819797702
 30
0.0
 10
11.5068215245
 20
9.6778836949
 30
0.0
 10
11.524941743
 20
9.67346108
 30
0.0
 10
11.5438480585
 20
9.6695732813
 30
0.0
 10
11.5628194688
 20
9.6663712905
 30
0.0
 10
11.5811310658
 20
9.6639748703
 30
0.0
 10
11.5956716604
 20
9.6626844617
 30
0.0
 10
11.6064401715
 20
9.6621599651
 30
0.0
 10
11.6114789207
 20
9.6620651656
 30
0.0
 10
11.6138966526
 20
9.6620651656
 30
0.0
  0
SPLINE
  5
29A
100
AcDbEntity
  8
0
100
AcDbSpline
 62
9
  6
CONTINUOUS
 70
0
 71
3
 72
21
 73
17
 74
0
 42
0.0000001
 43
0.0000001
 44
0.0000000001
 40
0.0
 40
0.0
 40
0.0
 40
0.0
 40
0.0514048593
 40
0.1033961082
 40
0.1563331782
 40
0.21057488
 40
0.2664590935
 40
0.3242458771
 40
0.3840768774
 40
0.4459978048
 40
0.5099853472
 40
0.5759223528
 40
0.7128226306
 40
0.855058025
 40
0.9274303146
 40
1.0
 40
1.0
 40
1.0
 40
1.0
 10
11.5067001387
 20
9.545891804
 30
0.0
 10
11.504387225
 20
9.545891804
 30
0.0
 10
11.4997288747
 20
9.5462198655
 30
0.0
 10
11.4928256954
 20
9.5476731979
 30
0.0
 10
11.4860573202
 20
9.550077699
 30
0.0
 10
11.4795004106
 20
9.5534118357
 30
0.0
 10
11.4732135839
 20
9.5576328949
 30
0.0
 10
11.4672571291
 20
9.5627032577
 30
0.0
 10
11.4616828446
 20
9.5685692952
 30
0.0
 10
11.4565430982
 20
9.5751752231
 30
0.0
 10
11.451891021
 20
9.5824602945
 30
0.0
 10
11.4463201009
 20
9.5931091859
 30
0.0
 10
11.4408565596
 20
9.6077158563
 30
0.0
 10
11.4375618026
 20
9.6232433406
 30
0.0
 10
11.4362179063
 20
9.6361025403
 30
0.0
 10
11.4359894606
 20
9.6426265988
 30
0.0
 10
11.4359894606
 20
9.645891804
 30
0.0
  0
SPLINE
  5
29B
100
AcDbEntity
  8
0
100
AcDbSpline
 62
9
  6
CONTINUOUS
 70
0
 71
3
 72
19
 73
15
 74
0
 42
0.0000001
 43
0.0000001
 44
0.0000000001
 40
0.0
 40
0.0
 40
0.0
 40
0.0
 40
0.2008289496
 40
0.38099313
 40
0.5388724321
 40
0.6734180551
 40
0.7319281288
 40
0.7846599235
 40
0.8317537502
 40
0.8734773375
 40
0.9102889371
 40
0.9428890343
 40
0.9723148324
 40
1.0
 40
1.0
 40
1.0
 40
1.0
 10
11.6138966526
 20
9.6620651656
 30
0.0
 10
11.6160482214
 20
9.6620651653
 30
0.0
 10
11.6201305127
 20
9.6621335947
 30
0.0
 10
11.6258958566
 20
9.662474147
 30
0.0
 10
11.6309294913
 20
9.6630434109
 30
0.0
 10
11.6346311834
 20
9.663731993
 30
0.0
 10
11.6371749402
 20
9.6644178164
 30
0.0
 10
11.638783063
 20
9.6649619559
 30
0.0
 10
11.6401791106
 20
9.665559074
 30
0.0
 10
11.6413608001
 20
9.6662090888
 30
0.0
 10
11.6423268716
 20
9.6669117795
 30
0.0
 10
11.6430754423
 20
9.667669161
 30
0.0
 10
11.6436009997
 20
9.6684833351
 30
0.0
 10
11.6437978337
 20
9.6690712945
 30
0.0
 10
11.6438533274
 20
9.6693626603
 30
0.0
  0
SPLINE
  5
29C
100
AcDbEntity
  8
0
100
AcDbSpline
 62
9
  6
CONTINUOUS
 70
0
 71
3
 72
19
 73
15
 74
0
 42
0.0000001
 43
0.0000001
 44
0.0000000001
 40
0.0
 40
0.0
 40
0.0
 40
0.0
 40
0.1321072361
 40
0.2651567585
 40
0.3984858384
 40
0.5294016515
 40
0.5929944894
 40
0.6548737368
 40
0.7147072509
 40
0.7724230159
 40
0.8284955936
 40
0.8839459755
 40
0.9404077122
 40
1.0
 40
1.0
 40
1.0
 40
1.0
 10
11.0853725403
 20
9.9193398806
 30
0.0
 10
11.0849305904
 20
9.9240949302
 30
0.0
 10
11.0843511063
 20
9.9336715539
 30
0.0
 10
11.084587623
 20
9.9480911525
 30
0.0
 10
11.0861188631
 20
9.9623920968
 30
0.0
 10
11.0886056612
 20
9.9740102995
 30
0.0
 10
11.0914272401
 20
9.9828456344
 30
0.0
 10
11.0939384089
 20
9.9890638654
 30
0.0
 10
11.0969019453
 20
9.9948450444
 30
0.0
 10
11.10036245
 20
10.0000993597
 30
0.0
 10
11.1043978851
 20
10.004726921
 30
0.0
 10
11.1090921557
 20
10.0086261751
 30
0.0
 10
11.1145246501
 20
10.0116846237
 30
0.0
 10
11.1185251139
 20
10.0130343117
 30
0.0
 10
11.1206157347
 20
10.0135538191
 30
0.0
  0
SPLINE
  5
29D
100
AcDbEntity
  8
0
100
AcDbSpline
 62
9
  6
CONTINUOUS
 70
0
 71
3
 72
15
 73
11
 74
0
 42
0.0000001
 43
0.0000001
 44
0.0000000001
 40
0.0
 40
0.0
 40
0.0
 40
0.0
 40
0.1456805706
 40
0.2867379731
 40
0.4215187935
 40
0.54933573
 40
0.6700429787
 40
0.7842521379
 40
0.8935573823
 40
1.0
 40
1.0
 40
1.0
 40
1.0
 10
11.4749079396
 20
9.6880693939
 30
0.0
 10
11.4743447325
 20
9.6851118234
 30
0.0
 10
11.472889844
 20
9.6793494962
 30
0.0
 10
11.4697119809
 20
9.6712131409
 30
0.0
 10
11.4656354086
 20
9.6639019703
 30
0.0
 10
11.4607642595
 20
9.6576131926
 30
0.0
 10
11.4552209485
 20
9.6525082671
 30
0.0
 10
11.4491329368
 20
9.648735176
 30
0.0
 10
11.4426638005
 20
9.6464191379
 30
0.0
 10
11.438189264
 20
9.6458918041
 30
0.0
 10
11.4359894596
 20
9.645891804
 30
0.0
  0
SPLINE
  5
29E
100
AcDbEntity
  8
0
100
AcDbSpline
 62
9
  6
CONTINUOUS
 70
0
 71
3
 72
13
 73
9
 74
0
 42
0.0000001
 43
0.0000001
 44
0.0000000001
 40
0.0
 40
0.0
 40
0.0
 40
0.0
 40
0.1240090695
 40
0.2489265624
 40
0.5
 40
0.7510734376
 40
0.8759909305
 40
1.0
 40
1.0
 40
1.0
 40
1.0
 10
11.4749079396
 20
9.9637142142
 30
0.0
 10
11.4770513769
 20
9.9524583766
 30
0.0
 10
11.4808064271
 20
9.9297558916
 30
0.0
 10
11.4861869618
 20
9.8838580641
 30
0.0
 10
11.488879729
 20
9.825891804
 30
0.0
 10
11.4861869618
 20
9.7679255439
 30
0.0
 10
11.480806427
 20
9.7220277165
 30
0.0
 10
11.4770513768
 20
9.6993252315
 30
0.0
 10
11.4749079396
 20
9.6880693939
 30
0.0
  0
SPLINE
  5
29F
100
AcDbEntity
  8
0
100
AcDbSpline
 62
9
  6
CONTINUOUS
 70
0
 71
3
 72
18
 73
14
 74
0
 42
0.0000001
 43
0.0000001
 44
0.0000000001
 40
0.0
 40
0.0
 40
0.0
 40
0.0
 40
0.0543744016
 40
0.1084760416
 40
0.1626707408
 40
0.2173430752
 40
0.3295833738
 40
0.4482626362
 40
0.510604669
 40
0.5749953976
 40
0.7097782637
 40
0.8521247405
 40
1.0
 40
1.0
 40
1.0
 40
1.0
 10
11.4289905548
 20
10.005025846
 30
0.0
 10
11.430205214
 20
10.0053287383
 30
0.0
 10
11.4326702517
 20
10.0057781891
 30
0.0
 10
11.4364206214
 20
10.005967391
 30
0.0
 10
11.4401717592
 20
10.0056665297
 30
0.0
 10
11.4451618382
 20
10.0045985927
 30
0.0
 10
11.4512758079
 20
10.0019920788
 30
0.0
 10
11.4567539402
 20
9.997953053
 30
0.0
 10
11.4607596415
 20
9.9939586959
 30
0.0
 10
11.4646047232
 20
9.9893148677
 30
0.0
 10
11.4687762982
 20
9.9826010429
 30
0.0
 10
11.4725784007
 20
9.9735486796
 30
0.0
 10
11.4742710664
 20
9.9670586279
 30
0.0
 10
11.4749079396
 20
9.9637142142
 30
0.0
  0
SPLINE
  5
2A0
100
AcDbEntity
  8
0
100
AcDbSpline
 62
9
  6
CONTINUOUS
 70
0
 71
3
 72
18
 73
14
 74
0
 42
0.0000001
 43
0.0000001
 44
0.0000000001
 40
0.0
 40
0.0
 40
0.0
 40
0.0
 40
0.0920407465
 40
0.1818417663
 40
0.2675312885
 40
0.3479235896
 40
0.4915177061
 40
0.6148092995
 40
0.7230994354
 40
0.7732859072
 40
0.8214765456
 40
0.9132003086
 40
1.0
 40
1.0
 40
1.0
 40
1.0
 10
11.0867658277
 20
9.645891804
 30
0.0
 10
11.0867664723
 20
9.6431302666
 30
0.0
 10
11.0866781842
 20
9.637673281
 30
0.0
 10
11.0861728555
 20
9.6296594782
 30
0.0
 10
11.0853267939
 20
9.6220252754
 30
0.0
 10
11.083810115
 20
9.612855282
 30
0.0
 10
11.0812314593
 20
9.6027291345
 30
0.0
 10
11.0769753163
 20
9.5922651778
 30
0.0
 10
11.0726233932
 20
9.584979655
 30
0.0
 10
11.0689056224
 20
9.5800126287
 30
0.0
 10
11.065197524
 20
9.5756739978
 30
0.0
 10
11.060332319
 20
9.5709008786
 30
0.0
 10
11.0561883782
 20
9.5674992536
 30
0.0
 10
11.0541251791
 20
9.5659100636
 30
0.0
  0
SPLINE
  5
2A1
100
AcDbEntity
  8
0
100
AcDbSpline
 62
7
  6
CONTINUOUS
 70
0
 71
3
 72
15
 73
11
 74
0
 42
0.0000001
 43
0.0000001
 44
0.0000000001
 40
0.0
 40
0.0
 40
0.0
 40
0.0
 40
0.1203956315
 40
0.2405196107
 40
0.3616947773
 40
0.4846760181
 40
0.6098952352
 40
0.7375560052
 40
0.8676500789
 40
1.0
 40
1.0
 40
1.0
 40
1.0
 10
11.0541254092
 20
9.5659102463
 30
0.0
 10
11.0502970782
 20
9.5695716191
 30
0.0
 10
11.0421371727
 20
9.5763547571
 30
0.0
 10
11.0290476104
 20
9.5854188473
 30
0.0
 10
11.0154993578
 20
9.5939854387
 30
0.0
 10
11.0017313829
 20
9.602621165
 30
0.0
 10
10.9879809812
 20
9.6118181961
 30
0.0
 10
10.9745040792
 20
9.6219532409
 30
0.0
 10
10.9615551388
 20
9.633245963
 30
0.0
 10
10.9535035664
 20
9.6415461519
 30
0.0
 10
10.9496266689
 20
9.6458913441
 30
0.0
  0
SPLINE
  5
2A2
100
AcDbEntity
  8
0
100
AcDbSpline
 62
7
  6
CONTINUOUS
 70
0
 71
3
 72
9
 73
5
 74
0
 42
0.0000001
 43
0.0000001
 44
0.0000000001
 40
0.0
 40
0.0
 40
0.0
 40
0.0
 40
0.5090213748
 40
1.0
 40
1.0
 40
1.0
 40
1.0
 10
10.7875911963
 20
10.5149021007
 30
0.0
 10
10.7842137592
 20
10.5168143966
 30
0.0
 10
10.7774069359
 20
10.5202780609
 30
0.0
 10
10.7702900635
 20
10.5230565619
 30
0.0
 10
10.766735151
 20
10.5242302601
 30
0.0
  0
ENDSEC
  0
SECTION
  2
OBJECTS
  0
DICTIONARY
  5
C
100
AcDbDictionary
280
0
281
1
  3
ACAD_GROUP
350
D
  3
ACAD_MLINESTYLE
350
17
  3
ACAD_LAYOUT
350
1A
  3
ACAD_PLOTSETTINGS
350
19
  3
ACAD_PLOTSTYLENAME
350
E
  0
DICTIONARY
  5
D
102
{ACAD_REACTORS
330
C
102
}
100
AcDbDictionary
280
0
281
1
  0
ACDBDICTIONARYWDFLT
  5
E
102
{ACAD_REACTORS
330
C
102
}
100
AcDbDictionary
281
1
  3
Normal
350
F
100
AcDbDictionaryWithDefault
340
F
  0
DICTIONARY
  5
17
102
{ACAD_REACTORS
330
C
102
}
100
AcDbDictionary
280
0
281
1
  3
Standard
350
18
  0
DICTIONARY
  5
19
102
{ACAD_REACTORS
330
C
102
}
100
AcDbDictionary
281
1
  0
DICTIONARY
  5
1A
102
{ACAD_REACTORS
330
C
102
}
100
AcDbDictionary
281
1
  3
Model
350
2A3
  3
Layout1
350
2A4
  0
ACDBPLACEHOLDER
  5
F
102
{ACAD_REACTORS
330
E
102
}
  0
MLINESTYLE
  5
18
102
{ACAD_REACTORS
330
17
102
}
100
AcDbMlineStyle
  2
STANDARD
 70
0
  3

 62
256
 51
90.0
 52
90.0
 71
2
 49
0.5
 62
256
  6
BYLAYER
 49
-0.5
 62
256
  6
BYLAYER
  0
LAYOUT
  5
2A3
102
{ACAD_REACTORS
330
1A
102
}
100
AcDbPlotSettings
  1

  2
none_device
  4
ANSI_C_(22.00_x_17.00_Inches)
  6

 40
0.0
 41
0.0
 42
0.0
 43
0.0
 44
558.8
 45
431.8
 46
0.0
 47
0.0
 48
0.0
 49
0.0
140
0.0
141
0.0
142
1.0
143
1.0
 70
1024
 72
0
 73
0
 74
0
  7

 75
0
147
1.0
148
0.0
149
0.0
100
AcDbLayout
  1
Model
 70
0
 71
0
 10
0.0
 20
0.0
 11
22.0
 21
17.0
 12
0.0
 22
0.0
 32
0.0
 14
0.0
 24
0.0
 34
0.0
 15
0.0
 25
0.0
 35
0.0
146
0.0
 13
0.0
 23
0.0
 33
0.0
 16
1.0
 26
0.0
 36
0.0
 17
0.0
 27
1.0
 37
0.0
 76
0
330
202
345
0
346
0
  0
LAYOUT
  5
2A4
102
{ACAD_REACTORS
330
1A
102
}
100
AcDbPlotSettings
  1

  2
none_device
  4
ANSI_C_(22.00_x_17.00_Inches)
  6

 40
0.0
 41
0.0
 42
0.0
 43
0.0
 44
558.8
 45
431.8
 46
0.0
 47
0.0
 48
0.0
 49
0.0
140
0.0
141
0.0
142
1.0
143
1.0
 70
0
 72
0
 73
0
 74
0
  7

 75
0
147
1.0
148
0.0
149
0.0
100
AcDbLayout
  1
Layout1
 70
0
 71
1
 10
0.0
 20
0.0
 11
22.0
 21
17.0
 12
0.0
 22
0.0
 32
0.0
 14
0.0
 24
0.0
 34
0.0
 15
0.0
 25
0.0
 35
0.0
146
0.0
 13
0.0
 23
0.0
 33
0.0
 16
1.0
 26
0.0
 36
0.0
 17
0.0
 27
1.0
 37
0.0
 76
0
330
203
345
0
346
0
  0
ENDSEC
  0
EOF
