999
DXF file: E:\BT Custom\CADOUTPUT\_TOP.dxf
999
Pro/ENGINEER 2018400 by Parametric Technology Corporation
  0
SECTION
  2
HEADER
  9
$ACADVER
  1
AC1018
  9
$DWGCODEPAGE
  3
ANSI_1252
  9
$EXTMAX
 10
22.0
 20
17.0
 30
0.0
  9
$EXTMIN
 10
0.0
 20
0.0
 30
0.0
  9
$LIMMIN
 10
0.0
 20
0.0
  9
$LIMMAX
 10
22.0
 20
17.0
  9
$VIEWCTR
 10
11.0
 20
8.5
  9
$VIEWSIZE
 40
17.0
  9
$CLAYER
  8
0
  9
$LTSCALE
 40
1.21
  9
$CELTYPE
  6
BYLAYER
  9
$DIMSCALE
 40
1.0
  9
$DIMASZ
 40
0.1
  9
$DIMEXO
 40
0.0625
  9
$DIMDLI
 40
0.836
  9
$DIMEXE
 40
0.125
  9
$DIMCEN
 40
0.198
  9
$DIMLFAC
 40
1.0
  9
$DIMBLK
  1
_FILLED
  9
$DIMALT
 70
1
  9
$DIMALTD
 70
2
  9
$DIMALTTD
 70
2
  9
$DIMALTF
 40
25.4
  9
$DIMTXT
 40
0.08
  9
$DIMTOL
 70
1
  9
$DIMLIM
 70
0
  9
$DIMTFAC
 40
1.0
  9
$DIMTP
 40
0.001
  9
$DIMTM
 40
0.001
  9
$DIMGAP
 40
0.09
  9
$DIMDSEP
 70
46
  9
$AUNITS
 70
0
  9
$PDMODE
 70
3
  9
$PDSIZE
 40
0.06
  9
$HANDSEED
  5
373
  9
$TILEMODE
 70
1
  9
$MEASUREMENT
 70
0
  9
$INSUNITS
 70
1
  0
ENDSEC
  0
SECTION
  2
CLASSES
  0
CLASS
  1
ACDBDICTIONARYWDFLT
  2
AcDbDictionaryWithDefault
  3
AutoCAD 2000
 90
0
 91
1
280
0
281
0
  0
CLASS
  1
ACDBPLACEHOLDER
  2
AcDbPlaceHolder
  3
AutoCAD 2000
 90
0
 91
1
280
0
281
0
  0
CLASS
  1
LAYOUT
  2
AcDbLayout
  3
AutoCAD 2000
 90
0
 91
0
280
0
281
0
  0
ENDSEC
  0
SECTION
  2
TABLES
  0
TABLE
  2
VPORT
  5
8
100
AcDbSymbolTable
 70
2
  0
VPORT
  5
1F4
100
AcDbSymbolTableRecord
100
AcDbViewportTableRecord
  2
*ACTIVE
 70
0
 10
0.0
 20
0.0
 11
1.0
 21
1.0
 12
11.0
 22
8.5
 13
0.0
 23
0.0
 14
1.0
 24
1.0
 15
0.0
 25
0.0
 16
0.0
 26
0.0
 36
1.0
 17
0.0
 27
0.0
 37
0.0
 40
17.0
 41
1.2941176471
 42
50.0
 43
0.0
 44
0.0
 50
0.0
 51
0.0
 71
0
 72
100
 73
1
 74
1
 75
0
 76
0
 77
0
 78
0
  0
ENDTAB
  0
TABLE
  2
LTYPE
  5
5
100
AcDbSymbolTable
 70
6
  0
LTYPE
  5
14
100
AcDbSymbolTableRecord
100
AcDbLinetypeTableRecord
  2
BYBLOCK
 70
0
  3

 72
65
 73
0
 40
0.0
  0
LTYPE
  5
15
100
AcDbSymbolTableRecord
100
AcDbLinetypeTableRecord
  2
BYLAYER
 70
0
  3

 72
65
 73
0
 40
0.0
  0
LTYPE
  5
16
100
AcDbSymbolTableRecord
100
AcDbLinetypeTableRecord
  2
CONTINUOUS
 70
64
  3
Solid line
 72
65
 73
0
 40
0.0
  0
LTYPE
  5
1F5
100
AcDbSymbolTableRecord
100
AcDbLinetypeTableRecord
  2
CENTER
 70
64
  3
____ _ ____ _ ____ _ ____ _ ____ _ ____ _ ____
 72
65
 73
4
 40
0.6
 49
0.375
 74
0
 49
-0.075
 74
0
 49
0.075
 74
0
 49
-0.075
 74
0
  0
LTYPE
  5
1F6
100
AcDbSymbolTableRecord
100
AcDbLinetypeTableRecord
  2
HIDDEN
 70
64
  3
- - - - - - - - - - - - - - - - - - - -
 72
65
 73
2
 40
0.2
 49
0.1
 74
0
 49
-0.1
 74
0
  0
LTYPE
  5
1F7
100
AcDbSymbolTableRecord
100
AcDbLinetypeTableRecord
  2
PHANTOM
 70
64
  3
_____ _ _ _____ _ _ _____ _ _ _____
 72
65
 73
6
 40
0.8
 49
0.45
 74
0
 49
-0.05
 74
0
 49
0.1
 74
0
 49
-0.05
 74
0
 49
0.1
 74
0
 49
-0.05
 74
0
  0
LTYPE
  5
1F8
100
AcDbSymbolTableRecord
100
AcDbLinetypeTableRecord
  2
DOT
 70
64
  3
. . . . . . . . . . . . . . . . . . . .
 72
65
 73
2
 40
0.2
 49
0.1
 74
0
 49
-0.1
 74
0
  0
LTYPE
  5
1F9
100
AcDbSymbolTableRecord
100
AcDbLinetypeTableRecord
  2
DASHED
 70
64
  3
- - - - - - - - - - - - - - - - - - - -
 72
65
 73
2
 40
0.2
 49
0.1
 74
0
 49
-0.1
 74
0
  0
ENDTAB
  0
TABLE
  2
LAYER
  5
2
100
AcDbSymbolTable
 70
36
  0
LAYER
  5
10
100
AcDbSymbolTableRecord
100
AcDbLayerTableRecord
  2
0
 70
0
 62
7
  6
CONTINUOUS
370
-3
390
F
  0
LAYER
  5
1FA
100
AcDbSymbolTableRecord
100
AcDbLayerTableRecord
  2
DEFAULT_1
 70
0
 62
7
  6
CENTER
370
-3
390
F
  0
LAYER
  5
1FB
100
AcDbSymbolTableRecord
100
AcDbLayerTableRecord
  2
DEFAULT_2
 70
0
 62
8
  6
HIDDEN
370
-3
390
F
  0
LAYER
  5
1FC
100
AcDbSymbolTableRecord
100
AcDbLayerTableRecord
  2
DEFAULT_3
 70
0
 62
7
  6
PHANTOM
370
-3
390
F
  0
LAYER
  5
1FD
100
AcDbSymbolTableRecord
100
AcDbLayerTableRecord
  2
ALL_FEATURES
 70
0
 62
7
  6
CONTINUOUS
370
-3
390
F
  0
LAYER
  5
1FE
100
AcDbSymbolTableRecord
100
AcDbLayerTableRecord
  2
AXES_FEATURES
 70
0
 62
7
  6
CONTINUOUS
370
-3
390
F
  0
LAYER
  5
1FF
100
AcDbSymbolTableRecord
100
AcDbLayerTableRecord
  2
DIMENSIONS
 70
0
 62
7
  6
CONTINUOUS
370
-3
390
F
  0
ENDTAB
  0
TABLE
  2
STYLE
  5
3
100
AcDbSymbolTable
 70
1
  0
STYLE
  5
11
100
AcDbSymbolTableRecord
100
AcDbTextStyleTableRecord
  2
STANDARD
 70
0
 40
0.0
 41
0.8
 50
0.0
 71
0
 42
0.2
  3
txt
  4

  0
STYLE
  5
200
100
AcDbSymbolTableRecord
100
AcDbTextStyleTableRecord
  2
TEXTSTYLE_1
 70
0
 40
0.0
 41
0.8
 50
0.0
 71
0
 42
0.2
  3
gdt
  4

  0
ENDTAB
  0
TABLE
  2
VIEW
  5
6
100
AcDbSymbolTable
 70
0
  0
ENDTAB
  0
TABLE
  2
UCS
  5
7
100
AcDbSymbolTable
 70
0
  0
ENDTAB
  0
TABLE
  2
APPID
  5
9
100
AcDbSymbolTable
 70
1
  0
APPID
  5
201
100
AcDbSymbolTableRecord
100
AcDbRegAppTableRecord
  2
ACAD
 70
0
  0
ENDTAB
  0
TABLE
  2
BLOCK_RECORD
  5
1
100
AcDbSymbolTable
 70
0
  0
BLOCK_RECORD
  5
202
100
AcDbSymbolTableRecord
100
AcDbBlockTableRecord
  2
*Model_Space
  0
BLOCK_RECORD
  5
203
100
AcDbSymbolTableRecord
100
AcDbBlockTableRecord
  2
*Paper_Space
  0
BLOCK_RECORD
  5
204
100
AcDbSymbolTableRecord
100
AcDbBlockTableRecord
  2
_FILLED
  0
ENDTAB
  0
TABLE
  2
DIMSTYLE
  5
A
100
AcDbSymbolTable
 70
1
100
AcDbDimStyleTable
 71
0
  0
DIMSTYLE
105
205
100
AcDbSymbolTableRecord
100
AcDbDimStyleTableRecord
  2
STANDARD
 70
0
  3

  4

 40
1.0
 41
0.1
 42
0.0625
 43
0.38
 44
0.125
 45
0.0
 46
0.0
 47
0.001
 48
0.001
140
0.08
141
0.09
142
0.0
143
25.4
144
1.0
145
0.0
146
1.0
147
0.09
 71
1.0
 72
0.0
 73
1
 74
1
 75
0
 76
0
 77
0
 78
4
 79
1
170
1
171
2
172
0
173
0
174
0
175
0
176
0
177
0
178
0
270
2
179
3
271
3
272
3
273
2
274
2
275
0
280
0
281
0
282
0
283
1
284
4
285
0
286
0
287
3
288
0
340
11
278
46
341
204
342
204
343
204
344
204
  0
ENDTAB
  0
ENDSEC
  0
SECTION
  2
BLOCKS
  0
BLOCK
  5
20
100
AcDbEntity
  8
0
100
AcDbBlockBegin
  2
*Model_Space
 70
0
 10
0.0
 20
0.0
 30
0.0
  3
*Model_Space
  1

  0
ENDBLK
  5
21
100
AcDbEntity
  8
0
100
AcDbBlockEnd
  0
BLOCK
  5
1C
100
AcDbEntity
  8
0
100
AcDbBlockBegin
  2
*Paper_Space
 70
0
 10
0.0
 20
0.0
 30
0.0
  3
*Paper_Space
  1

  0
ENDBLK
  5
1D
100
AcDbEntity
  8
0
100
AcDbBlockEnd
  0
BLOCK
  5
206
100
AcDbEntity
  8
0
100
AcDbBlockBegin
  2
_FILLED
 70
64
 10
0.0
 20
0.0
  3
_FILLED
  1

  0
SOLID
  5
207
100
AcDbEntity
  8
0
  6
BYBLOCK
 62
0
100
AcDbTrace
 10
0.0
 20
0.0
 11
-1.0
 21
0.2
 12
-1.0
 22
-0.2
 13
-1.0
 23
-0.2
  0
ENDBLK
  5
208
100
AcDbEntity
  8
0
  6
BYBLOCK
 62
0
100
AcDbBlockEnd
  0
ENDSEC
  0
SECTION
  2
ENTITIES
  0
LINE
  5
209
100
AcDbEntity
  8
0
100
AcDbLine
 62
7
  6
CONTINUOUS
 10
10.2892582705
 20
7.4823333078
 11
10.5149631741
 21
7.8732656684
  0
LINE
  5
20A
100
AcDbEntity
  8
0
100
AcDbLine
 62
7
  6
CONTINUOUS
 10
10.6184907921
 20
8.0525807628
 11
10.6682871351
 21
8.1388305588
  0
LINE
  5
20B
100
AcDbEntity
  8
0
100
AcDbLine
 62
7
  6
CONTINUOUS
 10
11.4263476902
 20
6.8258318604
 11
10.6682892463
 21
6.8258318604
  0
LINE
  5
20C
100
AcDbEntity
  8
0
100
AcDbLine
 62
7
  6
CONTINUOUS
 10
10.6682872069
 20
6.8258330377
 11
10.6184907921
 21
6.912082958
  0
LINE
  5
20D
100
AcDbEntity
  8
0
100
AcDbLine
 62
7
  6
CONTINUOUS
 10
10.5149631741
 20
7.0913980525
 11
10.2892582705
 21
7.482330413
  0
LINE
  5
20E
100
AcDbEntity
  8
0
100
AcDbLine
 62
7
  6
CONTINUOUS
 10
10.5635017742
 20
7.7877280099
 11
10.5636198282
 21
7.7866381493
  0
LWPOLYLINE
  5
20F
100
AcDbEntity
  8
0
100
AcDbPolyline
 62
7
  6
CONTINUOUS
 90
3
 70
0
 10
10.5637276139
 20
7.7855505083
 10
10.5638252096
 20
7.7844652047
 10
10.5639126951
 20
7.7833823548
  0
LINE
  5
210
100
AcDbEntity
  8
0
100
AcDbLine
 62
7
  6
CONTINUOUS
 10
10.5639901512
 20
7.7823020736
 11
10.5640576605
 21
7.7812244744
  0
LWPOLYLINE
  5
211
100
AcDbEntity
  8
0
100
AcDbPolyline
 62
7
  6
CONTINUOUS
 90
3
 70
0
 10
10.5641153065
 20
7.7801496691
 10
10.5641631743
 20
7.7790777683
 10
10.5642013499
 20
7.7780088809
  0
LINE
  5
212
100
AcDbEntity
  8
0
100
AcDbLine
 62
7
  6
CONTINUOUS
 10
10.5642299208
 20
7.7769431146
 11
10.5642489755
 21
7.7758805753
  0
LINE
  5
213
100
AcDbEntity
  8
0
100
AcDbLine
 62
7
  6
CONTINUOUS
 10
10.5632244239
 20
7.7900081641
 11
10.5636454514
 21
7.7621377462
  0
LWPOLYLINE
  5
214
100
AcDbEntity
  8
0
100
AcDbPolyline
 62
7
  6
CONTINUOUS
 90
3
 70
0
 10
10.564258604
 20
7.7748213676
 10
10.5642588971
 20
7.7737655945
 10
10.5642499468
 20
7.7727133578
  0
LWPOLYLINE
  5
215
100
AcDbEntity
  8
0
100
AcDbPolyline
 62
7
  6
CONTINUOUS
 90
3
 70
0
 10
10.5642318464
 20
7.7716647574
 10
10.5642046901
 20
7.7706198918
 10
10.5641685731
 20
7.7695788583
  0
LWPOLYLINE
  5
216
100
AcDbEntity
  8
0
100
AcDbPolyline
 62
7
  6
CONTINUOUS
 90
3
 70
0
 10
10.5641235919
 20
7.7685417522
 10
10.5640698437
 20
7.7675086684
 10
10.5640074287
 20
7.7664797277
  0
LINE
  5
217
100
AcDbEntity
  8
0
100
AcDbLine
 62
7
  6
CONTINUOUS
 10
10.5639364514
 20
7.7654550808
 11
10.5638570193
 21
7.7644348778
  0
LWPOLYLINE
  5
218
100
AcDbEntity
  8
0
100
AcDbPolyline
 62
7
  6
CONTINUOUS
 90
12
 70
0
 10
10.5637692427
 20
7.7634192675
 10
10.5636732352
 20
7.7624083969
 10
10.5635691129
 20
7.7614024111
 10
10.563456995
 20
7.7604014536
 10
10.5633370034
 20
7.7594056659
 10
10.5632092628
 20
7.7584151877
 10
10.5630739004
 20
7.7574301569
 10
10.5629310462
 20
7.7564507091
 10
10.5627808329
 20
7.7554769783
 10
10.5626233955
 20
7.7545090963
 10
10.5624588715
 20
7.7535471926
 10
10.5623957847
 20
7.7531955389
  0
LWPOLYLINE
  5
219
100
AcDbEntity
  8
0
100
AcDbPolyline
 62
7
  6
CONTINUOUS
 90
72
 70
0
 10
11.3181011353
 20
6.9973967781
 10
11.319018326
 20
6.9975575831
 10
11.3200173362
 20
6.9977240993
 10
11.3210278801
 20
6.99788374
 10
11.3220498088
 20
6.9980362168
 10
11.3230829673
 20
6.9981812428
 10
11.324127196
 20
6.9983185324
 10
11.3251823305
 20
6.9984478022
 10
11.3262482019
 20
6.9985687702
 10
11.3273246366
 20
6.998681157
 10
11.3284114563
 20
6.9987846851
 10
11.329508478
 20
6.9988790795
 10
11.3306155142
 20
6.9989640678
 10
11.3317323727
 20
6.9990393802
 10
11.3328588565
 20
6.9991047499
 10
11.3339947701
 20
6.9991599132
 10
11.3351399762
 20
6.9992046116
 10
11.3362943714
 20
6.9992385881
 10
11.337457848
 20
6.9992615849
 10
11.3386302936
 20
6.9992733437
 10
11.3398115909
 20
6.9992736054
 10
11.3410016178
 20
6.9992621105
 10
11.3422002469
 20
6.9992385988
 10
11.3434073462
 20
6.99920281
 10
11.3446227782
 20
6.9991544834
 10
11.3458464005
 20
6.9990933581
 10
11.3470780651
 20
6.9990191731
 10
11.3483176189
 20
6.9989316673
 10
11.3495649032
 20
6.9988305799
 10
11.3508197541
 20
6.99871565
 10
11.3520820017
 20
6.9985866171
 10
11.3533514708
 20
6.9984432212
 10
11.3546279804
 20
6.9982852026
 10
11.3559113437
 20
6.9981123024
 10
11.3572013679
 20
6.9979242622
 10
11.3584978545
 20
6.9977208245
 10
11.3598005988
 20
6.9975017329
 10
11.3611093901
 20
6.997266732
 10
11.3624240083
 20
6.997015568
 10
11.3637442083
 20
6.996747993
 10
11.3650697381
 20
6.9964637613
 10
11.3664003408
 20
6.9961626298
 10
11.367735753
 20
6.9958443581
 10
11.3690757052
 20
6.9955087089
 10
11.3704199219
 20
6.9951554479
 10
11.3717681209
 20
6.9947843439
 10
11.3731200139
 20
6.9943951693
 10
11.3744753063
 20
6.9939877002
 10
11.3758336968
 20
6.9935617163
 10
11.3771948781
 20
6.9931170013
 10
11.3785585361
 20
6.9926533433
 10
11.3799243505
 20
6.9921705345
 10
11.3812919944
 20
6.9916683718
 10
11.3826611344
 20
6.9911466569
 10
11.3840314307
 20
6.9906051963
 10
11.3854025367
 20
6.9900438021
 10
11.3867740996
 20
6.9894622915
 10
11.3881457601
 20
6.9888604875
 10
11.3895165858
 20
6.9882384802
 10
11.3908834067
 20
6.9875974646
 10
11.3922457526
 20
6.986937485
 10
11.3936036706
 20
6.9862583376
 10
11.3949573347
 20
6.9855597334
 10
11.396307097
 20
6.9848412596
 10
11.397653586
 20
6.9841023081
 10
11.3989979309
 20
6.9833419214
 10
11.4003423807
 20
6.9825583797
 10
11.4016924993
 20
6.9817477574
 10
11.4030675304
 20
6.9808970981
 10
11.4045720684
 20
6.9799365691
 10
11.4074933146
 20
6.9779794428
 10
11.4101544502
 20
6.9760859714
  0
LINE
  5
21A
100
AcDbEntity
  8
0
100
AcDbLine
 62
7
  6
CONTINUOUS
 10
10.7364439669
 20
6.9977683865
 11
10.7375431102
 21
6.9979389048
  0
LWPOLYLINE
  5
21B
100
AcDbEntity
  8
0
100
AcDbPolyline
 62
7
  6
CONTINUOUS
 90
12
 70
0
 10
10.7373655418
 20
6.9979139849
 10
10.7398524461
 20
6.9982652046
 10
10.7423977185
 20
6.9985699258
 10
10.7450029739
 20
6.9988249163
 10
10.7476669272
 20
6.999026496
 10
10.7503867658
 20
6.9991709046
 10
10.7531594995
 20
6.9992544924
 10
10.7559819701
 20
6.9992737356
 10
10.7588508528
 20
6.9992252503
 10
10.7617626581
 20
6.9991058066
 10
10.7647142933
 20
6.9989122993
 10
10.7674850178
 20
6.9986614429
  0
LWPOLYLINE
  5
21C
100
AcDbEntity
  8
0
100
AcDbPolyline
 62
7
  6
CONTINUOUS
 90
3
 70
0
 10
10.738640644
 20
6.998098785
 10
10.7397364435
 20
6.998248098
 10
10.7408303852
 20
6.9983869164
  0
LINE
  5
21D
100
AcDbEntity
  8
0
100
AcDbLine
 62
7
  6
CONTINUOUS
 10
10.741922347
 20
6.9985153142
 11
10.7430122082
 21
6.9986333668
  0
LWPOLYLINE
  5
21E
100
AcDbEntity
  8
0
100
AcDbPolyline
 62
7
  6
CONTINUOUS
 90
3
 70
0
 10
10.7440998498
 20
6.9987411511
 10
10.7451851539
 20
6.9988387454
 10
10.7462680043
 20
6.9989262294
  0
LINE
  5
21F
100
AcDbEntity
  8
0
100
AcDbLine
 62
7
  6
CONTINUOUS
 10
10.747348286
 20
6.9990036842
 11
10.7484258856
 21
6.999071192
  0
LWPOLYLINE
  5
220
100
AcDbEntity
  8
0
100
AcDbPolyline
 62
7
  6
CONTINUOUS
 90
3
 70
0
 10
10.7495006912
 20
6.9991288366
 10
10.7505725923
 20
6.9991767029
 10
10.7516414799
 20
6.9992148771
  0
LINE
  5
221
100
AcDbEntity
  8
0
100
AcDbLine
 62
7
  6
CONTINUOUS
 10
10.7527072465
 20
6.9992434465
 11
10.753769786
 21
6.9992624999
  0
LINE
  5
222
100
AcDbEntity
  8
0
100
AcDbLine
 62
7
  6
CONTINUOUS
 10
10.7396419871
 20
6.9982379398
 11
10.7674850178
 21
6.9986614429
  0
LWPOLYLINE
  5
223
100
AcDbEntity
  8
0
100
AcDbPolyline
 62
7
  6
CONTINUOUS
 90
3
 70
0
 10
10.7548289938
 20
6.9992721269
 10
10.7558847668
 20
6.9992724185
 10
10.7569370036
 20
6.9992634669
  0
LWPOLYLINE
  5
224
100
AcDbEntity
  8
0
100
AcDbPolyline
 62
7
  6
CONTINUOUS
 90
3
 70
0
 10
10.7579856039
 20
6.999245365
 10
10.7590304693
 20
6.9992182073
 10
10.7600715027
 20
6.9991820889
  0
LWPOLYLINE
  5
225
100
AcDbEntity
  8
0
100
AcDbPolyline
 62
7
  6
CONTINUOUS
 90
3
 70
0
 10
10.7611086085
 20
6.9991371063
 10
10.762141692
 20
6.9990833567
 10
10.7631706323
 20
6.9990209404
  0
LINE
  5
226
100
AcDbEntity
  8
0
100
AcDbLine
 62
7
  6
CONTINUOUS
 10
10.7641952788
 20
6.9989499617
 11
10.7652154812
 21
6.9988705282
  0
LWPOLYLINE
  5
227
100
AcDbEntity
  8
0
100
AcDbPolyline
 62
7
  6
CONTINUOUS
 90
12
 70
0
 10
10.7662310908
 20
6.9987827504
 10
10.7672419608
 20
6.9986867415
 10
10.7682479458
 20
6.998582618
 10
10.7692489025
 20
6.9984704988
 10
10.7702446892
 20
6.998350506
 10
10.7712351664
 20
6.9982227642
 10
10.7722201963
 20
6.9980874006
 10
10.7731996429
 20
6.9979445453
 10
10.7741733726
 20
6.9977943309
 10
10.7751412534
 20
6.9976368924
 10
10.7761031558
 20
6.9974723674
 10
10.776401646
 20
6.9974188178
  0
LWPOLYLINE
  5
228
100
AcDbEntity
  8
0
100
AcDbPolyline
 62
7
  6
CONTINUOUS
 90
72
 70
0
 10
10.5623900986
 20
7.2115099613
 10
10.5625434015
 20
7.2106357287
 10
10.5627099508
 20
7.2096367206
 10
10.5628696251
 20
7.208626177
 10
10.5630221361
 20
7.207604247
 10
10.5631671966
 20
7.2065710856
 10
10.5633045213
 20
7.2055268524
 10
10.5634338263
 20
7.2044717118
 10
10.56355483
 20
7.2034058327
 10
10.5636672527
 20
7.2023293887
 10
10.5637708169
 20
7.2012425582
 10
10.5638652476
 20
7.200145524
 10
10.5639502723
 20
7.1990384739
 10
10.5640256212
 20
7.1979215999
 10
10.5640910274
 20
7.1967950991
 10
10.5641462273
 20
7.1956591672
 10
10.5641909621
 20
7.1945139415
 10
10.5642249749
 20
7.1933595257
 10
10.5642480079
 20
7.1921960272
 10
10.5642598028
 20
7.1910235587
 10
10.5642601003
 20
7.1898422373
 10
10.564248641
 20
7.1886521853
 10
10.5642251647
 20
7.1874535298
 10
10.564189411
 20
7.186246403
 10
10.5641411192
 20
7.1850309423
 10
10.5640800283
 20
7.1838072903
 10
10.5640058773
 20
7.1825755949
 10
10.5639184051
 20
7.1813360091
 10
10.5638173508
 20
7.1800886916
 10
10.5637024535
 20
7.1788338066
 10
10.5635734528
 20
7.1775715236
 10
10.5634300884
 20
7.176302018
 10
10.5632721008
 20
7.1750254709
 10
10.5630992309
 20
7.173742069
 10
10.5629112203
 20
7.1724520051
 10
10.5627078116
 20
7.1711554778
 10
10.5624887483
 20
7.1698526918
 10
10.5622537747
 20
7.1685438577
 10
10.5620026374
 20
7.1672291956
 10
10.5617350882
 20
7.1659089507
 10
10.5614508813
 20
7.164583375
 10
10.5611497737
 20
7.1632527254
 10
10.560831525
 20
7.1619172652
 10
10.5604958978
 20
7.160577264
 10
10.5601426576
 20
7.1592329974
 10
10.5597715734
 20
7.1578847476
 10
10.5593824175
 20
7.1565328029
 10
10.5589749659
 20
7.155177458
 10
10.5585489983
 20
7.1538190141
 10
10.5581042985
 20
7.1524577786
 10
10.5576406543
 20
7.1510940656
 10
10.5571578581
 20
7.1497281954
 10
10.5566557066
 20
7.148360495
 10
10.5561340015
 20
7.1469912978
 10
10.5555925494
 20
7.1456209438
 10
10.5550311622
 20
7.1442497793
 10
10.5544496571
 20
7.1428781573
 10
10.5538478572
 20
7.1415064373
 10
10.5532258511
 20
7.1401355487
 10
10.5525848341
 20
7.1387686625
 10
10.5519248517
 20
7.1374062516
 10
10.5512457001
 20
7.1360482692
 10
10.5505470904
 20
7.1346945412
 10
10.54982861
 20
7.1333447161
 10
10.549089651
 20
7.1319981653
 10
10.5483292564
 20
7.1306537606
 10
10.5475457073
 20
7.1293092545
 10
10.5467350818
 20
7.1279590885
 10
10.5458844401
 20
7.1265840443
 10
10.5449240736
 20
7.1250797125
 10
10.5429697716
 20
7.1221624542
 10
10.5410675575
 20
7.1194890703
  0
LINE
  5
229
100
AcDbEntity
  8
0
100
AcDbLine
 62
7
  6
CONTINUOUS
 10
10.5627548396
 20
7.7932063863
 11
10.5629253593
 21
7.7921072438
  0
LWPOLYLINE
  5
22A
100
AcDbEntity
  8
0
100
AcDbPolyline
 62
7
  6
CONTINUOUS
 90
12
 70
0
 10
10.5629003466
 20
7.7922854215
 10
10.5632515781
 20
7.7897985526
 10
10.5635563125
 20
7.7872533173
 10
10.5638113181
 20
7.7846481002
 10
10.564012915
 20
7.781984185
 10
10.5641573428
 20
7.779264384
 10
10.5642409519
 20
7.7764916873
 10
10.5642602185
 20
7.7736692527
 10
10.5642117587
 20
7.7708004049
 10
10.5640923426
 20
7.7678886332
 10
10.563898868
 20
7.7649370708
 10
10.5636454514
 20
7.7621377462
  0
LWPOLYLINE
  5
22B
100
AcDbEntity
  8
0
100
AcDbPolyline
 62
7
  6
CONTINUOUS
 90
3
 70
0
 10
10.5630852409
 20
7.7910097108
 10
10.5632345553
 20
7.789913912
 10
10.5633733751
 20
7.7888199711
  0
LWPOLYLINE
  5
22C
100
AcDbEntity
  8
0
100
AcDbPolyline
 62
7
  6
CONTINUOUS
 90
7
 70
0
 10
11.3868938624
 20
7.9752550067
 10
11.3851185039
 20
7.9745017511
 10
11.3832491938
 20
7.9737467949
 10
11.3813346081
 20
7.9730110378
 10
11.3793748473
 20
7.9722964404
 10
11.3773700662
 20
7.97160499
 10
11.3753204765
 20
7.9709386997
  0
LINE
  5
22D
100
AcDbEntity
  8
0
100
AcDbLine
 62
7
  6
CONTINUOUS
 10
11.385801044
 20
7.9747886464
 11
11.3847061337
 21
7.9743341404
  0
LINE
  5
22E
100
AcDbEntity
  8
0
100
AcDbLine
 62
7
  6
CONTINUOUS
 10
11.3929566167
 20
7.9780784614
 11
11.3752791391
 21
7.9709260842
  0
LINE
  5
22F
100
AcDbEntity
  8
0
100
AcDbLine
 62
7
  6
CONTINUOUS
 10
11.3836092885
 20
7.9738914679
 11
11.3825106642
 21
7.9734606056
  0
LWPOLYLINE
  5
230
100
AcDbEntity
  8
0
100
AcDbPolyline
 62
7
  6
CONTINUOUS
 90
3
 70
0
 10
11.3814104159
 20
7.9730415282
 10
11.3803086973
 20
7.9726342076
 10
11.3792056611
 20
7.9722386141
  0
LINE
  5
231
100
AcDbEntity
  8
0
100
AcDbLine
 62
7
  6
CONTINUOUS
 10
11.3781014591
 20
7.9718547152
 11
11.3769962417
 21
7.9714824766
  0
LINE
  5
232
100
AcDbEntity
  8
0
100
AcDbLine
 62
7
  6
CONTINUOUS
 10
11.3758901582
 20
7.9711218616
 11
11.3747833569
 21
7.9707728318
  0
LWPOLYLINE
  5
233
100
AcDbEntity
  8
0
100
AcDbPolyline
 62
7
  6
CONTINUOUS
 90
9
 70
0
 10
11.3753204765
 20
7.9709386997
 10
11.3732263492
 20
7.9702996066
 10
11.3710880166
 20
7.9696897697
 10
11.368905773
 20
7.9691112426
 10
11.3666784478
 20
7.9685657461
 10
11.3644037333
 20
7.9680548921
 10
11.3620793219
 20
7.9675805277
 10
11.3597029476
 20
7.9671447526
 10
11.3572724003
 20
7.9667499282
  0
LWPOLYLINE
  5
234
100
AcDbEntity
  8
0
100
AcDbPolyline
 62
7
  6
CONTINUOUS
 90
4
 70
0
 10
11.3736759848
 20
7.9704353462
 10
11.3725681877
 20
7.9701093622
 10
11.3714601102
 20
7.969794835
 10
11.3703518957
 20
7.9694917179
  0
LINE
  5
235
100
AcDbEntity
  8
0
100
AcDbLine
 62
7
  6
CONTINUOUS
 10
10.72539247
 20
6.9954636243
 11
10.7265005379
 21
6.9957440756
  0
LINE
  5
236
100
AcDbEntity
  8
0
100
AcDbLine
 62
7
  6
CONTINUOUS
 10
10.7276083201
 20
6.9960132683
 11
10.7287156784
 21
6.9962712568
  0
LINE
  5
237
100
AcDbEntity
  8
0
100
AcDbLine
 62
7
  6
CONTINUOUS
 10
10.7193579714
 20
6.9937377781
 11
10.7396419871
 21
6.9982379398
  0
LINE
  5
238
100
AcDbEntity
  8
0
100
AcDbLine
 62
7
  6
CONTINUOUS
 10
10.7298224755
 20
6.996518097
 11
10.7309285759
 21
6.9967538469
  0
LINE
  5
239
100
AcDbEntity
  8
0
100
AcDbLine
 62
7
  6
CONTINUOUS
 10
10.7320338449
 20
6.9969785661
 11
10.7331381497
 21
6.9971923158
  0
LINE
  5
23A
100
AcDbEntity
  8
0
100
AcDbLine
 62
7
  6
CONTINUOUS
 10
10.7342413583
 20
6.997395159
 11
10.7353433403
 21
6.9975871605
  0
LWPOLYLINE
  5
23B
100
AcDbEntity
  8
0
100
AcDbPolyline
 62
7
  6
CONTINUOUS
 90
7
 70
0
 10
10.5543948833
 20
7.8219080981
 10
10.5551486028
 20
7.820131651
 10
10.5559035538
 20
7.8182623354
 10
10.5566393057
 20
7.8163477434
 10
10.5573538982
 20
7.8143879752
 10
10.5580453436
 20
7.8123831858
 10
10.5587116288
 20
7.8103335866
  0
LINE
  5
23C
100
AcDbEntity
  8
0
100
AcDbLine
 62
7
  6
CONTINUOUS
 10
10.5548612531
 20
7.8208152769
 11
10.5553157685
 21
7.8197203638
  0
LINE
  5
23D
100
AcDbEntity
  8
0
100
AcDbLine
 62
7
  6
CONTINUOUS
 10
10.5515718185
 20
7.8279699766
 11
10.5587242327
 21
7.8102922869
  0
LINE
  5
23E
100
AcDbEntity
  8
0
100
AcDbLine
 62
7
  6
CONTINUOUS
 10
10.5557584502
 20
7.8186235157
 11
10.5561893216
 21
7.8175248886
  0
LWPOLYLINE
  5
23F
100
AcDbEntity
  8
0
100
AcDbPolyline
 62
7
  6
CONTINUOUS
 90
3
 70
0
 10
10.5566084081
 20
7.8164246374
 10
10.5570157374
 20
7.8153229159
 10
10.5574113397
 20
7.8142198768
  0
LINE
  5
240
100
AcDbEntity
  8
0
100
AcDbLine
 62
7
  6
CONTINUOUS
 10
10.5577952472
 20
7.8131156718
 11
10.5581674943
 21
7.8120104513
  0
LINE
  5
241
100
AcDbEntity
  8
0
100
AcDbLine
 62
7
  6
CONTINUOUS
 10
10.5585281176
 20
7.8109043648
 11
10.5588771557
 21
7.8097975603
  0
LWPOLYLINE
  5
242
100
AcDbEntity
  8
0
100
AcDbPolyline
 62
7
  6
CONTINUOUS
 90
9
 70
0
 10
10.5587116288
 20
7.8103335866
 10
10.559350717
 20
7.8082394485
 10
10.5599605487
 20
7.8061011038
 10
10.5605390704
 20
7.8039188472
 10
10.5610845606
 20
7.8016915098
 10
10.5615954077
 20
7.7994167839
 10
10.5620697644
 20
7.7970923619
 10
10.5625055312
 20
7.7947159779
 10
10.5629003466
 20
7.7922854215
  0
LINE
  5
243
100
AcDbEntity
  8
0
100
AcDbLine
 62
7
  6
CONTINUOUS
 10
10.5592146494
 20
7.808690185
 11
10.5595406414
 21
7.8075823846
  0
LINE
  5
244
100
AcDbEntity
  8
0
100
AcDbLine
 62
7
  6
CONTINUOUS
 10
10.5598551765
 20
7.8064743038
 11
10.5601583015
 21
7.8053660859
  0
LINE
  5
245
100
AcDbEntity
  8
0
100
AcDbLine
 62
7
  6
CONTINUOUS
 10
10.5604500649
 20
7.8042578732
 11
10.5607305174
 21
7.8031498064
  0
LINE
  5
246
100
AcDbEntity
  8
0
100
AcDbLine
 62
7
  6
CONTINUOUS
 10
10.5609997113
 20
7.8020420253
 11
10.561257701
 21
7.8009346681
  0
LINE
  5
247
100
AcDbEntity
  8
0
100
AcDbLine
 62
7
  6
CONTINUOUS
 10
10.5587242327
 20
7.8102922869
 11
10.5632244239
 21
7.7900081641
  0
LINE
  5
248
100
AcDbEntity
  8
0
100
AcDbLine
 62
7
  6
CONTINUOUS
 10
10.5615045425
 20
7.799827872
 11
10.5617402936
 21
7.7987217727
  0
LINE
  5
249
100
AcDbEntity
  8
0
100
AcDbLine
 62
7
  6
CONTINUOUS
 10
10.561965014
 20
7.7976165046
 11
10.562178765
 21
7.7965122008
  0
LINE
  5
24A
100
AcDbEntity
  8
0
100
AcDbLine
 62
7
  6
CONTINUOUS
 10
10.5623816096
 20
7.7954089932
 11
10.5625736123
 21
7.794307012
  0
LINE
  5
24B
100
AcDbEntity
  8
0
100
AcDbLine
 62
7
  6
CONTINUOUS
 10
11.4078958734
 20
7.9869637277
 11
11.4066513272
 21
7.9861072953
  0
LINE
  5
24C
100
AcDbEntity
  8
0
100
AcDbLine
 62
7
  6
CONTINUOUS
 10
11.4066106977
 20
7.9860816074
 11
11.4054890797
 21
7.9853300042
  0
LINE
  5
24D
100
AcDbEntity
  8
0
100
AcDbLine
 62
7
  6
CONTINUOUS
 10
11.4054890797
 20
7.9853300042
 11
11.4040651425
 21
7.9843998664
  0
LINE
  5
24E
100
AcDbEntity
  8
0
100
AcDbLine
 62
7
  6
CONTINUOUS
 10
11.4043725882
 20
7.984599794
 11
11.4027194833
 21
7.9835487385
  0
LINE
  5
24F
100
AcDbEntity
  8
0
100
AcDbLine
 62
7
  6
CONTINUOUS
 10
11.4032609471
 20
7.9838901722
 11
11.4021538479
 21
7.983200362
  0
LINE
  5
250
100
AcDbEntity
  8
0
100
AcDbLine
 62
7
  6
CONTINUOUS
 10
11.4027194833
 20
7.9835487385
 11
11.4010509512
 21
7.9825296142
  0
LINE
  5
251
100
AcDbEntity
  8
0
100
AcDbLine
 62
7
  6
CONTINUOUS
 10
11.4080085641
 20
7.9870420684
 11
11.3930024908
 21
7.9781057799
  0
LINE
  5
252
100
AcDbEntity
  8
0
100
AcDbLine
 62
7
  6
CONTINUOUS
 10
11.401336029
 20
7.9826994396
 11
11.3999126668
 21
7.9818522019
  0
LWPOLYLINE
  5
253
100
AcDbEntity
  8
0
100
AcDbPolyline
 62
7
  6
CONTINUOUS
 90
4
 70
0
 10
11.3999518882
 20
7.9818772078
 10
11.398447246
 20
7.9810073879
 10
11.3969379642
 20
7.9801657084
 10
11.395384283
 20
7.9793286761
  0
LWPOLYLINE
  5
254
100
AcDbEntity
  8
0
100
AcDbPolyline
 62
7
  6
CONTINUOUS
 90
3
 70
0
 10
11.3988562619
 20
7.98124245
 10
11.3977636494
 20
7.9806246758
 10
11.3966736022
 20
7.9800232487
  0
LINE
  5
255
100
AcDbEntity
  8
0
100
AcDbLine
 62
7
  6
CONTINUOUS
 10
11.3955856482
 20
7.9794375601
 11
11.3937859556
 21
7.9784979921
  0
LINE
  5
256
100
AcDbEntity
  8
0
100
AcDbLine
 62
7
  6
CONTINUOUS
 10
11.3944992925
 20
7.9788670297
 11
11.3934140188
 21
7.9783111055
  0
LWPOLYLINE
  5
257
100
AcDbEntity
  8
0
100
AcDbPolyline
 62
7
  6
CONTINUOUS
 90
5
 70
0
 10
11.3937859556
 20
7.9784979921
 10
11.3921427691
 20
7.9776753926
 10
11.3904545475
 20
7.9768626481
 10
11.3887211534
 20
7.9760615631
 10
11.3869424899
 20
7.9752739745
  0
LWPOLYLINE
  5
258
100
AcDbEntity
  8
0
100
AcDbPolyline
 62
7
  6
CONTINUOUS
 90
3
 70
0
 10
11.3923292901
 20
7.9777692637
 10
11.3912445503
 20
7.9772410089
 10
11.3901592248
 20
7.9767258742
  0
LINE
  5
259
100
AcDbEntity
  8
0
100
AcDbLine
 62
7
  6
CONTINUOUS
 10
11.3890727212
 20
7.9762234211
 11
11.3879844309
 21
7.9757332397
  0
LINE
  5
25A
100
AcDbEntity
  8
0
100
AcDbLine
 62
7
  6
CONTINUOUS
 10
10.5426866737
 20
7.8429091049
 11
10.543543109
 21
7.8416645464
  0
LINE
  5
25B
100
AcDbEntity
  8
0
100
AcDbLine
 62
7
  6
CONTINUOUS
 10
10.5435679658
 20
7.841625142
 11
10.5443195934
 21
7.84050351
  0
LINE
  5
25C
100
AcDbEntity
  8
0
100
AcDbLine
 62
7
  6
CONTINUOUS
 10
10.5443195934
 20
7.84050351
 11
10.5452505402
 21
7.8390783406
  0
LINE
  5
25D
100
AcDbEntity
  8
0
100
AcDbLine
 62
7
  6
CONTINUOUS
 10
10.5450498274
 20
7.8393870038
 11
10.5461016675
 21
7.8377326727
  0
LINE
  5
25E
100
AcDbEntity
  8
0
100
AcDbLine
 62
7
  6
CONTINUOUS
 10
10.5457594724
 20
7.8382753478
 11
10.5464493052
 21
7.8371682335
  0
LINE
  5
25F
100
AcDbEntity
  8
0
100
AcDbLine
 62
7
  6
CONTINUOUS
 10
10.5461016675
 20
7.8377326727
 11
10.5471200749
 21
7.8360653215
  0
LINE
  5
260
100
AcDbEntity
  8
0
100
AcDbLine
 62
7
  6
CONTINUOUS
 10
10.5426081385
 20
7.8430220746
 11
10.5515445008
 21
7.8280158494
  0
LINE
  5
261
100
AcDbEntity
  8
0
100
AcDbLine
 62
7
  6
CONTINUOUS
 10
10.5469509645
 20
7.8363492113
 11
10.5477981992
 21
7.8349258436
  0
LWPOLYLINE
  5
262
100
AcDbEntity
  8
0
100
AcDbPolyline
 62
7
  6
CONTINUOUS
 90
4
 70
0
 10
10.5477725024
 20
7.8349662433
 10
10.5486430088
 20
7.833460419
 10
10.5494846833
 20
7.8319511344
 10
10.5503217103
 20
7.8303974505
  0
LWPOLYLINE
  5
263
100
AcDbEntity
  8
0
100
AcDbPolyline
 62
7
  6
CONTINUOUS
 90
3
 70
0
 10
10.5484072805
 20
7.8338706021
 10
10.5490250741
 20
7.832777975
 10
10.5496265197
 20
7.8316879138
  0
LINE
  5
264
100
AcDbEntity
  8
0
100
AcDbLine
 62
7
  6
CONTINUOUS
 10
10.5502122259
 20
7.8305999465
 11
10.5511523888
 21
7.8287991205
  0
LINE
  5
265
100
AcDbEntity
  8
0
100
AcDbLine
 62
7
  6
CONTINUOUS
 10
10.5507827729
 20
7.8295135783
 11
10.5513387127
 21
7.8284282931
  0
LWPOLYLINE
  5
266
100
AcDbEntity
  8
0
100
AcDbPolyline
 62
7
  6
CONTINUOUS
 90
5
 70
0
 10
10.5511523888
 20
7.8287991205
 10
10.5519749829
 20
7.8271559313
 10
10.5527877218
 20
7.8254677067
 10
10.5535888013
 20
7.8237343092
 10
10.5543763846
 20
7.8219556416
  0
LWPOLYLINE
  5
267
100
AcDbEntity
  8
0
100
AcDbPolyline
 62
7
  6
CONTINUOUS
 90
3
 70
0
 10
10.551880569
 20
7.8273435543
 10
10.5524088373
 20
7.8262588056
 10
10.5529239844
 20
7.8251734727
  0
LINE
  5
268
100
AcDbEntity
  8
0
100
AcDbLine
 62
7
  6
CONTINUOUS
 10
10.5534264489
 20
7.8240869635
 11
10.5539166406
 21
7.8229986694
  0
LINE
  5
269
100
AcDbEntity
  8
0
100
AcDbLine
 62
7
  6
CONTINUOUS
 10
10.5305079347
 20
7.1069428131
 11
10.1280882525
 21
6.7045231309
  0
LWPOLYLINE
  5
26A
100
AcDbEntity
  8
0
100
AcDbPolyline
 62
7
  6
CONTINUOUS
 90
5
 70
0
 10
11.8251270678
 20
8.4015619461
 10
11.4228814068
 20
7.9993595865
 10
11.4223896421
 20
7.9988762292
 10
11.4219043465
 20
7.9984049035
 10
11.4214398574
 20
7.9979590539
  0
LWPOLYLINE
  5
26B
100
AcDbEntity
  8
0
100
AcDbPolyline
 62
7
  6
CONTINUOUS
 90
3
 70
0
 10
11.4214256994
 20
7.9979454641
 10
11.4209539241
 20
7.9974978135
 10
11.4204893158
 20
7.9970619257
  0
LINE
  5
26C
100
AcDbEntity
  8
0
100
AcDbLine
 62
7
  6
CONTINUOUS
 10
11.4211707083
 20
7.9977049276
 11
11.4200322902
 21
7.9966378874
  0
LINE
  5
26D
100
AcDbEntity
  8
0
100
AcDbLine
 62
7
  6
CONTINUOUS
 10
11.4204789009
 20
7.9970625142
 11
11.4191438497
 21
7.9958267761
  0
LINE
  5
26E
100
AcDbEntity
  8
0
100
AcDbLine
 62
7
  6
CONTINUOUS
 10
11.4201202731
 20
7.9967349865
 11
11.4187127152
 21
7.9954393515
  0
LINE
  5
26F
100
AcDbEntity
  8
0
100
AcDbLine
 62
7
  6
CONTINUOUS
 10
11.4196171884
 20
7.9962775024
 11
11.4182980899
 21
7.9950705235
  0
LINE
  5
270
100
AcDbEntity
  8
0
100
AcDbLine
 62
7
  6
CONTINUOUS
 10
11.4190649657
 20
7.9957837996
 11
11.4175716419
 21
7.994433147
  0
LINE
  5
271
100
AcDbEntity
  8
0
100
AcDbLine
 62
7
  6
CONTINUOUS
 10
11.4175716419
 20
7.994433147
 11
11.4173290511
 21
7.9942228277
  0
LWPOLYLINE
  5
272
100
AcDbEntity
  8
0
100
AcDbPolyline
 62
7
  6
CONTINUOUS
 90
3
 70
0
 10
11.4179809607
 20
7.9948299438
 10
11.4168729593
 20
7.9938785087
 10
11.4157458751
 20
7.9929343472
  0
LINE
  5
273
100
AcDbEntity
  8
0
100
AcDbLine
 62
7
  6
CONTINUOUS
 10
11.4157795886
 20
7.9929607604
 11
11.4146048524
 21
7.9920020796
  0
LINE
  5
274
100
AcDbEntity
  8
0
100
AcDbLine
 62
7
  6
CONTINUOUS
 10
11.4204789009
 20
7.9970625142
 11
11.408022005
 21
7.9870528671
  0
LINE
  5
275
100
AcDbEntity
  8
0
100
AcDbLine
 62
7
  6
CONTINUOUS
 10
11.4147434214
 20
7.9921125041
 11
11.4134552544
 21
7.991086079
  0
LINE
  5
276
100
AcDbEntity
  8
0
100
AcDbLine
 62
7
  6
CONTINUOUS
 10
11.4136767469
 20
7.99125917
 11
11.4123026486
 21
7.9901904585
  0
LINE
  5
277
100
AcDbEntity
  8
0
100
AcDbLine
 62
7
  6
CONTINUOUS
 10
11.4125798241
 20
7.9904021226
 11
11.4111527025
 21
7.989318998
  0
LINE
  5
278
100
AcDbEntity
  8
0
100
AcDbLine
 62
7
  6
CONTINUOUS
 10
11.4114529431
 20
7.9895427185
 11
11.4100085402
 21
7.9884732323
  0
LINE
  5
279
100
AcDbEntity
  8
0
100
AcDbLine
 62
7
  6
CONTINUOUS
 10
11.4102964259
 20
7.9886823044
 11
11.4088702423
 21
7.9876523488
  0
LINE
  5
27A
100
AcDbEntity
  8
0
100
AcDbLine
 62
7
  6
CONTINUOUS
 10
11.4091106276
 20
7.9878222153
 11
11.4077376836
 21
7.9868554358
  0
LINE
  5
27B
100
AcDbEntity
  8
0
100
AcDbLine
 62
7
  6
CONTINUOUS
 10
11.4227073856
 20
6.9655214569
 11
11.8251270678
 21
6.5631017747
  0
LWPOLYLINE
  5
27C
100
AcDbEntity
  8
0
100
AcDbPolyline
 62
7
  6
CONTINUOUS
 90
5
 70
0
 10
10.1280882525
 20
8.2601405899
 10
10.5302903339
 20
7.8578952103
 10
10.5307736979
 20
7.8574034421
 10
10.5312450309
 20
7.8569181424
 10
10.5316912629
 20
7.8564532579
  0
LWPOLYLINE
  5
27D
100
AcDbEntity
  8
0
100
AcDbPolyline
 62
7
  6
CONTINUOUS
 90
3
 70
0
 10
10.5317044778
 20
7.8564394906
 10
10.5321521364
 20
7.85596771
 10
10.5325880324
 20
7.8555030958
  0
LINE
  5
27E
100
AcDbEntity
  8
0
100
AcDbLine
 62
7
  6
CONTINUOUS
 10
10.5319448401
 20
7.8561846949
 11
10.5330120794
 21
7.8550460636
  0
LINE
  5
27F
100
AcDbEntity
  8
0
100
AcDbLine
 62
7
  6
CONTINUOUS
 10
10.5325876248
 20
7.8554924899
 11
10.5338232096
 21
7.8541576076
  0
LINE
  5
280
100
AcDbEntity
  8
0
100
AcDbLine
 62
7
  6
CONTINUOUS
 10
10.5329144771
 20
7.8551346011
 11
10.5342106435
 21
7.8537264651
  0
LINE
  5
281
100
AcDbEntity
  8
0
100
AcDbLine
 62
7
  6
CONTINUOUS
 10
10.5333728437
 20
7.8546305471
 11
10.5345794914
 21
7.8533118196
  0
LINE
  5
282
100
AcDbEntity
  8
0
100
AcDbLine
 62
7
  6
CONTINUOUS
 10
10.5338656441
 20
7.8540793354
 11
10.5352169167
 21
7.8525853192
  0
LINE
  5
283
100
AcDbEntity
  8
0
100
AcDbLine
 62
7
  6
CONTINUOUS
 10
10.5352169167
 20
7.8525853192
 11
10.5354272926
 21
7.8523426639
  0
LWPOLYLINE
  5
284
100
AcDbEntity
  8
0
100
AcDbPolyline
 62
7
  6
CONTINUOUS
 90
3
 70
0
 10
10.5348194851
 20
7.8529953683
 10
10.535770911
 20
7.8518873998
 10
10.5367150695
 20
7.8507603425
  0
LINE
  5
285
100
AcDbEntity
  8
0
100
AcDbLine
 62
7
  6
CONTINUOUS
 10
10.5366896095
 20
7.8507929038
 11
10.5376473405
 21
7.8496193396
  0
LINE
  5
286
100
AcDbEntity
  8
0
100
AcDbLine
 62
7
  6
CONTINUOUS
 10
10.5325970682
 20
7.8554826422
 11
10.5425973228
 21
7.8430355366
  0
LINE
  5
287
100
AcDbEntity
  8
0
100
AcDbLine
 62
7
  6
CONTINUOUS
 10
10.5375378708
 20
7.8497567257
 11
10.5385633514
 21
7.8484697529
  0
LINE
  5
288
100
AcDbEntity
  8
0
100
AcDbLine
 62
7
  6
CONTINUOUS
 10
10.5383912097
 20
7.8486900401
 11
10.5394589896
 21
7.8473171489
  0
LINE
  5
289
100
AcDbEntity
  8
0
100
AcDbLine
 62
7
  6
CONTINUOUS
 10
10.5392482618
 20
7.8475931058
 11
10.5403304745
 21
7.8461671949
  0
LINE
  5
28A
100
AcDbEntity
  8
0
100
AcDbLine
 62
7
  6
CONTINUOUS
 10
10.5401076704
 20
7.8464662128
 11
10.5411762657
 21
7.8450230221
  0
LINE
  5
28B
100
AcDbEntity
  8
0
100
AcDbLine
 62
7
  6
CONTINUOUS
 10
10.5409680888
 20
7.8453096833
 11
10.5419971745
 21
7.8438847125
  0
LINE
  5
28C
100
AcDbEntity
  8
0
100
AcDbLine
 62
7
  6
CONTINUOUS
 10
10.5418281821
 20
7.8441238722
 11
10.5427941126
 21
7.8427521412
  0
LINE
  5
28D
100
AcDbEntity
  8
0
100
AcDbLine
 62
7
  6
CONTINUOUS
 10
11.0148183383
 20
7.7523318604
 11
11.0148183383
 21
7.5273318604
  0
LINE
  5
28E
100
AcDbEntity
  8
0
100
AcDbLine
 62
7
  6
CONTINUOUS
 10
11.0304433383
 20
7.5037301101
 11
11.0304433383
 21
7.7367068604
  0
LINE
  5
28F
100
AcDbEntity
  8
0
100
AcDbLine
 62
7
  6
CONTINUOUS
 10
11.1623183383
 20
7.5623318604
 11
11.0798183383
 21
7.5273318604
  0
LINE
  5
290
100
AcDbEntity
  8
0
100
AcDbLine
 62
7
  6
CONTINUOUS
 10
11.0641933383
 20
7.5037301101
 11
11.1379785132
 21
7.5350329116
  0
LINE
  5
291
100
AcDbEntity
  8
0
100
AcDbLine
 62
7
  6
CONTINUOUS
 10
10.9566581634
 20
7.5350329116
 11
11.0304433383
 21
7.5037301101
  0
LINE
  5
292
100
AcDbEntity
  8
0
100
AcDbLine
 62
7
  6
CONTINUOUS
 10
10.9323183383
 20
7.5623318604
 11
11.0473183383
 21
7.1723318604
  0
LINE
  5
293
100
AcDbEntity
  8
0
100
AcDbLine
 62
7
  6
CONTINUOUS
 10
11.0473183383
 20
7.2275766662
 11
10.9566581634
 21
7.5350329116
  0
LINE
  5
294
100
AcDbEntity
  8
0
100
AcDbLine
 62
7
  6
CONTINUOUS
 10
11.0641933383
 20
7.7367068604
 11
11.0641933383
 21
7.5037301101
  0
LINE
  5
295
100
AcDbEntity
  8
0
100
AcDbLine
 62
7
  6
CONTINUOUS
 10
11.0798183383
 20
7.5273318604
 11
11.0798183383
 21
7.7523318604
  0
LINE
  5
296
100
AcDbEntity
  8
0
100
AcDbLine
 62
7
  6
CONTINUOUS
 10
11.1379785132
 20
7.5350329116
 11
11.0473183383
 21
7.2275766662
  0
LINE
  5
297
100
AcDbEntity
  8
0
100
AcDbLine
 62
7
  6
CONTINUOUS
 10
11.0473183383
 20
7.1723318604
 11
11.1623183383
 21
7.5623318604
  0
LINE
  5
298
100
AcDbEntity
  8
0
100
AcDbLine
 62
7
  6
CONTINUOUS
 10
11.5641287418
 20
7.8577209077
 11
11.966548424
 21
8.2601405899
  0
LWPOLYLINE
  5
299
100
AcDbEntity
  8
0
100
AcDbPolyline
 62
7
  6
CONTINUOUS
 90
5
 70
0
 10
10.2695096088
 20
6.5631017747
 10
10.6717549946
 20
6.9653038623
 10
10.6722467633
 20
6.9657872266
 10
10.6727320634
 20
6.9662585598
 10
10.6731969212
 20
6.9667047662
  0
LWPOLYLINE
  5
29A
100
AcDbEntity
  8
0
100
AcDbPolyline
 62
7
  6
CONTINUOUS
 90
3
 70
0
 10
10.6732107154
 20
6.966718007
 10
10.6736824964
 20
6.9671656657
 10
10.6741471108
 20
6.9676015619
  0
LINE
  5
29B
100
AcDbEntity
  8
0
100
AcDbLine
 62
7
  6
CONTINUOUS
 10
10.673465572
 20
6.9669584259
 11
10.6746041432
 21
6.968025609
  0
LINE
  5
29C
100
AcDbEntity
  8
0
100
AcDbLine
 62
7
  6
CONTINUOUS
 10
11.0148183383
 20
7.5273318604
 11
10.9323183383
 21
7.5623318604
  0
LINE
  5
29D
100
AcDbEntity
  8
0
100
AcDbLine
 62
7
  6
CONTINUOUS
 10
11.966548424
 20
6.7045231309
 11
11.5645877794
 21
7.1064837755
  0
LINE
  5
29E
100
AcDbEntity
  8
0
100
AcDbLine
 62
7
  6
CONTINUOUS
 10
10.671929291
 20
7.9991422639
 11
10.2695096088
 21
8.4015619461
  0
LWPOLYLINE
  5
29F
100
AcDbEntity
  8
0
100
AcDbPolyline
 62
7
  6
CONTINUOUS
 90
6
 70
0
 10
11.5655271631
 20
7.105544469
 10
11.5646511239
 20
7.1064295568
 10
11.5637750055
 20
7.1073333935
 10
11.5628950474
 20
7.108260605
 10
11.5620125224
 20
7.109210732
 10
11.5611271734
 20
7.1101849593
  0
LWPOLYLINE
  5
2A0
100
AcDbEntity
  8
0
100
AcDbPolyline
 62
7
  6
CONTINUOUS
 90
7
 70
0
 10
11.5646132164
 20
7.1064957017
 10
11.5601016657
 20
7.1113016782
 10
11.5539829133
 20
7.1189305219
 10
11.5457022301
 20
7.131723782
 10
11.5392336053
 20
7.1451572224
 10
11.5342786977
 20
7.1600514014
 10
11.5311686651
 20
7.17664619
  0
LINE
  5
2A1
100
AcDbEntity
  8
0
100
AcDbLine
 62
7
  6
CONTINUOUS
 10
10.6741577143
 20
6.9676011525
 11
10.6754925995
 21
6.9688367393
  0
LINE
  5
2A2
100
AcDbEntity
  8
0
100
AcDbLine
 62
7
  6
CONTINUOUS
 10
10.6745156816
 20
6.9679280758
 11
10.675923742
 21
6.9692241732
  0
LINE
  5
2A3
100
AcDbEntity
  8
0
100
AcDbLine
 62
7
  6
CONTINUOUS
 10
10.6750197131
 20
6.9683864213
 11
10.676338387
 21
6.9695930205
  0
LINE
  5
2A4
100
AcDbEntity
  8
0
100
AcDbLine
 62
7
  6
CONTINUOUS
 10
10.6755709525
 20
6.9688792457
 11
10.677064886
 21
6.9702304444
  0
LINE
  5
2A5
100
AcDbEntity
  8
0
100
AcDbLine
 62
7
  6
CONTINUOUS
 10
10.677064886
 20
6.9702304444
 11
10.6773075387
 21
6.9704408182
  0
LWPOLYLINE
  5
2A6
100
AcDbEntity
  8
0
100
AcDbPolyline
 62
7
  6
CONTINUOUS
 90
3
 70
0
 10
10.6766549245
 20
6.969833089
 10
10.6777628975
 20
6.9707845167
 10
10.6788899587
 20
6.9717286764
  0
LINE
  5
2A7
100
AcDbEntity
  8
0
100
AcDbLine
 62
7
  6
CONTINUOUS
 10
10.6788573879
 20
6.9717032087
 11
10.680030965
 21
6.972660948
  0
LINE
  5
2A8
100
AcDbEntity
  8
0
100
AcDbLine
 62
7
  6
CONTINUOUS
 10
10.6741577143
 20
6.9676011525
 11
10.6866146405
 21
6.9776108285
  0
LINE
  5
2A9
100
AcDbEntity
  8
0
100
AcDbLine
 62
7
  6
CONTINUOUS
 10
10.6798935748
 20
6.9725514754
 11
10.6811805542
 21
6.9735769589
  0
LINE
  5
2AA
100
AcDbEntity
  8
0
100
AcDbLine
 62
7
  6
CONTINUOUS
 10
10.6809602697
 20
6.9734048197
 11
10.68233316
 21
6.9744725963
  0
LINE
  5
2AB
100
AcDbEntity
  8
0
100
AcDbLine
 62
7
  6
CONTINUOUS
 10
10.6820572135
 20
6.974261877
 11
10.6834831149
 21
6.9753440797
  0
LINE
  5
2AC
100
AcDbEntity
  8
0
100
AcDbLine
 62
7
  6
CONTINUOUS
 10
10.6831841163
 20
6.9751212908
 11
10.6846272884
 21
6.9761898695
  0
LINE
  5
2AD
100
AcDbEntity
  8
0
100
AcDbLine
 62
7
  6
CONTINUOUS
 10
10.684340656
 20
6.9759817142
 11
10.6857655986
 21
6.9770107767
  0
LINE
  5
2AE
100
AcDbEntity
  8
0
100
AcDbLine
 62
7
  6
CONTINUOUS
 10
10.6855264775
 20
6.9768418124
 11
10.6868981704
 21
6.9778077132
  0
LINE
  5
2AF
100
AcDbEntity
  8
0
100
AcDbLine
 62
7
  6
CONTINUOUS
 10
10.6867412556
 20
6.9777003087
 11
10.6879858255
 21
6.9785567488
  0
LINE
  5
2B0
100
AcDbEntity
  8
0
100
AcDbLine
 62
7
  6
CONTINUOUS
 10
10.68802517
 20
6.9785815648
 11
10.6891468024
 21
6.9793331908
  0
LINE
  5
2B1
100
AcDbEntity
  8
0
100
AcDbLine
 62
7
  6
CONTINUOUS
 10
10.6891468024
 20
6.9793331908
 11
10.6905720566
 21
6.9802641898
  0
LINE
  5
2B2
100
AcDbEntity
  8
0
100
AcDbLine
 62
7
  6
CONTINUOUS
 10
10.6902633089
 20
6.9800634232
 11
10.6919177384
 21
6.9811153221
  0
LINE
  5
2B3
100
AcDbEntity
  8
0
100
AcDbLine
 62
7
  6
CONTINUOUS
 10
11.5611271734
 20
7.1101849593
 11
11.5602399115
 21
7.1111832343
  0
LWPOLYLINE
  5
2B4
100
AcDbEntity
  8
0
100
AcDbPolyline
 62
7
  6
CONTINUOUS
 90
6
 70
0
 10
11.5602399115
 20
7.1111832343
 10
11.5593516451
 20
7.1122054854
 10
11.5584632799
 20
7.1132516215
 10
11.5575757179
 20
7.1143215311
 10
11.5566898564
 20
7.1154150824
 10
11.5558065872
 20
7.1165321222
  0
LWPOLYLINE
  5
2B5
100
AcDbEntity
  8
0
100
AcDbPolyline
 62
7
  6
CONTINUOUS
 90
40
 70
0
 10
11.5558065872
 20
7.1165321222
 10
11.5549267958
 20
7.1176724766
 10
11.5540513505
 20
7.1188359627
 10
11.553181036
 20
7.1200224822
 10
11.5523165995
 20
7.1212319676
 10
11.551458787
 20
7.1224643346
 10
11.5506083432
 20
7.1237194823
 10
11.5497660108
 20
7.1249972922
 10
11.5489325298
 20
7.1262976289
 10
11.5481086368
 20
7.1276203398
 10
11.5472950646
 20
7.1289652546
 10
11.5464925416
 20
7.1303321859
 10
11.5457017911
 20
7.1317209287
 10
11.5449235309
 20
7.1331312606
 10
11.5441584723
 20
7.1345629419
 10
11.5434073202
 20
7.1360157154
 10
11.542670772
 20
7.1374893068
 10
11.541949517
 20
7.1389834244
 10
11.5412442364
 20
7.1404977595
 10
11.5405556025
 20
7.142031986
 10
11.539884284
 20
7.1435857465
 10
11.5392309419
 20
7.1451586592
 10
11.5385962244
 20
7.1467503272
 10
11.5379807681
 20
7.1483603359
 10
11.5373851967
 20
7.1499882533
 10
11.5368101207
 20
7.1516336304
 10
11.5362561371
 20
7.1532960013
 10
11.5357238284
 20
7.1549748835
 10
11.5352137623
 20
7.1566697784
 10
11.534726491
 20
7.1583801712
 10
11.5342625509
 20
7.1601055317
 10
11.5338224616
 20
7.1618453142
 10
11.533406726
 20
7.1635989585
 10
11.5330158293
 20
7.1653658894
 10
11.5326502388
 20
7.1671455179
 10
11.532310403
 20
7.1689372412
 10
11.5319967518
 20
7.1707404432
 10
11.5317096954
 20
7.1725544949
 10
11.5314496241
 20
7.1743787552
 10
11.5312169078
 20
7.1762125707
  0
LINE
  5
2B6
100
AcDbEntity
  8
0
100
AcDbLine
 62
7
  6
CONTINUOUS
 10
10.6913749652
 20
6.9807730666
 11
10.6924820798
 21
6.9814628979
  0
LINE
  5
2B7
100
AcDbEntity
  8
0
100
AcDbLine
 62
7
  6
CONTINUOUS
 10
10.6919177384
 20
6.9811153221
 11
10.693584992
 21
6.982133666
  0
LINE
  5
2B8
100
AcDbEntity
  8
0
100
AcDbLine
 62
7
  6
CONTINUOUS
 10
10.6866281155
 20
6.9776216546
 11
10.70163434
 21
6.9865580183
  0
LINE
  5
2B9
100
AcDbEntity
  8
0
100
AcDbLine
 62
7
  6
CONTINUOUS
 10
10.6933012147
 20
6.9819646241
 11
10.6947245982
 21
6.9828118637
  0
LWPOLYLINE
  5
2BA
100
AcDbEntity
  8
0
100
AcDbPolyline
 62
7
  6
CONTINUOUS
 90
4
 70
0
 10
10.6946840705
 20
6.982786092
 10
10.6961900396
 20
6.9836566783
 10
10.6976993419
 20
6.9844983576
 10
10.699253044
 20
6.985335389
  0
LWPOLYLINE
  5
2BB
100
AcDbEntity
  8
0
100
AcDbPolyline
 62
7
  6
CONTINUOUS
 90
3
 70
0
 10
10.695779712
 20
6.9834208687
 10
10.6968723394
 20
6.9840386608
 10
10.6979624009
 20
6.9846401051
  0
LINE
  5
2BC
100
AcDbEntity
  8
0
100
AcDbLine
 62
7
  6
CONTINUOUS
 10
10.6990503687
 20
6.98522581
 11
10.700851393
 21
6.9861660715
  0
LINE
  5
2BD
100
AcDbEntity
  8
0
100
AcDbLine
 62
7
  6
CONTINUOUS
 10
10.7001367374
 20
6.9857963557
 11
10.7012220231
 21
6.9863522943
  0
LWPOLYLINE
  5
2BE
100
AcDbEntity
  8
0
100
AcDbPolyline
 62
7
  6
CONTINUOUS
 90
5
 70
0
 10
10.700851393
 20
6.9861660715
 10
10.7024946016
 20
6.9869886691
 10
10.7041828463
 20
6.9878014111
 10
10.7059162646
 20
6.9886024932
 10
10.7076949534
 20
6.9893900784
  0
LWPOLYLINE
  5
2BF
100
AcDbEntity
  8
0
100
AcDbPolyline
 62
7
  6
CONTINUOUS
 90
3
 70
0
 10
10.7023067627
 20
6.9868941495
 10
10.7033915122
 20
6.9874224167
 10
10.7044768461
 20
6.9879375628
  0
LINE
  5
2C0
100
AcDbEntity
  8
0
100
AcDbLine
 62
7
  6
CONTINUOUS
 10
10.7055633564
 20
6.9884400264
 11
10.7066516518
 21
6.9889302172
  0
LWPOLYLINE
  5
2C1
100
AcDbEntity
  8
0
100
AcDbPolyline
 62
7
  6
CONTINUOUS
 90
7
 70
0
 10
10.7077422245
 20
6.989408459
 10
10.709518966
 20
6.9901622979
 10
10.711388304
 20
6.9909172496
 10
10.7133029191
 20
6.9916530016
 10
10.7152627108
 20
6.9923675932
 10
10.7172675243
 20
6.993059037
 10
10.719317148
 20
6.9937253199
  0
LINE
  5
2C2
100
AcDbEntity
  8
0
100
AcDbLine
 62
7
  6
CONTINUOUS
 10
10.708835047
 20
6.989874828
 11
10.7099299615
 21
6.9903293424
  0
LINE
  5
2C3
100
AcDbEntity
  8
0
100
AcDbLine
 62
7
  6
CONTINUOUS
 10
10.701680212
 20
6.9865853356
 11
10.7193579714
 21
6.9937377781
  0
LINE
  5
2C4
100
AcDbEntity
  8
0
100
AcDbLine
 62
7
  6
CONTINUOUS
 10
10.7110268109
 20
6.9907720233
 11
10.7121254394
 21
6.9912028937
  0
LWPOLYLINE
  5
2C5
100
AcDbEntity
  8
0
100
AcDbPolyline
 62
7
  6
CONTINUOUS
 90
3
 70
0
 10
10.713225692
 20
6.9916219792
 10
10.7143274148
 20
6.9920293076
 10
10.7154304552
 20
6.9924249089
  0
LINE
  5
2C6
100
AcDbEntity
  8
0
100
AcDbLine
 62
7
  6
CONTINUOUS
 10
11.0304433383
 20
7.7367068604
 11
11.0641933383
 21
7.7367068604
  0
LINE
  5
2C7
100
AcDbEntity
  8
0
100
AcDbLine
 62
7
  6
CONTINUOUS
 10
11.0798183383
 20
7.7523318604
 11
11.0148183383
 21
7.7523318604
  0
LINE
  5
2C8
100
AcDbEntity
  8
0
100
AcDbLine
 62
7
  6
CONTINUOUS
 10
10.7165346615
 20
6.9928088154
 11
10.7176398833
 21
6.9931810614
  0
LINE
  5
2C9
100
AcDbEntity
  8
0
100
AcDbLine
 62
7
  6
CONTINUOUS
 10
10.7187459711
 20
6.9935416837
 11
10.7198527768
 21
6.9938907207
  0
LWPOLYLINE
  5
2CA
100
AcDbEntity
  8
0
100
AcDbPolyline
 62
7
  6
CONTINUOUS
 90
9
 70
0
 10
10.719317148
 20
6.9937253199
 10
10.7214113111
 20
6.9943644047
 10
10.7235496812
 20
6.9949742322
 10
10.7257319638
 20
6.9955527486
 10
10.7279593286
 20
6.996098233
 10
10.7302340832
 20
6.9966090732
 10
10.7325585357
 20
6.997083422
 10
10.7349349517
 20
6.9975191798
 10
10.7373655418
 20
6.9979139849
  0
LWPOLYLINE
  5
2CB
100
AcDbEntity
  8
0
100
AcDbPolyline
 62
7
  6
CONTINUOUS
 90
4
 70
0
 10
10.7209601534
 20
6.9942282133
 10
10.722067955
 20
6.9945542043
 10
10.723176037
 20
6.9948687383
 10
10.7242842561
 20
6.995171862
  0
LINE
  5
2CC
100
AcDbEntity
  8
0
100
AcDbLine
 62
7
  6
CONTINUOUS
 10
11.3692436865
 20
7.9691999622
 11
11.3681356232
 21
7.9689195174
  0
LINE
  5
2CD
100
AcDbEntity
  8
0
100
AcDbLine
 62
7
  6
CONTINUOUS
 10
11.3670278457
 20
7.968650331
 11
11.3659204923
 21
7.9683923487
  0
LINE
  5
2CE
100
AcDbEntity
  8
0
100
AcDbLine
 62
7
  6
CONTINUOUS
 10
11.3752791391
 20
7.9709260842
 11
11.3549953223
 21
7.9664258648
  0
LINE
  5
2CF
100
AcDbEntity
  8
0
100
AcDbLine
 62
7
  6
CONTINUOUS
 10
11.3648137
 20
7.9681455145
 11
11.3637076046
 21
7.9679097706
  0
LINE
  5
2D0
100
AcDbEntity
  8
0
100
AcDbLine
 62
7
  6
CONTINUOUS
 10
11.3626023406
 20
7.9676850573
 11
11.3614980409
 21
7.9674713133
  0
LINE
  5
2D1
100
AcDbEntity
  8
0
100
AcDbLine
 62
7
  6
CONTINUOUS
 10
11.3603948374
 20
7.9672684757
 11
11.3592928606
 21
7.9670764797
  0
LINE
  5
2D2
100
AcDbEntity
  8
0
100
AcDbLine
 62
7
  6
CONTINUOUS
 10
11.3581922393
 20
7.9668952591
 11
11.3570931013
 21
7.9667247461
  0
LWPOLYLINE
  5
2D3
100
AcDbEntity
  8
0
100
AcDbPolyline
 62
7
  6
CONTINUOUS
 90
12
 70
0
 10
11.3572724003
 20
7.9667499282
 10
11.3547855399
 20
7.9663986871
 10
11.3522403125
 20
7.9660939425
 10
11.3496351037
 20
7.9658389262
 10
11.3469711996
 20
7.9656373183
 10
11.3442514124
 20
7.9654928789
 10
11.3414787322
 20
7.9654092573
 10
11.3386563168
 20
7.9653899773
 10
11.3357874908
 20
7.9654384224
 10
11.3328757435
 20
7.9655578224
 10
11.3299242443
 20
7.9657512764
 10
11.3271292542
 20
7.9660042827
  0
LWPOLYLINE
  5
2D4
100
AcDbEntity
  8
0
100
AcDbPolyline
 62
7
  6
CONTINUOUS
 90
3
 70
0
 10
11.3559955729
 20
7.966564871
 10
11.3548997789
 20
7.966415563
 10
11.3538058428
 20
7.9662767495
  0
LINE
  5
2D5
100
AcDbEntity
  8
0
100
AcDbLine
 62
7
  6
CONTINUOUS
 10
11.3527138866
 20
7.9661483566
 11
11.351624031
 21
7.9660303087
  0
LWPOLYLINE
  5
2D6
100
AcDbEntity
  8
0
100
AcDbPolyline
 62
7
  6
CONTINUOUS
 90
5
 70
0
 10
11.3505363952
 20
7.965922529
 10
11.349451097
 20
7.9658249391
 10
11.3483682525
 20
7.9657374594
 10
11.3472879768
 20
7.9656600089
 10
11.3462103833
 20
7.9655925051
  0
LWPOLYLINE
  5
2D7
100
AcDbEntity
  8
0
100
AcDbPolyline
 62
7
  6
CONTINUOUS
 90
11
 70
0
 10
11.5312169078
 20
7.1762125707
 10
11.5310118957
 20
7.178055277
 10
11.5308349158
 20
7.1799061984
 10
11.5306862742
 20
7.1817646491
 10
11.5305662552
 20
7.1836299334
 10
11.5304751206
 20
7.1855013462
 10
11.5304131093
 20
7.1873781739
 10
11.5303804372
 20
7.1892596945
 10
11.5303772964
 20
7.1911451786
 10
11.5304038554
 20
7.1930338899
 10
11.5304602583
 20
7.1949250856
  0
LINE
  5
2D8
100
AcDbEntity
  8
0
100
AcDbLine
 62
7
  6
CONTINUOUS
 10
11.5311686651
 20
7.17664619
 11
11.5304740963
 21
7.1952283793
  0
LINE
  5
2D9
100
AcDbEntity
  8
0
100
AcDbLine
 62
7
  6
CONTINUOUS
 10
11.5304602583
 20
7.1949250856
 11
11.5305466247
 21
7.1968180174
  0
LINE
  5
2DA
100
AcDbEntity
  8
0
100
AcDbLine
 62
7
  6
CONTINUOUS
 10
11.5304740963
 20
7.1952283793
 11
11.5329449894
 21
7.2126867196
  0
LWPOLYLINE
  5
2DB
100
AcDbEntity
  8
0
100
AcDbPolyline
 62
7
  6
CONTINUOUS
 90
72
 70
0
 10
10.7765354203
 20
7.9672668735
 10
10.7756055309
 20
7.967103946
 10
10.774606512
 20
7.9669375396
 10
10.7735959647
 20
7.9667780105
 10
10.7725740379
 20
7.9666256469
 10
10.7715408867
 20
7.9664807356
 10
10.7704966708
 20
7.9663435621
 10
10.7694415543
 20
7.9662144096
 10
10.7683757062
 20
7.96609356
 10
10.7672993002
 20
7.9659812925
 10
10.7662125143
 20
7.9658778844
 10
10.7651155316
 20
7.9657836106
 10
10.7640085396
 20
7.9656987434
 10
10.7628917304
 20
7.9656235523
 10
10.7617653008
 20
7.9655583041
 10
10.7606294463
 20
7.9655032623
 10
10.7594843031
 20
7.9654586852
 10
10.7583299745
 20
7.9654248298
 10
10.7571665683
 20
7.9654019536
 10
10.7559941969
 20
7.965390315
 10
10.7548129776
 20
7.9653901729
 10
10.7536230326
 20
7.9654017867
 10
10.752424489
 20
7.9654254165
 10
10.7512174791
 20
7.9654613224
 10
10.7500021402
 20
7.9655097652
 10
10.7487786149
 20
7.9655710055
 10
10.747547051
 20
7.9656453042
 10
10.7463076017
 20
7.9657329224
 10
10.7450604255
 20
7.9658341207
 10
10.7438056865
 20
7.96594916
 10
10.7425435545
 20
7.9660783004
 10
10.7412742046
 20
7.9662218021
 10
10.7399978179
 20
7.9663799245
 10
10.7387145812
 20
7.9665529265
 10
10.7374246871
 20
7.9667410663
 10
10.7361283342
 20
7.9669446013
 10
10.7348257271
 20
7.9671637877
 10
10.7335170765
 20
7.967398881
 10
10.7322026025
 20
7.9676501346
 10
10.7308825503
 20
7.9679177964
 10
10.7295571717
 20
7.968202112
 10
10.7282267238
 20
7.9685033243
 10
10.7268914696
 20
7.9688216735
 10
10.7255516787
 20
7.9691573969
 10
10.7242076266
 20
7.9695107288
 10
10.7228595952
 20
7.9698819
 10
10.7215078729
 20
7.9702711381
 10
10.7201527543
 20
7.9706786669
 10
10.7187945403
 20
7.9711047065
 10
10.7174335383
 20
7.9715494732
 10
10.7160700623
 20
7.9720131787
 10
10.7147044324
 20
7.9724960307
 10
10.7133369756
 20
7.9729982322
 10
10.711968025
 20
7.9735199813
 10
10.7105979205
 20
7.9740614715
 10
10.7092270083
 20
7.9746228905
 10
10.7078556412
 20
7.9752044211
 10
10.7064841785
 20
7.9758062401
 10
10.7051135627
 20
7.9764282524
 10
10.7037469599
 20
7.9770692643
 10
10.7023848308
 20
7.9777292354
 10
10.7010271279
 20
7.9784083699
 10
10.6996736764
 20
7.9791069571
 10
10.6983241236
 20
7.9798254103
 10
10.6969778396
 20
7.9805643385
 10
10.6956336931
 20
7.9813247004
 10
10.6942894292
 20
7.98210822
 10
10.6929394644
 20
7.9829188354
 10
10.6915644638
 20
7.9837695634
 10
10.6900591661
 20
7.9847306835
 10
10.6871234864
 20
7.986698023
 10
10.684506179
 20
7.9885602102
  0
LWPOLYLINE
  5
2DC
100
AcDbEntity
  8
0
100
AcDbPolyline
 62
7
  6
CONTINUOUS
 90
3
 70
0
 10
11.3451355838
 20
7.9655348645
 10
11.3440636889
 20
7.965487002
 10
11.3429948075
 20
7.9654488316
  0
LINE
  5
2DD
100
AcDbEntity
  8
0
100
AcDbLine
 62
7
  6
CONTINUOUS
 10
11.3419290473
 20
7.9654202657
 11
11.3408665142
 21
7.9654012159
  0
LINE
  5
2DE
100
AcDbEntity
  8
0
100
AcDbLine
 62
7
  6
CONTINUOUS
 10
11.3549953223
 20
7.9664258648
 11
11.3271292542
 21
7.9660042827
  0
LWPOLYLINE
  5
2DF
100
AcDbEntity
  8
0
100
AcDbPolyline
 62
7
  6
CONTINUOUS
 90
3
 70
0
 10
11.3398073129
 20
7.9653915922
 10
11.3387515463
 20
7.9653913038
 10
11.3376993162
 20
7.9654002586
  0
LWPOLYLINE
  5
2E0
100
AcDbEntity
  8
0
100
AcDbPolyline
 62
7
  6
CONTINUOUS
 90
3
 70
0
 10
11.3366507225
 20
7.9654183634
 10
11.3356058638
 20
7.965445524
 10
11.3345648372
 20
7.965481645
  0
LWPOLYLINE
  5
2E1
100
AcDbEntity
  8
0
100
AcDbPolyline
 62
7
  6
CONTINUOUS
 90
3
 70
0
 10
11.3335277382
 20
7.9655266303
 10
11.3324946616
 20
7.9655803823
 10
11.3314657284
 20
7.965642801
  0
LINE
  5
2E2
100
AcDbEntity
  8
0
100
AcDbLine
 62
7
  6
CONTINUOUS
 10
11.3304410892
 20
7.9657137818
 11
11.3294208943
 21
7.9657932173
  0
LWPOLYLINE
  5
2E3
100
AcDbEntity
  8
0
100
AcDbPolyline
 62
7
  6
CONTINUOUS
 90
12
 70
0
 10
11.3284052923
 20
7.9658809971
 10
11.3273944302
 20
7.9659770076
 10
11.3263884532
 20
7.9660811327
 10
11.3253875046
 20
7.9661932533
 10
11.3243917261
 20
7.9663132474
 10
11.3234012573
 20
7.9664409903
 10
11.3224162359
 20
7.9665763548
 10
11.3214367978
 20
7.9667192109
 10
11.3204630768
 20
7.9668694259
 10
11.3194952045
 20
7.9670268649
 10
11.3185333108
 20
7.9671913902
 10
11.3182350314
 20
7.9672449026
  0
LWPOLYLINE
  5
2E4
100
AcDbEntity
  8
0
100
AcDbPolyline
 62
7
  6
CONTINUOUS
 90
72
 70
0
 10
11.5322465594
 20
7.7531537918
 10
11.5320926137
 20
7.7540318589
 10
11.5319260976
 20
7.7550308691
 10
11.5317664571
 20
7.7560414129
 10
11.5316139803
 20
7.7570633417
 10
11.5314689545
 20
7.7580965002
 10
11.5313316649
 20
7.7591407289
 10
11.5312023953
 20
7.7601958633
 10
11.5310814273
 20
7.7612617347
 10
11.5309690407
 20
7.7623381693
 10
11.5308655127
 20
7.763424989
 10
11.5307711184
 20
7.7645220107
 10
11.5306861302
 20
7.7656290469
 10
11.5306108178
 20
7.7667459053
 10
11.5305454482
 20
7.7678723891
 10
11.530490285
 20
7.7690083026
 10
11.5304455867
 20
7.7701535086
 10
11.5304116103
 20
7.7713079037
 10
11.5303886136
 20
7.7724713803
 10
11.5303768549
 20
7.7736438258
 10
11.5303765933
 20
7.7748251231
 10
11.5303880884
 20
7.7760151498
 10
11.5304116001
 20
7.7772137789
 10
11.530447389
 20
7.7784208781
 10
11.5304957157
 20
7.77963631
 10
11.5305568411
 20
7.7808599322
 10
11.5306310262
 20
7.7820915967
 10
11.5307185321
 20
7.7833311504
 10
11.5308196196
 20
7.7845784346
 10
11.5309345496
 20
7.7858332854
 10
11.5310635826
 20
7.7870955329
 10
11.5312069786
 20
7.7883650019
 10
11.5313649972
 20
7.7896415114
 10
11.5315378975
 20
7.7909248746
 10
11.5317259378
 20
7.7922148987
 10
11.5319293756
 20
7.7935113852
 10
11.5321484672
 20
7.7948141293
 10
11.5323834683
 20
7.7961229205
 10
11.5326346322
 20
7.7974375386
 10
11.5329022073
 20
7.7987577384
 10
11.5331864391
 20
7.8000832681
 10
11.5334875707
 20
7.8014138706
 10
11.5338058424
 20
7.8027492827
 10
11.5341414917
 20
7.8040892348
 10
11.5344947528
 20
7.8054334513
 10
11.5348658568
 20
7.8067816502
 10
11.5352550314
 20
7.8081335431
 10
11.5356625006
 20
7.8094888353
 10
11.5360884846
 20
7.8108472257
 10
11.5365331995
 20
7.8122084068
 10
11.5369968576
 20
7.8135720647
 10
11.5374796664
 20
7.8149378789
 10
11.5379818292
 20
7.8163055227
 10
11.5385035441
 20
7.8176746625
 10
11.5390450047
 20
7.8190449585
 10
11.5396063989
 20
7.8204160644
 10
11.5401879096
 20
7.8217876272
 10
11.5407897136
 20
7.8231592875
 10
11.5414117208
 20
7.824530113
 10
11.5420527365
 20
7.8258969337
 10
11.542712716
 20
7.8272592795
 10
11.5433918634
 20
7.8286171973
 10
11.5440904675
 20
7.8299708612
 10
11.5448089413
 20
7.8313206233
 10
11.5455478929
 20
7.8326671122
 10
11.5463082795
 20
7.8340114569
 10
11.5470918211
 20
7.8353559065
 10
11.5479024434
 20
7.836706025
 10
11.5487531028
 20
7.838081056
 10
11.5497136321
 20
7.8395855943
 10
11.5516707639
 20
7.8425068482
 10
11.5535642183
 20
7.8451679599
  0
LINE
  5
2E5
100
AcDbEntity
  8
0
100
AcDbLine
 62
7
  6
CONTINUOUS
 10
11.8053785901
 20
7.4823307318
 11
11.5796735025
 21
7.0913980525
  0
LINE
  5
2E6
100
AcDbEntity
  8
0
100
AcDbLine
 62
7
  6
CONTINUOUS
 10
11.4761458844
 20
6.912082958
 11
11.4263495415
 21
6.8258331621
  0
LINE
  5
2E7
100
AcDbEntity
  8
0
100
AcDbLine
 62
7
  6
CONTINUOUS
 10
10.6682889864
 20
8.1388318604
 11
11.42634769
 21
8.1388318604
  0
LINE
  5
2E8
100
AcDbEntity
  8
0
100
AcDbLine
 62
7
  6
CONTINUOUS
 10
11.4263495414
 20
8.138830559
 11
11.4761458844
 21
8.0525807628
  0
LINE
  5
2E9
100
AcDbEntity
  8
0
100
AcDbLine
 62
7
  6
CONTINUOUS
 10
11.5796735025
 20
7.8732656684
 11
11.8053785901
 21
7.482332989
  0
ARC
  5
2EA
100
AcDbEntity
  8
0
100
AcDbCircle
 62
7
  6
CONTINUOUS
 10
10.7553783934
 20
6.8776314979
 40
0.1216420647
100
AcDbArc
 50
88.3462213115
 51
92.0827110506
  0
ARC
  5
2EB
100
AcDbEntity
  8
0
100
AcDbCircle
 62
7
  6
CONTINUOUS
 10
10.4437206944
 20
7.1908129696
 40
0.120674119
100
AcDbArc
 50
315.9669161369
 51
323.7827115982
  0
ARC
  5
2EC
100
AcDbEntity
  8
0
100
AcDbCircle
 62
7
  6
CONTINUOUS
 10
10.4438331896
 20
7.1904194822
 40
0.1204183234
100
AcDbArc
 50
357.4957357546
 51
10.4547713671
  0
ARC
  5
2ED
100
AcDbEntity
  8
0
100
AcDbCircle
 62
7
  6
CONTINUOUS
 10
10.4441456893
 20
7.190533609
 40
0.1201661835
100
AcDbArc
 50
323.7704459161
 51
329.1528900813
  0
ARC
  5
2EE
100
AcDbEntity
  8
0
100
AcDbCircle
 62
7
  6
CONTINUOUS
 10
10.4446352902
 20
7.1901923797
 40
0.1195699581
100
AcDbArc
 50
329.1729754158
 51
343.3911417744
  0
ARC
  5
2EF
100
AcDbEntity
  8
0
100
AcDbCircle
 62
7
  6
CONTINUOUS
 10
10.7555129514
 20
6.8798383089
 40
0.1194323106
100
AcDbArc
 50
80.829268792
 51
88.3801930683
  0
ARC
  5
2F0
100
AcDbEntity
  8
0
100
AcDbCircle
 62
7
  6
CONTINUOUS
 10
10.7550832786
 20
6.8799198938
 40
0.1192960565
100
AcDbArc
 50
120.5044778331
 51
121.8151895118
  0
ARC
  5
2F1
100
AcDbEntity
  8
0
100
AcDbCircle
 62
7
  6
CONTINUOUS
 10
10.4455579248
 20
7.1901836733
 40
0.1186850402
100
AcDbArc
 50
343.2678559735
 51
357.5730844803
  0
ARC
  5
2F2
100
AcDbEntity
  8
0
100
AcDbCircle
 62
9
  6
CONTINUOUS
 10
10.7537697122
 20
6.8827372956
 40
0.1164071602
100
AcDbArc
 50
131.1090958944
 51
134.9909091754
  0
ARC
  5
2F3
100
AcDbEntity
  8
0
100
AcDbCircle
 62
7
  6
CONTINUOUS
 10
10.1987902009
 20
6.633803723
 40
0.1
100
AcDbArc
 50
135.0
 51
315.0
  0
ARC
  5
2F4
100
AcDbEntity
  8
0
100
AcDbCircle
 62
9
  6
CONTINUOUS
 10
10.2075696612
 20
6.6509723845
 40
0.0940728709
100
AcDbArc
 50
143.3283277542
 51
146.1052070182
  0
ARC
  5
2F5
100
AcDbEntity
  8
0
100
AcDbCircle
 62
9
  6
CONTINUOUS
 10
10.2071096816
 20
6.6513251145
 40
0.0934932746
100
AcDbArc
 50
135.023770483
 51
143.3333538948
  0
ARC
  5
2F6
100
AcDbEntity
  8
0
100
AcDbCircle
 62
9
  6
CONTINUOUS
 10
10.2163581449
 20
6.6420539095
 40
0.0934113532
100
AcDbArc
 50
303.8670005151
 51
314.9860720455
  0
ARC
  5
2F7
100
AcDbEntity
  8
0
100
AcDbCircle
 62
9
  6
CONTINUOUS
 10
11.0056153058
 20
8.2378726917
 40
0.5051836541
100
AcDbArc
 50
224.9360953249
 51
225.7238477062
  0
ARC
  5
2F8
100
AcDbEntity
  8
0
100
AcDbCircle
 62
7
  6
CONTINUOUS
 10
10.4426181219
 20
7.7742718069
 40
0.1216419186
100
AcDbArc
 50
358.3366058088
 51
2.0826865976
  0
ARC
  5
2F9
100
AcDbEntity
  8
0
100
AcDbCircle
 62
7
  6
CONTINUOUS
 10
10.7558005598
 20
8.0859308016
 40
0.1206758249
100
AcDbArc
 50
225.9669646016
 51
233.8007882797
  0
ARC
  5
2FA
100
AcDbEntity
  8
0
100
AcDbCircle
 62
7
  6
CONTINUOUS
 10
10.7554060918
 20
8.0858129229
 40
0.1204142466
100
AcDbArc
 50
267.4958268381
 51
280.4720141365
  0
ARC
  5
2FB
100
AcDbEntity
  8
0
100
AcDbCircle
 62
7
  6
CONTINUOUS
 10
10.755518777
 20
8.0855024136
 40
0.1201637126
100
AcDbArc
 50
233.7885752513
 51
239.1529139274
  0
ARC
  5
2FC
100
AcDbEntity
  8
0
100
AcDbCircle
 62
7
  6
CONTINUOUS
 10
10.755178852
 20
8.0850148994
 40
0.1195699476
100
AcDbArc
 50
239.1729754611
 51
253.3910771492
  0
ARC
  5
2FD
100
AcDbEntity
  8
0
100
AcDbCircle
 62
7
  6
CONTINUOUS
 10
10.4448296112
 20
7.7741367204
 40
0.1194274609
100
AcDbArc
 50
350.8234982705
 51
358.3705893325
  0
ARC
  5
2FE
100
AcDbEntity
  8
0
100
AcDbCircle
 62
7
  6
CONTINUOUS
 10
10.4449063694
 20
7.7745669186
 40
0.1192960592
100
AcDbArc
 50
30.5044832152
 51
31.8151889073
  0
ARC
  5
2FF
100
AcDbEntity
  8
0
100
AcDbCircle
 62
7
  6
CONTINUOUS
 10
10.7551701578
 20
8.0840923061
 40
0.118685073
100
AcDbArc
 50
253.2677909729
 51
267.5733240831
  0
ARC
  5
300
100
AcDbEntity
  8
0
100
AcDbCircle
 62
9
  6
CONTINUOUS
 10
10.4477237981
 20
7.7758805124
 40
0.1164071243
100
AcDbArc
 50
41.109096827
 51
44.9909087247
  0
ARC
  5
301
100
AcDbEntity
  8
0
100
AcDbCircle
 62
7
  6
CONTINUOUS
 10
10.1987902009
 20
8.3308599978
 40
0.1
100
AcDbArc
 50
45.0
 51
225.0
  0
ARC
  5
302
100
AcDbEntity
  8
0
100
AcDbCircle
 62
9
  6
CONTINUOUS
 10
10.2159588624
 20
8.3220805375
 40
0.0940728709
100
AcDbArc
 50
53.3283277542
 51
56.1052070182
  0
ARC
  5
303
100
AcDbEntity
  8
0
100
AcDbCircle
 62
9
  6
CONTINUOUS
 10
10.2163115924
 20
8.3225405171
 40
0.0934932746
100
AcDbArc
 50
45.023770483
 51
53.3333538948
  0
ARC
  5
304
100
AcDbEntity
  8
0
100
AcDbCircle
 62
9
  6
CONTINUOUS
 10
10.2070403874
 20
8.3132920538
 40
0.0934113532
100
AcDbArc
 50
213.8670005151
 51
224.9860720455
  0
ARC
  5
305
100
AcDbEntity
  8
0
100
AcDbCircle
 62
9
  6
CONTINUOUS
 10
11.0892840588
 20
6.72705629
 40
0.50481034
100
AcDbArc
 50
44.9358418363
 51
45.7252022065
  0
ARC
  5
306
100
AcDbEntity
  8
0
100
AcDbCircle
 62
9
  6
CONTINUOUS
 10
11.0476755538
 20
7.4823300832
 40
0.3929187131
100
AcDbArc
 50
89.6560870307
 51
90.052089513
  0
ARC
  5
307
100
AcDbEntity
  8
0
100
AcDbCircle
 62
7
  6
CONTINUOUS
 10
11.651916635
 20
7.1903929246
 40
0.1215400233
100
AcDbArc
 50
176.9813126725
 51
180.6876484596
  0
ARC
  5
308
100
AcDbEntity
  8
0
100
AcDbCircle
 62
7
  6
CONTINUOUS
 10
11.6515232692
 20
7.1903751087
 40
0.1211463459
100
AcDbArc
 50
182.0932654827
 51
183.5690075135
  0
ARC
  5
309
100
AcDbEntity
  8
0
100
AcDbCircle
 62
9
  6
CONTINUOUS
 10
11.6508951453
 20
7.1902556884
 40
0.1208129041
100
AcDbArc
 50
179.7466551246
 51
184.9380365771
  0
ARC
  5
30A
100
AcDbEntity
  8
0
100
AcDbCircle
 62
7
  6
CONTINUOUS
 10
11.3388369858
 20
6.8787339328
 40
0.1206744921
100
AcDbArc
 50
45.9669267268
 51
53.7866531263
  0
ARC
  5
30B
100
AcDbEntity
  8
0
100
AcDbCircle
 62
7
  6
CONTINUOUS
 10
11.6508652984
 20
7.1908127766
 40
0.1206378444
100
AcDbArc
 50
211.3644487908
 51
224.3545432755
  0
ARC
  5
30C
100
AcDbEntity
  8
0
100
AcDbCircle
 62
7
  6
CONTINUOUS
 10
11.3392305878
 20
6.8788507677
 40
0.1204142769
100
AcDbArc
 50
87.4956459929
 51
100.4720129508
  0
ARC
  5
30D
100
AcDbEntity
  8
0
100
AcDbCircle
 62
7
  6
CONTINUOUS
 10
11.3391168751
 20
6.879159668
 40
0.1201656453
100
AcDbArc
 50
53.7743988953
 51
59.152895284
  0
ARC
  5
30E
100
AcDbEntity
  8
0
100
AcDbCircle
 62
7
  6
CONTINUOUS
 10
11.3394578207
 20
6.8796488142
 40
0.1195699557
100
AcDbArc
 50
59.1729756627
 51
73.3911275554
  0
ARC
  5
30F
100
AcDbEntity
  8
0
100
AcDbCircle
 62
9
  6
CONTINUOUS
 10
11.6495472527
 20
7.1903726766
 40
0.1195056265
100
AcDbArc
 50
199.2522389914
 51
209.5630778779
  0
ARC
  5
310
100
AcDbEntity
  8
0
100
AcDbCircle
 62
9
  6
CONTINUOUS
 10
11.6493940623
 20
7.1903498213
 40
0.1193534706
100
AcDbArc
 50
195.0410921594
 51
199.2661288005
  0
ARC
  5
311
100
AcDbEntity
  8
0
100
AcDbCircle
 62
7
  6
CONTINUOUS
 10
11.6497224069
 20
7.1905495396
 40
0.1193405993
100
AcDbArc
 50
171.4476209528
 51
177.0009229532
  0
ARC
  5
312
100
AcDbEntity
  8
0
100
AcDbCircle
 62
7
  6
CONTINUOUS
 10
11.3394665238
 20
6.8805714395
 40
0.1186850478
100
AcDbArc
 50
73.2678414347
 51
87.5731404446
  0
ARC
  5
313
100
AcDbEntity
  8
0
100
AcDbCircle
 62
9
  6
CONTINUOUS
 10
11.6487540472
 20
7.1902986585
 40
0.1186716417
100
AcDbArc
 50
173.4335313119
 51
179.7628304106
  0
ARC
  5
314
100
AcDbEntity
  8
0
100
AcDbCircle
 62
7
  6
CONTINUOUS
 10
11.6487942027
 20
7.1901369169
 40
0.1184077641
100
AcDbArc
 50
183.5361789842
 51
195.7667980882
  0
ARC
  5
315
100
AcDbEntity
  8
0
100
AcDbCircle
 62
9
  6
CONTINUOUS
 10
11.6477500414
 20
7.1898991158
 40
0.1176488108
100
AcDbArc
 50
184.8968729218
 51
195.0368933824
  0
ARC
  5
316
100
AcDbEntity
  8
0
100
AcDbCircle
 62
9
  6
CONTINUOUS
 10
11.6476845968
 20
7.1894809567
 40
0.117446214
100
AcDbArc
 50
212.7713266633
 51
224.965472473
  0
ARC
  5
317
100
AcDbEntity
  8
0
100
AcDbCircle
 62
9
  6
CONTINUOUS
 10
11.6472052053
 20
7.1891774197
 40
0.116878823
100
AcDbArc
 50
209.6198804691
 51
212.7734165815
  0
ARC
  5
318
100
AcDbEntity
  8
0
100
AcDbCircle
 62
7
  6
CONTINUOUS
 10
11.8958464757
 20
6.633803723
 40
0.1
100
AcDbArc
 50
225.0
 51
45.0
  0
ARC
  5
319
100
AcDbEntity
  8
0
100
AcDbCircle
 62
9
  6
CONTINUOUS
 10
11.8786778142
 20
6.6425831833
 40
0.0940728709
100
AcDbArc
 50
233.3283277542
 51
236.1052070182
  0
ARC
  5
31A
100
AcDbEntity
  8
0
100
AcDbCircle
 62
9
  6
CONTINUOUS
 10
11.8783250842
 20
6.6421232037
 40
0.0934932746
100
AcDbArc
 50
225.023770483
 51
233.3333538948
  0
ARC
  5
31B
100
AcDbEntity
  8
0
100
AcDbCircle
 62
9
  6
CONTINUOUS
 10
11.8875962891
 20
6.6513716671
 40
0.0934113532
100
AcDbArc
 50
33.8670005151
 51
44.9860720455
  0
ARC
  5
31C
100
AcDbEntity
  8
0
100
AcDbCircle
 62
7
  6
CONTINUOUS
 10
11.0473183383
 20
7.4823318604
 40
1.18
100
AcDbArc
 50
229.8660190958
 51
310.1344791027
  0
ARC
  5
31D
100
AcDbEntity
  8
0
100
AcDbCircle
 62
7
  6
CONTINUOUS
 10
11.0473183383
 20
7.4823318604
 40
1.18
100
AcDbArc
 50
319.8658412612
 51
40.1341164511
  0
ARC
  5
31E
100
AcDbEntity
  8
0
100
AcDbCircle
 62
7
  6
CONTINUOUS
 10
11.0473183383
 20
7.4823318604
 40
1.18
100
AcDbArc
 50
49.8660190958
 51
130.1344791027
  0
ARC
  5
31F
100
AcDbEntity
  8
0
100
AcDbCircle
 62
7
  6
CONTINUOUS
 10
11.0473183383
 20
7.4823318604
 40
1.18
100
AcDbArc
 50
139.8658412612
 51
220.1341164511
  0
ARC
  5
320
100
AcDbEntity
  8
0
100
AcDbCircle
 62
7
  6
CONTINUOUS
 10
11.0473183383
 20
7.4823318604
 40
1.0000026738
100
AcDbArc
 50
230.7419222783
 51
309.2580777217
  0
ARC
  5
321
100
AcDbEntity
  8
0
100
AcDbCircle
 62
7
  6
CONTINUOUS
 10
11.0473183383
 20
7.4823318604
 40
1.0000026738
100
AcDbArc
 50
140.7561289076
 51
219.2438710924
  0
ARC
  5
322
100
AcDbEntity
  8
0
100
AcDbCircle
 62
7
  6
CONTINUOUS
 10
11.0473183383
 20
7.4823318604
 40
1.0000026738
100
AcDbArc
 50
50.7419222783
 51
129.2580777217
  0
ARC
  5
323
100
AcDbEntity
  8
0
100
AcDbCircle
 62
7
  6
CONTINUOUS
 10
11.0473183383
 20
7.4823318604
 40
1.0000026738
100
AcDbArc
 50
320.7561289076
 51
39.2438710924
  0
ARC
  5
324
100
AcDbEntity
  8
0
100
AcDbCircle
 62
9
  6
CONTINUOUS
 10
11.0473183383
 20
7.4823318604
 40
0.8130026738
100
AcDbArc
 50
52.0808756603
 51
127.9186650074
  0
ARC
  5
325
100
AcDbEntity
  8
0
100
AcDbCircle
 62
9
  6
CONTINUOUS
 10
11.0473183383
 20
7.4823318604
 40
0.8130026738
100
AcDbArc
 50
322.0866471127
 51
37.9151943364
  0
ARC
  5
326
100
AcDbEntity
  8
0
100
AcDbCircle
 62
9
  6
CONTINUOUS
 10
11.0473183383
 20
7.4823318604
 40
0.8130026738
100
AcDbArc
 50
232.0808756603
 51
307.9186650074
  0
ARC
  5
327
100
AcDbEntity
  8
0
100
AcDbCircle
 62
9
  6
CONTINUOUS
 10
11.0473183383
 20
7.4823318604
 40
0.8130026738
100
AcDbArc
 50
142.0866471127
 51
217.9151943364
  0
ARC
  5
328
100
AcDbEntity
  8
0
100
AcDbCircle
 62
7
  6
CONTINUOUS
 10
11.0473183383
 20
7.4823318604
 40
0.741
100
AcDbArc
 50
322.7729570256
 51
357.6295013938
  0
ARC
  5
329
100
AcDbEntity
  8
0
100
AcDbCircle
 62
7
  6
CONTINUOUS
 10
11.0473183383
 20
7.4823318604
 40
0.741
100
AcDbArc
 50
302.3704986062
 51
307.2328602271
  0
ARC
  5
32A
100
AcDbEntity
  8
0
100
AcDbCircle
 62
7
  6
CONTINUOUS
 10
11.0473183383
 20
7.4823318604
 40
0.741
100
AcDbArc
 50
242.3704986062
 51
297.6295013938
  0
ARC
  5
32B
100
AcDbEntity
  8
0
100
AcDbCircle
 62
7
  6
CONTINUOUS
 10
11.0473183383
 20
7.4823318604
 40
0.741
100
AcDbArc
 50
232.7671397729
 51
237.6295013938
  0
ARC
  5
32C
100
AcDbEntity
  8
0
100
AcDbCircle
 62
7
  6
CONTINUOUS
 10
11.0473183383
 20
7.4823318604
 40
0.741
100
AcDbArc
 50
182.3704986062
 51
217.2270429744
  0
ARC
  5
32D
100
AcDbEntity
  8
0
100
AcDbCircle
 62
7
  6
CONTINUOUS
 10
11.0473183383
 20
7.4823318604
 40
0.741
100
AcDbArc
 50
52.7671397729
 51
57.6295013938
  0
ARC
  5
32E
100
AcDbEntity
  8
0
100
AcDbCircle
 62
7
  6
CONTINUOUS
 10
11.0473183383
 20
7.4823318604
 40
0.741
100
AcDbArc
 50
2.3704986062
 51
37.2270429744
  0
ARC
  5
32F
100
AcDbEntity
  8
0
100
AcDbCircle
 62
7
  6
CONTINUOUS
 10
11.0473183383
 20
7.4823318604
 40
0.741
100
AcDbArc
 50
142.7729570256
 51
177.6295013938
  0
ARC
  5
330
100
AcDbEntity
  8
0
100
AcDbCircle
 62
7
  6
CONTINUOUS
 10
11.0473183383
 20
7.4823318604
 40
0.741
100
AcDbArc
 50
122.3704986062
 51
127.2328602271
  0
ARC
  5
331
100
AcDbEntity
  8
0
100
AcDbCircle
 62
7
  6
CONTINUOUS
 10
11.0473183383
 20
7.4823318604
 40
0.741
100
AcDbArc
 50
62.3704986062
 51
117.6295013938
  0
ARC
  5
332
100
AcDbEntity
  8
0
100
AcDbCircle
 62
7
  6
CONTINUOUS
 10
11.0473183383
 20
7.4823318604
 40
0.6515
100
AcDbArc
 50
233.8522336253
 51
306.1477663747
  0
ARC
  5
333
100
AcDbEntity
  8
0
100
AcDbCircle
 62
7
  6
CONTINUOUS
 10
11.0473183383
 20
7.4823318604
 40
0.6515
100
AcDbArc
 50
143.8517552474
 51
216.1482447526
  0
ARC
  5
334
100
AcDbEntity
  8
0
100
AcDbCircle
 62
7
  6
CONTINUOUS
 10
11.0473183383
 20
7.4823318604
 40
0.6515
100
AcDbArc
 50
53.8522336253
 51
126.1477663747
  0
ARC
  5
335
100
AcDbEntity
  8
0
100
AcDbCircle
 62
7
  6
CONTINUOUS
 10
11.0473183383
 20
7.4823318604
 40
0.6515
100
AcDbArc
 50
323.8517552474
 51
36.1482447526
  0
ARC
  5
336
100
AcDbEntity
  8
0
100
AcDbCircle
 62
9
  6
CONTINUOUS
 10
11.0473183383
 20
7.4823318604
 40
0.6146339942
100
AcDbArc
 50
54.7543441842
 51
125.2528086563
  0
ARC
  5
337
100
AcDbEntity
  8
0
100
AcDbCircle
 62
9
  6
CONTINUOUS
 10
11.0473183383
 20
7.4823318604
 40
0.6146339942
100
AcDbArc
 50
144.7543440974
 51
215.2528065557
  0
ARC
  5
338
100
AcDbEntity
  8
0
100
AcDbCircle
 62
9
  6
CONTINUOUS
 10
11.0473183383
 20
7.4823318604
 40
0.6146339942
100
AcDbArc
 50
234.7796874768
 51
305.2529478352
  0
ARC
  5
339
100
AcDbEntity
  8
0
100
AcDbCircle
 62
9
  6
CONTINUOUS
 10
11.0473183383
 20
7.4823318604
 40
0.6146339942
100
AcDbArc
 50
324.7543441865
 51
35.2528070321
  0
CIRCLE
  5
33A
100
AcDbEntity
  8
0
100
AcDbCircle
 62
7
  6
CONTINUOUS
 10
11.0473183383
 20
7.4823318604
 40
0.5575
  0
CIRCLE
  5
33B
100
AcDbEntity
  8
0
100
AcDbCircle
 62
7
  6
CONTINUOUS
 10
11.0473183383
 20
7.4823318604
 40
0.5175
  0
CIRCLE
  5
33C
100
AcDbEntity
  8
0
100
AcDbCircle
 62
9
  6
CONTINUOUS
 10
11.0473183383
 20
7.4823318604
 40
0.4249700199
  0
CIRCLE
  5
33D
100
AcDbEntity
  8
0
100
AcDbCircle
 62
7
  6
CONTINUOUS
 10
11.0473183383
 20
7.4823318604
 40
0.4075
  0
CIRCLE
  5
33E
100
AcDbEntity
  8
0
100
AcDbCircle
 62
7
  6
CONTINUOUS
 10
11.0473183383
 20
7.4823318604
 40
0.4
  0
ARC
  5
33F
100
AcDbEntity
  8
0
100
AcDbCircle
 62
9
  6
CONTINUOUS
 10
11.0473183383
 20
7.4823318604
 40
0.392917847
100
AcDbArc
 50
90.0
 51
89.6039969708
  0
ARC
  5
340
100
AcDbEntity
  8
0
100
AcDbCircle
 62
7
  6
CONTINUOUS
 10
11.3392582403
 20
8.0870322944
 40
0.1216421342
100
AcDbArc
 50
268.3382582738
 51
272.0825834055
  0
ARC
  5
341
100
AcDbEntity
  8
0
100
AcDbCircle
 62
7
  6
CONTINUOUS
 10
11.3391231766
 20
8.0848202757
 40
0.1194271502
100
AcDbArc
 50
260.8240470124
 51
268.372254193
  0
ARC
  5
342
100
AcDbEntity
  8
0
100
AcDbCircle
 62
7
  6
CONTINUOUS
 10
11.3395536814
 20
8.0847434286
 40
0.1192955712
100
AcDbArc
 50
300.5044672872
 51
301.8151534977
  0
ARC
  5
343
100
AcDbEntity
  8
0
100
AcDbCircle
 62
9
  6
CONTINUOUS
 10
11.3408669537
 20
8.0819264365
 40
0.1164071756
100
AcDbArc
 50
311.1090396648
 51
314.9909089632
  0
ARC
  5
344
100
AcDbEntity
  8
0
100
AcDbCircle
 62
7
  6
CONTINUOUS
 10
11.6509162664
 20
7.7738505075
 40
0.1206744928
100
AcDbArc
 50
135.9669267464
 51
143.7866604137
  0
ARC
  5
345
100
AcDbEntity
  8
0
100
AcDbCircle
 62
7
  6
CONTINUOUS
 10
11.6508034777
 20
7.7742442377
 40
0.1204183142
100
AcDbArc
 50
177.4957910157
 51
190.4547717285
  0
ARC
  5
346
100
AcDbEntity
  8
0
100
AcDbCircle
 62
7
  6
CONTINUOUS
 10
11.6504905299
 20
7.7741303977
 40
0.1201656443
100
AcDbArc
 50
143.774406204
 51
149.1528952936
  0
ARC
  5
347
100
AcDbEntity
  8
0
100
AcDbCircle
 62
7
  6
CONTINUOUS
 10
11.6500013881
 20
7.7744713508
 40
0.1195699557
100
AcDbArc
 50
149.1729798176
 51
163.3911316615
  0
ARC
  5
348
100
AcDbEntity
  8
0
100
AcDbCircle
 62
7
  6
CONTINUOUS
 10
11.6490787592
 20
7.774480046
 40
0.1186850478
100
AcDbArc
 50
163.2678413952
 51
177.5731405977
  0
ARC
  5
349
100
AcDbEntity
  8
0
100
AcDbCircle
 62
7
  6
CONTINUOUS
 10
11.8958464757
 20
8.3308599978
 40
0.1
100
AcDbArc
 50
315.0
 51
135.0
  0
ARC
  5
34A
100
AcDbEntity
  8
0
100
AcDbCircle
 62
9
  6
CONTINUOUS
 10
11.8870670154
 20
8.3136913363
 40
0.0940728709
100
AcDbArc
 50
323.3283277543
 51
326.1052070181
  0
ARC
  5
34B
100
AcDbEntity
  8
0
100
AcDbCircle
 62
9
  6
CONTINUOUS
 10
11.8875269949
 20
8.3133386063
 40
0.0934932746
100
AcDbArc
 50
315.023770483
 51
323.3333538948
  0
ARC
  5
34C
100
AcDbEntity
  8
0
100
AcDbCircle
 62
9
  6
CONTINUOUS
 10
11.8782785316
 20
8.3226098113
 40
0.0934113532
100
AcDbArc
 50
123.867000515
 51
134.9860720455
  0
SPLINE
  5
34D
100
AcDbEntity
  8
0
100
AcDbSpline
 62
9
  6
CONTINUOUS
 70
0
 71
3
 72
25
 73
21
 74
0
 42
0.0000001
 43
0.0000001
 44
0.0000000001
 40
0.0
 40
0.0
 40
0.0
 40
0.0
 40
0.010906225
 40
0.0179485311
 40
0.0262908224
 40
0.0360649776
 40
0.0473739832
 40
0.0749193104
 40
0.1095188153
 40
0.1516878495
 40
0.2018956539
 40
0.2605823822
 40
0.32805308
 40
0.4041416565
 40
0.4884819001
 40
0.5803460301
 40
0.6788570043
 40
0.7826886301
 40
0.8904161899
 40
1.0
 40
1.0
 40
1.0
 40
1.0
 10
11.4227073895
 20
6.965521453
 30
0.0
 10
11.4224299323
 20
6.9657989158
 30
0.0
 10
11.422130264
 20
6.9664049412
 30
0.0
 10
11.4219190802
 20
6.9673243953
 30
0.0
 10
11.4218261301
 20
6.9682280764
 30
0.0
 10
11.4218183956
 20
6.9692874282
 30
0.0
 10
11.4219343155
 20
6.9710345856
 30
0.0
 10
11.4223504197
 20
6.9736491334
 30
0.0
 10
11.4232219107
 20
6.9773016509
 30
0.0
 10
11.4245211352
 20
6.981683222
 30
0.0
 10
11.4262715405
 20
6.9868297062
 30
0.0
 10
11.4284953029
 20
6.9927733851
 30
0.0
 10
11.4312076947
 20
6.9995261863
 30
0.0
 10
11.4344583239
 20
7.0070547295
 30
0.0
 10
11.4382818735
 20
7.015288887
 30
0.0
 10
11.4427780889
 20
7.0240939293
 30
0.0
 10
11.4480225327
 20
7.0332940699
 30
0.0
 10
11.4541388243
 20
7.0426347425
 30
0.0
 10
11.4612011722
 20
7.0517954693
 30
0.0
 10
11.4665712279
 20
7.0575050611
 30
0.0
 10
11.4694454235
 20
7.0602038436
 30
0.0
  0
SPLINE
  5
34E
100
AcDbEntity
  8
0
100
AcDbSpline
 62
9
  6
CONTINUOUS
 70
0
 71
3
 72
26
 73
22
 74
0
 42
0.0000001
 43
0.0000001
 44
0.0000000001
 40
0.0
 40
0.0
 40
0.0
 40
0.0
 40
0.1113985743
 40
0.2207599471
 40
0.326048973
 40
0.4258329509
 40
0.5187938164
 40
0.6040176956
 40
0.6807519346
 40
0.7486352428
 40
0.8075142707
 40
0.8576776366
 40
0.8995322287
 40
0.933498528
 40
0.9600113781
 40
0.9706083518
 40
0.9795078384
 40
0.9867784861
 40
0.9925088699
 40
0.9968329527
 40
1.0
 40
1.0
 40
1.0
 40
1.0
 10
11.4694454285
 20
7.0602038421
 30
0.0
 10
11.4723450334
 20
7.0629277268
 30
0.0
 10
11.478407196
 20
7.0679949186
 30
0.0
 10
11.4879842319
 20
7.0746362719
 30
0.0
 10
11.4976326416
 20
7.080395139
 30
0.0
 10
11.5070519804
 20
7.0853585665
 30
0.0
 10
11.5160025479
 20
7.0896559584
 30
0.0
 10
11.5243196893
 20
7.0933599479
 30
0.0
 10
11.5318769268
 20
7.0965645975
 30
0.0
 10
11.5386150811
 20
7.0992880739
 30
0.0
 10
11.5445107618
 20
7.1015615278
 30
0.0
 10
11.5495775102
 20
7.1033982442
 30
0.0
 10
11.5538476103
 20
7.1048183449
 30
0.0
 10
11.5573564583
 20
7.1058433358
 30
0.0
 10
11.5598295727
 20
7.1064251835
 30
0.0
 10
11.5614506001
 20
7.1066971254
 30
0.0
 10
11.5624010967
 20
7.1068046643
 30
0.0
 10
11.5631832959
 20
7.1068372791
 30
0.0
 10
11.5638028483
 20
7.1067987209
 30
0.0
 10
11.5642655342
 20
7.1066963752
 30
0.0
 10
11.5645078157
 20
7.1065637362
 30
0.0
 10
11.5645877937
 20
7.1064837612
 30
0.0
  0
SPLINE
  5
34F
100
AcDbEntity
  8
0
100
AcDbSpline
 62
9
  6
CONTINUOUS
 70
0
 71
3
 72
18
 73
14
 74
0
 42
0.0000001
 43
0.0000001
 44
0.0000000001
 40
0.0
 40
0.0
 40
0.0
 40
0.0
 40
0.0614559273
 40
0.1229671356
 40
0.2462109895
 40
0.3701520748
 40
0.4324664685
 40
0.4949732054
 40
0.6204046031
 40
0.7464718983
 40
0.8097947572
 40
0.8732476272
 40
1.0
 40
1.0
 40
1.0
 40
1.0
 10
11.9651588539
 20
6.703426729
 30
0.0
 10
11.9667139102
 20
6.7011116428
 30
0.0
 10
11.9696207779
 20
6.6963375297
 30
0.0
 10
11.9745596437
 20
6.6863021986
 30
0.0
 10
11.9790484707
 20
6.6729493968
 30
0.0
 10
11.9811326241
 20
6.6589833338
 30
0.0
 10
11.9813405407
 20
6.6476841029
 30
0.0
 10
11.9805644689
 20
6.6363417533
 30
0.0
 10
11.9777667686
 20
6.6222942996
 30
0.0
 10
11.9726170906
 20
6.6088908545
 30
0.0
 10
11.9671839298
 20
6.5987706743
 30
0.0
 10
11.96090248
 20
6.5891202069
 30
0.0
 10
11.9552988035
 20
6.5824859986
 30
0.0
 10
11.9512315018
 20
6.5784186969
 30
0.0
  0
SPLINE
  5
350
100
AcDbEntity
  8
0
100
AcDbSpline
 62
9
  6
CONTINUOUS
 70
0
 71
3
 72
25
 73
21
 74
0
 42
0.0000001
 43
0.0000001
 44
0.0000000001
 40
0.0
 40
0.0
 40
0.0
 40
0.0
 40
0.1875638505
 40
0.3682586038
 40
0.453813227
 40
0.5351605277
 40
0.6115799897
 40
0.682372221
 40
0.7468960772
 40
0.8046424679
 40
0.8551573719
 40
0.8981387464
 40
0.9167752183
 40
0.9335118742
 40
0.9483799142
 40
0.9614558517
 40
0.9728771241
 40
0.9828605212
 40
0.9917405699
 40
1.0
 40
1.0
 40
1.0
 40
1.0
 10
11.8247568375
 20
6.7048924311
 30
0.0
 10
11.8293543901
 20
6.7094899943
 30
0.0
 10
11.8385339066
 20
6.7183653105
 30
0.0
 10
11.8502183599
 20
6.7289045016
 30
0.0
 10
11.8594041839
 20
6.7367038412
 30
0.0
 10
11.8659512373
 20
6.7420230522
 30
0.0
 10
11.8722196368
 20
6.7468702271
 30
0.0
 10
11.8781484839
 20
6.7511990216
 30
0.0
 10
11.8836814204
 20
6.7549666545
 30
0.0
 10
11.8887635777
 20
6.7581403605
 30
0.0
 10
11.8933472186
 20
6.7606904367
 30
0.0
 10
11.8968671862
 20
6.7623513326
 30
0.0
 10
11.8994050733
 20
6.763322726
 30
0.0
 10
11.9010673415
 20
6.7638467706
 30
0.0
 10
11.9025772059
 20
6.7642003047
 30
0.0
 10
11.903932325
 20
6.7643823431
 30
0.0
 10
11.9051315089
 20
6.7643929259
 30
0.0
 10
11.9061748361
 20
6.7642295679
 30
0.0
 10
11.9070596117
 20
6.7638867017
 30
0.0
 10
11.9075443062
 20
6.7635272487
 30
0.0
 10
11.907746761
 20
6.7633247939
 30
0.0
  0
SPLINE
  5
351
100
AcDbEntity
  8
0
100
AcDbSpline
 62
9
  6
CONTINUOUS
 70
0
 71
3
 72
20
 73
16
 74
0
 42
0.0000001
 43
0.0000001
 44
0.0000000001
 40
0.0
 40
0.0
 40
0.0
 40
0.0
 40
0.1267104222
 40
0.1901280454
 40
0.253410156
 40
0.3794090998
 40
0.442241555
 40
0.5049109921
 40
0.5674005395
 40
0.6297044213
 40
0.7536350415
 40
0.8153916279
 40
0.8770107075
 40
0.9385347137
 40
1.0
 40
1.0
 40
1.0
 40
1.0
 10
11.9512315018
 20
6.5784186969
 30
0.0
 10
11.9471643237
 20
6.574351519
 30
0.0
 10
11.9405313413
 20
6.5687479528
 30
0.0
 10
11.9308820555
 20
6.56246762
 30
0.0
 10
11.9207658688
 20
6.5570360559
 30
0.0
 10
11.9100221238
 20
6.5529087059
 30
0.0
 10
11.8989198117
 20
6.5502033074
 30
0.0
 10
11.8904766859
 20
6.5488917709
 30
0.0
 10
11.8819757713
 20
6.5483096724
 30
0.0
 10
11.8706766987
 20
6.5485176163
 30
0.0
 10
11.8594747113
 20
6.5501879574
 30
0.0
 10
11.8486765176
 20
6.5532985615
 30
0.0
 10
11.8408360582
 20
6.5563269629
 30
0.0
 10
11.8333078362
 20
6.5600319046
 30
0.0
 10
11.8285322222
 20
6.5629408083
 30
0.0
 10
11.8262162268
 20
6.5644967767
 30
0.0
  0
SPLINE
  5
352
100
AcDbEntity
  8
0
100
AcDbSpline
 62
9
  6
CONTINUOUS
 70
0
 71
3
 72
25
 73
21
 74
0
 42
0.0000001
 43
0.0000001
 44
0.0000000001
 40
0.0
 40
0.0
 40
0.0
 40
0.0
 40
0.0082591244
 40
0.017137719
 40
0.0271182829
 40
0.0385354783
 40
0.0516063919
 40
0.0664681465
 40
0.0831950469
 40
0.1018195452
 40
0.1447779801
 40
0.1952754904
 40
0.2529969391
 40
0.3175088646
 40
0.3882979525
 40
0.4647129909
 40
0.5460694785
 40
0.6316472522
 40
0.8124112346
 40
1.0
 40
1.0
 40
1.0
 40
1.0
 10
11.766325404
 20
6.6219034385
 30
0.0
 10
11.7661229588
 20
6.6221058836
 30
0.0
 10
11.7657634996
 20
6.6225904754
 30
0.0
 10
11.7654205133
 20
6.6234750192
 30
0.0
 10
11.7652570088
 20
6.6245180203
 30
0.0
 10
11.7652674504
 20
6.6257167817
 30
0.0
 10
11.7654493793
 20
6.6270713664
 30
0.0
 10
11.765802802
 20
6.6285804859
 30
0.0
 10
11.7663263387
 20
6.6302418696
 30
0.0
 10
11.7672968183
 20
6.6327784179
 30
0.0
 10
11.7689565882
 20
6.6362968712
 30
0.0
 10
11.7715053565
 20
6.6408785771
 30
0.0
 10
11.7746772084
 20
6.6459595944
 30
0.0
 10
11.7784439302
 20
6.6514913975
 30
0.0
 10
11.7827720921
 20
6.6574197607
 30
0.0
 10
11.7876186777
 20
6.6636885798
 30
0.0
 10
11.7929383855
 20
6.670236361
 30
0.0
 10
11.8007396159
 20
6.679425024
 30
0.0
 10
11.8112813893
 20
6.6911123992
 30
0.0
 10
11.8201587236
 20
6.7002943084
 30
0.0
 10
11.8247568366
 20
6.704892432
 30
0.0
  0
SPLINE
  5
353
100
AcDbEntity
  8
0
100
AcDbSpline
 62
9
  6
CONTINUOUS
 70
0
 71
3
 72
16
 73
12
 74
0
 42
0.0000001
 43
0.0000001
 44
0.0000000001
 40
0.0
 40
0.0
 40
0.0
 40
0.0
 40
0.1254755095
 40
0.2530956985
 40
0.3816236701
 40
0.5099901957
 40
0.6370718847
 40
0.6997651936
 40
0.7616901532
 40
0.8828928911
 40
1.0
 40
1.0
 40
1.0
 40
1.0
 10
10.5627823646
 20
7.2113827036
 30
0.0
 10
10.5636424535
 20
7.206709927
 30
0.0
 10
10.5647892027
 20
7.197166689
 30
0.0
 10
10.5647775615
 20
7.1826831892
 30
0.0
 10
10.562995114
 20
7.1681936738
 30
0.0
 10
10.559411761
 20
7.1540652155
 30
0.0
 10
10.5550612311
 20
7.1427977054
 30
0.0
 10
10.5508283973
 20
7.1342524289
 30
0.0
 10
10.5461876512
 20
7.1261774912
 30
0.0
 10
10.5396525263
 20
7.1168416626
 30
0.0
 10
10.5336436199
 20
7.1100784981
 30
0.0
 10
10.5305080297
 20
7.1069429083
 30
0.0
  0
SPLINE
  5
354
100
AcDbEntity
  8
0
100
AcDbSpline
 62
9
  6
CONTINUOUS
 70
0
 71
3
 72
11
 73
7
 74
0
 42
0.0000001
 43
0.0000001
 44
0.0000000001
 40
0.0
 40
0.0
 40
0.0
 40
0.0
 40
0.2055112734
 40
0.4644975419
 40
0.7401422183
 40
1.0
 40
1.0
 40
1.0
 40
1.0
 10
10.653547824
 20
7.0880203925
 30
0.0
 10
10.6516496093
 20
7.086070551
 30
0.0
 10
10.6473130696
 20
7.0817085694
 30
0.0
 10
10.6403347958
 20
7.0748272124
 30
0.0
 10
10.6327922351
 20
7.0674935252
 30
0.0
 10
10.6276782317
 20
7.0625816887
 30
0.0
 10
10.6251894777
 20
7.0602056536
 30
0.0
  0
SPLINE
  5
355
100
AcDbEntity
  8
0
100
AcDbSpline
 62
9
  6
CONTINUOUS
 70
0
 71
3
 72
18
 73
14
 74
0
 42
0.0000001
 43
0.0000001
 44
0.0000000001
 40
0.0
 40
0.0
 40
0.0
 40
0.0
 40
0.065683759
 40
0.1315114716
 40
0.2630516014
 40
0.3285418614
 40
0.3936326512
 40
0.4581830795
 40
0.5221027471
 40
0.6476885938
 40
0.769636689
 40
0.8871604135
 40
1.0
 40
1.0
 40
1.0
 40
1.0
 10
10.7765878897
 20
6.9976305098
 30
0.0
 10
10.7742946056
 20
6.9980533627
 30
0.0
 10
10.7696762265
 20
6.9987629923
 30
0.0
 10
10.7603725069
 20
6.9996191204
 30
0.0
 10
10.7510149702
 20
6.9996514469
 30
0.0
 10
10.7417373847
 20
6.9988781137
 30
0.0
 10
10.7348743819
 20
6.9979034753
 30
0.0
 10
10.7281356445
 20
6.9965363835
 30
0.0
 10
10.7194118264
 20
6.9942289583
 30
0.0
 10
10.7089752487
 20
6.9905017549
 30
0.0
 10
10.6972964261
 20
6.9848231092
 30
0.0
 10
10.6866930813
 20
6.9781448277
 30
0.0
 10
10.6802509185
 20
6.9730794372
 30
0.0
 10
10.6772326018
 20
6.9704453207
 30
0.0
  0
SPLINE
  5
356
100
AcDbEntity
  8
0
100
AcDbSpline
 62
9
  6
CONTINUOUS
 70
0
 71
3
 72
26
 73
22
 74
0
 42
0.0000001
 43
0.0000001
 44
0.0000000001
 40
0.0
 40
0.0
 40
0.0
 40
0.0
 40
0.1113985743
 40
0.2207599471
 40
0.326048973
 40
0.4258329509
 40
0.5187938164
 40
0.6040176956
 40
0.6807519346
 40
0.7486352428
 40
0.8075142707
 40
0.8576776366
 40
0.8995322287
 40
0.933498528
 40
0.9600113781
 40
0.9706083518
 40
0.9795078384
 40
0.9867784861
 40
0.9925088699
 40
0.9968329527
 40
1.0
 40
1.0
 40
1.0
 40
1.0
 10
10.62519032
 20
7.0602047702
 30
0.0
 10
10.6279142047
 20
7.0573051653
 30
0.0
 10
10.6329813965
 20
7.0512430027
 30
0.0
 10
10.6396227498
 20
7.0416659667
 30
0.0
 10
10.6453816169
 20
7.0320175571
 30
0.0
 10
10.6503450444
 20
7.0225982183
 30
0.0
 10
10.6546424363
 20
7.0136476508
 30
0.0
 10
10.6583464258
 20
7.0053305094
 30
0.0
 10
10.6615510753
 20
6.9977732718
 30
0.0
 10
10.6642745518
 20
6.9910351176
 30
0.0
 10
10.6665480057
 20
6.9851394369
 30
0.0
 10
10.6683847221
 20
6.9800726884
 30
0.0
 10
10.6698048228
 20
6.9758025884
 30
0.0
 10
10.6708298137
 20
6.9722937404
 30
0.0
 10
10.6714116614
 20
6.969820626
 30
0.0
 10
10.6716836032
 20
6.9681995986
 30
0.0
 10
10.6717911422
 20
6.9672491019
 30
0.0
 10
10.671823757
 20
6.9664669028
 30
0.0
 10
10.6717851988
 20
6.9658473504
 30
0.0
 10
10.6716828531
 20
6.9653846645
 30
0.0
 10
10.6715502141
 20
6.965142383
 30
0.0
 10
10.6714702391
 20
6.9650624049
 30
0.0
  0
SPLINE
  5
357
100
AcDbEntity
  8
0
100
AcDbSpline
 62
9
  6
CONTINUOUS
 70
0
 71
3
 72
18
 73
14
 74
0
 42
0.0000001
 43
0.0000001
 44
0.0000000001
 40
0.0
 40
0.0
 40
0.0
 40
0.0
 40
0.0614559273
 40
0.1229671356
 40
0.2462109895
 40
0.3701520748
 40
0.4324664685
 40
0.4949732054
 40
0.6204046031
 40
0.7464718983
 40
0.8097947572
 40
0.8732476272
 40
1.0
 40
1.0
 40
1.0
 40
1.0
 10
10.2684132068
 20
6.5644913448
 30
0.0
 10
10.2660981206
 20
6.5629362885
 30
0.0
 10
10.2613240076
 20
6.5600294208
 30
0.0
 10
10.2512886765
 20
6.555090555
 30
0.0
 10
10.2379358746
 20
6.550601728
 30
0.0
 10
10.2239698117
 20
6.5485175746
 30
0.0
 10
10.2126705807
 20
6.5483096579
 30
0.0
 10
10.2013282312
 20
6.5490857298
 30
0.0
 10
10.1872807775
 20
6.5518834301
 30
0.0
 10
10.1738773323
 20
6.5570331081
 30
0.0
 10
10.1637571522
 20
6.5624662689
 30
0.0
 10
10.1541066847
 20
6.5687477186
 30
0.0
 10
10.1474724765
 20
6.5743513952
 30
0.0
 10
10.1434051748
 20
6.5784186969
 30
0.0
  0
SPLINE
  5
358
100
AcDbEntity
  8
0
100
AcDbSpline
 62
9
  6
CONTINUOUS
 70
0
 71
3
 72
25
 73
21
 74
0
 42
0.0000001
 43
0.0000001
 44
0.0000000001
 40
0.0
 40
0.0
 40
0.0
 40
0.0
 40
0.1875638505
 40
0.3682586038
 40
0.453813227
 40
0.5351605277
 40
0.6115799897
 40
0.682372221
 40
0.7468960772
 40
0.8046424679
 40
0.8551573719
 40
0.8981387464
 40
0.9167752183
 40
0.9335118742
 40
0.9483799142
 40
0.9614558517
 40
0.9728771241
 40
0.9828605212
 40
0.9917405699
 40
1.0
 40
1.0
 40
1.0
 40
1.0
 10
10.269878909
 20
6.7048933612
 30
0.0
 10
10.2744764722
 20
6.7002958086
 30
0.0
 10
10.2833517884
 20
6.691116292
 30
0.0
 10
10.2938909794
 20
6.6794318388
 30
0.0
 10
10.3016903191
 20
6.6702460148
 30
0.0
 10
10.30700953
 20
6.6636989614
 30
0.0
 10
10.311856705
 20
6.6574305619
 30
0.0
 10
10.3161854995
 20
6.6515017148
 30
0.0
 10
10.3199531323
 20
6.6459687783
 30
0.0
 10
10.3231268384
 20
6.640886621
 30
0.0
 10
10.3256769146
 20
6.6363029801
 30
0.0
 10
10.3273378105
 20
6.6327830125
 30
0.0
 10
10.3283092039
 20
6.6302451254
 30
0.0
 10
10.3288332485
 20
6.6285828572
 30
0.0
 10
10.3291867826
 20
6.6270729928
 30
0.0
 10
10.329368821
 20
6.6257178737
 30
0.0
 10
10.3293794038
 20
6.6245186898
 30
0.0
 10
10.3292160457
 20
6.6234753626
 30
0.0
 10
10.3288731795
 20
6.622590587
 30
0.0
 10
10.3285137266
 20
6.6221058925
 30
0.0
 10
10.3283112718
 20
6.6219034377
 30
0.0
  0
SPLINE
  5
359
100
AcDbEntity
  8
0
100
AcDbSpline
 62
9
  6
CONTINUOUS
 70
0
 71
3
 72
20
 73
16
 74
0
 42
0.0000001
 43
0.0000001
 44
0.0000000001
 40
0.0
 40
0.0
 40
0.0
 40
0.0
 40
0.1267104222
 40
0.1901280454
 40
0.253410156
 40
0.3794090998
 40
0.442241555
 40
0.5049109921
 40
0.5674005395
 40
0.6297044213
 40
0.7536350415
 40
0.8153916279
 40
0.8770107075
 40
0.9385347137
 40
1.0
 40
1.0
 40
1.0
 40
1.0
 10
10.1434051748
 20
6.5784186969
 30
0.0
 10
10.1393379969
 20
6.582485875
 30
0.0
 10
10.1337344307
 20
6.5891188574
 30
0.0
 10
10.1274540978
 20
6.5987681432
 30
0.0
 10
10.1220225338
 20
6.6088843299
 30
0.0
 10
10.1178951837
 20
6.6196280749
 30
0.0
 10
10.1151897853
 20
6.630730387
 30
0.0
 10
10.1138782488
 20
6.6391735128
 30
0.0
 10
10.1132961502
 20
6.6476744274
 30
0.0
 10
10.1135040941
 20
6.6589735
 30
0.0
 10
10.1151744352
 20
6.6701754874
 30
0.0
 10
10.1182850394
 20
6.6809736811
 30
0.0
 10
10.1213134408
 20
6.6888141405
 30
0.0
 10
10.1250183824
 20
6.6963423625
 30
0.0
 10
10.1279272862
 20
6.7011179765
 30
0.0
 10
10.1294832546
 20
6.7034339719
 30
0.0
  0
SPLINE
  5
35A
100
AcDbEntity
  8
0
100
AcDbSpline
 62
9
  6
CONTINUOUS
 70
0
 71
3
 72
25
 73
21
 74
0
 42
0.0000001
 43
0.0000001
 44
0.0000000001
 40
0.0
 40
0.0
 40
0.0
 40
0.0
 40
0.0082591244
 40
0.017137719
 40
0.0271182829
 40
0.0385354783
 40
0.0516063919
 40
0.0664681465
 40
0.0831950469
 40
0.1018195452
 40
0.1447779801
 40
0.1952754904
 40
0.2529969391
 40
0.3175088646
 40
0.3882979525
 40
0.4647129909
 40
0.5460694785
 40
0.6316472522
 40
0.8124112346
 40
1.0
 40
1.0
 40
1.0
 40
1.0
 10
10.1868899164
 20
6.7633247947
 30
0.0
 10
10.1870923615
 20
6.7635272399
 30
0.0
 10
10.1875769533
 20
6.7638866991
 30
0.0
 10
10.1884614971
 20
6.7642296854
 30
0.0
 10
10.1895044981
 20
6.7643931899
 30
0.0
 10
10.1907032596
 20
6.7643827483
 30
0.0
 10
10.1920578443
 20
6.7642008194
 30
0.0
 10
10.1935669638
 20
6.7638473967
 30
0.0
 10
10.1952283475
 20
6.76332386
 30
0.0
 10
10.1977648958
 20
6.7623533804
 30
0.0
 10
10.2012833491
 20
6.7606936105
 30
0.0
 10
10.205865055
 20
6.7581448422
 30
0.0
 10
10.2109460723
 20
6.7549729903
 30
0.0
 10
10.2164778754
 20
6.7512062685
 30
0.0
 10
10.2224062386
 20
6.7468781066
 30
0.0
 10
10.2286750577
 20
6.742031521
 30
0.0
 10
10.2352228389
 20
6.7367118131
 30
0.0
 10
10.2444115019
 20
6.7289105828
 30
0.0
 10
10.2560988771
 20
6.7183688094
 30
0.0
 10
10.2652807863
 20
6.7094914751
 30
0.0
 10
10.2698789098
 20
6.704893362
 30
0.0
  0
SPLINE
  5
35B
100
AcDbEntity
  8
0
100
AcDbSpline
 62
9
  6
CONTINUOUS
 70
0
 71
3
 72
25
 73
21
 74
0
 42
0.0000001
 43
0.0000001
 44
0.0000000001
 40
0.0
 40
0.0
 40
0.0
 40
0.0
 40
0.010906225
 40
0.0179485311
 40
0.0262908224
 40
0.0360649776
 40
0.0473739832
 40
0.0749193104
 40
0.1095188153
 40
0.1516878495
 40
0.2018956539
 40
0.2605823822
 40
0.32805308
 40
0.4041416565
 40
0.4884819001
 40
0.5803460301
 40
0.6788570043
 40
0.7826886301
 40
0.8904161899
 40
1.0
 40
1.0
 40
1.0
 40
1.0
 10
10.5305079308
 20
7.1069428092
 30
0.0
 10
10.5307853937
 20
7.1072202664
 30
0.0
 10
10.5313914191
 20
7.1075199346
 30
0.0
 10
10.5323108732
 20
7.1077311185
 30
0.0
 10
10.5332145542
 20
7.1078240686
 30
0.0
 10
10.5342739061
 20
7.1078318031
 30
0.0
 10
10.5360210635
 20
7.1077158832
 30
0.0
 10
10.5386356113
 20
7.107299779
 30
0.0
 10
10.5422881287
 20
7.106428288
 30
0.0
 10
10.5466696999
 20
7.1051290635
 30
0.0
 10
10.551816184
 20
7.1033786582
 30
0.0
 10
10.5577598629
 20
7.1011548958
 30
0.0
 10
10.5645126641
 20
7.098442504
 30
0.0
 10
10.5720412074
 20
7.0951918748
 30
0.0
 10
10.5802753649
 20
7.0913683252
 30
0.0
 10
10.5890804071
 20
7.0868721098
 30
0.0
 10
10.5982805478
 20
7.0816276659
 30
0.0
 10
10.6076212204
 20
7.0755113744
 30
0.0
 10
10.6167819472
 20
7.0684490265
 30
0.0
 10
10.622491539
 20
7.0630789708
 30
0.0
 10
10.6251903215
 20
7.0602047752
 30
0.0
  0
SPLINE
  5
35C
100
AcDbEntity
  8
0
100
AcDbSpline
 62
9
  6
CONTINUOUS
 70
0
 71
3
 72
16
 73
12
 74
0
 42
0.0000001
 43
0.0000001
 44
0.0000000001
 40
0.0
 40
0.0
 40
0.0
 40
0.0
 40
0.1254757931
 40
0.2530961922
 40
0.3816242906
 40
0.5099908519
 40
0.6370724917
 40
0.6997657449
 40
0.7616906281
 40
0.8828931592
 40
1.0
 40
1.0
 40
1.0
 40
1.0
 10
11.531854312
 20
7.7532810171
 30
0.0
 10
11.5309942211
 20
7.7579538043
 30
0.0
 10
11.529847471
 20
7.7674970612
 30
0.0
 10
11.5298591178
 20
7.7819805846
 30
0.0
 10
11.5316415745
 20
7.7964701133
 30
0.0
 10
11.5352249372
 20
7.8105985735
 30
0.0
 10
11.5395754731
 20
7.8218660786
 30
0.0
 10
11.5438083087
 20
7.8304113465
 30
0.0
 10
11.5484490522
 20
7.8384862708
 30
0.0
 10
11.5549841685
 20
7.8478220799
 30
0.0
 10
11.5609930639
 20
7.8545852299
 30
0.0
 10
11.5641286469
 20
7.8577208125
 30
0.0
  0
SPLINE
  5
35D
100
AcDbEntity
  8
0
100
AcDbSpline
 62
9
  6
CONTINUOUS
 70
0
 71
3
 72
11
 73
7
 74
0
 42
0.0000001
 43
0.0000001
 44
0.0000000001
 40
0.0
 40
0.0
 40
0.0
 40
0.0
 40
0.2055113564
 40
0.4644976674
 40
0.7401423138
 40
1.0
 40
1.0
 40
1.0
 40
1.0
 10
11.4410888525
 20
7.8766433284
 30
0.0
 10
11.4429870681
 20
7.8785931706
 30
0.0
 10
11.447323609
 20
7.8829551534
 30
0.0
 10
11.4543018837
 20
7.8898365113
 30
0.0
 10
11.4618444436
 20
7.8971701976
 30
0.0
 10
11.4669584458
 20
7.902082033
 30
0.0
 10
11.4694471989
 20
7.9044580672
 30
0.0
  0
SPLINE
  5
35E
100
AcDbEntity
  8
0
100
AcDbSpline
 62
9
  6
CONTINUOUS
 70
0
 71
3
 72
18
 73
14
 74
0
 42
0.0000001
 43
0.0000001
 44
0.0000000001
 40
0.0
 40
0.0
 40
0.0
 40
0.0
 40
0.0656810322
 40
0.1315067333
 40
0.2630449933
 40
0.3285353209
 40
0.3936266995
 40
0.4581780506
 40
0.5220986921
 40
0.647686551
 40
0.7696365426
 40
0.8871610986
 40
1.0
 40
1.0
 40
1.0
 40
1.0
 10
10.5626091584
 20
7.75301989
 30
0.0
 10
10.5630330086
 20
7.755313851
 30
0.0
 10
10.5637445795
 20
7.759933676
 30
0.0
 10
10.5646041541
 20
7.7692406433
 30
0.0
 10
10.5646392097
 20
7.778601843
 30
0.0
 10
10.5638679576
 20
7.7878833405
 30
0.0
 10
10.562894547
 20
7.7947494096
 30
0.0
 10
10.5615283605
 20
7.8014912628
 30
0.0
 10
10.5592216164
 20
7.8102191857
 30
0.0
 10
10.5554944157
 20
7.8206607321
 30
0.0
 10
10.5498146445
 20
7.83234506
 30
0.0
 10
10.5431342831
 20
7.8429531954
 30
0.0
 10
10.5380669613
 20
7.8493980812
 30
0.0
 10
10.535431795
 20
7.8524176007
 30
0.0
  0
SPLINE
  5
35F
100
AcDbEntity
  8
0
100
AcDbSpline
 62
9
  6
CONTINUOUS
 70
0
 71
3
 72
26
 73
22
 74
0
 42
0.0000001
 43
0.0000001
 44
0.0000000001
 40
0.0
 40
0.0
 40
0.0
 40
0.0
 40
0.1113985743
 40
0.2207599471
 40
0.326048973
 40
0.4258329509
 40
0.5187938164
 40
0.6040176956
 40
0.6807519346
 40
0.7486352428
 40
0.8075142707
 40
0.8576776366
 40
0.8995322287
 40
0.933498528
 40
0.9600113781
 40
0.9706083518
 40
0.9795078384
 40
0.9867784861
 40
0.9925088699
 40
0.9968329527
 40
1.0
 40
1.0
 40
1.0
 40
1.0
 10
10.6251912481
 20
7.9044598787
 30
0.0
 10
10.6222916432
 20
7.901735994
 30
0.0
 10
10.6162294805
 20
7.8966688022
 30
0.0
 10
10.6066524446
 20
7.8900274489
 30
0.0
 10
10.597004035
 20
7.8842685818
 30
0.0
 10
10.5875846962
 20
7.8793051543
 30
0.0
 10
10.5786341287
 20
7.8750077624
 30
0.0
 10
10.5703169872
 20
7.8713037729
 30
0.0
 10
10.5627597497
 20
7.8680991233
 30
0.0
 10
10.5560215955
 20
7.8653756469
 30
0.0
 10
10.5501259147
 20
7.863102193
 30
0.0
 10
10.5450591663
 20
7.8612654766
 30
0.0
 10
10.5407890663
 20
7.8598453759
 30
0.0
 10
10.5372802183
 20
7.858820385
 30
0.0
 10
10.5348071039
 20
7.8582385373
 30
0.0
 10
10.5331860765
 20
7.8579665955
 30
0.0
 10
10.5322355798
 20
7.8578590565
 30
0.0
 10
10.5314533807
 20
7.8578264417
 30
0.0
 10
10.5308338283
 20
7.8578649999
 30
0.0
 10
10.5303711424
 20
7.8579673456
 30
0.0
 10
10.5301288609
 20
7.8580999846
 30
0.0
 10
10.5300488828
 20
7.8581799596
 30
0.0
  0
SPLINE
  5
360
100
AcDbEntity
  8
0
100
AcDbSpline
 62
9
  6
CONTINUOUS
 70
0
 71
3
 72
18
 73
14
 74
0
 42
0.0000001
 43
0.0000001
 44
0.0000000001
 40
0.0
 40
0.0
 40
0.0
 40
0.0
 40
0.0614559273
 40
0.1229671356
 40
0.2462109895
 40
0.3701520748
 40
0.4324664685
 40
0.4949732054
 40
0.6204046031
 40
0.7464718983
 40
0.8097947572
 40
0.8732476272
 40
1.0
 40
1.0
 40
1.0
 40
1.0
 10
10.1294778227
 20
8.2612369919
 30
0.0
 10
10.1279227664
 20
8.2635520781
 30
0.0
 10
10.1250158987
 20
8.2683261911
 30
0.0
 10
10.1200770329
 20
8.2783615222
 30
0.0
 10
10.1155882059
 20
8.291714324
 30
0.0
 10
10.1135040524
 20
8.305680387
 30
0.0
 10
10.1132961358
 20
8.316979618
 30
0.0
 10
10.1140722077
 20
8.3283219675
 30
0.0
 10
10.116869908
 20
8.3423694212
 30
0.0
 10
10.122019586
 20
8.3557728664
 30
0.0
 10
10.1274527467
 20
8.3658930465
 30
0.0
 10
10.1337341965
 20
8.3755435139
 30
0.0
 10
10.1393378731
 20
8.3821777222
 30
0.0
 10
10.1434051748
 20
8.3862450239
 30
0.0
  0
SPLINE
  5
361
100
AcDbEntity
  8
0
100
AcDbSpline
 62
9
  6
CONTINUOUS
 70
0
 71
3
 72
25
 73
21
 74
0
 42
0.0000001
 43
0.0000001
 44
0.0000000001
 40
0.0
 40
0.0
 40
0.0
 40
0.0
 40
0.1875638505
 40
0.3682586038
 40
0.453813227
 40
0.5351605277
 40
0.6115799897
 40
0.682372221
 40
0.7468960772
 40
0.8046424679
 40
0.8551573719
 40
0.8981387464
 40
0.9167752183
 40
0.9335118742
 40
0.9483799142
 40
0.9614558517
 40
0.9728771241
 40
0.9828605212
 40
0.9917405699
 40
1.0
 40
1.0
 40
1.0
 40
1.0
 10
10.2698798391
 20
8.2597712897
 30
0.0
 10
10.2652822865
 20
8.2551737265
 30
0.0
 10
10.2561027699
 20
8.2462984103
 30
0.0
 10
10.2444183166
 20
8.2357592192
 30
0.0
 10
10.2352324927
 20
8.2279598796
 30
0.0
 10
10.2286854392
 20
8.2226406687
 30
0.0
 10
10.2224170397
 20
8.2177934937
 30
0.0
 10
10.2164881927
 20
8.2134646992
 30
0.0
 10
10.2109552562
 20
8.2096970664
 30
0.0
 10
10.2058730989
 20
8.2065233603
 30
0.0
 10
10.201289458
 20
8.2039732841
 30
0.0
 10
10.1977694904
 20
8.2023123882
 30
0.0
 10
10.1952316033
 20
8.2013409948
 30
0.0
 10
10.1935693351
 20
8.2008169502
 30
0.0
 10
10.1920594707
 20
8.2004634161
 30
0.0
 10
10.1907043516
 20
8.2002813777
 30
0.0
 10
10.1895051677
 20
8.2002707949
 30
0.0
 10
10.1884618405
 20
8.2004341529
 30
0.0
 10
10.1875770649
 20
8.2007770191
 30
0.0
 10
10.1870923704
 20
8.2011364721
 30
0.0
 10
10.1868899156
 20
8.2013389269
 30
0.0
  0
SPLINE
  5
362
100
AcDbEntity
  8
0
100
AcDbSpline
 62
9
  6
CONTINUOUS
 70
0
 71
3
 72
18
 73
14
 74
0
 42
0.0000001
 43
0.0000001
 44
0.0000000001
 40
0.0
 40
0.0
 40
0.0
 40
0.0
 40
0.0656837524
 40
0.1315114579
 40
0.2630515738
 40
0.3285418275
 40
0.3936326122
 40
0.4581830364
 40
0.522102701
 40
0.6476885464
 40
0.7696366496
 40
0.88716039
 40
1.0
 40
1.0
 40
1.0
 40
1.0
 10
11.3180487869
 20
7.967033211
 30
0.0
 10
11.3203420683
 20
7.9666103586
 30
0.0
 10
11.3249604419
 20
7.9659007297
 30
0.0
 10
11.3342641504
 20
7.9650446016
 30
0.0
 10
11.343621676
 20
7.9650122733
 30
0.0
 10
11.3528992508
 20
7.9657856027
 30
0.0
 10
11.3597622461
 20
7.9667602373
 30
0.0
 10
11.3665009763
 20
7.9681273245
 30
0.0
 10
11.3752247859
 20
7.9704347426
 30
0.0
 10
11.3856613547
 20
7.9741619358
 30
0.0
 10
11.3973401695
 20
7.9798405672
 30
0.0
 10
11.40794351
 20
7.9865188334
 30
0.0
 10
11.4143856715
 20
7.9915842134
 30
0.0
 10
11.4174039882
 20
7.9942183246
 30
0.0
  0
SPLINE
  5
363
100
AcDbEntity
  8
0
100
AcDbSpline
 62
9
  6
CONTINUOUS
 70
0
 71
3
 72
16
 73
12
 74
0
 42
0.0000001
 43
0.0000001
 44
0.0000000001
 40
0.0
 40
0.0
 40
0.0
 40
0.0
 40
0.1254704413
 40
0.2530884277
 40
0.3816162575
 40
0.5099838945
 40
0.637067578
 40
0.6997620405
 40
0.7616880472
 40
0.8828923124
 40
1.0
 40
1.0
 40
1.0
 40
1.0
 10
11.3182375442
 20
6.9977903698
 30
0.0
 10
11.3229111559
 20
6.9986518852
 30
0.0
 10
11.3324564054
 20
6.9998012856
 30
0.0
 10
11.346943519
 20
6.9997926573
 30
0.0
 10
11.3614372153
 20
6.9980124412
 30
0.0
 10
11.3755701194
 20
6.9944301927
 30
0.0
 10
11.3868412999
 20
6.9900797002
 30
0.0
 10
11.3953893944
 20
6.9858464417
 30
0.0
 10
11.4034669598
 20
6.9812049754
 30
0.0
 10
11.4128057065
 20
6.9746684647
 30
0.0
 10
11.4195708459
 20
6.9686579967
 30
0.0
 10
11.4227072904
 20
6.9655215518
 30
0.0
  0
SPLINE
  5
364
100
AcDbEntity
  8
0
100
AcDbSpline
 62
9
  6
CONTINUOUS
 70
0
 71
3
 72
16
 73
12
 74
0
 42
0.0000001
 43
0.0000001
 44
0.0000000001
 40
0.0
 40
0.0
 40
0.0
 40
0.0
 40
0.1254702415
 40
0.2530880804
 40
0.3816158213
 40
0.5099834331
 40
0.6370671511
 40
0.6997616529
 40
0.7616877134
 40
0.882892124
 40
1.0
 40
1.0
 40
1.0
 40
1.0
 10
10.7763991323
 20
7.966873351
 30
0.0
 10
10.771725528
 20
7.966011837
 30
0.0
 10
10.7621802919
 20
7.9648624371
 30
0.0
 10
10.7476931949
 20
7.9648710616
 30
0.0
 10
10.7331995079
 20
7.9666512712
 30
0.0
 10
10.7190666052
 20
7.9702335129
 30
0.0
 10
10.707795421
 20
7.9745840011
 30
0.0
 10
10.6992473205
 20
7.9788172585
 30
0.0
 10
10.6911697457
 20
7.9834587266
 30
0.0
 10
10.6818309852
 20
7.9899952433
 30
0.0
 10
10.6750658357
 20
7.9960057191
 30
0.0
 10
10.6719293862
 20
7.999142169
 30
0.0
  0
LINE
  5
365
100
AcDbEntity
  8
0
100
AcDbLine
 62
9
  6
CONTINUOUS
 10
10.6479983176
 20
7.8810525492
 11
10.6251921315
 21
7.904460721
  0
SPLINE
  5
366
100
AcDbEntity
  8
0
100
AcDbSpline
 62
9
  6
CONTINUOUS
 70
0
 71
3
 72
25
 73
21
 74
0
 42
0.0000001
 43
0.0000001
 44
0.0000000001
 40
0.0
 40
0.0
 40
0.0
 40
0.0
 40
0.010906225
 40
0.0179485311
 40
0.0262908224
 40
0.0360649776
 40
0.0473739832
 40
0.0749193104
 40
0.1095188153
 40
0.1516878495
 40
0.2018956539
 40
0.2605823822
 40
0.32805308
 40
0.4041416565
 40
0.4884819001
 40
0.5803460301
 40
0.6788570043
 40
0.7826886301
 40
0.8904161899
 40
1.0
 40
1.0
 40
1.0
 40
1.0
 10
10.6719292871
 20
7.9991422678
 30
0.0
 10
10.6722067442
 20
7.998864805
 30
0.0
 10
10.6725064125
 20
7.9982587796
 30
0.0
 10
10.6727175964
 20
7.9973393255
 30
0.0
 10
10.6728105465
 20
7.9964356445
 30
0.0
 10
10.672818281
 20
7.9953762926
 30
0.0
 10
10.6727023611
 20
7.9936291352
 30
0.0
 10
10.6722862569
 20
7.9910145874
 30
0.0
 10
10.6714147658
 20
7.9873620699
 30
0.0
 10
10.6701155413
 20
7.9829804988
 30
0.0
 10
10.668365136
 20
7.9778340146
 30
0.0
 10
10.6661413736
 20
7.9718903357
 30
0.0
 10
10.6634289819
 20
7.9651375345
 30
0.0
 10
10.6601783527
 20
7.9576089913
 30
0.0
 10
10.6563548031
 20
7.9493748338
 30
0.0
 10
10.6518585877
 20
7.9405697916
 30
0.0
 10
10.6466141438
 20
7.9313696509
 30
0.0
 10
10.6404978523
 20
7.9220289783
 30
0.0
 10
10.6334355044
 20
7.9128682515
 30
0.0
 10
10.6280654487
 20
7.9071586597
 30
0.0
 10
10.6251912531
 20
7.9044598772
 30
0.0
  0
SPLINE
  5
367
100
AcDbEntity
  8
0
100
AcDbSpline
 62
9
  6
CONTINUOUS
 70
0
 71
3
 72
20
 73
16
 74
0
 42
0.0000001
 43
0.0000001
 44
0.0000000001
 40
0.0
 40
0.0
 40
0.0
 40
0.0
 40
0.1267104222
 40
0.1901280454
 40
0.253410156
 40
0.3794090998
 40
0.442241555
 40
0.5049109921
 40
0.5674005395
 40
0.6297044213
 40
0.7536350415
 40
0.8153916279
 40
0.8770107075
 40
0.9385347137
 40
1.0
 40
1.0
 40
1.0
 40
1.0
 10
10.1434051748
 20
8.3862450239
 30
0.0
 10
10.1474723529
 20
8.3903122018
 30
0.0
 10
10.1541053353
 20
8.395915768
 30
0.0
 10
10.163754621
 20
8.4021961008
 30
0.0
 10
10.1738708078
 20
8.4076276649
 30
0.0
 10
10.1846145528
 20
8.4117550149
 30
0.0
 10
10.1957168648
 20
8.4144604134
 30
0.0
 10
10.2041599906
 20
8.4157719499
 30
0.0
 10
10.2126609053
 20
8.4163540484
 30
0.0
 10
10.2239599779
 20
8.4161461045
 30
0.0
 10
10.2351619653
 20
8.4144757635
 30
0.0
 10
10.245960159
 20
8.4113651593
 30
0.0
 10
10.2538006184
 20
8.4083367579
 30
0.0
 10
10.2613288403
 20
8.4046318162
 30
0.0
 10
10.2661044544
 20
8.4017229125
 30
0.0
 10
10.2684204498
 20
8.4001669441
 30
0.0
  0
SPLINE
  5
368
100
AcDbEntity
  8
0
100
AcDbSpline
 62
9
  6
CONTINUOUS
 70
0
 71
3
 72
25
 73
21
 74
0
 42
0.0000001
 43
0.0000001
 44
0.0000000001
 40
0.0
 40
0.0
 40
0.0
 40
0.0
 40
0.0082591244
 40
0.017137719
 40
0.0271182829
 40
0.0385354783
 40
0.0516063919
 40
0.0664681465
 40
0.0831950469
 40
0.1018195452
 40
0.1447779801
 40
0.1952754904
 40
0.2529969391
 40
0.3175088646
 40
0.3882979525
 40
0.4647129909
 40
0.5460694785
 40
0.6316472522
 40
0.8124112346
 40
1.0
 40
1.0
 40
1.0
 40
1.0
 10
10.3283112726
 20
8.3427602823
 30
0.0
 10
10.3285137177
 20
8.3425578372
 30
0.0
 10
10.328873177
 20
8.3420732454
 30
0.0
 10
10.3292161632
 20
8.3411887016
 30
0.0
 10
10.3293796678
 20
8.3401457005
 30
0.0
 10
10.3293692261
 20
8.3389469391
 30
0.0
 10
10.3291872973
 20
8.3375923544
 30
0.0
 10
10.3288338745
 20
8.3360832349
 30
0.0
 10
10.3283103378
 20
8.3344218512
 30
0.0
 10
10.3273398583
 20
8.3318853029
 30
0.0
 10
10.3256800884
 20
8.3283668496
 30
0.0
 10
10.3231313201
 20
8.3237851437
 30
0.0
 10
10.3199594682
 20
8.3187041264
 30
0.0
 10
10.3161927464
 20
8.3131723233
 30
0.0
 10
10.3118645845
 20
8.3072439601
 30
0.0
 10
10.3070179989
 20
8.300975141
 30
0.0
 10
10.301698291
 20
8.2944273598
 30
0.0
 10
10.2938970607
 20
8.2852386968
 30
0.0
 10
10.2833552873
 20
8.2735513216
 30
0.0
 10
10.274477953
 20
8.2643694124
 30
0.0
 10
10.2698798399
 20
8.2597712888
 30
0.0
  0
SPLINE
  5
369
100
AcDbEntity
  8
0
100
AcDbSpline
 62
9
  6
CONTINUOUS
 70
0
 71
3
 72
10
 73
6
 74
0
 42
0.0000001
 43
0.0000001
 44
0.0000000001
 40
0.0
 40
0.0
 40
0.0
 40
0.0
 40
0.4308512036
 40
0.6953136533
 40
1.0
 40
1.0
 40
1.0
 40
1.0
 10
11.5641287457
 20
7.8577209116
 30
0.0
 10
11.5639082425
 20
7.8575004129
 30
0.0
 10
11.5634568014
 20
7.8572411694
 30
0.0
 10
11.5627663076
 20
7.8570266153
 30
0.0
 10
11.5623596612
 20
7.8569520651
 30
0.0
 10
11.5621411909
 20
7.8569220563
 30
0.0
  0
SPLINE
  5
36A
100
AcDbEntity
  8
0
100
AcDbSpline
 62
9
  6
CONTINUOUS
 70
0
 71
3
 72
22
 73
18
 74
0
 42
0.0000001
 43
0.0000001
 44
0.0000000001
 40
0.0
 40
0.0
 40
0.0
 40
0.0
 40
0.0170233395
 40
0.0391125688
 40
0.0667443487
 40
0.1003221496
 40
0.1402167789
 40
0.1867697707
 40
0.2403048869
 40
0.3010688009
 40
0.3689622923
 40
0.4437629787
 40
0.6120771699
 40
0.7042309408
 40
0.8004322711
 40
0.8995374737
 40
1.0
 40
1.0
 40
1.0
 40
1.0
 10
11.5621411909
 20
7.8569220563
 30
0.0
 10
11.5615466072
 20
7.8568403852
 30
0.0
 10
11.5601602172
 20
7.8568101825
 30
0.0
 10
11.5578168411
 20
7.8570507804
 30
0.0
 10
11.5549290186
 20
7.8576010451
 30
0.0
 10
11.5514741173
 20
7.8584838594
 30
0.0
 10
11.5474246875
 20
7.8597158145
 30
0.0
 10
11.5427548723
 20
7.8613145515
 30
0.0
 10
11.5374409247
 20
7.8632963126
 30
0.0
 10
11.5314720818
 20
7.8656706927
 30
0.0
 10
11.5248688129
 20
7.868474282
 30
0.0
 10
11.514878447
 20
7.872993766
 30
0.0
 10
11.5043340918
 20
7.8783649369
 30
0.0
 10
11.4935342663
 20
7.88481589
 30
0.0
 10
11.4851530345
 20
7.8905272618
 30
0.0
 10
11.4769761308
 20
7.8970143416
 30
0.0
 10
11.4718707965
 20
7.9018769225
 30
0.0
 10
11.4694463551
 20
7.9044589456
 30
0.0
  0
SPLINE
  5
36B
100
AcDbEntity
  8
0
100
AcDbSpline
 62
9
  6
CONTINUOUS
 70
0
 71
3
 72
26
 73
22
 74
0
 42
0.0000001
 43
0.0000001
 44
0.0000000001
 40
0.0
 40
0.0
 40
0.0
 40
0.0
 40
0.1113985743
 40
0.2207599471
 40
0.326048973
 40
0.4258329509
 40
0.5187938164
 40
0.6040176956
 40
0.6807519346
 40
0.7486352428
 40
0.8075142707
 40
0.8576776366
 40
0.8995322287
 40
0.933498528
 40
0.9600113781
 40
0.9706083518
 40
0.9795078384
 40
0.9867784861
 40
0.9925088699
 40
0.9968329527
 40
1.0
 40
1.0
 40
1.0
 40
1.0
 10
11.4694463566
 20
7.9044589506
 30
0.0
 10
11.4667224719
 20
7.9073585555
 30
0.0
 10
11.46165528
 20
7.9134207181
 30
0.0
 10
11.4550139268
 20
7.9229977541
 30
0.0
 10
11.4492550597
 20
7.9326461637
 30
0.0
 10
11.4442916322
 20
7.9420655025
 30
0.0
 10
11.4399942402
 20
7.95101607
 30
0.0
 10
11.4362902508
 20
7.9593332115
 30
0.0
 10
11.4330856012
 20
7.966890449
 30
0.0
 10
11.4303621248
 20
7.9736286032
 30
0.0
 10
11.4280886709
 20
7.979524284
 30
0.0
 10
11.4262519545
 20
7.9845910324
 30
0.0
 10
11.4248318537
 20
7.9888611324
 30
0.0
 10
11.4238068629
 20
7.9923699804
 30
0.0
 10
11.4232250152
 20
7.9948430948
 30
0.0
 10
11.4229530733
 20
7.9964641222
 30
0.0
 10
11.4228455344
 20
7.9974146189
 30
0.0
 10
11.4228129196
 20
7.998196818
 30
0.0
 10
11.4228514778
 20
7.9988163704
 30
0.0
 10
11.4229538235
 20
7.9992790563
 30
0.0
 10
11.4230864624
 20
7.9995213378
 30
0.0
 10
11.4231664375
 20
7.9996013159
 30
0.0
  0
LINE
  5
36C
100
AcDbEntity
  8
0
100
AcDbLine
 62
9
  6
CONTINUOUS
 10
11.4466383573
 20
7.0836111732
 11
11.4694445451
 21
7.0602029998
  0
SPLINE
  5
36D
100
AcDbEntity
  8
0
100
AcDbSpline
 62
9
  6
CONTINUOUS
 70
0
 71
3
 72
18
 73
14
 74
0
 42
0.0000001
 43
0.0000001
 44
0.0000000001
 40
0.0
 40
0.0
 40
0.0
 40
0.0
 40
0.0614559273
 40
0.1229671356
 40
0.2462109895
 40
0.3701520748
 40
0.4324664685
 40
0.4949732054
 40
0.6204046031
 40
0.7464718983
 40
0.8097947572
 40
0.8732476272
 40
1.0
 40
1.0
 40
1.0
 40
1.0
 10
11.8262234697
 20
8.400172376
 30
0.0
 10
11.8285385559
 20
8.4017274323
 30
0.0
 10
11.833312669
 20
8.4046343
 30
0.0
 10
11.8433480001
 20
8.4095731658
 30
0.0
 10
11.8567008019
 20
8.4140619928
 30
0.0
 10
11.8706668648
 20
8.4161461462
 30
0.0
 10
11.8819660958
 20
8.4163540629
 30
0.0
 10
11.8933084454
 20
8.415577991
 30
0.0
 10
11.9073558991
 20
8.4127802907
 30
0.0
 10
11.9207593442
 20
8.4076306127
 30
0.0
 10
11.9308795244
 20
8.4021974519
 30
0.0
 10
11.9405299918
 20
8.3959160022
 30
0.0
 10
11.9471642001
 20
8.3903123256
 30
0.0
 10
11.9512315018
 20
8.3862450239
 30
0.0
  0
SPLINE
  5
36E
100
AcDbEntity
  8
0
100
AcDbSpline
 62
9
  6
CONTINUOUS
 70
0
 71
3
 72
25
 73
21
 74
0
 42
0.0000001
 43
0.0000001
 44
0.0000000001
 40
0.0
 40
0.0
 40
0.0
 40
0.0
 40
0.1875638505
 40
0.3682586038
 40
0.453813227
 40
0.5351605277
 40
0.6115799897
 40
0.682372221
 40
0.7468960772
 40
0.8046424679
 40
0.8551573719
 40
0.8981387464
 40
0.9167752183
 40
0.9335118742
 40
0.9483799142
 40
0.9614558517
 40
0.9728771241
 40
0.9828605212
 40
0.9917405699
 40
1.0
 40
1.0
 40
1.0
 40
1.0
 10
11.8247577675
 20
8.2597703596
 30
0.0
 10
11.8201602044
 20
8.2643679122
 30
0.0
 10
11.8112848882
 20
8.2735474288
 30
0.0
 10
11.8007456971
 20
8.285231882
 30
0.0
 10
11.7929463575
 20
8.294417706
 30
0.0
 10
11.7876271465
 20
8.3009647594
 30
0.0
 10
11.7827799716
 20
8.3072331589
 30
0.0
 10
11.7784511771
 20
8.313162006
 30
0.0
 10
11.7746835442
 20
8.3186949425
 30
0.0
 10
11.7715098382
 20
8.3237770998
 30
0.0
 10
11.768959762
 20
8.3283607407
 30
0.0
 10
11.7672988661
 20
8.3318807083
 30
0.0
 10
11.7663274727
 20
8.3344185954
 30
0.0
 10
11.7658034281
 20
8.3360808636
 30
0.0
 10
11.765449894
 20
8.337590728
 30
0.0
 10
11.7652678555
 20
8.3389458471
 30
0.0
 10
11.7652572728
 20
8.340145031
 30
0.0
 10
11.7654206308
 20
8.3411883582
 30
0.0
 10
11.765763497
 20
8.3420731338
 30
0.0
 10
11.7661229499
 20
8.3425578283
 30
0.0
 10
11.7663254048
 20
8.3427602831
 30
0.0
  0
SPLINE
  5
36F
100
AcDbEntity
  8
0
100
AcDbSpline
 62
9
  6
CONTINUOUS
 70
0
 71
3
 72
20
 73
16
 74
0
 42
0.0000001
 43
0.0000001
 44
0.0000000001
 40
0.0
 40
0.0
 40
0.0
 40
0.0
 40
0.1267104222
 40
0.1901280454
 40
0.253410156
 40
0.3794090998
 40
0.442241555
 40
0.5049109921
 40
0.5674005395
 40
0.6297044213
 40
0.7536350415
 40
0.8153916279
 40
0.8770107075
 40
0.9385347137
 40
1.0
 40
1.0
 40
1.0
 40
1.0
 10
11.9512315018
 20
8.3862450239
 30
0.0
 10
11.9552986797
 20
8.3821778458
 30
0.0
 10
11.9609022459
 20
8.3755448634
 30
0.0
 10
11.9671825787
 20
8.3658955776
 30
0.0
 10
11.9726141428
 20
8.3557793909
 30
0.0
 10
11.9767414928
 20
8.3450356459
 30
0.0
 10
11.9794468912
 20
8.3339333338
 30
0.0
 10
11.9807584278
 20
8.325490208
 30
0.0
 10
11.9813405263
 20
8.3169892934
 30
0.0
 10
11.9811325824
 20
8.3056902208
 30
0.0
 10
11.9794622413
 20
8.2944882334
 30
0.0
 10
11.9763516372
 20
8.2836900397
 30
0.0
 10
11.9733232358
 20
8.2758495803
 30
0.0
 10
11.9696182941
 20
8.2683213583
 30
0.0
 10
11.9667093904
 20
8.2635457443
 30
0.0
 10
11.9651534219
 20
8.2612297489
 30
0.0
  0
SPLINE
  5
370
100
AcDbEntity
  8
0
100
AcDbSpline
 62
9
  6
CONTINUOUS
 70
0
 71
3
 72
25
 73
21
 74
0
 42
0.0000001
 43
0.0000001
 44
0.0000000001
 40
0.0
 40
0.0
 40
0.0
 40
0.0
 40
0.0082591244
 40
0.017137719
 40
0.0271182829
 40
0.0385354783
 40
0.0516063919
 40
0.0664681465
 40
0.0831950469
 40
0.1018195452
 40
0.1447779801
 40
0.1952754904
 40
0.2529969391
 40
0.3175088646
 40
0.3882979525
 40
0.4647129909
 40
0.5460694785
 40
0.6316472522
 40
0.8124112346
 40
1.0
 40
1.0
 40
1.0
 40
1.0
 10
11.9077467602
 20
8.2013389261
 30
0.0
 10
11.9075443151
 20
8.201136481
 30
0.0
 10
11.9070597233
 20
8.2007770217
 30
0.0
 10
11.9061751795
 20
8.2004340354
 30
0.0
 10
11.9051321784
 20
8.2002705309
 30
0.0
 10
11.903933417
 20
8.2002809726
 30
0.0
 10
11.9025788323
 20
8.2004629014
 30
0.0
 10
11.9010697128
 20
8.2008163241
 30
0.0
 10
11.899408329
 20
8.2013398609
 30
0.0
 10
11.8968717807
 20
8.2023103404
 30
0.0
 10
11.8933533275
 20
8.2039701103
 30
0.0
 10
11.8887716215
 20
8.2065188786
 30
0.0
 10
11.8836906043
 20
8.2096907305
 30
0.0
 10
11.8781588012
 20
8.2134574523
 30
0.0
 10
11.872230438
 20
8.2177856142
 30
0.0
 10
11.8659616189
 20
8.2226321998
 30
0.0
 10
11.8594138376
 20
8.2279519077
 30
0.0
 10
11.8502251747
 20
8.235753138
 30
0.0
 10
11.8385377995
 20
8.2462949114
 30
0.0
 10
11.8293558903
 20
8.2551722457
 30
0.0
 10
11.8247577667
 20
8.2597703588
 30
0.0
  0
ENDSEC
  0
SECTION
  2
OBJECTS
  0
DICTIONARY
  5
C
100
AcDbDictionary
280
0
281
1
  3
ACAD_GROUP
350
D
  3
ACAD_MLINESTYLE
350
17
  3
ACAD_LAYOUT
350
1A
  3
ACAD_PLOTSETTINGS
350
19
  3
ACAD_PLOTSTYLENAME
350
E
  0
DICTIONARY
  5
D
102
{ACAD_REACTORS
330
C
102
}
100
AcDbDictionary
280
0
281
1
  0
ACDBDICTIONARYWDFLT
  5
E
102
{ACAD_REACTORS
330
C
102
}
100
AcDbDictionary
281
1
  3
Normal
350
F
100
AcDbDictionaryWithDefault
340
F
  0
DICTIONARY
  5
17
102
{ACAD_REACTORS
330
C
102
}
100
AcDbDictionary
280
0
281
1
  3
Standard
350
18
  0
DICTIONARY
  5
19
102
{ACAD_REACTORS
330
C
102
}
100
AcDbDictionary
281
1
  0
DICTIONARY
  5
1A
102
{ACAD_REACTORS
330
C
102
}
100
AcDbDictionary
281
1
  3
Model
350
371
  3
Layout1
350
372
  0
ACDBPLACEHOLDER
  5
F
102
{ACAD_REACTORS
330
E
102
}
  0
MLINESTYLE
  5
18
102
{ACAD_REACTORS
330
17
102
}
100
AcDbMlineStyle
  2
STANDARD
 70
0
  3

 62
256
 51
90.0
 52
90.0
 71
2
 49
0.5
 62
256
  6
BYLAYER
 49
-0.5
 62
256
  6
BYLAYER
  0
LAYOUT
  5
371
102
{ACAD_REACTORS
330
1A
102
}
100
AcDbPlotSettings
  1

  2
none_device
  4
ANSI_C_(22.00_x_17.00_Inches)
  6

 40
0.0
 41
0.0
 42
0.0
 43
0.0
 44
558.8
 45
431.8
 46
0.0
 47
0.0
 48
0.0
 49
0.0
140
0.0
141
0.0
142
1.0
143
1.0
 70
1024
 72
0
 73
0
 74
0
  7

 75
0
147
1.0
148
0.0
149
0.0
100
AcDbLayout
  1
Model
 70
0
 71
0
 10
0.0
 20
0.0
 11
22.0
 21
17.0
 12
0.0
 22
0.0
 32
0.0
 14
0.0
 24
0.0
 34
0.0
 15
0.0
 25
0.0
 35
0.0
146
0.0
 13
0.0
 23
0.0
 33
0.0
 16
1.0
 26
0.0
 36
0.0
 17
0.0
 27
1.0
 37
0.0
 76
0
330
202
345
0
346
0
  0
LAYOUT
  5
372
102
{ACAD_REACTORS
330
1A
102
}
100
AcDbPlotSettings
  1

  2
none_device
  4
ANSI_C_(22.00_x_17.00_Inches)
  6

 40
0.0
 41
0.0
 42
0.0
 43
0.0
 44
558.8
 45
431.8
 46
0.0
 47
0.0
 48
0.0
 49
0.0
140
0.0
141
0.0
142
1.0
143
1.0
 70
0
 72
0
 73
0
 74
0
  7

 75
0
147
1.0
148
0.0
149
0.0
100
AcDbLayout
  1
Layout1
 70
0
 71
1
 10
0.0
 20
0.0
 11
22.0
 21
17.0
 12
0.0
 22
0.0
 32
0.0
 14
0.0
 24
0.0
 34
0.0
 15
0.0
 25
0.0
 35
0.0
146
0.0
 13
0.0
 23
0.0
 33
0.0
 16
1.0
 26
0.0
 36
0.0
 17
0.0
 27
1.0
 37
0.0
 76
0
330
203
345
0
346
0
  0
ENDSEC
  0
EOF
