999
DXF file: 3-2401_RIGHT.dxf
999
Pro/ENGINEER 2018400 by Parametric Technology Corporation
  0
SECTION
  2
HEADER
  9
$ACADVER
  1
AC1027
  9
$DWGCODEPAGE
  3
ANSI_1252
  9
$EXTMAX
 10
11.0
 20
8.5
 30
0.0
  9
$EXTMIN
 10
0.0
 20
0.0
 30
0.0
  9
$LIMMIN
 10
0.0
 20
0.0
  9
$LIMMAX
 10
11.0
 20
8.5
  9
$VIEWCTR
 10
5.5
 20
4.25
  9
$VIEWSIZE
 40
8.5
  9
$CLAYER
  8
0
  9
$LTSCALE
 40
0.605
  9
$CELTYPE
  6
BYLAYER
  9
$DIMSCALE
 40
1.0
  9
$DIMASZ
 40
0.1
  9
$DIMEXO
 40
0.0625
  9
$DIMDLI
 40
0.418
  9
$DIMEXE
 40
0.125
  9
$DIMCEN
 40
0.099
  9
$DIMLFAC
 40
1.0
  9
$DIMBLK
  1
_FILLED
  9
$DIMALT
 70
1
  9
$DIMALTD
 70
2
  9
$DIMALTTD
 70
2
  9
$DIMALTF
 40
25.4
  9
$DIMTXT
 40
0.08
  9
$DIMTOL
 70
1
  9
$DIMLIM
 70
0
  9
$DIMTFAC
 40
1.0
  9
$DIMTP
 40
0.001
  9
$DIMTM
 40
0.001
  9
$DIMGAP
 40
0.09
  9
$DIMDSEP
 70
46
  9
$AUNITS
 70
0
  9
$PDMODE
 70
3
  9
$PDSIZE
 40
0.3125
  9
$HANDSEED
  5
329
  9
$TILEMODE
 70
1
  9
$MEASUREMENT
 70
0
  9
$INSUNITS
 70
1
  0
ENDSEC
  0
SECTION
  2
CLASSES
  0
CLASS
  1
ACDBDICTIONARYWDFLT
  2
AcDbDictionaryWithDefault
  3
AutoCAD 2000
 90
0
 91
1
280
0
281
0
  0
CLASS
  1
ACDBPLACEHOLDER
  2
AcDbPlaceHolder
  3
AutoCAD 2000
 90
0
 91
1
280
0
281
0
  0
CLASS
  1
LAYOUT
  2
AcDbLayout
  3
AutoCAD 2000
 90
0
 91
0
280
0
281
0
  0
ENDSEC
  0
SECTION
  2
TABLES
  0
TABLE
  2
VPORT
  5
8
100
AcDbSymbolTable
 70
2
  0
VPORT
  5
1F4
100
AcDbSymbolTableRecord
100
AcDbViewportTableRecord
  2
*ACTIVE
 70
0
 10
0.0
 20
0.0
 11
1.0
 21
1.0
 12
5.5
 22
4.25
 13
0.0
 23
0.0
 14
1.0
 24
1.0
 15
0.0
 25
0.0
 16
0.0
 26
0.0
 36
1.0
 17
0.0
 27
0.0
 37
0.0
 40
8.5
 41
1.2941176471
 42
50.0
 43
0.0
 44
0.0
 50
0.0
 51
0.0
 71
0
 72
100
 73
1
 74
1
 75
0
 76
0
 77
0
 78
0
  0
ENDTAB
  0
TABLE
  2
LTYPE
  5
5
100
AcDbSymbolTable
 70
6
  0
LTYPE
  5
14
100
AcDbSymbolTableRecord
100
AcDbLinetypeTableRecord
  2
BYBLOCK
 70
0
  3

 72
65
 73
0
 40
0.0
  0
LTYPE
  5
15
100
AcDbSymbolTableRecord
100
AcDbLinetypeTableRecord
  2
BYLAYER
 70
0
  3

 72
65
 73
0
 40
0.0
  0
LTYPE
  5
16
100
AcDbSymbolTableRecord
100
AcDbLinetypeTableRecord
  2
CONTINUOUS
 70
64
  3
Solid line
 72
65
 73
0
 40
0.0
  0
LTYPE
  5
1F5
100
AcDbSymbolTableRecord
100
AcDbLinetypeTableRecord
  2
CENTER
 70
64
  3
____ _ ____ _ ____ _ ____ _ ____ _ ____ _ ____
 72
65
 73
4
 40
0.6
 49
0.375
 74
0
 49
-0.075
 74
0
 49
0.075
 74
0
 49
-0.075
 74
0
  0
LTYPE
  5
1F6
100
AcDbSymbolTableRecord
100
AcDbLinetypeTableRecord
  2
HIDDEN
 70
64
  3
- - - - - - - - - - - - - - - - - - - -
 72
65
 73
2
 40
0.2
 49
0.1
 74
0
 49
-0.1
 74
0
  0
LTYPE
  5
1F7
100
AcDbSymbolTableRecord
100
AcDbLinetypeTableRecord
  2
PHANTOM
 70
64
  3
_____ _ _ _____ _ _ _____ _ _ _____
 72
65
 73
6
 40
0.8
 49
0.45
 74
0
 49
-0.05
 74
0
 49
0.1
 74
0
 49
-0.05
 74
0
 49
0.1
 74
0
 49
-0.05
 74
0
  0
LTYPE
  5
1F8
100
AcDbSymbolTableRecord
100
AcDbLinetypeTableRecord
  2
DOT
 70
64
  3
. . . . . . . . . . . . . . . . . . . .
 72
65
 73
2
 40
0.2
 49
0.1
 74
0
 49
-0.1
 74
0
  0
LTYPE
  5
1F9
100
AcDbSymbolTableRecord
100
AcDbLinetypeTableRecord
  2
DASHED
 70
64
  3
- - - - - - - - - - - - - - - - - - - -
 72
65
 73
2
 40
0.2
 49
0.1
 74
0
 49
-0.1
 74
0
  0
ENDTAB
  0
TABLE
  2
LAYER
  5
2
100
AcDbSymbolTable
 70
36
  0
LAYER
  5
10
100
AcDbSymbolTableRecord
100
AcDbLayerTableRecord
  2
0
 70
0
 62
7
  6
CONTINUOUS
370
-3
390
F
  0
LAYER
  5
1FA
100
AcDbSymbolTableRecord
100
AcDbLayerTableRecord
  2
DEFAULT_1
 70
0
 62
7
  6
CENTER
370
-3
390
F
  0
LAYER
  5
1FB
100
AcDbSymbolTableRecord
100
AcDbLayerTableRecord
  2
DEFAULT_2
 70
0
 62
8
  6
HIDDEN
370
-3
390
F
  0
LAYER
  5
1FC
100
AcDbSymbolTableRecord
100
AcDbLayerTableRecord
  2
DEFAULT_3
 70
0
 62
7
  6
PHANTOM
370
-3
390
F
  0
LAYER
  5
1FD
100
AcDbSymbolTableRecord
100
AcDbLayerTableRecord
  2
2-125_ASSY_PLANES
 70
0
 62
7
  6
CONTINUOUS
370
-3
390
F
  0
LAYER
  5
1FE
100
AcDbSymbolTableRecord
100
AcDbLayerTableRecord
  2
ALL_ASSEMBLY_MEMBERS
 70
0
 62
7
  6
CONTINUOUS
370
-3
390
F
  0
LAYER
  5
1FF
100
AcDbSymbolTableRecord
100
AcDbLayerTableRecord
  2
ALL_FEATURES
 70
0
 62
7
  6
CONTINUOUS
370
-3
390
F
  0
LAYER
  5
200
100
AcDbSymbolTableRecord
100
AcDbLayerTableRecord
  2
AXES_FEATURES
 70
0
 62
7
  6
CONTINUOUS
370
-3
390
F
  0
LAYER
  5
201
100
AcDbSymbolTableRecord
100
AcDbLayerTableRecord
  2
CHAMFER_FEATURES
 70
0
 62
7
  6
CONTINUOUS
370
-3
390
F
  0
LAYER
  5
202
100
AcDbSymbolTableRecord
100
AcDbLayerTableRecord
  2
COORDINATE_SYSTEMS
 70
0
 62
7
  6
CONTINUOUS
370
-3
390
F
  0
LAYER
  5
203
100
AcDbSymbolTableRecord
100
AcDbLayerTableRecord
  2
CUT_FEATURES
 70
0
 62
7
  6
CONTINUOUS
370
-3
390
F
  0
LAYER
  5
204
100
AcDbSymbolTableRecord
100
AcDbLayerTableRecord
  2
CYAN
 70
0
 62
7
  6
CONTINUOUS
370
-3
390
F
  0
LAYER
  5
205
100
AcDbSymbolTableRecord
100
AcDbLayerTableRecord
  2
DATUM_CURVES
 70
0
 62
7
  6
CONTINUOUS
370
-3
390
F
  0
LAYER
  5
206
100
AcDbSymbolTableRecord
100
AcDbLayerTableRecord
  2
DATUM_PLANES
 70
0
 62
7
  6
CONTINUOUS
370
-3
390
F
  0
LAYER
  5
207
100
AcDbSymbolTableRecord
100
AcDbLayerTableRecord
  2
DATUM_POINTS
 70
0
 62
7
  6
CONTINUOUS
370
-3
390
F
  0
LAYER
  5
208
100
AcDbSymbolTableRecord
100
AcDbLayerTableRecord
  2
DEFAULT_COORDINATE_SYSTEM
 70
0
 62
7
  6
CONTINUOUS
370
-3
390
F
  0
LAYER
  5
209
100
AcDbSymbolTableRecord
100
AcDbLayerTableRecord
  2
DEFAULT_DATUM_AXES
 70
0
 62
7
  6
CONTINUOUS
370
-3
390
F
  0
LAYER
  5
20A
100
AcDbSymbolTableRecord
100
AcDbLayerTableRecord
  2
DEFAULT_DATUM_CURVES
 70
0
 62
7
  6
CONTINUOUS
370
-3
390
F
  0
LAYER
  5
20B
100
AcDbSymbolTableRecord
100
AcDbLayerTableRecord
  2
DEFAULT_DATUM_PLANES
 70
0
 62
7
  6
CONTINUOUS
370
-3
390
F
  0
LAYER
  5
20C
100
AcDbSymbolTableRecord
100
AcDbLayerTableRecord
  2
DEFAULT_SURFACES
 70
0
 62
7
  6
CONTINUOUS
370
-3
390
F
  0
LAYER
  5
20D
100
AcDbSymbolTableRecord
100
AcDbLayerTableRecord
  2
DIMENSIONS
 70
0
 62
7
  6
CONTINUOUS
370
-3
390
F
  0
LAYER
  5
20E
100
AcDbSymbolTableRecord
100
AcDbLayerTableRecord
  2
HOLE_FEATURES
 70
0
 62
7
  6
CONTINUOUS
370
-3
390
F
  0
LAYER
  5
20F
100
AcDbSymbolTableRecord
100
AcDbLayerTableRecord
  2
PART_REFERENCE_DIMENSIONS
 70
0
 62
7
  6
CONTINUOUS
370
-3
390
F
  0
LAYER
  5
210
100
AcDbSymbolTableRecord
100
AcDbLayerTableRecord
  2
PLATED_SURFACE_AREA
 70
0
 62
7
  6
CONTINUOUS
370
-3
390
F
  0
LAYER
  5
211
100
AcDbSymbolTableRecord
100
AcDbLayerTableRecord
  2
POINTS
 70
0
 62
7
  6
CONTINUOUS
370
-3
390
F
  0
LAYER
  5
212
100
AcDbSymbolTableRecord
100
AcDbLayerTableRecord
  2
PROTRUSION_FEATURES
 70
0
 62
7
  6
CONTINUOUS
370
-3
390
F
  0
LAYER
  5
213
100
AcDbSymbolTableRecord
100
AcDbLayerTableRecord
  2
QUILTS
 70
0
 62
7
  6
CONTINUOUS
370
-3
390
F
  0
LAYER
  5
214
100
AcDbSymbolTableRecord
100
AcDbLayerTableRecord
  2
REFERENCE_DIMENSIONS
 70
0
 62
7
  6
CONTINUOUS
370
-3
390
F
  0
LAYER
  5
215
100
AcDbSymbolTableRecord
100
AcDbLayerTableRecord
  2
ROUND_FEATURES
 70
0
 62
7
  6
CONTINUOUS
370
-3
390
F
  0
LAYER
  5
216
100
AcDbSymbolTableRecord
100
AcDbLayerTableRecord
  2
SURFACE_FEATURES
 70
0
 62
7
  6
CONTINUOUS
370
-3
390
F
  0
LAYER
  5
217
100
AcDbSymbolTableRecord
100
AcDbLayerTableRecord
  2
WETTED_SURFACES
 70
0
 62
7
  6
CONTINUOUS
370
-3
390
F
  0
LAYER
  5
218
100
AcDbSymbolTableRecord
100
AcDbLayerTableRecord
  2
WETTED_SURFACE_AREA
 70
0
 62
7
  6
CONTINUOUS
370
-3
390
F
  0
LAYER
  5
219
100
AcDbSymbolTableRecord
100
AcDbLayerTableRecord
  2
WHITE
 70
0
 62
7
  6
CONTINUOUS
370
-3
390
F
  0
ENDTAB
  0
TABLE
  2
STYLE
  5
3
100
AcDbSymbolTable
 70
1
  0
STYLE
  5
11
100
AcDbSymbolTableRecord
100
AcDbTextStyleTableRecord
  2
STANDARD
 70
0
 40
0.0
 41
0.8
 50
0.0
 71
0
 42
0.2
  3
txt
  4

  0
STYLE
  5
21A
100
AcDbSymbolTableRecord
100
AcDbTextStyleTableRecord
  2
TEXTSTYLE_1
 70
0
 40
0.0
 41
0.8
 50
0.0
 71
0
 42
0.2
  3
gdt
  4

  0
ENDTAB
  0
TABLE
  2
VIEW
  5
6
100
AcDbSymbolTable
 70
0
  0
ENDTAB
  0
TABLE
  2
UCS
  5
7
100
AcDbSymbolTable
 70
0
  0
ENDTAB
  0
TABLE
  2
APPID
  5
9
100
AcDbSymbolTable
 70
1
  0
APPID
  5
21B
100
AcDbSymbolTableRecord
100
AcDbRegAppTableRecord
  2
ACAD
 70
0
  0
ENDTAB
  0
TABLE
  2
BLOCK_RECORD
  5
1
100
AcDbSymbolTable
 70
0
  0
BLOCK_RECORD
  5
21C
100
AcDbSymbolTableRecord
100
AcDbBlockTableRecord
  2
*Model_Space
  0
BLOCK_RECORD
  5
21D
100
AcDbSymbolTableRecord
100
AcDbBlockTableRecord
  2
*Paper_Space
  0
BLOCK_RECORD
  5
21E
100
AcDbSymbolTableRecord
100
AcDbBlockTableRecord
  2
_FILLED
  0
ENDTAB
  0
TABLE
  2
DIMSTYLE
  5
A
100
AcDbSymbolTable
 70
1
100
AcDbDimStyleTable
 71
0
  0
DIMSTYLE
105
21F
100
AcDbSymbolTableRecord
100
AcDbDimStyleTableRecord
  2
STANDARD
 70
0
  3

  4

 40
1.0
 41
0.1
 42
0.0625
 43
0.38
 44
0.125
 45
0.0
 46
0.0
 47
0.001
 48
0.001
140
0.08
141
0.09
142
0.0
143
25.4
144
1.0
145
0.0
146
1.0
147
0.09
 71
1.0
 72
0.0
 73
1
 74
1
 75
0
 76
0
 77
0
 78
4
 79
1
170
1
171
2
172
0
173
0
174
0
175
0
176
0
177
0
178
0
270
2
179
3
271
3
272
3
273
2
274
2
275
0
280
0
281
0
282
0
283
1
284
4
285
0
286
0
287
3
288
0
340
11
278
46
341
21E
342
21E
343
21E
344
21E
  0
ENDTAB
  0
ENDSEC
  0
SECTION
  2
BLOCKS
  0
BLOCK
  5
20
100
AcDbEntity
  8
0
100
AcDbBlockBegin
  2
*Model_Space
 70
0
 10
0.0
 20
0.0
 30
0.0
  3
*Model_Space
  1

  0
ENDBLK
  5
21
100
AcDbEntity
  8
0
100
AcDbBlockEnd
  0
BLOCK
  5
1C
100
AcDbEntity
  8
0
100
AcDbBlockBegin
  2
*Paper_Space
 70
0
 10
0.0
 20
0.0
 30
0.0
  3
*Paper_Space
  1

  0
ENDBLK
  5
1D
100
AcDbEntity
  8
0
100
AcDbBlockEnd
  0
BLOCK
  5
220
100
AcDbEntity
  8
0
100
AcDbBlockBegin
  2
_FILLED
 70
64
 10
0.0
 20
0.0
  3
_FILLED
  1

  0
SOLID
  5
221
100
AcDbEntity
  8
0
  6
BYBLOCK
 62
0
100
AcDbTrace
 10
0.0
 20
0.0
 11
-1.0
 21
0.2
 12
-1.0
 22
-0.2
 13
-1.0
 23
-0.2
  0
ENDBLK
  5
222
100
AcDbEntity
  8
0
  6
BYBLOCK
 62
0
100
AcDbBlockEnd
  0
ENDSEC
  0
SECTION
  2
ENTITIES
  0
MTEXT
  5
223
100
AcDbEntity
  8
0
100
AcDbMText
 62
2
  6
CONTINUOUS
  7
STANDARD
 71
3
 72
1
 10
4.6158605191
 20
2.9975218292
 30
0.0
 11
1.0
 21
0.0
 31
0.0
 73
2
 44
0.9
  1
SCALE  .500
 40
0.08
 41
0.704
  0
LINE
  5
224
100
AcDbEntity
  8
0
100
AcDbLine
 62
7
  6
CONTINUOUS
 10
0.0
 20
0.0
 11
0.0
 21
8.5
  0
LINE
  5
225
100
AcDbEntity
  8
0
100
AcDbLine
 62
7
  6
CONTINUOUS
 10
0.0
 20
0.0
 11
11.0
 21
0.0
  0
LINE
  5
226
100
AcDbEntity
  8
0
100
AcDbLine
 62
7
  6
CONTINUOUS
 10
0.0
 20
8.5
 11
11.0
 21
8.5
  0
LINE
  5
227
100
AcDbEntity
  8
0
100
AcDbLine
 62
7
  6
CONTINUOUS
 10
11.0
 20
0.0
 11
11.0
 21
8.5
  0
LINE
  5
228
100
AcDbEntity
  8
0
100
AcDbLine
 62
7
  6
CONTINUOUS
 10
3.405578217
 20
3.5822085727
 11
3.4043616147
 21
3.5784642557
  0
LINE
  5
229
100
AcDbEntity
  8
0
100
AcDbLine
 62
7
  6
CONTINUOUS
 10
3.4493359534
 20
3.5679908222
 11
3.4481193511
 21
3.5642465053
  0
LINE
  5
22A
100
AcDbEntity
  8
0
100
AcDbLine
 62
7
  6
CONTINUOUS
 10
3.4624410629
 20
3.5637327141
 11
3.4612244606
 21
3.5599883971
  0
LINE
  5
22B
100
AcDbEntity
  8
0
100
AcDbLine
 62
7
  6
CONTINUOUS
 10
3.5061987993
 20
3.5495149636
 11
3.5049821969
 21
3.5457706466
  0
LINE
  5
22C
100
AcDbEntity
  8
ALL_FEATURES
100
AcDbLine
 62
7
  6
CONTINUOUS
 10
3.3998946876
 20
3.9045798507
 11
3.2334103952
 21
3.638149289
  0
LINE
  5
22D
100
AcDbEntity
  8
0
100
AcDbLine
 62
7
  6
CONTINUOUS
 10
3.5049821969
 20
3.5457706466
 11
3.4043616147
 21
3.5784642557
  0
LINE
  5
22E
100
AcDbEntity
  8
ALL_FEATURES
100
AcDbLine
 62
7
  6
CONTINUOUS
 10
3.5900565888
 20
3.5222679161
 11
3.2334103952
 21
3.638149289
  0
LINE
  5
22F
100
AcDbEntity
  8
ALL_FEATURES
100
AcDbLine
 62
7
  6
CONTINUOUS
 10
3.7110938928
 20
3.7017130987
 11
3.5900565888
 21
3.5222679161
  0
LINE
  5
230
100
AcDbEntity
  8
0
100
AcDbLine
 62
7
  6
CONTINUOUS
 10
5.5097082678
 20
3.6345968836
 11
5.7299556413
 21
3.6345968836
  0
LINE
  5
231
100
AcDbEntity
  8
0
100
AcDbLine
 62
7
  6
CONTINUOUS
 10
5.7762277855
 20
3.6463121136
 11
5.4634361236
 21
3.6463121136
  0
LINE
  5
232
100
AcDbEntity
  8
0
100
AcDbLine
 62
7
  6
CONTINUOUS
 10
5.7998319545
 20
3.6712731164
 11
5.4398319545
 21
3.6712731164
  0
LINE
  5
233
100
AcDbEntity
  8
0
100
AcDbLine
 62
7
  6
CONTINUOUS
 10
5.7998319545
 20
3.6787576046
 11
5.4398319545
 21
3.6787576046
  0
LINE
  5
234
100
AcDbEntity
  8
0
100
AcDbLine
 62
7
  6
CONTINUOUS
 10
5.7848754146
 20
3.7016514664
 11
5.4547884945
 21
3.7016514664
  0
LINE
  5
235
100
AcDbEntity
  8
0
100
AcDbLine
 62
7
  6
CONTINUOUS
 10
5.4666421887
 20
3.7178572733
 11
5.7730217204
 21
3.7178572733
  0
LINE
  5
236
100
AcDbEntity
  8
0
100
AcDbLine
 62
7
  6
CONTINUOUS
 10
6.5860817812
 20
3.9219665559
 11
6.5810817812
 21
3.9219665559
  0
LINE
  5
237
100
AcDbEntity
  8
0
100
AcDbLine
 62
7
  6
CONTINUOUS
 10
5.7286617558
 20
3.9697859843
 11
5.5110021533
 21
3.9697859843
  0
LINE
  5
238
100
AcDbEntity
  8
0
100
AcDbLine
 62
7
  6
CONTINUOUS
 10
6.5210817812
 20
3.9844665559
 11
6.3234729826
 21
3.9844665559
  0
LINE
  5
239
100
AcDbEntity
  8
0
100
AcDbLine
 62
7
  6
CONTINUOUS
 10
5.7098319545
 20
3.9849665559
 11
5.5298319545
 21
3.9849665559
  0
LINE
  5
23A
100
AcDbEntity
  8
0
100
AcDbLine
 62
7
  6
CONTINUOUS
 10
5.9975013823
 20
4.0169665559
 11
5.9950817812
 21
4.0169665559
  0
LINE
  5
23B
100
AcDbEntity
  8
ALL_FEATURES
100
AcDbLine
 62
7
  6
CONTINUOUS
 10
5.1210817812
 20
4.0169665559
 11
4.5850817812
 21
4.0169665559
  0
LINE
  5
23C
100
AcDbEntity
  8
0
100
AcDbLine
 62
7
  6
CONTINUOUS
 10
5.7098319545
 20
4.0299665559
 11
5.5298319545
 21
4.0299665559
  0
LINE
  5
23D
100
AcDbEntity
  8
0
100
AcDbLine
 62
7
  6
CONTINUOUS
 10
5.530382248
 20
4.0349665559
 11
5.7092816611
 21
4.0349665559
  0
LINE
  5
23E
100
AcDbEntity
  8
0
100
AcDbLine
 62
7
  6
CONTINUOUS
 10
5.9650817812
 20
4.0797165559
 11
5.9250817812
 21
4.0797165559
  0
LINE
  5
23F
100
AcDbEntity
  8
ALL_FEATURES
100
AcDbLine
 62
7
  6
CONTINUOUS
 10
5.1210817812
 20
4.0169665556
 11
5.1210817812
 21
4.4669665563
  0
LINE
  5
240
100
AcDbEntity
  8
0
100
AcDbLine
 62
7
  6
CONTINUOUS
 10
5.4362679645
 20
4.1019665559
 11
5.4396959795
 21
4.1019665559
  0
LINE
  5
241
100
AcDbEntity
  8
ALL_FEATURES
100
AcDbLine
 62
7
  6
CONTINUOUS
 10
5.9250817812
 20
4.1127165559
 11
5.8000817812
 21
4.1127165559
  0
LINE
  5
242
100
AcDbEntity
  8
0
100
AcDbLine
 62
7
  6
CONTINUOUS
 10
5.1875263991
 20
4.002596585
 11
5.1875263991
 21
4.4813365268
  0
LINE
  5
243
100
AcDbEntity
  8
0
100
AcDbLine
 62
7
  6
CONTINUOUS
 10
5.207722151
 20
4.0165152467
 11
5.207722151
 21
4.4674178651
  0
LINE
  5
244
100
AcDbEntity
  8
ALL_FEATURES
100
AcDbLine
 62
7
  6
CONTINUOUS
 10
5.1210817812
 20
4.2419665559
 11
4.5852817812
 21
4.2413121202
  0
LINE
  5
245
100
AcDbEntity
  8
0
100
AcDbLine
 62
7
  6
CONTINUOUS
 10
5.3984062851
 20
4.3548697817
 11
5.3984062851
 21
4.1290633301
  0
LINE
  5
246
100
AcDbEntity
  8
ALL_FEATURES
100
AcDbLine
 62
7
  6
CONTINUOUS
 10
5.9250817812
 20
4.3712165559
 11
5.8000817812
 21
4.3712165559
  0
LINE
  5
247
100
AcDbEntity
  8
0
100
AcDbLine
 62
7
  6
CONTINUOUS
 10
5.4362679645
 20
4.3819665559
 11
5.4396959795
 21
4.3819665559
  0
LINE
  5
248
100
AcDbEntity
  8
0
100
AcDbLine
 62
7
  6
CONTINUOUS
 10
5.9650817812
 20
4.4042165559
 11
5.9250817812
 21
4.4042165559
  0
LINE
  5
249
100
AcDbEntity
  8
0
100
AcDbLine
 62
7
  6
CONTINUOUS
 10
5.7092816611
 20
4.4489665559
 11
5.530382248
 21
4.4489665559
  0
LINE
  5
24A
100
AcDbEntity
  8
0
100
AcDbLine
 62
7
  6
CONTINUOUS
 10
5.5298319545
 20
4.4539665559
 11
5.7098319545
 21
4.4539665559
  0
LINE
  5
24B
100
AcDbEntity
  8
0
100
AcDbLine
 62
7
  6
CONTINUOUS
 10
5.9975013823
 20
4.4669665559
 11
5.9950817812
 21
4.4669665559
  0
LINE
  5
24C
100
AcDbEntity
  8
ALL_FEATURES
100
AcDbLine
 62
7
  6
CONTINUOUS
 10
5.1210817812
 20
4.4669665559
 11
4.6570817812
 21
4.4669665559
  0
LINE
  5
24D
100
AcDbEntity
  8
0
100
AcDbLine
 62
7
  6
CONTINUOUS
 10
5.4362679645
 20
4.3819665559
 11
5.4362679645
 21
4.1019665559
  0
LINE
  5
24E
100
AcDbEntity
  8
0
100
AcDbLine
 62
7
  6
CONTINUOUS
 10
5.4396959795
 20
4.3819665559
 11
5.4396959795
 21
4.1019665559
  0
LINE
  5
24F
100
AcDbEntity
  8
0
100
AcDbLine
 62
7
  6
CONTINUOUS
 10
5.4398319545
 20
4.8126599955
 11
5.4398319545
 21
4.8051755073
  0
LINE
  5
250
100
AcDbEntity
  8
0
100
AcDbLine
 62
7
  6
CONTINUOUS
 10
5.4398319545
 20
3.6712731164
 11
5.4398319545
 21
3.6787576046
  0
LINE
  5
251
100
AcDbEntity
  8
0
100
AcDbLine
 62
7
  6
CONTINUOUS
 10
5.4496959795
 20
4.0958489329
 11
5.4496959795
 21
4.1832043778
  0
LINE
  5
252
100
AcDbEntity
  8
0
100
AcDbLine
 62
7
  6
CONTINUOUS
 10
5.4496959795
 20
4.3006316004
 11
5.4496959795
 21
4.3880841789
  0
LINE
  5
253
100
AcDbEntity
  8
0
100
AcDbLine
 62
7
  6
CONTINUOUS
 10
5.4509513996
 20
4.0925356081
 11
5.4509513996
 21
4.1798294082
  0
LINE
  5
254
100
AcDbEntity
  8
0
100
AcDbLine
 62
7
  6
CONTINUOUS
 10
5.4509513996
 20
4.3041452269
 11
5.4509513996
 21
4.3913975037
  0
LINE
  5
255
100
AcDbEntity
  8
0
100
AcDbLine
 62
7
  6
CONTINUOUS
 10
5.5298319545
 20
4.4989665559
 11
5.5298319545
 21
4.4539665559
  0
LINE
  5
256
100
AcDbEntity
  8
0
100
AcDbLine
 62
7
  6
CONTINUOUS
 10
5.5298319545
 20
3.9849665559
 11
5.5298319545
 21
4.0299665559
  0
LINE
  5
257
100
AcDbEntity
  8
0
100
AcDbLine
 62
7
  6
CONTINUOUS
 10
5.5298319545
 20
4.4989665559
 11
5.7098319545
 21
4.4989665559
  0
LINE
  5
258
100
AcDbEntity
  8
0
100
AcDbLine
 62
7
  6
CONTINUOUS
 10
6.5210817812
 20
4.4994665559
 11
6.3234729826
 21
4.4994665559
  0
LINE
  5
259
100
AcDbEntity
  8
0
100
AcDbLine
 62
7
  6
CONTINUOUS
 10
5.5110021533
 20
4.5141471276
 11
5.7286617558
 21
4.5141471276
  0
LINE
  5
25A
100
AcDbEntity
  8
0
100
AcDbLine
 62
7
  6
CONTINUOUS
 10
6.5860817812
 20
4.5619665559
 11
6.5810817812
 21
4.5619665559
  0
LINE
  5
25B
100
AcDbEntity
  8
0
100
AcDbLine
 62
7
  6
CONTINUOUS
 10
5.7098319545
 20
4.4989665559
 11
5.7098319545
 21
4.4539665559
  0
LINE
  5
25C
100
AcDbEntity
  8
0
100
AcDbLine
 62
7
  6
CONTINUOUS
 10
5.7098319545
 20
3.9849665559
 11
5.7098319545
 21
4.0299665559
  0
LINE
  5
25D
100
AcDbEntity
  8
0
100
AcDbLine
 62
7
  6
CONTINUOUS
 10
5.7998319545
 20
4.8126599955
 11
5.7998319545
 21
4.8051755073
  0
LINE
  5
25E
100
AcDbEntity
  8
0
100
AcDbLine
 62
7
  6
CONTINUOUS
 10
5.7998319545
 20
3.6712731164
 11
5.7998319545
 21
3.6787576046
  0
LINE
  5
25F
100
AcDbEntity
  8
ALL_FEATURES
100
AcDbLine
 62
7
  6
CONTINUOUS
 10
5.8000817812
 20
4.3774665559
 11
5.8000817812
 21
4.1064665559
  0
LINE
  5
260
100
AcDbEntity
  8
0
100
AcDbLine
 62
7
  6
CONTINUOUS
 10
5.7730217204
 20
4.7660758385
 11
5.4666421887
 21
4.7660758385
  0
LINE
  5
261
100
AcDbEntity
  8
0
100
AcDbLine
 62
7
  6
CONTINUOUS
 10
5.4547884945
 20
4.7822816454
 11
5.7848754146
 21
4.7822816454
  0
LINE
  5
262
100
AcDbEntity
  8
0
100
AcDbLine
 62
7
  6
CONTINUOUS
 10
5.4398319545
 20
4.8051755073
 11
5.7998319545
 21
4.8051755073
  0
LINE
  5
263
100
AcDbEntity
  8
0
100
AcDbLine
 62
7
  6
CONTINUOUS
 10
5.4398319545
 20
4.8126599955
 11
5.7998319545
 21
4.8126599955
  0
LINE
  5
264
100
AcDbEntity
  8
0
100
AcDbLine
 62
7
  6
CONTINUOUS
 10
5.4634361236
 20
4.8376209982
 11
5.7762277855
 21
4.8376209982
  0
LINE
  5
265
100
AcDbEntity
  8
0
100
AcDbLine
 62
7
  6
CONTINUOUS
 10
5.7299556413
 20
4.8493362282
 11
5.5097082678
 21
4.8493362282
  0
LINE
  5
266
100
AcDbEntity
  8
0
100
AcDbLine
 62
7
  6
CONTINUOUS
 10
5.9250817812
 20
4.4042165559
 11
5.9250817812
 21
4.0797165559
  0
LINE
  5
267
100
AcDbEntity
  8
0
100
AcDbLine
 62
7
  6
CONTINUOUS
 10
6.8830817812
 20
4.6999494969
 11
6.8214166304
 21
4.6500140423
  0
LINE
  5
268
100
AcDbEntity
  8
0
100
AcDbLine
 62
7
  6
CONTINUOUS
 10
6.8830817812
 20
3.7839836149
 11
6.8214166304
 21
3.8339190695
  0
LINE
  5
269
100
AcDbEntity
  8
0
100
AcDbLine
 62
7
  6
CONTINUOUS
 10
5.9650817812
 20
4.0469665559
 11
5.9650817812
 21
4.4369665559
  0
LINE
  5
26A
100
AcDbEntity
  8
0
100
AcDbLine
 62
7
  6
CONTINUOUS
 10
5.9950817812
 20
4.0169665559
 11
5.9950817812
 21
4.4669665559
  0
LINE
  5
26B
100
AcDbEntity
  8
0
100
AcDbLine
 62
7
  6
CONTINUOUS
 10
5.9975013823
 20
4.0169665559
 11
5.9975013823
 21
4.4669665559
  0
LINE
  5
26C
100
AcDbEntity
  8
0
100
AcDbLine
 62
7
  6
CONTINUOUS
 10
6.0225619192
 20
4.0304750578
 11
6.0225619192
 21
4.453458054
  0
LINE
  5
26D
100
AcDbEntity
  8
0
100
AcDbLine
 62
7
  6
CONTINUOUS
 10
6.0445650417
 20
4.0438273568
 11
6.0445650417
 21
4.4401057551
  0
LINE
  5
26E
100
AcDbEntity
  8
0
100
AcDbLine
 62
7
  6
CONTINUOUS
 10
6.213834476
 20
4.5031153987
 11
6.2138344738
 21
4.4293263968
  0
LINE
  5
26F
100
AcDbEntity
  8
0
100
AcDbLine
 62
7
  6
CONTINUOUS
 10
6.2138344702
 20
4.054606715
 11
6.213834476
 21
3.9808177131
  0
LINE
  5
270
100
AcDbEntity
  8
0
100
AcDbLine
 62
7
  6
CONTINUOUS
 10
6.2332571374
 20
4.5191132741
 11
6.2332571358
 21
4.4288803457
  0
LINE
  5
271
100
AcDbEntity
  8
0
100
AcDbLine
 62
7
  6
CONTINUOUS
 10
6.2332571319
 20
4.055052766
 11
6.2332571374
 21
3.9648198377
  0
LINE
  5
272
100
AcDbEntity
  8
0
100
AcDbLine
 62
7
  6
CONTINUOUS
 10
6.299559982
 20
4.5171748892
 11
6.2995599843
 21
4.4287564315
  0
LINE
  5
273
100
AcDbEntity
  8
0
100
AcDbLine
 62
7
  6
CONTINUOUS
 10
6.2995599838
 20
4.0551766803
 11
6.299559982
 21
3.9667582226
  0
LINE
  5
274
100
AcDbEntity
  8
0
100
AcDbLine
 62
7
  6
CONTINUOUS
 10
6.3234729826
 20
4.4994665559
 11
6.3234729826
 21
4.4291341453
  0
LINE
  5
275
100
AcDbEntity
  8
0
100
AcDbLine
 62
7
  6
CONTINUOUS
 10
6.3234729826
 20
4.0547989666
 11
6.3234729826
 21
3.9844665559
  0
LINE
  5
276
100
AcDbEntity
  8
0
100
AcDbLine
 62
7
  6
CONTINUOUS
 10
6.5210817812
 20
4.4994665559
 11
6.5210817812
 21
4.442530124
  0
LINE
  5
277
100
AcDbEntity
  8
0
100
AcDbLine
 62
7
  6
CONTINUOUS
 10
6.5210817812
 20
4.0414029879
 11
6.5210817812
 21
3.9844665559
  0
LINE
  5
278
100
AcDbEntity
  8
0
100
AcDbLine
 62
7
  6
CONTINUOUS
 10
6.5460817812
 20
3.9569665559
 11
6.5460817812
 21
4.0384464855
  0
LINE
  5
279
100
AcDbEntity
  8
0
100
AcDbLine
 62
7
  6
CONTINUOUS
 10
6.5460817812
 20
4.4454866263
 11
6.5460817812
 21
4.5269665559
  0
LINE
  5
27A
100
AcDbEntity
  8
0
100
AcDbLine
 62
7
  6
CONTINUOUS
 10
6.5810817812
 20
3.9219665559
 11
6.5810817812
 21
4.0338069085
  0
LINE
  5
27B
100
AcDbEntity
  8
0
100
AcDbLine
 62
7
  6
CONTINUOUS
 10
6.5810817812
 20
4.4501262033
 11
6.5810817812
 21
4.5619665559
  0
LINE
  5
27C
100
AcDbEntity
  8
0
100
AcDbLine
 62
7
  6
CONTINUOUS
 10
6.5860817812
 20
3.9219665559
 11
6.5860817812
 21
4.0331262616
  0
LINE
  5
27D
100
AcDbEntity
  8
0
100
AcDbLine
 62
7
  6
CONTINUOUS
 10
6.5860817812
 20
4.4508068502
 11
6.5860817812
 21
4.5619665559
  0
LINE
  5
27E
100
AcDbEntity
  8
0
100
AcDbLine
 62
7
  6
CONTINUOUS
 10
6.6210817812
 20
4.5361655394
 11
6.6210817812
 21
4.4560949825
  0
LINE
  5
27F
100
AcDbEntity
  8
0
100
AcDbLine
 62
7
  6
CONTINUOUS
 10
6.6210817812
 20
4.0278381293
 11
6.6210817812
 21
3.9477675725
  0
LINE
  5
280
100
AcDbEntity
  8
0
100
AcDbLine
 62
7
  6
CONTINUOUS
 10
6.6243725586
 20
4.5455407251
 11
6.6243725568
 21
4.4566020397
  0
LINE
  5
281
100
AcDbEntity
  8
0
100
AcDbLine
 62
7
  6
CONTINUOUS
 10
6.6243725574
 20
4.027331072
 11
6.6243725586
 21
3.9383923867
  0
LINE
  5
282
100
AcDbEntity
  8
0
100
AcDbLine
 62
7
  6
CONTINUOUS
 10
6.6306663716
 20
4.4575718185
 11
6.6306663716
 21
4.0263612933
  0
LINE
  5
283
100
AcDbEntity
  8
0
100
AcDbLine
 62
7
  6
CONTINUOUS
 10
6.654929247
 20
4.479855603
 11
6.654929247
 21
4.0040775088
  0
LINE
  5
284
100
AcDbEntity
  8
0
100
AcDbLine
 62
7
  6
CONTINUOUS
 10
6.7000817812
 20
4.4944665559
 11
6.7000817812
 21
3.9894665559
  0
LINE
  5
285
100
AcDbEntity
  8
0
100
AcDbLine
 62
7
  6
CONTINUOUS
 10
6.8032478956
 20
3.7670589617
 11
6.8032478956
 21
3.8686608662
  0
LINE
  5
286
100
AcDbEntity
  8
0
100
AcDbLine
 62
7
  6
CONTINUOUS
 10
6.8032478956
 20
4.6152722456
 11
6.8032478956
 21
4.7168741501
  0
LINE
  5
287
100
AcDbEntity
  8
0
100
AcDbLine
 62
7
  6
CONTINUOUS
 10
6.8084428441
 20
4.6228139337
 11
6.8084428441
 21
3.8611191781
  0
LINE
  5
288
100
AcDbEntity
  8
0
100
AcDbLine
 62
7
  6
CONTINUOUS
 10
6.8214166304
 20
4.6500140423
 11
6.8214166304
 21
3.8339190695
  0
LINE
  5
289
100
AcDbEntity
  8
0
100
AcDbLine
 62
7
  6
CONTINUOUS
 10
6.8281386054
 20
3.7413355983
 11
6.8281386054
 21
3.8284757214
  0
LINE
  5
28A
100
AcDbEntity
  8
0
100
AcDbLine
 62
7
  6
CONTINUOUS
 10
6.8281386054
 20
4.6554573904
 11
6.8281386054
 21
4.7425975135
  0
LINE
  5
28B
100
AcDbEntity
  8
0
100
AcDbLine
 62
7
  6
CONTINUOUS
 10
6.8830817812
 20
4.6999494969
 11
6.8830817812
 21
3.7839836149
  0
LINE
  5
28C
100
AcDbEntity
  8
0
100
AcDbLine
 62
7
  6
CONTINUOUS
 10
6.8955736244
 20
3.7216489288
 11
6.8955736175
 21
3.7783614203
  0
LINE
  5
28D
100
AcDbEntity
  8
0
100
AcDbLine
 62
7
  6
CONTINUOUS
 10
6.895573617
 20
4.7055716914
 11
6.8955736244
 21
4.762284183
  0
LINE
  5
28E
100
AcDbEntity
  8
0
100
AcDbLine
 62
7
  6
CONTINUOUS
 10
6.9024842239
 20
4.705837208
 11
6.9024843009
 21
4.7643099372
  0
LINE
  5
28F
100
AcDbEntity
  8
0
100
AcDbLine
 62
7
  6
CONTINUOUS
 10
6.9024843009
 20
3.7196231746
 11
6.9024842239
 21
3.7780959038
  0
LINE
  5
290
100
AcDbEntity
  8
0
100
AcDbLine
 62
7
  6
CONTINUOUS
 10
6.9081742923
 20
4.7047226437
 11
6.9081742923
 21
3.7792104681
  0
LINE
  5
291
100
AcDbEntity
  8
0
100
AcDbLine
 62
7
  6
CONTINUOUS
 10
6.9145161597
 20
3.7213677945
 11
6.914516159
 21
3.7801004124
  0
LINE
  5
292
100
AcDbEntity
  8
0
100
AcDbLine
 62
7
  6
CONTINUOUS
 10
6.914516159
 20
4.7038326995
 11
6.9145161597
 21
4.7625653173
  0
LINE
  5
293
100
AcDbEntity
  8
0
100
AcDbLine
 62
7
  6
CONTINUOUS
 10
6.9279781086
 20
4.7093280709
 11
6.9279781086
 21
3.7746050409
  0
LINE
  5
294
100
AcDbEntity
  8
0
100
AcDbLine
 62
7
  6
CONTINUOUS
 10
6.9389045516
 20
3.7158512533
 11
6.9389045538
 21
3.764050609
  0
LINE
  5
295
100
AcDbEntity
  8
0
100
AcDbLine
 62
7
  6
CONTINUOUS
 10
6.9389045538
 20
4.7198825029
 11
6.9389045516
 21
4.7680818585
  0
LINE
  5
296
100
AcDbEntity
  8
0
100
AcDbLine
 62
7
  6
CONTINUOUS
 10
7.0023787509
 20
3.6514089334
 11
7.0023787505
 21
3.6976083032
  0
LINE
  5
297
100
AcDbEntity
  8
0
100
AcDbLine
 62
7
  6
CONTINUOUS
 10
7.0023787504
 20
4.7863248085
 11
7.0023787509
 21
4.8325241784
  0
LINE
  5
298
100
AcDbEntity
  8
0
100
AcDbLine
 62
7
  6
CONTINUOUS
 10
7.00880739
 20
3.6903551383
 11
7.00880739
 21
4.7935779735
  0
LINE
  5
299
100
AcDbEntity
  8
0
100
AcDbLine
 62
7
  6
CONTINUOUS
 10
7.0350817812
 20
3.6668566847
 11
7.0350817812
 21
3.6984778807
  0
LINE
  5
29A
100
AcDbEntity
  8
0
100
AcDbLine
 62
7
  6
CONTINUOUS
 10
7.0350817812
 20
3.70024898
 11
7.0350817812
 21
4.7836841318
  0
LINE
  5
29B
100
AcDbEntity
  8
0
100
AcDbLine
 62
7
  6
CONTINUOUS
 10
7.0350817812
 20
4.7854770166
 11
7.0350817812
 21
4.8170764271
  0
ARC
  5
29C
100
AcDbEntity
  8
0
100
AcDbCircle
 62
7
  6
CONTINUOUS
 10
5.5700724586
 20
0.0329612738
 40
4.0
100
AcDbArc
 50
80.7385093408
 51
87.9974049296
  0
ARC
  5
29D
100
AcDbEntity
  8
0
100
AcDbCircle
 62
7
  6
CONTINUOUS
 10
5.5700724586
 20
0.0329612738
 40
4.0
100
AcDbArc
 50
90.5648634098
 51
95.197410851
  0
ARC
  5
29E
100
AcDbEntity
  8
ALL_FEATURES
100
AcDbCircle
 62
7
  6
CONTINUOUS
 10
4.5853762229
 20
2.0180454555
 40
1.9989224598
100
AcDbArc
 50
90.008439687
 51
103.8594922324
  0
ARC
  5
29F
100
AcDbEntity
  8
ALL_FEATURES
100
AcDbCircle
 62
7
  6
CONTINUOUS
 10
4.5851156651
 20
2.0203383277
 40
1.9966326119
100
AcDbArc
 50
103.8679939565
 51
105.7357908941
  0
ARC
  5
2A0
100
AcDbEntity
  8
ALL_FEATURES
100
AcDbCircle
 62
7
  6
CONTINUOUS
 10
4.6570871161
 20
2.4968147352
 40
1.9701518207
100
AcDbArc
 50
90.000155151
 51
94.0249250513
  0
ARC
  5
2A1
100
AcDbEntity
  8
ALL_FEATURES
100
AcDbCircle
 62
7
  6
CONTINUOUS
 10
4.6570874083
 20
2.4969058929
 40
1.9700609084
100
AcDbArc
 50
94.0251196125
 51
96.5740413992
  0
ARC
  5
2A2
100
AcDbEntity
  8
0
100
AcDbCircle
 62
7
  6
CONTINUOUS
 10
3.9184226241
 20
3.5211666734
 40
1.865
100
AcDbArc
 50
6.0539076486
 51
13.9188002726
  0
ARC
  5
2A3
100
AcDbEntity
  8
ALL_FEATURES
100
AcDbCircle
 62
7
  6
CONTINUOUS
 10
4.5371141281
 20
3.0137965464
 40
1.259623285
100
AcDbArc
 50
140.8265908134
 51
142.2467518355
  0
ARC
  5
2A4
100
AcDbEntity
  8
ALL_FEATURES
100
AcDbCircle
 62
7
  6
CONTINUOUS
 10
4.2564726549
 20
3.369264645
 40
1.0101085331
100
AcDbArc
 50
114.6678153972
 51
119.4208070131
  0
ARC
  5
2A5
100
AcDbEntity
  8
ALL_FEATURES
100
AcDbCircle
 62
7
  6
CONTINUOUS
 10
4.3768626798
 20
3.2125771349
 40
1.0026249154
100
AcDbArc
 50
114.2745826153
 51
118.5029177033
  0
ARC
  5
2A6
100
AcDbEntity
  8
ALL_FEATURES
100
AcDbCircle
 62
7
  6
CONTINUOUS
 10
4.2053575
 20
3.3683258589
 40
0.5961908798
100
AcDbArc
 50
143.3485953036
 51
145.9998225558
  0
ARC
  5
2A7
100
AcDbEntity
  8
0
100
AcDbCircle
 62
7
  6
CONTINUOUS
 10
5.4564569685
 20
3.5215071002
 40
0.125
100
AcDbArc
 50
64.7853651812
 51
86.7993265714
  0
ARC
  5
2A8
100
AcDbEntity
  8
0
100
AcDbCircle
 62
7
  6
CONTINUOUS
 10
5.4362679645
 20
4.1419665559
 40
0.04
100
AcDbArc
 50
198.819063369
 51
270.0
  0
ARC
  5
2A9
100
AcDbEntity
  8
0
100
AcDbCircle
 62
7
  6
CONTINUOUS
 10
5.1560817812
 20
4.0179665559
 40
0.035
100
AcDbArc
 50
181.6355264202
 51
333.9508481769
  0
ARC
  5
2AA
100
AcDbEntity
  8
0
100
AcDbCircle
 62
7
  6
CONTINUOUS
 10
5.4648319545
 20
3.6787576046
 40
0.025
100
AcDbArc
 50
113.6868993629
 51
180.0
  0
ARC
  5
2AB
100
AcDbEntity
  8
0
100
AcDbCircle
 62
7
  6
CONTINUOUS
 10
5.4648319545
 20
3.6712731164
 40
0.025
100
AcDbArc
 50
180.0
 51
266.7993265714
  0
ARC
  5
2AC
100
AcDbEntity
  8
0
100
AcDbCircle
 62
7
  6
CONTINUOUS
 10
5.2099868404
 20
3.9916180344
 40
0.025
100
AcDbArc
 50
95.1974108516
 51
153.950848179
  0
ARC
  5
2AD
100
AcDbEntity
  8
0
100
AcDbCircle
 62
7
  6
CONTINUOUS
 10
5.4467537265
 20
3.7199665559
 40
0.02
100
AcDbArc
 50
293.6868993629
 51
353.9460923514
  0
ARC
  5
2AE
100
AcDbEntity
  8
0
100
AcDbCircle
 62
7
  6
CONTINUOUS
 10
5.5304149054
 20
3.9649750535
 40
0.02
100
AcDbArc
 50
91.6702677144
 51
166.0811997271
  0
ARC
  5
2AF
100
AcDbEntity
  8
0
100
AcDbCircle
 62
7
  6
CONTINUOUS
 10
5.4396959795
 20
4.1119665559
 40
0.01
100
AcDbArc
 50
270.0
 51
360.0
  0
ARC
  5
2B0
100
AcDbEntity
  8
0
100
AcDbCircle
 62
7
  6
CONTINUOUS
 10
5.5348319545
 20
4.0299665559
 40
0.005
100
AcDbArc
 50
90.0
 51
180.0
  0
ARC
  5
2B1
100
AcDbEntity
  8
0
100
AcDbCircle
 62
7
  6
CONTINUOUS
 10
5.4546959795
 20
4.0958489329
 40
0.005
100
AcDbArc
 50
180.0
 51
221.5034356405
  0
ARC
  5
2B2
100
AcDbEntity
  8
0
100
AcDbCircle
 62
7
  6
CONTINUOUS
 10
5.5700724586
 20
8.450971838
 40
4.0
100
AcDbArc
 50
272.0025950704
 51
279.2614906592
  0
ARC
  5
2B3
100
AcDbEntity
  8
0
100
AcDbCircle
 62
7
  6
CONTINUOUS
 10
5.5700724586
 20
8.450971838
 40
4.0
100
AcDbArc
 50
264.802589149
 51
269.4351365902
  0
ARC
  5
2B4
100
AcDbEntity
  8
0
100
AcDbCircle
 62
7
  6
CONTINUOUS
 10
3.9184226241
 20
4.9627664384
 40
1.865
100
AcDbArc
 50
346.0811997274
 51
353.9460923514
  0
ARC
  5
2B5
100
AcDbEntity
  8
ALL_FEATURES
100
AcDbCircle
 62
7
  6
CONTINUOUS
 10
3.8623766961
 20
4.4974918199
 40
0.7512986698
100
AcDbArc
 50
243.4168877122
 51
246.3177228077
  0
ARC
  5
2B6
100
AcDbEntity
  8
ALL_FEATURES
100
AcDbCircle
 62
7
  6
CONTINUOUS
 10
3.8583996249
 20
4.4909497172
 40
0.7436696935
100
AcDbArc
 50
240.9683752256
 51
243.4653548292
  0
ARC
  5
2B7
100
AcDbEntity
  8
0
100
AcDbCircle
 62
7
  6
CONTINUOUS
 10
5.4564569685
 20
4.9624260117
 40
0.125
100
AcDbArc
 50
273.2006734286
 51
295.2146348188
  0
ARC
  5
2B8
100
AcDbEntity
  8
0
100
AcDbCircle
 62
7
  6
CONTINUOUS
 10
5.4362679645
 20
4.3419665559
 40
0.04
100
AcDbArc
 50
90.0
 51
161.180936631
  0
ARC
  5
2B9
100
AcDbEntity
  8
0
100
AcDbCircle
 62
7
  6
CONTINUOUS
 10
5.1560817812
 20
4.4659665559
 40
0.035
100
AcDbArc
 50
26.0491518231
 51
178.3644735798
  0
ARC
  5
2BA
100
AcDbEntity
  8
0
100
AcDbCircle
 62
7
  6
CONTINUOUS
 10
5.4648319545
 20
4.8126599955
 40
0.025
100
AcDbArc
 50
93.2006734286
 51
180.0
  0
ARC
  5
2BB
100
AcDbEntity
  8
0
100
AcDbCircle
 62
7
  6
CONTINUOUS
 10
5.4648319545
 20
4.8051755073
 40
0.025
100
AcDbArc
 50
180.0
 51
246.3131006371
  0
ARC
  5
2BC
100
AcDbEntity
  8
0
100
AcDbCircle
 62
7
  6
CONTINUOUS
 10
5.2099868404
 20
4.4923150775
 40
0.025
100
AcDbArc
 50
206.049151821
 51
264.8025891484
  0
ARC
  5
2BD
100
AcDbEntity
  8
0
100
AcDbCircle
 62
7
  6
CONTINUOUS
 10
5.4467537265
 20
4.7639665559
 40
0.02
100
AcDbArc
 50
6.0539076486
 51
66.3131006371
  0
ARC
  5
2BE
100
AcDbEntity
  8
0
100
AcDbCircle
 62
7
  6
CONTINUOUS
 10
5.5304149054
 20
4.5189580583
 40
0.02
100
AcDbArc
 50
193.9188002729
 51
268.3297322856
  0
ARC
  5
2BF
100
AcDbEntity
  8
0
100
AcDbCircle
 62
7
  6
CONTINUOUS
 10
5.4396959795
 20
4.3719665559
 40
0.01
100
AcDbArc
 50
0.0
 51
90.0
  0
ARC
  5
2C0
100
AcDbEntity
  8
0
100
AcDbCircle
 62
7
  6
CONTINUOUS
 10
5.5348319545
 20
4.4539665559
 40
0.005
100
AcDbArc
 50
180.0
 51
270.0
  0
ARC
  5
2C1
100
AcDbEntity
  8
0
100
AcDbCircle
 62
7
  6
CONTINUOUS
 10
5.4546959795
 20
4.3880841789
 40
0.005
100
AcDbArc
 50
138.4965643595
 51
180.0
  0
ARC
  5
2C2
100
AcDbEntity
  8
0
100
AcDbCircle
 62
7
  6
CONTINUOUS
 10
6.271781865
 20
1.8259358433
 40
2.2295
100
AcDbArc
 50
80.7367477834
 51
95.849386431
  0
ARC
  5
2C3
100
AcDbEntity
  8
0
100
AcDbCircle
 62
7
  6
CONTINUOUS
 10
6.0204190983
 20
2.8229950143
 40
1.315
100
AcDbArc
 50
41.2685692708
 51
46.3573080802
  0
ARC
  5
2C4
100
AcDbEntity
  8
0
100
AcDbCircle
 62
7
  6
CONTINUOUS
 10
5.6198319545
 20
3.8684665559
 40
0.2585
100
AcDbArc
 50
244.7853651812
 51
295.2146348188
  0
ARC
  5
2C5
100
AcDbEntity
  8
0
100
AcDbCircle
 62
7
  6
CONTINUOUS
 10
5.7832069406
 20
3.5215071002
 40
0.125
100
AcDbArc
 50
93.2006734286
 51
115.2146348188
  0
ARC
  5
2C6
100
AcDbEntity
  8
0
100
AcDbCircle
 62
7
  6
CONTINUOUS
 10
6.2660817812
 20
3.9769665559
 40
0.035
100
AcDbArc
 50
200.3069302724
 51
343.0422367
  0
ARC
  5
2C7
100
AcDbEntity
  8
0
100
AcDbCircle
 62
7
  6
CONTINUOUS
 10
5.9950817812
 20
4.0469665559
 40
0.03
100
AcDbArc
 50
180.0
 51
270.0
  0
ARC
  5
2C8
100
AcDbEntity
  8
0
100
AcDbCircle
 62
7
  6
CONTINUOUS
 10
5.9975013827
 20
4.0469665559
 40
0.03
100
AcDbArc
 50
269.9999991318
 51
326.6524271133
  0
ARC
  5
2C9
100
AcDbEntity
  8
0
100
AcDbCircle
 62
7
  6
CONTINUOUS
 10
6.0476224558
 20
4.0139835598
 40
0.03
100
AcDbArc
 50
95.8493864313
 51
146.6524271056
  0
ARC
  5
2CA
100
AcDbEntity
  8
0
100
AcDbCircle
 62
7
  6
CONTINUOUS
 10
5.7748319545
 20
3.6787576046
 40
0.025
100
AcDbArc
 50
0.0
 51
66.3131006371
  0
ARC
  5
2CB
100
AcDbEntity
  8
0
100
AcDbCircle
 62
7
  6
CONTINUOUS
 10
5.7748319545
 20
3.6712731164
 40
0.025
100
AcDbArc
 50
273.2006734286
 51
360.0
  0
ARC
  5
2CC
100
AcDbEntity
  8
0
100
AcDbCircle
 62
7
  6
CONTINUOUS
 10
6.3234729826
 20
3.9594665559
 40
0.025
100
AcDbArc
 50
90.0
 51
163.0422367006
  0
ARC
  5
2CD
100
AcDbEntity
  8
0
100
AcDbCircle
 62
7
  6
CONTINUOUS
 10
6.2098109633
 20
3.9561436104
 40
0.025
100
AcDbArc
 50
20.3069302716
 51
80.7385093404
  0
ARC
  5
2CE
100
AcDbEntity
  8
0
100
AcDbCircle
 62
7
  6
CONTINUOUS
 10
5.7929101826
 20
3.7199665559
 40
0.02
100
AcDbArc
 50
186.0539076486
 51
246.3131006371
  0
ARC
  5
2CF
100
AcDbEntity
  8
0
100
AcDbCircle
 62
7
  6
CONTINUOUS
 10
5.7092490037
 20
3.9649750535
 40
0.02
100
AcDbArc
 50
13.9188002729
 51
88.3297322854
  0
ARC
  5
2D0
100
AcDbEntity
  8
0
100
AcDbCircle
 62
7
  6
CONTINUOUS
 10
5.7048319545
 20
4.0299665559
 40
0.005
100
AcDbArc
 50
0.0
 51
90.0
  0
ARC
  5
2D1
100
AcDbEntity
  8
0
100
AcDbCircle
 62
7
  6
CONTINUOUS
 10
7.321241285
 20
3.5211666734
 40
1.865
100
AcDbArc
 50
166.0811997274
 51
173.9460923514
  0
ARC
  5
2D2
100
AcDbEntity
  8
0
100
AcDbCircle
 62
7
  6
CONTINUOUS
 10
7.3601020423
 20
3.9564665559
 40
0.9425
100
AcDbArc
 50
126.2156939533
 51
141.3169038023
  0
ARC
  5
2D3
100
AcDbEntity
  8
0
100
AcDbCircle
 62
7
  6
CONTINUOUS
 10
7.1001517751
 20
4.2264665559
 40
0.465
100
AcDbArc
 50
210.6423451974
 51
231.168495232
  0
ARC
  5
2D4
100
AcDbEntity
  8
0
100
AcDbCircle
 62
7
  6
CONTINUOUS
 10
7.2770817812
 20
3.9854665559
 40
0.4325
100
AcDbArc
 50
218.5639672484
 51
230.5687770316
  0
ARC
  5
2D5
100
AcDbEntity
  8
0
100
AcDbCircle
 62
7
  6
CONTINUOUS
 10
6.7811854886
 20
3.4551618665
 40
0.29
100
AcDbArc
 50
66.7688319186
 51
80.6823799255
  0
ARC
  5
2D6
100
AcDbEntity
  8
0
100
AcDbCircle
 62
7
  6
CONTINUOUS
 10
6.8434428441
 20
3.8611191781
 40
0.035
100
AcDbArc
 50
180.0
 51
231.0
  0
ARC
  5
2D7
100
AcDbEntity
  8
0
100
AcDbCircle
 62
7
  6
CONTINUOUS
 10
6.5810817812
 20
3.9569665559
 40
0.035
100
AcDbArc
 50
180.0
 51
270.0
  0
ARC
  5
2D8
100
AcDbEntity
  8
0
100
AcDbCircle
 62
7
  6
CONTINUOUS
 10
6.5860817812
 20
3.9569665559
 40
0.035
100
AcDbArc
 50
270.0
 51
357.9555925869
  0
ARC
  5
2D9
100
AcDbEntity
  8
0
100
AcDbCircle
 62
7
  6
CONTINUOUS
 10
6.8329958244
 20
3.7709397775
 40
0.03
100
AcDbArc
 50
187.4326410706
 51
260.6823799255
  0
ARC
  5
2DA
100
AcDbEntity
  8
0
100
AcDbCircle
 62
7
  6
CONTINUOUS
 10
6.9074068798
 20
3.7492165559
 40
0.03
100
AcDbArc
 50
246.7688319186
 51
260.5558594977
  0
ARC
  5
2DB
100
AcDbEntity
  8
0
100
AcDbCircle
 62
7
  6
CONTINUOUS
 10
6.6258372461
 20
3.9967525185
 40
0.03
100
AcDbArc
 50
14.1325726664
 51
80.7367477834
  0
ARC
  5
2DC
100
AcDbEntity
  8
0
100
AcDbCircle
 62
7
  6
CONTINUOUS
 10
6.6820817812
 20
4.0109141665
 40
0.028
100
AcDbArc
 50
194.1325726664
 51
310.0052008849
  0
ARC
  5
2DD
100
AcDbEntity
  8
0
100
AcDbCircle
 62
7
  6
CONTINUOUS
 10
6.9000734317
 20
3.8049665559
 40
0.027
100
AcDbArc
 50
231.0
 51
287.4595175183
  0
ARC
  5
2DE
100
AcDbEntity
  8
0
100
AcDbCircle
 62
7
  6
CONTINUOUS
 10
6.5210817812
 20
3.9594665559
 40
0.025
100
AcDbArc
 50
0.0
 51
90.0
  0
ARC
  5
2DF
100
AcDbEntity
  8
0
100
AcDbCircle
 62
7
  6
CONTINUOUS
 10
6.9057660211
 20
3.7393520953
 40
0.02
100
AcDbArc
 50
260.5558566988
 51
295.9449210844
  0
ARC
  5
2E0
100
AcDbEntity
  8
0
100
AcDbCircle
 62
7
  6
CONTINUOUS
 10
7.0150817812
 20
3.6668566847
 40
0.02
100
AcDbArc
 50
230.5687770316
 51
360.0
  0
ARC
  5
2E1
100
AcDbEntity
  8
0
100
AcDbCircle
 62
7
  6
CONTINUOUS
 10
6.9232662982
 20
3.7033834937
 40
0.02
100
AcDbArc
 50
38.5639672465
 51
115.9449210753
  0
ARC
  5
2E2
100
AcDbEntity
  8
0
100
AcDbCircle
 62
7
  6
CONTINUOUS
 10
6.9141749298
 20
3.7601318846
 40
0.02
100
AcDbArc
 50
46.35730808
 51
107.4595175185
  0
ARC
  5
2E3
100
AcDbEntity
  8
0
100
AcDbCircle
 62
7
  6
CONTINUOUS
 10
6.6360817812
 20
3.9477675725
 40
0.015
100
AcDbArc
 50
180.0
 51
218.6830961969
  0
ARC
  5
2E4
100
AcDbEntity
  8
0
100
AcDbCircle
 62
7
  6
CONTINUOUS
 10
7.0200817812
 20
3.70024898
 40
0.015
100
AcDbArc
 50
221.2685692707
 51
360.0
  0
ARC
  5
2E5
100
AcDbEntity
  8
0
100
AcDbCircle
 62
7
  6
CONTINUOUS
 10
5.7296959795
 20
4.2419665559
 40
0.35
100
AcDbArc
 50
161.180936631
 51
198.819063369
  0
ARC
  5
2E6
100
AcDbEntity
  8
0
100
AcDbCircle
 62
7
  6
CONTINUOUS
 10
5.6198319545
 20
4.6154665559
 40
0.2585
100
AcDbArc
 50
64.7853651812
 51
115.2146348188
  0
ARC
  5
2E7
100
AcDbEntity
  8
0
100
AcDbCircle
 62
7
  6
CONTINUOUS
 10
5.6198319545
 20
4.2419665559
 40
0.2255
100
AcDbArc
 50
221.5034356457
 51
246.629659503
  0
ARC
  5
2E8
100
AcDbEntity
  8
0
100
AcDbCircle
 62
7
  6
CONTINUOUS
 10
5.6198319545
 20
4.2419665559
 40
0.2255
100
AcDbArc
 50
293.370340497
 51
323.066555091
  0
ARC
  5
2E9
100
AcDbEntity
  8
0
100
AcDbCircle
 62
7
  6
CONTINUOUS
 10
5.6198319545
 20
4.2419665559
 40
0.2255
100
AcDbArc
 50
36.933444909
 51
66.629659503
  0
ARC
  5
2EA
100
AcDbEntity
  8
0
100
AcDbCircle
 62
7
  6
CONTINUOUS
 10
5.6198319545
 20
4.2419665559
 40
0.2255
100
AcDbArc
 50
113.370340497
 51
138.4965643543
  0
CIRCLE
  5
2EB
100
AcDbEntity
  8
0
100
AcDbCircle
 62
7
  6
CONTINUOUS
 10
5.6198319545
 20
4.2419665559
 40
0.18
  0
CIRCLE
  5
2EC
100
AcDbEntity
  8
0
100
AcDbCircle
 62
7
  6
CONTINUOUS
 10
5.6198319545
 20
4.2419665559
 40
0.1563958287
  0
ARC
  5
2ED
100
AcDbEntity
  8
0
100
AcDbCircle
 62
7
  6
CONTINUOUS
 10
5.7832069406
 20
4.9624260117
 40
0.125
100
AcDbArc
 50
244.7853651812
 51
266.7993265714
  0
CIRCLE
  5
2EE
100
AcDbEntity
  8
0
100
AcDbCircle
 62
7
  6
CONTINUOUS
 10
5.6198319545
 20
4.2419665559
 40
0.1101236858
  0
ARC
  5
2EF
100
AcDbEntity
  8
0
100
AcDbCircle
 62
7
  6
CONTINUOUS
 10
6.2660817812
 20
4.5069665559
 40
0.035
100
AcDbArc
 50
16.9577633
 51
159.6930697276
  0
ARC
  5
2F0
100
AcDbEntity
  8
0
100
AcDbCircle
 62
7
  6
CONTINUOUS
 10
5.9950817812
 20
4.4369665559
 40
0.03
100
AcDbArc
 50
90.0
 51
180.0
  0
ARC
  5
2F1
100
AcDbEntity
  8
0
100
AcDbCircle
 62
7
  6
CONTINUOUS
 10
5.9975013827
 20
4.4369665559
 40
0.03
100
AcDbArc
 50
33.3475728931
 51
90.0000008876
  0
ARC
  5
2F2
100
AcDbEntity
  8
0
100
AcDbCircle
 62
7
  6
CONTINUOUS
 10
6.0476224558
 20
4.4699495521
 40
0.03
100
AcDbArc
 50
213.3475728854
 51
264.150613569
  0
ARC
  5
2F3
100
AcDbEntity
  8
0
100
AcDbCircle
 62
7
  6
CONTINUOUS
 10
5.7748319545
 20
4.8126599955
 40
0.025
100
AcDbArc
 50
0.0
 51
86.7993265714
  0
ARC
  5
2F4
100
AcDbEntity
  8
0
100
AcDbCircle
 62
7
  6
CONTINUOUS
 10
5.7748319545
 20
4.8051755073
 40
0.025
100
AcDbArc
 50
293.6868993629
 51
360.0
  0
ARC
  5
2F5
100
AcDbEntity
  8
0
100
AcDbCircle
 62
7
  6
CONTINUOUS
 10
6.3234729826
 20
4.5244665559
 40
0.025
100
AcDbArc
 50
196.9577632994
 51
270.0
  0
ARC
  5
2F6
100
AcDbEntity
  8
0
100
AcDbCircle
 62
7
  6
CONTINUOUS
 10
6.2098109633
 20
4.5277895015
 40
0.025
100
AcDbArc
 50
279.2614906596
 51
339.6930697284
  0
ARC
  5
2F7
100
AcDbEntity
  8
0
100
AcDbCircle
 62
7
  6
CONTINUOUS
 10
5.7929101826
 20
4.7639665559
 40
0.02
100
AcDbArc
 50
113.6868993629
 51
173.9460923514
  0
ARC
  5
2F8
100
AcDbEntity
  8
0
100
AcDbCircle
 62
7
  6
CONTINUOUS
 10
5.7092490037
 20
4.5189580583
 40
0.02
100
AcDbArc
 50
271.6702677146
 51
346.0811997271
  0
ARC
  5
2F9
100
AcDbEntity
  8
0
100
AcDbCircle
 62
7
  6
CONTINUOUS
 10
5.7048319545
 20
4.4539665559
 40
0.005
100
AcDbArc
 50
270.0
 51
360.0
  0
ARC
  5
2FA
100
AcDbEntity
  8
0
100
AcDbCircle
 62
7
  6
CONTINUOUS
 10
6.271781865
 20
6.6579972685
 40
2.2295
100
AcDbArc
 50
264.150613569
 51
279.2632522166
  0
ARC
  5
2FB
100
AcDbEntity
  8
0
100
AcDbCircle
 62
7
  6
CONTINUOUS
 10
6.0204190983
 20
5.6609380975
 40
1.315
100
AcDbArc
 50
313.6426919198
 51
318.7314307292
  0
ARC
  5
2FC
100
AcDbEntity
  8
0
100
AcDbCircle
 62
7
  6
CONTINUOUS
 10
7.321241285
 20
4.9627664384
 40
1.865
100
AcDbArc
 50
186.0539076486
 51
193.9188002726
  0
ARC
  5
2FD
100
AcDbEntity
  8
0
100
AcDbCircle
 62
7
  6
CONTINUOUS
 10
7.3601020423
 20
4.5274665559
 40
0.9425
100
AcDbArc
 50
218.6830961977
 51
233.7843060467
  0
ARC
  5
2FE
100
AcDbEntity
  8
0
100
AcDbCircle
 62
7
  6
CONTINUOUS
 10
7.1001517751
 20
4.2574665559
 40
0.465
100
AcDbArc
 50
128.831504768
 51
149.3576548026
  0
ARC
  5
2FF
100
AcDbEntity
  8
0
100
AcDbCircle
 62
7
  6
CONTINUOUS
 10
7.2770817812
 20
4.4984665559
 40
0.4325
100
AcDbArc
 50
129.4312229684
 51
141.4360327516
  0
ARC
  5
300
100
AcDbEntity
  8
0
100
AcDbCircle
 62
7
  6
CONTINUOUS
 10
6.7811854886
 20
5.0287712454
 40
0.29
100
AcDbArc
 50
279.3176200745
 51
293.2311680814
  0
ARC
  5
301
100
AcDbEntity
  8
0
100
AcDbCircle
 62
7
  6
CONTINUOUS
 10
6.8434428441
 20
4.6228139337
 40
0.035
100
AcDbArc
 50
129.0
 51
180.0
  0
ARC
  5
302
100
AcDbEntity
  8
0
100
AcDbCircle
 62
7
  6
CONTINUOUS
 10
6.5810817812
 20
4.5269665559
 40
0.035
100
AcDbArc
 50
90.0
 51
180.0
  0
ARC
  5
303
100
AcDbEntity
  8
0
100
AcDbCircle
 62
7
  6
CONTINUOUS
 10
6.5860817812
 20
4.5269665559
 40
0.035
100
AcDbArc
 50
2.0444074131
 51
90.0
  0
ARC
  5
304
100
AcDbEntity
  8
0
100
AcDbCircle
 62
7
  6
CONTINUOUS
 10
6.8329958244
 20
4.7129933343
 40
0.03
100
AcDbArc
 50
99.3176200745
 51
172.5673589294
  0
ARC
  5
305
100
AcDbEntity
  8
0
100
AcDbCircle
 62
7
  6
CONTINUOUS
 10
6.9074068798
 20
4.7347165559
 40
0.03
100
AcDbArc
 50
99.4441405023
 51
113.2311680814
  0
ARC
  5
306
100
AcDbEntity
  8
0
100
AcDbCircle
 62
7
  6
CONTINUOUS
 10
6.6258372461
 20
4.4871805933
 40
0.03
100
AcDbArc
 50
279.2632522166
 51
345.8674273336
  0
ARC
  5
307
100
AcDbEntity
  8
0
100
AcDbCircle
 62
7
  6
CONTINUOUS
 10
6.6820817812
 20
4.4730189453
 40
0.028
100
AcDbArc
 50
49.9947991151
 51
165.8674273336
  0
ARC
  5
308
100
AcDbEntity
  8
0
100
AcDbCircle
 62
7
  6
CONTINUOUS
 10
6.9000734317
 20
4.6789665559
 40
0.027
100
AcDbArc
 50
72.5404824817
 51
129.0
  0
ARC
  5
309
100
AcDbEntity
  8
0
100
AcDbCircle
 62
7
  6
CONTINUOUS
 10
6.5210817812
 20
4.5244665559
 40
0.025
100
AcDbArc
 50
270.0
 51
360.0
  0
ARC
  5
30A
100
AcDbEntity
  8
0
100
AcDbCircle
 62
7
  6
CONTINUOUS
 10
6.9057660212
 20
4.7445810165
 40
0.02
100
AcDbArc
 50
64.0550789466
 51
99.4441433646
  0
ARC
  5
30B
100
AcDbEntity
  8
0
100
AcDbCircle
 62
7
  6
CONTINUOUS
 10
7.0150817812
 20
4.8170764271
 40
0.02
100
AcDbArc
 50
0.0
 51
129.4312229684
  0
ARC
  5
30C
100
AcDbEntity
  8
0
100
AcDbCircle
 62
7
  6
CONTINUOUS
 10
6.9232662982
 20
4.7805496181
 40
0.02
100
AcDbArc
 50
244.0550789371
 51
321.4360327518
  0
ARC
  5
30D
100
AcDbEntity
  8
0
100
AcDbCircle
 62
7
  6
CONTINUOUS
 10
6.9141749298
 20
4.7238012272
 40
0.02
100
AcDbArc
 50
252.5404824815
 51
313.64269192
  0
ARC
  5
30E
100
AcDbEntity
  8
0
100
AcDbCircle
 62
7
  6
CONTINUOUS
 10
6.6360817812
 20
4.5361655394
 40
0.015
100
AcDbArc
 50
141.3169038031
 51
180.0
  0
ARC
  5
30F
100
AcDbEntity
  8
0
100
AcDbCircle
 62
7
  6
CONTINUOUS
 10
7.0200817812
 20
4.7836841318
 40
0.015
100
AcDbArc
 50
0.0
 51
138.7314307293
  0
SPLINE
  5
310
100
AcDbEntity
  8
ALL_FEATURES
100
AcDbSpline
 62
7
  6
CONTINUOUS
 70
0
 71
3
 72
15
 73
11
 74
0
 42
0.0000001
 43
0.0000001
 44
0.0000000001
 40
0.0
 40
0.0
 40
0.0
 40
0.0
 40
0.1250014552
 40
0.2500059307
 40
0.375007471
 40
0.5
 40
0.624992529
 40
0.7499940693
 40
0.8749985448
 40
1.0
 40
1.0
 40
1.0
 40
1.0
 10
4.0436253931
 20
3.9421421866
 30
0.0
 10
4.0279357465
 20
3.9377214305
 30
0.0
 10
3.9969071619
 20
3.9275759936
 30
0.0
 10
3.9517787747
 20
3.9086049213
 30
0.0
 10
3.9083455231
 20
3.8860165017
 30
0.0
 10
3.8669074484
 20
3.8599503045
 30
0.0
 10
3.8277656814
 20
3.8305482172
 30
0.0
 10
3.7911602619
 20
3.7980408747
 30
0.0
 10
3.7573286762
 20
3.7626587222
 30
0.0
 10
3.7367747251
 20
3.7372965841
 30
0.0
 10
3.7270441512
 20
3.7242189686
 30
0.0
  0
SPLINE
  5
311
100
AcDbEntity
  8
ALL_FEATURES
100
AcDbSpline
 62
7
  6
CONTINUOUS
 70
0
 71
3
 72
11
 73
7
 74
0
 42
0.0000001
 43
0.0000001
 44
0.0000000001
 40
0.0
 40
0.0
 40
0.0
 40
0.0
 40
0.2499987121
 40
0.5
 40
0.7500012879
 40
1.0
 40
1.0
 40
1.0
 40
1.0
 10
4.431540891
 20
4.4540131335
 30
0.0
 10
4.3800537965
 20
4.4480794755
 30
0.0
 10
4.2775060889
 20
4.4321075786
 30
0.0
 10
4.1260853999
 20
4.3961171988
 30
0.0
 10
3.9779562387
 20
4.3483544087
 30
0.0
 10
3.8819954248
 20
4.3088239646
 30
0.0
 10
3.8348971171
 20
4.2871934628
 30
0.0
  0
SPLINE
  5
312
100
AcDbEntity
  8
ALL_FEATURES
100
AcDbSpline
 62
7
  6
CONTINUOUS
 70
0
 71
3
 72
13
 73
9
 74
0
 42
0.0000001
 43
0.0000001
 44
0.0000000001
 40
0.0
 40
0.0
 40
0.0
 40
0.0
 40
0.1250308484
 40
0.250062704
 40
0.5
 40
0.749937296
 40
0.8749691516
 40
1.0
 40
1.0
 40
1.0
 40
1.0
 10
3.760287037
 20
4.2491050175
 30
0.0
 10
3.7420061464
 20
4.2387954093
 30
0.0
 10
3.7060791061
 20
4.2170234246
 30
0.0
 10
3.6371127552
 20
4.1691180987
 30
0.0
 10
3.5566781293
 20
4.1013334456
 30
0.0
 10
3.4853429134
 20
4.0240303072
 30
0.0
 10
3.4343829143
 20
3.9572893431
 30
0.0
 10
3.4110164164
 20
3.9223783373
 30
0.0
 10
3.3998946876
 20
3.9045798507
 30
0.0
  0
SPLINE
  5
313
100
AcDbEntity
  8
ALL_FEATURES
100
AcDbSpline
 62
7
  6
CONTINUOUS
 70
0
 71
3
 72
26
 73
22
 74
0
 42
0.0000001
 43
0.0000001
 44
0.0000000001
 40
0.0
 40
0.0
 40
0.0
 40
0.0
 40
0.0048502458
 40
0.0191984618
 40
0.0427411518
 40
0.075175215
 40
0.1161689431
 40
0.1652745001
 40
0.2220181901
 40
0.2859401665
 40
0.3565622179
 40
0.4333179824
 40
0.5156416279
 40
0.6030519061
 40
0.6951190139
 40
0.7428022291
 40
0.7915813501
 40
0.8414907187
 40
0.892630021
 40
0.9452328331
 40
1.0
 40
1.0
 40
1.0
 40
1.0
 10
4.5188013094
 20
4.4621073934
 30
0.0
 10
4.5188974931
 20
4.4617466621
 30
0.0
 10
4.5192766718
 20
4.4603183911
 30
0.0
 10
4.5201093698
 20
4.4571356296
 30
0.0
 10
4.5214625049
 20
4.4518944125
 30
0.0
 10
4.523300671
 20
4.4446602497
 30
0.0
 10
4.5255901753
 20
4.435510694
 30
0.0
 10
4.5283270583
 20
4.4245442444
 30
0.0
 10
4.5315030995
 20
4.411868423
 30
0.0
 10
4.5351180152
 20
4.3975952361
 30
0.0
 10
4.539170056
 20
4.3818438202
 30
0.0
 10
4.5436817701
 20
4.3647484021
 30
0.0
 10
4.5486758723
 20
4.3464442986
 30
0.0
 10
4.554216707
 20
4.3270690544
 30
0.0
 10
4.559286275
 20
4.3103338898
 30
0.0
 10
4.5637207405
 20
4.2965161598
 30
0.0
 10
4.5673121918
 20
4.2858369335
 30
0.0
 10
4.5711692756
 20
4.2749677679
 30
0.0
 10
4.5753592663
 20
4.2639069315
 30
0.0
 10
4.5799709465
 20
4.252609226
 30
0.0
 10
4.5834199041
 20
4.2450942137
 30
0.0
 10
4.5852817812
 20
4.2413121202
 30
0.0
  0
SPLINE
  5
314
100
AcDbEntity
  8
ALL_FEATURES
100
AcDbSpline
 62
7
  6
CONTINUOUS
 70
0
 71
3
 72
19
 73
15
 74
0
 42
0.0000001
 43
0.0000001
 44
0.0000000001
 40
0.0
 40
0.0
 40
0.0
 40
0.0
 40
0.0745645394
 40
0.1107890146
 40
0.1464665249
 40
0.1817048246
 40
0.2165583814
 40
0.2851811168
 40
0.4184475639
 40
0.5465875118
 40
0.6693518688
 40
0.7862368867
 40
0.8966678634
 40
1.0
 40
1.0
 40
1.0
 40
1.0
 10
4.5852817812
 20
4.2413121202
 30
0.0
 10
4.5869902898
 20
4.2378415692
 30
0.0
 10
4.5894001517
 20
4.2326207343
 30
0.0
 10
4.5923744921
 20
4.2256284131
 30
0.0
 10
4.5944650479
 20
4.2204780009
 30
0.0
 10
4.5964641755
 20
4.2153678602
 30
0.0
 10
4.599013761
 20
4.208638203
 30
0.0
 10
4.6031904656
 20
4.1970875813
 30
0.0
 10
4.6086234182
 20
4.1808485485
 30
0.0
 10
4.6145271332
 20
4.1618117948
 30
0.0
 10
4.619895684
 20
4.1435016436
 30
0.0
 10
4.6247967256
 20
4.1260134472
 30
0.0
 10
4.6292770387
 20
4.1094551892
 30
0.0
 10
4.6321059399
 20
4.0987322989
 30
0.0
 10
4.6334606366
 20
4.0935455762
 30
0.0
  0
LINE
  5
315
100
AcDbEntity
  8
ALL_FEATURES
100
AcDbLine
 62
7
  6
CONTINUOUS
 10
4.6334606366
 20
4.0935455762
 11
4.6531596951
 21
4.0169665559
  0
SPLINE
  5
316
100
AcDbEntity
  8
ALL_FEATURES
100
AcDbSpline
 62
7
  6
CONTINUOUS
 70
0
 71
3
 72
9
 73
5
 74
0
 42
0.0000001
 43
0.0000001
 44
0.0000000001
 40
0.0
 40
0.0
 40
0.0
 40
0.0
 40
0.2491720963
 40
1.0
 40
1.0
 40
1.0
 40
1.0
 10
4.5852817812
 20
4.2413121202
 30
0.0
 10
4.578777275
 20
4.2413041755
 30
0.0
 10
4.5526730915
 20
4.2411639619
 30
0.0
 10
4.5265709419
 20
4.2405785841
 30
0.0
 10
4.5069838029
 20
4.2398691878
 30
0.0
  0
SPLINE
  5
317
100
AcDbEntity
  8
ALL_FEATURES
100
AcDbSpline
 62
7
  6
CONTINUOUS
 70
0
 71
3
 72
26
 73
22
 74
0
 42
0.0000001
 43
0.0000001
 44
0.0000000001
 40
0.0
 40
0.0
 40
0.0
 40
0.0
 40
0.0545567653
 40
0.106729599
 40
0.1573624711
 40
0.2067463971
 40
0.2550137051
 40
0.3022191692
 40
0.3934866999
 40
0.4803455124
 40
0.5623747318
 40
0.6390879956
 40
0.70989843
 40
0.774210246
 40
0.8314990684
 40
0.8812540327
 40
0.9229478242
 40
0.9560730011
 40
0.9802166708
 40
0.9949890765
 40
1.0
 40
1.0
 40
1.0
 40
1.0
 10
4.5069838029
 20
4.2398691878
 30
0.0
 10
4.5091071861
 20
4.2361271838
 30
0.0
 10
4.5130506357
 20
4.2286856564
 30
0.0
 10
4.5183506953
 20
4.2174618231
 30
0.0
 10
4.523173066
 20
4.2064699071
 30
0.0
 10
4.5276233059
 20
4.1956548356
 30
0.0
 10
4.5317779368
 20
4.1850127959
 30
0.0
 10
4.5369244777
 20
4.1712140819
 30
0.0
 10
4.5428345242
 20
4.1544539603
 30
0.0
 10
4.5493267977
 20
4.1349910271
 30
0.0
 10
4.5552118754
 20
4.1165375926
 30
0.0
 10
4.5605570126
 20
4.099241401
 30
0.0
 10
4.5653826796
 20
4.0832475957
 30
0.0
 10
4.5697082651
 20
4.0687031564
 30
0.0
 10
4.573526081
 20
4.055740134
 30
0.0
 10
4.5768296719
 20
4.0444851465
 30
0.0
 10
4.5796036247
 20
4.0350606845
 30
0.0
 10
4.5818366863
 20
4.0275825086
 30
0.0
 10
4.5834845283
 20
4.0221453681
 30
0.0
 10
4.5845007033
 20
4.0188335564
 30
0.0
 10
4.5849640034
 20
4.0173437709
 30
0.0
 10
4.5850817812
 20
4.0169665559
 30
0.0
  0
SPLINE
  5
318
100
AcDbEntity
  8
ALL_FEATURES
100
AcDbSpline
 62
7
  6
CONTINUOUS
 70
0
 71
3
 72
26
 73
22
 74
0
 42
0.0000001
 43
0.0000001
 44
0.0000000001
 40
0.0
 40
0.0
 40
0.0
 40
0.0
 40
0.0047605435
 40
0.0188499038
 40
0.0419800529
 40
0.0738634826
 40
0.1141886342
 40
0.1625455221
 40
0.2185034544
 40
0.2816488705
 40
0.3515542096
 40
0.4277177231
 40
0.5096471024
 40
0.5969548302
 40
0.6893216646
 40
0.7373544706
 40
0.7866545833
 40
0.8372937003
 40
0.8894240087
 40
0.9433623777
 40
1.0
 40
1.0
 40
1.0
 40
1.0
 10
4.431540891
 20
4.4540131335
 30
0.0
 10
4.4316487314
 20
4.4536687074
 30
0.0
 10
4.4320740328
 20
4.4523043831
 30
0.0
 10
4.4330085131
 20
4.4492619959
 30
0.0
 10
4.434527973
 20
4.4442482345
 30
0.0
 10
4.4365936927
 20
4.4373217169
 30
0.0
 10
4.4391691986
 20
4.4285515677
 30
0.0
 10
4.4422510637
 20
4.4180278918
 30
0.0
 10
4.4458316491
 20
4.405847514
 30
0.0
 10
4.4499123055
 20
4.3921113968
 30
0.0
 10
4.4544931794
 20
4.3769259448
 30
0.0
 10
4.4596014996
 20
4.3604124899
 30
0.0
 10
4.4652656384
 20
4.3426905513
 30
0.0
 10
4.4715607461
 20
4.3238822682
 30
0.0
 10
4.4773236799
 20
4.3076078262
 30
0.0
 10
4.482368878
 20
4.2941395552
 30
0.0
 10
4.4864641351
 20
4.2836949431
 30
0.0
 10
4.4908668046
 20
4.2730388927
 30
0.0
 10
4.4956543375
 20
4.2621644042
 30
0.0
 10
4.5009334894
 20
4.2510133351
 30
0.0
 10
4.5048646569
 20
4.2436037244
 30
0.0
 10
4.5069838029
 20
4.2398691878
 30
0.0
  0
SPLINE
  5
319
100
AcDbEntity
  8
ALL_FEATURES
100
AcDbSpline
 62
7
  6
CONTINUOUS
 70
0
 71
3
 72
28
 73
24
 74
0
 42
0.0000001
 43
0.0000001
 44
0.0000000001
 40
0.0
 40
0.0
 40
0.0
 40
0.0
 40
0.0339533569
 40
0.0659979136
 40
0.0964793804
 40
0.1257358098
 40
0.1815577457
 40
0.2344087648
 40
0.2848288434
 40
0.3331593637
 40
0.4244680606
 40
0.5093607268
 40
0.5881539901
 40
0.660961514
 40
0.7276153992
 40
0.7878613895
 40
0.8413927511
 40
0.8878774131
 40
0.9269356155
 40
0.9581596858
 40
0.9810743166
 40
0.99518599
 40
1.0
 40
1.0
 40
1.0
 40
1.0
 10
3.9646735467
 20
4.1265557121
 30
0.0
 10
3.9666093502
 20
4.1249845803
 30
0.0
 10
3.9703349248
 20
4.1218844368
 30
0.0
 10
3.9756697111
 20
4.1172221886
 30
0.0
 10
3.9806455761
 20
4.1126759987
 30
0.0
 10
3.9868013037
 20
4.1068352414
 30
0.0
 10
3.9939988445
 20
4.0997078863
 30
0.0
 10
4.0020855704
 20
4.0912759439
 30
0.0
 10
4.0096192823
 20
4.0830796877
 30
0.0
 10
4.0188731857
 20
4.0726323803
 30
0.0
 10
4.0295289772
 20
4.0600488409
 30
0.0
 10
4.041310817
 20
4.0454949933
 30
0.0
 10
4.0519982592
 20
4.0318071263
 30
0.0
 10
4.0617095051
 20
4.0190581126
 30
0.0
 10
4.0704918415
 20
4.007314435
 30
0.0
 10
4.0783737974
 20
3.9966651768
 30
0.0
 10
4.0853456885
 20
3.987184958
 30
0.0
 10
4.0913918759
 20
3.9789551929
 30
0.0
 10
4.0964819982
 20
3.9720555345
 30
0.0
 10
4.1005812437
 20
3.9665757443
 30
0.0
 10
4.1036102574
 20
3.9625831531
 30
0.0
 10
4.1054809526
 20
3.960146033
 30
0.0
 10
4.1063338247
 20
3.9590488361
 30
0.0
 10
4.1065512755
 20
3.9587701454
 30
0.0
  0
SPLINE
  5
31A
100
AcDbEntity
  8
ALL_FEATURES
100
AcDbSpline
 62
7
  6
CONTINUOUS
 70
0
 71
3
 72
15
 73
11
 74
0
 42
0.0000001
 43
0.0000001
 44
0.0000000001
 40
0.0
 40
0.0
 40
0.0
 40
0.0
 40
0.1254393318
 40
0.2512323634
 40
0.377059872
 40
0.5026582321
 40
0.6278289183
 40
0.7524492781
 40
0.8764844391
 40
1.0
 40
1.0
 40
1.0
 40
1.0
 10
4.5069838029
 20
4.2398691878
 30
0.0
 10
4.4836917314
 20
4.2390256082
 30
0.0
 10
4.4370652148
 20
4.2365716039
 30
0.0
 10
4.367263572
 20
4.2303793878
 30
0.0
 10
4.2977268748
 20
4.2214356902
 30
0.0
 10
4.2287527583
 20
4.2095084307
 30
0.0
 10
4.1606377835
 20
4.1943647493
 30
0.0
 10
4.0936776296
 20
4.1757700593
 30
0.0
 10
4.0281730815
 20
4.1534906455
 30
0.0
 10
3.9855943479
 20
4.1359906343
 30
0.0
 10
3.9646735467
 20
4.1265557121
 30
0.0
  0
SPLINE
  5
31B
100
AcDbEntity
  8
ALL_FEATURES
100
AcDbSpline
 62
7
  6
CONTINUOUS
 70
0
 71
3
 72
27
 73
23
 74
0
 42
0.0000001
 43
0.0000001
 44
0.0000000001
 40
0.0
 40
0.0
 40
0.0
 40
0.0
 40
0.0698794109
 40
0.1019055455
 40
0.1325025444
 40
0.1905350365
 40
0.2450668905
 40
0.2967322592
 40
0.3459414773
 40
0.4381289147
 40
0.522984905
 40
0.6010530163
 40
0.6726467432
 40
0.7377569924
 40
0.7962727399
 40
0.84800791
 40
0.8927437253
 40
0.9302062551
 40
0.9600841801
 40
0.9819671947
 40
0.9954185664
 40
1.0
 40
1.0
 40
1.0
 40
1.0
 10
3.8984065488
 20
4.0936767046
 30
0.0
 10
3.9023473981
 20
4.0907652263
 30
0.0
 10
3.9080032754
 20
4.0863939014
 30
0.0
 10
3.9151716036
 20
4.080483159
 30
0.0
 10
3.9216050905
 20
4.0749889649
 30
0.0
 10
3.9291101044
 20
4.0683212511
 30
0.0
 10
3.9375339531
 20
4.0604689294
 30
0.0
 10
3.9453566215
 20
4.0528824883
 30
0.0
 10
3.9549103644
 20
4.0432915908
 30
0.0
 10
3.9658699434
 20
4.0318194209
 30
0.0
 10
3.9779534632
 20
4.0186290546
 30
0.0
 10
3.9888566526
 20
4.0063193541
 30
0.0
 10
3.9987141398
 20
3.9949346554
 30
0.0
 10
4.0075888207
 20
3.9845131989
 30
0.0
 10
4.0155205598
 20
3.9751178792
 30
0.0
 10
4.0225110139
 20
3.9667975537
 30
0.0
 10
4.0285539344
 20
3.9596091795
 30
0.0
 10
4.0336279294
 20
3.953608391
 30
0.0
 10
4.0377044844
 20
3.948862804
 30
0.0
 10
4.0407113274
 20
3.9454180225
 30
0.0
 10
4.0425657435
 20
3.9433217496
 30
0.0
 10
4.0434103058
 20
3.9423807857
 30
0.0
 10
4.0436253931
 20
3.9421421866
 30
0.0
  0
SPLINE
  5
31C
100
AcDbEntity
  8
ALL_FEATURES
100
AcDbSpline
 62
7
  6
CONTINUOUS
 70
0
 71
3
 72
27
 73
23
 74
0
 42
0.0000001
 43
0.0000001
 44
0.0000000001
 40
0.0
 40
0.0
 40
0.0
 40
0.0
 40
0.0044158662
 40
0.0174379485
 40
0.0679493458
 40
0.1047799358
 40
0.1489610327
 40
0.2002620256
 40
0.25850343
 40
0.3235339575
 40
0.3952576182
 40
0.4736738974
 40
0.5590847772
 40
0.6520163263
 40
0.701650987
 40
0.7537561843
 40
0.8087211822
 40
0.8671471528
 40
0.897912817
 40
0.9300668418
 40
0.9639721685
 40
1.0
 40
1.0
 40
1.0
 40
1.0
 10
3.8348971171
 20
4.2871934628
 30
0.0
 10
3.835069073
 20
4.2869413514
 30
0.0
 10
3.835746902
 20
4.2859449572
 30
0.0
 10
3.8383723823
 20
4.2820516682
 30
0.0
 10
3.8422112839
 20
4.276274888
 30
0.0
 10
3.8472013347
 20
4.2686779389
 30
0.0
 10
3.8522334572
 20
4.2610433302
 30
0.0
 10
3.8581202501
 20
4.2521999691
 30
0.0
 10
3.8648818598
 20
4.2422083842
 30
0.0
 10
3.8725438312
 20
4.2311225059
 30
0.0
 10
3.881170631
 20
4.2190101112
 30
0.0
 10
3.89084461
 20
4.2059167525
 30
0.0
 10
3.9017207523
 20
4.1918945484
 30
0.0
 10
3.9117209642
 20
4.1797164866
 30
0.0
 10
3.9205291668
 20
4.1695465936
 30
0.0
 10
3.9277906869
 20
4.1615111652
 30
0.0
 10
3.9356586207
 20
4.1532087813
 30
0.0
 10
3.9427125417
 20
4.1461716395
 30
0.0
 10
3.9487824952
 20
4.1403850246
 30
0.0
 10
3.9537161814
 20
4.1358639589
 30
0.0
 10
3.9590254515
 20
4.1312170684
 30
0.0
 10
3.9627403458
 20
4.1281247316
 30
0.0
 10
3.9646735467
 20
4.1265557121
 30
0.0
  0
SPLINE
  5
31D
100
AcDbEntity
  8
ALL_FEATURES
100
AcDbSpline
 62
7
  6
CONTINUOUS
 70
0
 71
3
 72
26
 73
22
 74
0
 42
0.0000001
 43
0.0000001
 44
0.0000000001
 40
0.0
 40
0.0
 40
0.0
 40
0.0
 40
0.0846875259
 40
0.1575850614
 40
0.2230187402
 40
0.2827986766
 40
0.3380170904
 40
0.3894118894
 40
0.4828990046
 40
0.5660883195
 40
0.64045389
 40
0.7071002152
 40
0.766590026
 40
0.8192989385
 40
0.8653962422
 40
0.90497541
 40
0.9380323212
 40
0.9644691509
 40
0.9839085482
 40
0.9959020532
 40
1.0
 40
1.0
 40
1.0
 40
1.0
 10
3.5606066342
 20
3.8094622641
 30
0.0
 10
3.5654411038
 20
3.8073385789
 30
0.0
 10
3.5744074627
 20
3.8033189507
 30
0.0
 10
3.587004692
 20
3.7974298589
 30
0.0
 10
3.5981396123
 20
3.7920819013
 30
0.0
 10
3.6082349392
 20
3.7871167449
 30
0.0
 10
3.6175084613
 20
3.7824648803
 30
0.0
 10
3.6286216125
 20
3.7767937412
 30
0.0
 10
3.6412348105
 20
3.7702259501
 30
0.0
 10
3.6550601683
 20
3.7628862668
 30
0.0
 10
3.6673669013
 20
3.756255797
 30
0.0
 10
3.6783530683
 20
3.7502899348
 30
0.0
 10
3.6881435792
 20
3.7449519066
 30
0.0
 10
3.6968118354
 20
3.7402320922
 30
0.0
 10
3.704396528
 20
3.7361183245
 30
0.0
 10
3.7109152373
 20
3.7326093008
 30
0.0
 10
3.7163681608
 20
3.7297066956
 30
0.0
 10
3.7207297977
 20
3.7274266912
 30
0.0
 10
3.7239397395
 20
3.7257787203
 30
0.0
 10
3.7259167926
 20
3.7247790736
 30
0.0
 10
3.7268151448
 20
3.7243322934
 30
0.0
 10
3.7270441512
 20
3.7242189686
 30
0.0
  0
SPLINE
  5
31E
100
AcDbEntity
  8
ALL_FEATURES
100
AcDbSpline
 62
7
  6
CONTINUOUS
 70
0
 71
3
 72
25
 73
21
 74
0
 42
0.0000001
 43
0.0000001
 44
0.0000000001
 40
0.0
 40
0.0
 40
0.0
 40
0.0
 40
0.0843604663
 40
0.1569140179
 40
0.2220176639
 40
0.2814931018
 40
0.3875952116
 40
0.4807200769
 40
0.5636984033
 40
0.6379944432
 40
0.7046996077
 40
0.7643583474
 40
0.8173255482
 40
0.8637452326
 40
0.903684161
 40
0.9371104151
 40
0.9638965849
 40
0.9836301786
 40
0.9958265111
 40
1.0
 40
1.0
 40
1.0
 40
1.0
 10
3.5411868496
 20
3.7850161493
 30
0.0
 10
3.5460858265
 20
3.7829355026
 30
0.0
 10
3.5551723083
 20
3.7790040528
 30
0.0
 10
3.5679480175
 20
3.7732592014
 30
0.0
 10
3.5792429342
 20
3.7680513303
 30
0.0
 10
3.5924081513
 20
3.7618459452
 30
0.0
 10
3.6070989792
 20
3.7547320272
 30
0.0
 10
3.6230414514
 20
3.746803387
 30
0.0
 10
3.6371350864
 20
3.7396648268
 30
0.0
 10
3.6497049481
 20
3.7332075366
 30
0.0
 10
3.6609477541
 20
3.7273870375
 30
0.0
 10
3.670986593
 20
3.7221680216
 30
0.0
 10
3.6798912652
 20
3.7175420662
 30
0.0
 10
3.6876969583
 20
3.7134994891
 30
0.0
 10
3.6944169373
 20
3.7100414406
 30
0.0
 10
3.7000468487
 20
3.7071723654
 30
0.0
 10
3.7045555977
 20
3.7049110826
 30
0.0
 10
3.7078774454
 20
3.7032712437
 30
0.0
 10
3.7099252818
 20
3.7022737198
 30
0.0
 10
3.7108563289
 20
3.7018266719
 30
0.0
 10
3.7110938928
 20
3.7017130987
 30
0.0
  0
SPLINE
  5
31F
100
AcDbEntity
  8
ALL_FEATURES
100
AcDbSpline
 62
7
  6
CONTINUOUS
 70
0
 71
3
 72
26
 73
22
 74
0
 42
0.0000001
 43
0.0000001
 44
0.0000000001
 40
0.0
 40
0.0
 40
0.0
 40
0.0
 40
0.0045365369
 40
0.017870443
 40
0.0692772653
 40
0.1065462266
 40
0.1510908484
 40
0.2026426286
 40
0.2609891269
 40
0.3259523756
 40
0.3974289324
 40
0.4754227072
 40
0.5602665876
 40
0.6525371111
 40
0.7018387755
 40
0.7536409433
 40
0.8083652831
 40
0.8666608561
 40
0.8974220067
 40
0.9296389048
 40
1.0
 40
1.0
 40
1.0
 40
1.0
 10
3.760287037
 20
4.2491050175
 30
0.0
 10
3.7604752931
 20
4.2488515773
 30
0.0
 10
3.7612158975
 20
4.2478524938
 30
0.0
 10
3.7640742919
 20
4.24397004
 30
0.0
 10
3.7682516026
 20
4.238229971
 30
0.0
 10
3.7736740179
 20
4.2307099062
 30
0.0
 10
3.7791190932
 20
4.2231937428
 30
0.0
 10
3.7854697639
 20
4.2145224265
 30
0.0
 10
3.7927410072
 20
4.2047644095
 30
0.0
 10
3.8009547209
 20
4.1939801258
 30
0.0
 10
3.8101722235
 20
4.1822433481
 30
0.0
 10
3.8204763058
 20
4.1696033974
 30
0.0
 10
3.8320242478
 20
4.1561162147
 30
0.0
 10
3.8426119671
 20
4.1444425806
 30
0.0
 10
3.8519160436
 20
4.1347185418
 30
0.0
 10
3.8595785468
 20
4.1270433454
 30
0.0
 10
3.8678736051
 20
4.1191193467
 30
0.0
 10
3.8752991689
 20
4.1124101805
 30
0.0
 10
3.8816860423
 20
4.1068926206
 30
0.0
 10
3.888822724
 20
4.1009610787
 30
0.0
 10
3.8944681843
 20
4.0965863472
 30
0.0
 10
3.8984065488
 20
4.0936767046
 30
0.0
  0
SPLINE
  5
320
100
AcDbEntity
  8
ALL_FEATURES
100
AcDbSpline
 62
7
  6
CONTINUOUS
 70
0
 71
3
 72
14
 73
10
 74
0
 42
0.0000001
 43
0.0000001
 44
0.0000000001
 40
0.0
 40
0.0
 40
0.0
 40
0.0
 40
0.1250364303
 40
0.2500464532
 40
0.3750750811
 40
0.5001360918
 40
0.6252151912
 40
0.7502731741
 40
1.0
 40
1.0
 40
1.0
 40
1.0
 10
3.8984065488
 20
4.0936767046
 30
0.0
 10
3.882137625
 20
4.0848424727
 30
0.0
 10
3.8500805246
 20
4.0662812906
 30
0.0
 10
3.8035444409
 20
4.0359338272
 30
0.0
 10
3.7586239019
 20
4.0032358197
 30
0.0
 10
3.7153793738
 20
3.9683388929
 30
0.0
 10
3.6738666836
 20
3.9313907244
 30
0.0
 10
3.6209424516
 20
3.8796303748
 30
0.0
 10
3.5839623557
 20
3.8381259198
 30
0.0
 10
3.5606066342
 20
3.8094622641
 30
0.0
  0
SPLINE
  5
321
100
AcDbEntity
  8
ALL_FEATURES
100
AcDbSpline
 62
7
  6
CONTINUOUS
 70
0
 71
3
 72
20
 73
16
 74
0
 42
0.0000001
 43
0.0000001
 44
0.0000000001
 40
0.0
 40
0.0
 40
0.0
 40
0.0
 40
0.017531762
 40
0.0680288816
 40
0.1046560268
 40
0.1484252553
 40
0.1992533335
 40
0.2571051199
 40
0.394087877
 40
0.4734838798
 40
0.5605503371
 40
0.6557160082
 40
0.759861507
 40
0.8740941676
 40
1.0
 40
1.0
 40
1.0
 40
1.0
 10
3.3998946876
 20
3.9045798507
 30
0.0
 10
3.4004446768
 20
3.9041800765
 30
0.0
 10
3.4025787766
 20
3.9026287752
 30
0.0
 10
3.4058616404
 20
3.9002419029
 30
0.0
 10
3.4099669601
 20
3.8972558625
 30
0.0
 10
3.4140837675
 20
3.8942637903
 30
0.0
 10
3.4188795589
 20
3.8908058544
 30
0.0
 10
3.4266381051
 20
3.8852760326
 30
0.0
 10
3.4353707787
 20
3.879204251
 30
0.0
 10
3.4451281257
 20
3.872624283
 30
0.0
 10
3.4536086579
 20
3.8670527948
 30
0.0
 10
3.462971023
 20
3.8610770311
 30
0.0
 10
3.4733222466
 20
3.8546946767
 30
0.0
 10
3.4848057886
 20
3.8478807205
 30
0.0
 10
3.4929024052
 20
3.843276939
 30
0.0
 10
3.4971705825
 20
3.8409049678
 30
0.0
  0
LINE
  5
322
100
AcDbEntity
  8
ALL_FEATURES
100
AcDbLine
 62
7
  6
CONTINUOUS
 10
3.4971705825
 20
3.8409049678
 11
3.4975024501
 21
3.8407206481
  0
SPLINE
  5
323
100
AcDbEntity
  8
ALL_FEATURES
100
AcDbSpline
 62
7
  6
CONTINUOUS
 70
0
 71
3
 72
25
 73
21
 74
0
 42
0.0000001
 43
0.0000001
 44
0.0000000001
 40
0.0
 40
0.0
 40
0.0
 40
0.0
 40
0.0155964022
 40
0.0602130252
 40
0.0924557002
 40
0.1311528843
 40
0.1763454748
 40
0.2281770635
 40
0.2868731377
 40
0.352876527
 40
0.4268307377
 40
0.5099472853
 40
0.6038323919
 40
0.6556599137
 40
0.7115096935
 40
0.7721608314
 40
0.8387612141
 40
0.8747623489
 40
0.9132056242
 40
1.0
 40
1.0
 40
1.0
 40
1.0
 10
3.3810743824
 20
3.8744610664
 30
0.0
 10
3.3818635177
 20
3.8739226816
 30
0.0
 10
3.384910082
 20
3.871844067
 30
0.0
 10
3.3895879953
 20
3.8686523826
 30
0.0
 10
3.3954359896
 20
3.8646650739
 30
0.0
 10
3.4013326869
 20
3.8606866553
 30
0.0
 10
3.4082574985
 20
3.8560870866
 30
0.0
 10
3.4162530254
 20
3.8508862265
 30
0.0
 10
3.4253821839
 20
3.8450914403
 30
0.0
 10
3.4357447719
 20
3.8387132223
 30
0.0
 10
3.4474913579
 20
3.8317326547
 30
0.0
 10
3.4608496853
 20
3.8241259952
 30
0.0
 10
3.4731662538
 20
3.8174339631
 30
0.0
 10
3.4841095957
 20
3.8117181057
 30
0.0
 10
3.4933064855
 20
3.8070570562
 30
0.0
 10
3.5033745435
 20
3.8021152712
 30
0.0
 10
3.5124113036
 20
3.7978336784
 30
0.0
 10
3.5202557767
 20
3.7942142295
 30
0.0
 10
3.5292574511
 20
3.7901511891
 30
0.0
 10
3.536293628
 20
3.7870943518
 30
0.0
 10
3.5411868496
 20
3.7850161493
 30
0.0
  0
SPLINE
  5
324
100
AcDbEntity
  8
ALL_FEATURES
100
AcDbSpline
 62
7
  6
CONTINUOUS
 70
0
 71
3
 72
10
 73
6
 74
0
 42
0.0000001
 43
0.0000001
 44
0.0000000001
 40
0.0
 40
0.0
 40
0.0
 40
0.0
 40
0.5025469073
 40
0.7520880554
 40
1.0
 40
1.0
 40
1.0
 40
1.0
 10
3.5411868496
 20
3.7850161493
 30
0.0
 10
3.5163044547
 20
3.7528852615
 30
0.0
 10
3.481351239
 20
3.7029635223
 30
0.0
 10
3.4397967109
 20
3.6335697273
 30
0.0
 10
3.420780169
 20
3.5980990031
 30
0.0
 10
3.411733492
 20
3.5802086026
 30
0.0
  0
SPLINE
  5
325
100
AcDbEntity
  8
ALL_FEATURES
100
AcDbSpline
 62
7
  6
CONTINUOUS
 70
0
 71
3
 72
25
 73
21
 74
0
 42
0.0000001
 43
0.0000001
 44
0.0000000001
 40
0.0
 40
0.0
 40
0.0
 40
0.0
 40
0.0049167355
 40
0.0194672501
 40
0.0433521817
 40
0.0762724106
 40
0.1178930557
 40
0.1677351517
 40
0.2252859374
 40
0.2900422629
 40
0.3614759949
 40
0.43894889
 40
0.521810705
 40
0.609469538
 40
0.7013623146
 40
0.7970143828
 40
0.8461786329
 40
0.8962612204
 40
0.9473859677
 40
1.0
 40
1.0
 40
1.0
 40
1.0
 10
4.6570817812
 20
4.4669665559
 30
0.0
 10
4.6571561273
 20
4.466594522
 30
0.0
 10
4.6574492564
 20
4.4651212509
 30
0.0
 10
4.6580928309
 20
4.4618385573
 30
0.0
 10
4.6591385245
 20
4.4564327526
 30
0.0
 10
4.6605587463
 20
4.4489718918
 30
0.0
 10
4.6623269566
 20
4.4395384247
 30
0.0
 10
4.6644405168
 20
4.4282360346
 30
0.0
 10
4.6668928411
 20
4.4151808293
 30
0.0
 10
4.6696835486
 20
4.4004939999
 30
0.0
 10
4.6728106653
 20
4.3843063876
 30
0.0
 10
4.676291696
 20
4.3667644221
 30
0.0
 10
4.6801433428
 20
4.3480199457
 30
0.0
 10
4.6844153163
 20
4.3282266907
 30
0.0
 10
4.6891594646
 20
4.3075272148
 30
0.0
 10
4.6935644273
 20
4.2897993421
 30
0.0
 10
4.697490208
 20
4.2752811955
 30
0.0
 10
4.7007167846
 20
4.2641350221
 30
0.0
 10
4.7042620691
 20
4.2528061979
 30
0.0
 10
4.7069314905
 20
4.2452563939
 30
0.0
 10
4.7083766653
 20
4.2414624705
 30
0.0
  0
SPLINE
  5
326
100
AcDbEntity
  8
ALL_FEATURES
100
AcDbSpline
 62
7
  6
CONTINUOUS
 70
0
 71
3
 72
25
 73
21
 74
0
 42
0.0000001
 43
0.0000001
 44
0.0000000001
 40
0.0
 40
0.0
 40
0.0
 40
0.0
 40
0.0527855726
 40
0.1040604333
 40
0.1542731731
 40
0.2035484829
 40
0.2993689155
 40
0.3913643622
 40
0.4790679408
 40
0.5619246006
 40
0.6393510036
 40
0.7107054071
 40
0.7753583009
 40
0.8327905121
 40
0.8825079776
 40
0.9240069981
 40
0.9568176648
 40
0.9806138339
 40
0.9951049253
 40
1.0
 40
1.0
 40
1.0
 40
1.0
 10
4.7083766653
 20
4.2414624705
 30
0.0
 10
4.7098216297
 20
4.2376690997
 30
0.0
 10
4.7124924887
 20
4.2301224816
 30
0.0
 10
4.7160461252
 20
4.2188021522
 30
0.0
 10
4.719286105
 20
4.2076695932
 30
0.0
 10
4.7232351721
 20
4.1931780733
 30
0.0
 10
4.7276799485
 20
4.1754939301
 30
0.0
 10
4.7324875614
 20
4.1548582736
 30
0.0
 10
4.7368344464
 20
4.1351405832
 30
0.0
 10
4.7407695987
 20
4.1164804291
 30
0.0
 10
4.7443397899
 20
4.0990286627
 30
0.0
 10
4.7475588734
 20
4.0829341543
 30
0.0
 10
4.7504415647
 20
4.0683404561
 30
0.0
 10
4.7529829379
 20
4.0553754073
 30
0.0
 10
4.7551796829
 20
4.0441572486
 30
0.0
 10
4.7570223422
 20
4.0347991267
 30
0.0
 10
4.7585055007
 20
4.0274018998
 30
0.0
 10
4.7595997385
 20
4.0220450125
 30
0.0
 10
4.7602743289
 20
4.018793483
 30
0.0
 10
4.7605821738
 20
4.0173347992
 30
0.0
 10
4.760660283
 20
4.0169665559
 30
0.0
  0
ENDSEC
  0
SECTION
  2
OBJECTS
  0
DICTIONARY
  5
C
100
AcDbDictionary
280
0
281
1
  3
ACAD_GROUP
350
D
  3
ACAD_MLINESTYLE
350
17
  3
ACAD_LAYOUT
350
1A
  3
ACAD_PLOTSETTINGS
350
19
  3
ACAD_PLOTSTYLENAME
350
E
  0
DICTIONARY
  5
D
102
{ACAD_REACTORS
330
C
102
}
100
AcDbDictionary
280
0
281
1
  0
ACDBDICTIONARYWDFLT
  5
E
102
{ACAD_REACTORS
330
C
102
}
100
AcDbDictionary
281
1
  3
Normal
350
F
100
AcDbDictionaryWithDefault
340
F
  0
DICTIONARY
  5
17
102
{ACAD_REACTORS
330
C
102
}
100
AcDbDictionary
280
0
281
1
  3
Standard
350
18
  0
DICTIONARY
  5
19
102
{ACAD_REACTORS
330
C
102
}
100
AcDbDictionary
281
1
  0
DICTIONARY
  5
1A
102
{ACAD_REACTORS
330
C
102
}
100
AcDbDictionary
281
1
  3
Model
350
327
  3
Layout1
350
328
  0
ACDBPLACEHOLDER
  5
F
102
{ACAD_REACTORS
330
E
102
}
  0
MLINESTYLE
  5
18
102
{ACAD_REACTORS
330
17
102
}
100
AcDbMlineStyle
  2
STANDARD
 70
0
  3

 62
256
 51
90.0
 52
90.0
 71
2
 49
0.5
 62
256
  6
BYLAYER
 49
-0.5
 62
256
  6
BYLAYER
  0
LAYOUT
  5
327
102
{ACAD_REACTORS
330
1A
102
}
100
AcDbPlotSettings
  1

  2
none_device
  4
ANSI_A_(11.00_x_8.50_Inches)
  6

 40
0.0
 41
0.0
 42
0.0
 43
0.0
 44
279.4
 45
215.9
 46
0.0
 47
0.0
 48
0.0
 49
0.0
140
0.0
141
0.0
142
1.0
143
1.0
 70
1024
 72
0
 73
0
 74
0
  7

 75
0
147
1.0
148
0.0
149
0.0
100
AcDbLayout
  1
Model
 70
0
 71
0
 10
0.0
 20
0.0
 11
11.0
 21
8.5
 12
0.0
 22
0.0
 32
0.0
 14
0.0
 24
0.0
 34
0.0
 15
0.0
 25
0.0
 35
0.0
146
0.0
 13
0.0
 23
0.0
 33
0.0
 16
1.0
 26
0.0
 36
0.0
 17
0.0
 27
1.0
 37
0.0
 76
0
330
21C
345
0
346
0
  0
LAYOUT
  5
328
102
{ACAD_REACTORS
330
1A
102
}
100
AcDbPlotSettings
  1

  2
none_device
  4
ANSI_A_(11.00_x_8.50_Inches)
  6

 40
0.0
 41
0.0
 42
0.0
 43
0.0
 44
279.4
 45
215.9
 46
0.0
 47
0.0
 48
0.0
 49
0.0
140
0.0
141
0.0
142
1.0
143
1.0
 70
0
 72
0
 73
0
 74
0
  7

 75
0
147
1.0
148
0.0
149
0.0
100
AcDbLayout
  1
Layout1
 70
0
 71
1
 10
0.0
 20
0.0
 11
11.0
 21
8.5
 12
0.0
 22
0.0
 32
0.0
 14
0.0
 24
0.0
 34
0.0
 15
0.0
 25
0.0
 35
0.0
146
0.0
 13
0.0
 23
0.0
 33
0.0
 16
1.0
 26
0.0
 36
0.0
 17
0.0
 27
1.0
 37
0.0
 76
0
330
21D
345
0
346
0
  0
ENDSEC
  0
EOF
