999
DXF file: 3-2403tr_RIGHT.dxf
999
Pro/ENGINEER 2013150 by Parametric Technology Corporation
  0
SECTION
  2
HEADER
  9
$ACADVER
  1
AC1021
  9
$DWGCODEPAGE
  3
ANSI_1252
  9
$EXTMAX
 10
11.0
 20
8.5
 30
0.0
  9
$EXTMIN
 10
0.0
 20
0.0
 30
0.0
  9
$LIMMIN
 10
0.0
 20
0.0
  9
$LIMMAX
 10
11.0
 20
8.5
  9
$VIEWCTR
 10
5.5
 20
4.25
  9
$VIEWSIZE
 40
8.5
  9
$CLAYER
  8
0
  9
$LTSCALE
 40
0.605
  9
$CELTYPE
  6
BYLAYER
  9
$DIMSCALE
 40
1.0
  9
$DIMASZ
 40
0.1
  9
$DIMEXO
 40
0.0625
  9
$DIMDLI
 40
0.418
  9
$DIMEXE
 40
0.125
  9
$DIMCEN
 40
0.099
  9
$DIMLFAC
 40
1.0
  9
$DIMBLK
  1
_FILLED
  9
$DIMTXT
 40
0.08
  9
$DIMTOL
 70
1
  9
$DIMLIM
 70
0
  9
$DIMTFAC
 40
1.0
  9
$DIMTP
 40
0.001
  9
$DIMTM
 40
0.001
  9
$DIMGAP
 40
0.09
  9
$DIMDSEP
 70
46
  9
$PDMODE
 70
3
  9
$PDSIZE
 40
0.06
  9
$HANDSEED
  5
31A
  9
$TILEMODE
 70
1
  9
$MEASUREMENT
 70
0
  9
$INSUNITS
 70
1
  0
ENDSEC
  0
SECTION
  2
CLASSES
  0
CLASS
  1
ACDBDICTIONARYWDFLT
  2
AcDbDictionaryWithDefault
  3
AutoCAD 2000
 90
0
 91
1
280
0
281
0
  0
CLASS
  1
ACDBPLACEHOLDER
  2
AcDbPlaceHolder
  3
AutoCAD 2000
 90
0
 91
1
280
0
281
0
  0
CLASS
  1
LAYOUT
  2
AcDbLayout
  3
AutoCAD 2000
 90
0
 91
0
280
0
281
0
  0
ENDSEC
  0
SECTION
  2
TABLES
  0
TABLE
  2
VPORT
  5
8
100
AcDbSymbolTable
 70
2
  0
VPORT
  5
1F4
100
AcDbSymbolTableRecord
100
AcDbViewportTableRecord
  2
*ACTIVE
 70
0
 10
0.0
 20
0.0
 11
1.0
 21
1.0
 12
5.5
 22
4.25
 13
0.0
 23
0.0
 14
1.0
 24
1.0
 15
0.0
 25
0.0
 16
0.0
 26
0.0
 36
1.0
 17
0.0
 27
0.0
 37
0.0
 40
8.5
 41
1.2941176471
 42
50.0
 43
0.0
 44
0.0
 50
0.0
 51
0.0
 71
0
 72
100
 73
1
 74
1
 75
0
 76
0
 77
0
 78
0
  0
ENDTAB
  0
TABLE
  2
LTYPE
  5
5
100
AcDbSymbolTable
 70
6
  0
LTYPE
  5
14
100
AcDbSymbolTableRecord
100
AcDbLinetypeTableRecord
  2
BYBLOCK
 70
0
  3

 72
65
 73
0
 40
0.0
  0
LTYPE
  5
15
100
AcDbSymbolTableRecord
100
AcDbLinetypeTableRecord
  2
BYLAYER
 70
0
  3

 72
65
 73
0
 40
0.0
  0
LTYPE
  5
16
100
AcDbSymbolTableRecord
100
AcDbLinetypeTableRecord
  2
CONTINUOUS
 70
64
  3
Solid line
 72
65
 73
0
 40
0.0
  0
LTYPE
  5
1F5
100
AcDbSymbolTableRecord
100
AcDbLinetypeTableRecord
  2
CENTER
 70
64
  3
____ _ ____ _ ____ _ ____ _ ____ _ ____ _ ____
 72
65
 73
4
 40
0.6
 49
0.375
 74
0
 49
-0.075
 74
0
 49
0.075
 74
0
 49
-0.075
 74
0
  0
LTYPE
  5
1F6
100
AcDbSymbolTableRecord
100
AcDbLinetypeTableRecord
  2
HIDDEN
 70
64
  3
- - - - - - - - - - - - - - - - - - - -
 72
65
 73
2
 40
0.2
 49
0.1
 74
0
 49
-0.1
 74
0
  0
LTYPE
  5
1F7
100
AcDbSymbolTableRecord
100
AcDbLinetypeTableRecord
  2
PHANTOM
 70
64
  3
_____ _ _ _____ _ _ _____ _ _ _____
 72
65
 73
6
 40
0.8
 49
0.45
 74
0
 49
-0.05
 74
0
 49
0.1
 74
0
 49
-0.05
 74
0
 49
0.1
 74
0
 49
-0.05
 74
0
  0
LTYPE
  5
1F8
100
AcDbSymbolTableRecord
100
AcDbLinetypeTableRecord
  2
DOT
 70
64
  3
. . . . . . . . . . . . . . . . . . . .
 72
65
 73
2
 40
0.2
 49
0.1
 74
0
 49
-0.1
 74
0
  0
LTYPE
  5
1F9
100
AcDbSymbolTableRecord
100
AcDbLinetypeTableRecord
  2
DASHED
 70
64
  3
- - - - - - - - - - - - - - - - - - - -
 72
65
 73
2
 40
0.2
 49
0.1
 74
0
 49
-0.1
 74
0
  0
ENDTAB
  0
TABLE
  2
LAYER
  5
2
100
AcDbSymbolTable
 70
36
  0
LAYER
  5
10
100
AcDbSymbolTableRecord
100
AcDbLayerTableRecord
  2
0
 70
0
 62
7
  6
CONTINUOUS
370
-3
390
F
  0
LAYER
  5
1FA
100
AcDbSymbolTableRecord
100
AcDbLayerTableRecord
  2
DEFAULT_1
 70
0
 62
7
  6
CENTER
370
-3
390
F
  0
LAYER
  5
1FB
100
AcDbSymbolTableRecord
100
AcDbLayerTableRecord
  2
DEFAULT_2
 70
0
 62
8
  6
HIDDEN
370
-3
390
F
  0
LAYER
  5
1FC
100
AcDbSymbolTableRecord
100
AcDbLayerTableRecord
  2
DEFAULT_3
 70
0
 62
7
  6
PHANTOM
370
-3
390
F
  0
LAYER
  5
1FD
100
AcDbSymbolTableRecord
100
AcDbLayerTableRecord
  2
ALL_FEATURES
 70
0
 62
7
  6
CONTINUOUS
370
-3
390
F
  0
LAYER
  5
1FE
100
AcDbSymbolTableRecord
100
AcDbLayerTableRecord
  2
AXES_FEATURES
 70
0
 62
7
  6
CONTINUOUS
370
-3
390
F
  0
LAYER
  5
1FF
100
AcDbSymbolTableRecord
100
AcDbLayerTableRecord
  2
CHAMFER_FEATURES
 70
0
 62
7
  6
CONTINUOUS
370
-3
390
F
  0
LAYER
  5
200
100
AcDbSymbolTableRecord
100
AcDbLayerTableRecord
  2
COORDINATE_SYSTEMS
 70
0
 62
7
  6
CONTINUOUS
370
-3
390
F
  0
LAYER
  5
201
100
AcDbSymbolTableRecord
100
AcDbLayerTableRecord
  2
CUT_FEATURES
 70
0
 62
7
  6
CONTINUOUS
370
-3
390
F
  0
LAYER
  5
202
100
AcDbSymbolTableRecord
100
AcDbLayerTableRecord
  2
DATUM_CURVES
 70
0
 62
7
  6
CONTINUOUS
370
-3
390
F
  0
LAYER
  5
203
100
AcDbSymbolTableRecord
100
AcDbLayerTableRecord
  2
DATUM_PLANES
 70
0
 62
7
  6
CONTINUOUS
370
-3
390
F
  0
LAYER
  5
204
100
AcDbSymbolTableRecord
100
AcDbLayerTableRecord
  2
DATUM_POINTS
 70
0
 62
7
  6
CONTINUOUS
370
-3
390
F
  0
LAYER
  5
205
100
AcDbSymbolTableRecord
100
AcDbLayerTableRecord
  2
DEFAULT_COORDINATE_SYSTEM
 70
0
 62
7
  6
CONTINUOUS
370
-3
390
F
  0
LAYER
  5
206
100
AcDbSymbolTableRecord
100
AcDbLayerTableRecord
  2
DEFAULT_DATUM_AXES
 70
0
 62
7
  6
CONTINUOUS
370
-3
390
F
  0
LAYER
  5
207
100
AcDbSymbolTableRecord
100
AcDbLayerTableRecord
  2
DEFAULT_DATUM_CURVES
 70
0
 62
7
  6
CONTINUOUS
370
-3
390
F
  0
LAYER
  5
208
100
AcDbSymbolTableRecord
100
AcDbLayerTableRecord
  2
DEFAULT_DATUM_PLANES
 70
0
 62
7
  6
CONTINUOUS
370
-3
390
F
  0
LAYER
  5
209
100
AcDbSymbolTableRecord
100
AcDbLayerTableRecord
  2
DEFAULT_SURFACES
 70
0
 62
7
  6
CONTINUOUS
370
-3
390
F
  0
LAYER
  5
20A
100
AcDbSymbolTableRecord
100
AcDbLayerTableRecord
  2
DIMENSIONS
 70
0
 62
7
  6
CONTINUOUS
370
-3
390
F
  0
LAYER
  5
20B
100
AcDbSymbolTableRecord
100
AcDbLayerTableRecord
  2
HOLE_FEATURES
 70
0
 62
7
  6
CONTINUOUS
370
-3
390
F
  0
LAYER
  5
20C
100
AcDbSymbolTableRecord
100
AcDbLayerTableRecord
  2
IMPORT_FEATURE
 70
0
 62
7
  6
CONTINUOUS
370
-3
390
F
  0
LAYER
  5
20D
100
AcDbSymbolTableRecord
100
AcDbLayerTableRecord
  2
INTFCLR_1
 70
0
 62
7
  6
CONTINUOUS
370
-3
390
F
  0
LAYER
  5
20E
100
AcDbSymbolTableRecord
100
AcDbLayerTableRecord
  2
NOTES
 70
0
 62
7
  6
CONTINUOUS
370
-3
390
F
  0
LAYER
  5
20F
100
AcDbSymbolTableRecord
100
AcDbLayerTableRecord
  2
PART_REFERENCE_DIMENSIONS
 70
0
 62
7
  6
CONTINUOUS
370
-3
390
F
  0
LAYER
  5
210
100
AcDbSymbolTableRecord
100
AcDbLayerTableRecord
  2
PLATED_SURFACE_AREA
 70
0
 62
7
  6
CONTINUOUS
370
-3
390
F
  0
LAYER
  5
211
100
AcDbSymbolTableRecord
100
AcDbLayerTableRecord
  2
POINTS
 70
0
 62
7
  6
CONTINUOUS
370
-3
390
F
  0
LAYER
  5
212
100
AcDbSymbolTableRecord
100
AcDbLayerTableRecord
  2
PROTRUSION
 70
0
 62
7
  6
CONTINUOUS
370
-3
390
F
  0
LAYER
  5
213
100
AcDbSymbolTableRecord
100
AcDbLayerTableRecord
  2
PROTRUSION_FEATURES
 70
0
 62
7
  6
CONTINUOUS
370
-3
390
F
  0
LAYER
  5
214
100
AcDbSymbolTableRecord
100
AcDbLayerTableRecord
  2
QUILTS
 70
0
 62
7
  6
CONTINUOUS
370
-3
390
F
  0
LAYER
  5
215
100
AcDbSymbolTableRecord
100
AcDbLayerTableRecord
  2
REFERENCE_DIMENSIONS
 70
0
 62
7
  6
CONTINUOUS
370
-3
390
F
  0
LAYER
  5
216
100
AcDbSymbolTableRecord
100
AcDbLayerTableRecord
  2
ROUND_FEATURES
 70
0
 62
7
  6
CONTINUOUS
370
-3
390
F
  0
LAYER
  5
217
100
AcDbSymbolTableRecord
100
AcDbLayerTableRecord
  2
SHELL_FEATURES
 70
0
 62
7
  6
CONTINUOUS
370
-3
390
F
  0
LAYER
  5
218
100
AcDbSymbolTableRecord
100
AcDbLayerTableRecord
  2
SIZE_REF
 70
0
 62
7
  6
CONTINUOUS
370
-3
390
F
  0
LAYER
  5
219
100
AcDbSymbolTableRecord
100
AcDbLayerTableRecord
  2
SURFACE_FEATURES
 70
0
 62
7
  6
CONTINUOUS
370
-3
390
F
  0
ENDTAB
  0
TABLE
  2
STYLE
  5
3
100
AcDbSymbolTable
 70
1
  0
STYLE
  5
11
100
AcDbSymbolTableRecord
100
AcDbTextStyleTableRecord
  2
STANDARD
 70
0
 40
0.0
 41
0.8
 50
0.0
 71
0
 42
0.2
  3
txt
  4

  0
STYLE
  5
21A
100
AcDbSymbolTableRecord
100
AcDbTextStyleTableRecord
  2
TEXTSTYLE_1
 70
0
 40
0.0
 41
0.8
 50
0.0
 71
0
 42
0.2
  3
gdt
  4

  0
ENDTAB
  0
TABLE
  2
VIEW
  5
6
100
AcDbSymbolTable
 70
0
  0
ENDTAB
  0
TABLE
  2
UCS
  5
7
100
AcDbSymbolTable
 70
0
  0
ENDTAB
  0
TABLE
  2
APPID
  5
9
100
AcDbSymbolTable
 70
1
  0
APPID
  5
21B
100
AcDbSymbolTableRecord
100
AcDbRegAppTableRecord
  2
ACAD
 70
0
  0
ENDTAB
  0
TABLE
  2
BLOCK_RECORD
  5
1
100
AcDbSymbolTable
 70
0
  0
BLOCK_RECORD
  5
21C
100
AcDbSymbolTableRecord
100
AcDbBlockTableRecord
  2
*Model_Space
  0
BLOCK_RECORD
  5
21D
100
AcDbSymbolTableRecord
100
AcDbBlockTableRecord
  2
*Paper_Space
  0
ENDTAB
  0
TABLE
  2
DIMSTYLE
  5
A
100
AcDbSymbolTable
 70
1
100
AcDbDimStyleTable
 71
0
  0
DIMSTYLE
105
21E
100
AcDbSymbolTableRecord
100
AcDbDimStyleTableRecord
  2
STANDARD
 70
0
  3

  4

 40
1.0
 41
0.1
 42
0.0625
 43
0.38
 44
0.125
 45
0.0
 46
0.0
 47
0.001
 48
0.001
140
0.08
141
0.09
142
0.0
143
25.4
144
1.0
145
0.0
146
1.0
147
0.09
 71
1.0
 72
0.0
 73
1
 74
1
 75
0
 76
0
 77
0
 78
4
170
0
171
2
172
0
173
0
174
0
175
0
176
0
177
0
178
0
270
2
271
3
272
3
273
2
274
2
275
0
280
0
281
0
282
0
283
1
284
4
285
0
286
0
287
3
288
0
340
11
278
46
  0
ENDTAB
  0
ENDSEC
  0
SECTION
  2
BLOCKS
  0
BLOCK
  5
20
100
AcDbEntity
  8
0
100
AcDbBlockBegin
  2
*Model_Space
 70
0
 10
0.0
 20
0.0
 30
0.0
  3
*Model_Space
  1

  0
ENDBLK
  5
21
100
AcDbEntity
  8
0
100
AcDbBlockEnd
  0
BLOCK
  5
1C
100
AcDbEntity
  8
0
100
AcDbBlockBegin
  2
*Paper_Space
 70
0
 10
0.0
 20
0.0
 30
0.0
  3
*Paper_Space
  1

  0
ENDBLK
  5
1D
100
AcDbEntity
  8
0
100
AcDbBlockEnd
  0
ENDSEC
  0
SECTION
  2
ENTITIES
  0
LINE
  5
21F
100
AcDbEntity
  8
0
100
AcDbLine
 62
7
  6
CONTINUOUS
 10
0.0
 20
0.0
 11
0.0
 21
8.5
  0
LINE
  5
220
100
AcDbEntity
  8
0
100
AcDbLine
 62
7
  6
CONTINUOUS
 10
0.0
 20
0.0
 11
11.0
 21
0.0
  0
LINE
  5
221
100
AcDbEntity
  8
0
100
AcDbLine
 62
7
  6
CONTINUOUS
 10
0.0
 20
8.5
 11
11.0
 21
8.5
  0
LINE
  5
222
100
AcDbEntity
  8
0
100
AcDbLine
 62
7
  6
CONTINUOUS
 10
11.0
 20
0.0
 11
11.0
 21
8.5
  0
LINE
  5
223
100
AcDbEntity
  8
ALL_FEATURES
100
AcDbLine
 62
7
  6
CONTINUOUS
 10
5.4064727792
 20
1.1434322581
 11
5.4627227792
 21
1.1434322581
  0
LINE
  5
224
100
AcDbEntity
  8
0
100
AcDbLine
 62
7
  6
CONTINUOUS
 10
5.4627227792
 20
1.1472555994
 11
5.5377227792
 21
1.1472555994
  0
LINE
  5
225
100
AcDbEntity
  8
0
100
AcDbLine
 62
9
  6
CONTINUOUS
 10
2.7965975484
 20
1.7095027497
 11
3.1269686088
 21
1.7095027497
  0
LINE
  5
226
100
AcDbEntity
  8
0
100
AcDbLine
 62
9
  6
CONTINUOUS
 10
3.1963768251
 20
1.7270755947
 11
2.7271893322
 21
1.7270755947
  0
LINE
  5
227
100
AcDbEntity
  8
0
100
AcDbLine
 62
7
  6
CONTINUOUS
 10
5.223830125
 20
1.607942301
 11
5.2621154334
 21
1.6069397649
  0
LINE
  5
228
100
AcDbEntity
  8
0
100
AcDbLine
 62
9
  6
CONTINUOUS
 10
3.2317830786
 20
1.7645170987
 11
2.6917830786
 21
1.7645170987
  0
LINE
  5
229
100
AcDbEntity
  8
0
100
AcDbLine
 62
9
  6
CONTINUOUS
 10
3.2317830786
 20
1.775743831
 11
2.6917830786
 21
1.775743831
  0
LINE
  5
22A
100
AcDbEntity
  8
0
100
AcDbLine
 62
9
  6
CONTINUOUS
 10
3.2093482687
 20
1.8100846238
 11
2.7142178886
 21
1.8100846238
  0
LINE
  5
22B
100
AcDbEntity
  8
0
100
AcDbLine
 62
9
  6
CONTINUOUS
 10
2.7319984298
 20
1.8343933342
 11
3.1915677274
 21
1.8343933342
  0
LINE
  5
22C
100
AcDbEntity
  8
0
100
AcDbLine
 62
9
  6
CONTINUOUS
 10
2.630223277
 20
2.7884120967
 11
2.630223277
 21
2.4497024194
  0
LINE
  5
22D
100
AcDbEntity
  8
0
100
AcDbLine
 62
7
  6
CONTINUOUS
 10
5.0366578186
 20
1.9988072581
 11
3.9918284744
 21
1.9988072581
  0
LINE
  5
22E
100
AcDbEntity
  8
ALL_FEATURES
100
AcDbLine
 62
7
  6
CONTINUOUS
 10
3.9918284744
 20
1.9988072581
 11
5.0366578186
 21
1.9988072581
  0
LINE
  5
22F
100
AcDbEntity
  8
0
100
AcDbLine
 62
7
  6
CONTINUOUS
 10
5.0654767162
 20
1.9989785179
 11
5.2092227792
 21
1.9989785179
  0
LINE
  5
230
100
AcDbEntity
  8
0
100
AcDbLine
 62
7
  6
CONTINUOUS
 10
3.9010498774
 20
2.0509986151
 11
3.8906022716
 21
2.0532373878
  0
LINE
  5
231
100
AcDbEntity
  8
0
100
AcDbLine
 62
9
  6
CONTINUOUS
 10
2.687015796
 20
2.8290572581
 11
2.687015796
 21
2.4090572581
  0
LINE
  5
232
100
AcDbEntity
  8
0
100
AcDbLine
 62
7
  6
CONTINUOUS
 10
2.6917830786
 20
3.4735974174
 11
2.6917830786
 21
3.4623706851
  0
LINE
  5
233
100
AcDbEntity
  8
0
100
AcDbLine
 62
7
  6
CONTINUOUS
 10
2.6917830786
 20
1.7645170987
 11
2.6917830786
 21
1.775743831
  0
LINE
  5
234
100
AcDbEntity
  8
0
100
AcDbLine
 62
9
  6
CONTINUOUS
 10
2.6921578186
 20
2.8290572581
 11
2.6921578186
 21
2.6332069506
  0
LINE
  5
235
100
AcDbEntity
  8
0
100
AcDbLine
 62
9
  6
CONTINUOUS
 10
2.6921578186
 20
2.6050974903
 11
2.6921578186
 21
2.4090572581
  0
LINE
  5
236
100
AcDbEntity
  8
0
100
AcDbLine
 62
7
  6
CONTINUOUS
 10
2.7071578186
 20
2.399228533
 11
2.7071578186
 21
2.529358254
  0
LINE
  5
237
100
AcDbEntity
  8
0
100
AcDbLine
 62
7
  6
CONTINUOUS
 10
2.7071578186
 20
2.7088141715
 11
2.7071578186
 21
2.8388859831
  0
LINE
  5
238
100
AcDbEntity
  8
0
100
AcDbLine
 62
9
  6
CONTINUOUS
 10
2.7090540712
 20
2.3942437547
 11
2.7090540701
 21
2.5242605252
  0
LINE
  5
239
100
AcDbEntity
  8
0
100
AcDbLine
 62
9
  6
CONTINUOUS
 10
2.7090540711
 20
2.7138698972
 11
2.7090540712
 21
2.8438707614
  0
LINE
  5
23A
100
AcDbEntity
  8
0
100
AcDbLine
 62
7
  6
CONTINUOUS
 10
2.8267830786
 20
3.003057258
 11
2.8267830786
 21
2.9355572581
  0
LINE
  5
23B
100
AcDbEntity
  8
0
100
AcDbLine
 62
7
  6
CONTINUOUS
 10
2.8267830786
 20
2.2350572581
 11
2.8267830786
 21
2.3025572581
  0
LINE
  5
23C
100
AcDbEntity
  8
0
100
AcDbLine
 62
9
  6
CONTINUOUS
 10
3.1250277806
 20
2.2122864006
 11
2.7985383767
 21
2.2122864006
  0
LINE
  5
23D
100
AcDbEntity
  8
0
100
AcDbLine
 62
7
  6
CONTINUOUS
 10
3.0967830786
 20
2.2350572581
 11
2.8267830786
 21
2.2350572581
  0
LINE
  5
23E
100
AcDbEntity
  8
0
100
AcDbLine
 62
9
  6
CONTINUOUS
 10
3.0967830786
 20
2.3025572581
 11
2.8267830786
 21
2.3025572581
  0
LINE
  5
23F
100
AcDbEntity
  8
0
100
AcDbLine
 62
7
  6
CONTINUOUS
 10
2.824189247
 20
2.3100572581
 11
3.0993769103
 21
2.3100572581
  0
LINE
  5
240
100
AcDbEntity
  8
0
100
AcDbLine
 62
9
  6
CONTINUOUS
 10
2.905473277
 20
5.1509120967
 11
2.905473277
 21
4.8122024194
  0
LINE
  5
241
100
AcDbEntity
  8
0
100
AcDbLine
 62
9
  6
CONTINUOUS
 10
2.962265796
 20
5.1915572581
 11
2.962265796
 21
4.7715572581
  0
LINE
  5
242
100
AcDbEntity
  8
0
100
AcDbLine
 62
7
  6
CONTINUOUS
 10
2.9670330786
 20
4.1450170987
 11
2.9670330786
 21
4.156243831
  0
LINE
  5
243
100
AcDbEntity
  8
0
100
AcDbLine
 62
9
  6
CONTINUOUS
 10
2.9674078186
 20
5.1915572581
 11
2.9674078186
 21
4.7715572581
  0
LINE
  5
244
100
AcDbEntity
  8
0
100
AcDbLine
 62
7
  6
CONTINUOUS
 10
2.9824078186
 20
4.761728533
 11
2.9824078186
 21
5.2013859831
  0
LINE
  5
245
100
AcDbEntity
  8
0
100
AcDbLine
 62
9
  6
CONTINUOUS
 10
2.9843040712
 20
4.7567437547
 11
2.9843040712
 21
5.2063707614
  0
LINE
  5
246
100
AcDbEntity
  8
0
100
AcDbLine
 62
7
  6
CONTINUOUS
 10
2.687015796
 20
2.4090572581
 11
2.6921578186
 21
2.4090572581
  0
LINE
  5
247
100
AcDbEntity
  8
ALL_FEATURES
100
AcDbLine
 62
7
  6
CONTINUOUS
 10
3.5321578186
 20
2.4251822581
 11
3.2321578186
 21
2.4251822581
  0
LINE
  5
248
100
AcDbEntity
  8
0
100
AcDbLine
 62
7
  6
CONTINUOUS
 10
3.5696578186
 20
2.4803072581
 11
3.5321578186
 21
2.4803072581
  0
LINE
  5
249
100
AcDbEntity
  8
0
100
AcDbLine
 62
7
  6
CONTINUOUS
 10
3.9331934102
 20
2.0270426427
 11
3.9268021065
 21
2.0350562765
  0
LINE
  5
24A
100
AcDbEntity
  8
0
100
AcDbLine
 62
7
  6
CONTINUOUS
 10
3.0967830786
 20
3.003057258
 11
3.0967830786
 21
2.9355572581
  0
LINE
  5
24B
100
AcDbEntity
  8
0
100
AcDbLine
 62
7
  6
CONTINUOUS
 10
3.0967830786
 20
2.2350572581
 11
3.0967830786
 21
2.3025572581
  0
LINE
  5
24C
100
AcDbEntity
  8
0
100
AcDbLine
 62
7
  6
CONTINUOUS
 10
3.1020330786
 20
4.6155572581
 11
3.1020330786
 21
4.6830572581
  0
LINE
  5
24D
100
AcDbEntity
  8
0
100
AcDbLine
 62
7
  6
CONTINUOUS
 10
3.2317830786
 20
3.4735974174
 11
3.2317830786
 21
3.4623706851
  0
LINE
  5
24E
100
AcDbEntity
  8
0
100
AcDbLine
 62
7
  6
CONTINUOUS
 10
3.2317830786
 20
1.7645170987
 11
3.2317830786
 21
1.775743831
  0
LINE
  5
24F
100
AcDbEntity
  8
ALL_FEATURES
100
AcDbLine
 62
7
  6
CONTINUOUS
 10
3.2321578186
 20
2.8223072581
 11
3.2321578186
 21
2.4158072581
  0
LINE
  5
250
100
AcDbEntity
  8
0
100
AcDbLine
 62
7
  6
CONTINUOUS
 10
3.5696578186
 20
2.7578072581
 11
3.5321578186
 21
2.7578072581
  0
LINE
  5
251
100
AcDbEntity
  8
0
100
AcDbLine
 62
7
  6
CONTINUOUS
 10
3.3720330786
 20
4.6155572581
 11
3.3720330786
 21
4.6830572581
  0
LINE
  5
252
100
AcDbEntity
  8
ALL_FEATURES
100
AcDbLine
 62
7
  6
CONTINUOUS
 10
3.5321578186
 20
2.8129322581
 11
3.2321578186
 21
2.8129322581
  0
LINE
  5
253
100
AcDbEntity
  8
0
100
AcDbLine
 62
7
  6
CONTINUOUS
 10
2.687015796
 20
2.8290572581
 11
2.6921578186
 21
2.8290572581
  0
LINE
  5
254
100
AcDbEntity
  8
0
100
AcDbLine
 62
7
  6
CONTINUOUS
 10
3.0993769103
 20
2.9280572581
 11
2.824189247
 21
2.9280572581
  0
LINE
  5
255
100
AcDbEntity
  8
0
100
AcDbLine
 62
9
  6
CONTINUOUS
 10
2.8267830786
 20
2.9355572581
 11
3.0967830786
 21
2.9355572581
  0
LINE
  5
256
100
AcDbEntity
  8
0
100
AcDbLine
 62
7
  6
CONTINUOUS
 10
3.5070330786
 20
4.1450170987
 11
3.5070330786
 21
4.156243831
  0
LINE
  5
257
100
AcDbEntity
  8
ALL_FEATURES
100
AcDbLine
 62
7
  6
CONTINUOUS
 10
3.5074078186
 20
5.1848072581
 11
3.5074078186
 21
4.7783072581
  0
LINE
  5
258
100
AcDbEntity
  8
ALL_FEATURES
100
AcDbLine
 62
7
  6
CONTINUOUS
 10
3.5321578186
 20
2.8129322581
 11
3.5321578186
 21
2.4251822581
  0
LINE
  5
259
100
AcDbEntity
  8
ALL_FEATURES
100
AcDbLine
 62
7
  6
CONTINUOUS
 10
3.5696578186
 20
2.8815572581
 11
3.5696578186
 21
2.3565572581
  0
LINE
  5
25A
100
AcDbEntity
  8
0
100
AcDbLine
 62
9
  6
CONTINUOUS
 10
3.5792017382
 20
2.3252146856
 11
3.5792017382
 21
2.9128998306
  0
LINE
  5
25B
100
AcDbEntity
  8
0
100
AcDbLine
 62
9
  6
CONTINUOUS
 10
3.5950144078
 20
2.3118881325
 11
3.5950144078
 21
2.9262263837
  0
LINE
  5
25C
100
AcDbEntity
  8
0
100
AcDbLine
 62
7
  6
CONTINUOUS
 10
2.8267830786
 20
3.003057258
 11
3.0967830786
 21
3.003057258
  0
LINE
  5
25D
100
AcDbEntity
  8
0
100
AcDbLine
 62
9
  6
CONTINUOUS
 10
2.7985383767
 20
3.0258281155
 11
3.1250277806
 21
3.0258281155
  0
LINE
  5
25E
100
AcDbEntity
  8
ALL_FEATURES
100
AcDbLine
 62
7
  6
CONTINUOUS
 10
3.8074078186
 20
5.1754322581
 11
3.8074078186
 21
4.7876822581
  0
LINE
  5
25F
100
AcDbEntity
  8
0
100
AcDbLine
 62
7
  6
CONTINUOUS
 10
3.8449078186
 20
4.7391991049
 11
3.8449078186
 21
5.2239154113
  0
LINE
  5
260
100
AcDbEntity
  8
0
100
AcDbLine
 62
9
  6
CONTINUOUS
 10
3.8513506897
 20
3.1564470839
 11
3.8513506897
 21
2.0816674322
  0
LINE
  5
261
100
AcDbEntity
  8
0
100
AcDbLine
 62
9
  6
CONTINUOUS
 10
3.8630746959
 20
4.7116314207
 11
3.8630746959
 21
5.2514830954
  0
LINE
  5
262
100
AcDbEntity
  8
0
100
AcDbLine
 62
9
  6
CONTINUOUS
 10
3.8906022716
 20
3.1848771283
 11
3.8906022716
 21
2.0532373878
  0
LINE
  5
263
100
AcDbEntity
  8
0
100
AcDbLine
 62
9
  6
CONTINUOUS
 10
3.9010498774
 20
2.0509986152
 11
3.9010498774
 21
3.187115901
  0
LINE
  5
264
100
AcDbEntity
  8
0
100
AcDbLine
 62
7
  6
CONTINUOUS
 10
3.9010498774
 20
3.187115901
 11
3.8906022716
 21
3.1848771283
  0
LINE
  5
265
100
AcDbEntity
  8
0
100
AcDbLine
 62
7
  6
CONTINUOUS
 10
5.2092227792
 20
3.2387404136
 11
5.111587121
 21
3.2387404136
  0
LINE
  5
266
100
AcDbEntity
  8
0
100
AcDbLine
 62
7
  6
CONTINUOUS
 10
5.0654767162
 20
3.2391359982
 11
5.0890914428
 21
3.2391359982
  0
LINE
  5
267
100
AcDbEntity
  8
0
100
AcDbLine
 62
7
  6
CONTINUOUS
 10
4.1044078186
 20
3.2393072581
 11
3.9918284744
 21
3.2393072581
  0
LINE
  5
268
100
AcDbEntity
  8
ALL_FEATURES
100
AcDbLine
 62
7
  6
CONTINUOUS
 10
3.9918284744
 20
3.2393072581
 11
4.1044078186
 21
3.2393072581
  0
LINE
  5
269
100
AcDbEntity
  8
0
100
AcDbLine
 62
7
  6
CONTINUOUS
 10
4.4089078186
 20
3.2393072581
 11
5.0366578186
 21
3.2393072581
  0
LINE
  5
26A
100
AcDbEntity
  8
ALL_FEATURES
100
AcDbLine
 62
7
  6
CONTINUOUS
 10
4.4089078186
 20
3.2393072581
 11
5.0366578186
 21
3.2393072581
  0
LINE
  5
26B
100
AcDbEntity
  8
0
100
AcDbLine
 62
9
  6
CONTINUOUS
 10
4.1122828186
 20
3.3368072581
 11
4.4010328186
 21
3.3368072581
  0
LINE
  5
26C
100
AcDbEntity
  8
0
100
AcDbLine
 62
7
  6
CONTINUOUS
 10
4.1197844228
 20
3.3443072581
 11
4.3935312144
 21
3.3443072581
  0
LINE
  5
26D
100
AcDbEntity
  8
0
100
AcDbLine
 62
9
  6
CONTINUOUS
 10
3.1915677274
 20
3.4037211819
 11
2.7319984298
 21
3.4037211819
  0
LINE
  5
26E
100
AcDbEntity
  8
0
100
AcDbLine
 62
9
  6
CONTINUOUS
 10
3.9268021065
 20
2.0350562765
 11
3.9268021065
 21
3.2030582396
  0
LINE
  5
26F
100
AcDbEntity
  8
0
100
AcDbLine
 62
9
  6
CONTINUOUS
 10
3.9331934102
 20
2.0270426427
 11
3.9331934102
 21
3.2110718734
  0
LINE
  5
270
100
AcDbEntity
  8
0
100
AcDbLine
 62
9
  6
CONTINUOUS
 10
3.9918284744
 20
3.2393072581
 11
3.9918284744
 21
1.9988072581
  0
LINE
  5
271
100
AcDbEntity
  8
0
100
AcDbLine
 62
9
  6
CONTINUOUS
 10
4.0954733943
 20
5.4364694622
 11
4.0954733943
 21
4.5266450539
  0
LINE
  5
272
100
AcDbEntity
  8
0
100
AcDbLine
 62
7
  6
CONTINUOUS
 10
4.1122828186
 20
3.2374252937
 11
4.1122828186
 21
3.3368072581
  0
LINE
  5
273
100
AcDbEntity
  8
0
100
AcDbLine
 62
7
  6
CONTINUOUS
 10
5.223830125
 20
3.6301722152
 11
5.2621154334
 21
3.6311747513
  0
LINE
  5
274
100
AcDbEntity
  8
0
100
AcDbLine
 62
9
  6
CONTINUOUS
 10
2.7142178886
 20
3.4280298923
 11
3.2093482687
 21
3.4280298923
  0
LINE
  5
275
100
AcDbEntity
  8
0
100
AcDbLine
 62
9
  6
CONTINUOUS
 10
2.6917830786
 20
3.4623706851
 11
3.2317830786
 21
3.4623706851
  0
LINE
  5
276
100
AcDbEntity
  8
0
100
AcDbLine
 62
9
  6
CONTINUOUS
 10
2.6917830786
 20
3.4735974174
 11
3.2317830786
 21
3.4735974174
  0
LINE
  5
277
100
AcDbEntity
  8
0
100
AcDbLine
 62
9
  6
CONTINUOUS
 10
2.7271893322
 20
3.5110389215
 11
3.1963768251
 21
3.5110389215
  0
LINE
  5
278
100
AcDbEntity
  8
0
100
AcDbLine
 62
9
  6
CONTINUOUS
 10
3.1269686088
 20
3.5286117665
 11
2.7965975484
 21
3.5286117665
  0
LINE
  5
279
100
AcDbEntity
  8
0
100
AcDbLine
 62
9
  6
CONTINUOUS
 10
4.1560014337
 20
5.4671822581
 11
4.1560014337
 21
4.4959322581
  0
LINE
  5
27A
100
AcDbEntity
  8
0
100
AcDbLine
 62
7
  6
CONTINUOUS
 10
4.2927227792
 20
4.4739797581
 11
4.2927227792
 21
5.489128801
  0
LINE
  5
27B
100
AcDbEntity
  8
0
100
AcDbLine
 62
7
  6
CONTINUOUS
 10
4.4010328186
 20
3.2374252917
 11
4.4010328186
 21
3.3368072581
  0
LINE
  5
27C
100
AcDbEntity
  8
0
100
AcDbLine
 62
9
  6
CONTINUOUS
 10
4.4052227792
 20
4.3614797581
 11
4.4052227792
 21
5.6016347581
  0
LINE
  5
27D
100
AcDbEntity
  8
0
100
AcDbLine
 62
7
  6
CONTINUOUS
 10
3.9331934102
 20
3.2110718734
 11
3.9268021065
 21
3.2030582396
  0
LINE
  5
27E
100
AcDbEntity
  8
0
100
AcDbLine
 62
9
  6
CONTINUOUS
 10
3.0718475484
 20
4.0900027497
 11
3.4022186088
 21
4.0900027497
  0
LINE
  5
27F
100
AcDbEntity
  8
0
100
AcDbLine
 62
9
  6
CONTINUOUS
 10
3.4716268251
 20
4.1075755947
 11
3.0024393322
 21
4.1075755947
  0
LINE
  5
280
100
AcDbEntity
  8
0
100
AcDbLine
 62
9
  6
CONTINUOUS
 10
3.5070330786
 20
4.1450170987
 11
2.9670330786
 21
4.1450170987
  0
LINE
  5
281
100
AcDbEntity
  8
0
100
AcDbLine
 62
9
  6
CONTINUOUS
 10
3.5070330786
 20
4.156243831
 11
2.9670330786
 21
4.156243831
  0
LINE
  5
282
100
AcDbEntity
  8
0
100
AcDbLine
 62
9
  6
CONTINUOUS
 10
3.4845982687
 20
4.1905846238
 11
2.9894678886
 21
4.1905846238
  0
LINE
  5
283
100
AcDbEntity
  8
0
100
AcDbLine
 62
9
  6
CONTINUOUS
 10
3.0072484298
 20
4.2148933342
 11
3.4668177274
 21
4.2148933342
  0
LINE
  5
284
100
AcDbEntity
  8
0
100
AcDbLine
 62
7
  6
CONTINUOUS
 10
5.2767227792
 20
4.3614797581
 11
4.4052227792
 21
4.3614797581
  0
LINE
  5
285
100
AcDbEntity
  8
0
100
AcDbLine
 62
7
  6
CONTINUOUS
 10
5.0366578186
 20
3.2393072581
 11
5.0366578186
 21
1.9988072581
  0
LINE
  5
286
100
AcDbEntity
  8
0
100
AcDbLine
 62
7
  6
CONTINUOUS
 10
5.0507129367
 20
3.2243722187
 11
5.0507129367
 21
2.0137422975
  0
LINE
  5
287
100
AcDbEntity
  8
0
100
AcDbLine
 62
9
  6
CONTINUOUS
 10
5.0654767162
 20
1.9989785333
 11
5.0654767162
 21
3.2391359982
  0
LINE
  5
288
100
AcDbEntity
  8
ALL_FEATURES
100
AcDbLine
 62
7
  6
CONTINUOUS
 10
4.1560014337
 20
4.4959322581
 11
4.2927227792
 21
4.4959322581
  0
LINE
  5
289
100
AcDbEntity
  8
0
100
AcDbLine
 62
9
  6
CONTINUOUS
 10
3.4002777806
 20
4.5927864006
 11
3.0737883767
 21
4.5927864006
  0
LINE
  5
28A
100
AcDbEntity
  8
0
100
AcDbLine
 62
7
  6
CONTINUOUS
 10
3.3720330786
 20
4.6155572581
 11
3.1020330786
 21
4.6155572581
  0
LINE
  5
28B
100
AcDbEntity
  8
ALL_FEATURES
100
AcDbLine
 62
7
  6
CONTINUOUS
 10
5.2092227792
 20
1.6229371608
 11
5.2092227792
 21
3.6151773553
  0
LINE
  5
28C
100
AcDbEntity
  8
ALL_FEATURES
100
AcDbLine
 62
9
  6
CONTINUOUS
 10
5.223830125
 20
1.607942301
 11
5.223830125
 21
3.6301722152
  0
LINE
  5
28D
100
AcDbEntity
  8
ALL_FEATURES
100
AcDbLine
 62
9
  6
CONTINUOUS
 10
5.2621154334
 20
1.6069397649
 11
5.2621154334
 21
3.6311747513
  0
LINE
  5
28E
100
AcDbEntity
  8
ALL_FEATURES
100
AcDbLine
 62
7
  6
CONTINUOUS
 10
5.2767227792
 20
6.2256572264
 11
5.2767227792
 21
1.3761572581
  0
LINE
  5
28F
100
AcDbEntity
  8
ALL_FEATURES
100
AcDbLine
 62
9
  6
CONTINUOUS
 10
5.2882329211
 20
1.3408198323
 11
5.2882329211
 21
6.2609946838
  0
LINE
  5
290
100
AcDbEntity
  8
ALL_FEATURES
100
AcDbLine
 62
9
  6
CONTINUOUS
 10
5.3470417446
 20
1.1951889499
 11
5.3470417446
 21
6.4066255662
  0
LINE
  5
291
100
AcDbEntity
  8
0
100
AcDbLine
 62
9
  6
CONTINUOUS
 10
3.3720330786
 20
4.6830572581
 11
3.1020330786
 21
4.6830572581
  0
LINE
  5
292
100
AcDbEntity
  8
0
100
AcDbLine
 62
7
  6
CONTINUOUS
 10
3.0646032016
 20
4.6905572581
 11
3.4094629557
 21
4.6905572581
  0
LINE
  5
293
100
AcDbEntity
  8
0
100
AcDbLine
 62
7
  6
CONTINUOUS
 10
2.962265796
 20
4.7715572581
 11
2.9674078186
 21
4.7715572581
  0
LINE
  5
294
100
AcDbEntity
  8
ALL_FEATURES
100
AcDbLine
 62
7
  6
CONTINUOUS
 10
3.8074078186
 20
4.7876822581
 11
3.5074078186
 21
4.7876822581
  0
LINE
  5
295
100
AcDbEntity
  8
0
100
AcDbLine
 62
7
  6
CONTINUOUS
 10
3.8449078186
 20
4.8428072581
 11
3.8074078186
 21
4.8428072581
  0
LINE
  5
296
100
AcDbEntity
  8
ALL_FEATURES
100
AcDbLine
 62
9
  6
CONTINUOUS
 10
5.4064727792
 20
1.1434322581
 11
5.4064727792
 21
6.4583822581
  0
LINE
  5
297
100
AcDbEntity
  8
0
100
AcDbLine
 62
7
  6
CONTINUOUS
 10
5.4627227792
 20
1.1472555994
 11
5.4627227792
 21
1.1434323923
  0
LINE
  5
298
100
AcDbEntity
  8
ALL_FEATURES
100
AcDbLine
 62
7
  6
CONTINUOUS
 10
5.5377227792
 20
6.4583822581
 11
5.5377227792
 21
3.8009072581
  0
LINE
  5
299
100
AcDbEntity
  8
0
100
AcDbLine
 62
7
  6
CONTINUOUS
 10
5.5377227792
 20
1.1472555994
 11
5.5377227792
 21
3.8009072581
  0
LINE
  5
29A
100
AcDbEntity
  8
0
100
AcDbLine
 62
7
  6
CONTINUOUS
 10
3.8449078186
 20
5.1203072581
 11
3.8074078186
 21
5.1203072581
  0
LINE
  5
29B
100
AcDbEntity
  8
ALL_FEATURES
100
AcDbLine
 62
7
  6
CONTINUOUS
 10
3.8074078186
 20
5.1754322581
 11
3.5074078186
 21
5.1754322581
  0
LINE
  5
29C
100
AcDbEntity
  8
0
100
AcDbLine
 62
7
  6
CONTINUOUS
 10
2.962265796
 20
5.1915572581
 11
2.9674078186
 21
5.1915572581
  0
LINE
  5
29D
100
AcDbEntity
  8
ALL_FEATURES
100
AcDbLine
 62
7
  6
CONTINUOUS
 10
4.1560014337
 20
5.4671822581
 11
4.2927227792
 21
5.4671822581
  0
LINE
  5
29E
100
AcDbEntity
  8
0
100
AcDbLine
 62
7
  6
CONTINUOUS
 10
5.2767227792
 20
5.6016347581
 11
4.4052227792
 21
5.6016347581
  0
LINE
  5
29F
100
AcDbEntity
  8
ALL_FEATURES
100
AcDbLine
 62
7
  6
CONTINUOUS
 10
5.4064727792
 20
6.4583822581
 11
5.5377227792
 21
6.4583822581
  0
ARC
  5
2A0
100
AcDbEntity
  8
0
100
AcDbCircle
 62
7
  6
CONTINUOUS
 10
0.409669083
 20
1.5393574343
 40
2.7975
100
AcDbArc
 50
6.053907649
 51
13.918800267
  0
ARC
  5
2A1
100
AcDbEntity
  8
0
100
AcDbCircle
 62
7
  6
CONTINUOUS
 10
0.409669083
 20
3.6987570819
 40
2.7975
100
AcDbArc
 50
346.081199733
 51
353.946092351
  0
ARC
  5
2A2
100
AcDbEntity
  8
0
100
AcDbCircle
 62
7
  6
CONTINUOUS
 10
2.9617830786
 20
2.0603072581
 40
0.38775
100
AcDbArc
 50
244.7853651837
 51
295.2146348163
  0
ARC
  5
2A3
100
AcDbEntity
  8
0
100
AcDbCircle
 62
7
  6
CONTINUOUS
 10
2.7167205996
 20
1.5398680744
 40
0.1875
100
AcDbArc
 50
64.7853651758
 51
86.7993265496
  0
ARC
  5
2A4
100
AcDbEntity
  8
0
100
AcDbCircle
 62
7
  6
CONTINUOUS
 10
2.687015796
 20
2.4690572581
 40
0.06
100
AcDbArc
 50
198.8190633315
 51
270.0
  0
ARC
  5
2A5
100
AcDbEntity
  8
0
100
AcDbCircle
 62
7
  6
CONTINUOUS
 10
2.7292830786
 20
1.775743831
 40
0.0375
100
AcDbArc
 50
113.6868993614
 51
180.0
  0
ARC
  5
2A6
100
AcDbEntity
  8
0
100
AcDbCircle
 62
7
  6
CONTINUOUS
 10
2.7292830786
 20
1.7645170987
 40
0.0375
100
AcDbArc
 50
180.0
 51
266.7993266805
  0
ARC
  5
2A7
100
AcDbEntity
  8
0
100
AcDbCircle
 62
7
  6
CONTINUOUS
 10
2.7021657366
 20
1.8375572581
 40
0.03
100
AcDbArc
 50
293.6868993648
 51
353.9460923861
  0
ARC
  5
2A8
100
AcDbEntity
  8
0
100
AcDbCircle
 62
7
  6
CONTINUOUS
 10
3.0959086524
 20
2.2050700045
 40
0.03
100
AcDbArc
 50
13.9187997207
 51
88.3297322854
  0
ARC
  5
2A9
100
AcDbEntity
  8
0
100
AcDbCircle
 62
7
  6
CONTINUOUS
 10
2.8276575049
 20
2.2050700045
 40
0.03
100
AcDbArc
 50
91.6702677144
 51
166.0812002786
  0
ARC
  5
2AA
100
AcDbEntity
  8
0
100
AcDbCircle
 62
7
  6
CONTINUOUS
 10
2.6921578186
 20
2.4240572581
 40
0.015
100
AcDbArc
 50
270.0
 51
0.0000001323
  0
ARC
  5
2AB
100
AcDbEntity
  8
0
100
AcDbCircle
 62
7
  6
CONTINUOUS
 10
3.0892830786
 20
2.3025572581
 40
0.0075
100
AcDbArc
 50
0.0
 51
90.0000003672
  0
ARC
  5
2AC
100
AcDbEntity
  8
0
100
AcDbCircle
 62
7
  6
CONTINUOUS
 10
2.8342830786
 20
2.3025572581
 40
0.0075
100
AcDbArc
 50
89.9999996328
 51
180.0
  0
ARC
  5
2AD
100
AcDbEntity
  8
0
100
AcDbCircle
 62
7
  6
CONTINUOUS
 10
2.7146578186
 20
2.399228533
 40
0.0075
100
AcDbArc
 50
180.0
 51
221.6544916868
  0
ARC
  5
2AE
100
AcDbEntity
  8
0
100
AcDbCircle
 62
7
  6
CONTINUOUS
 10
2.687015796
 20
2.7690572581
 40
0.06
100
AcDbArc
 50
90.0
 51
161.1809366685
  0
ARC
  5
2AF
100
AcDbEntity
  8
0
100
AcDbCircle
 62
7
  6
CONTINUOUS
 10
2.8276575049
 20
3.0330445117
 40
0.03
100
AcDbArc
 50
193.9187997214
 51
268.3297322856
  0
ARC
  5
2B0
100
AcDbEntity
  8
0
100
AcDbCircle
 62
7
  6
CONTINUOUS
 10
2.6921578186
 20
2.8140572581
 40
0.015
100
AcDbArc
 50
359.9999998677
 51
90.0
  0
ARC
  5
2B1
100
AcDbEntity
  8
0
100
AcDbCircle
 62
7
  6
CONTINUOUS
 10
2.8342830786
 20
2.9355572581
 40
0.0075
100
AcDbArc
 50
180.0
 51
270.0000003672
  0
ARC
  5
2B2
100
AcDbEntity
  8
0
100
AcDbCircle
 62
7
  6
CONTINUOUS
 10
2.7146578186
 20
2.8388859831
 40
0.0075
100
AcDbArc
 50
138.3455083132
 51
180.0
  0
ARC
  5
2B3
100
AcDbEntity
  8
0
100
AcDbCircle
 62
7
  6
CONTINUOUS
 10
2.7167205996
 20
3.6982464417
 40
0.1875
100
AcDbArc
 50
273.2006734504
 51
295.2146348242
  0
ARC
  5
2B4
100
AcDbEntity
  8
0
100
AcDbCircle
 62
7
  6
CONTINUOUS
 10
2.7292830786
 20
3.4735974174
 40
0.0375
100
AcDbArc
 50
93.2006733195
 51
180.0
  0
ARC
  5
2B5
100
AcDbEntity
  8
0
100
AcDbCircle
 62
7
  6
CONTINUOUS
 10
2.7292830786
 20
3.4623706851
 40
0.0375
100
AcDbArc
 50
180.0
 51
246.3131006386
  0
ARC
  5
2B6
100
AcDbEntity
  8
0
100
AcDbCircle
 62
7
  6
CONTINUOUS
 10
2.7021657366
 20
3.4005572581
 40
0.03
100
AcDbArc
 50
6.0539076139
 51
66.3131006352
  0
ARC
  5
2B7
100
AcDbEntity
  8
0
100
AcDbCircle
 62
7
  6
CONTINUOUS
 10
2.9617830786
 20
2.6190572581
 40
0.33825
100
AcDbArc
 50
221.6544916889
 51
245.9971886251
  0
ARC
  5
2B8
100
AcDbEntity
  8
0
100
AcDbCircle
 62
7
  6
CONTINUOUS
 10
2.9617830786
 20
2.6190572581
 40
0.33825
100
AcDbArc
 50
294.0028113749
 51
323.066555091
  0
ARC
  5
2B9
100
AcDbEntity
  8
0
100
AcDbCircle
 62
7
  6
CONTINUOUS
 10
2.9617830786
 20
2.6190572581
 40
0.33825
100
AcDbArc
 50
36.933444909
 51
65.9971886251
  0
ARC
  5
2BA
100
AcDbEntity
  8
0
100
AcDbCircle
 62
7
  6
CONTINUOUS
 10
2.9617830786
 20
2.6190572581
 40
0.33825
100
AcDbArc
 50
114.0028113749
 51
138.3455083111
  0
ARC
  5
2BB
100
AcDbEntity
  8
ALL_FEATURES
100
AcDbCircle
 62
7
  6
CONTINUOUS
 10
2.9617830786
 20
2.6190572581
 40
0.33825
100
AcDbArc
 50
294.0028113749
 51
323.066555091
  0
ARC
  5
2BC
100
AcDbEntity
  8
ALL_FEATURES
100
AcDbCircle
 62
7
  6
CONTINUOUS
 10
2.9617830786
 20
2.6190572581
 40
0.33825
100
AcDbArc
 50
221.6544916889
 51
245.9971886251
  0
ARC
  5
2BD
100
AcDbEntity
  8
ALL_FEATURES
100
AcDbCircle
 62
7
  6
CONTINUOUS
 10
2.9617830786
 20
2.6190572581
 40
0.33825
100
AcDbArc
 50
36.933444909
 51
65.9971886251
  0
ARC
  5
2BE
100
AcDbEntity
  8
ALL_FEATURES
100
AcDbCircle
 62
7
  6
CONTINUOUS
 10
2.9617830786
 20
2.6190572581
 40
0.33825
100
AcDbArc
 50
114.0028113749
 51
138.3455083111
  0
CIRCLE
  5
2BF
100
AcDbEntity
  8
0
100
AcDbCircle
 62
7
  6
CONTINUOUS
 10
2.9617830786
 20
2.6190572581
 40
0.27
  0
CIRCLE
  5
2C0
100
AcDbEntity
  8
0
100
AcDbCircle
 62
9
  6
CONTINUOUS
 10
2.9617830786
 20
2.6190572581
 40
0.2345937431
  0
CIRCLE
  5
2C1
100
AcDbEntity
  8
0
100
AcDbCircle
 62
9
  6
CONTINUOUS
 10
2.9617830786
 20
2.6190572581
 40
0.1651855287
  0
ARC
  5
2C2
100
AcDbEntity
  8
0
100
AcDbCircle
 62
7
  6
CONTINUOUS
 10
3.0959086524
 20
3.0330445117
 40
0.03
100
AcDbArc
 50
271.6702677146
 51
346.0812002793
  0
ARC
  5
2C3
100
AcDbEntity
  8
0
100
AcDbCircle
 62
7
  6
CONTINUOUS
 10
3.0892830786
 20
2.9355572581
 40
0.0075
100
AcDbArc
 50
269.9999996328
 51
360.0
  0
ARC
  5
2C4
100
AcDbEntity
  8
0
100
AcDbCircle
 62
7
  6
CONTINUOUS
 10
2.9617830786
 20
3.1778072581
 40
0.38775
100
AcDbArc
 50
64.7853651837
 51
115.2146348163
  0
ARC
  5
2C5
100
AcDbEntity
  8
0
100
AcDbCircle
 62
7
  6
CONTINUOUS
 10
0.684919083
 20
3.9198574343
 40
2.7975
100
AcDbArc
 50
6.053907649
 51
13.918800267
  0
ARC
  5
2C6
100
AcDbEntity
  8
0
100
AcDbCircle
 62
7
  6
CONTINUOUS
 10
2.9919705996
 20
3.9203680744
 40
0.1875
100
AcDbArc
 50
64.7853651758
 51
86.7993265496
  0
ARC
  5
2C7
100
AcDbEntity
  8
0
100
AcDbCircle
 62
7
  6
CONTINUOUS
 10
2.962265796
 20
4.8315572581
 40
0.06
100
AcDbArc
 50
198.8190633315
 51
270.0
  0
ARC
  5
2C8
100
AcDbEntity
  8
0
100
AcDbCircle
 62
7
  6
CONTINUOUS
 10
2.962265796
 20
5.1315572581
 40
0.06
100
AcDbArc
 50
90.0
 51
161.1809366685
  0
ARC
  5
2C9
100
AcDbEntity
  8
0
100
AcDbCircle
 62
7
  6
CONTINUOUS
 10
3.0045330786
 20
4.156243831
 40
0.0375
100
AcDbArc
 50
113.6868993614
 51
180.0
  0
ARC
  5
2CA
100
AcDbEntity
  8
0
100
AcDbCircle
 62
7
  6
CONTINUOUS
 10
3.0045330786
 20
4.1450170987
 40
0.0375
100
AcDbArc
 50
180.0
 51
266.7993266805
  0
ARC
  5
2CB
100
AcDbEntity
  8
0
100
AcDbCircle
 62
7
  6
CONTINUOUS
 10
2.9774157366
 20
4.2180572581
 40
0.03
100
AcDbArc
 50
293.6868993648
 51
353.9460923861
  0
ARC
  5
2CC
100
AcDbEntity
  8
0
100
AcDbCircle
 62
7
  6
CONTINUOUS
 10
2.9674078186
 20
4.7865572581
 40
0.015
100
AcDbArc
 50
270.0
 51
0.0000001323
  0
ARC
  5
2CD
100
AcDbEntity
  8
0
100
AcDbCircle
 62
7
  6
CONTINUOUS
 10
2.9674078186
 20
5.1765572581
 40
0.015
100
AcDbArc
 50
359.9999998677
 51
90.0
  0
ARC
  5
2CE
100
AcDbEntity
  8
0
100
AcDbCircle
 62
7
  6
CONTINUOUS
 10
2.9899078186
 20
5.2013859831
 40
0.0075
100
AcDbArc
 50
138.3455083132
 51
180.0
  0
ARC
  5
2CF
100
AcDbEntity
  8
0
100
AcDbCircle
 62
7
  6
CONTINUOUS
 10
2.9899078186
 20
4.761728533
 40
0.0075
100
AcDbArc
 50
180.0
 51
221.6544916868
  0
ARC
  5
2D0
100
AcDbEntity
  8
0
100
AcDbCircle
 62
7
  6
CONTINUOUS
 10
3.3648592056
 20
1.7978072581
 40
0.56325
100
AcDbArc
 50
30.2628931686
 51
65.8818266345
  0
ARC
  5
2D1
100
AcDbEntity
  8
0
100
AcDbCircle
 62
7
  6
CONTINUOUS
 10
3.2068455577
 20
1.5398680744
 40
0.1875
100
AcDbArc
 50
93.2006734504
 51
115.2146348242
  0
ARC
  5
2D2
100
AcDbEntity
  8
0
100
AcDbCircle
 62
7
  6
CONTINUOUS
 10
3.9918284744
 20
2.0738072581
 40
0.075
100
AcDbArc
 50
218.574242923
 51
270.0
  0
ARC
  5
2D3
100
AcDbEntity
  8
0
100
AcDbCircle
 62
7
  6
CONTINUOUS
 10
3.9031740173
 20
2.1119055326
 40
0.06
100
AcDbArc
 50
210.2628924365
 51
257.9052426455
  0
ARC
  5
2D4
100
AcDbEntity
  8
0
100
AcDbCircle
 62
7
  6
CONTINUOUS
 10
3.6258948416
 20
2.3565572581
 40
0.0562370231
100
AcDbArc
 50
180.0
 51
213.871340548
  0
ARC
  5
2D5
100
AcDbEntity
  8
ALL_FEATURES
100
AcDbCircle
 62
7
  6
CONTINUOUS
 10
3.6258948416
 20
2.3565572581
 40
0.0562370231
100
AcDbArc
 50
180.0
 51
213.871340548
  0
ARC
  5
2D6
100
AcDbEntity
  8
0
100
AcDbCircle
 62
7
  6
CONTINUOUS
 10
3.8916210687
 20
2.0069975065
 40
0.045
100
AcDbArc
 50
38.5742443677
 51
77.9052432775
  0
ARC
  5
2D7
100
AcDbEntity
  8
0
100
AcDbCircle
 62
7
  6
CONTINUOUS
 10
3.1942830786
 20
1.775743831
 40
0.0375
100
AcDbArc
 50
0.0
 51
66.3131006386
  0
ARC
  5
2D8
100
AcDbEntity
  8
0
100
AcDbCircle
 62
7
  6
CONTINUOUS
 10
3.1942830786
 20
1.7645170987
 40
0.0375
100
AcDbArc
 50
273.2006733195
 51
360.0
  0
ARC
  5
2D9
100
AcDbEntity
  8
0
100
AcDbCircle
 62
7
  6
CONTINUOUS
 10
3.6103376569
 20
2.3461145555
 40
0.0375
100
AcDbArc
 50
213.8713405478
 51
245.8818266345
  0
ARC
  5
2DA
100
AcDbEntity
  8
0
100
AcDbCircle
 62
7
  6
CONTINUOUS
 10
3.2214004207
 20
1.8375572581
 40
0.03
100
AcDbArc
 50
186.0539076139
 51
246.3131006352
  0
ARC
  5
2DB
100
AcDbEntity
  8
0
100
AcDbCircle
 62
7
  6
CONTINUOUS
 10
3.3648592056
 20
3.4403072581
 40
0.56325
100
AcDbArc
 50
294.1181733655
 51
329.7371068314
  0
ARC
  5
2DC
100
AcDbEntity
  8
0
100
AcDbCircle
 62
7
  6
CONTINUOUS
 10
3.1271578186
 20
2.6190572581
 40
0.525
100
AcDbArc
 50
161.1809366353
 51
198.8190633647
  0
ARC
  5
2DD
100
AcDbEntity
  8
0
100
AcDbCircle
 62
7
  6
CONTINUOUS
 10
3.2068455577
 20
3.6982464417
 40
0.1875
100
AcDbArc
 50
244.7853651758
 51
266.7993265496
  0
ARC
  5
2DE
100
AcDbEntity
  8
0
100
AcDbCircle
 62
7
  6
CONTINUOUS
 10
3.9918284744
 20
3.1643072581
 40
0.075
100
AcDbArc
 50
90.0
 51
141.425757077
  0
ARC
  5
2DF
100
AcDbEntity
  8
0
100
AcDbCircle
 62
7
  6
CONTINUOUS
 10
3.9031740173
 20
3.1262089835
 40
0.06
100
AcDbArc
 50
102.0947573545
 51
149.7371075635
  0
ARC
  5
2E0
100
AcDbEntity
  8
0
100
AcDbCircle
 62
7
  6
CONTINUOUS
 10
3.6258948416
 20
2.8815572581
 40
0.0562370231
100
AcDbArc
 50
146.128659452
 51
180.0
  0
ARC
  5
2E1
100
AcDbEntity
  8
ALL_FEATURES
100
AcDbCircle
 62
7
  6
CONTINUOUS
 10
3.6258948416
 20
2.8815572581
 40
0.0562370231
100
AcDbArc
 50
146.128659452
 51
180.0
  0
ARC
  5
2E2
100
AcDbEntity
  8
0
100
AcDbCircle
 62
7
  6
CONTINUOUS
 10
3.8916210687
 20
3.2311170097
 40
0.045
100
AcDbArc
 50
282.0947567225
 51
321.4257556323
  0
ARC
  5
2E3
100
AcDbEntity
  8
0
100
AcDbCircle
 62
7
  6
CONTINUOUS
 10
3.1942830786
 20
3.4735974174
 40
0.0375
100
AcDbArc
 50
0.0
 51
86.7993266805
  0
ARC
  5
2E4
100
AcDbEntity
  8
0
100
AcDbCircle
 62
7
  6
CONTINUOUS
 10
3.1942830786
 20
3.4623706851
 40
0.0375
100
AcDbArc
 50
293.6868993614
 51
360.0
  0
ARC
  5
2E5
100
AcDbEntity
  8
0
100
AcDbCircle
 62
7
  6
CONTINUOUS
 10
3.6103376569
 20
2.8919999606
 40
0.0375
100
AcDbArc
 50
114.1181733657
 51
146.1286594522
  0
ARC
  5
2E6
100
AcDbEntity
  8
0
100
AcDbCircle
 62
7
  6
CONTINUOUS
 10
3.2214004207
 20
3.4005572581
 40
0.03
100
AcDbArc
 50
113.6868993648
 51
173.9460923861
  0
ARC
  5
2E7
100
AcDbEntity
  8
0
100
AcDbCircle
 62
7
  6
CONTINUOUS
 10
4.1197828186
 20
3.3368072581
 40
0.0075
100
AcDbArc
 50
90.0
 51
180.0
  0
ARC
  5
2E8
100
AcDbEntity
  8
0
100
AcDbCircle
 62
7
  6
CONTINUOUS
 10
5.5138970742
 20
1.5393574343
 40
2.7975
100
AcDbArc
 50
166.081199733
 51
173.946092351
  0
ARC
  5
2E9
100
AcDbEntity
  8
ALL_FEATURES
100
AcDbCircle
 62
7
  6
CONTINUOUS
 10
5.0275999338
 20
1.1508811687
 40
0.3225
100
AcDbArc
 50
7.8967562426
 51
36.083035471
  0
ARC
  5
2EA
100
AcDbEntity
  8
ALL_FEATURES
100
AcDbCircle
 62
7
  6
CONTINUOUS
 10
5.3367227792
 20
1.3761572581
 40
0.06
100
AcDbArc
 50
180.0
 51
216.083035471
  0
ARC
  5
2EB
100
AcDbEntity
  8
ALL_FEATURES
100
AcDbCircle
 62
7
  6
CONTINUOUS
 10
5.4064727792
 20
1.2034322581
 40
0.06
100
AcDbArc
 50
187.8967562426
 51
270.0
  0
ARC
  5
2EC
100
AcDbEntity
  8
ALL_FEATURES
100
AcDbCircle
 62
7
  6
CONTINUOUS
 10
5.2242227792
 20
1.6229371608
 40
0.015
100
AcDbArc
 50
179.9999999837
 51
268.4999999996
  0
ARC
  5
2ED
100
AcDbEntity
  8
ALL_FEATURES
100
AcDbCircle
 62
7
  6
CONTINUOUS
 10
5.2617227792
 20
1.591944905
 40
0.015
100
AcDbArc
 50
0.0000000165
 51
88.5000000004
  0
ARC
  5
2EE
100
AcDbEntity
  8
0
100
AcDbCircle
 62
7
  6
CONTINUOUS
 10
5.0654767162
 20
2.0137422975
 40
0.0147637795
100
AcDbArc
 50
180.0000000785
 51
270.0
  0
ARC
  5
2EF
100
AcDbEntity
  8
0
100
AcDbCircle
 62
7
  6
CONTINUOUS
 10
5.5138970742
 20
3.6987570819
 40
2.7975
100
AcDbArc
 50
186.053907649
 51
193.918800267
  0
ARC
  5
2F0
100
AcDbEntity
  8
ALL_FEATURES
100
AcDbCircle
 62
7
  6
CONTINUOUS
 10
5.2242227792
 20
3.6151773553
 40
0.015
100
AcDbArc
 50
91.5000000004
 51
180.0000000163
  0
ARC
  5
2F1
100
AcDbEntity
  8
ALL_FEATURES
100
AcDbCircle
 62
7
  6
CONTINUOUS
 10
5.2617227792
 20
3.6461696111
 40
0.015
100
AcDbArc
 50
271.4999999996
 51
359.9999999835
  0
ARC
  5
2F2
100
AcDbEntity
  8
0
100
AcDbCircle
 62
7
  6
CONTINUOUS
 10
5.0654767162
 20
3.2243722187
 40
0.0147637795
100
AcDbArc
 50
90.0
 51
179.9999999215
  0
ARC
  5
2F3
100
AcDbEntity
  8
0
100
AcDbCircle
 62
7
  6
CONTINUOUS
 10
4.3935328186
 20
3.3368072581
 40
0.0075
100
AcDbArc
 50
0.0
 51
90.0
  0
ARC
  5
2F4
100
AcDbEntity
  8
0
100
AcDbCircle
 62
7
  6
CONTINUOUS
 10
3.6409078186
 20
4.194048151
 40
0.56325
100
AcDbArc
 50
36.1922176694
 51
66.7691079294
  0
ARC
  5
2F5
100
AcDbEntity
  8
0
100
AcDbCircle
 62
7
  6
CONTINUOUS
 10
3.2370330786
 20
4.4408072581
 40
0.38775
100
AcDbArc
 50
244.7853651837
 51
295.2146348163
  0
ARC
  5
2F6
100
AcDbEntity
  8
0
100
AcDbCircle
 62
7
  6
CONTINUOUS
 10
3.4820955577
 20
3.9203680744
 40
0.1875
100
AcDbArc
 50
93.2006734504
 51
115.2146348242
  0
ARC
  5
2F7
100
AcDbEntity
  8
0
100
AcDbCircle
 62
7
  6
CONTINUOUS
 10
3.4695330786
 20
4.156243831
 40
0.0375
100
AcDbArc
 50
0.0
 51
66.3131006386
  0
ARC
  5
2F8
100
AcDbEntity
  8
0
100
AcDbCircle
 62
7
  6
CONTINUOUS
 10
3.4695330786
 20
4.1450170987
 40
0.0375
100
AcDbArc
 50
273.2006733195
 51
360.0
  0
ARC
  5
2F9
100
AcDbEntity
  8
0
100
AcDbCircle
 62
7
  6
CONTINUOUS
 10
3.4966504207
 20
4.2180572581
 40
0.03
100
AcDbArc
 50
186.0539076139
 51
246.3131006352
  0
ARC
  5
2FA
100
AcDbEntity
  8
0
100
AcDbCircle
 62
7
  6
CONTINUOUS
 10
3.1029075049
 20
4.5855700045
 40
0.03
100
AcDbArc
 50
91.6702677144
 51
166.0812002786
  0
ARC
  5
2FB
100
AcDbEntity
  8
0
100
AcDbCircle
 62
7
  6
CONTINUOUS
 10
3.1095330786
 20
4.6830572581
 40
0.0075
100
AcDbArc
 50
89.9999996328
 51
180.0
  0
ARC
  5
2FC
100
AcDbEntity
  8
0
100
AcDbCircle
 62
7
  6
CONTINUOUS
 10
3.2370330786
 20
4.9815572581
 40
0.33825
100
AcDbArc
 50
36.933444909
 51
138.3455083111
  0
ARC
  5
2FD
100
AcDbEntity
  8
0
100
AcDbCircle
 62
7
  6
CONTINUOUS
 10
3.2370330786
 20
4.9815572581
 40
0.33825
100
AcDbArc
 50
221.6544916889
 51
239.3514548587
  0
ARC
  5
2FE
100
AcDbEntity
  8
0
100
AcDbCircle
 62
7
  6
CONTINUOUS
 10
3.2370330786
 20
4.9815572581
 40
0.33825
100
AcDbArc
 50
300.6485451413
 51
323.066555091
  0
ARC
  5
2FF
100
AcDbEntity
  8
ALL_FEATURES
100
AcDbCircle
 62
7
  6
CONTINUOUS
 10
3.2370330786
 20
4.9815572581
 40
0.33825
100
AcDbArc
 50
300.6485451413
 51
323.066555091
  0
ARC
  5
300
100
AcDbEntity
  8
ALL_FEATURES
100
AcDbCircle
 62
7
  6
CONTINUOUS
 10
3.2370330786
 20
4.9815572581
 40
0.33825
100
AcDbArc
 50
221.6544916889
 51
239.3514548587
  0
ARC
  5
301
100
AcDbEntity
  8
ALL_FEATURES
100
AcDbCircle
 62
7
  6
CONTINUOUS
 10
3.2370330786
 20
4.9815572581
 40
0.33825
100
AcDbArc
 50
36.933444909
 51
138.3455083111
  0
ARC
  5
302
100
AcDbEntity
  8
0
100
AcDbCircle
 62
7
  6
CONTINUOUS
 10
3.3711586524
 20
4.5855700045
 40
0.03
100
AcDbArc
 50
13.9187997207
 51
88.3297322854
  0
ARC
  5
303
100
AcDbEntity
  8
0
100
AcDbCircle
 62
7
  6
CONTINUOUS
 10
3.3645330786
 20
4.6830572581
 40
0.0075
100
AcDbArc
 50
0.0
 51
90.0000003672
  0
ARC
  5
304
100
AcDbEntity
  8
0
100
AcDbCircle
 62
7
  6
CONTINUOUS
 10
3.4024078186
 20
4.9815572581
 40
0.525
100
AcDbArc
 50
161.1809366353
 51
198.8190633647
  0
ARC
  5
305
100
AcDbEntity
  8
ALL_FEATURES
100
AcDbCircle
 62
7
  6
CONTINUOUS
 10
4.2436480187
 20
3.9115709286
 40
0.6922774635
100
AcDbArc
 50
283.1438899821
 51
283.5220984936
  0
ARC
  5
306
100
AcDbEntity
  8
ALL_FEATURES
100
AcDbCircle
 62
7
  6
CONTINUOUS
 10
4.2679218914
 20
3.9042242836
 40
0.6847263133
100
AcDbArc
 50
256.4545824201
 51
256.8585504424
  0
ARC
  5
307
100
AcDbEntity
  8
0
100
AcDbCircle
 62
7
  6
CONTINUOUS
 10
4.1560014337
 20
4.5709322581
 40
0.075
100
AcDbArc
 50
216.1922176693
 51
270.0
  0
ARC
  5
308
100
AcDbEntity
  8
0
100
AcDbCircle
 62
7
  6
CONTINUOUS
 10
3.8749078186
 20
4.7391991049
 40
0.03
100
AcDbArc
 50
180.0
 51
246.7691079294
  0
ARC
  5
309
100
AcDbEntity
  8
0
100
AcDbCircle
 62
7
  6
CONTINUOUS
 10
3.6409078186
 20
5.7690663651
 40
0.56325
100
AcDbArc
 50
293.2308920706
 51
323.8077823306
  0
ARC
  5
30A
100
AcDbEntity
  8
0
100
AcDbCircle
 62
7
  6
CONTINUOUS
 10
4.1560014337
 20
5.3921822581
 40
0.075
100
AcDbArc
 50
90.0
 51
143.8077823307
  0
ARC
  5
30B
100
AcDbEntity
  8
0
100
AcDbCircle
 62
7
  6
CONTINUOUS
 10
3.8749078186
 20
5.2239154113
 40
0.03
100
AcDbArc
 50
113.2308920706
 51
180.0
  0
ARC
  5
30C
100
AcDbEntity
  8
0
100
AcDbCircle
 62
7
  6
CONTINUOUS
 10
5.7891470742
 20
3.9198574343
 40
2.7975
100
AcDbArc
 50
166.081199733
 51
173.946092351
  0
ARC
  5
30D
100
AcDbEntity
  8
0
100
AcDbCircle
 62
7
  6
CONTINUOUS
 10
5.1116006777
 20
3.8805785162
 40
0.6418381027
100
AcDbArc
 50
269.5423336096
 51
269.998789793
  0
ARC
  5
30E
100
AcDbEntity
  8
0
100
AcDbCircle
 62
7
  6
CONTINUOUS
 10
5.1115968697
 20
3.8786607393
 40
0.6399203786
100
AcDbArc
 50
267.9857487066
 51
269.5413029837
  0
ARC
  5
30F
100
AcDbEntity
  8
ALL_FEATURES
100
AcDbCircle
 62
7
  6
CONTINUOUS
 10
5.0275999338
 20
6.4509333474
 40
0.3225
100
AcDbArc
 50
323.916964529
 51
352.1032437574
  0
ARC
  5
310
100
AcDbEntity
  8
ALL_FEATURES
100
AcDbCircle
 62
7
  6
CONTINUOUS
 10
5.3367227792
 20
6.2256572581
 40
0.06
100
AcDbArc
 50
143.916964529
 51
180.0
  0
ARC
  5
311
100
AcDbEntity
  8
ALL_FEATURES
100
AcDbCircle
 62
7
  6
CONTINUOUS
 10
5.4064727792
 20
6.3983822581
 40
0.06
100
AcDbArc
 50
90.0
 51
172.1032437574
  0
LINE
  5
312
100
AcDbEntity
  8
0
100
AcDbLine
 62
7
  6
CONTINUOUS
 10
5.0891012658
 20
3.2391359019
 11
5.0911633263
 21
3.239066692
  0
SPLINE
  5
313
100
AcDbEntity
  8
0
100
AcDbSpline
 62
7
  6
CONTINUOUS
 70
0
 71
3
 72
35
 73
31
 74
0
 42
0.0000001
 43
0.0000001
 44
0.0000000001
 40
0.0
 40
0.0
 40
0.0
 40
0.0
 40
0.0198798482
 40
0.0389061
 40
0.0572349263
 40
0.0750085906
 40
0.1093037191
 40
0.1423092093
 40
0.1743589853
 40
0.2056530689
 40
0.2363464043
 40
0.2665723801
 40
0.3259971954
 40
0.3844687642
 40
0.4423690724
 40
0.5
 40
0.5576309276
 40
0.6155312358
 40
0.6740028046
 40
0.7334276199
 40
0.7636535957
 40
0.7943469311
 40
0.8256410147
 40
0.8576907907
 40
0.8906962809
 40
0.9249914094
 40
0.9427650737
 40
0.9610939
 40
0.9801201518
 40
1.0
 40
1.0
 40
1.0
 40
1.0
 10
4.4052227792
 20
4.3614797581
 30
0.0
 10
4.4040787713
 20
4.3614797581
 30
0.0
 10
4.4018394568
 20
4.3615347639
 30
0.0
 10
4.3985534915
 20
4.3617758857
 30
0.0
 10
4.3954023712
 20
4.3621520827
 30
0.0
 10
4.3914021073
 20
4.3627969639
 30
0.0
 10
4.3866119655
 20
4.3638276659
 30
0.0
 10
4.3811083143
 20
4.3653876399
 30
0.0
 10
4.375862858
 20
4.3671921208
 30
0.0
 10
4.3708428572
 20
4.3692191428
 30
0.0
 10
4.3660238311
 20
4.3714457278
 30
0.0
 10
4.3598720006
 20
4.374629887
 30
0.0
 10
4.3525408266
 20
4.3789969908
 30
0.0
 10
4.3442601048
 20
4.3848233898
 30
0.0
 10
4.336489355
 20
4.3911511512
 30
0.0
 10
4.3292072194
 20
4.3979641983
 30
0.0
 10
4.3223941724
 20
4.4052463339
 30
0.0
 10
4.3160664109
 20
4.4130170836
 30
0.0
 10
4.3102400119
 20
4.4212978054
 30
0.0
 10
4.3058729081
 20
4.4286289794
 30
0.0
 10
4.3026887489
 20
4.4347808099
 30
0.0
 10
4.3004621639
 20
4.4395998361
 30
0.0
 10
4.2984351419
 20
4.4446198369
 30
0.0
 10
4.296630661
 20
4.4498652932
 30
0.0
 10
4.2950706871
 20
4.4553689444
 30
0.0
 10
4.2940399851
 20
4.4601590861
 30
0.0
 10
4.2933951039
 20
4.4641593501
 30
0.0
 10
4.2930189068
 20
4.4673104703
 30
0.0
 10
4.292777785
 20
4.4705964357
 30
0.0
 10
4.2927227792
 20
4.4728357502
 30
0.0
 10
4.2927227792
 20
4.4739797581
 30
0.0
  0
SPLINE
  5
314
100
AcDbEntity
  8
0
100
AcDbSpline
 62
7
  6
CONTINUOUS
 70
0
 71
3
 72
35
 73
31
 74
0
 42
0.0000001
 43
0.0000001
 44
0.0000000001
 40
0.0
 40
0.0
 40
0.0
 40
0.0
 40
0.0198798482
 40
0.0389061
 40
0.0572349263
 40
0.0750085906
 40
0.1093037191
 40
0.1423092093
 40
0.1743589853
 40
0.2056530689
 40
0.2363464043
 40
0.2665723801
 40
0.3259971954
 40
0.3844687642
 40
0.4423690724
 40
0.5
 40
0.5576309276
 40
0.6155312358
 40
0.6740028046
 40
0.7334276199
 40
0.7636535957
 40
0.7943469311
 40
0.8256410147
 40
0.8576907907
 40
0.8906962809
 40
0.9249914094
 40
0.9427650737
 40
0.9610939
 40
0.9801201518
 40
1.0
 40
1.0
 40
1.0
 40
1.0
 10
4.4052227792
 20
5.6016347581
 30
0.0
 10
4.4040787713
 20
5.6016347581
 30
0.0
 10
4.4018394568
 20
5.6015797523
 30
0.0
 10
4.3985534915
 20
5.6013386304
 30
0.0
 10
4.3954023712
 20
5.6009624334
 30
0.0
 10
4.3914021073
 20
5.6003175522
 30
0.0
 10
4.3866119655
 20
5.5992868502
 30
0.0
 10
4.3811083143
 20
5.5977268762
 30
0.0
 10
4.375862858
 20
5.5959223953
 30
0.0
 10
4.3708428572
 20
5.5938953733
 30
0.0
 10
4.3660238311
 20
5.5916687884
 30
0.0
 10
4.3598720006
 20
5.5884846292
 30
0.0
 10
4.3525408266
 20
5.5841175254
 30
0.0
 10
4.3442601048
 20
5.5782911264
 30
0.0
 10
4.336489355
 20
5.5719633649
 30
0.0
 10
4.3292072194
 20
5.5651503179
 30
0.0
 10
4.3223941724
 20
5.5578681822
 30
0.0
 10
4.3160664109
 20
5.5500974325
 30
0.0
 10
4.3102400119
 20
5.5418167107
 30
0.0
 10
4.3058729081
 20
5.5344855367
 30
0.0
 10
4.3026887489
 20
5.5283337062
 30
0.0
 10
4.3004621639
 20
5.5235146801
 30
0.0
 10
4.2984351419
 20
5.5184946792
 30
0.0
 10
4.296630661
 20
5.513249223
 30
0.0
 10
4.2950706871
 20
5.5077455718
 30
0.0
 10
4.2940399851
 20
5.50295543
 30
0.0
 10
4.2933951039
 20
5.4989551661
 30
0.0
 10
4.2930189068
 20
5.4958040458
 30
0.0
 10
4.292777785
 20
5.4925180805
 30
0.0
 10
4.2927227792
 20
5.490278766
 30
0.0
 10
4.2927227792
 20
5.4891347581
 30
0.0
  0
LINE
  5
315
100
AcDbEntity
  8
ALL_FEATURES
100
AcDbLine
 62
7
  6
CONTINUOUS
 10
4.4089078186
 20
3.2393072581
 11
4.4055165991
 21
3.2384835278
  0
SPLINE
  5
316
100
AcDbEntity
  8
ALL_FEATURES
100
AcDbSpline
 62
7
  6
CONTINUOUS
 70
0
 71
3
 72
23
 73
19
 74
0
 42
0.0000001
 43
0.0000001
 44
0.0000000001
 40
0.0
 40
0.0
 40
0.0
 40
0.0
 40
0.0764409523
 40
0.193155345
 40
0.2631756764
 40
0.3004158095
 40
0.3388604638
 40
0.4184343366
 40
0.4590925504
 40
0.5000002522
 40
0.5409080643
 40
0.5815664853
 40
0.661140583
 40
0.6995852282
 40
0.7368252982
 40
0.8068453101
 40
0.9235593177
 40
1.0
 40
1.0
 40
1.0
 40
1.0
 10
4.4010700658
 20
3.2374297078
 30
0.0
 10
4.3938377609
 20
3.2357412079
 30
0.0
 10
4.3754951808
 20
3.2317604692
 30
0.0
 10
4.3502910726
 20
3.2273784334
 30
0.0
 10
4.3287092969
 20
3.2245654626
 30
0.0
 10
4.3146297874
 20
3.2230858973
 30
0.0
 10
4.2996013307
 20
3.2217796102
 30
0.0
 10
4.2842068764
 20
3.2208736286
 30
0.0
 10
4.2685570553
 20
3.2204105168
 30
0.0
 10
4.2566576242
 20
3.2202909731
 30
0.0
 10
4.2447581735
 20
3.2204105417
 30
0.0
 10
4.2291082991
 20
3.2208736361
 30
0.0
 10
4.213713805
 20
3.2217796479
 30
0.0
 10
4.1986853344
 20
3.2230859442
 30
0.0
 10
4.1846058645
 20
3.2245655234
 30
0.0
 10
4.1630241642
 20
3.2273784943
 30
0.0
 10
4.1378201527
 20
3.2317605335
 30
0.0
 10
4.1194776353
 20
3.2357412601
 30
0.0
 10
4.1122453565
 20
3.2374297571
 30
0.0
  0
LINE
  5
317
100
AcDbEntity
  8
ALL_FEATURES
100
AcDbLine
 62
7
  6
CONTINUOUS
 10
4.107547982
 20
3.2385439299
 11
4.1044078186
 21
3.2393072581
  0
ENDSEC
  0
SECTION
  2
OBJECTS
  0
DICTIONARY
  5
C
100
AcDbDictionary
280
0
281
1
  3
ACAD_GROUP
350
D
  3
ACAD_MLINESTYLE
350
17
  3
ACAD_LAYOUT
350
1A
  3
ACAD_PLOTSETTINGS
350
19
  3
ACAD_PLOTSTYLENAME
350
E
  0
DICTIONARY
  5
D
102
{ACAD_REACTORS
330
C
102
}
100
AcDbDictionary
280
0
281
1
  0
ACDBDICTIONARYWDFLT
  5
E
102
{ACAD_REACTORS
330
C
102
}
100
AcDbDictionary
281
1
  3
Normal
350
F
100
AcDbDictionaryWithDefault
340
F
  0
DICTIONARY
  5
17
102
{ACAD_REACTORS
330
C
102
}
100
AcDbDictionary
280
0
281
1
  3
Standard
350
18
  0
DICTIONARY
  5
19
102
{ACAD_REACTORS
330
C
102
}
100
AcDbDictionary
281
1
  0
DICTIONARY
  5
1A
102
{ACAD_REACTORS
330
C
102
}
100
AcDbDictionary
281
1
  3
Model
350
318
  3
Layout1
350
319
  0
ACDBPLACEHOLDER
  5
F
102
{ACAD_REACTORS
330
E
102
}
  0
MLINESTYLE
  5
18
102
{ACAD_REACTORS
330
17
102
}
100
AcDbMlineStyle
  2
STANDARD
 70
0
  3

 62
256
 51
90.0
 52
90.0
 71
2
 49
0.5
 62
256
  6
BYLAYER
 49
-0.5
 62
256
  6
BYLAYER
  0
LAYOUT
  5
318
102
{ACAD_REACTORS
330
1A
102
}
100
AcDbPlotSettings
  1

  2
none_device
  4
ANSI_A_(11.00_x_8.50_Inches)
  6

 40
0.0
 41
0.0
 42
0.0
 43
0.0
 44
279.4
 45
215.9
 46
0.0
 47
0.0
 48
0.0
 49
0.0
140
0.0
141
0.0
142
1.0
143
1.0
 70
1024
 72
0
 73
0
 74
0
  7

 75
0
147
1.0
148
0.0
149
0.0
100
AcDbLayout
  1
Model
 70
0
 71
0
 10
0.0
 20
0.0
 11
11.0
 21
8.5
 12
0.0
 22
0.0
 32
0.0
 14
0.0
 24
0.0
 34
0.0
 15
0.0
 25
0.0
 35
0.0
146
0.0
 13
0.0
 23
0.0
 33
0.0
 16
1.0
 26
0.0
 36
0.0
 17
0.0
 27
1.0
 37
0.0
 76
0
330
21C
345
0
346
0
  0
LAYOUT
  5
319
102
{ACAD_REACTORS
330
1A
102
}
100
AcDbPlotSettings
  1

  2
none_device
  4
ANSI_A_(11.00_x_8.50_Inches)
  6

 40
0.0
 41
0.0
 42
0.0
 43
0.0
 44
279.4
 45
215.9
 46
0.0
 47
0.0
 48
0.0
 49
0.0
140
0.0
141
0.0
142
1.0
143
1.0
 70
0
 72
0
 73
0
 74
0
  7

 75
0
147
1.0
148
0.0
149
0.0
100
AcDbLayout
  1
Layout1
 70
0
 71
1
 10
0.0
 20
0.0
 11
11.0
 21
8.5
 12
0.0
 22
0.0
 32
0.0
 14
0.0
 24
0.0
 34
0.0
 15
0.0
 25
0.0
 35
0.0
146
0.0
 13
0.0
 23
0.0
 33
0.0
 16
1.0
 26
0.0
 36
0.0
 17
0.0
 27
1.0
 37
0.0
 76
0
330
21D
345
0
346
0
  0
ENDSEC
  0
EOF
