999
DXF file: 3-2405_RIGHT.dxf
999
Pro/ENGINEER 2018400 by Parametric Technology Corporation
  0
SECTION
  2
HEADER
  9
$ACADVER
  1
AC1027
  9
$DWGCODEPAGE
  3
ANSI_1252
  9
$EXTMAX
 10
11.0
 20
8.5
 30
0.0
  9
$EXTMIN
 10
0.0
 20
0.0
 30
0.0
  9
$LIMMIN
 10
0.0
 20
0.0
  9
$LIMMAX
 10
11.0
 20
8.5
  9
$VIEWCTR
 10
5.5
 20
4.25
  9
$VIEWSIZE
 40
8.5
  9
$CLAYER
  8
0
  9
$LTSCALE
 40
0.605
  9
$CELTYPE
  6
BYLAYER
  9
$DIMSCALE
 40
1.0
  9
$DIMASZ
 40
0.1
  9
$DIMEXO
 40
0.0625
  9
$DIMDLI
 40
0.418
  9
$DIMEXE
 40
0.125
  9
$DIMCEN
 40
0.099
  9
$DIMLFAC
 40
1.0
  9
$DIMBLK
  1
_FILLED
  9
$DIMALT
 70
1
  9
$DIMALTD
 70
2
  9
$DIMALTTD
 70
2
  9
$DIMALTF
 40
25.4
  9
$DIMTXT
 40
0.08
  9
$DIMTOL
 70
1
  9
$DIMLIM
 70
0
  9
$DIMTFAC
 40
1.0
  9
$DIMTP
 40
0.001
  9
$DIMTM
 40
0.001
  9
$DIMGAP
 40
0.09
  9
$DIMDSEP
 70
46
  9
$AUNITS
 70
0
  9
$PDMODE
 70
3
  9
$PDSIZE
 40
0.3125
  9
$HANDSEED
  5
30F
  9
$TILEMODE
 70
1
  9
$MEASUREMENT
 70
0
  9
$INSUNITS
 70
1
  0
ENDSEC
  0
SECTION
  2
CLASSES
  0
CLASS
  1
ACDBDICTIONARYWDFLT
  2
AcDbDictionaryWithDefault
  3
AutoCAD 2000
 90
0
 91
1
280
0
281
0
  0
CLASS
  1
ACDBPLACEHOLDER
  2
AcDbPlaceHolder
  3
AutoCAD 2000
 90
0
 91
1
280
0
281
0
  0
CLASS
  1
LAYOUT
  2
AcDbLayout
  3
AutoCAD 2000
 90
0
 91
0
280
0
281
0
  0
ENDSEC
  0
SECTION
  2
TABLES
  0
TABLE
  2
VPORT
  5
8
100
AcDbSymbolTable
 70
2
  0
VPORT
  5
1F4
100
AcDbSymbolTableRecord
100
AcDbViewportTableRecord
  2
*ACTIVE
 70
0
 10
0.0
 20
0.0
 11
1.0
 21
1.0
 12
5.5
 22
4.25
 13
0.0
 23
0.0
 14
1.0
 24
1.0
 15
0.0
 25
0.0
 16
0.0
 26
0.0
 36
1.0
 17
0.0
 27
0.0
 37
0.0
 40
8.5
 41
1.2941176471
 42
50.0
 43
0.0
 44
0.0
 50
0.0
 51
0.0
 71
0
 72
100
 73
1
 74
1
 75
0
 76
0
 77
0
 78
0
  0
ENDTAB
  0
TABLE
  2
LTYPE
  5
5
100
AcDbSymbolTable
 70
6
  0
LTYPE
  5
14
100
AcDbSymbolTableRecord
100
AcDbLinetypeTableRecord
  2
BYBLOCK
 70
0
  3

 72
65
 73
0
 40
0.0
  0
LTYPE
  5
15
100
AcDbSymbolTableRecord
100
AcDbLinetypeTableRecord
  2
BYLAYER
 70
0
  3

 72
65
 73
0
 40
0.0
  0
LTYPE
  5
16
100
AcDbSymbolTableRecord
100
AcDbLinetypeTableRecord
  2
CONTINUOUS
 70
64
  3
Solid line
 72
65
 73
0
 40
0.0
  0
LTYPE
  5
1F5
100
AcDbSymbolTableRecord
100
AcDbLinetypeTableRecord
  2
CENTER
 70
64
  3
____ _ ____ _ ____ _ ____ _ ____ _ ____ _ ____
 72
65
 73
4
 40
0.6
 49
0.375
 74
0
 49
-0.075
 74
0
 49
0.075
 74
0
 49
-0.075
 74
0
  0
LTYPE
  5
1F6
100
AcDbSymbolTableRecord
100
AcDbLinetypeTableRecord
  2
HIDDEN
 70
64
  3
- - - - - - - - - - - - - - - - - - - -
 72
65
 73
2
 40
0.2
 49
0.1
 74
0
 49
-0.1
 74
0
  0
LTYPE
  5
1F7
100
AcDbSymbolTableRecord
100
AcDbLinetypeTableRecord
  2
PHANTOM
 70
64
  3
_____ _ _ _____ _ _ _____ _ _ _____
 72
65
 73
6
 40
0.8
 49
0.45
 74
0
 49
-0.05
 74
0
 49
0.1
 74
0
 49
-0.05
 74
0
 49
0.1
 74
0
 49
-0.05
 74
0
  0
LTYPE
  5
1F8
100
AcDbSymbolTableRecord
100
AcDbLinetypeTableRecord
  2
DOT
 70
64
  3
. . . . . . . . . . . . . . . . . . . .
 72
65
 73
2
 40
0.2
 49
0.1
 74
0
 49
-0.1
 74
0
  0
LTYPE
  5
1F9
100
AcDbSymbolTableRecord
100
AcDbLinetypeTableRecord
  2
DASHED
 70
64
  3
- - - - - - - - - - - - - - - - - - - -
 72
65
 73
2
 40
0.2
 49
0.1
 74
0
 49
-0.1
 74
0
  0
ENDTAB
  0
TABLE
  2
LAYER
  5
2
100
AcDbSymbolTable
 70
36
  0
LAYER
  5
10
100
AcDbSymbolTableRecord
100
AcDbLayerTableRecord
  2
0
 70
0
 62
7
  6
CONTINUOUS
370
-3
390
F
  0
LAYER
  5
1FA
100
AcDbSymbolTableRecord
100
AcDbLayerTableRecord
  2
DEFAULT_1
 70
0
 62
7
  6
CENTER
370
-3
390
F
  0
LAYER
  5
1FB
100
AcDbSymbolTableRecord
100
AcDbLayerTableRecord
  2
DEFAULT_2
 70
0
 62
8
  6
HIDDEN
370
-3
390
F
  0
LAYER
  5
1FC
100
AcDbSymbolTableRecord
100
AcDbLayerTableRecord
  2
DEFAULT_3
 70
0
 62
7
  6
PHANTOM
370
-3
390
F
  0
LAYER
  5
1FD
100
AcDbSymbolTableRecord
100
AcDbLayerTableRecord
  2
3-985_ASSY_PLANES
 70
0
 62
7
  6
CONTINUOUS
370
-3
390
F
  0
LAYER
  5
1FE
100
AcDbSymbolTableRecord
100
AcDbLayerTableRecord
  2
ALL_ASSEMBLY_MEMBERS
 70
0
 62
7
  6
CONTINUOUS
370
-3
390
F
  0
LAYER
  5
1FF
100
AcDbSymbolTableRecord
100
AcDbLayerTableRecord
  2
ALL_FEATURES
 70
0
 62
7
  6
CONTINUOUS
370
-3
390
F
  0
LAYER
  5
200
100
AcDbSymbolTableRecord
100
AcDbLayerTableRecord
  2
AXES_FEATURES
 70
0
 62
7
  6
CONTINUOUS
370
-3
390
F
  0
LAYER
  5
201
100
AcDbSymbolTableRecord
100
AcDbLayerTableRecord
  2
CHAMFER_FEATURES
 70
0
 62
7
  6
CONTINUOUS
370
-3
390
F
  0
LAYER
  5
202
100
AcDbSymbolTableRecord
100
AcDbLayerTableRecord
  2
COORDINATE_SYSTEMS
 70
0
 62
7
  6
CONTINUOUS
370
-3
390
F
  0
LAYER
  5
203
100
AcDbSymbolTableRecord
100
AcDbLayerTableRecord
  2
CUT_FEATURES
 70
0
 62
7
  6
CONTINUOUS
370
-3
390
F
  0
LAYER
  5
204
100
AcDbSymbolTableRecord
100
AcDbLayerTableRecord
  2
CYAN
 70
0
 62
7
  6
CONTINUOUS
370
-3
390
F
  0
LAYER
  5
205
100
AcDbSymbolTableRecord
100
AcDbLayerTableRecord
  2
DATUM_CURVES
 70
0
 62
7
  6
CONTINUOUS
370
-3
390
F
  0
LAYER
  5
206
100
AcDbSymbolTableRecord
100
AcDbLayerTableRecord
  2
DATUM_PLANES
 70
0
 62
7
  6
CONTINUOUS
370
-3
390
F
  0
LAYER
  5
207
100
AcDbSymbolTableRecord
100
AcDbLayerTableRecord
  2
DATUM_POINTS
 70
0
 62
7
  6
CONTINUOUS
370
-3
390
F
  0
LAYER
  5
208
100
AcDbSymbolTableRecord
100
AcDbLayerTableRecord
  2
DEFAULT_COORDINATE_SYSTEM
 70
0
 62
7
  6
CONTINUOUS
370
-3
390
F
  0
LAYER
  5
209
100
AcDbSymbolTableRecord
100
AcDbLayerTableRecord
  2
DEFAULT_DATUM_AXES
 70
0
 62
7
  6
CONTINUOUS
370
-3
390
F
  0
LAYER
  5
20A
100
AcDbSymbolTableRecord
100
AcDbLayerTableRecord
  2
DEFAULT_DATUM_CURVES
 70
0
 62
7
  6
CONTINUOUS
370
-3
390
F
  0
LAYER
  5
20B
100
AcDbSymbolTableRecord
100
AcDbLayerTableRecord
  2
DEFAULT_DATUM_PLANES
 70
0
 62
7
  6
CONTINUOUS
370
-3
390
F
  0
LAYER
  5
20C
100
AcDbSymbolTableRecord
100
AcDbLayerTableRecord
  2
DEFAULT_SURFACES
 70
0
 62
7
  6
CONTINUOUS
370
-3
390
F
  0
LAYER
  5
20D
100
AcDbSymbolTableRecord
100
AcDbLayerTableRecord
  2
DIMENSIONS
 70
0
 62
7
  6
CONTINUOUS
370
-3
390
F
  0
LAYER
  5
20E
100
AcDbSymbolTableRecord
100
AcDbLayerTableRecord
  2
HOLE_FEATURES
 70
0
 62
7
  6
CONTINUOUS
370
-3
390
F
  0
LAYER
  5
20F
100
AcDbSymbolTableRecord
100
AcDbLayerTableRecord
  2
PART_REFERENCE_DIMENSIONS
 70
0
 62
7
  6
CONTINUOUS
370
-3
390
F
  0
LAYER
  5
210
100
AcDbSymbolTableRecord
100
AcDbLayerTableRecord
  2
PLATED_SURFACE_AREA
 70
0
 62
7
  6
CONTINUOUS
370
-3
390
F
  0
LAYER
  5
211
100
AcDbSymbolTableRecord
100
AcDbLayerTableRecord
  2
POINTS
 70
0
 62
7
  6
CONTINUOUS
370
-3
390
F
  0
LAYER
  5
212
100
AcDbSymbolTableRecord
100
AcDbLayerTableRecord
  2
PROTRUSION_FEATURES
 70
0
 62
7
  6
CONTINUOUS
370
-3
390
F
  0
LAYER
  5
213
100
AcDbSymbolTableRecord
100
AcDbLayerTableRecord
  2
QUILTS
 70
0
 62
7
  6
CONTINUOUS
370
-3
390
F
  0
LAYER
  5
214
100
AcDbSymbolTableRecord
100
AcDbLayerTableRecord
  2
REFERENCE_DIMENSIONS
 70
0
 62
7
  6
CONTINUOUS
370
-3
390
F
  0
LAYER
  5
215
100
AcDbSymbolTableRecord
100
AcDbLayerTableRecord
  2
ROUND_FEATURES
 70
0
 62
7
  6
CONTINUOUS
370
-3
390
F
  0
LAYER
  5
216
100
AcDbSymbolTableRecord
100
AcDbLayerTableRecord
  2
SURFACE_FEATURES
 70
0
 62
7
  6
CONTINUOUS
370
-3
390
F
  0
LAYER
  5
217
100
AcDbSymbolTableRecord
100
AcDbLayerTableRecord
  2
SURFACE_FINISH_SYMBOLS
 70
0
 62
7
  6
CONTINUOUS
370
-3
390
F
  0
LAYER
  5
218
100
AcDbSymbolTableRecord
100
AcDbLayerTableRecord
  2
WETTED_SURFACES
 70
0
 62
7
  6
CONTINUOUS
370
-3
390
F
  0
LAYER
  5
219
100
AcDbSymbolTableRecord
100
AcDbLayerTableRecord
  2
WETTED_SURFACE_AREA
 70
0
 62
7
  6
CONTINUOUS
370
-3
390
F
  0
LAYER
  5
21A
100
AcDbSymbolTableRecord
100
AcDbLayerTableRecord
  2
WHITE
 70
0
 62
7
  6
CONTINUOUS
370
-3
390
F
  0
ENDTAB
  0
TABLE
  2
STYLE
  5
3
100
AcDbSymbolTable
 70
1
  0
STYLE
  5
11
100
AcDbSymbolTableRecord
100
AcDbTextStyleTableRecord
  2
STANDARD
 70
0
 40
0.0
 41
0.8
 50
0.0
 71
0
 42
0.2
  3
txt
  4

  0
STYLE
  5
21B
100
AcDbSymbolTableRecord
100
AcDbTextStyleTableRecord
  2
TEXTSTYLE_1
 70
0
 40
0.0
 41
0.8
 50
0.0
 71
0
 42
0.2
  3
gdt
  4

  0
ENDTAB
  0
TABLE
  2
VIEW
  5
6
100
AcDbSymbolTable
 70
0
  0
ENDTAB
  0
TABLE
  2
UCS
  5
7
100
AcDbSymbolTable
 70
0
  0
ENDTAB
  0
TABLE
  2
APPID
  5
9
100
AcDbSymbolTable
 70
1
  0
APPID
  5
21C
100
AcDbSymbolTableRecord
100
AcDbRegAppTableRecord
  2
ACAD
 70
0
  0
ENDTAB
  0
TABLE
  2
BLOCK_RECORD
  5
1
100
AcDbSymbolTable
 70
0
  0
BLOCK_RECORD
  5
21D
100
AcDbSymbolTableRecord
100
AcDbBlockTableRecord
  2
*Model_Space
  0
BLOCK_RECORD
  5
21E
100
AcDbSymbolTableRecord
100
AcDbBlockTableRecord
  2
*Paper_Space
  0
BLOCK_RECORD
  5
21F
100
AcDbSymbolTableRecord
100
AcDbBlockTableRecord
  2
_FILLED
  0
ENDTAB
  0
TABLE
  2
DIMSTYLE
  5
A
100
AcDbSymbolTable
 70
1
100
AcDbDimStyleTable
 71
0
  0
DIMSTYLE
105
220
100
AcDbSymbolTableRecord
100
AcDbDimStyleTableRecord
  2
STANDARD
 70
0
  3

  4

 40
1.0
 41
0.1
 42
0.0625
 43
0.38
 44
0.125
 45
0.0
 46
0.0
 47
0.001
 48
0.001
140
0.08
141
0.09
142
0.0
143
25.4
144
1.0
145
0.0
146
1.0
147
0.09
 71
1.0
 72
0.0
 73
1
 74
1
 75
0
 76
0
 77
0
 78
4
 79
1
170
1
171
2
172
0
173
0
174
0
175
0
176
0
177
0
178
0
270
2
179
3
271
3
272
3
273
2
274
2
275
0
280
0
281
0
282
0
283
1
284
4
285
0
286
0
287
3
288
0
340
11
278
46
341
21F
342
21F
343
21F
344
21F
  0
ENDTAB
  0
ENDSEC
  0
SECTION
  2
BLOCKS
  0
BLOCK
  5
20
100
AcDbEntity
  8
0
100
AcDbBlockBegin
  2
*Model_Space
 70
0
 10
0.0
 20
0.0
 30
0.0
  3
*Model_Space
  1

  0
ENDBLK
  5
21
100
AcDbEntity
  8
0
100
AcDbBlockEnd
  0
BLOCK
  5
1C
100
AcDbEntity
  8
0
100
AcDbBlockBegin
  2
*Paper_Space
 70
0
 10
0.0
 20
0.0
 30
0.0
  3
*Paper_Space
  1

  0
ENDBLK
  5
1D
100
AcDbEntity
  8
0
100
AcDbBlockEnd
  0
BLOCK
  5
221
100
AcDbEntity
  8
0
100
AcDbBlockBegin
  2
_FILLED
 70
64
 10
0.0
 20
0.0
  3
_FILLED
  1

  0
SOLID
  5
222
100
AcDbEntity
  8
0
  6
BYBLOCK
 62
0
100
AcDbTrace
 10
0.0
 20
0.0
 11
-1.0
 21
0.2
 12
-1.0
 22
-0.2
 13
-1.0
 23
-0.2
  0
ENDBLK
  5
223
100
AcDbEntity
  8
0
  6
BYBLOCK
 62
0
100
AcDbBlockEnd
  0
ENDSEC
  0
SECTION
  2
ENTITIES
  0
MTEXT
  5
224
100
AcDbEntity
  8
0
100
AcDbMText
 62
2
  6
CONTINUOUS
  7
STANDARD
 71
3
 72
1
 10
3.4639771874
 20
1.6095342669
 30
0.0
 11
1.0
 21
0.0
 31
0.0
 73
2
 44
0.9
  1
SCALE  .500
 40
0.08
 41
0.704
  0
LINE
  5
225
100
AcDbEntity
  8
0
100
AcDbLine
 62
7
  6
CONTINUOUS
 10
0.0
 20
0.0
 11
0.0
 21
8.5
  0
LINE
  5
226
100
AcDbEntity
  8
0
100
AcDbLine
 62
7
  6
CONTINUOUS
 10
0.0
 20
0.0
 11
11.0
 21
0.0
  0
LINE
  5
227
100
AcDbEntity
  8
0
100
AcDbLine
 62
7
  6
CONTINUOUS
 10
0.0
 20
8.5
 11
11.0
 21
8.5
  0
LINE
  5
228
100
AcDbEntity
  8
0
100
AcDbLine
 62
7
  6
CONTINUOUS
 10
11.0
 20
0.0
 11
11.0
 21
8.5
  0
LINE
  5
229
100
AcDbEntity
  8
ALL_ASSEMBLY_MEMBERS
100
AcDbLine
 62
7
  6
CONTINUOUS
 10
3.9443397951
 20
2.3847749502
 11
3.4688948892
 21
2.503316679
  0
LINE
  5
22A
100
AcDbEntity
  8
ALL_ASSEMBLY_MEMBERS
100
AcDbLine
 62
7
  6
CONTINUOUS
 10
6.8837215704
 20
2.9287607641
 11
6.8762215704
 21
2.9287607641
  0
LINE
  5
22B
100
AcDbEntity
  8
ALL_ASSEMBLY_MEMBERS
100
AcDbLine
 62
7
  6
CONTINUOUS
 10
6.3649715704
 20
2.9287607641
 11
6.3537215704
 21
2.9287607641
  0
LINE
  5
22C
100
AcDbEntity
  8
ALL_ASSEMBLY_MEMBERS
100
AcDbLine
 62
7
  6
CONTINUOUS
 10
6.3187215704
 20
2.9787607641
 11
5.2377215704
 21
2.9787607641
  0
LINE
  5
22D
100
AcDbEntity
  8
ALL_ASSEMBLY_MEMBERS
100
AcDbLine
 62
7
  6
CONTINUOUS
 10
6.3187215704
 20
3.2787607641
 11
5.7717215704
 21
3.2787607641
  0
LINE
  5
22E
100
AcDbEntity
  8
ALL_ASSEMBLY_MEMBERS
100
AcDbLine
 62
7
  6
CONTINUOUS
 10
6.3187215704
 20
3.5787607641
 11
5.3337215704
 21
3.5787607641
  0
LINE
  5
22F
100
AcDbEntity
  8
ALL_ASSEMBLY_MEMBERS
100
AcDbLine
 62
7
  6
CONTINUOUS
 10
6.8837215704
 20
3.6287607641
 11
6.8762215704
 21
3.6287607641
  0
LINE
  5
230
100
AcDbEntity
  8
ALL_ASSEMBLY_MEMBERS
100
AcDbLine
 62
7
  6
CONTINUOUS
 10
6.3649715704
 20
3.6287607641
 11
6.3537215704
 21
3.6287607641
  0
LINE
  5
231
100
AcDbEntity
  8
ALL_ASSEMBLY_MEMBERS
100
AcDbLine
 62
7
  6
CONTINUOUS
 10
3.7033401584
 20
2.8785075384
 11
3.4688948892
 21
2.503316679
  0
LINE
  5
232
100
AcDbEntity
  8
ALL_ASSEMBLY_MEMBERS
100
AcDbLine
 62
7
  6
CONTINUOUS
 10
7.2292215704
 20
6.7367437051
 11
7.1675564196
 21
6.6868082506
  0
LINE
  5
233
100
AcDbEntity
  8
ALL_ASSEMBLY_MEMBERS
100
AcDbLine
 62
7
  6
CONTINUOUS
 10
7.2262309445
 20
2.6338033738
 11
7.1549011557
 21
2.6857607641
  0
LINE
  5
234
100
AcDbEntity
  8
ALL_ASSEMBLY_MEMBERS
100
AcDbLine
 62
7
  6
CONTINUOUS
 10
4.1059465442
 20
2.6243668086
 11
3.9443397951
 21
2.3847749502
  0
LINE
  5
235
100
AcDbEntity
  8
ALL_ASSEMBLY_MEMBERS
100
AcDbLine
 62
7
  6
CONTINUOUS
 10
5.7445460744
 20
6.3916639899
 11
5.7445460744
 21
6.1658575384
  0
LINE
  5
236
100
AcDbEntity
  8
ALL_ASSEMBLY_MEMBERS
100
AcDbLine
 62
7
  6
CONTINUOUS
 10
5.7824077537
 20
6.4187607641
 11
5.7824077537
 21
6.1387607641
  0
LINE
  5
237
100
AcDbEntity
  8
ALL_ASSEMBLY_MEMBERS
100
AcDbLine
 62
7
  6
CONTINUOUS
 10
5.7858357687
 20
6.4187607641
 11
5.7858357687
 21
6.1387607641
  0
LINE
  5
238
100
AcDbEntity
  8
ALL_ASSEMBLY_MEMBERS
100
AcDbLine
 62
7
  6
CONTINUOUS
 10
5.7859717438
 20
6.8494542037
 11
5.7859717438
 21
6.8419697155
  0
LINE
  5
239
100
AcDbEntity
  8
ALL_ASSEMBLY_MEMBERS
100
AcDbLine
 62
7
  6
CONTINUOUS
 10
5.7859717438
 20
5.7080673246
 11
5.7859717438
 21
5.7155518128
  0
LINE
  5
23A
100
AcDbEntity
  8
ALL_ASSEMBLY_MEMBERS
100
AcDbLine
 62
7
  6
CONTINUOUS
 10
5.7958357687
 20
6.1326431411
 11
5.7958357687
 21
6.219998586
  0
LINE
  5
23B
100
AcDbEntity
  8
ALL_ASSEMBLY_MEMBERS
100
AcDbLine
 62
7
  6
CONTINUOUS
 10
5.7958357687
 20
6.3374258086
 11
5.7958357687
 21
6.4248783871
  0
LINE
  5
23C
100
AcDbEntity
  8
ALL_ASSEMBLY_MEMBERS
100
AcDbLine
 62
7
  6
CONTINUOUS
 10
5.7970911888
 20
6.1293298163
 11
5.7970911888
 21
6.2166236164
  0
LINE
  5
23D
100
AcDbEntity
  8
ALL_ASSEMBLY_MEMBERS
100
AcDbLine
 62
7
  6
CONTINUOUS
 10
5.7970911888
 20
6.3409394351
 11
5.7970911888
 21
6.4281917119
  0
LINE
  5
23E
100
AcDbEntity
  8
ALL_ASSEMBLY_MEMBERS
100
AcDbLine
 62
7
  6
CONTINUOUS
 10
5.8759717438
 20
6.5357607641
 11
5.8759717438
 21
6.4907607641
  0
LINE
  5
23F
100
AcDbEntity
  8
ALL_ASSEMBLY_MEMBERS
100
AcDbLine
 62
7
  6
CONTINUOUS
 10
5.8759717438
 20
6.0217607641
 11
5.8759717438
 21
6.0667607641
  0
LINE
  5
240
100
AcDbEntity
  8
ALL_ASSEMBLY_MEMBERS
100
AcDbLine
 62
7
  6
CONTINUOUS
 10
6.0559717438
 20
6.5357607641
 11
6.0559717438
 21
6.4907607641
  0
LINE
  5
241
100
AcDbEntity
  8
ALL_ASSEMBLY_MEMBERS
100
AcDbLine
 62
7
  6
CONTINUOUS
 10
6.0559717438
 20
6.0217607641
 11
6.0559717438
 21
6.0667607641
  0
LINE
  5
242
100
AcDbEntity
  8
ALL_ASSEMBLY_MEMBERS
100
AcDbLine
 62
7
  6
CONTINUOUS
 10
6.1459717438
 20
6.8494542037
 11
6.1459717438
 21
6.8419697155
  0
LINE
  5
243
100
AcDbEntity
  8
ALL_ASSEMBLY_MEMBERS
100
AcDbLine
 62
7
  6
CONTINUOUS
 10
6.1459717438
 20
5.7080673246
 11
6.1459717438
 21
5.7155518128
  0
LINE
  5
244
100
AcDbEntity
  8
ALL_ASSEMBLY_MEMBERS
100
AcDbLine
 62
7
  6
CONTINUOUS
 10
6.1462215704
 20
6.4142607641
 11
6.1462215704
 21
6.1432607641
  0
LINE
  5
245
100
AcDbEntity
  8
ALL_ASSEMBLY_MEMBERS
100
AcDbLine
 62
7
  6
CONTINUOUS
 10
6.2712215704
 20
6.4410107641
 11
6.2712215704
 21
6.1165107641
  0
LINE
  5
246
100
AcDbEntity
  8
ALL_ASSEMBLY_MEMBERS
100
AcDbLine
 62
7
  6
CONTINUOUS
 10
6.3112215704
 20
6.0837607641
 11
6.3112215704
 21
6.4737607641
  0
LINE
  5
247
100
AcDbEntity
  8
ALL_ASSEMBLY_MEMBERS
100
AcDbLine
 62
7
  6
CONTINUOUS
 10
6.3187215704
 20
2.9637607641
 11
6.3187215704
 21
3.5937607641
  0
LINE
  5
248
100
AcDbEntity
  8
ALL_ASSEMBLY_MEMBERS
100
AcDbLine
 62
7
  6
CONTINUOUS
 10
6.3412215704
 20
6.0537607641
 11
6.3412215704
 21
6.5037607641
  0
LINE
  5
249
100
AcDbEntity
  8
ALL_ASSEMBLY_MEMBERS
100
AcDbLine
 62
7
  6
CONTINUOUS
 10
6.3436411715
 20
6.0537607641
 11
6.3436411715
 21
6.5037607641
  0
LINE
  5
24A
100
AcDbEntity
  8
ALL_ASSEMBLY_MEMBERS
100
AcDbLine
 62
7
  6
CONTINUOUS
 10
6.3537215704
 20
2.9287607641
 11
6.3537215704
 21
3.6287607641
  0
LINE
  5
24B
100
AcDbEntity
  8
ALL_ASSEMBLY_MEMBERS
100
AcDbLine
 62
7
  6
CONTINUOUS
 10
6.3649715704
 20
2.9287607641
 11
6.3649715704
 21
3.6287607641
  0
LINE
  5
24C
100
AcDbEntity
  8
ALL_ASSEMBLY_MEMBERS
100
AcDbLine
 62
7
  6
CONTINUOUS
 10
6.3687017085
 20
6.0672692661
 11
6.3687017085
 21
6.4902522622
  0
LINE
  5
24D
100
AcDbEntity
  8
ALL_ASSEMBLY_MEMBERS
100
AcDbLine
 62
7
  6
CONTINUOUS
 10
6.3907048309
 20
6.080621565
 11
6.3907048309
 21
6.4768999633
  0
LINE
  5
24E
100
AcDbEntity
  8
ALL_ASSEMBLY_MEMBERS
100
AcDbLine
 62
7
  6
CONTINUOUS
 10
6.3975249497
 20
2.9509047345
 11
6.3975249497
 21
3.6066167938
  0
LINE
  5
24F
100
AcDbEntity
  8
ALL_ASSEMBLY_MEMBERS
100
AcDbLine
 62
7
  6
CONTINUOUS
 10
6.4170354307
 20
2.9664402287
 11
6.4170354307
 21
3.5910812996
  0
LINE
  5
250
100
AcDbEntity
  8
ALL_ASSEMBLY_MEMBERS
100
AcDbLine
 62
7
  6
CONTINUOUS
 10
5.855848057
 20
5.6713910919
 11
6.0760954306
 21
5.6713910919
  0
LINE
  5
251
100
AcDbEntity
  8
ALL_ASSEMBLY_MEMBERS
100
AcDbLine
 62
7
  6
CONTINUOUS
 10
6.1223675747
 20
5.6831063219
 11
5.8095759128
 21
5.6831063219
  0
LINE
  5
252
100
AcDbEntity
  8
ALL_ASSEMBLY_MEMBERS
100
AcDbLine
 62
7
  6
CONTINUOUS
 10
6.1459717438
 20
5.7080673246
 11
5.7859717438
 21
5.7080673246
  0
LINE
  5
253
100
AcDbEntity
  8
ALL_ASSEMBLY_MEMBERS
100
AcDbLine
 62
7
  6
CONTINUOUS
 10
6.1459717438
 20
5.7155518128
 11
5.7859717438
 21
5.7155518128
  0
LINE
  5
254
100
AcDbEntity
  8
ALL_ASSEMBLY_MEMBERS
100
AcDbLine
 62
7
  6
CONTINUOUS
 10
6.1310152038
 20
5.7384456746
 11
5.8009282838
 21
5.7384456746
  0
LINE
  5
255
100
AcDbEntity
  8
ALL_ASSEMBLY_MEMBERS
100
AcDbLine
 62
7
  6
CONTINUOUS
 10
5.8127819779
 20
5.7546514816
 11
6.1191615096
 21
5.7546514816
  0
LINE
  5
256
100
AcDbEntity
  8
ALL_ASSEMBLY_MEMBERS
100
AcDbLine
 62
7
  6
CONTINUOUS
 10
6.8241577101
 20
3.5910812996
 11
6.8241577101
 21
2.9664402287
  0
LINE
  5
257
100
AcDbEntity
  8
ALL_ASSEMBLY_MEMBERS
100
AcDbLine
 62
7
  6
CONTINUOUS
 10
6.8436681911
 20
3.6066167938
 11
6.8436681911
 21
2.9509047345
  0
LINE
  5
258
100
AcDbEntity
  8
ALL_ASSEMBLY_MEMBERS
100
AcDbLine
 62
7
  6
CONTINUOUS
 10
6.0748015451
 20
6.0065801925
 11
5.8571419425
 21
6.0065801925
  0
LINE
  5
259
100
AcDbEntity
  8
ALL_ASSEMBLY_MEMBERS
100
AcDbLine
 62
7
  6
CONTINUOUS
 10
6.0559717438
 20
6.0217607641
 11
5.8759717438
 21
6.0217607641
  0
LINE
  5
25A
100
AcDbEntity
  8
ALL_ASSEMBLY_MEMBERS
100
AcDbLine
 62
7
  6
CONTINUOUS
 10
6.3436411715
 20
6.0537607641
 11
6.3412215704
 21
6.0537607641
  0
LINE
  5
25B
100
AcDbEntity
  8
ALL_ASSEMBLY_MEMBERS
100
AcDbLine
 62
7
  6
CONTINUOUS
 10
6.0559717438
 20
6.0667607641
 11
5.8759717438
 21
6.0667607641
  0
LINE
  5
25C
100
AcDbEntity
  8
ALL_ASSEMBLY_MEMBERS
100
AcDbLine
 62
7
  6
CONTINUOUS
 10
6.8762215704
 20
2.9287607641
 11
6.8762215704
 21
3.6287607641
  0
LINE
  5
25D
100
AcDbEntity
  8
ALL_ASSEMBLY_MEMBERS
100
AcDbLine
 62
7
  6
CONTINUOUS
 10
6.8837215704
 20
2.9287607641
 11
6.8837215704
 21
3.6287607641
  0
LINE
  5
25E
100
AcDbEntity
  8
ALL_ASSEMBLY_MEMBERS
100
AcDbLine
 62
7
  6
CONTINUOUS
 10
6.9187215704
 20
2.9479544073
 11
6.9187215704
 21
3.6095671209
  0
LINE
  5
25F
100
AcDbEntity
  8
ALL_ASSEMBLY_MEMBERS
100
AcDbLine
 62
7
  6
CONTINUOUS
 10
6.9317852032
 20
2.9142541881
 11
6.9317852032
 21
3.6432673401
  0
LINE
  5
260
100
AcDbEntity
  8
ALL_ASSEMBLY_MEMBERS
100
AcDbLine
 62
7
  6
CONTINUOUS
 10
6.9768061608
 20
6.4943660267
 11
6.9768061608
 21
6.0631555015
  0
LINE
  5
261
100
AcDbEntity
  8
ALL_ASSEMBLY_MEMBERS
100
AcDbLine
 62
7
  6
CONTINUOUS
 10
7.0010690362
 20
6.5166498112
 11
7.0010690362
 21
6.0408717171
  0
LINE
  5
262
100
AcDbEntity
  8
ALL_ASSEMBLY_MEMBERS
100
AcDbLine
 62
7
  6
CONTINUOUS
 10
7.0462215704
 20
6.5312607641
 11
7.0462215704
 21
6.0262607641
  0
LINE
  5
263
100
AcDbEntity
  8
ALL_ASSEMBLY_MEMBERS
100
AcDbLine
 62
7
  6
CONTINUOUS
 10
5.8765220372
 20
6.0717607641
 11
6.0554214503
 21
6.0717607641
  0
LINE
  5
264
100
AcDbEntity
  8
ALL_ASSEMBLY_MEMBERS
100
AcDbLine
 62
7
  6
CONTINUOUS
 10
6.3112215704
 20
6.1165107641
 11
6.2712215704
 21
6.1165107641
  0
LINE
  5
265
100
AcDbEntity
  8
ALL_ASSEMBLY_MEMBERS
100
AcDbLine
 62
7
  6
CONTINUOUS
 10
5.7824077537
 20
6.1387607641
 11
5.7858357687
 21
6.1387607641
  0
LINE
  5
266
100
AcDbEntity
  8
ALL_ASSEMBLY_MEMBERS
100
AcDbLine
 62
7
  6
CONTINUOUS
 10
6.2712215704
 20
6.1495107641
 11
6.1462215704
 21
6.1495107641
  0
LINE
  5
267
100
AcDbEntity
  8
ALL_ASSEMBLY_MEMBERS
100
AcDbLine
 62
7
  6
CONTINUOUS
 10
7.1407215704
 20
3.8474092521
 11
7.1407215704
 21
2.7101122762
  0
LINE
  5
268
100
AcDbEntity
  8
ALL_ASSEMBLY_MEMBERS
100
AcDbLine
 62
7
  6
CONTINUOUS
 10
7.1545826333
 20
6.6596081419
 11
7.1545826333
 21
5.8979133863
  0
LINE
  5
269
100
AcDbEntity
  8
ALL_ASSEMBLY_MEMBERS
100
AcDbLine
 62
7
  6
CONTINUOUS
 10
7.1549011557
 20
3.8717607641
 11
7.1549011557
 21
2.6857607641
  0
LINE
  5
26A
100
AcDbEntity
  8
ALL_ASSEMBLY_MEMBERS
100
AcDbLine
 62
7
  6
CONTINUOUS
 10
7.1675564196
 20
6.6868082506
 11
7.1675564196
 21
5.8707132777
  0
LINE
  5
26B
100
AcDbEntity
  8
ALL_ASSEMBLY_MEMBERS
100
AcDbLine
 62
7
  6
CONTINUOUS
 10
7.2262309445
 20
2.6338033738
 11
7.2262309445
 21
3.9237181544
  0
LINE
  5
26C
100
AcDbEntity
  8
ALL_ASSEMBLY_MEMBERS
100
AcDbLine
 62
7
  6
CONTINUOUS
 10
7.2292215704
 20
6.7367437051
 11
7.2292215704
 21
5.8207778232
  0
LINE
  5
26D
100
AcDbEntity
  8
ALL_ASSEMBLY_MEMBERS
100
AcDbLine
 62
7
  6
CONTINUOUS
 10
7.2350158767
 20
2.6311517181
 11
7.2350158767
 21
3.9263698101
  0
LINE
  5
26E
100
AcDbEntity
  8
ALL_ASSEMBLY_MEMBERS
100
AcDbLine
 62
7
  6
CONTINUOUS
 10
7.2262309445
 20
3.9237181544
 11
7.1549011557
 21
3.8717607641
  0
LINE
  5
26F
100
AcDbEntity
  8
ALL_ASSEMBLY_MEMBERS
100
AcDbLine
 62
7
  6
CONTINUOUS
 10
6.2712215704
 20
6.4080107641
 11
6.1462215704
 21
6.4080107641
  0
LINE
  5
270
100
AcDbEntity
  8
ALL_ASSEMBLY_MEMBERS
100
AcDbLine
 62
7
  6
CONTINUOUS
 10
5.7824077537
 20
6.4187607641
 11
5.7858357687
 21
6.4187607641
  0
LINE
  5
271
100
AcDbEntity
  8
ALL_ASSEMBLY_MEMBERS
100
AcDbLine
 62
7
  6
CONTINUOUS
 10
6.3112215704
 20
6.4410107641
 11
6.2712215704
 21
6.4410107641
  0
LINE
  5
272
100
AcDbEntity
  8
ALL_ASSEMBLY_MEMBERS
100
AcDbLine
 62
7
  6
CONTINUOUS
 10
7.2486604036
 20
3.9234299422
 11
7.2486604036
 21
2.634091586
  0
LINE
  5
273
100
AcDbEntity
  8
ALL_ASSEMBLY_MEMBERS
100
AcDbLine
 62
7
  6
CONTINUOUS
 10
7.2543140815
 20
6.7415168519
 11
7.2543140815
 21
5.8160046763
  0
LINE
  5
274
100
AcDbEntity
  8
ALL_ASSEMBLY_MEMBERS
100
AcDbLine
 62
7
  6
CONTINUOUS
 10
7.2632994214
 20
3.9238067293
 11
7.2632994214
 21
2.6337147989
  0
LINE
  5
275
100
AcDbEntity
  8
ALL_ASSEMBLY_MEMBERS
100
AcDbLine
 62
7
  6
CONTINUOUS
 10
7.2741178979
 20
6.7461222792
 11
7.2741178979
 21
5.8113992491
  0
LINE
  5
276
100
AcDbEntity
  8
ALL_ASSEMBLY_MEMBERS
100
AcDbLine
 62
7
  6
CONTINUOUS
 10
7.3262543143
 20
3.9541974549
 11
7.3262543143
 21
2.6033240734
  0
LINE
  5
277
100
AcDbEntity
  8
ALL_ASSEMBLY_MEMBERS
100
AcDbLine
 62
7
  6
CONTINUOUS
 10
7.353428627
 20
2.5885998812
 11
7.353428627
 21
3.968921647
  0
LINE
  5
278
100
AcDbEntity
  8
ALL_ASSEMBLY_MEMBERS
100
AcDbLine
 62
7
  6
CONTINUOUS
 10
7.3549471792
 20
5.7271493465
 11
7.3549471792
 21
6.8303721817
  0
LINE
  5
279
100
AcDbEntity
  8
ALL_ASSEMBLY_MEMBERS
100
AcDbLine
 62
7
  6
CONTINUOUS
 10
7.3812215704
 20
2.604596481
 11
7.3812215704
 21
3.9529250473
  0
LINE
  5
27A
100
AcDbEntity
  8
ALL_ASSEMBLY_MEMBERS
100
AcDbLine
 62
7
  6
CONTINUOUS
 10
7.3812215704
 20
5.7370431883
 11
7.3812215704
 21
6.82047834
  0
LINE
  5
27B
100
AcDbEntity
  8
ALL_ASSEMBLY_MEMBERS
100
AcDbLine
 62
7
  6
CONTINUOUS
 10
6.0554214503
 20
6.4857607641
 11
5.8765220372
 21
6.4857607641
  0
LINE
  5
27C
100
AcDbEntity
  8
ALL_ASSEMBLY_MEMBERS
100
AcDbLine
 62
7
  6
CONTINUOUS
 10
5.8759717438
 20
6.4907607641
 11
6.0559717438
 21
6.4907607641
  0
LINE
  5
27D
100
AcDbEntity
  8
ALL_ASSEMBLY_MEMBERS
100
AcDbLine
 62
7
  6
CONTINUOUS
 10
6.3436411715
 20
6.5037607641
 11
6.3412215704
 21
6.5037607641
  0
LINE
  5
27E
100
AcDbEntity
  8
ALL_ASSEMBLY_MEMBERS
100
AcDbLine
 62
7
  6
CONTINUOUS
 10
5.8759717438
 20
6.5357607641
 11
6.0559717438
 21
6.5357607641
  0
LINE
  5
27F
100
AcDbEntity
  8
ALL_ASSEMBLY_MEMBERS
100
AcDbLine
 62
7
  6
CONTINUOUS
 10
5.8571419425
 20
6.5509413358
 11
6.0748015451
 21
6.5509413358
  0
LINE
  5
280
100
AcDbEntity
  8
ALL_ASSEMBLY_MEMBERS
100
AcDbLine
 62
7
  6
CONTINUOUS
 10
6.1191615096
 20
6.8028700467
 11
5.8127819779
 21
6.8028700467
  0
LINE
  5
281
100
AcDbEntity
  8
ALL_ASSEMBLY_MEMBERS
100
AcDbLine
 62
7
  6
CONTINUOUS
 10
5.8009282838
 20
6.8190758536
 11
6.1310152038
 21
6.8190758536
  0
LINE
  5
282
100
AcDbEntity
  8
ALL_ASSEMBLY_MEMBERS
100
AcDbLine
 62
7
  6
CONTINUOUS
 10
5.7859717438
 20
6.8419697155
 11
6.1459717438
 21
6.8419697155
  0
LINE
  5
283
100
AcDbEntity
  8
ALL_ASSEMBLY_MEMBERS
100
AcDbLine
 62
7
  6
CONTINUOUS
 10
5.7859717438
 20
6.8494542037
 11
6.1459717438
 21
6.8494542037
  0
LINE
  5
284
100
AcDbEntity
  8
ALL_ASSEMBLY_MEMBERS
100
AcDbLine
 62
7
  6
CONTINUOUS
 10
7.2292215704
 20
5.8207778232
 11
7.1675564196
 21
5.8707132777
  0
LINE
  5
285
100
AcDbEntity
  8
ALL_ASSEMBLY_MEMBERS
100
AcDbLine
 62
7
  6
CONTINUOUS
 10
5.8095759128
 20
6.8744152064
 11
6.1223675747
 21
6.8744152064
  0
LINE
  5
286
100
AcDbEntity
  8
ALL_ASSEMBLY_MEMBERS
100
AcDbLine
 62
7
  6
CONTINUOUS
 10
6.0760954306
 20
6.8861304364
 11
5.855848057
 21
6.8861304364
  0
ARC
  5
287
100
AcDbEntity
  8
ALL_ASSEMBLY_MEMBERS
100
AcDbCircle
 62
7
  6
CONTINUOUS
 10
5.3337972248
 20
0.8276679792
 40
2.751092786
100
AcDbArc
 50
90.0015756204
 51
97.9190543927
  0
ARC
  5
288
100
AcDbEntity
  8
ALL_ASSEMBLY_MEMBERS
100
AcDbCircle
 62
7
  6
CONTINUOUS
 10
5.2379680162
 20
0.3378973763
 40
2.6408633993
100
AcDbArc
 50
90.0053468523
 51
101.9008315835
  0
ARC
  5
289
100
AcDbEntity
  8
ALL_ASSEMBLY_MEMBERS
100
AcDbCircle
 62
7
  6
CONTINUOUS
 10
5.2377215704
 20
0.3402607641
 40
2.6385
100
AcDbArc
 50
101.9061784358
 51
108.9079827008
  0
ARC
  5
28A
100
AcDbEntity
  8
ALL_ASSEMBLY_MEMBERS
100
AcDbCircle
 62
7
  6
CONTINUOUS
 10
5.0949971091
 20
1.767888765
 40
1.5441210656
100
AcDbArc
 50
139.5888094204
 51
142.1403893844
  0
ARC
  5
28B
100
AcDbEntity
  8
ALL_ASSEMBLY_MEMBERS
100
AcDbCircle
 62
7
  6
CONTINUOUS
 10
4.7651437303
 20
2.2146197104
 40
1.2522693786
100
AcDbArc
 50
131.0269231405
 51
147.9845059448
  0
ARC
  5
28C
100
AcDbEntity
  8
ALL_ASSEMBLY_MEMBERS
100
AcDbCircle
 62
7
  6
CONTINUOUS
 10
4.7634007672
 20
2.2161076664
 40
1.25
100
AcDbArc
 50
112.3469579043
 51
131.0114221702
  0
ARC
  5
28D
100
AcDbEntity
  8
ALL_ASSEMBLY_MEMBERS
100
AcDbCircle
 62
7
  6
CONTINUOUS
 10
4.560406142
 20
2.3178227071
 40
0.548181368
100
AcDbArc
 50
139.5895461528
 51
145.9993733145
  0
ARC
  5
28E
100
AcDbEntity
  8
ALL_ASSEMBLY_MEMBERS
100
AcDbCircle
 62
7
  6
CONTINUOUS
 10
4.2645624134
 20
5.5579608816
 40
1.865
100
AcDbArc
 50
6.0539076486
 51
13.9188002726
  0
ARC
  5
28F
100
AcDbEntity
  8
ALL_ASSEMBLY_MEMBERS
100
AcDbCircle
 62
7
  6
CONTINUOUS
 10
4.2645624134
 20
6.9995606467
 40
1.865
100
AcDbArc
 50
346.0811997274
 51
353.9460923514
  0
ARC
  5
290
100
AcDbEntity
  8
ALL_ASSEMBLY_MEMBERS
100
AcDbCircle
 62
7
  6
CONTINUOUS
 10
5.9659717438
 20
5.9052607641
 40
0.2585
100
AcDbArc
 50
244.7853651812
 51
295.2146348188
  0
ARC
  5
291
100
AcDbEntity
  8
ALL_ASSEMBLY_MEMBERS
100
AcDbCircle
 62
7
  6
CONTINUOUS
 10
6.1293467298
 20
5.5583013084
 40
0.125
100
AcDbArc
 50
93.2006734286
 51
115.2146348188
  0
ARC
  5
292
100
AcDbEntity
  8
ALL_ASSEMBLY_MEMBERS
100
AcDbCircle
 62
7
  6
CONTINUOUS
 10
5.8025967577
 20
5.5583013084
 40
0.125
100
AcDbArc
 50
64.7853651812
 51
86.7993265714
  0
ARC
  5
293
100
AcDbEntity
  8
ALL_ASSEMBLY_MEMBERS
100
AcDbCircle
 62
7
  6
CONTINUOUS
 10
5.7824077537
 20
6.1787607641
 40
0.04
100
AcDbArc
 50
198.819063369
 51
270.0
  0
ARC
  5
294
100
AcDbEntity
  8
ALL_ASSEMBLY_MEMBERS
100
AcDbCircle
 62
7
  6
CONTINUOUS
 10
6.1209717438
 20
5.7155518128
 40
0.025
100
AcDbArc
 50
0.0
 51
66.3131006371
  0
ARC
  5
295
100
AcDbEntity
  8
ALL_ASSEMBLY_MEMBERS
100
AcDbCircle
 62
7
  6
CONTINUOUS
 10
5.8109717438
 20
5.7155518128
 40
0.025
100
AcDbArc
 50
113.6868993629
 51
180.0
  0
ARC
  5
296
100
AcDbEntity
  8
ALL_ASSEMBLY_MEMBERS
100
AcDbCircle
 62
7
  6
CONTINUOUS
 10
6.1209717438
 20
5.7080673246
 40
0.025
100
AcDbArc
 50
273.2006734286
 51
360.0
  0
ARC
  5
297
100
AcDbEntity
  8
ALL_ASSEMBLY_MEMBERS
100
AcDbCircle
 62
7
  6
CONTINUOUS
 10
5.8109717438
 20
5.7080673246
 40
0.025
100
AcDbArc
 50
180.0
 51
266.7993265714
  0
ARC
  5
298
100
AcDbEntity
  8
ALL_ASSEMBLY_MEMBERS
100
AcDbCircle
 62
7
  6
CONTINUOUS
 10
6.1390499718
 20
5.7567607641
 40
0.02
100
AcDbArc
 50
186.0539076486
 51
246.3131006371
  0
ARC
  5
299
100
AcDbEntity
  8
ALL_ASSEMBLY_MEMBERS
100
AcDbCircle
 62
7
  6
CONTINUOUS
 10
5.7928935158
 20
5.7567607641
 40
0.02
100
AcDbArc
 50
293.6868993629
 51
353.9460923514
  0
ARC
  5
29A
100
AcDbEntity
  8
ALL_ASSEMBLY_MEMBERS
100
AcDbCircle
 62
7
  6
CONTINUOUS
 10
6.0553887929
 20
6.0017692617
 40
0.02
100
AcDbArc
 50
13.9188002729
 51
88.3297322854
  0
ARC
  5
29B
100
AcDbEntity
  8
ALL_ASSEMBLY_MEMBERS
100
AcDbCircle
 62
7
  6
CONTINUOUS
 10
5.8765546946
 20
6.0017692617
 40
0.02
100
AcDbArc
 50
91.6702677144
 51
166.0811997271
  0
ARC
  5
29C
100
AcDbEntity
  8
ALL_ASSEMBLY_MEMBERS
100
AcDbCircle
 62
7
  6
CONTINUOUS
 10
5.7858357687
 20
6.1487607641
 40
0.01
100
AcDbArc
 50
270.0
 51
360.0
  0
ARC
  5
29D
100
AcDbEntity
  8
ALL_ASSEMBLY_MEMBERS
100
AcDbCircle
 62
7
  6
CONTINUOUS
 10
5.8809717438
 20
6.0667607641
 40
0.005
100
AcDbArc
 50
90.0
 51
180.0
  0
ARC
  5
29E
100
AcDbEntity
  8
ALL_ASSEMBLY_MEMBERS
100
AcDbCircle
 62
7
  6
CONTINUOUS
 10
6.0509717438
 20
6.0667607641
 40
0.005
100
AcDbArc
 50
0.0
 51
90.0
  0
ARC
  5
29F
100
AcDbEntity
  8
ALL_ASSEMBLY_MEMBERS
100
AcDbCircle
 62
7
  6
CONTINUOUS
 10
5.8008357687
 20
6.1326431411
 40
0.005
100
AcDbArc
 50
180.0
 51
221.5034356405
  0
ARC
  5
2A0
100
AcDbEntity
  8
ALL_ASSEMBLY_MEMBERS
100
AcDbCircle
 62
7
  6
CONTINUOUS
 10
6.0758357687
 20
6.2787607641
 40
0.35
100
AcDbArc
 50
161.180936631
 51
198.819063369
  0
ARC
  5
2A1
100
AcDbEntity
  8
ALL_ASSEMBLY_MEMBERS
100
AcDbCircle
 62
7
  6
CONTINUOUS
 10
5.9659717438
 20
6.6522607641
 40
0.2585
100
AcDbArc
 50
64.7853651812
 51
115.2146348188
  0
ARC
  5
2A2
100
AcDbEntity
  8
ALL_ASSEMBLY_MEMBERS
100
AcDbCircle
 62
7
  6
CONTINUOUS
 10
5.9659717438
 20
6.2787607641
 40
0.2255
100
AcDbArc
 50
221.5034356457
 51
246.629659503
  0
ARC
  5
2A3
100
AcDbEntity
  8
ALL_ASSEMBLY_MEMBERS
100
AcDbCircle
 62
7
  6
CONTINUOUS
 10
5.9659717438
 20
6.2787607641
 40
0.2255
100
AcDbArc
 50
293.370340497
 51
323.066555091
  0
ARC
  5
2A4
100
AcDbEntity
  8
ALL_ASSEMBLY_MEMBERS
100
AcDbCircle
 62
7
  6
CONTINUOUS
 10
5.9659717438
 20
6.2787607641
 40
0.2255
100
AcDbArc
 50
36.933444909
 51
66.629659503
  0
ARC
  5
2A5
100
AcDbEntity
  8
ALL_ASSEMBLY_MEMBERS
100
AcDbCircle
 62
7
  6
CONTINUOUS
 10
5.9659717438
 20
6.2787607641
 40
0.2255
100
AcDbArc
 50
113.370340497
 51
138.4965643543
  0
CIRCLE
  5
2A6
100
AcDbEntity
  8
ALL_ASSEMBLY_MEMBERS
100
AcDbCircle
 62
7
  6
CONTINUOUS
 10
5.9659717438
 20
6.2787607641
 40
0.18
  0
CIRCLE
  5
2A7
100
AcDbEntity
  8
ALL_ASSEMBLY_MEMBERS
100
AcDbCircle
 62
7
  6
CONTINUOUS
 10
5.9659717438
 20
6.2787607641
 40
0.1563958287
  0
ARC
  5
2A8
100
AcDbEntity
  8
ALL_ASSEMBLY_MEMBERS
100
AcDbCircle
 62
7
  6
CONTINUOUS
 10
6.1293467298
 20
6.9992202199
 40
0.125
100
AcDbArc
 50
244.7853651812
 51
266.7993265714
  0
ARC
  5
2A9
100
AcDbEntity
  8
ALL_ASSEMBLY_MEMBERS
100
AcDbCircle
 62
7
  6
CONTINUOUS
 10
5.8025967577
 20
6.9992202199
 40
0.125
100
AcDbArc
 50
273.2006734286
 51
295.2146348188
  0
CIRCLE
  5
2AA
100
AcDbEntity
  8
ALL_ASSEMBLY_MEMBERS
100
AcDbCircle
 62
7
  6
CONTINUOUS
 10
5.9659717438
 20
6.2787607641
 40
0.1101236858
  0
ARC
  5
2AB
100
AcDbEntity
  8
ALL_ASSEMBLY_MEMBERS
100
AcDbCircle
 62
7
  6
CONTINUOUS
 10
5.7824077537
 20
6.3787607641
 40
0.04
100
AcDbArc
 50
90.0
 51
161.180936631
  0
ARC
  5
2AC
100
AcDbEntity
  8
ALL_ASSEMBLY_MEMBERS
100
AcDbCircle
 62
7
  6
CONTINUOUS
 10
6.1209717438
 20
6.8494542037
 40
0.025
100
AcDbArc
 50
0.0
 51
86.7993265714
  0
ARC
  5
2AD
100
AcDbEntity
  8
ALL_ASSEMBLY_MEMBERS
100
AcDbCircle
 62
7
  6
CONTINUOUS
 10
5.8109717438
 20
6.8494542037
 40
0.025
100
AcDbArc
 50
93.2006734286
 51
180.0
  0
ARC
  5
2AE
100
AcDbEntity
  8
ALL_ASSEMBLY_MEMBERS
100
AcDbCircle
 62
7
  6
CONTINUOUS
 10
5.8109717438
 20
6.8419697155
 40
0.025
100
AcDbArc
 50
180.0
 51
246.3131006371
  0
ARC
  5
2AF
100
AcDbEntity
  8
ALL_ASSEMBLY_MEMBERS
100
AcDbCircle
 62
7
  6
CONTINUOUS
 10
6.1209717438
 20
6.8419697155
 40
0.025
100
AcDbArc
 50
293.6868993629
 51
360.0
  0
ARC
  5
2B0
100
AcDbEntity
  8
ALL_ASSEMBLY_MEMBERS
100
AcDbCircle
 62
7
  6
CONTINUOUS
 10
6.1390499718
 20
6.8007607641
 40
0.02
100
AcDbArc
 50
113.6868993629
 51
173.9460923514
  0
ARC
  5
2B1
100
AcDbEntity
  8
ALL_ASSEMBLY_MEMBERS
100
AcDbCircle
 62
7
  6
CONTINUOUS
 10
5.7928935158
 20
6.8007607641
 40
0.02
100
AcDbArc
 50
6.0539076486
 51
66.3131006371
  0
ARC
  5
2B2
100
AcDbEntity
  8
ALL_ASSEMBLY_MEMBERS
100
AcDbCircle
 62
7
  6
CONTINUOUS
 10
6.0553887929
 20
6.5557522665
 40
0.02
100
AcDbArc
 50
271.6702677146
 51
346.0811997271
  0
ARC
  5
2B3
100
AcDbEntity
  8
ALL_ASSEMBLY_MEMBERS
100
AcDbCircle
 62
7
  6
CONTINUOUS
 10
5.8765546946
 20
6.5557522665
 40
0.02
100
AcDbArc
 50
193.9188002729
 51
268.3297322856
  0
ARC
  5
2B4
100
AcDbEntity
  8
ALL_ASSEMBLY_MEMBERS
100
AcDbCircle
 62
7
  6
CONTINUOUS
 10
5.7858357687
 20
6.4087607641
 40
0.01
100
AcDbArc
 50
0.0
 51
90.0
  0
ARC
  5
2B5
100
AcDbEntity
  8
ALL_ASSEMBLY_MEMBERS
100
AcDbCircle
 62
7
  6
CONTINUOUS
 10
5.8809717438
 20
6.4907607641
 40
0.005
100
AcDbArc
 50
180.0
 51
270.0
  0
ARC
  5
2B6
100
AcDbEntity
  8
ALL_ASSEMBLY_MEMBERS
100
AcDbCircle
 62
7
  6
CONTINUOUS
 10
6.0509717438
 20
6.4907607641
 40
0.005
100
AcDbArc
 50
270.0
 51
360.0
  0
ARC
  5
2B7
100
AcDbEntity
  8
ALL_ASSEMBLY_MEMBERS
100
AcDbCircle
 62
7
  6
CONTINUOUS
 10
5.8008357687
 20
6.4248783871
 40
0.005
100
AcDbArc
 50
138.4965643595
 51
180.0
  0
ARC
  5
2B8
100
AcDbEntity
  8
ALL_ASSEMBLY_MEMBERS
100
AcDbCircle
 62
7
  6
CONTINUOUS
 10
6.6179216542
 20
3.8627300516
 40
2.2295
100
AcDbArc
 50
80.7367477834
 51
95.849386431
  0
ARC
  5
2B9
100
AcDbEntity
  8
ALL_ASSEMBLY_MEMBERS
100
AcDbCircle
 62
7
  6
CONTINUOUS
 10
6.4058755426
 20
0.7771455726
 40
2.045
100
AcDbArc
 50
63.2522759502
 51
65.2109756159
  0
ARC
  5
2BA
100
AcDbEntity
  8
ALL_ASSEMBLY_MEMBERS
100
AcDbCircle
 62
7
  6
CONTINUOUS
 10
8.0398762208
 20
3.9252607641
 40
1.5
100
AcDbArc
 50
222.3768825512
 51
233.1704541732
  0
ARC
  5
2BB
100
AcDbEntity
  8
ALL_ASSEMBLY_MEMBERS
100
AcDbCircle
 62
7
  6
CONTINUOUS
 10
8.0398762208
 20
2.6322607641
 40
1.5
100
AcDbArc
 50
126.8295458268
 51
137.6231174488
  0
ARC
  5
2BC
100
AcDbEntity
  8
ALL_ASSEMBLY_MEMBERS
100
AcDbCircle
 62
7
  6
CONTINUOUS
 10
6.6205965704
 20
1.6217607641
 40
1.36
100
AcDbArc
 50
81.3917734115
 51
98.6082265885
  0
ARC
  5
2BD
100
AcDbEntity
  8
ALL_ASSEMBLY_MEMBERS
100
AcDbCircle
 62
7
  6
CONTINUOUS
 10
7.0922215704
 20
4.4185558023
 40
0.52
100
AcDbArc
 50
296.7477240498
 51
300.1536927054
  0
ARC
  5
2BE
100
AcDbEntity
  8
ALL_ASSEMBLY_MEMBERS
100
AcDbCircle
 62
7
  6
CONTINUOUS
 10
7.0922215704
 20
2.138965726
 40
0.52
100
AcDbArc
 50
59.8463072946
 51
63.2522759502
  0
ARC
  5
2BF
100
AcDbEntity
  8
ALL_ASSEMBLY_MEMBERS
100
AcDbCircle
 62
7
  6
CONTINUOUS
 10
6.9687215704
 20
2.9479544073
 40
0.05
100
AcDbArc
 50
180.0
 51
222.3768825512
  0
ARC
  5
2C0
100
AcDbEntity
  8
ALL_ASSEMBLY_MEMBERS
100
AcDbCircle
 62
7
  6
CONTINUOUS
 10
6.9687215704
 20
3.6095671209
 40
0.05
100
AcDbArc
 50
137.6231174488
 51
180.0
  0
ARC
  5
2C1
100
AcDbEntity
  8
ALL_ASSEMBLY_MEMBERS
100
AcDbCircle
 62
7
  6
CONTINUOUS
 10
7.2332215704
 20
2.6726129104
 40
0.0415
100
AcDbArc
 50
272.4780297489
 51
291.8402547393
  0
ARC
  5
2C2
100
AcDbEntity
  8
ALL_ASSEMBLY_MEMBERS
100
AcDbCircle
 62
7
  6
CONTINUOUS
 10
7.2332215704
 20
3.8849086179
 40
0.0415
100
AcDbArc
 50
68.1597452607
 51
87.5219702511
  0
ARC
  5
2C3
100
AcDbEntity
  8
ALL_ASSEMBLY_MEMBERS
100
AcDbCircle
 62
7
  6
CONTINUOUS
 10
6.3649715704
 20
3.5937607641
 40
0.035
100
AcDbArc
 50
21.5501295438
 51
90.0
  0
ARC
  5
2C4
100
AcDbEntity
  8
ALL_ASSEMBLY_MEMBERS
100
AcDbCircle
 62
7
  6
CONTINUOUS
 10
6.3649715704
 20
2.9637607641
 40
0.035
100
AcDbArc
 50
270.0
 51
338.4498704562
  0
ARC
  5
2C5
100
AcDbEntity
  8
ALL_ASSEMBLY_MEMBERS
100
AcDbCircle
 62
7
  6
CONTINUOUS
 10
6.3537215704
 20
3.5937607641
 40
0.035
100
AcDbArc
 50
90.0
 51
180.0
  0
ARC
  5
2C6
100
AcDbEntity
  8
ALL_ASSEMBLY_MEMBERS
100
AcDbCircle
 62
7
  6
CONTINUOUS
 10
6.3537215704
 20
2.9637607641
 40
0.035
100
AcDbArc
 50
180.0
 51
270.0
  0
ARC
  5
2C7
100
AcDbEntity
  8
ALL_ASSEMBLY_MEMBERS
100
AcDbCircle
 62
7
  6
CONTINUOUS
 10
6.8762215704
 20
3.5937607641
 40
0.035
100
AcDbArc
 50
90.0
 51
158.4498704562
  0
ARC
  5
2C8
100
AcDbEntity
  8
ALL_ASSEMBLY_MEMBERS
100
AcDbCircle
 62
7
  6
CONTINUOUS
 10
6.8762215704
 20
2.9637607641
 40
0.035
100
AcDbArc
 50
201.5501295438
 51
270.0
  0
ARC
  5
2C9
100
AcDbEntity
  8
ALL_ASSEMBLY_MEMBERS
100
AcDbCircle
 62
7
  6
CONTINUOUS
 10
6.8837215704
 20
3.5937607641
 40
0.035
100
AcDbArc
 50
0.0
 51
90.0
  0
ARC
  5
2CA
100
AcDbEntity
  8
ALL_ASSEMBLY_MEMBERS
100
AcDbCircle
 62
7
  6
CONTINUOUS
 10
6.8837215704
 20
2.9637607641
 40
0.035
100
AcDbArc
 50
270.0
 51
360.0
  0
ARC
  5
2CB
100
AcDbEntity
  8
ALL_ASSEMBLY_MEMBERS
100
AcDbCircle
 62
7
  6
CONTINUOUS
 10
7.1687215704
 20
3.8474092521
 40
0.028
100
AcDbArc
 50
119.5765684061
 51
180.0
  0
ARC
  5
2CC
100
AcDbEntity
  8
ALL_ASSEMBLY_MEMBERS
100
AcDbCircle
 62
7
  6
CONTINUOUS
 10
7.1687215704
 20
2.7101122762
 40
0.028
100
AcDbArc
 50
180.0
 51
240.4234315939
  0
ARC
  5
2CD
100
AcDbEntity
  8
ALL_ASSEMBLY_MEMBERS
100
AcDbCircle
 62
7
  6
CONTINUOUS
 10
6.8204157774
 20
3.6157996721
 40
0.025
100
AcDbArc
 50
278.6082265886
 51
338.4498704564
  0
ARC
  5
2CE
100
AcDbEntity
  8
ALL_ASSEMBLY_MEMBERS
100
AcDbCircle
 62
7
  6
CONTINUOUS
 10
6.8204157774
 20
2.9417218562
 40
0.025
100
AcDbArc
 50
21.5501295436
 51
81.3917734114
  0
ARC
  5
2CF
100
AcDbEntity
  8
ALL_ASSEMBLY_MEMBERS
100
AcDbCircle
 62
7
  6
CONTINUOUS
 10
6.4207773634
 20
2.9417218562
 40
0.025
100
AcDbArc
 50
98.6082265886
 51
158.4498704565
  0
ARC
  5
2D0
100
AcDbEntity
  8
ALL_ASSEMBLY_MEMBERS
100
AcDbCircle
 62
7
  6
CONTINUOUS
 10
6.4207773634
 20
3.6157996721
 40
0.025
100
AcDbArc
 50
201.5501295435
 51
261.3917734114
  0
ARC
  5
2D1
100
AcDbEntity
  8
ALL_ASSEMBLY_MEMBERS
100
AcDbCircle
 62
7
  6
CONTINUOUS
 10
7.3627215704
 20
3.9529250473
 40
0.0185
100
AcDbArc
 50
0.0
 51
120.1536927054
  0
ARC
  5
2D2
100
AcDbEntity
  8
ALL_ASSEMBLY_MEMBERS
100
AcDbCircle
 62
7
  6
CONTINUOUS
 10
7.3627215704
 20
2.604596481
 40
0.0185
100
AcDbArc
 50
239.8463072946
 51
360.0
  0
ARC
  5
2D3
100
AcDbEntity
  8
ALL_ASSEMBLY_MEMBERS
100
AcDbCircle
 62
7
  6
CONTINUOUS
 10
7.255542775
 20
2.6169194294
 40
0.0185
100
AcDbArc
 50
65.2109756156
 51
111.8402547395
  0
ARC
  5
2D4
100
AcDbEntity
  8
ALL_ASSEMBLY_MEMBERS
100
AcDbCircle
 62
7
  6
CONTINUOUS
 10
7.255542775
 20
3.9406020988
 40
0.0185
100
AcDbArc
 50
248.1597452605
 51
294.7890243844
  0
ARC
  5
2D5
100
AcDbEntity
  8
ALL_ASSEMBLY_MEMBERS
100
AcDbCircle
 62
7
  6
CONTINUOUS
 10
7.2344148922
 20
3.9124828084
 40
0.0139
100
AcDbArc
 50
87.521970251
 51
126.0700000006
  0
ARC
  5
2D6
100
AcDbEntity
  8
ALL_ASSEMBLY_MEMBERS
100
AcDbCircle
 62
7
  6
CONTINUOUS
 10
7.2344148922
 20
2.6450387199
 40
0.0139
100
AcDbArc
 50
233.9299999994
 51
272.478029749
  0
ARC
  5
2D7
100
AcDbEntity
  8
ALL_ASSEMBLY_MEMBERS
100
AcDbCircle
 62
7
  6
CONTINUOUS
 10
6.6179216542
 20
8.6947914767
 40
2.2295
100
AcDbArc
 50
264.150613569
 51
279.2632522166
  0
ARC
  5
2D8
100
AcDbEntity
  8
ALL_ASSEMBLY_MEMBERS
100
AcDbCircle
 62
7
  6
CONTINUOUS
 10
6.4058755426
 20
5.7803759556
 40
2.045
100
AcDbArc
 50
294.7890243841
 51
296.7477240498
  0
ARC
  5
2D9
100
AcDbEntity
  8
ALL_ASSEMBLY_MEMBERS
100
AcDbCircle
 62
7
  6
CONTINUOUS
 10
7.6673810742
 20
5.5579608816
 40
1.865
100
AcDbArc
 50
166.0811997274
 51
173.9460923514
  0
ARC
  5
2DA
100
AcDbEntity
  8
ALL_ASSEMBLY_MEMBERS
100
AcDbCircle
 62
7
  6
CONTINUOUS
 10
7.6673810742
 20
6.9995606467
 40
1.865
100
AcDbArc
 50
186.0539076486
 51
193.9188002726
  0
ARC
  5
2DB
100
AcDbEntity
  8
ALL_ASSEMBLY_MEMBERS
100
AcDbCircle
 62
7
  6
CONTINUOUS
 10
6.6205965704
 20
4.9357607641
 40
1.36
100
AcDbArc
 50
261.3917734115
 51
278.6082265885
  0
ARC
  5
2DC
100
AcDbEntity
  8
ALL_ASSEMBLY_MEMBERS
100
AcDbCircle
 62
7
  6
CONTINUOUS
 10
6.3665588875
 20
7.6977323057
 40
1.315
100
AcDbArc
 50
313.6426919198
 51
318.7314307292
  0
ARC
  5
2DD
100
AcDbEntity
  8
ALL_ASSEMBLY_MEMBERS
100
AcDbCircle
 62
7
  6
CONTINUOUS
 10
6.3665588875
 20
4.8597892225
 40
1.315
100
AcDbArc
 50
41.2685692708
 51
46.3573080802
  0
ARC
  5
2DE
100
AcDbEntity
  8
ALL_ASSEMBLY_MEMBERS
100
AcDbCircle
 62
7
  6
CONTINUOUS
 10
7.4462915643
 20
6.2942607641
 40
0.465
100
AcDbArc
 50
128.831504768
 51
149.3576548026
  0
ARC
  5
2DF
100
AcDbEntity
  8
ALL_ASSEMBLY_MEMBERS
100
AcDbCircle
 62
7
  6
CONTINUOUS
 10
7.4462915643
 20
6.2632607641
 40
0.465
100
AcDbArc
 50
210.6423451974
 51
231.168495232
  0
ARC
  5
2E0
100
AcDbEntity
  8
ALL_ASSEMBLY_MEMBERS
100
AcDbCircle
 62
7
  6
CONTINUOUS
 10
7.1895826333
 20
6.6596081419
 40
0.035
100
AcDbArc
 50
129.0
 51
180.0
  0
ARC
  5
2E1
100
AcDbEntity
  8
ALL_ASSEMBLY_MEMBERS
100
AcDbCircle
 62
7
  6
CONTINUOUS
 10
7.1895826333
 20
5.8979133863
 40
0.035
100
AcDbArc
 50
180.0
 51
231.0
  0
ARC
  5
2E2
100
AcDbEntity
  8
ALL_ASSEMBLY_MEMBERS
100
AcDbCircle
 62
7
  6
CONTINUOUS
 10
6.3412215704
 20
6.4737607641
 40
0.03
100
AcDbArc
 50
90.0
 51
180.0
  0
ARC
  5
2E3
100
AcDbEntity
  8
ALL_ASSEMBLY_MEMBERS
100
AcDbCircle
 62
7
  6
CONTINUOUS
 10
6.3412215704
 20
6.0837607641
 40
0.03
100
AcDbArc
 50
180.0
 51
270.0
  0
ARC
  5
2E4
100
AcDbEntity
  8
ALL_ASSEMBLY_MEMBERS
100
AcDbCircle
 62
7
  6
CONTINUOUS
 10
6.343641172
 20
6.4737607641
 40
0.03
100
AcDbArc
 50
33.3475728931
 51
90.0000008876
  0
ARC
  5
2E5
100
AcDbEntity
  8
ALL_ASSEMBLY_MEMBERS
100
AcDbCircle
 62
7
  6
CONTINUOUS
 10
6.3436411719
 20
6.0837607641
 40
0.03
100
AcDbArc
 50
269.9999991318
 51
326.6524271133
  0
ARC
  5
2E6
100
AcDbEntity
  8
ALL_ASSEMBLY_MEMBERS
100
AcDbCircle
 62
7
  6
CONTINUOUS
 10
6.9719770353
 20
6.0335467267
 40
0.03
100
AcDbArc
 50
14.1325726664
 51
80.7367477834
  0
ARC
  5
2E7
100
AcDbEntity
  8
ALL_ASSEMBLY_MEMBERS
100
AcDbCircle
 62
7
  6
CONTINUOUS
 10
6.9719770353
 20
6.5239748015
 40
0.03
100
AcDbArc
 50
279.2632522166
 51
345.8674273336
  0
ARC
  5
2E8
100
AcDbEntity
  8
ALL_ASSEMBLY_MEMBERS
100
AcDbCircle
 62
7
  6
CONTINUOUS
 10
6.393762245
 20
6.5067437603
 40
0.03
100
AcDbArc
 50
213.3475728854
 51
264.150613569
  0
ARC
  5
2E9
100
AcDbEntity
  8
ALL_ASSEMBLY_MEMBERS
100
AcDbCircle
 62
7
  6
CONTINUOUS
 10
6.393762245
 20
6.050777768
 40
0.03
100
AcDbArc
 50
95.8493864313
 51
146.6524271056
  0
ARC
  5
2EA
100
AcDbEntity
  8
ALL_ASSEMBLY_MEMBERS
100
AcDbCircle
 62
7
  6
CONTINUOUS
 10
7.0282215704
 20
6.0477083747
 40
0.028
100
AcDbArc
 50
194.1325726664
 51
310.0052008849
  0
ARC
  5
2EB
100
AcDbEntity
  8
ALL_ASSEMBLY_MEMBERS
100
AcDbCircle
 62
7
  6
CONTINUOUS
 10
7.0282215704
 20
6.5098131535
 40
0.028
100
AcDbArc
 50
49.9947991151
 51
165.8674273336
  0
ARC
  5
2EC
100
AcDbEntity
  8
ALL_ASSEMBLY_MEMBERS
100
AcDbCircle
 62
7
  6
CONTINUOUS
 10
7.246213221
 20
6.7157607641
 40
0.027
100
AcDbArc
 50
72.5404824817
 51
129.0
  0
ARC
  5
2ED
100
AcDbEntity
  8
ALL_ASSEMBLY_MEMBERS
100
AcDbCircle
 62
7
  6
CONTINUOUS
 10
7.246213221
 20
5.8417607641
 40
0.027
100
AcDbArc
 50
231.0
 51
287.4595175183
  0
ARC
  5
2EE
100
AcDbEntity
  8
ALL_ASSEMBLY_MEMBERS
100
AcDbCircle
 62
7
  6
CONTINUOUS
 10
7.260314719
 20
6.7605954355
 40
0.02
100
AcDbArc
 50
252.5404824815
 51
313.64269192
  0
ARC
  5
2EF
100
AcDbEntity
  8
ALL_ASSEMBLY_MEMBERS
100
AcDbCircle
 62
7
  6
CONTINUOUS
 10
7.260314719
 20
5.7969260928
 40
0.02
100
AcDbArc
 50
46.35730808
 51
107.4595175185
  0
ARC
  5
2F0
100
AcDbEntity
  8
ALL_ASSEMBLY_MEMBERS
100
AcDbCircle
 62
7
  6
CONTINUOUS
 10
7.3662215704
 20
5.7370431883
 40
0.015
100
AcDbArc
 50
221.2685692707
 51
360.0
  0
ARC
  5
2F1
100
AcDbEntity
  8
ALL_ASSEMBLY_MEMBERS
100
AcDbCircle
 62
7
  6
CONTINUOUS
 10
7.3662215704
 20
6.82047834
 40
0.015
100
AcDbArc
 50
0.0
 51
138.7314307293
  0
SPLINE
  5
2F2
100
AcDbEntity
  8
ALL_ASSEMBLY_MEMBERS
100
AcDbSpline
 62
7
  6
CONTINUOUS
 70
0
 71
3
 72
11
 73
7
 74
0
 42
0.0000001
 43
0.0000001
 44
0.0000000001
 40
0.0
 40
0.0
 40
0.0
 40
0.0
 40
0.2499894575
 40
0.5
 40
0.7500105425
 40
1.0
 40
1.0
 40
1.0
 40
1.0
 10
4.3827176828
 20
2.8363878847
 30
0.0
 10
4.3596011739
 20
2.8284697363
 30
0.0
 10
4.3143942221
 20
2.80944364
 30
0.0
 10
4.2510303975
 20
2.7721676519
 30
0.0
 10
4.1931227952
 20
2.7268776626
 30
0.0
 10
4.1588502805
 20
2.691791261
 30
0.0
 10
4.1430098613
 20
2.6731861226
 30
0.0
  0
SPLINE
  5
2F3
100
AcDbEntity
  8
ALL_ASSEMBLY_MEMBERS
100
AcDbSpline
 62
7
  6
CONTINUOUS
 70
0
 71
3
 72
11
 73
7
 74
0
 42
0.0000001
 43
0.0000001
 44
0.0000000001
 40
0.0
 40
0.0
 40
0.0
 40
0.0
 40
0.2499994785
 40
0.5
 40
0.7500005215
 40
1.0
 40
1.0
 40
1.0
 40
1.0
 10
4.954768321
 20
3.5525255181
 30
0.0
 10
4.8976275244
 20
3.5445756059
 30
0.0
 10
4.7838166687
 20
3.5250550063
 30
0.0
 10
4.615303186
 20
3.4851079142
 30
0.0
 10
4.4496264192
 20
3.4346720836
 30
0.0
 10
4.341491015
 20
3.3941665404
 30
0.0
 10
4.2881325354
 20
3.3722315365
 30
0.0
  0
LINE
  5
2F4
100
AcDbEntity
  8
ALL_ASSEMBLY_MEMBERS
100
AcDbLine
 62
7
  6
CONTINUOUS
 10
5.7082215194
 20
3.5787607641
 11
5.7217649074
 21
3.5029448117
  0
SPLINE
  5
2F5
100
AcDbEntity
  8
ALL_ASSEMBLY_MEMBERS
100
AcDbSpline
 62
7
  6
CONTINUOUS
 70
0
 71
3
 72
18
 73
14
 74
0
 42
0.0000001
 43
0.0000001
 44
0.0000000001
 40
0.0
 40
0.0
 40
0.0
 40
0.0
 40
0.0976453912
 40
0.205166344
 40
0.3214258215
 40
0.4453360599
 40
0.5758634442
 40
0.7120262717
 40
0.7819962683
 40
0.8531855803
 40
0.8892493154
 40
0.9256822957
 40
1.0
 40
1.0
 40
1.0
 40
1.0
 10
5.7217649074
 20
3.5029448117
 30
0.0
 10
5.7230764527
 20
3.495578508
 30
0.0
 10
5.7258475556
 20
3.4801036179
 30
0.0
 10
5.7302760988
 20
3.4558754576
 30
0.0
 10
5.7352087634
 20
3.4296938216
 30
0.0
 10
5.7406971185
 20
3.4018236714
 30
0.0
 10
5.7468110858
 20
3.3725240164
 30
0.0
 10
5.7524884973
 20
3.3473575171
 30
0.0
 10
5.7575599388
 20
3.3267207977
 30
0.0
 10
5.761023597
 20
3.3135892111
 30
0.0
 10
5.7639966493
 20
3.3029878363
 30
0.0
 10
5.7671843369
 20
3.2921990496
 30
0.0
 10
5.7698167931
 20
3.284127407
 30
0.0
 10
5.7717215704
 20
3.2787607641
 30
0.0
  0
SPLINE
  5
2F6
100
AcDbEntity
  8
ALL_ASSEMBLY_MEMBERS
100
AcDbSpline
 62
7
  6
CONTINUOUS
 70
0
 71
3
 72
10
 73
6
 74
0
 42
0.0000001
 43
0.0000001
 44
0.0000000001
 40
0.0
 40
0.0
 40
0.0
 40
0.0
 40
0.246845858
 40
0.4961792253
 40
1.0
 40
1.0
 40
1.0
 40
1.0
 10
5.7717215704
 20
3.2787607641
 30
0.0
 10
5.7435962473
 20
3.2787607641
 30
0.0
 10
5.6870621343
 20
3.2790365249
 30
0.0
 10
5.5731295205
 20
3.2802137719
 30
0.0
 10
5.4873217559
 20
3.2812751751
 30
0.0
 10
5.4299179886
 20
3.2816092001
 30
0.0
  0
SPLINE
  5
2F7
100
AcDbEntity
  8
ALL_ASSEMBLY_MEMBERS
100
AcDbSpline
 62
7
  6
CONTINUOUS
 70
0
 71
3
 72
18
 73
14
 74
0
 42
0.0000001
 43
0.0000001
 44
0.0000000001
 40
0.0
 40
0.0
 40
0.0
 40
0.0
 40
0.0743149731
 40
0.1107468411
 40
0.1468096021
 40
0.2179973367
 40
0.2879661796
 40
0.4241277668
 40
0.5546551049
 40
0.678566313
 40
0.7948276424
 40
0.9023512446
 40
1.0
 40
1.0
 40
1.0
 40
1.0
 10
5.7717215704
 20
3.2787607641
 30
0.0
 10
5.7736263219
 20
3.2733941941
 30
0.0
 10
5.7762588631
 20
3.2653226873
 30
0.0
 10
5.7794469161
 20
3.2545341221
 30
0.0
 10
5.782420501
 20
3.2439329239
 30
0.0
 10
5.7858851098
 20
3.2308015588
 30
0.0
 10
5.7909586336
 20
3.21016516
 30
0.0
 10
5.7966395795
 20
3.1849990471
 30
0.0
 10
5.8027590704
 20
3.1556998668
 30
0.0
 10
5.8082539297
 20
3.1278301144
 30
0.0
 10
5.8131937923
 20
3.1016487829
 30
0.0
 10
5.8176299464
 20
3.0774208232
 30
0.0
 10
5.8204064804
 20
3.0619460689
 30
0.0
 10
5.8217207539
 20
3.0545798134
 30
0.0
  0
LINE
  5
2F8
100
AcDbEntity
  8
ALL_ASSEMBLY_MEMBERS
100
AcDbLine
 62
7
  6
CONTINUOUS
 10
5.8217207539
 20
3.0545798134
 11
5.8352990197
 21
2.9787607641
  0
SPLINE
  5
2F9
100
AcDbEntity
  8
ALL_ASSEMBLY_MEMBERS
100
AcDbSpline
 62
7
  6
CONTINUOUS
 70
0
 71
3
 72
24
 73
20
 74
0
 42
0.0000001
 43
0.0000001
 44
0.0000000001
 40
0.0
 40
0.0
 40
0.0
 40
0.0
 40
0.0191877407
 40
0.0750984256
 40
0.1160229363
 40
0.1650332689
 40
0.2216576275
 40
0.2854385891
 40
0.3559029673
 40
0.4324972917
 40
0.5146729703
 40
0.6019704437
 40
0.6939901598
 40
0.7416892009
 40
0.79052293
 40
0.8405391707
 40
0.8918563036
 40
0.9447435778
 40
1.0
 40
1.0
 40
1.0
 40
1.0
 10
5.3337215704
 20
3.5787607641
 30
0.0
 10
5.3342243044
 20
3.5768226426
 30
0.0
 10
5.336183199
 20
3.5692348214
 30
0.0
 10
5.3391654467
 20
3.5575007059
 30
0.0
 10
5.3428839624
 20
3.5427428473
 30
0.0
 10
5.3466422068
 20
3.5279181938
 30
0.0
 10
5.3510418569
 20
3.5107956566
 30
0.0
 10
5.3560959439
 20
3.4915300116
 30
0.0
 10
5.3618159145
 20
3.470284997
 30
0.0
 10
5.3682481812
 20
3.4472447685
 30
0.0
 10
5.3754399445
 20
3.4225942144
 30
0.0
 10
5.3835013752
 20
3.3965237688
 30
0.0
 10
5.3909501306
 20
3.3740333864
 30
0.0
 10
5.3975127658
 20
3.3554837058
 30
0.0
 10
5.4028554576
 20
3.3411539126
 30
0.0
 10
5.4086209817
 20
3.3265816127
 30
0.0
 10
5.4149130053
 20
3.3117675527
 30
0.0
 10
5.4218713499
 20
3.2966485211
 30
0.0
 10
5.4270938268
 20
3.286636288
 30
0.0
 10
5.4299179886
 20
3.2816092001
 30
0.0
  0
SPLINE
  5
2FA
100
AcDbEntity
  8
ALL_ASSEMBLY_MEMBERS
100
AcDbSpline
 62
7
  6
CONTINUOUS
 70
0
 71
3
 72
26
 73
22
 74
0
 42
0.0000001
 43
0.0000001
 44
0.0000000001
 40
0.0
 40
0.0
 40
0.0
 40
0.0
 40
0.0537825201
 40
0.1054387192
 40
0.1557248887
 40
0.204885827
 40
0.2530217442
 40
0.3001657261
 40
0.3914559284
 40
0.4784619933
 40
0.5607108088
 40
0.6376769002
 40
0.7087497894
 40
0.7733162077
 40
0.8308398562
 40
0.8808002603
 40
0.9226630848
 40
0.9559162664
 40
0.9801483975
 40
0.9949723215
 40
1.0
 40
1.0
 40
1.0
 40
1.0
 10
5.4299179886
 20
3.2816092001
 30
0.0
 10
5.4327472639
 20
3.2765730099
 30
0.0
 10
5.438000616
 20
3.2665329183
 30
0.0
 10
5.4450629104
 20
3.2513682394
 30
0.0
 10
5.4515242258
 20
3.23647916
 30
0.0
 10
5.4575194728
 20
3.2218044712
 30
0.0
 10
5.4631476055
 20
3.2073471207
 30
0.0
 10
5.4701621522
 20
3.1885759277
 30
0.0
 10
5.4782830366
 20
3.165763529
 30
0.0
 10
5.487296292
 20
3.1392703576
 30
0.0
 10
5.4955509794
 20
3.1141460058
 30
0.0
 10
5.5031194311
 20
3.0905982697
 30
0.0
 10
5.5100121834
 20
3.0688285121
 30
0.0
 10
5.5162392146
 20
3.0490384307
 30
0.0
 10
5.5217745077
 20
3.0314078818
 30
0.0
 10
5.5265940222
 20
3.0161084493
 30
0.0
 10
5.5306621842
 20
3.0033053824
 30
0.0
 10
5.5339494335
 20
2.9931538086
 30
0.0
 10
5.5363835158
 20
2.985778709
 30
0.0
 10
5.5378888297
 20
2.9812895299
 30
0.0
 10
5.538577256
 20
2.979271567
 30
0.0
 10
5.5387524097
 20
2.9787607641
 30
0.0
  0
SPLINE
  5
2FB
100
AcDbEntity
  8
ALL_ASSEMBLY_MEMBERS
100
AcDbSpline
 62
7
  6
CONTINUOUS
 70
0
 71
3
 72
10
 73
6
 74
0
 42
0.0000001
 43
0.0000001
 44
0.0000000001
 40
0.0
 40
0.0
 40
0.0
 40
0.0
 40
0.5006340585
 40
0.7507235469
 40
1.0
 40
1.0
 40
1.0
 40
1.0
 10
5.4299179886
 20
3.2816092001
 30
0.0
 10
5.3712935145
 20
3.2819503282
 30
0.0
 10
5.2833722195
 20
3.2818785387
 30
0.0
 10
5.1662960674
 20
3.2791789447
 30
0.0
 10
5.1078656046
 20
3.2767155611
 30
0.0
 10
5.0787171146
 20
3.275142995
 30
0.0
  0
SPLINE
  5
2FC
100
AcDbEntity
  8
ALL_ASSEMBLY_MEMBERS
100
AcDbSpline
 62
7
  6
CONTINUOUS
 70
0
 71
3
 72
26
 73
22
 74
0
 42
0.0000001
 43
0.0000001
 44
0.0000000001
 40
0.0
 40
0.0
 40
0.0
 40
0.0
 40
0.0554833479
 40
0.1078864269
 40
0.1584176751
 40
0.2075070018
 40
0.2553639681
 40
0.3020956374
 40
0.3923769748
 40
0.4783374848
 40
0.5596413442
 40
0.635862102
 40
0.7064395349
 40
0.7707872399
 40
0.8283497416
 40
0.8785739243
 40
0.9208843105
 40
0.9547104953
 40
0.9795210438
 40
0.9947925608
 40
1.0
 40
1.0
 40
1.0
 40
1.0
 10
5.0787171146
 20
3.275142995
 30
0.0
 10
5.082587522
 20
3.2702620874
 30
0.0
 10
5.0898199543
 20
3.260535283
 30
0.0
 10
5.0996980754
 20
3.2457400868
 30
0.0
 10
5.1087584714
 20
3.2312733439
 30
0.0
 10
5.1172098217
 20
3.2170335882
 30
0.0
 10
5.125187146
 20
3.2030123503
 30
0.0
 10
5.135180052
 20
3.184819873
 30
0.0
 10
5.1468600073
 20
3.1626761194
 30
0.0
 10
5.1599721612
 20
3.1369041168
 30
0.0
 10
5.172109917
 20
3.1124096076
 30
0.0
 10
5.1833458648
 20
3.0893965059
 30
0.0
 10
5.1936730723
 20
3.0680584186
 30
0.0
 10
5.203077983
 20
3.0486012313
 30
0.0
 10
5.2115020902
 20
3.031207995
 30
0.0
 10
5.2188866319
 20
3.0160604082
 30
0.0
 10
5.2251577612
 20
3.0033348321
 30
0.0
 10
5.2302451729
 20
2.9932071271
 30
0.0
 10
5.2340263437
 20
2.9858208102
 30
0.0
 10
5.2363723033
 20
2.9813095229
 30
0.0
 10
5.2374471758
 20
2.9792770258
 30
0.0
 10
5.2377215704
 20
2.9787607641
 30
0.0
  0
SPLINE
  5
2FD
100
AcDbEntity
  8
ALL_ASSEMBLY_MEMBERS
100
AcDbSpline
 62
7
  6
CONTINUOUS
 70
0
 71
3
 72
27
 73
23
 74
0
 42
0.0000001
 43
0.0000001
 44
0.0000000001
 40
0.0
 40
0.0
 40
0.0
 40
0.0
 40
0.0182093145
 40
0.0405680917
 40
0.0714048574
 40
0.1104349592
 40
0.157310033
 40
0.2116734286
 40
0.2731939969
 40
0.341540402
 40
0.4163450541
 40
0.4972765093
 40
0.5841568378
 40
0.6769279511
 40
0.7255937624
 40
0.7759079227
 40
0.8280360676
 40
0.882260771
 40
0.9102884317
 40
0.9391165286
 40
0.9689484723
 40
1.0
 40
1.0
 40
1.0
 40
1.0
 10
4.954768321
 20
3.5525255181
 30
0.0
 10
4.9553313151
 20
3.550760165
 30
0.0
 10
4.9565873276
 20
3.5468277301
 30
0.0
 10
4.9588029633
 20
3.5399077246
 30
0.0
 10
4.9616690152
 20
3.5309713315
 30
0.0
 10
4.9653069785
 20
3.5196625823
 30
0.0
 10
4.9697499634
 20
3.5060980641
 30
0.0
 10
4.9750260372
 20
3.4903985672
 30
0.0
 10
4.9811800628
 20
3.4726900252
 30
0.0
 10
4.9882563944
 20
3.4531012227
 30
0.0
 10
4.9963439917
 20
3.4317801959
 30
0.0
 10
5.0055374948
 20
3.4088653822
 30
0.0
 10
5.0160154113
 20
3.384503592
 30
0.0
 10
5.0258198036
 20
3.3634351258
 30
0.0
 10
5.0345461169
 20
3.3459814371
 30
0.0
 10
5.0417332801
 20
3.3323862328
 30
0.0
 10
5.0495488782
 20
3.3184888704
 30
0.0
 10
5.0566252805
 20
3.3067845817
 30
0.0
 10
5.0627290795
 20
3.2972701168
 30
0.0
 10
5.0676658529
 20
3.289958463
 30
0.0
 10
5.0729855041
 20
3.282538103
 30
0.0
 10
5.0767538629
 20
3.2776188196
 30
0.0
 10
5.0787171146
 20
3.275142995
 30
0.0
  0
SPLINE
  5
2FE
100
AcDbEntity
  8
ALL_ASSEMBLY_MEMBERS
100
AcDbSpline
 62
7
  6
CONTINUOUS
 70
0
 71
3
 72
28
 73
24
 74
0
 42
0.0000001
 43
0.0000001
 44
0.0000000001
 40
0.0
 40
0.0
 40
0.0
 40
0.0
 40
0.0321096116
 40
0.062460935
 40
0.0913916324
 40
0.1192307507
 40
0.1725835623
 40
0.223407327
 40
0.2721914417
 40
0.3192393338
 40
0.4089121696
 40
0.4932257745
 40
0.5723085611
 40
0.6460985921
 40
0.714272577
 40
0.7764255684
 40
0.8320973323
 40
0.8808024767
 40
0.922011378
 40
0.9551671662
 40
0.9796454715
 40
0.9948040972
 40
1.0
 40
1.0
 40
1.0
 40
1.0
 10
4.4706448911
 20
3.1637701724
 30
0.0
 10
4.4734980068
 20
3.1616958115
 30
0.0
 10
4.4789946361
 20
3.1575866264
 30
0.0
 10
4.4868765533
 20
3.1513657775
 30
0.0
 10
4.4942469146
 20
3.1452586823
 30
0.0
 10
4.503405423
 20
3.1373534793
 30
0.0
 10
4.5141691283
 20
3.1276301715
 30
0.0
 10
4.5263315432
 20
3.1160326546
 30
0.0
 10
4.5377454554
 20
3.1046601906
 30
0.0
 10
4.5519089751
 20
3.0900060657
 30
0.0
 10
4.5683887507
 20
3.0721679128
 30
0.0
 10
4.5868039331
 20
3.0513376076
 30
0.0
 10
4.6037262179
 20
3.0315224263
 30
0.0
 10
4.6192845841
 20
3.0128769028
 30
0.0
 10
4.6335063582
 20
2.9955396858
 30
0.0
 10
4.6463908667
 20
2.9796804004
 30
0.0
 10
4.6578847773
 20
2.9654471843
 30
0.0
 10
4.6679256038
 20
2.9529980037
 30
0.0
 10
4.6764298284
 20
2.9424872926
 30
0.0
 10
4.6833065905
 20
2.9340835507
 30
0.0
 10
4.6884051855
 20
2.927922821
 30
0.0
 10
4.6915627724
 20
2.924142878
 30
0.0
 10
4.6930047026
 20
2.922433779
 30
0.0
 10
4.6933734249
 20
2.9219980371
 30
0.0
  0
SPLINE
  5
2FF
100
AcDbEntity
  8
ALL_ASSEMBLY_MEMBERS
100
AcDbSpline
 62
7
  6
CONTINUOUS
 70
0
 71
3
 72
15
 73
11
 74
0
 42
0.0000001
 43
0.0000001
 44
0.0000000001
 40
0.0
 40
0.0
 40
0.0
 40
0.0
 40
0.1279174388
 40
0.2551057919
 40
0.3814520061
 40
0.5068857642
 40
0.6313866981
 40
0.7549920362
 40
0.8778044845
 40
1.0
 40
1.0
 40
1.0
 40
1.0
 10
5.0787171146
 20
3.275142995
 30
0.0
 10
5.0522965182
 20
3.2737175992
 30
0.0
 10
4.9996337531
 20
3.2703128393
 30
0.0
 10
4.9210406555
 20
3.2632412707
 30
0.0
 10
4.8431936121
 20
3.253944227
 30
0.0
 10
4.7662447566
 20
3.2421475563
 30
0.0
 10
4.6903459053
 20
3.2275764771
 30
0.0
 10
4.6156482423
 20
3.2099549975
 30
0.0
 10
4.5423070698
 20
3.189007648
 30
0.0
 10
4.4943249376
 20
3.172607864
 30
0.0
 10
4.4706448911
 20
3.1637701724
 30
0.0
  0
SPLINE
  5
300
100
AcDbEntity
  8
ALL_ASSEMBLY_MEMBERS
100
AcDbSpline
 62
7
  6
CONTINUOUS
 70
0
 71
3
 72
27
 73
23
 74
0
 42
0.0000001
 43
0.0000001
 44
0.0000000001
 40
0.0
 40
0.0
 40
0.0
 40
0.0
 40
0.0759315521
 40
0.1101593088
 40
0.1425669119
 40
0.2034037054
 40
0.2598639826
 40
0.3127775122
 40
0.3626967551
 40
0.4551316497
 40
0.5391352313
 40
0.6156231887
 40
0.6852201973
 40
0.7481377499
 40
0.8044484832
 40
0.8540913077
 40
0.8969535177
 40
0.9328503069
 40
0.9615369748
 40
0.9825976664
 40
0.9955724077
 40
1.0
 40
1.0
 40
1.0
 40
1.0
 10
4.1582800829
 20
2.9936726529
 30
0.0
 10
4.1644785851
 20
2.9905318055
 30
0.0
 10
4.1733950409
 20
2.9858219843
 30
0.0
 10
4.1847693203
 20
2.9794299711
 30
0.0
 10
4.1948563774
 20
2.9735696728
 30
0.0
 10
4.2065907906
 20
2.9664966598
 30
0.0
 10
4.2197669218
 20
2.9581869316
 30
0.0
 10
4.2319635732
 20
2.950201495
 30
0.0
 10
4.2467651388
 20
2.9401883665
 30
0.0
 10
4.2637080473
 20
2.9282667562
 30
0.0
 10
4.2823840487
 20
2.9145914916
 30
0.0
 10
4.299179802
 20
2.9018910454
 30
0.0
 10
4.3143145988
 20
2.8901957411
 30
0.0
 10
4.327905747
 20
2.8795237512
 30
0.0
 10
4.3400208655
 20
2.8699291998
 30
0.0
 10
4.3506771116
 20
2.8614488518
 30
0.0
 10
4.359872632
 20
2.854133147
 30
0.0
 10
4.367582974
 20
2.8480310044
 30
0.0
 10
4.373763201
 20
2.8432107014
 30
0.0
 10
4.378314452
 20
2.8397130044
 30
0.0
 10
4.3811181905
 20
2.8375848207
 30
0.0
 10
4.3823928952
 20
2.8366301496
 30
0.0
 10
4.3827176828
 20
2.8363878847
 30
0.0
  0
SPLINE
  5
301
100
AcDbEntity
  8
ALL_ASSEMBLY_MEMBERS
100
AcDbSpline
 62
7
  6
CONTINUOUS
 70
0
 71
3
 72
26
 73
22
 74
0
 42
0.0000001
 43
0.0000001
 44
0.0000000001
 40
0.0
 40
0.0
 40
0.0
 40
0.0
 40
0.0162316392
 40
0.0637611933
 40
0.0987334065
 40
0.1409743822
 40
0.190379221
 40
0.2468966325
 40
0.3105078997
 40
0.3812602748
 40
0.4593043709
 40
0.5451062705
 40
0.639370316
 40
0.6900903705
 40
0.7436068856
 40
0.8003514073
 40
0.8609760547
 40
0.8930199228
 40
0.9266046544
 40
0.962128612
 40
1.0
 40
1.0
 40
1.0
 40
1.0
 10
4.2881325354
 20
3.3722315365
 30
0.0
 10
4.2889948966
 20
3.3709962915
 30
0.0
 10
4.2923747654
 20
3.366138671
 30
0.0
 10
4.2975698339
 20
3.3585899157
 30
0.0
 10
4.3041085606
 20
3.3490356206
 30
0.0
 10
4.3107841838
 20
3.339364138
 30
0.0
 10
4.3186774814
 20
3.3281036969
 30
0.0
 10
4.3278443595
 20
3.3153147105
 30
0.0
 10
4.3383491088
 20
3.3010483747
 30
0.0
 10
4.3503101096
 20
3.2853762647
 30
0.0
 10
4.3638722225
 20
3.2683398855
 30
0.0
 10
4.3792850976
 20
3.2499970608
 30
0.0
 10
4.3935641445
 20
3.234025044
 30
0.0
 10
4.4062258842
 20
3.2206408868
 30
0.0
 10
4.4167361158
 20
3.2100197901
 30
0.0
 10
4.4281722227
 20
3.1990279999
 30
0.0
 10
4.4384502258
 20
3.1897151558
 30
0.0
 10
4.4473171744
 20
3.1820538842
 30
0.0
 10
4.4545473169
 20
3.1760641049
 30
0.0
 10
4.4623442394
 20
3.1699149464
 30
0.0
 10
4.4678019671
 20
3.1658371233
 30
0.0
 10
4.4706448911
 20
3.1637701724
 30
0.0
  0
SPLINE
  5
302
100
AcDbEntity
  8
ALL_ASSEMBLY_MEMBERS
100
AcDbSpline
 62
7
  6
CONTINUOUS
 70
0
 71
3
 72
16
 73
12
 74
0
 42
0.0000001
 43
0.0000001
 44
0.0000000001
 40
0.0
 40
0.0
 40
0.0
 40
0.0
 40
0.1044776535
 40
0.196055755
 40
0.2787826262
 40
0.3551656495
 40
0.4927975811
 40
0.6148655103
 40
0.7249440855
 40
0.8250789174
 40
1.0
 40
1.0
 40
1.0
 40
1.0
 10
3.9192852525
 20
2.7688940075
 30
0.0
 10
3.9246476286
 20
2.7669762615
 30
0.0
 10
3.9346878905
 20
2.7633142956
 30
0.0
 10
3.9488929427
 20
2.757915098
 30
0.0
 10
3.9616149827
 20
2.7529270427
 30
0.0
 10
3.9766277577
 20
2.7469057758
 30
0.0
 10
3.9935561224
 20
2.7399015381
 30
0.0
 10
4.0120909424
 20
2.7319801164
 30
0.0
 10
4.0286839108
 20
2.7247181033
 30
0.0
 10
4.0478617464
 20
2.7161778767
 30
0.0
 10
4.0615112395
 20
2.7099739889
 30
0.0
 10
4.0701830028
 20
2.7060100578
 30
0.0
  0
LINE
  5
303
100
AcDbEntity
  8
ALL_ASSEMBLY_MEMBERS
100
AcDbLine
 62
7
  6
CONTINUOUS
 10
4.0701830028
 20
2.7060100578
 11
4.0731618438
 21
2.7046475217
  0
SPLINE
  5
304
100
AcDbEntity
  8
ALL_ASSEMBLY_MEMBERS
100
AcDbSpline
 62
7
  6
CONTINUOUS
 70
0
 71
3
 72
15
 73
11
 74
0
 42
0.0000001
 43
0.0000001
 44
0.0000000001
 40
0.0
 40
0.0
 40
0.0
 40
0.0
 40
0.2277427383
 40
0.4256004663
 40
0.5946684387
 40
0.7354315101
 40
0.847844463
 40
0.9308723095
 40
0.9823417326
 40
1.0
 40
1.0
 40
1.0
 40
1.0
 10
4.0731618438
 20
2.7046475217
 30
0.0
 10
4.0784500684
 20
2.7022271512
 30
0.0
 10
4.0883264918
 20
2.6976907239
 30
0.0
 10
4.1021280033
 20
2.6913559817
 30
0.0
 10
4.1139220868
 20
2.6859723509
 30
0.0
 10
4.1237488359
 20
2.6815335598
 30
0.0
 10
4.1315966648
 20
2.6780514582
 30
0.0
 10
4.1373840126
 20
2.6755486741
 30
0.0
 10
4.1409618695
 20
2.6740331207
 30
0.0
 10
4.1425928251
 20
2.6733576584
 30
0.0
 10
4.1430098613
 20
2.6731861226
 30
0.0
  0
SPLINE
  5
305
100
AcDbEntity
  8
ALL_ASSEMBLY_MEMBERS
100
AcDbSpline
 62
7
  6
CONTINUOUS
 70
0
 71
3
 72
11
 73
7
 74
0
 42
0.0000001
 43
0.0000001
 44
0.0000000001
 40
0.0
 40
0.0
 40
0.0
 40
0.0
 40
0.2491927297
 40
0.498456838
 40
0.7486717882
 40
1.0
 40
1.0
 40
1.0
 40
1.0
 10
4.4706448911
 20
3.1637701724
 30
0.0
 10
4.4428768881
 20
3.1534068039
 30
0.0
 10
4.3880011472
 20
3.1308255683
 30
0.0
 10
4.3081911157
 20
3.0911566809
 30
0.0
 10
4.2313461235
 20
3.0455134986
 30
0.0
 10
4.1822737634
 20
3.0115019919
 30
0.0
 10
4.1582800829
 20
2.9936726529
 30
0.0
  0
SPLINE
  5
306
100
AcDbEntity
  8
ALL_ASSEMBLY_MEMBERS
100
AcDbSpline
 62
7
  6
CONTINUOUS
 70
0
 71
3
 72
25
 73
21
 74
0
 42
0.0000001
 43
0.0000001
 44
0.0000000001
 40
0.0
 40
0.0
 40
0.0
 40
0.0
 40
0.0854755115
 40
0.1585333107
 40
0.2238803423
 40
0.2834484328
 40
0.3894616575
 40
0.4823313189
 40
0.5650013579
 40
0.6389850841
 40
0.7054087838
 40
0.7648308014
 40
0.8176126784
 40
0.8638972826
 40
0.9037473174
 40
0.937123092
 40
0.9638881152
 40
0.9836195339
 40
0.9958221424
 40
1.0
 40
1.0
 40
1.0
 40
1.0
 10
3.8758874083
 20
2.715560334
 30
0.0
 10
3.882573154
 20
2.7133148066
 30
0.0
 10
3.8949468159
 20
2.7090700891
 30
0.0
 10
3.9123357773
 20
2.7028343666
 30
0.0
 10
3.9276611625
 20
2.6971795599
 30
0.0
 10
3.9454828865
 20
2.6904369321
 30
0.0
 10
3.9653502327
 20
2.6826854965
 30
0.0
 10
3.9869038234
 20
2.674016021
 30
0.0
 10
4.0059484011
 20
2.6661926095
 30
0.0
 10
4.0229335597
 20
2.6590996551
 30
0.0
 10
4.0381273412
 20
2.6526953053
 30
0.0
 10
4.0516978964
 20
2.6469440552
 30
0.0
 10
4.0637383946
 20
2.6418410748
 30
0.0
 10
4.0742960487
 20
2.6373778338
 30
0.0
 10
4.0833873073
 20
2.6335581695
 30
0.0
 10
4.0910047687
 20
2.6303887948
 30
0.0
 10
4.0971042369
 20
2.6278926277
 30
0.0
 10
4.1015972167
 20
2.6260838419
 30
0.0
 10
4.104366599
 20
2.6249842646
 30
0.0
 10
4.1056253149
 20
2.6244918968
 30
0.0
 10
4.1059465442
 20
2.6243668086
 30
0.0
  0
SPLINE
  5
307
100
AcDbEntity
  8
ALL_ASSEMBLY_MEMBERS
100
AcDbSpline
 62
7
  6
CONTINUOUS
 70
0
 71
3
 72
25
 73
21
 74
0
 42
0.0000001
 43
0.0000001
 44
0.0000000001
 40
0.0
 40
0.0
 40
0.0
 40
0.0
 40
0.0172610969
 40
0.0667034741
 40
0.1024350594
 40
0.1451323158
 40
0.1946122905
 40
0.250765482
 40
0.3135366843
 40
0.3830048975
 40
0.4593949847
 40
0.5433529947
 40
0.6358321531
 40
0.685824687
 40
0.7388575601
 40
0.7954961002
 40
0.8565868364
 40
0.8891565965
 40
0.9235755782
 40
1.0
 40
1.0
 40
1.0
 40
1.0
 10
3.9431383264
 20
3.1593318303
 30
0.0
 10
3.9442771225
 20
3.1582532095
 30
0.0
 10
3.9486728868
 20
3.154079765
 30
0.0
 10
3.9553987121
 20
3.1476447835
 30
0.0
 10
3.9637777166
 20
3.139594295
 30
0.0
 10
3.9721895471
 20
3.1315730797
 30
0.0
 10
3.982007313
 20
3.1223375105
 30
0.0
 10
3.9932570132
 20
3.1119627734
 30
0.0
 10
4.0059819475
 20
3.1005099287
 30
0.0
 10
4.0202784386
 20
3.0880574806
 30
0.0
 10
4.0362895008
 20
3.0746470513
 30
0.0
 10
4.0542648804
 20
3.0603350017
 30
0.0
 10
4.0707227557
 20
3.0479796453
 30
0.0
 10
4.0851980636
 20
3.0376784422
 30
0.0
 10
4.097185265
 20
3.0295027422
 30
0.0
 10
4.1101930661
 20
3.0210396119
 30
0.0
 10
4.1218235326
 20
3.0138765009
 30
0.0
 10
4.1318493586
 20
3.0079646486
 30
0.0
 10
4.1431825659
 20
3.0015299791
 30
0.0
 10
4.1520852441
 20
2.9968116439
 30
0.0
 10
4.1582800829
 20
2.9936726529
 30
0.0
  0
SPLINE
  5
308
100
AcDbEntity
  8
ALL_ASSEMBLY_MEMBERS
100
AcDbSpline
 62
7
  6
CONTINUOUS
 70
0
 71
3
 72
10
 73
6
 74
0
 42
0.0000001
 43
0.0000001
 44
0.0000000001
 40
0.0
 40
0.0
 40
0.0
 40
0.0
 40
0.4990466424
 40
0.749472436
 40
1.0
 40
1.0
 40
1.0
 40
1.0
 10
4.1582800829
 20
2.9936726529
 30
0.0
 10
4.1143948659
 20
2.9610622156
 30
0.0
 10
4.0513903103
 20
2.9080215808
 30
0.0
 10
3.9737896778
 20
2.8306391564
 30
0.0
 10
3.9370790785
 20
2.7897924674
 30
0.0
 10
3.9192852525
 20
2.7688940075
 30
0.0
  0
SPLINE
  5
309
100
AcDbEntity
  8
ALL_ASSEMBLY_MEMBERS
100
AcDbSpline
 62
7
  6
CONTINUOUS
 70
0
 71
3
 72
14
 73
10
 74
0
 42
0.0000001
 43
0.0000001
 44
0.0000000001
 40
0.0
 40
0.0
 40
0.0
 40
0.0
 40
0.0690143118
 40
0.1520039535
 40
0.2644651847
 40
0.405331305
 40
0.574490939
 40
0.7723689245
 40
1.0
 40
1.0
 40
1.0
 40
1.0
 10
3.7033401584
 20
2.8785075384
 30
0.0
 10
3.7048081018
 20
2.8775593243
 30
0.0
 10
3.7080423274
 20
2.8754725618
 30
0.0
 10
3.7136716349
 20
2.8718453301
 30
0.0
 10
3.7208301851
 20
2.8672323593
 30
0.0
 10
3.7298502966
 20
2.8614800925
 30
0.0
 10
3.7407591781
 20
2.8546677101
 30
0.0
 10
3.7536319015
 20
2.8468542332
 30
0.0
 10
3.7629284742
 20
2.8414062673
 30
0.0
 10
3.767927972
 20
2.8385376795
 30
0.0
  0
SPLINE
  5
30A
100
AcDbEntity
  8
ALL_ASSEMBLY_MEMBERS
100
AcDbSpline
 62
7
  6
CONTINUOUS
 70
0
 71
3
 72
17
 73
13
 74
0
 42
0.0000001
 43
0.0000001
 44
0.0000000001
 40
0.0
 40
0.0
 40
0.0
 40
0.0
 40
0.1730893724
 40
0.2725704953
 40
0.3822236399
 40
0.5041114101
 40
0.64191735
 40
0.7186028164
 40
0.7593293456
 40
0.8018565655
 40
0.8941963299
 40
1.0
 40
1.0
 40
1.0
 40
1.0
 10
3.767927972
 20
2.8385376795
 30
0.0
 10
3.7762767856
 20
2.8337473372
 30
0.0
 10
3.7895366338
 20
2.826397061
 30
0.0
 10
3.8083836588
 20
2.8165673999
 30
0.0
 10
3.8248638349
 20
2.8083632047
 30
0.0
 10
3.843439704
 20
2.7995957107
 30
0.0
 10
3.8605426532
 20
2.7920139155
 30
0.0
 10
3.8736247372
 20
2.786509276
 30
0.0
 10
3.8818568632
 20
2.78314175
 30
0.0
 10
3.8909189652
 20
2.7795044626
 30
0.0
 10
3.9033994683
 20
2.7746693982
 30
0.0
 10
3.9137451466
 20
2.770875315
 30
0.0
 10
3.9192852525
 20
2.7688940075
 30
0.0
  0
SPLINE
  5
30B
100
AcDbEntity
  8
ALL_ASSEMBLY_MEMBERS
100
AcDbSpline
 62
7
  6
CONTINUOUS
 70
0
 71
3
 72
24
 73
20
 74
0
 42
0.0000001
 43
0.0000001
 44
0.0000000001
 40
0.0
 40
0.0
 40
0.0
 40
0.0
 40
0.0150061295
 40
0.0580835271
 40
0.0893114635
 40
0.1268999946
 40
0.1709481653
 40
0.2216639959
 40
0.2793423502
 40
0.3445087301
 40
0.4179011516
 40
0.500859991
 40
0.5951430933
 40
0.6474476104
 40
0.7040234617
 40
0.7657123466
 40
0.8337448407
 40
0.9101800787
 40
1.0
 40
1.0
 40
1.0
 40
1.0
 10
3.662299289
 20
2.812828418
 30
0.0
 10
3.6633203613
 20
2.8122447328
 30
0.0
 10
3.6672729874
 20
2.809986207
 30
0.0
 10
3.6733530348
 20
2.806517508
 30
0.0
 10
3.6809737288
 20
2.8021775239
 30
0.0
 10
3.6886837025
 20
2.7978407066
 30
0.0
 10
3.6977633838
 20
2.7928239237
 30
0.0
 10
3.7082782627
 20
2.7871498687
 30
0.0
 10
3.7203226942
 20
2.7808264929
 30
0.0
 10
3.7340396501
 20
2.7738681728
 30
0.0
 10
3.7496441662
 20
2.7662550608
 30
0.0
 10
3.7674551934
 20
2.7579669331
 30
0.0
 10
3.7839128989
 20
2.750695686
 30
0.0
 10
3.7985782791
 20
2.7444920268
 30
0.0
 10
3.8109517102
 20
2.7394296967
 30
0.0
 10
3.8245331187
 20
2.7340672825
 30
0.0
 10
3.8396389215
 20
2.728330997
 30
0.0
 10
3.8568929297
 20
2.7220451799
 30
0.0
 10
3.8692139873
 20
2.717801722
 30
0.0
 10
3.8758874083
 20
2.715560334
 30
0.0
  0
SPLINE
  5
30C
100
AcDbEntity
  8
ALL_ASSEMBLY_MEMBERS
100
AcDbSpline
 62
7
  6
CONTINUOUS
 70
0
 71
3
 72
11
 73
7
 74
0
 42
0.0000001
 43
0.0000001
 44
0.0000000001
 40
0.0
 40
0.0
 40
0.0
 40
0.0
 40
0.2521224973
 40
0.5031414453
 40
0.7525903437
 40
1.0
 40
1.0
 40
1.0
 40
1.0
 10
3.8758874083
 20
2.715560334
 30
0.0
 10
3.859355516
 20
2.6942957934
 30
0.0
 10
3.8274615222
 20
2.6509936171
 30
0.0
 10
3.7831696885
 20
2.5838513442
 30
0.0
 10
3.7426629858
 20
2.5149432919
 30
0.0
 10
3.7181744177
 20
2.4678165779
 30
0.0
 10
3.7066173422
 20
2.4440458146
 30
0.0
  0
ENDSEC
  0
SECTION
  2
OBJECTS
  0
DICTIONARY
  5
C
100
AcDbDictionary
280
0
281
1
  3
ACAD_GROUP
350
D
  3
ACAD_MLINESTYLE
350
17
  3
ACAD_LAYOUT
350
1A
  3
ACAD_PLOTSETTINGS
350
19
  3
ACAD_PLOTSTYLENAME
350
E
  0
DICTIONARY
  5
D
102
{ACAD_REACTORS
330
C
102
}
100
AcDbDictionary
280
0
281
1
  0
ACDBDICTIONARYWDFLT
  5
E
102
{ACAD_REACTORS
330
C
102
}
100
AcDbDictionary
281
1
  3
Normal
350
F
100
AcDbDictionaryWithDefault
340
F
  0
DICTIONARY
  5
17
102
{ACAD_REACTORS
330
C
102
}
100
AcDbDictionary
280
0
281
1
  3
Standard
350
18
  0
DICTIONARY
  5
19
102
{ACAD_REACTORS
330
C
102
}
100
AcDbDictionary
281
1
  0
DICTIONARY
  5
1A
102
{ACAD_REACTORS
330
C
102
}
100
AcDbDictionary
281
1
  3
Model
350
30D
  3
Layout1
350
30E
  0
ACDBPLACEHOLDER
  5
F
102
{ACAD_REACTORS
330
E
102
}
  0
MLINESTYLE
  5
18
102
{ACAD_REACTORS
330
17
102
}
100
AcDbMlineStyle
  2
STANDARD
 70
0
  3

 62
256
 51
90.0
 52
90.0
 71
2
 49
0.5
 62
256
  6
BYLAYER
 49
-0.5
 62
256
  6
BYLAYER
  0
LAYOUT
  5
30D
102
{ACAD_REACTORS
330
1A
102
}
100
AcDbPlotSettings
  1

  2
none_device
  4
ANSI_A_(11.00_x_8.50_Inches)
  6

 40
0.0
 41
0.0
 42
0.0
 43
0.0
 44
279.4
 45
215.9
 46
0.0
 47
0.0
 48
0.0
 49
0.0
140
0.0
141
0.0
142
1.0
143
1.0
 70
1024
 72
0
 73
0
 74
0
  7

 75
0
147
1.0
148
0.0
149
0.0
100
AcDbLayout
  1
Model
 70
0
 71
0
 10
0.0
 20
0.0
 11
11.0
 21
8.5
 12
0.0
 22
0.0
 32
0.0
 14
0.0
 24
0.0
 34
0.0
 15
0.0
 25
0.0
 35
0.0
146
0.0
 13
0.0
 23
0.0
 33
0.0
 16
1.0
 26
0.0
 36
0.0
 17
0.0
 27
1.0
 37
0.0
 76
0
330
21D
345
0
346
0
  0
LAYOUT
  5
30E
102
{ACAD_REACTORS
330
1A
102
}
100
AcDbPlotSettings
  1

  2
none_device
  4
ANSI_A_(11.00_x_8.50_Inches)
  6

 40
0.0
 41
0.0
 42
0.0
 43
0.0
 44
279.4
 45
215.9
 46
0.0
 47
0.0
 48
0.0
 49
0.0
140
0.0
141
0.0
142
1.0
143
1.0
 70
0
 72
0
 73
0
 74
0
  7

 75
0
147
1.0
148
0.0
149
0.0
100
AcDbLayout
  1
Layout1
 70
0
 71
1
 10
0.0
 20
0.0
 11
11.0
 21
8.5
 12
0.0
 22
0.0
 32
0.0
 14
0.0
 24
0.0
 34
0.0
 15
0.0
 25
0.0
 35
0.0
146
0.0
 13
0.0
 23
0.0
 33
0.0
 16
1.0
 26
0.0
 36
0.0
 17
0.0
 27
1.0
 37
0.0
 76
0
330
21E
345
0
346
0
  0
ENDSEC
  0
EOF
