999
DXF file: 3-2411_RIGHT.dxf
999
Pro/ENGINEER 2018400 by Parametric Technology Corporation
  0
SECTION
  2
HEADER
  9
$ACADVER
  1
AC1027
  9
$DWGCODEPAGE
  3
ANSI_1252
  9
$EXTMAX
 10
11.0
 20
8.5
 30
0.0
  9
$EXTMIN
 10
0.0
 20
0.0
 30
0.0
  9
$LIMMIN
 10
0.0
 20
0.0
  9
$LIMMAX
 10
11.0
 20
8.5
  9
$VIEWCTR
 10
5.5
 20
4.25
  9
$VIEWSIZE
 40
8.5
  9
$CLAYER
  8
0
  9
$LTSCALE
 40
0.605
  9
$CELTYPE
  6
BYLAYER
  9
$DIMSCALE
 40
1.0
  9
$DIMASZ
 40
0.1
  9
$DIMEXO
 40
0.0625
  9
$DIMDLI
 40
0.418
  9
$DIMEXE
 40
0.125
  9
$DIMCEN
 40
0.099
  9
$DIMLFAC
 40
1.0
  9
$DIMBLK
  1
_FILLED
  9
$DIMALT
 70
1
  9
$DIMALTD
 70
2
  9
$DIMALTTD
 70
2
  9
$DIMALTF
 40
25.4
  9
$DIMTXT
 40
0.08
  9
$DIMTOL
 70
1
  9
$DIMLIM
 70
0
  9
$DIMTFAC
 40
1.0
  9
$DIMTP
 40
0.001
  9
$DIMTM
 40
0.001
  9
$DIMGAP
 40
0.09
  9
$DIMDSEP
 70
46
  9
$AUNITS
 70
0
  9
$PDMODE
 70
3
  9
$PDSIZE
 40
0.3125
  9
$HANDSEED
  5
2E1
  9
$TILEMODE
 70
1
  9
$MEASUREMENT
 70
0
  9
$INSUNITS
 70
1
  0
ENDSEC
  0
SECTION
  2
CLASSES
  0
CLASS
  1
ACDBDICTIONARYWDFLT
  2
AcDbDictionaryWithDefault
  3
AutoCAD 2000
 90
0
 91
1
280
0
281
0
  0
CLASS
  1
ACDBPLACEHOLDER
  2
AcDbPlaceHolder
  3
AutoCAD 2000
 90
0
 91
1
280
0
281
0
  0
CLASS
  1
LAYOUT
  2
AcDbLayout
  3
AutoCAD 2000
 90
0
 91
0
280
0
281
0
  0
ENDSEC
  0
SECTION
  2
TABLES
  0
TABLE
  2
VPORT
  5
8
100
AcDbSymbolTable
 70
2
  0
VPORT
  5
1F4
100
AcDbSymbolTableRecord
100
AcDbViewportTableRecord
  2
*ACTIVE
 70
0
 10
0.0
 20
0.0
 11
1.0
 21
1.0
 12
5.5
 22
4.25
 13
0.0
 23
0.0
 14
1.0
 24
1.0
 15
0.0
 25
0.0
 16
0.0
 26
0.0
 36
1.0
 17
0.0
 27
0.0
 37
0.0
 40
8.5
 41
1.2941176471
 42
50.0
 43
0.0
 44
0.0
 50
0.0
 51
0.0
 71
0
 72
100
 73
1
 74
1
 75
0
 76
0
 77
0
 78
0
  0
ENDTAB
  0
TABLE
  2
LTYPE
  5
5
100
AcDbSymbolTable
 70
6
  0
LTYPE
  5
14
100
AcDbSymbolTableRecord
100
AcDbLinetypeTableRecord
  2
BYBLOCK
 70
0
  3

 72
65
 73
0
 40
0.0
  0
LTYPE
  5
15
100
AcDbSymbolTableRecord
100
AcDbLinetypeTableRecord
  2
BYLAYER
 70
0
  3

 72
65
 73
0
 40
0.0
  0
LTYPE
  5
16
100
AcDbSymbolTableRecord
100
AcDbLinetypeTableRecord
  2
CONTINUOUS
 70
64
  3
Solid line
 72
65
 73
0
 40
0.0
  0
LTYPE
  5
1F5
100
AcDbSymbolTableRecord
100
AcDbLinetypeTableRecord
  2
CENTER
 70
64
  3
____ _ ____ _ ____ _ ____ _ ____ _ ____ _ ____
 72
65
 73
4
 40
0.6
 49
0.375
 74
0
 49
-0.075
 74
0
 49
0.075
 74
0
 49
-0.075
 74
0
  0
LTYPE
  5
1F6
100
AcDbSymbolTableRecord
100
AcDbLinetypeTableRecord
  2
HIDDEN
 70
64
  3
- - - - - - - - - - - - - - - - - - - -
 72
65
 73
2
 40
0.2
 49
0.1
 74
0
 49
-0.1
 74
0
  0
LTYPE
  5
1F7
100
AcDbSymbolTableRecord
100
AcDbLinetypeTableRecord
  2
PHANTOM
 70
64
  3
_____ _ _ _____ _ _ _____ _ _ _____
 72
65
 73
6
 40
0.8
 49
0.45
 74
0
 49
-0.05
 74
0
 49
0.1
 74
0
 49
-0.05
 74
0
 49
0.1
 74
0
 49
-0.05
 74
0
  0
LTYPE
  5
1F8
100
AcDbSymbolTableRecord
100
AcDbLinetypeTableRecord
  2
DOT
 70
64
  3
. . . . . . . . . . . . . . . . . . . .
 72
65
 73
2
 40
0.2
 49
0.1
 74
0
 49
-0.1
 74
0
  0
LTYPE
  5
1F9
100
AcDbSymbolTableRecord
100
AcDbLinetypeTableRecord
  2
DASHED
 70
64
  3
- - - - - - - - - - - - - - - - - - - -
 72
65
 73
2
 40
0.2
 49
0.1
 74
0
 49
-0.1
 74
0
  0
ENDTAB
  0
TABLE
  2
LAYER
  5
2
100
AcDbSymbolTable
 70
36
  0
LAYER
  5
10
100
AcDbSymbolTableRecord
100
AcDbLayerTableRecord
  2
0
 70
0
 62
7
  6
CONTINUOUS
370
-3
390
F
  0
LAYER
  5
1FA
100
AcDbSymbolTableRecord
100
AcDbLayerTableRecord
  2
DEFAULT_1
 70
0
 62
7
  6
CENTER
370
-3
390
F
  0
LAYER
  5
1FB
100
AcDbSymbolTableRecord
100
AcDbLayerTableRecord
  2
DEFAULT_2
 70
0
 62
8
  6
HIDDEN
370
-3
390
F
  0
LAYER
  5
1FC
100
AcDbSymbolTableRecord
100
AcDbLayerTableRecord
  2
DEFAULT_3
 70
0
 62
7
  6
PHANTOM
370
-3
390
F
  0
LAYER
  5
1FD
100
AcDbSymbolTableRecord
100
AcDbLayerTableRecord
  2
2-125_ASSY_PLANES
 70
0
 62
7
  6
CONTINUOUS
370
-3
390
F
  0
LAYER
  5
1FE
100
AcDbSymbolTableRecord
100
AcDbLayerTableRecord
  2
ALL_ASSEMBLY_MEMBERS
 70
0
 62
7
  6
CONTINUOUS
370
-3
390
F
  0
LAYER
  5
1FF
100
AcDbSymbolTableRecord
100
AcDbLayerTableRecord
  2
ALL_FEATURES
 70
0
 62
7
  6
CONTINUOUS
370
-3
390
F
  0
LAYER
  5
200
100
AcDbSymbolTableRecord
100
AcDbLayerTableRecord
  2
AXES_FEATURES
 70
0
 62
7
  6
CONTINUOUS
370
-3
390
F
  0
LAYER
  5
201
100
AcDbSymbolTableRecord
100
AcDbLayerTableRecord
  2
CHAMFER_FEATURES
 70
0
 62
7
  6
CONTINUOUS
370
-3
390
F
  0
LAYER
  5
202
100
AcDbSymbolTableRecord
100
AcDbLayerTableRecord
  2
COORDINATE_SYSTEMS
 70
0
 62
7
  6
CONTINUOUS
370
-3
390
F
  0
LAYER
  5
203
100
AcDbSymbolTableRecord
100
AcDbLayerTableRecord
  2
CUT_FEATURES
 70
0
 62
7
  6
CONTINUOUS
370
-3
390
F
  0
LAYER
  5
204
100
AcDbSymbolTableRecord
100
AcDbLayerTableRecord
  2
CYAN
 70
0
 62
7
  6
CONTINUOUS
370
-3
390
F
  0
LAYER
  5
205
100
AcDbSymbolTableRecord
100
AcDbLayerTableRecord
  2
DATUM_CURVES
 70
0
 62
7
  6
CONTINUOUS
370
-3
390
F
  0
LAYER
  5
206
100
AcDbSymbolTableRecord
100
AcDbLayerTableRecord
  2
DATUM_PLANES
 70
0
 62
7
  6
CONTINUOUS
370
-3
390
F
  0
LAYER
  5
207
100
AcDbSymbolTableRecord
100
AcDbLayerTableRecord
  2
DATUM_POINTS
 70
0
 62
7
  6
CONTINUOUS
370
-3
390
F
  0
LAYER
  5
208
100
AcDbSymbolTableRecord
100
AcDbLayerTableRecord
  2
DEFAULT_COORDINATE_SYSTEM
 70
0
 62
7
  6
CONTINUOUS
370
-3
390
F
  0
LAYER
  5
209
100
AcDbSymbolTableRecord
100
AcDbLayerTableRecord
  2
DEFAULT_DATUM_AXES
 70
0
 62
7
  6
CONTINUOUS
370
-3
390
F
  0
LAYER
  5
20A
100
AcDbSymbolTableRecord
100
AcDbLayerTableRecord
  2
DEFAULT_DATUM_CURVES
 70
0
 62
7
  6
CONTINUOUS
370
-3
390
F
  0
LAYER
  5
20B
100
AcDbSymbolTableRecord
100
AcDbLayerTableRecord
  2
DEFAULT_DATUM_PLANES
 70
0
 62
7
  6
CONTINUOUS
370
-3
390
F
  0
LAYER
  5
20C
100
AcDbSymbolTableRecord
100
AcDbLayerTableRecord
  2
DEFAULT_SURFACES
 70
0
 62
7
  6
CONTINUOUS
370
-3
390
F
  0
LAYER
  5
20D
100
AcDbSymbolTableRecord
100
AcDbLayerTableRecord
  2
DIMENSIONS
 70
0
 62
7
  6
CONTINUOUS
370
-3
390
F
  0
LAYER
  5
20E
100
AcDbSymbolTableRecord
100
AcDbLayerTableRecord
  2
HOLE_FEATURES
 70
0
 62
7
  6
CONTINUOUS
370
-3
390
F
  0
LAYER
  5
20F
100
AcDbSymbolTableRecord
100
AcDbLayerTableRecord
  2
PART_REFERENCE_DIMENSIONS
 70
0
 62
7
  6
CONTINUOUS
370
-3
390
F
  0
LAYER
  5
210
100
AcDbSymbolTableRecord
100
AcDbLayerTableRecord
  2
PLATED_SURFACE_AREA
 70
0
 62
7
  6
CONTINUOUS
370
-3
390
F
  0
LAYER
  5
211
100
AcDbSymbolTableRecord
100
AcDbLayerTableRecord
  2
POINTS
 70
0
 62
7
  6
CONTINUOUS
370
-3
390
F
  0
LAYER
  5
212
100
AcDbSymbolTableRecord
100
AcDbLayerTableRecord
  2
PROTRUSION_FEATURES
 70
0
 62
7
  6
CONTINUOUS
370
-3
390
F
  0
LAYER
  5
213
100
AcDbSymbolTableRecord
100
AcDbLayerTableRecord
  2
QUILTS
 70
0
 62
7
  6
CONTINUOUS
370
-3
390
F
  0
LAYER
  5
214
100
AcDbSymbolTableRecord
100
AcDbLayerTableRecord
  2
REFERENCE_DIMENSIONS
 70
0
 62
7
  6
CONTINUOUS
370
-3
390
F
  0
LAYER
  5
215
100
AcDbSymbolTableRecord
100
AcDbLayerTableRecord
  2
ROUND_FEATURES
 70
0
 62
7
  6
CONTINUOUS
370
-3
390
F
  0
LAYER
  5
216
100
AcDbSymbolTableRecord
100
AcDbLayerTableRecord
  2
SURFACE_FEATURES
 70
0
 62
7
  6
CONTINUOUS
370
-3
390
F
  0
LAYER
  5
217
100
AcDbSymbolTableRecord
100
AcDbLayerTableRecord
  2
WETTED_SURFACES
 70
0
 62
7
  6
CONTINUOUS
370
-3
390
F
  0
LAYER
  5
218
100
AcDbSymbolTableRecord
100
AcDbLayerTableRecord
  2
WETTED_SURFACE_AREA
 70
0
 62
7
  6
CONTINUOUS
370
-3
390
F
  0
LAYER
  5
219
100
AcDbSymbolTableRecord
100
AcDbLayerTableRecord
  2
WHITE
 70
0
 62
7
  6
CONTINUOUS
370
-3
390
F
  0
ENDTAB
  0
TABLE
  2
STYLE
  5
3
100
AcDbSymbolTable
 70
1
  0
STYLE
  5
11
100
AcDbSymbolTableRecord
100
AcDbTextStyleTableRecord
  2
STANDARD
 70
0
 40
0.0
 41
0.8
 50
0.0
 71
0
 42
0.2
  3
txt
  4

  0
STYLE
  5
21A
100
AcDbSymbolTableRecord
100
AcDbTextStyleTableRecord
  2
TEXTSTYLE_1
 70
0
 40
0.0
 41
0.8
 50
0.0
 71
0
 42
0.2
  3
gdt
  4

  0
ENDTAB
  0
TABLE
  2
VIEW
  5
6
100
AcDbSymbolTable
 70
0
  0
ENDTAB
  0
TABLE
  2
UCS
  5
7
100
AcDbSymbolTable
 70
0
  0
ENDTAB
  0
TABLE
  2
APPID
  5
9
100
AcDbSymbolTable
 70
1
  0
APPID
  5
21B
100
AcDbSymbolTableRecord
100
AcDbRegAppTableRecord
  2
ACAD
 70
0
  0
ENDTAB
  0
TABLE
  2
BLOCK_RECORD
  5
1
100
AcDbSymbolTable
 70
0
  0
BLOCK_RECORD
  5
21C
100
AcDbSymbolTableRecord
100
AcDbBlockTableRecord
  2
*Model_Space
  0
BLOCK_RECORD
  5
21D
100
AcDbSymbolTableRecord
100
AcDbBlockTableRecord
  2
*Paper_Space
  0
BLOCK_RECORD
  5
21E
100
AcDbSymbolTableRecord
100
AcDbBlockTableRecord
  2
_FILLED
  0
ENDTAB
  0
TABLE
  2
DIMSTYLE
  5
A
100
AcDbSymbolTable
 70
1
100
AcDbDimStyleTable
 71
0
  0
DIMSTYLE
105
21F
100
AcDbSymbolTableRecord
100
AcDbDimStyleTableRecord
  2
STANDARD
 70
0
  3

  4

 40
1.0
 41
0.1
 42
0.0625
 43
0.38
 44
0.125
 45
0.0
 46
0.0
 47
0.001
 48
0.001
140
0.08
141
0.09
142
0.0
143
25.4
144
1.0
145
0.0
146
1.0
147
0.09
 71
1.0
 72
0.0
 73
1
 74
1
 75
0
 76
0
 77
0
 78
4
 79
1
170
1
171
2
172
0
173
0
174
0
175
0
176
0
177
0
178
0
270
2
179
3
271
3
272
3
273
2
274
2
275
0
280
0
281
0
282
0
283
1
284
4
285
0
286
0
287
3
288
0
340
11
278
46
341
21E
342
21E
343
21E
344
21E
  0
ENDTAB
  0
ENDSEC
  0
SECTION
  2
BLOCKS
  0
BLOCK
  5
20
100
AcDbEntity
  8
0
100
AcDbBlockBegin
  2
*Model_Space
 70
0
 10
0.0
 20
0.0
 30
0.0
  3
*Model_Space
  1

  0
ENDBLK
  5
21
100
AcDbEntity
  8
0
100
AcDbBlockEnd
  0
BLOCK
  5
1C
100
AcDbEntity
  8
0
100
AcDbBlockBegin
  2
*Paper_Space
 70
0
 10
0.0
 20
0.0
 30
0.0
  3
*Paper_Space
  1

  0
ENDBLK
  5
1D
100
AcDbEntity
  8
0
100
AcDbBlockEnd
  0
BLOCK
  5
220
100
AcDbEntity
  8
0
100
AcDbBlockBegin
  2
_FILLED
 70
64
 10
0.0
 20
0.0
  3
_FILLED
  1

  0
SOLID
  5
221
100
AcDbEntity
  8
0
  6
BYBLOCK
 62
0
100
AcDbTrace
 10
0.0
 20
0.0
 11
-1.0
 21
0.2
 12
-1.0
 22
-0.2
 13
-1.0
 23
-0.2
  0
ENDBLK
  5
222
100
AcDbEntity
  8
0
  6
BYBLOCK
 62
0
100
AcDbBlockEnd
  0
ENDSEC
  0
SECTION
  2
ENTITIES
  0
MTEXT
  5
223
100
AcDbEntity
  8
0
100
AcDbMText
 62
2
  6
CONTINUOUS
  7
STANDARD
 71
3
 72
1
 10
4.8563096099
 20
2.3243447385
 30
0.0
 11
1.0
 21
0.0
 31
0.0
 73
2
 44
0.9
  1
SCALE  .500
 40
0.08
 41
0.704
  0
LINE
  5
224
100
AcDbEntity
  8
0
100
AcDbLine
 62
7
  6
CONTINUOUS
 10
0.0
 20
0.0
 11
0.0
 21
8.5
  0
LINE
  5
225
100
AcDbEntity
  8
0
100
AcDbLine
 62
7
  6
CONTINUOUS
 10
0.0
 20
0.0
 11
11.0
 21
0.0
  0
LINE
  5
226
100
AcDbEntity
  8
0
100
AcDbLine
 62
7
  6
CONTINUOUS
 10
0.0
 20
8.5
 11
11.0
 21
8.5
  0
LINE
  5
227
100
AcDbEntity
  8
0
100
AcDbLine
 62
7
  6
CONTINUOUS
 10
11.0
 20
0.0
 11
11.0
 21
8.5
  0
LINE
  5
228
100
AcDbEntity
  8
0
100
AcDbLine
 62
7
  6
CONTINUOUS
 10
3.509343745
 20
3.7521425379
 11
3.5081271426
 21
3.7483982209
  0
LINE
  5
229
100
AcDbEntity
  8
0
100
AcDbLine
 62
7
  6
CONTINUOUS
 10
3.5531014814
 20
3.7379247874
 11
3.551884879
 21
3.7341804705
  0
LINE
  5
22A
100
AcDbEntity
  8
0
100
AcDbLine
 62
7
  6
CONTINUOUS
 10
3.5662065908
 20
3.7336666793
 11
3.5649899885
 21
3.7299223623
  0
LINE
  5
22B
100
AcDbEntity
  8
0
100
AcDbLine
 62
7
  6
CONTINUOUS
 10
3.6099643272
 20
3.7194489288
 11
3.6087477249
 21
3.7157046118
  0
LINE
  5
22C
100
AcDbEntity
  8
ALL_FEATURES
100
AcDbLine
 62
7
  6
CONTINUOUS
 10
3.5036602155
 20
4.0745138159
 11
3.3371759231
 21
3.8080832542
  0
LINE
  5
22D
100
AcDbEntity
  8
0
100
AcDbLine
 62
7
  6
CONTINUOUS
 10
3.6087477249
 20
3.7157046118
 11
3.5081271426
 21
3.7483982209
  0
LINE
  5
22E
100
AcDbEntity
  8
ALL_FEATURES
100
AcDbLine
 62
7
  6
CONTINUOUS
 10
3.6938221167
 20
3.6922018813
 11
3.3371759231
 21
3.8080832542
  0
LINE
  5
22F
100
AcDbEntity
  8
ALL_FEATURES
100
AcDbLine
 62
7
  6
CONTINUOUS
 10
3.8148594207
 20
3.8716470639
 11
3.6938221167
 21
3.6922018813
  0
LINE
  5
230
100
AcDbEntity
  8
0
100
AcDbLine
 62
7
  6
CONTINUOUS
 10
6.6898473091
 20
4.0919005211
 11
6.6848473091
 21
4.0919005211
  0
LINE
  5
231
100
AcDbEntity
  8
0
100
AcDbLine
 62
7
  6
CONTINUOUS
 10
6.6248473091
 20
4.1544005211
 11
6.4272385105
 21
4.1544005211
  0
LINE
  5
232
100
AcDbEntity
  8
0
100
AcDbLine
 62
7
  6
CONTINUOUS
 10
6.1012669102
 20
4.1869005211
 11
6.0988473091
 21
4.1869005211
  0
LINE
  5
233
100
AcDbEntity
  8
ALL_FEATURES
100
AcDbLine
 62
7
  6
CONTINUOUS
 10
5.2248473091
 20
4.1869005211
 11
4.6888473091
 21
4.1869005211
  0
LINE
  5
234
100
AcDbEntity
  8
ALL_FEATURES
100
AcDbLine
 62
7
  6
CONTINUOUS
 10
5.2248473091
 20
4.1869005208
 11
5.2248473091
 21
4.6369005215
  0
LINE
  5
235
100
AcDbEntity
  8
0
100
AcDbLine
 62
7
  6
CONTINUOUS
 10
6.0688473091
 20
4.2496505211
 11
6.0288473091
 21
4.2496505211
  0
LINE
  5
236
100
AcDbEntity
  8
ALL_FEATURES
100
AcDbLine
 62
7
  6
CONTINUOUS
 10
5.9325336184
 20
4.2826505211
 11
6.0288473091
 21
4.2826505211
  0
LINE
  5
237
100
AcDbEntity
  8
0
100
AcDbLine
 62
7
  6
CONTINUOUS
 10
5.291291927
 20
4.1725305502
 11
5.291291927
 21
4.651270492
  0
LINE
  5
238
100
AcDbEntity
  8
0
100
AcDbLine
 62
7
  6
CONTINUOUS
 10
5.3114876789
 20
4.1864492119
 11
5.3114876789
 21
4.6373518303
  0
LINE
  5
239
100
AcDbEntity
  8
ALL_FEATURES
100
AcDbLine
 62
7
  6
CONTINUOUS
 10
5.2248473091
 20
4.4119005211
 11
4.6890473091
 21
4.4112460854
  0
LINE
  5
23A
100
AcDbEntity
  8
0
100
AcDbLine
 62
7
  6
CONTINUOUS
 10
5.5021718131
 20
4.5248037469
 11
5.5021718117
 21
4.5184920161
  0
LINE
  5
23B
100
AcDbEntity
  8
0
100
AcDbLine
 62
7
  6
CONTINUOUS
 10
5.5021718119
 20
4.3053085985
 11
5.5021718131
 21
4.2989972953
  0
LINE
  5
23C
100
AcDbEntity
  8
ALL_FEATURES
100
AcDbLine
 62
7
  6
CONTINUOUS
 10
5.9325336573
 20
4.5411505211
 11
6.0288473091
 21
4.5411505211
  0
LINE
  5
23D
100
AcDbEntity
  8
0
100
AcDbLine
 62
7
  6
CONTINUOUS
 10
6.0688473091
 20
4.5741505211
 11
6.0288473091
 21
4.5741505211
  0
LINE
  5
23E
100
AcDbEntity
  8
0
100
AcDbLine
 62
7
  6
CONTINUOUS
 10
6.1012669102
 20
4.6369005211
 11
6.0988473091
 21
4.6369005211
  0
LINE
  5
23F
100
AcDbEntity
  8
ALL_FEATURES
100
AcDbLine
 62
7
  6
CONTINUOUS
 10
5.2248473091
 20
4.6369005211
 11
4.7608473091
 21
4.6369005211
  0
LINE
  5
240
100
AcDbEntity
  8
0
100
AcDbLine
 62
7
  6
CONTINUOUS
 10
6.6248473091
 20
4.6694005211
 11
6.4272385105
 21
4.6694005211
  0
LINE
  5
241
100
AcDbEntity
  8
0
100
AcDbLine
 62
7
  6
CONTINUOUS
 10
6.6898473091
 20
4.7319005211
 11
6.6848473091
 21
4.7319005211
  0
LINE
  5
242
100
AcDbEntity
  8
0
100
AcDbLine
 62
7
  6
CONTINUOUS
 10
6.0288473091
 20
4.2496505211
 11
6.0288473091
 21
4.5741505211
  0
LINE
  5
243
100
AcDbEntity
  8
0
100
AcDbLine
 62
7
  6
CONTINUOUS
 10
6.9868473091
 20
4.8698834621
 11
6.9251821583
 21
4.8199480076
  0
LINE
  5
244
100
AcDbEntity
  8
0
100
AcDbLine
 62
7
  6
CONTINUOUS
 10
6.9868473091
 20
3.9539175801
 11
6.9251821583
 21
4.0038530347
  0
LINE
  5
245
100
AcDbEntity
  8
0
100
AcDbLine
 62
7
  6
CONTINUOUS
 10
6.0688473091
 20
4.2169005211
 11
6.0688473091
 21
4.6069005211
  0
LINE
  5
246
100
AcDbEntity
  8
0
100
AcDbLine
 62
7
  6
CONTINUOUS
 10
6.0988473091
 20
4.1869005211
 11
6.0988473091
 21
4.6369005211
  0
LINE
  5
247
100
AcDbEntity
  8
0
100
AcDbLine
 62
7
  6
CONTINUOUS
 10
6.1012669102
 20
4.1869005211
 11
6.1012669102
 21
4.6369005211
  0
LINE
  5
248
100
AcDbEntity
  8
0
100
AcDbLine
 62
7
  6
CONTINUOUS
 10
6.1263274472
 20
4.200409023
 11
6.1263274472
 21
4.6233920192
  0
LINE
  5
249
100
AcDbEntity
  8
0
100
AcDbLine
 62
7
  6
CONTINUOUS
 10
6.1483305696
 20
4.213761322
 11
6.1483305696
 21
4.6100397203
  0
LINE
  5
24A
100
AcDbEntity
  8
0
100
AcDbLine
 62
7
  6
CONTINUOUS
 10
6.3176000039
 20
4.6730493639
 11
6.3176000018
 21
4.599260362
  0
LINE
  5
24B
100
AcDbEntity
  8
0
100
AcDbLine
 62
7
  6
CONTINUOUS
 10
6.3175999981
 20
4.2245406802
 11
6.3176000039
 21
4.1507516783
  0
LINE
  5
24C
100
AcDbEntity
  8
0
100
AcDbLine
 62
7
  6
CONTINUOUS
 10
6.3370226654
 20
4.6890472393
 11
6.3370226638
 21
4.5988143109
  0
LINE
  5
24D
100
AcDbEntity
  8
0
100
AcDbLine
 62
7
  6
CONTINUOUS
 10
6.3370226598
 20
4.2249867312
 11
6.3370226654
 21
4.1347538029
  0
LINE
  5
24E
100
AcDbEntity
  8
0
100
AcDbLine
 62
7
  6
CONTINUOUS
 10
6.40332551
 20
4.6871088544
 11
6.4033255122
 21
4.5986903967
  0
LINE
  5
24F
100
AcDbEntity
  8
0
100
AcDbLine
 62
7
  6
CONTINUOUS
 10
6.4033255117
 20
4.2251106455
 11
6.40332551
 21
4.1366921878
  0
LINE
  5
250
100
AcDbEntity
  8
0
100
AcDbLine
 62
7
  6
CONTINUOUS
 10
6.4272385105
 20
4.6694005211
 11
6.4272385105
 21
4.5990681105
  0
LINE
  5
251
100
AcDbEntity
  8
0
100
AcDbLine
 62
7
  6
CONTINUOUS
 10
6.4272385105
 20
4.2247329318
 11
6.4272385105
 21
4.1544005211
  0
LINE
  5
252
100
AcDbEntity
  8
0
100
AcDbLine
 62
7
  6
CONTINUOUS
 10
6.6248473091
 20
4.6694005211
 11
6.6248473091
 21
4.6124640892
  0
LINE
  5
253
100
AcDbEntity
  8
0
100
AcDbLine
 62
7
  6
CONTINUOUS
 10
6.6248473091
 20
4.2113369531
 11
6.6248473091
 21
4.1544005211
  0
LINE
  5
254
100
AcDbEntity
  8
0
100
AcDbLine
 62
7
  6
CONTINUOUS
 10
6.6498473091
 20
4.1269005211
 11
6.6498473091
 21
4.2083804507
  0
LINE
  5
255
100
AcDbEntity
  8
0
100
AcDbLine
 62
7
  6
CONTINUOUS
 10
6.6498473091
 20
4.6154205915
 11
6.6498473091
 21
4.6969005211
  0
LINE
  5
256
100
AcDbEntity
  8
0
100
AcDbLine
 62
7
  6
CONTINUOUS
 10
6.6848473091
 20
4.0919005211
 11
6.6848473091
 21
4.2037408737
  0
LINE
  5
257
100
AcDbEntity
  8
0
100
AcDbLine
 62
7
  6
CONTINUOUS
 10
6.6848473091
 20
4.6200601685
 11
6.6848473091
 21
4.7319005211
  0
LINE
  5
258
100
AcDbEntity
  8
0
100
AcDbLine
 62
7
  6
CONTINUOUS
 10
6.6898473091
 20
4.0919005211
 11
6.6898473091
 21
4.2030602268
  0
LINE
  5
259
100
AcDbEntity
  8
0
100
AcDbLine
 62
7
  6
CONTINUOUS
 10
6.6898473091
 20
4.6207408154
 11
6.6898473091
 21
4.7319005211
  0
LINE
  5
25A
100
AcDbEntity
  8
0
100
AcDbLine
 62
7
  6
CONTINUOUS
 10
6.7248473091
 20
4.7060995046
 11
6.7248473091
 21
4.6260289477
  0
LINE
  5
25B
100
AcDbEntity
  8
0
100
AcDbLine
 62
7
  6
CONTINUOUS
 10
6.7248473091
 20
4.1977720945
 11
6.7248473091
 21
4.1177015377
  0
LINE
  5
25C
100
AcDbEntity
  8
0
100
AcDbLine
 62
7
  6
CONTINUOUS
 10
6.7281380866
 20
4.7154746903
 11
6.7281380847
 21
4.6265360049
  0
LINE
  5
25D
100
AcDbEntity
  8
0
100
AcDbLine
 62
7
  6
CONTINUOUS
 10
6.7281380853
 20
4.1972650372
 11
6.7281380866
 21
4.1083263519
  0
LINE
  5
25E
100
AcDbEntity
  8
0
100
AcDbLine
 62
7
  6
CONTINUOUS
 10
6.7344318995
 20
4.6275057837
 11
6.7344318995
 21
4.1962952585
  0
LINE
  5
25F
100
AcDbEntity
  8
0
100
AcDbLine
 62
7
  6
CONTINUOUS
 10
6.758694775
 20
4.6497895682
 11
6.758694775
 21
4.174011474
  0
LINE
  5
260
100
AcDbEntity
  8
0
100
AcDbLine
 62
7
  6
CONTINUOUS
 10
6.8038473091
 20
4.1594005211
 11
6.8038473091
 21
4.6644005211
  0
LINE
  5
261
100
AcDbEntity
  8
0
100
AcDbLine
 62
7
  6
CONTINUOUS
 10
6.9070134236
 20
3.9369929269
 11
6.9070134236
 21
4.0385948315
  0
LINE
  5
262
100
AcDbEntity
  8
0
100
AcDbLine
 62
7
  6
CONTINUOUS
 10
6.9070134236
 20
4.7852062108
 11
6.9070134236
 21
4.8868081153
  0
LINE
  5
263
100
AcDbEntity
  8
0
100
AcDbLine
 62
7
  6
CONTINUOUS
 10
6.912208372
 20
4.7927478989
 11
6.912208372
 21
4.0310531433
  0
LINE
  5
264
100
AcDbEntity
  8
0
100
AcDbLine
 62
7
  6
CONTINUOUS
 10
6.9251821583
 20
4.0038530347
 11
6.9251821583
 21
4.8199480076
  0
LINE
  5
265
100
AcDbEntity
  8
0
100
AcDbLine
 62
7
  6
CONTINUOUS
 10
6.9319041334
 20
3.9112695635
 11
6.9319041334
 21
3.9984096866
  0
LINE
  5
266
100
AcDbEntity
  8
0
100
AcDbLine
 62
7
  6
CONTINUOUS
 10
6.9319041334
 20
4.8253913556
 11
6.9319041334
 21
4.9125314787
  0
LINE
  5
267
100
AcDbEntity
  8
0
100
AcDbLine
 62
7
  6
CONTINUOUS
 10
6.9868473091
 20
3.9539175801
 11
6.9868473091
 21
4.8698834621
  0
LINE
  5
268
100
AcDbEntity
  8
0
100
AcDbLine
 62
7
  6
CONTINUOUS
 10
6.9993391524
 20
3.891582894
 11
6.9993391454
 21
3.9482953855
  0
LINE
  5
269
100
AcDbEntity
  8
0
100
AcDbLine
 62
7
  6
CONTINUOUS
 10
6.999339145
 20
4.8755056566
 11
6.9993391524
 21
4.9322181482
  0
LINE
  5
26A
100
AcDbEntity
  8
0
100
AcDbLine
 62
7
  6
CONTINUOUS
 10
7.0062497519
 20
4.8757711732
 11
7.0062498288
 21
4.9342439024
  0
LINE
  5
26B
100
AcDbEntity
  8
0
100
AcDbLine
 62
7
  6
CONTINUOUS
 10
7.0062498288
 20
3.8895571398
 11
7.0062497519
 21
3.948029869
  0
LINE
  5
26C
100
AcDbEntity
  8
0
100
AcDbLine
 62
7
  6
CONTINUOUS
 10
7.0119398203
 20
4.8746566089
 11
7.0119398203
 21
3.9491444333
  0
LINE
  5
26D
100
AcDbEntity
  8
0
100
AcDbLine
 62
7
  6
CONTINUOUS
 10
7.0182816876
 20
3.8913017597
 11
7.0182816869
 21
3.9500343776
  0
LINE
  5
26E
100
AcDbEntity
  8
0
100
AcDbLine
 62
7
  6
CONTINUOUS
 10
7.018281687
 20
4.8737666647
 11
7.0182816876
 21
4.9324992825
  0
LINE
  5
26F
100
AcDbEntity
  8
0
100
AcDbLine
 62
7
  6
CONTINUOUS
 10
7.0317436366
 20
4.8792620361
 11
7.0317436366
 21
3.9445390061
  0
LINE
  5
270
100
AcDbEntity
  8
0
100
AcDbLine
 62
7
  6
CONTINUOUS
 10
7.0426700795
 20
3.8857852185
 11
7.0426700817
 21
3.9339845742
  0
LINE
  5
271
100
AcDbEntity
  8
0
100
AcDbLine
 62
7
  6
CONTINUOUS
 10
7.0426700818
 20
4.8898164681
 11
7.0426700795
 21
4.9380158237
  0
LINE
  5
272
100
AcDbEntity
  8
0
100
AcDbLine
 62
7
  6
CONTINUOUS
 10
7.1061442788
 20
3.8213428986
 11
7.1061442784
 21
3.8675422684
  0
LINE
  5
273
100
AcDbEntity
  8
0
100
AcDbLine
 62
7
  6
CONTINUOUS
 10
7.1061442783
 20
4.9562587737
 11
7.1061442788
 21
5.0024581436
  0
LINE
  5
274
100
AcDbEntity
  8
0
100
AcDbLine
 62
7
  6
CONTINUOUS
 10
7.112572918
 20
3.8602891035
 11
7.112572918
 21
4.9635119387
  0
LINE
  5
275
100
AcDbEntity
  8
0
100
AcDbLine
 62
7
  6
CONTINUOUS
 10
7.1388473091
 20
3.8367906499
 11
7.1388473091
 21
3.8684118459
  0
LINE
  5
276
100
AcDbEntity
  8
0
100
AcDbLine
 62
7
  6
CONTINUOUS
 10
7.1388473091
 20
3.8701829452
 11
7.1388473091
 21
4.953618097
  0
LINE
  5
277
100
AcDbEntity
  8
0
100
AcDbLine
 62
7
  6
CONTINUOUS
 10
7.1388473091
 20
4.9554109818
 11
7.1388473091
 21
4.9870103923
  0
ARC
  5
278
100
AcDbEntity
  8
0
100
AcDbCircle
 62
7
  6
CONTINUOUS
 10
5.6738379866
 20
0.202895239
 40
4.0
100
AcDbArc
 50
80.7385093408
 51
87.5266105542
  0
ARC
  5
279
100
AcDbEntity
  8
0
100
AcDbCircle
 62
7
  6
CONTINUOUS
 10
5.6738379866
 20
0.202895239
 40
4.0
100
AcDbArc
 50
91.1189781797
 51
95.197410851
  0
ARC
  5
27A
100
AcDbEntity
  8
ALL_FEATURES
100
AcDbCircle
 62
7
  6
CONTINUOUS
 10
4.6891417509
 20
2.1879794207
 40
1.9989224598
100
AcDbArc
 50
90.008439687
 51
103.8594922324
  0
ARC
  5
27B
100
AcDbEntity
  8
ALL_FEATURES
100
AcDbCircle
 62
7
  6
CONTINUOUS
 10
4.688881193
 20
2.1902722929
 40
1.9966326119
100
AcDbArc
 50
103.8679939565
 51
105.7357908941
  0
ARC
  5
27C
100
AcDbEntity
  8
ALL_FEATURES
100
AcDbCircle
 62
7
  6
CONTINUOUS
 10
4.7608526441
 20
2.6667487004
 40
1.9701518207
100
AcDbArc
 50
90.000155151
 51
94.0249250513
  0
ARC
  5
27D
100
AcDbEntity
  8
ALL_FEATURES
100
AcDbCircle
 62
7
  6
CONTINUOUS
 10
4.7608529362
 20
2.6668398581
 40
1.9700609084
100
AcDbArc
 50
94.0251196125
 51
96.5740413992
  0
ARC
  5
27E
100
AcDbEntity
  8
ALL_FEATURES
100
AcDbCircle
 62
7
  6
CONTINUOUS
 10
4.6408796561
 20
3.1837305116
 40
1.259623285
100
AcDbArc
 50
140.8265908134
 51
142.2467518355
  0
ARC
  5
27F
100
AcDbEntity
  8
ALL_FEATURES
100
AcDbCircle
 62
7
  6
CONTINUOUS
 10
4.3602381829
 20
3.5391986102
 40
1.0101085331
100
AcDbArc
 50
114.6678153972
 51
119.4208070131
  0
ARC
  5
280
100
AcDbEntity
  8
ALL_FEATURES
100
AcDbCircle
 62
7
  6
CONTINUOUS
 10
4.4806282078
 20
3.3825111001
 40
1.0026249154
100
AcDbArc
 50
114.2745826153
 51
118.5029177033
  0
ARC
  5
281
100
AcDbEntity
  8
ALL_FEATURES
100
AcDbCircle
 62
7
  6
CONTINUOUS
 10
4.3091230279
 20
3.5382598241
 40
0.5961908798
100
AcDbArc
 50
143.3485953036
 51
145.9998225558
  0
ARC
  5
282
100
AcDbEntity
  8
0
100
AcDbCircle
 62
7
  6
CONTINUOUS
 10
5.5400334924
 20
4.3119005211
 40
0.04
100
AcDbArc
 50
198.819063369
 51
234.0152538154
  0
ARC
  5
283
100
AcDbEntity
  8
0
100
AcDbCircle
 62
7
  6
CONTINUOUS
 10
5.2598473091
 20
4.1879005211
 40
0.035
100
AcDbArc
 50
181.6355264202
 51
333.9508481769
  0
ARC
  5
284
100
AcDbEntity
  8
0
100
AcDbCircle
 62
7
  6
CONTINUOUS
 10
5.3137523684
 20
4.1615519996
 40
0.025
100
AcDbArc
 50
95.1974108516
 51
153.950848179
  0
ARC
  5
285
100
AcDbEntity
  8
0
100
AcDbCircle
 62
7
  6
CONTINUOUS
 10
5.6738379866
 20
8.6209058032
 40
4.0
100
AcDbArc
 50
272.4733885107
 51
279.2614906592
  0
ARC
  5
286
100
AcDbEntity
  8
0
100
AcDbCircle
 62
7
  6
CONTINUOUS
 10
5.6738379866
 20
8.6209058032
 40
4.0
100
AcDbArc
 50
264.802589149
 51
268.8810165419
  0
ARC
  5
287
100
AcDbEntity
  8
ALL_FEATURES
100
AcDbCircle
 62
7
  6
CONTINUOUS
 10
3.966142224
 20
4.6674257852
 40
0.7512986698
100
AcDbArc
 50
243.4168877137
 51
246.3177228091
  0
ARC
  5
288
100
AcDbEntity
  8
ALL_FEATURES
100
AcDbCircle
 62
7
  6
CONTINUOUS
 10
3.9621651528
 20
4.6608836824
 40
0.7436696935
100
AcDbArc
 50
240.9683752256
 51
243.4653548293
  0
ARC
  5
289
100
AcDbEntity
  8
0
100
AcDbCircle
 62
7
  6
CONTINUOUS
 10
5.5400334924
 20
4.5119005211
 40
0.04
100
AcDbArc
 50
125.9824579454
 51
161.180936631
  0
ARC
  5
28A
100
AcDbEntity
  8
0
100
AcDbCircle
 62
7
  6
CONTINUOUS
 10
5.2598473091
 20
4.6359005211
 40
0.035
100
AcDbArc
 50
26.0491518231
 51
178.3644735798
  0
ARC
  5
28B
100
AcDbEntity
  8
0
100
AcDbCircle
 62
7
  6
CONTINUOUS
 10
5.3137523684
 20
4.6622490427
 40
0.025
100
AcDbArc
 50
206.049151821
 51
264.8025891484
  0
ARC
  5
28C
100
AcDbEntity
  8
0
100
AcDbCircle
 62
7
  6
CONTINUOUS
 10
6.3755473929
 20
1.9958698086
 40
2.2295
100
AcDbArc
 50
80.7367477834
 51
95.849386431
  0
ARC
  5
28D
100
AcDbEntity
  8
0
100
AcDbCircle
 62
7
  6
CONTINUOUS
 10
6.1241846262
 20
2.9929289795
 40
1.315
100
AcDbArc
 50
41.2685692708
 51
46.3573080802
  0
ARC
  5
28E
100
AcDbEntity
  8
0
100
AcDbCircle
 62
7
  6
CONTINUOUS
 10
7.4638675703
 20
4.1264005211
 40
0.9425
100
AcDbArc
 50
126.2156939533
 51
141.3169038023
  0
ARC
  5
28F
100
AcDbEntity
  8
0
100
AcDbCircle
 62
7
  6
CONTINUOUS
 10
7.203917303
 20
4.3964005211
 40
0.465
100
AcDbArc
 50
210.6423451974
 51
231.168495232
  0
ARC
  5
290
100
AcDbEntity
  8
0
100
AcDbCircle
 62
7
  6
CONTINUOUS
 10
7.3808473091
 20
4.1554005211
 40
0.4325
100
AcDbArc
 50
218.5639672484
 51
230.5687770316
  0
ARC
  5
291
100
AcDbEntity
  8
0
100
AcDbCircle
 62
7
  6
CONTINUOUS
 10
6.8849510165
 20
3.6250958317
 40
0.29
100
AcDbArc
 50
66.7688319186
 51
80.6823799255
  0
ARC
  5
292
100
AcDbEntity
  8
0
100
AcDbCircle
 62
7
  6
CONTINUOUS
 10
6.947208372
 20
4.0310531433
 40
0.035
100
AcDbArc
 50
180.0
 51
231.0
  0
ARC
  5
293
100
AcDbEntity
  8
0
100
AcDbCircle
 62
7
  6
CONTINUOUS
 10
6.3698473091
 20
4.1469005211
 40
0.035
100
AcDbArc
 50
200.3069302724
 51
343.0422367
  0
ARC
  5
294
100
AcDbEntity
  8
0
100
AcDbCircle
 62
7
  6
CONTINUOUS
 10
6.6848473091
 20
4.1269005211
 40
0.035
100
AcDbArc
 50
180.0
 51
270.0
  0
ARC
  5
295
100
AcDbEntity
  8
0
100
AcDbCircle
 62
7
  6
CONTINUOUS
 10
6.6898473091
 20
4.1269005211
 40
0.035
100
AcDbArc
 50
270.0
 51
357.9555925869
  0
ARC
  5
296
100
AcDbEntity
  8
0
100
AcDbCircle
 62
7
  6
CONTINUOUS
 10
6.0988473091
 20
4.2169005211
 40
0.03
100
AcDbArc
 50
180.0
 51
270.0
  0
ARC
  5
297
100
AcDbEntity
  8
0
100
AcDbCircle
 62
7
  6
CONTINUOUS
 10
6.1012669107
 20
4.2169005211
 40
0.03
100
AcDbArc
 50
269.9999991124
 51
326.6524271069
  0
ARC
  5
298
100
AcDbEntity
  8
0
100
AcDbCircle
 62
7
  6
CONTINUOUS
 10
6.7296027741
 20
4.1666864837
 40
0.03
100
AcDbArc
 50
14.1325726664
 51
80.7367477834
  0
ARC
  5
299
100
AcDbEntity
  8
0
100
AcDbCircle
 62
7
  6
CONTINUOUS
 10
6.1513879837
 20
4.183917525
 40
0.03
100
AcDbArc
 50
95.849386431
 51
146.6524271146
  0
ARC
  5
29A
100
AcDbEntity
  8
0
100
AcDbCircle
 62
7
  6
CONTINUOUS
 10
6.9367613524
 20
3.9408737427
 40
0.03
100
AcDbArc
 50
187.4326410706
 51
260.6823799255
  0
ARC
  5
29B
100
AcDbEntity
  8
0
100
AcDbCircle
 62
7
  6
CONTINUOUS
 10
7.0111724078
 20
3.9191505211
 40
0.03
100
AcDbArc
 50
246.7688319186
 51
260.5558594977
  0
ARC
  5
29C
100
AcDbEntity
  8
0
100
AcDbCircle
 62
7
  6
CONTINUOUS
 10
6.7858473091
 20
4.1808481317
 40
0.028
100
AcDbArc
 50
194.1325726664
 51
310.0052008849
  0
ARC
  5
29D
100
AcDbEntity
  8
0
100
AcDbCircle
 62
7
  6
CONTINUOUS
 10
7.0038389597
 20
3.9749005211
 40
0.027
100
AcDbArc
 50
231.0
 51
287.4595175183
  0
ARC
  5
29E
100
AcDbEntity
  8
0
100
AcDbCircle
 62
7
  6
CONTINUOUS
 10
6.6248473091
 20
4.1294005211
 40
0.025
100
AcDbArc
 50
0.0
 51
90.0
  0
ARC
  5
29F
100
AcDbEntity
  8
0
100
AcDbCircle
 62
7
  6
CONTINUOUS
 10
6.4272385105
 20
4.1294005211
 40
0.025
100
AcDbArc
 50
90.0
 51
163.0422367006
  0
ARC
  5
2A0
100
AcDbEntity
  8
0
100
AcDbCircle
 62
7
  6
CONTINUOUS
 10
6.3135764913
 20
4.1260775756
 40
0.025
100
AcDbArc
 50
20.3069302716
 51
80.7385093404
  0
ARC
  5
2A1
100
AcDbEntity
  8
0
100
AcDbCircle
 62
7
  6
CONTINUOUS
 10
7.0095315491
 20
3.9092860605
 40
0.02
100
AcDbArc
 50
260.5558566988
 51
295.9449210844
  0
ARC
  5
2A2
100
AcDbEntity
  8
0
100
AcDbCircle
 62
7
  6
CONTINUOUS
 10
7.1188473091
 20
3.8367906499
 40
0.02
100
AcDbArc
 50
230.5687770316
 51
360.0
  0
ARC
  5
2A3
100
AcDbEntity
  8
0
100
AcDbCircle
 62
7
  6
CONTINUOUS
 10
7.0270318261
 20
3.8733174589
 40
0.02
100
AcDbArc
 50
38.5639672465
 51
115.9449210753
  0
ARC
  5
2A4
100
AcDbEntity
  8
0
100
AcDbCircle
 62
7
  6
CONTINUOUS
 10
7.0179404577
 20
3.9300658498
 40
0.02
100
AcDbArc
 50
46.35730808
 51
107.4595175185
  0
ARC
  5
2A5
100
AcDbEntity
  8
0
100
AcDbCircle
 62
7
  6
CONTINUOUS
 10
6.7398473091
 20
4.1177015377
 40
0.015
100
AcDbArc
 50
180.0
 51
218.6830961969
  0
ARC
  5
2A6
100
AcDbEntity
  8
0
100
AcDbCircle
 62
7
  6
CONTINUOUS
 10
7.1238473091
 20
3.8701829452
 40
0.015
100
AcDbArc
 50
221.2685692707
 51
360.0
  0
ARC
  5
2A7
100
AcDbEntity
  8
0
100
AcDbCircle
 62
7
  6
CONTINUOUS
 10
5.8334615075
 20
4.4119005211
 40
0.35
100
AcDbArc
 50
195.3203927879
 51
198.819063369
  0
ARC
  5
2A8
100
AcDbEntity
  8
0
100
AcDbCircle
 62
7
  6
CONTINUOUS
 10
5.8334615075
 20
4.4119005211
 40
0.35
100
AcDbArc
 50
161.180936631
 51
164.6799240032
  0
CIRCLE
  5
2A9
100
AcDbEntity
  8
0
100
AcDbCircle
 62
7
  6
CONTINUOUS
 10
5.7235974825
 20
4.4119005211
 40
0.245775
  0
CIRCLE
  5
2AA
100
AcDbEntity
  8
0
100
AcDbCircle
 62
7
  6
CONTINUOUS
 10
5.7235974825
 20
4.4119005211
 40
0.2233585994
  0
CIRCLE
  5
2AB
100
AcDbEntity
  8
0
100
AcDbCircle
 62
7
  6
CONTINUOUS
 10
5.7235974825
 20
4.4119005211
 40
0.1481658195
  0
CIRCLE
  5
2AC
100
AcDbEntity
  8
0
100
AcDbCircle
 62
7
  6
CONTINUOUS
 10
5.7235974825
 20
4.4119005211
 40
0.1247521569
  0
ARC
  5
2AD
100
AcDbEntity
  8
0
100
AcDbCircle
 62
7
  6
CONTINUOUS
 10
6.3698473091
 20
4.6769005211
 40
0.035
100
AcDbArc
 50
16.9577633
 51
159.6930697276
  0
ARC
  5
2AE
100
AcDbEntity
  8
0
100
AcDbCircle
 62
7
  6
CONTINUOUS
 10
6.0988473091
 20
4.6069005211
 40
0.03
100
AcDbArc
 50
90.0
 51
180.0
  0
ARC
  5
2AF
100
AcDbEntity
  8
0
100
AcDbCircle
 62
7
  6
CONTINUOUS
 10
6.1012669107
 20
4.6069005211
 40
0.03
100
AcDbArc
 50
33.3475728867
 51
90.0000008682
  0
ARC
  5
2B0
100
AcDbEntity
  8
0
100
AcDbCircle
 62
7
  6
CONTINUOUS
 10
6.1513879837
 20
4.6398835173
 40
0.03
100
AcDbArc
 50
213.3475728944
 51
264.1506135687
  0
ARC
  5
2B1
100
AcDbEntity
  8
0
100
AcDbCircle
 62
7
  6
CONTINUOUS
 10
6.4272385105
 20
4.6944005211
 40
0.025
100
AcDbArc
 50
196.9577632994
 51
270.0
  0
ARC
  5
2B2
100
AcDbEntity
  8
0
100
AcDbCircle
 62
7
  6
CONTINUOUS
 10
6.3135764913
 20
4.6977234667
 40
0.025
100
AcDbArc
 50
279.2614906596
 51
339.6930697284
  0
ARC
  5
2B3
100
AcDbEntity
  8
0
100
AcDbCircle
 62
7
  6
CONTINUOUS
 10
6.3755473929
 20
6.8279312337
 40
2.2295
100
AcDbArc
 50
264.150613569
 51
279.2632522166
  0
ARC
  5
2B4
100
AcDbEntity
  8
0
100
AcDbCircle
 62
7
  6
CONTINUOUS
 10
6.1241846262
 20
5.8308720627
 40
1.315
100
AcDbArc
 50
313.6426919198
 51
318.7314307292
  0
ARC
  5
2B5
100
AcDbEntity
  8
0
100
AcDbCircle
 62
7
  6
CONTINUOUS
 10
7.4638675703
 20
4.6974005211
 40
0.9425
100
AcDbArc
 50
218.6830961977
 51
233.7843060467
  0
ARC
  5
2B6
100
AcDbEntity
  8
0
100
AcDbCircle
 62
7
  6
CONTINUOUS
 10
7.203917303
 20
4.4274005211
 40
0.465
100
AcDbArc
 50
128.831504768
 51
149.3576548026
  0
ARC
  5
2B7
100
AcDbEntity
  8
0
100
AcDbCircle
 62
7
  6
CONTINUOUS
 10
7.3808473091
 20
4.6684005211
 40
0.4325
100
AcDbArc
 50
129.4312229684
 51
141.4360327516
  0
ARC
  5
2B8
100
AcDbEntity
  8
0
100
AcDbCircle
 62
7
  6
CONTINUOUS
 10
6.8849510165
 20
5.1987052106
 40
0.29
100
AcDbArc
 50
279.3176200745
 51
293.2311680814
  0
ARC
  5
2B9
100
AcDbEntity
  8
0
100
AcDbCircle
 62
7
  6
CONTINUOUS
 10
6.947208372
 20
4.7927478989
 40
0.035
100
AcDbArc
 50
129.0
 51
180.0
  0
ARC
  5
2BA
100
AcDbEntity
  8
0
100
AcDbCircle
 62
7
  6
CONTINUOUS
 10
6.6848473091
 20
4.6969005211
 40
0.035
100
AcDbArc
 50
90.0
 51
180.0
  0
ARC
  5
2BB
100
AcDbEntity
  8
0
100
AcDbCircle
 62
7
  6
CONTINUOUS
 10
6.6898473091
 20
4.6969005211
 40
0.035
100
AcDbArc
 50
2.0444074131
 51
90.0
  0
ARC
  5
2BC
100
AcDbEntity
  8
0
100
AcDbCircle
 62
7
  6
CONTINUOUS
 10
6.7296027741
 20
4.6571145585
 40
0.03
100
AcDbArc
 50
279.2632522166
 51
345.8674273336
  0
ARC
  5
2BD
100
AcDbEntity
  8
0
100
AcDbCircle
 62
7
  6
CONTINUOUS
 10
6.9367613524
 20
4.8829272995
 40
0.03
100
AcDbArc
 50
99.3176200745
 51
172.5673589294
  0
ARC
  5
2BE
100
AcDbEntity
  8
0
100
AcDbCircle
 62
7
  6
CONTINUOUS
 10
7.0111724078
 20
4.9046505211
 40
0.03
100
AcDbArc
 50
99.4441405023
 51
113.2311680814
  0
ARC
  5
2BF
100
AcDbEntity
  8
0
100
AcDbCircle
 62
7
  6
CONTINUOUS
 10
6.7858473091
 20
4.6429529105
 40
0.028
100
AcDbArc
 50
49.9947991151
 51
165.8674273336
  0
ARC
  5
2C0
100
AcDbEntity
  8
0
100
AcDbCircle
 62
7
  6
CONTINUOUS
 10
7.0038389597
 20
4.8489005211
 40
0.027
100
AcDbArc
 50
72.5404824817
 51
129.0
  0
ARC
  5
2C1
100
AcDbEntity
  8
0
100
AcDbCircle
 62
7
  6
CONTINUOUS
 10
6.6248473091
 20
4.6944005211
 40
0.025
100
AcDbArc
 50
270.0
 51
360.0
  0
ARC
  5
2C2
100
AcDbEntity
  8
0
100
AcDbCircle
 62
7
  6
CONTINUOUS
 10
7.0095315491
 20
4.9145149817
 40
0.02
100
AcDbArc
 50
64.0550789466
 51
99.4441433646
  0
ARC
  5
2C3
100
AcDbEntity
  8
0
100
AcDbCircle
 62
7
  6
CONTINUOUS
 10
7.1188473091
 20
4.9870103923
 40
0.02
100
AcDbArc
 50
0.0
 51
129.4312229684
  0
ARC
  5
2C4
100
AcDbEntity
  8
0
100
AcDbCircle
 62
7
  6
CONTINUOUS
 10
7.0270318261
 20
4.9504835833
 40
0.02
100
AcDbArc
 50
244.0550789371
 51
321.4360327518
  0
ARC
  5
2C5
100
AcDbEntity
  8
0
100
AcDbCircle
 62
7
  6
CONTINUOUS
 10
7.0179404577
 20
4.8937351924
 40
0.02
100
AcDbArc
 50
252.5404824815
 51
313.64269192
  0
ARC
  5
2C6
100
AcDbEntity
  8
0
100
AcDbCircle
 62
7
  6
CONTINUOUS
 10
6.7398473091
 20
4.7060995046
 40
0.015
100
AcDbArc
 50
141.3169038031
 51
180.0
  0
ARC
  5
2C7
100
AcDbEntity
  8
0
100
AcDbCircle
 62
7
  6
CONTINUOUS
 10
7.1238473091
 20
4.953618097
 40
0.015
100
AcDbArc
 50
0.0
 51
138.7314307293
  0
SPLINE
  5
2C8
100
AcDbEntity
  8
ALL_FEATURES
100
AcDbSpline
 62
7
  6
CONTINUOUS
 70
0
 71
3
 72
15
 73
11
 74
0
 42
0.0000001
 43
0.0000001
 44
0.0000000001
 40
0.0
 40
0.0
 40
0.0
 40
0.0
 40
0.1250014552
 40
0.2500059307
 40
0.375007471
 40
0.5
 40
0.624992529
 40
0.7499940693
 40
0.8749985448
 40
1.0
 40
1.0
 40
1.0
 40
1.0
 10
4.147390921
 20
4.1120761518
 30
0.0
 10
4.1317012744
 20
4.1076553957
 30
0.0
 10
4.1006726898
 20
4.0975099588
 30
0.0
 10
4.0555443026
 20
4.0785388865
 30
0.0
 10
4.012111051
 20
4.0559504669
 30
0.0
 10
3.9706729764
 20
4.0298842697
 30
0.0
 10
3.9315312093
 20
4.0004821824
 30
0.0
 10
3.8949257899
 20
3.9679748399
 30
0.0
 10
3.8610942041
 20
3.9325926874
 30
0.0
 10
3.840540253
 20
3.9072305493
 30
0.0
 10
3.8308096792
 20
3.8941529338
 30
0.0
  0
SPLINE
  5
2C9
100
AcDbEntity
  8
ALL_FEATURES
100
AcDbSpline
 62
7
  6
CONTINUOUS
 70
0
 71
3
 72
11
 73
7
 74
0
 42
0.0000001
 43
0.0000001
 44
0.0000000001
 40
0.0
 40
0.0
 40
0.0
 40
0.0
 40
0.2499987121
 40
0.5
 40
0.7500012879
 40
1.0
 40
1.0
 40
1.0
 40
1.0
 10
4.5353064189
 20
4.6239470987
 30
0.0
 10
4.4838193244
 20
4.6180134407
 30
0.0
 10
4.3812716168
 20
4.6020415438
 30
0.0
 10
4.2298509278
 20
4.566051164
 30
0.0
 10
4.0817217667
 20
4.5182883739
 30
0.0
 10
3.9857609528
 20
4.4787579298
 30
0.0
 10
3.9386626451
 20
4.457127428
 30
0.0
  0
SPLINE
  5
2CA
100
AcDbEntity
  8
ALL_FEATURES
100
AcDbSpline
 62
7
  6
CONTINUOUS
 70
0
 71
3
 72
13
 73
9
 74
0
 42
0.0000001
 43
0.0000001
 44
0.0000000001
 40
0.0
 40
0.0
 40
0.0
 40
0.0
 40
0.1250308484
 40
0.250062704
 40
0.5
 40
0.749937296
 40
0.8749691516
 40
1.0
 40
1.0
 40
1.0
 40
1.0
 10
3.8640525649
 20
4.4190389827
 30
0.0
 10
3.8457716744
 20
4.4087293745
 30
0.0
 10
3.8098446341
 20
4.3869573898
 30
0.0
 10
3.7408782832
 20
4.3390520639
 30
0.0
 10
3.6604436573
 20
4.2712674108
 30
0.0
 10
3.5891084414
 20
4.1939642724
 30
0.0
 10
3.5381484422
 20
4.1272233083
 30
0.0
 10
3.5147819443
 20
4.0923123025
 30
0.0
 10
3.5036602155
 20
4.0745138159
 30
0.0
  0
SPLINE
  5
2CB
100
AcDbEntity
  8
ALL_FEATURES
100
AcDbSpline
 62
7
  6
CONTINUOUS
 70
0
 71
3
 72
26
 73
22
 74
0
 42
0.0000001
 43
0.0000001
 44
0.0000000001
 40
0.0
 40
0.0
 40
0.0
 40
0.0
 40
0.0048502458
 40
0.0191984618
 40
0.0427411518
 40
0.075175215
 40
0.1161689431
 40
0.1652745001
 40
0.2220181901
 40
0.2859401665
 40
0.3565622179
 40
0.4333179824
 40
0.5156416279
 40
0.6030519061
 40
0.6951190139
 40
0.7428022291
 40
0.7915813501
 40
0.8414907187
 40
0.892630021
 40
0.9452328331
 40
1.0
 40
1.0
 40
1.0
 40
1.0
 10
4.6225668374
 20
4.6320413586
 30
0.0
 10
4.622663021
 20
4.6316806273
 30
0.0
 10
4.6230421998
 20
4.6302523563
 30
0.0
 10
4.6238748977
 20
4.6270695948
 30
0.0
 10
4.6252280329
 20
4.6218283777
 30
0.0
 10
4.627066199
 20
4.6145942149
 30
0.0
 10
4.6293557033
 20
4.6054446592
 30
0.0
 10
4.6320925863
 20
4.5944782096
 30
0.0
 10
4.6352686274
 20
4.5818023882
 30
0.0
 10
4.6388835431
 20
4.5675292013
 30
0.0
 10
4.6429355839
 20
4.5517777854
 30
0.0
 10
4.647447298
 20
4.5346823673
 30
0.0
 10
4.6524414002
 20
4.5163782638
 30
0.0
 10
4.6579822349
 20
4.4970030196
 30
0.0
 10
4.663051803
 20
4.480267855
 30
0.0
 10
4.6674862684
 20
4.466450125
 30
0.0
 10
4.6710777197
 20
4.4557708987
 30
0.0
 10
4.6749348035
 20
4.4449017332
 30
0.0
 10
4.6791247942
 20
4.4338408967
 30
0.0
 10
4.6837364745
 20
4.4225431912
 30
0.0
 10
4.6871854321
 20
4.4150281789
 30
0.0
 10
4.6890473091
 20
4.4112460854
 30
0.0
  0
SPLINE
  5
2CC
100
AcDbEntity
  8
ALL_FEATURES
100
AcDbSpline
 62
7
  6
CONTINUOUS
 70
0
 71
3
 72
19
 73
15
 74
0
 42
0.0000001
 43
0.0000001
 44
0.0000000001
 40
0.0
 40
0.0
 40
0.0
 40
0.0
 40
0.0745645394
 40
0.1107890146
 40
0.1464665249
 40
0.1817048246
 40
0.2165583814
 40
0.2851811168
 40
0.4184475639
 40
0.5465875118
 40
0.6693518688
 40
0.7862368867
 40
0.8966678634
 40
1.0
 40
1.0
 40
1.0
 40
1.0
 10
4.6890473091
 20
4.4112460854
 30
0.0
 10
4.6907558177
 20
4.4077755344
 30
0.0
 10
4.6931656797
 20
4.4025546995
 30
0.0
 10
4.69614002
 20
4.3955623783
 30
0.0
 10
4.6982305758
 20
4.3904119661
 30
0.0
 10
4.7002297035
 20
4.3853018254
 30
0.0
 10
4.702779289
 20
4.3785721682
 30
0.0
 10
4.7069559936
 20
4.3670215466
 30
0.0
 10
4.7123889462
 20
4.3507825137
 30
0.0
 10
4.7182926612
 20
4.33174576
 30
0.0
 10
4.7236612119
 20
4.3134356088
 30
0.0
 10
4.7285622536
 20
4.2959474124
 30
0.0
 10
4.7330425667
 20
4.2793891544
 30
0.0
 10
4.7358714679
 20
4.2686662641
 30
0.0
 10
4.7372261646
 20
4.2634795414
 30
0.0
  0
LINE
  5
2CD
100
AcDbEntity
  8
ALL_FEATURES
100
AcDbLine
 62
7
  6
CONTINUOUS
 10
4.7372261646
 20
4.2634795414
 11
4.7569252231
 21
4.1869005211
  0
SPLINE
  5
2CE
100
AcDbEntity
  8
ALL_FEATURES
100
AcDbSpline
 62
7
  6
CONTINUOUS
 70
0
 71
3
 72
9
 73
5
 74
0
 42
0.0000001
 43
0.0000001
 44
0.0000000001
 40
0.0
 40
0.0
 40
0.0
 40
0.0
 40
0.2491720963
 40
1.0
 40
1.0
 40
1.0
 40
1.0
 10
4.6890473091
 20
4.4112460854
 30
0.0
 10
4.6825428029
 20
4.4112381407
 30
0.0
 10
4.6564386195
 20
4.4110979271
 30
0.0
 10
4.6303364699
 20
4.4105125493
 30
0.0
 10
4.6107493308
 20
4.409803153
 30
0.0
  0
SPLINE
  5
2CF
100
AcDbEntity
  8
ALL_FEATURES
100
AcDbSpline
 62
7
  6
CONTINUOUS
 70
0
 71
3
 72
26
 73
22
 74
0
 42
0.0000001
 43
0.0000001
 44
0.0000000001
 40
0.0
 40
0.0
 40
0.0
 40
0.0
 40
0.0545567653
 40
0.106729599
 40
0.1573624711
 40
0.2067463971
 40
0.2550137051
 40
0.3022191692
 40
0.3934866999
 40
0.4803455124
 40
0.5623747318
 40
0.6390879956
 40
0.70989843
 40
0.774210246
 40
0.8314990684
 40
0.8812540327
 40
0.9229478242
 40
0.9560730011
 40
0.9802166708
 40
0.9949890765
 40
1.0
 40
1.0
 40
1.0
 40
1.0
 10
4.6107493308
 20
4.409803153
 30
0.0
 10
4.6128727141
 20
4.406061149
 30
0.0
 10
4.6168161637
 20
4.3986196216
 30
0.0
 10
4.6221162232
 20
4.3873957883
 30
0.0
 10
4.626938594
 20
4.3764038723
 30
0.0
 10
4.6313888339
 20
4.3655888008
 30
0.0
 10
4.6355434647
 20
4.3549467611
 30
0.0
 10
4.6406900057
 20
4.3411480471
 30
0.0
 10
4.6466000522
 20
4.3243879255
 30
0.0
 10
4.6530923257
 20
4.3049249923
 30
0.0
 10
4.6589774034
 20
4.2864715578
 30
0.0
 10
4.6643225405
 20
4.2691753662
 30
0.0
 10
4.6691482075
 20
4.2531815609
 30
0.0
 10
4.673473793
 20
4.2386371216
 30
0.0
 10
4.677291609
 20
4.2256740992
 30
0.0
 10
4.6805951999
 20
4.2144191117
 30
0.0
 10
4.6833691527
 20
4.2049946497
 30
0.0
 10
4.6856022142
 20
4.1975164738
 30
0.0
 10
4.6872500562
 20
4.1920793333
 30
0.0
 10
4.6882662312
 20
4.1887675216
 30
0.0
 10
4.6887295314
 20
4.1872777361
 30
0.0
 10
4.6888473091
 20
4.1869005211
 30
0.0
  0
SPLINE
  5
2D0
100
AcDbEntity
  8
ALL_FEATURES
100
AcDbSpline
 62
7
  6
CONTINUOUS
 70
0
 71
3
 72
26
 73
22
 74
0
 42
0.0000001
 43
0.0000001
 44
0.0000000001
 40
0.0
 40
0.0
 40
0.0
 40
0.0
 40
0.0047605435
 40
0.0188499038
 40
0.0419800529
 40
0.0738634826
 40
0.1141886342
 40
0.1625455221
 40
0.2185034544
 40
0.2816488705
 40
0.3515542096
 40
0.4277177231
 40
0.5096471024
 40
0.5969548302
 40
0.6893216646
 40
0.7373544706
 40
0.7866545833
 40
0.8372937003
 40
0.8894240087
 40
0.9433623777
 40
1.0
 40
1.0
 40
1.0
 40
1.0
 10
4.5353064189
 20
4.6239470987
 30
0.0
 10
4.5354142593
 20
4.6236026726
 30
0.0
 10
4.5358395608
 20
4.6222383483
 30
0.0
 10
4.5367740411
 20
4.6191959611
 30
0.0
 10
4.538293501
 20
4.6141821997
 30
0.0
 10
4.5403592207
 20
4.6072556821
 30
0.0
 10
4.5429347266
 20
4.5984855329
 30
0.0
 10
4.5460165917
 20
4.587961857
 30
0.0
 10
4.5495971771
 20
4.5757814792
 30
0.0
 10
4.5536778334
 20
4.562045362
 30
0.0
 10
4.5582587074
 20
4.54685991
 30
0.0
 10
4.5633670275
 20
4.5303464552
 30
0.0
 10
4.5690311663
 20
4.5126245165
 30
0.0
 10
4.575326274
 20
4.4938162334
 30
0.0
 10
4.5810892079
 20
4.4775417914
 30
0.0
 10
4.5861344059
 20
4.4640735204
 30
0.0
 10
4.590229663
 20
4.4536289083
 30
0.0
 10
4.5946323326
 20
4.4429728579
 30
0.0
 10
4.5994198654
 20
4.4320983694
 30
0.0
 10
4.6046990173
 20
4.4209473003
 30
0.0
 10
4.6086301849
 20
4.4135376896
 30
0.0
 10
4.6107493308
 20
4.409803153
 30
0.0
  0
SPLINE
  5
2D1
100
AcDbEntity
  8
ALL_FEATURES
100
AcDbSpline
 62
7
  6
CONTINUOUS
 70
0
 71
3
 72
28
 73
24
 74
0
 42
0.0000001
 43
0.0000001
 44
0.0000000001
 40
0.0
 40
0.0
 40
0.0
 40
0.0
 40
0.0339533569
 40
0.0659979136
 40
0.0964793804
 40
0.1257358098
 40
0.1815577457
 40
0.2344087648
 40
0.2848288434
 40
0.3331593637
 40
0.4244680606
 40
0.5093607268
 40
0.5881539901
 40
0.660961514
 40
0.7276153992
 40
0.7878613895
 40
0.8413927511
 40
0.8878774131
 40
0.9269356155
 40
0.9581596858
 40
0.9810743166
 40
0.99518599
 40
1.0
 40
1.0
 40
1.0
 40
1.0
 10
4.0684390747
 20
4.2964896773
 30
0.0
 10
4.0703748781
 20
4.2949185455
 30
0.0
 10
4.0741004528
 20
4.291818402
 30
0.0
 10
4.079435239
 20
4.2871561538
 30
0.0
 10
4.084411104
 20
4.2826099639
 30
0.0
 10
4.0905668317
 20
4.2767692066
 30
0.0
 10
4.0977643725
 20
4.2696418515
 30
0.0
 10
4.1058510983
 20
4.2612099092
 30
0.0
 10
4.1133848103
 20
4.2530136529
 30
0.0
 10
4.1226387137
 20
4.2425663455
 30
0.0
 10
4.1332945051
 20
4.2299828061
 30
0.0
 10
4.145076345
 20
4.2154289585
 30
0.0
 10
4.1557637871
 20
4.2017410915
 30
0.0
 10
4.1654750331
 20
4.1889920778
 30
0.0
 10
4.1742573694
 20
4.1772484002
 30
0.0
 10
4.1821393254
 20
4.166599142
 30
0.0
 10
4.1891112164
 20
4.1571189232
 30
0.0
 10
4.1951574039
 20
4.1488891581
 30
0.0
 10
4.2002475261
 20
4.1419894997
 30
0.0
 10
4.2043467717
 20
4.1365097095
 30
0.0
 10
4.2073757853
 20
4.1325171183
 30
0.0
 10
4.2092464805
 20
4.1300799982
 30
0.0
 10
4.2100993527
 20
4.1289828013
 30
0.0
 10
4.2103168034
 20
4.1287041106
 30
0.0
  0
SPLINE
  5
2D2
100
AcDbEntity
  8
ALL_FEATURES
100
AcDbSpline
 62
7
  6
CONTINUOUS
 70
0
 71
3
 72
15
 73
11
 74
0
 42
0.0000001
 43
0.0000001
 44
0.0000000001
 40
0.0
 40
0.0
 40
0.0
 40
0.0
 40
0.1254393318
 40
0.2512323634
 40
0.377059872
 40
0.5026582321
 40
0.6278289183
 40
0.7524492781
 40
0.8764844391
 40
1.0
 40
1.0
 40
1.0
 40
1.0
 10
4.6107493308
 20
4.409803153
 30
0.0
 10
4.5874572594
 20
4.4089595734
 30
0.0
 10
4.5408307428
 20
4.4065055691
 30
0.0
 10
4.4710290999
 20
4.400313353
 30
0.0
 10
4.4014924028
 20
4.3913696554
 30
0.0
 10
4.3325182863
 20
4.379442396
 30
0.0
 10
4.2644033115
 20
4.3642987145
 30
0.0
 10
4.1974431575
 20
4.3457040245
 30
0.0
 10
4.1319386094
 20
4.3234246107
 30
0.0
 10
4.0893598759
 20
4.3059245995
 30
0.0
 10
4.0684390747
 20
4.2964896773
 30
0.0
  0
SPLINE
  5
2D3
100
AcDbEntity
  8
ALL_FEATURES
100
AcDbSpline
 62
7
  6
CONTINUOUS
 70
0
 71
3
 72
27
 73
23
 74
0
 42
0.0000001
 43
0.0000001
 44
0.0000000001
 40
0.0
 40
0.0
 40
0.0
 40
0.0
 40
0.0698794109
 40
0.1019055455
 40
0.1325025444
 40
0.1905350365
 40
0.2450668905
 40
0.2967322592
 40
0.3459414773
 40
0.4381289147
 40
0.522984905
 40
0.6010530163
 40
0.6726467432
 40
0.7377569924
 40
0.7962727399
 40
0.84800791
 40
0.8927437253
 40
0.9302062551
 40
0.9600841801
 40
0.9819671947
 40
0.9954185664
 40
1.0
 40
1.0
 40
1.0
 40
1.0
 10
4.0021720768
 20
4.2636106698
 30
0.0
 10
4.0061129261
 20
4.2606991915
 30
0.0
 10
4.0117688034
 20
4.2563278666
 30
0.0
 10
4.0189371315
 20
4.2504171242
 30
0.0
 10
4.0253706184
 20
4.2449229301
 30
0.0
 10
4.0328756323
 20
4.2382552163
 30
0.0
 10
4.041299481
 20
4.2304028946
 30
0.0
 10
4.0491221495
 20
4.2228164535
 30
0.0
 10
4.0586758924
 20
4.213225556
 30
0.0
 10
4.0696354713
 20
4.2017533861
 30
0.0
 10
4.0817189911
 20
4.1885630198
 30
0.0
 10
4.0926221805
 20
4.1762533193
 30
0.0
 10
4.1024796677
 20
4.1648686206
 30
0.0
 10
4.1113543486
 20
4.1544471641
 30
0.0
 10
4.1192860877
 20
4.1450518444
 30
0.0
 10
4.1262765418
 20
4.1367315189
 30
0.0
 10
4.1323194624
 20
4.1295431447
 30
0.0
 10
4.1373934573
 20
4.1235423562
 30
0.0
 10
4.1414700124
 20
4.1187967692
 30
0.0
 10
4.1444768554
 20
4.1153519877
 30
0.0
 10
4.1463312715
 20
4.1132557148
 30
0.0
 10
4.1471758337
 20
4.1123147509
 30
0.0
 10
4.147390921
 20
4.1120761518
 30
0.0
  0
SPLINE
  5
2D4
100
AcDbEntity
  8
ALL_FEATURES
100
AcDbSpline
 62
7
  6
CONTINUOUS
 70
0
 71
3
 72
27
 73
23
 74
0
 42
0.0000001
 43
0.0000001
 44
0.0000000001
 40
0.0
 40
0.0
 40
0.0
 40
0.0
 40
0.0044158662
 40
0.0174379485
 40
0.0679493458
 40
0.1047799358
 40
0.1489610327
 40
0.2002620256
 40
0.25850343
 40
0.3235339575
 40
0.3952576182
 40
0.4736738974
 40
0.5590847772
 40
0.6520163263
 40
0.701650987
 40
0.7537561843
 40
0.8087211822
 40
0.8671471528
 40
0.897912817
 40
0.9300668418
 40
0.9639721685
 40
1.0
 40
1.0
 40
1.0
 40
1.0
 10
3.9386626451
 20
4.457127428
 30
0.0
 10
3.9388346009
 20
4.4568753166
 30
0.0
 10
3.93951243
 20
4.4558789224
 30
0.0
 10
3.9421379102
 20
4.4519856334
 30
0.0
 10
3.9459768119
 20
4.4462088532
 30
0.0
 10
3.9509668627
 20
4.4386119041
 30
0.0
 10
3.9559989851
 20
4.4309772954
 30
0.0
 10
3.9618857781
 20
4.4221339343
 30
0.0
 10
3.9686473878
 20
4.4121423494
 30
0.0
 10
3.9763093592
 20
4.4010564711
 30
0.0
 10
3.9849361589
 20
4.3889440764
 30
0.0
 10
3.994610138
 20
4.3758507177
 30
0.0
 10
4.0054862802
 20
4.3618285136
 30
0.0
 10
4.0154864922
 20
4.3496504518
 30
0.0
 10
4.0242946947
 20
4.3394805588
 30
0.0
 10
4.0315562149
 20
4.3314451305
 30
0.0
 10
4.0394241486
 20
4.3231427465
 30
0.0
 10
4.0464780696
 20
4.3161056047
 30
0.0
 10
4.0525480232
 20
4.3103189898
 30
0.0
 10
4.0574817093
 20
4.3057979241
 30
0.0
 10
4.0627909795
 20
4.3011510336
 30
0.0
 10
4.0665058737
 20
4.2980586968
 30
0.0
 10
4.0684390747
 20
4.2964896773
 30
0.0
  0
SPLINE
  5
2D5
100
AcDbEntity
  8
ALL_FEATURES
100
AcDbSpline
 62
7
  6
CONTINUOUS
 70
0
 71
3
 72
26
 73
22
 74
0
 42
0.0000001
 43
0.0000001
 44
0.0000000001
 40
0.0
 40
0.0
 40
0.0
 40
0.0
 40
0.0846875259
 40
0.1575850614
 40
0.2230187402
 40
0.2827986766
 40
0.3380170904
 40
0.3894118894
 40
0.4828990046
 40
0.5660883195
 40
0.64045389
 40
0.7071002152
 40
0.766590026
 40
0.8192989385
 40
0.8653962422
 40
0.90497541
 40
0.9380323212
 40
0.9644691509
 40
0.9839085482
 40
0.9959020532
 40
1.0
 40
1.0
 40
1.0
 40
1.0
 10
3.6643721621
 20
3.9793962293
 30
0.0
 10
3.6692066317
 20
3.9772725441
 30
0.0
 10
3.6781729907
 20
3.973252916
 30
0.0
 10
3.6907702199
 20
3.9673638241
 30
0.0
 10
3.7019051403
 20
3.9620158665
 30
0.0
 10
3.7120004671
 20
3.9570507101
 30
0.0
 10
3.7212739893
 20
3.9523988455
 30
0.0
 10
3.7323871405
 20
3.9467277064
 30
0.0
 10
3.7450003384
 20
3.9401599153
 30
0.0
 10
3.7588256962
 20
3.932820232
 30
0.0
 10
3.7711324293
 20
3.9261897622
 30
0.0
 10
3.7821185962
 20
3.9202239
 30
0.0
 10
3.7919091071
 20
3.9148858718
 30
0.0
 10
3.8005773633
 20
3.9101660574
 30
0.0
 10
3.808162056
 20
3.9060522897
 30
0.0
 10
3.8146807652
 20
3.902543266
 30
0.0
 10
3.8201336888
 20
3.8996406608
 30
0.0
 10
3.8244953257
 20
3.8973606564
 30
0.0
 10
3.8277052674
 20
3.8957126855
 30
0.0
 10
3.8296823206
 20
3.8947130388
 30
0.0
 10
3.8305806728
 20
3.8942662586
 30
0.0
 10
3.8308096792
 20
3.8941529338
 30
0.0
  0
SPLINE
  5
2D6
100
AcDbEntity
  8
ALL_FEATURES
100
AcDbSpline
 62
7
  6
CONTINUOUS
 70
0
 71
3
 72
25
 73
21
 74
0
 42
0.0000001
 43
0.0000001
 44
0.0000000001
 40
0.0
 40
0.0
 40
0.0
 40
0.0
 40
0.0843604663
 40
0.1569140179
 40
0.2220176639
 40
0.2814931018
 40
0.3875952116
 40
0.4807200769
 40
0.5636984033
 40
0.6379944432
 40
0.7046996077
 40
0.7643583474
 40
0.8173255482
 40
0.8637452326
 40
0.903684161
 40
0.9371104151
 40
0.9638965849
 40
0.9836301786
 40
0.9958265111
 40
1.0
 40
1.0
 40
1.0
 40
1.0
 10
3.6449523775
 20
3.9549501145
 30
0.0
 10
3.6498513545
 20
3.9528694678
 30
0.0
 10
3.6589378363
 20
3.948938018
 30
0.0
 10
3.6717135455
 20
3.9431931666
 30
0.0
 10
3.6830084622
 20
3.9379852955
 30
0.0
 10
3.6961736793
 20
3.9317799104
 30
0.0
 10
3.7108645071
 20
3.9246659924
 30
0.0
 10
3.7268069793
 20
3.9167373522
 30
0.0
 10
3.7409006143
 20
3.909598792
 30
0.0
 10
3.7534704761
 20
3.9031415018
 30
0.0
 10
3.7647132821
 20
3.8973210027
 30
0.0
 10
3.774752121
 20
3.8921019868
 30
0.0
 10
3.7836567931
 20
3.8874760314
 30
0.0
 10
3.7914624863
 20
3.8834334543
 30
0.0
 10
3.7981824653
 20
3.8799754058
 30
0.0
 10
3.8038123767
 20
3.8771063306
 30
0.0
 10
3.8083211257
 20
3.8748450478
 30
0.0
 10
3.8116429734
 20
3.8732052089
 30
0.0
 10
3.8136908097
 20
3.872207685
 30
0.0
 10
3.8146218569
 20
3.8717606371
 30
0.0
 10
3.8148594207
 20
3.8716470639
 30
0.0
  0
SPLINE
  5
2D7
100
AcDbEntity
  8
ALL_FEATURES
100
AcDbSpline
 62
7
  6
CONTINUOUS
 70
0
 71
3
 72
26
 73
22
 74
0
 42
0.0000001
 43
0.0000001
 44
0.0000000001
 40
0.0
 40
0.0
 40
0.0
 40
0.0
 40
0.0045365369
 40
0.017870443
 40
0.0692772653
 40
0.1065462266
 40
0.1510908484
 40
0.2026426286
 40
0.2609891269
 40
0.3259523756
 40
0.3974289324
 40
0.4754227072
 40
0.5602665876
 40
0.6525371111
 40
0.7018387755
 40
0.7536409433
 40
0.8083652831
 40
0.8666608561
 40
0.8974220067
 40
0.9296389048
 40
1.0
 40
1.0
 40
1.0
 40
1.0
 10
3.8640525649
 20
4.4190389827
 30
0.0
 10
3.8642408211
 20
4.4187855425
 30
0.0
 10
3.8649814254
 20
4.417786459
 30
0.0
 10
3.8678398199
 20
4.4139040052
 30
0.0
 10
3.8720171306
 20
4.4081639362
 30
0.0
 10
3.8774395459
 20
4.4006438714
 30
0.0
 10
3.8828846211
 20
4.393127708
 30
0.0
 10
3.8892352919
 20
4.3844563917
 30
0.0
 10
3.8965065351
 20
4.3746983747
 30
0.0
 10
3.9047202488
 20
4.363914091
 30
0.0
 10
3.9139377515
 20
4.3521773133
 30
0.0
 10
3.9242418337
 20
4.3395373626
 30
0.0
 10
3.9357897757
 20
4.3260501799
 30
0.0
 10
3.946377495
 20
4.3143765458
 30
0.0
 10
3.9556815716
 20
4.304652507
 30
0.0
 10
3.9633440748
 20
4.2969773106
 30
0.0
 10
3.971639133
 20
4.2890533119
 30
0.0
 10
3.9790646968
 20
4.2823441457
 30
0.0
 10
3.9854515703
 20
4.2768265858
 30
0.0
 10
3.992588252
 20
4.2708950439
 30
0.0
 10
3.9982337123
 20
4.2665203124
 30
0.0
 10
4.0021720768
 20
4.2636106698
 30
0.0
  0
SPLINE
  5
2D8
100
AcDbEntity
  8
ALL_FEATURES
100
AcDbSpline
 62
7
  6
CONTINUOUS
 70
0
 71
3
 72
14
 73
10
 74
0
 42
0.0000001
 43
0.0000001
 44
0.0000000001
 40
0.0
 40
0.0
 40
0.0
 40
0.0
 40
0.1250364303
 40
0.2500464532
 40
0.3750750811
 40
0.5001360918
 40
0.6252151912
 40
0.7502731741
 40
1.0
 40
1.0
 40
1.0
 40
1.0
 10
4.0021720768
 20
4.2636106698
 30
0.0
 10
3.9859031529
 20
4.2547764379
 30
0.0
 10
3.9538460525
 20
4.2362152558
 30
0.0
 10
3.9073099688
 20
4.2058677924
 30
0.0
 10
3.8623894299
 20
4.1731697849
 30
0.0
 10
3.8191449017
 20
4.1382728581
 30
0.0
 10
3.7776322115
 20
4.1013246896
 30
0.0
 10
3.7247079795
 20
4.04956434
 30
0.0
 10
3.6877278837
 20
4.008059885
 30
0.0
 10
3.6643721621
 20
3.9793962293
 30
0.0
  0
SPLINE
  5
2D9
100
AcDbEntity
  8
ALL_FEATURES
100
AcDbSpline
 62
7
  6
CONTINUOUS
 70
0
 71
3
 72
20
 73
16
 74
0
 42
0.0000001
 43
0.0000001
 44
0.0000000001
 40
0.0
 40
0.0
 40
0.0
 40
0.0
 40
0.017531762
 40
0.0680288816
 40
0.1046560268
 40
0.1484252553
 40
0.1992533335
 40
0.2571051199
 40
0.394087877
 40
0.4734838798
 40
0.5605503371
 40
0.6557160082
 40
0.759861507
 40
0.8740941676
 40
1.0
 40
1.0
 40
1.0
 40
1.0
 10
3.5036602155
 20
4.0745138159
 30
0.0
 10
3.5042102047
 20
4.0741140417
 30
0.0
 10
3.5063443046
 20
4.0725627404
 30
0.0
 10
3.5096271683
 20
4.0701758681
 30
0.0
 10
3.513732488
 20
4.0671898277
 30
0.0
 10
3.5178492954
 20
4.0641977555
 30
0.0
 10
3.5226450869
 20
4.0607398196
 30
0.0
 10
3.530403633
 20
4.0552099978
 30
0.0
 10
3.5391363066
 20
4.0491382162
 30
0.0
 10
3.5488936536
 20
4.0425582482
 30
0.0
 10
3.5573741859
 20
4.03698676
 30
0.0
 10
3.566736551
 20
4.0310109963
 30
0.0
 10
3.5770877745
 20
4.0246286419
 30
0.0
 10
3.5885713166
 20
4.0178146857
 30
0.0
 10
3.5966679332
 20
4.0132109042
 30
0.0
 10
3.6009361105
 20
4.010838933
 30
0.0
  0
LINE
  5
2DA
100
AcDbEntity
  8
ALL_FEATURES
100
AcDbLine
 62
7
  6
CONTINUOUS
 10
3.6009361105
 20
4.010838933
 11
3.601267978
 21
4.0106546133
  0
SPLINE
  5
2DB
100
AcDbEntity
  8
ALL_FEATURES
100
AcDbSpline
 62
7
  6
CONTINUOUS
 70
0
 71
3
 72
25
 73
21
 74
0
 42
0.0000001
 43
0.0000001
 44
0.0000000001
 40
0.0
 40
0.0
 40
0.0
 40
0.0
 40
0.0155964022
 40
0.0602130252
 40
0.0924557002
 40
0.1311528843
 40
0.1763454748
 40
0.2281770635
 40
0.2868731377
 40
0.352876527
 40
0.4268307377
 40
0.5099472853
 40
0.6038323919
 40
0.6556599137
 40
0.7115096935
 40
0.7721608314
 40
0.8387612141
 40
0.8747623489
 40
0.9132056242
 40
1.0
 40
1.0
 40
1.0
 40
1.0
 10
3.4848399103
 20
4.0443950316
 30
0.0
 10
3.4856290457
 20
4.0438566468
 30
0.0
 10
3.48867561
 20
4.0417780322
 30
0.0
 10
3.4933535233
 20
4.0385863478
 30
0.0
 10
3.4992015176
 20
4.0345990391
 30
0.0
 10
3.5050982148
 20
4.0306206205
 30
0.0
 10
3.5120230265
 20
4.0260210518
 30
0.0
 10
3.5200185534
 20
4.0208201917
 30
0.0
 10
3.5291477119
 20
4.0150254055
 30
0.0
 10
3.5395102999
 20
4.0086471875
 30
0.0
 10
3.5512568858
 20
4.0016666199
 30
0.0
 10
3.5646152132
 20
3.9940599604
 30
0.0
 10
3.5769317818
 20
3.9873679283
 30
0.0
 10
3.5878751236
 20
3.9816520709
 30
0.0
 10
3.5970720135
 20
3.9769910214
 30
0.0
 10
3.6071400715
 20
3.9720492364
 30
0.0
 10
3.6161768316
 20
3.9677676436
 30
0.0
 10
3.6240213047
 20
3.9641481947
 30
0.0
 10
3.633022979
 20
3.9600851543
 30
0.0
 10
3.6400591559
 20
3.957028317
 30
0.0
 10
3.6449523775
 20
3.9549501145
 30
0.0
  0
SPLINE
  5
2DC
100
AcDbEntity
  8
ALL_FEATURES
100
AcDbSpline
 62
7
  6
CONTINUOUS
 70
0
 71
3
 72
10
 73
6
 74
0
 42
0.0000001
 43
0.0000001
 44
0.0000000001
 40
0.0
 40
0.0
 40
0.0
 40
0.0
 40
0.5025469073
 40
0.7520880554
 40
1.0
 40
1.0
 40
1.0
 40
1.0
 10
3.6449523775
 20
3.9549501145
 30
0.0
 10
3.6200699827
 20
3.9228192267
 30
0.0
 10
3.585116767
 20
3.8728974875
 30
0.0
 10
3.5435622388
 20
3.8035036925
 30
0.0
 10
3.5245456969
 20
3.7680329683
 30
0.0
 10
3.5154990199
 20
3.7501425678
 30
0.0
  0
SPLINE
  5
2DD
100
AcDbEntity
  8
ALL_FEATURES
100
AcDbSpline
 62
7
  6
CONTINUOUS
 70
0
 71
3
 72
25
 73
21
 74
0
 42
0.0000001
 43
0.0000001
 44
0.0000000001
 40
0.0
 40
0.0
 40
0.0
 40
0.0
 40
0.0049167355
 40
0.0194672501
 40
0.0433521817
 40
0.0762724106
 40
0.1178930557
 40
0.1677351517
 40
0.2252859374
 40
0.2900422629
 40
0.3614759949
 40
0.43894889
 40
0.521810705
 40
0.609469538
 40
0.7013623146
 40
0.7970143828
 40
0.8461786329
 40
0.8962612204
 40
0.9473859677
 40
1.0
 40
1.0
 40
1.0
 40
1.0
 10
4.7608473091
 20
4.6369005211
 30
0.0
 10
4.7609216553
 20
4.6365284872
 30
0.0
 10
4.7612147844
 20
4.6350552161
 30
0.0
 10
4.7618583589
 20
4.6317725225
 30
0.0
 10
4.7629040524
 20
4.6263667178
 30
0.0
 10
4.7643242743
 20
4.618905857
 30
0.0
 10
4.7660924846
 20
4.6094723899
 30
0.0
 10
4.7682060448
 20
4.5981699998
 30
0.0
 10
4.7706583691
 20
4.5851147945
 30
0.0
 10
4.7734490765
 20
4.5704279651
 30
0.0
 10
4.7765761932
 20
4.5542403528
 30
0.0
 10
4.7800572239
 20
4.5366983873
 30
0.0
 10
4.7839088707
 20
4.5179539109
 30
0.0
 10
4.7881808442
 20
4.4981606559
 30
0.0
 10
4.7929249926
 20
4.47746118
 30
0.0
 10
4.7973299552
 20
4.4597333073
 30
0.0
 10
4.8012557359
 20
4.4452151607
 30
0.0
 10
4.8044823126
 20
4.4340689873
 30
0.0
 10
4.8080275971
 20
4.4227401631
 30
0.0
 10
4.8106970185
 20
4.4151903591
 30
0.0
 10
4.8121421933
 20
4.4113964357
 30
0.0
  0
SPLINE
  5
2DE
100
AcDbEntity
  8
ALL_FEATURES
100
AcDbSpline
 62
7
  6
CONTINUOUS
 70
0
 71
3
 72
25
 73
21
 74
0
 42
0.0000001
 43
0.0000001
 44
0.0000000001
 40
0.0
 40
0.0
 40
0.0
 40
0.0
 40
0.0527855726
 40
0.1040604333
 40
0.1542731731
 40
0.2035484829
 40
0.2993689155
 40
0.3913643622
 40
0.4790679408
 40
0.5619246006
 40
0.6393510036
 40
0.7107054071
 40
0.7753583009
 40
0.8327905121
 40
0.8825079776
 40
0.9240069981
 40
0.9568176648
 40
0.9806138339
 40
0.9951049253
 40
1.0
 40
1.0
 40
1.0
 40
1.0
 10
4.8121421933
 20
4.4113964357
 30
0.0
 10
4.8135871576
 20
4.4076030649
 30
0.0
 10
4.8162580167
 20
4.4000564468
 30
0.0
 10
4.8198116532
 20
4.3887361174
 30
0.0
 10
4.823051633
 20
4.3776035584
 30
0.0
 10
4.8270007
 20
4.3631120385
 30
0.0
 10
4.8314454764
 20
4.3454278953
 30
0.0
 10
4.8362530893
 20
4.3247922388
 30
0.0
 10
4.8405999743
 20
4.3050745484
 30
0.0
 10
4.8445351267
 20
4.2864143943
 30
0.0
 10
4.8481053179
 20
4.2689626279
 30
0.0
 10
4.8513244014
 20
4.2528681195
 30
0.0
 10
4.8542070927
 20
4.2382744213
 30
0.0
 10
4.8567484658
 20
4.2253093725
 30
0.0
 10
4.8589452109
 20
4.2140912138
 30
0.0
 10
4.8607878701
 20
4.2047330919
 30
0.0
 10
4.8622710287
 20
4.197335865
 30
0.0
 10
4.8633652665
 20
4.1919789777
 30
0.0
 10
4.8640398569
 20
4.1887274482
 30
0.0
 10
4.8643477018
 20
4.1872687644
 30
0.0
 10
4.864425811
 20
4.1869005211
 30
0.0
  0
ENDSEC
  0
SECTION
  2
OBJECTS
  0
DICTIONARY
  5
C
100
AcDbDictionary
280
0
281
1
  3
ACAD_GROUP
350
D
  3
ACAD_MLINESTYLE
350
17
  3
ACAD_LAYOUT
350
1A
  3
ACAD_PLOTSETTINGS
350
19
  3
ACAD_PLOTSTYLENAME
350
E
  0
DICTIONARY
  5
D
102
{ACAD_REACTORS
330
C
102
}
100
AcDbDictionary
280
0
281
1
  0
ACDBDICTIONARYWDFLT
  5
E
102
{ACAD_REACTORS
330
C
102
}
100
AcDbDictionary
281
1
  3
Normal
350
F
100
AcDbDictionaryWithDefault
340
F
  0
DICTIONARY
  5
17
102
{ACAD_REACTORS
330
C
102
}
100
AcDbDictionary
280
0
281
1
  3
Standard
350
18
  0
DICTIONARY
  5
19
102
{ACAD_REACTORS
330
C
102
}
100
AcDbDictionary
281
1
  0
DICTIONARY
  5
1A
102
{ACAD_REACTORS
330
C
102
}
100
AcDbDictionary
281
1
  3
Model
350
2DF
  3
Layout1
350
2E0
  0
ACDBPLACEHOLDER
  5
F
102
{ACAD_REACTORS
330
E
102
}
  0
MLINESTYLE
  5
18
102
{ACAD_REACTORS
330
17
102
}
100
AcDbMlineStyle
  2
STANDARD
 70
0
  3

 62
256
 51
90.0
 52
90.0
 71
2
 49
0.5
 62
256
  6
BYLAYER
 49
-0.5
 62
256
  6
BYLAYER
  0
LAYOUT
  5
2DF
102
{ACAD_REACTORS
330
1A
102
}
100
AcDbPlotSettings
  1

  2
none_device
  4
ANSI_A_(11.00_x_8.50_Inches)
  6

 40
0.0
 41
0.0
 42
0.0
 43
0.0
 44
279.4
 45
215.9
 46
0.0
 47
0.0
 48
0.0
 49
0.0
140
0.0
141
0.0
142
1.0
143
1.0
 70
1024
 72
0
 73
0
 74
0
  7

 75
0
147
1.0
148
0.0
149
0.0
100
AcDbLayout
  1
Model
 70
0
 71
0
 10
0.0
 20
0.0
 11
11.0
 21
8.5
 12
0.0
 22
0.0
 32
0.0
 14
0.0
 24
0.0
 34
0.0
 15
0.0
 25
0.0
 35
0.0
146
0.0
 13
0.0
 23
0.0
 33
0.0
 16
1.0
 26
0.0
 36
0.0
 17
0.0
 27
1.0
 37
0.0
 76
0
330
21C
345
0
346
0
  0
LAYOUT
  5
2E0
102
{ACAD_REACTORS
330
1A
102
}
100
AcDbPlotSettings
  1

  2
none_device
  4
ANSI_A_(11.00_x_8.50_Inches)
  6

 40
0.0
 41
0.0
 42
0.0
 43
0.0
 44
279.4
 45
215.9
 46
0.0
 47
0.0
 48
0.0
 49
0.0
140
0.0
141
0.0
142
1.0
143
1.0
 70
0
 72
0
 73
0
 74
0
  7

 75
0
147
1.0
148
0.0
149
0.0
100
AcDbLayout
  1
Layout1
 70
0
 71
1
 10
0.0
 20
0.0
 11
11.0
 21
8.5
 12
0.0
 22
0.0
 32
0.0
 14
0.0
 24
0.0
 34
0.0
 15
0.0
 25
0.0
 35
0.0
146
0.0
 13
0.0
 23
0.0
 33
0.0
 16
1.0
 26
0.0
 36
0.0
 17
0.0
 27
1.0
 37
0.0
 76
0
330
21D
345
0
346
0
  0
ENDSEC
  0
EOF
