999
DXF file: E:\BT Custom\CADOUTPUT\_RIGHT.dxf
999
Pro/ENGINEER 2018400 by Parametric Technology Corporation
  0
SECTION
  2
HEADER
  9
$ACADVER
  1
AC1018
  9
$DWGCODEPAGE
  3
ANSI_1252
  9
$EXTMAX
 10
22.0
 20
17.0
 30
0.0
  9
$EXTMIN
 10
0.0
 20
0.0
 30
0.0
  9
$LIMMIN
 10
0.0
 20
0.0
  9
$LIMMAX
 10
22.0
 20
17.0
  9
$VIEWCTR
 10
11.0
 20
8.5
  9
$VIEWSIZE
 40
17.0
  9
$CLAYER
  8
0
  9
$LTSCALE
 40
1.21
  9
$CELTYPE
  6
BYLAYER
  9
$DIMSCALE
 40
1.0
  9
$DIMASZ
 40
0.1
  9
$DIMEXO
 40
0.0625
  9
$DIMDLI
 40
0.836
  9
$DIMEXE
 40
0.125
  9
$DIMCEN
 40
0.198
  9
$DIMLFAC
 40
1.0
  9
$DIMBLK
  1
_FILLED
  9
$DIMALT
 70
1
  9
$DIMALTD
 70
2
  9
$DIMALTTD
 70
2
  9
$DIMALTF
 40
25.4
  9
$DIMTXT
 40
0.08
  9
$DIMTOL
 70
1
  9
$DIMLIM
 70
0
  9
$DIMTFAC
 40
1.0
  9
$DIMTP
 40
0.001
  9
$DIMTM
 40
0.001
  9
$DIMGAP
 40
0.09
  9
$DIMDSEP
 70
46
  9
$AUNITS
 70
0
  9
$PDMODE
 70
3
  9
$PDSIZE
 40
0.06
  9
$HANDSEED
  5
451
  9
$TILEMODE
 70
1
  9
$MEASUREMENT
 70
0
  9
$INSUNITS
 70
1
  0
ENDSEC
  0
SECTION
  2
CLASSES
  0
CLASS
  1
ACDBDICTIONARYWDFLT
  2
AcDbDictionaryWithDefault
  3
AutoCAD 2000
 90
0
 91
1
280
0
281
0
  0
CLASS
  1
ACDBPLACEHOLDER
  2
AcDbPlaceHolder
  3
AutoCAD 2000
 90
0
 91
1
280
0
281
0
  0
CLASS
  1
LAYOUT
  2
AcDbLayout
  3
AutoCAD 2000
 90
0
 91
0
280
0
281
0
  0
ENDSEC
  0
SECTION
  2
TABLES
  0
TABLE
  2
VPORT
  5
8
100
AcDbSymbolTable
 70
2
  0
VPORT
  5
1F4
100
AcDbSymbolTableRecord
100
AcDbViewportTableRecord
  2
*ACTIVE
 70
0
 10
0.0
 20
0.0
 11
1.0
 21
1.0
 12
11.0
 22
8.5
 13
0.0
 23
0.0
 14
1.0
 24
1.0
 15
0.0
 25
0.0
 16
0.0
 26
0.0
 36
1.0
 17
0.0
 27
0.0
 37
0.0
 40
17.0
 41
1.2941176471
 42
50.0
 43
0.0
 44
0.0
 50
0.0
 51
0.0
 71
0
 72
100
 73
1
 74
1
 75
0
 76
0
 77
0
 78
0
  0
ENDTAB
  0
TABLE
  2
LTYPE
  5
5
100
AcDbSymbolTable
 70
6
  0
LTYPE
  5
14
100
AcDbSymbolTableRecord
100
AcDbLinetypeTableRecord
  2
BYBLOCK
 70
0
  3

 72
65
 73
0
 40
0.0
  0
LTYPE
  5
15
100
AcDbSymbolTableRecord
100
AcDbLinetypeTableRecord
  2
BYLAYER
 70
0
  3

 72
65
 73
0
 40
0.0
  0
LTYPE
  5
16
100
AcDbSymbolTableRecord
100
AcDbLinetypeTableRecord
  2
CONTINUOUS
 70
64
  3
Solid line
 72
65
 73
0
 40
0.0
  0
LTYPE
  5
1F5
100
AcDbSymbolTableRecord
100
AcDbLinetypeTableRecord
  2
CENTER
 70
64
  3
____ _ ____ _ ____ _ ____ _ ____ _ ____ _ ____
 72
65
 73
4
 40
0.6
 49
0.375
 74
0
 49
-0.075
 74
0
 49
0.075
 74
0
 49
-0.075
 74
0
  0
LTYPE
  5
1F6
100
AcDbSymbolTableRecord
100
AcDbLinetypeTableRecord
  2
HIDDEN
 70
64
  3
- - - - - - - - - - - - - - - - - - - -
 72
65
 73
2
 40
0.2
 49
0.1
 74
0
 49
-0.1
 74
0
  0
LTYPE
  5
1F7
100
AcDbSymbolTableRecord
100
AcDbLinetypeTableRecord
  2
PHANTOM
 70
64
  3
_____ _ _ _____ _ _ _____ _ _ _____
 72
65
 73
6
 40
0.8
 49
0.45
 74
0
 49
-0.05
 74
0
 49
0.1
 74
0
 49
-0.05
 74
0
 49
0.1
 74
0
 49
-0.05
 74
0
  0
LTYPE
  5
1F8
100
AcDbSymbolTableRecord
100
AcDbLinetypeTableRecord
  2
DOT
 70
64
  3
. . . . . . . . . . . . . . . . . . . .
 72
65
 73
2
 40
0.2
 49
0.1
 74
0
 49
-0.1
 74
0
  0
LTYPE
  5
1F9
100
AcDbSymbolTableRecord
100
AcDbLinetypeTableRecord
  2
DASHED
 70
64
  3
- - - - - - - - - - - - - - - - - - - -
 72
65
 73
2
 40
0.2
 49
0.1
 74
0
 49
-0.1
 74
0
  0
ENDTAB
  0
TABLE
  2
LAYER
  5
2
100
AcDbSymbolTable
 70
36
  0
LAYER
  5
10
100
AcDbSymbolTableRecord
100
AcDbLayerTableRecord
  2
0
 70
0
 62
7
  6
CONTINUOUS
370
-3
390
F
  0
LAYER
  5
1FA
100
AcDbSymbolTableRecord
100
AcDbLayerTableRecord
  2
DEFAULT_1
 70
0
 62
7
  6
CENTER
370
-3
390
F
  0
LAYER
  5
1FB
100
AcDbSymbolTableRecord
100
AcDbLayerTableRecord
  2
DEFAULT_2
 70
0
 62
8
  6
HIDDEN
370
-3
390
F
  0
LAYER
  5
1FC
100
AcDbSymbolTableRecord
100
AcDbLayerTableRecord
  2
DEFAULT_3
 70
0
 62
7
  6
PHANTOM
370
-3
390
F
  0
LAYER
  5
1FD
100
AcDbSymbolTableRecord
100
AcDbLayerTableRecord
  2
ALL_FEATURES
 70
0
 62
7
  6
CONTINUOUS
370
-3
390
F
  0
LAYER
  5
1FE
100
AcDbSymbolTableRecord
100
AcDbLayerTableRecord
  2
AXES_FEATURES
 70
0
 62
7
  6
CONTINUOUS
370
-3
390
F
  0
LAYER
  5
1FF
100
AcDbSymbolTableRecord
100
AcDbLayerTableRecord
  2
DEFAULT_COORDINATE_SYSTEM
 70
0
 62
7
  6
CONTINUOUS
370
-3
390
F
  0
LAYER
  5
200
100
AcDbSymbolTableRecord
100
AcDbLayerTableRecord
  2
DEFAULT_DATUM_AXES
 70
0
 62
7
  6
CONTINUOUS
370
-3
390
F
  0
LAYER
  5
201
100
AcDbSymbolTableRecord
100
AcDbLayerTableRecord
  2
DEFAULT_DATUM_PLANES
 70
0
 62
7
  6
CONTINUOUS
370
-3
390
F
  0
LAYER
  5
202
100
AcDbSymbolTableRecord
100
AcDbLayerTableRecord
  2
DIMENSIONS
 70
0
 62
7
  6
CONTINUOUS
370
-3
390
F
  0
ENDTAB
  0
TABLE
  2
STYLE
  5
3
100
AcDbSymbolTable
 70
1
  0
STYLE
  5
11
100
AcDbSymbolTableRecord
100
AcDbTextStyleTableRecord
  2
STANDARD
 70
0
 40
0.0
 41
0.8
 50
0.0
 71
0
 42
0.2
  3
txt
  4

  0
STYLE
  5
203
100
AcDbSymbolTableRecord
100
AcDbTextStyleTableRecord
  2
TEXTSTYLE_1
 70
0
 40
0.0
 41
0.8
 50
0.0
 71
0
 42
0.2
  3
gdt
  4

  0
ENDTAB
  0
TABLE
  2
VIEW
  5
6
100
AcDbSymbolTable
 70
0
  0
ENDTAB
  0
TABLE
  2
UCS
  5
7
100
AcDbSymbolTable
 70
0
  0
ENDTAB
  0
TABLE
  2
APPID
  5
9
100
AcDbSymbolTable
 70
1
  0
APPID
  5
204
100
AcDbSymbolTableRecord
100
AcDbRegAppTableRecord
  2
ACAD
 70
0
  0
ENDTAB
  0
TABLE
  2
BLOCK_RECORD
  5
1
100
AcDbSymbolTable
 70
0
  0
BLOCK_RECORD
  5
205
100
AcDbSymbolTableRecord
100
AcDbBlockTableRecord
  2
*Model_Space
  0
BLOCK_RECORD
  5
206
100
AcDbSymbolTableRecord
100
AcDbBlockTableRecord
  2
*Paper_Space
  0
BLOCK_RECORD
  5
207
100
AcDbSymbolTableRecord
100
AcDbBlockTableRecord
  2
_FILLED
  0
ENDTAB
  0
TABLE
  2
DIMSTYLE
  5
A
100
AcDbSymbolTable
 70
1
100
AcDbDimStyleTable
 71
0
  0
DIMSTYLE
105
208
100
AcDbSymbolTableRecord
100
AcDbDimStyleTableRecord
  2
STANDARD
 70
0
  3

  4

 40
1.0
 41
0.1
 42
0.0625
 43
0.38
 44
0.125
 45
0.0
 46
0.0
 47
0.001
 48
0.001
140
0.08
141
0.09
142
0.0
143
25.4
144
1.0
145
0.0
146
1.0
147
0.09
 71
1.0
 72
0.0
 73
1
 74
1
 75
0
 76
0
 77
0
 78
4
 79
1
170
1
171
2
172
0
173
0
174
0
175
0
176
0
177
0
178
0
270
2
179
3
271
3
272
3
273
2
274
2
275
0
280
0
281
0
282
0
283
1
284
4
285
0
286
0
287
3
288
0
340
11
278
46
341
207
342
207
343
207
344
207
  0
ENDTAB
  0
ENDSEC
  0
SECTION
  2
BLOCKS
  0
BLOCK
  5
20
100
AcDbEntity
  8
0
100
AcDbBlockBegin
  2
*Model_Space
 70
0
 10
0.0
 20
0.0
 30
0.0
  3
*Model_Space
  1

  0
ENDBLK
  5
21
100
AcDbEntity
  8
0
100
AcDbBlockEnd
  0
BLOCK
  5
1C
100
AcDbEntity
  8
0
100
AcDbBlockBegin
  2
*Paper_Space
 70
0
 10
0.0
 20
0.0
 30
0.0
  3
*Paper_Space
  1

  0
ENDBLK
  5
1D
100
AcDbEntity
  8
0
100
AcDbBlockEnd
  0
BLOCK
  5
209
100
AcDbEntity
  8
0
100
AcDbBlockBegin
  2
_FILLED
 70
64
 10
0.0
 20
0.0
  3
_FILLED
  1

  0
SOLID
  5
20A
100
AcDbEntity
  8
0
  6
BYBLOCK
 62
0
100
AcDbTrace
 10
0.0
 20
0.0
 11
-1.0
 21
0.2
 12
-1.0
 22
-0.2
 13
-1.0
 23
-0.2
  0
ENDBLK
  5
20B
100
AcDbEntity
  8
0
  6
BYBLOCK
 62
0
100
AcDbBlockEnd
  0
ENDSEC
  0
SECTION
  2
ENTITIES
  0
LINE
  5
20C
100
AcDbEntity
  8
0
100
AcDbLine
 62
7
  6
CONTINUOUS
 10
6.5852881899
 20
9.8074967371
 11
6.1163976515
 21
9.0571150182
  0
LINE
  5
20D
100
AcDbEntity
  8
0
100
AcDbLine
 62
7
  6
CONTINUOUS
 10
7.944013459
 20
11.7209456636
 11
7.9419707633
 21
11.7163819597
  0
LINE
  5
20E
100
AcDbEntity
  8
0
100
AcDbLine
 62
7
  6
CONTINUOUS
 10
8.0168374507
 20
11.6719159152
 11
8.0146453413
 21
11.6670183975
  0
LINE
  5
20F
100
AcDbEntity
  8
0
100
AcDbLine
 62
7
  6
CONTINUOUS
 10
8.1717265832
 20
11.5406521923
 11
8.1686264876
 21
11.5337260905
  0
LINE
  5
210
100
AcDbEntity
  8
0
100
AcDbLine
 62
7
  6
CONTINUOUS
 10
8.308893643
 20
11.4187494849
 11
8.3057935474
 21
11.4118233831
  0
LINE
  5
211
100
AcDbEntity
  8
0
100
AcDbLine
 62
7
  6
CONTINUOUS
 10
8.4586712676
 20
11.2883045778
 11
8.455571172
 21
11.2813784761
  0
LINE
  5
212
100
AcDbEntity
  8
0
100
AcDbLine
 62
7
  6
CONTINUOUS
 10
12.3825133222
 20
5.7171530747
 11
15.2635887055
 21
5.7171530747
  0
LINE
  5
213
100
AcDbEntity
  8
0
100
AcDbLine
 62
9
  6
CONTINUOUS
 10
12.455366514
 20
5.7674132218
 11
15.1907355138
 21
5.7674132218
  0
LINE
  5
214
100
AcDbEntity
  8
0
100
AcDbLine
 62
9
  6
CONTINUOUS
 10
12.3498111974
 20
5.7801872022
 11
12.4667976134
 21
5.7801872022
  0
LINE
  5
215
100
AcDbEntity
  8
0
100
AcDbLine
 62
9
  6
CONTINUOUS
 10
15.1793044144
 20
5.7801872022
 11
15.2962908304
 21
5.7801872022
  0
LINE
  5
216
100
AcDbEntity
  8
0
100
AcDbLine
 62
9
  6
CONTINUOUS
 10
15.0792095621
 20
5.897934591
 11
12.5668924657
 21
5.897934591
  0
LINE
  5
217
100
AcDbEntity
  8
0
100
AcDbLine
 62
9
  6
CONTINUOUS
 10
15.0719215926
 20
5.9334496792
 11
12.5741804351
 21
5.9334496792
  0
LINE
  5
218
100
AcDbEntity
  8
0
100
AcDbLine
 62
9
  6
CONTINUOUS
 10
15.2214183187
 20
5.9503068637
 11
15.0735349321
 21
5.9503068637
  0
LINE
  5
219
100
AcDbEntity
  8
0
100
AcDbLine
 62
9
  6
CONTINUOUS
 10
12.5725670957
 20
5.9503068637
 11
12.4246837091
 21
5.9503068637
  0
LINE
  5
21A
100
AcDbEntity
  8
0
100
AcDbLine
 62
9
  6
CONTINUOUS
 10
15.0625630025
 20
5.9781530747
 11
12.5835390253
 21
5.9781530747
  0
LINE
  5
21B
100
AcDbEntity
  8
0
100
AcDbLine
 62
9
  6
CONTINUOUS
 10
15.2255287261
 20
5.9782928397
 11
15.062449823
 21
5.9782928397
  0
LINE
  5
21C
100
AcDbEntity
  8
0
100
AcDbLine
 62
9
  6
CONTINUOUS
 10
12.5836522048
 20
5.9782928397
 11
12.4205733017
 21
5.9782928397
  0
LINE
  5
21D
100
AcDbEntity
  8
0
100
AcDbLine
 62
9
  6
CONTINUOUS
 10
12.4127315487
 20
5.9983937198
 11
12.5999295765
 21
5.9983937198
  0
LINE
  5
21E
100
AcDbEntity
  8
0
100
AcDbLine
 62
9
  6
CONTINUOUS
 10
15.0461724513
 20
5.9983937198
 11
15.2333704791
 21
5.9983937198
  0
LINE
  5
21F
100
AcDbEntity
  8
0
100
AcDbLine
 62
9
  6
CONTINUOUS
 10
12.4176461424
 20
6.0230916743
 11
12.6199295857
 21
6.0230916743
  0
LINE
  5
220
100
AcDbEntity
  8
0
100
AcDbLine
 62
9
  6
CONTINUOUS
 10
15.026172442
 20
6.0230916743
 11
15.2284558854
 21
6.0230916743
  0
LINE
  5
221
100
AcDbEntity
  8
0
100
AcDbLine
 62
7
  6
CONTINUOUS
 10
8.6640667558
 20
11.1597314451
 11
8.6670418365
 21
11.1663782438
  0
LINE
  5
222
100
AcDbEntity
  8
0
100
AcDbLine
 62
9
  6
CONTINUOUS
 10
8.7759766957
 20
11.3485622285
 11
8.9393923568
 21
11.7136585499
  0
LINE
  5
223
100
AcDbEntity
  8
0
100
AcDbLine
 62
7
  6
CONTINUOUS
 10
8.7097037957
 20
11.1393044876
 11
8.7126788763
 21
11.1459512863
  0
LINE
  5
224
100
AcDbEntity
  8
0
100
AcDbLine
 62
7
  6
CONTINUOUS
 10
7.3905009615
 20
9.2992152775
 11
7.0672874633
 21
8.8200315605
  0
LINE
  5
225
100
AcDbEntity
  8
0
100
AcDbLine
 62
7
  6
CONTINUOUS
 10
15.1295339207
 20
6.1588968562
 11
14.9161995741
 21
6.1588968562
  0
LINE
  5
226
100
AcDbEntity
  8
0
100
AcDbLine
 62
7
  6
CONTINUOUS
 10
12.7299024537
 20
6.1588968562
 11
12.516568107
 21
6.1588968562
  0
LINE
  5
227
100
AcDbEntity
  8
0
100
AcDbLine
 62
7
  6
CONTINUOUS
 10
15.1061305998
 20
6.1636493715
 11
14.9123510631
 21
6.1636493715
  0
LINE
  5
228
100
AcDbEntity
  8
0
100
AcDbLine
 62
7
  6
CONTINUOUS
 10
12.7337509647
 20
6.1636493715
 11
12.539971428
 21
6.1636493715
  0
LINE
  5
229
100
AcDbEntity
  8
0
100
AcDbLine
 62
9
  6
CONTINUOUS
 10
14.8292205081
 20
6.2663070575
 11
12.8168815197
 21
6.2663070575
  0
LINE
  5
22A
100
AcDbEntity
  8
0
100
AcDbLine
 62
7
  6
CONTINUOUS
 10
14.7748202908
 20
6.2922546301
 11
12.871281737
 21
6.2922546301
  0
LINE
  5
22B
100
AcDbEntity
  8
0
100
AcDbLine
 62
7
  6
CONTINUOUS
 10
8.9424238902
 20
11.0717788283
 11
8.9393237946
 21
11.0648527266
  0
LINE
  5
22C
100
AcDbEntity
  8
0
100
AcDbLine
 62
7
  6
CONTINUOUS
 10
9.1394877685
 20
11.0469788584
 11
9.1363876729
 21
11.0400527567
  0
LINE
  5
22D
100
AcDbEntity
  8
0
100
AcDbLine
 62
9
  6
CONTINUOUS
 10
13.0140951635
 20
6.4627657605
 11
14.6320068642
 21
6.4627657605
  0
LINE
  5
22E
100
AcDbEntity
  8
0
100
AcDbLine
 62
7
  6
CONTINUOUS
 10
13.0849036984
 20
6.4921530747
 11
14.5611983294
 21
6.4921530747
  0
LINE
  5
22F
100
AcDbEntity
  8
0
100
AcDbLine
 62
9
  6
CONTINUOUS
 10
13.5895829657
 20
6.5164423966
 11
14.0565190621
 21
6.5164423967
  0
LINE
  5
230
100
AcDbEntity
  8
0
100
AcDbLine
 62
9
  6
CONTINUOUS
 10
13.689679368
 20
6.5517977356
 11
13.9564226598
 21
6.5517977356
  0
LINE
  5
231
100
AcDbEntity
  8
0
100
AcDbLine
 62
9
  6
CONTINUOUS
 10
14.6457446725
 20
6.5994898147
 11
14.3705510139
 21
6.5994898147
  0
LINE
  5
232
100
AcDbEntity
  8
0
100
AcDbLine
 62
9
  6
CONTINUOUS
 10
13.2755510139
 20
6.5994898147
 11
13.0003573552
 21
6.5994898147
  0
LINE
  5
233
100
AcDbEntity
  8
0
100
AcDbLine
 62
9
  6
CONTINUOUS
 10
13.2755510139
 20
6.6393245061
 11
14.3705510139
 21
6.6393245061
  0
LINE
  5
234
100
AcDbEntity
  8
0
100
AcDbLine
 62
9
  6
CONTINUOUS
 10
14.647166297
 20
6.6472683755
 11
14.3701557792
 21
6.6472683755
  0
LINE
  5
235
100
AcDbEntity
  8
0
100
AcDbLine
 62
9
  6
CONTINUOUS
 10
13.2759462485
 20
6.6472683755
 11
12.9989357307
 21
6.6472683755
  0
LINE
  5
236
100
AcDbEntity
  8
0
100
AcDbLine
 62
9
  6
CONTINUOUS
 10
13.3055510139
 20
6.7107387904
 11
14.3405510139
 21
6.7107387904
  0
LINE
  5
237
100
AcDbEntity
  8
0
100
AcDbLine
 62
9
  6
CONTINUOUS
 10
14.6247032993
 20
6.7820044756
 11
14.3105510139
 21
6.7820044756
  0
LINE
  5
238
100
AcDbEntity
  8
0
100
AcDbLine
 62
9
  6
CONTINUOUS
 10
13.3355510139
 20
6.7820044756
 11
13.0213987285
 21
6.7820044756
  0
LINE
  5
239
100
AcDbEntity
  8
0
100
AcDbLine
 62
7
  6
CONTINUOUS
 10
14.3105510139
 20
6.7821530747
 11
13.3355510139
 21
6.7821530747
  0
LINE
  5
23A
100
AcDbEntity
  8
0
100
AcDbLine
 62
7
  6
CONTINUOUS
 10
9.3217799877
 20
11.0258928634
 11
9.3186798921
 21
11.0189667616
  0
LINE
  5
23B
100
AcDbEntity
  8
0
100
AcDbLine
 62
7
  6
CONTINUOUS
 10
9.5228597662
 20
10.9978263178
 11
9.5206676567
 21
10.9929288001
  0
LINE
  5
23C
100
AcDbEntity
  8
0
100
AcDbLine
 62
9
  6
CONTINUOUS
 10
10.3026559059
 20
11.0762108081
 11
10.6033772403
 21
11.3285452245
  0
LINE
  5
23D
100
AcDbEntity
  8
0
100
AcDbLine
 62
7
  6
CONTINUOUS
 10
10.1465341012
 20
10.9452069092
 11
10.3026533694
 21
11.0762133023
  0
LINE
  5
23E
100
AcDbEntity
  8
0
100
AcDbLine
 62
9
  6
CONTINUOUS
 10
14.6032510795
 20
6.8109837534
 11
14.3097766889
 21
6.8109837534
  0
LINE
  5
23F
100
AcDbEntity
  8
0
100
AcDbLine
 62
9
  6
CONTINUOUS
 10
13.3329464082
 20
6.8109837534
 11
13.0428509483
 21
6.8109837534
  0
LINE
  5
240
100
AcDbEntity
  8
0
100
AcDbLine
 62
7
  6
CONTINUOUS
 10
9.6079399324
 20
10.9761787933
 11
9.6058972366
 21
10.9716150893
  0
LINE
  5
241
100
AcDbEntity
  8
0
100
AcDbLine
 62
9
  6
CONTINUOUS
 10
14.1992056086
 20
7.3958272298
 11
14.60325136
 21
7.3958272298
  0
LINE
  5
242
100
AcDbEntity
  8
0
100
AcDbLine
 62
9
  6
CONTINUOUS
 10
14.2005271185
 20
7.4248067658
 11
14.6247034989
 21
7.4248067658
  0
LINE
  5
243
100
AcDbEntity
  8
0
100
AcDbLine
 62
9
  6
CONTINUOUS
 10
14.6217894801
 20
7.571310807
 11
14.2087424512
 21
7.571310807
  0
LINE
  5
244
100
AcDbEntity
  8
0
100
AcDbLine
 62
9
  6
CONTINUOUS
 10
14.599549212
 20
7.5957320745
 11
14.2107802482
 21
7.5957320745
  0
LINE
  5
245
100
AcDbEntity
  8
0
100
AcDbLine
 62
9
  6
CONTINUOUS
 10
13.8925719694
 20
7.6981865537
 11
14.2193294122
 21
7.6981865537
  0
LINE
  5
246
100
AcDbEntity
  8
0
100
AcDbLine
 62
9
  6
CONTINUOUS
 10
13.8556463455
 20
7.7421927986
 11
14.24603401
 21
7.7421927986
  0
LINE
  5
247
100
AcDbEntity
  8
0
100
AcDbLine
 62
9
  6
CONTINUOUS
 10
13.8135897716
 20
7.7923138716
 11
14.2730510139
 21
7.7923138725
  0
LINE
  5
248
100
AcDbEntity
  8
0
100
AcDbLine
 62
9
  6
CONTINUOUS
 10
13.8095291981
 20
7.7971530747
 11
14.2730510139
 21
7.7971530747
  0
LINE
  5
249
100
AcDbEntity
  8
0
100
AcDbLine
 62
7
  6
CONTINUOUS
 10
13.7591832202
 20
7.8571530747
 11
14.2130510139
 21
7.8571530747
  0
LINE
  5
24A
100
AcDbEntity
  8
0
100
AcDbLine
 62
7
  6
CONTINUOUS
 10
10.5699375026
 20
10.0938999873
 11
11.3595006718
 21
10.7564221514
  0
LINE
  5
24B
100
AcDbEntity
  8
0
100
AcDbLine
 62
9
  6
CONTINUOUS
 10
10.6799949972
 20
10.00349217
 11
11.429423708
 21
10.6323375248
  0
LINE
  5
24C
100
AcDbEntity
  8
0
100
AcDbLine
 62
7
  6
CONTINUOUS
 10
13.6920552497
 20
7.9371530747
 11
14.1475510139
 21
7.9371530747
  0
LINE
  5
24D
100
AcDbEntity
  8
0
100
AcDbLine
 62
7
  6
CONTINUOUS
 10
7.0672874633
 20
8.8200315605
 11
6.1163976515
 21
9.0571150182
  0
LINE
  5
24E
100
AcDbEntity
  8
0
100
AcDbLine
 62
9
  6
CONTINUOUS
 10
14.0488574655
 20
8.9905040668
 11
14.0357951654
 21
8.9905040668
  0
LINE
  5
24F
100
AcDbEntity
  8
0
100
AcDbLine
 62
9
  6
CONTINUOUS
 10
13.6103068623
 20
8.9905040668
 11
13.5972445623
 21
8.9905040668
  0
LWPOLYLINE
  5
250
100
AcDbEntity
  8
0
100
AcDbPolyline
 62
7
  6
CONTINUOUS
 90
9
 70
0
 10
10.7167502484
 20
10.1976213167
 10
10.718211765
 20
10.1933220381
 10
10.7243742792
 20
10.177217031
 10
10.7315789481
 20
10.1612150464
 10
10.7397506501
 20
10.1453825048
 10
10.7488190678
 20
10.1297845542
 10
10.7587615195
 20
10.1145200912
 10
10.7695435664
 20
10.0996826413
 10
10.7796363665
 20
10.0871012062
  0
LINE
  5
251
100
AcDbEntity
  8
0
100
AcDbLine
 62
7
  6
CONTINUOUS
 10
10.7167502484
 20
10.1976213167
 11
10.7121052355
 21
10.2131928796
  0
LWPOLYLINE
  5
252
100
AcDbEntity
  8
0
100
AcDbPolyline
 62
7
  6
CONTINUOUS
 90
9
 70
0
 10
10.6665519776
 20
10.1749691577
 10
10.6698438224
 20
10.1593312309
 10
10.6748949606
 20
10.1414412096
 10
10.681265529
 20
10.1238212153
 10
10.6888736475
 20
10.1065518746
 10
10.6976212973
 20
10.0896981898
 10
10.70747673
 20
10.0733757359
 10
10.7184015657
 20
10.0576942575
 10
10.7288556579
 20
10.0444911323
  0
LWPOLYLINE
  5
253
100
AcDbEntity
  8
0
100
AcDbPolyline
 62
7
  6
CONTINUOUS
 90
9
 70
0
 10
10.6361131036
 20
10.1494279097
 10
10.638672782
 20
10.1331885916
 10
10.6429805292
 20
10.1146840062
 10
10.6487216113
 20
10.0965412446
 10
10.6558147839
 20
10.0788417477
 10
10.6641603829
 20
10.0616493749
 10
10.6737313449
 20
10.045083099
 10
10.6844933886
 20
10.0292556827
 10
10.694907212
 20
10.0160050039
  0
LWPOLYLINE
  5
254
100
AcDbEntity
  8
0
100
AcDbPolyline
 62
7
  6
CONTINUOUS
 90
9
 70
0
 10
10.6227328961
 20
10.1382005825
 10
10.6249746088
 20
10.121689295
 10
10.6289602069
 20
10.102910322
 10
10.6344289337
 20
10.0845363164
 10
10.641299137
 20
10.0666486506
 10
10.6494699604
 20
10.0493103337
 10
10.6589159493
 20
10.0326416187
 10
10.6696040979
 20
10.0167563177
 10
10.6799949972
 20
10.00349217
  0
LINE
  5
255
100
AcDbEntity
  8
0
100
AcDbLine
 62
9
  6
CONTINUOUS
 10
13.0465729119
 20
9.6994540863
 11
14.5995291158
 21
9.6994540863
  0
LINE
  5
256
100
AcDbEntity
  8
0
100
AcDbLine
 62
9
  6
CONTINUOUS
 10
13.0240581268
 20
9.7239443492
 11
14.622043901
 21
9.7239443492
  0
LINE
  5
257
100
AcDbEntity
  8
0
100
AcDbLine
 62
7
  6
CONTINUOUS
 10
9.0339574714
 20
11.0578309971
 11
9.0337682621
 21
11.0579561636
  0
LINE
  5
258
100
AcDbEntity
  8
0
100
AcDbLine
 62
7
  6
CONTINUOUS
 10
8.459090297
 20
11.2690137632
 11
8.4999574285
 21
11.2413310066
  0
LINE
  5
259
100
AcDbEntity
  8
0
100
AcDbLine
 62
7
  6
CONTINUOUS
 10
8.3093126724
 20
11.3994586703
 11
8.4551521427
 21
11.3006692907
  0
LINE
  5
25A
100
AcDbEntity
  8
0
100
AcDbLine
 62
7
  6
CONTINUOUS
 10
8.1721456125
 20
11.5213613777
 11
8.305374518
 21
11.4311141978
  0
LINE
  5
25B
100
AcDbEntity
  8
0
100
AcDbLine
 62
7
  6
CONTINUOUS
 10
8.0181644663
 20
11.6546536847
 11
8.0898231449
 21
11.6061132148
  0
LINE
  5
25C
100
AcDbEntity
  8
0
100
AcDbLine
 62
7
  6
CONTINUOUS
 10
8.1284955438
 20
11.5799171358
 11
8.1682074582
 21
11.5530169051
  0
LINE
  5
25D
100
AcDbEntity
  8
0
100
AcDbLine
 62
7
  6
CONTINUOUS
 10
8.9886901221
 20
11.0692929183
 11
8.9888771132
 21
11.0691627961
  0
LINE
  5
25E
100
AcDbEntity
  8
0
100
AcDbLine
 62
7
  6
CONTINUOUS
 10
9.1758304844
 20
11.046479281
 11
9.175853912
 21
11.046462962
  0
LWPOLYLINE
  5
25F
100
AcDbEntity
  8
0
100
AcDbPolyline
 62
7
  6
CONTINUOUS
 90
6
 70
0
 10
12.8011941092
 20
7.4755455077
 10
12.8106303778
 20
7.4649205682
 10
12.8222770524
 20
7.4533222232
 10
12.8347175762
 20
7.4424779141
 10
12.8479020422
 20
7.4324406564
 10
12.8596210314
 20
7.4245883863
  0
LWPOLYLINE
  5
260
100
AcDbEntity
  8
0
100
AcDbPolyline
 62
7
  6
CONTINUOUS
 90
6
 70
0
 10
12.816106324
 20
7.4880583416
 10
12.8255294766
 20
7.4774200684
 10
12.8371243387
 20
7.4657770252
 10
12.849473441
 20
7.4548558524
 10
12.8625268851
 20
7.4447095422
 10
12.8733045078
 20
7.4372620349
  0
LWPOLYLINE
  5
261
100
AcDbEntity
  8
0
100
AcDbPolyline
 62
7
  6
CONTINUOUS
 90
6
 70
0
 10
12.8500547699
 20
7.51654447
 10
12.8594425474
 20
7.5058812848
 10
12.8709153749
 20
7.4941381387
 10
12.883054112
 20
7.4830404518
 10
12.8958092568
 20
7.4726417604
 10
12.9057168336
 20
7.4653449405
  0
LWPOLYLINE
  5
262
100
AcDbEntity
  8
0
100
AcDbPolyline
 62
7
  6
CONTINUOUS
 90
6
 70
0
 10
12.9008354785
 20
7.5591545439
 10
12.9101755187
 20
7.5484485674
 10
12.9214686736
 20
7.5365537986
 10
12.9332933532
 20
7.5251929281
 10
12.9456008087
 20
7.5144194838
 10
12.9550867218
 20
7.5067711954
  0
LINE
  5
263
100
AcDbEntity
  8
0
100
AcDbLine
 62
7
  6
CONTINUOUS
 10
13.1508659347
 20
7.0575080348
 11
12.8616115103
 21
7.4022280342
  0
LINE
  5
264
100
AcDbEntity
  8
0
100
AcDbLine
 62
7
  6
CONTINUOUS
 10
10.6799949972
 20
10.00349217
 11
12.8011941092
 21
7.4755455077
  0
LINE
  5
265
100
AcDbEntity
  8
0
100
AcDbLine
 62
7
  6
CONTINUOUS
 10
13.2975332359
 20
6.8866060613
 11
13.165636798
 21
7.043794115
  0
LINE
  5
266
100
AcDbEntity
  8
0
100
AcDbLine
 62
7
  6
CONTINUOUS
 10
10.694907212
 20
10.0160050039
 11
12.816106324
 21
7.4880583416
  0
LINE
  5
267
100
AcDbEntity
  8
0
100
AcDbLine
 62
7
  6
CONTINUOUS
 10
10.7288556579
 20
10.0444911323
 11
12.8500547699
 21
7.51654447
  0
LINE
  5
268
100
AcDbEntity
  8
0
100
AcDbLine
 62
7
  6
CONTINUOUS
 10
10.7796363665
 20
10.0871012062
 11
12.9008354785
 21
7.5591545439
  0
LINE
  5
269
100
AcDbEntity
  8
0
100
AcDbLine
 62
7
  6
CONTINUOUS
 10
10.0019353881
 20
10.8238755887
 11
10.569937758
 21
10.0939001713
  0
LINE
  5
26A
100
AcDbEntity
  8
0
100
AcDbLine
 62
7
  6
CONTINUOUS
 10
11.7530510139
 20
10.2466535203
 11
11.7530510139
 21
11.2330031885
  0
LINE
  5
26B
100
AcDbEntity
  8
0
100
AcDbLine
 62
9
  6
CONTINUOUS
 10
11.8280510139
 20
10.1572720008
 11
11.8280510139
 21
11.3080031885
  0
LINE
  5
26C
100
AcDbEntity
  8
0
100
AcDbLine
 62
9
  6
CONTINUOUS
 10
11.8407198335
 20
10.1421738896
 11
11.8407198331
 21
11.3080031885
  0
LINE
  5
26D
100
AcDbEntity
  8
0
100
AcDbLine
 62
9
  6
CONTINUOUS
 10
13.0074794649
 20
9.8733136672
 11
14.6386225629
 21
9.8733136672
  0
LINE
  5
26E
100
AcDbEntity
  8
0
100
AcDbLine
 62
7
  6
CONTINUOUS
 10
12.8780510139
 20
9.9080031885
 11
12.8728821947
 21
9.9080031885
  0
LINE
  5
26F
100
AcDbEntity
  8
0
100
AcDbLine
 62
9
  6
CONTINUOUS
 10
13.0169541949
 20
9.919666121
 11
14.6291478328
 21
9.919666121
  0
LINE
  5
270
100
AcDbEntity
  8
0
100
AcDbLine
 62
7
  6
CONTINUOUS
 10
10.6764611449
 20
10.0080031885
 11
9.6540510139
 21
10.0080031885
  0
LINE
  5
271
100
AcDbEntity
  8
0
100
AcDbLine
 62
7
  6
CONTINUOUS
 10
8.50148032
 20
11.2404829199
 11
8.8782403928
 21
11.0718466101
  0
LINE
  5
272
100
AcDbEntity
  8
0
100
AcDbLine
 62
9
  6
CONTINUOUS
 10
8.8798874169
 20
11.0712758551
 11
8.4999574285
 21
11.2413310066
  0
LINE
  5
273
100
AcDbEntity
  8
0
100
AcDbLine
 62
9
  6
CONTINUOUS
 10
8.9277580192
 20
11.0592399552
 11
8.459090297
 21
11.2690137632
  0
LINE
  5
274
100
AcDbEntity
  8
0
100
AcDbLine
 62
9
  6
CONTINUOUS
 10
8.9393237946
 20
11.0648527266
 11
8.455571172
 21
11.2813784761
  0
LINE
  5
275
100
AcDbEntity
  8
0
100
AcDbLine
 62
9
  6
CONTINUOUS
 10
8.4586712676
 20
11.2883045778
 11
8.9424238902
 21
11.0717788283
  0
LINE
  5
276
100
AcDbEntity
  8
0
100
AcDbLine
 62
9
  6
CONTINUOUS
 10
8.4551521427
 20
11.3006692907
 11
8.9539896656
 21
11.0773915998
  0
LINE
  5
277
100
AcDbEntity
  8
0
100
AcDbLine
 62
7
  6
CONTINUOUS
 10
8.50148032
 20
11.2404829199
 11
8.4999574285
 21
11.2413310066
  0
LINE
  5
278
100
AcDbEntity
  8
0
100
AcDbLine
 62
7
  6
CONTINUOUS
 10
9.2211261096
 20
11.0350805328
 11
9.2211024613
 21
11.0350963585
  0
LINE
  5
279
100
AcDbEntity
  8
0
100
AcDbLine
 62
7
  6
CONTINUOUS
 10
12.9661903946
 20
7.6139938299
 11
10.8449912826
 21
10.1419404922
  0
LINE
  5
27A
100
AcDbEntity
  8
0
100
AcDbLine
 62
7
  6
CONTINUOUS
 10
13.0445639465
 20
7.6797570484
 11
10.9233648345
 21
10.2077037107
  0
LINE
  5
27B
100
AcDbEntity
  8
0
100
AcDbLine
 62
7
  6
CONTINUOUS
 10
13.3365190909
 20
7.3829924773
 11
13.1308270558
 21
7.6281266991
  0
LINE
  5
27C
100
AcDbEntity
  8
0
100
AcDbLine
 62
7
  6
CONTINUOUS
 10
13.1311903575
 20
7.7524452379
 11
11.0099912455
 21
10.2803919002
  0
LINE
  5
27D
100
AcDbEntity
  8
0
100
AcDbLine
 62
7
  6
CONTINUOUS
 10
13.2206265716
 20
7.8274911322
 11
11.0994274597
 21
10.3554377945
  0
LINE
  5
27E
100
AcDbEntity
  8
0
100
AcDbLine
 62
9
  6
CONTINUOUS
 10
11.909635623
 20
10.0600432498
 11
11.909635623
 21
11.2625939633
  0
LINE
  5
27F
100
AcDbEntity
  8
0
100
AcDbLine
 62
9
  6
CONTINUOUS
 10
11.9480659709
 20
10.0142437447
 11
11.9480659709
 21
11.2328888985
  0
LINE
  5
280
100
AcDbEntity
  8
0
100
AcDbLine
 62
7
  6
CONTINUOUS
 10
8.9277580192
 20
11.0592399552
 11
8.8798874169
 21
11.0712758551
  0
LINE
  5
281
100
AcDbEntity
  8
0
100
AcDbLine
 62
7
  6
CONTINUOUS
 10
8.8782403928
 20
11.0718466101
 11
8.8798874169
 21
11.0712758551
  0
LINE
  5
282
100
AcDbEntity
  8
0
100
AcDbLine
 62
9
  6
CONTINUOUS
 10
9.1248218974
 20
11.0344399853
 11
8.3093126724
 21
11.3994586703
  0
LINE
  5
283
100
AcDbEntity
  8
0
100
AcDbLine
 62
9
  6
CONTINUOUS
 10
9.1363876729
 20
11.0400527567
 11
8.3057935474
 21
11.4118233831
  0
LINE
  5
284
100
AcDbEntity
  8
0
100
AcDbLine
 62
9
  6
CONTINUOUS
 10
8.308893643
 20
11.4187494849
 11
9.1394877685
 21
11.0469788584
  0
LINE
  5
285
100
AcDbEntity
  8
0
100
AcDbLine
 62
9
  6
CONTINUOUS
 10
8.305374518
 20
11.4311141978
 11
9.1510535439
 21
11.0525916299
  0
LINE
  5
286
100
AcDbEntity
  8
0
100
AcDbLine
 62
9
  6
CONTINUOUS
 10
9.3071141166
 20
11.0133539902
 11
8.1721456125
 21
11.5213613777
  0
LINE
  5
287
100
AcDbEntity
  8
0
100
AcDbLine
 62
9
  6
CONTINUOUS
 10
9.3186798921
 20
11.0189667616
 11
8.1686264876
 21
11.5337260905
  0
LINE
  5
288
100
AcDbEntity
  8
0
100
AcDbLine
 62
9
  6
CONTINUOUS
 10
8.1717265832
 20
11.5406521923
 11
9.3217799877
 21
11.0258928634
  0
LINE
  5
289
100
AcDbEntity
  8
0
100
AcDbLine
 62
9
  6
CONTINUOUS
 10
8.1682074582
 20
11.5530169051
 11
9.3333457631
 21
11.0315056348
  0
LINE
  5
28A
100
AcDbEntity
  8
0
100
AcDbLine
 62
9
  6
CONTINUOUS
 10
9.5091018813
 20
10.9873160287
 11
8.0181644663
 21
11.6546536847
  0
LINE
  5
28B
100
AcDbEntity
  8
0
100
AcDbLine
 62
9
  6
CONTINUOUS
 10
9.5206676567
 20
10.9929288001
 11
8.0146453413
 21
11.6670183975
  0
LINE
  5
28C
100
AcDbEntity
  8
0
100
AcDbLine
 62
9
  6
CONTINUOUS
 10
8.0168374507
 20
11.6719159152
 11
9.5228597662
 21
10.9978263178
  0
LINE
  5
28D
100
AcDbEntity
  8
0
100
AcDbLine
 62
7
  6
CONTINUOUS
 10
7.9419707633
 20
11.7163819597
 11
9.6058972366
 21
10.9716150893
  0
LINE
  5
28E
100
AcDbEntity
  8
0
100
AcDbLine
 62
7
  6
CONTINUOUS
 10
7.8906178068
 20
11.7448453452
 11
9.6613360376
 21
10.952278909
  0
LWPOLYLINE
  5
28F
100
AcDbEntity
  8
0
100
AcDbPolyline
 62
7
  6
CONTINUOUS
 90
9
 70
0
 10
11.3805630473
 20
10.5913385624
 10
11.3693758413
 20
10.603926532
 10
11.3558296776
 20
10.6174084551
 10
11.3414665763
 20
10.629948526
 10
11.3263879504
 20
10.6414898909
 10
11.3107021057
 20
10.6519812146
 10
11.2944560362
 20
10.6613146797
 10
11.2777149256
 20
10.6693956493
 10
11.2628861968
 20
10.6753529811
  0
LWPOLYLINE
  5
290
100
AcDbEntity
  8
0
100
AcDbPolyline
 62
7
  6
CONTINUOUS
 90
9
 70
0
 10
11.3297823386
 20
10.5487284885
 10
11.3192218386
 20
10.5607685281
 10
11.3065704804
 20
10.5738843809
 10
11.2933630255
 20
10.5862545423
 10
11.2796840637
 20
10.5978302799
 10
11.2656256916
 20
10.6085740578
 10
11.2512402385
 20
10.6184090688
 10
11.2365784603
 20
10.627251109
 10
11.2318621008
 20
10.6298504293
  0
LINE
  5
291
100
AcDbEntity
  8
0
100
AcDbLine
 62
7
  6
CONTINUOUS
 10
13.5488115543
 20
7.561127005
 11
13.3431195192
 21
7.8062612268
  0
LINE
  5
292
100
AcDbEntity
  8
0
100
AcDbLine
 62
7
  6
CONTINUOUS
 10
13.3072529826
 20
7.9001793217
 11
11.1860538707
 21
10.428125984
  0
LINE
  5
293
100
AcDbEntity
  8
0
100
AcDbLine
 62
7
  6
CONTINUOUS
 10
13.3856265345
 20
7.9659425402
 11
11.2644274226
 21
10.4938892025
  0
LINE
  5
294
100
AcDbEntity
  8
0
100
AcDbLine
 62
7
  6
CONTINUOUS
 10
13.4509814506
 20
8.0207818262
 11
11.3297823386
 21
10.5487284885
  0
LINE
  5
295
100
AcDbEntity
  8
0
100
AcDbLine
 62
7
  6
CONTINUOUS
 10
13.5017621592
 20
8.0633919001
 11
11.3805630473
 21
10.5913385624
  0
LINE
  5
296
100
AcDbEntity
  8
0
100
AcDbLine
 62
7
  6
CONTINUOUS
 10
15.0625630025
 20
5.9781530747
 11
14.8292205081
 21
6.2663070575
  0
LINE
  5
297
100
AcDbEntity
  8
0
100
AcDbLine
 62
9
  6
CONTINUOUS
 10
11.7530510139
 20
10.6080031885
 11
11.4498426406
 21
10.6080031885
  0
LWPOLYLINE
  5
298
100
AcDbEntity
  8
0
100
AcDbPolyline
 62
7
  6
CONTINUOUS
 90
4
 70
0
 10
9.6861966803
 20
10.9481473984
 10
9.7219274304
 20
10.9460406904
 10
9.7581702786
 20
10.9438455082
 10
9.7882209059
 20
10.9419733065
  0
LWPOLYLINE
  5
299
100
AcDbEntity
  8
0
100
AcDbPolyline
 62
7
  6
CONTINUOUS
 90
12
 70
0
 10
9.7882232988
 20
10.9419731554
 10
9.7990330118
 20
10.9410411125
 10
9.8128944813
 20
10.939139961
 10
9.8274706763
 20
10.9363131026
 10
9.8426965811
 20
10.9324671685
 10
9.858526388
 20
10.9274948582
 10
9.8749003717
 20
10.9212780187
 10
9.8917552896
 20
10.9136805467
 10
9.9090197766
 20
10.9045437787
 10
9.9264533101
 20
10.8938048741
 10
9.9436752835
 20
10.881548997
 10
9.9604797983
 20
10.8677971852
  0
LINE
  5
29A
100
AcDbEntity
  8
0
100
AcDbLine
 62
7
  6
CONTINUOUS
 10
9.1248218974
 20
11.0344399853
 11
8.9539896656
 21
11.0773915998
  0
LINE
  5
29B
100
AcDbEntity
  8
0
100
AcDbLine
 62
7
  6
CONTINUOUS
 10
9.3071141166
 20
11.0133539902
 11
9.2211008191
 21
11.0349799442
  0
LINE
  5
29C
100
AcDbEntity
  8
0
100
AcDbLine
 62
7
  6
CONTINUOUS
 10
9.1758027667
 20
11.046369039
 11
9.1510535439
 21
11.0525916299
  0
LINE
  5
29D
100
AcDbEntity
  8
0
100
AcDbLine
 62
7
  6
CONTINUOUS
 10
9.5091018813
 20
10.9873160287
 11
9.4251629313
 21
11.0084204384
  0
LINE
  5
29E
100
AcDbEntity
  8
0
100
AcDbLine
 62
7
  6
CONTINUOUS
 10
9.3798631768
 20
11.0198099612
 11
9.3333457631
 21
11.0315056348
  0
LINE
  5
29F
100
AcDbEntity
  8
0
100
AcDbLine
 62
7
  6
CONTINUOUS
 10
11.2318621008
 20
10.6298504293
 11
11.2173329389
 21
10.6371292592
  0
LWPOLYLINE
  5
2A0
100
AcDbEntity
  8
0
100
AcDbPolyline
 62
7
  6
CONTINUOUS
 90
3
 70
0
 10
10.6033772403
 20
11.3285452245
 10
10.5075757932
 20
11.4010563268
 10
10.0947272447
 20
11.7133849494
  0
LINE
  5
2A1
100
AcDbEntity
  8
0
100
AcDbLine
 62
7
  6
CONTINUOUS
 10
10.60337724
 20
11.3285452248
 11
11.359500543
 21
10.7564218642
  0
LINE
  5
2A2
100
AcDbEntity
  8
0
100
AcDbLine
 62
7
  6
CONTINUOUS
 10
10.1045646602
 20
11.7059735203
 11
10.1045605405
 21
11.7059767772
  0
LWPOLYLINE
  5
2A3
100
AcDbEntity
  8
0
100
AcDbPolyline
 62
7
  6
CONTINUOUS
 90
9
 70
0
 10
11.429423708
 20
10.6323375248
 10
11.4181654332
 20
10.6448738581
 10
11.4043774431
 20
10.6581580832
 10
11.3896022421
 20
10.6703550583
 10
11.3739461817
 20
10.6814125157
 10
11.3575232681
 20
10.6912845057
 10
11.3403780394
 20
10.6998607628
 10
11.322576453
 20
10.7070467452
 10
11.3067052784
 20
10.7121215563
  0
LWPOLYLINE
  5
2A4
100
AcDbEntity
  8
0
100
AcDbPolyline
 62
7
  6
CONTINUOUS
 90
9
 70
0
 10
11.4145114932
 20
10.6198246908
 10
11.4032704634
 20
10.6323812611
 10
11.3895523104
 20
10.6457282071
 10
11.3748996936
 20
10.6580304683
 10
11.3594177096
 20
10.6692347031
 10
11.3432188244
 20
10.6792935999
 10
11.3263486205
 20
10.6880979196
 10
11.3088731937
 20
10.6955535099
 10
11.2933250709
 20
10.7008942291
  0
LINE
  5
2A5
100
AcDbEntity
  8
0
100
AcDbLine
 62
7
  6
CONTINUOUS
 10
13.5357106051
 20
8.0918780285
 11
11.4145114932
 21
10.6198246908
  0
LINE
  5
2A6
100
AcDbEntity
  8
0
100
AcDbLine
 62
7
  6
CONTINUOUS
 10
14.0444265679
 20
7.5133239807
 11
13.91253013
 21
7.6705120344
  0
LINE
  5
2A7
100
AcDbEntity
  8
0
100
AcDbLine
 62
7
  6
CONTINUOUS
 10
13.5506228199
 20
8.1043908625
 11
11.429423708
 21
10.6323375248
  0
LINE
  5
2A8
100
AcDbEntity
  8
0
100
AcDbLine
 62
7
  6
CONTINUOUS
 10
13.901589489
 20
7.6874398923
 11
13.6123350646
 21
8.0321598917
  0
LINE
  5
2A9
100
AcDbEntity
  8
0
100
AcDbLine
 62
7
  6
CONTINUOUS
 10
15.2284558854
 20
6.0230916743
 11
15.1295339207
 21
6.1588968562
  0
LWPOLYLINE
  5
2AA
100
AcDbEntity
  8
0
100
AcDbPolyline
 62
7
  6
CONTINUOUS
 90
6
 70
0
 10
13.4931483488
 20
7.9582585082
 10
13.4872634666
 20
7.9689284203
 10
13.4787908623
 20
7.9829196868
 10
13.4696559231
 20
7.9965375174
 10
13.4599028983
 20
8.0097246088
 10
13.4509814506
 20
8.0207818262
  0
LINE
  5
2AB
100
AcDbEntity
  8
0
100
AcDbLine
 62
9
  6
CONTINUOUS
 10
12.7655360569
 20
11.2328888985
 11
12.7655360569
 21
9.9831174785
  0
LINE
  5
2AC
100
AcDbEntity
  8
0
100
AcDbLine
 62
9
  6
CONTINUOUS
 10
12.8039664048
 20
11.2625939633
 11
12.8039664048
 21
9.9534124137
  0
LINE
  5
2AD
100
AcDbEntity
  8
0
100
AcDbLine
 62
9
  6
CONTINUOUS
 10
12.8728821947
 20
9.9080031885
 11
12.8728821947
 21
11.3080031885
  0
LINE
  5
2AE
100
AcDbEntity
  8
0
100
AcDbLine
 62
9
  6
CONTINUOUS
 10
12.8780510139
 20
9.9080031885
 11
12.8780510139
 21
11.3080031885
  0
LINE
  5
2AF
100
AcDbEntity
  8
0
100
AcDbLine
 62
7
  6
CONTINUOUS
 10
12.9530510139
 20
9.9830031885
 11
12.9530510139
 21
11.2330031885
  0
LINE
  5
2B0
100
AcDbEntity
  8
0
100
AcDbLine
 62
7
  6
CONTINUOUS
 10
11.7530510139
 20
11.2080031885
 11
10.7626866633
 21
11.2080031885
  0
LINE
  5
2B1
100
AcDbEntity
  8
0
100
AcDbLine
 62
7
  6
CONTINUOUS
 10
12.8780510139
 20
11.3080031885
 11
12.8728821947
 21
11.3080031885
  0
LINE
  5
2B2
100
AcDbEntity
  8
0
100
AcDbLine
 62
7
  6
CONTINUOUS
 10
11.8407198331
 20
11.3080031885
 11
11.8280510139
 21
11.3080031885
  0
LWPOLYLINE
  5
2B3
100
AcDbEntity
  8
0
100
AcDbPolyline
 62
7
  6
CONTINUOUS
 90
6
 70
0
 10
13.5425182369
 20
7.9996847631
 10
13.5370527054
 20
8.0107089
 10
13.529026901
 20
8.0250759795
 10
13.5202056823
 20
8.0389573954
 10
13.5106331765
 20
8.0522951011
 10
13.5017621592
 20
8.0633919001
  0
LWPOLYLINE
  5
2B4
100
AcDbEntity
  8
0
100
AcDbPolyline
 62
7
  6
CONTINUOUS
 90
6
 70
0
 10
13.5758028414
 20
8.0267281276
 10
13.5703399884
 20
8.0386352695
 10
13.562614531
 20
8.053252288
 10
13.5540036755
 20
8.067310219
 10
13.5445509443
 20
8.08075072
 10
13.5357106051
 20
8.0918780285
  0
LWPOLYLINE
  5
2B5
100
AcDbEntity
  8
0
100
AcDbPolyline
 62
7
  6
CONTINUOUS
 90
6
 70
0
 10
13.5906600596
 20
8.0380029652
 10
13.5849620569
 20
8.0509074646
 10
13.5773667473
 20
8.065634576
 10
13.5688474635
 20
8.0797691907
 10
13.5594477494
 20
8.0932529539
 10
13.5506228199
 20
8.1043908625
  0
LINE
  5
2B6
100
AcDbEntity
  8
0
100
AcDbLine
 62
7
  6
CONTINUOUS
 10
13.2755510139
 20
6.6393245061
 11
13.2755510139
 21
6.4921530747
  0
LINE
  5
2B7
100
AcDbEntity
  8
0
100
AcDbLine
 62
7
  6
CONTINUOUS
 10
13.2780510139
 20
11.971657091
 11
13.2780510139
 21
12.061657091
  0
LINE
  5
2B8
100
AcDbEntity
  8
0
100
AcDbLine
 62
9
  6
CONTINUOUS
 10
12.8011941092
 20
7.4755455077
 11
13.5506228199
 21
8.1043908625
  0
LINE
  5
2B9
100
AcDbEntity
  8
0
100
AcDbLine
 62
7
  6
CONTINUOUS
 10
13.5805203785
 20
8.0315723461
 11
13.5755094308
 21
8.0273676618
  0
LINE
  5
2BA
100
AcDbEntity
  8
0
100
AcDbLine
 62
7
  6
CONTINUOUS
 10
13.5566268516
 20
8.0115232965
 11
13.5424619562
 21
7.999637538
  0
LINE
  5
2BB
100
AcDbEntity
  8
0
100
AcDbLine
 62
7
  6
CONTINUOUS
 10
13.5118405414
 20
7.9739431201
 11
13.4906346154
 21
7.9561492355
  0
LINE
  5
2BC
100
AcDbEntity
  8
0
100
AcDbLine
 62
7
  6
CONTINUOUS
 10
13.4489755366
 20
7.9211931178
 11
13.4220610263
 21
7.8986091622
  0
LINE
  5
2BD
100
AcDbEntity
  8
0
100
AcDbLine
 62
7
  6
CONTINUOUS
 10
13.3719818766
 20
7.8565877661
 11
13.3410499197
 21
7.8306327725
  0
LINE
  5
2BE
100
AcDbEntity
  8
0
100
AcDbLine
 62
7
  6
CONTINUOUS
 10
13.2856973562
 20
7.7841864568
 11
13.2526915214
 21
7.756491273
  0
LINE
  5
2BF
100
AcDbEntity
  8
0
100
AcDbLine
 62
7
  6
CONTINUOUS
 10
13.1955435492
 20
7.7085384306
 11
13.1625377144
 21
7.6808432468
  0
LINE
  5
2C0
100
AcDbEntity
  8
0
100
AcDbLine
 62
7
  6
CONTINUOUS
 10
13.1071851508
 20
7.6343969311
 11
13.076253194
 21
7.6084419376
  0
LINE
  5
2C1
100
AcDbEntity
  8
0
100
AcDbLine
 62
7
  6
CONTINUOUS
 10
13.0261740442
 20
7.5664205415
 11
12.999259534
 21
7.5438365859
  0
LINE
  5
2C2
100
AcDbEntity
  8
0
100
AcDbLine
 62
7
  6
CONTINUOUS
 10
12.9576004551
 20
7.5088804682
 11
12.9363945292
 21
7.4910865835
  0
LINE
  5
2C3
100
AcDbEntity
  8
0
100
AcDbLine
 62
7
  6
CONTINUOUS
 10
12.9057731144
 20
7.4653921657
 11
12.891608219
 21
7.4535064072
  0
LINE
  5
2C4
100
AcDbEntity
  8
0
100
AcDbLine
 62
7
  6
CONTINUOUS
 10
12.8728683685
 20
7.4377818055
 11
12.867714692
 21
7.4334573575
  0
LINE
  5
2C5
100
AcDbEntity
  8
0
100
AcDbLine
 62
9
  6
CONTINUOUS
 10
13.6123350646
 20
8.0321598917
 11
13.3431195192
 21
7.8062612268
  0
LINE
  5
2C6
100
AcDbEntity
  8
0
100
AcDbLine
 62
9
  6
CONTINUOUS
 10
13.1308270558
 20
7.6281266991
 11
12.8616115103
 21
7.4022280342
  0
LINE
  5
2C7
100
AcDbEntity
  8
0
100
AcDbLine
 62
7
  6
CONTINUOUS
 10
14.2180510139
 20
11.591657091
 11
13.4280510139
 21
11.591657091
  0
LINE
  5
2C8
100
AcDbEntity
  8
0
100
AcDbLine
 62
9
  6
CONTINUOUS
 10
13.4280510139
 20
11.646657091
 11
14.2180510139
 21
11.646657091
  0
LINE
  5
2C9
100
AcDbEntity
  8
0
100
AcDbLine
 62
7
  6
CONTINUOUS
 10
9.1509228763
 20
12.1864296031
 11
9.050219088
 21
12.2140806025
  0
LINE
  5
2CA
100
AcDbEntity
  8
0
100
AcDbLine
 62
7
  6
CONTINUOUS
 10
13.4280510139
 20
11.591657091
 11
13.4280510139
 21
11.646657091
  0
LINE
  5
2CB
100
AcDbEntity
  8
0
100
AcDbLine
 62
7
  6
CONTINUOUS
 10
13.5645510139
 20
8.1298317427
 11
13.5645510139
 21
8.0859323898
  0
LINE
  5
2CC
100
AcDbEntity
  8
0
100
AcDbLine
 62
9
  6
CONTINUOUS
 10
13.5895829657
 20
6.5164423966
 11
13.5895829657
 21
6.4921530747
  0
LINE
  5
2CD
100
AcDbEntity
  8
0
100
AcDbLine
 62
9
  6
CONTINUOUS
 10
13.6109042486
 20
6.5164423966
 11
13.6109042486
 21
6.4921530747
  0
LINE
  5
2CE
100
AcDbEntity
  8
0
100
AcDbLine
 62
7
  6
CONTINUOUS
 10
13.3365190909
 20
7.3829924773
 11
13.5488115543
 21
7.561127005
  0
LINE
  5
2CF
100
AcDbEntity
  8
0
100
AcDbLine
 62
9
  6
CONTINUOUS
 10
13.901589489
 20
7.6874398923
 11
13.1508659347
 21
7.0575080348
  0
LINE
  5
2D0
100
AcDbEntity
  8
0
100
AcDbLine
 62
7
  6
CONTINUOUS
 10
13.4980510139
 20
11.716657091
 11
14.1480510139
 21
11.716657091
  0
LINE
  5
2D1
100
AcDbEntity
  8
0
100
AcDbLine
 62
7
  6
CONTINUOUS
 10
13.2980510139
 20
11.951657091
 11
14.3480510139
 21
11.951657091
  0
LINE
  5
2D2
100
AcDbEntity
  8
0
100
AcDbLine
 62
9
  6
CONTINUOUS
 10
13.2780510139
 20
11.971657091
 11
14.3680510139
 21
11.971657091
  0
LINE
  5
2D3
100
AcDbEntity
  8
0
100
AcDbLine
 62
9
  6
CONTINUOUS
 10
13.2780510139
 20
12.061657091
 11
14.3680510139
 21
12.061657091
  0
LINE
  5
2D4
100
AcDbEntity
  8
0
100
AcDbLine
 62
7
  6
CONTINUOUS
 10
8.8202161544
 20
12.2632673439
 11
8.8458235958
 21
12.2587278709
  0
LINE
  5
2D5
100
AcDbEntity
  8
0
100
AcDbLine
 62
7
  6
CONTINUOUS
 10
8.8512247389
 20
12.2577408487
 11
8.8354233052
 21
12.2605994278
  0
LINE
  5
2D6
100
AcDbEntity
  8
0
100
AcDbLine
 62
7
  6
CONTINUOUS
 10
8.9521192437
 20
12.2373939009
 11
8.9555136775
 21
12.2366458398
  0
LINE
  5
2D7
100
AcDbEntity
  8
0
100
AcDbLine
 62
7
  6
CONTINUOUS
 10
9.050219088
 20
12.2140806025
 11
8.9521192437
 21
12.2373939009
  0
LINE
  5
2D8
100
AcDbEntity
  8
0
100
AcDbLine
 62
9
  6
CONTINUOUS
 10
14.0351977791
 20
6.4921530747
 11
14.0351977791
 21
6.5164423966
  0
LINE
  5
2D9
100
AcDbEntity
  8
0
100
AcDbLine
 62
9
  6
CONTINUOUS
 10
14.0565190621
 20
6.4921530747
 11
14.0565190621
 21
6.5164423967
  0
LINE
  5
2DA
100
AcDbEntity
  8
0
100
AcDbLine
 62
7
  6
CONTINUOUS
 10
14.0815510139
 20
8.1298317427
 11
14.0815510139
 21
7.9371530747
  0
LINE
  5
2DB
100
AcDbEntity
  8
0
100
AcDbLine
 62
7
  6
CONTINUOUS
 10
14.1475510139
 20
7.8571530747
 11
14.1475510139
 21
7.9371530747
  0
LINE
  5
2DC
100
AcDbEntity
  8
0
100
AcDbLine
 62
7
  6
CONTINUOUS
 10
12.4176461424
 20
6.0230916743
 11
12.516568107
 21
6.1588968562
  0
LINE
  5
2DD
100
AcDbEntity
  8
0
100
AcDbLine
 62
7
  6
CONTINUOUS
 10
12.5835390253
 20
5.9781530747
 11
12.8168815197
 21
6.2663070575
  0
LINE
  5
2DE
100
AcDbEntity
  8
0
100
AcDbLine
 62
7
  6
CONTINUOUS
 10
13.165636798
 20
7.043794115
 11
13.91253013
 21
7.6705120344
  0
LINE
  5
2DF
100
AcDbEntity
  8
0
100
AcDbLine
 62
9
  6
CONTINUOUS
 10
13.2975332359
 20
6.8866060613
 11
14.0444265679
 21
7.5133239807
  0
LINE
  5
2E0
100
AcDbEntity
  8
0
100
AcDbLine
 62
7
  6
CONTINUOUS
 10
8.4573177275
 20
12.3026327187
 11
8.4306321581
 21
12.3020653776
  0
LINE
  5
2E1
100
AcDbEntity
  8
0
100
AcDbLine
 62
7
  6
CONTINUOUS
 10
13.2980510139
 20
12.081657091
 11
14.3480510139
 21
12.081657091
  0
LINE
  5
2E2
100
AcDbEntity
  8
0
100
AcDbLine
 62
7
  6
CONTINUOUS
 10
8.482824954
 20
12.3018427932
 11
8.4573177275
 21
12.3026327187
  0
LINE
  5
2E3
100
AcDbEntity
  8
0
100
AcDbLine
 62
7
  6
CONTINUOUS
 10
14.2180510139
 20
11.591657091
 11
14.2180510139
 21
11.646657091
  0
LINE
  5
2E4
100
AcDbEntity
  8
0
100
AcDbLine
 62
7
  6
CONTINUOUS
 10
14.2730510139
 20
7.7923138725
 11
14.2730510139
 21
7.7971530747
  0
LINE
  5
2E5
100
AcDbEntity
  8
0
100
AcDbLine
 62
7
  6
CONTINUOUS
 10
14.3680510139
 20
11.971657091
 11
14.3680510139
 21
12.061657091
  0
LINE
  5
2E6
100
AcDbEntity
  8
0
100
AcDbLine
 62
7
  6
CONTINUOUS
 10
14.3705510139
 20
6.6393245061
 11
14.3705510139
 21
6.4921530747
  0
LINE
  5
2E7
100
AcDbEntity
  8
0
100
AcDbLine
 62
7
  6
CONTINUOUS
 10
8.407462352
 20
12.3004133239
 11
8.4074662824
 21
12.3004136954
  0
LINE
  5
2E8
100
AcDbEntity
  8
0
100
AcDbLine
 62
7
  6
CONTINUOUS
 10
8.4306321581
 20
12.3020653776
 11
8.4074662824
 21
12.3004136954
  0
ARC
  5
2E9
100
AcDbEntity
  8
0
100
AcDbCircle
 62
9
  6
CONTINUOUS
 10
9.8214545203
 20
-25.0301507134
 40
35.6445112515
100
AcDbArc
 50
89.4455338442
 51
89.6512043746
  0
ARC
  5
2EA
100
AcDbEntity
  8
0
100
AcDbCircle
 62
7
  6
CONTINUOUS
 10
-24.8033986721
 20
7.1034243935
 40
39.4077348521
100
AcDbArc
 50
359.5748101664
 51
0.4251348685
  0
ARC
  5
2EB
100
AcDbEntity
  8
0
100
AcDbCircle
 62
7
  6
CONTINUOUS
 10
9.6545437052
 20
4.7262783341
 40
5.2817267986
100
AcDbArc
 50
90.005344681
 51
101.9008337548
  0
ARC
  5
2EC
100
AcDbEntity
  8
0
100
AcDbCircle
 62
7
  6
CONTINUOUS
 10
9.6540510139
 20
4.7310031885
 40
5.277
100
AcDbArc
 50
101.9061784358
 51
108.9079827008
  0
ARC
  5
2ED
100
AcDbEntity
  8
0
100
AcDbCircle
 62
7
  6
CONTINUOUS
 10
5.7492579985
 20
8.1090618874
 40
4.2080411582
100
AcDbArc
 50
55.5697412961
 51
56.2057327159
  0
ARC
  5
2EE
100
AcDbEntity
  8
0
100
AcDbCircle
 62
7
  6
CONTINUOUS
 10
8.3763941998
 20
6.9331662164
 40
4.2080411148
100
AcDbArc
 50
75.5680679832
 51
76.2040594096
  0
ARC
  5
2EF
100
AcDbEntity
  8
0
100
AcDbCircle
 62
9
  6
CONTINUOUS
 10
9.3686020912
 20
7.5862591902
 40
3.0882421312
100
AcDbArc
 50
139.5888094204
 51
142.1403893844
  0
ARC
  5
2F0
100
AcDbEntity
  8
0
100
AcDbCircle
 62
7
  6
CONTINUOUS
 10
8.7088953336
 20
8.4797210811
 40
2.5045387572
100
AcDbArc
 50
131.0269231405
 51
147.9845059448
  0
ARC
  5
2F1
100
AcDbEntity
  8
0
100
AcDbCircle
 62
7
  6
CONTINUOUS
 10
8.7054094074
 20
8.4826969931
 40
2.5
100
AcDbArc
 50
112.3469579043
 51
131.0114221702
  0
ARC
  5
2F2
100
AcDbEntity
  8
0
100
AcDbCircle
 62
7
  6
CONTINUOUS
 10
8.3145163544
 20
9.3360359808
 40
2.9705917298
100
AcDbArc
 50
77.6056893915
 51
79.5909851429
  0
ARC
  5
2F3
100
AcDbEntity
  8
0
100
AcDbCircle
 62
7
  6
CONTINUOUS
 10
8.3151617147
 20
9.3406706768
 40
2.9659149121
100
AcDbArc
 50
80.1955390642
 51
86.7593406943
  0
ARC
  5
2F4
100
AcDbEntity
  8
0
100
AcDbCircle
 62
7
  6
CONTINUOUS
 10
8.3152377244
 20
9.3411241921
 40
2.9655035674
100
AcDbArc
 50
56.0171864141
 51
60.5094916604
  0
ARC
  5
2F5
100
AcDbEntity
  8
0
100
AcDbCircle
 62
7
  6
CONTINUOUS
 10
8.315326457
 20
9.3412913073
 40
2.9653153981
100
AcDbArc
 50
53.125057472
 51
56.0168032494
  0
ARC
  5
2F6
100
AcDbEntity
  8
0
100
AcDbCircle
 62
7
  6
CONTINUOUS
 10
8.3153840209
 20
9.3413498578
 40
2.9652351209
100
AcDbArc
 50
60.5098056784
 51
61.913069333
  0
ARC
  5
2F7
100
AcDbEntity
  8
0
100
AcDbCircle
 62
7
  6
CONTINUOUS
 10
8.3154375595
 20
9.3414472901
 40
2.9651239562
100
AcDbArc
 50
61.913100391
 51
73.6326578193
  0
ARC
  5
2F8
100
AcDbEntity
  8
0
100
AcDbCircle
 62
7
  6
CONTINUOUS
 10
8.3157841747
 20
9.3419051908
 40
2.9645496609
100
AcDbArc
 50
52.8869027367
 51
53.1249497672
  0
ARC
  5
2F9
100
AcDbEntity
  8
0
100
AcDbCircle
 62
7
  6
CONTINUOUS
 10
8.3165001686
 20
9.3447062505
 40
2.9616976302
100
AcDbArc
 50
73.6346155662
 51
77.5399283463
  0
ARC
  5
2FA
100
AcDbEntity
  8
0
100
AcDbCircle
 62
7
  6
CONTINUOUS
 10
9.4587870745
 20
10.2176698
 40
1.2038326632
100
AcDbArc
 50
45.493790023
 51
54.4698993364
  0
ARC
  5
2FB
100
AcDbEntity
  8
0
100
AcDbCircle
 62
7
  6
CONTINUOUS
 10
8.2994771513
 20
8.6860838047
 40
1.0964341825
100
AcDbArc
 50
139.5897552114
 51
145.9991642558
  0
ARC
  5
2FC
100
AcDbEntity
  8
0
100
AcDbCircle
 62
7
  6
CONTINUOUS
 10
8.7737543754
 20
11.556619108
 40
0.9029695368
100
AcDbArc
 50
142.3731155407
 51
167.9683656294
  0
ARC
  5
2FD
100
AcDbEntity
  8
0
100
AcDbCircle
 62
7
  6
CONTINUOUS
 10
8.4545962329
 20
11.802533157
 40
0.5001069622
100
AcDbArc
 50
86.7641989597
 51
89.6668702777
  0
ARC
  5
2FE
100
AcDbEntity
  8
0
100
AcDbCircle
 62
7
  6
CONTINUOUS
 10
8.4546049815
 20
11.8025433873
 40
0.5000968919
100
AcDbArc
 50
92.641339495
 51
95.4091321971
  0
ARC
  5
2FF
100
AcDbEntity
  8
0
100
AcDbCircle
 62
7
  6
CONTINUOUS
 10
8.4545972541
 20
11.8025946533
 40
0.500045461
100
AcDbArc
 50
89.6669463166
 51
90.1530513124
  0
ARC
  5
300
100
AcDbEntity
  8
0
100
AcDbCircle
 62
7
  6
CONTINUOUS
 10
8.4545994372
 20
11.8026391953
 40
0.5
100
AcDbArc
 50
95.4095346333
 51
142.373028687
  0
ARC
  5
301
100
AcDbEntity
  8
0
100
AcDbCircle
 62
7
  6
CONTINUOUS
 10
8.454599115
 20
11.8026475718
 40
0.4999925477
100
AcDbArc
 50
90.1532807577
 51
92.6412181269
  0
ARC
  5
302
100
AcDbEntity
  8
0
100
AcDbCircle
 62
7
  6
CONTINUOUS
 10
8.8190070102
 20
11.4446987273
 40
0.3243652792
100
AcDbArc
 50
232.9862196903
 51
241.4665246898
  0
ARC
  5
303
100
AcDbEntity
  8
0
100
AcDbCircle
 62
7
  6
CONTINUOUS
 10
8.8190070102
 20
11.4446987273
 40
0.3243652792
100
AcDbArc
 50
250.307276371
 51
258.7859943805
  0
ARC
  5
304
100
AcDbEntity
  8
0
100
AcDbCircle
 62
7
  6
CONTINUOUS
 10
9.7503348198
 20
10.6279261148
 40
0.3189028728
100
AcDbArc
 50
37.9118769244
 51
48.7791145228
  0
ARC
  5
305
100
AcDbEntity
  8
0
100
AcDbCircle
 62
7
  6
CONTINUOUS
 10
8.46469858
 20
11.2772930846
 40
0.01
100
AcDbArc
 50
155.8869005304
 51
235.8869005305
  0
ARC
  5
306
100
AcDbEntity
  8
0
100
AcDbCircle
 62
7
  6
CONTINUOUS
 10
8.9301963866
 20
11.0689381181
 40
0.01
100
AcDbArc
 50
255.8869005303
 51
335.8869005304
  0
ARC
  5
307
100
AcDbEntity
  8
0
100
AcDbCircle
 62
7
  6
CONTINUOUS
 10
8.9515512982
 20
11.0676934368
 40
0.01
100
AcDbArc
 50
75.8869005304
 51
155.8869005304
  0
ARC
  5
308
100
AcDbEntity
  8
0
100
AcDbCircle
 62
7
  6
CONTINUOUS
 10
8.4495438597
 20
11.2923899693
 40
0.01
100
AcDbArc
 50
335.8869005304
 51
55.8869005305
  0
ARC
  5
309
100
AcDbEntity
  8
0
100
AcDbCircle
 62
7
  6
CONTINUOUS
 10
8.3149209554
 20
11.4077379916
 40
0.01
100
AcDbArc
 50
155.8869005304
 51
235.8869005337
  0
ARC
  5
30A
100
AcDbEntity
  8
0
100
AcDbCircle
 62
7
  6
CONTINUOUS
 10
9.1272602649
 20
11.0441381482
 40
0.01
100
AcDbArc
 50
255.8869005271
 51
335.8869005304
  0
ARC
  5
30B
100
AcDbEntity
  8
0
100
AcDbCircle
 62
7
  6
CONTINUOUS
 10
9.1486151764
 20
11.0428934669
 40
0.01
100
AcDbArc
 50
75.8869005304
 51
155.8869005304
  0
ARC
  5
30C
100
AcDbEntity
  8
0
100
AcDbCircle
 62
7
  6
CONTINUOUS
 10
8.299766235
 20
11.4228348764
 40
0.01
100
AcDbArc
 50
335.8869005304
 51
55.8869005304
  0
ARC
  5
30D
100
AcDbEntity
  8
0
100
AcDbCircle
 62
7
  6
CONTINUOUS
 10
8.1777538955
 20
11.529640699
 40
0.01
100
AcDbArc
 50
155.8869005304
 51
235.8869005321
  0
ARC
  5
30E
100
AcDbEntity
  8
0
100
AcDbCircle
 62
7
  6
CONTINUOUS
 10
9.3095524841
 20
11.0230521531
 40
0.01
100
AcDbArc
 50
255.8869005287
 51
335.8869005304
  0
ARC
  5
30F
100
AcDbEntity
  8
0
100
AcDbCircle
 62
7
  6
CONTINUOUS
 10
9.3309073956
 20
11.0218074719
 40
0.01
100
AcDbArc
 50
75.8869005295
 51
155.8869005304
  0
ARC
  5
310
100
AcDbEntity
  8
0
100
AcDbCircle
 62
7
  6
CONTINUOUS
 10
8.1625991752
 20
11.5447375838
 40
0.01
100
AcDbArc
 50
335.8869005304
 51
55.8869005313
  0
ARC
  5
311
100
AcDbEntity
  8
0
100
AcDbCircle
 62
7
  6
CONTINUOUS
 10
8.0237727493
 20
11.662933006
 40
0.01
100
AcDbArc
 50
155.8869005304
 51
235.8869005313
  0
ARC
  5
312
100
AcDbEntity
  8
0
100
AcDbCircle
 62
7
  6
CONTINUOUS
 10
9.5115402488
 20
10.9970141916
 40
0.01
100
AcDbArc
 50
255.8869005295
 51
335.8869005304
  0
ARC
  5
313
100
AcDbEntity
  8
0
100
AcDbCircle
 62
7
  6
CONTINUOUS
 10
9.5319871741
 20
10.9937409263
 40
0.01
100
AcDbArc
 50
65.8869005305
 51
155.8869005304
  0
ARC
  5
314
100
AcDbEntity
  8
0
100
AcDbCircle
 62
7
  6
CONTINUOUS
 10
8.0077100427
 20
11.6760013067
 40
0.01
100
AcDbArc
 50
335.8869005304
 51
65.8869005303
  0
ARC
  5
315
100
AcDbEntity
  8
0
100
AcDbCircle
 62
7
  6
CONTINUOUS
 10
9.8482082365
 20
5.7002178582
 40
5.5080261887
100
AcDbArc
 50
100.9693531111
 51
112.3369140591
  0
ARC
  5
316
100
AcDbEntity
  8
0
100
AcDbCircle
 62
7
  6
CONTINUOUS
 10
11.573244837
 20
6.4435234136
 40
2.1515652966
100
AcDbArc
 50
38.0360452783
 51
40.0336657531
  0
ARC
  5
317
100
AcDbEntity
  8
0
100
AcDbCircle
 62
7
  6
CONTINUOUS
 10
10.6115961451
 20
7.4557588105
 40
2.5
100
AcDbArc
 50
317.5195783577
 51
321.4549572017
  0
ARC
  5
318
100
AcDbEntity
  8
0
100
AcDbCircle
 62
7
  6
CONTINUOUS
 10
13.1075079195
 20
4.692574061
 40
2.45
100
AcDbArc
 50
36.9049486426
 51
51.1081952499
  0
ARC
  5
319
100
AcDbEntity
  8
0
100
AcDbCircle
 62
7
  6
CONTINUOUS
 10
13.7929890467
 20
5.6860262168
 40
1.1
100
AcDbArc
 50
135.0793467699
 51
146.5626793777
  0
ARC
  5
31A
100
AcDbEntity
  8
0
100
AcDbCircle
 62
9
  6
CONTINUOUS
 10
13.8232024326
 20
6.0057471824
 40
0.5996147766
100
AcDbArc
 50
75.8457522472
 51
90.0144686695
  0
ARC
  5
31B
100
AcDbEntity
  8
0
100
AcDbCircle
 62
9
  6
CONTINUOUS
 10
13.8228529132
 20
6.0061316565
 40
0.5992286534
100
AcDbArc
 50
89.9810585348
 51
104.1589092384
  0
ARC
  5
31C
100
AcDbEntity
  8
0
100
AcDbCircle
 62
9
  6
CONTINUOUS
 10
13.8230520656
 20
6.0725079121
 40
0.4975001246
100
AcDbArc
 50
74.4498639587
 51
105.5497021285
  0
ARC
  5
31D
100
AcDbEntity
  8
0
100
AcDbCircle
 62
7
  6
CONTINUOUS
 10
11.9655612306
 20
6.0508382007
 40
0.47
100
AcDbArc
 50
324.8405965889
 51
347.6492068003
  0
ARC
  5
31E
100
AcDbEntity
  8
0
100
AcDbCircle
 62
7
  6
CONTINUOUS
 10
13.0849036984
 20
6.3921530747
 40
0.1
100
AcDbArc
 50
90.0
 51
135.0793467699
  0
ARC
  5
31F
100
AcDbEntity
  8
0
100
AcDbCircle
 62
7
  6
CONTINUOUS
 10
12.4905009939
 20
6.0171530747
 40
0.08
100
AcDbArc
 50
193.561676092
 51
209.0618146147
  0
ARC
  5
320
100
AcDbEntity
  8
0
100
AcDbCircle
 62
7
  6
CONTINUOUS
 10
12.871281737
 20
6.2222546301
 40
0.07
100
AcDbArc
 50
90.0
 51
141.0
  0
ARC
  5
321
100
AcDbEntity
  8
0
100
AcDbCircle
 62
7
  6
CONTINUOUS
 10
12.539971428
 20
6.1036493715
 40
0.06
100
AcDbArc
 50
90.0
 51
112.9579434027
  0
ARC
  5
322
100
AcDbEntity
  8
0
100
AcDbCircle
 62
7
  6
CONTINUOUS
 10
12.6223963234
 20
5.9466870551
 40
0.05
100
AcDbArc
 50
141.0
 51
195.3519508339
  0
ARC
  5
323
100
AcDbEntity
  8
0
100
AcDbCircle
 62
7
  6
CONTINUOUS
 10
12.3825133222
 20
5.7571530747
 40
0.04
100
AcDbArc
 50
144.8405965888
 51
270.0
  0
ARC
  5
324
100
AcDbEntity
  8
0
100
AcDbCircle
 62
7
  6
CONTINUOUS
 10
12.3856094556
 20
5.9588627222
 40
0.04
100
AcDbArc
 50
347.6492068002
 51
29.061814615
  0
ARC
  5
325
100
AcDbEntity
  8
0
100
AcDbCircle
 62
7
  6
CONTINUOUS
 10
12.5356077245
 20
5.9228597785
 40
0.04
100
AcDbArc
 50
321.4549572015
 51
15.351950834
  0
ARC
  5
326
100
AcDbEntity
  8
0
100
AcDbCircle
 62
7
  6
CONTINUOUS
 10
12.4418950906
 20
6.0054284779
 40
0.03
100
AcDbArc
 50
143.9299999994
 51
193.5616760922
  0
ARC
  5
327
100
AcDbEntity
  8
0
100
AcDbCircle
 62
7
  6
CONTINUOUS
 10
12.4774917584
 20
5.7471530747
 40
0.03
100
AcDbArc
 50
137.5195783576
 51
270.0
  0
ARC
  5
328
100
AcDbEntity
  8
0
100
AcDbCircle
 62
7
  6
CONTINUOUS
 10
12.3568010139
 20
7.2940031885
 40
2.72
100
AcDbArc
 50
81.3574125268
 51
98.1423248587
  0
ARC
  5
329
100
AcDbEntity
  8
0
100
AcDbCircle
 62
7
  6
CONTINUOUS
 10
13.1730510139
 20
6.7821530747
 40
1.1375
100
AcDbArc
 50
0.0
 51
40.0
  0
ARC
  5
32A
100
AcDbEntity
  8
0
100
AcDbCircle
 62
7
  6
CONTINUOUS
 10
12.7380985726
 20
7.421563736
 40
0.7436461668
100
AcDbArc
 50
34.2732208646
 51
40.0612838167
  0
ARC
  5
32B
100
AcDbEntity
  8
0
100
AcDbCircle
 62
7
  6
CONTINUOUS
 10
13.6147409121
 20
8.1571539998
 40
0.7436461668
100
AcDbArc
 50
219.9387161834
 51
225.7267791353
  0
ARC
  5
32C
100
AcDbEntity
  8
0
100
AcDbCircle
 62
7
  6
CONTINUOUS
 10
13.8230510139
 20
8.327924678
 40
0.7
100
AcDbArc
 50
71.180936631
 51
74.8266367511
  0
ARC
  5
32D
100
AcDbEntity
  8
0
100
AcDbCircle
 62
7
  6
CONTINUOUS
 10
13.8230510139
 20
8.327924678
 40
0.7
100
AcDbArc
 50
105.1733632509
 51
108.819063369
  0
ARC
  5
32E
100
AcDbEntity
  8
0
100
AcDbCircle
 62
7
  6
CONTINUOUS
 10
13.1730510139
 20
6.7821530747
 40
0.1625
100
AcDbArc
 50
0.0
 51
40.0
  0
ARC
  5
32F
100
AcDbEntity
  8
0
100
AcDbCircle
 62
7
  6
CONTINUOUS
 10
13.3179401204
 20
7.6789364002
 40
0.1013515564
100
AcDbArc
 50
130.0746305981
 51
131.6183802937
  0
ARC
  5
330
100
AcDbEntity
  8
0
100
AcDbCircle
 62
7
  6
CONTINUOUS
 10
13.2355510139
 20
6.7821530747
 40
0.1
100
AcDbArc
 50
314.4270040008
 51
360.0
  0
ARC
  5
331
100
AcDbEntity
  8
0
100
AcDbCircle
 62
7
  6
CONTINUOUS
 10
13.3755510139
 20
6.6393245061
 40
0.1
100
AcDbArc
 50
134.4270040008
 51
180.0
  0
ARC
  5
332
100
AcDbEntity
  8
0
100
AcDbCircle
 62
7
  6
CONTINUOUS
 10
13.2567688824
 20
7.6355066307
 40
0.0953004996
100
AcDbArc
 50
128.3326066517
 51
129.9743824565
  0
ARC
  5
333
100
AcDbEntity
  8
0
100
AcDbCircle
 62
7
  6
CONTINUOUS
 10
13.0430510139
 20
6.709154091
 40
0.076
100
AcDbArc
 50
106.5527810609
 51
234.5167977112
  0
ARC
  5
334
100
AcDbEntity
  8
0
100
AcDbCircle
 62
7
  6
CONTINUOUS
 10
12.9815218032
 20
6.6228398035
 40
0.03
100
AcDbArc
 50
308.8918047501
 51
54.5167977112
  0
ARC
  5
335
100
AcDbEntity
  8
0
100
AcDbCircle
 62
7
  6
CONTINUOUS
 10
13.0128517737
 20
6.8107612064
 40
0.03
100
AcDbArc
 50
286.5527810609
 51
0.4250373634
  0
ARC
  5
336
100
AcDbEntity
  8
0
100
AcDbCircle
 62
7
  6
CONTINUOUS
 10
12.8769323992
 20
7.4150837864
 40
0.02
100
AcDbArc
 50
151.1791024384
 51
220.0
  0
ARC
  5
337
100
AcDbEntity
  8
0
100
AcDbCircle
 62
7
  6
CONTINUOUS
 10
13.1661868236
 20
7.070363787
 40
0.02
100
AcDbArc
 50
220.0
 51
310.0
  0
ARC
  5
338
100
AcDbEntity
  8
0
100
AcDbCircle
 62
7
  6
CONTINUOUS
 10
13.5970141757
 20
8.0193041395
 40
0.02
100
AcDbArc
 50
40.0
 51
108.8208975812
  0
ARC
  5
339
100
AcDbEntity
  8
0
100
AcDbCircle
 62
7
  6
CONTINUOUS
 10
12.7580225451
 20
9.9336852305
 40
0.05
100
AcDbArc
 50
23.2375165936
 51
81.3574125267
  0
ARC
  5
33A
100
AcDbEntity
  8
0
100
AcDbCircle
 62
7
  6
CONTINUOUS
 10
11.8280510139
 20
11.2330031885
 40
0.075
100
AcDbArc
 50
90.0
 51
180.0
  0
ARC
  5
33B
100
AcDbEntity
  8
0
100
AcDbCircle
 62
7
  6
CONTINUOUS
 10
11.8407198334
 20
11.2330031885
 40
0.075
100
AcDbArc
 50
23.2375165917
 51
90.0000002547
  0
ARC
  5
33C
100
AcDbEntity
  8
0
100
AcDbCircle
 62
7
  6
CONTINUOUS
 10
11.9555794827
 20
11.2823211465
 40
0.05
100
AcDbArc
 50
203.2375165944
 51
261.3574125267
  0
ARC
  5
33D
100
AcDbEntity
  8
0
100
AcDbCircle
 62
7
  6
CONTINUOUS
 10
12.7580225451
 20
11.2823211465
 40
0.05
100
AcDbArc
 50
278.6425874732
 51
336.7624834087
  0
CIRCLE
  5
33E
100
AcDbEntity
  8
0
100
AcDbCircle
 62
7
  6
CONTINUOUS
 10
13.8230510139
 20
8.547652728
 40
0.49155
  0
CIRCLE
  5
33F
100
AcDbEntity
  8
0
100
AcDbCircle
 62
9
  6
CONTINUOUS
 10
13.8230510139
 20
8.547652728
 40
0.4467172034
  0
CIRCLE
  5
340
100
AcDbEntity
  8
0
100
AcDbCircle
 62
9
  6
CONTINUOUS
 10
13.8230510139
 20
8.547652728
 40
0.2963316422
  0
CIRCLE
  5
341
100
AcDbEntity
  8
0
100
AcDbCircle
 62
9
  6
CONTINUOUS
 10
13.8230510139
 20
8.547652728
 40
0.2495043206
  0
ARC
  5
342
100
AcDbEntity
  8
0
100
AcDbCircle
 62
7
  6
CONTINUOUS
 10
13.6230510139
 20
8.9147807081
 40
0.08
100
AcDbArc
 50
108.819063369
 51
143.8275657825
  0
ARC
  5
343
100
AcDbEntity
  8
0
100
AcDbCircle
 62
7
  6
CONTINUOUS
 10
13.0430510139
 20
9.801657091
 40
0.08
100
AcDbArc
 50
116.4005874121
 51
256.2662090435
  0
ARC
  5
344
100
AcDbEntity
  8
0
100
AcDbCircle
 62
7
  6
CONTINUOUS
 10
12.8780510139
 20
9.9830031885
 40
0.075
100
AcDbArc
 50
270.0
 51
360.0
  0
ARC
  5
345
100
AcDbEntity
  8
0
100
AcDbCircle
 62
7
  6
CONTINUOUS
 10
12.8728821943
 20
9.9830031885
 40
0.075
100
AcDbArc
 50
203.2375165929
 51
270.0
  0
ARC
  5
346
100
AcDbEntity
  8
0
100
AcDbCircle
 62
7
  6
CONTINUOUS
 10
12.994140134
 20
9.9001848832
 40
0.03
100
AcDbArc
 50
296.4005874084
 51
40.4944653761
  0
ARC
  5
347
100
AcDbEntity
  8
0
100
AcDbCircle
 62
7
  6
CONTINUOUS
 10
13.0169357941
 20
9.694802071
 40
0.03
100
AcDbArc
 50
8.9206921814
 51
76.2662090435
  0
ARC
  5
348
100
AcDbEntity
  8
0
100
AcDbCircle
 62
7
  6
CONTINUOUS
 10
13.8230510139
 20
10.6080031885
 40
1.06
100
AcDbArc
 50
214.8395846707
 51
220.4944653712
  0
ARC
  5
349
100
AcDbEntity
  8
0
100
AcDbCircle
 62
7
  6
CONTINUOUS
 10
13.8230510139
 20
10.6080031885
 40
1.06
100
AcDbArc
 50
319.5055346288
 51
68.1213814689
  0
ARC
  5
34A
100
AcDbEntity
  8
0
100
AcDbCircle
 62
7
  6
CONTINUOUS
 10
13.8230510139
 20
10.6080031885
 40
1.06
100
AcDbArc
 50
111.8786185311
 51
145.1604153293
  0
ARC
  5
34B
100
AcDbEntity
  8
0
100
AcDbCircle
 62
7
  6
CONTINUOUS
 10
13.8230510139
 20
11.2231955526
 40
0.9884615385
100
AcDbArc
 50
60.2827711042
 51
119.7172288958
  0
ARC
  5
34C
100
AcDbEntity
  8
0
100
AcDbCircle
 62
7
  6
CONTINUOUS
 10
13.7512823533
 20
12.2898482875
 40
0.66
100
AcDbArc
 50
299.7184980025
 51
329.1754473177
  0
ARC
  5
34D
100
AcDbEntity
  8
0
100
AcDbCircle
 62
7
  6
CONTINUOUS
 10
12.8780510139
 20
11.2330031885
 40
0.075
100
AcDbArc
 50
0.0
 51
90.0
  0
ARC
  5
34E
100
AcDbEntity
  8
0
100
AcDbCircle
 62
7
  6
CONTINUOUS
 10
12.8728821943
 20
11.2330031885
 40
0.075
100
AcDbArc
 50
90.0
 51
156.762483408
  0
ARC
  5
34F
100
AcDbEntity
  8
0
100
AcDbCircle
 62
7
  6
CONTINUOUS
 10
13.4980510139
 20
11.646657091
 40
0.07
100
AcDbArc
 50
90.0
 51
180.0
  0
ARC
  5
350
100
AcDbEntity
  8
0
100
AcDbCircle
 62
7
  6
CONTINUOUS
 10
13.2980510139
 20
12.061657091
 40
0.02
100
AcDbArc
 50
90.0
 51
180.0
  0
ARC
  5
351
100
AcDbEntity
  8
0
100
AcDbCircle
 62
7
  6
CONTINUOUS
 10
13.2980510139
 20
11.971657091
 40
0.02
100
AcDbArc
 50
180.0
 51
270.0
  0
ARC
  5
352
100
AcDbEntity
  8
0
100
AcDbCircle
 62
7
  6
CONTINUOUS
 10
13.2473768197
 20
21.3433970409
 40
10.5495226943
100
AcDbArc
 50
250.3745771135
 51
251.2017883993
  0
ARC
  5
353
100
AcDbEntity
  8
0
100
AcDbCircle
 62
9
  6
CONTINUOUS
 10
13.239477508
 20
21.3207280565
 40
10.5255174486
100
AcDbArc
 50
250.1363430914
 51
250.3736332501
  0
ARC
  5
354
100
AcDbEntity
  8
0
100
AcDbCircle
 62
7
  6
CONTINUOUS
 10
12.3568010139
 20
13.9220031885
 40
2.72
100
AcDbArc
 50
261.3574125269
 51
278.6425874732
  0
ARC
  5
355
100
AcDbEntity
  8
0
100
AcDbCircle
 62
7
  6
CONTINUOUS
 10
52.4742527474
 20
7.1035473106
 40
39.4324871303
100
AcDbArc
 50
179.8781825006
 51
180.4251015363
  0
ARC
  5
356
100
AcDbEntity
  8
0
100
AcDbCircle
 62
7
  6
CONTINUOUS
 10
18.655112439
 20
7.2437529071
 40
4.459
100
AcDbArc
 50
174.150613569
 51
179.5774539241
  0
ARC
  5
357
100
AcDbEntity
  8
0
100
AcDbCircle
 62
7
  6
CONTINUOUS
 10
17.0345058826
 20
7.4557588105
 40
2.5
100
AcDbArc
 50
218.5450427983
 51
222.4804216423
  0
ARC
  5
358
100
AcDbEntity
  8
0
100
AcDbCircle
 62
7
  6
CONTINUOUS
 10
14.5385941082
 20
4.692574061
 40
2.45
100
AcDbArc
 50
128.8918047501
 51
143.0950513574
  0
ARC
  5
359
100
AcDbEntity
  8
0
100
AcDbCircle
 62
7
  6
CONTINUOUS
 10
14.7801973327
 20
9.13447607
 40
2.1515652965
100
AcDbArc
 50
219.9663342468
 51
221.9639547217
  0
ARC
  5
35A
100
AcDbEntity
  8
0
100
AcDbCircle
 62
7
  6
CONTINUOUS
 10
13.853112981
 20
5.6860262168
 40
1.1
100
AcDbArc
 50
33.4373206223
 51
44.9206532301
  0
ARC
  5
35B
100
AcDbEntity
  8
0
100
AcDbCircle
 62
7
  6
CONTINUOUS
 10
13.8948196745
 20
12.2898482875
 40
0.66
100
AcDbArc
 50
210.8245526823
 51
240.2815019975
  0
ARC
  5
35C
100
AcDbEntity
  8
0
100
AcDbCircle
 62
7
  6
CONTINUOUS
 10
15.6805407972
 20
6.0508382007
 40
0.47
100
AcDbArc
 50
192.3507931997
 51
215.1594034111
  0
ARC
  5
35D
100
AcDbEntity
  8
0
100
AcDbCircle
 62
7
  6
CONTINUOUS
 10
14.5611983294
 20
6.3921530747
 40
0.1
100
AcDbArc
 50
44.9206532301
 51
90.0
  0
ARC
  5
35E
100
AcDbEntity
  8
0
100
AcDbCircle
 62
7
  6
CONTINUOUS
 10
14.4105510139
 20
6.7821530747
 40
0.1
100
AcDbArc
 50
180.0
 51
225.5729959992
  0
ARC
  5
35F
100
AcDbEntity
  8
0
100
AcDbCircle
 62
7
  6
CONTINUOUS
 10
14.2705510139
 20
6.6393245061
 40
0.1
100
AcDbArc
 50
0.0
 51
45.5729959992
  0
ARC
  5
360
100
AcDbEntity
  8
0
100
AcDbCircle
 62
7
  6
CONTINUOUS
 10
15.1556010339
 20
6.0171530747
 40
0.08
100
AcDbArc
 50
330.9381853853
 51
346.438323908
  0
ARC
  5
361
100
AcDbEntity
  8
0
100
AcDbCircle
 62
7
  6
CONTINUOUS
 10
14.0230510139
 20
8.9147807081
 40
0.08
100
AcDbArc
 50
36.1724340579
 51
71.180936631
  0
ARC
  5
362
100
AcDbEntity
  8
0
100
AcDbCircle
 62
7
  6
CONTINUOUS
 10
14.6030510139
 20
9.801657091
 40
0.08
100
AcDbArc
 50
283.7337909565
 51
63.5994125879
  0
ARC
  5
363
100
AcDbEntity
  8
0
100
AcDbCircle
 62
7
  6
CONTINUOUS
 10
14.6030510139
 20
6.709154091
 40
0.076
100
AcDbArc
 50
305.4832022888
 51
73.4472189391
  0
ARC
  5
364
100
AcDbEntity
  8
0
100
AcDbCircle
 62
7
  6
CONTINUOUS
 10
14.6030510139
 20
7.497657091
 40
0.076
100
AcDbArc
 50
286.5529380701
 51
75.7260292945
  0
ARC
  5
365
100
AcDbEntity
  8
0
100
AcDbCircle
 62
7
  6
CONTINUOUS
 10
14.1480510139
 20
11.646657091
 40
0.07
100
AcDbArc
 50
0.0
 51
90.0
  0
ARC
  5
366
100
AcDbEntity
  8
0
100
AcDbCircle
 62
7
  6
CONTINUOUS
 10
14.7748202908
 20
6.2222546301
 40
0.07
100
AcDbArc
 50
39.0
 51
90.0
  0
ARC
  5
367
100
AcDbEntity
  8
0
100
AcDbCircle
 62
7
  6
CONTINUOUS
 10
14.2130510139
 20
7.7971530747
 40
0.06
100
AcDbArc
 50
0.0
 51
90.0
  0
ARC
  5
368
100
AcDbEntity
  8
0
100
AcDbCircle
 62
7
  6
CONTINUOUS
 10
14.2130510139
 20
7.7923138716
 40
0.06
100
AcDbArc
 50
303.3475728867
 51
0.0000008682
  0
ARC
  5
369
100
AcDbEntity
  8
0
100
AcDbCircle
 62
7
  6
CONTINUOUS
 10
14.2790170062
 20
7.6920717255
 40
0.06
100
AcDbArc
 50
123.3475728944
 51
174.1506135687
  0
ARC
  5
36A
100
AcDbEntity
  8
0
100
AcDbCircle
 62
7
  6
CONTINUOUS
 10
15.1061305998
 20
6.1036493715
 40
0.06
100
AcDbArc
 50
67.0420565973
 51
90.0
  0
ARC
  5
36B
100
AcDbEntity
  8
0
100
AcDbCircle
 62
7
  6
CONTINUOUS
 10
15.0237057044
 20
5.9466870551
 40
0.05
100
AcDbArc
 50
344.6480491661
 51
39.0
  0
ARC
  5
36C
100
AcDbEntity
  8
0
100
AcDbCircle
 62
7
  6
CONTINUOUS
 10
15.2635887055
 20
5.7571530747
 40
0.04
100
AcDbArc
 50
270.0
 51
35.1594034112
  0
ARC
  5
36D
100
AcDbEntity
  8
0
100
AcDbCircle
 62
7
  6
CONTINUOUS
 10
15.2604925722
 20
5.9588627222
 40
0.04
100
AcDbArc
 50
150.938185385
 51
192.3507931998
  0
ARC
  5
36E
100
AcDbEntity
  8
0
100
AcDbCircle
 62
7
  6
CONTINUOUS
 10
15.1104943032
 20
5.9228597785
 40
0.04
100
AcDbArc
 50
164.648049166
 51
218.5450427985
  0
ARC
  5
36F
100
AcDbEntity
  8
0
100
AcDbCircle
 62
7
  6
CONTINUOUS
 10
15.2042069371
 20
6.0054284779
 40
0.03
100
AcDbArc
 50
346.4383239078
 51
36.0700000006
  0
ARC
  5
370
100
AcDbEntity
  8
0
100
AcDbCircle
 62
7
  6
CONTINUOUS
 10
15.1686102694
 20
5.7471530747
 40
0.03
100
AcDbArc
 50
270.0
 51
42.4804216424
  0
ARC
  5
371
100
AcDbEntity
  8
0
100
AcDbCircle
 62
7
  6
CONTINUOUS
 10
14.6645802246
 20
6.6228398035
 40
0.03
100
AcDbArc
 50
125.4832022888
 51
231.1081952499
  0
ARC
  5
372
100
AcDbEntity
  8
0
100
AcDbCircle
 62
7
  6
CONTINUOUS
 10
14.633250254
 20
6.8107612064
 40
0.03
100
AcDbArc
 50
179.5749626366
 51
253.4472189391
  0
ARC
  5
373
100
AcDbEntity
  8
0
100
AcDbCircle
 62
7
  6
CONTINUOUS
 10
14.6519618937
 20
9.9001848832
 40
0.03
100
AcDbArc
 50
139.5055346288
 51
243.5994125879
  0
ARC
  5
374
100
AcDbEntity
  8
0
100
AcDbCircle
 62
7
  6
CONTINUOUS
 10
14.6332505325
 20
7.3960500584
 40
0.03
100
AcDbArc
 50
106.5529380701
 51
180.4255751798
  0
ARC
  5
375
100
AcDbEntity
  8
0
100
AcDbCircle
 62
7
  6
CONTINUOUS
 10
14.6291862431
 20
7.6003846423
 40
0.03
100
AcDbArc
 50
188.9217605135
 51
255.7260292945
  0
ARC
  5
376
100
AcDbEntity
  8
0
100
AcDbCircle
 62
7
  6
CONTINUOUS
 10
14.6291662337
 20
9.694802071
 40
0.03
100
AcDbArc
 50
103.7337909565
 51
171.0793078186
  0
ARC
  5
377
100
AcDbEntity
  8
0
100
AcDbCircle
 62
7
  6
CONTINUOUS
 10
14.3480510139
 20
12.061657091
 40
0.02
100
AcDbArc
 50
0.0
 51
90.0
  0
ARC
  5
378
100
AcDbEntity
  8
0
100
AcDbCircle
 62
7
  6
CONTINUOUS
 10
14.3480510139
 20
11.971657091
 40
0.02
100
AcDbArc
 50
270.0
 51
360.0
  0
ARC
  5
379
100
AcDbEntity
  8
0
100
AcDbCircle
 62
7
  6
CONTINUOUS
 10
13.8862686001
 20
7.6745841401
 40
0.02
100
AcDbArc
 50
310.0
 51
40.0
  0
SPLINE
  5
37A
100
AcDbEntity
  8
0
100
AcDbSpline
 62
7
  6
CONTINUOUS
 70
0
 71
3
 72
19
 73
15
 74
0
 42
0.0000001
 43
0.0000001
 44
0.0000000001
 40
0.0
 40
0.0
 40
0.0
 40
0.0
 40
0.0189998375
 40
0.0400394188
 40
0.0654303595
 40
0.0965168169
 40
0.1339996416
 40
0.1782501338
 40
0.2294637277
 40
0.2877083623
 40
0.4252504768
 40
0.5904899699
 40
0.7825572749
 40
1.0
 40
1.0
 40
1.0
 40
1.0
 10
8.9651491584
 20
11.087690212
 30
0.0
 10
8.9651637105
 20
11.0877227442
 30
0.0
 10
8.9651797845
 20
11.0877987134
 30
0.0
 10
8.9651559532
 20
11.0879214242
 30
0.0
 10
8.9650900081
 20
11.0880522891
 30
0.0
 10
8.9649833866
 20
11.0881933944
 30
0.0
 10
8.9648359926
 20
11.0883457355
 30
0.0
 10
8.9646476333
 20
11.0885094963
 30
0.0
 10
8.9644183465
 20
11.0886845329
 30
0.0
 10
8.9640367018
 20
11.088947455
 30
0.0
 10
8.9634568575
 20
11.089298259
 30
0.0
 10
8.9626398757
 20
11.0897392682
 30
0.0
 10
8.9616731375
 20
11.0902168377
 30
0.0
 10
8.9609752832
 20
11.0905380114
 30
0.0
 10
8.960603009
 20
11.0907046399
 30
0.0
  0
SPLINE
  5
37B
100
AcDbEntity
  8
0
100
AcDbSpline
 62
7
  6
CONTINUOUS
 70
0
 71
3
 72
22
 73
18
 74
0
 42
0.0000001
 43
0.0000001
 44
0.0000000001
 40
0.0
 40
0.0
 40
0.0
 40
0.0
 40
0.008859301
 40
0.0180725574
 40
0.028072547
 40
0.0391978287
 40
0.0656783443
 40
0.0987243467
 40
0.1388096563
 40
0.1860860125
 40
0.2405044782
 40
0.3019028401
 40
0.3700183297
 40
0.4445220688
 40
0.6110451863
 40
0.7976908713
 40
1.0
 40
1.0
 40
1.0
 40
1.0
 10
8.8248841071
 20
11.1485168365
 30
0.0
 10
8.8249040923
 20
11.148561498
 30
0.0
 10
8.8249339364
 20
11.1486579349
 30
0.0
 10
8.8249438146
 20
11.1488138908
 30
0.0
 10
8.8249197551
 20
11.1489807203
 30
0.0
 10
8.8248385762
 20
11.1492318207
 30
0.0
 10
8.8246429716
 20
11.1495734803
 30
0.0
 10
8.8242956084
 20
11.1500015206
 30
0.0
 10
8.8238226934
 20
11.1504704878
 30
0.0
 10
8.8232257932
 20
11.1509780732
 30
0.0
 10
8.8225073475
 20
11.1515220132
 30
0.0
 10
8.8216710293
 20
11.1520990924
 30
0.0
 10
8.8207214924
 20
11.1527060766
 30
0.0
 10
8.8192564958
 20
11.1535833113
 30
0.0
 10
8.817184813
 20
11.1547195877
 30
0.0
 10
8.8144419272
 20
11.1560948359
 30
0.0
 10
8.8124925808
 20
11.1569982783
 30
0.0
 10
8.8114727427
 20
11.1574547538
 30
0.0
  0
SPLINE
  5
37C
100
AcDbEntity
  8
0
100
AcDbSpline
 62
7
  6
CONTINUOUS
 70
0
 71
3
 72
25
 73
21
 74
0
 42
0.0000001
 43
0.0000001
 44
0.0000000001
 40
0.0
 40
0.0
 40
0.0
 40
0.0
 40
0.0077312556
 40
0.0162564458
 40
0.0261137644
 40
0.0376436813
 40
0.0510453656
 40
0.0664250112
 40
0.0838366304
 40
0.1032953886
 40
0.1482899186
 40
0.2011455489
 40
0.2613891608
 40
0.3283981373
 40
0.4014272032
 40
0.4796245446
 40
0.5620466911
 40
0.6476737554
 40
0.8241528086
 40
1.0
 40
1.0
 40
1.0
 40
1.0
 10
8.655767221
 20
11.2217758581
 30
0.0
 10
8.6557983935
 20
11.2218454995
 30
0.0
 10
8.6558390972
 20
11.2220039674
 30
0.0
 10
8.6558273125
 20
11.2222641266
 30
0.0
 10
8.6557490366
 20
11.2225505771
 30
0.0
 10
8.6556061051
 20
11.2228638962
 30
0.0
 10
8.6553991541
 20
11.2232044548
 30
0.0
 10
8.6551286361
 20
11.2235719507
 30
0.0
 10
8.6547950479
 20
11.2239655827
 30
0.0
 10
8.6542397059
 20
11.2245528114
 30
0.0
 10
8.653387983
 20
11.2253387578
 30
0.0
 10
8.6521796211
 20
11.2263266651
 30
0.0
 10
8.6507532306
 20
11.2273881292
 30
0.0
 10
8.6491257502
 20
11.2285104047
 30
0.0
 10
8.6473167702
 20
11.2296797975
 30
0.0
 10
8.6453487502
 20
11.2308818679
 30
0.0
 10
8.6432465802
 20
11.232101591
 30
0.0
 10
8.6402709383
 20
11.2337471713
 30
0.0
 10
8.6364288692
 20
11.2357292001
 30
0.0
 10
8.6332827229
 20
11.2372118978
 30
0.0
 10
8.6316987191
 20
11.2379208916
 30
0.0
  0
SPLINE
  5
37D
100
AcDbEntity
  8
0
100
AcDbSpline
 62
7
  6
CONTINUOUS
 70
0
 71
3
 72
27
 73
23
 74
0
 42
0.0000001
 43
0.0000001
 44
0.0000000001
 40
0.0
 40
0.0
 40
0.0
 40
0.0
 40
0.0131157479
 40
0.0177738812
 40
0.0230687235
 40
0.0356405251
 40
0.0509101327
 40
0.0688702486
 40
0.0894681542
 40
0.1126229625
 40
0.1661716143
 40
0.2285064188
 40
0.2983984949
 40
0.3744409847
 40
0.4550785469
 40
0.5386300907
 40
0.6233205689
 40
0.7073128968
 40
0.7887530715
 40
0.865817177
 40
0.9367648557
 40
1.0
 40
1.0
 40
1.0
 40
1.0
 10
8.5091893261
 20
11.2851936827
 30
0.0
 10
8.5092618749
 20
11.2853557686
 30
0.0
 10
8.5092001886
 20
11.2856263639
 30
0.0
 10
8.5090716647
 20
11.2859057909
 30
0.0
 10
8.5089213717
 20
11.2861729769
 30
0.0
 10
8.5086624912
 20
11.2865396551
 30
0.0
 10
8.5082644684
 20
11.2870160764
 30
0.0
 10
8.5077647631
 20
11.2875469247
 30
0.0
 10
8.507165786
 20
11.2881298253
 30
0.0
 10
8.5061903026
 20
11.2890155636
 30
0.0
 10
8.5047430356
 20
11.2902206746
 30
0.0
 10
8.5027498
 20
11.2917555359
 30
0.0
 10
8.5004648456
 20
11.2934086344
 30
0.0
 10
8.4979358624
 20
11.295145446
 30
0.0
 10
8.4952159759
 20
11.2969296165
 30
0.0
 10
8.4923633084
 20
11.2987236632
 30
0.0
 10
8.4894398673
 20
11.3004894293
 30
0.0
 10
8.4865103511
 20
11.3021888184
 30
0.0
 10
8.4836407132
 20
11.3037845828
 30
0.0
 10
8.4808964712
 20
11.3052413025
 30
0.0
 10
8.4783409205
 20
11.3065262943
 30
0.0
 10
8.4766964156
 20
11.3072993061
 30
0.0
 10
8.4759149485
 20
11.3076490877
 30
0.0
  0
SPLINE
  5
37E
100
AcDbEntity
  8
0
100
AcDbSpline
 62
7
  6
CONTINUOUS
 70
0
 71
3
 72
18
 73
14
 74
0
 42
0.0000001
 43
0.0000001
 44
0.0000000001
 40
0.0
 40
0.0
 40
0.0
 40
0.0
 40
0.0092873458
 40
0.0160619063
 40
0.0245292905
 40
0.0468544578
 40
0.0765979366
 40
0.1585922979
 40
0.2704430972
 40
0.4115085878
 40
0.5808872319
 40
0.7774800916
 40
1.0
 40
1.0
 40
1.0
 40
1.0
 10
8.4297172068
 20
11.3195447216
 30
0.0
 10
8.4297230138
 20
11.3195577004
 30
0.0
 10
8.429719302
 20
11.3195847001
 30
0.0
 10
8.4297050521
 20
11.3196188629
 30
0.0
 10
8.4296766322
 20
11.3196692811
 30
0.0
 10
8.4296210093
 20
11.3197435321
 30
0.0
 10
8.4294855208
 20
11.3198979065
 30
0.0
 10
8.4292398289
 20
11.3201367554
 30
0.0
 10
8.4288571636
 20
11.320478049
 30
0.0
 10
8.428362279
 20
11.3208942223
 30
0.0
 10
8.4277587174
 20
11.321382408
 30
0.0
 10
8.4270501213
 20
11.3219388962
 30
0.0
 10
8.4265411032
 20
11.3223295754
 30
0.0
 10
8.4262699639
 20
11.32253583
 30
0.0
  0
SPLINE
  5
37F
100
AcDbEntity
  8
0
100
AcDbSpline
 62
7
  6
CONTINUOUS
 70
0
 71
3
 72
17
 73
13
 74
0
 42
0.0000001
 43
0.0000001
 44
0.0000000001
 40
0.0
 40
0.0
 40
0.0
 40
0.0
 40
0.0479693281
 40
0.1026313574
 40
0.2284571926
 40
0.3696775626
 40
0.51770714
 40
0.6635285811
 40
0.7980841937
 40
0.9127626116
 40
0.9602254974
 40
1.0
 40
1.0
 40
1.0
 40
1.0
 10
8.4262699639
 20
11.32253583
 30
0.0
 10
8.425768636
 20
11.3229171882
 30
0.0
 10
8.4246896507
 20
11.323724727
 30
0.0
 10
8.4222679978
 20
11.3254953935
 30
0.0
 10
8.4188229992
 20
11.3279406445
 30
0.0
 10
8.4143358357
 20
11.331034799
 30
0.0
 10
8.4095942117
 20
11.3342217455
 30
0.0
 10
8.4048905881
 20
11.3373077117
 30
0.0
 10
8.4005208425
 20
11.340103566
 30
0.0
 10
8.3972122415
 20
11.3421610505
 30
0.0
 10
8.3949404032
 20
11.343528087
 30
0.0
 10
8.3939515635
 20
11.344106495
 30
0.0
 10
8.3934981012
 20
11.3443656339
 30
0.0
  0
LINE
  5
380
100
AcDbEntity
  8
0
100
AcDbLine
 62
7
  6
CONTINUOUS
 10
8.3934981012
 20
11.3443656339
 11
8.3914647119
 21
11.3454486776
  0
SPLINE
  5
381
100
AcDbEntity
  8
0
100
AcDbSpline
 62
7
  6
CONTINUOUS
 70
0
 71
3
 72
17
 73
13
 74
0
 42
0.0000001
 43
0.0000001
 44
0.0000000001
 40
0.0
 40
0.0
 40
0.0
 40
0.0
 40
0.0196516612
 40
0.0410006136
 40
0.0663223793
 40
0.0970176536
 40
0.1772591166
 40
0.2849010819
 40
0.4209180842
 40
0.5856157642
 40
0.7787937358
 40
1.0
 40
1.0
 40
1.0
 40
1.0
 10
9.1817224508
 20
11.0523595467
 30
0.0
 10
9.1817279457
 20
11.0523718365
 30
0.0
 10
9.1817343582
 20
11.0524000671
 30
0.0
 10
9.1817268414
 20
11.052445706
 30
0.0
 10
9.1817040238
 20
11.0524940375
 30
0.0
 10
9.1816488872
 20
11.0525697938
 30
0.0
 10
9.1815378698
 20
11.0526718388
 30
0.0
 10
9.1813575084
 20
11.0528012465
 30
0.0
 10
9.181118132
 20
11.0529465028
 30
0.0
 10
9.1808202814
 20
11.05310714
 30
0.0
 10
9.1804644392
 20
11.0532826479
 30
0.0
 10
9.180206491
 20
11.0534012321
 30
0.0
 10
9.1800681777
 20
11.0534631406
 30
0.0
  0
SPLINE
  5
382
100
AcDbEntity
  8
0
100
AcDbSpline
 62
7
  6
CONTINUOUS
 70
0
 71
3
 72
19
 73
15
 74
0
 42
0.0000001
 43
0.0000001
 44
0.0000000001
 40
0.0
 40
0.0
 40
0.0
 40
0.0
 40
0.0191705803
 40
0.0404401644
 40
0.0661080836
 40
0.0974982577
 40
0.1353162287
 40
0.1799140623
 40
0.2314570887
 40
0.2900127326
 40
0.4279979532
 40
0.5932071528
 40
0.7844660905
 40
1.0
 40
1.0
 40
1.0
 40
1.0
 10
9.0853372701
 20
11.0946202903
 30
0.0
 10
9.08535555
 20
11.0946611227
 30
0.0
 10
9.0853757743
 20
11.094756565
 30
0.0
 10
9.0853460704
 20
11.094910833
 30
0.0
 10
9.0852637814
 20
11.0950756282
 30
0.0
 10
9.0851306782
 20
11.0952535216
 30
0.0
 10
9.0849465641
 20
11.0954455475
 30
0.0
 10
9.0847113579
 20
11.0956518904
 30
0.0
 10
9.0844252211
 20
11.0958723107
 30
0.0
 10
9.0839496003
 20
11.0962027053
 30
0.0
 10
9.0832282004
 20
11.096642436
 30
0.0
 10
9.0822139084
 20
11.0971931447
 30
0.0
 10
9.0810177944
 20
11.0977862709
 30
0.0
 10
9.0801555304
 20
11.0981836441
 30
0.0
 10
9.07969644
 20
11.0983891311
 30
0.0
  0
SPLINE
  5
383
100
AcDbEntity
  8
0
100
AcDbSpline
 62
7
  6
CONTINUOUS
 70
0
 71
3
 72
20
 73
16
 74
0
 42
0.0000001
 43
0.0000001
 44
0.0000000001
 40
0.0
 40
0.0
 40
0.0
 40
0.0
 40
0.0091007618
 40
0.0185002841
 40
0.0396896458
 40
0.0660034938
 40
0.0986257463
 40
0.1381056258
 40
0.184644159
 40
0.2382666495
 40
0.2988640854
 40
0.4401578431
 40
0.6062761989
 40
0.7941307972
 40
1.0
 40
1.0
 40
1.0
 40
1.0
 10
8.9447700289
 20
11.1562392189
 30
0.0
 10
8.9447876058
 20
11.1562784945
 30
0.0
 10
8.9448142619
 20
11.1563627504
 30
0.0
 10
8.9448292723
 20
11.1565512261
 30
0.0
 10
8.9447655331
 20
11.1568186316
 30
0.0
 10
8.9445824954
 20
11.1571528582
 30
0.0
 10
8.944293986
 20
11.1575198205
 30
0.0
 10
8.9438992561
 20
11.1579194633
 30
0.0
 10
8.9433991872
 20
11.158351331
 30
0.0
 10
8.9427952845
 20
11.1588134306
 30
0.0
 10
8.9418029442
 20
11.1595030181
 30
0.0
 10
8.9403192673
 20
11.1604143853
 30
0.0
 10
8.9382659178
 20
11.1615412698
 30
0.0
 10
8.9358985389
 20
11.1627265335
 30
0.0
 10
8.9342089789
 20
11.16350874
 30
0.0
 10
8.9333205443
 20
11.1639063998
 30
0.0
  0
SPLINE
  5
384
100
AcDbEntity
  8
0
100
AcDbSpline
 62
7
  6
CONTINUOUS
 70
0
 71
3
 72
24
 73
20
 74
0
 42
0.0000001
 43
0.0000001
 44
0.0000000001
 40
0.0
 40
0.0
 40
0.0
 40
0.0
 40
0.0084362168
 40
0.0173977461
 40
0.027356334
 40
0.0386521984
 40
0.0515136236
 40
0.0660854848
 40
0.1006531743
 40
0.1426963247
 40
0.1921933666
 40
0.2489322137
 40
0.3125710152
 40
0.3826571406
 40
0.4586515028
 40
0.5399407777
 40
0.6258409068
 40
0.8084357825
 40
1.0
 40
1.0
 40
1.0
 40
1.0
 10
8.7786888404
 20
11.2290206036
 30
0.0
 10
8.7787148197
 20
11.2290786431
 30
0.0
 10
8.7787520325
 20
11.2292063147
 30
0.0
 10
8.7787572165
 20
11.2294142861
 30
0.0
 10
8.7787143169
 20
11.2296393543
 30
0.0
 10
8.778624719
 20
11.229881336
 30
0.0
 10
8.7784890154
 20
11.2301404907
 30
0.0
 10
8.7782318513
 20
11.2305314064
 30
0.0
 10
8.777786484
 20
11.2310576827
 30
0.0
 10
8.7771038712
 20
11.2317203302
 30
0.0
 10
8.7762487957
 20
11.2324412236
 30
0.0
 10
8.7752276796
 20
11.2332144832
 30
0.0
 10
8.7740482647
 20
11.2340336187
 30
0.0
 10
8.7727203122
 20
11.2348916135
 30
0.0
 10
8.7712551005
 20
11.2357809872
 30
0.0
 10
8.7696653976
 20
11.2366938861
 30
0.0
 10
8.7673511527
 20
11.2379573854
 30
0.0
 10
8.7642590061
 20
11.2395288307
 30
0.0
 10
8.7617028737
 20
11.2407217864
 30
0.0
 10
8.7603849396
 20
11.2413116885
 30
0.0
  0
SPLINE
  5
385
100
AcDbEntity
  8
0
100
AcDbSpline
 62
7
  6
CONTINUOUS
 70
0
 71
3
 72
22
 73
18
 74
0
 42
0.0000001
 43
0.0000001
 44
0.0000000001
 40
0.0
 40
0.0
 40
0.0
 40
0.0
 40
0.0362063389
 40
0.0497850352
 40
0.0654202866
 40
0.0831508264
 40
0.1029834657
 40
0.1248989898
 40
0.1488589626
 40
0.2026940211
 40
0.263948429
 40
0.3319239447
 40
0.4057979081
 40
0.4846389133
 40
0.6530269221
 40
0.8280443779
 40
1.0
 40
1.0
 40
1.0
 40
1.0
 10
8.6091532472
 20
11.3032903291
 30
0.0
 10
8.6093064929
 20
11.303632684
 30
0.0
 10
8.6090907917
 20
11.3042179848
 30
0.0
 10
8.6087366019
 20
11.3047774217
 30
0.0
 10
8.6084418962
 20
11.3051690957
 30
0.0
 10
8.608082122
 20
11.3055855646
 30
0.0
 10
8.6076556089
 20
11.3060310474
 30
0.0
 10
8.6071644269
 20
11.3065024339
 30
0.0
 10
8.6063944502
 20
11.307191348
 30
0.0
 10
8.6052777733
 20
11.3081024666
 30
0.0
 10
8.6037572504
 20
11.3092366386
 30
0.0
 10
8.6020274683
 20
11.3104352334
 30
0.0
 10
8.6001110175
 20
11.3116824795
 30
0.0
 10
8.5972779386
 20
11.3134264398
 30
0.0
 10
8.5934758753
 20
11.315592483
 30
0.0
 10
8.5887381862
 20
11.3180564006
 30
0.0
 10
8.5854882142
 20
11.319594767
 30
0.0
 10
8.5838622441
 20
11.3203225448
 30
0.0
  0
SPLINE
  5
386
100
AcDbEntity
  8
0
100
AcDbSpline
 62
7
  6
CONTINUOUS
 70
0
 71
3
 72
28
 73
24
 74
0
 42
0.0000001
 43
0.0000001
 44
0.0000000001
 40
0.0
 40
0.0
 40
0.0
 40
0.0
 40
0.0062472319
 40
0.0098861138
 40
0.0139926943
 40
0.0238270048
 40
0.0360475659
 40
0.0507585691
 40
0.0679820859
 40
0.087690544
 40
0.1098280804
 40
0.161051727
 40
0.220838716
 40
0.2881614004
 40
0.3618240115
 40
0.4404882115
 40
0.5226924397
 40
0.6068778994
 40
0.6914131034
 40
0.7746313874
 40
0.8548659514
 40
0.9304982677
 40
1.0
 40
1.0
 40
1.0
 40
1.0
 10
8.4586850218
 20
11.3691844788
 30
0.0
 10
8.4587177924
 20
11.3692577117
 30
0.0
 10
8.458737649
 20
11.3693884771
 30
0.0
 10
8.4587162753
 20
11.3695670183
 30
0.0
 10
8.4586578589
 20
11.3697859217
 30
0.0
 10
8.4585152673
 20
11.3700923482
 30
0.0
 10
8.4582601714
 20
11.3704905086
 30
0.0
 10
8.4579113861
 20
11.3709384181
 30
0.0
 10
8.4574702346
 20
11.3714340819
 30
0.0
 10
8.4569383711
 20
11.3719753573
 30
0.0
 10
8.456067982
 20
11.3727948709
 30
0.0
 10
8.4547672942
 20
11.3739063178
 30
0.0
 10
8.4529638548
 20
11.3753187355
 30
0.0
 10
8.4508818377
 20
11.3768404613
 30
0.0
 10
8.4485599672
 20
11.378442903
 30
0.0
 10
8.4460417194
 20
11.3800957692
 30
0.0
 10
8.4433751418
 20
11.3817676249
 30
0.0
 10
8.4406120068
 20
11.3834262458
 30
0.0
 10
8.4378069347
 20
11.3850391912
 30
0.0
 10
8.4350163498
 20
11.3865744104
 30
0.0
 10
8.4322971654
 20
11.3880010258
 30
0.0
 10
8.4297054697
 20
11.3892900248
 30
0.0
 10
8.4280162792
 20
11.3900785787
 30
0.0
 10
8.4272015823
 20
11.3904432338
 30
0.0
  0
SPLINE
  5
387
100
AcDbEntity
  8
0
100
AcDbSpline
 62
7
  6
CONTINUOUS
 70
0
 71
3
 72
17
 73
13
 74
0
 42
0.0000001
 43
0.0000001
 44
0.0000000001
 40
0.0
 40
0.0
 40
0.0
 40
0.0
 40
0.0406310818
 40
0.0680088097
 40
0.1012082929
 40
0.1406435594
 40
0.1865275759
 40
0.2979193087
 40
0.435537483
 40
0.5989400998
 40
0.7874113528
 40
1.0
 40
1.0
 40
1.0
 40
1.0
 10
8.3472764688
 20
11.4179590426
 30
0.0
 10
8.3473009688
 20
11.4180137471
 30
0.0
 10
8.3472972931
 20
11.4181224403
 30
0.0
 10
8.3472506108
 20
11.4182631405
 30
0.0
 10
8.3471861509
 20
11.41839671
 30
0.0
 10
8.3470952538
 20
11.4185461068
 30
0.0
 10
8.3469276428
 20
11.4187832838
 30
0.0
 10
8.3466483326
 20
11.4191175284
 30
0.0
 10
8.3462299403
 20
11.4195595077
 30
0.0
 10
8.345710857
 20
11.4200617755
 30
0.0
 10
8.3450939957
 20
11.4206212897
 30
0.0
 10
8.3446458921
 20
11.4210077228
 30
0.0
 10
8.3444064431
 20
11.4212102571
 30
0.0
  0
SPLINE
  5
388
100
AcDbEntity
  8
0
100
AcDbSpline
 62
7
  6
CONTINUOUS
 70
0
 71
3
 72
19
 73
15
 74
0
 42
0.0000001
 43
0.0000001
 44
0.0000000001
 40
0.0
 40
0.0
 40
0.0
 40
0.0
 40
0.0463988584
 40
0.0995538367
 40
0.1586622831
 40
0.2228354402
 40
0.3624619603
 40
0.5100462255
 40
0.6565485513
 40
0.7927335587
 40
0.8541655443
 40
0.9097775435
 40
0.9586563275
 40
1.0
 40
1.0
 40
1.0
 40
1.0
 10
8.3444064431
 20
11.4212102571
 30
0.0
 10
8.3439408276
 20
11.4216040911
 30
0.0
 10
8.3429263506
 20
11.4224308634
 30
0.0
 10
8.3412774582
 20
11.4237077607
 30
0.0
 10
8.339416065
 20
11.4250910509
 30
0.0
 10
8.3366086568
 20
11.4271059496
 30
0.0
 10
8.332798163
 20
11.4297164958
 30
0.0
 10
8.3280209892
 20
11.4328276235
 30
0.0
 10
8.323214448
 20
11.4358081936
 30
0.0
 10
8.3193158964
 20
11.4381023391
 30
0.0
 10
8.3164105927
 20
11.4397263833
 30
0.0
 10
8.3144889252
 20
11.4407577238
 30
0.0
 10
8.312781019
 20
11.4416281062
 30
0.0
 10
8.3117096025
 20
11.4421369845
 30
0.0
 10
8.3112136226
 20
11.4423589832
 30
0.0
  0
LINE
  5
389
100
AcDbEntity
  8
0
100
AcDbLine
 62
7
  6
CONTINUOUS
 10
8.2897323807
 20
11.4431468706
 11
8.2871056546
 21
11.4453580855
  0
SPLINE
  5
38A
100
AcDbEntity
  8
0
100
AcDbSpline
 62
7
  6
CONTINUOUS
 70
0
 71
3
 72
17
 73
13
 74
0
 42
0.0000001
 43
0.0000001
 44
0.0000000001
 40
0.0
 40
0.0
 40
0.0
 40
0.0
 40
0.0442812306
 40
0.096444544
 40
0.2204154106
 40
0.3630153775
 40
0.5143096408
 40
0.6638215737
 40
0.8010294272
 40
0.9159698842
 40
0.9623141165
 40
1.0
 40
1.0
 40
1.0
 40
1.0
 10
8.2871056546
 20
11.4453580855
 30
0.0
 10
8.286621716
 20
11.4457225019
 30
0.0
 10
8.2855614618
 20
11.4465079208
 30
0.0
 10
8.2831203981
 20
11.4482783334
 30
0.0
 10
8.2795594543
 20
11.4507953284
 30
0.0
 10
8.2748551847
 20
11.4540436635
 30
0.0
 10
8.2698307085
 20
11.4574427513
 30
0.0
 10
8.2648376011
 20
11.4607561313
 30
0.0
 10
8.26023076
 20
11.4637516363
 30
0.0
 10
8.256783589
 20
11.465941196
 30
0.0
 10
8.2544670249
 20
11.4673706598
 30
0.0
 10
8.253481785
 20
11.4679631143
 30
0.0
 10
8.2530372355
 20
11.4682242476
 30
0.0
  0
LINE
  5
38B
100
AcDbEntity
  8
0
100
AcDbLine
 62
7
  6
CONTINUOUS
 10
8.2530372355
 20
11.4682242476
 11
8.2513061068
 21
11.4691733489
  0
LINE
  5
38C
100
AcDbEntity
  8
0
100
AcDbLine
 62
7
  6
CONTINUOUS
 10
9.4030732447
 20
11.0181609794
 11
9.4024126314
 21
11.0186033822
  0
SPLINE
  5
38D
100
AcDbEntity
  8
0
100
AcDbSpline
 62
7
  6
CONTINUOUS
 70
0
 71
3
 72
17
 73
13
 74
0
 42
0.0000001
 43
0.0000001
 44
0.0000000001
 40
0.0
 40
0.0
 40
0.0
 40
0.0
 40
0.0197256049
 40
0.0411986107
 40
0.0666987012
 40
0.0976255756
 40
0.1783950138
 40
0.2865477252
 40
0.4229260592
 40
0.5876037877
 40
0.7802341003
 40
1.0
 40
1.0
 40
1.0
 40
1.0
 10
9.3383092061
 20
11.0467180728
 30
0.0
 10
9.3383178821
 20
11.0467374663
 30
0.0
 10
9.3383279947
 20
11.0467820712
 30
0.0
 10
9.3383161159
 20
11.0468542293
 30
0.0
 10
9.3382800548
 20
11.0469307685
 30
0.0
 10
9.338192919
 20
11.0470507997
 30
0.0
 10
9.3380177564
 20
11.0472125827
 30
0.0
 10
9.3377334277
 20
11.0474175968
 30
0.0
 10
9.3373567253
 20
11.0476471846
 30
0.0
 10
9.3368890171
 20
11.0479003792
 30
0.0
 10
9.3363317287
 20
11.0481758729
 30
0.0
 10
9.3359281747
 20
11.0483615605
 30
0.0
 10
9.3357121269
 20
11.0484582626
 30
0.0
  0
SPLINE
  5
38E
100
AcDbEntity
  8
0
100
AcDbSpline
 62
7
  6
CONTINUOUS
 70
0
 71
3
 72
19
 73
15
 74
0
 42
0.0000001
 43
0.0000001
 44
0.0000000001
 40
0.0
 40
0.0
 40
0.0
 40
0.0
 40
0.0193166594
 40
0.0407083394
 40
0.0664669664
 40
0.0979194413
 40
0.1357764488
 40
0.1803962272
 40
0.2319459762
 40
0.290494821
 40
0.4284329938
 40
0.593549053
 40
0.78466463
 40
1.0
 40
1.0
 40
1.0
 40
1.0
 10
9.2352835062
 20
11.0921435637
 30
0.0
 10
9.2353020688
 20
11.0921850323
 30
0.0
 10
9.2353227641
 20
11.0922817752
 30
0.0
 10
9.2352934037
 20
11.0924382203
 30
0.0
 10
9.2352109636
 20
11.092605301
 30
0.0
 10
9.2350772994
 20
11.0927855324
 30
0.0
 10
9.2348922267
 20
11.0929799542
 30
0.0
 10
9.234655664
 20
11.0931887376
 30
0.0
 10
9.2343677806
 20
11.0934116448
 30
0.0
 10
9.2338891822
 20
11.0937455658
 30
0.0
 10
9.2331630324
 20
11.0941896619
 30
0.0
 10
9.2321418427
 20
11.094745353
 30
0.0
 10
9.2309375085
 20
11.0953433068
 30
0.0
 10
9.230069231
 20
11.0957436026
 30
0.0
 10
9.2296069472
 20
11.095950519
 30
0.0
  0
SPLINE
  5
38F
100
AcDbEntity
  8
0
100
AcDbSpline
 62
7
  6
CONTINUOUS
 70
0
 71
3
 72
20
 73
16
 74
0
 42
0.0000001
 43
0.0000001
 44
0.0000000001
 40
0.0
 40
0.0
 40
0.0
 40
0.0
 40
0.0093011704
 40
0.0188527471
 40
0.0401538008
 40
0.0663148994
 40
0.0985786828
 40
0.1375361173
 40
0.1834541157
 40
0.2363958678
 40
0.2963192112
 40
0.4364981965
 40
0.6022569763
 40
0.791121794
 40
1.0
 40
1.0
 40
1.0
 40
1.0
 10
9.1010159114
 20
11.1513389524
 30
0.0
 10
9.1010311481
 20
11.1513729805
 30
0.0
 10
9.1010545563
 20
11.1514455904
 30
0.0
 10
9.1010695342
 20
11.1516070018
 30
0.0
 10
9.1010197667
 20
11.1518350662
 30
0.0
 10
9.1008698661
 20
11.1521196021
 30
0.0
 10
9.1006312736
 20
11.15243019
 30
0.0
 10
9.1003035321
 20
11.1527674059
 30
0.0
 10
9.0998869504
 20
11.1531309266
 30
0.0
 10
9.0993825604
 20
11.1535196111
 30
0.0
 10
9.0985504628
 20
11.1541001728
 30
0.0
 10
9.0973001764
 20
11.1548687919
 30
0.0
 10
9.0955604707
 20
11.1558223632
 30
0.0
 10
9.0935395277
 20
11.1568322873
 30
0.0
 10
9.0920922093
 20
11.1575015686
 30
0.0
 10
9.0913279847
 20
11.1578436325
 30
0.0
  0
SPLINE
  5
390
100
AcDbEntity
  8
0
100
AcDbSpline
 62
7
  6
CONTINUOUS
 70
0
 71
3
 72
22
 73
18
 74
0
 42
0.0000001
 43
0.0000001
 44
0.0000000001
 40
0.0
 40
0.0
 40
0.0
 40
0.0
 40
0.0088682199
 40
0.0181230509
 40
0.0281968191
 40
0.0394255067
 40
0.066192383
 40
0.0995936594
 40
0.1400840274
 40
0.1877826938
 40
0.2426206206
 40
0.3044038779
 40
0.37283952
 40
0.447565298
 40
0.6140812115
 40
0.7998336581
 40
1.0
 40
1.0
 40
1.0
 40
1.0
 10
8.9446552185
 20
11.2202672512
 30
0.0
 10
8.9446767028
 20
11.2203152378
 30
0.0
 10
8.9447086676
 20
11.2204191232
 30
0.0
 10
8.9447188494
 20
11.2205873025
 30
0.0
 10
8.9446925463
 20
11.2207676195
 30
0.0
 10
8.944604496
 20
11.221039754
 30
0.0
 10
8.9443929367
 20
11.2214106485
 30
0.0
 10
8.9440179658
 20
11.2218763947
 30
0.0
 10
8.9435076838
 20
11.2223871149
 30
0.0
 10
8.9428641645
 20
11.2229401221
 30
0.0
 10
8.9420902063
 20
11.2235324472
 30
0.0
 10
8.9411901383
 20
11.2241602913
 30
0.0
 10
8.9401693463
 20
11.2248197119
 30
0.0
 10
8.9385981221
 20
11.2257698738
 30
0.0
 10
8.9363821463
 20
11.2269957214
 30
0.0
 10
8.9334572988
 20
11.2284707937
 30
0.0
 10
8.9313818854
 20
11.2294348703
 30
0.0
 10
8.9302987223
 20
11.2299196898
 30
0.0
  0
SPLINE
  5
391
100
AcDbEntity
  8
0
100
AcDbSpline
 62
7
  6
CONTINUOUS
 70
0
 71
3
 72
24
 73
20
 74
0
 42
0.0000001
 43
0.0000001
 44
0.0000000001
 40
0.0
 40
0.0
 40
0.0
 40
0.0
 40
0.0083200289
 40
0.0172128714
 40
0.0271598239
 40
0.0385023413
 40
0.0514604957
 40
0.0661730662
 40
0.1011343311
 40
0.1436763987
 40
0.1937344459
 40
0.2510560455
 40
0.3152515631
 40
0.3858215899
 40
0.4621781834
 40
0.5436522192
 40
0.6295043962
 40
0.8110775078
 40
1.0
 40
1.0
 40
1.0
 40
1.0
 10
8.7768561205
 20
11.2942288555
 30
0.0
 10
8.7768832247
 20
11.2942894254
 30
0.0
 10
8.7769215184
 20
11.2944233858
 30
0.0
 10
8.7769246945
 20
11.2946419516
 30
0.0
 10
8.7768765836
 20
11.2948792926
 30
0.0
 10
8.7767785986
 20
11.2951352455
 30
0.0
 10
8.7766315115
 20
11.2954101513
 30
0.0
 10
8.7763537153
 20
11.2958260341
 30
0.0
 10
8.7758746756
 20
11.2963869901
 30
0.0
 10
8.7751426943
 20
11.2970947499
 30
0.0
 10
8.7742276512
 20
11.2978656453
 30
0.0
 10
8.7731369762
 20
11.2986928032
 30
0.0
 10
8.7718796446
 20
11.299568734
 30
0.0
 10
8.7704668326
 20
11.300485312
 30
0.0
 10
8.7689114103
 20
11.3014338836
 30
0.0
 10
8.7672279413
 20
11.3024054301
 30
0.0
 10
8.7647881327
 20
11.303743993
 30
0.0
 10
8.7615455498
 20
11.305399069
 30
0.0
 10
8.7588683378
 20
11.306651248
 30
0.0
 10
8.7574930381
 20
11.3072668266
 30
0.0
  0
SPLINE
  5
392
100
AcDbEntity
  8
0
100
AcDbSpline
 62
7
  6
CONTINUOUS
 70
0
 71
3
 72
25
 73
21
 74
0
 42
0.0000001
 43
0.0000001
 44
0.0000000001
 40
0.0
 40
0.0
 40
0.0
 40
0.0
 40
0.0076360189
 40
0.0161034986
 40
0.0259443323
 40
0.0374927765
 40
0.0509419555
 40
0.0663936179
 40
0.0838945458
 40
0.1034583747
 40
0.1486922999
 40
0.2018075653
 40
0.262309626
 40
0.3295552551
 40
0.4027805632
 40
0.4811156248
 40
0.5635978855
 40
0.6491876364
 40
0.8252211399
 40
1.0
 40
1.0
 40
1.0
 40
1.0
 10
8.609053414
 20
11.3681824275
 30
0.0
 10
8.609084615
 20
11.3682521564
 30
0.0
 10
8.6091248339
 20
11.3684115541
 30
0.0
 10
8.6091111097
 20
11.3686734858
 30
0.0
 10
8.6090299252
 20
11.368962743
 30
0.0
 10
8.6088832544
 20
11.3692800418
 30
0.0
 10
8.6086716453
 20
11.3696257441
 30
0.0
 10
8.6083955348
 20
11.3699994523
 30
0.0
 10
8.6080555213
 20
11.3704003745
 30
0.0
 10
8.6074899591
 20
11.3709991218
 30
0.0
 10
8.6066237051
 20
11.3718015597
 30
0.0
 10
8.6053958602
 20
11.3728113276
 30
0.0
 10
8.6039476684
 20
11.3738968678
 30
0.0
 10
8.602296547
 20
11.3750446745
 30
0.0
 10
8.6004626044
 20
11.3762402417
 30
0.0
 10
8.5984688701
 20
11.3774682997
 30
0.0
 10
8.5963408755
 20
11.3787129747
 30
0.0
 10
8.5933334219
 20
11.3803884354
 30
0.0
 10
8.5894573384
 20
11.3823998341
 30
0.0
 10
8.5862832813
 20
11.3838996327
 30
0.0
 10
8.5846873539
 20
11.3846139635
 30
0.0
  0
SPLINE
  5
393
100
AcDbEntity
  8
0
100
AcDbSpline
 62
7
  6
CONTINUOUS
 70
0
 71
3
 72
26
 73
22
 74
0
 42
0.0000001
 43
0.0000001
 44
0.0000000001
 40
0.0
 40
0.0
 40
0.0
 40
0.0
 40
0.0067901871
 40
0.0147789181
 40
0.0245697238
 40
0.0364714978
 40
0.0506265537
 40
0.067089114
 40
0.0858630105
 40
0.1069179399
 40
0.1556434087
 40
0.2126676958
 40
0.2771831933
 40
0.3482247274
 40
0.4246902252
 40
0.5053612527
 40
0.5889198842
 40
0.6739702532
 40
0.8427263273
 40
0.9235140266
 40
1.0
 40
1.0
 40
1.0
 40
1.0
 10
8.4526828695
 20
11.4370887683
 30
0.0
 10
8.4527157972
 20
11.4371623424
 30
0.0
 10
8.4527507981
 20
11.4373396743
 30
0.0
 10
8.45270671
 20
11.437631448
 30
0.0
 10
8.452578987
 20
11.4379617547
 30
0.0
 10
8.4523683963
 20
11.4383327182
 30
0.0
 10
8.4520756051
 20
11.4387446096
 30
0.0
 10
8.4517011499
 20
11.4391963053
 30
0.0
 10
8.4512462565
 20
11.4396861758
 30
0.0
 10
8.450497288
 20
11.4404242033
 30
0.0
 10
8.4493676319
 20
11.44142067
 30
0.0
 10
8.4477881195
 20
11.4426826075
 30
0.0
 10
8.4459491747
 20
11.4440415728
 30
0.0
 10
8.4438802118
 20
11.445475395
 30
0.0
 10
8.4416145757
 20
11.4469604543
 30
0.0
 10
8.4391896214
 20
11.4484720637
 30
0.0
 10
8.4366460568
 20
11.4499848299
 30
0.0
 10
8.4331638193
 20
11.451963286
 30
0.0
 10
8.4296543642
 20
11.453826189
 30
0.0
 10
8.4261807951
 20
11.4555335865
 30
0.0
 10
8.424486828
 20
11.4563190816
 30
0.0
 10
8.4236580915
 20
11.4566900207
 30
0.0
  0
SPLINE
  5
394
100
AcDbEntity
  8
0
100
AcDbSpline
 62
7
  6
CONTINUOUS
 70
0
 71
3
 72
27
 73
23
 74
0
 42
0.0000001
 43
0.0000001
 44
0.0000000001
 40
0.0
 40
0.0
 40
0.0
 40
0.0
 40
0.0130001425
 40
0.017620602
 40
0.0228742912
 40
0.0353528932
 40
0.050515173
 40
0.068354669
 40
0.0888196563
 40
0.1118307924
 40
0.1650660341
 40
0.2270668787
 40
0.296625353
 40
0.3723607003
 40
0.4527474149
 40
0.5361367696
 40
0.620786553
 40
0.704890827
 40
0.7866226589
 40
0.8641793441
 40
0.9358347434
 40
1.0
 40
1.0
 40
1.0
 40
1.0
 10
8.3184018271
 20
11.496254137
 30
0.0
 10
8.3184732381
 20
11.4964136534
 30
0.0
 10
8.3184121165
 20
11.4966800594
 30
0.0
 10
8.3182852375
 20
11.496954988
 30
0.0
 10
8.3181368364
 20
11.4972180888
 30
0.0
 10
8.317881337
 20
11.4975792758
 30
0.0
 10
8.317488655
 20
11.4980488003
 30
0.0
 10
8.3169957446
 20
11.4985722903
 30
0.0
 10
8.3164049802
 20
11.4991474891
 30
0.0
 10
8.3154428062
 20
11.5000222128
 30
0.0
 10
8.3140153111
 20
11.5012135904
 30
0.0
 10
8.312049161
 20
11.5027328163
 30
0.0
 10
8.3097943875
 20
11.5043712146
 30
0.0
 10
8.3072972184
 20
11.5060948202
 30
0.0
 10
8.3046090686
 20
11.5078677487
 30
0.0
 10
8.3017861788
 20
11.5096528939
 30
0.0
 10
8.298888608
 20
11.5114123893
 30
0.0
 10
8.2959791554
 20
11.5131083448
 30
0.0
 10
8.2931220424
 20
11.5147036427
 30
0.0
 10
8.2903813224
 20
11.5161629263
 30
0.0
 10
8.2878191716
 20
11.5174535401
 30
0.0
 10
8.2861664817
 20
11.5182307184
 30
0.0
 10
8.285379129
 20
11.5185831343
 30
0.0
  0
SPLINE
  5
395
100
AcDbEntity
  8
0
100
AcDbSpline
 62
7
  6
CONTINUOUS
 70
0
 71
3
 72
17
 73
13
 74
0
 42
0.0000001
 43
0.0000001
 44
0.0000000001
 40
0.0
 40
0.0
 40
0.0
 40
0.0
 40
0.03984854
 40
0.0669623119
 40
0.0999772488
 40
0.1392962694
 40
0.1851240614
 40
0.2965542747
 40
0.4343707145
 40
0.5980923093
 40
0.7869652227
 40
1.0
 40
1.0
 40
1.0
 40
1.0
 10
8.2153626927
 20
11.541649579
 30
0.0
 10
8.2153872486
 20
11.5417044097
 30
0.0
 10
8.215382018
 20
11.5418140797
 30
0.0
 10
8.2153330287
 20
11.5419553645
 30
0.0
 10
8.2152658585
 20
11.5420903139
 30
0.0
 10
8.215171572
 20
11.5422414853
 30
0.0
 10
8.2149980077
 20
11.5424820067
 30
0.0
 10
8.2147095686
 20
11.5428214007
 30
0.0
 10
8.2142783362
 20
11.5432707702
 30
0.0
 10
8.2137439295
 20
11.5437819982
 30
0.0
 10
8.2131094516
 20
11.5443519377
 30
0.0
 10
8.2126489044
 20
11.5447458045
 30
0.0
 10
8.2124028821
 20
11.5449522814
 30
0.0
  0
SPLINE
  5
396
100
AcDbEntity
  8
0
100
AcDbSpline
 62
7
  6
CONTINUOUS
 70
0
 71
3
 72
19
 73
15
 74
0
 42
0.0000001
 43
0.0000001
 44
0.0000000001
 40
0.0
 40
0.0
 40
0.0
 40
0.0
 40
0.0467993897
 40
0.1002941961
 40
0.1596781161
 40
0.2240607931
 40
0.3639110356
 40
0.5114792083
 40
0.6577693763
 40
0.7936036546
 40
0.8548277059
 40
0.9102203879
 40
0.9588759109
 40
1.0
 40
1.0
 40
1.0
 40
1.0
 10
8.2124028821
 20
11.5449522814
 30
0.0
 10
8.2119325581
 20
11.5453470062
 30
0.0
 10
8.2109098435
 20
11.5461753395
 30
0.0
 10
8.2092507208
 20
11.5474547378
 30
0.0
 10
8.2073821419
 20
11.5488395955
 30
0.0
 10
8.2045707101
 20
11.5508543215
 30
0.0
 10
8.200762475
 20
11.553463311
 30
0.0
 10
8.1959956549
 20
11.5565716895
 30
0.0
 10
8.1912069156
 20
11.5595475138
 30
0.0
 10
8.1873264944
 20
11.5618367209
 30
0.0
 10
8.1844368985
 20
11.5634558612
 30
0.0
 10
8.182527077
 20
11.5644830586
 30
0.0
 10
8.1808305271
 20
11.5653491167
 30
0.0
 10
8.179766421
 20
11.5658549622
 30
0.0
 10
8.1792739493
 20
11.5660753906
 30
0.0
  0
SPLINE
  5
397
100
AcDbEntity
  8
0
100
AcDbSpline
 62
7
  6
CONTINUOUS
 70
0
 71
3
 72
18
 73
14
 74
0
 42
0.0000001
 43
0.0000001
 44
0.0000000001
 40
0.0
 40
0.0
 40
0.0
 40
0.0
 40
0.0111466784
 40
0.0275588847
 40
0.0506208054
 40
0.0807870332
 40
0.1182305103
 40
0.1629986759
 40
0.2744084758
 40
0.4146325565
 40
0.5829380156
 40
0.7784270437
 40
1.0
 40
1.0
 40
1.0
 40
1.0
 10
8.15058884
 20
11.570184651
 30
0.0
 10
8.1505949715
 20
11.5701983462
 30
0.0
 10
8.1505942319
 20
11.5702380464
 30
0.0
 10
8.1505671725
 20
11.5703007294
 30
0.0
 10
8.1505170628
 20
11.5703803764
 30
0.0
 10
8.1504417764
 20
11.5704765493
 30
0.0
 10
8.1503414959
 20
11.5705899086
 30
0.0
 10
8.150160492
 20
11.5707775228
 30
0.0
 10
8.1498699632
 20
11.5710512739
 30
0.0
 10
8.1494453104
 20
11.5714244849
 30
0.0
 10
8.1489249768
 20
11.571859994
 30
0.0
 10
8.1483119493
 20
11.5723551365
 30
0.0
 10
8.147870472
 20
11.5727020024
 30
0.0
 10
8.1476349982
 20
11.5728850785
 30
0.0
  0
SPLINE
  5
398
100
AcDbEntity
  8
0
100
AcDbSpline
 62
7
  6
CONTINUOUS
 70
0
 71
3
 72
19
 73
15
 74
0
 42
0.0000001
 43
0.0000001
 44
0.0000000001
 40
0.0
 40
0.0
 40
0.0
 40
0.0
 40
0.0470179544
 40
0.10161409
 40
0.22945801
 40
0.374511868
 40
0.5267385131
 40
0.6755640297
 40
0.7453776672
 40
0.8104064661
 40
0.8694365488
 40
0.9213497329
 40
0.965150464
 40
1.0
 40
1.0
 40
1.0
 40
1.0
 10
8.1476349982
 20
11.5728850785
 30
0.0
 10
8.1471287374
 20
11.5732786859
 30
0.0
 10
8.1460255286
 20
11.5741176537
 30
0.0
 10
8.1435079863
 20
11.5759767873
 30
0.0
 10
8.1398700544
 20
11.5785688885
 30
0.0
 10
8.1350967229
 20
11.5818607395
 30
0.0
 10
8.1300421117
 20
11.5852478388
 30
0.0
 10
8.1258044604
 20
11.5880099241
 30
0.0
 10
8.1225406454
 20
11.590087452
 30
0.0
 10
8.1202988261
 20
11.5914896578
 30
0.0
 10
8.1182524356
 20
11.5927437328
 30
0.0
 10
8.1164406588
 20
11.593826359
 30
0.0
 10
8.114898645
 20
11.5947170745
 30
0.0
 10
8.1139586507
 20
11.5952342705
 30
0.0
 10
8.1135376187
 20
11.5954548346
 30
0.0
  0
LINE
  5
399
100
AcDbEntity
  8
0
100
AcDbLine
 62
7
  6
CONTINUOUS
 10
8.1135376187
 20
11.5954548346
 11
8.1125734448
 21
11.5959302711
  0
SPLINE
  5
39A
100
AcDbEntity
  8
0
100
AcDbSpline
 62
7
  6
CONTINUOUS
 70
0
 71
3
 72
15
 73
11
 74
0
 42
0.0000001
 43
0.0000001
 44
0.0000000001
 40
0.0
 40
0.0
 40
0.0
 40
0.0
 40
0.124999448
 40
0.2499919442
 40
0.374992181
 40
0.5
 40
0.625007819
 40
0.7500080558
 40
0.875000552
 40
1.0
 40
1.0
 40
1.0
 40
1.0
 10
7.9440432386
 20
9.7232574296
 30
0.0
 10
7.9209129121
 20
9.7153345483
 30
0.0
 10
7.875181183
 20
9.6978996077
 30
0.0
 10
7.808515568
 20
9.6671875314
 30
0.0
 10
7.7440420206
 20
9.632097476
 30
0.0
 10
7.6820323299
 20
9.592814042
 30
0.0
 10
7.6227533643
 20
9.5495197682
 30
0.0
 10
7.5664727781
 20
9.5023960383
 30
0.0
 10
7.5134619481
 20
9.4516280586
 30
0.0
 10
7.4804774833
 20
9.4154701648
 30
0.0
 10
7.4646275957
 20
9.3968539054
 30
0.0
  0
SPLINE
  5
39B
100
AcDbEntity
  8
0
100
AcDbSpline
 62
7
  6
CONTINUOUS
 70
0
 71
3
 72
11
 73
7
 74
0
 42
0.0000001
 43
0.0000001
 44
0.0000000001
 40
0.0
 40
0.0
 40
0.0
 40
0.0
 40
0.2490610931
 40
0.4984747743
 40
0.7486520046
 40
1.0
 40
1.0
 40
1.0
 40
1.0
 10
13.1290032306
 20
8.6079269375
 30
0.0
 10
13.1295425976
 20
8.6988954075
 30
0.0
 10
13.1269122997
 20
8.8810046785
 30
0.0
 10
13.1118360894
 20
9.154108013
 30
0.0
 10
13.0856300038
 20
9.4272075273
 30
0.0
 10
13.0608089104
 20
9.6087592059
 30
0.0
 10
13.0465729119
 20
9.6994540863
 30
0.0
  0
SPLINE
  5
39C
100
AcDbEntity
  8
0
100
AcDbSpline
 62
7
  6
CONTINUOUS
 70
0
 71
3
 72
15
 73
11
 74
0
 42
0.0000001
 43
0.0000001
 44
0.0000000001
 40
0.0
 40
0.0
 40
0.0
 40
0.0
 40
0.1256675337
 40
0.2507638615
 40
0.3754779163
 40
0.5000003712
 40
0.6245227794
 40
0.7492366944
 40
0.8743327899
 40
1.0
 40
1.0
 40
1.0
 40
1.0
 10
14.599549212
 20
7.5957320745
 30
0.0
 10
14.5858275203
 20
7.6831397638
 30
0.0
 10
14.5617761027
 20
7.8581001465
 30
0.0
 10
14.5359356168
 20
8.12125908
 30
0.0
 10
14.5204296078
 20
8.3844256136
 30
0.0
 10
14.5152592996
 20
8.647593031
 30
0.0
 10
14.5204245761
 20
8.910760449
 30
0.0
 10
14.5359255534
 20
9.173926984
 30
0.0
 10
14.561761008
 20
9.4370859196
 30
0.0
 10
14.5858090892
 20
9.6120463662
 30
0.0
 10
14.5995291158
 20
9.6994540863
 30
0.0
  0
SPLINE
  5
39D
100
AcDbEntity
  8
0
100
AcDbSpline
 62
7
  6
CONTINUOUS
 70
0
 71
3
 72
9
 73
5
 74
0
 42
0.0000001
 43
0.0000001
 44
0.0000000001
 40
0.0
 40
0.0
 40
0.0
 40
0.0
 40
0.4905404525
 40
1.0
 40
1.0
 40
1.0
 40
1.0
 10
9.661335269
 20
10.952279253
 30
0.0
 10
9.6652997504
 20
10.9511310868
 30
0.0
 10
9.6735345187
 20
10.9492969074
 30
0.0
 10
9.6819173496
 20
10.9483966065
 30
0.0
 10
9.6861966803
 20
10.9481473984
 30
0.0
  0
LINE
  5
39E
100
AcDbEntity
  8
0
100
AcDbLine
 62
7
  6
CONTINUOUS
 10
8.1125734448
 20
11.5959302711
 11
8.1118034143
 21
11.5961282188
  0
SPLINE
  5
39F
100
AcDbEntity
  8
0
100
AcDbSpline
 62
7
  6
CONTINUOUS
 70
0
 71
3
 72
17
 73
13
 74
0
 42
0.0000001
 43
0.0000001
 44
0.0000000001
 40
0.0
 40
0.0
 40
0.0
 40
0.0
 40
0.2197659024
 40
0.4123962195
 40
0.5770739499
 40
0.7134522798
 40
0.8216049876
 40
0.9023744258
 40
0.9333013015
 40
0.9588013926
 40
0.9802743972
 40
1.0
 40
1.0
 40
1.0
 40
1.0
 10
8.1792739493
 20
11.5660753906
 30
0.0
 10
8.1790579015
 20
11.5661720928
 30
0.0
 10
8.178650575
 20
11.566349352
 30
0.0
 10
8.1780738563
 20
11.5665814354
 30
0.0
 10
8.1775734454
 20
11.5667615671
 30
0.0
 10
8.1771512673
 20
11.566889555
 30
0.0
 10
8.1768089544
 20
11.5669650232
 30
0.0
 10
8.1765716079
 20
11.5669878776
 30
0.0
 10
8.1764240418
 20
11.566972898
 30
0.0
 10
8.1763429367
 20
11.5669488019
 30
0.0
 10
8.1762812091
 20
11.5669095898
 30
0.0
 10
8.1762546806
 20
11.5668723326
 30
0.0
 10
8.1762459972
 20
11.5668529424
 30
0.0
  0
SPLINE
  5
3A0
100
AcDbEntity
  8
0
100
AcDbSpline
 62
7
  6
CONTINUOUS
 70
0
 71
3
 72
19
 73
15
 74
0
 42
0.0000001
 43
0.0000001
 44
0.0000000001
 40
0.0
 40
0.0
 40
0.0
 40
0.0
 40
0.2153353747
 40
0.4064509547
 40
0.5715670116
 40
0.7095051875
 40
0.7680540329
 40
0.8196037789
 40
0.8642235523
 40
0.9020805557
 40
0.9335330312
 40
0.9592916609
 40
0.980683342
 40
1.0
 40
1.0
 40
1.0
 40
1.0
 10
8.285379129
 20
11.5185831343
 30
0.0
 10
8.2849168452
 20
11.5187900507
 30
0.0
 10
8.2840398732
 20
11.5191709216
 30
0.0
 10
8.2827916136
 20
11.519670739
 30
0.0
 10
8.2816968819
 20
11.5200621259
 30
0.0
 10
8.2808819288
 20
11.5203078213
 30
0.0
 10
8.2803140587
 20
11.5204422955
 30
0.0
 10
8.2799560334
 20
11.5205084945
 30
0.0
 10
8.2796427307
 20
11.5205458286
 30
0.0
 10
8.2793744409
 20
11.5205543301
 30
0.0
 10
8.2791509818
 20
11.5205339456
 30
0.0
 10
8.2789714554
 20
11.5204841201
 30
0.0
 10
8.2788352219
 20
11.5204017942
 30
0.0
 10
8.27877686
 20
11.5203219108
 30
0.0
 10
8.2787582997
 20
11.5202804411
 30
0.0
  0
SPLINE
  5
3A1
100
AcDbEntity
  8
0
100
AcDbSpline
 62
7
  6
CONTINUOUS
 70
0
 71
3
 72
20
 73
16
 74
0
 42
0.0000001
 43
0.0000001
 44
0.0000000001
 40
0.0
 40
0.0
 40
0.0
 40
0.0
 40
0.2088782119
 40
0.3977430296
 40
0.5635018139
 40
0.7036807923
 40
0.7636041311
 40
0.8165458859
 40
0.8624638874
 40
0.9014213203
 40
0.9336850994
 40
0.9598461968
 40
0.9811472518
 40
0.9906988288
 40
1.0
 40
1.0
 40
1.0
 40
1.0
 10
8.4236580915
 20
11.4566900207
 30
0.0
 10
8.4228938669
 20
11.4570320846
 30
0.0
 10
8.4214305385
 20
11.4576655972
 30
0.0
 10
8.4193310215
 20
11.4584999746
 30
0.0
 10
8.4174608892
 20
11.4591621524
 30
0.0
 10
8.4160547378
 20
11.4595825444
 30
0.0
 10
8.4150674297
 20
11.4598163414
 30
0.0
 10
8.414441536
 20
11.4599335674
 30
0.0
 10
8.413892906
 20
11.4600020716
 30
0.0
 10
8.4134230783
 20
11.4600218445
 30
0.0
 10
8.4130324996
 20
11.4599928711
 30
0.0
 10
8.4127204357
 20
11.4599151087
 30
0.0
 10
8.412517195
 20
11.4598002898
 30
0.0
 10
8.4124067957
 20
11.4596815886
 30
0.0
 10
8.4123682389
 20
11.4596157592
 30
0.0
 10
8.412353012
 20
11.4595817267
 30
0.0
  0
SPLINE
  5
3A2
100
AcDbEntity
  8
0
100
AcDbSpline
 62
7
  6
CONTINUOUS
 70
0
 71
3
 72
22
 73
18
 74
0
 42
0.0000001
 43
0.0000001
 44
0.0000000001
 40
0.0
 40
0.0
 40
0.0
 40
0.0
 40
0.200166348
 40
0.3859187963
 40
0.5524347089
 40
0.6271604808
 40
0.6955961259
 40
0.757379386
 40
0.812217308
 40
0.8599159701
 40
0.9004063397
 40
0.9338076173
 40
0.9605744945
 40
0.9718031819
 40
0.9818769493
 40
0.9911317796
 40
1.0
 40
1.0
 40
1.0
 40
1.0
 10
8.5846873539
 20
11.3846139635
 30
0.0
 10
8.5836041908
 20
11.3850987829
 30
0.0
 10
8.5815025782
 20
11.3860043266
 30
0.0
 10
8.5784539891
 20
11.3872029407
 30
0.0
 10
8.5760635114
 20
11.3880389234
 30
0.0
 10
8.5743081627
 20
11.3885777223
 30
0.0
 10
8.5731363366
 20
11.3888997088
 30
0.0
 10
8.5720684849
 20
11.3891526977
 30
0.0
 10
8.5711111359
 20
11.3893352989
 30
0.0
 10
8.5702700067
 20
11.3894468144
 30
0.0
 10
8.5695491759
 20
11.3894871354
 30
0.0
 10
8.5689520289
 20
11.3894565053
 30
0.0
 10
8.5685344839
 20
11.3893671954
 30
0.0
 10
8.5682728729
 20
11.3892515679
 30
0.0
 10
8.5681208731
 20
11.3891510586
 30
0.0
 10
8.5680022312
 20
11.3890314256
 30
0.0
 10
8.5679460502
 20
11.3889383793
 30
0.0
 10
8.5679245754
 20
11.3888903884
 30
0.0
  0
SPLINE
  5
3A3
100
AcDbEntity
  8
0
100
AcDbSpline
 62
7
  6
CONTINUOUS
 70
0
 71
3
 72
24
 73
20
 74
0
 42
0.0000001
 43
0.0000001
 44
0.0000000001
 40
0.0
 40
0.0
 40
0.0
 40
0.0
 40
0.1889225023
 40
0.3704956231
 40
0.4563477984
 40
0.5378218307
 40
0.6141784305
 40
0.6847484559
 40
0.7489439674
 40
0.8062655679
 40
0.856323617
 40
0.8988656835
 40
0.9338269438
 40
0.9485395128
 40
0.961497668
 40
0.9728401862
 40
0.9827871368
 40
0.991679975
 40
1.0
 40
1.0
 40
1.0
 40
1.0
 10
8.7574930381
 20
11.3072668266
 30
0.0
 10
8.7561177384
 20
11.3078824053
 30
0.0
 10
8.7534003514
 20
11.3090448275
 30
0.0
 10
8.7500058462
 20
11.3103604856
 30
0.0
 10
8.747382192
 20
11.3112883085
 30
0.0
 10
8.7455361186
 20
11.3118965711
 30
0.0
 10
8.743792483
 20
11.3124246447
 30
0.0
 10
8.7421677135
 20
11.3128676761
 30
0.0
 10
8.7406768375
 20
11.3132218321
 30
0.0
 10
8.7393333608
 20
11.3134841908
 30
0.0
 10
8.7381488478
 20
11.3136530482
 30
0.0
 10
8.7371333745
 20
11.3137274422
 30
0.0
 10
8.7363958922
 20
11.3137109967
 30
0.0
 10
8.7359006694
 20
11.313641114
 30
0.0
 10
8.7355976618
 20
11.3135676687
 30
0.0
 10
8.7353415004
 20
11.3134702304
 30
0.0
 10
8.735132445
 20
11.3133479961
 30
0.0
 10
8.7349715587
 20
11.3132000208
 30
0.0
 10
8.7348971646
 20
11.3130822188
 30
0.0
 10
8.7348700494
 20
11.3130216539
 30
0.0
  0
SPLINE
  5
3A4
100
AcDbEntity
  8
0
100
AcDbSpline
 62
7
  6
CONTINUOUS
 70
0
 71
3
 72
25
 73
21
 74
0
 42
0.0000001
 43
0.0000001
 44
0.0000000001
 40
0.0
 40
0.0
 40
0.0
 40
0.0
 40
0.1747788718
 40
0.3508123864
 40
0.4364021344
 40
0.518884403
 40
0.5972194634
 40
0.670444768
 40
0.7376904007
 40
0.7981924635
 40
0.8513077234
 40
0.89654165
 40
0.9161054794
 40
0.9336064017
 40
0.9490580549
 40
0.9625072261
 40
0.974055671
 40
0.9838965073
 40
0.9923639853
 40
1.0
 40
1.0
 40
1.0
 40
1.0
 10
8.9302987223
 20
11.2299196898
 30
0.0
 10
8.9287027948
 20
11.2306340206
 30
0.0
 10
8.9254697438
 20
11.2320020181
 30
0.0
 10
8.9213874673
 20
11.2335527497
 30
0.0
 10
8.9181344007
 20
11.2346794728
 30
0.0
 10
8.9157884942
 20
11.2354372981
 30
0.0
 10
8.9135444233
 20
11.2361060649
 30
0.0
 10
8.9114310353
 20
11.2366773071
 30
0.0
 10
8.9094750601
 20
11.2371440225
 30
0.0
 10
8.9077007121
 20
11.2375008783
 30
0.0
 10
8.9061296668
 20
11.2377438825
 30
0.0
 10
8.9049541331
 20
11.2378553405
 30
0.0
 10
8.9041308261
 20
11.2378782455
 30
0.0
 10
8.9036053122
 20
11.2378647301
 30
0.0
 10
8.9031426655
 20
11.2378216867
 30
0.0
 10
8.9027438754
 20
11.2377491966
 30
0.0
 10
8.9024095294
 20
11.237647199
 30
0.0
 10
8.9021397225
 20
11.2375150442
 30
0.0
 10
8.9019352359
 20
11.2373507828
 30
0.0
 10
8.9018431536
 20
11.2372145991
 30
0.0
 10
8.901811937
 20
11.2371448772
 30
0.0
  0
SPLINE
  5
3A5
100
AcDbEntity
  8
0
100
AcDbSpline
 62
7
  6
CONTINUOUS
 70
0
 71
3
 72
26
 73
22
 74
0
 42
0.0000001
 43
0.0000001
 44
0.0000000001
 40
0.0
 40
0.0
 40
0.0
 40
0.0
 40
0.0764859796
 40
0.1572736832
 40
0.3260297643
 40
0.4110801389
 40
0.494638773
 40
0.5753097975
 40
0.6517753009
 40
0.7228168366
 40
0.7873323308
 40
0.8443566234
 40
0.8930820691
 40
0.9141369956
 40
0.9329108971
 40
0.9493734557
 40
0.9635285044
 40
0.975430271
 40
0.9852210797
 40
0.9932098128
 40
1.0
 40
1.0
 40
1.0
 40
1.0
 10
9.0913279847
 20
11.1578436325
 30
0.0
 10
9.0904992481
 20
11.1582145717
 30
0.0
 10
9.0887849345
 20
11.1589546096
 30
0.0
 10
9.0851975278
 20
11.1604076767
 30
0.0
 10
9.0814702413
 20
11.1617839104
 30
0.0
 10
9.0776749096
 20
11.1630628652
 30
0.0
 10
9.0748522165
 20
11.1639520147
 30
0.0
 10
9.0721094034
 20
11.1647534774
 30
0.0
 10
9.0694925272
 20
11.1654538112
 30
0.0
 10
9.0670448847
 20
11.1660416036
 30
0.0
 10
9.0648063051
 20
11.1665077219
 30
0.0
 10
9.0628129189
 20
11.1668449996
 30
0.0
 10
9.0613172062
 20
11.1670236376
 30
0.0
 10
9.0602678433
 20
11.1670905361
 30
0.0
 10
9.0595994612
 20
11.1671034392
 30
0.0
 10
9.0590131364
 20
11.1670817848
 30
0.0
 10
9.0585109009
 20
11.1670257444
 30
0.0
 10
9.0580939499
 20
11.166935666
 30
0.0
 10
9.0577625256
 20
11.1668108719
 30
0.0
 10
9.0575155552
 20
11.1666493748
 30
0.0
 10
9.0574066218
 20
11.1665051347
 30
0.0
 10
9.0573736877
 20
11.1664315635
 30
0.0
  0
SPLINE
  5
3A6
100
AcDbEntity
  8
0
100
AcDbSpline
 62
7
  6
CONTINUOUS
 70
0
 71
3
 72
27
 73
23
 74
0
 42
0.0000001
 43
0.0000001
 44
0.0000000001
 40
0.0
 40
0.0
 40
0.0
 40
0.0
 40
0.0641652612
 40
0.1358206639
 40
0.2133773547
 40
0.2951091851
 40
0.3792134664
 40
0.4638632457
 40
0.5472526056
 40
0.627639323
 40
0.70337467
 40
0.7729331454
 40
0.8349339668
 40
0.8881692136
 40
0.9111803379
 40
0.9316453186
 40
0.9494848216
 40
0.9646471038
 40
0.977125706
 40
0.9823793937
 40
0.9869998539
 40
1.0
 40
1.0
 40
1.0
 40
1.0
 10
9.2296069472
 20
11.095950519
 30
0.0
 10
9.2288195945
 20
11.0963029349
 30
0.0
 10
9.2271389819
 20
11.0970177297
 30
0.0
 10
9.2244695836
 20
11.0980687364
 30
0.0
 10
9.2215554336
 20
11.0991405501
 30
0.0
 10
9.2184623066
 20
11.1002085559
 30
0.0
 10
9.215259243
 20
11.1012485383
 30
0.0
 10
9.212016708
 20
11.1022373298
 30
0.0
 10
9.2088047959
 20
11.1031533379
 30
0.0
 10
9.2056917574
 20
11.1039769982
 30
0.0
 10
9.2027427326
 20
11.1046910872
 30
0.0
 10
9.200018736
 20
11.1052811667
 30
0.0
 10
9.1975758944
 20
11.105735388
 30
0.0
 10
9.1957364033
 20
11.1060063006
 30
0.0
 10
9.1944430592
 20
11.1061411379
 30
0.0
 10
9.193620525
 20
11.1061985259
 30
0.0
 10
9.1929017435
 20
11.1062173845
 30
0.0
 10
9.1922899796
 20
11.1061974458
 30
0.0
 10
9.1918504018
 20
11.1061473727
 30
0.0
 10
9.1915553227
 20
11.1060827718
 30
0.0
 10
9.1912657605
 20
11.1059942406
 30
0.0
 10
9.1910263613
 20
11.1058623465
 30
0.0
 10
9.1909549705
 20
11.1057028211
 30
0.0
  0
SPLINE
  5
3A7
100
AcDbEntity
  8
0
100
AcDbSpline
 62
7
  6
CONTINUOUS
 70
0
 71
3
 72
19
 73
15
 74
0
 42
0.0000001
 43
0.0000001
 44
0.0000000001
 40
0.0
 40
0.0
 40
0.0
 40
0.0
 40
0.0411235134
 40
0.0897781429
 40
0.1451696862
 40
0.2063924283
 40
0.342223971
 40
0.4885118733
 40
0.636079002
 40
0.7759300701
 40
0.8403140188
 40
0.8996998781
 40
0.9531972779
 40
1.0
 40
1.0
 40
1.0
 40
1.0
 10
9.3357121269
 20
11.0484582626
 30
0.0
 10
9.335219674
 20
11.0486786826
 30
0.0
 10
9.3341335701
 20
11.0491352647
 30
0.0
 10
9.3323575292
 20
11.0498235319
 30
0.0
 10
9.33031925
 20
11.0505635003
 30
0.0
 10
9.3271868443
 20
11.0516398057
 30
0.0
 10
9.3228946796
 20
11.05300865
 30
0.0
 10
9.3174853608
 20
11.0545974845
 30
0.0
 10
9.3119917461
 20
11.0560816859
 30
0.0
 10
9.3075090982
 20
11.0571837047
 30
0.0
 10
9.304133637
 20
11.0579382378
 30
0.0
 10
9.3018559897
 20
11.05840923
 30
0.0
 10
9.299796498
 20
11.0587942789
 30
0.0
 10
9.298497377
 20
11.0590051973
 30
0.0
 10
9.2978896461
 20
11.0590930091
 30
0.0
  0
SPLINE
  5
3A8
100
AcDbEntity
  8
0
100
AcDbSpline
 62
7
  6
CONTINUOUS
 70
0
 71
3
 72
17
 73
13
 74
0
 42
0.0000001
 43
0.0000001
 44
0.0000000001
 40
0.0
 40
0.0
 40
0.0
 40
0.0
 40
0.2130356306
 40
0.4019096688
 40
0.5656324643
 40
0.7034498743
 40
0.8148805577
 40
0.8607083036
 40
0.9000270407
 40
0.9330414258
 40
0.960154317
 40
1.0
 40
1.0
 40
1.0
 40
1.0
 10
9.2978896461
 20
11.0590930091
 30
0.0
 10
9.2975716945
 20
11.0591389502
 30
0.0
 10
9.2969710161
 20
11.0592200558
 30
0.0
 10
9.2961231017
 20
11.0593135863
 30
0.0
 10
9.2953856622
 20
11.059371591
 30
0.0
 10
9.2947631138
 20
11.0593938515
 30
0.0
 10
9.2943177488
 20
11.0593828746
 30
0.0
 10
9.2940226822
 20
11.0593520871
 30
0.0
 10
9.2938470919
 20
11.0593216964
 30
0.0
 10
9.2937016709
 20
11.0592818877
 30
0.0
 10
9.2935636416
 20
11.059224298
 30
0.0
 10
9.2934783492
 20
11.0591551308
 30
0.0
 10
9.2934538131
 20
11.0591002822
 30
0.0
  0
LINE
  5
3A9
100
AcDbEntity
  8
0
100
AcDbLine
 62
7
  6
CONTINUOUS
 10
9.4024126314
 20
11.0186033822
 11
9.401415722
 21
11.0190057178
  0
SPLINE
  5
3AA
100
AcDbEntity
  8
0
100
AcDbSpline
 62
7
  6
CONTINUOUS
 70
0
 71
3
 72
20
 73
16
 74
0
 42
0.0000001
 43
0.0000001
 44
0.0000000001
 40
0.0
 40
0.0
 40
0.0
 40
0.0
 40
0.0359961917
 40
0.0817000234
 40
0.1361179563
 40
0.1980687251
 40
0.2662257886
 40
0.339153911
 40
0.4932640898
 40
0.6480597393
 40
0.7913914218
 40
0.8551791242
 40
0.9119669695
 40
0.9605830217
 40
1.0
 40
1.0
 40
1.0
 40
1.0
 10
9.401415722
 20
11.0190057178
 30
0.0
 10
9.4009377466
 20
11.0191851645
 30
0.0
 10
9.3998440791
 20
11.0195688293
 30
0.0
 10
9.3980090388
 20
11.0201689325
 30
0.0
 10
9.3958135416
 20
11.0208504046
 30
0.0
 10
9.3933052949
 20
11.0215978682
 30
0.0
 10
9.3905379072
 20
11.0223945813
 30
0.0
 10
9.3865051527
 20
11.0235202907
 30
0.0
 10
9.3812728001
 20
11.0249184142
 30
0.0
 10
9.3750538817
 20
11.0264901691
 30
0.0
 10
9.3700591284
 20
11.0276755188
 30
0.0
 10
9.3664050093
 20
11.0284871532
 30
0.0
 10
9.3640565221
 20
11.028980751
 30
0.0
 10
9.3620403582
 20
11.029373814
 30
0.0
 10
9.360810102
 20
11.0295882139
 30
0.0
 10
9.3602576564
 20
11.0296740146
 30
0.0
  0
SPLINE
  5
3AB
100
AcDbEntity
  8
0
100
AcDbSpline
 62
7
  6
CONTINUOUS
 70
0
 71
3
 72
15
 73
11
 74
0
 42
0.0000001
 43
0.0000001
 44
0.0000000001
 40
0.0
 40
0.0
 40
0.0
 40
0.0
 40
0.4154164087
 40
0.5821814342
 40
0.720973965
 40
0.8315220673
 40
0.9138081884
 40
0.9445787162
 40
0.9687425414
 40
1.0
 40
1.0
 40
1.0
 40
1.0
 10
9.3602576564
 20
11.0296740146
 30
0.0
 10
9.3599287836
 20
11.029725092
 30
0.0
 10
9.3594670427
 20
11.0297918868
 30
0.0
 10
9.3588928066
 20
11.0298549787
 30
0.0
 10
9.3585604631
 20
11.0298814506
 30
0.0
 10
9.3582946766
 20
11.0298904773
 30
0.0
 10
9.3581157023
 20
11.0298844605
 30
0.0
 10
9.3580061638
 20
11.0298676257
 30
0.0
 10
9.3579409518
 20
11.0298500446
 30
0.0
 10
9.3578967393
 20
11.0298258743
 30
0.0
 10
9.3578865107
 20
11.0298030162
 30
0.0
  0
LINE
  5
3AC
100
AcDbEntity
  8
0
100
AcDbLine
 62
7
  6
CONTINUOUS
 10
8.2513061068
 20
11.4691733489
 11
8.2510175371
 21
11.4692481546
  0
SPLINE
  5
3AD
100
AcDbEntity
  8
0
100
AcDbSpline
 62
7
  6
CONTINUOUS
 70
0
 71
3
 72
17
 73
13
 74
0
 42
0.0000001
 43
0.0000001
 44
0.0000000001
 40
0.0
 40
0.0
 40
0.0
 40
0.0
 40
0.219893006
 40
0.4126554959
 40
0.5774542024
 40
0.7139270838
 40
0.8221279112
 40
0.9028698085
 40
0.9337378847
 40
0.9591377557
 40
0.9804623757
 40
1.0
 40
1.0
 40
1.0
 40
1.0
 10
8.3112136226
 20
11.4423589832
 30
0.0
 10
8.3109952247
 20
11.4424567372
 30
0.0
 10
8.310583469
 20
11.4426359818
 30
0.0
 10
8.3100005359
 20
11.4428708651
 30
0.0
 10
8.3094947797
 20
11.4430534176
 30
0.0
 10
8.3090681779
 20
11.4431834282
 30
0.0
 10
8.3087224017
 20
11.4432604893
 30
0.0
 10
8.3084827661
 20
11.4432844367
 30
0.0
 10
8.3083338161
 20
11.4432700727
 30
0.0
 10
8.3082520644
 20
11.4432463045
 30
0.0
 10
8.3081898727
 20
11.4432073002
 30
0.0
 10
8.3081631797
 20
11.4431700112
 30
0.0
 10
8.3081544903
 20
11.4431506082
 30
0.0
  0
SPLINE
  5
3AE
100
AcDbEntity
  8
0
100
AcDbSpline
 62
7
  6
CONTINUOUS
 70
0
 71
3
 72
19
 73
15
 74
0
 42
0.0000001
 43
0.0000001
 44
0.0000000001
 40
0.0
 40
0.0
 40
0.0
 40
0.0
 40
0.2130691409
 40
0.4034716374
 40
0.5689289351
 40
0.7077792406
 40
0.7668545685
 40
0.8189324807
 40
0.8640221628
 40
0.9022592711
 40
0.9339635632
 40
0.9597875868
 40
0.9810321413
 40
1.0
 40
1.0
 40
1.0
 40
1.0
 10
8.4272015823
 20
11.3904432338
 30
0.0
 10
8.4266198371
 20
11.3907036207
 30
0.0
 10
8.4255125402
 20
11.3911841532
 30
0.0
 10
8.4239320395
 20
11.3918161569
 30
0.0
 10
8.4225381236
 20
11.3923141298
 30
0.0
 10
8.4214967888
 20
11.3926287711
 30
0.0
 10
8.4207691887
 20
11.3928025464
 30
0.0
 10
8.4203096648
 20
11.3928890991
 30
0.0
 10
8.4199073671
 20
11.3929390596
 30
0.0
 10
8.4195629835
 20
11.3929524774
 30
0.0
 10
8.4192764759
 20
11.3929294471
 30
0.0
 10
8.4190468777
 20
11.392869139
 30
0.0
 10
8.4188729987
 20
11.3927680065
 30
0.0
 10
8.4187985833
 20
11.3926681588
 30
0.0
 10
8.418775412
 20
11.3926163667
 30
0.0
  0
SPLINE
  5
3AF
100
AcDbEntity
  8
0
100
AcDbSpline
 62
7
  6
CONTINUOUS
 70
0
 71
3
 72
22
 73
18
 74
0
 42
0.0000001
 43
0.0000001
 44
0.0000000001
 40
0.0
 40
0.0
 40
0.0
 40
0.0
 40
0.2020634923
 40
0.3885416946
 40
0.5549639565
 40
0.6294404351
 40
0.6975433432
 40
0.758945041
 40
0.8133829463
 40
0.8606965758
 40
0.9008388415
 40
0.9339632966
 40
0.9605468424
 40
0.9717323444
 40
0.9817967385
 40
0.9910765571
 40
1.0
 40
1.0
 40
1.0
 40
1.0
 10
8.5838622441
 20
11.3203225448
 30
0.0
 10
8.5828386533
 20
11.3207807
 30
0.0
 10
8.5808583915
 20
11.3216352461
 30
0.0
 10
8.5779929487
 20
11.3227661797
 30
0.0
 10
8.5757545782
 20
11.3235535141
 30
0.0
 10
8.5741158925
 20
11.3240599236
 30
0.0
 10
8.5730246349
 20
11.3243619789
 30
0.0
 10
8.5720314106
 20
11.3245990979
 30
0.0
 10
8.5711417947
 20
11.3247700167
 30
0.0
 10
8.5703606948
 20
11.3248742139
 30
0.0
 10
8.5696914802
 20
11.324911443
 30
0.0
 10
8.569136957
 20
11.3248821256
 30
0.0
 10
8.5687491252
 20
11.3247974667
 30
0.0
 10
8.5685060067
 20
11.3246884265
 30
0.0
 10
8.568364415
 20
11.3245935564
 30
0.0
 10
8.5682537167
 20
11.3244806727
 30
0.0
 10
8.5682011233
 20
11.3243930912
 30
0.0
 10
8.5681808849
 20
11.3243478903
 30
0.0
  0
SPLINE
  5
3B0
100
AcDbEntity
  8
0
100
AcDbSpline
 62
7
  6
CONTINUOUS
 70
0
 71
3
 72
24
 73
20
 74
0
 42
0.0000001
 43
0.0000001
 44
0.0000000001
 40
0.0
 40
0.0
 40
0.0
 40
0.0
 40
0.1862166496
 40
0.3667705069
 40
0.4525965624
 40
0.534285945
 40
0.6110403248
 40
0.6821311187
 40
0.7469148672
 40
0.8048426333
 40
0.8554749963
 40
0.8985124631
 40
0.933848639
 40
0.9486879733
 40
0.9617261473
 40
0.9730933482
 40
0.9830077221
 40
0.9918122057
 40
1.0
 40
1.0
 40
1.0
 40
1.0
 10
8.7603849396
 20
11.2413116885
 30
0.0
 10
8.7589556955
 20
11.2419514125
 30
0.0
 10
8.7561188825
 20
11.2431632876
 30
0.0
 10
8.7525685204
 20
11.2445367359
 30
0.0
 10
8.7498085895
 20
11.2455116891
 30
0.0
 10
8.7478575091
 20
11.2461544268
 30
0.0
 10
8.746010237
 20
11.2467146227
 30
0.0
 10
8.7442854251
 20
11.247186653
 30
0.0
 10
8.7427001723
 20
11.2475660336
 30
0.0
 10
8.7412698879
 20
11.2478493239
 30
0.0
 10
8.7400078387
 20
11.2480344143
 30
0.0
 10
8.7389256046
 20
11.2481199873
 30
0.0
 10
8.7381396358
 20
11.248109017
 30
0.0
 10
8.7376119178
 20
11.248040333
 30
0.0
 10
8.7372896133
 20
11.2479665178
 30
0.0
 10
8.7370175739
 20
11.2478673479
 30
0.0
 10
8.7367960376
 20
11.2477420605
 30
0.0
 10
8.7366259995
 20
11.247589583
 30
0.0
 10
8.7365478591
 20
11.247467256
 30
0.0
 10
8.7365197385
 20
11.2474044099
 30
0.0
  0
SPLINE
  5
3B1
100
AcDbEntity
  8
0
100
AcDbSpline
 62
7
  6
CONTINUOUS
 70
0
 71
3
 72
25
 73
21
 74
0
 42
0.0000001
 43
0.0000001
 44
0.0000000001
 40
0.0
 40
0.0
 40
0.0
 40
0.0
 40
0.1645034677
 40
0.3363196702
 40
0.421619223
 40
0.5047533603
 40
0.5844703956
 40
0.6595967981
 40
0.7290582951
 40
0.7918935727
 40
0.8472737585
 40
0.8945245332
 40
0.9149474534
 40
0.9331804159
 40
0.9492120212
 40
0.9630657514
 40
0.9748158334
 40
0.9846299604
 40
0.9928308107
 40
1.0
 40
1.0
 40
1.0
 40
1.0
 10
8.9333205443
 20
11.1639063998
 30
0.0
 10
8.9316429403
 20
11.1646572886
 30
0.0
 10
8.9281765152
 20
11.1661111773
 30
0.0
 10
8.9237641492
 20
11.167764301
 30
0.0
 10
8.9201668645
 20
11.1689944464
 30
0.0
 10
8.9175256351
 20
11.1698383647
 30
0.0
 10
8.9149757435
 20
11.1705927042
 30
0.0
 10
8.9125559482
 20
11.1712459433
 30
0.0
 10
8.9103024596
 20
11.1717883718
 30
0.0
 10
8.9082483694
 20
11.1722123612
 30
0.0
 10
8.9064235281
 20
11.1725120192
 30
0.0
 10
8.9050557902
 20
11.1726626288
 30
0.0
 10
8.9040968502
 20
11.1727101397
 30
0.0
 10
8.9034855357
 20
11.1727108645
 30
0.0
 10
8.902948453
 20
11.1726786951
 30
0.0
 10
8.9024871481
 20
11.1726138443
 30
0.0
 10
8.9021025384
 20
11.1725163693
 30
0.0
 10
8.9017947233
 20
11.1723857128
 30
0.0
 10
8.901563689
 20
11.1722195526
 30
0.0
 10
8.9014610619
 20
11.1720764291
 30
0.0
 10
8.9014283287
 20
11.1720033218
 30
0.0
  0
SPLINE
  5
3B2
100
AcDbEntity
  8
0
100
AcDbSpline
 62
7
  6
CONTINUOUS
 70
0
 71
3
 72
27
 73
23
 74
0
 42
0.0000001
 43
0.0000001
 44
0.0000000001
 40
0.0
 40
0.0
 40
0.0
 40
0.0
 40
0.0640042041
 40
0.1355356684
 40
0.2130044388
 40
0.2946822873
 40
0.378762998
 40
0.4634148795
 40
0.5468263746
 40
0.6272494019
 40
0.7030296798
 40
0.7726370732
 40
0.8346873287
 40
0.8879706671
 40
0.9110050863
 40
0.9314930987
 40
0.9493553102
 40
0.9645404915
 40
0.9770425016
 40
0.9823084279
 40
0.9869416159
 40
1.0
 40
1.0
 40
1.0
 40
1.0
 10
9.07969644
 20
11.0983891311
 30
0.0
 10
9.0789100676
 20
11.0987411083
 30
0.0
 10
9.0772309617
 20
11.0994555445
 30
0.0
 10
9.0745632716
 20
11.100507104
 30
0.0
 10
9.071649441
 20
11.1015808135
 30
0.0
 10
9.068555324
 20
11.1026518317
 30
0.0
 10
9.0653500852
 20
11.1036956468
 30
0.0
 10
9.0621043623
 20
11.1046887478
 30
0.0
 10
9.05888846
 20
11.1056091787
 30
0.0
 10
9.0557708633
 20
11.106437021
 30
0.0
 10
9.0528169517
 20
11.1071547348
 30
0.0
 10
9.0500879692
 20
11.1077476293
 30
0.0
 10
9.0476402508
 20
11.1082036814
 30
0.0
 10
9.0457968177
 20
11.1084752641
 30
0.0
 10
9.0445005275
 20
11.1086100352
 30
0.0
 10
9.0436759903
 20
11.108667128
 30
0.0
 10
9.0429553532
 20
11.1086854477
 30
0.0
 10
9.0423419058
 20
11.1086647565
 30
0.0
 10
9.0419010495
 20
11.1086138534
 30
0.0
 10
9.0416050884
 20
11.1085484857
 30
0.0
 10
9.041314234
 20
11.1084589244
 30
0.0
 10
9.0410741552
 20
11.1083257362
 30
0.0
 10
9.0410023529
 20
11.1081652932
 30
0.0
  0
SPLINE
  5
3B3
100
AcDbEntity
  8
0
100
AcDbSpline
 62
7
  6
CONTINUOUS
 70
0
 71
3
 72
20
 73
16
 74
0
 42
0.0000001
 43
0.0000001
 44
0.0000000001
 40
0.0
 40
0.0
 40
0.0
 40
0.0
 40
0.0355553195
 40
0.0800077338
 40
0.1325263334
 40
0.1921150602
 40
0.2576404698
 40
0.3278700971
 40
0.4771863051
 40
0.6293113733
 40
0.7735973782
 40
0.839650254
 40
0.9000898508
 40
0.9538577111
 40
1.0
 40
1.0
 40
1.0
 40
1.0
 10
9.1800681777
 20
11.0534631406
 30
0.0
 10
9.1796246143
 20
11.0536616778
 30
0.0
 10
9.1786131122
 20
11.0540783498
 30
0.0
 10
9.1769174759
 20
11.0547157523
 30
0.0
 10
9.174898078
 20
11.0554240413
 30
0.0
 10
9.1725937665
 20
11.0561889776
 30
0.0
 10
9.1700483723
 20
11.0569952116
 30
0.0
 10
9.1663200874
 20
11.0581274294
 30
0.0
 10
9.1614355928
 20
11.0595245536
 30
0.0
 10
9.1555466046
 20
11.0610861799
 30
0.0
 10
9.1507326308
 20
11.062258348
 30
0.0
 10
9.1471205514
 20
11.0630651495
 30
0.0
 10
9.1447083191
 20
11.063567108
 30
0.0
 10
9.142554961
 20
11.0639756333
 30
0.0
 10
9.1412077069
 20
11.0641998184
 30
0.0
 10
9.1405838777
 20
11.0642924623
 30
0.0
  0
SPLINE
  5
3B4
100
AcDbEntity
  8
0
100
AcDbSpline
 62
7
  6
CONTINUOUS
 70
0
 71
3
 72
17
 73
13
 74
0
 42
0.0000001
 43
0.0000001
 44
0.0000000001
 40
0.0
 40
0.0
 40
0.0
 40
0.0
 40
0.2159985549
 40
0.4069812964
 40
0.572021799
 40
0.7104094069
 40
0.8216497283
 40
0.8670762608
 40
0.9057676975
 40
0.9378818583
 40
0.9637692101
 40
1.0
 40
1.0
 40
1.0
 40
1.0
 10
9.1405838777
 20
11.0642924623
 30
0.0
 10
9.1403030325
 20
11.0643341701
 30
0.0
 10
9.1397732132
 20
11.0644084879
 30
0.0
 10
9.1390264777
 20
11.0644970963
 30
0.0
 10
9.1383791322
 20
11.0645559303
 30
0.0
 10
9.1378346865
 20
11.0645848084
 30
0.0
 10
9.1374464964
 20
11.0645846538
 30
0.0
 10
9.1371901623
 20
11.0645662122
 30
0.0
 10
9.1370387939
 20
11.0645459884
 30
0.0
 10
9.1369140047
 20
11.0645178634
 30
0.0
 10
9.1367988012
 20
11.064476779
 30
0.0
 10
9.1367251471
 20
11.0644248004
 30
0.0
 10
9.1367057015
 20
11.0643813266
 30
0.0
  0
SPLINE
  5
3B5
100
AcDbEntity
  8
0
100
AcDbSpline
 62
7
  6
CONTINUOUS
 70
0
 71
3
 72
49
 73
45
 74
0
 42
0.0000001
 43
0.0000001
 44
0.0000000001
 40
0.0
 40
0.0
 40
0.0
 40
0.0
 40
0.0017698082
 40
0.0047139294
 40
0.0088269344
 40
0.0141001015
 40
0.0205187486
 40
0.0280668448
 40
0.0464738238
 40
0.0691319152
 40
0.0958107838
 40
0.1262434131
 40
0.1601272722
 40
0.1971305436
 40
0.2368969177
 40
0.3231902838
 40
0.4158046897
 40
0.511381348
 40
0.6065029175
 40
0.6528302142
 40
0.6977784936
 40
0.7409412498
 40
0.7819231148
 40
0.8203435649
 40
0.855840299
 40
0.8880716165
 40
0.9167210657
 40
0.9296122467
 40
0.9415027019
 40
0.9523621746
 40
0.9621632389
 40
0.9708789875
 40
0.9784870987
 40
0.984968109
 40
0.9903033937
 40
0.9925371286
 40
0.9944798316
 40
0.9961302447
 40
0.997487202
 40
0.9985498323
 40
0.9993185273
 40
0.9997957318
 40
0.9999284466
 40
1.0
 40
1.0
 40
1.0
 40
1.0
 10
9.2211024613
 20
11.0350963585
 30
0.0
 10
9.2210773203
 20
11.0351076115
 30
0.0
 10
9.2210080866
 20
11.0351322328
 30
0.0
 10
9.2208776591
 20
11.0351751922
 30
0.0
 10
9.2206942113
 20
11.0352316529
 30
0.0
 10
9.2204584878
 20
11.0353018989
 30
0.0
 10
9.2201709349
 20
11.0353854555
 30
0.0
 10
9.219686453
 20
11.0355238022
 30
0.0
 10
9.2189578017
 20
11.0357275347
 30
0.0
 10
9.2179411945
 20
11.0360070529
 30
0.0
 10
9.2167430611
 20
11.0363323061
 30
0.0
 10
9.2153753772
 20
11.0366998455
 30
0.0
 10
9.2138516365
 20
11.0371058028
 30
0.0
 10
9.2121866877
 20
11.0375459972
 30
0.0
 10
9.2097320321
 20
11.0381904053
 30
0.0
 10
9.2064380828
 20
11.0390463469
 30
0.0
 10
9.2023002099
 20
11.0401081986
 30
0.0
 10
9.1980259796
 20
11.0411913744
 30
0.0
 10
9.1944473204
 20
11.0420866857
 30
0.0
 10
9.1916313762
 20
11.0427839828
 30
0.0
 10
9.1895995615
 20
11.0432835672
 30
0.0
 10
9.1876477199
 20
11.0437599636
 30
0.0
 10
9.1857937708
 20
11.0442089554
 30
0.0
 10
9.1840549829
 20
11.0446265601
 30
0.0
 10
9.1824478265
 20
11.045009049
 30
0.0
 10
9.1809878143
 20
11.0453529723
 30
0.0
 10
9.1798695576
 20
11.04561327
 30
0.0
 10
9.1790591622
 20
11.0457997554
 30
0.0
 10
9.178518359
 20
11.0459231448
 30
0.0
 10
9.1780242034
 20
11.0460347777
 30
0.0
 10
9.1775779892
 20
11.0461343939
 30
0.0
 10
9.1771808903
 20
11.0462217601
 30
0.0
 10
9.1768339628
 20
11.04629668
 30
0.0
 10
9.1765381385
 20
11.0463589815
 30
0.0
 10
9.1763238521
 20
11.0464025468
 30
0.0
 10
9.1761785321
 20
11.0464307868
 30
0.0
 10
9.1760893918
 20
11.0464474432
 30
0.0
 10
9.1760135164
 20
11.046460869
 30
0.0
 10
9.175951029
 20
11.046471058
 30
0.0
 10
9.175901811
 20
11.0464780569
 30
0.0
 10
9.1758662763
 20
11.0464818759
 30
0.0
 10
9.1758444589
 20
11.0464828232
 30
0.0
 10
9.1758342174
 20
11.0464816398
 30
0.0
 10
9.1758309305
 20
11.046480152
 30
0.0
 10
9.1758304709
 20
11.0464791377
 30
0.0
  0
LINE
  5
3B6
100
AcDbEntity
  8
0
100
AcDbLine
 62
7
  6
CONTINUOUS
 10
8.3914647119
 20
11.3454486776
 11
8.3909720663
 21
11.3455782759
  0
SPLINE
  5
3B7
100
AcDbEntity
  8
0
100
AcDbSpline
 62
7
  6
CONTINUOUS
 70
0
 71
3
 72
19
 73
15
 74
0
 42
0.0000001
 43
0.0000001
 44
0.0000000001
 40
0.0
 40
0.0
 40
0.0
 40
0.0
 40
0.2160891924
 40
0.4076815364
 40
0.5730486793
 40
0.7110595002
 40
0.7695905655
 40
0.8210836773
 40
0.865604357
 40
0.9033194755
 40
0.934571038
 40
0.9600554723
 40
0.9810948552
 40
1.0
 40
1.0
 40
1.0
 40
1.0
 10
8.4759149485
 20
11.3076490877
 30
0.0
 10
8.4754712655
 20
11.3078476784
 30
0.0
 10
8.474630145
 20
11.3082134173
 30
0.0
 10
8.4734339289
 20
11.3086944714
 30
0.0
 10
8.4723862675
 20
11.3090722832
 30
0.0
 10
8.4716072221
 20
11.3093107936
 30
0.0
 10
8.4710648814
 20
11.3094425976
 30
0.0
 10
8.4707233093
 20
11.3095082609
 30
0.0
 10
8.4704246482
 20
11.3095464031
 30
0.0
 10
8.4701691594
 20
11.3095570874
 30
0.0
 10
8.4699566236
 20
11.3095402416
 30
0.0
 10
8.4697861493
 20
11.3094953272
 30
0.0
 10
8.4696568425
 20
11.3094194573
 30
0.0
 10
8.4696015907
 20
11.3093446759
 30
0.0
 10
8.469584224
 20
11.3093058557
 30
0.0
  0
SPLINE
  5
3B8
100
AcDbEntity
  8
0
100
AcDbSpline
 62
7
  6
CONTINUOUS
 70
0
 71
3
 72
22
 73
18
 74
0
 42
0.0000001
 43
0.0000001
 44
0.0000000001
 40
0.0
 40
0.0
 40
0.0
 40
0.0
 40
0.199683962
 40
0.3853670472
 40
0.552084255
 40
0.6269666228
 40
0.6955729659
 40
0.7575240147
 40
0.8125108399
 40
0.8603236927
 40
0.9008789808
 40
0.9342804523
 40
0.9609684632
 40
0.9721245193
 40
0.982104623
 40
0.9912492316
 40
1.0
 40
1.0
 40
1.0
 40
1.0
 10
8.6316987191
 20
11.2379208916
 30
0.0
 10
8.6305950094
 20
11.2384149077
 30
0.0
 10
8.6284517669
 20
11.2393392648
 30
0.0
 10
8.625341421
 20
11.2405667601
 30
0.0
 10
8.6229001722
 20
11.2414270804
 30
0.0
 10
8.621106073
 20
11.2419845705
 30
0.0
 10
8.6199076519
 20
11.2423193004
 30
0.0
 10
8.6188153767
 20
11.2425839034
 30
0.0
 10
8.6178361009
 20
11.2427767776
 30
0.0
 10
8.6169758264
 20
11.2428970219
 30
0.0
 10
8.6162388545
 20
11.2429443994
 30
0.0
 10
8.6156287674
 20
11.2429190169
 30
0.0
 10
8.615202208
 20
11.2428327214
 30
0.0
 10
8.6149350926
 20
11.2427180916
 30
0.0
 10
8.6147802526
 20
11.2426178278
 30
0.0
 10
8.6146595927
 20
11.2424978157
 30
0.0
 10
8.6146026845
 20
11.2424040597
 30
0.0
 10
8.614581041
 20
11.2423556892
 30
0.0
  0
SPLINE
  5
3B9
100
AcDbEntity
  8
0
100
AcDbSpline
 62
7
  6
CONTINUOUS
 70
0
 71
3
 72
25
 73
21
 74
0
 42
0.0000001
 43
0.0000001
 44
0.0000000001
 40
0.0
 40
0.0
 40
0.0
 40
0.0
 40
0.171573432
 40
0.3463155715
 40
0.4318289028
 40
0.5145262223
 40
0.5932985036
 40
0.6671147301
 40
0.7350396253
 40
0.7962475821
 40
0.8500385532
 40
0.8958654746
 40
0.9156793603
 40
0.9333925523
 40
0.9490132076
 40
0.9625811497
 40
0.9741950555
 40
0.9840420069
 40
0.9924583298
 40
1.0
 40
1.0
 40
1.0
 40
1.0
 10
8.8114727427
 20
11.1574547538
 30
0.0
 10
8.8098452801
 20
11.1581831996
 30
0.0
 10
8.8065294191
 20
11.1595851651
 30
0.0
 10
8.8023337321
 20
11.1611805869
 30
0.0
 10
8.7989670953
 20
11.1623510183
 30
0.0
 10
8.7965258315
 20
11.1631443372
 30
0.0
 10
8.7941839671
 20
11.1638483344
 30
0.0
 10
8.7919733077
 20
11.1644532443
 30
0.0
 10
8.7899233933
 20
11.1649508775
 30
0.0
 10
8.7880610506
 20
11.1653348701
 30
0.0
 10
8.7864103392
 20
11.1656003621
 30
0.0
 10
8.7851744167
 20
11.1657268364
 30
0.0
 10
8.7843084521
 20
11.1657586755
 30
0.0
 10
8.7837558788
 20
11.1657500258
 30
0.0
 10
8.7832696273
 20
11.1657103804
 30
0.0
 10
8.7828508335
 20
11.1656397301
 30
0.0
 10
8.7825001489
 20
11.1655381886
 30
0.0
 10
8.7822176787
 20
11.165404973
 30
0.0
 10
8.7820040868
 20
11.1652380475
 30
0.0
 10
8.7819082732
 20
11.1650983052
 30
0.0
 10
8.7818762509
 20
11.1650267698
 30
0.0
  0
SPLINE
  5
3BA
100
AcDbEntity
  8
0
100
AcDbSpline
 62
7
  6
CONTINUOUS
 70
0
 71
3
 72
28
 73
24
 74
0
 42
0.0000001
 43
0.0000001
 44
0.0000000001
 40
0.0
 40
0.0
 40
0.0
 40
0.0
 40
0.059465699
 40
0.1275604082
 40
0.202660701
 40
0.2829646903
 40
0.4514888677
 40
0.617581935
 40
0.6950358916
 40
0.7664677571
 40
0.8303411286
 40
0.8590135641
 40
0.885303358
 40
0.9090765343
 40
0.9302142247
 40
0.9486203648
 40
0.9642258206
 40
0.9770034899
 40
0.9870017197
 40
0.9910205804
 40
0.9944514421
 40
0.997392075
 40
1.0
 40
1.0
 40
1.0
 40
1.0
 10
8.960603009
 20
11.0907046399
 30
0.0
 10
8.9598488931
 20
11.0910421791
 30
0.0
 10
8.9582162036
 20
11.0917327094
 30
0.0
 10
8.9555930773
 20
11.0927569035
 30
0.0
 10
8.9526755216
 20
11.0938209009
 30
0.0
 10
8.9484178631
 20
11.095280355
 30
0.0
 10
8.9429154807
 20
11.0970039898
 30
0.0
 10
8.9373968746
 20
11.0985334395
 30
0.0
 10
8.9331460751
 20
11.0995752245
 30
0.0
 10
8.9302593427
 20
11.100212935
 30
0.0
 10
8.9280216097
 20
11.100643218
 30
0.0
 10
8.9263920775
 20
11.1009097697
 30
0.0
 10
8.9253088623
 20
11.1010633008
 30
0.0
 10
8.9243260529
 20
11.1011771361
 30
0.0
 10
8.9234492223
 20
11.101250755
 30
0.0
 10
8.9226834764
 20
11.101283988
 30
0.0
 10
8.9220328847
 20
11.1012771231
 30
0.0
 10
8.921501229
 20
11.1012304524
 30
0.0
 10
8.9211346584
 20
11.1011551954
 30
0.0
 10
8.9209077193
 20
11.1010682946
 30
0.0
 10
8.9207811571
 20
11.1009974327
 30
0.0
 10
8.9206856011
 20
11.1009156116
 30
0.0
 10
8.920641952
 20
11.1008503889
 30
0.0
 10
8.9206271493
 20
11.1008173162
 30
0.0
  0
LINE
  5
3BB
100
AcDbEntity
  8
0
100
AcDbLine
 62
7
  6
CONTINUOUS
 10
9.0337682621
 20
11.0579561636
 11
9.0320068844
 21
11.0585716357
  0
SPLINE
  5
3BC
100
AcDbEntity
  8
0
100
AcDbSpline
 62
7
  6
CONTINUOUS
 70
0
 71
3
 72
18
 73
14
 74
0
 42
0.0000001
 43
0.0000001
 44
0.0000000001
 40
0.0
 40
0.0
 40
0.0
 40
0.0
 40
0.0377440893
 40
0.0850053457
 40
0.2037725517
 40
0.346219087
 40
0.5006820444
 40
0.654898342
 40
0.7967826052
 40
0.8595318098
 40
0.9150734898
 40
0.9622379932
 40
1.0
 40
1.0
 40
1.0
 40
1.0
 10
9.0320068844
 20
11.0585716357
 30
0.0
 10
9.0314967601
 20
11.0587338552
 30
0.0
 10
9.0303441757
 20
11.0590875084
 30
0.0
 10
9.0275723197
 20
11.0599053029
 30
0.0
 10
9.0233611844
 20
11.0610915466
 30
0.0
 10
9.0176704094
 20
11.0626309234
 30
0.0
 10
9.0114785311
 20
11.0642421854
 30
0.0
 10
9.005279162
 20
11.0657917661
 30
0.0
 10
9.000328943
 20
11.0669739989
 30
0.0
 10
8.996731493
 20
11.0677947816
 30
0.0
 10
8.9944397502
 20
11.0682990387
 30
0.0
 10
8.9924900736
 20
11.0687083604
 30
0.0
 10
8.9913081654
 20
11.0689406732
 30
0.0
 10
8.9907814758
 20
11.0690376899
 30
0.0
  0
LINE
  5
3BD
100
AcDbEntity
  8
0
100
AcDbLine
 62
7
  6
CONTINUOUS
 10
8.9907814758
 20
11.0690376899
 11
8.9886901202
 21
11.0692929099
  0
SPLINE
  5
3BE
100
AcDbEntity
  8
0
100
AcDbSpline
 62
7
  6
CONTINUOUS
 70
0
 71
3
 72
21
 73
17
 74
0
 42
0.0000001
 43
0.0000001
 44
0.0000000001
 40
0.0
 40
0.0
 40
0.0
 40
0.0
 40
0.009212982
 40
0.0187932675
 40
0.0291470632
 40
0.0405969421
 40
0.0676169432
 40
0.1010421574
 40
0.1413654925
 40
0.1887498071
 40
0.243166902
 40
0.3044689005
 40
0.4466556385
 40
0.6125607024
 40
0.7984757042
 40
1.0
 40
1.0
 40
1.0
 40
1.0
 10
8.7818762509
 20
11.1650267698
 30
0.0
 10
8.7818553604
 20
11.1649801019
 30
0.0
 10
8.7818237164
 20
11.1648795821
 30
0.0
 10
8.7818107779
 20
11.1647171772
 30
0.0
 10
8.7818313663
 20
11.1645432557
 30
0.0
 10
8.7819070651
 20
11.1642820837
 30
0.0
 10
8.7820951009
 20
11.1639261885
 30
0.0
 10
8.782433946
 20
11.1634797593
 30
0.0
 10
8.7828978537
 20
11.1629917192
 30
0.0
 10
8.783485375
 20
11.1624646058
 30
0.0
 10
8.7841943395
 20
11.1619011142
 30
0.0
 10
8.7853558716
 20
11.1610640431
 30
0.0
 10
8.7870878488
 20
11.1599641777
 30
0.0
 10
8.7894772388
 20
11.1586180727
 30
0.0
 10
8.7922143504
 20
11.1572239105
 30
0.0
 10
8.7941638251
 20
11.1563156893
 30
0.0
 10
8.7951846536
 20
11.1558587705
 30
0.0
  0
SPLINE
  5
3BF
100
AcDbEntity
  8
0
100
AcDbSpline
 62
7
  6
CONTINUOUS
 70
0
 71
3
 72
26
 73
22
 74
0
 42
0.0000001
 43
0.0000001
 44
0.0000000001
 40
0.0
 40
0.0
 40
0.0
 40
0.0
 40
0.0014855086
 40
0.0058746117
 40
0.0130668109
 40
0.0229617864
 40
0.0354594101
 40
0.0504597593
 40
0.0875699344
 40
0.133497737
 40
0.1874529442
 40
0.2486505156
 40
0.3163115001
 40
0.3896641441
 40
0.4679452544
 40
0.5504018867
 40
0.6362934537
 40
0.7248943757
 40
0.8154974418
 40
0.907418103
 40
1.0
 40
1.0
 40
1.0
 40
1.0
 10
10.2837717562
 20
11.5703758398
 30
0.0
 10
10.2837041396
 20
11.5701991056
 30
0.0
 10
10.2834340682
 20
11.5695012163
 30
0.0
 10
10.2828287137
 20
11.5679507185
 30
0.0
 10
10.2818223296
 20
11.5654068479
 30
0.0
 10
10.2804205284
 20
11.5619086759
 30
0.0
 10
10.2786278331
 20
11.5574956886
 30
0.0
 10
10.2754929822
 20
11.5498861629
 30
0.0
 10
10.2706420246
 20
11.538378202
 30
0.0
 10
10.2636883667
 20
11.5223726067
 30
0.0
 10
10.2552889427
 20
11.5036511658
 30
0.0
 10
10.2454827801
 20
11.4825285173
 30
0.0
 10
10.234308736
 20
11.4593192889
 30
0.0
 10
10.2218057258
 20
11.434338025
 30
0.0
 10
10.2080126459
 20
11.407899186
 30
0.0
 10
10.1929683917
 20
11.380317123
 30
0.0
 10
10.1767118267
 20
11.351906038
 30
0.0
 10
10.1592817991
 20
11.3229799994
 30
0.0
 10
10.1407169602
 20
11.2938526993
 30
0.0
 10
10.1210562581
 20
11.2648381668
 30
0.0
 10
10.1072617357
 20
11.245803427
 30
0.0
 10
10.1001722631
 20
11.2363789433
 30
0.0
  0
SPLINE
  5
3C0
100
AcDbEntity
  8
0
100
AcDbSpline
 62
9
  6
CONTINUOUS
 70
0
 71
3
 72
46
 73
42
 74
0
 42
0.0000001
 43
0.0000001
 44
0.0000000001
 40
0.0
 40
0.0
 40
0.0
 40
0.0
 40
0.0001004726
 40
0.0001989856
 40
0.0003160994
 40
0.0004646637
 40
0.0006509866
 40
0.0008781317
 40
0.0014602611
 40
0.0022170995
 40
0.0031501264
 40
0.0042593411
 40
0.0055440793
 40
0.0070033381
 40
0.0086359239
 40
0.0104405288
 40
0.0124157716
 40
0.0168724062
 40
0.0219940712
 40
0.0277687004
 40
0.0341840775
 40
0.0412279046
 40
0.0488878398
 40
0.0660065774
 40
0.0854413701
 40
0.1070934576
 40
0.1308643981
 40
0.1566561691
 40
0.1843712448
 40
0.2139126632
 40
0.2451840904
 40
0.2780898853
 40
0.3125351671
 40
0.3856680556
 40
0.4638424003
 40
0.5463347761
 40
0.632442848
 40
0.7214897407
 40
0.8128294608
 40
0.9058536483
 40
1.0
 40
1.0
 40
1.0
 40
1.0
 10
10.1045605168
 20
11.7059767952
 30
0.0
 10
10.1045492732
 20
11.7059852982
 30
0.0
 10
10.1045232333
 20
11.7059984398
 30
0.0
 10
10.1044772425
 20
11.70599562
 30
0.0
 10
10.1044311256
 20
11.7059715632
 30
0.0
 10
10.1043833955
 20
11.7059293287
 30
0.0
 10
10.1043327988
 20
11.705868576
 30
0.0
 10
10.1042545157
 20
11.705752712
 30
0.0
 10
10.1041514537
 20
11.7055581104
 30
0.0
 10
10.1040221459
 20
11.7052666691
 30
0.0
 10
10.1038793563
 20
11.7049006916
 30
0.0
 10
10.103722998
 20
11.7044608252
 30
0.0
 10
10.1035531327
 20
11.7039475412
 30
0.0
 10
10.1033697045
 20
11.7033615003
 30
0.0
 10
10.1031726601
 20
11.7027033526
 30
0.0
 10
10.1029619153
 20
11.7019737786
 30
0.0
 10
10.102649792
 20
11.7008610964
 30
0.0
 10
10.1022267545
 20
11.6992962138
 30
0.0
 10
10.101680961
 20
11.6972123974
 30
0.0
 10
10.1010779161
 20
11.6948595222
 30
0.0
 10
10.1004168385
 20
11.6922431359
 30
0.0
 10
10.0996969522
 20
11.6893687856
 30
0.0
 10
10.0986169792
 20
11.6850365029
 30
0.0
 10
10.0971190312
 20
11.6790166937
 30
0.0
 10
10.0951334975
 20
11.6710951784
 30
0.0
 10
10.092892809
 20
11.6622754403
 30
0.0
 10
10.0903903874
 20
11.6526020254
 30
0.0
 10
10.0876196672
 20
11.6421194801
 30
0.0
 10
10.0845740196
 20
11.6308723684
 30
0.0
 10
10.0812467988
 20
11.6189052565
 30
0.0
 10
10.0776313417
 20
11.6062627194
 30
0.0
 10
10.0737209715
 20
11.5929893136
 30
0.0
 10
10.0679896541
 20
11.5741301189
 30
0.0
 10
10.0600645629
 20
11.5493004021
 30
0.0
 10
10.0494509321
 20
11.5182589049
 30
0.0
 10
10.0374993091
 20
11.4857596451
 30
0.0
 10
10.0241562583
 20
11.4521582754
 30
0.0
 10
10.0093681848
 20
11.4178101971
 30
0.0
 10
9.9930810869
 20
11.3830702668
 30
0.0
 10
9.9752412693
 20
11.3482941278
 30
0.0
 10
9.9623292586
 20
11.3254158778
 30
0.0
 10
9.9555824703
 20
11.3140596206
 30
0.0
  0
SPLINE
  5
3C1
100
AcDbEntity
  8
0
100
AcDbSpline
 62
9
  6
CONTINUOUS
 70
0
 71
3
 72
28
 73
24
 74
0
 42
0.0000001
 43
0.0000001
 44
0.0000000001
 40
0.0
 40
0.0
 40
0.0
 40
0.0
 40
0.0158393336
 40
0.0316715897
 40
0.0474796282
 40
0.0632590328
 40
0.0790076874
 40
0.0947271062
 40
0.1260697487
 40
0.1573318002
 40
0.1885362382
 40
0.2197027962
 40
0.2508412335
 40
0.2819643359
 40
0.3130815984
 40
0.3753019419
 40
0.4375467752
 40
0.4998280582
 40
0.5621578378
 40
0.6245411642
 40
0.7494670448
 40
0.8746234094
 40
1.0
 40
1.0
 40
1.0
 40
1.0
 10
14.0351977791
 20
6.5164423966
 30
0.0
 10
14.0351983285
 20
6.5169227352
 30
0.0
 10
14.0351395483
 20
6.5178843067
 30
0.0
 10
14.0348771082
 20
6.5193033047
 30
0.0
 10
14.0344561708
 20
6.5206812863
 30
0.0
 10
14.0338992717
 20
6.5220067722
 30
0.0
 10
14.0332224335
 20
6.5232718538
 30
0.0
 10
14.0321845522
 20
6.5248711708
 30
0.0
 10
14.0306797271
 20
6.5267181633
 30
0.0
 10
14.0286473412
 20
6.5287147512
 30
0.0
 10
14.0264515972
 20
6.5305199421
 30
0.0
 10
14.0241373662
 20
6.5321619067
 30
0.0
 10
14.021737297
 20
6.5336699654
 30
0.0
 10
14.0192678248
 20
6.5350578735
 30
0.0
 10
14.0159030302
 20
6.5367695642
 30
0.0
 10
14.0115906733
 20
6.5386921244
 30
0.0
 10
14.0062972658
 20
6.5407107368
 30
0.0
 10
14.0009210028
 20
6.5425055423
 30
0.0
 10
13.9954801902
 20
6.5441075352
 30
0.0
 10
13.988156963
 20
6.5460298673
 30
0.0
 10
13.9789040116
 20
6.5480887403
 30
0.0
 10
13.967701303
 20
6.5501344152
 30
0.0
 10
13.9601885293
 20
6.5512738591
 30
0.0
 10
13.9564226598
 20
6.5517977356
 30
0.0
  0
SPLINE
  5
3C2
100
AcDbEntity
  8
0
100
AcDbSpline
 62
9
  6
CONTINUOUS
 70
0
 71
3
 72
24
 73
20
 74
0
 42
0.0000001
 43
0.0000001
 44
0.0000000001
 40
0.0
 40
0.0
 40
0.0
 40
0.0
 40
0.0324506838
 40
0.0648518327
 40
0.081015136
 40
0.0971461816
 40
0.12929248
 40
0.1612688768
 40
0.1930691128
 40
0.2561266916
 40
0.3186112463
 40
0.3806763836
 40
0.4424685612
 40
0.5041127021
 40
0.5657104495
 40
0.6273415196
 40
0.7508792219
 40
0.8750584546
 40
1.0
 40
1.0
 40
1.0
 40
1.0
 10
14.0565190621
 20
6.5164423966
 30
0.0
 10
14.0565206634
 20
6.5177395543
 30
0.0
 10
14.0563969095
 20
6.5203332636
 30
0.0
 10
14.0559580304
 20
6.5235459667
 30
0.0
 10
14.0554421921
 20
6.5260808481
 30
0.0
 10
14.0548180164
 20
6.5285807209
 30
0.0
 10
14.0538424472
 20
6.5316410004
 30
0.0
 10
14.0523861541
 20
6.5351922373
 30
0.0
 10
14.0501123327
 20
6.5397282065
 30
0.0
 10
14.046704438
 20
6.5450386435
 30
0.0
 10
14.0419037293
 20
6.5508196198
 30
0.0
 10
14.0365695446
 20
6.5560349314
 30
0.0
 10
14.0308238187
 20
6.5607353187
 30
0.0
 10
14.0247514785
 20
6.5649691031
 30
0.0
 10
14.0184217031
 20
6.5687919365
 30
0.0
 10
14.009696882
 20
6.57340295
 30
0.0
 10
13.9983473672
 20
6.5783574011
 30
0.0
 10
13.9842652297
 20
6.5832467927
 30
0.0
 10
13.9746688986
 20
6.5859292578
 30
0.0
 10
13.9698268453
 20
6.5871530747
 30
0.0
  0
SPLINE
  5
3C3
100
AcDbEntity
  8
0
100
AcDbSpline
 62
9
  6
CONTINUOUS
 70
0
 71
3
 72
13
 73
9
 74
0
 42
0.0000001
 43
0.0000001
 44
0.0000000001
 40
0.0
 40
0.0
 40
0.0
 40
0.0
 40
0.1061317547
 40
0.2199346651
 40
0.3403592593
 40
0.4662823001
 40
0.7297033671
 40
1.0
 40
1.0
 40
1.0
 40
1.0
 10
13.9564226598
 20
6.5517977356
 30
0.0
 10
13.9570747032
 20
6.5529693512
 30
0.0
 10
13.9583673531
 20
6.5554301232
 30
0.0
 10
13.9602143716
 20
6.5593142287
 30
0.0
 10
13.9620230369
 20
6.5634903046
 30
0.0
 10
13.9643932704
 20
6.5694795095
 30
0.0
 10
13.9671134125
 20
6.5773616502
 30
0.0
 10
13.9689728239
 20
6.5838467198
 30
0.0
 10
13.969826754
 20
6.5871530747
 30
0.0
  0
SPLINE
  5
3C4
100
AcDbEntity
  8
0
100
AcDbSpline
 62
9
  6
CONTINUOUS
 70
0
 71
3
 72
28
 73
24
 74
0
 42
0.0000001
 43
0.0000001
 44
0.0000000001
 40
0.0
 40
0.0
 40
0.0
 40
0.0
 40
0.1253765897
 40
0.2505329536
 40
0.3754588348
 40
0.4378421616
 40
0.5001719381
 40
0.5624532235
 40
0.6246980539
 40
0.6869183987
 40
0.7180356594
 40
0.7491587616
 40
0.7802971992
 40
0.8114637573
 40
0.8426681915
 40
0.8739302476
 40
0.9052728849
 40
0.9209923011
 40
0.9367409613
 40
0.9525203636
 40
0.9683284017
 40
0.9841606648
 40
1.0
 40
1.0
 40
1.0
 40
1.0
 10
13.689679368
 20
6.5517977356
 30
0.0
 10
13.6859134982
 20
6.5512738612
 30
0.0
 10
13.678400725
 20
6.5501344134
 30
0.0
 10
13.6671980157
 20
6.5480887424
 30
0.0
 10
13.6579450652
 20
6.546029865
 30
0.0
 10
13.6506218365
 20
6.5441075386
 30
0.0
 10
13.645181026
 20
6.5425055386
 30
0.0
 10
13.6398047608
 20
6.5407107402
 30
0.0
 10
13.6345113556
 20
6.5386921216
 30
0.0
 10
13.6301989966
 20
6.5367695662
 30
0.0
 10
13.6268342031
 20
6.5350578731
 30
0.0
 10
13.6243647316
 20
6.5336699642
 30
0.0
 10
13.6219646611
 20
6.5321619074
 30
0.0
 10
13.6196504296
 20
6.5305199434
 30
0.0
 10
13.6174546889
 20
6.5287147485
 30
0.0
 10
13.6154223007
 20
6.5267181638
 30
0.0
 10
13.6139174703
 20
6.5248711748
 30
0.0
 10
13.6128795983
 20
6.5232718517
 30
0.0
 10
13.6122027601
 20
6.5220067705
 30
0.0
 10
13.6116458541
 20
6.5206812874
 30
0.0
 10
13.6112249157
 20
6.5193033057
 30
0.0
 10
13.610962477
 20
6.5178843072
 30
0.0
 10
13.6109036975
 20
6.5169227353
 30
0.0
 10
13.6109042486
 20
6.5164423966
 30
0.0
  0
SPLINE
  5
3C5
100
AcDbEntity
  8
0
100
AcDbSpline
 62
9
  6
CONTINUOUS
 70
0
 71
3
 72
24
 73
20
 74
0
 42
0.0000001
 43
0.0000001
 44
0.0000000001
 40
0.0
 40
0.0
 40
0.0
 40
0.0
 40
0.1249415465
 40
0.2491207795
 40
0.3726584787
 40
0.4342895498
 40
0.4958872993
 40
0.5575314429
 40
0.6193236208
 40
0.681388754
 40
0.743873315
 40
0.8069308875
 40
0.8387311297
 40
0.8707075193
 40
0.9028538182
 40
0.9189848702
 40
0.9351481742
 40
0.9675493129
 40
1.0
 40
1.0
 40
1.0
 40
1.0
 10
13.6762751825
 20
6.5871530747
 30
0.0
 10
13.6714331292
 20
6.5859292579
 30
0.0
 10
13.6618368006
 20
6.5832467836
 30
0.0
 10
13.647754664
 20
6.5783573921
 30
0.0
 10
13.6364051437
 20
6.573402954
 30
0.0
 10
13.6276803223
 20
6.5687919411
 30
0.0
 10
13.6213505494
 20
6.5649691028
 30
0.0
 10
13.6152782154
 20
6.5607353099
 30
0.0
 10
13.6095324822
 20
6.5560349318
 30
0.0
 10
13.6041983019
 20
6.5508196157
 30
0.0
 10
13.5993975872
 20
6.5450386446
 30
0.0
 10
13.5959897001
 20
6.5397282022
 30
0.0
 10
13.5937158749
 20
6.535192236
 30
0.0
 10
13.5922595681
 20
6.5316410042
 30
0.0
 10
13.5912840172
 20
6.5285807185
 30
0.0
 10
13.5906598462
 20
6.5260808446
 30
0.0
 10
13.590143998
 20
6.5235459656
 30
0.0
 10
13.5897051027
 20
6.5203332645
 30
0.0
 10
13.5895813584
 20
6.5177395545
 30
0.0
 10
13.5895829657
 20
6.5164423966
 30
0.0
  0
SPLINE
  5
3C6
100
AcDbEntity
  8
0
100
AcDbSpline
 62
9
  6
CONTINUOUS
 70
0
 71
3
 72
13
 73
9
 74
0
 42
0.0000001
 43
0.0000001
 44
0.0000000001
 40
0.0
 40
0.0
 40
0.0
 40
0.0
 40
0.1061313405
 40
0.2199339144
 40
0.3403582736
 40
0.4662812027
 40
0.7297024891
 40
1.0
 40
1.0
 40
1.0
 40
1.0
 10
13.689679368
 20
6.5517977756
 30
0.0
 10
13.6890273215
 20
6.5529693837
 30
0.0
 10
13.6877346649
 20
6.5554301421
 30
0.0
 10
13.6858876356
 20
6.5593142296
 30
0.0
 10
13.6840789577
 20
6.5634902916
 30
0.0
 10
13.6817087029
 20
6.5694794877
 30
0.0
 10
13.6789885301
 20
6.5773616328
 30
0.0
 10
13.6771290942
 20
6.5838467111
 30
0.0
 10
13.6762751508
 20
6.5871530747
 30
0.0
  0
SPLINE
  5
3C7
100
AcDbEntity
  8
0
100
AcDbSpline
 62
7
  6
CONTINUOUS
 70
0
 71
3
 72
17
 73
13
 74
0
 42
0.0000001
 43
0.0000001
 44
0.0000000001
 40
0.0
 40
0.0
 40
0.0
 40
0.0
 40
0.0211426789
 40
0.0436934211
 40
0.0698578324
 40
0.1010817109
 40
0.1816828819
 40
0.2890793688
 40
0.4244421503
 40
0.5881836558
 40
0.7801739912
 40
1.0
 40
1.0
 40
1.0
 40
1.0
 10
9.1367057015
 20
11.0643813266
 30
0.0
 10
9.1366997495
 20
11.0643680199
 30
0.0
 10
9.1366923708
 20
11.0643379946
 30
0.0
 10
9.1366982936
 20
11.0642893863
 30
0.0
 10
9.1367197851
 20
11.064238106
 30
0.0
 10
9.1367729766
 20
11.0641587529
 30
0.0
 10
9.1368821888
 20
11.0640525363
 30
0.0
 10
9.1370610855
 20
11.0639192592
 30
0.0
 10
9.1372992472
 20
11.0637709531
 30
0.0
 10
9.1375962257
 20
11.0636081429
 30
0.0
 10
9.1379515763
 20
11.0634313213
 30
0.0
 10
9.1382094726
 20
11.0633124633
 30
0.0
 10
9.1383478098
 20
11.0632505442
 30
0.0
  0
SPLINE
  5
3C8
100
AcDbEntity
  8
0
100
AcDbSpline
 62
7
  6
CONTINUOUS
 70
0
 71
3
 72
23
 73
19
 74
0
 42
0.0000001
 43
0.0000001
 44
0.0000000001
 40
0.0
 40
0.0
 40
0.0
 40
0.0
 40
0.036084877
 40
0.0495129682
 40
0.0649495119
 40
0.0824355564
 40
0.1019813888
 40
0.1235720761
 40
0.1471742991
 40
0.2002189416
 40
0.2606302655
 40
0.327777887
 40
0.4009172366
 40
0.47920288
 40
0.5616993229
 40
0.6473942919
 40
0.8240103059
 40
1.0
 40
1.0
 40
1.0
 40
1.0
 10
8.614581041
 20
11.2423556892
 30
0.0
 10
8.6144356041
 20
11.2420306564
 30
0.0
 10
8.6146292555
 20
11.2414762374
 30
0.0
 10
8.614956322
 20
11.2409414272
 30
0.0
 10
8.615227698
 20
11.2405689583
 30
0.0
 10
8.6155597204
 20
11.2401725509
 30
0.0
 10
8.6159538252
 20
11.2397483789
 30
0.0
 10
8.6164082418
 20
11.2392992531
 30
0.0
 10
8.6171214555
 20
11.238642391
 30
0.0
 10
8.6181579166
 20
11.2377724334
 30
0.0
 10
8.6195726597
 20
11.2366878897
 30
0.0
 10
8.6211868629
 20
11.2355397734
 30
0.0
 10
8.6229815215
 20
11.2343428833
 30
0.0
 10
8.624935188
 20
11.2331129415
 30
0.0
 10
8.6270239074
 20
11.2318662912
 30
0.0
 10
8.6299837878
 20
11.2301875349
 30
0.0
 10
8.6338130309
 20
11.2281738278
 30
0.0
 10
8.6369572587
 20
11.2266807231
 30
0.0
 10
8.6385423925
 20
11.2259712235
 30
0.0
  0
SPLINE
  5
3C9
100
AcDbEntity
  8
0
100
AcDbSpline
 62
7
  6
CONTINUOUS
 70
0
 71
3
 72
23
 73
19
 74
0
 42
0.0000001
 43
0.0000001
 44
0.0000000001
 40
0.0
 40
0.0
 40
0.0
 40
0.0
 40
0.0625208114
 40
0.1250433085
 40
0.1875560159
 40
0.2500613991
 40
0.312557113
 40
0.375044193
 40
0.4375232135
 40
0.4999979704
 40
0.5624737421
 40
0.6249552476
 40
0.6874436169
 40
0.7499388657
 40
0.812444004
 40
0.8749566852
 40
0.9374792419
 40
1.0
 40
1.0
 40
1.0
 40
1.0
 10
13.1976610783
 20
7.7102625851
 30
0.0
 10
13.199374469
 20
7.7096740386
 30
0.0
 10
13.2028466903
 20
7.7086232109
 30
0.0
 10
13.2081705899
 20
7.7074951632
 30
0.0
 10
13.2135824839
 20
7.7068982382
 30
0.0
 10
13.2190300225
 20
7.7069301515
 30
0.0
 10
13.2244280787
 20
7.7076871047
 30
0.0
 10
13.2296583627
 20
7.7092316693
 30
0.0
 10
13.2345792271
 20
7.7115876915
 30
0.0
 10
13.2390414671
 20
7.7147289709
 30
0.0
 10
13.242909964
 20
7.7185779632
 30
0.0
 10
13.2460848032
 20
7.7230150438
 30
0.0
 10
13.2485141733
 20
7.7278977453
 30
0.0
 10
13.2501969943
 20
7.7330823651
 30
0.0
 10
13.2511743651
 20
7.7384415823
 30
0.0
 10
13.2515262783
 20
7.7438749057
 30
0.0
 10
13.251339851
 20
7.7493138063
 30
0.0
 10
13.2509079334
 20
7.7529157513
 30
0.0
 10
13.2506258556
 20
7.7547053102
 30
0.0
  0
LINE
  5
3CA
100
AcDbEntity
  8
0
100
AcDbLine
 62
7
  6
CONTINUOUS
 10
9.3578865107
 20
11.0298030162
 11
9.3585435177
 21
11.0293525558
  0
SPLINE
  5
3CB
100
AcDbEntity
  8
0
100
AcDbSpline
 62
7
  6
CONTINUOUS
 70
0
 71
3
 72
23
 73
19
 74
0
 42
0.0000001
 43
0.0000001
 44
0.0000000001
 40
0.0
 40
0.0
 40
0.0
 40
0.0
 40
0.0654642849
 40
0.1318961076
 40
0.1989088119
 40
0.2661766997
 40
0.3333967383
 40
0.4003092815
 40
0.4666840705
 40
0.5323086294
 40
0.5969713358
 40
0.6604513592
 40
0.7225039906
 40
0.7828393625
 40
0.8411256072
 40
0.8970028141
 40
0.950098029
 40
1.0
 40
1.0
 40
1.0
 40
1.0
 10
13.2856973562
 20
7.7841864568
 30
0.0
 10
13.2869067336
 20
7.785201245
 30
0.0
 10
13.2893904067
 20
7.7871898074
 30
0.0
 10
13.2932152864
 20
7.7900849778
 30
0.0
 10
13.29711337
 20
7.7929545702
 30
0.0
 10
13.3010335407
 20
7.7958260875
 30
0.0
 10
13.304933596
 20
7.7987209566
 30
0.0
 10
13.3087806067
 20
7.801650706
 30
0.0
 10
13.312547599
 20
7.8046210677
 30
0.0
 10
13.3162130736
 20
7.8076311395
 30
0.0
 10
13.3197614122
 20
7.8106722472
 30
0.0
 10
13.3231806469
 20
7.8137300046
 30
0.0
 10
13.3264641311
 20
7.8167816383
 30
0.0
 10
13.3296094585
 20
7.8197970175
 30
0.0
 10
13.3326185343
 20
7.8227388499
 30
0.0
 10
13.3355017821
 20
7.8255596882
 30
0.0
 10
13.3382753033
 20
7.8282031586
 30
0.0
 10
13.3401280382
 20
7.8298592221
 30
0.0
 10
13.3410499197
 20
7.8306327725
 30
0.0
  0
SPLINE
  5
3CC
100
AcDbEntity
  8
0
100
AcDbSpline
 62
7
  6
CONTINUOUS
 70
0
 71
3
 72
22
 73
18
 74
0
 42
0.0000001
 43
0.0000001
 44
0.0000000001
 40
0.0
 40
0.0
 40
0.0
 40
0.0
 40
0.0743242366
 40
0.1483611851
 40
0.221734221
 40
0.2941355018
 40
0.4349637293
 40
0.5029754256
 40
0.5691291374
 40
0.633224404
 40
0.6950414854
 40
0.7543223103
 40
0.8107447816
 40
0.8639325816
 40
0.913483977
 40
0.9589844815
 40
1.0
 40
1.0
 40
1.0
 40
1.0
 10
13.3719818766
 20
7.8565877661
 30
0.0
 10
13.3732245028
 20
7.8576304533
 30
0.0
 10
13.3757509034
 20
7.8596571503
 30
0.0
 10
13.3796079553
 20
7.8625803053
 30
0.0
 10
13.3834729145
 20
7.8654224855
 30
0.0
 10
13.3885257014
 20
7.8691095669
 30
0.0
 10
13.3934545009
 20
7.8727691394
 30
0.0
 10
13.39817698
 20
7.876473756
 30
0.0
 10
13.4015245933
 20
7.8792160189
 30
0.0
 10
13.4047050273
 20
7.8819473001
 30
0.0
 10
13.4077073052
 20
7.8846539675
 30
0.0
 10
13.4105250738
 20
7.887313563
 30
0.0
 10
13.4131557778
 20
7.889895781
 30
0.0
 10
13.4156008099
 20
7.8923633028
 30
0.0
 10
13.4178705748
 20
7.8946689544
 30
0.0
 10
13.4199816569
 20
7.89675754
 30
0.0
 10
13.4213752882
 20
7.8980337596
 30
0.0
 10
13.4220610263
 20
7.8986091622
 30
0.0
  0
SPLINE
  5
3CD
100
AcDbEntity
  8
0
100
AcDbSpline
 62
7
  6
CONTINUOUS
 70
0
 71
3
 72
25
 73
21
 74
0
 42
0.0000001
 43
0.0000001
 44
0.0000000001
 40
0.0
 40
0.0
 40
0.0
 40
0.0
 40
0.0860532726
 40
0.1701648453
 40
0.3311784825
 40
0.4075392401
 40
0.4808758169
 40
0.5510374567
 40
0.6178658761
 40
0.6811812093
 40
0.7407731077
 40
0.7963740669
 40
0.8476254933
 40
0.8940927172
 40
0.9153870641
 40
0.935306764
 40
0.9537887565
 40
0.9707723434
 40
0.9861941244
 40
1.0
 40
1.0
 40
1.0
 40
1.0
 10
13.4489755366
 20
7.9211931178
 30
0.0
 10
13.4501733633
 20
7.9221982137
 30
0.0
 10
13.4525868281
 20
7.9241324607
 30
0.0
 10
13.4573927852
 20
7.9277547974
 30
0.0
 10
13.4621429332
 20
7.9311554881
 30
0.0
 10
13.4667105007
 20
7.934474078
 30
0.0
 10
13.4699136047
 20
7.9368618623
 30
0.0
 10
13.4729341417
 20
7.9392038144
 30
0.0
 10
13.4757558315
 20
7.941503492
 30
0.0
 10
13.4783669656
 20
7.9437555121
 30
0.0
 10
13.480758314
 20
7.9459477492
 30
0.0
 10
13.4829247183
 20
7.948058783
 30
0.0
 10
13.484864612
 20
7.9500588005
 30
0.0
 10
13.4863335491
 20
7.9516460446
 30
0.0
 10
13.4874061303
 20
7.9528241555
 30
0.0
 10
13.4881358187
 20
7.9536267643
 30
0.0
 10
13.4888176226
 20
7.954367027
 30
0.0
 10
13.4894542063
 20
7.9550377718
 30
0.0
 10
13.4900489644
 20
7.9556306923
 30
0.0
 10
13.4904424432
 20
7.9559879839
 30
0.0
 10
13.4906346154
 20
7.9561492355
 30
0.0
  0
SPLINE
  5
3CE
100
AcDbEntity
  8
0
100
AcDbSpline
 62
7
  6
CONTINUOUS
 70
0
 71
3
 72
28
 73
24
 74
0
 42
0.0000001
 43
0.0000001
 44
0.0000000001
 40
0.0
 40
0.0
 40
0.0
 40
0.0
 40
0.2053906049
 40
0.3008321595
 40
0.391042344
 40
0.4758020751
 40
0.5550022275
 40
0.6285613208
 40
0.6963776867
 40
0.7583179567
 40
0.8142089149
 40
0.8637979722
 40
0.9066995664
 40
0.9254914729
 40
0.9424190078
 40
0.9574069255
 40
0.9703717001
 40
0.9812185706
 40
0.9898457022
 40
0.9932910267
 40
0.9961374512
 40
0.9983738508
 40
1.0
 40
1.0
 40
1.0
 40
1.0
 10
13.5118405414
 20
7.9739431201
 30
0.0
 10
13.5139484603
 20
7.9757118741
 30
0.0
 10
13.5171599343
 20
7.9781543825
 30
0.0
 10
13.5214289835
 20
7.9811903291
 30
0.0
 10
13.5243992421
 20
7.9832646932
 30
0.0
 10
13.5271850456
 20
7.9852229469
 30
0.0
 10
13.5297645673
 20
7.9870865588
 30
0.0
 10
13.5321213327
 20
7.9888699497
 30
0.0
 10
13.5342424429
 20
7.9905797441
 30
0.0
 10
13.5361192035
 20
7.9922129423
 30
0.0
 10
13.5377450297
 20
7.9937593817
 30
0.0
 10
13.5391168169
 20
7.9951992879
 30
0.0
 10
13.540087704
 20
7.9963318082
 30
0.0
 10
13.5407379108
 20
7.9971606335
 30
0.0
 10
13.5411430154
 20
7.9977060735
 30
0.0
 10
13.5414893031
 20
7.9981976939
 30
0.0
 10
13.5417788354
 20
7.9986294501
 30
0.0
 10
13.5420151937
 20
7.9989941531
 30
0.0
 10
13.5421803972
 20
7.9992530009
 30
0.0
 10
13.5422903577
 20
7.999419896
 30
0.0
 10
13.5423554719
 20
7.9995138485
 30
0.0
 10
13.54241009
 20
7.9995851846
 30
0.0
 10
13.542445267
 20
7.9996235341
 30
0.0
 10
13.5424619562
 20
7.999637538
 30
0.0
  0
SPLINE
  5
3CF
100
AcDbEntity
  8
0
100
AcDbSpline
 62
7
  6
CONTINUOUS
 70
0
 71
3
 72
22
 73
18
 74
0
 42
0.0000001
 43
0.0000001
 44
0.0000000001
 40
0.0
 40
0.0
 40
0.0
 40
0.0
 40
0.2204817341
 40
0.4143914418
 40
0.5807669477
 40
0.653489503
 40
0.719276106
 40
0.7781391725
 40
0.8301002461
 40
0.8751687587
 40
0.9133764616
 40
0.9447481864
 40
0.9579060531
 40
0.9693924373
 40
0.9792399153
 40
0.9875236962
 40
1.0
 40
1.0
 40
1.0
 40
1.0
 10
13.5566268516
 20
8.0115232965
 30
0.0
 10
13.5580224158
 20
8.0126943139
 30
0.0
 10
13.5607460552
 20
8.0147761767
 30
0.0
 10
13.5647186693
 20
8.0174691448
 30
0.0
 10
13.5677216256
 20
8.0194142223
 30
0.0
 10
13.5698194213
 20
8.020809161
 30
0.0
 10
13.5711609816
 20
8.0217366524
 30
0.0
 10
13.5723386322
 20
8.0225988896
 30
0.0
 10
13.5733473554
 20
8.0234005848
 30
0.0
 10
13.5741858854
 20
8.024140261
 30
0.0
 10
13.5748515627
 20
8.0248153847
 30
0.0
 10
13.575286981
 20
8.0253444909
 30
0.0
 10
13.5755426959
 20
8.0257308758
 30
0.0
 10
13.5756802842
 20
8.025980654
 30
0.0
 10
13.5757759584
 20
8.0262072365
 30
0.0
 10
13.5758417474
 20
8.0264499758
 30
0.0
 10
13.5758430881
 20
8.0266333127
 30
0.0
 10
13.5758025303
 20
8.0267280875
 30
0.0
  0
SPLINE
  5
3D0
100
AcDbEntity
  8
0
100
AcDbSpline
 62
7
  6
CONTINUOUS
 70
0
 71
3
 72
22
 73
18
 74
0
 42
0.0000001
 43
0.0000001
 44
0.0000000001
 40
0.0
 40
0.0
 40
0.0
 40
0.0
 40
0.2341374892
 40
0.4367924382
 40
0.6081100557
 40
0.7480278711
 40
0.8062166714
 40
0.856630998
 40
0.8993277586
 40
0.9343396732
 40
0.9489760112
 40
0.96170979
 40
0.9725528781
 40
0.9815205679
 40
0.988641024
 40
0.9939739332
 40
1.0
 40
1.0
 40
1.0
 40
1.0
 10
13.5805203785
 20
8.0315723461
 30
0.0
 10
13.5812409581
 20
8.0321769842
 30
0.0
 10
13.5826337673
 20
8.0332483421
 30
0.0
 10
13.5846741637
 20
8.034594698
 30
0.0
 10
13.5864579014
 20
8.0356357845
 30
0.0
 10
13.587767072
 20
8.0363352845
 30
0.0
 10
13.5886536485
 20
8.0367944669
 30
0.0
 10
13.5891941345
 20
8.0370725972
 30
0.0
 10
13.5896502886
 20
8.0373110999
 30
0.0
 10
13.5899764831
 20
8.0374878899
 30
0.0
 10
13.5901938651
 20
8.0376126917
 30
0.0
 10
13.5903252177
 20
8.0376920828
 30
0.0
 10
13.5904350031
 20
8.0377634738
 30
0.0
 10
13.5905227546
 20
8.0378259804
 30
0.0
 10
13.5905901351
 20
8.0378818604
 30
0.0
 10
13.590640046
 20
8.0379316562
 30
0.0
 10
13.5906692282
 20
8.037980577
 30
0.0
 10
13.5906600453
 20
8.0380029776
 30
0.0
  0
SPLINE
  5
3D1
100
AcDbEntity
  8
0
100
AcDbSpline
 62
7
  6
CONTINUOUS
 70
0
 71
3
 72
17
 73
13
 74
0
 42
0.0000001
 43
0.0000001
 44
0.0000000001
 40
0.0
 40
0.0
 40
0.0
 40
0.0
 40
0.020737814
 40
0.0430310493
 40
0.0691063374
 40
0.1003940188
 40
0.1814139179
 40
0.2893988028
 40
0.425328628
 40
0.5893514267
 40
0.7811704279
 40
1.0
 40
1.0
 40
1.0
 40
1.0
 10
9.2934538131
 20
11.0591002822
 30
0.0
 10
9.2934446516
 20
11.0590798025
 30
0.0
 10
9.293433507
 20
11.0590332782
 30
0.0
 10
9.2934436589
 20
11.0589579249
 30
0.0
 10
9.2934782636
 20
11.0588781851
 30
0.0
 10
9.2935632544
 20
11.0587542126
 30
0.0
 10
9.2937364028
 20
11.0585878278
 30
0.0
 10
9.2940190597
 20
11.0583784746
 30
0.0
 10
9.2943943837
 20
11.0581454443
 30
0.0
 10
9.2948610992
 20
11.057889763
 30
0.0
 10
9.2954178442
 20
11.0576127577
 30
0.0
 10
9.2958213543
 20
11.0574267466
 30
0.0
 10
9.2960374401
 20
11.0573300275
 30
0.0
  0
SPLINE
  5
3D2
100
AcDbEntity
  8
0
100
AcDbSpline
 62
9
  6
CONTINUOUS
 70
0
 71
3
 72
23
 73
19
 74
0
 42
0.0000001
 43
0.0000001
 44
0.0000000001
 40
0.0
 40
0.0
 40
0.0
 40
0.0
 40
0.111631087
 40
0.168870825
 40
0.2270287466
 40
0.3460301963
 40
0.4068465878
 40
0.4685404286
 40
0.5311247811
 40
0.5946164514
 40
0.6590564237
 40
0.724508497
 40
0.7576360884
 40
0.7910447841
 40
0.8247670016
 40
0.8588549123
 40
0.9283486726
 40
1.0
 40
1.0
 40
1.0
 40
1.0
 10
9.9312168525
 20
10.8904256656
 30
0.0
 10
9.9344187809
 20
10.8798371155
 30
0.0
 10
9.9393445414
 20
10.8638437897
 30
0.0
 10
9.9461499816
 20
10.8424002604
 30
0.0
 10
9.9533116423
 20
10.8203039812
 30
0.0
 10
9.9608152763
 20
10.7979462915
 30
0.0
 10
9.9687053142
 20
10.7753514028
 30
0.0
 10
9.9749128896
 20
10.7580914875
 30
0.0
 10
9.9813939244
 20
10.7406492223
 30
0.0
 10
9.9881733402
 20
10.7230287454
 30
0.0
 10
9.9952888613
 20
10.7052347258
 30
0.0
 10
10.0015121259
 20
10.6903262938
 30
0.0
 10
10.0067015567
 20
10.678320304
 30
0.0
 10
10.0107221813
 20
10.6692349375
 30
0.0
 10
10.014872307
 20
10.6601032719
 30
0.0
 10
10.0206493749
 20
10.6477841779
 30
0.0
 10
10.0283467071
 20
10.632215749
 30
0.0
 10
10.0349661979
 20
10.61989038
 30
0.0
 10
10.0384438502
 20
10.6137000604
 30
0.0
  0
SPLINE
  5
3D3
100
AcDbEntity
  8
0
100
AcDbSpline
 62
9
  6
CONTINUOUS
 70
0
 71
3
 72
11
 73
7
 74
0
 42
0.0000001
 43
0.0000001
 44
0.0000000001
 40
0.0
 40
0.0
 40
0.0
 40
0.0
 40
0.2502194911
 40
0.5006376526
 40
0.750725341
 40
1.0
 40
1.0
 40
1.0
 40
1.0
 10
10.0384438502
 20
10.6137000604
 30
0.0
 10
9.9798417979
 20
10.614041058
 30
0.0
 10
9.8625879988
 20
10.6143332495
 30
0.0
 10
9.6867643034
 20
10.6128881146
 30
0.0
 10
9.5111999515
 20
10.6088394558
 30
0.0
 10
9.3943390822
 20
10.6039127824
 30
0.0
 10
9.3360421023
 20
10.6007676502
 30
0.0
  0
SPLINE
  5
3D4
100
AcDbEntity
  8
0
100
AcDbSpline
 62
9
  6
CONTINUOUS
 70
0
 71
3
 72
32
 73
28
 74
0
 42
0.0000001
 43
0.0000001
 44
0.0000000001
 40
0.0
 40
0.0
 40
0.0
 40
0.0
 40
0.0880914408
 40
0.1363033459
 40
0.1871813737
 40
0.2406401212
 40
0.2965979457
 40
0.3549994358
 40
0.4158115063
 40
0.4790068911
 40
0.5114936274
 40
0.5445778403
 40
0.5782662739
 40
0.6125672115
 40
0.6475004185
 40
0.6830952069
 40
0.719382915
 40
0.7564035061
 40
0.7942214376
 40
0.8134521555
 40
0.8329097739
 40
0.8526039997
 40
0.8725515003
 40
0.8927914296
 40
0.9133686969
 40
0.9557210385
 40
1.0
 40
1.0
 40
1.0
 40
1.0
 10
9.1276436245
 20
11.0344433258
 30
0.0
 10
9.1322210425
 20
11.0210137548
 30
0.0
 10
9.1394307744
 20
11.0002772099
 30
0.0
 10
9.1496214822
 20
10.9719036259
 30
0.0
 10
9.1581180894
 20
10.9488492573
 30
0.0
 10
9.1672728209
 20
10.9247089675
 30
0.0
 10
9.1771155163
 20
10.8995349963
 30
0.0
 10
9.1876989119
 20
10.8733808305
 30
0.0
 10
9.1990903033
 20
10.8462988175
 30
0.0
 10
9.2092150017
 20
10.8232150542
 30
0.0
 10
9.217780164
 20
10.8043266522
 30
0.0
 10
9.2245149515
 20
10.7898272033
 30
0.0
 10
9.2315172687
 20
10.7751306718
 30
0.0
 10
9.2388027543
 20
10.7602401131
 30
0.0
 10
9.2463957634
 20
10.7451593236
 30
0.0
 10
9.2543264795
 20
10.7298917381
 30
0.0
 10
9.2626247849
 20
10.714437999
 30
0.0
 10
9.2713243317
 20
10.6987953794
 30
0.0
 10
9.2789077097
 20
10.6856777514
 30
0.0
 10
9.2852192255
 20
10.6750943889
 30
0.0
 10
9.2901118345
 20
10.6670640513
 30
0.0
 10
9.2951437927
 20
10.6589839607
 30
0.0
 10
9.3003254933
 20
10.6508492315
 30
0.0
 10
9.3056829293
 20
10.6426585405
 30
0.0
 10
9.3131685601
 20
10.6315493187
 30
0.0
 10
9.3231475906
 20
10.6174536856
 30
0.0
 10
9.3316109722
 20
10.606355676
 30
0.0
 10
9.3360421023
 20
10.6007676502
 30
0.0
  0
SPLINE
  5
3D5
100
AcDbEntity
  8
0
100
AcDbSpline
 62
9
  6
CONTINUOUS
 70
0
 71
3
 72
15
 73
11
 74
0
 42
0.0000001
 43
0.0000001
 44
0.0000000001
 40
0.0
 40
0.0
 40
0.0
 40
0.0
 40
0.1279174388
 40
0.2551057919
 40
0.3814520061
 40
0.5068857642
 40
0.6313866981
 40
0.7549920362
 40
0.8778044845
 40
1.0
 40
1.0
 40
1.0
 40
1.0
 10
9.3360421023
 20
10.6007676502
 30
0.0
 10
9.2832009095
 20
10.5979168587
 30
0.0
 10
9.1778753793
 20
10.5911073389
 30
0.0
 10
9.0206891841
 20
10.5769642016
 30
0.0
 10
8.8649950972
 20
10.5583701143
 30
0.0
 10
8.7110973862
 20
10.5347767729
 30
0.0
 10
8.5592996838
 20
10.5056346145
 30
0.0
 10
8.4099043577
 20
10.4703916553
 30
0.0
 10
8.2632220127
 20
10.4284969562
 30
0.0
 10
8.1672577483
 20
10.3956973881
 30
0.0
 10
8.1198976552
 20
10.3780220049
 30
0.0
  0
SPLINE
  5
3D6
100
AcDbEntity
  8
0
100
AcDbSpline
 62
9
  6
CONTINUOUS
 70
0
 71
3
 72
34
 73
30
 74
0
 42
0.0000001
 43
0.0000001
 44
0.0000000001
 40
0.0
 40
0.0
 40
0.0
 40
0.0
 40
0.0040943041
 40
0.0162314747
 40
0.0637605266
 40
0.080330432
 40
0.098732371
 40
0.1409729003
 40
0.190377217
 40
0.2468940311
 40
0.2778110711
 40
0.3105050736
 40
0.381256701
 40
0.4193437654
 40
0.4593013136
 40
0.5011977528
 40
0.5451044747
 40
0.5911109392
 40
0.6393710379
 40
0.6900905564
 40
0.7436065059
 40
0.7715385512
 40
0.8003517391
 40
0.8301346367
 40
0.8609775239
 40
0.8930210534
 40
0.9266054301
 40
0.9621290122
 40
1.0
 40
1.0
 40
1.0
 40
1.0
 10
7.7548729439
 20
10.7949447332
 30
0.0
 10
7.7553085086
 20
10.7943219244
 30
0.0
 10
7.7570334428
 20
10.791851589
 30
0.0
 10
7.7637854655
 20
10.7821309695
 30
0.0
 10
7.7718120137
 20
10.770476084
 30
0.0
 10
7.7804666008
 20
10.7578418801
 30
0.0
 10
7.7885728172
 20
10.7460219511
 30
0.0
 10
7.8001760163
 20
10.7292097803
 30
0.0
 10
7.815962819
 20
10.7066890625
 30
0.0
 10
7.8307613301
 20
10.6860438543
 30
0.0
 10
7.8439195584
 20
10.6680410472
 30
0.0
 10
7.8587883007
 20
10.6480164246
 30
0.0
 10
7.8747286762
 20
10.6271306086
 30
0.0
 10
7.8918110164
 20
10.6054258203
 30
0.0
 10
7.9057859921
 20
10.5880933622
 30
0.0
 10
7.9206767854
 20
10.5701140656
 30
0.0
 10
7.9365509405
 20
10.5514943327
 30
0.0
 10
7.9534863861
 20
10.5322306841
 30
0.0
 10
7.9716053685
 20
10.5123286118
 30
0.0
 10
7.9910594224
 20
10.4917632488
 30
0.0
 10
8.0083182735
 20
10.4743232419
 30
0.0
 10
8.0229811288
 20
10.4600429338
 30
0.0
 10
8.0346398125
 20
10.448994255
 30
0.0
 10
8.0468563905
 20
10.4377512342
 30
0.0
 10
8.0596914501
 20
10.4262977048
 30
0.0
 10
8.0732422395
 20
10.4145893961
 30
0.0
 10
8.0877025017
 20
10.4026098795
 30
0.0
 10
8.1032963535
 20
10.3903115501
 30
0.0
 10
8.1142118072
 20
10.3821559069
 30
0.0
 10
8.1198976552
 20
10.3780220049
 30
0.0
  0
LINE
  5
3D7
100
AcDbEntity
  8
0
100
AcDbLine
 62
7
  6
CONTINUOUS
 10
13.2506258556
 20
7.7547053102
 11
13.2527263374
 21
7.7564491387
  0
SPLINE
  5
3D8
100
AcDbEntity
  8
0
100
AcDbSpline
 62
7
  6
CONTINUOUS
 70
0
 71
3
 72
11
 73
7
 74
0
 42
0.0000001
 43
0.0000001
 44
0.0000000001
 40
0.0
 40
0.0
 40
0.0
 40
0.0
 40
0.2500009485
 40
0.5000016331
 40
0.7500016591
 40
1.0
 40
1.0
 40
1.0
 40
1.0
 10
13.2527263374
 20
7.7564491387
 30
0.0
 10
13.2554875714
 20
7.7587386782
 30
0.0
 10
13.261021574
 20
7.7633038858
 30
0.0
 10
13.2693797909
 20
7.7700819285
 30
0.0
 10
13.2778241201
 20
7.7767525579
 30
0.0
 10
13.2835351341
 20
7.7810953165
 30
0.0
 10
13.2864182801
 20
7.7832292342
 30
0.0
  0
SPLINE
  5
3D9
100
AcDbEntity
  8
0
100
AcDbSpline
 62
7
  6
CONTINUOUS
 70
0
 71
3
 72
27
 73
23
 74
0
 42
0.0000001
 43
0.0000001
 44
0.0000000001
 40
0.0
 40
0.0
 40
0.0
 40
0.0
 40
0.1249969991
 40
0.2499929563
 40
0.312492516
 40
0.3749920828
 40
0.4374916657
 40
0.4999910922
 40
0.5624901595
 40
0.6249884786
 40
0.6874851561
 40
0.7499783661
 40
0.7812298322
 40
0.8124816533
 40
0.8437332931
 40
0.8749837504
 40
0.9062302781
 40
0.9374643595
 40
0.9531008465
 40
0.9687341055
 40
0.9843694936
 40
1.0
 40
1.0
 40
1.0
 40
1.0
 10
13.2864182801
 20
7.7832292342
 30
0.0
 10
13.2885676682
 20
7.7848200718
 30
0.0
 10
13.2928974691
 20
7.7879601205
 30
0.0
 10
13.2984063089
 20
7.791749277
 30
0.0
 10
13.3028855331
 20
7.7946719519
 30
0.0
 10
13.3062855955
 20
7.7968006256
 30
0.0
 10
13.3097311684
 20
7.7988549871
 30
0.0
 10
13.3132280871
 20
7.8008209602
 30
0.0
 10
13.3167831702
 20
7.8026800757
 30
0.0
 10
13.3204046249
 20
7.8044072203
 30
0.0
 10
13.3241019833
 20
7.8059660597
 30
0.0
 10
13.3272566531
 20
7.8070801711
 30
0.0
 10
13.3298290299
 20
7.8078136471
 30
0.0
 10
13.3317839792
 20
7.8082666252
 30
0.0
 10
13.3337637497
 20
7.8085975911
 30
0.0
 10
13.3357647568
 20
7.8087702753
 30
0.0
 10
13.337773976
 20
7.8087305409
 30
0.0
 10
13.3394319034
 20
7.8084498263
 30
0.0
 10
13.340700171
 20
7.8080169475
 30
0.0
 10
13.3416028002
 20
7.8075707825
 30
0.0
 10
13.3424276548
 20
7.8069922223
 30
0.0
 10
13.3429045812
 20
7.80651738
 30
0.0
 10
13.3431195192
 20
7.8062612268
 30
0.0
  0
SPLINE
  5
3DA
100
AcDbEntity
  8
0
100
AcDbSpline
 62
9
  6
CONTINUOUS
 70
0
 71
3
 72
14
 73
10
 74
0
 42
0.0000001
 43
0.0000001
 44
0.0000000001
 40
0.0
 40
0.0
 40
0.0
 40
0.0
 40
0.1246486634
 40
0.2491997829
 40
0.3737664441
 40
0.4984755146
 40
0.6234445899
 40
0.7487016632
 40
1.0
 40
1.0
 40
1.0
 40
1.0
 10
8.1198976552
 20
10.3780220049
 30
0.0
 10
8.0921146943
 20
10.367653054
 30
0.0
 10
8.0369097466
 20
10.3459997236
 30
0.0
 10
7.9552755274
 20
10.3107011686
 30
0.0
 10
7.8749265681
 20
10.2725289316
 30
0.0
 10
7.7959315359
 20
10.2314111757
 30
0.0
 10
7.7183819442
 20
10.1872914784
 30
0.0
 10
7.6168604658
 20
10.1245695665
 30
0.0
 10
7.5431553998
 20
10.073485644
 30
0.0
 10
7.4951680388
 20
10.0378269659
 30
0.0
  0
SPLINE
  5
3DB
100
AcDbEntity
  8
0
100
AcDbSpline
 62
9
  6
CONTINUOUS
 70
0
 71
3
 72
35
 73
31
 74
0
 42
0.0000001
 43
0.0000001
 44
0.0000000001
 40
0.0
 40
0.0
 40
0.0
 40
0.0
 40
0.0043883867
 40
0.017260893
 40
0.0381786036
 40
0.0667026973
 40
0.0836849618
 40
0.1024338531
 40
0.1451305948
 40
0.1946099731
 40
0.2507624877
 40
0.2813179671
 40
0.3135333288
 40
0.3830007046
 40
0.4202971914
 40
0.459391033
 40
0.5003763852
 40
0.5433498722
 40
0.5884318104
 40
0.635830803
 40
0.6858227344
 40
0.7388549682
 40
0.76667531
 40
0.7954937814
 40
0.825425087
 40
0.8565850135
 40
0.889154381
 40
0.9235729479
 40
0.9603499689
 40
1.0
 40
1.0
 40
1.0
 40
1.0
 10
7.0648845259
 20
10.3691453208
 30
0.0
 10
7.0654638903
 20
10.3685971974
 30
0.0
 10
7.0677415475
 20
10.3664400288
 30
0.0
 10
7.0727708142
 20
10.3616596306
 30
0.0
 10
7.0809665048
 20
10.3538435462
 30
0.0
 10
7.089686186
 20
10.3454946675
 30
0.0
 10
7.098109877
 20
10.3374066344
 30
0.0
 10
7.1083974309
 20
10.3275407561
 30
0.0
 10
7.1229868009
 20
10.3136276429
 30
0.0
 10
7.1426224818
 20
10.2951566844
 30
0.0
 10
7.1608180785
 20
10.2783767295
 30
0.0
 10
7.176834916
 20
10.2638642541
 30
0.0
 10
7.1947595982
 20
10.2478543032
 30
0.0
 10
7.2138074953
 20
10.2312636047
 30
0.0
 10
7.2340402966
 20
10.2141357488
 30
0.0
 10
7.2504741397
 20
10.200533714
 30
0.0
 10
7.2678771804
 20
10.1864869966
 30
0.0
 10
7.2863212364
 20
10.1720004138
 30
0.0
 10
7.3058944191
 20
10.157067949
 30
0.0
 10
7.3267290922
 20
10.1416909959
 30
0.0
 10
7.3490038413
 20
10.1258383281
 30
0.0
 10
7.3686515414
 20
10.1124386081
 30
0.0
 10
7.3852960491
 20
10.1014723853
 30
0.0
 10
7.3985347482
 20
10.0929698204
 30
0.0
 10
7.4123918546
 20
10.084309204
 30
0.0
 10
7.4269406926
 20
10.0754716975
 30
0.0
 10
7.4423064953
 20
10.0664108704
 30
0.0
 10
7.458707281
 20
10.0570996745
 30
0.0
 10
7.4764082676
 20
10.0474787968
 30
0.0
 10
7.4887400278
 20
10.0410841078
 30
0.0
 10
7.4951680388
 20
10.0378269659
 30
0.0
  0
SPLINE
  5
3DC
100
AcDbEntity
  8
0
100
AcDbSpline
 62
9
  6
CONTINUOUS
 70
0
 71
3
 72
11
 73
7
 74
0
 42
0.0000001
 43
0.0000001
 44
0.0000000001
 40
0.0
 40
0.0
 40
0.0
 40
0.0
 40
0.2492216667
 40
0.4991530113
 40
0.7495256313
 40
1.0
 40
1.0
 40
1.0
 40
1.0
 10
7.4951680388
 20
10.0378269659
 30
0.0
 10
7.4513265667
 20
10.0052490349
 30
0.0
 10
7.3654800569
 20
9.9373175455
 30
0.0
 10
7.2427546289
 20
9.82799683
 30
0.0
 10
7.1261812484
 20
9.7117547999
 30
0.0
 10
7.0527660301
 20
9.6300665949
 30
0.0
 10
7.0171783781
 20
9.5882696753
 30
0.0
  0
SPLINE
  5
3DD
100
AcDbEntity
  8
0
100
AcDbSpline
 62
7
  6
CONTINUOUS
 70
0
 71
3
 72
11
 73
7
 74
0
 42
0.0000001
 43
0.0000001
 44
0.0000000001
 40
0.0
 40
0.0
 40
0.0
 40
0.0
 40
0.2514125638
 40
0.5015903963
 40
0.7509824862
 40
1.0
 40
1.0
 40
1.0
 40
1.0
 10
13.4292964143
 20
7.9046803736
 30
0.0
 10
13.4260635355
 20
7.9101007491
 30
0.0
 10
13.4193856574
 20
7.9207806922
 30
0.0
 10
13.4087370268
 20
7.9363433282
 30
0.0
 10
13.3975073678
 20
7.951416849
 30
0.0
 10
13.3896446864
 20
7.9611538934
 30
0.0
 10
13.3856265345
 20
7.9659425402
 30
0.0
  0
SPLINE
  5
3DE
100
AcDbEntity
  8
0
100
AcDbSpline
 62
9
  6
CONTINUOUS
 70
0
 71
3
 72
33
 73
29
 74
0
 42
0.0000001
 43
0.0000001
 44
0.0000000001
 40
0.0
 40
0.0
 40
0.0
 40
0.0
 40
0.0040509996
 40
0.0159180716
 40
0.0351723286
 40
0.0613848874
 40
0.0769747076
 40
0.0941925148
 40
0.1334951303
 40
0.1792852834
 40
0.2316577139
 40
0.290788356
 40
0.3570658846
 40
0.3930429536
 40
0.431080462
 40
0.5139866863
 40
0.5592154653
 40
0.6073408468
 40
0.6587658215
 40
0.7141205821
 40
0.7434987374
 40
0.7741864185
 40
0.8063385712
 40
0.8401105364
 40
0.8757434799
 40
0.9138214904
 40
0.9550159829
 40
1.0
 40
1.0
 40
1.0
 40
1.0
 10
6.5852881899
 20
9.8074967371
 30
0.0
 10
6.5858389814
 20
9.8071409432
 30
0.0
 10
6.5880034336
 20
9.8057431305
 30
0.0
 10
6.5927871673
 20
9.8026563931
 30
0.0
 10
6.6005868875
 20
9.7976275813
 30
0.0
 10
6.6088952496
 20
9.7922756557
 30
0.0
 10
6.6169283619
 20
9.7871051241
 30
0.0
 10
6.6267537704
 20
9.7808043731
 30
0.0
 10
6.6407325041
 20
9.7719246993
 30
0.0
 10
6.6596135473
 20
9.7601510712
 30
0.0
 10
6.6813640587
 20
9.746915967
 30
0.0
 10
6.7061357096
 20
9.7322701253
 30
0.0
 10
6.7288309684
 20
9.7193323918
 30
0.0
 10
6.748702626
 20
9.7083415228
 30
0.0
 10
6.7710496272
 20
9.6962673193
 30
0.0
 10
6.7949227215
 20
9.6838701838
 30
0.0
 10
6.820459036
 20
9.6711459707
 30
0.0
 10
6.8415624754
 20
9.6609548962
 30
0.0
 10
6.86428169
 20
9.6503452948
 30
0.0
 10
6.8843832006
 20
9.6413069385
 30
0.0
 10
6.9015053303
 20
9.6338320073
 30
0.0
 10
6.9152316892
 20
9.6279666456
 30
0.0
 10
6.929660922
 20
9.6219374791
 30
0.0
 10
6.9448795364
 20
9.6157226704
 30
0.0
 10
6.9610391339
 20
9.6092763611
 30
0.0
 10
6.9783814171
 20
9.6025543392
 30
0.0
 10
6.9972109725
 20
9.5954843182
 30
0.0
 10
7.0103223078
 20
9.5907216109
 30
0.0
 10
7.0171783781
 20
9.5882696753
 30
0.0
  0
SPLINE
  5
3DF
100
AcDbEntity
  8
0
100
AcDbSpline
 62
9
  6
CONTINUOUS
 70
0
 71
3
 72
32
 73
28
 74
0
 42
0.0000001
 43
0.0000001
 44
0.0000000001
 40
0.0
 40
0.0
 40
0.0
 40
0.0
 40
0.01500606
 40
0.0332177331
 40
0.0580832591
 40
0.0729065305
 40
0.0893110596
 40
0.1268994168
 40
0.1709473837
 40
0.2216629795
 40
0.279341067
 40
0.3445071454
 40
0.380101059
 40
0.4178998873
 40
0.4580901052
 40
0.5008592627
 40
0.546427568
 40
0.5951431883
 40
0.6474474634
 40
0.7040230529
 40
0.7657116523
 40
0.7988518712
 40
0.8337441996
 40
0.8706461112
 40
0.9101796642
 40
0.9530591577
 40
1.0
 40
1.0
 40
1.0
 40
1.0
 10
6.503206451
 20
9.6761384962
 30
0.0
 10
6.5052485158
 20
9.6749709869
 30
0.0
 10
6.5097695704
 20
9.6723877821
 30
0.0
 10
6.5176769335
 20
9.6678744254
 30
0.0
 10
6.5255609621
 20
9.6633779905
 30
0.0
 10
6.5332003617
 20
9.6590244189
 30
0.0
 10
6.5425808259
 20
9.6536980306
 30
0.0
 10
6.5559751617
 20
9.6461628692
 30
0.0
 10
6.5741346758
 20
9.636129571
 30
0.0
 10
6.5951644031
 20
9.6247813975
 30
0.0
 10
6.6192531872
 20
9.6121345533
 30
0.0
 10
6.6414032412
 20
9.60089891
 30
0.0
 10
6.6608826154
 20
9.5912914265
 30
0.0
 10
6.6769174862
 20
9.5835523297
 30
0.0
 10
6.6940395264
 20
9.5754798903
 30
0.0
 10
6.7123435825
 20
9.5670606823
 30
0.0
 10
6.7319476019
 20
9.5582719355
 30
0.0
 10
6.7530123028
 20
9.5490905542
 30
0.0
 10
6.7757644028
 20
9.5394655901
 30
0.0
 10
6.8005113256
 20
9.5293411792
 30
0.0
 10
6.8225866274
 20
9.5206245939
 30
0.0
 10
6.8415712535
 20
9.5133395695
 30
0.0
 10
6.8569668128
 20
9.5075476912
 30
0.0
 10
6.8733405859
 20
9.5015108319
 30
0.0
 10
6.8909399943
 20
9.4951804528
 30
0.0
 10
6.9100783277
 20
9.4884812956
 30
0.0
 10
6.9234074564
 20
9.4839450853
 30
0.0
 10
6.9303826897
 20
9.4816023283
 30
0.0
  0
SPLINE
  5
3E0
100
AcDbEntity
  8
0
100
AcDbSpline
 62
7
  6
CONTINUOUS
 70
0
 71
3
 72
19
 73
15
 74
0
 42
0.0000001
 43
0.0000001
 44
0.0000000001
 40
0.0
 40
0.0
 40
0.0
 40
0.0
 40
0.0202909764
 40
0.0424852417
 40
0.0688139683
 40
0.1006270494
 40
0.1386740862
 40
0.1833513459
 40
0.2348515527
 40
0.2932631355
 40
0.4307279882
 40
0.5951816728
 40
0.7855138939
 40
1.0
 40
1.0
 40
1.0
 40
1.0
 10
9.0410023529
 20
11.1081652932
 30
0.0
 10
9.0409829074
 20
11.1081218422
 30
0.0
 10
9.0409601541
 20
11.1080217461
 30
0.0
 10
9.0409854435
 20
11.1078594925
 30
0.0
 10
9.0410639846
 20
11.1076864953
 30
0.0
 10
9.0411936464
 20
11.1075007861
 30
0.0
 10
9.0413744833
 20
11.1073013536
 30
0.0
 10
9.0416065705
 20
11.1070880637
 30
0.0
 10
9.0418897593
 20
11.1068611502
 30
0.0
 10
9.0423612974
 20
11.1065224705
 30
0.0
 10
9.0430787798
 20
11.1060739845
 30
0.0
 10
9.0440900665
 20
11.1055156618
 30
0.0
 10
9.045284631
 20
11.1049177688
 30
0.0
 10
9.0461468781
 20
11.1045193144
 30
0.0
 10
9.0466061655
 20
11.1043137392
 30
0.0
  0
SPLINE
  5
3E1
100
AcDbEntity
  8
0
100
AcDbSpline
 62
9
  6
CONTINUOUS
 70
0
 71
3
 72
32
 73
28
 74
0
 42
0.0000001
 43
0.0000001
 44
0.0000000001
 40
0.0
 40
0.0
 40
0.0
 40
0.0
 40
0.0272185905
 40
0.0537869088
 40
0.0798251138
 40
0.105444816
 40
0.1557305913
 40
0.2048911444
 40
0.2530266843
 40
0.3001702967
 40
0.3463261282
 40
0.3914606616
 40
0.4784660445
 40
0.5607142154
 40
0.6376797036
 40
0.7087520357
 40
0.773317948
 40
0.8308411457
 40
0.8808011582
 40
0.9027781996
 40
0.9226636762
 40
0.9559165972
 40
0.9801485384
 40
0.9887606987
 40
0.9949723585
 40
0.9987349863
 40
1.0
 40
1.0
 40
1.0
 40
1.0
 10
10.0384438502
 20
10.6137000604
 30
0.0
 10
10.041307587
 20
10.6086025279
 30
0.0
 10
10.04681632
 20
10.5984440947
 30
0.0
 10
10.0545830054
 20
10.5831546777
 30
0.0
 10
10.0618501741
 20
10.5680021051
 30
0.0
 10
10.0709595127
 20
10.5480871814
 30
0.0
 10
10.0816566095
 20
10.5234399639
 30
0.0
 10
10.0936467338
 20
10.494090601
 30
0.0
 10
10.104903146
 20
10.4651759232
 30
0.0
 10
10.1155381762
 20
10.4367154803
 30
0.0
 10
10.1256545852
 20
10.4087514641
 30
0.0
 10
10.1383669114
 20
10.372622367
 30
0.0
 10
10.1532005879
 20
10.3290223342
 30
0.0
 10
10.1697098021
 20
10.2787736826
 30
0.0
 10
10.1848467355
 20
10.2316781947
 30
0.0
 10
10.1986322628
 20
10.1881386933
 30
0.0
 10
10.2110862233
 20
10.1485584949
 30
0.0
 10
10.2221571354
 20
10.1132975065
 30
0.0
 10
10.2305118696
 20
10.0867726101
 30
0.0
 10
10.2364764017
 20
10.0679714977
 30
0.0
 10
10.2413861352
 20
10.0526009319
 30
0.0
 10
10.2465072973
 20
10.0367894697
 30
0.0
 10
10.2509558184
 20
10.0233058768
 30
0.0
 10
10.2536189029
 20
10.0153501274
 30
0.0
 10
10.2548962303
 20
10.0115673812
 30
0.0
 10
10.2556738396
 20
10.0092817011
 30
0.0
 10
10.2560243122
 20
10.0082601541
 30
0.0
 10
10.2561126924
 20
10.0080031885
 30
0.0
  0
SPLINE
  5
3E2
100
AcDbEntity
  8
0
100
AcDbSpline
 62
9
  6
CONTINUOUS
 70
0
 71
3
 72
35
 73
31
 74
0
 42
0.0000001
 43
0.0000001
 44
0.0000000001
 40
0.0
 40
0.0
 40
0.0
 40
0.0
 40
0.0282218077
 40
0.0554884533
 40
0.0819867905
 40
0.1078935576
 40
0.1333550004
 40
0.1584253634
 40
0.207514167
 40
0.2553706232
 40
0.3021017945
 40
0.3477710383
 40
0.3923831617
 40
0.4783427557
 40
0.5196008652
 40
0.55964592
 40
0.6358658656
 40
0.7064425463
 40
0.7707895656
 40
0.8283514539
 40
0.8785751014
 40
0.9007555933
 40
0.920885085
 40
0.9547109093
 40
0.9682756884
 40
0.9795212352
 40
0.9883820704
 40
0.9947926119
 40
0.9986871795
 40
1.0
 40
1.0
 40
1.0
 40
1.0
 10
9.3360421023
 20
10.6007676502
 30
0.0
 10
9.3399795379
 20
10.5958022144
 30
0.0
 10
9.3475689595
 20
10.5859177118
 30
0.0
 10
9.3583556805
 20
10.5709963921
 30
0.0
 10
9.368473593
 20
10.5562405035
 30
0.0
 10
9.3780709935
 20
10.5416243643
 30
0.0
 10
9.3872847699
 20
10.5271423973
 30
0.0
 10
9.3990430558
 20
10.508111881
 30
0.0
 10
9.4130274527
 20
10.4845487426
 30
0.0
 10
9.428982234
 20
10.4565064206
 30
0.0
 10
9.4441449254
 20
10.4289014407
 30
0.0
 10
9.4586492872
 20
10.401768733
 30
0.0
 10
9.4769775245
 20
10.3666940478
 30
0.0
 10
9.4944743756
 20
10.3323041848
 30
0.0
 10
9.5112365096
 20
10.2986937838
 30
0.0
 10
9.526892037
 20
10.2669756953
 30
0.0
 10
9.5452996925
 20
10.2292747008
 30
0.0
 10
9.5659540213
 20
10.1865985037
 30
0.0
 10
9.5847637587
 20
10.1476840796
 30
0.0
 10
9.6016123206
 20
10.1128977908
 30
0.0
 10
9.6143997791
 20
10.0866650426
 30
0.0
 10
9.6235688435
 20
10.068019425
 30
0.0
 10
9.6311585576
 20
10.0527004415
 30
0.0
 10
9.6379650617
 20
10.0391525506
 30
0.0
 10
9.6439469589
 20
10.0274232937
 30
0.0
 10
9.64740676
 20
10.0207005816
 30
0.0
 10
9.6501501108
 20
10.0154159173
 30
0.0
 10
9.6521463149
 20
10.0116032287
 30
0.0
 10
9.6533633503
 20
10.0092957364
 30
0.0
 10
9.6539123451
 20
10.0082633267
 30
0.0
 10
9.6540510139
 20
10.0080031885
 30
0.0
  0
SPLINE
  5
3E3
100
AcDbEntity
  8
0
100
AcDbSpline
 62
9
  6
CONTINUOUS
 70
0
 71
3
 72
37
 73
33
 74
0
 42
0.0000001
 43
0.0000001
 44
0.0000000001
 40
0.0
 40
0.0
 40
0.0
 40
0.0
 40
0.0321094236
 40
0.0624605693
 40
0.0913910974
 40
0.1192300527
 40
0.1462572686
 40
0.1725839219
 40
0.1982785718
 40
0.2234083358
 40
0.2721921649
 40
0.3192397815
 40
0.3647756777
 40
0.408914012
 40
0.4517258718
 40
0.4932281168
 40
0.5334229463
 40
0.5723109434
 40
0.6461005424
 40
0.6809137677
 40
0.7142742196
 40
0.7764268471
 40
0.832098285
 40
0.8808031443
 40
0.9023782766
 40
0.9220118212
 40
0.9551674153
 40
0.9796455772
 40
0.988429977
 40
0.9948041255
 40
0.9986876171
 40
1.0
 40
1.0
 40
1.0
 40
1.0
 10
8.1198976552
 20
10.3780220049
 30
0.0
 10
8.1256038866
 20
10.3738732833
 30
0.0
 10
8.1365971445
 20
10.3656549159
 30
0.0
 10
8.1523609824
 20
10.3532132059
 30
0.0
 10
8.1671016929
 20
10.3409990572
 30
0.0
 10
8.181039966
 20
10.3289680715
 30
0.0
 10
8.1943657416
 20
10.3171067011
 30
0.0
 10
8.2071724539
 20
10.3053735618
 30
0.0
 10
8.2195170843
 20
10.2937555972
 30
0.0
 10
8.2352700289
 20
10.2785620137
 30
0.0
 10
8.2540989664
 20
10.259802168
 30
0.0
 10
8.2756857451
 20
10.2374666573
 30
0.0
 10
8.2962327729
 20
10.2155511345
 30
0.0
 10
8.3158622219
 20
10.1940549243
 30
0.0
 10
8.334666362
 20
10.1730077871
 30
0.0
 10
8.3526938035
 20
10.1524304951
 30
0.0
 10
8.3699827839
 20
10.1323538652
 30
0.0
 10
8.3917180903
 20
10.106745433
 30
0.0
 10
8.4124806687
 20
10.0818632498
 30
0.0
 10
8.4323112903
 20
10.0577867839
 30
0.0
 10
8.4504435348
 20
10.0356241092
 30
0.0
 10
8.4713896011
 20
10.0098424478
 30
0.0
 10
8.4943776528
 20
9.9813762178
 30
0.0
 10
8.5117502806
 20
9.9598349547
 30
0.0
 10
8.5241728252
 20
9.9444738757
 30
0.0
 10
8.5344691584
 20
9.9317871646
 30
0.0
 10
8.5452214912
 20
9.9186491324
 30
0.0
 10
8.5545246522
 20
9.9074056751
 30
0.0
 10
8.5601043652
 20
9.9007190167
 30
0.0
 10
8.5627929541
 20
9.8975133581
 30
0.0
 10
8.5644307143
 20
9.8955690831
 30
0.0
 10
8.5651682727
 20
9.894697698
 30
0.0
 10
8.5653547229
 20
9.8944777344
 30
0.0
  0
SPLINE
  5
3E4
100
AcDbEntity
  8
0
100
AcDbSpline
 62
9
  6
CONTINUOUS
 70
0
 71
3
 72
36
 73
32
 74
0
 42
0.0000001
 43
0.0000001
 44
0.0000000001
 40
0.0
 40
0.0
 40
0.0
 40
0.0
 40
0.0393828542
 40
0.0759339454
 40
0.1101614636
 40
0.1425688408
 40
0.1735910892
 40
0.2034060494
 40
0.2321270444
 40
0.2598665427
 40
0.3127797034
 40
0.3626985983
 40
0.4100607358
 40
0.4551342423
 40
0.4981216434
 40
0.5391379982
 40
0.5782756822
 40
0.6156258211
 40
0.6852223445
 40
0.7481394586
 40
0.8044497994
 40
0.8540922779
 40
0.8969541891
 40
0.915785789
 40
0.9328507551
 40
0.9615372231
 40
0.9825977678
 40
0.9901246376
 40
0.9955724354
 40
0.9988834746
 40
1.0
 40
1.0
 40
1.0
 40
1.0
 10
7.4951680388
 20
10.0378269659
 30
0.0
 10
7.5015979458
 20
10.0345688633
 30
0.0
 10
7.51394139
 20
10.0281794725
 30
0.0
 10
7.5316811819
 20
10.018594069
 30
0.0
 10
7.5481466092
 20
10.009341694
 30
0.0
 10
7.5636021445
 20
10.0003622581
 30
0.0
 10
7.578264377
 20
9.9916274043
 30
0.0
 10
7.5922578662
 20
9.9830901319
 30
0.0
 10
7.6056551896
 20
9.9747309362
 30
0.0
 10
7.6225396003
 20
9.9639757765
 30
0.0
 10
7.6425351637
 20
9.9508848407
 30
0.0
 10
7.6653047815
 20
9.9354804633
 30
0.0
 10
7.6867023069
 20
9.9206127183
 30
0.0
 10
7.706900106
 20
9.9062446489
 30
0.0
 10
7.726022941
 20
9.8923711318
 30
0.0
 10
7.7441526705
 20
9.8789803475
 30
0.0
 10
7.7613544845
 20
9.8660710906
 30
0.0
 10
7.7826353434
 20
9.8498832808
 30
0.0
 10
7.8072371797
 20
9.8308732474
 30
0.0
 10
7.8344193581
 20
9.8095291595
 30
0.0
 10
7.8586495561
 20
9.7903399949
 30
0.0
 10
7.8799622602
 20
9.7733795792
 30
0.0
 10
7.8959084994
 20
9.7606919918
 30
0.0
 10
7.9072080877
 20
9.7517411729
 30
0.0
 10
7.916491362
 20
9.7444234591
 30
0.0
 10
7.9261345962
 20
9.7369034955
 30
0.0
 10
7.9344456689
 20
9.7305145856
 30
0.0
 10
7.9394050636
 20
9.7267448509
 30
0.0
 10
7.9417840142
 20
9.7249488412
 30
0.0
 10
7.9432296311
 20
9.7238638396
 30
0.0
 10
7.9438792941
 20
9.7233794315
 30
0.0
 10
7.9440432386
 20
9.7232574296
 30
0.0
  0
SPLINE
  5
3E5
100
AcDbEntity
  8
0
100
AcDbSpline
 62
9
  6
CONTINUOUS
 70
0
 71
3
 72
34
 73
30
 74
0
 42
0.0000001
 43
0.0000001
 44
0.0000000001
 40
0.0
 40
0.0
 40
0.0
 40
0.0
 40
0.0448777487
 40
0.085989231
 40
0.1240036914
 40
0.159589113
 40
0.1933268282
 40
0.2254560547
 40
0.2855032303
 40
0.34086692
 40
0.3923189059
 40
0.4404825871
 40
0.4857555289
 40
0.568753003
 40
0.6068302074
 40
0.6428410681
 40
0.7091672572
 40
0.7683195805
 40
0.8206929726
 40
0.866470237
 40
0.9057561407
 40
0.9229676769
 40
0.9385547855
 40
0.9647758807
 40
0.984050558
 40
0.9909455956
 40
0.9959389779
 40
0.9989755282
 40
1.0
 40
1.0
 40
1.0
 40
1.0
 10
7.0171783781
 20
9.5882696753
 30
0.0
 10
7.0240356173
 20
9.5858173215
 30
0.0
 10
7.0371558101
 20
9.581065583
 30
0.0
 10
7.0560177879
 20
9.5740541059
 30
0.0
 10
7.0734141419
 20
9.5674294054
 30
0.0
 10
7.0896488659
 20
9.5611180119
 30
0.0
 10
7.1049623414
 20
9.5550733243
 30
0.0
 10
7.1239305385
 20
9.5474766377
 30
0.0
 10
7.1460934106
 20
9.5384184579
 30
0.0
 10
7.1710755511
 20
9.527972784
 30
0.0
 10
7.1942089595
 20
9.5181064173
 30
0.0
 10
7.2157833476
 20
9.5087597564
 30
0.0
 10
7.241998427
 20
9.4972486283
 30
0.0
 10
7.2666513196
 20
9.4862516132
 30
0.0
 10
7.2898817349
 20
9.4757564764
 30
0.0
 10
7.3106242771
 20
9.4663256186
 30
0.0
 10
7.3344546958
 20
9.455423497
 30
0.0
 10
7.36067971
 20
9.443373275
 30
0.0
 10
7.3838817814
 20
9.4327307408
 30
0.0
 10
7.4041699518
 20
9.4234680618
 30
0.0
 10
7.4192900705
 20
9.4166245155
 30
0.0
 10
7.429965539
 20
9.4118424842
 30
0.0
 10
7.4387183385
 20
9.4079544676
 30
0.0
 10
7.4477994801
 20
9.4039810684
 30
0.0
 10
7.4556131602
 20
9.4006303116
 30
0.0
 10
7.4602722082
 20
9.398663907
 30
0.0
 10
7.4625068116
 20
9.397729856
 30
0.0
 10
7.4638641367
 20
9.3971672283
 30
0.0
 10
7.464473747
 20
9.3969169026
 30
0.0
 10
7.4646275957
 20
9.3968539054
 30
0.0
  0
SPLINE
  5
3E6
100
AcDbEntity
  8
0
100
AcDbSpline
 62
7
  6
CONTINUOUS
 70
0
 71
3
 72
11
 73
7
 74
0
 42
0.0000001
 43
0.0000001
 44
0.0000000001
 40
0.0
 40
0.0
 40
0.0
 40
0.0
 40
0.2514125638
 40
0.5015903963
 40
0.7509824862
 40
1.0
 40
1.0
 40
1.0
 40
1.0
 10
13.0189386562
 20
7.5603493301
 30
0.0
 10
13.0141620119
 20
7.5644743326
 30
0.0
 10
13.0048039225
 20
7.5729053113
 30
0.0
 10
12.9913268332
 20
7.5860945887
 30
0.0
 10
12.9784323229
 20
7.5997711334
 30
0.0
 10
12.9702085464
 20
7.609205183
 30
0.0
 10
12.9661903946
 20
7.6139938299
 30
0.0
  0
SPLINE
  5
3E7
100
AcDbEntity
  8
0
100
AcDbSpline
 62
9
  6
CONTINUOUS
 70
0
 71
3
 72
31
 73
27
 74
0
 42
0.0000001
 43
0.0000001
 44
0.0000000001
 40
0.0
 40
0.0
 40
0.0
 40
0.0
 40
0.0446281233
 40
0.0854758832
 40
0.1232193806
 40
0.1585338581
 40
0.1920071973
 40
0.2238809276
 40
0.2834489169
 40
0.3383836967
 40
0.3894624613
 40
0.4373124594
 40
0.482332189
 40
0.5650020875
 40
0.6389856879
 40
0.7054092747
 40
0.7648311913
 40
0.8176129786
 40
0.8638975041
 40
0.9037474712
 40
0.937123189
 40
0.9638881667
 40
0.9836195519
 40
0.9906929314
 40
0.9958221495
 40
1.0
 40
1.0
 40
1.0
 40
1.0
 10
6.9303826897
 20
9.4816023283
 30
0.0
 10
6.9373641698
 20
9.4792574732
 30
0.0
 10
6.9507207934
 20
9.474721695
 30
0.0
 10
6.9699287568
 20
9.4680477469
 30
0.0
 10
6.9876432156
 20
9.4617596927
 30
0.0
 10
7.0041760388
 20
9.4557818095
 30
0.0
 10
7.0197727414
 20
9.4500642009
 30
0.0
 10
7.0390968307
 20
9.4428863521
 30
0.0
 10
7.0616895863
 20
9.4343377154
 30
0.0
 10
7.0871781691
 20
9.4244888471
 30
0.0
 10
7.1108053817
 20
9.4151894527
 30
0.0
 10
7.1328657623
 20
9.4063777397
 30
0.0
 10
7.1597195627
 20
9.3955129505
 30
0.0
 10
7.1905047118
 20
9.3828669499
 30
0.0
 10
7.2244749841
 20
9.3686809543
 30
0.0
 10
7.2548625575
 20
9.3558722748
 30
0.0
 10
7.2820036649
 20
9.3443697684
 30
0.0
 10
7.3060846641
 20
9.3341638146
 30
0.0
 10
7.327199965
 20
9.3252373139
 30
0.0
 10
7.3453825033
 20
9.3175980403
 30
0.0
 10
7.360617366
 20
9.3112591334
 30
0.0
 10
7.3728164631
 20
9.3062672202
 30
0.0
 10
7.3810168694
 20
9.3029648524
 30
0.0
 10
7.3859138219
 20
9.3010176251
 30
0.0
 10
7.388428125
 20
9.3000249152
 30
0.0
 10
7.3898584431
 20
9.2994653002
 30
0.0
 10
7.3905009615
 20
9.2992152775
 30
0.0
  0
SPLINE
  5
3E8
100
AcDbEntity
  8
0
100
AcDbSpline
 62
7
  6
CONTINUOUS
 70
0
 71
3
 72
29
 73
25
 74
0
 42
0.0000001
 43
0.0000001
 44
0.0000000001
 40
0.0
 40
0.0
 40
0.0
 40
0.0
 40
0.0411382316
 40
0.0629111648
 40
0.0855317037
 40
0.1090226359
 40
0.1333954017
 40
0.1586520018
 40
0.184786611
 40
0.211786925
 40
0.2396352745
 40
0.2683095454
 40
0.2977839359
 40
0.3280295829
 40
0.3590150794
 40
0.4230651914
 40
0.4896520416
 40
0.5584687281
 40
0.6291957758
 40
0.7015062535
 40
0.7750699017
 40
0.8495566766
 40
0.9246400064
 40
1.0
 40
1.0
 40
1.0
 40
1.0
 10
9.6861966803
 20
10.9481473984
 30
0.0
 10
9.6933044205
 20
10.947733477
 30
0.0
 10
9.7042380336
 20
10.9479811408
 30
0.0
 10
9.7189425122
 20
10.9497189431
 30
0.0
 10
9.7305164176
 20
10.9517801317
 30
0.0
 10
9.7424000436
 20
10.9545562711
 30
0.0
 10
9.7545736668
 20
10.958029918
 30
0.0
 10
9.7670149534
 20
10.9621835612
 30
0.0
 10
9.7797021693
 20
10.9669998332
 30
0.0
 10
9.7926132871
 20
10.9724613994
 30
0.0
 10
9.8057262548
 20
10.9785509551
 30
0.0
 10
9.8190189495
 20
10.9852512045
 30
0.0
 10
9.8324691664
 20
10.9925448552
 30
0.0
 10
9.8460547972
 20
11.000414601
 30
0.0
 10
9.8645233075
 20
11.0117782185
 30
0.0
 10
9.8877818247
 20
11.027338957
 30
0.0
 10
9.915575799
 20
11.0478283477
 30
0.0
 10
9.9433777489
 20
11.0701997072
 30
0.0
 10
9.9710092614
 20
11.0943149288
 30
0.0
 10
9.9982923372
 20
11.1200363139
 30
0.0
 10
10.0250486386
 20
11.1472256913
 30
0.0
 10
10.0510999986
 20
11.1757450181
 30
0.0
 10
10.0762676366
 20
11.2054553618
 30
0.0
 10
10.0923318076
 20
11.2259561307
 30
0.0
 10
10.100172261
 20
11.2363789406
 30
0.0
  0
SPLINE
  5
3E9
100
AcDbEntity
  8
0
100
AcDbSpline
 62
9
  6
CONTINUOUS
 70
0
 71
3
 72
30
 73
26
 74
0
 42
0.0000001
 43
0.0000001
 44
0.0000000001
 40
0.0
 40
0.0
 40
0.0
 40
0.0
 40
0.0171679528
 40
0.0353033768
 40
0.0544748956
 40
0.0747294983
 40
0.0960968108
 40
0.1185926361
 40
0.1422196073
 40
0.1669669277
 40
0.1928161011
 40
0.2197429645
 40
0.2477188316
 40
0.276711383
 40
0.3066853639
 40
0.3376031361
 40
0.4021036167
 40
0.4698496992
 40
0.5404412549
 40
0.6134664638
 40
0.6885061033
 40
0.7651270662
 40
0.8428810993
 40
0.9213202006
 40
1.0
 40
1.0
 40
1.0
 40
1.0
 10
9.7882232988
 20
10.9419731554
 30
0.0
 10
9.7908469647
 20
10.9418074501
 30
0.0
 10
9.7962605236
 20
10.941724096
 30
0.0
 10
9.8045912763
 20
10.9422779867
 30
0.0
 10
9.8133283366
 20
10.9434924929
 30
0.0
 10
9.8224550429
 20
10.9453535992
 30
0.0
 10
9.831955834
 20
10.9478476057
 30
0.0
 10
9.8418141752
 20
10.9509610897
 30
0.0
 10
9.8520125514
 20
10.9546799819
 30
0.0
 10
9.8625325759
 20
10.9589889011
 30
0.0
 10
9.8733549378
 20
10.9638724731
 30
0.0
 10
9.8844601469
 20
10.9693152301
 30
0.0
 10
9.8958286338
 20
10.9753017009
 30
0.0
 10
9.9074407458
 20
10.9818163986
 30
0.0
 10
9.9192768854
 20
10.9888437764
 30
0.0
 10
9.9355607893
 20
10.9990206082
 30
0.0
 10
9.9563167263
 20
11.0129422798
 30
0.0
 10
9.9814509156
 20
11.031201386
 30
0.0
 10
10.0069793327
 20
11.0511063139
 30
0.0
 10
10.0327267534
 20
11.0725186583
 30
0.0
 10
10.0585170503
 20
11.0952990823
 30
0.0
 10
10.0841712629
 20
11.1193052125
 30
0.0
 10
10.1095073994
 20
11.1443924469
 30
0.0
 10
10.1343414358
 20
11.1704141062
 30
0.0
 10
10.1504462218
 20
11.1882937929
 30
0.0
 10
10.158374774
 20
11.1973654084
 30
0.0
  0
SPLINE
  5
3EA
100
AcDbEntity
  8
0
100
AcDbSpline
 62
7
  6
CONTINUOUS
 70
0
 71
3
 72
19
 73
15
 74
0
 42
0.0000001
 43
0.0000001
 44
0.0000000001
 40
0.0
 40
0.0
 40
0.0
 40
0.0
 40
0.0201239447
 40
0.0421820178
 40
0.0684167665
 40
0.100174082
 40
0.1381961413
 40
0.1828730568
 40
0.23439196
 40
0.2928368982
 40
0.4303999252
 40
0.5949715134
 40
0.7854193881
 40
1.0
 40
1.0
 40
1.0
 40
1.0
 10
9.1909549705
 20
11.1057028211
 30
0.0
 10
9.190935562
 20
11.1056594521
 30
0.0
 10
9.1909130327
 20
11.1055593315
 30
0.0
 10
9.1909391869
 20
11.1053970896
 30
0.0
 10
9.191018904
 20
11.1052240516
 30
0.0
 10
9.1911500688
 20
11.1050381435
 30
0.0
 10
9.191332759
 20
11.1048383399
 30
0.0
 10
9.1915670541
 20
11.1046245076
 30
0.0
 10
9.1918527941
 20
11.1043968808
 30
0.0
 10
9.1923284236
 20
11.1040569357
 30
0.0
 10
9.1930517244
 20
11.1036064731
 30
0.0
 10
9.1940707282
 20
11.1030452435
 30
0.0
 10
9.1952739361
 20
11.1024438215
 30
0.0
 10
9.196142202
 20
11.1020427387
 30
0.0
 10
9.1966046298
 20
11.1018357578
 30
0.0
  0
SPLINE
  5
3EB
100
AcDbEntity
  8
0
100
AcDbSpline
 62
9
  6
CONTINUOUS
 70
0
 71
3
 72
37
 73
33
 74
0
 42
0.0000001
 43
0.0000001
 44
0.0000000001
 40
0.0
 40
0.0
 40
0.0
 40
0.0
 40
0.002054642
 40
0.0045056781
 40
0.0073732257
 40
0.0106730519
 40
0.0144183933
 40
0.0186209326
 40
0.023291353
 40
0.0284396678
 40
0.0340746573
 40
0.0402017162
 40
0.053949228
 40
0.0697157699
 40
0.0875329238
 40
0.1074236938
 40
0.1293801738
 40
0.1533863828
 40
0.1794259713
 40
0.2074745721
 40
0.2374766092
 40
0.2693685706
 40
0.3030867904
 40
0.3385602952
 40
0.3756892584
 40
0.4544847274
 40
0.5385756604
 40
0.6269064922
 40
0.7183679291
 40
0.8117960745
 40
0.9060329149
 40
1.0
 40
1.0
 40
1.0
 40
1.0
 10
8.4074662824
 20
12.3004136954
 30
0.0
 10
8.4079615271
 20
12.300460417
 30
0.0
 10
8.4090541262
 20
12.3004932777
 30
0.0
 10
8.4108379848
 20
12.3004008305
 30
0.0
 10
8.4129124739
 20
12.3001670737
 30
0.0
 10
8.4152830168
 20
12.2997886252
 30
0.0
 10
8.4179552731
 20
12.2992621075
 30
0.0
 10
8.4209344674
 20
12.2985842877
 30
0.0
 10
8.4242257893
 20
12.2977520058
 30
0.0
 10
8.4278341623
 20
12.2967621961
 30
0.0
 10
8.4317636238
 20
12.2956121732
 30
0.0
 10
8.4376651789
 20
12.2937907843
 30
0.0
 10
8.4458597316
 20
12.2910847253
 30
0.0
 10
8.4566691247
 20
12.2872790629
 30
0.0
 10
8.468811103
 20
12.2827848551
 30
0.0
 10
8.4822903963
 20
12.2775904291
 30
0.0
 10
8.4971029725
 20
12.2716917092
 30
0.0
 10
8.5132361257
 20
12.2650876576
 30
0.0
 10
8.5306737411
 20
12.257778767
 30
0.0
 10
8.5493911481
 20
12.2497695094
 30
0.0
 10
8.569355041
 20
12.2410728235
 30
0.0
 10
8.5905234026
 20
12.2317050737
 30
0.0
 10
8.6128509165
 20
12.2216841277
 30
0.0
 10
8.6362844424
 20
12.211031716
 30
0.0
 10
8.6695893564
 20
12.1957234169
 30
0.0
 10
8.7134753565
 20
12.1752525898
 30
0.0
 10
8.7684449995
 20
12.1492213987
 30
0.0
 10
8.826067603
 20
12.1216290882
 30
0.0
 10
8.8856385568
 20
12.0928723214
 30
0.0
 10
8.9464526325
 20
12.0634019011
 30
0.0
 10
9.0078114632
 20
12.0336645505
 30
0.0
 10
9.048830015
 20
12.0138227432
 30
0.0
 10
9.0693176929
 20
12.0039322118
 30
0.0
  0
SPLINE
  5
3EC
100
AcDbEntity
  8
0
100
AcDbSpline
 62
9
  6
CONTINUOUS
 70
0
 71
3
 72
28
 73
24
 74
0
 42
0.0000001
 43
0.0000001
 44
0.0000000001
 40
0.0
 40
0.0
 40
0.0
 40
0.0
 40
0.0010798224
 40
0.0043444035
 40
0.0098379975
 40
0.017605193
 40
0.0276847561
 40
0.0400912683
 40
0.0719204574
 40
0.0913539309
 40
0.1131038958
 40
0.1634030656
 40
0.1918701227
 40
0.2224573422
 40
0.2896555771
 40
0.3642663313
 40
0.4453191759
 40
0.5317445764
 40
0.6223148743
 40
0.7157493631
 40
0.8107124032
 40
0.9058760545
 40
1.0
 40
1.0
 40
1.0
 40
1.0
 10
8.482824954
 20
12.3018427932
 30
0.0
 10
8.4830517381
 20
12.3017750476
 30
0.0
 10
8.4839622748
 20
12.3014962533
 30
0.0
 10
8.4860209913
 20
12.3008545745
 30
0.0
 10
8.4894711858
 20
12.2997515011
 30
0.0
 10
8.4943336255
 20
12.2981608171
 30
0.0
 10
8.5006219244
 20
12.2960557849
 30
0.0
 10
8.5118855856
 20
12.29219964
 30
0.0
 10
8.5250391741
 20
12.2875350654
 30
0.0
 10
8.5400719178
 20
12.2820454489
 30
0.0
 10
8.5588627261
 20
12.275045634
 30
0.0
 10
8.5794335433
 20
12.2671534042
 30
0.0
 10
8.6017370741
 20
12.2583738748
 30
0.0
 10
8.6274280334
 20
12.2480881789
 30
0.0
 10
8.6623861661
 20
12.2337391488
 30
0.0
 10
8.7073732933
 20
12.2147002082
 30
0.0
 10
8.7560342015
 20
12.1935354703
 30
0.0
 10
8.8076854294
 20
12.1704817966
 30
0.0
 10
8.8615954661
 20
12.145836169
 30
0.0
 10
8.9169790958
 20
12.11991884
 30
0.0
 10
8.9730510974
 20
12.093102399
 30
0.0
 10
9.0290339891
 20
12.0657543488
 30
0.0
 10
9.0661444172
 20
12.0471989049
 30
0.0
 10
9.0845477621
 20
12.0378738139
 30
0.0
  0
SPLINE
  5
3ED
100
AcDbEntity
  8
0
100
AcDbSpline
 62
7
  6
CONTINUOUS
 70
0
 71
3
 72
13
 73
9
 74
0
 42
0.0000001
 43
0.0000001
 44
0.0000000001
 40
0.0
 40
0.0
 40
0.0
 40
0.0
 40
0.2498106825
 40
0.3747362011
 40
0.4996857844
 40
0.6246689445
 40
0.7497006555
 40
1.0
 40
1.0
 40
1.0
 40
1.0
 10
11.0099912455
 20
10.2803919002
 30
0.0
 10
11.0024918339
 20
10.289329351
 30
0.0
 10
10.9913435484
 20
10.3028219232
 30
0.0
 10
10.97669447
 20
10.3209886611
 30
0.0
 10
10.9658167062
 20
10.3347065977
 30
0.0
 10
10.9550490317
 20
10.348517496
 30
0.0
 10
10.9408561583
 20
10.3670797526
 30
0.0
 10
10.9304401335
 20
10.3811817563
 30
0.0
 10
10.9236284101
 20
10.3906818974
 30
0.0
  0
SPLINE
  5
3EE
100
AcDbEntity
  8
0
100
AcDbSpline
 62
7
  6
CONTINUOUS
 70
0
 71
3
 72
13
 73
9
 74
0
 42
0.0000001
 43
0.0000001
 44
0.0000000001
 40
0.0
 40
0.0
 40
0.0
 40
0.0
 40
0.2498106825
 40
0.3747362011
 40
0.4996857844
 40
0.6246689445
 40
0.7497006555
 40
1.0
 40
1.0
 40
1.0
 40
1.0
 10
11.0994274597
 20
10.3554377945
 30
0.0
 10
11.091928048
 20
10.3643752453
 30
0.0
 10
11.0805763378
 20
10.3776971238
 30
0.0
 10
11.0652293791
 20
10.3952782707
 30
0.0
 10
11.0536087527
 20
10.4083728716
 30
0.0
 10
11.0418774601
 20
10.4213751982
 30
0.0
 10
11.0260617724
 20
10.438575752
 30
0.0
 10
11.0139827335
 20
10.4512823212
 30
0.0
 10
11.0058097643
 20
10.4596402414
 30
0.0
  0
SPLINE
  5
3EF
100
AcDbEntity
  8
0
100
AcDbSpline
 62
7
  6
CONTINUOUS
 70
0
 71
3
 72
16
 73
12
 74
0
 42
0.0000001
 43
0.0000001
 44
0.0000000001
 40
0.0
 40
0.0
 40
0.0
 40
0.0
 40
0.2483747812
 40
0.3727350551
 40
0.4349887709
 40
0.497303498
 40
0.5596891751
 40
0.6221590076
 40
0.747425684
 40
0.8732929316
 40
1.0
 40
1.0
 40
1.0
 40
1.0
 10
11.1860538707
 20
10.428125984
 30
0.0
 10
11.1785527596
 20
10.4370654601
 30
0.0
 10
11.166994353
 20
10.4502326604
 30
0.0
 10
11.1529811215
 20
10.4651115607
 30
0.0
 10
11.1448114041
 20
10.4734812425
 30
0.0
 10
11.1386003503
 20
10.4796927397
 30
0.0
 10
11.1323074271
 20
10.4858358724
 30
0.0
 10
11.1237953902
 20
10.4939386272
 30
0.0
 10
11.112913426
 20
10.5038761529
 30
0.0
 10
11.0994275868
 20
10.5154258093
 30
0.0
 10
11.0901398045
 20
10.5228179227
 30
0.0
 10
11.0854092402
 20
10.5264321323
 30
0.0
  0
SPLINE
  5
3F0
100
AcDbEntity
  8
0
100
AcDbSpline
 62
7
  6
CONTINUOUS
 70
0
 71
3
 72
16
 73
12
 74
0
 42
0.0000001
 43
0.0000001
 44
0.0000000001
 40
0.0
 40
0.0
 40
0.0
 40
0.0
 40
0.2459417946
 40
0.3693483186
 40
0.4312366164
 40
0.4932780916
 40
0.555497411
 40
0.6179272792
 40
0.743602743
 40
0.8707681696
 40
1.0
 40
1.0
 40
1.0
 40
1.0
 10
11.2644274226
 20
10.4938892025
 30
0.0
 10
11.2569233339
 20
10.5028322272
 30
0.0
 10
11.2451687496
 20
10.5158675632
 30
0.0
 10
11.2306320397
 20
10.5302844397
 30
0.0
 10
11.2220648895
 20
10.5383131483
 30
0.0
 10
11.2155031889
 20
10.5442317028
 30
0.0
 10
11.2088105516
 20
10.5500411911
 30
0.0
 10
11.199684738
 20
10.5576519531
 30
0.0
 10
11.1878825735
 20
10.5668627732
 30
0.0
 10
11.173046942
 20
10.5773077235
 30
0.0
 10
11.162720106
 20
10.5837631741
 30
0.0
 10
11.1574253099
 20
10.5868607898
 30
0.0
  0
SPLINE
  5
3F1
100
AcDbEntity
  8
0
100
AcDbSpline
 62
7
  6
CONTINUOUS
 70
0
 71
3
 72
19
 73
15
 74
0
 42
0.0000001
 43
0.0000001
 44
0.0000000001
 40
0.0
 40
0.0
 40
0.0
 40
0.0
 40
0.0193040685
 40
0.0410890689
 40
0.0676084442
 40
0.1001112781
 40
0.1392087204
 40
0.1851829803
 40
0.2381143827
 40
0.2979696812
 40
0.437881035
 40
0.6032490346
 40
0.7916418322
 40
1.0
 40
1.0
 40
1.0
 40
1.0
 10
9.0573736877
 20
11.1664315635
 30
0.0
 10
9.0573419797
 20
11.166360731
 30
0.0
 10
9.0573081701
 20
11.1661931616
 30
0.0
 10
9.0573627149
 20
11.1659220385
 30
0.0
 10
9.0575086346
 20
11.1656292088
 30
0.0
 10
9.0577437303
 20
11.1653108459
 30
0.0
 10
9.0580678456
 20
11.1649657766
 30
0.0
 10
9.0584808664
 20
11.1645946338
 30
0.0
 10
9.0589817847
 20
11.1641985901
 30
0.0
 10
9.0598090048
 20
11.1636083547
 30
0.0
 10
9.0610544151
 20
11.1628290901
 30
0.0
 10
9.0627903029
 20
11.1618658963
 30
0.0
 10
9.0648093347
 20
11.1608497408
 30
0.0
 10
9.0662567237
 20
11.1601789621
 30
0.0
 10
9.0670212685
 20
11.1598367548
 30
0.0
  0
SPLINE
  5
3F2
100
AcDbEntity
  8
0
100
AcDbSpline
 62
9
  6
CONTINUOUS
 70
0
 71
3
 72
11
 73
7
 74
0
 42
0.0000001
 43
0.0000001
 44
0.0000000001
 40
0.0
 40
0.0
 40
0.0
 40
0.0
 40
0.2521224973
 40
0.5031414453
 40
0.7525903437
 40
1.0
 40
1.0
 40
1.0
 40
1.0
 10
6.9303826897
 20
9.4816023283
 30
0.0
 10
6.8973189051
 20
9.4390732471
 30
0.0
 10
6.8335309174
 20
9.3524688944
 30
0.0
 10
6.74494725
 20
9.2181843485
 30
0.0
 10
6.6639338447
 20
9.0803682441
 30
0.0
 10
6.6149567085
 20
8.986114816
 30
0.0
 10
6.5918425574
 20
8.9385732894
 30
0.0
  0
SPLINE
  5
3F3
100
AcDbEntity
  8
0
100
AcDbSpline
 62
7
  6
CONTINUOUS
 70
0
 71
3
 72
22
 73
18
 74
0
 42
0.0000001
 43
0.0000001
 44
0.0000000001
 40
0.0
 40
0.0
 40
0.0
 40
0.0
 40
0.0090078065
 40
0.0184112258
 40
0.0286317738
 40
0.039996858
 40
0.0669930994
 40
0.1005606666
 40
0.1411574742
 40
0.1889064636
 40
0.243747602
 40
0.3054910145
 40
0.3738528191
 40
0.4484760519
 40
0.6147264345
 40
0.8001666734
 40
1.0
 40
1.0
 40
1.0
 40
1.0
 10
8.901811937
 20
11.2371448772
 30
0.0
 10
8.9017900675
 20
11.2370960318
 30
0.0
 10
8.9017573014
 20
11.2369903894
 30
0.0
 10
8.9017457712
 20
11.2368193773
 30
0.0
 10
8.9017705621
 20
11.2366358868
 30
0.0
 10
8.9018561276
 20
11.2363591482
 30
0.0
 10
8.9020641532
 20
11.2359816122
 30
0.0
 10
8.902435091
 20
11.2355071774
 30
0.0
 10
8.9029410098
 20
11.2349872699
 30
0.0
 10
8.9035799298
 20
11.2344247367
 30
0.0
 10
8.9043492028
 20
11.2338228028
 30
0.0
 10
8.9052446426
 20
11.233185445
 30
0.0
 10
8.9062610419
 20
11.2325168729
 30
0.0
 10
8.9078265972
 20
11.2315549141
 30
0.0
 10
8.9100373283
 20
11.2303166733
 30
0.0
 10
8.9129591027
 20
11.2288319102
 30
0.0
 10
8.9150345861
 20
11.2278653893
 30
0.0
 10
8.9161182482
 20
11.2273803465
 30
0.0
  0
SPLINE
  5
3F4
100
AcDbEntity
  8
0
100
AcDbSpline
 62
7
  6
CONTINUOUS
 70
0
 71
3
 72
24
 73
20
 74
0
 42
0.0000001
 43
0.0000001
 44
0.0000000001
 40
0.0
 40
0.0
 40
0.0
 40
0.0
 40
0.0083260018
 40
0.0172472953
 40
0.0272376522
 40
0.0386325361
 40
0.0516478
 40
0.0664165623
 40
0.1014823481
 40
0.1441058226
 40
0.1942183961
 40
0.2515654879
 40
0.3157577669
 40
0.3863008392
 40
0.4626114827
 40
0.5440251835
 40
0.6298080901
 40
0.8112307383
 40
1.0
 40
1.0
 40
1.0
 40
1.0
 10
8.7348700494
 20
11.3130216539
 30
0.0
 10
8.7348428812
 20
11.3129609706
 30
0.0
 10
8.7348044925
 20
11.3128265751
 30
0.0
 10
8.734801033
 20
11.3126071536
 30
0.0
 10
8.7348485086
 20
11.312368397
 30
0.0
 10
8.7349456253
 20
11.3121104606
 30
0.0
 10
8.7350916405
 20
11.3118330634
 30
0.0
 10
8.7353674522
 20
11.311413049
 30
0.0
 10
8.7358433877
 20
11.3108457644
 30
0.0
 10
8.7365711273
 20
11.3101291006
 30
0.0
 10
8.7374812435
 20
11.3093481258
 30
0.0
 10
8.738566473
 20
11.30851004
 30
0.0
 10
8.739818076
 20
11.3076227048
 30
0.0
 10
8.7412251625
 20
11.3066946535
 30
0.0
 10
8.7427751527
 20
11.3057349417
 30
0.0
 10
8.7444537537
 20
11.3047529899
 30
0.0
 10
8.7468880174
 20
11.3034018427
 30
0.0
 10
8.7501264886
 20
11.3017351677
 30
0.0
 10
8.752803475
 20
11.3004793892
 30
0.0
 10
8.7541793603
 20
11.2998635485
 30
0.0
  0
SPLINE
  5
3F5
100
AcDbEntity
  8
0
100
AcDbSpline
 62
7
  6
CONTINUOUS
 70
0
 71
3
 72
25
 73
21
 74
0
 42
0.0000001
 43
0.0000001
 44
0.0000000001
 40
0.0
 40
0.0
 40
0.0
 40
0.0
 40
0.0075284794
 40
0.0159221469
 40
0.0257212672
 40
0.0372542716
 40
0.0507054822
 40
0.0661734117
 40
0.0836989394
 40
0.1032920386
 40
0.1485915987
 40
0.2017685747
 40
0.2623188025
 40
0.3295959843
 40
0.4028367423
 40
0.4811744582
 40
0.5636507603
 40
0.6492300568
 40
0.8252409225
 40
1.0
 40
1.0
 40
1.0
 40
1.0
 10
8.5679245754
 20
11.3888903884
 30
0.0
 10
8.5678937993
 20
11.3888216114
 30
0.0
 10
8.5678545822
 20
11.3886637091
 30
0.0
 10
8.5678696333
 20
11.3884040052
 30
0.0
 10
8.5679517177
 20
11.3881162683
 30
0.0
 10
8.5680989763
 20
11.3877997164
 30
0.0
 10
8.5683107808
 20
11.3874539194
 30
0.0
 10
8.5685868025
 20
11.3870793751
 30
0.0
 10
8.5689263584
 20
11.3866768589
 30
0.0
 10
8.5694907513
 20
11.3860748836
 30
0.0
 10
8.570354462
 20
11.3852667096
 30
0.0
 10
8.5715780707
 20
11.3842479862
 30
0.0
 10
8.5730208314
 20
11.3831515858
 30
0.0
 10
8.574665623
 20
11.3819915266
 30
0.0
 10
8.5764927363
 20
11.3807828801
 30
0.0
 10
8.5784795973
 20
11.3795415292
 30
0.0
 10
8.5806011389
 20
11.3782839905
 30
0.0
 10
8.5836010235
 20
11.3765926729
 30
0.0
 10
8.5874709217
 20
11.3745661161
 30
0.0
 10
8.590644019
 20
11.3730613167
 30
0.0
 10
8.5922404723
 20
11.3723467505
 30
0.0
  0
SPLINE
  5
3F6
100
AcDbEntity
  8
0
100
AcDbSpline
 62
7
  6
CONTINUOUS
 70
0
 71
3
 72
26
 73
22
 74
0
 42
0.0000001
 43
0.0000001
 44
0.0000000001
 40
0.0
 40
0.0
 40
0.0
 40
0.0
 40
0.0066023504
 40
0.0144471165
 40
0.0241399741
 40
0.0359794074
 40
0.0501013061
 40
0.0665511845
 40
0.0853291985
 40
0.1064000195
 40
0.1551807075
 40
0.2122731777
 40
0.2768561004
 40
0.347956212
 40
0.4244692497
 40
0.5051780308
 40
0.5887685404
 40
0.6738487951
 40
0.8426661736
 40
0.9234847298
 40
1.0
 40
1.0
 40
1.0
 40
1.0
 10
8.412353012
 20
11.4595817267
 30
0.0
 10
8.4123210075
 20
11.4595101966
 30
0.0
 10
8.4122882647
 20
11.4593363158
 30
0.0
 10
8.4123355623
 20
11.4590503272
 30
0.0
 10
8.4124659266
 20
11.4587250876
 30
0.0
 10
8.4126787604
 20
11.4583581999
 30
0.0
 10
8.4129735225
 20
11.4579494458
 30
0.0
 10
8.4133495623
 20
11.4574998755
 30
0.0
 10
8.4138056603
 20
11.4570111836
 30
0.0
 10
8.4145557786
 20
11.4562733271
 30
0.0
 10
8.4156852339
 20
11.4552746275
 30
0.0
 10
8.4172623466
 20
11.4540066663
 30
0.0
 10
8.419096845
 20
11.452638527
 30
0.0
 10
8.4211595906
 20
11.4511929338
 30
0.0
 10
8.4234177118
 20
11.4496942052
 30
0.0
 10
8.4258344896
 20
11.4481678374
 30
0.0
 10
8.4283699237
 20
11.446640126
 30
0.0
 10
8.4318423175
 20
11.444642832
 30
0.0
 10
8.4353446466
 20
11.442764615
 30
0.0
 10
8.4388148817
 20
11.441048569
 30
0.0
 10
8.4405085351
 20
11.440261362
 30
0.0
 10
8.441337452
 20
11.4398903421
 30
0.0
  0
SPLINE
  5
3F7
100
AcDbEntity
  8
0
100
AcDbSpline
 62
7
  6
CONTINUOUS
 70
0
 71
3
 72
16
 73
12
 74
0
 42
0.0000001
 43
0.0000001
 44
0.0000000001
 40
0.0
 40
0.0
 40
0.0
 40
0.0
 40
0.2459417946
 40
0.3693483186
 40
0.4312366164
 40
0.4932780916
 40
0.555497411
 40
0.6179272792
 40
0.743602743
 40
0.8707681696
 40
1.0
 40
1.0
 40
1.0
 40
1.0
 10
10.8449912826
 20
10.1419404922
 30
0.0
 10
10.8374871939
 20
10.1508835168
 30
0.0
 10
10.8266910561
 20
10.1647230849
 30
0.0
 10
10.8150174775
 20
10.1815424139
 30
0.0
 10
10.808598413
 20
10.1913735805
 30
0.0
 10
10.803909202
 20
10.1988633403
 30
0.0
 10
10.7993501372
 20
10.2064631084
 30
0.0
 10
10.7934396807
 20
10.2167718754
 30
0.0
 10
10.786418218
 20
10.2299941805
 30
0.0
 10
10.7787081303
 20
10.2464181721
 30
0.0
 10
10.7741439887
 20
10.2577090974
 30
0.0
 10
10.7720128645
 20
10.263461349
 30
0.0
  0
SPLINE
  5
3F8
100
AcDbEntity
  8
0
100
AcDbSpline
 62
7
  6
CONTINUOUS
 70
0
 71
3
 72
16
 73
12
 74
0
 42
0.0000001
 43
0.0000001
 44
0.0000000001
 40
0.0
 40
0.0
 40
0.0
 40
0.0
 40
0.2483747812
 40
0.3727350551
 40
0.4349887709
 40
0.497303498
 40
0.5596891751
 40
0.6221590076
 40
0.747425684
 40
0.8732929316
 40
1.0
 40
1.0
 40
1.0
 40
1.0
 10
10.9233648345
 20
10.2077037107
 30
0.0
 10
10.9158637234
 20
10.2166431868
 30
0.0
 10
10.9049036587
 20
10.2303124555
 30
0.0
 10
10.8926841744
 20
10.2466964884
 30
0.0
 10
10.8858603035
 20
10.2561954695
 30
0.0
 10
10.880821711
 20
10.2633907786
 30
0.0
 10
10.875864661
 20
10.2706548419
 30
0.0
 10
10.869363105
 20
10.2804445905
 30
0.0
 10
10.8614661858
 20
10.2928868664
 30
0.0
 10
10.8524337861
 20
10.3081734022
 30
0.0
 10
10.846766782
 20
10.3186037093
 30
0.0
 10
10.8440289342
 20
10.3238900065
 30
0.0
  0
SPLINE
  5
3F9
100
AcDbEntity
  8
0
100
AcDbSpline
 62
7
  6
CONTINUOUS
 70
0
 71
3
 72
18
 73
14
 74
0
 42
0.0000001
 43
0.0000001
 44
0.0000000001
 40
0.0
 40
0.0
 40
0.0
 40
0.0
 40
0.020525931
 40
0.0442658937
 40
0.0727448797
 40
0.1068122517
 40
0.1469274229
 40
0.1933304213
 40
0.3052884889
 40
0.4427631376
 40
0.6051010718
 40
0.7912803176
 40
1.0
 40
1.0
 40
1.0
 40
1.0
 10
8.2787582997
 20
11.5202804411
 30
0.0
 10
8.2787403731
 20
11.5202403872
 30
0.0
 10
8.2787189214
 20
11.5201459243
 30
0.0
 10
8.2787319685
 20
11.5199894259
 30
0.0
 10
8.2787850064
 20
11.519811812
 30
0.0
 10
8.2788773726
 20
11.5196121579
 30
0.0
 10
8.2790088633
 20
11.5193900425
 30
0.0
 10
8.2792520094
 20
11.5190419379
 30
0.0
 10
8.27965898
 20
11.5185564688
 30
0.0
 10
8.2802695792
 20
11.5179218547
 30
0.0
 10
8.2810257572
 20
11.5172088097
 30
0.0
 10
8.2819214868
 20
11.5164231074
 30
0.0
 10
8.2825717049
 20
11.5158844335
 30
0.0
 10
8.2829184036
 20
11.5156035152
 30
0.0
  0
SPLINE
  5
3FA
100
AcDbEntity
  8
0
100
AcDbSpline
 62
7
  6
CONTINUOUS
 70
0
 71
3
 72
15
 73
11
 74
0
 42
0.0000001
 43
0.0000001
 44
0.0000000001
 40
0.0
 40
0.0
 40
0.0
 40
0.0
 40
0.1035679014
 40
0.2235316128
 40
0.3552589143
 40
0.4935728499
 40
0.6329051034
 40
0.7674892002
 40
0.8916207606
 40
1.0
 40
1.0
 40
1.0
 40
1.0
 10
8.2829184036
 20
11.5156035152
 30
0.0
 10
8.2838279218
 20
11.5148665635
 30
0.0
 10
8.2858347916
 20
11.5133301086
 30
0.0
 10
8.2891071402
 20
11.5110021316
 30
0.0
 10
8.2927709818
 20
11.5085499973
 30
0.0
 10
8.2966806061
 20
11.5060743439
 30
0.0
 10
8.3006775829
 20
11.5036788898
 30
0.0
 10
8.3045954975
 20
11.5014660132
 30
0.0
 10
8.308267133
 20
11.4995321724
 30
0.0
 10
8.3106359935
 20
11.4983917951
 30
0.0
 10
8.3117540907
 20
11.4978913392
 30
0.0
  0
SPLINE
  5
3FB
100
AcDbEntity
  8
0
100
AcDbSpline
 62
9
  6
CONTINUOUS
 70
0
 71
3
 72
34
 73
30
 74
0
 42
0.0000001
 43
0.0000001
 44
0.0000000001
 40
0.0
 40
0.0
 40
0.0
 40
0.0
 40
0.0432198598
 40
0.0660183603
 40
0.0895876289
 40
0.1139139499
 40
0.1389837119
 40
0.1647820986
 40
0.1912934756
 40
0.2185025961
 40
0.2463955742
 40
0.2749587911
 40
0.3041779686
 40
0.3340377334
 40
0.3645227358
 40
0.3956183462
 40
0.4273102617
 40
0.4595832486
 40
0.4924182267
 40
0.5257951312
 40
0.5596939707
 40
0.6289774381
 40
0.7001096623
 40
0.7729334735
 40
0.8099307148
 40
0.8472924613
 40
0.8850002133
 40
0.9230354887
 40
1.0
 40
1.0
 40
1.0
 40
1.0
 10
9.0693176929
 20
12.0039322118
 30
0.0
 10
9.0674494642
 20
11.9997487221
 30
0.0
 10
9.0645962001
 20
11.9933582345
 30
0.0
 10
9.0607152558
 20
11.9846903133
 30
0.0
 10
9.0576490136
 20
11.9778520985
 30
0.0
 10
9.0544880622
 20
11.9707924787
 30
0.0
 10
9.0512425231
 20
11.9635118315
 30
0.0
 10
9.0479088521
 20
11.9560168706
 30
0.0
 10
9.0444772117
 20
11.9483172701
 30
0.0
 10
9.0409396632
 20
11.9404217895
 30
0.0
 10
9.0373072687
 20
11.932330464
 30
0.0
 10
9.033592836
 20
11.9240423961
 30
0.0
 10
9.0298012178
 20
11.9155604489
 30
0.0
 10
9.0259210426
 20
11.9068949316
 30
0.0
 10
9.0219410362
 20
11.8980561851
 30
0.0
 10
9.0178663517
 20
11.8890470865
 30
0.0
 10
9.013711081
 20
11.8798664103
 30
0.0
 10
9.0094873996
 20
11.8705143032
 30
0.0
 10
9.0052025933
 20
11.8609938135
 30
0.0
 10
9.0008645932
 20
11.851308274
 30
0.0
 10
8.994973956
 20
11.8380844589
 30
0.0
 10
8.9874979521
 20
11.8211853622
 30
0.0
 10
8.9783896815
 20
11.8004962891
 30
0.0
 10
8.9706462206
 20
11.7829459816
 30
0.0
 10
8.9643206673
 20
11.7686830506
 30
0.0
 10
8.9594847927
 20
11.7578317604
 30
0.0
 10
8.9545764445
 20
11.7468923242
 30
0.0
 10
8.9479002268
 20
11.7321447257
 30
0.0
 10
8.9428159684
 20
11.721064415
 30
0.0
 10
8.9393923611
 20
11.7136585467
 30
0.0
  0
SPLINE
  5
3FC
100
AcDbEntity
  8
0
100
AcDbSpline
 62
9
  6
CONTINUOUS
 70
0
 71
3
 72
15
 73
11
 74
0
 42
0.0000001
 43
0.0000001
 44
0.0000000001
 40
0.0
 40
0.0
 40
0.0
 40
0.0
 40
0.1327634162
 40
0.2651397126
 40
0.3960737829
 40
0.5243719656
 40
0.6495978918
 40
0.7712918871
 40
0.8883749886
 40
1.0
 40
1.0
 40
1.0
 40
1.0
 10
9.0693176929
 20
12.0039322118
 30
0.0
 10
9.0963174281
 20
11.9909174153
 30
0.0
 10
9.1502459335
 20
11.9649418765
 30
0.0
 10
9.2308125918
 20
11.9261525699
 30
0.0
 10
9.310461482
 20
11.8877808609
 30
0.0
 10
9.3886054505
 20
11.8500047975
 30
0.0
 10
9.4647891494
 20
11.8129671031
 30
0.0
 10
9.5385829193
 20
11.7768049049
 30
0.0
 10
9.6094380394
 20
11.7416257822
 30
0.0
 10
9.6555139906
 20
11.7183212347
 30
0.0
 10
9.6779420513
 20
11.7068298337
 30
0.0
  0
SPLINE
  5
3FD
100
AcDbEntity
  8
0
100
AcDbSpline
 62
9
  6
CONTINUOUS
 70
0
 71
3
 72
14
 73
10
 74
0
 42
0.0000001
 43
0.0000001
 44
0.0000000001
 40
0.0
 40
0.0
 40
0.0
 40
0.0
 40
0.1143532878
 40
0.2326490063
 40
0.3544146354
 40
0.4791972769
 40
0.60656255
 40
0.7360856909
 40
1.0
 40
1.0
 40
1.0
 40
1.0
 10
9.6779420513
 20
11.7068298337
 30
0.0
 10
9.6770006761
 20
11.6963198717
 30
0.0
 10
9.6748209404
 20
11.6749603648
 30
0.0
 10
9.6706809554
 20
11.6425161025
 30
0.0
 10
9.6655387264
 20
11.6092406191
 30
0.0
 10
9.6593226251
 20
11.5752974573
 30
0.0
 10
9.6519611549
 20
11.5408501521
 30
0.0
 10
9.6404557803
 20
11.4941855871
 30
0.0
 10
9.6300003744
 20
11.4593767362
 30
0.0
 10
9.6221236403
 20
11.4363328531
 30
0.0
  0
LINE
  5
3FE
100
AcDbEntity
  8
0
100
AcDbLine
 62
9
  6
CONTINUOUS
 10
9.6779420513
 20
11.7068298337
 11
9.71595312
 21
11.6873069238
  0
SPLINE
  5
3FF
100
AcDbEntity
  8
0
100
AcDbSpline
 62
9
  6
CONTINUOUS
 70
0
 71
3
 72
38
 73
34
 74
0
 42
0.0000001
 43
0.0000001
 44
0.0000000001
 40
0.0
 40
0.0
 40
0.0
 40
0.0
 40
0.1041741673
 40
0.2046422976
 40
0.3010321729
 40
0.3929618652
 40
0.4800407803
 40
0.5618705784
 40
0.6380459856
 40
0.7081555138
 40
0.7717826235
 40
0.8010345135
 40
0.8285081839
 40
0.8541505629
 40
0.8779083268
 40
0.8997279159
 40
0.9195555524
 40
0.9373372603
 40
0.9530188922
 40
0.9665461684
 40
0.9724849644
 40
0.9778647983
 40
0.9826788935
 40
0.9869204999
 40
0.9905829184
 40
0.9936595508
 40
0.9961440086
 40
0.9971623258
 40
0.9980304785
 40
0.9987479728
 40
0.9993146172
 40
0.9997309662
 40
1.0
 40
1.0
 40
1.0
 40
1.0
 10
9.6779420513
 20
11.7068298337
 30
0.0
 10
9.6787790735
 20
11.716174748
 30
0.0
 10
9.6802362846
 20
11.7345494151
 30
0.0
 10
9.6818507199
 20
11.7616149622
 30
0.0
 10
9.6829186534
 20
11.7876037902
 30
0.0
 10
9.6835019066
 20
11.8124015812
 30
0.0
 10
9.6836623208
 20
11.8358941833
 30
0.0
 10
9.6834617369
 20
11.8579673787
 30
0.0
 10
9.6829620245
 20
11.87850696
 30
0.0
 10
9.6822250333
 20
11.8973987133
 30
0.0
 10
9.6814443685
 20
11.9120578463
 30
0.0
 10
9.6807516626
 20
11.9228751876
 30
0.0
 10
9.680226128
 20
11.9302749841
 30
0.0
 10
9.6796876734
 20
11.9371776204
 30
0.0
 10
9.6791440853
 20
11.9435689212
 30
0.0
 10
9.6786031699
 20
11.949434709
 30
0.0
 10
9.6780727364
 20
11.9547608079
 30
0.0
 10
9.6775606299
 20
11.9595330503
 30
0.0
 10
9.6770746725
 20
11.9637372611
 30
0.0
 10
9.6766828801
 20
11.966878517
 30
0.0
 10
9.6763875566
 20
11.9690966725
 30
0.0
 10
9.6761872376
 20
11.9705357822
 30
0.0
 10
9.6759993139
 20
11.9718222606
 30
0.0
 10
9.6758247787
 20
11.9729543411
 30
0.0
 10
9.6756646922
 20
11.9739302813
 30
0.0
 10
9.6755200551
 20
11.9747483155
 30
0.0
 10
9.6754071605
 20
11.9753300903
 30
0.0
 10
9.6753240777
 20
11.9757148916
 30
0.0
 10
9.6752705218
 20
11.9759432556
 30
0.0
 10
9.6752216287
 20
11.9761308001
 30
0.0
 10
9.6751777788
 20
11.9762777442
 30
0.0
 10
9.6751389547
 20
11.9763833752
 30
0.0
 10
9.6751117801
 20
11.9764395835
 30
0.0
 10
9.6750971051
 20
11.9764588642
 30
0.0
  0
LINE
  5
400
100
AcDbEntity
  8
0
100
AcDbLine
 62
9
  6
CONTINUOUS
 10
9.0693176935
 20
12.0039322115
 11
9.0845455734
 21
12.0378684161
  0
SPLINE
  5
401
100
AcDbEntity
  8
0
100
AcDbSpline
 62
9
  6
CONTINUOUS
 70
0
 71
3
 72
55
 73
51
 74
0
 42
0.0000001
 43
0.0000001
 44
0.0000000001
 40
0.0
 40
0.0
 40
0.0
 40
0.0
 40
0.1171972996
 40
0.1731676711
 40
0.2273653274
 40
0.2797778833
 40
0.3303948703
 40
0.3792059683
 40
0.4262016235
 40
0.4713725798
 40
0.5147091204
 40
0.5562002092
 40
0.5958249171
 40
0.6335577492
 40
0.6517078316
 40
0.6693776101
 40
0.7032791269
 40
0.735269564
 40
0.7505493784
 40
0.7653533884
 40
0.7935375358
 40
0.8198254179
 40
0.8442157683
 40
0.8667025863
 40
0.8872761297
 40
0.8968392317
 40
0.9059047643
 40
0.9144605753
 40
0.922503862
 40
0.9300483518
 40
0.937122964
 40
0.9437552833
 40
0.9499683946
 40
0.9557770095
 40
0.9611597315
 40
0.966062811
 40
0.9704205162
 40
0.9741845616
 40
0.9773537977
 40
0.9787400144
 40
0.9800238659
 40
0.9812477058
 40
0.9824724702
 40
0.9837716517
 40
0.985219869
 40
0.9868835407
 40
0.9888172881
 40
0.9910635688
 40
0.9936570471
 40
1.0
 40
1.0
 40
1.0
 40
1.0
 10
9.0845455734
 20
12.0378684161
 30
0.0
 10
9.08719757
 20
12.0437505425
 30
0.0
 10
9.0911117141
 20
12.0524438034
 30
0.0
 10
9.0962208726
 20
12.0638713313
 30
0.0
 10
9.0998518705
 20
12.0720527047
 30
0.0
 10
9.1033477371
 20
12.0799715678
 30
0.0
 10
9.1067254403
 20
12.0876184237
 30
0.0
 10
9.1100006345
 20
12.0949845278
 30
0.0
 10
9.1131862996
 20
12.1020622215
 30
0.0
 10
9.1162720187
 20
12.108854308
 30
0.0
 10
9.119248565
 20
12.1153631
 30
0.0
 10
9.1221085897
 20
12.121589397
 30
0.0
 10
9.1248296697
 20
12.1275400104
 30
0.0
 10
9.1269839532
 20
12.1323367438
 30
0.0
 10
9.1286085512
 20
12.1360460702
 30
0.0
 10
9.1301198341
 20
12.1395746189
 30
0.0
 10
9.1318861123
 20
12.1438226445
 30
0.0
 10
9.133582377
 20
12.1479571262
 30
0.0
 10
9.1348947544
 20
12.1511126265
 30
0.0
 10
9.1361469976
 20
12.1540661097
 30
0.0
 10
9.13767909
 20
12.1575590534
 30
0.0
 10
9.1394788099
 20
12.1615103921
 30
0.0
 10
9.1411899804
 20
12.1651570584
 30
0.0
 10
9.1427960376
 20
12.1685053426
 30
0.0
 10
9.1440647742
 20
12.1711099765
 30
0.0
 10
9.1450136102
 20
12.1730485048
 30
0.0
 10
9.1456573857
 20
12.1743996972
 30
0.0
 10
9.1462336722
 20
12.1756900378
 30
0.0
 10
9.1467263233
 20
12.176925257
 30
0.0
 10
9.1471149437
 20
12.178111914
 30
0.0
 10
9.1473999195
 20
12.1792477039
 30
0.0
 10
9.1475908444
 20
12.180328582
 30
0.0
 10
9.1476961052
 20
12.1813511765
 30
0.0
 10
9.1477220691
 20
12.1823097657
 30
0.0
 10
9.1476977087
 20
12.1831957506
 30
0.0
 10
9.1476546256
 20
12.1840007413
 30
0.0
 10
9.1476237858
 20
12.1847173719
 30
0.0
 10
9.1476324856
 20
12.1853392194
 30
0.0
 10
9.1476929183
 20
12.1857960139
 30
0.0
 10
9.1477909708
 20
12.1861031703
 30
0.0
 10
9.1478868627
 20
12.1862960786
 30
0.0
 10
9.1480127554
 20
12.1864604054
 30
0.0
 10
9.1481729056
 20
12.1865933544
 30
0.0
 10
9.1483697376
 20
12.1866924657
 30
0.0
 10
9.1486052219
 20
12.186756934
 30
0.0
 10
9.1488822978
 20
12.1867868368
 30
0.0
 10
9.1492045797
 20
12.1867820432
 30
0.0
 10
9.1495757632
 20
12.1867422409
 30
0.0
 10
9.1501821749
 20
12.1866339011
 30
0.0
 10
9.1506584624
 20
12.1865072615
 30
0.0
 10
9.1509935232
 20
12.1864088553
 30
0.0
  0
SPLINE
  5
402
100
AcDbEntity
  8
0
100
AcDbSpline
 62
7
  6
CONTINUOUS
 70
0
 71
3
 72
15
 73
11
 74
0
 42
0.0000001
 43
0.0000001
 44
0.0000000001
 40
0.0
 40
0.0
 40
0.0
 40
0.0
 40
0.1555066489
 40
0.3041931053
 40
0.4451436183
 40
0.5774137402
 40
0.7000342376
 40
0.8120144038
 40
0.9123448703
 40
1.0
 40
1.0
 40
1.0
 40
1.0
 10
9.71595312
 20
11.6873069238
 30
0.0
 10
9.7168795112
 20
11.6988467416
 30
0.0
 10
9.7184003686
 20
11.7214446658
 30
0.0
 10
9.7198212657
 20
11.7545564612
 30
0.0
 10
9.7204612441
 20
11.7859619995
 30
0.0
 10
9.7204463696
 20
11.815433006
 30
0.0
 10
9.7199027224
 20
11.8427414754
 30
0.0
 10
9.7189563783
 20
11.8676592762
 30
0.0
 10
9.7177333929
 20
11.8899581417
 30
0.0
 10
9.716747623
 20
11.9039189052
 30
0.0
 10
9.7162361901
 20
11.9104244601
 30
0.0
  0
SPLINE
  5
403
100
AcDbEntity
  8
0
100
AcDbSpline
 62
9
  6
CONTINUOUS
 70
0
 71
3
 72
48
 73
44
 74
0
 42
0.0000001
 43
0.0000001
 44
0.0000000001
 40
0.0
 40
0.0
 40
0.0
 40
0.0
 40
0.0256933817
 40
0.0387429848
 40
0.0519222749
 40
0.0652268023
 40
0.0786531719
 40
0.1058639697
 40
0.1335402342
 40
0.1616671044
 40
0.1902290113
 40
0.2192105728
 40
0.2485971818
 40
0.2634379029
 40
0.2783751687
 40
0.293408383
 40
0.3085370348
 40
0.323760711
 40
0.3390783801
 40
0.3544857933
 40
0.3699776628
 40
0.385548639
 40
0.3933621397
 40
0.4011935116
 40
0.4169095847
 40
0.4326972892
 40
0.4485571636
 40
0.464489745
 40
0.480495393
 40
0.4965724495
 40
0.5289301266
 40
0.5615412216
 40
0.5943850423
 40
0.6274417236
 40
0.6606914483
 40
0.6941146301
 40
0.7276925345
 40
0.7614103935
 40
0.7952544614
 40
0.8292085976
 40
0.8632551906
 40
0.9315546312
 40
1.0
 40
1.0
 40
1.0
 40
1.0
 10
9.6221236403
 20
11.4363328531
 30
0.0
 10
9.6161629622
 20
11.4384111272
 30
0.0
 10
9.6072033704
 20
11.4416267958
 30
0.0
 10
9.5952307336
 20
11.4460302778
 30
0.0
 10
9.5861267135
 20
11.4494153506
 30
0.0
 10
9.5769416572
 20
11.4528479814
 30
0.0
 10
9.5645302987
 20
11.4574953549
 30
0.0
 10
9.5488192165
 20
11.4633997298
 30
0.0
 10
9.529738259
 20
11.4706039395
 30
0.0
 10
9.5103573737
 20
11.4779534855
 30
0.0
 10
9.4906853767
 20
11.4854397684
 30
0.0
 10
9.4707314868
 20
11.4930554821
 30
0.0
 10
9.4539347161
 20
11.4994889084
 30
0.0
 10
9.4403649548
 20
11.5047005038
 30
0.0
 10
9.430091486
 20
11.5086588276
 30
0.0
 10
9.4197598023
 20
11.5126627788
 30
0.0
 10
9.4093734989
 20
11.5167204284
 30
0.0
 10
9.3989363872
 20
11.5208399375
 30
0.0
 10
9.3884533952
 20
11.5250294542
 30
0.0
 10
9.3779199102
 20
11.5292700252
 30
0.0
 10
9.3673319515
 20
11.5335419118
 30
0.0
 10
9.3584707585
 20
11.5371071419
 30
0.0
 10
9.3513499992
 20
11.5399557777
 30
0.0
 10
9.3441909718
 20
11.5428046999
 30
0.0
 10
9.3352032612
 20
11.5463569961
 30
0.0
 10
9.3243746204
 20
11.5506178346
 30
0.0
 10
9.3134964673
 20
11.5548981188
 30
0.0
 10
9.3025747733
 20
11.559213984
 30
0.0
 10
9.2916169379
 20
11.5635834552
 30
0.0
 10
9.2769287307
 20
11.5694927801
 30
0.0
 10
9.2584856435
 20
11.5769993506
 30
0.0
 10
9.2362643322
 20
11.5861498001
 30
0.0
 10
9.2139129454
 20
11.5954350553
 30
0.0
 10
9.1914390351
 20
11.6048341468
 30
0.0
 10
9.1688479716
 20
11.6143219294
 30
0.0
 10
9.1461412565
 20
11.6238650523
 30
0.0
 10
9.1233188694
 20
11.6334297664
 30
0.0
 10
9.1004050281
 20
11.6430437993
 30
0.0
 10
9.0774252446
 20
11.6527395106
 30
0.0
 10
9.0544017228
 20
11.6625390942
 30
0.0
 10
9.0236435466
 20
11.6757813116
 30
0.0
 10
8.9852273887
 20
11.6926648456
 30
0.0
 10
8.9546442602
 20
11.7065756041
 30
0.0
 10
8.9393923564
 20
11.7136585489
 30
0.0
  0
SPLINE
  5
404
100
AcDbEntity
  8
0
100
AcDbSpline
 62
9
  6
CONTINUOUS
 70
0
 71
3
 72
14
 73
10
 74
0
 42
0.0000001
 43
0.0000001
 44
0.0000000001
 40
0.0
 40
0.0
 40
0.0
 40
0.0
 40
0.1247303801
 40
0.2506232104
 40
0.5035014933
 40
0.6293532502
 40
0.7542127403
 40
0.8777894225
 40
1.0
 40
1.0
 40
1.0
 40
1.0
 10
9.4409920277
 20
11.0509040113
 30
0.0
 10
9.4484714377
 20
11.0669669865
 30
0.0
 10
9.463963281
 20
11.0990272783
 30
0.0
 10
9.4962152519
 20
11.1628705466
 30
0.0
 10
9.5292474181
 20
11.2264946273
 30
0.0
 10
9.5610202719
 20
11.290594535
 30
0.0
 10
9.583544276
 20
11.3387665467
 30
0.0
 10
9.6042347759
 20
11.3871972091
 30
0.0
 10
9.6164975706
 20
11.4199087563
 30
0.0
 10
9.6221236403
 20
11.4363328531
 30
0.0
  0
LINE
  5
405
100
AcDbEntity
  8
0
100
AcDbLine
 62
9
  6
CONTINUOUS
 10
9.6221236405
 20
11.4363328537
 11
9.6630836846
 21
11.4214344048
  0
SPLINE
  5
406
100
AcDbEntity
  8
0
100
AcDbSpline
 62
9
  6
CONTINUOUS
 70
0
 71
3
 72
15
 73
11
 74
0
 42
0.0000001
 43
0.0000001
 44
0.0000000001
 40
0.0
 40
0.0
 40
0.0
 40
0.0
 40
0.1253354213
 40
0.2513420865
 40
0.3776285907
 40
0.5037743882
 40
0.6293734625
 40
0.7540786973
 40
0.8776489189
 40
1.0
 40
1.0
 40
1.0
 40
1.0
 10
9.4757635733
 20
11.0353404058
 30
0.0
 10
9.4835963986
 20
11.051485047
 30
0.0
 10
9.4997766065
 20
11.0836318638
 30
0.0
 10
9.5249453685
 20
11.1314827578
 30
0.0
 10
9.5505080499
 20
11.1792550164
 30
0.0
 10
9.5758738695
 20
11.2270667092
 30
0.0
 10
9.6004521732
 20
11.2750367149
 30
0.0
 10
9.6236516951
 20
11.323285866
 30
0.0
 10
9.6448784461
 20
11.3719338541
 30
0.0
 10
9.6573763579
 20
11.4048730861
 30
0.0
 10
9.6630836846
 20
11.4214344048
 30
0.0
  0
SPLINE
  5
407
100
AcDbEntity
  8
0
100
AcDbSpline
 62
9
  6
CONTINUOUS
 70
0
 71
3
 72
108
 73
104
 74
0
 42
0.0000001
 43
0.0000001
 44
0.0000000001
 40
0.0
 40
0.0
 40
0.0
 40
0.0
 40
0.0122240375
 40
0.0244634762
 40
0.0305981734
 40
0.0367408578
 40
0.0428878252
 40
0.0490343892
 40
0.0551757287
 40
0.0582431318
 40
0.0613080799
 40
0.067431469
 40
0.0735475288
 40
0.0796574799
 40
0.0857622154
 40
0.0979583639
 40
0.1040505565
 40
0.1101391941
 40
0.1162245452
 40
0.1223066129
 40
0.1344595531
 40
0.1465950738
 40
0.158709965
 40
0.1708009054
 40
0.1828650374
 40
0.1949006586
 40
0.2188801615
 40
0.2308209217
 40
0.2427267744
 40
0.2664262791
 40
0.2899636946
 40
0.3133248676
 40
0.3364964797
 40
0.3594653302
 40
0.3822183992
 40
0.4270239353
 40
0.4708028526
 40
0.4922734967
 40
0.5134475737
 40
0.5343126457
 40
0.5548563489
 40
0.5750664361
 40
0.5949305999
 40
0.6144359932
 40
0.6335696822
 40
0.652321168
 40
0.6706820682
 40
0.7061837931
 40
0.7232946292
 40
0.7399680202
 40
0.748139464
 40
0.7561996291
 40
0.7719797381
 40
0.7872953703
 40
0.8021355644
 40
0.8164920178
 40
0.8303566315
 40
0.8437214052
 40
0.8565783827
 40
0.8807378902
 40
0.9027745067
 40
0.9129790136
 40
0.9226330834
 40
0.9317312957
 40
0.9402687797
 40
0.9482408311
 40
0.9556430184
 40
0.9624710347
 40
0.9687193893
 40
0.9743811549
 40
0.9794527844
 40
0.9817689924
 40
0.9839400636
 40
0.9859667542
 40
0.987846393
 40
0.9895740287
 40
0.9911450602
 40
0.9925562106
 40
0.9938098625
 40
0.9943808139
 40
0.994916178
 40
0.9954176161
 40
0.9958878306
 40
0.9963313692
 40
0.9967555497
 40
0.9971712539
 40
0.9975870809
 40
0.9979904267
 40
0.9981805363
 40
0.9983587636
 40
0.9985218701
 40
0.9986666629
 40
0.9987902081
 40
0.9988903156
 40
0.998966927
 40
0.9990264637
 40
0.9990888566
 40
0.9991290425
 40
0.9991778421
 40
0.9993064052
 40
0.9994826013
 40
0.9997121514
 40
1.0
 40
1.0
 40
1.0
 40
1.0
 10
8.9393923615
 20
11.7136585478
 30
0.0
 10
8.9356296355
 20
11.7148193619
 30
0.0
 10
8.9282111872
 20
11.7175117549
 30
0.0
 10
8.919202938
 20
11.7215229221
 30
0.0
 10
8.9120951181
 20
11.724965915
 30
0.0
 10
8.9067920908
 20
11.7276312719
 30
0.0
 10
8.9015068748
 20
11.7303398348
 30
0.0
 10
8.8962249428
 20
11.7330538244
 30
0.0
 10
8.8918126351
 20
11.7352896921
 30
0.0
 10
8.8882689945
 20
11.7370431745
 30
0.0
 10
8.8847180274
 20
11.7387685678
 30
0.0
 10
8.8802628659
 20
11.7408798777
 30
0.0
 10
8.8748933677
 20
11.7433513219
 30
0.0
 10
8.8695067593
 20
11.7457705442
 30
0.0
 10
8.8623101108
 20
11.748939564
 30
0.0
 10
8.8550932986
 20
11.7520480283
 30
0.0
 10
8.8478743757
 20
11.7551381995
 30
0.0
 10
8.8424659867
 20
11.7574558656
 30
0.0
 10
8.8370665997
 20
11.7597862224
 30
0.0
 10
8.8298840612
 20
11.7629147049
 30
0.0
 10
8.8209303383
 20
11.7668571649
 30
0.0
 10
8.8102148329
 20
11.7716206299
 30
0.0
 10
8.7995255213
 20
11.7763937853
 30
0.0
 10
8.7888558452
 20
11.7811545203
 30
0.0
 10
8.7782006938
 20
11.7858850968
 30
0.0
 10
8.7640390661
 20
11.7921554686
 30
0.0
 10
8.749909912
 20
11.7984010228
 30
0.0
 10
8.7358283914
 20
11.8046508995
 30
0.0
 10
8.7218366904
 20
11.8108807835
 30
0.0
 10
8.7044433241
 20
11.8186547297
 30
0.0
 10
8.6836916686
 20
11.8279581093
 30
0.0
 10
8.6631012644
 20
11.8372054762
 30
0.0
 10
8.642682439
 20
11.846387828
 30
0.0
 10
8.6224437248
 20
11.8554930745
 30
0.0
 10
8.5958442457
 20
11.8674455291
 30
0.0
 10
8.5631056309
 20
11.8820908
 30
0.0
 10
8.5307414189
 20
11.8965613215
 30
0.0
 10
8.5053316156
 20
11.9079359482
 30
0.0
 10
8.486660835
 20
11.916299283
 30
0.0
 10
8.4682616668
 20
11.9245385618
 30
0.0
 10
8.45014273
 20
11.9326438261
 30
0.0
 10
8.4323152345
 20
11.9406110041
 30
0.0
 10
8.4147900125
 20
11.9484347963
 30
0.0
 10
8.3975819987
 20
11.9561185595
 30
0.0
 10
8.380708045
 20
11.9636713525
 30
0.0
 10
8.3641755686
 20
11.9710846246
 30
0.0
 10
8.3428251709
 20
11.9806399363
 30
0.0
 10
8.3219402005
 20
11.9899414435
 30
0.0
 10
8.3015845698
 20
11.9990949579
 30
0.0
 10
8.2892617448
 20
12.0046453365
 30
0.0
 10
8.279592041
 20
12.0089869283
 30
0.0
 10
8.2701804756
 20
12.0132009139
 30
0.0
 10
8.2586634489
 20
12.0183440716
 30
0.0
 10
8.2451534951
 20
12.0243807026
 30
0.0
 10
8.2320678887
 20
12.0302428613
 30
0.0
 10
8.2194099488
 20
12.0359163747
 30
0.0
 10
8.2071839862
 20
12.0413916453
 30
0.0
 10
8.1953969295
 20
12.0466651808
 30
0.0
 10
8.1805794388
 20
12.0532856558
 30
0.0
 10
8.1632094085
 20
12.0610410006
 30
0.0
 10
8.1466277877
 20
12.0684663661
 30
0.0
 10
8.13431679
 20
12.0739955497
 30
0.0
 10
8.1258078618
 20
12.0778173679
 30
0.0
 10
8.1177862978
 20
12.081413621
 30
0.0
 10
8.1102571718
 20
12.0847838073
 30
0.0
 10
8.1032254466
 20
12.0879279657
 30
0.0
 10
8.0966955401
 20
12.0908453662
 30
0.0
 10
8.0906714963
 20
12.0935338214
 30
0.0
 10
8.0851597441
 20
12.0959945142
 30
0.0
 10
8.0801695294
 20
12.0982355381
 30
0.0
 10
8.0763419627
 20
12.0999734988
 30
0.0
 10
8.0735333283
 20
12.1012356654
 30
0.0
 10
8.0716150049
 20
12.1020860491
 30
0.0
 10
8.0698175671
 20
12.102861894
 30
0.0
 10
8.0681474377
 20
12.1035720749
 30
0.0
 10
8.0666159128
 20
12.1042331952
 30
0.0
 10
8.0652339365
 20
12.1048594704
 30
0.0
 10
8.0640114115
 20
12.1054670009
 30
0.0
 10
8.0631062437
 20
12.1059844172
 30
0.0
 10
8.0624483215
 20
12.1063652253
 30
0.0
 10
8.0619965698
 20
12.1066185834
 30
0.0
 10
8.0615654264
 20
12.1068420201
 30
0.0
 10
8.0611491361
 20
12.1070287108
 30
0.0
 10
8.0607417731
 20
12.1071715486
 30
0.0
 10
8.0603374689
 20
12.1072632329
 30
0.0
 10
8.0599324488
 20
12.1072946913
 30
0.0
 10
8.0595347769
 20
12.1072627994
 30
0.0
 10
8.0592143273
 20
12.1072068092
 30
0.0
 10
8.0589711427
 20
12.1071552651
 30
0.0
 10
8.0588040609
 20
12.1071179769
 30
0.0
 10
8.0586511025
 20
12.1070843895
 30
0.0
 10
8.0585147062
 20
12.1070576677
 30
0.0
 10
8.0583971301
 20
12.1070405543
 30
0.0
 10
8.0583002987
 20
12.1070365021
 30
0.0
 10
8.0582240394
 20
12.1070468808
 30
0.0
 10
8.0581672431
 20
12.1070848597
 30
0.0
 10
8.0581547709
 20
12.1071396718
 30
0.0
 10
8.0581600033
 20
12.1071880446
 30
0.0
 10
8.0581779368
 20
12.1072561249
 30
0.0
 10
8.0582258415
 20
12.1073600397
 30
0.0
 10
8.0583139424
 20
12.1075080003
 30
0.0
 10
8.0584407605
 20
12.1076921121
 30
0.0
 10
8.0585408765
 20
12.1078253891
 30
0.0
 10
8.0585974863
 20
12.1078988271
 30
0.0
  0
SPLINE
  5
408
100
AcDbEntity
  8
0
100
AcDbSpline
 62
9
  6
CONTINUOUS
 70
0
 71
3
 72
23
 73
19
 74
0
 42
0.0000001
 43
0.0000001
 44
0.0000000001
 40
0.0
 40
0.0
 40
0.0
 40
0.0
 40
0.0413680067
 40
0.0873899058
 40
0.1375666885
 40
0.1913963573
 40
0.2483981141
 40
0.3081791356
 40
0.3703647715
 40
0.4345784446
 40
0.5004864708
 40
0.567927369
 40
0.6367874905
 40
0.7069610216
 40
0.7783653719
 40
0.8509863597
 40
0.9248471257
 40
1.0
 40
1.0
 40
1.0
 40
1.0
 10
9.60188803
 20
10.9788876007
 30
0.0
 10
9.6050888478
 20
10.9842221321
 30
0.0
 10
9.6119903737
 20
10.9954076124
 30
0.0
 10
9.6231714211
 20
11.0128147865
 30
0.0
 10
9.6356488632
 20
11.0316135129
 30
0.0
 10
9.6493002337
 20
11.0516122858
 30
0.0
 10
9.6640107874
 20
11.0726344127
 30
0.0
 10
9.6795885147
 20
11.0945823207
 30
0.0
 10
9.6958532309
 20
11.1173724133
 30
0.0
 10
9.7126295232
 20
11.1409294166
 30
0.0
 10
9.7297599882
 20
11.1652042816
 30
0.0
 10
9.7470989526
 20
11.1901864358
 30
0.0
 10
9.7645193535
 20
11.2158910417
 30
0.0
 10
9.7818988478
 20
11.2423400424
 30
0.0
 10
9.7991201185
 20
11.2695648714
 30
0.0
 10
9.8160188224
 20
11.2976418966
 30
0.0
 10
9.8324356113
 20
11.3266540215
 30
0.0
 10
9.8428594227
 20
11.3464971665
 30
0.0
 10
9.8479392752
 20
11.3565930742
 30
0.0
  0
SPLINE
  5
409
100
AcDbEntity
  8
0
100
AcDbSpline
 62
9
  6
CONTINUOUS
 70
0
 71
3
 72
19
 73
15
 74
0
 42
0.0000001
 43
0.0000001
 44
0.0000000001
 40
0.0
 40
0.0
 40
0.0
 40
0.0
 40
0.0575408776
 40
0.116402816
 40
0.1764053341
 40
0.2373618051
 40
0.2990917483
 40
0.3614540643
 40
0.4875375336
 40
0.614662432
 40
0.7424501564
 40
0.8707999854
 40
0.9352641434
 40
1.0
 40
1.0
 40
1.0
 40
1.0
 10
9.5115957488
 20
11.0193020666
 30
0.0
 10
9.5150015507
 20
11.0268737017
 30
0.0
 10
9.5220509281
 20
11.0421193666
 30
0.0
 10
9.5331348601
 20
11.0650332331
 30
0.0
 10
9.5447751327
 20
11.0882221122
 30
0.0
 10
9.5568881555
 20
11.1116342164
 30
0.0
 10
9.5693938928
 20
11.1352247249
 30
0.0
 10
9.5865079953
 20
11.1670068881
 30
0.0
 10
9.6082845341
 20
11.2069941489
 30
0.0
 10
9.6342572438
 20
11.255445748
 30
0.0
 10
9.6594500695
 20
11.3046786806
 30
0.0
 10
9.6792166091
 20
11.3465165083
 30
0.0
 10
9.6938978078
 20
11.3806582696
 30
0.0
 10
9.7007932968
 20
11.3979813027
 30
0.0
 10
9.7041134858
 20
11.4067117769
 30
0.0
  0
LINE
  5
40A
100
AcDbEntity
  8
0
100
AcDbLine
 62
7
  6
CONTINUOUS
 10
10.0019353881
 20
10.8238755887
 11
10.1465341012
 21
10.9452069092
  0
SPLINE
  5
40B
100
AcDbEntity
  8
0
100
AcDbSpline
 62
9
  6
CONTINUOUS
 70
0
 71
3
 72
46
 73
42
 74
0
 42
0.0000001
 43
0.0000001
 44
0.0000000001
 40
0.0
 40
0.0
 40
0.0
 40
0.0
 40
0.0001584725
 40
0.0002927176
 40
0.0004696456
 40
0.0006907325
 40
0.0009566101
 40
0.0012675435
 40
0.0016236158
 40
0.0024710256
 40
0.0034981529
 40
0.0047038348
 40
0.0060867084
 40
0.0093780791
 40
0.0133599438
 40
0.0180195257
 40
0.0233438726
 40
0.0293199552
 40
0.0359347152
 40
0.0431750903
 40
0.0510280297
 40
0.0594805037
 40
0.0685195102
 40
0.0883052595
 40
0.1102819957
 40
0.134347114
 40
0.160398785
 40
0.1883360386
 40
0.2180588483
 40
0.2494682206
 40
0.2824662917
 40
0.3169564324
 40
0.3528433631
 40
0.3900332812
 40
0.4679531224
 40
0.5500021722
 40
0.6354994249
 40
0.7238053193
 40
0.814330541
 40
0.9065468099
 40
1.0
 40
1.0
 40
1.0
 40
1.0
 10
9.7750939511
 20
11.9224089896
 30
0.0
 10
9.7750664458
 20
11.9224058795
 30
0.0
 10
9.7750307559
 20
11.9223551019
 30
0.0
 10
9.7750034536
 20
11.9222812726
 30
0.0
 10
9.7749794938
 20
11.9221900767
 30
0.0
 10
9.7749586208
 20
11.922076395
 30
0.0
 10
9.7749395519
 20
11.9219381484
 30
0.0
 10
9.7749227629
 20
11.9217760971
 30
0.0
 10
9.7749019789
 20
11.92151235
 30
0.0
 10
9.7748827758
 20
11.9211231441
 30
0.0
 10
9.7748685699
 20
11.9205852803
 30
0.0
 10
9.774861965
 20
11.9199537416
 30
0.0
 10
9.7748629088
 20
11.9189266767
 30
0.0
 10
9.7748836652
 20
11.9174148028
 30
0.0
 10
9.7749307052
 20
11.9153310134
 30
0.0
 10
9.774998502
 20
11.912892534
 30
0.0
 10
9.775083766
 20
11.9101060928
 30
0.0
 10
9.7751832808
 20
11.9069784182
 30
0.0
 10
9.7752937302
 20
11.9035162489
 30
0.0
 10
9.7754117891
 20
11.899726324
 30
0.0
 10
9.7755341129
 20
11.8956153846
 30
0.0
 10
9.7756573441
 20
11.8911901714
 30
0.0
 10
9.7758234755
 20
11.8846810498
 30
0.0
 10
9.7760130214
 20
11.8758094912
 30
0.0
 10
9.7761836869
 20
11.8643125178
 30
0.0
 10
9.7762771483
 20
11.851720116
 30
0.0
 10
9.7762664813
 20
11.8380862067
 30
0.0
 10
9.7761247576
 20
11.8234647058
 30
0.0
 10
9.7758250212
 20
11.8079095271
 30
0.0
 10
9.7753403063
 20
11.7914745814
 30
0.0
 10
9.7746436381
 20
11.7742137725
 30
0.0
 10
9.7737080346
 20
11.7561810159
 30
0.0
 10
9.7725065151
 20
11.7374301616
 30
0.0
 10
9.7704822862
 20
11.7111326714
 30
0.0
 10
9.7671320786
 20
11.6768531195
 30
0.0
 10
9.7616815873
 20
11.6343181715
 30
0.0
 10
9.7545245879
 20
11.5901957407
 30
0.0
 10
9.7454449344
 20
11.5449150283
 30
0.0
 10
9.7342256322
 20
11.498903826
 30
0.0
 10
9.7206498219
 20
11.4525919018
 30
0.0
 10
9.7099378658
 20
11.4219608447
 30
0.0
 10
9.7041134858
 20
11.4067117769
 30
0.0
  0
SPLINE
  5
40C
100
AcDbEntity
  8
0
100
AcDbSpline
 62
7
  6
CONTINUOUS
 70
0
 71
3
 72
12
 73
8
 74
0
 42
0.0000001
 43
0.0000001
 44
0.0000000001
 40
0.0
 40
0.0
 40
0.0
 40
0.0
 40
0.2609272042
 40
0.3895553231
 40
0.5165230663
 40
0.7639634079
 40
1.0
 40
1.0
 40
1.0
 40
1.0
 10
9.663085078
 20
11.4214384482
 30
0.0
 10
9.6707856968
 20
11.4437841951
 30
0.0
 10
9.6809027552
 20
11.4776383962
 30
0.0
 10
9.6918568142
 20
11.5231311701
 30
0.0
 10
9.7010433238
 20
11.567769894
 30
0.0
 10
9.7096978665
 20
11.6224166763
 30
0.0
 10
9.7142422249
 20
11.665994741
 30
0.0
 10
9.71595312
 20
11.6873069238
 30
0.0
  0
SPLINE
  5
40D
100
AcDbEntity
  8
0
100
AcDbSpline
 62
9
  6
CONTINUOUS
 70
0
 71
3
 72
40
 73
36
 74
0
 42
0.0000001
 43
0.0000001
 44
0.0000000001
 40
0.0
 40
0.0
 40
0.0
 40
0.0
 40
0.2245314563
 40
0.3271039919
 40
0.4230168855
 40
0.512121538
 40
0.5942688881
 40
0.6693094303
 40
0.7370932314
 40
0.7974699467
 40
0.8248335681
 40
0.8502888589
 40
0.873816917
 40
0.8953988171
 40
0.9150156118
 40
0.932648331
 40
0.9482779833
 40
0.9618855558
 40
0.9734520146
 40
0.9784638731
 40
0.9829583061
 40
0.9869329287
 40
0.9903853547
 40
0.9933131965
 40
0.9957140656
 40
0.9967161387
 40
0.9975855722
 40
0.9983220674
 40
0.9989253252
 40
0.9993950465
 40
0.9997309322
 40
0.9998485933
 40
0.9999326832
 40
0.9999831646
 40
1.0
 40
1.0
 40
1.0
 40
1.0
 10
9.7162361901
 20
11.9104244601
 30
0.0
 10
9.7159592894
 20
11.9139467054
 30
0.0
 10
9.7155337241
 20
11.9190763174
 30
0.0
 10
9.7149384266
 20
11.9257060375
 30
0.0
 10
9.7145143009
 20
11.930211505
 30
0.0
 10
9.7141026354
 20
11.9343952838
 30
0.0
 10
9.7137071717
 20
11.9382505995
 30
0.0
 10
9.7133316551
 20
11.9417706762
 30
0.0
 10
9.712979828
 20
11.9449487376
 30
0.0
 10
9.7127010654
 20
11.9473800646
 30
0.0
 10
9.7124929226
 20
11.9491490512
 30
0.0
 10
9.7123502684
 20
11.9503419093
 30
0.0
 10
9.7122163427
 20
11.9514441827
 30
0.0
 10
9.7120916131
 20
11.9524550243
 30
0.0
 10
9.7119765477
 20
11.9533735872
 30
0.0
 10
9.7118716147
 20
11.9541990243
 30
0.0
 10
9.7117772821
 20
11.9549304887
 30
0.0
 10
9.7116940177
 20
11.9555671332
 30
0.0
 10
9.711631586
 20
11.9560380024
 30
0.0
 10
9.7115875485
 20
11.9563666553
 30
0.0
 10
9.7115591916
 20
11.9565768803
 30
0.0
 10
9.7115339528
 20
11.956762765
 30
0.0
 10
9.7115118906
 20
11.9569242039
 30
0.0
 10
9.7114930629
 20
11.9570610905
 30
0.0
 10
9.7114794057
 20
11.9571597684
 30
0.0
 10
9.7114701421
 20
11.9572263542
 30
0.0
 10
9.7114644736
 20
11.957267001
 30
0.0
 10
9.7114596462
 20
11.957301421
 30
0.0
 10
9.7114557112
 20
11.9573296368
 30
0.0
 10
9.7114525583
 20
11.9573515395
 30
0.0
 10
9.7114506536
 20
11.9573660283
 30
0.0
 10
9.7114492963
 20
11.9573742655
 30
0.0
 10
9.7114490206
 20
11.9573784242
 30
0.0
 10
9.7114481879
 20
11.9573803782
 30
0.0
 10
9.7114485545
 20
11.9573818463
 30
0.0
 10
9.7114483053
 20
11.9573819363
 30
0.0
  0
SPLINE
  5
40E
100
AcDbEntity
  8
0
100
AcDbSpline
 62
9
  6
CONTINUOUS
 70
0
 71
3
 72
44
 73
40
 74
0
 42
0.0000001
 43
0.0000001
 44
0.0000000001
 40
0.0
 40
0.0
 40
0.0
 40
0.0
 40
0.000143029
 40
0.0002937148
 40
0.0004649029
 40
0.0006653985
 40
0.001173173
 40
0.0018404648
 40
0.0026755839
 40
0.0036818253
 40
0.0048603153
 40
0.0062111153
 40
0.0077337083
 40
0.0094272388
 40
0.0133226502
 40
0.0178875132
 40
0.0231107675
 40
0.0289807838
 40
0.035485616
 40
0.0426131348
 40
0.0503511024
 40
0.0676091479
 40
0.0871610624
 40
0.1089081172
 40
0.132751853
 40
0.1585942605
 40
0.1863379076
 40
0.2158860432
 40
0.247142691
 40
0.2800127392
 40
0.3144020331
 40
0.3873660703
 40
0.4653052053
 40
0.5475114513
 40
0.6333037003
 40
0.7220332734
 40
0.8130907351
 40
0.9059142759
 40
1.0
 40
1.0
 40
1.0
 40
1.0
 10
9.9727887453
 20
11.8001353799
 30
0.0
 10
9.9727670925
 20
11.8001396655
 30
0.0
 10
9.9727207997
 20
11.8001411555
 30
0.0
 10
9.9726512385
 20
11.8001197637
 30
0.0
 10
9.9725823875
 20
11.8000765451
 30
0.0
 10
9.9724828357
 20
11.7999834692
 30
0.0
 10
9.9723605135
 20
11.7998078414
 30
0.0
 10
9.9722194128
 20
11.7995312946
 30
0.0
 10
9.972073567
 20
11.799172222
 30
0.0
 10
9.9719228547
 20
11.7987310985
 30
0.0
 10
9.9717671731
 20
11.7982080402
 30
0.0
 10
9.9716064096
 20
11.7976036939
 30
0.0
 10
9.9714403919
 20
11.7969186933
 30
0.0
 10
9.9712004462
 20
11.7958477222
 30
0.0
 10
9.9708902158
 20
11.7943116082
 30
0.0
 10
9.9705082628
 20
11.7922346863
 30
0.0
 10
9.9700999151
 20
11.7898529692
 30
0.0
 10
9.9696634105
 20
11.7871724495
 30
0.0
 10
9.969197046
 20
11.7841991078
 30
0.0
 10
9.9686990052
 20
11.7809389737
 30
0.0
 10
9.9679631727
 20
11.7760364548
 30
0.0
 10
9.9669581357
 20
11.7692355013
 30
0.0
 10
9.9656350097
 20
11.7602961408
 30
0.0
 10
9.9641403358
 20
11.7503547802
 30
0.0
 10
9.9624592696
 20
11.7394598211
 30
0.0
 10
9.9605769887
 20
11.7276596705
 30
0.0
 10
9.9584785699
 20
11.7150027554
 30
0.0
 10
9.9561490625
 20
11.7015375064
 30
0.0
 10
9.9535734889
 20
11.6873123643
 30
0.0
 10
9.9507368481
 20
11.6723757447
 30
0.0
 10
9.9465023291
 20
11.6511540115
 30
0.0
 10
9.9404794322
 20
11.623198063
 30
0.0
 10
9.9321059978
 20
11.5882082496
 30
0.0
 10
9.92233058
 20
11.5515298519
 30
0.0
 10
9.9110330608
 20
11.5135491379
 30
0.0
 10
9.8980930826
 20
11.4746520526
 30
0.0
 10
9.8833897
 20
11.4352238187
 30
0.0
 10
9.8668022321
 20
11.3956508556
 30
0.0
 10
9.8544690911
 20
11.369561596
 30
0.0
 10
9.8479392752
 20
11.3565930742
 30
0.0
  0
SPLINE
  5
40F
100
AcDbEntity
  8
0
100
AcDbSpline
 62
7
  6
CONTINUOUS
 70
0
 71
3
 72
20
 73
16
 74
0
 42
0.0000001
 43
0.0000001
 44
0.0000000001
 40
0.0
 40
0.0
 40
0.0
 40
0.0
 40
0.0094121389
 40
0.0191237352
 40
0.0408733783
 40
0.0676101249
 40
0.1005217099
 40
0.1401715143
 40
0.1867818075
 40
0.2403903314
 40
0.3009043956
 40
0.4418629263
 40
0.6074931606
 40
0.7947652128
 40
1.0
 40
1.0
 40
1.0
 40
1.0
 10
8.9014283287
 20
11.1720033218
 30
0.0
 10
8.9014100757
 20
11.171962555
 30
0.0
 10
8.9013820523
 20
11.1718753261
 30
0.0
 10
8.9013639854
 20
11.1716808426
 30
0.0
 10
8.90142279
 20
11.17140514
 30
0.0
 10
8.901600466
 20
11.171059505
 30
0.0
 10
8.9018836353
 20
11.1706809231
 30
0.0
 10
8.9022728556
 20
11.1702694762
 30
0.0
 10
8.9027673656
 20
11.1698258889
 30
0.0
 10
8.9033657609
 20
11.1693522671
 30
0.0
 10
8.9043503063
 20
11.1686473562
 30
0.0
 10
8.9058260034
 20
11.1677187738
 30
0.0
 10
8.9078730098
 20
11.1665760598
 30
0.0
 10
8.9102371952
 20
11.1653804046
 30
0.0
 10
8.9119268797
 20
11.1645956518
 30
0.0
 10
8.9128158608
 20
11.1641977474
 30
0.0
  0
SPLINE
  5
410
100
AcDbEntity
  8
0
100
AcDbSpline
 62
7
  6
CONTINUOUS
 70
0
 71
3
 72
16
 73
12
 74
0
 42
0.0000001
 43
0.0000001
 44
0.0000000001
 40
0.0
 40
0.0
 40
0.0
 40
0.0
 40
0.1286475415
 40
0.2563416803
 40
0.3198143601
 40
0.3830289422
 40
0.5086672403
 40
0.6332253457
 40
0.7566649717
 40
0.8789391375
 40
1.0
 40
1.0
 40
1.0
 40
1.0
 10
9.9555824703
 20
11.3140596206
 30
0.0
 10
9.9510592138
 20
11.3161074652
 30
0.0
 10
9.9420232828
 20
11.3201375559
 30
0.0
 10
9.9306889753
 20
11.3250265904
 30
0.0
 10
9.9216352165
 20
11.3288244988
 30
0.0
 10
9.9126284159
 20
11.3325286031
 30
0.0
 10
9.9013949374
 20
11.3370161631
 30
0.0
 10
9.8879386323
 20
11.3422020318
 30
0.0
 10
9.8745496176
 20
11.3471991276
 30
0.0
 10
9.86123399
 20
11.3520044817
 30
0.0
 10
9.8523624883
 20
11.355087525
 30
0.0
 10
9.8479392752
 20
11.3565930742
 30
0.0
  0
SPLINE
  5
411
100
AcDbEntity
  8
0
100
AcDbSpline
 62
7
  6
CONTINUOUS
 70
0
 71
3
 72
12
 73
8
 74
0
 42
0.0000001
 43
0.0000001
 44
0.0000000001
 40
0.0
 40
0.0
 40
0.0
 40
0.0
 40
0.2547744324
 40
0.5068091249
 40
0.6315907813
 40
0.7554301324
 40
1.0
 40
1.0
 40
1.0
 40
1.0
 10
10.1001722645
 20
11.2363789423
 30
0.0
 10
10.088354966
 20
11.243792339
 30
0.0
 10
10.0646130983
 20
11.2581702865
 30
0.0
 10
10.0344397047
 20
11.2750814479
 30
0.0
 10
10.0102051966
 20
11.2878971914
 30
0.0
 10
9.9860900252
 20
11.3000557016
 30
0.0
 10
9.96778186
 20
11.3085365081
 30
0.0
 10
9.9555824703
 20
11.3140596206
 30
0.0
  0
SPLINE
  5
412
100
AcDbEntity
  8
0
100
AcDbSpline
 62
9
  6
CONTINUOUS
 70
0
 71
3
 72
13
 73
9
 74
0
 42
0.0000001
 43
0.0000001
 44
0.0000000001
 40
0.0
 40
0.0
 40
0.0
 40
0.0
 40
0.2508702975
 40
0.3761213818
 40
0.5012293829
 40
0.626185049
 40
0.7509764267
 40
1.0
 40
1.0
 40
1.0
 40
1.0
 10
10.1583742664
 20
11.197365771
 30
0.0
 10
10.1536071415
 20
11.2007737155
 30
0.0
 10
10.1464145888
 20
11.2058200617
 30
0.0
 10
10.1367474853
 20
11.212425163
 30
0.0
 10
10.1294714475
 20
11.2173158126
 30
0.0
 10
10.1221727734
 20
11.2221531485
 30
0.0
 10
10.1124271567
 20
11.228537549
 30
0.0
 10
10.1050836729
 20
11.2332622242
 30
0.0
 10
10.1001722673
 20
11.236378946
 30
0.0
  0
SPLINE
  5
413
100
AcDbEntity
  8
0
100
AcDbSpline
 62
7
  6
CONTINUOUS
 70
0
 71
3
 72
23
 73
19
 74
0
 42
0.0000001
 43
0.0000001
 44
0.0000000001
 40
0.0
 40
0.0
 40
0.0
 40
0.0
 40
0.0499019636
 40
0.1029972571
 40
0.1588745962
 40
0.2171609012
 40
0.2774962354
 40
0.3395488218
 40
0.4030287959
 40
0.4676914986
 40
0.5333161102
 40
0.59969098
 40
0.6666035711
 40
0.7338235618
 40
0.801091338
 40
0.8681039143
 40
0.9345356963
 40
1.0
 40
1.0
 40
1.0
 40
1.0
 10
13.1071851508
 20
7.6343969311
 30
0.0
 10
13.1081070322
 20
7.6351704815
 30
0.0
 10
13.1100596624
 20
7.6367074969
 30
0.0
 10
13.113144591
 20
7.6389798545
 30
0.0
 10
13.1164232542
 20
7.6413294645
 30
0.0
 10
13.1198429125
 20
7.6437819904
 30
0.0
 10
13.1233586645
 20
7.6463559133
 30
0.0
 10
13.1269341059
 20
7.6490596011
 30
0.0
 10
13.1305391491
 20
7.651895917
 30
0.0
 10
13.134150218
 20
7.6548622655
 30
0.0
 10
13.1377510672
 20
7.6579493599
 30
0.0
 10
13.141330433
 20
7.6611433327
 30
0.0
 10
13.1448837033
 20
7.6644231515
 30
0.0
 10
13.1484118301
 20
7.6677612637
 30
0.0
 10
13.1519204457
 20
7.6711232423
 30
0.0
 10
13.1554233337
 20
7.6744638
 30
0.0
 10
13.1589386995
 20
7.6777278291
 30
0.0
 10
13.1613283366
 20
7.6798284584
 30
0.0
 10
13.1625377144
 20
7.6808432468
 30
0.0
  0
SPLINE
  5
414
100
AcDbEntity
  8
0
100
AcDbSpline
 62
7
  6
CONTINUOUS
 70
0
 71
3
 72
24
 73
20
 74
0
 42
0.0000001
 43
0.0000001
 44
0.0000000001
 40
0.0
 40
0.0
 40
0.0
 40
0.0
 40
0.0084820507
 40
0.0175157305
 40
0.0275629375
 40
0.0389555056
 40
0.0519127256
 40
0.0665761385
 40
0.1013052003
 40
0.1434681981
 40
0.1930382757
 40
0.249805585
 40
0.3134299325
 40
0.3834649247
 40
0.4593799097
 40
0.5405680682
 40
0.6263526409
 40
0.8086954706
 40
1.0
 40
1.0
 40
1.0
 40
1.0
 10
8.7365197385
 20
11.2474044099
 30
0.0
 10
8.7364935747
 20
11.2473459368
 30
0.0
 10
8.7364560223
 20
11.2472171868
 30
0.0
 10
8.7364499703
 20
11.2470073173
 30
0.0
 10
8.7364916669
 20
11.2467796163
 30
0.0
 10
8.7365797977
 20
11.2465343211
 30
0.0
 10
8.736713689
 20
11.2462711835
 30
0.0
 10
8.7369677543
 20
11.2458740301
 30
0.0
 10
8.7374084957
 20
11.2453384824
 30
0.0
 10
8.7380851012
 20
11.2446632324
 30
0.0
 10
8.7389333426
 20
11.243928366
 30
0.0
 10
8.7399470749
 20
11.2431402378
 30
0.0
 10
8.7411188451
 20
11.2423057821
 30
0.0
 10
8.7424392447
 20
11.2414325195
 30
0.0
 10
8.743897361
 20
11.2405284458
 30
0.0
 10
8.7454807601
 20
11.2396019058
 30
0.0
 10
8.7477878574
 20
11.2383219632
 30
0.0
 10
8.7508748019
 20
11.2367354663
 30
0.0
 10
8.7534307509
 20
11.2355378885
 30
0.0
 10
8.7547494857
 20
11.2349476281
 30
0.0
  0
SPLINE
  5
415
100
AcDbEntity
  8
0
100
AcDbSpline
 62
7
  6
CONTINUOUS
 70
0
 71
3
 72
22
 73
18
 74
0
 42
0.0000001
 43
0.0000001
 44
0.0000000001
 40
0.0
 40
0.0
 40
0.0
 40
0.0
 40
0.0410155361
 40
0.0865161159
 40
0.1360676901
 40
0.1892557139
 40
0.2456781869
 40
0.3049591052
 40
0.3667761827
 40
0.4308714649
 40
0.4970252047
 40
0.5650369265
 40
0.7058650149
 40
0.7782661505
 40
0.8516390037
 40
0.9256757832
 40
1.0
 40
1.0
 40
1.0
 40
1.0
 10
13.0261740442
 20
7.5664205415
 30
0.0
 10
13.0268597826
 20
7.5669959443
 30
0.0
 10
13.0283586165
 20
7.5681467915
 30
0.0
 10
13.0307820617
 20
7.5698631265
 30
0.0
 10
13.0334468361
 20
7.5716980399
 30
0.0
 10
13.0363014485
 20
7.5736774578
 30
0.0
 10
13.0393012622
 20
7.575819798
 30
0.0
 10
13.0424097591
 20
7.5781329196
 30
0.0
 10
13.0455966389
 20
7.5806195914
 30
0.0
 10
13.0488387068
 20
7.5832774213
 30
0.0
 10
13.0521206201
 20
7.586097985
 30
0.0
 10
13.0565889912
 20
7.5901054318
 30
0.0
 10
13.061048853
 20
7.5943238552
 30
0.0
 10
13.0655573116
 20
7.598659625
 30
0.0
 10
13.0690274506
 20
7.6019723171
 30
0.0
 10
13.0725759595
 20
7.6052631667
 30
0.0
 10
13.0750105681
 20
7.6073992506
 30
0.0
 10
13.076253194
 20
7.6084419376
 30
0.0
  0
SPLINE
  5
416
100
AcDbEntity
  8
0
100
AcDbSpline
 62
7
  6
CONTINUOUS
 70
0
 71
3
 72
25
 73
21
 74
0
 42
0.0000001
 43
0.0000001
 44
0.0000000001
 40
0.0
 40
0.0
 40
0.0
 40
0.0
 40
0.0138058793
 40
0.0292276733
 40
0.0462112825
 40
0.0646932948
 40
0.0846130497
 40
0.1059075196
 40
0.1523749918
 40
0.203626368
 40
0.2592274604
 40
0.3188193607
 40
0.3821347251
 40
0.4489631878
 40
0.5191248624
 40
0.5924614907
 40
0.6688220401
 40
0.8298353771
 40
0.9139467479
 40
1.0
 40
1.0
 40
1.0
 40
1.0
 10
12.9576004551
 20
7.5088804682
 30
0.0
 10
12.9577926274
 20
7.5090417198
 30
0.0
 10
12.9582128179
 20
7.5093671782
 30
0.0
 10
12.9589000096
 20
7.5098499416
 30
0.0
 10
12.9596711074
 20
7.5103603802
 30
0.0
 10
12.9605185185
 20
7.5109032829
 30
0.0
 10
12.9614356466
 20
7.511482515
 30
0.0
 10
12.9627821177
 20
7.5123342286
 30
0.0
 10
12.9646003269
 20
7.513505237
 30
0.0
 10
12.9669068269
 20
7.5150683582
 30
0.0
 10
12.9693619869
 20
7.5168352683
 30
0.0
 10
12.9719361658
 20
7.5188096222
 30
0.0
 10
12.974607396
 20
7.5209900242
 30
0.0
 10
12.9773621226
 20
7.5233695089
 30
0.0
 10
12.9801929977
 20
7.5259374941
 30
0.0
 10
12.9831007244
 20
7.5286772925
 30
0.0
 10
12.9871620423
 20
7.5325991946
 30
0.0
 10
12.9913359115
 20
7.5366866471
 30
0.0
 10
12.9957377556
 20
7.5407905721
 30
0.0
 10
12.9980617076
 20
7.5428314902
 30
0.0
 10
12.999259534
 20
7.5438365859
 30
0.0
  0
SPLINE
  5
417
100
AcDbEntity
  8
0
100
AcDbSpline
 62
7
  6
CONTINUOUS
 70
0
 71
3
 72
17
 73
13
 74
0
 42
0.0000001
 43
0.0000001
 44
0.0000000001
 40
0.0
 40
0.0
 40
0.0
 40
0.0
 40
0.0374160798
 40
0.0637081256
 40
0.0961457047
 40
0.135097674
 40
0.1807426528
 40
0.2922747644
 40
0.4306959315
 40
0.5954086031
 40
0.7855456414
 40
1.0
 40
1.0
 40
1.0
 40
1.0
 10
8.1762459972
 20
11.5668529424
 30
0.0
 10
8.176221465
 20
11.5667981617
 30
0.0
 10
8.1762321233
 20
11.5666862334
 30
0.0
 10
8.1762884758
 20
11.5665444676
 30
0.0
 10
8.1763643755
 20
11.5664062847
 30
0.0
 10
8.1764694826
 20
11.566250774
 30
0.0
 10
8.1766620124
 20
11.5660016135
 30
0.0
 10
8.176979311
 20
11.5656485766
 30
0.0
 10
8.1774508813
 20
11.5651791513
 30
0.0
 10
8.1780331996
 20
11.5646431233
 30
0.0
 10
8.1787225091
 20
11.5640438881
 30
0.0
 10
8.1792215993
 20
11.5636288761
 30
0.0
 10
8.1794879416
 20
11.563411121
 30
0.0
  0
SPLINE
  5
418
100
AcDbEntity
  8
0
100
AcDbSpline
 62
7
  6
CONTINUOUS
 70
0
 71
3
 72
18
 73
14
 74
0
 42
0.0000001
 43
0.0000001
 44
0.0000000001
 40
0.0
 40
0.0
 40
0.0
 40
0.0
 40
0.0478755921
 40
0.102234706
 40
0.227085411
 40
0.3672243991
 40
0.5144366518
 40
0.659960736
 40
0.7948868542
 40
0.8556834922
 40
0.910703893
 40
0.959066712
 40
1.0
 40
1.0
 40
1.0
 40
1.0
 10
8.1794879416
 20
11.563411121
 30
0.0
 10
8.1799703365
 20
11.5630167264
 30
0.0
 10
8.1810129454
 20
11.5621897834
 30
0.0
 10
8.1833659403
 20
11.5604011486
 30
0.0
 10
8.1867374844
 20
11.5579695109
 30
0.0
 10
8.1911607247
 20
11.5549331247
 30
0.0
 10
8.1958701898
 20
11.5518402501
 30
0.0
 10
8.2005839226
 20
11.5488796386
 30
0.0
 10
8.204397747
 20
11.5466025466
 30
0.0
 10
8.2072372235
 20
11.5449938004
 30
0.0
 10
8.209115153
 20
11.5439740245
 30
0.0
 10
8.2107857265
 20
11.5431151388
 30
0.0
 10
8.2118350224
 20
11.5426147167
 30
0.0
 10
8.2123212804
 20
11.5423970695
 30
0.0
  0
SPLINE
  5
419
100
AcDbEntity
  8
0
100
AcDbSpline
 62
7
  6
CONTINUOUS
 70
0
 71
3
 72
28
 73
24
 74
0
 42
0.0000001
 43
0.0000001
 44
0.0000000001
 40
0.0
 40
0.0
 40
0.0
 40
0.0
 40
0.0016261493
 40
0.003862549
 40
0.0067089723
 40
0.0101542923
 40
0.0187814032
 40
0.0296282712
 40
0.0425930723
 40
0.0575810461
 40
0.0745086458
 40
0.0933005981
 40
0.1362021476
 40
0.1857912121
 40
0.2416820883
 40
0.3036223002
 40
0.3714386648
 40
0.4449978244
 40
0.5241980782
 40
0.6089578326
 40
0.6991680904
 40
0.794609536
 40
1.0
 40
1.0
 40
1.0
 40
1.0
 10
12.9057731144
 20
7.4653921657
 30
0.0
 10
12.9057898035
 20
7.4654061695
 30
0.0
 10
12.9058336789
 20
7.4654341527
 30
0.0
 10
12.9059134157
 20
7.4654755534
 30
0.0
 10
12.9060172479
 20
7.4655233636
 30
0.0
 10
12.9062007015
 20
7.4656026723
 30
0.0
 10
12.9064843033
 20
7.4657204185
 30
0.0
 10
12.9068845091
 20
7.4658898555
 30
0.0
 10
12.9073599839
 20
7.4661000155
 30
0.0
 10
12.9079042692
 20
7.4663556748
 30
0.0
 10
12.9085117688
 20
7.4666599144
 30
0.0
 10
12.9094409114
 20
7.4671563175
 30
0.0
 10
12.9107248199
 20
7.4679157934
 30
0.0
 10
12.9123810585
 20
7.4690167009
 30
0.0
 10
12.9141863226
 20
7.470349292
 30
0.0
 10
12.9161206042
 20
7.4719139363
 30
0.0
 10
12.9181727492
 20
7.4737059203
 30
0.0
 10
12.9203382958
 20
7.4757172004
 30
0.0
 10
12.9226215261
 20
7.4779339224
 30
0.0
 10
12.9250337834
 20
7.4803373557
 30
0.0
 10
12.9275924099
 20
7.482902283
 30
0.0
 10
12.9313235485
 20
7.4865792835
 30
0.0
 10
12.9342866117
 20
7.4893178308
 30
0.0
 10
12.9363945292
 20
7.4910865835
 30
0.0
  0
SPLINE
  5
41A
100
AcDbEntity
  8
0
100
AcDbSpline
 62
7
  6
CONTINUOUS
 70
0
 71
3
 72
25
 73
21
 74
0
 42
0.0000001
 43
0.0000001
 44
0.0000000001
 40
0.0
 40
0.0
 40
0.0
 40
0.0
 40
0.0073372687
 40
0.0156091148
 40
0.0253665857
 40
0.0369359153
 40
0.0504912578
 40
0.0661202689
 40
0.0838582416
 40
0.1037036743
 40
0.1496055817
 40
0.2034635293
 40
0.2647172853
 40
0.3326641488
 40
0.4064819592
 40
0.4852442094
 40
0.5679306689
 40
0.6534434362
 40
0.8282490287
 40
1.0
 40
1.0
 40
1.0
 40
1.0
 10
8.5681808849
 20
11.3243478903
 30
0.0
 10
8.5681497721
 20
11.3242784025
 30
0.0
 10
8.5681113502
 20
11.3241172623
 30
0.0
 10
8.5681317977
 20
11.3238519856
 30
0.0
 10
8.5682221233
 20
11.3235566399
 30
0.0
 10
8.5683807724
 20
11.3232301922
 30
0.0
 10
8.5686070151
 20
11.3228721792
 30
0.0
 10
8.5689004962
 20
11.3224831621
 30
0.0
 10
8.5692605036
 20
11.3220641246
 30
0.0
 10
8.5698575726
 20
11.3214360737
 30
0.0
 10
8.5707683711
 20
11.3205913763
 30
0.0
 10
8.5720550426
 20
11.3195247488
 30
0.0
 10
8.5735683449
 20
11.3183758785
 30
0.0
 10
8.5752892766
 20
11.3171602976
 30
0.0
 10
8.5771960787
 20
11.3158947176
 30
0.0
 10
8.5792639434
 20
11.314596745
 30
0.0
 10
8.5814654135
 20
11.3132846741
 30
0.0
 10
8.5845616216
 20
11.31152884
 30
0.0
 10
8.5885294851
 20
11.3094388667
 30
0.0
 10
8.5917777811
 20
11.3078931147
 30
0.0
 10
8.5934044425
 20
11.3071650276
 30
0.0
  0
SPLINE
  5
41B
100
AcDbEntity
  8
0
100
AcDbSpline
 62
7
  6
CONTINUOUS
 70
0
 71
3
 72
27
 73
23
 74
0
 42
0.0000001
 43
0.0000001
 44
0.0000000001
 40
0.0
 40
0.0
 40
0.0
 40
0.0
 40
0.0156305259
 40
0.0312659421
 40
0.046899225
 40
0.0625357393
 40
0.093769866
 40
0.1250164243
 40
0.156266891
 40
0.18751854
 40
0.2187703587
 40
0.250021817
 40
0.3125150248
 40
0.3750116873
 40
0.4375099902
 40
0.5000090426
 40
0.5625084542
 40
0.6250080199
 40
0.6875075676
 40
0.750007115
 40
0.8750030336
 40
1.0
 40
1.0
 40
1.0
 40
1.0
 10
13.1308270558
 20
7.6281266991
 30
0.0
 10
13.1306124014
 20
7.6283825141
 30
0.0
 10
13.1302280388
 20
7.6289338673
 30
0.0
 10
13.1298017673
 20
7.6298453022
 30
0.0
 10
13.1295190355
 20
7.6308102797
 30
0.0
 10
13.1293125028
 20
7.6321325832
 30
0.0
 10
13.1293229165
 20
7.6338118534
 30
0.0
 10
13.1296311132
 20
7.635795011
 30
0.0
 10
13.1301468979
 20
7.6377333549
 30
0.0
 10
13.1308147674
 20
7.6396234209
 30
0.0
 10
13.1315984143
 20
7.6414679491
 30
0.0
 10
13.1327648024
 20
7.6438712301
 30
0.0
 10
13.1344064109
 20
7.6467813459
 30
0.0
 10
13.1365794462
 20
7.6501482217
 30
0.0
 10
13.1389049776
 20
7.6534112517
 30
0.0
 10
13.1413488949
 20
7.6565861053
 30
0.0
 10
13.1438879047
 20
7.6596852057
 30
0.0
 10
13.1465050119
 20
7.6627184594
 30
0.0
 10
13.1491873747
 20
7.6656940452
 30
0.0
 10
13.1528375892
 20
7.6695935158
 30
0.0
 10
13.1575184157
 20
7.6743555366
 30
0.0
 10
13.1613567265
 20
7.6780702255
 30
0.0
 10
13.1632936916
 20
7.6799086801
 30
0.0
  0
SPLINE
  5
41C
100
AcDbEntity
  8
0
100
AcDbSpline
 62
7
  6
CONTINUOUS
 70
0
 71
3
 72
11
 73
7
 74
0
 42
0.0000001
 43
0.0000001
 44
0.0000000001
 40
0.0
 40
0.0
 40
0.0
 40
0.0
 40
0.2499983206
 40
0.4999983445
 40
0.7499990383
 40
1.0
 40
1.0
 40
1.0
 40
1.0
 10
13.1632936916
 20
7.6799086801
 30
0.0
 10
13.1659004608
 20
7.6823828736
 30
0.0
 10
13.1711786145
 20
7.6872633896
 30
0.0
 10
13.1792295541
 20
7.6944357783
 30
0.0
 10
13.1873718211
 20
7.7015041523
 30
0.0
 10
13.1928393712
 20
7.7061705425
 30
0.0
 10
13.1955789977
 20
7.708496827
 30
0.0
  0
LINE
  5
41D
100
AcDbEntity
  8
0
100
AcDbLine
 62
7
  6
CONTINUOUS
 10
13.1955789977
 20
7.708496827
 11
13.1976610783
 21
7.7102625851
  0
SPLINE
  5
41E
100
AcDbEntity
  8
0
100
AcDbSpline
 62
7
  6
CONTINUOUS
 70
0
 71
3
 72
18
 73
14
 74
0
 42
0.0000001
 43
0.0000001
 44
0.0000000001
 40
0.0
 40
0.0
 40
0.0
 40
0.0
 40
0.0104133425
 40
0.0262896616
 40
0.0489786431
 40
0.0788928829
 40
0.1161815387
 40
0.1608780165
 40
0.2723555329
 40
0.4128799181
 40
0.5816650806
 40
0.7777594826
 40
1.0
 40
1.0
 40
1.0
 40
1.0
 10
8.1118034143
 20
11.5961282188
 30
0.0
 10
8.1117974218
 20
11.5961148351
 30
0.0
 10
8.1117998638
 20
11.5960749297
 30
0.0
 10
8.1118300545
 20
11.5960130007
 30
0.0
 10
8.1118845436
 20
11.5959329439
 30
0.0
 10
8.1119657498
 20
11.5958357818
 30
0.0
 10
8.112073434
 20
11.5957206381
 30
0.0
 10
8.1122674254
 20
11.5955292996
 30
0.0
 10
8.1125776274
 20
11.595249162
 30
0.0
 10
8.113029784
 20
11.5948661252
 30
0.0
 10
8.113582785
 20
11.5944180306
 30
0.0
 10
8.11423323
 20
11.5939076159
 30
0.0
 10
8.1147009782
 20
11.5935494756
 30
0.0
 10
8.1149503069
 20
11.5933603239
 30
0.0
  0
SPLINE
  5
41F
100
AcDbEntity
  8
0
100
AcDbSpline
 62
7
  6
CONTINUOUS
 70
0
 71
3
 72
18
 73
14
 74
0
 42
0.0000001
 43
0.0000001
 44
0.0000000001
 40
0.0
 40
0.0
 40
0.0
 40
0.0
 40
0.047790868
 40
0.1030152437
 40
0.2316767041
 40
0.3769819773
 40
0.5289792496
 40
0.6772556299
 40
0.8114293862
 40
0.870140061
 40
0.9217678693
 40
0.9653305514
 40
1.0
 40
1.0
 40
1.0
 40
1.0
 10
8.1149503069
 20
11.5933603239
 30
0.0
 10
8.1154671666
 20
11.5929682117
 30
0.0
 10
8.116588878
 20
11.5921330103
 30
0.0
 10
8.1191332428
 20
11.590284312
 30
0.0
 10
8.1227843465
 20
11.5877072355
 30
0.0
 10
8.1275480111
 20
11.5844291561
 30
0.0
 10
8.1325662356
 20
11.5810518105
 30
0.0
 10
8.137493039
 20
11.5778098766
 30
0.0
 10
8.1413924822
 20
11.575310878
 30
0.0
 10
8.1442110768
 20
11.5735577664
 30
0.0
 10
8.1459975178
 20
11.5724743561
 30
0.0
 10
8.1475186793
 20
11.5715833344
 30
0.0
 10
8.1484467727
 20
11.5710666665
 30
0.0
 10
8.1488628652
 20
11.5708467356
 30
0.0
  0
LINE
  5
420
100
AcDbEntity
  8
0
100
AcDbLine
 62
7
  6
CONTINUOUS
 10
8.1488628652
 20
11.5708467356
 11
8.1498152028
 21
11.5703745412
  0
SPLINE
  5
421
100
AcDbEntity
  8
0
100
AcDbSpline
 62
7
  6
CONTINUOUS
 70
0
 71
3
 72
18
 73
14
 74
0
 42
0.0000001
 43
0.0000001
 44
0.0000000001
 40
0.0
 40
0.0
 40
0.0
 40
0.0
 40
0.0200279068
 40
0.0433402971
 40
0.0714791758
 40
0.1052912527
 40
0.1452189334
 40
0.1914947221
 40
0.3033824785
 40
0.4409953001
 40
0.6036886374
 40
0.7904547786
 40
1.0
 40
1.0
 40
1.0
 40
1.0
 10
8.469584224
 20
11.3093058557
 30
0.0
 10
8.4695673205
 20
11.3092680708
 30
0.0
 10
8.4695475676
 20
11.3091784322
 30
0.0
 10
8.4695616787
 20
11.3090299055
 30
0.0
 10
8.4696143598
 20
11.3088608565
 30
0.0
 10
8.46970506
 20
11.3086703074
 30
0.0
 10
8.4698335507
 20
11.3084577901
 30
0.0
 10
8.4700707585
 20
11.3081237653
 30
0.0
 10
8.4704668045
 20
11.3076568717
 30
0.0
 10
8.471059916
 20
11.3070449098
 30
0.0
 10
8.4717939172
 20
11.3063555148
 30
0.0
 10
8.472663016
 20
11.3055940324
 30
0.0
 10
8.4732934842
 20
11.3050709798
 30
0.0
 10
8.4736296478
 20
11.3047979253
 30
0.0
  0
SPLINE
  5
422
100
AcDbEntity
  8
0
100
AcDbSpline
 62
7
  6
CONTINUOUS
 70
0
 71
3
 72
17
 73
13
 74
0
 42
0.0000001
 43
0.0000001
 44
0.0000000001
 40
0.0
 40
0.0
 40
0.0
 40
0.0
 40
0.0491495456
 40
0.1030842597
 40
0.2231015121
 40
0.355236148
 40
0.4941070843
 40
0.6339344466
 40
0.7687327679
 40
0.8925814311
 40
0.9486679642
 40
1.0
 40
1.0
 40
1.0
 40
1.0
 10
8.4736296478
 20
11.3047979253
 30
0.0
 10
8.4740669115
 20
11.3044427504
 30
0.0
 10
8.4749940427
 20
11.3037101352
 30
0.0
 10
8.47703302
 20
11.3021667286
 30
0.0
 10
8.4798867366
 20
11.3001249575
 30
0.0
 10
8.4836017608
 20
11.2976171795
 30
0.0
 10
8.4875686069
 20
11.2950791231
 30
0.0
 10
8.4916218083
 20
11.2926218955
 30
0.0
 10
8.4955880535
 20
11.2903562987
 30
0.0
 10
8.4987735127
 20
11.2886615905
 30
0.0
 10
8.5011501806
 20
11.287487439
 30
0.0
 10
8.5022665136
 20
11.2869677648
 30
0.0
 10
8.5028035266
 20
11.2867273999
 30
0.0
  0
LINE
  5
423
100
AcDbEntity
  8
0
100
AcDbLine
 62
7
  6
CONTINUOUS
 10
8.1498152028
 20
11.5703745412
 11
8.15058884
 21
11.570184651
  0
SPLINE
  5
424
100
AcDbEntity
  8
0
100
AcDbSpline
 62
7
  6
CONTINUOUS
 70
0
 71
3
 72
17
 73
13
 74
0
 42
0.0000001
 43
0.0000001
 44
0.0000000001
 40
0.0
 40
0.0
 40
0.0
 40
0.0
 40
0.2188295981
 40
0.4106485865
 40
0.574671359
 40
0.7106011837
 40
0.818586072
 40
0.8996059891
 40
0.930893665
 40
0.9569689498
 40
0.9792621869
 40
1.0
 40
1.0
 40
1.0
 40
1.0
 10
8.2123212804
 20
11.5423970695
 30
0.0
 10
8.2125373663
 20
11.5423003504
 30
0.0
 10
8.2129449047
 20
11.5421233393
 30
0.0
 10
8.2135223887
 20
11.5418926682
 30
0.0
 10
8.2140239928
 20
11.5417149335
 30
0.0
 10
8.21444782
 20
11.5415902669
 30
0.0
 10
8.2147922552
 20
11.5415189362
 30
0.0
 10
8.2150316918
 20
11.5415006496
 30
0.0
 10
8.2151807682
 20
11.5415198546
 30
0.0
 10
8.2152632899
 20
11.541547169
 30
0.0
 10
8.2153262501
 20
11.5415897977
 30
0.0
 10
8.2153535226
 20
11.5416291032
 30
0.0
 10
8.2153626927
 20
11.541649579
 30
0.0
  0
SPLINE
  5
425
100
AcDbEntity
  8
0
100
AcDbSpline
 62
7
  6
CONTINUOUS
 70
0
 71
3
 72
19
 73
15
 74
0
 42
0.0000001
 43
0.0000001
 44
0.0000000001
 40
0.0
 40
0.0
 40
0.0
 40
0.0
 40
0.2145806217
 40
0.4050284664
 40
0.5696000507
 40
0.7071630947
 40
0.7656080279
 40
0.8171269328
 40
0.8618038494
 40
0.8998259022
 40
0.9315832261
 40
0.9578179813
 40
0.9798760535
 40
1.0
 40
1.0
 40
1.0
 40
1.0
 10
8.3117540907
 20
11.4978913392
 30
0.0
 10
8.3122165185
 20
11.4976843583
 30
0.0
 10
8.3130940697
 20
11.4973040204
 30
0.0
 10
8.3143441655
 20
11.4968073534
 30
0.0
 10
8.3154415713
 20
11.4964212865
 30
0.0
 10
8.3162593746
 20
11.496181957
 30
0.0
 10
8.3168297594
 20
11.4960537103
 30
0.0
 10
8.3171898766
 20
11.4959922539
 30
0.0
 10
8.317505434
 20
11.4959599743
 30
0.0
 10
8.3177761504
 20
11.4959568351
 30
0.0
 10
8.318002178
 20
11.4959828653
 30
0.0
 10
8.3181843333
 20
11.4960386902
 30
0.0
 10
8.3183227539
 20
11.4961272691
 30
0.0
 10
8.3183824131
 20
11.4962107706
 30
0.0
 10
8.3184018271
 20
11.496254137
 30
0.0
  0
SPLINE
  5
426
100
AcDbEntity
  8
0
100
AcDbSpline
 62
7
  6
CONTINUOUS
 70
0
 71
3
 72
19
 73
15
 74
0
 42
0.0000001
 43
0.0000001
 44
0.0000000001
 40
0.0
 40
0.0
 40
0.0
 40
0.0
 40
0.2083581624
 40
0.3967509362
 40
0.5621189454
 40
0.7020302936
 40
0.7618855873
 40
0.8148170005
 40
0.8607912634
 40
0.8998887125
 40
0.9323915459
 40
0.9589109247
 40
0.980695927
 40
1.0
 40
1.0
 40
1.0
 40
1.0
 10
8.441337452
 20
11.4398903421
 30
0.0
 10
8.4421019968
 20
11.4395481349
 30
0.0
 10
8.4435664889
 20
11.4389155673
 30
0.0
 10
8.4456693798
 20
11.4380867666
 30
0.0
 10
8.4475441448
 20
11.4374338465
 30
0.0
 10
8.4489549871
 20
11.437024183
 30
0.0
 10
8.4499462602
 20
11.436800468
 30
0.0
 10
8.4505753296
 20
11.4366907337
 30
0.0
 10
8.4511272717
 20
11.436629963
 30
0.0
 10
8.4516005407
 20
11.4366181263
 30
0.0
 10
8.4519945884
 20
11.4366548871
 30
0.0
 10
8.4523101856
 20
11.4367411436
 30
0.0
 10
8.4525487213
 20
11.4368810851
 30
0.0
 10
8.4526511676
 20
11.437017933
 30
0.0
 10
8.4526828695
 20
11.4370887683
 30
0.0
  0
SPLINE
  5
427
100
AcDbEntity
  8
0
100
AcDbSpline
 62
7
  6
CONTINUOUS
 70
0
 71
3
 72
29
 73
25
 74
0
 42
0.0000001
 43
0.0000001
 44
0.0000000001
 40
0.0
 40
0.0
 40
0.0
 40
0.0
 40
0.002867554
 40
0.0059910742
 40
0.0095063073
 40
0.0135077761
 40
0.0231828618
 40
0.0352968326
 40
0.0499440577
 40
0.0671348801
 40
0.0868375198
 40
0.1089874745
 40
0.1602781888
 40
0.2201605294
 40
0.2875839977
 40
0.3613391867
 40
0.4400821233
 40
0.522352595
 40
0.6065967731
 40
0.6911889107
 40
0.7744653913
 40
0.8547592095
 40
0.9304476804
 40
1.0
 40
1.0
 40
1.0
 40
1.0
 10
8.418775412
 20
11.3926163667
 30
0.0
 10
8.4187603804
 20
11.3925827683
 30
0.0
 10
8.4187385594
 20
11.3925080089
 30
0.0
 10
8.4187327574
 20
11.392385274
 30
0.0
 10
8.4187519193
 20
11.3922494126
 30
0.0
 10
8.4188142937
 20
11.3920371396
 30
0.0
 10
8.418961484
 20
11.3917383945
 30
0.0
 10
8.419221003
 20
11.3913486221
 30
0.0
 10
8.4195739476
 20
11.390907747
 30
0.0
 10
8.4200187988
 20
11.3904177007
 30
0.0
 10
8.4205538696
 20
11.3898806644
 30
0.0
 10
8.421428043
 20
11.3890647622
 30
0.0
 10
8.4227309095
 20
11.38795397
 30
0.0
 10
8.4245332329
 20
11.3865366942
 30
0.0
 10
8.4266105846
 20
11.385004712
 30
0.0
 10
8.4289245007
 20
11.3833873286
 30
0.0
 10
8.4314321814
 20
11.3817158424
 30
0.0
 10
8.4340865875
 20
11.3800229336
 30
0.0
 10
8.4368371457
 20
11.3783422814
 30
0.0
 10
8.4396304423
 20
11.3767079291
 30
0.0
 10
8.4424111038
 20
11.3751535834
 30
0.0
 10
8.4451229765
 20
11.3737117102
 30
0.0
 10
8.4477103929
 20
11.3724126676
 30
0.0
 10
8.4493988048
 20
11.3716213781
 30
0.0
 10
8.4502136693
 20
11.371256648
 30
0.0
  0
SPLINE
  5
428
100
AcDbEntity
  8
0
100
AcDbSpline
 62
7
  6
CONTINUOUS
 70
0
 71
3
 72
22
 73
18
 74
0
 42
0.0000001
 43
0.0000001
 44
0.0000000001
 40
0.0
 40
0.0
 40
0.0
 40
0.0
 40
0.1998333068
 40
0.3852735311
 40
0.5515239077
 40
0.626147134
 40
0.6945089462
 40
0.7562523628
 40
0.8110935074
 40
0.8588424968
 40
0.8994393098
 40
0.9330068865
 40
0.9600031344
 40
0.9713682204
 40
0.9815887696
 40
0.9909921892
 40
1.0
 40
1.0
 40
1.0
 40
1.0
 10
8.5922404723
 20
11.3723467505
 30
0.0
 10
8.5933241343
 20
11.3718617077
 30
0.0
 10
8.5954276162
 20
11.3709577404
 30
0.0
 10
8.5984813851
 20
11.3697678742
 30
0.0
 10
8.6008776113
 20
11.3689440591
 30
0.0
 10
8.6026379812
 20
11.3684173469
 30
0.0
 10
8.603813706
 20
11.368104733
 30
0.0
 10
8.6048855697
 20
11.3678615337
 30
0.0
 10
8.6058469635
 20
11.3676888278
 30
0.0
 10
8.6066921331
 20
11.3675870885
 30
0.0
 10
8.607416909
 20
11.3675561419
 30
0.0
 10
8.6080178491
 20
11.3675955681
 30
0.0
 10
8.6084379932
 20
11.3676919379
 30
0.0
 10
8.6087013826
 20
11.3678124856
 30
0.0
 10
8.6088547418
 20
11.3679162368
 30
0.0
 10
8.608974598
 20
11.3680387627
 30
0.0
 10
8.6090315554
 20
11.3681335772
 30
0.0
 10
8.609053414
 20
11.3681824275
 30
0.0
  0
SPLINE
  5
429
100
AcDbEntity
  8
0
100
AcDbSpline
 62
7
  6
CONTINUOUS
 70
0
 71
3
 72
24
 73
20
 74
0
 42
0.0000001
 43
0.0000001
 44
0.0000000001
 40
0.0
 40
0.0
 40
0.0
 40
0.0
 40
0.1887692318
 40
0.370191867
 40
0.4559747623
 40
0.5373884541
 40
0.6136991034
 40
0.6842421786
 40
0.7484344557
 40
0.8057815528
 40
0.8558941418
 40
0.8985176231
 40
0.9335834127
 40
0.9483521827
 40
0.961367458
 40
0.9727623484
 40
0.9827527063
 40
0.9916739982
 40
1.0
 40
1.0
 40
1.0
 40
1.0
 10
8.7541793603
 20
11.2998635485
 30
0.0
 10
8.7555552453
 20
11.2992477078
 30
0.0
 10
8.758275166
 20
11.2980878522
 30
0.0
 10
8.7616755817
 20
11.2967829877
 30
0.0
 10
8.7643049268
 20
11.2958676837
 30
0.0
 10
8.7661555171
 20
11.2952699834
 30
0.0
 10
8.767903842
 20
11.2947533825
 30
0.0
 10
8.7695333538
 20
11.2943222644
 30
0.0
 10
8.7710289187
 20
11.2939799782
 30
0.0
 10
8.7723769177
 20
11.2937289605
 30
0.0
 10
8.7735656656
 20
11.2935704921
 30
0.0
 10
8.7745849537
 20
11.2935051932
 30
0.0
 10
8.7753250881
 20
11.2935281698
 30
0.0
 10
8.7758220702
 20
11.2936022849
 30
0.0
 10
8.776126222
 20
11.2936781892
 30
0.0
 10
8.7763832845
 20
11.2937775965
 30
0.0
 10
8.7765929725
 20
11.2939012477
 30
0.0
 10
8.7767543081
 20
11.2940500045
 30
0.0
 10
8.7768289634
 20
11.2941681672
 30
0.0
 10
8.7768561205
 20
11.2942288555
 30
0.0
  0
SPLINE
  5
42A
100
AcDbEntity
  8
0
100
AcDbSpline
 62
7
  6
CONTINUOUS
 70
0
 71
3
 72
25
 73
21
 74
0
 42
0.0000001
 43
0.0000001
 44
0.0000000001
 40
0.0
 40
0.0
 40
0.0
 40
0.0
 40
0.1747590425
 40
0.3507698878
 40
0.4363491695
 40
0.5188254717
 40
0.597163187
 40
0.6704039408
 40
0.7376811301
 40
0.7982313708
 40
0.8514083506
 40
0.8967079392
 40
0.916301048
 40
0.9338265766
 40
0.9492945039
 40
0.9627457166
 40
0.9742787293
 40
0.9840778552
 40
0.9924715225
 40
1.0
 40
1.0
 40
1.0
 40
1.0
 10
8.9161182482
 20
11.2273803465
 30
0.0
 10
8.9177147012
 20
11.2266657804
 30
0.0
 10
8.9209508415
 20
11.2253018305
 30
0.0
 10
8.9250403012
 20
11.2237658103
 30
0.0
 10
8.9283001506
 20
11.2226552958
 30
0.0
 10
8.9306513515
 20
11.2219108526
 30
0.0
 10
8.9329007571
 20
11.2212560675
 30
0.0
 10
8.9350193497
 20
11.2206986316
 30
0.0
 10
8.9369802458
 20
11.2202447994
 30
0.0
 10
8.9387590752
 20
11.2198992288
 30
0.0
 10
8.9403339776
 20
11.2196653497
 30
0.0
 10
8.9415120954
 20
11.2195596096
 30
0.0
 10
8.9423370311
 20
11.219539727
 30
0.0
 10
8.9428634293
 20
11.2195546456
 30
0.0
 10
8.9433266405
 20
11.2195983122
 30
0.0
 10
8.9437256316
 20
11.2196707196
 30
0.0
 10
8.9440598126
 20
11.2197717811
 30
0.0
 10
8.9443290853
 20
11.219902252
 30
0.0
 10
8.9445327944
 20
11.2200640398
 30
0.0
 10
8.9446244288
 20
11.2201984803
 30
0.0
 10
8.9446552185
 20
11.2202672512
 30
0.0
  0
SPLINE
  5
42B
100
AcDbEntity
  8
0
100
AcDbSpline
 62
7
  6
CONTINUOUS
 70
0
 71
3
 72
26
 73
22
 74
0
 42
0.0000001
 43
0.0000001
 44
0.0000000001
 40
0.0
 40
0.0
 40
0.0
 40
0.0
 40
0.0765152583
 40
0.1573337936
 40
0.3261511464
 40
0.4112313936
 40
0.4948219005
 40
0.5755306739
 40
0.6520437198
 40
0.7231438377
 40
0.7877267721
 40
0.844819274
 40
0.8935999587
 40
0.9146707907
 40
0.9334488165
 40
0.9498986964
 40
0.9640205911
 40
0.975860023
 40
0.9855528827
 40
0.9933976499
 40
1.0
 40
1.0
 40
1.0
 40
1.0
 10
9.0670212685
 20
11.1598367548
 30
0.0
 10
9.0678501853
 20
11.159465735
 30
0.0
 10
9.0695655662
 20
11.1587270717
 30
0.0
 10
9.0731572008
 20
11.1572822529
 30
0.0
 10
9.0768911601
 20
11.1559215358
 30
0.0
 10
9.0806939824
 20
11.154662472
 30
0.0
 10
9.0835224045
 20
11.1537893427
 30
0.0
 10
9.086270777
 20
11.1530038096
 30
0.0
 10
9.0888928412
 20
11.1523181866
 30
0.0
 10
9.0913451206
 20
11.1517428725
 30
0.0
 10
9.0935875803
 20
11.1512861818
 30
0.0
 10
9.0955838609
 20
11.1509547063
 30
0.0
 10
9.0970811058
 20
11.1507777056
 30
0.0
 10
9.0981311076
 20
11.1507098355
 30
0.0
 10
9.0987994135
 20
11.1506952488
 30
0.0
 10
9.099385209
 20
11.1507143055
 30
0.0
 10
9.0998864179
 20
11.1507667862
 30
0.0
 10
9.1003018237
 20
11.1508524763
 30
0.0
 10
9.1006312287
 20
11.150971925
 30
0.0
 10
9.1008760227
 20
11.1511271745
 30
0.0
 10
9.1009838867
 20
11.1512674314
 30
0.0
 10
9.1010159114
 20
11.1513389524
 30
0.0
  0
SPLINE
  5
42C
100
AcDbEntity
  8
0
100
AcDbSpline
 62
7
  6
CONTINUOUS
 70
0
 71
3
 72
28
 73
24
 74
0
 42
0.0000001
 43
0.0000001
 44
0.0000000001
 40
0.0
 40
0.0
 40
0.0
 40
0.0
 40
0.0641862497
 40
0.1358667103
 40
0.2134503814
 40
0.2952078487
 40
0.4640031669
 40
0.6278416046
 40
0.703627433
 40
0.7732426443
 40
0.8352958167
 40
0.8630981505
 40
0.8885647635
 40
0.9115762979
 40
0.9320264674
 40
0.9498335823
 40
0.9649399697
 40
0.9773342813
 40
0.9870771021
 40
0.9910226741
 40
0.9944183363
 40
0.9973602907
 40
1.0
 40
1.0
 40
1.0
 40
1.0
 10
9.1966046298
 20
11.1018357578
 30
0.0
 10
9.1973920667
 20
11.1014833042
 30
0.0
 10
9.1990738267
 20
11.1007705278
 30
0.0
 10
9.2017467355
 20
11.0997274368
 30
0.0
 10
9.2046658063
 20
11.098667949
 30
0.0
 10
9.2088423328
 20
11.097249944
 30
0.0
 10
9.2141663193
 20
11.0956093649
 30
0.0
 10
9.219466457
 20
11.0941748212
 30
0.0
 10
9.2235099217
 20
11.0932110515
 30
0.0
 10
9.2262366626
 20
11.0926268599
 30
0.0
 10
9.2283444448
 20
11.0922353611
 30
0.0
 10
9.2298758144
 20
11.0919949842
 30
0.0
 10
9.2308919682
 20
11.0918578231
 30
0.0
 10
9.2318131119
 20
11.0917576357
 30
0.0
 10
9.2326344193
 20
11.091694973
 30
0.0
 10
9.2333514663
 20
11.0916700205
 30
0.0
 10
9.2339608418
 20
11.0916827305
 30
0.0
 10
9.2344593651
 20
11.0917328502
 30
0.0
 10
9.2348034094
 20
11.0918095224
 30
0.0
 10
9.235016703
 20
11.0918961024
 30
0.0
 10
9.2351364394
 20
11.0919664583
 30
0.0
 10
9.2352272558
 20
11.0920473787
 30
0.0
 10
9.2352690104
 20
11.0921111801
 30
0.0
 10
9.2352835062
 20
11.0921435637
 30
0.0
  0
SPLINE
  5
42D
100
AcDbEntity
  8
0
100
AcDbSpline
 62
7
  6
CONTINUOUS
 70
0
 71
3
 72
18
 73
14
 74
0
 42
0.0000001
 43
0.0000001
 44
0.0000000001
 40
0.0
 40
0.0
 40
0.0
 40
0.0
 40
0.0409332265
 40
0.0892959457
 40
0.1443162289
 40
0.2051127266
 40
0.3400385632
 40
0.4855624119
 40
0.6327745641
 40
0.7729136727
 40
0.8977647216
 40
0.9521240793
 40
1.0
 40
1.0
 40
1.0
 40
1.0
 10
9.2960374401
 20
11.0573300275
 30
0.0
 10
9.2965236962
 20
11.0571123812
 30
0.0
 10
9.2975959287
 20
11.0566632153
 30
0.0
 10
9.2993493832
 20
11.0559895189
 30
0.0
 10
9.3013609636
 20
11.0552683645
 30
0.0
 10
9.3044523562
 20
11.054222475
 30
0.0
 10
9.3086912859
 20
11.0528951825
 30
0.0
 10
9.3140394803
 20
11.0513521105
 30
0.0
 10
9.3194834755
 20
11.0499003318
 30
0.0
 10
9.3246946701
 20
11.0486243791
 30
0.0
 10
9.3287542311
 20
11.0477298809
 30
0.0
 10
9.3316557098
 20
11.0471666326
 30
0.0
 10
9.3329670088
 20
11.046939975
 30
0.0
 10
9.3335825107
 20
11.0468429552
 30
0.0
  0
SPLINE
  5
42E
100
AcDbEntity
  8
0
100
AcDbSpline
 62
7
  6
CONTINUOUS
 70
0
 71
3
 72
17
 73
13
 74
0
 42
0.0000001
 43
0.0000001
 44
0.0000000001
 40
0.0
 40
0.0
 40
0.0
 40
0.0
 40
0.2144544094
 40
0.4045915213
 40
0.5693042959
 40
0.7077255598
 40
0.8192577313
 40
0.864902716
 40
0.9038546683
 40
0.9362922029
 40
0.9625841726
 40
1.0
 40
1.0
 40
1.0
 40
1.0
 10
9.3335825107
 20
11.0468429552
 30
0.0
 10
9.3339223501
 20
11.0467893872
 30
0.0
 10
9.3345643606
 20
11.0466936499
 30
0.0
 10
9.3354704891
 20
11.0465787776
 30
0.0
 10
9.3362582
 20
11.0465015899
 30
0.0
 10
9.3369224581
 20
11.0464626266
 30
0.0
 10
9.3373971377
 20
11.0464611802
 30
0.0
 10
9.3377112249
 20
11.0464835833
 30
0.0
 10
9.337897227
 20
11.0465087961
 30
0.0
 10
9.338050848
 20
11.0465442478
 30
0.0
 10
9.3381941182
 20
11.0465966645
 30
0.0
 10
9.3382846944
 20
11.046663282
 30
0.0
 10
9.3383092061
 20
11.0467180728
 30
0.0
  0
LINE
  5
42F
100
AcDbEntity
  8
0
100
AcDbLine
 62
7
  6
CONTINUOUS
 10
9.3585435177
 20
11.0293525558
 11
9.3595299793
 21
11.0289569414
  0
SPLINE
  5
430
100
AcDbEntity
  8
0
100
AcDbSpline
 62
7
  6
CONTINUOUS
 70
0
 71
3
 72
20
 73
16
 74
0
 42
0.0000001
 43
0.0000001
 44
0.0000000001
 40
0.0
 40
0.0
 40
0.0
 40
0.0
 40
0.0358195542
 40
0.0813031727
 40
0.1354650652
 40
0.1971342731
 40
0.2649988806
 40
0.3376430221
 40
0.4913015412
 40
0.6459448978
 40
0.7895395047
 40
0.8536268677
 40
0.9108255353
 40
0.9599602096
 40
1.0
 40
1.0
 40
1.0
 40
1.0
 10
9.3595299793
 20
11.0289569414
 30
0.0
 10
9.3600050447
 20
11.0287805755
 30
0.0
 10
9.3610925704
 20
11.0284052742
 30
0.0
 10
9.3629178082
 20
11.0278209017
 30
0.0
 10
9.3651019206
 20
11.0271588939
 30
0.0
 10
9.3675973637
 20
11.0264332156
 30
0.0
 10
9.3703508754
 20
11.0256589992
 30
0.0
 10
9.3743654027
 20
11.0245621468
 30
0.0
 10
9.3795777353
 20
11.023191784
 30
0.0
 10
9.3857780135
 20
11.0216331845
 30
0.0
 10
9.3907631483
 20
11.0204394875
 30
0.0
 10
9.3944172162
 20
11.0196085437
 30
0.0
 10
9.3967730849
 20
11.0190957601
 30
0.0
 10
9.398801752
 20
11.0186800936
 30
0.0
 10
9.4000419403
 20
11.0184480474
 30
0.0
 10
9.4006003242
 20
11.0183527887
 30
0.0
  0
SPLINE
  5
431
100
AcDbEntity
  8
0
100
AcDbSpline
 62
7
  6
CONTINUOUS
 70
0
 71
3
 72
15
 73
11
 74
0
 42
0.0000001
 43
0.0000001
 44
0.0000000001
 40
0.0
 40
0.0
 40
0.0
 40
0.0
 40
0.4174235749
 40
0.5848284525
 40
0.7239669251
 40
0.8345234324
 40
0.9164155889
 40
0.9468017471
 40
0.9704239194
 40
1.0
 40
1.0
 40
1.0
 40
1.0
 10
9.4006003242
 20
11.0183527887
 30
0.0
 10
9.4009442222
 20
11.0182941207
 30
0.0
 10
9.4014268796
 20
11.0182163783
 30
0.0
 10
9.4020270305
 20
11.0181388061
 30
0.0
 10
9.4023738406
 20
11.0181036172
 30
0.0
 10
9.4026507927
 20
11.0180872754
 30
0.0
 10
9.4028367961
 20
11.0180879564
 30
0.0
 10
9.4029506615
 20
11.0181012625
 30
0.0
 10
9.4030169455
 20
11.0181163257
 30
0.0
 10
9.4030631492
 20
11.0181384164
 30
0.0
 10
9.4030732447
 20
11.0181609794
 30
0.0
  0
SPLINE
  5
432
100
AcDbEntity
  8
0
100
AcDbSpline
 62
7
  6
CONTINUOUS
 70
0
 71
3
 72
22
 73
18
 74
0
 42
0.0000001
 43
0.0000001
 44
0.0000000001
 40
0.0
 40
0.0
 40
0.0
 40
0.0
 40
0.0124763907
 40
0.0207602191
 40
0.0306075165
 40
0.0420937702
 40
0.0552517663
 40
0.0866237121
 40
0.1248314684
 40
0.1699000374
 40
0.2218611661
 40
0.2807243521
 40
0.3465111457
 40
0.4192337702
 40
0.5856088746
 40
0.7795183628
 40
1.0
 40
1.0
 40
1.0
 40
1.0
 10
12.8733046022
 20
7.4372623376
 30
0.0
 10
12.8733908976
 20
7.4372059422
 30
0.0
 10
12.8735716814
 20
7.4371754333
 30
0.0
 10
12.8738221582
 20
7.4371980544
 30
0.0
 10
12.8740619101
 20
7.4372529314
 30
0.0
 10
12.8743317825
 20
7.4373450592
 30
0.0
 10
12.8747567047
 20
7.4375297918
 30
0.0
 10
12.8753533844
 20
7.43786672
 30
0.0
 10
12.876133846
 20
7.4384050532
 30
0.0
 10
12.8770078959
 20
7.4391024004
 30
0.0
 10
12.8779725749
 20
7.439956588
 30
0.0
 10
12.8790262115
 20
7.4409666238
 30
0.0
 10
12.8801725743
 20
7.4421267472
 30
0.0
 10
12.8819105958
 20
7.4439504453
 30
0.0
 10
12.8843475823
 20
7.4465700129
 30
0.0
 10
12.8876894673
 20
7.4500146437
 30
0.0
 10
12.8902126555
 20
7.4523353904
 30
0.0
 10
12.891608219
 20
7.4535064072
 30
0.0
  0
LINE
  5
433
100
AcDbEntity
  8
0
100
AcDbLine
 62
7
  6
CONTINUOUS
 10
8.289441917
 20
11.4432174448
 11
8.2897323807
 21
11.4431468706
  0
SPLINE
  5
434
100
AcDbEntity
  8
0
100
AcDbSpline
 62
7
  6
CONTINUOUS
 70
0
 71
3
 72
16
 73
12
 74
0
 42
0.0000001
 43
0.0000001
 44
0.0000000001
 40
0.0
 40
0.0
 40
0.0
 40
0.0
 40
0.4102110006
 40
0.5741123724
 40
0.7099719606
 40
0.8179464404
 40
0.8990389853
 40
0.9304074607
 40
0.9566039036
 40
0.9790630867
 40
1.0
 40
1.0
 40
1.0
 40
1.0
 10
8.3441985062
 20
11.4187086133
 30
0.0
 10
8.3446084207
 20
11.4185251373
 30
0.0
 10
8.3451874073
 20
11.418278903
 30
0.0
 10
8.3459204357
 20
11.418019815
 30
0.0
 10
8.346349358
 20
11.4178944824
 30
0.0
 10
8.3466981016
 20
11.4178232087
 30
0.0
 10
8.3469406603
 20
11.4178056527
 30
0.0
 10
8.3470917211
 20
11.4178259269
 30
0.0
 10
8.3471754527
 20
11.4178541932
 30
0.0
 10
8.3472393674
 20
11.4178979718
 30
0.0
 10
8.3472670997
 20
11.4179381229
 30
0.0
 10
8.3472764688
 20
11.4179590426
 30
0.0
  0
SPLINE
  5
435
100
AcDbEntity
  8
0
100
AcDbSpline
 62
7
  6
CONTINUOUS
 70
0
 71
3
 72
19
 73
15
 74
0
 42
0.0000001
 43
0.0000001
 44
0.0000000001
 40
0.0
 40
0.0
 40
0.0
 40
0.0
 40
0.2121433401
 40
0.4017187327
 40
0.5664973101
 40
0.7048772741
 40
0.7638263013
 40
0.8158684957
 40
0.8610331182
 40
0.8994840129
 40
0.9315698418
 40
0.9579868342
 40
0.9800526814
 40
1.0
 40
1.0
 40
1.0
 40
1.0
 10
8.4502136693
 20
11.371256648
 30
0.0
 10
8.4507957061
 20
11.3709961307
 30
0.0
 10
8.4519041065
 20
11.3705165442
 30
0.0
 10
8.4534879587
 20
11.3698901688
 30
0.0
 10
8.4548866246
 20
11.3694016469
 30
0.0
 10
8.4559329253
 20
11.3690981872
 30
0.0
 10
8.4566648264
 20
11.3689351788
 30
0.0
 10
8.4571278797
 20
11.3688567492
 30
0.0
 10
8.4575339363
 20
11.3688153753
 30
0.0
 10
8.4578823026
 20
11.3688108815
 30
0.0
 10
8.458172977
 20
11.3688432179
 30
0.0
 10
8.4584067722
 20
11.3689132086
 30
0.0
 10
8.45858414
 20
11.3690242208
 30
0.0
 10
8.4586605311
 20
11.3691297491
 30
0.0
 10
8.4586850218
 20
11.3691844788
 30
0.0
  0
SPLINE
  5
436
100
AcDbEntity
  8
0
100
AcDbSpline
 62
7
  6
CONTINUOUS
 70
0
 71
3
 72
21
 73
17
 74
0
 42
0.0000001
 43
0.0000001
 44
0.0000000001
 40
0.0
 40
0.0
 40
0.0
 40
0.0
 40
0.2015541694
 40
0.3875580626
 40
0.5535788904
 40
0.6958714343
 40
0.7572105445
 40
0.8116479716
 40
0.8590320856
 40
0.8993299167
 40
0.9327016161
 40
0.9596369147
 40
0.9710336616
 40
0.9813283527
 40
0.990846854
 40
1.0
 40
1.0
 40
1.0
 40
1.0
 10
8.5934044425
 20
11.3071650276
 30
0.0
 10
8.5944286831
 20
11.3067065816
 30
0.0
 10
8.5964113332
 20
11.3058540746
 30
0.0
 10
8.599283513
 20
11.3047341372
 30
0.0
 10
8.6018872403
 20
11.3038401441
 30
0.0
 10
8.6038672681
 20
11.3032730412
 30
0.0
 10
8.605269498
 20
11.3029579298
 30
0.0
 10
8.6061645304
 20
11.3028001899
 30
0.0
 10
8.6069510772
 20
11.3027091028
 30
0.0
 10
8.6076256767
 20
11.3026845954
 30
0.0
 10
8.6081854613
 20
11.3027261027
 30
0.0
 10
8.6085769416
 20
11.3028206538
 30
0.0
 10
8.6088225811
 20
11.3029367618
 30
0.0
 10
8.6089661182
 20
11.3030364073
 30
0.0
 10
8.609078628
 20
11.3031535837
 30
0.0
 10
8.6091324269
 20
11.3032438159
 30
0.0
 10
8.6091532472
 20
11.3032903291
 30
0.0
  0
SPLINE
  5
437
100
AcDbEntity
  8
0
100
AcDbSpline
 62
7
  6
CONTINUOUS
 70
0
 71
3
 72
22
 73
18
 74
0
 42
0.0000001
 43
0.0000001
 44
0.0000000001
 40
0.0
 40
0.0
 40
0.0
 40
0.0
 40
0.0060260582
 40
0.0113589586
 40
0.0184794111
 40
0.0274471069
 40
0.0382902132
 40
0.0510240159
 40
0.0656603728
 40
0.1006723581
 40
0.1433692933
 40
0.1937837438
 40
0.2519724536
 40
0.3918900076
 40
0.5632076503
 40
0.7658624087
 40
1.0
 40
1.0
 40
1.0
 40
1.0
 10
12.8596210217
 20
7.4245884025
 30
0.0
 10
12.8596414873
 20
7.4245754693
 30
0.0
 10
12.8596947323
 20
7.4245957131
 30
0.0
 10
12.8597524383
 20
7.424636219
 30
0.0
 10
12.8598191698
 20
7.4246928724
 30
0.0
 10
12.8598959647
 20
7.4247684367
 30
0.0
 10
12.8599853356
 20
7.4248641572
 30
0.0
 10
12.8600863301
 20
7.424979728
 30
0.0
 10
12.8602469833
 20
7.425172137
 30
0.0
 10
12.8604777295
 20
7.4254626788
 30
0.0
 10
12.8607918234
 20
7.4258704859
 30
0.0
 10
12.8611595828
 20
7.4263544648
 30
0.0
 10
12.8617657373
 20
7.4271478381
 30
0.0
 10
12.8626819512
 20
7.4283156464
 30
0.0
 10
12.8640169589
 20
7.4298915042
 30
0.0
 10
12.865697172
 20
7.4316671097
 30
0.0
 10
12.8669941122
 20
7.4328527192
 30
0.0
 10
12.867714692
 20
7.4334573575
 30
0.0
  0
SPLINE
  5
438
100
AcDbEntity
  8
0
100
AcDbSpline
 62
7
  6
CONTINUOUS
 70
0
 71
3
 72
24
 73
20
 74
0
 42
0.0000001
 43
0.0000001
 44
0.0000000001
 40
0.0
 40
0.0
 40
0.0
 40
0.0
 40
0.1860496571
 40
0.3664372472
 40
0.4521865186
 40
0.5338097746
 40
0.6105156723
 40
0.6815829556
 40
0.746373115
 40
0.8043420795
 40
0.8550521432
 40
0.8981973926
 40
0.9336606279
 40
0.9485658241
 40
0.9616641962
 40
0.9730815509
 40
0.9830295752
 40
0.9918401075
 40
1.0
 40
1.0
 40
1.0
 40
1.0
 10
8.7547494857
 20
11.2349476281
 30
0.0
 10
8.756179539
 20
11.2343075419
 30
0.0
 10
8.7590200338
 20
11.2330995937
 30
0.0
 10
8.7625789852
 20
11.2317421763
 30
0.0
 10
8.7653471508
 20
11.2307856189
 30
0.0
 10
8.7673047409
 20
11.2301583339
 30
0.0
 10
8.7691587347
 20
11.2296147971
 30
0.0
 10
8.7708902936
 20
11.2291598879
 30
0.0
 10
8.772482154
 20
11.2287973602
 30
0.0
 10
8.7739187452
 20
11.2285299394
 30
0.0
 10
8.7751866076
 20
11.2283590783
 30
0.0
 10
8.7762739581
 20
11.2282855643
 30
0.0
 10
8.7770633965
 20
11.2283049197
 30
0.0
 10
8.7775933586
 20
11.2283786231
 30
0.0
 10
8.777917013
 20
11.2284552533
 30
0.0
 10
8.7781900191
 20
11.2285564473
 30
0.0
 10
8.7784121848
 20
11.2286828369
 30
0.0
 10
8.7785824852
 20
11.2288356173
 30
0.0
 10
8.7786607662
 20
11.2289578837
 30
0.0
 10
8.7786888404
 20
11.2290206036
 30
0.0
  0
SPLINE
  5
439
100
AcDbEntity
  8
0
100
AcDbSpline
 62
7
  6
CONTINUOUS
 70
0
 71
3
 72
25
 73
21
 74
0
 42
0.0000001
 43
0.0000001
 44
0.0000000001
 40
0.0
 40
0.0
 40
0.0
 40
0.0
 40
0.1645516996
 40
0.3364152794
 40
0.4217378557
 40
0.5048986967
 40
0.5846516827
 40
0.6598291272
 40
0.729359426
 40
0.7922790328
 40
0.8477501854
 40
0.8950816295
 40
0.9155333743
 40
0.9337807784
 40
0.9498090588
 40
0.9636318228
 40
0.9753175742
 40
0.9850205488
 40
0.9930540615
 40
1.0
 40
1.0
 40
1.0
 40
1.0
 10
8.9128158608
 20
11.1641977474
 30
0.0
 10
8.9144940577
 20
11.1634465931
 30
0.0
 10
8.9179652083
 20
11.1619999803
 30
0.0
 10
8.9223883821
 20
11.1603708646
 30
0.0
 10
8.9259957177
 20
11.1591662977
 30
0.0
 10
8.9286446951
 20
11.1583431829
 30
0.0
 10
8.9312022293
 20
11.1576099491
 30
0.0
 10
8.9336292982
 20
11.1569767526
 30
0.0
 10
8.9358894503
 20
11.1564520385
 30
0.0
 10
8.937949326
 20
11.156042383
 30
0.0
 10
8.939778772
 20
11.1557528569
 30
0.0
 10
8.9411492691
 20
11.1556070095
 30
0.0
 10
8.9421096796
 20
11.1555604824
 30
0.0
 10
8.9427214517
 20
11.1555592522
 30
0.0
 10
8.94325842
 20
11.1555896181
 30
0.0
 10
8.9437189951
 20
11.1556515455
 30
0.0
 10
8.9441022417
 20
11.1557447884
 30
0.0
 10
8.9444080794
 20
11.1558700645
 30
0.0
 10
8.9446368926
 20
11.1560295764
 30
0.0
 10
8.9447383259
 20
11.1561683782
 30
0.0
 10
8.9447700289
 20
11.1562392189
 30
0.0
  0
SPLINE
  5
43A
100
AcDbEntity
  8
0
100
AcDbSpline
 62
7
  6
CONTINUOUS
 70
0
 71
3
 72
28
 73
24
 74
0
 42
0.0000001
 43
0.0000001
 44
0.0000000001
 40
0.0
 40
0.0
 40
0.0
 40
0.0
 40
0.064040557
 40
0.1356149076
 40
0.2131299274
 40
0.2948526376
 40
0.4636643774
 40
0.6276069172
 40
0.7034657224
 40
0.7731595317
 40
0.8352891681
 40
0.86312622
 40
0.8886237064
 40
0.9116611278
 40
0.9321309316
 40
0.9499501977
 40
0.9650597816
 40
0.9774465095
 40
0.9871685277
 40
0.9910977117
 40
0.9944723652
 40
0.9973889026
 40
1.0
 40
1.0
 40
1.0
 40
1.0
 10
9.0466061655
 20
11.1043137392
 30
0.0
 10
9.0473926536
 20
11.1039617103
 30
0.0
 10
9.0490733512
 20
11.103250082
 30
0.0
 10
9.0517459091
 20
11.1022095132
 30
0.0
 10
9.0546665624
 20
11.1011529244
 30
0.0
 10
9.0588481533
 20
11.0997388352
 30
0.0
 10
9.0641810396
 20
11.0981030462
 30
0.0
 10
9.0694908035
 20
11.096671815
 30
0.0
 10
9.0735424888
 20
11.0957086082
 30
0.0
 10
9.0762752524
 20
11.0951237165
 30
0.0
 10
9.0783876741
 20
11.0947307593
 30
0.0
 10
9.0799223822
 20
11.0944886793
 30
0.0
 10
9.080940685
 20
11.0943500839
 30
0.0
 10
9.0818636774
 20
11.0942482856
 30
0.0
 10
9.0826865039
 20
11.0941838629
 30
0.0
 10
9.0834047135
 20
11.094157034
 30
0.0
 10
9.0840148721
 20
11.0941677756
 30
0.0
 10
9.0845137764
 20
11.0942158701
 30
0.0
 10
9.0848579677
 20
11.0942907081
 30
0.0
 10
9.0850712583
 20
11.0943758445
 30
0.0
 10
9.0851907951
 20
11.0944451562
 30
0.0
 10
9.0852813564
 20
11.094525045
 30
0.0
 10
9.0853229147
 20
11.0945882242
 30
0.0
 10
9.0853372701
 20
11.0946202903
 30
0.0
  0
SPLINE
  5
43B
100
AcDbEntity
  8
0
100
AcDbSpline
 62
7
  6
CONTINUOUS
 70
0
 71
3
 72
20
 73
16
 74
0
 42
0.0000001
 43
0.0000001
 44
0.0000000001
 40
0.0
 40
0.0
 40
0.0
 40
0.0
 40
0.0353553055
 40
0.0794769881
 40
0.1315597337
 40
0.1906352344
 40
0.2556024042
 40
0.3252665527
 40
0.4736041424
 40
0.6252536097
 40
0.7698762918
 40
0.8364657188
 40
0.8977044093
 40
0.9525354246
 40
1.0
 40
1.0
 40
1.0
 40
1.0
 10
9.1383478098
 20
11.0632505442
 30
0.0
 10
9.1387851331
 20
11.0630548
 30
0.0
 10
9.1397824548
 20
11.0626468033
 30
0.0
 10
9.1414546035
 20
11.0620278685
 30
0.0
 10
9.1434451229
 20
11.0613446274
 30
0.0
 10
9.1457161227
 20
11.0606098129
 30
0.0
 10
9.1482249342
 20
11.0598368965
 30
0.0
 10
9.151902791
 20
11.0587509257
 30
0.0
 10
9.1567286838
 20
11.0574059801
 30
0.0
 10
9.1625592811
 20
11.0558856826
 30
0.0
 10
9.1673377805
 20
11.054723605
 30
0.0
 10
9.1709382187
 20
11.0539051652
 30
0.0
 10
9.1733582582
 20
11.0533843268
 30
0.0
 10
9.1755312584
 20
11.0529484996
 30
0.0
 10
9.1768953395
 20
11.0527005172
 30
0.0
 10
9.1775297465
 20
11.0525943108
 30
0.0
  0
SPLINE
  5
43C
100
AcDbEntity
  8
0
100
AcDbSpline
 62
7
  6
CONTINUOUS
 70
0
 71
3
 72
16
 73
12
 74
0
 42
0.0000001
 43
0.0000001
 44
0.0000000001
 40
0.0
 40
0.0
 40
0.0
 40
0.0
 40
0.4102208392
 40
0.5764251779
 40
0.7155082905
 40
0.8268517425
 40
0.8720611433
 40
0.9103239071
 40
0.9417654199
 40
0.9666920813
 40
1.0
 40
1.0
 40
1.0
 40
1.0
 10
9.1775297465
 20
11.0525943108
 30
0.0
 10
9.1781040872
 20
11.0524981601
 30
0.0
 10
9.1789129202
 20
11.0523724362
 30
0.0
 10
9.1799218141
 20
11.0522538717
 30
0.0
 10
9.180511309
 20
11.0522044493
 30
0.0
 10
9.1809309793
 20
11.0521892374
 30
0.0
 10
9.1812076502
 20
11.0521971666
 30
0.0
 10
9.1813700218
 20
11.0522109166
 30
0.0
 10
9.1815035091
 20
11.0522335231
 30
0.0
 10
9.181623555
 20
11.0522683654
 30
0.0
 10
9.1817031516
 20
11.052316382
 30
0.0
 10
9.1817224508
 20
11.0523595467
 30
0.0
  0
SPLINE
  5
43D
100
AcDbEntity
  8
0
100
AcDbSpline
 62
7
  6
CONTINUOUS
 70
0
 71
3
 72
49
 73
45
 74
0
 42
0.0000001
 43
0.0000001
 44
0.0000000001
 40
0.0
 40
0.0
 40
0.0
 40
0.0
 40
0.0017704956
 40
0.0047176746
 40
0.0088364972
 40
0.014118102
 40
0.0205475619
 40
0.0281086792
 40
0.0465459864
 40
0.0692375501
 40
0.0959490425
 40
0.1264099453
 40
0.1603159795
 40
0.1973337477
 40
0.2371068869
 40
0.3233976288
 40
0.4160027321
 40
0.5115817065
 40
0.6067242401
 40
0.6530672216
 40
0.6980311371
 40
0.7412069873
 40
0.7821969218
 40
0.8206170356
 40
0.8561038766
 40
0.8883155482
 40
0.9169355378
 40
0.9298092179
 40
0.9416804026
 40
0.9525198549
 40
0.9623002309
 40
0.9709949952
 40
0.9785827653
 40
0.985044263
 40
0.9903612673
 40
0.9925865392
 40
0.9945212513
 40
0.99616415
 40
0.9975140605
 40
0.9985701048
 40
0.9993326139
 40
0.9998036758
 40
0.9999329059
 40
1.0
 40
1.0
 40
1.0
 40
1.0
 10
9.175853912
 20
11.046462962
 30
0.0
 10
9.1758790601
 20
11.0464517058
 30
0.0
 10
9.175948545
 20
11.0464275773
 30
0.0
 10
9.1760794941
 20
11.0463858279
 30
0.0
 10
9.1762638136
 20
11.0463313672
 30
0.0
 10
9.1765007122
 20
11.0462638565
 30
0.0
 10
9.1767897404
 20
11.046183767
 30
0.0
 10
9.1772767057
 20
11.0460513853
 30
0.0
 10
9.1780090007
 20
11.0458567655
 30
0.0
 10
9.1790304209
 20
11.0455898232
 30
0.0
 10
9.1802337555
 20
11.0452789695
 30
0.0
 10
9.1816067454
 20
11.0449271278
 30
0.0
 10
9.1831356409
 20
11.0445375876
 30
0.0
 10
9.1848053862
 20
11.0441139211
 30
0.0
 10
9.1872657443
 20
11.0434915222
 30
0.0
 10
9.1905653605
 20
11.0426594721
 30
0.0
 10
9.1947075279
 20
11.0416169293
 30
0.0
 10
9.1989834957
 20
11.0405416226
 30
0.0
 10
9.2025613914
 20
11.0396423564
 30
0.0
 10
9.2053755081
 20
11.0389356032
 30
0.0
 10
9.2074053762
 20
11.0384262102
 30
0.0
 10
9.2093545793
 20
11.0379376249
 30
0.0
 10
9.2112051856
 20
11.0374745235
 30
0.0
 10
9.212939955
 20
11.0370414273
 30
0.0
 10
9.2145424926
 20
11.03664265
 30
0.0
 10
9.2159974191
 20
11.0362822476
 30
0.0
 10
9.2171111716
 20
11.0360081013
 30
0.0
 10
9.2179178868
 20
11.0358109392
 30
0.0
 10
9.2184559858
 20
11.0356801735
 30
0.0
 10
9.2189474982
 20
11.0355615582
 30
0.0
 10
9.2193911699
 20
11.035455417
 30
0.0
 10
9.2197858653
 20
11.0353620462
 30
0.0
 10
9.2201305653
 20
11.0352816948
 30
0.0
 10
9.2204243756
 20
11.0352145829
 30
0.0
 10
9.2206371291
 20
11.0351673798
 30
0.0
 10
9.2207813556
 20
11.0351365596
 30
0.0
 10
9.2208697836
 20
11.0351182685
 30
0.0
 10
9.2209450244
 20
11.0351033927
 30
0.0
 10
9.2210069454
 20
11.0350919438
 30
0.0
 10
9.2210556972
 20
11.035083879
 30
0.0
 10
9.2210907908
 20
11.0350791993
 30
0.0
 10
9.2211123801
 20
11.0350776223
 30
0.0
 10
9.2211223686
 20
11.0350783768
 30
0.0
 10
9.2211256523
 20
11.0350796401
 30
0.0
 10
9.2211260838
 20
11.0350805909
 30
0.0
  0
LINE
  5
43E
100
AcDbEntity
  8
0
100
AcDbLine
 62
7
  6
CONTINUOUS
 10
8.3909720663
 20
11.3455782759
 11
8.3933344899
 21
11.3435603611
  0
SPLINE
  5
43F
100
AcDbEntity
  8
0
100
AcDbSpline
 62
7
  6
CONTINUOUS
 70
0
 71
3
 72
18
 73
14
 74
0
 42
0.0000001
 43
0.0000001
 44
0.0000000001
 40
0.0
 40
0.0
 40
0.0
 40
0.0
 40
0.0423057794
 40
0.0925961115
 40
0.2133152123
 40
0.3535693778
 40
0.5036748389
 40
0.6533957227
 40
0.7924210851
 40
0.8548037958
 40
0.9108774662
 40
0.9595871202
 40
1.0
 40
1.0
 40
1.0
 40
1.0
 10
8.3933344899
 20
11.3435603611
 30
0.0
 10
8.3937962167
 20
11.3432147168
 30
0.0
 10
8.3948136176
 20
11.3424672866
 30
0.0
 10
8.3971753106
 20
11.3407701839
 30
0.0
 10
8.4006496762
 20
11.3383334719
 30
0.0
 10
8.405265086
 20
11.3351542769
 30
0.0
 10
8.4102285334
 20
11.3317835402
 30
0.0
 10
8.415199015
 20
11.3284532114
 30
0.0
 10
8.4191954717
 20
11.3258178784
 30
0.0
 10
8.4221422946
 20
11.3239103133
 30
0.0
 10
8.4240643586
 20
11.3226856586
 30
0.0
 10
8.4257440394
 20
11.3216381706
 30
0.0
 10
8.4267837745
 20
11.321009313
 30
0.0
 10
8.427258644
 20
11.3207299244
 30
0.0
  0
LINE
  5
440
100
AcDbEntity
  8
0
100
AcDbLine
 62
7
  6
CONTINUOUS
 10
8.427258644
 20
11.3207299244
 11
8.4292196142
 21
11.3196632664
  0
LINE
  5
441
100
AcDbEntity
  8
0
100
AcDbLine
 62
7
  6
CONTINUOUS
 10
8.4292196142
 20
11.3196632664
 11
8.4297172068
 21
11.3195447216
  0
SPLINE
  5
442
100
AcDbEntity
  8
0
100
AcDbSpline
 62
7
  6
CONTINUOUS
 70
0
 71
3
 72
19
 73
15
 74
0
 42
0.0000001
 43
0.0000001
 44
0.0000000001
 40
0.0
 40
0.0
 40
0.0
 40
0.0
 40
0.2144605628
 40
0.4046142081
 40
0.5688096979
 40
0.7060144083
 40
0.7643227981
 40
0.8157488528
 40
0.8603930253
 40
0.8984635914
 40
0.9303697768
 40
0.9568798423
 40
0.9793544207
 40
1.0
 40
1.0
 40
1.0
 40
1.0
 10
8.5028035266
 20
11.2867273999
 30
0.0
 10
8.5032474955
 20
11.2865286812
 30
0.0
 10
8.5040897809
 20
11.2861640279
 30
0.0
 10
8.5052897162
 20
11.2856893803
 30
0.0
 10
8.5063428143
 20
11.2853223879
 30
0.0
 10
8.5071276714
 20
11.2850968482
 30
0.0
 10
8.5076751461
 20
11.284977742
 30
0.0
 10
8.5080210005
 20
11.2849217667
 30
0.0
 10
8.5083242819
 20
11.2848939604
 30
0.0
 10
8.5085847513
 20
11.2848942487
 30
0.0
 10
8.5088025658
 20
11.2849226936
 30
0.0
 10
8.5089784462
 20
11.2849799356
 30
0.0
 10
8.5091122819
 20
11.2850686759
 30
0.0
 10
8.509170196
 20
11.2851509429
 30
0.0
 10
8.5091893261
 20
11.2851936827
 30
0.0
  0
SPLINE
  5
443
100
AcDbEntity
  8
0
100
AcDbSpline
 62
7
  6
CONTINUOUS
 70
0
 71
3
 72
22
 73
18
 74
0
 42
0.0000001
 43
0.0000001
 44
0.0000000001
 40
0.0
 40
0.0
 40
0.0
 40
0.0
 40
0.1990082255
 40
0.3840560553
 40
0.5502325722
 40
0.6249066943
 40
0.6933644898
 40
0.7552371792
 40
0.8102341541
 40
0.8581546669
 40
0.8989302247
 40
0.9326745249
 40
0.9598283275
 40
0.9712603424
 40
0.9815345514
 40
0.9909743348
 40
1.0
 40
1.0
 40
1.0
 40
1.0
 10
8.6385423925
 20
11.2259712235
 30
0.0
 10
8.6396471785
 20
11.2254767257
 30
0.0
 10
8.6417944856
 20
11.2245558377
 30
0.0
 10
8.6449160879
 20
11.2233474479
 30
0.0
 10
8.6473697897
 20
11.2225135918
 30
0.0
 10
8.6491747303
 20
11.2219822793
 30
0.0
 10
8.6503815471
 20
11.2216677944
 30
0.0
 10
8.6514824357
 20
11.2214242639
 30
0.0
 10
8.6524703699
 20
11.2212526161
 30
0.0
 10
8.6533392501
 20
11.2211532182
 30
0.0
 10
8.6540845893
 20
11.2211257668
 30
0.0
 10
8.6547026699
 20
11.2211696439
 30
0.0
 10
8.6551346794
 20
11.2212707411
 30
0.0
 10
8.6554055206
 20
11.2213955449
 30
0.0
 10
8.6555631687
 20
11.2215024866
 30
0.0
 10
8.6556862708
 20
11.2216284325
 30
0.0
 10
8.6557447931
 20
11.2217257529
 30
0.0
 10
8.655767221
 20
11.2217758581
 30
0.0
  0
SPLINE
  5
444
100
AcDbEntity
  8
0
100
AcDbSpline
 62
7
  6
CONTINUOUS
 70
0
 71
3
 72
25
 73
21
 74
0
 42
0.0000001
 43
0.0000001
 44
0.0000000001
 40
0.0
 40
0.0
 40
0.0
 40
0.0
 40
0.1715739775
 40
0.346311141
 40
0.431822578
 40
0.5145261196
 40
0.5933217105
 40
0.6671867905
 40
0.73519177
 40
0.7965101651
 40
0.8504335864
 40
0.8963941218
 40
0.9162632449
 40
0.9340190471
 40
0.9496578499
 40
0.9632137117
 40
0.9747704689
 40
0.9845001645
 40
0.9927260196
 40
1.0
 40
1.0
 40
1.0
 40
1.0
 10
8.7951846536
 20
11.1558587705
 30
0.0
 10
8.7968131691
 20
11.1551298535
 30
0.0
 10
8.8001358079
 20
11.1537372803
 30
0.0
 10
8.8043471923
 20
11.1521749052
 30
0.0
 10
8.8077285643
 20
11.1510404365
 30
0.0
 10
8.8101812816
 20
11.1502766379
 30
0.0
 10
8.8125346061
 20
11.1496031643
 30
0.0
 10
8.8147563564
 20
11.1490280052
 30
0.0
 10
8.8168166435
 20
11.1485576619
 30
0.0
 10
8.8186882857
 20
11.1481970125
 30
0.0
 10
8.820346826
 20
11.1479497249
 30
0.0
 10
8.8215878412
 20
11.1478338606
 30
0.0
 10
8.8224569094
 20
11.1478069489
 30
0.0
 10
8.8230109865
 20
11.1478173529
 30
0.0
 10
8.8234980094
 20
11.1478571516
 30
0.0
 10
8.8239167509
 20
11.1479261786
 30
0.0
 10
8.8242665431
 20
11.1480243824
 30
0.0
 10
8.8245472619
 20
11.1481525629
 30
0.0
 10
8.8247587412
 20
11.1483126078
 30
0.0
 10
8.8248532107
 20
11.1484477917
 30
0.0
 10
8.8248841071
 20
11.1485168365
 30
0.0
  0
SPLINE
  5
445
100
AcDbEntity
  8
0
100
AcDbSpline
 62
7
  6
CONTINUOUS
 70
0
 71
3
 72
29
 73
25
 74
0
 42
0.0000001
 43
0.0000001
 44
0.0000000001
 40
0.0
 40
0.0
 40
0.0
 40
0.0
 40
0.0595471054
 40
0.1277401381
 40
0.2029488566
 40
0.2833617678
 40
0.4520987974
 40
0.5365278532
 40
0.6184525346
 40
0.6960625414
 40
0.7676586248
 40
0.8316786219
 40
0.8604051158
 40
0.8867309676
 40
0.910512782
 40
0.9316279173
 40
0.9499704243
 40
0.9654645591
 40
0.978069991
 40
0.9878191865
 40
0.9916758768
 40
0.9949158176
 40
0.9976352459
 40
1.0
 40
1.0
 40
1.0
 40
1.0
 10
8.9251261304
 20
11.0976974824
 30
0.0
 10
8.9258803749
 20
11.0973598856
 30
0.0
 10
8.9275156439
 20
11.096674193
 30
0.0
 10
8.9301465395
 20
11.0956681816
 30
0.0
 10
8.9330749576
 20
11.0946322902
 30
0.0
 10
8.9373494668
 20
11.0932210599
 30
0.0
 10
8.9417847001
 20
11.0918913745
 30
0.0
 10
8.9462696598
 20
11.090662493
 30
0.0
 10
8.9495492549
 20
11.0898214405
 30
0.0
 10
8.9526696775
 20
11.0890785082
 30
0.0
 10
8.9555612306
 20
11.088449429
 30
0.0
 10
8.9578007019
 20
11.0880164532
 30
0.0
 10
8.9594301048
 20
11.0877413043
 30
0.0
 10
8.9605120549
 20
11.0875788561
 30
0.0
 10
8.9614925695
 20
11.0874536914
 30
0.0
 10
8.9623659753
 20
11.0873665219
 30
0.0
 10
8.9631271771
 20
11.0873179429
 30
0.0
 10
8.9637720465
 20
11.0873078953
 30
0.0
 10
8.9642968104
 20
11.0873365956
 30
0.0
 10
8.964657562
 20
11.0873950273
 30
0.0
 10
8.9648801167
 20
11.0874683259
 30
0.0
 10
8.965002665
 20
11.0875292774
 30
0.0
 10
8.9650944474
 20
11.0876011653
 30
0.0
 10
8.9651357588
 20
11.087660256
 30
0.0
 10
8.9651491584
 20
11.087690212
 30
0.0
  0
LINE
  5
446
100
AcDbEntity
  8
0
100
AcDbLine
 62
7
  6
CONTINUOUS
 10
8.9888771132
 20
11.0691627961
 11
8.9905861831
 21
11.0685866814
  0
SPLINE
  5
447
100
AcDbEntity
  8
0
100
AcDbSpline
 62
7
  6
CONTINUOUS
 70
0
 71
3
 72
18
 73
14
 74
0
 42
0.0000001
 43
0.0000001
 44
0.0000000001
 40
0.0
 40
0.0
 40
0.0
 40
0.0
 40
0.0372308324
 40
0.0839629245
 40
0.1391674969
 40
0.2016554555
 40
0.3431378578
 40
0.4969934225
 40
0.6511811359
 40
0.7937012621
 40
0.9132508878
 40
0.961258077
 40
1.0
 40
1.0
 40
1.0
 40
1.0
 10
8.9905861831
 20
11.0685866814
 30
0.0
 10
8.9910903512
 20
11.0684345164
 30
0.0
 10
8.9922312633
 20
11.0681043683
 30
0.0
 10
8.9941281753
 20
11.0675781884
 30
0.0
 10
8.9963738763
 20
11.0669730412
 30
0.0
 10
8.9999184426
 20
11.0660371434
 30
0.0
 10
9.0048192919
 20
11.0647721138
 30
0.0
 10
9.0109825352
 20
11.0632082644
 30
0.0
 10
9.0171651376
 20
11.061661127
 30
0.0
 10
9.0228822963
 20
11.0602531915
 30
0.0
 10
9.0271467527
 20
11.0592273375
 30
0.0
 10
9.0299898758
 20
11.0585700539
 30
0.0
 10
9.0311878283
 20
11.0583041612
 30
0.0
 10
9.0317238266
 20
11.0581900769
 30
0.0
  0
LINE
  5
448
100
AcDbEntity
  8
0
100
AcDbLine
 62
7
  6
CONTINUOUS
 10
9.0317238266
 20
11.0581900769
 11
9.0339574693
 21
11.0578310033
  0
SPLINE
  5
449
100
AcDbEntity
  8
0
100
AcDbSpline
 62
7
  6
CONTINUOUS
 70
0
 71
3
 72
17
 73
13
 74
0
 42
0.0000001
 43
0.0000001
 44
0.0000000001
 40
0.0
 40
0.0
 40
0.0
 40
0.0
 40
0.0372276858
 40
0.0634517019
 40
0.0958387506
 40
0.1347560929
 40
0.1803806331
 40
0.291909488
 40
0.4303717131
 40
0.5951630792
 40
0.7854105556
 40
1.0
 40
1.0
 40
1.0
 40
1.0
 10
8.3081544903
 20
11.4431506082
 30
0.0
 10
8.3081300149
 20
11.4430959558
 30
0.0
 10
8.3081411067
 20
11.4429841049
 30
0.0
 10
8.3081979647
 20
11.4428426641
 30
0.0
 10
8.3082744494
 20
11.442704588
 30
0.0
 10
8.3083802604
 20
11.442549152
 30
0.0
 10
8.3085740102
 20
11.4422999765
 30
0.0
 10
8.3088931141
 20
11.4419468078
 30
0.0
 10
8.3093671441
 20
11.4414770388
 30
0.0
 10
8.3099523349
 20
11.4409404255
 30
0.0
 10
8.3106448815
 20
11.4403403525
 30
0.0
 10
8.3111462011
 20
11.4399246565
 30
0.0
 10
8.3114137114
 20
11.4397065149
 30
0.0
  0
SPLINE
  5
44A
100
AcDbEntity
  8
0
100
AcDbSpline
 62
7
  6
CONTINUOUS
 70
0
 71
3
 72
18
 73
14
 74
0
 42
0.0000001
 43
0.0000001
 44
0.0000000001
 40
0.0
 40
0.0
 40
0.0
 40
0.0
 40
0.0478943368
 40
0.1022510453
 40
0.2270430104
 40
0.3670737651
 40
0.5141656238
 40
0.6596037791
 40
0.7945250249
 40
0.8553614638
 40
0.9104541525
 40
0.9589239279
 40
1.0
 40
1.0
 40
1.0
 40
1.0
 10
8.3114137114
 20
11.4397065149
 30
0.0
 10
8.3118961747
 20
11.4393130898
 30
0.0
 10
8.3129384482
 20
11.4384881547
 30
0.0
 10
8.3152891457
 20
11.4367037186
 30
0.0
 10
8.3186549615
 20
11.4342771132
 30
0.0
 10
8.3230685025
 20
11.431245453
 30
0.0
 10
8.3277664349
 20
11.4281557317
 30
0.0
 10
8.3324691741
 20
11.4251962952
 30
0.0
 10
8.3362754343
 20
11.4229190024
 30
0.0
 10
8.339111209
 20
11.4213094339
 30
0.0
 10
8.3409885819
 20
11.4202884388
 30
0.0
 10
8.3426603729
 20
11.4194280583
 30
0.0
 10
8.3437111815
 20
11.4189267379
 30
0.0
 10
8.3441985062
 20
11.4187086133
 30
0.0
  0
SPLINE
  5
44B
100
AcDbEntity
  8
0
100
AcDbSpline
 62
7
  6
CONTINUOUS
 70
0
 71
3
 72
18
 73
14
 74
0
 42
0.0000001
 43
0.0000001
 44
0.0000000001
 40
0.0
 40
0.0
 40
0.0
 40
0.0
 40
0.0208671787
 40
0.0434398631
 40
0.0699169411
 40
0.1016930445
 40
0.139553017
 40
0.1839308976
 40
0.2930430281
 40
0.4297375359
 40
0.5937432947
 40
0.7842894147
 40
1.0
 40
1.0
 40
1.0
 40
1.0
 10
8.9206271493
 20
11.1008173162
 30
0.0
 10
8.9206110216
 20
11.1007812828
 30
0.0
 10
8.9205915669
 20
11.1006990854
 30
0.0
 10
8.9206096626
 20
11.1005658326
 30
0.0
 10
8.9206706812
 20
11.1004242303
 30
0.0
 10
8.9207728948
 20
11.100272995
 30
0.0
 10
8.9209161355
 20
11.1001111528
 30
0.0
 10
8.9211808464
 20
11.0998636513
 30
0.0
 10
8.9216212858
 20
11.0995337318
 30
0.0
 10
8.9222776189
 20
11.0991203205
 30
0.0
 10
8.9230911092
 20
11.0986700493
 30
0.0
 10
8.924055837
 20
11.098186661
 30
0.0
 10
8.9247536445
 20
11.0978642056
 30
0.0
 10
8.9251261304
 20
11.0976974824
 30
0.0
  0
LINE
  5
44C
100
AcDbEntity
  8
0
100
AcDbLine
 62
7
  6
CONTINUOUS
 10
8.2510175371
 20
11.4692481546
 11
8.2538385618
 21
11.4669817465
  0
SPLINE
  5
44D
100
AcDbEntity
  8
0
100
AcDbSpline
 62
7
  6
CONTINUOUS
 70
0
 71
3
 72
17
 73
13
 74
0
 42
0.0000001
 43
0.0000001
 44
0.0000000001
 40
0.0
 40
0.0
 40
0.0
 40
0.0
 40
0.0451244097
 40
0.0979945112
 40
0.2229591856
 40
0.365980542
 40
0.5171562271
 40
0.6661290406
 40
0.8025666302
 40
0.9166958486
 40
0.9626615832
 40
1.0
 40
1.0
 40
1.0
 40
1.0
 10
8.2538385618
 20
11.4669817465
 30
0.0
 10
8.2543356599
 20
11.466619671
 30
0.0
 10
8.2554199896
 20
11.4658399675
 30
0.0
 10
8.2579002312
 20
11.4640844743
 30
0.0
 10
8.2614905548
 20
11.461588117
 30
0.0
 10
8.2662020479
 20
11.4583576533
 30
0.0
 10
8.2712014851
 20
11.4549686839
 30
0.0
 10
8.2761436983
 20
11.4516553303
 30
0.0
 10
8.2806853744
 20
11.4486514362
 30
0.0
 10
8.28407516
 20
11.4464508013
 30
0.0
 10
8.286350321
 20
11.4450141728
 30
0.0
 10
8.2873174524
 20
11.4444194041
 30
0.0
 10
8.2877538437
 20
11.4441576545
 30
0.0
  0
LINE
  5
44E
100
AcDbEntity
  8
0
100
AcDbLine
 62
7
  6
CONTINUOUS
 10
8.2877538437
 20
11.4441576545
 11
8.289441917
 21
11.4432174448
  0
ENDSEC
  0
SECTION
  2
OBJECTS
  0
DICTIONARY
  5
C
100
AcDbDictionary
280
0
281
1
  3
ACAD_GROUP
350
D
  3
ACAD_MLINESTYLE
350
17
  3
ACAD_LAYOUT
350
1A
  3
ACAD_PLOTSETTINGS
350
19
  3
ACAD_PLOTSTYLENAME
350
E
  0
DICTIONARY
  5
D
102
{ACAD_REACTORS
330
C
102
}
100
AcDbDictionary
280
0
281
1
  0
ACDBDICTIONARYWDFLT
  5
E
102
{ACAD_REACTORS
330
C
102
}
100
AcDbDictionary
281
1
  3
Normal
350
F
100
AcDbDictionaryWithDefault
340
F
  0
DICTIONARY
  5
17
102
{ACAD_REACTORS
330
C
102
}
100
AcDbDictionary
280
0
281
1
  3
Standard
350
18
  0
DICTIONARY
  5
19
102
{ACAD_REACTORS
330
C
102
}
100
AcDbDictionary
281
1
  0
DICTIONARY
  5
1A
102
{ACAD_REACTORS
330
C
102
}
100
AcDbDictionary
281
1
  3
Model
350
44F
  3
Layout1
350
450
  0
ACDBPLACEHOLDER
  5
F
102
{ACAD_REACTORS
330
E
102
}
  0
MLINESTYLE
  5
18
102
{ACAD_REACTORS
330
17
102
}
100
AcDbMlineStyle
  2
STANDARD
 70
0
  3

 62
256
 51
90.0
 52
90.0
 71
2
 49
0.5
 62
256
  6
BYLAYER
 49
-0.5
 62
256
  6
BYLAYER
  0
LAYOUT
  5
44F
102
{ACAD_REACTORS
330
1A
102
}
100
AcDbPlotSettings
  1

  2
none_device
  4
ANSI_C_(22.00_x_17.00_Inches)
  6

 40
0.0
 41
0.0
 42
0.0
 43
0.0
 44
558.8
 45
431.8
 46
0.0
 47
0.0
 48
0.0
 49
0.0
140
0.0
141
0.0
142
1.0
143
1.0
 70
1024
 72
0
 73
0
 74
0
  7

 75
0
147
1.0
148
0.0
149
0.0
100
AcDbLayout
  1
Model
 70
0
 71
0
 10
0.0
 20
0.0
 11
22.0
 21
17.0
 12
0.0
 22
0.0
 32
0.0
 14
0.0
 24
0.0
 34
0.0
 15
0.0
 25
0.0
 35
0.0
146
0.0
 13
0.0
 23
0.0
 33
0.0
 16
1.0
 26
0.0
 36
0.0
 17
0.0
 27
1.0
 37
0.0
 76
0
330
205
345
0
346
0
  0
LAYOUT
  5
450
102
{ACAD_REACTORS
330
1A
102
}
100
AcDbPlotSettings
  1

  2
none_device
  4
ANSI_C_(22.00_x_17.00_Inches)
  6

 40
0.0
 41
0.0
 42
0.0
 43
0.0
 44
558.8
 45
431.8
 46
0.0
 47
0.0
 48
0.0
 49
0.0
140
0.0
141
0.0
142
1.0
143
1.0
 70
0
 72
0
 73
0
 74
0
  7

 75
0
147
1.0
148
0.0
149
0.0
100
AcDbLayout
  1
Layout1
 70
0
 71
1
 10
0.0
 20
0.0
 11
22.0
 21
17.0
 12
0.0
 22
0.0
 32
0.0
 14
0.0
 24
0.0
 34
0.0
 15
0.0
 25
0.0
 35
0.0
146
0.0
 13
0.0
 23
0.0
 33
0.0
 16
1.0
 26
0.0
 36
0.0
 17
0.0
 27
1.0
 37
0.0
 76
0
330
206
345
0
346
0
  0
ENDSEC
  0
EOF
